  0
SECTION
  2
HEADER
  9
$ACADVER
  1
AC1015
  9
$ACADMAINTVER
 70
    18
  9
$DWGCODEPAGE
  3
ANSI_1252
  9
$INSBASE
 10
0.0
 20
0.0
 30
0.0
  9
$EXTMIN
 10
-223.4518425439623
 20
-330.1777493266595
 30
-0.0015258207003583
  9
$EXTMAX
 10
287.1286018974249
 20
281.5780798971864
 30
0.0000000349246037
  9
$LIMMIN
 10
0.0
 20
0.0
  9
$LIMMAX
 10
420.0
 20
297.0
  9
$ORTHOMODE
 70
     0
  9
$REGENMODE
 70
     1
  9
$FILLMODE
 70
     1
  9
$QTEXTMODE
 70
     0
  9
$MIRRTEXT
 70
     0
  9
$LTSCALE
 40
1.0
  9
$ATTMODE
 70
     1
  9
$TEXTSIZE
 40
2.5
  9
$TRACEWID
 40
1.0
  9
$TEXTSTYLE
  7
Standard
  9
$CLAYER
  8
0
  9
$CELTYPE
  6
ByLayer
  9
$CECOLOR
 62
   256
  9
$CELTSCALE
 40
1.0
  9
$DISPSILH
 70
     0
  9
$DIMSCALE
 40
1.0
  9
$DIMASZ
 40
2.5
  9
$DIMEXO
 40
0.625
  9
$DIMDLI
 40
3.75
  9
$DIMRND
 40
0.0
  9
$DIMDLE
 40
0.0
  9
$DIMEXE
 40
1.25
  9
$DIMTP
 40
0.0
  9
$DIMTM
 40
0.0
  9
$DIMTXT
 40
2.5
  9
$DIMCEN
 40
2.5
  9
$DIMTSZ
 40
0.0
  9
$DIMTOL
 70
     0
  9
$DIMLIM
 70
     0
  9
$DIMTIH
 70
     0
  9
$DIMTOH
 70
     0
  9
$DIMSE1
 70
     0
  9
$DIMSE2
 70
     0
  9
$DIMTAD
 70
     1
  9
$DIMZIN
 70
     8
  9
$DIMBLK
  1

  9
$DIMASO
 70
     1
  9
$DIMSHO
 70
     1
  9
$DIMPOST
  1

  9
$DIMAPOST
  1

  9
$DIMALT
 70
     0
  9
$DIMALTD
 70
     3
  9
$DIMALTF
 40
0.03937007874016
  9
$DIMLFAC
 40
1.0
  9
$DIMTOFL
 70
     1
  9
$DIMTVP
 40
0.0
  9
$DIMTIX
 70
     0
  9
$DIMSOXD
 70
     0
  9
$DIMSAH
 70
     0
  9
$DIMBLK1
  1

  9
$DIMBLK2
  1

  9
$DIMSTYLE
  2
ISO-25
  9
$DIMCLRD
 70
     0
  9
$DIMCLRE
 70
     0
  9
$DIMCLRT
 70
     0
  9
$DIMTFAC
 40
1.0
  9
$DIMGAP
 40
0.625
  9
$DIMJUST
 70
     0
  9
$DIMSD1
 70
     0
  9
$DIMSD2
 70
     0
  9
$DIMTOLJ
 70
     0
  9
$DIMTZIN
 70
     8
  9
$DIMALTZ
 70
     0
  9
$DIMALTTZ
 70
     0
  9
$DIMUPT
 70
     0
  9
$DIMDEC
 70
     2
  9
$DIMTDEC
 70
     2
  9
$DIMALTU
 70
     2
  9
$DIMALTTD
 70
     3
  9
$DIMTXSTY
  7
Standard
  9
$DIMAUNIT
 70
     0
  9
$DIMADEC
 70
     0
  9
$DIMALTRND
 40
0.0
  9
$DIMAZIN
 70
     0
  9
$DIMDSEP
 70
    44
  9
$DIMATFIT
 70
     3
  9
$DIMFRAC
 70
     0
  9
$DIMLDRBLK
  1

  9
$DIMLUNIT
 70
     2
  9
$DIMLWD
 70
    -2
  9
$DIMLWE
 70
    -2
  9
$DIMTMOVE
 70
     0
  9
$LUNITS
 70
     2
  9
$LUPREC
 70
     4
  9
$SKETCHINC
 40
1.0
  9
$FILLETRAD
 40
0.0
  9
$AUNITS
 70
     0
  9
$AUPREC
 70
     0
  9
$MENU
  1
.
  9
$ELEVATION
 40
0.0
  9
$PELEVATION
 40
0.0
  9
$THICKNESS
 40
0.0
  9
$LIMCHECK
 70
     0
  9
$CHAMFERA
 40
0.0
  9
$CHAMFERB
 40
0.0
  9
$CHAMFERC
 40
0.0
  9
$CHAMFERD
 40
0.0
  9
$SKPOLY
 70
     0
  9
$TDCREATE
 40
2460719.406504630
  9
$TDUCREATE
 40
2460719.114837963
  9
$TDUPDATE
 40
2460719.415196759
  9
$TDUUPDATE
 40
2460719.123530093
  9
$TDINDWG
 40
0.0025925926
  9
$TDUSRTIMER
 40
0.0025925926
  9
$USRTIMER
 70
     1
  9
$ANGBASE
 50
0.0
  9
$ANGDIR
 70
     0
  9
$PDMODE
 70
     0
  9
$PDSIZE
 40
0.0
  9
$PLINEWID
 40
0.0
  9
$SPLFRAME
 70
     0
  9
$SPLINETYPE
 70
     6
  9
$SPLINESEGS
 70
     8
  9
$HANDSEED
  5
FA6D
  9
$SURFTAB1
 70
     6
  9
$SURFTAB2
 70
     6
  9
$SURFTYPE
 70
     6
  9
$SURFU
 70
     6
  9
$SURFV
 70
     6
  9
$UCSBASE
  2

  9
$UCSNAME
  2

  9
$UCSORG
 10
0.0
 20
0.0
 30
0.0
  9
$UCSXDIR
 10
1.0
 20
0.0
 30
0.0
  9
$UCSYDIR
 10
0.0
 20
1.0
 30
0.0
  9
$UCSORTHOREF
  2

  9
$UCSORTHOVIEW
 70
     0
  9
$UCSORGTOP
 10
0.0
 20
0.0
 30
0.0
  9
$UCSORGBOTTOM
 10
0.0
 20
0.0
 30
0.0
  9
$UCSORGLEFT
 10
0.0
 20
0.0
 30
0.0
  9
$UCSORGRIGHT
 10
0.0
 20
0.0
 30
0.0
  9
$UCSORGFRONT
 10
0.0
 20
0.0
 30
0.0
  9
$UCSORGBACK
 10
0.0
 20
0.0
 30
0.0
  9
$PUCSBASE
  2

  9
$PUCSNAME
  2

  9
$PUCSORG
 10
0.0
 20
0.0
 30
0.0
  9
$PUCSXDIR
 10
1.0
 20
0.0
 30
0.0
  9
$PUCSYDIR
 10
0.0
 20
1.0
 30
0.0
  9
$PUCSORTHOREF
  2

  9
$PUCSORTHOVIEW
 70
     0
  9
$PUCSORGTOP
 10
0.0
 20
0.0
 30
0.0
  9
$PUCSORGBOTTOM
 10
0.0
 20
0.0
 30
0.0
  9
$PUCSORGLEFT
 10
0.0
 20
0.0
 30
0.0
  9
$PUCSORGRIGHT
 10
0.0
 20
0.0
 30
0.0
  9
$PUCSORGFRONT
 10
0.0
 20
0.0
 30
0.0
  9
$PUCSORGBACK
 10
0.0
 20
0.0
 30
0.0
  9
$USERI1
 70
     0
  9
$USERI2
 70
     0
  9
$USERI3
 70
     0
  9
$USERI4
 70
     0
  9
$USERI5
 70
     0
  9
$USERR1
 40
0.0
  9
$USERR2
 40
0.0
  9
$USERR3
 40
0.0
  9
$USERR4
 40
0.0
  9
$USERR5
 40
0.0
  9
$WORLDVIEW
 70
     1
  9
$SHADEDGE
 70
     3
  9
$SHADEDIF
 70
    70
  9
$TILEMODE
 70
     1
  9
$MAXACTVP
 70
    48
  9
$PINSBASE
 10
0.0
 20
0.0
 30
0.0
  9
$PLIMCHECK
 70
     0
  9
$PEXTMIN
 10
0.0
 20
0.0
 30
0.0
  9
$PEXTMAX
 10
0.0
 20
0.0
 30
0.0
  9
$PLIMMIN
 10
0.0
 20
0.0
  9
$PLIMMAX
 10
12.0
 20
9.0
  9
$UNITMODE
 70
     0
  9
$VISRETAIN
 70
     1
  9
$PLINEGEN
 70
     0
  9
$PSLTSCALE
 70
     1
  9
$TREEDEPTH
 70
  3020
  9
$CMLSTYLE
  2
Standard
  9
$CMLJUST
 70
     0
  9
$CMLSCALE
 40
20.0
  9
$PROXYGRAPHICS
 70
     1
  9
$MEASUREMENT
 70
     1
  9
$CELWEIGHT
370
    -1
  9
$ENDCAPS
280
     0
  9
$JOINSTYLE
280
     0
  9
$LWDISPLAY
290
     0
  9
$INSUNITS
 70
     4
  9
$HYPERLINKBASE
  1

  9
$STYLESHEET
  1

  9
$XEDIT
290
     1
  9
$CEPSNTYPE
380
     0
  9
$PSTYLEMODE
290
     1
  9
$FINGERPRINTGUID
  2
{375C693C-302E-BC42-B92A-19F6C371B7B0}
  9
$VERSIONGUID
  2
{1AF94149-AEB3-0E47-96E6-5880EF394F56}
  9
$EXTNAMES
290
     1
  9
$PSVPSCALE
 40
0.0
  9
$OLESTARTUP
290
     0
  0
ENDSEC
  0
SECTION
  2
CLASSES
  0
CLASS
  1
ACDBDICTIONARYWDFLT
  2
AcDbDictionaryWithDefault
  3
ObjectDBX Classes
 90
        0
280
     0
281
     0
  0
CLASS
  1
ACDBPLACEHOLDER
  2
AcDbPlaceHolder
  3
ObjectDBX Classes
 90
        0
280
     0
281
     0
  0
CLASS
  1
LAYOUT
  2
AcDbLayout
  3
ObjectDBX Classes
 90
        0
280
     0
281
     0
  0
CLASS
  1
DICTIONARYVAR
  2
AcDbDictionaryVar
  3
ObjectDBX Classes
 90
        0
280
     0
281
     0
  0
CLASS
  1
TABLESTYLE
  2
AcDbTableStyle
  3
ObjectDBX Classes
 90
     4095
280
     0
281
     0
  0
CLASS
  1
MATERIAL
  2
AcDbMaterial
  3
ObjectDBX Classes
 90
     1153
280
     0
281
     0
  0
CLASS
  1
VISUALSTYLE
  2
AcDbVisualStyle
  3
ObjectDBX Classes
 90
     4095
280
     0
281
     0
  0
CLASS
  1
SCALE
  2
AcDbScale
  3
ObjectDBX Classes
 90
     1153
280
     0
281
     0
  0
CLASS
  1
MLEADERSTYLE
  2
AcDbMLeaderStyle
  3
ACDB_MLEADERSTYLE_CLASS
 90
     4095
280
     0
281
     0
  0
CLASS
  1
CELLSTYLEMAP
  2
AcDbCellStyleMap
  3
ObjectDBX Classes
 90
     1152
280
     0
281
     0
  0
CLASS
  1
EXACXREFPANELOBJECT
  2
ExAcXREFPanelObject
  3
EXAC_ESW
 90
    33793
280
     0
281
     0
  0
CLASS
  1
NPOCOLLECTION
  2
AcDbImpNonPersistentObjectsCollection
  3
ObjectDBX Classes
 90
    33921
280
     0
281
     0
  0
CLASS
  1
LAYER_INDEX
  2
AcDbLayerIndex
  3
ObjectDBX Classes
 90
    32768
280
     0
281
     0
  0
CLASS
  1
SPATIAL_INDEX
  2
AcDbSpatialIndex
  3
ObjectDBX Classes
 90
    32768
280
     0
281
     0
  0
CLASS
  1
IDBUFFER
  2
AcDbIdBuffer
  3
ObjectDBX Classes
 90
    32768
280
     0
281
     0
  0
CLASS
  1
ACDBSECTIONVIEWSTYLE
  2
AcDbSectionViewStyle
  3
ObjectDBX Classes
 90
     1025
280
     0
281
     0
  0
CLASS
  1
ACDBDETAILVIEWSTYLE
  2
AcDbDetailViewStyle
  3
ObjectDBX Classes
 90
     1025
280
     0
281
     0
  0
CLASS
  1
XRECORD
  2
AcDbXrecord
  3
ObjectDBX Classes
 90
        0
280
     0
281
     0
  0
ENDSEC
  0
SECTION
  2
TABLES
  0
TABLE
  2
VPORT
  5
8
102
{ACAD_XDICTIONARY
360
F97B
102
}
330
0
100
AcDbSymbolTable
 70
     1
  0
VPORT
  5
EA
330
8
100
AcDbSymbolTableRecord
100
AcDbViewportTableRecord
  2
*Active
 70
     0
 10
0.0
 20
0.0
 11
1.0
 21
1.0
 12
31.83837967673137
 22
-24.29983471473657
 13
0.0
 23
0.0
 14
10.0
 24
10.0
 15
10.0
 25
10.0
 16
0.0
 26
0.0
 36
1.0
 17
0.0
 27
0.0
 37
0.0
 40
650.5468850377524
 41
0.9846153846153844
 42
50.0
 43
0.0
 44
0.0
 50
0.0
 51
0.0
 71
     0
 72
  1000
 73
     1
 74
     3
 75
     0
 76
     1
 77
     0
 78
     0
281
     0
 65
     1
110
0.0
120
0.0
130
0.0
111
1.0
121
0.0
131
0.0
112
0.0
122
1.0
132
0.0
 79
     0
146
0.0
1001
ACAD_NAV_VCDISPLAY
1070
     3
  0
ENDTAB
  0
TABLE
  2
LTYPE
  5
5
330
0
100
AcDbSymbolTable
 70
     1
  0
LTYPE
  5
14
330
5
100
AcDbSymbolTableRecord
100
AcDbLinetypeTableRecord
  2
ByBlock
 70
     0
  3

 72
    65
 73
     0
 40
0.0
  0
LTYPE
  5
15
330
5
100
AcDbSymbolTableRecord
100
AcDbLinetypeTableRecord
  2
ByLayer
 70
     0
  3

 72
    65
 73
     0
 40
0.0
  0
LTYPE
  5
16
330
5
100
AcDbSymbolTableRecord
100
AcDbLinetypeTableRecord
  2
Continuous
 70
     0
  3
Solid line
 72
    65
 73
     0
 40
0.0
  0
ENDTAB
  0
TABLE
  2
LAYER
  5
2
102
{ACAD_XDICTIONARY
360
1FF
102
}
330
0
100
AcDbSymbolTable
 70
     1
  0
LAYER
  5
10
102
{ACAD_XDICTIONARY
360
13C
102
}
330
2
100
AcDbSymbolTableRecord
100
AcDbLayerTableRecord
  2
0
 70
     0
 62
     7
  6
Continuous
370
    -3
390
F
  0
ENDTAB
  0
TABLE
  2
STYLE
  5
3
330
0
100
AcDbSymbolTable
 70
     1
  0
STYLE
  5
11
330
3
100
AcDbSymbolTableRecord
100
AcDbTextStyleTableRecord
  2
Standard
 70
     0
 40
0.0
 41
1.0
 50
0.0
 71
     0
 42
2.5
  3
arial.ttf
  4

1001
ACAD
1000
Arial
1071
       34
  0
ENDTAB
  0
TABLE
  2
VIEW
  5
6
330
0
100
AcDbSymbolTable
 70
     0
  0
ENDTAB
  0
TABLE
  2
UCS
  5
7
330
0
100
AcDbSymbolTable
 70
     0
  0
ENDTAB
  0
TABLE
  2
APPID
  5
9
330
0
100
AcDbSymbolTable
 70
     8
  0
APPID
  5
12
330
9
100
AcDbSymbolTableRecord
100
AcDbRegAppTableRecord
  2
ACAD
 70
     0
  0
APPID
  5
9E
330
9
100
AcDbSymbolTableRecord
100
AcDbRegAppTableRecord
  2
ACAD_PSEXT
 70
     0
  0
APPID
  5
133
330
9
100
AcDbSymbolTableRecord
100
AcDbRegAppTableRecord
  2
AcadAnnoPO
 70
     0
  0
APPID
  5
134
330
9
100
AcDbSymbolTableRecord
100
AcDbRegAppTableRecord
  2
AcadAnnotative
 70
     0
  0
APPID
  5
135
330
9
100
AcDbSymbolTableRecord
100
AcDbRegAppTableRecord
  2
ACAD_DSTYLE_DIMJAG
 70
     0
  0
APPID
  5
136
330
9
100
AcDbSymbolTableRecord
100
AcDbRegAppTableRecord
  2
ACAD_DSTYLE_DIMTALN
 70
     0
  0
APPID
  5
165
330
9
100
AcDbSymbolTableRecord
100
AcDbRegAppTableRecord
  2
ACAD_MLEADERVER
 70
     0
  0
APPID
  5
217
330
9
100
AcDbSymbolTableRecord
100
AcDbRegAppTableRecord
  2
ACAD_NAV_VCDISPLAY
 70
     0
  0
ENDTAB
  0
TABLE
  2
DIMSTYLE
  5
A
330
0
100
AcDbSymbolTable
 70
     1
100
AcDbDimStyleTable
 71
     0
  0
DIMSTYLE
105
27
330
A
100
AcDbSymbolTableRecord
100
AcDbDimStyleTableRecord
  2
ISO-25
 70
     0
 41
2.5
 42
0.625
 43
3.75
 44
1.25
 73
     0
 74
     0
 77
     1
 78
     8
140
2.5
141
2.5
143
0.03937007874016
147
0.625
171
     3
172
     1
271
     2
272
     2
274
     3
278
    44
283
     0
284
     8
340
11
  0
ENDTAB
  0
TABLE
  2
BLOCK_RECORD
  5
1
330
0
100
AcDbSymbolTable
 70
     7
  0
BLOCK_RECORD
  5
1F
102
{ACAD_XDICTIONARY
360
1CE
102
}
330
1
100
AcDbSymbolTableRecord
100
AcDbBlockTableRecord
  2
*Model_Space
340
22
  0
BLOCK_RECORD
  5
D2
102
{ACAD_XDICTIONARY
360
F92E
102
}
330
1
100
AcDbSymbolTableRecord
100
AcDbBlockTableRecord
  2
*Paper_Space
340
D3
  0
BLOCK_RECORD
  5
D6
102
{ACAD_XDICTIONARY
360
F930
102
}
330
1
100
AcDbSymbolTableRecord
100
AcDbBlockTableRecord
  2
*Paper_Space0
340
D7
  0
BLOCK_RECORD
  5
F6A9
330
1
100
AcDbSymbolTableRecord
100
AcDbBlockTableRecord
  2
SPR80_140-Front
340
0
102
{BLKREFS
331
F924
102
}
  0
BLOCK_RECORD
  5
F71B
330
1
100
AcDbSymbolTableRecord
100
AcDbBlockTableRecord
  2
SPR80_140-Left
340
0
102
{BLKREFS
331
F925
102
}
  0
BLOCK_RECORD
  5
F754
330
1
100
AcDbSymbolTableRecord
100
AcDbBlockTableRecord
  2
SPR80_140-Right
340
0
102
{BLKREFS
331
F926
102
}
  0
BLOCK_RECORD
  5
F78F
330
1
100
AcDbSymbolTableRecord
100
AcDbBlockTableRecord
  2
SPR80_140-Top
340
0
102
{BLKREFS
331
F927
102
}
  0
BLOCK_RECORD
  5
F7EB
330
1
100
AcDbSymbolTableRecord
100
AcDbBlockTableRecord
  2
SPR80_140-Bottom
340
0
102
{BLKREFS
331
F928
102
}
  0
BLOCK_RECORD
  5
F83B
330
1
100
AcDbSymbolTableRecord
100
AcDbBlockTableRecord
  2
SPR80_140-ISO
340
0
102
{BLKREFS
331
F929
102
}
  0
ENDTAB
  0
ENDSEC
  0
SECTION
  2
BLOCKS
  0
BLOCK
  5
20
330
1F
100
AcDbEntity
  8
0
100
AcDbBlockBegin
  2
*Model_Space
 70
     0
 10
0.0
 20
0.0
 30
0.0
  3
*Model_Space
  1

  0
ENDBLK
  5
21
330
1F
100
AcDbEntity
  8
0
100
AcDbBlockEnd
  0
BLOCK
  5
D4
330
D2
100
AcDbEntity
 67
     1
  8
0
100
AcDbBlockBegin
  2
*Paper_Space
 70
     0
 10
0.0
 20
0.0
 30
0.0
  3
*Paper_Space
  1

  0
ENDBLK
  5
D5
330
D2
100
AcDbEntity
 67
     1
  8
0
100
AcDbBlockEnd
  0
BLOCK
  5
D8
330
D6
100
AcDbEntity
 67
     1
  8
0
100
AcDbBlockBegin
  2
*Paper_Space0
 70
     0
 10
0.0
 20
0.0
 30
0.0
  3
*Paper_Space0
  1

  0
ENDBLK
  5
D9
330
D6
100
AcDbEntity
 67
     1
  8
0
100
AcDbBlockEnd
  0
BLOCK
  5
F6AA
330
F6A9
100
AcDbEntity
  8
0
100
AcDbBlockBegin
  2
SPR80_140-Front
 70
     0
 10
0.0
 20
0.0
 30
0.0
  3
SPR80_140-Front
  1

  0
LINE
  5
F6AC
330
F6A9
100
AcDbEntity
  8
0
100
AcDbLine
 10
82.527090561
 20
6.269999999999996
 30
0.0
 11
77.52709056100001
 21
1.269999999999996
 31
0.0
  0
LINE
  5
F6AD
330
F6A9
100
AcDbEntity
  8
0
100
AcDbLine
 10
-77.52709056100004
 20
1.269999999999996
 30
0.0
 11
-82.52709056100004
 21
6.269999999999997
 31
0.0
  0
LINE
  5
F6AE
330
F6A9
100
AcDbEntity
  8
0
100
AcDbLine
 10
-82.52709056100004
 20
72.26999999999998
 30
0.0
 11
-77.52709056100001
 21
77.26999999999998
 31
0.0
  0
LINE
  5
F6AF
330
F6A9
100
AcDbEntity
  8
0
100
AcDbLine
 10
77.52709056099998
 20
77.27000000000001
 30
0.0
 11
82.52709056099996
 21
72.27000000000001
 31
0.0
  0
LINE
  5
F6B0
330
F6A9
100
AcDbEntity
  8
0
100
AcDbLine
 10
82.52709056099996
 20
72.27000000000001
 30
0.0
 11
82.527090561
 21
6.269999999999997
 31
0.0
  0
LINE
  5
F6B1
330
F6A9
100
AcDbEntity
  8
0
100
AcDbLine
 10
-82.52709056100004
 20
6.269999999999997
 30
0.0
 11
-82.52709056100004
 21
72.26999999999998
 31
0.0
  0
LINE
  5
F6B2
330
F6A9
100
AcDbEntity
  8
0
100
AcDbLine
 10
36.5
 20
77.27000000000001
 30
0.0
 11
77.52709056099999
 21
77.27000000000001
 31
0.0
  0
LINE
  5
F6B3
330
F6A9
100
AcDbEntity
  8
0
100
AcDbLine
 10
-36.50000000000001
 20
1.269999999999987
 30
0.0
 11
-77.52709056100002
 21
1.269999999999996
 31
0.0
  0
LINE
  5
F6B4
330
F6A9
100
AcDbEntity
  8
0
100
AcDbLine
 10
77.52709056100001
 20
1.269999999999996
 30
0.0
 11
36.49999999999999
 21
1.269999999999987
 31
0.0
  0
ARC
  5
F6B5
330
F6A9
100
AcDbEntity
  8
0
100
AcDbCircle
 10
36.49999999999998
 20
78.77000000000001
 30
0.0
 40
1.5
100
AcDbArc
 50
90.00000000000067
 51
270.0000000000007
  0
LINE
  5
F6B6
330
F6A9
100
AcDbEntity
  8
0
100
AcDbLine
 10
-77.52709056100001
 20
77.26999999999998
 30
0.0
 11
-36.50000000000002
 21
77.26999999999998
 31
0.0
  0
ARC
  5
F6B7
330
F6A9
100
AcDbEntity
  8
0
100
AcDbCircle
 10
-36.50000000000002
 20
78.76999999999998
 30
0.0
 40
1.5
100
AcDbArc
 50
270.0
 51
90.0
  0
LINE
  5
F6B8
330
F6A9
100
AcDbEntity
  8
0
100
AcDbLine
 10
41.50000000000021
 20
80.26999999999999
 30
0.0
 11
41.50000000000026
 21
85.27000000000001
 31
0.0
  0
LINE
  5
F6B9
330
F6A9
100
AcDbEntity
  8
0
100
AcDbLine
 10
41.50000000000026
 20
85.27000000000001
 30
0.0
 11
40.00000000000024
 21
85.27000000000001
 31
0.0
  0
LINE
  5
F6BA
330
F6A9
100
AcDbEntity
  8
0
100
AcDbLine
 10
40.00000000000024
 20
85.27000000000001
 30
0.0
 11
40.00000000000021
 21
80.26999999999999
 31
0.0
  0
LINE
  5
F6BB
330
F6A9
100
AcDbEntity
  8
0
100
AcDbLine
 10
40.00000000000021
 20
80.26999999999999
 30
0.0
 11
41.50000000000021
 21
80.26999999999999
 31
0.0
  0
LINE
  5
F6BC
330
F6A9
100
AcDbEntity
  8
0
100
AcDbLine
 10
40.00000000000024
 20
135.67
 30
0.0
 11
41.50000000000026
 21
135.67
 31
0.0
  0
LINE
  5
F6BD
330
F6A9
100
AcDbEntity
  8
0
100
AcDbLine
 10
41.50000000000026
 20
135.67
 30
0.0
 11
41.50000000000021
 21
140.67
 31
0.0
  0
LINE
  5
F6BE
330
F6A9
100
AcDbEntity
  8
0
100
AcDbLine
 10
-41.5
 20
85.27000000000001
 30
0.0
 11
-41.5
 21
80.26999999999999
 31
0.0
  0
LINE
  5
F6BF
330
F6A9
100
AcDbEntity
  8
0
100
AcDbLine
 10
-41.5
 20
80.26999999999999
 30
0.0
 11
-40.0
 21
80.26999999999999
 31
0.0
  0
LINE
  5
F6C0
330
F6A9
100
AcDbEntity
  8
0
100
AcDbLine
 10
-40.0
 20
80.26999999999999
 30
0.0
 11
-40.0
 21
85.27000000000001
 31
0.0
  0
LINE
  5
F6C1
330
F6A9
100
AcDbEntity
  8
0
100
AcDbLine
 10
-40.0
 20
85.27000000000001
 30
0.0
 11
-41.5
 21
85.27000000000001
 31
0.0
  0
LINE
  5
F6C2
330
F6A9
100
AcDbEntity
  8
0
100
AcDbLine
 10
-41.5
 20
140.67
 30
0.0
 11
-41.5
 21
135.67
 31
0.0
  0
LINE
  5
F6C3
330
F6A9
100
AcDbEntity
  8
0
100
AcDbLine
 10
-41.5
 20
135.67
 30
0.0
 11
-40.0
 21
135.67
 31
0.0
  0
LINE
  5
F6C4
330
F6A9
100
AcDbEntity
  8
0
100
AcDbLine
 10
41.50000000000021
 20
140.67
 30
0.0
 11
40.00000000000021
 21
140.67
 31
0.0
  0
LINE
  5
F6C5
330
F6A9
100
AcDbEntity
  8
0
100
AcDbLine
 10
40.00000000000021
 20
140.67
 30
0.0
 11
40.00000000000024
 21
135.67
 31
0.0
  0
LINE
  5
F6C6
330
F6A9
100
AcDbEntity
  8
0
100
AcDbLine
 10
-40.0
 20
135.67
 30
0.0
 11
-40.0
 21
140.67
 31
0.0
  0
LINE
  5
F6C7
330
F6A9
100
AcDbEntity
  8
0
100
AcDbLine
 10
-40.0
 20
140.67
 30
0.0
 11
-41.5
 21
140.67
 31
0.0
  0
LINE
  5
F6C8
330
F6A9
100
AcDbEntity
  8
0
100
AcDbLine
 10
41.49999999999995
 20
-28.42608254450009
 30
0.0
 11
41.49999999999997
 21
-21.35501473263464
 31
0.0
  0
LINE
  5
F6C9
330
F6A9
100
AcDbEntity
  8
0
100
AcDbLine
 10
41.49999999999997
 20
-21.35501473263464
 30
0.0
 11
39.99999999999998
 21
-21.35501473263464
 31
0.0
  0
LINE
  5
F6CA
330
F6A9
100
AcDbEntity
  8
0
100
AcDbLine
 10
39.99999999999998
 20
-21.35501473263464
 30
0.0
 11
39.99999999999999
 21
-28.42608254450009
 31
0.0
  0
LINE
  5
F6CB
330
F6A9
100
AcDbEntity
  8
0
100
AcDbLine
 10
39.99999999999999
 20
-28.42608254450009
 30
0.0
 11
41.49999999999995
 21
-28.42608254450009
 31
0.0
  0
LINE
  5
F6CC
330
F6A9
100
AcDbEntity
  8
0
100
AcDbLine
 10
-41.49999999999995
 20
-21.35501473263463
 30
0.0
 11
-41.49999999999994
 21
-28.42608254450008
 31
0.0
  0
LINE
  5
F6CD
330
F6A9
100
AcDbEntity
  8
0
100
AcDbLine
 10
-41.49999999999994
 20
-28.42608254450008
 30
0.0
 11
-39.99999999999997
 21
-28.42608254450008
 31
0.0
  0
LINE
  5
F6CE
330
F6A9
100
AcDbEntity
  8
0
100
AcDbLine
 10
-39.99999999999997
 20
-28.42608254450008
 30
0.0
 11
-39.99999999999996
 21
-21.35501473263464
 31
0.0
  0
LINE
  5
F6CF
330
F6A9
100
AcDbEntity
  8
0
100
AcDbLine
 10
-39.99999999999996
 20
-21.35501473263464
 30
0.0
 11
-41.49999999999995
 21
-21.35501473263463
 31
0.0
  0
LINE
  5
F6D0
330
F6A9
100
AcDbEntity
  8
0
100
AcDbLine
 10
41.50000000000026
 20
85.27000000000001
 30
0.0
 11
41.50000000000026
 21
135.67
 31
0.0
  0
LINE
  5
F6D1
330
F6A9
100
AcDbEntity
  8
0
100
AcDbLine
 10
40.00000000000024
 20
135.67
 30
0.0
 11
40.00000000000024
 21
85.27000000000001
 31
0.0
  0
LINE
  5
F6D2
330
F6A9
100
AcDbEntity
  8
0
100
AcDbLine
 10
-41.5
 20
135.67
 30
0.0
 11
-41.5
 21
85.27000000000001
 31
0.0
  0
LINE
  5
F6D3
330
F6A9
100
AcDbEntity
  8
0
100
AcDbLine
 10
-40.0
 20
135.67
 30
0.0
 11
-40.0
 21
85.27000000000001
 31
0.0
  0
LINE
  5
F6D4
330
F6A9
100
AcDbEntity
  8
0
100
AcDbLine
 10
36.5
 20
80.27000000000001
 30
0.0
 11
39.40000000000001
 21
80.26999999999999
 31
0.0
  0
LINE
  5
F6D5
330
F6A9
100
AcDbEntity
  8
0
100
AcDbLine
 10
-39.40000000000001
 20
80.26999999999999
 30
0.0
 11
-36.50000000000002
 21
80.26999999999999
 31
0.0
  0
LINE
  5
F6D6
330
F6A9
100
AcDbEntity
  8
0
100
AcDbLine
 10
-39.40000000000001
 20
140.67
 30
0.0
 11
39.4
 21
140.67
 31
0.0
  0
LINE
  5
F6D7
330
F6A9
100
AcDbEntity
  8
0
100
AcDbLine
 10
41.50000000000695
 20
-2.263131642256752
 30
0.0
 11
41.49999999999997
 21
-21.35501473263464
 31
0.0
  0
LINE
  5
F6D8
330
F6A9
100
AcDbEntity
  8
0
100
AcDbLine
 10
40.00000000000591
 20
-2.263131642256752
 30
0.0
 11
39.99999999999998
 21
-21.35501473263464
 31
0.0
  0
ELLIPSE
  5
F6D9
330
F6A9
100
AcDbEntity
  8
0
100
AcDbEllipse
 10
39.4
 20
-54.16476937947045
 30
0.0
 11
0.6000000000000592
 21
-0.0000000000000093
 31
0.0
210
0.0
220
0.0
230
1.0
 40
0.707106781186666
 41
4.712388980384708
 42
6.283185307179439
  0
ELLIPSE
  5
F6DA
330
F6A9
100
AcDbEntity
  8
0
100
AcDbEllipse
 10
39.4
 20
-54.1647693794705
 30
0.0
 11
2.100000000000031
 21
-0.0000000000000444
 31
0.0
210
0.0
220
0.0
230
1.0
 40
0.7071067811865466
 41
4.712388980384694
 42
6.283185307179562
  0
LINE
  5
F6DB
330
F6A9
100
AcDbEntity
  8
0
100
AcDbLine
 10
41.50000000000695
 20
-2.263131642256752
 30
0.0
 11
40.00000000000591
 21
-2.263131642256752
 31
0.0
  0
SPLINE
  5
F6DC
330
F6A9
100
AcDbEntity
  8
0
100
AcDbSpline
210
0.0
220
0.0
230
1.0
 70
     8
 71
     3
 72
     8
 73
     4
 74
     0
 42
0.000000001
 43
0.0000000001
 40
-1.0
 40
-1.0
 40
-1.0
 40
-1.0
 40
0.0
 40
0.0
 40
0.0
 40
0.0
 10
-35.01767776087198
 20
-0.0003899405809504
 30
0.0
 10
-34.97251992073958
 20
-0.1594792109354338
 30
0.0
 10
-35.01586474390331
 20
-0.3214850446752977
 30
0.0
 10
-35.14054197002042
 20
-0.4246540092928796
 30
0.0
  0
SPLINE
  5
F6DD
330
F6A9
100
AcDbEntity
  8
0
100
AcDbSpline
210
0.0
220
0.0
230
1.0
 70
     8
 71
     3
 72
     8
 73
     4
 74
     0
 42
0.000000001
 43
0.0000000001
 40
-1.0
 40
-1.0
 40
-1.0
 40
-1.0
 40
0.0
 40
0.0
 40
0.0
 40
0.0
 10
35.14054197002044
 20
-0.4246540092928797
 30
0.0
 10
35.01586474390307
 20
-0.3214850446753029
 30
0.0
 10
34.97251992073861
 20
-0.159479210935427
 30
0.0
 10
35.01767776087196
 20
-0.0003899405809506
 30
0.0
  0
ELLIPSE
  5
F6DE
330
F6A9
100
AcDbEntity
  8
0
100
AcDbEllipse
 10
-36.50000000000001
 20
0.0236058844764062
 30
0.0
 11
-1.5
 21
0.0000000000001101
 31
0.0
210
0.0
220
0.0
230
1.0
 40
0.7071067811865479
 41
1.570796326795026
 42
2.705254581962137
  0
LINE
  5
F6DF
330
F6A9
100
AcDbEntity
  8
0
100
AcDbLine
 10
-36.50000000000001
 20
-1.037054287303416
 30
0.0
 11
-38.79315533855964
 21
-1.037054287303428
 31
0.0
  0
LINE
  5
F6E0
330
F6A9
100
AcDbEntity
  8
0
100
AcDbLine
 10
-38.79315533855964
 20
-1.037054287303428
 30
0.0
 11
-39.40000000000001
 21
-1.466158262545975
 31
0.0
  0
LINE
  5
F6E1
330
F6A9
100
AcDbEntity
  8
0
100
AcDbLine
 10
39.39999999999999
 20
-1.466158262545991
 30
0.0
 11
38.79315533855962
 21
-1.037054287303444
 31
0.0
  0
LINE
  5
F6E2
330
F6A9
100
AcDbEntity
  8
0
100
AcDbLine
 10
38.79315533855962
 20
-1.037054287303444
 30
0.0
 11
36.49999999999999
 21
-1.037054287303431
 31
0.0
  0
ELLIPSE
  5
F6E3
330
F6A9
100
AcDbEntity
  8
0
100
AcDbEllipse
 10
36.49999999999999
 20
0.0236058844764062
 30
0.0
 11
-1.5
 21
0.0
 31
0.0
210
0.0
220
0.0
230
1.0
 40
0.7071067811865479
 41
0.4363380716279126
 42
1.570796326794896
  0
LINE
  5
F6E4
330
F6A9
100
AcDbEntity
  8
0
100
AcDbLine
 10
-40.00000000000254
 20
-2.263131642256743
 30
0.0
 11
-41.50000000000305
 21
-2.263131642256743
 31
0.0
  0
SPLINE
  5
F6E5
330
F6A9
100
AcDbEntity
  8
0
100
AcDbSpline
210
0.0
220
0.0
230
1.0
 70
     8
 71
     3
 72
     8
 73
     4
 74
     0
 42
0.000000001
 43
0.0000000001
 40
-1.0
 40
-1.0
 40
-1.0
 40
-1.0
 40
0.0
 40
0.0
 40
0.0
 40
0.0
 10
-39.40000000000001
 20
-1.466158262545953
 30
0.0
 10
-39.71415926535899
 20
-1.873237411765368
 30
0.0
 10
-40.0
 20
-2.078196639180578
 30
0.0
 10
-40.00000000000002
 20
-2.263131641492226
 30
0.0
  0
ARC
  5
F6E6
330
F6A9
100
AcDbEntity
  8
0
100
AcDbCircle
 10
-36.50000000000001
 20
-0.2299999999999986
 30
0.0
 40
1.5
100
AcDbArc
 50
8.805075259701395
 51
90.0
  0
SPLINE
  5
F6E7
330
F6A9
100
AcDbEntity
  8
0
100
AcDbSpline
210
0.0
220
0.0
230
1.0
 70
     8
 71
     3
 72
     8
 73
     4
 74
     0
 42
0.000000001
 43
0.0000000001
 40
-1.0
 40
-1.0
 40
-1.0
 40
-1.0
 40
0.0
 40
0.0
 40
0.0
 40
0.0
 10
40.00000000000006
 20
-2.263131641492221
 30
0.0
 10
40.00000000000001
 20
-2.078196639180894
 30
0.0
 10
39.71415926535899
 20
-1.873237411765171
 30
0.0
 10
39.39999999999999
 20
-1.466158262545988
 30
0.0
  0
ARC
  5
F6E8
330
F6A9
100
AcDbEntity
  8
0
100
AcDbCircle
 10
36.49999999999999
 20
-0.2299999999999986
 30
0.0
 40
1.5
100
AcDbArc
 50
90.0
 51
171.1949247402986
  0
SPLINE
  5
F6E9
330
F6A9
100
AcDbEntity
  8
0
100
AcDbSpline
210
0.0
220
0.0
230
1.0
 70
     8
 71
     3
 72
    16
 73
    12
 74
     0
 42
0.000000001
 43
0.0000000001
 40
0.0
 40
0.0
 40
0.0
 40
0.0
 40
0.0356537247262875
 40
0.0356537247262875
 40
0.0703704956472004
 40
0.0703704956472004
 40
0.1051345640139088
 40
0.1051345640139088
 40
0.1398962718704468
 40
0.1398962718704468
 40
0.1538885733138095
 40
0.1538885733138095
 40
0.1538885733138095
 40
0.1538885733138095
 10
-40.49950000000049
 20
-2.263131641492251
 30
0.0
 10
-40.4995000000002
 20
-2.263131641490697
 30
0.0
 10
-40.47955867539937
 20
-2.263059951015006
 30
0.0
 10
-40.40583172168782
 20
-2.25083645121065
 30
0.0
 10
-40.35213458026558
 20
-2.238741830459765
 30
0.0
 10
-40.22293730427851
 20
-2.1941021903785
 30
0.0
 10
-40.14591985432218
 20
-2.160888677216802
 30
0.0
 10
-39.98574064088737
 20
-2.069479202566374
 30
0.0
 10
-39.90073655256306
 20
-2.010107098230621
 30
0.0
 10
-39.78901418347014
 20
-1.909831885131449
 30
0.0
 10
-39.75758437991306
 20
-1.878943669863524
 30
0.0
 10
-39.72742155524388
 20
-1.846191951394292
 30
0.0
  0
SPLINE
  5
F6EA
330
F6A9
100
AcDbEntity
  8
0
100
AcDbSpline
210
0.0
220
0.0
230
1.0
 70
     8
 71
     3
 72
    16
 73
    12
 74
     0
 42
0.000000001
 43
0.0000000001
 40
0.0
 40
0.0
 40
0.0
 40
0.0
 40
0.0356266149190996
 40
0.0356266149190996
 40
0.0703447701673274
 40
0.0703447701673274
 40
0.1051087694864981
 40
0.1051087694864981
 40
0.1398704807909053
 40
0.1398704807909053
 40
0.1538888647031744
 40
0.1538888647031744
 40
0.1538888647031744
 40
0.1538888647031744
 10
39.7274215552439
 20
-1.846191951394327
 30
0.0
 10
39.80422088262486
 20
-1.929583012297785
 30
0.0
 10
39.88999615123338
 20
-2.001172959676439
 30
0.0
 10
40.0556404663252
 20
-2.113266523209793
 30
0.0
 10
40.13750261640377
 20
-2.155953002234009
 30
0.0
 10
40.28182181883575
 20
-2.217016702965423
 30
0.0
 10
40.34591305082806
 20
-2.236189491793212
 30
0.0
 10
40.44238223260918
 20
-2.258395304179824
 30
0.0
 10
40.47587215053924
 20
-2.261811174864328
 30
0.0
 10
40.49650501535793
 20
-2.263130971916486
 30
0.0
 10
40.49949999999997
 20
-2.263131641491657
 30
0.0
 10
40.49949999999973
 20
-2.263131641492268
 30
0.0
  0
LINE
  5
F6EB
330
F6A9
100
AcDbEntity
  8
0
100
AcDbLine
 10
41.49999999999997
 20
-54.16476937947052
 30
0.0
 11
41.49999999999995
 21
-28.42608254450009
 31
0.0
  0
LINE
  5
F6EC
330
F6A9
100
AcDbEntity
  8
0
100
AcDbLine
 10
-41.49999999999994
 20
-28.42608254450008
 30
0.0
 11
-41.49999999999997
 21
-54.16476937947052
 31
0.0
  0
LINE
  5
F6ED
330
F6A9
100
AcDbEntity
  8
0
100
AcDbLine
 10
-39.99999999999997
 20
-28.42608254450008
 30
0.0
 11
-39.99999999999997
 21
-54.16476937947052
 31
0.0
  0
LINE
  5
F6EE
330
F6A9
100
AcDbEntity
  8
0
100
AcDbLine
 10
-39.39999999999999
 20
-54.58903344818243
 30
0.0
 11
39.4
 21
-54.58903344818243
 31
0.0
  0
LINE
  5
F6EF
330
F6A9
100
AcDbEntity
  8
0
100
AcDbLine
 10
39.99999999999999
 20
-54.16476937947052
 30
0.0
 11
39.99999999999999
 21
-28.42608254450009
 31
0.0
  0
LINE
  5
F6F0
330
F6A9
100
AcDbEntity
  8
0
100
AcDbLine
 10
-39.39999999999999
 20
-55.64969361996226
 30
0.0
 11
39.4
 21
-55.64969361996226
 31
0.0
  0
LINE
  5
F6F1
330
F6A9
100
AcDbEntity
  8
0
100
AcDbLine
 10
-41.50000000000305
 20
-2.263131642256743
 30
0.0
 11
-41.49999999999995
 21
-21.35501473263463
 31
0.0
  0
LINE
  5
F6F2
330
F6A9
100
AcDbEntity
  8
0
100
AcDbLine
 10
-40.00000000000254
 20
-2.263131642256743
 30
0.0
 11
-39.99999999999996
 21
-21.35501473263464
 31
0.0
  0
CIRCLE
  5
F6F3
330
F6A9
100
AcDbEntity
  8
0
100
AcDbCircle
 10
29.99999999999999
 20
109.7699999999999
 30
0.0
 40
2.5
  0
CIRCLE
  5
F6F4
330
F6A9
100
AcDbEntity
  8
0
100
AcDbCircle
 10
29.99999999999999
 20
69.76999999999998
 30
0.0
 40
2.5
  0
CIRCLE
  5
F6F5
330
F6A9
100
AcDbEntity
  8
0
100
AcDbCircle
 10
29.99999999999999
 20
29.76999999999998
 30
0.0
 40
2.5
  0
CIRCLE
  5
F6F6
330
F6A9
100
AcDbEntity
  8
0
100
AcDbCircle
 10
19.99999999999998
 20
129.77
 30
0.0
 40
2.5
  0
CIRCLE
  5
F6F7
330
F6A9
100
AcDbEntity
  8
0
100
AcDbCircle
 10
19.99999999999998
 20
89.76999999999996
 30
0.0
 40
2.5
  0
CIRCLE
  5
F6F8
330
F6A9
100
AcDbEntity
  8
0
100
AcDbCircle
 10
19.99999999999998
 20
49.76999999999997
 30
0.0
 40
2.5
  0
CIRCLE
  5
F6F9
330
F6A9
100
AcDbEntity
  8
0
100
AcDbCircle
 10
19.99999999999998
 20
9.769999999999974
 30
0.0
 40
2.5
  0
CIRCLE
  5
F6FA
330
F6A9
100
AcDbEntity
  8
0
100
AcDbCircle
 10
-20.00000000000001
 20
109.77
 30
0.0
 40
2.5
  0
CIRCLE
  5
F6FB
330
F6A9
100
AcDbEntity
  8
0
100
AcDbCircle
 10
-20.00000000000001
 20
69.76999999999998
 30
0.0
 40
2.5
  0
CIRCLE
  5
F6FC
330
F6A9
100
AcDbEntity
  8
0
100
AcDbCircle
 10
-20.00000000000001
 20
29.76999999999998
 30
0.0
 40
2.5
  0
CIRCLE
  5
F6FD
330
F6A9
100
AcDbEntity
  8
0
100
AcDbCircle
 10
-30.00000000000002
 20
129.77
 30
0.0
 40
2.5
  0
CIRCLE
  5
F6FE
330
F6A9
100
AcDbEntity
  8
0
100
AcDbCircle
 10
-30.00000000000002
 20
89.76999999999998
 30
0.0
 40
2.5
  0
CIRCLE
  5
F6FF
330
F6A9
100
AcDbEntity
  8
0
100
AcDbCircle
 10
-30.00000000000002
 20
49.76999999999998
 30
0.0
 40
2.5
  0
CIRCLE
  5
F700
330
F6A9
100
AcDbEntity
  8
0
100
AcDbCircle
 10
-30.00000000000002
 20
9.769999999999983
 30
0.0
 40
2.5
  0
CIRCLE
  5
F701
330
F6A9
100
AcDbEntity
  8
0
100
AcDbCircle
 10
-53.02709056100003
 20
69.76999999999998
 30
0.0
 40
2.5
  0
CIRCLE
  5
F702
330
F6A9
100
AcDbEntity
  8
0
100
AcDbCircle
 10
47.02709056099997
 20
69.76999999999996
 30
0.0
 40
2.5
  0
CIRCLE
  5
F703
330
F6A9
100
AcDbEntity
  8
0
100
AcDbCircle
 10
-47.02709056100002
 20
29.76999999999999
 30
0.0
 40
2.5
  0
CIRCLE
  5
F704
330
F6A9
100
AcDbEntity
  8
0
100
AcDbCircle
 10
53.02709056099998
 20
29.76999999999998
 30
0.0
 40
2.5
  0
ELLIPSE
  5
F705
330
F6A9
100
AcDbEntity
  8
0
100
AcDbEllipse
 10
-22.50000000000001
 20
0.0236058844764062
 30
0.0
 11
2.499999999999999
 21
-0.0000000000000004
 31
0.0
210
0.0
220
0.0
230
1.0
 40
0.7071067811865479
 41
3.39796598060824
 42
6.026811980161135
  0
SPLINE
  5
F706
330
F6A9
100
AcDbEntity
  8
0
100
AcDbSpline
210
0.0
220
0.0
230
1.0
 70
     8
 71
     3
 72
     8
 73
     4
 74
     0
 42
0.000000001
 43
0.0000000001
 40
-1.0
 40
-1.0
 40
-1.0
 40
-1.0
 40
0.0
 40
0.0
 40
0.0
 40
0.0
 10
-24.91828991960764
 20
-0.4246540092928802
 30
0.0
 10
-24.99189972302021
 20
-0.3163012038325055
 30
0.0
 10
-25.01609483643927
 20
-0.1581319339738682
 30
0.0
 10
-24.98943351399744
 20
-0.0003899405809504
 30
0.0
  0
SPLINE
  5
F707
330
F6A9
100
AcDbEntity
  8
0
100
AcDbSpline
210
0.0
220
0.0
230
1.0
 70
     8
 71
     3
 72
     8
 73
     4
 74
     0
 42
0.000000001
 43
0.0000000001
 40
-1.0
 40
-1.0
 40
-1.0
 40
-1.0
 40
0.0
 40
0.0
 40
0.0
 40
0.0
 10
-20.01056648600258
 20
-0.0003899405809506
 30
0.0
 10
-19.98390516356058
 20
-0.1581319339738686
 30
0.0
 10
-20.00810027697988
 20
-0.3163012038324636
 30
0.0
 10
-20.08171008039238
 20
-0.4246540092928794
 30
0.0
  0
ARC
  5
F708
330
F6A9
100
AcDbEntity
  8
0
100
AcDbCircle
 10
-22.50000000000001
 20
-0.2299999999999986
 30
0.0
 40
2.499999999999999
100
AcDbArc
 50
5.269701326164559
 51
174.7302986738354
  0
ELLIPSE
  5
F709
330
F6A9
100
AcDbEntity
  8
0
100
AcDbEllipse
 10
22.49999999999999
 20
0.0236058844764063
 30
0.0
 11
2.5
 21
-0.0000000000000005
 31
0.0
210
0.0
220
0.0
230
1.0
 40
0.7071067811865479
 41
3.397965980608241
 42
6.026811980161136
  0
SPLINE
  5
F70A
330
F6A9
100
AcDbEntity
  8
0
100
AcDbSpline
210
0.0
220
0.0
230
1.0
 70
     8
 71
     3
 72
     8
 73
     4
 74
     0
 42
0.000000001
 43
0.0000000001
 40
-1.0
 40
-1.0
 40
-1.0
 40
-1.0
 40
0.0
 40
0.0
 40
0.0
 40
0.0
 10
20.08171008039235
 20
-0.4246540092928804
 30
0.0
 10
20.00810027697967
 20
-0.3163012038325086
 30
0.0
 10
19.98390516356056
 20
-0.1581319339738622
 30
0.0
 10
20.01056648600256
 20
-0.0003899405809507
 30
0.0
  0
SPLINE
  5
F70B
330
F6A9
100
AcDbEntity
  8
0
100
AcDbSpline
210
0.0
220
0.0
230
1.0
 70
     8
 71
     3
 72
     8
 73
     4
 74
     0
 42
0.000000001
 43
0.0000000001
 40
-1.0
 40
-1.0
 40
-1.0
 40
-1.0
 40
0.0
 40
0.0
 40
0.0
 40
0.0
 10
24.98943351399742
 20
-0.0003899405809507
 30
0.0
 10
25.01609483643946
 20
-0.1581319339738722
 30
0.0
 10
24.99189972302028
 20
-0.3163012038324565
 30
0.0
 10
24.91828991960762
 20
-0.4246540092928796
 30
0.0
  0
ARC
  5
F70C
330
F6A9
100
AcDbEntity
  8
0
100
AcDbCircle
 10
22.49999999999999
 20
-0.2299999999999986
 30
0.0
 40
2.5
100
AcDbArc
 50
5.269701326164559
 51
174.7302986738354
  0
SPLINE
  5
F70D
330
F6A9
100
AcDbEntity
  8
0
100
AcDbSpline
210
0.0
220
0.0
230
1.0
 70
     8
 71
     3
 72
     8
 73
     4
 74
     0
 42
0.000000001
 43
0.0000000001
 40
-1.0
 40
-1.0
 40
-1.0
 40
-1.0
 40
0.0
 40
0.0
 40
0.0
 40
0.0
 10
-4.918289920131924
 20
-0.4246540092928794
 30
0.0
 10
-4.991899723307306
 20
-0.3163012038163529
 30
0.0
 10
-5.016094836485364
 20
-0.1581319339514772
 30
0.0
 10
-4.989433513812966
 20
-0.0003899405809506
 30
0.0
  0
SPLINE
  5
F70E
330
F6A9
100
AcDbEntity
  8
0
100
AcDbSpline
210
0.0
220
0.0
230
1.0
 70
     8
 71
     3
 72
     8
 73
     4
 74
     0
 42
0.000000001
 43
0.0000000001
 40
-1.0
 40
-1.0
 40
-1.0
 40
-1.0
 40
0.0
 40
0.0
 40
0.0
 40
0.0
 10
4.989433513812949
 20
-0.0003899405809503
 30
0.0
 10
5.016094836485295
 20
-0.1581319339514889
 30
0.0
 10
4.991899723307192
 20
-0.3163012038163565
 30
0.0
 10
4.918289920131907
 20
-0.4246540092928796
 30
0.0
  0
ELLIPSE
  5
F70F
330
F6A9
100
AcDbEntity
  8
0
100
AcDbEllipse
 10
-2.500000000000008
 20
0.0236058830621926
 30
0.0
 11
-2.5
 21
0.0000000000000004
 31
0.0
210
0.0
220
0.0
230
1.0
 40
0.7071067811865478
 41
0.2563733261914178
 42
1.570796326794896
  0
LINE
  5
F710
330
F6A9
100
AcDbEntity
  8
0
100
AcDbLine
 10
2.499999999999987
 20
-1.744161069904208
 30
0.0
 11
-2.500000000000008
 21
-1.744161069904206
 31
0.0
  0
ELLIPSE
  5
F711
330
F6A9
100
AcDbEntity
  8
0
100
AcDbEllipse
 10
2.499999999999986
 20
0.0236058830621924
 30
0.0
 11
2.5
 21
-0.0000000000000004
 31
0.0
210
0.0
220
0.0
230
1.0
 40
0.7071067811865479
 41
4.712388980384689
 42
6.026811980988168
  0
ARC
  5
F712
330
F6A9
100
AcDbEntity
  8
0
100
AcDbCircle
 10
2.499999999999986
 20
-0.2300000019999987
 30
0.0
 40
2.5
100
AcDbArc
 50
5.269701372195669
 51
89.9999999999998
  0
LINE
  5
F713
330
F6A9
100
AcDbEntity
  8
0
100
AcDbLine
 10
-2.500000000000012
 20
2.269999998000001
 30
0.0
 11
2.499999999999996
 21
2.269999998000001
 31
0.0
  0
ARC
  5
F714
330
F6A9
100
AcDbEntity
  8
0
100
AcDbCircle
 10
-2.500000000000008
 20
-0.2300000019999987
 30
0.0
 40
2.5
100
AcDbArc
 50
90.0000000000001
 51
174.7302986278043
  0
ELLIPSE
  5
F715
330
F6A9
100
AcDbEntity
  8
0
100
AcDbEllipse
 10
-39.39999999999999
 20
-54.16476937947052
 30
0.0
 11
-2.09999999999998
 21
-0.0000000000000017
 31
0.0
210
0.0
220
0.0
230
1.0
 40
0.7071067811865476
 41
0.0
 42
1.5707963267949
  0
ELLIPSE
  5
F716
330
F6A9
100
AcDbEntity
  8
0
100
AcDbEllipse
 10
-39.39999999999999
 20
-54.16476937947049
 30
0.0
 11
-0.6000000000000089
 21
0.0000000000000355
 31
0.0
210
0.0
220
0.0
230
1.0
 40
0.7071067811865763
 41
0.0000000000001259
 42
1.57079632679499
  0
LINE
  5
F717
330
F6A9
100
AcDbEntity
  8
0
100
AcDbLine
 10
39.40000000000001
 20
140.67
 30
0.0
 11
40.0
 21
140.67
 31
0.0
  0
LINE
  5
F718
330
F6A9
100
AcDbEntity
  8
0
100
AcDbLine
 10
39.40000000000001
 20
80.26999999999999
 30
0.0
 11
40.0
 21
80.26999999999999
 31
0.0
  0
LINE
  5
F719
330
F6A9
100
AcDbEntity
  8
0
100
AcDbLine
 10
-40.0
 20
140.67
 30
0.0
 11
-39.40000000000001
 21
140.67
 31
0.0
  0
LINE
  5
F71A
330
F6A9
100
AcDbEntity
  8
0
100
AcDbLine
 10
-40.0
 20
80.26999999999999
 30
0.0
 11
-39.40000000000001
 21
80.26999999999999
 31
0.0
  0
ENDBLK
  5
F6AB
330
F6A9
100
AcDbEntity
  8
0
100
AcDbBlockEnd
  0
BLOCK
  5
F71C
330
F71B
100
AcDbEntity
  8
0
100
AcDbBlockBegin
  2
SPR80_140-Left
 70
     0
 10
0.0
 20
0.0
 30
0.0
  3
SPR80_140-Left
  1

  0
LINE
  5
F71E
330
F71B
100
AcDbEntity
  8
0
100
AcDbLine
 10
0.0
 20
-0.0003899405809503
 30
0.0
 11
0.0
 21
1.270000000000001
 31
0.0
  0
LINE
  5
F71F
330
F71B
100
AcDbEntity
  8
0
100
AcDbLine
 10
62.91118318265865
 20
-2.263131642256743
 30
0.0
 11
4.362741700911216
 21
-2.263131641492268
 31
0.0
  0
SPLINE
  5
F720
330
F71B
100
AcDbEntity
  8
0
100
AcDbSpline
210
0.0
220
0.0
230
1.0
 70
     8
 71
     3
 72
     8
 73
     4
 74
     0
 42
0.000000001
 43
0.0000000001
 40
-1.0
 40
-1.0
 40
-1.0
 40
-1.0
 40
0.0
 40
0.0
 40
0.0
 40
0.0
 10
1.500000000000019
 20
-0.0003899405809504
 30
0.0
 10
1.500000000000019
 20
-0.1594792109354338
 30
0.0
 10
1.572566966670509
 20
-0.3214850446752977
 30
0.0
 10
1.675735931288091
 20
-0.4246540092928796
 30
0.0
  0
SPLINE
  5
F721
330
F71B
100
AcDbEntity
  8
0
100
AcDbSpline
210
0.0
220
0.0
230
1.0
 70
     8
 71
     3
 72
     8
 73
     4
 74
     0
 42
0.000000001
 43
0.0000000001
 40
0.0
 40
0.0
 40
0.0
 40
0.0
 40
1.0
 40
1.0
 40
1.0
 40
1.0
 10
0.6150757595082697
 20
-1.485314181072701
 30
0.0
 10
0.2539843833467334
 20
-1.124222804911164
 30
0.0
 10
0.0000000000000193
 20
-0.557202386821642
 30
0.0
 10
0.0000000000000194
 20
-0.0003899405809502
 30
0.0
  0
LINE
  5
F722
330
F71B
100
AcDbEntity
  8
0
100
AcDbLine
 10
1.675735931288087
 20
-0.4246540092928755
 30
0.0
 11
2.288136209298627
 21
-1.037054287303415
 31
0.0
  0
LINE
  5
F723
330
F71B
100
AcDbEntity
  8
0
100
AcDbLine
 10
2.288136209298619
 20
-1.037054287303428
 30
0.0
 11
2.717240184541165
 21
-1.466158262545975
 31
0.0
  0
SPLINE
  5
F724
330
F71B
100
AcDbEntity
  8
0
100
AcDbSpline
210
0.0
220
0.0
230
1.0
 70
     8
 71
     3
 72
     8
 73
     4
 74
     0
 42
0.000000001
 43
0.0000000001
 40
-1.0
 40
-1.0
 40
-1.0
 40
-1.0
 40
0.0
 40
0.0
 40
0.0
 40
0.0
 10
2.717240184541167
 20
-1.466158262545953
 30
0.0
 10
3.124319333760581
 20
-1.873237411765368
 30
0.0
 10
3.733518404783782
 20
-2.078196639180578
 30
0.0
 10
4.362741700911278
 20
-2.263131641492226
 30
0.0
  0
LINE
  5
F725
330
F71B
100
AcDbEntity
  8
0
100
AcDbLine
 10
2.717240184541165
 20
-1.466158262545975
 30
0.0
 11
2.364040347338442
 21
-1.819358099748697
 31
0.0
  0
LINE
  5
F726
330
F71B
100
AcDbEntity
  8
0
100
AcDbLine
 10
2.364040347338442
 20
-1.819358099748697
 30
0.0
 11
1.656580012761344
 21
-2.526818434325796
 31
0.0
  0
SPLINE
  5
F727
330
F71B
100
AcDbEntity
  8
0
100
AcDbSpline
210
0.0
220
0.0
230
1.0
 70
     8
 71
     3
 72
     8
 73
     4
 74
     0
 42
0.000000001
 43
0.0000000001
 40
0.0
 40
0.0
 40
0.0
 40
0.0
 40
1.0
 40
1.0
 40
1.0
 40
1.0
 10
4.36274170091122
 20
-2.263131641492284
 30
0.0
 10
3.178158037513933
 20
-2.633557006450427
 30
0.0
 10
2.063659161980758
 20
-2.93389758354519
 30
0.0
 10
1.656580012761344
 20
-2.526818434325774
 30
0.0
  0
LINE
  5
F728
330
F71B
100
AcDbEntity
  8
0
100
AcDbLine
 10
1.656580012761344
 20
-2.526818434325796
 30
0.0
 11
1.227476037518802
 21
-2.097714459083245
 31
0.0
  0
LINE
  5
F729
330
F71B
100
AcDbEntity
  8
0
100
AcDbLine
 10
2.288136209298619
 20
-1.037054287303428
 30
0.0
 11
1.227476037518802
 21
-2.097714459083245
 31
0.0
  0
LINE
  5
F72A
330
F71B
100
AcDbEntity
  8
0
100
AcDbLine
 10
1.227476037518816
 20
-2.097714459083225
 30
0.0
 11
0.6150757595082775
 21
-1.485314181072685
 31
0.0
  0
LINE
  5
F72B
330
F71B
100
AcDbEntity
  8
0
100
AcDbLine
 10
1.675735931288091
 20
-0.4246540092928794
 30
0.0
 11
1.322536092816898
 21
-0.7778538477640728
 31
0.0
  0
LINE
  5
F72C
330
F71B
100
AcDbEntity
  8
0
100
AcDbLine
 10
1.322536092816898
 20
-0.7778538477640728
 30
0.0
 11
0.6150757595082696
 21
-1.4853141810727
 31
0.0
  0
LINE
  5
F72D
330
F71B
100
AcDbEntity
  8
0
100
AcDbLine
 10
1.500000000000003
 20
-0.0003899405809504
 30
0.0
 11
1.00049999542749
 21
-0.0003899405809504
 31
0.0
  0
LINE
  5
F72E
330
F71B
100
AcDbEntity
  8
0
100
AcDbLine
 10
1.00049999542749
 20
-0.0003899405809504
 30
0.0
 11
0.0
 21
-0.0003899405809504
 31
0.0
  0
LINE
  5
F72F
330
F71B
100
AcDbEntity
  8
0
100
AcDbLine
 10
1.499999999999993
 20
1.270000000000001
 30
0.0
 11
1.499999999999992
 21
-0.0003899405809504
 31
0.0
  0
LINE
  5
F730
330
F71B
100
AcDbEntity
  8
0
100
AcDbLine
 10
0.0
 20
6.269999999999997
 30
0.0
 11
0.0
 21
1.269999999999995
 31
0.0
  0
LINE
  5
F731
330
F71B
100
AcDbEntity
  8
0
100
AcDbLine
 10
0.0
 20
77.26999999999998
 30
0.0
 11
0.0
 21
72.26999999999998
 31
0.0
  0
LINE
  5
F732
330
F71B
100
AcDbEntity
  8
0
100
AcDbLine
 10
1.500000000000021
 20
1.269999999999996
 30
0.0
 11
1.500000000000023
 21
6.269999999999997
 31
0.0
  0
LINE
  5
F733
330
F71B
100
AcDbEntity
  8
0
100
AcDbLine
 10
1.500000000000023
 20
6.269999999999997
 30
0.0
 11
0.0
 21
6.269999999999997
 31
0.0
  0
LINE
  5
F734
330
F71B
100
AcDbEntity
  8
0
100
AcDbLine
 10
0.0
 20
1.269999999999996
 30
0.0
 11
1.500000000000021
 21
1.269999999999996
 31
0.0
  0
LINE
  5
F735
330
F71B
100
AcDbEntity
  8
0
100
AcDbLine
 10
0.0
 20
72.26999999999998
 30
0.0
 11
1.500000000000023
 21
72.26999999999998
 31
0.0
  0
LINE
  5
F736
330
F71B
100
AcDbEntity
  8
0
100
AcDbLine
 10
1.500000000000023
 20
72.26999999999998
 30
0.0
 11
1.500000000000021
 21
77.26999999999998
 31
0.0
  0
LINE
  5
F737
330
F71B
100
AcDbEntity
  8
0
100
AcDbLine
 10
1.500000000000021
 20
77.26999999999998
 30
0.0
 11
0.0
 21
77.26999999999998
 31
0.0
  0
LINE
  5
F738
330
F71B
100
AcDbEntity
  8
0
100
AcDbLine
 10
0.0
 20
6.269999999999997
 30
0.0
 11
0.0
 21
72.26999999999998
 31
0.0
  0
LINE
  5
F739
330
F71B
100
AcDbEntity
  8
0
100
AcDbLine
 10
0.0
 20
77.26999999999998
 30
0.0
 11
0.0
 21
80.26999999999999
 31
0.0
  0
LINE
  5
F73A
330
F71B
100
AcDbEntity
  8
0
100
AcDbLine
 10
1.500000000000023
 20
6.269999999999997
 30
0.0
 11
1.500000000000023
 21
72.26999999999998
 31
0.0
  0
LINE
  5
F73B
330
F71B
100
AcDbEntity
  8
0
100
AcDbLine
 10
1.5
 20
77.26999999999998
 30
0.0
 11
1.5
 21
80.26999999999999
 31
0.0
  0
LINE
  5
F73C
330
F71B
100
AcDbEntity
  8
0
100
AcDbLine
 10
0.0
 20
80.26999999999999
 30
0.0
 11
0.0
 21
140.67
 31
0.0
  0
LINE
  5
F73D
330
F71B
100
AcDbEntity
  8
0
100
AcDbLine
 10
2.100000000000008
 20
140.67
 30
0.0
 11
0.0
 21
140.67
 31
0.0
  0
LINE
  5
F73E
330
F71B
100
AcDbEntity
  8
0
100
AcDbLine
 10
0.0
 20
80.26999999999999
 30
0.0
 11
2.099999999999999
 21
80.26999999999999
 31
0.0
  0
LINE
  5
F73F
330
F71B
100
AcDbEntity
  8
0
100
AcDbLine
 10
43.50000000000001
 20
85.27000000000001
 30
0.0
 11
38.50000000000001
 21
80.26999999999999
 31
0.0
  0
LINE
  5
F740
330
F71B
100
AcDbEntity
  8
0
100
AcDbLine
 10
38.50000000000001
 20
140.67
 30
0.0
 11
43.50000000000001
 21
135.67
 31
0.0
  0
LINE
  5
F741
330
F71B
100
AcDbEntity
  8
0
100
AcDbLine
 10
82.00306627386
 20
-21.35501473263463
 30
0.0
 11
82.00306627386
 21
-28.42608254450008
 31
0.0
  0
CIRCLE
  5
F742
330
F71B
100
AcDbEntity
  8
0
100
AcDbCircle
 10
35.50000000000002
 20
127.77
 30
0.0
 40
2.5
  0
CIRCLE
  5
F743
330
F71B
100
AcDbEntity
  8
0
100
AcDbCircle
 10
35.50000000000002
 20
107.77
 30
0.0
 40
2.5
  0
CIRCLE
  5
F744
330
F71B
100
AcDbEntity
  8
0
100
AcDbCircle
 10
35.50000000000002
 20
87.76999999999999
 30
0.0
 40
2.5
  0
LINE
  5
F745
330
F71B
100
AcDbEntity
  8
0
100
AcDbLine
 10
43.50000000000001
 20
135.67
 30
0.0
 11
43.50000000000001
 21
85.27000000000001
 31
0.0
  0
LINE
  5
F746
330
F71B
100
AcDbEntity
  8
0
100
AcDbLine
 10
2.100000000000008
 20
140.67
 30
0.0
 11
38.50000000000001
 21
140.67
 31
0.0
  0
LINE
  5
F747
330
F71B
100
AcDbEntity
  8
0
100
AcDbLine
 10
38.50000000000001
 20
80.26999999999999
 30
0.0
 11
2.099999999999999
 21
80.26999999999999
 31
0.0
  0
LINE
  5
F748
330
F71B
100
AcDbEntity
  8
0
100
AcDbLine
 10
82.00306627386
 20
-28.42608254450008
 30
0.0
 11
56.26437943888952
 21
-54.16476937947052
 31
0.0
  0
LINE
  5
F749
330
F71B
100
AcDbEntity
  8
0
100
AcDbLine
 10
62.91118318265865
 20
-2.263131642256743
 30
0.0
 11
82.00306627386
 21
-21.35501473263463
 31
0.0
  0
CIRCLE
  5
F74A
330
F71B
100
AcDbEntity
  8
0
100
AcDbCircle
 10
74.57844507130477
 20
-25.24410202925711
 30
0.0
 40
2.5
  0
ARC
  5
F74B
330
F71B
100
AcDbEntity
  8
0
100
AcDbCircle
 10
59.31559010709463
 20
-13.990452698916
 30
0.0
 40
0.8000000000000012
100
AcDbArc
 50
315.000000001042
 51
75.00000000104186
  0
LINE
  5
F74C
330
F71B
100
AcDbEntity
  8
0
100
AcDbLine
 10
59.88127553205416
 20
-14.55613812385494
 30
0.0
 11
56.81941335363088
 21
-17.61800030238964
 31
0.0
  0
ARC
  5
F74D
330
F71B
100
AcDbEntity
  8
0
100
AcDbCircle
 10
56.25372792867135
 20
-17.0523148774507
 30
0.0
 40
0.8
100
AcDbArc
 50
195.0000000010428
 51
315.0000000010428
  0
LINE
  5
F74E
330
F71B
100
AcDbEntity
  8
0
100
AcDbLine
 10
55.48098726764387
 20
-17.25937011354677
 30
0.0
 11
54.36026792735771
 21
-13.07678859487811
 31
0.0
  0
ARC
  5
F74F
330
F71B
100
AcDbEntity
  8
0
100
AcDbCircle
 10
55.13300858838519
 20
-12.86973335878203
 30
0.0
 40
0.8000000000000014
100
AcDbArc
 50
75.00000000104188
 51
195.0000000010427
  0
LINE
  5
F750
330
F71B
100
AcDbEntity
  8
0
100
AcDbLine
 10
55.34006382445316
 20
-12.096992697747
 30
0.0
 11
59.5226453431626
 21
-13.21771203788096
 31
0.0
  0
LINE
  5
F751
330
F71B
100
AcDbEntity
  8
0
100
AcDbLine
 10
55.28251771018368
 20
-12.08382813389861
 30
0.0
 11
54.3471033635072
 21
-13.01924248060914
 31
0.0
  0
LINE
  5
F752
330
F71B
100
AcDbEntity
  8
0
100
AcDbLine
 10
54.77945519839778
 20
-55.64969361996226
 30
0.0
 11
1.656580012761343
 21
-2.526818434325797
 31
0.0
  0
LINE
  5
F753
330
F71B
100
AcDbEntity
  8
0
100
AcDbLine
 10
56.26437943888958
 20
-54.16476937947046
 30
0.0
 11
54.77945519839778
 21
-55.64969361996226
 31
0.0
  0
ENDBLK
  5
F71D
330
F71B
100
AcDbEntity
  8
0
100
AcDbBlockEnd
  0
BLOCK
  5
F755
330
F754
100
AcDbEntity
  8
0
100
AcDbBlockBegin
  2
SPR80_140-Right
 70
     0
 10
0.0
 20
0.0
 30
0.0
  3
SPR80_140-Right
  1

  0
LINE
  5
F757
330
F754
100
AcDbEntity
  8
0
100
AcDbLine
 10
-1.499999999999941
 20
6.269999999999996
 30
0.0
 11
-1.499999999999943
 21
1.269999999999996
 31
0.0
  0
LINE
  5
F758
330
F754
100
AcDbEntity
  8
0
100
AcDbLine
 10
-1.499999999999943
 20
1.269999999999996
 30
0.0
 11
0.0
 21
1.27
 31
0.0
  0
LINE
  5
F759
330
F754
100
AcDbEntity
  8
0
100
AcDbLine
 10
0.0
 20
1.27
 30
0.0
 11
0.0
 21
6.269999999999996
 31
0.0
  0
LINE
  5
F75A
330
F754
100
AcDbEntity
  8
0
100
AcDbLine
 10
0.0
 20
6.269999999999996
 30
0.0
 11
-1.499999999999941
 21
6.269999999999996
 31
0.0
  0
LINE
  5
F75B
330
F754
100
AcDbEntity
  8
0
100
AcDbLine
 10
-1.499999999999941
 20
72.27000000000001
 30
0.0
 11
0.0
 21
72.27000000000001
 31
0.0
  0
LINE
  5
F75C
330
F754
100
AcDbEntity
  8
0
100
AcDbLine
 10
0.0
 20
72.27000000000001
 30
0.0
 11
0.0
 21
77.27000000000001
 31
0.0
  0
LINE
  5
F75D
330
F754
100
AcDbEntity
  8
0
100
AcDbLine
 10
-1.499999999999943
 20
77.27000000000001
 30
0.0
 11
-1.499999999999941
 21
72.27000000000001
 31
0.0
  0
LINE
  5
F75E
330
F754
100
AcDbEntity
  8
0
100
AcDbLine
 10
0.0
 20
77.27000000000001
 30
0.0
 11
-1.499999999999943
 21
77.27000000000001
 31
0.0
  0
LINE
  5
F75F
330
F754
100
AcDbEntity
  8
0
100
AcDbLine
 10
0.0
 20
72.27000000000001
 30
0.0
 11
0.0
 21
6.269999999999997
 31
0.0
  0
LINE
  5
F760
330
F754
100
AcDbEntity
  8
0
100
AcDbLine
 10
-1.499999999999941
 20
72.27000000000001
 30
0.0
 11
-1.499999999999941
 21
6.269999999999997
 31
0.0
  0
LINE
  5
F761
330
F754
100
AcDbEntity
  8
0
100
AcDbLine
 10
0.0
 20
80.27000000000001
 30
0.0
 11
0.0
 21
77.27000000000001
 31
0.0
  0
LINE
  5
F762
330
F754
100
AcDbEntity
  8
0
100
AcDbLine
 10
-1.499999999999964
 20
80.27000000000001
 30
0.0
 11
-1.499999999999964
 21
77.27000000000001
 31
0.0
  0
LINE
  5
F763
330
F754
100
AcDbEntity
  8
0
100
AcDbLine
 10
0.0
 20
1.270000000000001
 30
0.0
 11
0.0
 21
-0.0003899405809504
 31
0.0
  0
LINE
  5
F764
330
F754
100
AcDbEntity
  8
0
100
AcDbLine
 10
-4.362741700911108
 20
-2.263131641492376
 30
0.0
 11
-62.91118318265862
 21
-2.263131642256752
 31
0.0
  0
SPLINE
  5
F765
330
F754
100
AcDbEntity
  8
0
100
AcDbSpline
210
0.0
220
0.0
230
1.0
 70
     8
 71
     3
 72
     8
 73
     4
 74
     0
 42
0.000000001
 43
0.0000000001
 40
-1.0
 40
-1.0
 40
-1.0
 40
-1.0
 40
0.0
 40
0.0
 40
0.0
 40
0.0
 10
-1.675735931288076
 20
-0.4246540092928797
 30
0.0
 10
-1.572566966670499
 20
-0.3214850446753029
 30
0.0
 10
-1.500000000000004
 20
-0.159479210935427
 30
0.0
 10
-1.500000000000004
 20
-0.0003899405809506
 30
0.0
  0
SPLINE
  5
F766
330
F754
100
AcDbEntity
  8
0
100
AcDbSpline
210
0.0
220
0.0
230
1.0
 70
     8
 71
     3
 72
     8
 73
     4
 74
     0
 42
0.000000001
 43
0.0000000001
 40
0.0
 40
0.0
 40
0.0
 40
0.0
 40
1.0
 40
1.0
 40
1.0
 40
1.0
 10
-0.0000000000000044
 20
-0.0003899405809506
 30
0.0
 10
-0.0000000000000044
 20
-0.5572023868216178
 30
0.0
 10
-0.2539843833467366
 20
-1.124222804911183
 30
0.0
 10
-0.6150757595082556
 20
-1.485314181072701
 30
0.0
  0
LINE
  5
F767
330
F754
100
AcDbEntity
  8
0
100
AcDbLine
 10
-2.717240184541133
 20
-1.466158262545991
 30
0.0
 11
-2.288136209298587
 21
-1.037054287303444
 31
0.0
  0
LINE
  5
F768
330
F754
100
AcDbEntity
  8
0
100
AcDbLine
 10
-2.288136209298611
 20
-1.037054287303415
 30
0.0
 11
-1.675735931288075
 21
-0.4246540092928786
 31
0.0
  0
LINE
  5
F769
330
F754
100
AcDbEntity
  8
0
100
AcDbLine
 10
-2.717240184541133
 20
-1.466158262545991
 30
0.0
 11
-2.364040347338872
 21
-1.819358099748252
 31
0.0
  0
SPLINE
  5
F76A
330
F754
100
AcDbEntity
  8
0
100
AcDbSpline
210
0.0
220
0.0
230
1.0
 70
     8
 71
     3
 72
     8
 73
     4
 74
     0
 42
0.000000001
 43
0.0000000001
 40
-1.0
 40
-1.0
 40
-1.0
 40
-1.0
 40
0.0
 40
0.0
 40
0.0
 40
0.0
 10
-4.362741700911253
 20
-2.263131641492221
 30
0.0
 10
-3.733518404784084
 20
-2.078196639180894
 30
0.0
 10
-3.124319333760353
 20
-1.873237411765171
 30
0.0
 10
-2.717240184541172
 20
-1.466158262545988
 30
0.0
  0
SPLINE
  5
F76B
330
F754
100
AcDbEntity
  8
0
100
AcDbSpline
210
0.0
220
0.0
230
1.0
 70
     8
 71
     3
 72
     8
 73
     4
 74
     0
 42
0.000000001
 43
0.0000000001
 40
0.0
 40
0.0
 40
0.0
 40
0.0
 40
1.0
 40
1.0
 40
1.0
 40
1.0
 10
-1.65658001276135
 20
-2.526818434325809
 30
0.0
 10
-2.063659161980528
 20
-2.933897583544995
 30
0.0
 10
-3.178158037514207
 20
-2.633557006450771
 30
0.0
 10
-4.362741700911107
 20
-2.263131641492366
 30
0.0
  0
LINE
  5
F76C
330
F754
100
AcDbEntity
  8
0
100
AcDbLine
 10
-2.364040347338872
 20
-1.819358099748252
 30
0.0
 11
-1.656580012761314
 21
-2.526818434325809
 31
0.0
  0
LINE
  5
F76D
330
F754
100
AcDbEntity
  8
0
100
AcDbLine
 10
-0.6150757595082633
 20
-1.48531418107269
 30
0.0
 11
-1.227476037518799
 21
-2.097714459083227
 31
0.0
  0
LINE
  5
F76E
330
F754
100
AcDbEntity
  8
0
100
AcDbLine
 10
-0.6150757595082545
 20
-1.4853141810727
 30
0.0
 11
-1.32253609281522
 21
-0.7778538477657366
 31
0.0
  0
LINE
  5
F76F
330
F754
100
AcDbEntity
  8
0
100
AcDbLine
 10
-1.32253609281522
 20
-0.7778538477657366
 30
0.0
 11
-1.675735931288076
 21
-0.4246540092928794
 31
0.0
  0
LINE
  5
F770
330
F754
100
AcDbEntity
  8
0
100
AcDbLine
 10
-2.288136209298587
 20
-1.037054287303444
 30
0.0
 11
-1.227476037518777
 21
-2.097714459083253
 31
0.0
  0
LINE
  5
F771
330
F754
100
AcDbEntity
  8
0
100
AcDbLine
 10
-1.227476037518777
 20
-2.097714459083253
 30
0.0
 11
-1.656580012761314
 21
-2.526818434325809
 31
0.0
  0
LINE
  5
F772
330
F754
100
AcDbEntity
  8
0
100
AcDbLine
 10
-1.499999999999968
 20
-0.0003899405809504
 30
0.0
 11
-1.000499995407366
 21
-0.0003899405809504
 31
0.0
  0
LINE
  5
F773
330
F754
100
AcDbEntity
  8
0
100
AcDbLine
 10
-1.000499995407366
 20
-0.0003899405809504
 30
0.0
 11
0.0
 21
-0.0003899405809504
 31
0.0
  0
LINE
  5
F774
330
F754
100
AcDbEntity
  8
0
100
AcDbLine
 10
-1.499999999999978
 20
-0.0003899405809503
 30
0.0
 11
-1.499999999999977
 21
1.270000000000001
 31
0.0
  0
LINE
  5
F775
330
F754
100
AcDbEntity
  8
0
100
AcDbLine
 10
0.0
 20
80.26999999999999
 30
0.0
 11
0.0
 21
140.67
 31
0.0
  0
LINE
  5
F776
330
F754
100
AcDbEntity
  8
0
100
AcDbLine
 10
0.0
 20
140.67
 30
0.0
 11
-2.099999999999946
 21
140.67
 31
0.0
  0
LINE
  5
F777
330
F754
100
AcDbEntity
  8
0
100
AcDbLine
 10
-2.099999999999964
 20
80.26999999999999
 30
0.0
 11
0.0
 21
80.26999999999999
 31
0.0
  0
LINE
  5
F778
330
F754
100
AcDbEntity
  8
0
100
AcDbLine
 10
-38.49999999999996
 20
80.26999999999999
 30
0.0
 11
-43.49999999999996
 21
85.27000000000001
 31
0.0
  0
LINE
  5
F779
330
F754
100
AcDbEntity
  8
0
100
AcDbLine
 10
-43.49999999999996
 20
135.67
 30
0.0
 11
-38.49999999999995
 21
140.67
 31
0.0
  0
LINE
  5
F77A
330
F754
100
AcDbEntity
  8
0
100
AcDbLine
 10
-82.00306627385996
 20
-28.42608254450009
 30
0.0
 11
-82.00306627385998
 21
-21.35501473263464
 31
0.0
  0
LINE
  5
F77B
330
F754
100
AcDbEntity
  8
0
100
AcDbLine
 10
-43.49999999999996
 20
85.27000000000001
 30
0.0
 11
-43.49999999999996
 21
135.67
 31
0.0
  0
LINE
  5
F77C
330
F754
100
AcDbEntity
  8
0
100
AcDbLine
 10
-2.099999999999964
 20
80.26999999999999
 30
0.0
 11
-38.49999999999996
 21
80.26999999999999
 31
0.0
  0
LINE
  5
F77D
330
F754
100
AcDbEntity
  8
0
100
AcDbLine
 10
-38.49999999999995
 20
140.67
 30
0.0
 11
-2.099999999999946
 21
140.67
 31
0.0
  0
CIRCLE
  5
F77E
330
F754
100
AcDbEntity
  8
0
100
AcDbCircle
 10
-35.5
 20
132.77
 30
0.0
 40
2.5
  0
CIRCLE
  5
F77F
330
F754
100
AcDbEntity
  8
0
100
AcDbCircle
 10
-35.5
 20
112.77
 30
0.0
 40
2.5
  0
CIRCLE
  5
F780
330
F754
100
AcDbEntity
  8
0
100
AcDbCircle
 10
-35.5
 20
92.76999999999999
 30
0.0
 40
2.5
  0
LINE
  5
F781
330
F754
100
AcDbEntity
  8
0
100
AcDbLine
 10
-62.91118318265862
 20
-2.263131642256752
 30
0.0
 11
-82.00306627385998
 21
-21.35501473263464
 31
0.0
  0
LINE
  5
F782
330
F754
100
AcDbEntity
  8
0
100
AcDbLine
 10
-1.656580012761314
 20
-2.526818434325809
 30
0.0
 11
-54.77945519839777
 21
-55.64969361996226
 31
0.0
  0
LINE
  5
F783
330
F754
100
AcDbEntity
  8
0
100
AcDbLine
 10
-54.77945519839775
 20
-55.64969361996227
 30
0.0
 11
-56.26437943888955
 21
-54.16476937947054
 31
0.0
  0
LINE
  5
F784
330
F754
100
AcDbEntity
  8
0
100
AcDbLine
 10
-56.26437943888952
 20
-54.16476937947052
 30
0.0
 11
-82.00306627385996
 21
-28.42608254450009
 31
0.0
  0
CIRCLE
  5
F785
330
F754
100
AcDbEntity
  8
0
100
AcDbCircle
 10
-71.04291116530767
 20
-21.70856812338872
 30
0.0
 40
2.5
  0
ARC
  5
F786
330
F754
100
AcDbEntity
  8
0
100
AcDbCircle
 10
-51.59747468238809
 20
-9.33419945291363
 30
0.0
 40
0.8000000000000015
100
AcDbArc
 50
344.9999999989572
 51
355.4526675359234
  0
LINE
  5
F787
330
F754
100
AcDbEntity
  8
0
100
AcDbLine
 10
-50.82473402136063
 20
-9.541254689009706
 30
0.0
 11
-51.94545336164679
 21
-13.72383620767836
 31
0.0
  0
ARC
  5
F788
330
F754
100
AcDbEntity
  8
0
100
AcDbCircle
 10
-52.71819402267426
 20
-13.51678097158229
 30
0.0
 40
0.8
100
AcDbArc
 50
224.9999999989572
 51
344.9999999989576
  0
LINE
  5
F789
330
F754
100
AcDbEntity
  8
0
100
AcDbLine
 10
-53.28387944763379
 20
-14.08246639652124
 30
0.0
 11
-56.34574162605708
 21
-11.02060421798654
 31
0.0
  0
ARC
  5
F78A
330
F754
100
AcDbEntity
  8
0
100
AcDbCircle
 10
-55.78005620109753
 20
-10.45491879304759
 30
0.0
 40
0.8000000000000014
100
AcDbArc
 50
104.9999999989575
 51
224.9999999989572
  0
LINE
  5
F78B
330
F754
100
AcDbEntity
  8
0
100
AcDbLine
 10
-55.9871114371655
 20
-9.682178132012559
 30
0.0
 11
-51.80452991845606
 21
-8.561458791878598
 31
0.0
  0
ARC
  5
F78C
330
F754
100
AcDbEntity
  8
0
100
AcDbCircle
 10
-51.59747468238809
 20
-9.33419945291363
 30
0.0
 40
0.8000000000000014
100
AcDbArc
 50
49.59733246198601
 51
104.9999999989581
  0
LINE
  5
F78D
330
F754
100
AcDbEntity
  8
0
100
AcDbLine
 10
-51.07895039795263
 20
-8.724992947325674
 30
0.0
 11
-50.79999294004348
 21
-9.397625556585486
 31
0.0
  0
ARC
  5
F78E
330
F754
100
AcDbEntity
  8
0
100
AcDbCircle
 10
-55.13300858838519
 20
-12.86973335878203
 30
0.0
 40
0.8000000000000015
100
AcDbArc
 50
349.2288663267692
 51
100.7711336711455
  0
ENDBLK
  5
F756
330
F754
100
AcDbEntity
  8
0
100
AcDbBlockEnd
  0
BLOCK
  5
F790
330
F78F
100
AcDbEntity
  8
0
100
AcDbBlockBegin
  2
SPR80_140-Top
 70
     0
 10
0.0
 20
0.0
 30
0.0
  3
SPR80_140-Top
  1

  0
LINE
  5
F792
330
F78F
100
AcDbEntity
  8
0
100
AcDbLine
 10
82.52709056099996
 20
-1.49999999999994
 30
0.0
 11
82.52709056099996
 21
0.0
 31
0.0
  0
LINE
  5
F793
330
F78F
100
AcDbEntity
  8
0
100
AcDbLine
 10
-77.52709056100001
 20
0.0
 30
0.0
 11
-82.52709056100004
 21
0.0
 31
0.0
  0
LINE
  5
F794
330
F78F
100
AcDbEntity
  8
0
100
AcDbLine
 10
82.52709056099996
 20
0.0
 30
0.0
 11
77.52709056099998
 21
0.0
 31
0.0
  0
LINE
  5
F795
330
F78F
100
AcDbEntity
  8
0
100
AcDbLine
 10
-82.52709056100004
 20
0.0
 30
0.0
 11
-82.52709056100004
 21
-1.500000000000023
 31
0.0
  0
LINE
  5
F796
330
F78F
100
AcDbEntity
  8
0
100
AcDbLine
 10
-82.52709056100004
 20
-1.500000000000023
 30
0.0
 11
-77.52709056100001
 21
-1.500000000000021
 31
0.0
  0
LINE
  5
F797
330
F78F
100
AcDbEntity
  8
0
100
AcDbLine
 10
-77.52709056100001
 20
-1.500000000000021
 30
0.0
 11
-77.52709056100001
 21
0.0
 31
0.0
  0
LINE
  5
F798
330
F78F
100
AcDbEntity
  8
0
100
AcDbLine
 10
77.52709056099998
 20
-1.499999999999943
 30
0.0
 11
82.52709056099996
 21
-1.49999999999994
 31
0.0
  0
LINE
  5
F799
330
F78F
100
AcDbEntity
  8
0
100
AcDbLine
 10
77.52709056099998
 20
0.0
 30
0.0
 11
77.52709056099998
 21
-1.499999999999943
 31
0.0
  0
LINE
  5
F79A
330
F78F
100
AcDbEntity
  8
0
100
AcDbLine
 10
-77.52709056100001
 20
0.0
 30
0.0
 11
-39.40000000000002
 21
0.0
 31
0.0
  0
LINE
  5
F79B
330
F78F
100
AcDbEntity
  8
0
100
AcDbLine
 10
39.40000000000001
 20
0.0
 30
0.0
 11
77.52709056099998
 21
0.0
 31
0.0
  0
LINE
  5
F79C
330
F78F
100
AcDbEntity
  8
0
100
AcDbLine
 10
41.41246117974982
 20
-1.499999999999961
 30
0.0
 11
77.52709056099998
 21
-1.499999999999943
 31
0.0
  0
LINE
  5
F79D
330
F78F
100
AcDbEntity
  8
0
100
AcDbLine
 10
-77.52709056100001
 20
-1.500000000000021
 30
0.0
 11
-41.41246117974982
 21
-1.500000000000003
 31
0.0
  0
LINE
  5
F79E
330
F78F
100
AcDbEntity
  8
0
100
AcDbLine
 10
39.40000000000001
 20
0.0
 30
0.0
 11
-39.40000000000001
 21
0.0
 31
0.0
  0
LINE
  5
F79F
330
F78F
100
AcDbEntity
  8
0
100
AcDbLine
 10
41.50000000000021
 20
-38.49999999999995
 30
0.0
 11
41.5
 21
-2.099999999999946
 31
0.0
  0
LINE
  5
F7A0
330
F78F
100
AcDbEntity
  8
0
100
AcDbLine
 10
-41.50000000000001
 20
-2.100000000000008
 30
0.0
 11
-41.5
 21
-38.50000000000001
 31
0.0
  0
LINE
  5
F7A1
330
F78F
100
AcDbEntity
  8
0
100
AcDbLine
 10
40.0
 20
-2.099999999999946
 30
0.0
 11
40.00000000000021
 21
-38.49999999999997
 31
0.0
  0
LINE
  5
F7A2
330
F78F
100
AcDbEntity
  8
0
100
AcDbLine
 10
-39.40000000000001
 20
-1.500000000000012
 30
0.0
 11
39.4
 21
-1.499999999999968
 31
0.0
  0
LINE
  5
F7A3
330
F78F
100
AcDbEntity
  8
0
100
AcDbLine
 10
-40.0
 20
-38.50000000000001
 30
0.0
 11
-40.0
 21
-2.100000000000008
 31
0.0
  0
LINE
  5
F7A4
330
F78F
100
AcDbEntity
  8
0
100
AcDbLine
 10
40.00000000000024
 20
-43.49999999999996
 30
0.0
 11
41.50000000000026
 21
-43.49999999999996
 31
0.0
  0
LINE
  5
F7A5
330
F78F
100
AcDbEntity
  8
0
100
AcDbLine
 10
41.50000000000026
 20
-43.49999999999996
 30
0.0
 11
41.50000000000021
 21
-38.49999999999995
 31
0.0
  0
LINE
  5
F7A6
330
F78F
100
AcDbEntity
  8
0
100
AcDbLine
 10
-41.5
 20
-38.50000000000001
 30
0.0
 11
-41.5
 21
-43.50000000000001
 31
0.0
  0
LINE
  5
F7A7
330
F78F
100
AcDbEntity
  8
0
100
AcDbLine
 10
-41.5
 20
-43.50000000000001
 30
0.0
 11
-40.0
 21
-43.50000000000001
 31
0.0
  0
LINE
  5
F7A8
330
F78F
100
AcDbEntity
  8
0
100
AcDbLine
 10
41.50000000000021
 20
-38.49999999999995
 30
0.0
 11
40.00000000000021
 21
-38.49999999999997
 31
0.0
  0
LINE
  5
F7A9
330
F78F
100
AcDbEntity
  8
0
100
AcDbLine
 10
40.00000000000021
 20
-38.49999999999997
 30
0.0
 11
40.00000000000024
 21
-43.49999999999996
 31
0.0
  0
LINE
  5
F7AA
330
F78F
100
AcDbEntity
  8
0
100
AcDbLine
 10
-40.0
 20
-43.50000000000001
 30
0.0
 11
-40.0
 21
-38.50000000000001
 31
0.0
  0
LINE
  5
F7AB
330
F78F
100
AcDbEntity
  8
0
100
AcDbLine
 10
-40.0
 20
-38.50000000000001
 30
0.0
 11
-41.5
 21
-38.50000000000001
 31
0.0
  0
LINE
  5
F7AC
330
F78F
100
AcDbEntity
  8
0
100
AcDbLine
 10
41.49999999999997
 20
-82.00306627385998
 30
0.0
 11
39.99999999999998
 21
-82.00306627385998
 31
0.0
  0
LINE
  5
F7AD
330
F78F
100
AcDbEntity
  8
0
100
AcDbLine
 10
-39.99999999999996
 20
-82.00306627385998
 30
0.0
 11
-41.49999999999995
 21
-82.00306627386
 31
0.0
  0
LINE
  5
F7AE
330
F78F
100
AcDbEntity
  8
0
100
AcDbLine
 10
41.50000000000695
 20
-62.91118318265862
 30
0.0
 11
41.49999999999997
 21
-82.00306627385998
 31
0.0
  0
LINE
  5
F7AF
330
F78F
100
AcDbEntity
  8
0
100
AcDbLine
 10
40.00000000000591
 20
-62.91118318265862
 30
0.0
 11
39.99999999999998
 21
-82.00306627385998
 31
0.0
  0
ELLIPSE
  5
F7B0
330
F78F
100
AcDbEntity
  8
0
100
AcDbEllipse
 10
39.4
 20
-56.26437943888956
 30
0.0
 11
0.6000000000000592
 21
-0.0000000000000092
 31
0.0
210
0.0
220
0.0
230
1.0
 40
0.707106781186429
 41
0.0
 42
1.570796326794914
  0
LINE
  5
F7B1
330
F78F
100
AcDbEntity
  8
0
100
AcDbLine
 10
41.50000000000695
 20
-62.91118318265862
 30
0.0
 11
40.00000000000591
 21
-62.91118318265862
 31
0.0
  0
LINE
  5
F7B2
330
F78F
100
AcDbEntity
  8
0
100
AcDbLine
 10
41.50000000000006
 20
-43.49999999999996
 30
0.0
 11
41.50000000000695
 21
-62.91118318265862
 31
0.0
  0
LINE
  5
F7B3
330
F78F
100
AcDbEntity
  8
0
100
AcDbLine
 10
-41.50000000000305
 20
-62.91118318265865
 30
0.0
 11
-41.50000000000306
 21
-43.50000000000001
 31
0.0
  0
SPLINE
  5
F7B4
330
F78F
100
AcDbEntity
  8
0
100
AcDbSpline
210
0.0
220
0.0
230
1.0
 70
     8
 71
     3
 72
     8
 73
     4
 74
     0
 42
0.000000001
 43
0.0000000001
 40
-1.0
 40
-1.0
 40
-1.0
 40
-1.0
 40
0.0
 40
0.0
 40
0.0
 40
0.0
 10
-35.01767776087198
 20
-1.500000000000019
 30
0.0
 10
-34.97251992073958
 20
-1.500000000000019
 30
0.0
 10
-35.01586474390331
 20
-1.572566966670509
 30
0.0
 10
-35.14054197002042
 20
-1.675735931288091
 30
0.0
  0
SPLINE
  5
F7B5
330
F78F
100
AcDbEntity
  8
0
100
AcDbSpline
210
0.0
220
0.0
230
1.0
 70
     8
 71
     3
 72
     8
 73
     4
 74
     0
 42
0.000000001
 43
0.0000000001
 40
-1.0
 40
-1.0
 40
-1.0
 40
-1.0
 40
0.0
 40
0.0
 40
0.0
 40
0.0
 10
35.14054197002044
 20
-1.675735931288076
 30
0.0
 10
35.01586474390307
 20
-1.572566966670499
 30
0.0
 10
34.97251992073861
 20
-1.500000000000004
 30
0.0
 10
35.01767776087196
 20
-1.500000000000004
 30
0.0
  0
ELLIPSE
  5
F7B6
330
F78F
100
AcDbEntity
  8
0
100
AcDbEllipse
 10
-36.50000000000001
 20
-1.227476037518806
 30
0.0
 11
-1.5
 21
0.0000000000001093
 31
0.0
210
0.0
220
0.0
230
1.0
 40
0.7071067811865474
 41
1.570796326795026
 42
2.705254581962137
  0
LINE
  5
F7B7
330
F78F
100
AcDbEntity
  8
0
100
AcDbLine
 10
-36.50000000000001
 20
-2.288136209298606
 30
0.0
 11
-38.79315533855964
 21
-2.288136209298619
 31
0.0
  0
LINE
  5
F7B8
330
F78F
100
AcDbEntity
  8
0
100
AcDbLine
 10
-38.79315533855964
 20
-2.288136209298619
 30
0.0
 11
-39.40000000000001
 21
-2.717240184541166
 31
0.0
  0
LINE
  5
F7B9
330
F78F
100
AcDbEntity
  8
0
100
AcDbLine
 10
39.39999999999999
 20
-2.717240184541132
 30
0.0
 11
38.79315533855962
 21
-2.288136209298587
 31
0.0
  0
LINE
  5
F7BA
330
F78F
100
AcDbEntity
  8
0
100
AcDbLine
 10
38.79315533855962
 20
-2.288136209298587
 30
0.0
 11
36.49999999999999
 21
-2.288136209298575
 31
0.0
  0
ELLIPSE
  5
F7BB
330
F78F
100
AcDbEntity
  8
0
100
AcDbEllipse
 10
36.49999999999999
 20
-1.22747603751879
 30
0.0
 11
-1.5
 21
-0.0000000000000003
 31
0.0
210
0.0
220
0.0
230
1.0
 40
0.7071067811865474
 41
0.4363380716279126
 42
1.570796326794896
  0
LINE
  5
F7BC
330
F78F
100
AcDbEntity
  8
0
100
AcDbLine
 10
-40.00000000000254
 20
-62.91118318265865
 30
0.0
 11
-41.50000000000305
 21
-62.91118318265865
 31
0.0
  0
LINE
  5
F7BD
330
F78F
100
AcDbEntity
  8
0
100
AcDbLine
 10
-40.00000000000001
 20
-43.50000000000001
 30
0.0
 11
-40.00000000000254
 21
-62.91118318265865
 31
0.0
  0
SPLINE
  5
F7BE
330
F78F
100
AcDbEntity
  8
0
100
AcDbSpline
210
0.0
220
0.0
230
1.0
 70
     8
 71
     3
 72
     8
 73
     4
 74
     0
 42
0.000000001
 43
0.0000000001
 40
-1.0
 40
-1.0
 40
-1.0
 40
-1.0
 40
0.0
 40
0.0
 40
0.0
 40
0.0
 10
-39.40000000000001
 20
-2.717240184541167
 30
0.0
 10
-39.71415926535899
 20
-3.124319333760582
 30
0.0
 10
-40.0
 20
-3.733518404783783
 30
0.0
 10
-40.00000000000002
 20
-4.362741700911278
 30
0.0
  0
LINE
  5
F7BF
330
F78F
100
AcDbEntity
  8
0
100
AcDbLine
 10
-39.40000000000001
 20
-2.717240184541166
 30
0.0
 11
-39.40000000000001
 21
-2.364040347338443
 31
0.0
  0
LINE
  5
F7C0
330
F78F
100
AcDbEntity
  8
0
100
AcDbLine
 10
-39.40000000000001
 20
-2.364040347338443
 30
0.0
 11
-39.40000000000001
 21
-1.656580012761344
 31
0.0
  0
SPLINE
  5
F7C1
330
F78F
100
AcDbEntity
  8
0
100
AcDbSpline
210
0.0
220
0.0
230
1.0
 70
     8
 71
     3
 72
     8
 73
     4
 74
     0
 42
0.000000001
 43
0.0000000001
 40
0.8233926083861598
 40
0.8233926083861598
 40
0.8233926083861598
 40
0.8233926083861598
 40
1.0
 40
1.0
 40
1.0
 40
1.0
 10
-39.9683307934395
 20
-1.934942494001978
 30
0.0
 10
-39.78528852951265
 20
-1.822430928281052
 30
0.0
 10
-39.59418996942229
 20
-1.728473199485367
 30
0.0
 10
-39.4
 20
-1.656580012761345
 30
0.0
  0
LINE
  5
F7C2
330
F78F
100
AcDbEntity
  8
0
100
AcDbLine
 10
-39.40000000000001
 20
-1.656580012761344
 30
0.0
 11
-39.17856242236214
 21
-1.499999999999995
 31
0.0
  0
LINE
  5
F7C3
330
F78F
100
AcDbEntity
  8
0
100
AcDbLine
 10
-38.79315533855964
 20
-2.288136209298619
 30
0.0
 11
-38.79315533855964
 21
-1.500000000000012
 31
0.0
  0
LINE
  5
F7C4
330
F78F
100
AcDbEntity
  8
0
100
AcDbLine
 10
-35.14054197002044
 20
-1.675735931288091
 30
0.0
 11
-35.14054197002044
 21
-1.500000000000009
 31
0.0
  0
LINE
  5
F7C5
330
F78F
100
AcDbEntity
  8
0
100
AcDbLine
 10
40.00000000000591
 20
-62.91118318265862
 30
0.0
 11
40.0000000000059
 21
-43.49999999999996
 31
0.0
  0
LINE
  5
F7C6
330
F78F
100
AcDbEntity
  8
0
100
AcDbLine
 10
39.39999999999999
 20
-2.717240184541132
 30
0.0
 11
39.39999999999999
 21
-2.364040347338871
 31
0.0
  0
SPLINE
  5
F7C7
330
F78F
100
AcDbEntity
  8
0
100
AcDbSpline
210
0.0
220
0.0
230
1.0
 70
     8
 71
     3
 72
     8
 73
     4
 74
     0
 42
0.000000001
 43
0.0000000001
 40
-1.0
 40
-1.0
 40
-1.0
 40
-1.0
 40
0.0
 40
0.0
 40
0.0
 40
0.0
 10
40.00000000000006
 20
-4.362741700911252
 30
0.0
 10
40.00000000000001
 20
-3.733518404784084
 30
0.0
 10
39.71415926535899
 20
-3.124319333760352
 30
0.0
 10
39.39999999999999
 20
-2.717240184541171
 30
0.0
  0
SPLINE
  5
F7C8
330
F78F
100
AcDbEntity
  8
0
100
AcDbSpline
210
0.0
220
0.0
230
1.0
 70
     8
 71
     3
 72
     8
 73
     4
 74
     0
 42
0.000000001
 43
0.0000000001
 40
0.0
 40
0.0
 40
0.0
 40
0.0
 40
0.1766073916138531
 40
0.1766073916138531
 40
0.1766073916138531
 40
0.1766073916138531
 10
39.39999999999998
 20
-1.65658001276135
 30
0.0
 10
39.59418996942228
 20
-1.728473199485335
 30
0.0
 10
39.78528852951265
 20
-1.822430928281011
 30
0.0
 10
39.96833079343952
 20
-1.934942494001944
 30
0.0
  0
LINE
  5
F7C9
330
F78F
100
AcDbEntity
  8
0
100
AcDbLine
 10
39.39999999999999
 20
-2.364040347338871
 30
0.0
 11
39.39999999999999
 21
-1.656580012761314
 31
0.0
  0
LINE
  5
F7CA
330
F78F
100
AcDbEntity
  8
0
100
AcDbLine
 10
35.14054197002044
 20
-1.49999999999997
 30
0.0
 11
35.14054197002043
 21
-1.675735931288075
 31
0.0
  0
LINE
  5
F7CB
330
F78F
100
AcDbEntity
  8
0
100
AcDbLine
 10
38.79315533855962
 20
-2.288136209298587
 30
0.0
 11
38.79315533855962
 21
-1.499999999999968
 31
0.0
  0
LINE
  5
F7CC
330
F78F
100
AcDbEntity
  8
0
100
AcDbLine
 10
39.17856242236209
 20
-1.499999999999955
 30
0.0
 11
39.39999999999999
 21
-1.656580012761314
 31
0.0
  0
LINE
  5
F7CD
330
F78F
100
AcDbEntity
  8
0
100
AcDbLine
 10
-41.50000000000305
 20
-62.91118318265865
 30
0.0
 11
-41.49999999999995
 21
-82.00306627386
 31
0.0
  0
LINE
  5
F7CE
330
F78F
100
AcDbEntity
  8
0
100
AcDbLine
 10
-40.00000000000254
 20
-62.91118318265865
 30
0.0
 11
-39.99999999999996
 21
-82.00306627385998
 31
0.0
  0
ELLIPSE
  5
F7CF
330
F78F
100
AcDbEntity
  8
0
100
AcDbEllipse
 10
-22.50000000000001
 20
-0.1668158657389995
 30
0.0
 11
2.5
 21
0.0000000000001829
 31
0.0
210
0.0
220
0.0
230
1.0
 40
0.7071067811865474
 41
3.995971005724944
 42
5.428806955044165
  0
LINE
  5
F7D0
330
F78F
100
AcDbEntity
  8
0
100
AcDbLine
 10
-24.91828991960764
 20
-1.500000000000003
 30
0.0
 11
-24.91828991960764
 21
-1.675735931288089
 31
0.0
  0
ELLIPSE
  5
F7D1
330
F78F
100
AcDbEntity
  8
0
100
AcDbEllipse
 10
-22.50000000000001
 20
-1.227476037518803
 30
0.0
 11
2.5
 21
0.0000000000000005
 31
0.0
210
0.0
220
0.0
230
1.0
 40
0.7071067811865475
 41
3.397965980608241
 42
6.026811980161135
  0
LINE
  5
F7D2
330
F78F
100
AcDbEntity
  8
0
100
AcDbLine
 10
-20.08171008039238
 20
-1.675735931288088
 30
0.0
 11
-20.08171008039238
 21
-1.500000000000001
 31
0.0
  0
SPLINE
  5
F7D3
330
F78F
100
AcDbEntity
  8
0
100
AcDbSpline
210
0.0
220
0.0
230
1.0
 70
     8
 71
     3
 72
     8
 73
     4
 74
     0
 42
0.000000001
 43
0.0000000001
 40
-1.0
 40
-1.0
 40
-1.0
 40
-1.0
 40
0.0
 40
0.0
 40
0.0
 40
0.0
 10
-24.91828991960764
 20
-1.67573593128809
 30
0.0
 10
-24.99189972302021
 20
-1.567383125827714
 30
0.0
 10
-25.01609483643927
 20
-1.500000000000017
 30
0.0
 10
-24.98943351399744
 20
-1.500000000000017
 30
0.0
  0
SPLINE
  5
F7D4
330
F78F
100
AcDbEntity
  8
0
100
AcDbSpline
210
0.0
220
0.0
230
1.0
 70
     8
 71
     3
 72
     8
 73
     4
 74
     0
 42
0.000000001
 43
0.0000000001
 40
-1.0
 40
-1.0
 40
-1.0
 40
-1.0
 40
0.0
 40
0.0
 40
0.0
 40
0.0
 10
-20.01056648600258
 20
-1.500000000000016
 30
0.0
 10
-19.98390516356058
 20
-1.500000000000016
 30
0.0
 10
-20.00810027697988
 20
-1.567383125827672
 30
0.0
 10
-20.08171008039238
 20
-1.675735931288088
 30
0.0
  0
ELLIPSE
  5
F7D5
330
F78F
100
AcDbEntity
  8
0
100
AcDbEllipse
 10
22.49999999999999
 20
-0.1668158657389959
 30
0.0
 11
2.5
 21
0.0000000000001833
 31
0.0
210
0.0
220
0.0
230
1.0
 40
0.7071067811865474
 41
3.995971005724932
 42
5.428806955044181
  0
LINE
  5
F7D6
330
F78F
100
AcDbEntity
  8
0
100
AcDbLine
 10
20.08171008039235
 20
-1.499999999999981
 30
0.0
 11
20.08171008039235
 21
-1.675735931288079
 31
0.0
  0
ELLIPSE
  5
F7D7
330
F78F
100
AcDbEntity
  8
0
100
AcDbEllipse
 10
22.49999999999999
 20
-1.227476037518793
 30
0.0
 11
2.5
 21
0.000000000000001
 31
0.0
210
0.0
220
0.0
230
1.0
 40
0.7071067811865475
 41
3.39796598060824
 42
6.026811980161136
  0
LINE
  5
F7D8
330
F78F
100
AcDbEntity
  8
0
100
AcDbLine
 10
24.91828991960762
 20
-1.675735931288078
 30
0.0
 11
24.91828991960762
 21
-1.499999999999976
 31
0.0
  0
SPLINE
  5
F7D9
330
F78F
100
AcDbEntity
  8
0
100
AcDbSpline
210
0.0
220
0.0
230
1.0
 70
     8
 71
     3
 72
     8
 73
     4
 74
     0
 42
0.000000001
 43
0.0000000001
 40
-1.0
 40
-1.0
 40
-1.0
 40
-1.0
 40
0.0
 40
0.0
 40
0.0
 40
0.0
 10
20.08171008039235
 20
-1.67573593128808
 30
0.0
 10
20.00810027697967
 20
-1.567383125827708
 30
0.0
 10
19.98390516356056
 20
-1.500000000000007
 30
0.0
 10
20.01056648600256
 20
-1.500000000000007
 30
0.0
  0
SPLINE
  5
F7DA
330
F78F
100
AcDbEntity
  8
0
100
AcDbSpline
210
0.0
220
0.0
230
1.0
 70
     8
 71
     3
 72
     8
 73
     4
 74
     0
 42
0.000000001
 43
0.0000000001
 40
-1.0
 40
-1.0
 40
-1.0
 40
-1.0
 40
0.0
 40
0.0
 40
0.0
 40
0.0
 10
24.98943351399742
 20
-1.500000000000006
 30
0.0
 10
25.01609483643946
 20
-1.500000000000006
 30
0.0
 10
24.99189972302028
 20
-1.567383125827655
 30
0.0
 10
24.91828991960762
 20
-1.675735931288078
 30
0.0
  0
SPLINE
  5
F7DB
330
F78F
100
AcDbEntity
  8
0
100
AcDbSpline
210
0.0
220
0.0
230
1.0
 70
     8
 71
     3
 72
     8
 73
     4
 74
     0
 42
0.000000001
 43
0.0000000001
 40
-1.0
 40
-1.0
 40
-1.0
 40
-1.0
 40
0.0
 40
0.0
 40
0.0
 40
0.0
 10
-4.918289920131924
 20
-1.675735931288084
 30
0.0
 10
-4.991899723307306
 20
-1.567383125811558
 30
0.0
 10
-5.016094836485364
 20
-1.500000000000013
 30
0.0
 10
-4.989433513812966
 20
-1.500000000000013
 30
0.0
  0
SPLINE
  5
F7DC
330
F78F
100
AcDbEntity
  8
0
100
AcDbSpline
210
0.0
220
0.0
230
1.0
 70
     8
 71
     3
 72
     8
 73
     4
 74
     0
 42
0.000000001
 43
0.0000000001
 40
-1.0
 40
-1.0
 40
-1.0
 40
-1.0
 40
0.0
 40
0.0
 40
0.0
 40
0.0
 10
4.989433513812949
 20
-1.500000000000011
 30
0.0
 10
5.016094836485295
 20
-1.500000000000011
 30
0.0
 10
4.991899723307192
 20
-1.567383125811559
 30
0.0
 10
4.918289920131907
 20
-1.675735931288082
 30
0.0
  0
ELLIPSE
  5
F7DD
330
F78F
100
AcDbEntity
  8
0
100
AcDbEllipse
 10
-2.500000000000008
 20
-0.1668158671532047
 30
0.0
 11
2.5
 21
0.0000000000001837
 31
0.0
210
0.0
220
0.0
230
1.0
 40
0.7071067811865475
 41
3.995971004506708
 42
4.712388980384622
  0
LINE
  5
F7DE
330
F78F
100
AcDbEntity
  8
0
100
AcDbLine
 10
-4.918289920131924
 20
-1.499999999999992
 30
0.0
 11
-4.918289920131927
 21
-1.675735931288084
 31
0.0
  0
ELLIPSE
  5
F7DF
330
F78F
100
AcDbEntity
  8
0
100
AcDbEllipse
 10
-2.500000000000008
 20
-1.227476038933012
 30
0.0
 11
-2.5
 21
-0.0000000000000002
 31
0.0
210
0.0
220
0.0
230
1.0
 40
0.7071067811865474
 41
0.2563733261914178
 42
1.570796326794896
  0
LINE
  5
F7E0
330
F78F
100
AcDbEntity
  8
0
100
AcDbLine
 10
-2.500000000000008
 20
-1.934582820119553
 30
0.0
 11
2.499999999999987
 21
-1.934582820119551
 31
0.0
  0
LINE
  5
F7E1
330
F78F
100
AcDbEntity
  8
0
100
AcDbLine
 10
2.499999999999987
 20
-2.995242991899374
 30
0.0
 11
-2.500000000000008
 21
-2.995242991899376
 31
0.0
  0
ELLIPSE
  5
F7E2
330
F78F
100
AcDbEntity
  8
0
100
AcDbEllipse
 10
2.499999999999986
 20
-0.1668158671532027
 30
0.0
 11
2.5
 21
0.0000000000000006
 31
0.0
210
0.0
220
0.0
230
1.0
 40
0.7071067811865474
 41
4.712388980384689
 42
5.428806956262538
  0
ELLIPSE
  5
F7E3
330
F78F
100
AcDbEntity
  8
0
100
AcDbEllipse
 10
2.499999999999986
 20
-1.227476038933011
 30
0.0
 11
2.499999999999999
 21
0.0000000000000006
 31
0.0
210
0.0
220
0.0
230
1.0
 40
0.7071067811865475
 41
4.712388980384689
 42
6.026811980988168
  0
LINE
  5
F7E4
330
F78F
100
AcDbEntity
  8
0
100
AcDbLine
 10
4.918289920131904
 20
-1.675735931288082
 30
0.0
 11
4.918289920131904
 21
-1.499999999999987
 31
0.0
  0
LINE
  5
F7E5
330
F78F
100
AcDbEntity
  8
0
100
AcDbLine
 10
-39.39999999999999
 20
-55.8401153701776
 30
0.0
 11
39.4
 21
-55.84011537017758
 31
0.0
  0
ELLIPSE
  5
F7E6
330
F78F
100
AcDbEntity
  8
0
100
AcDbEllipse
 10
-39.39999999999999
 20
-56.26437943888955
 30
0.0
 11
-0.6000000000000089
 21
-0.0000000000000268
 31
0.0
210
0.0
220
0.0
230
1.0
 40
0.7071067811865187
 41
4.712388980384583
 42
6.283185307179418
  0
ARC
  5
F7E7
330
F78F
100
AcDbEntity
  8
0
100
AcDbCircle
 10
39.40000000000001
 20
-2.099999999999972
 30
0.0
 40
0.6000000000000006
100
AcDbArc
 50
0.0
 51
90.0
  0
ARC
  5
F7E8
330
F78F
100
AcDbEntity
  8
0
100
AcDbCircle
 10
39.40000000000001
 20
-2.099999999999972
 30
0.0
 40
2.100000000000008
100
AcDbArc
 50
0.0
 51
90.0
  0
ARC
  5
F7E9
330
F78F
100
AcDbEntity
  8
0
100
AcDbCircle
 10
-39.40000000000001
 20
-2.100000000000008
 30
0.0
 40
0.6000000000000006
100
AcDbArc
 50
90.0
 51
180.0
  0
ARC
  5
F7EA
330
F78F
100
AcDbEntity
  8
0
100
AcDbCircle
 10
-39.40000000000001
 20
-2.100000000000008
 30
0.0
 40
2.100000000000004
100
AcDbArc
 50
90.0
 51
180.0
  0
ENDBLK
  5
F791
330
F78F
100
AcDbEntity
  8
0
100
AcDbBlockEnd
  0
BLOCK
  5
F7EC
330
F7EB
100
AcDbEntity
  8
0
100
AcDbBlockBegin
  2
SPR80_140-Bottom
 70
     0
 10
0.0
 20
0.0
 30
0.0
  3
SPR80_140-Bottom
  1

  0
LINE
  5
F7EE
330
F7EB
100
AcDbEntity
  8
0
100
AcDbLine
 10
82.527090561
 20
1.49999999999994
 30
0.0
 11
77.52709056100001
 21
1.499999999999943
 31
0.0
  0
LINE
  5
F7EF
330
F7EB
100
AcDbEntity
  8
0
100
AcDbLine
 10
77.52709056100001
 20
1.499999999999943
 30
0.0
 11
77.52709056100001
 21
0.0
 31
0.0
  0
LINE
  5
F7F0
330
F7EB
100
AcDbEntity
  8
0
100
AcDbLine
 10
77.52709056100001
 20
0.0
 30
0.0
 11
82.527090561
 21
0.0
 31
0.0
  0
LINE
  5
F7F1
330
F7EB
100
AcDbEntity
  8
0
100
AcDbLine
 10
82.527090561
 20
0.0
 30
0.0
 11
82.527090561
 21
1.49999999999994
 31
0.0
  0
LINE
  5
F7F2
330
F7EB
100
AcDbEntity
  8
0
100
AcDbLine
 10
-82.52709056100004
 20
0.0
 30
0.0
 11
-77.52709056100004
 21
0.0
 31
0.0
  0
LINE
  5
F7F3
330
F7EB
100
AcDbEntity
  8
0
100
AcDbLine
 10
-77.52709056100004
 20
1.500000000000021
 30
0.0
 11
-82.52709056100004
 21
1.500000000000023
 31
0.0
  0
LINE
  5
F7F4
330
F7EB
100
AcDbEntity
  8
0
100
AcDbLine
 10
-82.52709056100004
 20
1.500000000000023
 30
0.0
 11
-82.52709056100004
 21
0.0
 31
0.0
  0
LINE
  5
F7F5
330
F7EB
100
AcDbEntity
  8
0
100
AcDbLine
 10
-77.52709056100004
 20
0.0
 30
0.0
 11
-77.52709056100004
 21
1.500000000000021
 31
0.0
  0
LINE
  5
F7F6
330
F7EB
100
AcDbEntity
  8
0
100
AcDbLine
 10
77.52709056100001
 20
0.0
 30
0.0
 11
36.49999999999999
 21
0.0
 31
0.0
  0
LINE
  5
F7F7
330
F7EB
100
AcDbEntity
  8
0
100
AcDbLine
 10
-36.50000000000001
 20
0.0
 30
0.0
 11
-77.52709056100002
 21
0.0
 31
0.0
  0
LINE
  5
F7F8
330
F7EB
100
AcDbEntity
  8
0
100
AcDbLine
 10
-39.17856242236215
 20
1.500000000000005
 30
0.0
 11
-77.52709056100004
 21
1.500000000000021
 31
0.0
  0
LINE
  5
F7F9
330
F7EB
100
AcDbEntity
  8
0
100
AcDbLine
 10
77.52709056100001
 20
1.499999999999943
 30
0.0
 11
39.17856242236211
 21
1.499999999999962
 31
0.0
  0
LINE
  5
F7FA
330
F7EB
100
AcDbEntity
  8
0
100
AcDbLine
 10
36.49999999999999
 20
0.0
 30
0.0
 11
35.01767776087195
 21
0.0
 31
0.0
  0
LINE
  5
F7FB
330
F7EB
100
AcDbEntity
  8
0
100
AcDbLine
 10
-35.01767776087196
 20
0.0
 30
0.0
 11
-36.50000000000001
 21
0.0
 31
0.0
  0
SPLINE
  5
F7FC
330
F7EB
100
AcDbEntity
  8
0
100
AcDbSpline
210
0.0
220
0.0
230
1.0
 70
     8
 71
     3
 72
     8
 73
     4
 74
     0
 42
0.000000001
 43
0.0000000001
 40
0.0
 40
0.0
 40
0.0
 40
0.0
 40
1.0
 40
1.0
 40
1.0
 40
1.0
 10
-35.14054197002042
 20
0.6150757595082699
 30
0.0
 10
-35.01586474390331
 20
0.2539843833467337
 30
0.0
 10
-34.97251992073958
 20
0.0000000000000196
 30
0.0
 10
-35.01767776087198
 20
0.0000000000000197
 30
0.0
  0
SPLINE
  5
F7FD
330
F7EB
100
AcDbEntity
  8
0
100
AcDbSpline
210
0.0
220
0.0
230
1.0
 70
     8
 71
     3
 72
     8
 73
     4
 74
     0
 42
0.000000001
 43
0.0000000001
 40
0.0
 40
0.0
 40
0.0
 40
0.0
 40
1.0
 40
1.0
 40
1.0
 40
1.0
 10
35.01767776087196
 20
0.0000000000000042
 30
0.0
 10
34.97251992073861
 20
0.0000000000000042
 30
0.0
 10
35.01586474390307
 20
0.2539843833467363
 30
0.0
 10
35.14054197002044
 20
0.6150757595082555
 30
0.0
  0
SPLINE
  5
F7FE
330
F7EB
100
AcDbEntity
  8
0
100
AcDbSpline
210
0.0
220
0.0
230
1.0
 70
     8
 71
     3
 72
     8
 73
     4
 74
     0
 42
0.000000001
 43
0.0000000001
 40
0.0
 40
0.0
 40
0.0
 40
0.0
 40
1.0
 40
1.0
 40
1.0
 40
1.0
 10
-41.50000000000003
 20
4.36274170091122
 30
0.0
 10
-41.49999999999997
 20
3.178158037513934
 30
0.0
 10
-40.4995574287564
 20
2.063659161980758
 30
0.0
 10
-39.4
 20
1.656580012761345
 30
0.0
  0
LINE
  5
F7FF
330
F7EB
100
AcDbEntity
  8
0
100
AcDbLine
 10
-39.40000000000001
 20
1.656580012761344
 30
0.0
 11
-38.79315533855964
 21
1.227476037518802
 31
0.0
  0
LINE
  5
F800
330
F7EB
100
AcDbEntity
  8
0
100
AcDbLine
 10
-38.79315533855964
 20
1.227476037518802
 30
0.0
 11
-36.50000000000001
 21
1.227476037518784
 31
0.0
  0
ELLIPSE
  5
F801
330
F7EB
100
AcDbEntity
  8
0
100
AcDbEllipse
 10
-36.50000000000001
 20
0.166815865738996
 30
0.0
 11
1.5
 21
-0.0000000000000003
 31
0.0
210
0.0
220
0.0
230
1.0
 40
0.7071067811865474
 41
0.4363380716279082
 42
1.570796326794896
  0
LINE
  5
F802
330
F7EB
100
AcDbEntity
  8
0
100
AcDbLine
 10
-35.01767776087196
 20
0.1805170265383435
 30
0.0
 11
-35.01767776087196
 21
0.0
 31
0.0
  0
SPLINE
  5
F803
330
F7EB
100
AcDbEntity
  8
0
100
AcDbSpline
210
0.0
220
0.0
230
1.0
 70
     8
 71
     3
 72
     8
 73
     4
 74
     0
 42
0.000000001
 43
0.0000000001
 40
0.0
 40
0.0
 40
0.0
 40
0.0
 40
1.0
 40
1.0
 40
1.0
 40
1.0
 10
39.39999999999998
 20
1.65658001276135
 30
0.0
 10
40.49955742875638
 20
2.063659161980528
 30
0.0
 10
41.49999999999991
 20
3.178158037514206
 30
0.0
 10
41.50000000000006
 20
4.362741700911106
 30
0.0
  0
ELLIPSE
  5
F804
330
F7EB
100
AcDbEntity
  8
0
100
AcDbEllipse
 10
36.49999999999999
 20
0.1668158657389778
 30
0.0
 11
1.5
 21
-0.0000000000001098
 31
0.0
210
0.0
220
0.0
230
1.0
 40
0.7071067811865475
 41
1.570796326795022
 42
2.705254581962133
  0
LINE
  5
F805
330
F7EB
100
AcDbEntity
  8
0
100
AcDbLine
 10
36.49999999999999
 20
1.227476037518753
 30
0.0
 11
38.79315533855962
 21
1.227476037518777
 31
0.0
  0
LINE
  5
F806
330
F7EB
100
AcDbEntity
  8
0
100
AcDbLine
 10
38.79315533855962
 20
1.227476037518777
 30
0.0
 11
39.39999999999999
 21
1.656580012761314
 31
0.0
  0
LINE
  5
F807
330
F7EB
100
AcDbEntity
  8
0
100
AcDbLine
 10
35.01767776087195
 20
0.1805170265382503
 30
0.0
 11
35.01767776087195
 21
0.0
 31
0.0
  0
LINE
  5
F808
330
F7EB
100
AcDbEntity
  8
0
100
AcDbLine
 10
24.98943351399742
 20
0.0
 30
0.0
 11
35.01767776087195
 21
0.0
 31
0.0
  0
LINE
  5
F809
330
F7EB
100
AcDbEntity
  8
0
100
AcDbLine
 10
4.989433513812945
 20
0.0
 30
0.0
 11
20.01056648600256
 21
0.0
 31
0.0
  0
LINE
  5
F80A
330
F7EB
100
AcDbEntity
  8
0
100
AcDbLine
 10
-20.01056648600258
 20
0.0
 30
0.0
 11
-4.989433513812969
 21
0.0
 31
0.0
  0
LINE
  5
F80B
330
F7EB
100
AcDbEntity
  8
0
100
AcDbLine
 10
-35.01767776087196
 20
0.0
 30
0.0
 11
-24.98943351399744
 21
0.0
 31
0.0
  0
LINE
  5
F80C
330
F7EB
100
AcDbEntity
  8
0
100
AcDbLine
 10
41.49999999999997
 20
56.26437943888952
 30
0.0
 11
41.49999999999995
 21
82.00306627385996
 31
0.0
  0
LINE
  5
F80D
330
F7EB
100
AcDbEntity
  8
0
100
AcDbLine
 10
-41.49999999999994
 20
82.00306627386
 30
0.0
 11
-41.49999999999997
 21
56.26437943888952
 31
0.0
  0
LINE
  5
F80E
330
F7EB
100
AcDbEntity
  8
0
100
AcDbLine
 10
-39.99999999999997
 20
82.00306627385996
 30
0.0
 11
-39.99999999999997
 21
56.26437943888952
 31
0.0
  0
LINE
  5
F80F
330
F7EB
100
AcDbEntity
  8
0
100
AcDbLine
 10
-39.39999999999999
 20
55.8401153701776
 30
0.0
 11
39.4
 21
55.84011537017758
 31
0.0
  0
LINE
  5
F810
330
F7EB
100
AcDbEntity
  8
0
100
AcDbLine
 10
39.99999999999999
 20
56.26437943888952
 30
0.0
 11
39.99999999999999
 21
82.00306627385996
 31
0.0
  0
LINE
  5
F811
330
F7EB
100
AcDbEntity
  8
0
100
AcDbLine
 10
-39.39999999999999
 20
54.77945519839778
 30
0.0
 11
39.4
 21
54.77945519839777
 31
0.0
  0
LINE
  5
F812
330
F7EB
100
AcDbEntity
  8
0
100
AcDbLine
 10
24.98943351399742
 20
0.0
 30
0.0
 11
20.01056648600256
 21
0.0
 31
0.0
  0
LINE
  5
F813
330
F7EB
100
AcDbEntity
  8
0
100
AcDbLine
 10
-20.01056648600258
 20
0.0
 30
0.0
 11
-24.98943351399744
 21
0.0
 31
0.0
  0
ELLIPSE
  5
F814
330
F7EB
100
AcDbEntity
  8
0
100
AcDbEllipse
 10
-22.50000000000001
 20
0.1668158657389995
 30
0.0
 11
-2.5
 21
0.0000000000000002
 31
0.0
210
0.0
220
0.0
230
1.0
 40
0.7071067811865474
 41
3.397965980608241
 42
6.026811980161135
  0
SPLINE
  5
F815
330
F7EB
100
AcDbEntity
  8
0
100
AcDbSpline
210
0.0
220
0.0
230
1.0
 70
     8
 71
     3
 72
     8
 73
     4
 74
     0
 42
0.000000001
 43
0.0000000001
 40
0.0
 40
0.0
 40
0.0
 40
0.0
 40
1.0
 40
1.0
 40
1.0
 40
1.0
 10
-24.98943351399744
 20
0.0000000000000175
 30
0.0
 10
-25.01609483643927
 20
0.0000000000000174
 30
0.0
 10
-24.99189972302021
 20
0.2358409403969577
 30
0.0
 10
-24.91828991960764
 20
0.6150757595082704
 30
0.0
  0
LINE
  5
F816
330
F7EB
100
AcDbEntity
  8
0
100
AcDbLine
 10
-24.98943351399744
 20
0.1805170265382278
 30
0.0
 11
-24.98943351399744
 21
0.0
 31
0.0
  0
LINE
  5
F817
330
F7EB
100
AcDbEntity
  8
0
100
AcDbLine
 10
-20.01056648600258
 20
0.180517026538283
 30
0.0
 11
-20.01056648600258
 21
0.0
 31
0.0
  0
SPLINE
  5
F818
330
F7EB
100
AcDbEntity
  8
0
100
AcDbSpline
210
0.0
220
0.0
230
1.0
 70
     8
 71
     3
 72
     8
 73
     4
 74
     0
 42
0.000000001
 43
0.0000000001
 40
0.0
 40
0.0
 40
0.0
 40
0.0
 40
1.0
 40
1.0
 40
1.0
 40
1.0
 10
-20.08171008039238
 20
0.6150757595082666
 30
0.0
 10
-20.00810027697988
 20
0.2358409403968118
 30
0.0
 10
-19.98390516356058
 20
0.0000000000000164
 30
0.0
 10
-20.01056648600258
 20
0.0000000000000164
 30
0.0
  0
LINE
  5
F819
330
F7EB
100
AcDbEntity
  8
0
100
AcDbLine
 10
-24.14171865077716
 20
1.499999999999991
 30
0.0
 11
-20.85828134922286
 21
1.49999999999999
 31
0.0
  0
ELLIPSE
  5
F81A
330
F7EB
100
AcDbEntity
  8
0
100
AcDbEllipse
 10
22.49999999999999
 20
0.1668158657389959
 30
0.0
 11
-2.5
 21
0.0000000000000004
 31
0.0
210
0.0
220
0.0
230
1.0
 40
0.7071067811865475
 41
3.39796598060824
 42
6.026811980161136
  0
SPLINE
  5
F81B
330
F7EB
100
AcDbEntity
  8
0
100
AcDbSpline
210
0.0
220
0.0
230
1.0
 70
     8
 71
     3
 72
     8
 73
     4
 74
     0
 42
0.000000001
 43
0.0000000001
 40
0.0
 40
0.0
 40
0.0
 40
0.0
 40
1.0
 40
1.0
 40
1.0
 40
1.0
 10
20.01056648600256
 20
0.0000000000000075
 30
0.0
 10
19.98390516356056
 20
0.0000000000000076
 30
0.0
 10
20.00810027697967
 20
0.2358409403969588
 30
0.0
 10
20.08171008039235
 20
0.6150757595082615
 30
0.0
  0
LINE
  5
F81C
330
F7EB
100
AcDbEntity
  8
0
100
AcDbLine
 10
20.01056648600256
 20
0.1805170265382472
 30
0.0
 11
20.01056648600256
 21
0.0
 31
0.0
  0
LINE
  5
F81D
330
F7EB
100
AcDbEntity
  8
0
100
AcDbLine
 10
24.98943351399742
 20
0.1805170265382536
 30
0.0
 11
24.98943351399742
 21
0.0
 31
0.0
  0
SPLINE
  5
F81E
330
F7EB
100
AcDbEntity
  8
0
100
AcDbSpline
210
0.0
220
0.0
230
1.0
 70
     8
 71
     3
 72
     8
 73
     4
 74
     0
 42
0.000000001
 43
0.0000000001
 40
0.0
 40
0.0
 40
0.0
 40
0.0
 40
1.0
 40
1.0
 40
1.0
 40
1.0
 10
24.91828991960762
 20
0.6150757595082565
 30
0.0
 10
24.99189972302028
 20
0.2358409403967764
 30
0.0
 10
25.01609483643946
 20
0.0000000000000065
 30
0.0
 10
24.98943351399742
 20
0.0000000000000064
 30
0.0
  0
LINE
  5
F81F
330
F7EB
100
AcDbEntity
  8
0
100
AcDbLine
 10
20.85828134922283
 20
1.499999999999981
 30
0.0
 11
24.14171865077714
 21
1.49999999999998
 31
0.0
  0
LINE
  5
F820
330
F7EB
100
AcDbEntity
  8
0
100
AcDbLine
 10
4.989433513812945
 20
0.0
 30
0.0
 11
2.499999999999995
 21
0.0
 31
0.0
  0
LINE
  5
F821
330
F7EB
100
AcDbEntity
  8
0
100
AcDbLine
 10
2.499999999999994
 20
0.0
 30
0.0
 11
-2.500000000000014
 21
0.0
 31
0.0
  0
LINE
  5
F822
330
F7EB
100
AcDbEntity
  8
0
100
AcDbLine
 10
-2.500000000000013
 20
0.0
 30
0.0
 11
-4.989433513812969
 21
0.0
 31
0.0
  0
SPLINE
  5
F823
330
F7EB
100
AcDbEntity
  8
0
100
AcDbSpline
210
0.0
220
0.0
230
1.0
 70
     8
 71
     3
 72
     8
 73
     4
 74
     0
 42
0.000000001
 43
0.0000000001
 40
0.0
 40
0.0
 40
0.0
 40
0.0
 40
1.0
 40
1.0
 40
1.0
 40
1.0
 10
-4.989433513812967
 20
0.000000000000013
 30
0.0
 10
-5.016094836485364
 20
0.000000000000013
 30
0.0
 10
-4.991899723307307
 20
0.235840940340421
 30
0.0
 10
-4.918289920131925
 20
0.6150757595082633
 30
0.0
  0
SPLINE
  5
F824
330
F7EB
100
AcDbEntity
  8
0
100
AcDbSpline
210
0.0
220
0.0
230
1.0
 70
     8
 71
     3
 72
     8
 73
     4
 74
     0
 42
0.000000001
 43
0.0000000001
 40
0.0
 40
0.0
 40
0.0
 40
0.0
 40
1.0
 40
1.0
 40
1.0
 40
1.0
 10
4.918289920131907
 20
0.615075759508261
 30
0.0
 10
4.991899723307191
 20
0.2358409403404309
 30
0.0
 10
5.016094836485295
 20
0.0000000000000106
 30
0.0
 10
4.989433513812949
 20
0.0000000000000108
 30
0.0
  0
ELLIPSE
  5
F825
330
F7EB
100
AcDbEntity
  8
0
100
AcDbEllipse
 10
-2.500000000000008
 20
0.1668158671532047
 30
0.0
 11
-2.5
 21
0.0000000000000008
 31
0.0
210
0.0
220
0.0
230
1.0
 40
0.7071067811865474
 41
4.712388980384689
 42
6.026811980988168
  0
LINE
  5
F826
330
F7EB
100
AcDbEntity
  8
0
100
AcDbLine
 10
-2.500000000000008
 20
1.934582820119553
 30
0.0
 11
2.499999999999987
 21
1.934582820119551
 31
0.0
  0
ELLIPSE
  5
F827
330
F7EB
100
AcDbEntity
  8
0
100
AcDbEllipse
 10
2.499999999999986
 20
0.1668158671532027
 30
0.0
 11
2.5
 21
-0.0000000000000006
 31
0.0
210
0.0
220
0.0
230
1.0
 40
0.7071067811865474
 41
0.2563733261914187
 42
1.570796326794896
  0
LINE
  5
F828
330
F7EB
100
AcDbEntity
  8
0
100
AcDbLine
 10
-4.989433513812969
 20
0.1805170296371666
 30
0.0
 11
-4.989433513812969
 21
0.0
 31
0.0
  0
LINE
  5
F829
330
F7EB
100
AcDbEntity
  8
0
100
AcDbLine
 10
4.989433513812945
 20
0.1805170296371858
 30
0.0
 11
4.989433513812945
 21
0.0
 31
0.0
  0
LINE
  5
F82A
330
F7EB
100
AcDbEntity
  8
0
100
AcDbLine
 10
2.499999999999996
 20
1.499999999999984
 30
0.0
 11
4.141718653073999
 21
1.499999999999983
 31
0.0
  0
LINE
  5
F82B
330
F7EB
100
AcDbEntity
  8
0
100
AcDbLine
 10
-2.500000000000012
 20
1.499999999999986
 30
0.0
 11
2.499999999999996
 21
1.499999999999984
 31
0.0
  0
LINE
  5
F82C
330
F7EB
100
AcDbEntity
  8
0
100
AcDbLine
 10
-4.141718653074018
 20
1.499999999999988
 30
0.0
 11
-2.500000000000013
 21
1.499999999999987
 31
0.0
  0
LINE
  5
F82D
330
F7EB
100
AcDbEntity
  8
0
100
AcDbLine
 10
41.5
 20
2.099999999999963
 30
0.0
 11
41.50000000000001
 21
4.362741700911107
 31
0.0
  0
LINE
  5
F82E
330
F7EB
100
AcDbEntity
  8
0
100
AcDbLine
 10
-41.50000000000001
 20
4.362741700911217
 30
0.0
 11
-41.50000000000001
 21
2.1
 31
0.0
  0
LINE
  5
F82F
330
F7EB
100
AcDbEntity
  8
0
100
AcDbLine
 10
39.99999999999999
 20
82.00306627385996
 30
0.0
 11
41.49999999999995
 21
82.00306627385996
 31
0.0
  0
LINE
  5
F830
330
F7EB
100
AcDbEntity
  8
0
100
AcDbLine
 10
-41.49999999999994
 20
82.00306627386
 30
0.0
 11
-39.99999999999997
 21
82.00306627385996
 31
0.0
  0
LINE
  5
F831
330
F7EB
100
AcDbEntity
  8
0
100
AcDbLine
 10
41.49999999999997
 20
56.26437943888952
 30
0.0
 11
41.50000000000006
 21
4.36274170091111
 31
0.0
  0
ELLIPSE
  5
F832
330
F7EB
100
AcDbEntity
  8
0
100
AcDbEllipse
 10
39.4
 20
56.26437943888956
 30
0.0
 11
0.6000000000000592
 21
0.0000000000000092
 31
0.0
210
0.0
220
0.0
230
1.0
 40
0.707106781186429
 41
4.712388980384671
 42
6.28318530717946
  0
ELLIPSE
  5
F833
330
F7EB
100
AcDbEntity
  8
0
100
AcDbEllipse
 10
39.4
 20
56.26437943888952
 30
0.0
 11
2.100000000000031
 21
0.0000000000000173
 31
0.0
210
0.0
220
0.0
230
1.0
 40
0.7071067811865485
 41
4.712388980384712
 42
6.283185307179646
  0
LINE
  5
F834
330
F7EB
100
AcDbEntity
  8
0
100
AcDbLine
 10
-41.50000000000003
 20
4.362741700911215
 30
0.0
 11
-41.49999999999997
 21
56.26437943888952
 31
0.0
  0
ELLIPSE
  5
F835
330
F7EB
100
AcDbEntity
  8
0
100
AcDbEllipse
 10
-39.39999999999999
 20
56.26437943888952
 30
0.0
 11
-2.09999999999998
 21
-0.0000000000000041
 31
0.0
210
0.0
220
0.0
230
1.0
 40
0.7071067811865476
 41
0.0
 42
1.570796326794897
  0
ELLIPSE
  5
F836
330
F7EB
100
AcDbEntity
  8
0
100
AcDbEllipse
 10
-39.39999999999999
 20
56.26437943888955
 30
0.0
 11
-0.6000000000000089
 21
0.0000000000000268
 31
0.0
210
0.0
220
0.0
230
1.0
 40
0.7071067811865187
 41
0.0000000000001678
 42
1.570796326795002
  0
ARC
  5
F837
330
F7EB
100
AcDbEntity
  8
0
100
AcDbCircle
 10
39.40000000000001
 20
2.099999999999972
 30
0.0
 40
0.6000000000000006
100
AcDbArc
 50
270.0
 51
343.4444348564607
  0
ARC
  5
F838
330
F7EB
100
AcDbEntity
  8
0
100
AcDbCircle
 10
39.40000000000001
 20
2.099999999999972
 30
0.0
 40
2.100000000000004
100
AcDbArc
 50
343.3984504009794
 51
0.0
  0
ARC
  5
F839
330
F7EB
100
AcDbEntity
  8
0
100
AcDbCircle
 10
-39.40000000000001
 20
2.100000000000008
 30
0.0
 40
0.6000000000000007
100
AcDbArc
 50
196.5555651435427
 51
270.0
  0
ARC
  5
F83A
330
F7EB
100
AcDbEntity
  8
0
100
AcDbCircle
 10
-39.40000000000001
 20
2.100000000000008
 30
0.0
 40
2.100000000000004
100
AcDbArc
 50
180.0
 51
196.6015495990203
  0
ENDBLK
  5
F7ED
330
F7EB
100
AcDbEntity
  8
0
100
AcDbBlockEnd
  0
BLOCK
  5
F83C
330
F83B
100
AcDbEntity
  8
0
100
AcDbBlockBegin
  2
SPR80_140-ISO
 70
     0
 10
0.0
 20
0.0
 30
0.0
  3
SPR80_140-ISO
  1

  0
LINE
  5
F83E
330
F83B
100
AcDbEntity
  8
0
100
AcDbLine
 10
86.284875870058
 20
-47.1564521383452
 30
0.0
 11
82.74934196412528
 21
-49.19769359066451
 31
0.0
  0
LINE
  5
F83F
330
F83B
100
AcDbEntity
  8
0
100
AcDbLine
 10
87.34553604183782
 20
-46.54407970264941
 30
0.0
 11
86.284875870058
 21
-47.1564521383452
 31
0.0
  0
LINE
  5
F840
330
F83B
100
AcDbEntity
  8
0
100
AcDbLine
 10
86.28487587005798
 20
6.732322202884715
 30
0.0
 11
87.3455360418378
 21
7.344694638580508
 31
0.0
  0
LINE
  5
F841
330
F83B
100
AcDbEntity
  8
0
100
AcDbLine
 10
87.3455360418378
 20
7.344694638580508
 30
0.0
 11
83.81000213590505
 21
13.46841899553846
 31
0.0
  0
LINE
  5
F842
330
F83B
100
AcDbEntity
  8
0
100
AcDbLine
 10
-26.89052095856818
 20
14.10291078166612
 30
0.0
 11
-30.42605486450093
 21
20.22663513862406
 31
0.0
  0
LINE
  5
F843
330
F83B
100
AcDbEntity
  8
0
100
AcDbLine
 10
82.74934196412523
 20
12.85604655984265
 30
0.0
 11
86.28487587005798
 21
6.732322202884715
 31
0.0
  0
LINE
  5
F844
330
F83B
100
AcDbEntity
  8
0
100
AcDbLine
 10
83.81000213590505
 20
13.46841899553846
 30
0.0
 11
82.74934196412523
 21
12.85604655984265
 31
0.0
  0
LINE
  5
F845
330
F83B
100
AcDbEntity
  8
0
100
AcDbLine
 10
87.3455360418378
 20
7.344694638580508
 30
0.0
 11
87.34553604183782
 21
-46.54407970264941
 31
0.0
  0
LINE
  5
F846
330
F83B
100
AcDbEntity
  8
0
100
AcDbLine
 10
86.28487587005798
 20
6.732322202884715
 30
0.0
 11
86.284875870058
 21
-47.1564521383452
 31
0.0
  0
LINE
  5
F847
330
F83B
100
AcDbEntity
  8
0
100
AcDbLine
 10
-1.41552091646321
 20
62.67339767164985
 30
0.0
 11
3.180673161249365
 21
60.01978378363474
 31
0.0
  0
LINE
  5
F848
330
F83B
100
AcDbEntity
  8
0
100
AcDbLine
 10
56.21368175024048
 20
29.40116199884504
 30
0.0
 11
83.81000213590505
 21
13.46841899553846
 31
0.0
  0
LINE
  5
F849
330
F83B
100
AcDbEntity
  8
0
100
AcDbLine
 10
-30.42605486450093
 20
20.22663513862406
 30
0.0
 11
-30.42605486450093
 21
50.43700863294993
 31
0.0
  0
LINE
  5
F84A
330
F83B
100
AcDbEntity
  8
0
100
AcDbLine
 10
55.15302157846067
 20
28.78878956314924
 30
0.0
 11
82.74934196412523
 21
12.85604655984265
 31
0.0
  0
LINE
  5
F84B
330
F83B
100
AcDbEntity
  8
0
100
AcDbLine
 10
2.120012989469541
 20
-2.64632880256822
 30
0.0
 11
-26.89052095856818
 21
14.10291078166612
 31
0.0
  0
LINE
  5
F84C
330
F83B
100
AcDbEntity
  8
0
100
AcDbLine
 10
82.74934196412528
 20
-49.19769359066451
 30
0.0
 11
53.73880801608755
 21
-32.4484540064302
 31
0.0
  0
LINE
  5
F84D
330
F83B
100
AcDbEntity
  8
0
100
AcDbLine
 10
-2.47618108824303
 20
62.06102523595404
 30
0.0
 11
2.120012989469546
 21
59.40741134793895
 31
0.0
  0
LINE
  5
F84E
330
F83B
100
AcDbEntity
  8
0
100
AcDbLine
 10
3.180673161249365
 20
60.01978378363474
 30
0.0
 11
2.120012989469546
 21
59.40741134793895
 31
0.0
  0
ELLIPSE
  5
F84F
330
F83B
100
AcDbEntity
  8
0
100
AcDbEllipse
 10
2.120012989469546
 20
60.63215621933053
 30
0.0
 11
0.750000000000001
 21
-1.299038105676657
 31
0.0
210
0.0
220
0.0
230
1.0
 40
0.5773502691896262
 41
5.497787143782137
 42
8.63937979737193
  0
ELLIPSE
  5
F850
330
F83B
100
AcDbEntity
  8
0
100
AcDbEllipse
 10
50.20327411015479
 20
26.74754811082991
 30
0.0
 11
1.250000000000001
 21
-2.165063509461095
 31
0.0
210
0.0
220
0.0
230
1.0
 40
0.5773502691896261
 41
4.999145532596257
 42
5.845036276595413
  0
ELLIPSE
  5
F851
330
F83B
100
AcDbEntity
  8
0
100
AcDbEllipse
 10
49.14261393837498
 20
26.13517567513412
 30
0.0
 11
1.25
 21
-2.165063509461095
 31
0.0
210
0.0
220
0.0
230
1.0
 40
0.577350269189626
 41
4.999145532596259
 42
7.567225081762915
  0
ELLIPSE
  5
F852
330
F83B
100
AcDbEntity
  8
0
100
AcDbEllipse
 10
50.20327411015479
 20
-5.912315126279117
 30
0.0
 11
1.250000000000129
 21
-2.165063509461021
 31
0.0
210
0.0
220
0.0
230
1.0
 40
0.5773502691896261
 41
3.579741684173546
 42
5.845036276594998
  0
ELLIPSE
  5
F853
330
F83B
100
AcDbEntity
  8
0
100
AcDbEllipse
 10
49.14261393837498
 20
-6.524687561974912
 30
0.0
 11
1.25
 21
-2.165063509461095
 31
0.0
210
0.0
220
0.0
230
1.0
 40
0.5773502691896261
 41
0.0
 42
6.283185307179586
  0
ELLIPSE
  5
F854
330
F83B
100
AcDbEntity
  8
0
100
AcDbEllipse
 10
43.13220629828932
 20
79.81982587113208
 30
0.0
 11
1.250000000000129
 21
-2.165063509461021
 31
0.0
210
0.0
220
0.0
230
1.0
 40
0.5773502691896261
 41
3.579741684173544
 42
5.845036276594998
  0
ELLIPSE
  5
F855
330
F83B
100
AcDbEntity
  8
0
100
AcDbEllipse
 10
43.13220629828932
 20
14.50009939691403
 30
0.0
 11
1.250000000000129
 21
-2.165063509461021
 31
0.0
210
0.0
220
0.0
230
1.0
 40
0.5773502691896261
 41
3.579741684173546
 42
5.845036276594998
  0
ELLIPSE
  5
F856
330
F83B
100
AcDbEntity
  8
0
100
AcDbEllipse
 10
42.07154612650949
 20
79.20745343543629
 30
0.0
 11
1.25
 21
-2.165063509461095
 31
0.0
210
0.0
220
0.0
230
1.0
 40
0.5773502691896261
 41
0.0
 42
6.283185307179586
  0
ELLIPSE
  5
F857
330
F83B
100
AcDbEntity
  8
0
100
AcDbEllipse
 10
42.07154612650949
 20
13.88772696121823
 30
0.0
 11
1.25
 21
-2.165063509461095
 31
0.0
210
0.0
220
0.0
230
1.0
 40
0.5773502691896261
 41
0.0
 42
6.283185307179586
  0
ELLIPSE
  5
F858
330
F83B
100
AcDbEntity
  8
0
100
AcDbEllipse
 10
43.13220629828932
 20
-18.159763840195
 30
0.0
 11
1.250000000000129
 21
-2.165063509461021
 31
0.0
210
0.0
220
0.0
230
1.0
 40
0.5773502691896261
 41
3.579741684173546
 42
5.845036276594997
  0
ELLIPSE
  5
F859
330
F83B
100
AcDbEntity
  8
0
100
AcDbEllipse
 10
42.07154612650949
 20
-18.7721362758908
 30
0.0
 11
1.25
 21
-2.165063509461095
 31
0.0
210
0.0
220
0.0
230
1.0
 40
0.5773502691896261
 41
0.0
 42
6.283185307179586
  0
ELLIPSE
  5
F85A
330
F83B
100
AcDbEntity
  8
0
100
AcDbEllipse
 10
14.84793505082741
 20
79.81982587113208
 30
0.0
 11
1.250000000000129
 21
-2.165063509461021
 31
0.0
210
0.0
220
0.0
230
1.0
 40
0.5773502691896261
 41
3.579741684173544
 42
5.845036276594998
  0
ELLIPSE
  5
F85B
330
F83B
100
AcDbEntity
  8
0
100
AcDbEllipse
 10
14.84793505082741
 20
47.15996263402306
 30
0.0
 11
1.250000000000129
 21
-2.165063509461021
 31
0.0
210
0.0
220
0.0
230
1.0
 40
0.5773502691896261
 41
3.579741684173544
 42
5.845036276594997
  0
ELLIPSE
  5
F85C
330
F83B
100
AcDbEntity
  8
0
100
AcDbEllipse
 10
13.78727487904759
 20
79.20745343543629
 30
0.0
 11
1.25
 21
-2.165063509461095
 31
0.0
210
0.0
220
0.0
230
1.0
 40
0.5773502691896261
 41
0.0
 42
6.283185307179586
  0
ELLIPSE
  5
F85D
330
F83B
100
AcDbEntity
  8
0
100
AcDbEllipse
 10
13.78727487904759
 20
46.54759019832727
 30
0.0
 11
1.25
 21
-2.165063509461095
 31
0.0
210
0.0
220
0.0
230
1.0
 40
0.5773502691896261
 41
0.0
 42
6.283185307179586
  0
ELLIPSE
  5
F85E
330
F83B
100
AcDbEntity
  8
0
100
AcDbEllipse
 10
14.84793505082741
 20
14.50009939691403
 30
0.0
 11
1.250000000000129
 21
-2.165063509461021
 31
0.0
210
0.0
220
0.0
230
1.0
 40
0.5773502691896261
 41
3.579741684173544
 42
5.845036276594997
  0
ELLIPSE
  5
F85F
330
F83B
100
AcDbEntity
  8
0
100
AcDbEllipse
 10
13.78727487904759
 20
13.88772696121823
 30
0.0
 11
1.25
 21
-2.165063509461095
 31
0.0
210
0.0
220
0.0
230
1.0
 40
0.5773502691896261
 41
0.0
 42
6.283185307179586
  0
ELLIPSE
  5
F860
330
F83B
100
AcDbEntity
  8
0
100
AcDbEllipse
 10
7.776867238961937
 20
100.2322403943252
 30
0.0
 11
1.250000000000129
 21
-2.165063509461021
 31
0.0
210
0.0
220
0.0
230
1.0
 40
0.5773502691896261
 41
3.579741684173544
 42
5.845036276594999
  0
ELLIPSE
  5
F861
330
F83B
100
AcDbEntity
  8
0
100
AcDbEllipse
 10
7.776867238961933
 20
67.57237715721621
 30
0.0
 11
1.250000000000129
 21
-2.165063509461021
 31
0.0
210
0.0
220
0.0
230
1.0
 40
0.5773502691896261
 41
3.579741684173544
 42
5.845036276594999
  0
ELLIPSE
  5
F862
330
F83B
100
AcDbEntity
  8
0
100
AcDbEllipse
 10
7.776867238961933
 20
34.91251392010718
 30
0.0
 11
1.250000000000129
 21
-2.165063509461021
 31
0.0
210
0.0
220
0.0
230
1.0
 40
0.5773502691896261
 41
3.579741684173548
 42
5.845036276594997
  0
ELLIPSE
  5
F863
330
F83B
100
AcDbEntity
  8
0
100
AcDbEllipse
 10
6.716207067182113
 20
99.61986795862944
 30
0.0
 11
1.25
 21
-2.165063509461095
 31
0.0
210
0.0
220
0.0
230
1.0
 40
0.5773502691896261
 41
0.0
 42
6.283185307179586
  0
ELLIPSE
  5
F864
330
F83B
100
AcDbEntity
  8
0
100
AcDbEllipse
 10
6.716207067182109
 20
66.96000472152042
 30
0.0
 11
1.25
 21
-2.165063509461095
 31
0.0
210
0.0
220
0.0
230
1.0
 40
0.5773502691896261
 41
0.0
 42
6.283185307179586
  0
ELLIPSE
  5
F865
330
F83B
100
AcDbEntity
  8
0
100
AcDbEllipse
 10
6.716207067182109
 20
34.30014148441138
 30
0.0
 11
1.25
 21
-2.165063509461095
 31
0.0
210
0.0
220
0.0
230
1.0
 40
0.5773502691896261
 41
0.0
 42
6.283185307179586
  0
ELLIPSE
  5
F866
330
F83B
100
AcDbEntity
  8
0
100
AcDbEllipse
 10
7.776867238961928
 20
2.25265068299814
 30
0.0
 11
1.25000000000013
 21
-2.165063509461021
 31
0.0
210
0.0
220
0.0
230
1.0
 40
0.5773502691896261
 41
3.579741684173544
 42
5.845036276594996
  0
ELLIPSE
  5
F867
330
F83B
100
AcDbEntity
  8
0
100
AcDbEllipse
 10
6.716207067182105
 20
1.640278247302344
 30
0.0
 11
1.25
 21
-2.165063509461095
 31
0.0
210
0.0
220
0.0
230
1.0
 40
0.5773502691896261
 41
0.0
 42
6.283185307179586
  0
ELLIPSE
  5
F868
330
F83B
100
AcDbEntity
  8
0
100
AcDbEllipse
 10
-8.505744647717925
 20
60.6432158945465
 30
0.0
 11
1.250000000000001
 21
-2.165063509461095
 31
0.0
210
0.0
220
0.0
230
1.0
 40
0.5773502691896262
 41
5.508682942396012
 42
5.845036276595415
  0
ELLIPSE
  5
F869
330
F83B
100
AcDbEntity
  8
0
100
AcDbEllipse
 10
62.24324530971535
 20
19.79626749772829
 30
0.0
 11
1.250000000000129
 21
-2.165063509461021
 31
0.0
210
0.0
220
0.0
230
1.0
 40
0.5773502691896261
 41
3.579741684173546
 42
5.845036276594997
  0
ELLIPSE
  5
F86A
330
F83B
100
AcDbEntity
  8
0
100
AcDbEllipse
 10
-9.566404819497748
 20
60.03084345885071
 30
0.0
 11
1.25
 21
-2.165063509461096
 31
0.0
210
0.0
220
0.0
230
0.9999999999999998
 40
0.577350269189626
 41
5.508682942396012
 42
7.057687671963159
  0
ELLIPSE
  5
F86B
330
F83B
100
AcDbEntity
  8
0
100
AcDbEllipse
 10
61.18258513793552
 20
19.1838950620325
 30
0.0
 11
1.25
 21
-2.165063509461095
 31
0.0
210
0.0
220
0.0
230
1.0
 40
0.5773502691896261
 41
0.0
 42
6.283185307179586
  0
ELLIPSE
  5
F86C
330
F83B
100
AcDbEntity
  8
0
100
AcDbEllipse
 10
-4.263103960598635
 20
25.53386291465429
 30
0.0
 11
1.250000000000129
 21
-2.16506350946102
 31
0.0
210
0.0
220
0.0
230
1.0
 40
0.5773502691896262
 41
3.579741684173548
 42
5.845036276594998
  0
ELLIPSE
  5
F86D
330
F83B
100
AcDbEntity
  8
0
100
AcDbEllipse
 10
66.48588599683463
 20
-15.3130854821639
 30
0.0
 11
1.250000000000129
 21
-2.16506350946102
 31
0.0
210
0.0
220
0.0
230
1.0
 40
0.5773502691896262
 41
3.579741684173546
 42
5.845036276594997
  0
ELLIPSE
  5
F86E
330
F83B
100
AcDbEntity
  8
0
100
AcDbEllipse
 10
-5.323764132378459
 20
24.92149047895849
 30
0.0
 11
1.25
 21
-2.165063509461095
 31
0.0
210
0.0
220
0.0
230
1.0
 40
0.5773502691896261
 41
0.0
 42
6.283185307179586
  0
ELLIPSE
  5
F86F
330
F83B
100
AcDbEntity
  8
0
100
AcDbEllipse
 10
65.42522582505481
 20
-15.9254579178597
 30
0.0
 11
1.25
 21
-2.165063509461095
 31
0.0
210
0.0
220
0.0
230
1.0
 40
0.5773502691896261
 41
0.0
 42
6.283185307179586
  0
ELLIPSE
  5
F870
330
F83B
100
AcDbEntity
  8
0
100
AcDbEllipse
 10
44.89997325125568
 20
-27.3453503756319
 30
0.0
 11
1.250000000000129
 21
-2.165063509461021
 31
0.0
210
0.0
220
0.0
230
1.0
 40
0.5773502691896261
 41
3.579741684173548
 42
3.835017178248603
  0
ELLIPSE
  5
F871
330
F83B
100
AcDbEntity
  8
0
100
AcDbEllipse
 10
13.08016809786104
 20
-8.974177304758075
 30
0.0
 11
1.250000000000129
 21
-2.16506350946102
 31
0.0
210
0.0
220
0.0
230
1.0
 40
0.5773502691896261
 41
3.579741684173546
 42
3.835017178248603
  0
ELLIPSE
  5
F872
330
F83B
100
AcDbEntity
  8
0
100
AcDbEllipse
 10
12.96221146798748
 20
-9.701236662974565
 30
0.0
 11
-1.250000000000001
 21
-2.165063509461095
 31
0.0
210
0.0
220
0.0
230
0.9999999999999998
 40
0.8164965809277262
 41
4.968762307403139
 42
6.069429174707156
  0
LINE
  5
F873
330
F83B
100
AcDbEntity
  8
0
100
AcDbLine
 10
10.93525465633964
 20
-9.262977943393234
 30
0.0
 11
10.43500465644056
 21
-8.974158471289392
 31
0.0
  0
LINE
  5
F874
330
F83B
100
AcDbEntity
  8
0
100
AcDbLine
 10
10.43500465644056
 20
-8.974158471289392
 30
0.0
 11
10.18525465633964
 21
-8.829965241501014
 31
0.0
  0
ELLIPSE
  5
F875
330
F83B
100
AcDbEntity
  8
0
100
AcDbEllipse
 10
12.21221146798749
 20
-9.268223961082354
 30
0.0
 11
-1.25
 21
-2.165063509461095
 31
0.0
210
0.0
220
0.0
230
1.0
 40
0.8164965809277262
 41
4.968762307403138
 42
7.597608306956033
  0
LINE
  5
F876
330
F83B
100
AcDbEntity
  8
0
100
AcDbLine
 10
10.25921260702057
 20
-8.382766935678715
 30
0.0
 11
10.61241244460069
 21
-8.1788469143741
 31
0.0
  0
SPLINE
  5
F877
330
F83B
100
AcDbEntity
  8
0
100
AcDbSpline
210
0.0
220
0.0
230
1.0
 70
     8
 71
     3
 72
     8
 73
     4
 74
     0
 42
0.000000001
 43
0.0000000001
 40
-1.0
 40
-1.0
 40
-1.0
 40
-1.0
 40
0.0
 40
0.0
 40
0.0
 40
0.0
 10
10.18525465633964
 20
-8.829965241501016
 30
0.0
 10
10.20982166868642
 20
-8.667209622307971
 30
0.0
 10
10.24036020512654
 20
-8.50067829464438
 30
0.0
 10
10.25921260702056
 20
-8.382766935678722
 30
0.0
  0
SPLINE
  5
F878
330
F83B
100
AcDbEntity
  8
0
100
AcDbSpline
210
0.0
220
0.0
230
1.0
 70
     8
 71
     3
 72
     8
 73
     4
 74
     0
 42
0.000000001
 43
0.0000000001
 40
0.0
 40
0.0
 40
0.0
 40
0.0
 40
1.0
 40
1.0
 40
1.0
 40
1.0
 10
11.31987277880038
 20
-7.770394499982926
 30
0.0
 10
11.30102037690636
 20
-8.210295354633688
 30
0.0
 10
11.15136417744047
 20
-8.768460967228982
 30
0.0
 10
10.93525465633964
 20
-9.262977943393238
 30
0.0
  0
LINE
  5
F879
330
F83B
100
AcDbEntity
  8
0
100
AcDbLine
 10
10.61241244460069
 20
-8.1788469143741
 30
0.0
 11
11.31987277880039
 21
-7.77039449998292
 31
0.0
  0
SPLINE
  5
F87A
330
F83B
100
AcDbEntity
  8
0
100
AcDbSpline
210
0.0
220
0.0
230
1.0
 70
     8
 71
     3
 72
     8
 73
     4
 74
     0
 42
0.000000001
 43
0.0000000001
 40
-1.0
 40
-1.0
 40
-1.0
 40
-1.0
 40
0.0
 40
0.0
 40
0.0
 40
0.0
 10
13.77980324514183
 20
-10.41538088830451
 30
0.0
 10
13.79865564703597
 20
-10.55506112588701
 30
0.0
 10
13.73390005305533
 20
-10.70183722616863
 30
0.0
 10
13.6052330583989
 20
-10.80449069255263
 30
0.0
  0
ELLIPSE
  5
F87B
330
F83B
100
AcDbEntity
  8
0
100
AcDbEllipse
 10
12.01950792608122
 20
-9.586549740453872
 30
0.0
 11
-1.25
 21
2.165063509461095
 31
0.0
210
0.0
220
0.0
230
0.9999999999999998
 40
0.5773502691896261
 41
4.018964455725523
 42
6.976609831838751
  0
ELLIPSE
  5
F87C
330
F83B
100
AcDbEntity
  8
0
100
AcDbEllipse
 10
44.78201662138212
 20
-28.07240973384839
 30
0.0
 11
-1.250000000000001
 21
-2.165063509461095
 31
0.0
210
0.0
220
0.0
230
1.0
 40
0.816496580927726
 41
4.96876230740314
 42
6.069429174707156
  0
LINE
  5
F87D
330
F83B
100
AcDbEntity
  8
0
100
AcDbLine
 10
42.75505980973428
 20
-27.63415101426706
 30
0.0
 11
42.2548098098361
 21
-27.34533154216374
 31
0.0
  0
LINE
  5
F87E
330
F83B
100
AcDbEntity
  8
0
100
AcDbLine
 10
42.2548098098361
 20
-27.34533154216374
 30
0.0
 11
42.00505980973428
 21
-27.20113831237484
 31
0.0
  0
ELLIPSE
  5
F87F
330
F83B
100
AcDbEntity
  8
0
100
AcDbEllipse
 10
44.03201662138214
 20
-27.63939703195618
 30
0.0
 11
-1.25
 21
-2.165063509461095
 31
0.0
210
0.0
220
0.0
230
1.0
 40
0.8164965809277262
 41
4.968762307403139
 42
7.597608306956033
  0
LINE
  5
F880
330
F83B
100
AcDbEntity
  8
0
100
AcDbLine
 10
42.07901776041523
 20
-26.75394000655253
 30
0.0
 11
42.43221759800033
 21
-26.55001998524504
 31
0.0
  0
SPLINE
  5
F881
330
F83B
100
AcDbEntity
  8
0
100
AcDbSpline
210
0.0
220
0.0
230
1.0
 70
     8
 71
     3
 72
     8
 73
     4
 74
     0
 42
0.000000001
 43
0.0000000001
 40
-1.0
 40
-1.0
 40
-1.0
 40
-1.0
 40
0.0
 40
0.0
 40
0.0
 40
0.0
 10
42.00505980973428
 20
-27.20113831237484
 30
0.0
 10
42.02962682208099
 20
-27.03838269318175
 30
0.0
 10
42.06016535852106
 20
-26.87185136551813
 30
0.0
 10
42.0790177604152
 20
-26.75394000655254
 30
0.0
  0
SPLINE
  5
F882
330
F83B
100
AcDbEntity
  8
0
100
AcDbSpline
210
0.0
220
0.0
230
1.0
 70
     8
 71
     3
 72
     8
 73
     4
 74
     0
 42
0.000000001
 43
0.0000000001
 40
0.0
 40
0.0
 40
0.0
 40
0.0
 40
1.0
 40
1.0
 40
1.0
 40
1.0
 10
43.13967793219503
 20
-26.14156757085675
 30
0.0
 10
43.12082553030088
 20
-26.58146842550742
 30
0.0
 10
42.97116933083502
 20
-27.13963403810277
 30
0.0
 10
42.75505980973428
 20
-27.63415101426706
 30
0.0
  0
LINE
  5
F883
330
F83B
100
AcDbEntity
  8
0
100
AcDbLine
 10
42.43221759800033
 20
-26.55001998524504
 30
0.0
 11
43.13967793219505
 21
-26.14156757085674
 31
0.0
  0
SPLINE
  5
F884
330
F83B
100
AcDbEntity
  8
0
100
AcDbSpline
210
0.0
220
0.0
230
1.0
 70
     8
 71
     3
 72
     8
 73
     4
 74
     0
 42
0.000000001
 43
0.0000000001
 40
-1.0
 40
-1.0
 40
-1.0
 40
-1.0
 40
0.0
 40
0.0
 40
0.0
 40
0.0
 10
45.59960839853648
 20
-28.78655395917834
 30
0.0
 10
45.61846080043064
 20
-28.92623419676085
 30
0.0
 10
45.55370520645009
 20
-29.07301029704251
 30
0.0
 10
45.42503821179353
 20
-29.17566376342646
 30
0.0
  0
ELLIPSE
  5
F885
330
F83B
100
AcDbEntity
  8
0
100
AcDbEllipse
 10
43.83931307947586
 20
-27.9577228113277
 30
0.0
 11
-1.25
 21
2.165063509461095
 31
0.0
210
0.0
220
0.0
230
1.0
 40
0.577350269189626
 41
4.018964455725525
 42
6.976609831838752
  0
ELLIPSE
  5
F886
330
F83B
100
AcDbEntity
  8
0
100
AcDbEllipse
 10
27.222303721592
 20
-17.13914311566832
 30
0.0
 11
1.25000000000013
 21
-2.16506350946102
 31
0.0
210
0.0
220
0.0
230
1.0
 40
0.5773502691896263
 41
3.579741684173548
 42
3.835017177445207
  0
SPLINE
  5
F887
330
F83B
100
AcDbEntity
  8
0
100
AcDbSpline
210
0.0
220
0.0
230
1.0
 70
     8
 71
     3
 72
     8
 73
     4
 74
     0
 42
0.000000001
 43
0.0000000001
 40
-1.0
 40
-1.0
 40
-1.0
 40
-1.0
 40
0.0
 40
0.0
 40
0.0
 40
0.0
 10
24.32739027969987
 20
-16.99493105056423
 30
0.0
 10
24.35195729222579
 20
-16.83217543144824
 30
0.0
 10
24.3824958288249
 20
-16.66564410388453
 30
0.0
 10
24.40134823088195
 20
-16.54773274503128
 30
0.0
  0
SPLINE
  5
F888
330
F83B
100
AcDbEntity
  8
0
100
AcDbSpline
210
0.0
220
0.0
230
1.0
 70
     8
 71
     3
 72
     8
 73
     4
 74
     0
 42
0.000000001
 43
0.0000000001
 40
0.0
 40
0.0
 40
0.0
 40
0.0
 40
1.0
 40
1.0
 40
1.0
 40
1.0
 10
25.46200840266178
 20
-15.93536030933549
 30
0.0
 10
25.44315600060472
 20
-16.37526116382814
 30
0.0
 10
25.29349980100839
 20
-16.93342677631979
 30
0.0
 10
25.07739027969987
 20
-17.42794375245645
 30
0.0
  0
SPLINE
  5
F889
330
F83B
100
AcDbEntity
  8
0
100
AcDbSpline
210
0.0
220
0.0
230
1.0
 70
     8
 71
     3
 72
     8
 73
     4
 74
     0
 42
0.000000001
 43
0.0000000001
 40
-1.0
 40
-1.0
 40
-1.0
 40
-1.0
 40
0.0
 40
0.0
 40
0.0
 40
0.0
 10
31.45747277467509
 20
-20.62158814982578
 30
0.0
 10
31.47632517673211
 20
-20.76126838748404
 30
0.0
 10
31.4115695829334
 20
-20.90804448786267
 30
0.0
 10
31.28290258843332
 20
-21.01069795436324
 30
0.0
  0
ELLIPSE
  5
F88A
330
F83B
100
AcDbEntity
  8
0
100
AcDbEllipse
 10
27.10434709071844
 20
-17.86620247398387
 30
0.0
 11
-1.250000000000001
 21
-2.165063509461095
 31
0.0
210
0.0
220
0.0
230
1.0
 40
0.8164965809277262
 41
4.968762306576108
 42
6.283185307179587
  0
LINE
  5
F88B
330
F83B
100
AcDbEntity
  8
0
100
AcDbLine
 10
25.07739027969987
 20
-17.42794375245645
 30
0.0
 11
24.57714027980107
 21
-17.13912428035277
 31
0.0
  0
LINE
  5
F88C
330
F83B
100
AcDbEntity
  8
0
100
AcDbLine
 10
24.57714027980107
 20
-17.13912428035277
 30
0.0
 11
24.32739027969987
 21
-16.99493105056423
 31
0.0
  0
ELLIPSE
  5
F88D
330
F83B
100
AcDbEntity
  8
0
100
AcDbEllipse
 10
26.35434709071845
 20
-17.43318977209166
 30
0.0
 11
-1.25
 21
-2.165063509461095
 31
0.0
210
0.0
220
0.0
230
1.0
 40
0.8164965809277262
 41
4.968762306576106
 42
6.283185307179586
  0
LINE
  5
F88E
330
F83B
100
AcDbEntity
  8
0
100
AcDbLine
 10
28.63988099665119
 20
-21.63949473387209
 30
0.0
 11
25.10434709071845
 21
-19.59825328155278
 31
0.0
  0
ELLIPSE
  5
F88F
330
F83B
100
AcDbEntity
  8
0
100
AcDbEllipse
 10
29.88988099665118
 20
-19.47443122441097
 30
0.0
 11
-1.249999999999999
 21
-2.165063509461097
 31
0.0
210
0.0
220
0.0
230
0.9999999999999998
 40
0.816496580927726
 41
0.0
 42
1.314423000603477
  0
LINE
  5
F890
330
F83B
100
AcDbEntity
  8
0
100
AcDbLine
 10
24.40134823088197
 20
-16.54773274503127
 30
0.0
 11
24.75454806846638
 21
-16.34381272372418
 31
0.0
  0
LINE
  5
F891
330
F83B
100
AcDbEntity
  8
0
100
AcDbLine
 10
24.75454806846638
 20
-16.34381272372418
 30
0.0
 11
25.46200840266179
 21
-15.93536030933548
 31
0.0
  0
ELLIPSE
  5
F892
330
F83B
100
AcDbEntity
  8
0
100
AcDbEllipse
 10
29.69717745574491
 20
-19.79275700368343
 30
0.0
 11
1.249999999999872
 21
-2.165063509461169
 31
0.0
210
0.0
220
0.0
230
0.9999999999999998
 40
0.5773502691896262
 41
0.8773718029393409
 42
2.356194490192578
  0
LINE
  5
F893
330
F83B
100
AcDbEntity
  8
0
100
AcDbLine
 10
26.16164354981217
 20
-15.7102740990448
 30
0.0
 11
29.69717745574492
 21
-17.75151555136412
 31
0.0
  0
ELLIPSE
  5
F894
330
F83B
100
AcDbEntity
  8
0
100
AcDbEllipse
 10
26.16164354981217
 20
-17.75151555136412
 30
0.0
 11
-1.250000000000001
 21
2.165063509461095
 31
0.0
210
0.0
220
0.0
230
1.0
 40
0.5773502691896263
 41
5.497787143782139
 42
6.976609831035355
  0
LINE
  5
F895
330
F83B
100
AcDbEntity
  8
0
100
AcDbLine
 10
56.85007785330836
 20
80.79962176824537
 30
0.0
 11
1.130063495808384
 21
112.9695870567977
 31
0.0
  0
LINE
  5
F896
330
F83B
100
AcDbEntity
  8
0
100
AcDbLine
 10
27.57585711218547
 20
16.94958913969713
 30
0.0
 11
27.57585711218548
 21
58.10101681845451
 31
0.0
  0
LINE
  5
F897
330
F83B
100
AcDbEntity
  8
0
100
AcDbLine
 10
26.51519694040565
 20
58.7133892541503
 30
0.0
 11
26.51519694040564
 21
17.56196157539292
 31
0.0
  0
LINE
  5
F898
330
F83B
100
AcDbEntity
  8
0
100
AcDbLine
 10
56.85007785330836
 20
29.76858546026252
 30
0.0
 11
31.11139101811819
 21
14.90834768737782
 31
0.0
  0
LINE
  5
F899
330
F83B
100
AcDbEntity
  8
0
100
AcDbLine
 10
31.1113910181182
 20
64.22474117541245
 30
0.0
 11
56.85007785330839
 21
79.08497894829714
 31
0.0
  0
LINE
  5
F89A
330
F83B
100
AcDbEntity
  8
0
100
AcDbLine
 10
-31.11400572629819
 20
91.9856249269552
 30
0.0
 11
-31.11400572629819
 21
50.83419724819783
 31
0.0
  0
LINE
  5
F89B
330
F83B
100
AcDbEntity
  8
0
100
AcDbLine
 10
-1.839784985175119
 20
112.9695870567977
 30
0.0
 11
-27.57847182036544
 21
98.10934928391313
 31
0.0
  0
LINE
  5
F89C
330
F83B
100
AcDbEntity
  8
0
100
AcDbLine
 10
-30.05334555451837
 20
91.37325249125941
 30
0.0
 11
-30.05334555451837
 21
50.22182481250204
 31
0.0
  0
LINE
  5
F89D
330
F83B
100
AcDbEntity
  8
0
100
AcDbLine
 10
56.85007785330839
 20
79.08497894829714
 30
0.0
 11
55.78941768152855
 21
79.69735138399293
 31
0.0
  0
LINE
  5
F89E
330
F83B
100
AcDbEntity
  8
0
100
AcDbLine
 10
55.78941768152855
 20
79.69735138399293
 30
0.0
 11
30.05073084633836
 21
64.83711361110824
 31
0.0
  0
LINE
  5
F89F
330
F83B
100
AcDbEntity
  8
0
100
AcDbLine
 10
0.0694033240285563
 20
63.04082113306733
 30
0.0
 11
2.120012989469546
 21
61.85690109072211
 31
0.0
  0
LINE
  5
F8A0
330
F83B
100
AcDbEntity
  8
0
100
AcDbLine
 10
56.85007785330836
 20
80.79962176824537
 30
0.0
 11
55.78941768152853
 21
80.18724933254956
 31
0.0
  0
LINE
  5
F8A1
330
F83B
100
AcDbEntity
  8
0
100
AcDbLine
 10
1.130063495808384
 20
112.9695870567977
 30
0.0
 11
0.0694033240285608
 21
112.3572146211019
 31
0.0
  0
LINE
  5
F8A2
330
F83B
100
AcDbEntity
  8
0
100
AcDbLine
 10
-1.839784985175119
 20
112.9695870567977
 30
0.0
 11
-0.7791248133952955
 21
112.3572146211019
 31
0.0
  0
LINE
  5
F8A3
330
F83B
100
AcDbEntity
  8
0
100
AcDbLine
 10
0.0694033240285608
 20
112.3572146211019
 30
0.0
 11
55.78941768152853
 21
80.18724933254958
 31
0.0
  0
LINE
  5
F8A4
330
F83B
100
AcDbEntity
  8
0
100
AcDbLine
 10
-26.51781164858562
 20
48.18058336018271
 30
0.0
 11
-0.7791248133953
 21
63.04082113306733
 31
0.0
  0
LINE
  5
F8A5
330
F83B
100
AcDbEntity
  8
0
100
AcDbLine
 10
-26.51781164858562
 20
97.49697684821734
 30
0.0
 11
-0.7791248133952955
 21
112.3572146211019
 31
0.0
  0
LINE
  5
F8A6
330
F83B
100
AcDbEntity
  8
0
100
AcDbLine
 10
31.11139101811819
 20
14.90834768737782
 30
0.0
 11
27.57585711218547
 21
16.94958913969713
 31
0.0
  0
LINE
  5
F8A7
330
F83B
100
AcDbEntity
  8
0
100
AcDbLine
 10
27.57585711218547
 20
16.94958913969713
 30
0.0
 11
26.51519694040564
 21
17.56196157539292
 31
0.0
  0
LINE
  5
F8A8
330
F83B
100
AcDbEntity
  8
0
100
AcDbLine
 10
26.51519694040565
 20
58.7133892541503
 30
0.0
 11
27.57585711218548
 21
58.10101681845451
 31
0.0
  0
LINE
  5
F8A9
330
F83B
100
AcDbEntity
  8
0
100
AcDbLine
 10
27.57585711218548
 20
58.10101681845451
 30
0.0
 11
31.1113910181182
 21
64.22474117541245
 31
0.0
  0
LINE
  5
F8AA
330
F83B
100
AcDbEntity
  8
0
100
AcDbLine
 10
-26.51781164858562
 20
48.18058336018271
 30
0.0
 11
-30.05334555451837
 21
50.22182481250204
 31
0.0
  0
LINE
  5
F8AB
330
F83B
100
AcDbEntity
  8
0
100
AcDbLine
 10
-30.05334555451837
 20
50.22182481250204
 30
0.0
 11
-31.11400572629819
 21
50.83419724819783
 31
0.0
  0
LINE
  5
F8AC
330
F83B
100
AcDbEntity
  8
0
100
AcDbLine
 10
-27.57847182036544
 20
98.10934928391313
 30
0.0
 11
-31.11400572629819
 21
91.9856249269552
 31
0.0
  0
LINE
  5
F8AD
330
F83B
100
AcDbEntity
  8
0
100
AcDbLine
 10
-31.11400572629819
 20
91.9856249269552
 30
0.0
 11
-30.05334555451837
 21
91.37325249125941
 31
0.0
  0
LINE
  5
F8AE
330
F83B
100
AcDbEntity
  8
0
100
AcDbLine
 10
31.1113910181182
 20
64.22474117541245
 30
0.0
 11
30.05073084633836
 21
64.83711361110824
 31
0.0
  0
LINE
  5
F8AF
330
F83B
100
AcDbEntity
  8
0
100
AcDbLine
 10
30.05073084633836
 20
64.83711361110824
 30
0.0
 11
26.51519694040565
 21
58.7133892541503
 31
0.0
  0
LINE
  5
F8B0
330
F83B
100
AcDbEntity
  8
0
100
AcDbLine
 10
-30.05334555451837
 20
91.37325249125941
 30
0.0
 11
-26.51781164858562
 21
97.49697684821734
 31
0.0
  0
LINE
  5
F8B1
330
F83B
100
AcDbEntity
  8
0
100
AcDbLine
 10
-26.51781164858562
 20
97.49697684821734
 30
0.0
 11
-27.57847182036544
 21
98.10934928391313
 31
0.0
  0
LINE
  5
F8B2
330
F83B
100
AcDbEntity
  8
0
100
AcDbLine
 10
0.3500778534638105
 20
-91.60168450668372
 30
0.0
 11
0.3500778534637927
 21
-85.82818181478751
 31
0.0
  0
LINE
  5
F8B3
330
F83B
100
AcDbEntity
  8
0
100
AcDbLine
 10
0.3500778534637927
 20
-85.82818181478751
 30
0.0
 11
-0.7105823183160176
 21
-85.2158093790917
 31
0.0
  0
LINE
  5
F8B4
330
F83B
100
AcDbEntity
  8
0
100
AcDbLine
 10
-0.7105823183160176
 20
-85.2158093790917
 30
0.0
 11
-0.7105823183159954
 21
-90.98931207098795
 31
0.0
  0
LINE
  5
F8B5
330
F83B
100
AcDbEntity
  8
0
100
AcDbLine
 10
-0.7105823183159954
 20
-90.98931207098795
 30
0.0
 11
0.3500778534638105
 21
-91.60168450668372
 31
0.0
  0
LINE
  5
F8B6
330
F83B
100
AcDbEntity
  8
0
100
AcDbLine
 10
-58.33978498501959
 20
-51.9435737062869
 30
0.0
 11
-58.33978498501959
 21
-57.71707639818315
 31
0.0
  0
LINE
  5
F8B7
330
F83B
100
AcDbEntity
  8
0
100
AcDbLine
 10
-58.33978498501959
 20
-57.71707639818315
 30
0.0
 11
-57.27912481323977
 21
-58.32944883387894
 31
0.0
  0
LINE
  5
F8B8
330
F83B
100
AcDbEntity
  8
0
100
AcDbLine
 10
-57.27912481323977
 20
-58.32944883387894
 30
0.0
 11
-57.27912481323977
 21
-52.55594614198272
 31
0.0
  0
LINE
  5
F8B9
330
F83B
100
AcDbEntity
  8
0
100
AcDbLine
 10
-57.27912481323977
 20
-52.55594614198272
 30
0.0
 11
-58.33978498501959
 21
-51.9435737062869
 31
0.0
  0
ELLIPSE
  5
F8BA
330
F83B
100
AcDbEntity
  8
0
100
AcDbEllipse
 10
33.2327113616775
 20
58.99916305747516
 30
0.0
 11
1.250000000000128
 21
2.165063509461021
 31
0.0
210
0.0
220
0.0
230
1.0
 40
0.5773502691896257
 41
0.0
 42
6.283185307179586
  0
ELLIPSE
  5
F8BB
330
F83B
100
AcDbEntity
  8
0
100
AcDbEllipse
 10
33.2327113616775
 20
42.66923143892064
 30
0.0
 11
1.250000000000128
 21
2.165063509461021
 31
0.0
210
0.0
220
0.0
230
1.0
 40
0.5773502691896257
 41
0.0
 42
6.283185307179586
  0
ELLIPSE
  5
F8BC
330
F83B
100
AcDbEntity
  8
0
100
AcDbEllipse
 10
32.17205118989768
 20
59.61153549317095
 30
0.0
 11
1.249999999999864
 21
2.165063509461174
 31
0.0
210
0.0
220
0.0
230
1.0
 40
0.5773502691896218
 41
3.579741684173548
 42
5.845036276594993
  0
ELLIPSE
  5
F8BD
330
F83B
100
AcDbEntity
  8
0
100
AcDbEllipse
 10
32.17205118989768
 20
43.28160387461643
 30
0.0
 11
1.249999999999864
 21
2.165063509461174
 31
0.0
210
0.0
220
0.0
230
1.0
 40
0.5773502691896218
 41
3.579741684173548
 42
5.845036276594993
  0
ELLIPSE
  5
F8BE
330
F83B
100
AcDbEntity
  8
0
100
AcDbEllipse
 10
33.2327113616775
 20
26.33929982036613
 30
0.0
 11
1.250000000000128
 21
2.165063509461021
 31
0.0
210
0.0
220
0.0
230
1.0
 40
0.5773502691896257
 41
0.0
 42
6.283185307179586
  0
ELLIPSE
  5
F8BF
330
F83B
100
AcDbEntity
  8
0
100
AcDbEllipse
 10
32.17205118989768
 20
26.95167225606192
 30
0.0
 11
1.249999999999864
 21
2.165063509461174
 31
0.0
210
0.0
220
0.0
230
1.0
 40
0.5773502691896218
 41
3.579741684173548
 42
5.84503627659499
  0
LINE
  5
F8C0
330
F83B
100
AcDbEntity
  8
0
100
AcDbLine
 10
56.85007785330836
 20
29.76858546026252
 30
0.0
 11
56.85007785330839
 21
79.08497894829714
 31
0.0
  0
ELLIPSE
  5
F8C1
330
F83B
100
AcDbEntity
  8
0
100
AcDbEllipse
 10
55.36515361281661
 20
79.94230035827126
 30
0.0
 11
0.6000000000000006
 21
0.0
 31
0.0
210
0.0
220
0.0
230
1.0
 40
0.5773502691896254
 41
5.497787143782192
 42
7.068583470577047
  0
LINE
  5
F8C2
330
F83B
100
AcDbEntity
  8
0
100
AcDbLine
 10
55.78941768152853
 20
80.18724933254956
 30
0.0
 11
55.78941768152853
 21
79.69735138399293
 31
0.0
  0
ELLIPSE
  5
F8C3
330
F83B
100
AcDbEntity
  8
0
100
AcDbEllipse
 10
55.36515361281661
 20
79.94230035827126
 30
0.0
 11
2.100000000000008
 21
-0.0000000000000002
 31
0.0
210
0.0
220
0.0
230
1.0
 40
0.5773502691896257
 41
5.49778714378215
 42
7.068583470577033
  0
ELLIPSE
  5
F8C4
330
F83B
100
AcDbEntity
  8
0
100
AcDbEllipse
 10
55.3651536128166
 20
30.62590687023662
 30
0.0
 11
2.100000000000004
 21
-0.0000000000000006
 31
0.0
210
0.0
220
0.0
230
1.0
 40
0.5773502691896255
 41
5.497787143782145
 42
6.283185307179588
  0
LINE
  5
F8C5
330
F83B
100
AcDbEntity
  8
0
100
AcDbLine
 10
0.0694033240285608
 20
112.3572146211019
 30
0.0
 11
0.0694033240285563
 21
63.04082113306733
 31
0.0
  0
ELLIPSE
  5
F8C6
330
F83B
100
AcDbEntity
  8
0
100
AcDbEllipse
 10
-0.3548607446833651
 20
112.1122656468236
 30
0.0
 11
0.6000000000000006
 21
-0.0000000000000359
 31
0.0
210
0.0
220
0.0
230
1.0
 40
0.5773502691896254
 41
0.785398163397697
 42
2.35619449019261
  0
LINE
  5
F8C7
330
F83B
100
AcDbEntity
  8
0
100
AcDbLine
 10
-0.7791248133952955
 20
112.3572146211019
 30
0.0
 11
-0.7791248133953
 21
63.04082113306733
 31
0.0
  0
ELLIPSE
  5
F8C8
330
F83B
100
AcDbEntity
  8
0
100
AcDbEllipse
 10
-0.3548607446833696
 20
62.79587215878899
 30
0.0
 11
0.6000000000000006
 21
-0.0000000000000359
 31
0.0
210
0.0
220
0.0
230
1.0
 40
0.5773502691896254
 41
0.7853981633976872
 42
2.356194490192599
  0
ELLIPSE
  5
F8C9
330
F83B
100
AcDbEntity
  8
0
100
AcDbEllipse
 10
-0.3548607446833651
 20
112.1122656468236
 30
0.0
 11
-2.100000000000004
 21
-0.000000000000125
 31
0.0
210
0.0
220
0.0
230
1.0
 40
0.5773502691896257
 41
3.926990816987002
 42
5.4977871437819
  0
LINE
  5
F8CA
330
F83B
100
AcDbEntity
  8
0
100
AcDbLine
 10
57.46515361281662
 20
79.94230035827126
 30
0.0
 11
57.46515361281662
 21
30.62590687023661
 31
0.0
  0
ELLIPSE
  5
F8CB
330
F83B
100
AcDbEntity
  8
0
100
AcDbEllipse
 10
-25.45715147680582
 20
88.80128826133706
 30
0.0
 11
1.24999999999987
 21
2.16506350946117
 31
0.0
210
0.0
220
0.0
230
0.9999999999999998
 40
0.5773502691896257
 41
3.579741684173542
 42
5.845036276594985
  0
ELLIPSE
  5
F8CC
330
F83B
100
AcDbEntity
  8
0
100
AcDbEllipse
 10
-25.45715147680582
 20
72.47135664278253
 30
0.0
 11
1.24999999999987
 21
2.16506350946117
 31
0.0
210
0.0
220
0.0
230
0.9999999999999998
 40
0.5773502691896257
 41
3.579741684173551
 42
5.845036276594989
  0
ELLIPSE
  5
F8CD
330
F83B
100
AcDbEntity
  8
0
100
AcDbEllipse
 10
-24.39649130502599
 20
88.18891582564127
 30
0.0
 11
1.250000000000128
 21
2.165063509461021
 31
0.0
210
0.0
220
0.0
230
1.0
 40
0.5773502691896257
 41
0.0
 42
6.283185307179586
  0
ELLIPSE
  5
F8CE
330
F83B
100
AcDbEntity
  8
0
100
AcDbEllipse
 10
-24.39649130502599
 20
71.85898420708674
 30
0.0
 11
1.250000000000128
 21
2.165063509461021
 31
0.0
210
0.0
220
0.0
230
1.0
 40
0.5773502691896257
 41
0.0
 42
6.283185307179586
  0
ELLIPSE
  5
F8CF
330
F83B
100
AcDbEntity
  8
0
100
AcDbEllipse
 10
-25.45715147680582
 20
56.14142502422803
 30
0.0
 11
1.24999999999987
 21
2.16506350946117
 31
0.0
210
0.0
220
0.0
230
0.9999999999999998
 40
0.5773502691896257
 41
3.579741684173551
 42
5.845036276594989
  0
ELLIPSE
  5
F8D0
330
F83B
100
AcDbEntity
  8
0
100
AcDbEllipse
 10
-24.39649130502599
 20
55.52905258853222
 30
0.0
 11
1.250000000000128
 21
2.165063509461021
 31
0.0
210
0.0
220
0.0
230
1.0
 40
0.5773502691896257
 41
0.0
 42
6.283185307179586
  0
LINE
  5
F8D1
330
F83B
100
AcDbEntity
  8
0
100
AcDbLine
 10
13.85007785287801
 20
-62.44549591430605
 30
0.0
 11
0.3500778534637927
 21
-85.82818181478751
 31
0.0
  0
LINE
  5
F8D2
330
F83B
100
AcDbEntity
  8
0
100
AcDbLine
 10
12.78941768109745
 20
-61.83312347860983
 30
0.0
 11
-0.7105823183160176
 21
-85.2158093790917
 31
0.0
  0
LINE
  5
F8D3
330
F83B
100
AcDbEntity
  8
0
100
AcDbLine
 10
18.55007785330833
 20
-102.1094594058451
 30
0.0
 11
55.25007785252054
 21
-38.54319476943221
 31
0.0
  0
LINE
  5
F8D4
330
F83B
100
AcDbEntity
  8
0
100
AcDbLine
 10
53.94088954331337
 20
-38.07431012078493
 30
0.0
 11
54.92869889270671
 21
-36.36337413944418
 31
0.0
  0
LINE
  5
F8D5
330
F83B
100
AcDbEntity
  8
0
100
AcDbLine
 10
18.88380696076392
 20
-102.3021379958711
 30
0.0
 11
18.55007785330835
 21
-102.1094594058452
 31
0.0
  0
LINE
  5
F8D6
330
F83B
100
AcDbEntity
  8
0
100
AcDbLine
 10
55.92216692982632
 20
-38.14981670042973
 30
0.0
 11
18.88380696076392
 21
-102.3021379958711
 31
0.0
  0
LINE
  5
F8D7
330
F83B
100
AcDbEntity
  8
0
100
AcDbLine
 10
13.85007785287801
 20
-62.44549591430605
 30
0.0
 11
12.78941768109745
 21
-61.83312347860983
 31
0.0
  0
LINE
  5
F8D8
330
F83B
100
AcDbEntity
  8
0
100
AcDbLine
 10
55.25007785252054
 20
-38.54319476943221
 30
0.0
 11
13.85007785287801
 21
-62.44549591430605
 31
0.0
  0
LINE
  5
F8D9
330
F83B
100
AcDbEntity
  8
0
100
AcDbLine
 10
-44.83978498561253
 20
-28.56088780580137
 30
0.0
 11
-3.439784985963036
 21
-4.658586660931502
 31
0.0
  0
SPLINE
  5
F8DA
330
F83B
100
AcDbEntity
  8
0
100
AcDbSpline
210
0.0
220
0.0
230
1.0
 70
     8
 71
     3
 72
     8
 73
     4
 74
     0
 42
0.000000001
 43
0.0000000001
 40
-1.0
 40
-1.0
 40
-1.0
 40
-1.0
 40
0.0
 40
0.0
 40
0.0
 40
0.0
 10
3.168173096660593
 20
-4.288753365538122
 30
0.0
 10
3.200104511641947
 20
-4.437084821879937
 30
0.0
 10
3.118142499030702
 20
-4.581291921349206
 30
0.0
 10
2.957030912494675
 20
-4.656748317229286
 30
0.0
  0
SPLINE
  5
F8DB
330
F83B
100
AcDbEntity
  8
0
100
AcDbSpline
210
0.0
220
0.0
230
1.0
 70
     8
 71
     3
 72
     8
 73
     4
 74
     0
 42
0.000000001
 43
0.0000000001
 40
-1.0
 40
-1.0
 40
-1.0
 40
-1.0
 40
0.0
 40
0.0
 40
0.0
 40
0.0
 10
52.65326195563853
 20
-33.34888068769821
 30
0.0
 10
52.63805331808049
 20
-33.17162576297385
 30
0.0
 10
52.65871649391442
 20
-32.99202776359017
 30
0.0
 10
52.69064790889645
 20
-32.88056752931894
 30
0.0
  0
SPLINE
  5
F8DC
330
F83B
100
AcDbEntity
  8
0
100
AcDbSpline
210
0.0
220
0.0
230
1.0
 70
     8
 71
     3
 72
     8
 73
     4
 74
     0
 42
0.000000001
 43
0.0000000001
 40
0.1302463606542614
 40
0.1302463606542614
 40
0.1302463606542614
 40
0.1302463606542614
 40
1.0
 40
1.0
 40
1.0
 40
1.0
 10
53.73309442375752
 20
-32.44564647261654
 30
0.0
 10
53.68026848796825
 20
-32.85506770005278
 30
0.0
 10
53.54865871385424
 20
-33.35297953522013
 30
0.0
 10
53.40326195563854
 20
-33.78189338959042
 30
0.0
  0
ELLIPSE
  5
F8DD
330
F83B
100
AcDbEntity
  8
0
100
AcDbEllipse
 10
2.312716531375826
 20
-3.552747894588272
 30
0.0
 11
-0.7500000000000007
 21
-1.299038105676658
 31
0.0
210
0.0
220
0.0
230
0.9999999999999998
 40
0.816496580927726
 41
0.0
 42
1.134458255166986
  0
LINE
  5
F8DE
330
F83B
100
AcDbEntity
  8
0
100
AcDbLine
 10
1.562716531375842
 20
-4.851786000264923
 30
0.0
 11
-0.0587891588338119
 21
-3.915609253529892
 31
0.0
  0
LINE
  5
F8DF
330
F83B
100
AcDbEntity
  8
0
100
AcDbLine
 10
-0.0587891588338119
 20
-3.915609253529892
 30
0.0
 11
-0.7913154647932608
 21
-4.19340885089179
 31
0.0
  0
LINE
  5
F8E0
330
F83B
100
AcDbEntity
  8
0
100
AcDbLine
 10
54.92869889270671
 20
-36.36337413944418
 30
0.0
 11
54.80301724820346
 21
-35.59008795086198
 31
0.0
  0
LINE
  5
F8E1
330
F83B
100
AcDbEntity
  8
0
100
AcDbLine
 10
54.80301724820346
 20
-35.59008795086198
 30
0.0
 11
53.18151155799384
 21
-34.65391120412692
 31
0.0
  0
ELLIPSE
  5
F8E2
330
F83B
100
AcDbEntity
  8
0
100
AcDbEllipse
 10
53.9315115579938
 20
-33.35487309845026
 30
0.0
 11
-0.7499999999999997
 21
-1.299038105676658
 31
0.0
210
0.0
220
0.0
230
1.0
 40
0.816496580927726
 41
5.148727052012599
 42
6.283185307179585
  0
LINE
  5
F8E3
330
F83B
100
AcDbEntity
  8
0
100
AcDbLine
 10
-43.77912481383235
 20
-29.17326024149736
 30
0.0
 11
-44.83978498561253
 21
-28.56088780580137
 31
0.0
  0
LINE
  5
F8E4
330
F83B
100
AcDbEntity
  8
0
100
AcDbLine
 10
-2.379124814183253
 20
-5.270959096627274
 30
0.0
 11
-43.77912481383235
 21
-29.17326024149736
 31
0.0
  0
LINE
  5
F8E5
330
F83B
100
AcDbEntity
  8
0
100
AcDbLine
 10
-2.379124814183253
 20
-5.270959096627274
 30
0.0
 11
-2.732324651386255
 21
-5.067039075540405
 31
0.0
  0
LINE
  5
F8E6
330
F83B
100
AcDbEntity
  8
0
100
AcDbLine
 10
-2.732324651386255
 20
-5.067039075540405
 30
0.0
 11
-3.439784985963036
 21
-4.658586660931501
 31
0.0
  0
SPLINE
  5
F8E7
330
F83B
100
AcDbEntity
  8
0
100
AcDbSpline
210
0.0
220
0.0
230
1.0
 70
     8
 71
     3
 72
     8
 73
     4
 74
     0
 42
0.000000001
 43
0.0000000001
 40
-1.0
 40
-1.0
 40
-1.0
 40
-1.0
 40
0.0
 40
0.0
 40
0.0
 40
0.0
 10
-0.7913154647932652
 20
-4.193408850891775
 30
0.0
 10
-1.301308038593882
 20
-4.563721968132514
 30
0.0
 10
-1.934196754610941
 20
-4.863080964581887
 30
0.0
 10
-2.379124814183257
 20
-5.270959096627287
 30
0.0
  0
SPLINE
  5
F8E8
330
F83B
100
AcDbEntity
  8
0
100
AcDbSpline
210
0.0
220
0.0
230
1.0
 70
     8
 71
     3
 72
     8
 73
     4
 74
     0
 42
0.000000001
 43
0.0000000001
 40
0.0
 40
0.0
 40
0.0
 40
0.0
 40
0.6081734479693797
 40
0.6081734479693797
 40
0.6081734479693797
 40
0.6081734479693797
 10
-3.439784985963041
 20
-4.658586660931516
 30
0.0
 10
-2.930362399343482
 20
-4.548414087673036
 30
0.0
 10
-2.177613033034813
 20
-4.578726296169333
 30
0.0
 10
-1.426280169832154
 20
-4.608220686216073
 30
0.0
  0
ELLIPSE
  5
F8E9
330
F83B
100
AcDbEntity
  8
0
100
AcDbEllipse
 10
2.12001298946955
 20
-3.871073673959792
 30
0.0
 11
0.7499999999999232
 21
-1.299038105676701
 31
0.0
210
0.0
220
0.0
230
1.0
 40
0.5773502691896264
 41
0.9390757175653314
 42
2.356194490192585
  0
LINE
  5
F8EA
330
F83B
100
AcDbEntity
  8
0
100
AcDbLine
 10
55.25007785252054
 20
-38.54319476943221
 30
0.0
 11
54.5426175179431
 21
-38.13474235482292
 31
0.0
  0
LINE
  5
F8EB
330
F83B
100
AcDbEntity
  8
0
100
AcDbLine
 10
54.5426175179431
 20
-38.13474235482292
 30
0.0
 11
54.18941768074063
 21
-37.93082233373635
 31
0.0
  0
LINE
  5
F8EC
330
F83B
100
AcDbEntity
  8
0
100
AcDbLine
 10
12.78941768109745
 20
-61.83312347860983
 30
0.0
 11
54.18941768074062
 21
-37.93082233373635
 31
0.0
  0
LINE
  5
F8ED
330
F83B
100
AcDbEntity
  8
0
100
AcDbLine
 10
54.92869889270671
 20
-36.36337413944418
 30
0.0
 11
55.17844889270641
 21
-36.50756736917412
 31
0.0
  0
SPLINE
  5
F8EE
330
F83B
100
AcDbEntity
  8
0
100
AcDbSpline
210
0.0
220
0.0
230
1.0
 70
     8
 71
     3
 72
     8
 73
     4
 74
     0
 42
0.000000001
 43
0.0000000001
 40
-1.0
 40
-1.0
 40
-1.0
 40
-1.0
 40
0.0
 40
0.0
 40
0.0
 40
0.0
 10
54.18941768074063
 20
-37.93082233373635
 30
0.0
 10
54.63434574031267
 20
-37.52294420169131
 30
0.0
 10
54.86299461272206
 20
-36.99019722271704
 30
0.0
 10
54.92869889270668
 20
-36.36337413944419
 30
0.0
  0
SPLINE
  5
F8EF
330
F83B
100
AcDbEntity
  8
0
100
AcDbSpline
210
0.0
220
0.0
230
1.0
 70
     8
 71
     3
 72
     8
 73
     4
 74
     0
 42
0.000000001
 43
0.0000000001
 40
0.0
 40
0.0
 40
0.0
 40
0.0
 40
1.0
 40
1.0
 40
1.0
 40
1.0
 10
55.67869889270667
 20
-36.79638684133641
 30
0.0
 10
56.16835497999183
 20
-37.7438473821497
 30
0.0
 10
56.08770499379119
 20
-38.36204155791637
 30
0.0
 10
55.25007785252054
 20
-38.54319476943219
 30
0.0
  0
LINE
  5
F8F0
330
F83B
100
AcDbEntity
  8
0
100
AcDbLine
 10
55.17844889270641
 20
-36.50756736917412
 30
0.0
 11
55.67869889270669
 21
-36.7963868413364
 31
0.0
  0
ELLIPSE
  5
F8F1
330
F83B
100
AcDbEntity
  8
0
100
AcDbEllipse
 10
54.6815115579938
 20
-33.78788580034247
 30
0.0
 11
-0.75
 21
-1.299038105676658
 31
0.0
210
0.0
220
0.0
230
0.9999999999999998
 40
0.8164965809277259
 41
5.148727052012603
 42
6.283185307179586
  0
LINE
  5
F8F2
330
F83B
100
AcDbEntity
  8
0
100
AcDbLine
 10
53.40326195563854
 20
-33.78189338959042
 30
0.0
 11
52.90301195653668
 21
-33.49307391794686
 31
0.0
  0
LINE
  5
F8F3
330
F83B
100
AcDbEntity
  8
0
100
AcDbLine
 10
52.90301195653668
 20
-33.49307391794686
 30
0.0
 11
52.65326195563853
 21
-33.34888068769821
 31
0.0
  0
LINE
  5
F8F4
330
F83B
100
AcDbEntity
  8
0
100
AcDbLine
 10
54.80301724820346
 20
-35.59008795086198
 30
0.0
 11
55.55301724820346
 21
-36.02310065275419
 31
0.0
  0
LINE
  5
F8F5
330
F83B
100
AcDbEntity
  8
0
100
AcDbLine
 10
55.55301724820346
 20
-36.02310065275419
 30
0.0
 11
55.67869889270669
 21
-36.7963868413364
 31
0.0
  0
LINE
  5
F8F6
330
F83B
100
AcDbEntity
  8
0
100
AcDbLine
 10
52.69064790889647
 20
-32.88056752931892
 30
0.0
 11
53.04384774934661
 21
-32.6766475063573
 31
0.0
  0
LINE
  5
F8F7
330
F83B
100
AcDbEntity
  8
0
100
AcDbLine
 10
53.04384774934661
 20
-32.6766475063573
 30
0.0
 11
53.57644918604368
 21
-32.36914992350946
 31
0.0
  0
ELLIPSE
  5
F8F8
330
F83B
100
AcDbEntity
  8
0
100
AcDbEllipse
 10
53.73880801608753
 20
-33.67319887782178
 30
0.0
 11
-0.7500000000000006
 21
1.299038105676657
 31
0.0
210
0.0
220
0.0
230
0.9999999999999998
 40
0.5773502691896264
 41
5.497787143782137
 42
6.914905916409352
  0
LINE
  5
F8F9
330
F83B
100
AcDbEntity
  8
0
100
AcDbLine
 10
18.55007785330833
 20
-102.1094594058451
 30
0.0
 11
0.3500778534638105
 21
-91.60168450668372
 31
0.0
  0
LINE
  5
F8FA
330
F83B
100
AcDbEntity
  8
0
100
AcDbLine
 10
-57.27912481323977
 20
-58.32944883387894
 30
0.0
 11
-39.07912481339527
 21
-68.83722373304036
 31
0.0
  0
LINE
  5
F8FB
330
F83B
100
AcDbEntity
  8
0
100
AcDbLine
 10
3.168173096660611
 20
-4.28875336553812
 30
0.0
 11
10.25921260702057
 21
-8.382766935678715
 31
0.0
  0
LINE
  5
F8FC
330
F83B
100
AcDbEntity
  8
0
100
AcDbLine
 10
10.18525465633964
 20
-8.829965241501014
 30
0.0
 11
2.957030912494666
 21
-4.656748317229277
 31
0.0
  0
LINE
  5
F8FD
330
F83B
100
AcDbEntity
  8
0
100
AcDbLine
 10
24.32739027969987
 20
-16.99493105056423
 30
0.0
 11
13.6052330583989
 21
-10.80449069255263
 31
0.0
  0
LINE
  5
F8FE
330
F83B
100
AcDbEntity
  8
0
100
AcDbLine
 10
13.77980324514185
 20
-10.4153808883045
 30
0.0
 11
24.40134823088197
 21
-16.54773274503127
 31
0.0
  0
LINE
  5
F8FF
330
F83B
100
AcDbEntity
  8
0
100
AcDbLine
 10
31.45747277467511
 20
-20.62158814982576
 30
0.0
 11
42.07901776041523
 21
-26.75394000655253
 31
0.0
  0
LINE
  5
F900
330
F83B
100
AcDbEntity
  8
0
100
AcDbLine
 10
42.00505980973428
 20
-27.20113831237484
 30
0.0
 11
31.28290258843332
 21
-21.01069795436324
 31
0.0
  0
LINE
  5
F901
330
F83B
100
AcDbEntity
  8
0
100
AcDbLine
 10
52.65326195563853
 20
-33.34888068769821
 30
0.0
 11
45.42503821179353
 21
-29.17566376342646
 31
0.0
  0
LINE
  5
F902
330
F83B
100
AcDbEntity
  8
0
100
AcDbLine
 10
45.5996083985365
 20
-28.78655395917832
 30
0.0
 11
52.69064790889647
 21
-32.88056752931892
 31
0.0
  0
LINE
  5
F903
330
F83B
100
AcDbEntity
  8
0
100
AcDbLine
 10
-38.35486074468336
 20
-69.25537778807553
 30
0.0
 11
-0.7105823183160043
 21
-90.98931207098791
 31
0.0
  0
ELLIPSE
  5
F904
330
F83B
100
AcDbEntity
  8
0
100
AcDbEllipse
 10
8.100077853577509
 20
-81.64239236322835
 30
0.0
 11
1.25000000000013
 21
2.165063509461021
 31
0.0
210
0.0
220
0.0
230
1.0
 40
0.5773502691896255
 41
0.0
 42
6.283185307179586
  0
ELLIPSE
  5
F905
330
F83B
100
AcDbEntity
  8
0
100
AcDbEllipse
 10
21.85007785378223
 20
-63.60019645117072
 30
0.0
 11
-0.4000000000000427
 21
-0.6928203230275282
 31
0.0
210
0.0
220
0.0
230
1.0
 40
0.5773502691896255
 41
2.094395102375147
 42
2.276828566511586
  0
LINE
  5
F906
330
F83B
100
AcDbEntity
  8
0
100
AcDbLine
 10
22.39648801529333
 20
-63.45378628966997
 30
0.0
 11
21.60401976997007
 21
-67.32638155387604
 31
0.0
  0
ELLIPSE
  5
F907
330
F83B
100
AcDbEntity
  8
0
100
AcDbEllipse
 10
21.05760960845896
 20
-67.47279171537681
 30
0.0
 11
-0.4000000000000414
 21
-0.6928203230275268
 31
0.0
210
0.0
220
0.0
230
1.0
 40
0.5773502691896257
 41
0.0
 42
2.094395102375107
  0
LINE
  5
F908
330
F83B
100
AcDbEntity
  8
0
100
AcDbLine
 10
20.65760960845169
 20
-68.16561203840016
 30
0.0
 11
18.49254609902997
 21
-66.91561203833192
 31
0.0
  0
ELLIPSE
  5
F909
330
F83B
100
AcDbEntity
  8
0
100
AcDbEllipse
 10
18.89254609903725
 20
-66.22279171530855
 30
0.0
 11
-0.4000000000072803
 21
-0.6928203230233491
 31
0.0
210
0.0
220
0.0
230
0.9999999999999998
 40
0.5773502691896257
 41
4.188790204822801
 42
6.283185307252382
  0
LINE
  5
F90A
330
F83B
100
AcDbEntity
  8
0
100
AcDbLine
 10
18.74613593753341
 20
-65.67638155378597
 30
0.0
 11
21.70366769227839
 21
-63.05378628964813
 31
0.0
  0
ELLIPSE
  5
F90B
330
F83B
100
AcDbEntity
  8
0
100
AcDbEllipse
 10
21.85007785378223
 20
-63.60019645117072
 30
0.0
 11
0.400000000000001
 21
0.692820323027552
 31
0.0
210
0.0
220
0.0
230
0.9999999999999998
 40
0.577350269189626
 41
0.0802385882704755
 42
1.047197551178412
  0
LINE
  5
F90C
330
F83B
100
AcDbEntity
  8
0
100
AcDbLine
 10
22.21672989151645
 20
-62.89109476959445
 30
0.0
 11
22.41398260166658
 21
-63.32641308997203
 31
0.0
  0
ELLIPSE
  5
F90D
330
F83B
100
AcDbEntity
  8
0
100
AcDbEllipse
 10
19.99694943667917
 20
-66.86041927968102
 30
0.0
 11
-0.4000000000072797
 21
-0.6928203230233481
 31
0.0
210
0.0
220
0.0
230
1.0
 40
0.5773502691896257
 41
0.0000000000727909
 42
2.094395102429588
  0
LINE
  5
F90E
330
F83B
100
AcDbEntity
  8
0
100
AcDbLine
 10
20.54335959819026
 20
-66.71400911818025
 30
0.0
 11
21.60401976997007
 21
-67.32638155387604
 31
0.0
  0
LINE
  5
F90F
330
F83B
100
AcDbEntity
  8
0
100
AcDbLine
 10
20.54335959819026
 20
-66.71400911818025
 30
0.0
 11
21.20118911434091
 21
-63.49935984493298
 31
0.0
  0
LINE
  5
F910
330
F83B
100
AcDbEntity
  8
0
100
AcDbLine
 10
21.70366769226577
 20
-63.05378628966997
 30
0.0
 11
22.39648801529333
 21
-63.45378628966997
 31
0.0
  0
LINE
  5
F911
330
F83B
100
AcDbEntity
  8
0
100
AcDbLine
 10
21.8052288257716
 20
-62.97494893358887
 30
0.0
 11
22.41398260166658
 21
-63.32641308997203
 31
0.0
  0
ELLIPSE
  5
F912
330
F83B
100
AcDbEntity
  8
0
100
AcDbEllipse
 10
7.039417681797712
 20
-81.03001992753258
 30
0.0
 11
1.24999999999987
 21
2.16506350946117
 31
0.0
210
0.0
220
0.0
230
1.0
 40
0.5773502691896257
 41
3.579741684173535
 42
5.845036276595008
  0
LINE
  5
F913
330
F83B
100
AcDbEntity
  8
0
100
AcDbLine
 10
-44.83978498561253
 20
-28.56088780580137
 30
0.0
 11
-58.33978498501959
 21
-51.9435737062869
 31
0.0
  0
LINE
  5
F914
330
F83B
100
AcDbEntity
  8
0
100
AcDbLine
 10
-43.77912481383235
 20
-29.17326024149736
 30
0.0
 11
-57.27912481323977
 21
-52.55594614198272
 31
0.0
  0
ELLIPSE
  5
F915
330
F83B
100
AcDbEntity
  8
0
100
AcDbEllipse
 10
-53.08978498495138
 20
-52.08791127362371
 30
0.0
 11
1.24999999999987
 21
2.16506350946117
 31
0.0
210
0.0
220
0.0
230
1.0
 40
0.5773502691896257
 41
3.579741684173527
 42
5.845036276595005
  0
ELLIPSE
  5
F916
330
F83B
100
AcDbEntity
  8
0
100
AcDbEllipse
 10
-40.13225323006992
 20
-37.91831062577216
 30
0.0
 11
-0.4000000000072797
 21
-0.6928203230233481
 31
0.0
210
0.0
220
0.0
230
1.0
 40
0.5773502691896257
 41
0.0000000000727879
 42
2.094395102429583
  0
LINE
  5
F917
330
F83B
100
AcDbEntity
  8
0
100
AcDbLine
 10
-39.58584306855882
 20
-37.7719004642714
 30
0.0
 11
-38.92801355240818
 21
-34.55725119102412
 31
0.0
  0
LINE
  5
F918
330
F83B
100
AcDbEntity
  8
0
100
AcDbLine
 10
-38.52518289677901
 20
-38.38427289996719
 30
0.0
 11
-39.58584306855882
 21
-37.7719004642714
 31
0.0
  0
LINE
  5
F919
330
F83B
100
AcDbEntity
  8
0
100
AcDbLine
 10
-37.73271465145575
 20
-34.51167763576112
 30
0.0
 11
-38.52518289677901
 21
-38.38427289996719
 31
0.0
  0
LINE
  5
F91A
330
F83B
100
AcDbEntity
  8
0
100
AcDbLine
 10
-37.73271465145575
 20
-34.51167763576112
 30
0.0
 11
-38.42553497449058
 21
-34.11167763575692
 31
0.0
  0
ELLIPSE
  5
F91B
330
F83B
100
AcDbEntity
  8
0
100
AcDbEllipse
 10
-38.27912481296687
 20
-34.65808779726187
 30
0.0
 11
0.4000000000000004
 21
0.6928203230275523
 31
0.0
210
0.0
220
0.0
230
0.9999999999999998
 40
0.5773502691896257
 41
5.235987755964792
 42
7.330382858357997
  0
LINE
  5
F91C
330
F83B
100
AcDbEntity
  8
0
100
AcDbLine
 10
-41.38306672921565
 20
-36.73427289987711
 30
0.0
 11
-38.42553497447069
 21
-34.11167763573928
 31
0.0
  0
ELLIPSE
  5
F91D
330
F83B
100
AcDbEntity
  8
0
100
AcDbEllipse
 10
-41.23665656771184
 20
-37.2806830613997
 30
0.0
 11
-0.4000000000072795
 21
-0.6928203230233495
 31
0.0
210
0.0
220
0.0
230
1.0
 40
0.5773502691896258
 41
4.188790204822787
 42
6.283185307252363
  0
LINE
  5
F91E
330
F83B
100
AcDbEntity
  8
0
100
AcDbLine
 10
-39.47159305829739
 20
-39.2235033844913
 30
0.0
 11
-41.6366565677191
 21
-37.97350338442305
 31
0.0
  0
ELLIPSE
  5
F91F
330
F83B
100
AcDbEntity
  8
0
100
AcDbEllipse
 10
-39.07159305829013
 20
-38.53068306146794
 30
0.0
 11
-0.4000000000000412
 21
-0.6928203230275268
 31
0.0
210
0.0
220
0.0
230
1.0
 40
0.5773502691896259
 41
0.0
 42
2.094395102375102
  0
ELLIPSE
  5
F920
330
F83B
100
AcDbEntity
  8
0
100
AcDbEllipse
 10
-52.02912481317158
 20
-52.70028370931948
 30
0.0
 11
1.250000000000128
 21
2.165063509461021
 31
0.0
210
0.0
220
0.0
230
1.0
 40
0.5773502691896258
 41
0.0
 42
6.283185307179586
  0
LINE
  5
F921
330
F83B
100
AcDbEntity
  8
0
100
AcDbLine
 10
-0.7913154647932608
 20
-4.19340885089179
 30
0.0
 11
-38.35486074468336
 21
-69.25537778807553
 31
0.0
  0
LINE
  5
F922
330
F83B
100
AcDbEntity
  8
0
100
AcDbLine
 10
-39.07912481339531
 20
-68.8372237330403
 30
0.0
 11
-38.35486074468337
 21
-69.25537778807555
 31
0.0
  0
LINE
  5
F923
330
F83B
100
AcDbEntity
  8
0
100
AcDbLine
 10
-39.07912481339527
 20
-68.83722373304036
 30
0.0
 11
-2.379124814183253
 21
-5.270959096627274
 31
0.0
  0
ENDBLK
  5
F83D
330
F83B
100
AcDbEntity
  8
0
100
AcDbBlockEnd
  0
ENDSEC
  0
SECTION
  2
ENTITIES
  0
INSERT
  5
F924
330
1F
100
AcDbEntity
  8
0
100
AcDbBlockReference
  2
SPR80_140-Front
 10
0.0
 20
0.0
 30
0.0
  0
INSERT
  5
F925
330
1F
100
AcDbEntity
  8
0
100
AcDbBlockReference
  2
SPR80_140-Left
 10
141.4229986469887
 20
0.0
 30
0.0
  0
INSERT
  5
F926
330
1F
100
AcDbEntity
  8
0
100
AcDbBlockReference
  2
SPR80_140-Right
 10
-141.4229986469887
 20
0.0
 30
0.0
  0
INSERT
  5
F927
330
1F
100
AcDbEntity
  8
0
100
AcDbBlockReference
  2
SPR80_140-Top
 10
0.0
 20
-114.545601705951
 30
0.0
  0
INSERT
  5
F928
330
1F
100
AcDbEntity
  8
0
100
AcDbBlockReference
  2
SPR80_140-Bottom
 10
0.0
 20
199.5659080859887
 30
0.0
  0
INSERT
  5
F929
330
1F
100
AcDbEntity
  8
0
100
AcDbBlockReference
  2
SPR80_140-ISO
 10
199.7627836320083
 20
-227.8703029180728
 30
0.0
  0
MTEXT
  5
F92A
330
1F
100
AcDbEntity
  8
0
100
AcDbMText
 10
0.0
 20
-255.4445760657997
 30
0.0
 40
19.63196936199623
 41
0.0
 71
     5
 72
     5
  1
SPR80/140
 73
     1
 44
1.0
1001
ACAD
1000
MTEXTBEGIN
1070
    73
1070
     1
1070
    44
1040
1.0
1070
    74
1070
     0
1000
MTEXTEND
  0
ENDSEC
  0
SECTION
  2
OBJECTS
  0
DICTIONARY
  5
C
330
0
100
AcDbDictionary
281
     1
  3
ACAD_CIP_PREVIOUS_PRODUCT_INFO
350
216
  3
ACAD_COLOR
350
6B
  3
ACAD_DETAILVIEWSTYLE
350
21B
  3
ACAD_GROUP
350
D
  3
ACAD_LAYOUT
350
1A
  3
ACAD_MATERIAL
350
6A
  3
ACAD_MLEADERSTYLE
350
12D
  3
ACAD_MLINESTYLE
350
17
  3
ACAD_PLOTSETTINGS
350
19
  3
ACAD_PLOTSTYLENAME
350
E
  3
ACAD_SCALELIST
350
10C
  3
ACAD_SECTIONVIEWSTYLE
350
219
  3
ACAD_TABLESTYLE
350
7E
  3
ACAD_VISUALSTYLE
350
EF
  3
ACDB_RECOMPOSE_DATA
350
FA2B
  3
AcDbVariableDictionary
350
5E
  3
DWGPROPS
350
FA2C
  0
DICTIONARY
  5
F97B
330
8
100
AcDbDictionary
280
     1
281
     1
  0
DICTIONARY
  5
1FF
330
2
100
AcDbDictionary
280
     1
281
     1
  3
ACAD_LAYERSTATES
360
200
  0
DICTIONARY
  5
13C
330
10
100
AcDbDictionary
280
     1
281
     1
  0
DICTIONARY
  5
1CE
330
1F
100
AcDbDictionary
280
     1
281
     1
  3
ACAD_LAYOUTSELFREF
360
F983
  0
DICTIONARY
  5
F92E
330
D2
100
AcDbDictionary
280
     1
281
     1
  3
ACAD_LAYOUTSELFREF
360
F98C
  0
DICTIONARY
  5
F930
330
D6
100
AcDbDictionary
280
     1
281
     1
  3
ACAD_LAYOUTSELFREF
360
F98F
  0
XRECORD
  5
216
102
{ACAD_REACTORS
330
C
102
}
330
C
100
AcDbXrecord
280
     1
300
ACD
300
2021
300
87393ACD_2021_0F
  0
DICTIONARY
  5
6B
102
{ACAD_REACTORS
330
C
102
}
330
C
100
AcDbDictionary
281
     1
  0
DICTIONARY
  5
21B
102
{ACAD_REACTORS
330
C
102
}
330
C
100
AcDbDictionary
281
     1
  3
Metric50
350
21C
  0
DICTIONARY
  5
D
102
{ACAD_REACTORS
330
C
102
}
330
C
100
AcDbDictionary
281
     1
  0
DICTIONARY
  5
1A
102
{ACAD_REACTORS
330
C
102
}
330
C
100
AcDbDictionary
281
     1
  3
Layout1
350
D3
  3
Layout2
350
D7
  3
Model
350
22
  0
DICTIONARY
  5
6A
102
{ACAD_REACTORS
330
C
102
}
330
C
100
AcDbDictionary
281
     1
  3
ByBlock
350
ED
  3
ByLayer
350
EC
  3
Global
350
EE
  0
DICTIONARY
  5
12D
102
{ACAD_REACTORS
330
C
102
}
330
C
100
AcDbDictionary
281
     1
  3
Standard
350
12E
  0
DICTIONARY
  5
17
102
{ACAD_REACTORS
330
C
102
}
330
C
100
AcDbDictionary
281
     1
  3
Standard
350
18
  0
DICTIONARY
  5
19
102
{ACAD_REACTORS
330
C
102
}
330
C
100
AcDbDictionary
281
     1
  0
ACDBDICTIONARYWDFLT
  5
E
102
{ACAD_REACTORS
330
C
102
}
330
C
100
AcDbDictionary
281
     1
  3
Normal
350
F
100
AcDbDictionaryWithDefault
340
F
  0
DICTIONARY
  5
10C
102
{ACAD_REACTORS
330
C
102
}
330
C
100
AcDbDictionary
281
     1
  3
A0
350
10D
  3
A1
350
1BE
  3
A2
350
1BF
  3
A3
350
1C0
  3
A4
350
1C1
  3
A5
350
1C2
  3
A6
350
1C3
  3
A7
350
1C4
  3
A8
350
1C5
  3
A9
350
1C6
  3
B0
350
1C7
  3
B1
350
1C8
  3
B2
350
1C9
  3
B3
350
1CA
  3
B4
350
1CB
  3
B5
350
1CC
  3
B6
350
1CD
  0
DICTIONARY
  5
219
102
{ACAD_REACTORS
330
C
102
}
330
C
100
AcDbDictionary
281
     1
  3
Metric50
350
21A
  0
DICTIONARY
  5
7E
102
{ACAD_REACTORS
330
C
102
}
330
C
100
AcDbDictionary
281
     1
  3
Standard
350
7F
  0
DICTIONARY
  5
EF
102
{ACAD_REACTORS
330
C
102
}
330
C
100
AcDbDictionary
281
     1
  3
2dWireframe
350
F5
  3
Basic
350
F4
  3
Brighten
350
FB
  3
ColorChange
350
FF
  3
Conceptual
350
F8
  3
Dim
350
FA
  3
EdgeColorOff
350
1E6
  3
Facepattern
350
FE
  3
Flat
350
F0
  3
FlatWithEdges
350
F1
  3
Gouraud
350
F2
  3
GouraudWithEdges
350
F3
  3
Hidden
350
F7
  3
JitterOff
350
1E4
  3
Linepattern
350
FD
  3
OverhangOff
350
1E5
  3
Realistic
350
F9
  3
Shaded
350
1F3
  3
Shaded with edges
350
1F2
  3
Shades of Gray
350
1EF
  3
Sketchy
350
1F0
  3
Thicken
350
FC
  3
Wireframe
350
F6
  3
X-Ray
350
1F1
  0
XRECORD
  5
FA2B
102
{ACAD_REACTORS
330
C
102
}
330
C
100
AcDbXrecord
280
     1
 90
        1
330
7F
  0
DICTIONARY
  5
5E
102
{ACAD_REACTORS
330
C
102
}
330
C
100
AcDbDictionary
281
     1
  3
CANNOSCALE
350
146
  3
CENTEREXE
350
259
  3
CENTERLTYPEFILE
350
25A
  3
CMLEADERSTYLE
350
145
  3
CTABLESTYLE
350
84
  3
CVIEWDETAILSTYLE
350
227
  3
CVIEWSECTIONSTYLE
350
228
  3
DIMASSOC
350
5F
  3
HIDETEXT
350
63
  3
INDEXCTL
350
F9D8
  3
LAYEREVAL
350
1AE
  3
LAYERNOTIFY
350
1AF
  3
LIGHTINGUNITS
350
F9D6
  3
MSLTSCALE
350
F9D5
  3
PSOLHEIGHT
350
FA28
  3
PSOLWIDTH
350
FA27
  3
SORTENTS
350
F9D7
  3
XCLIPFRAME
350
FA29
  0
XRECORD
  5
FA2C
102
{ACAD_REACTORS
330
C
102
}
330
C
100
AcDbXrecord
280
     1
  1
DWGPROPS COOKIE
  2

  3

  4

  6

  7

  8
truole
  9

300
=
301
=
302
=
303
=
304
=
305
=
306
=
307
=
308
=
309
=
 40
0.0025925925925926
 41
2460719.40650463
 42
2460719.415196759
  1

 90
        0
  0
DICTIONARY
  5
200
102
{ACAD_REACTORS
330
1FF
102
}
330
1FF
100
AcDbDictionary
281
     1
  0
XRECORD
  5
F983
102
{ACAD_REACTORS
330
1CE
102
}
330
1CE
100
AcDbXrecord
280
     1
340
1F
  0
XRECORD
  5
F98C
102
{ACAD_REACTORS
330
F92E
102
}
330
F92E
100
AcDbXrecord
280
     1
340
D2
  0
XRECORD
  5
F98F
102
{ACAD_REACTORS
330
F930
102
}
330
F930
100
AcDbXrecord
280
     1
340
D6
  0
ACDBDETAILVIEWSTYLE
  5
21C
102
{ACAD_XDICTIONARY
360
FA6B
102
}
102
{ACAD_REACTORS
330
21B
102
}
330
21B
100
AcDbModelDocViewStyle
 70
     0
  3
Metric50
290
     0
100
AcDbDetailViewStyle
 70
     0
 71
     0
 90
        3
 71
     1
340
11
 40
5.0
340
0
 40
5.0
300

 40
0.0
280
     1
 71
     2
340
16
 90
       25
 71
     3
340
11
 40
5.0
 90
        0
 40
15.0
 90
        1
300
%<\AcVar ViewDetailId>% (%<\AcVar ViewScale \f "%sn">%)
 71
     4
340
16
 90
       25
340
16
 90
       25
280
     0
  0
LAYOUT
  5
D3
102
{ACAD_XDICTIONARY
360
FA30
102
}
102
{ACAD_REACTORS
330
1A
102
}
330
1A
100
AcDbPlotSettings
  1

  2
C:\Documents and Settings\basas\Application Data\Autodesk\AutoCAD 2005\R16.1\enu\plotters\Default Windows System Printer.pc3
  4

  6

 40
0.0
 41
0.0
 42
0.0
 43
0.0
 44
0.0
 45
0.0
 46
0.0
 47
0.0
 48
0.0
 49
0.0
140
0.0
141
0.0
142
1.0
143
1.0
 70
   688
 72
     0
 73
     0
 74
     5
  7

 75
    16
147
1.0
148
0.0
149
0.0
100
AcDbLayout
  1
Layout1
 70
     1
 71
     1
 10
0.0
 20
0.0
 11
12.0
 21
9.0
 12
0.0
 22
0.0
 32
0.0
 14
0.0
 24
0.0
 34
0.0
 15
0.0
 25
0.0
 35
0.0
146
0.0
 13
0.0
 23
0.0
 33
0.0
 16
1.0
 26
0.0
 36
0.0
 17
0.0
 27
1.0
 37
0.0
 76
     0
330
D2
  0
LAYOUT
  5
D7
102
{ACAD_XDICTIONARY
360
FA32
102
}
102
{ACAD_REACTORS
330
1A
102
}
330
1A
100
AcDbPlotSettings
  1

  2
C:\Documents and Settings\basas\Application Data\Autodesk\AutoCAD 2005\R16.1\enu\plotters\Default Windows System Printer.pc3
  4

  6

 40
0.0
 41
0.0
 42
0.0
 43
0.0
 44
0.0
 45
0.0
 46
0.0
 47
0.0
 48
0.0
 49
0.0
140
0.0
141
0.0
142
1.0
143
1.0
 70
   688
 72
     0
 73
     0
 74
     5
  7

 75
    16
147
1.0
148
0.0
149
0.0
100
AcDbLayout
  1
Layout2
 70
     1
 71
     2
 10
0.0
 20
0.0
 11
12.0
 21
9.0
 12
0.0
 22
0.0
 32
0.0
 14
0.0
 24
0.0
 34
0.0
 15
0.0
 25
0.0
 35
0.0
146
0.0
 13
0.0
 23
0.0
 33
0.0
 16
1.0
 26
0.0
 36
0.0
 17
0.0
 27
1.0
 37
0.0
 76
     0
330
D6
  0
LAYOUT
  5
22
102
{ACAD_XDICTIONARY
360
FA2D
102
}
102
{ACAD_REACTORS
330
1A
102
}
330
1A
100
AcDbPlotSettings
  1

  2
none_device
  4
ISO_A4_(210.00_x_297.00_MM)
  6

 40
7.5
 41
20.0
 42
7.5
 43
20.0
 44
210.0
 45
297.0
 46
11.54999923706054
 47
-13.65000009536743
 48
0.0
 49
0.0
140
0.0
141
0.0
142
1.0
143
8.704084754739808
 70
 11952
 72
     1
 73
     0
 74
     0
  7

 75
     0
147
0.1148885871608098
148
0.0
149
0.0
100
AcDbLayout
  1
Model
 70
     1
 71
     0
 10
0.0
 20
0.0
 11
12.0
 21
9.0
 12
0.0
 22
0.0
 32
0.0
 14
0.0
 24
0.0
 34
0.0
 15
0.0
 25
0.0
 35
0.0
146
0.0
 13
0.0
 23
0.0
 33
0.0
 16
1.0
 26
0.0
 36
0.0
 17
0.0
 27
1.0
 37
0.0
 76
     0
330
1F
331
EA
1001
ACAD_PSEXT
1000
None
1000
None
1000
Not applicable
1000
The layout will not be plotted unless a new plotter configuration name is selected.
1070
     0
  0
MATERIAL
  5
ED
102
{ACAD_XDICTIONARY
360
1F9
102
}
102
{ACAD_REACTORS
330
6A
102
}
330
6A
100
AcDbMaterial
  1
ByBlock
  0
MATERIAL
  5
EC
102
{ACAD_XDICTIONARY
360
1F7
102
}
102
{ACAD_REACTORS
330
6A
102
}
330
6A
100
AcDbMaterial
  1
ByLayer
  0
MATERIAL
  5
EE
102
{ACAD_XDICTIONARY
360
173
102
}
102
{ACAD_REACTORS
330
6A
102
}
330
6A
100
AcDbMaterial
  1
Global
 43
0.0007999999797903
 43
0.0
 43
0.0
 43
0.0
 43
0.0
 43
0.0007999999797903
 43
0.0
 43
0.0
 43
0.0
 43
0.0
 43
1.0
 43
0.0
 43
0.0
 43
0.0
 43
0.0
 43
1.0
 49
0.0007999999797903
 49
0.0
 49
0.0
 49
0.0
 49
0.0
 49
0.0007999999797903
 49
0.0
 49
0.0
 49
0.0
 49
0.0
 49
1.0
 49
0.0
 49
0.0
 49
0.0
 49
0.0
 49
1.0
142
0.0007999999797903
142
0.0
142
0.0
142
0.0
142
0.0
142
0.0007999999797903
142
0.0
142
0.0
142
0.0
142
0.0
142
1.0
142
0.0
142
0.0
142
0.0
142
0.0
142
1.0
144
0.0007999999797903
144
0.0
144
0.0
144
0.0
144
0.0
144
0.0007999999797903
144
0.0
144
0.0
144
0.0
144
0.0
144
1.0
144
0.0
144
0.0
144
0.0
144
0.0
144
1.0
1001
ACAD
1070
    -1
1070
     3
1070
     0
1000

1071
        0
1070
     0
  0
MLEADERSTYLE
  5
12E
102
{ACAD_XDICTIONARY
360
FA57
102
}
102
{ACAD_REACTORS
330
12D
102
}
330
12D
100
AcDbMLeaderStyle
170
     2
171
     1
172
     0
 90
        2
 40
0.0
 41
0.0
173
     1
 91
-1056964608
340
14
 92
       -2
290
     1
 42
2.0
291
     1
 43
8.0
  3
Standard
 44
4.0
300

342
11
174
     1
178
     1
175
     1
176
     0
 93
-1056964608
 45
4.0
292
     0
297
     0
 46
4.0
 94
-1056964608
 47
1.0
 49
1.0
140
1.0
293
     1
141
0.0
294
     1
177
     0
142
1.0
295
     0
296
     0
143
3.75
1001
ACAD_MLEADERVER
1070
     2
  0
MLINESTYLE
  5
18
102
{ACAD_REACTORS
330
17
102
}
330
17
100
AcDbMlineStyle
  2
STANDARD
 70
     0
  3

 62
   256
 51
90.0
 52
90.0
 71
     2
 49
0.5
 62
   256
  6
BYLAYER
 49
-0.5
 62
   256
  6
BYLAYER
  0
ACDBPLACEHOLDER
  5
F
102
{ACAD_REACTORS
330
E
102
}
330
E
  0
SCALE
  5
10D
102
{ACAD_REACTORS
330
10C
102
}
330
10C
100
AcDbScale
 70
     0
300
1:1
140
1.0
141
1.0
290
     1
  0
SCALE
  5
1BE
102
{ACAD_REACTORS
330
10C
102
}
330
10C
100
AcDbScale
 70
     0
300
1:2
140
1.0
141
2.0
290
     0
  0
SCALE
  5
1BF
102
{ACAD_REACTORS
330
10C
102
}
330
10C
100
AcDbScale
 70
     0
300
1:4
140
1.0
141
4.0
290
     0
  0
SCALE
  5
1C0
102
{ACAD_REACTORS
330
10C
102
}
330
10C
100
AcDbScale
 70
     0
300
1:5
140
1.0
141
5.0
290
     0
  0
SCALE
  5
1C1
102
{ACAD_REACTORS
330
10C
102
}
330
10C
100
AcDbScale
 70
     0
300
1:8
140
1.0
141
8.0
290
     0
  0
SCALE
  5
1C2
102
{ACAD_REACTORS
330
10C
102
}
330
10C
100
AcDbScale
 70
     0
300
1:10
140
1.0
141
10.0
290
     0
  0
SCALE
  5
1C3
102
{ACAD_REACTORS
330
10C
102
}
330
10C
100
AcDbScale
 70
     0
300
1:16
140
1.0
141
16.0
290
     0
  0
SCALE
  5
1C4
102
{ACAD_REACTORS
330
10C
102
}
330
10C
100
AcDbScale
 70
     0
300
1:20
140
1.0
141
20.0
290
     0
  0
SCALE
  5
1C5
102
{ACAD_REACTORS
330
10C
102
}
330
10C
100
AcDbScale
 70
     0
300
1:30
140
1.0
141
30.0
290
     0
  0
SCALE
  5
1C6
102
{ACAD_REACTORS
330
10C
102
}
330
10C
100
AcDbScale
 70
     0
300
1:40
140
1.0
141
40.0
290
     0
  0
SCALE
  5
1C7
102
{ACAD_REACTORS
330
10C
102
}
330
10C
100
AcDbScale
 70
     0
300
1:50
140
1.0
141
50.0
290
     0
  0
SCALE
  5
1C8
102
{ACAD_REACTORS
330
10C
102
}
330
10C
100
AcDbScale
 70
     0
300
1:100
140
1.0
141
100.0
290
     0
  0
SCALE
  5
1C9
102
{ACAD_REACTORS
330
10C
102
}
330
10C
100
AcDbScale
 70
     0
300
2:1
140
2.0
141
1.0
290
     0
  0
SCALE
  5
1CA
102
{ACAD_REACTORS
330
10C
102
}
330
10C
100
AcDbScale
 70
     0
300
4:1
140
4.0
141
1.0
290
     0
  0
SCALE
  5
1CB
102
{ACAD_REACTORS
330
10C
102
}
330
10C
100
AcDbScale
 70
     0
300
8:1
140
8.0
141
1.0
290
     0
  0
SCALE
  5
1CC
102
{ACAD_REACTORS
330
10C
102
}
330
10C
100
AcDbScale
 70
     0
300
10:1
140
10.0
141
1.0
290
     0
  0
SCALE
  5
1CD
102
{ACAD_REACTORS
330
10C
102
}
330
10C
100
AcDbScale
 70
     0
300
100:1
140
100.0
141
1.0
290
     0
  0
ACDBSECTIONVIEWSTYLE
  5
21A
102
{ACAD_XDICTIONARY
360
FA69
102
}
102
{ACAD_REACTORS
330
219
102
}
330
219
100
AcDbModelDocViewStyle
 70
     0
  3
Metric50
290
     0
100
AcDbSectionViewStyle
 70
     0
 71
     0
 90
      102
 71
     1
340
11
 40
5.0
340
0
340
0
 40
5.0
300
I, O, Q, S, X, Z
 40
10.0
 90
        0
 40
2.5
 90
        0
 71
     2
340
16
 90
       25
340
16
 90
       50
 40
5.0
 40
2.5
 40
5.0
 71
     3
340
11
 40
5.0
 90
        0
 40
15.0
 90
        1
300
%<\AcVar ViewSectionStartId>%-%<\AcVar ViewSectionEndId>% (%<\AcVar ViewScale \f "%sn">%)
 71
     4
300
ANSI31
 40
1.0
 90
        0
290
     0
290
     0
 90
        6
 40
0.0
 40
1.570796326794896
 40
0.2617993877991494
 40
1.308996938995747
 40
-0.2617993877991494
 40
1.832595714594046
  0
TABLESTYLE
  5
7F
102
{ACAD_XDICTIONARY
360
162
102
}
102
{ACAD_REACTORS
330
7E
102
}
330
7E
100
AcDbTableStyle
  3
Standard
 70
     0
 71
     0
 40
1.5
 41
1.5
280
     0
281
     0
  7
Standard
140
4.5
170
     2
 62
     0
 63
     7
283
     0
274
    -2
284
     1
 64
     0
275
    -2
285
     1
 65
     0
276
    -2
286
     1
 66
     0
277
    -2
287
     1
 67
     0
278
    -2
288
     1
 68
     0
279
    -2
289
     1
 69
     0
  7
Standard
140
6.0
170
     5
 62
     0
 63
     7
283
     0
274
    -2
284
     1
 64
     0
275
    -2
285
     1
 65
     0
276
    -2
286
     1
 66
     0
277
    -2
287
     1
 67
     0
278
    -2
288
     1
 68
     0
279
    -2
289
     1
 69
     0
  7
Standard
140
4.5
170
     5
 62
     0
 63
     7
283
     0
274
    -2
284
     1
 64
     0
275
    -2
285
     1
 65
     0
276
    -2
286
     1
 66
     0
277
    -2
287
     1
 67
     0
278
    -2
288
     1
 68
     0
279
    -2
289
     1
 69
     0
  0
VISUALSTYLE
  5
F5
102
{ACAD_XDICTIONARY
360
FA41
102
}
102
{ACAD_REACTORS
330
EF
102
}
330
EF
100
AcDbVisualStyle
  2
2dWireframe
 70
     4
 71
     0
 72
     2
 73
     1
 90
        0
 40
-0.6
 41
-30.0
 62
     5
 63
     7
 74
     1
 91
        4
 64
     7
 65
   257
 75
     1
175
     1
 42
1.0
 92
        0
 66
   257
 43
1.0
 76
     1
 77
     6
 78
     2
 67
     7
 79
     5
170
     0
171
     0
290
     0
174
     0
 93
        1
 44
0.0
173
     0
291
     0
 45
0.0
1001
ACAD
1000
AcDbSavedByObjectVersion
1070
     0
  0
VISUALSTYLE
  5
F4
102
{ACAD_XDICTIONARY
360
FA3F
102
}
102
{ACAD_REACTORS
330
EF
102
}
330
EF
100
AcDbVisualStyle
  2
Basic
 70
     7
 71
     1
 72
     0
 73
     1
 90
        0
 40
-0.6
 41
-30.0
 62
     5
 63
     7
 74
     0
 91
        4
 64
     7
 65
   257
 75
     1
175
     1
 42
1.0
 92
        8
 66
     7
 43
1.0
 76
     1
 77
     6
 78
     2
 67
     7
 79
     5
170
     0
171
     0
290
     0
174
     0
 93
        1
 44
0.0
173
     0
291
     1
 45
0.0
1001
ACAD
1000
AcDbSavedByObjectVersion
1070
     0
  0
VISUALSTYLE
  5
FB
102
{ACAD_XDICTIONARY
360
FA4D
102
}
102
{ACAD_REACTORS
330
EF
102
}
330
EF
100
AcDbVisualStyle
  2
Brighten
 70
    12
 71
     2
 72
     2
 73
     1
 90
        0
 40
-0.6
 41
-30.0
 62
     5
 63
     7
 74
     1
 91
        4
 64
     7
 65
   257
 75
     1
175
     1
 42
1.0
 92
        8
 66
     7
 43
1.0
 76
     1
 77
     6
 78
     2
 67
     7
 79
     5
170
     0
171
     0
290
     0
174
     0
 93
        1
 44
50.0
173
     0
291
     1
 45
0.0
1001
ACAD
1000
AcDbSavedByObjectVersion
1070
     0
  0
VISUALSTYLE
  5
FF
102
{ACAD_XDICTIONARY
360
FA55
102
}
102
{ACAD_REACTORS
330
EF
102
}
330
EF
100
AcDbVisualStyle
  2
ColorChange
 70
    16
 71
     2
 72
     2
 73
     3
 90
        0
 40
-0.6
 41
-30.0
 62
     5
 63
     8
 74
     1
 91
        4
 64
     7
 65
   257
 75
     1
175
     1
 42
1.0
 92
        8
 66
     8
 43
1.0
 76
     1
 77
     6
 78
     2
 67
     7
 79
     5
170
     0
171
     0
290
     0
174
     0
 93
        1
 44
0.0
173
     0
291
     1
 45
0.0
1001
ACAD
1000
AcDbSavedByObjectVersion
1070
     0
  0
VISUALSTYLE
  5
F8
102
{ACAD_XDICTIONARY
360
FA47
102
}
102
{ACAD_REACTORS
330
EF
102
}
330
EF
100
AcDbVisualStyle
  2
Conceptual
 70
     9
 71
     3
 72
     2
 73
     1
 90
        0
 40
-0.6
 41
-30.0
 62
     5
 63
     7
 74
     2
 91
        2
 64
     7
 65
   257
 75
     1
175
     1
 42
40.0
 92
        8
 66
     7
 43
1.0
 76
     1
 77
     6
 78
     2
 67
     7
 79
     3
170
     0
171
     0
290
     0
174
     0
 93
        1
 44
0.0
173
     0
291
     0
 45
0.0
1001
ACAD
1000
AcDbSavedByObjectVersion
1070
     0
  0
VISUALSTYLE
  5
FA
102
{ACAD_XDICTIONARY
360
FA4B
102
}
102
{ACAD_REACTORS
330
EF
102
}
330
EF
100
AcDbVisualStyle
  2
Dim
 70
    11
 71
     2
 72
     2
 73
     1
 90
        0
 40
-0.6
 41
-30.0
 62
     5
 63
     7
 74
     1
 91
        4
 64
     7
 65
   257
 75
     1
175
     1
 42
1.0
 92
        8
 66
     7
 43
1.0
 76
     1
 77
     6
 78
     2
 67
     7
 79
     5
170
     0
171
     0
290
     0
174
     0
 93
        1
 44
-50.0
173
     0
291
     1
 45
0.0
1001
ACAD
1000
AcDbSavedByObjectVersion
1070
     0
  0
VISUALSTYLE
  5
1E6
102
{ACAD_XDICTIONARY
360
FA5D
102
}
102
{ACAD_REACTORS
330
EF
102
}
330
EF
100
AcDbVisualStyle
  2
EdgeColorOff
 70
    22
 71
     2
 72
     2
 73
     0
 90
        0
 40
-0.6
 41
-30.0
 62
     5
 63
     7
 74
     1
 91
        4
 64
     7
 65
   257
 75
     1
175
     1
 42
1.0
 92
        8
 66
     7
 43
1.0
 76
     1
 77
     6
 78
     2
 67
     7
 79
     5
170
     0
171
     0
290
     0
174
     0
 93
        1
 44
0.0
173
     0
291
     1
 45
0.0
1001
ACAD
1000
AcDbSavedByObjectVersion
1070
     0
  0
VISUALSTYLE
  5
FE
102
{ACAD_XDICTIONARY
360
FA53
102
}
102
{ACAD_REACTORS
330
EF
102
}
330
EF
100
AcDbVisualStyle
  2
Facepattern
 70
    15
 71
     2
 72
     2
 73
     1
 90
        0
 40
-0.6
 41
-30.0
 62
     5
 63
     7
 74
     1
 91
        4
 64
     7
 65
   257
 75
     1
175
     1
 42
1.0
 92
        8
 66
     7
 43
1.0
 76
     1
 77
     6
 78
     2
 67
     7
 79
     5
170
     0
171
     0
290
     0
174
     0
 93
        1
 44
0.0
173
     0
291
     1
 45
0.0
1001
ACAD
1000
AcDbSavedByObjectVersion
1070
     0
  0
VISUALSTYLE
  5
F0
102
{ACAD_XDICTIONARY
360
FA37
102
}
102
{ACAD_REACTORS
330
EF
102
}
330
EF
100
AcDbVisualStyle
  2
Flat
 70
     0
 71
     2
 72
     1
 73
     1
 90
        2
 40
-0.6
 41
30.0
 62
     5
 63
     7
 74
     0
 91
        0
 64
     7
 65
   257
 75
     1
175
     1
 42
1.0
 92
        8
 66
     7
 43
1.0
 76
     1
 77
     6
 78
     2
 67
     7
 79
     5
170
     0
171
     0
290
     0
174
     0
 93
       13
 44
0.0
173
     0
291
     1
 45
0.0
1001
ACAD
1000
AcDbSavedByObjectVersion
1070
     0
  0
VISUALSTYLE
  5
F1
102
{ACAD_XDICTIONARY
360
FA39
102
}
102
{ACAD_REACTORS
330
EF
102
}
330
EF
100
AcDbVisualStyle
  2
FlatWithEdges
 70
     1
 71
     2
 72
     1
 73
     1
 90
        2
 40
-0.6
 41
30.0
 62
     5
 63
     7
 74
     1
 91
        0
 64
     7
 65
   257
 75
     1
175
     1
 42
1.0
 92
        0
 66
   257
 43
1.0
 76
     1
 77
     6
 78
     2
 67
     7
 79
     5
170
     0
171
     0
290
     0
174
     0
 93
       13
 44
0.0
173
     0
291
     1
 45
0.0
1001
ACAD
1000
AcDbSavedByObjectVersion
1070
     0
  0
VISUALSTYLE
  5
F2
102
{ACAD_XDICTIONARY
360
FA3B
102
}
102
{ACAD_REACTORS
330
EF
102
}
330
EF
100
AcDbVisualStyle
  2
Gouraud
 70
     2
 71
     2
 72
     2
 73
     1
 90
        2
 40
-0.6
 41
30.0
 62
     5
 63
     7
 74
     0
 91
        0
 64
     7
 65
   257
 75
     1
175
     1
 42
1.0
 92
        0
 66
     7
 43
1.0
 76
     1
 77
     6
 78
     2
 67
     7
 79
     5
170
     0
171
     0
290
     0
174
     0
 93
       13
 44
0.0
173
     0
291
     1
 45
0.0
1001
ACAD
1000
AcDbSavedByObjectVersion
1070
     0
  0
VISUALSTYLE
  5
F3
102
{ACAD_XDICTIONARY
360
FA3D
102
}
102
{ACAD_REACTORS
330
EF
102
}
330
EF
100
AcDbVisualStyle
  2
GouraudWithEdges
 70
     3
 71
     2
 72
     2
 73
     1
 90
        2
 40
-0.6
 41
30.0
 62
     5
 63
     7
 74
     1
 91
        0
 64
     7
 65
   257
 75
     1
175
     1
 42
1.0
 92
        0
 66
   257
 43
1.0
 76
     1
 77
     6
 78
     2
 67
     7
 79
     5
170
     0
171
     0
290
     0
174
     0
 93
       13
 44
0.0
173
     0
291
     1
 45
0.0
1001
ACAD
1000
AcDbSavedByObjectVersion
1070
     0
  0
VISUALSTYLE
  5
F7
102
{ACAD_XDICTIONARY
360
FA45
102
}
102
{ACAD_REACTORS
330
EF
102
}
330
EF
100
AcDbVisualStyle
  2
Hidden
 70
     6
 71
     1
 72
     2
 73
     2
 90
        0
 40
-0.6
 41
-30.0
 62
     5
 63
     7
 74
     2
 91
        2
 64
     7
 65
   257
 75
     2
175
     1
 42
40.0
 92
        0
 66
   257
 43
1.0
 76
     1
 77
     6
 78
     2
 67
     7
 79
     3
170
     0
171
     0
290
     0
174
     0
 93
        1
 44
0.0
173
     0
291
     0
 45
0.0
1001
ACAD
1000
AcDbSavedByObjectVersion
1070
     0
  0
VISUALSTYLE
  5
1E4
102
{ACAD_XDICTIONARY
360
FA59
102
}
102
{ACAD_REACTORS
330
EF
102
}
330
EF
100
AcDbVisualStyle
  2
JitterOff
 70
    20
 71
     2
 72
     2
 73
     0
 90
        0
 40
-0.6
 41
-30.0
 62
     5
 63
     7
 74
     1
 91
        4
 64
     7
 65
   257
 75
     1
175
     1
 42
1.0
 92
       10
 66
     7
 43
1.0
 76
     1
 77
     6
 78
     2
 67
     7
 79
     5
170
     0
171
     0
290
     0
174
     0
 93
        1
 44
0.0
173
     0
291
     1
 45
0.0
1001
ACAD
1000
AcDbSavedByObjectVersion
1070
     0
  0
VISUALSTYLE
  5
FD
102
{ACAD_XDICTIONARY
360
FA51
102
}
102
{ACAD_REACTORS
330
EF
102
}
330
EF
100
AcDbVisualStyle
  2
Linepattern
 70
    14
 71
     2
 72
     2
 73
     1
 90
        0
 40
-0.6
 41
-30.0
 62
     5
 63
     7
 74
     1
 91
        4
 64
     7
 65
   257
 75
     7
175
     7
 42
1.0
 92
        8
 66
     7
 43
1.0
 76
     1
 77
     6
 78
     2
 67
     7
 79
     5
170
     0
171
     0
290
     0
174
     0
 93
        1
 44
0.0
173
     0
291
     1
 45
0.0
1001
ACAD
1000
AcDbSavedByObjectVersion
1070
     0
  0
VISUALSTYLE
  5
1E5
102
{ACAD_XDICTIONARY
360
FA5B
102
}
102
{ACAD_REACTORS
330
EF
102
}
330
EF
100
AcDbVisualStyle
  2
OverhangOff
 70
    21
 71
     2
 72
     2
 73
     0
 90
        0
 40
-0.6
 41
-30.0
 62
     5
 63
     7
 74
     1
 91
        4
 64
     7
 65
   257
 75
     1
175
     1
 42
1.0
 92
        9
 66
     7
 43
1.0
 76
     1
 77
     6
 78
     2
 67
     7
 79
     5
170
     0
171
     0
290
     0
174
     0
 93
        1
 44
0.0
173
     0
291
     1
 45
0.0
1001
ACAD
1000
AcDbSavedByObjectVersion
1070
     0
  0
VISUALSTYLE
  5
F9
102
{ACAD_XDICTIONARY
360
FA49
102
}
102
{ACAD_REACTORS
330
EF
102
}
330
EF
100
AcDbVisualStyle
  2
Realistic
 70
     8
 71
     2
 72
     2
 73
     0
 90
        2
 40
-0.6
 41
30.0
 62
     5
 63
     7
 74
     0
 91
        0
 64
     7
 65
   257
 75
     1
175
     1
 42
1.0
 92
        8
 66
   257
 43
1.0
 76
     1
 77
     6
 78
     2
 67
     7
 79
     3
170
     0
171
     0
290
     0
174
     0
 93
       13
 44
0.0
173
     0
291
     0
 45
0.0
1001
ACAD
1000
AcDbSavedByObjectVersion
1070
     0
  0
VISUALSTYLE
  5
1F3
102
{ACAD_XDICTIONARY
360
FA67
102
}
102
{ACAD_REACTORS
330
EF
102
}
330
EF
100
AcDbVisualStyle
  2
Shaded
 70
    27
 71
     2
 72
     2
 73
     1
 90
        2
 40
-0.6
 41
30.0
 62
     5
 63
     7
 74
     0
 91
        4
 64
     7
 65
   257
 75
     1
175
     1
 42
1.0
 92
        8
 66
   257
 43
1.0
 76
     1
 77
     6
 78
     2
 67
     8
 79
     3
170
     0
171
     0
290
     0
174
     0
 93
        5
 44
0.0
173
     0
291
     0
 45
0.0
1001
ACAD
1000
AcDbSavedByObjectVersion
1070
     0
  0
VISUALSTYLE
  5
1F2
102
{ACAD_XDICTIONARY
360
FA65
102
}
102
{ACAD_REACTORS
330
EF
102
}
330
EF
100
AcDbVisualStyle
  2
Shaded with edges
 70
    26
 71
     2
 72
     2
 73
     1
 90
        2
 40
-0.6
 41
30.0
 62
     5
 63
     7
 74
     1
 91
        2
 64
     7
 65
   257
 75
     2
175
     1
 42
1.0
 92
        8
 66
   257
 43
1.0
 76
     1
 77
     6
 78
     2
 67
     7
 79
     3
170
     0
171
     0
290
     0
174
     0
 93
        5
 44
0.0
173
     0
291
     0
 45
0.0
1001
ACAD
1000
AcDbSavedByObjectVersion
1070
     0
  0
VISUALSTYLE
  5
1EF
102
{ACAD_XDICTIONARY
360
FA5F
102
}
102
{ACAD_REACTORS
330
EF
102
}
330
EF
100
AcDbVisualStyle
  2
Shades of Gray
 70
    23
 71
     2
 72
     2
 73
     3
 90
        0
 40
-0.6
 41
-30.0
 62
     5
 63
     7
 74
     2
 91
        2
 64
     7
 65
     7
 75
     1
175
     1
 42
40.0
 92
        8
 66
     7
 43
1.0
 76
     1
 77
     6
 78
     2
 67
     7
 79
     3
170
     0
171
     0
290
     0
174
     0
 93
        1
 44
0.0
173
     0
291
     0
 45
0.0
1001
ACAD
1000
AcDbSavedByObjectVersion
1070
     0
  0
VISUALSTYLE
  5
1F0
102
{ACAD_XDICTIONARY
360
FA61
102
}
102
{ACAD_REACTORS
330
EF
102
}
330
EF
100
AcDbVisualStyle
  2
Sketchy
 70
    24
 71
     1
 72
     2
 73
     2
 90
        0
 40
-0.6
 41
-30.0
 62
     5
 63
     7
 74
     2
 91
        2
 64
     7
 65
     7
 75
     1
175
     1
 42
40.0
 92
       11
 66
     7
 43
1.0
 76
     1
 77
     6
 78
     2
 67
     7
 79
     6
170
     0
171
     0
290
     0
174
     0
 93
        1
 44
0.0
173
     0
291
     0
 45
0.0
1001
ACAD
1000
AcDbSavedByObjectVersion
1070
     0
  0
VISUALSTYLE
  5
FC
102
{ACAD_XDICTIONARY
360
FA4F
102
}
102
{ACAD_REACTORS
330
EF
102
}
330
EF
100
AcDbVisualStyle
  2
Thicken
 70
    13
 71
     2
 72
     2
 73
     1
 90
        0
 40
-0.6
 41
-30.0
 62
     5
 63
     7
 74
     1
 91
        4
 64
     7
 65
   257
 75
     1
175
     1
 42
1.0
 92
       12
 66
     7
 43
1.0
 76
     1
 77
     6
 78
     2
 67
     7
 79
     5
170
     0
171
     0
290
     0
174
     0
 93
        1
 44
0.0
173
     0
291
     1
 45
0.0
1001
ACAD
1000
AcDbSavedByObjectVersion
1070
     0
  0
VISUALSTYLE
  5
F6
102
{ACAD_XDICTIONARY
360
FA43
102
}
102
{ACAD_REACTORS
330
EF
102
}
330
EF
100
AcDbVisualStyle
  2
Wireframe
 70
     5
 71
     0
 72
     2
 73
     0
 90
        0
 40
-0.6
 41
-30.0
 62
     5
 63
     7
 74
     1
 91
        4
 64
     7
 65
   257
 75
     1
175
     1
 42
1.0
 92
        0
 66
   257
 43
1.0
 76
     1
 77
     6
 78
     2
 67
     7
 79
     3
170
     0
171
     0
290
     0
174
     0
 93
        1
 44
0.0
173
     0
291
     0
 45
0.0
1001
ACAD
1000
AcDbSavedByObjectVersion
1070
     0
  0
VISUALSTYLE
  5
1F1
102
{ACAD_XDICTIONARY
360
FA63
102
}
102
{ACAD_REACTORS
330
EF
102
}
330
EF
100
AcDbVisualStyle
  2
X-Ray
 70
    25
 71
     2
 72
     2
 73
     1
 90
        1
 40
0.5
 41
-30.0
 62
     5
 63
     7
 74
     1
 91
        0
 64
     7
 65
   257
 75
     1
175
     1
 42
1.0
 92
        8
 66
     7
 43
1.0
 76
     1
 77
     6
 78
     2
 67
     7
 79
     3
170
     0
171
     0
290
     0
174
     0
 93
       13
 44
0.0
173
     0
291
     0
 45
0.0
1001
ACAD
1000
AcDbSavedByObjectVersion
1070
     0
  0
DICTIONARYVAR
  5
146
102
{ACAD_REACTORS
330
5E
102
}
330
5E
100
DictionaryVariables
280
     0
  1
1:1
  0
DICTIONARYVAR
  5
259
102
{ACAD_REACTORS
330
5E
102
}
330
5E
100
DictionaryVariables
280
     0
  1
3.500000
  0
DICTIONARYVAR
  5
25A
102
{ACAD_REACTORS
330
5E
102
}
330
5E
100
DictionaryVariables
280
     0
  1
acadiso.lin
  0
DICTIONARYVAR
  5
145
102
{ACAD_REACTORS
330
5E
102
}
330
5E
100
DictionaryVariables
280
     0
  1
STANDARD
  0
DICTIONARYVAR
  5
84
102
{ACAD_REACTORS
330
5E
102
}
330
5E
100
DictionaryVariables
280
     0
  1
STANDARD
  0
DICTIONARYVAR
  5
227
102
{ACAD_REACTORS
330
5E
102
}
330
5E
100
DictionaryVariables
280
     0
  1
Metric50
  0
DICTIONARYVAR
  5
228
102
{ACAD_REACTORS
330
5E
102
}
330
5E
100
DictionaryVariables
280
     0
  1
Metric50
  0
DICTIONARYVAR
  5
5F
102
{ACAD_REACTORS
330
5E
102
}
330
5E
100
DictionaryVariables
280
     0
  1
2
  0
DICTIONARYVAR
  5
63
102
{ACAD_REACTORS
330
5E
102
}
330
5E
100
DictionaryVariables
280
     0
  1
1
  0
DICTIONARYVAR
  5
F9D8
102
{ACAD_REACTORS
330
5E
102
}
330
5E
100
DictionaryVariables
280
     0
  1
0
  0
DICTIONARYVAR
  5
1AE
102
{ACAD_REACTORS
330
5E
102
}
330
5E
100
DictionaryVariables
280
     0
  1
0
  0
DICTIONARYVAR
  5
1AF
102
{ACAD_REACTORS
330
5E
102
}
330
5E
100
DictionaryVariables
280
     0
  1
0
  0
DICTIONARYVAR
  5
F9D6
102
{ACAD_REACTORS
330
5E
102
}
330
5E
100
DictionaryVariables
280
     0
  1
2
  0
DICTIONARYVAR
  5
F9D5
102
{ACAD_REACTORS
330
5E
102
}
330
5E
100
DictionaryVariables
280
     0
  1
1
  0
DICTIONARYVAR
  5
FA28
102
{ACAD_REACTORS
330
5E
102
}
330
5E
100
DictionaryVariables
280
     0
  1
80.000000
  0
DICTIONARYVAR
  5
FA27
102
{ACAD_REACTORS
330
5E
102
}
330
5E
100
DictionaryVariables
280
     0
  1
5.000000
  0
DICTIONARYVAR
  5
F9D7
102
{ACAD_REACTORS
330
5E
102
}
330
5E
100
DictionaryVariables
280
     0
  1
127
  0
DICTIONARYVAR
  5
FA29
102
{ACAD_REACTORS
330
5E
102
}
330
5E
100
DictionaryVariables
280
     0
  1
2
  0
DICTIONARY
  5
FA6B
330
21C
100
AcDbDictionary
280
     1
281
     1
  3
ACAD_XREC_ROUNDTRIP
360
FA6C
  0
DICTIONARY
  5
FA30
330
D3
100
AcDbDictionary
280
     1
281
     1
  3
ACAD_XREC_ROUNDTRIP
360
FA31
  0
DICTIONARY
  5
FA32
330
D7
100
AcDbDictionary
280
     1
281
     1
  3
ACAD_XREC_ROUNDTRIP
360
FA33
  0
DICTIONARY
  5
FA2D
330
22
100
AcDbDictionary
280
     1
281
     1
  3
ACAD_XREC_ROUNDTRIP
360
FA2E
  0
DICTIONARY
  5
1F9
330
ED
100
AcDbDictionary
280
     1
281
     1
  3
ACAD_XREC_ROUNDTRIP
360
FA35
  3
FBXASSET
360
1FA
  0
DICTIONARY
  5
1F7
330
EC
100
AcDbDictionary
280
     1
281
     1
  3
ACAD_XREC_ROUNDTRIP
360
FA34
  3
FBXASSET
360
1F8
  0
DICTIONARY
  5
173
330
EE
100
AcDbDictionary
280
     1
281
     1
  3
ACAD_XREC_ROUNDTRIP
360
FA36
  3
BUMPTILE
360
175
  3
DIFFUSETILE
360
174
  3
FBXASSET
360
1FB
  3
OPACITYTILE
360
176
  3
REFLECTIONTILE
360
177
  0
DICTIONARY
  5
FA57
330
12E
100
AcDbDictionary
280
     1
281
     1
  3
ACAD_XREC_ROUNDTRIP
360
FA58
  0
DICTIONARY
  5
FA69
330
21A
100
AcDbDictionary
280
     1
281
     1
  3
ACAD_XREC_ROUNDTRIP
360
FA6A
  0
DICTIONARY
  5
162
330
7F
100
AcDbDictionary
280
     1
281
     1
  3
ACAD_ROUNDTRIP_2008_TABLESTYLE_CELLSTYLEMAP
360
FA2A
  3
ACAD_XREC_ROUNDTRIP
360
FA2F
  0
DICTIONARY
  5
FA41
330
F5
100
AcDbDictionary
280
     1
281
     1
  3
ACAD_XREC_ROUNDTRIP
360
FA42
  0
DICTIONARY
  5
FA3F
330
F4
100
AcDbDictionary
280
     1
281
     1
  3
ACAD_XREC_ROUNDTRIP
360
FA40
  0
DICTIONARY
  5
FA4D
330
FB
100
AcDbDictionary
280
     1
281
     1
  3
ACAD_XREC_ROUNDTRIP
360
FA4E
  0
DICTIONARY
  5
FA55
330
FF
100
AcDbDictionary
280
     1
281
     1
  3
ACAD_XREC_ROUNDTRIP
360
FA56
  0
DICTIONARY
  5
FA47
330
F8
100
AcDbDictionary
280
     1
281
     1
  3
ACAD_XREC_ROUNDTRIP
360
FA48
  0
DICTIONARY
  5
FA4B
330
FA
100
AcDbDictionary
280
     1
281
     1
  3
ACAD_XREC_ROUNDTRIP
360
FA4C
  0
DICTIONARY
  5
FA5D
330
1E6
100
AcDbDictionary
280
     1
281
     1
  3
ACAD_XREC_ROUNDTRIP
360
FA5E
  0
DICTIONARY
  5
FA53
330
FE
100
AcDbDictionary
280
     1
281
     1
  3
ACAD_XREC_ROUNDTRIP
360
FA54
  0
DICTIONARY
  5
FA37
330
F0
100
AcDbDictionary
280
     1
281
     1
  3
ACAD_XREC_ROUNDTRIP
360
FA38
  0
DICTIONARY
  5
FA39
330
F1
100
AcDbDictionary
280
     1
281
     1
  3
ACAD_XREC_ROUNDTRIP
360
FA3A
  0
DICTIONARY
  5
FA3B
330
F2
100
AcDbDictionary
280
     1
281
     1
  3
ACAD_XREC_ROUNDTRIP
360
FA3C
  0
DICTIONARY
  5
FA3D
330
F3
100
AcDbDictionary
280
     1
281
     1
  3
ACAD_XREC_ROUNDTRIP
360
FA3E
  0
DICTIONARY
  5
FA45
330
F7
100
AcDbDictionary
280
     1
281
     1
  3
ACAD_XREC_ROUNDTRIP
360
FA46
  0
DICTIONARY
  5
FA59
330
1E4
100
AcDbDictionary
280
     1
281
     1
  3
ACAD_XREC_ROUNDTRIP
360
FA5A
  0
DICTIONARY
  5
FA51
330
FD
100
AcDbDictionary
280
     1
281
     1
  3
ACAD_XREC_ROUNDTRIP
360
FA52
  0
DICTIONARY
  5
FA5B
330
1E5
100
AcDbDictionary
280
     1
281
     1
  3
ACAD_XREC_ROUNDTRIP
360
FA5C
  0
DICTIONARY
  5
FA49
330
F9
100
AcDbDictionary
280
     1
281
     1
  3
ACAD_XREC_ROUNDTRIP
360
FA4A
  0
DICTIONARY
  5
FA67
330
1F3
100
AcDbDictionary
280
     1
281
     1
  3
ACAD_XREC_ROUNDTRIP
360
FA68
  0
DICTIONARY
  5
FA65
330
1F2
100
AcDbDictionary
280
     1
281
     1
  3
ACAD_XREC_ROUNDTRIP
360
FA66
  0
DICTIONARY
  5
FA5F
330
1EF
100
AcDbDictionary
280
     1
281
     1
  3
ACAD_XREC_ROUNDTRIP
360
FA60
  0
DICTIONARY
  5
FA61
330
1F0
100
AcDbDictionary
280
     1
281
     1
  3
ACAD_XREC_ROUNDTRIP
360
FA62
  0
DICTIONARY
  5
FA4F
330
FC
100
AcDbDictionary
280
     1
281
     1
  3
ACAD_XREC_ROUNDTRIP
360
FA50
  0
DICTIONARY
  5
FA43
330
F6
100
AcDbDictionary
280
     1
281
     1
  3
ACAD_XREC_ROUNDTRIP
360
FA44
  0
DICTIONARY
  5
FA63
330
1F1
100
AcDbDictionary
280
     1
281
     1
  3
ACAD_XREC_ROUNDTRIP
360
FA64
  0
XRECORD
  5
FA6C
102
{ACAD_REACTORS
330
FA6B
102
}
330
FA6B
100
AcDbXrecord
280
     1
102
DISPLAYNAME
  1
Metric50
102
FLAGS
 90
        0
  0
XRECORD
  5
FA31
102
{ACAD_REACTORS
330
FA30
102
}
330
FA30
100
AcDbXrecord
280
     1
102
SHADEPLOT
 70
     0
102
SHADEPLOTRESLEVEL
 70
     2
102
SHADEPLOTCUSTOMDPI
 70
   300
  0
XRECORD
  5
FA33
102
{ACAD_REACTORS
330
FA32
102
}
330
FA32
100
AcDbXrecord
280
     1
102
SHADEPLOT
 70
     0
102
SHADEPLOTRESLEVEL
 70
     2
102
SHADEPLOTCUSTOMDPI
 70
   300
  0
XRECORD
  5
FA2E
102
{ACAD_REACTORS
330
FA2D
102
}
330
FA2D
100
AcDbXrecord
280
     1
102
SHADEPLOT
 70
     0
102
SHADEPLOTRESLEVEL
 70
     2
102
SHADEPLOTCUSTOMDPI
 70
   300
  0
XRECORD
  5
FA35
102
{ACAD_REACTORS
330
1F9
102
}
330
1F9
100
AcDbXrecord
280
     1
102
MATERIAL
148
0.0
149
0.0
149
0.0
 93
        0
 94
       63
282
     0
 72
     1
 77
     1
171
     1
175
     1
179
     1
273
     0
  0
XRECORD
  5
1FA
102
{ACAD_REACTORS
330
1F9
102
}
330
1F9
100
AcDbXrecord
280
     1
 70
     1
 90
429727718
  1
D62C5603-E3A1-4AEA-B7FB-FE5D8D0755AF
310
504B03040A0000080000CC70623B3DEE336E79000000790000001B0000006175746F6465736B2D64657369676E2D7061636B6167652E786D6C3C3F786D6C2076657273696F6E3D22312E302220656E636F64696E673D227574662D3822203F3E3C666F726D6174733E3C666F726D61743E687474703A2F2F736368656D612E
310
6175746F6465736B2E636F6D2F64657369676E2D7061636B6167652F323030393C2F666F726D61743E3C2F666F726D6174733E504B0304140006080800CC70623BD486FD9CA0000000F4000000130000005B436F6E74656E745F54797065735D2E786D6C7D8EC10E82300C865F65E91D8A1E8C310C0EEA1BF002731658846E
310
D98AC1B77784ABF1D8FE5FBFBF75BBCE937A534CCEB38643598122B6FEE978D0B0485F9C41B54DDD7D022595594E1A469170414C76A4D9A4D207E29CF43ECE46F218070CC6BECC4078ACAA135ACF422C856C0E68EA1BF5669944DDD7BCDE7B1F8E415D77AECB980613C2E4AC91FC167A2B244592486606FC29C8FD7F045B9A
310
EF7053A7E60B504B0304140006080800CC70623B853B8169EB0000007C01000008000000636F72652E786D6C8D90416EC3201045AF62CDB6C206821CC7C244919D9CA01740401C94182C03558F5F9C3852BBEB6A467FFE9B197D7EFC9E1EC5975982F5AE035262288C535E5B377690E21535501C055FBC8FBF6C503839990E
310
5619041F179FE64D52DE45E362569DD7661365082642A11EB9E920A89B99642953CC8E702F67A9EE7234257977194EC9EAE275C4EABCCF5EAD5940D4AC6F0E35A568B8F43562CD7046CD199FD07E60174276A7BE677B5EADB0E0D14EEFFB6A31321A0D82627C4084204C3F096B71DD52F6819B16635EADF63F509AF53FA164
310
5DDCD1EDDD17164090FCC8732078B56691CB33A85CD7DCC40F504B0304140006080800CC70623B55019EA25F0000007C00000007000000636E782E786D6C4DCB3B0E80201045D1AD90E915ED2CF8AC45050C11660C8261F98AB1B07AC9C97D42D718D865D3E909258CFD00CCE24AC6E326A164D74DC0B4128928FF32603847
310
2BA13128B1252AC747C6BAB984FC68F0B87FE8960A5C09FE86CFB69FBA01504B0304140006080800CC70623BDBABAAF470010000D40300000C0000006662782F636F72652E786D6CC553D16E823014FD95A6AF4B694182CC941A83FA05FB810A9511A125A5257EFE2E82712ECEB8A7F100CD39F7F69E734AF9FADC366850B6
310
AF8DCE7018308C942E4C59EB2AC3DE1D498AD15A706B8CFB56869196ADCAF00863C12B6B7C374385D14E6907A836A59A41D9F7CA615434B0C8705F7CAA5606D23BA8E84F41278B93AC54100640439DE0BDB320004D43C63716C7C399D30917DCFBBA9CD9BA8469F5B156168B24CED3F7248AC8769F27244EB73B92EED8862C
310
B7F13E0C179B3C8F979C8ECD82BBBABDAA2BAC924E9558448CBD9330242CFA08E3154B5651FCC6D215639C8EE5774DBE2B5F6CF2B5768B68963BB5F5588420E442FC700B1139D4CB01F450C1E918227C2E09DF070D8140C84E1E9AAB8F1340832A9CB13130A5F1376A908D57309505ECF2A0DF179C4E9D30F5B239B87E3823
310
7A79C6F31DE1A8A5AEC08474B03C7837EAE4938639B44E5932B833D2C6B6B279CDC613877FA26EE21F4A2A4C63EC7F29A2F301D1F9F7A0E37D145F504B0304140006080800CC70623B9C113CC27E0000009D0000000B0000006662782F636E782E786D6C4DCCDF0A83201C86E15B91DFB94BFB330DD428C8FB886521330DA7
310
6397BF1A1DECE883878F57749FCDA1B7892F1BBC047A23808C7F84D9FA55424E0BE6803A256208E9EF06C84F9B91703228B1C690F78B66B34CD9A5439DF5CF0BFBF65E35BCA1B8D6A5C6F540381E886698B5741C695F9503EBA150A2F8958E3DC3EA0B504B0304140006080800CC70623B7DF2F77C2A010000120200003100
310
00006662782F41393633353835312D344632462D344230382D423046372D3739314545314133324237412F636F72652E786D6C8D51DB8EC22014FC15C2939B0D2DB4B45643319AE817EC0F6041255A68B86CFCFC856D4D76DF7CE190393373060EDB3DC707F856CE6B6B7A480A0C81328395DA5C7B18C3057510EC3873D686
310
3F34088C18550F330C39BB3A1BA7051AAC09CA84841A2BD5020AEF55806078A44B0FFD7053A328440C89E1EFC52486BBB8AA8214A99D789CF9E05200300FC927E4FB4D5B375D43103D5527440FB843077C5AA3F5861C8F645F5787F59E95B390B318B55CE45AA638FAA2957BD7248B390B7A7CC51F9C124149C82B8C378810
310
84AB2F42B7B8DD56F413775B8C5999E9FF4471926F8AA236A1AE96B8B3CC434E5839373893369E1FAF30EA395917409EB7F26AF8801C171837A4A6AC9C89E9F9C9B1A58BA30FD6A5EF5DDDCF894B9AD9B6A59C957943A9FCAE2FD5BC4DFE03504B0304140006080800CC70623BAD7543B64E01000033030000300000006662
310
782F41393633353835312D344632462D344230382D423046372D3739314545314133324237412F636E782E786D6CD593CD6EC32010845F0571AD6CE3D48AD20813A9873E410FBD12D82434182C7EAAE6EDBB2424CD25871E7B41D6EC30B3FA84F9E67BB2E40B4234DE8DB46F1925E094D7C6ED479AD3AE5951B2113C789FEE
310
6C943839C1488B4C05DF079FE72A69D8C96C13AAD6B8631503449F83828872B949AC57D26200B826A308D316B4064D6E46FCDA41C05550DC9E483A00797BFD207EFB092A45DE9514C1BBD22178396BD39D891265658C238DEA00936C654E5E433CB65A26D9F6EDB5EBC14EBF49A45CB856E66048291F6939A9A81BB5C89177
310
38143CA680F4AA299D66A042CEB3354A2684DC9D8D178FE0D9B8B41CAAD720F880EE7EF93C0C18769E099ECC04D5A102C8049A8A05632F4DDF376CF1DE0F6BB65C2F8627B65A33C6BB62177CEBBDAD973006829F89F22E814B54F4BC2BE347F8AA8F681390B50FA73F804400B5F542E796F19FF974E7F78DB802FE05E20750
310
4B0304140006080800CC70623BE75B7789680500003C100000340000006662782F41393633353835312D344632462D344230382D423046372D3739314545314133324237412F6F626A656374732E786D6CAD575B8F9B3818FD2B887D06C22499CB8AA1CA655245D5B455A356FB305264C061D8018C6C3393D95FBFC7600890
310
A4CD5EF210B0B1BFEBF98E3F7B1FF6596ABC522E1296DF9BAE3D320D9A872C4AF2F8DE2CE5CEBA358D0FBEC719939D65A691938CDE9B6ADAF4BD98B3B2D05311DD91329583D9D5FC0F438434A7A611A644887B5384CF34233629258BA878B12322891DEFF6B66BD70BFB62634E8AE781D082709A4B588AF91C528CDA28B73F
310
1C998EEF39EABBEFA97FBD6A7C7E9553F9D3D79FE442923C3C523610337627CB87ABE99D359D4CC6D6E4FACAB5E6ABF9D2726FC6A3C5F56271377BB88362213924694B38DD99FE47C48627A1E7D49F5A8BB5E1A74C0A599ED3B0F21F1E56366B89112D681E218F0915D0D6F17AD41FBA2A369DCF6335D62ABBD39779D5DDD1
310
11D4D8DE3CBB96B2E04FB8202E41051754A1AA8E8F76B4C6DFE810B580B1547F4B84911149794252234D024EF8BBE963A95AE27B3D310A9D5C215C7960FAEE415ED75694C6AFB17BCACA5D99A60A9AA65F217B0BFC53292ACB92BF283FAD0D3621576592CB5BED907C2FA8E9DF794E35E97BEA31BED21FEB401ABB94C44839
310
DCACBF0E1C5DA8DA5B2F4DFFD32AD86F543D9E565E7056502E157C00AD2671CD534549AB752FCA9CDA00677A313F04E51B22FF19E57B300579E3C97EB29F682D92935CEC18CF901B7B54FD8C51F362B56FC72FE0B3C1EAE335EDCCBF5AEC39ADB17DC238973F804BA5E6F6BFE7AF1FB32E523BE9F3BD571418E3631DCA4D48
310
5250CF639223210A9446CA30052EDF057BD35F8329C1ECD84552BF0DC8D18BE7BCE23BFE6BD960AB4A7DE79923A103BEBD80F911CBAA2C60DB19B01CF164A5583B772EE6D3FFA56666CBCDA74DC97724A48F9A58967497E489C4D979006FD7A05E227A1EBDD0F737C623387A9C844D3709995625106D157315F8B8392CD4E0
310
A0B9A720C4BE9829CEF37EA1E13111214D53925356365ADA634861B52519DD27A00AEB808EAF0628E6F435519D446F45CF2C9CF5214F0A15B2F6D06B79DA3EE3CBF7F56780D2F4E7EF73A0F5E5B02A38D07DC852C6B7C1FBB6664213E0C39E3EBA7FF4E1AD23EA2829407C85E586727488B751B2DB9502BC7B228A3FD68B6E
310
A65A22397E690AA8D158D7E404EC8CDA235CC3B7D1898680131CEC2CDF2638C65196279577750F15884AEE19F94199155B92B13297978469D4F8D358DF0AEF7631E28DC8F0D9F437D5D39A83B2231A1D52D543813A824EF8D44BCFF2FA6A31BD1E8DAD87F1CCB526B3879935BF59CDADD5C37479BB1CDD4CA7B3556B516589
310
EF352754B706114D9C885EC9131DE6EFEB43D99AFE2391C2F958179413D7CFEF6B1B6DB1E7600F00DE6E5C67454A339A4BA2E0FBA85ED26F045D454F463DBFCE484C2F90F2E5E3666003662ED8F755951A7D1BECD5B30B550B2785C8E7320B7292A4838DDA71BBC863ED7613CAF659337A3354231D4FF4A182A54904C2898C
310
98B28C4AD0CE056CCF332A80986E571EE9DBC305BB5FEB7E509220A58D25CF042D712A806AC0AD0C657FDEF80D2D9CEAA2EE4D1C76F60BFE74219A06527D6F82DF6412526107381E55E353090704D085B52408A8913C4ED159D79BDA71BB4BC506F4831350EB6F975CD22D69BF7AC49B91A2C0A9DDA3D5CA36AD20FC478E37
310
E61844E2352865EBCB61A275A65283CAAA9DD27703B4102F5AF51EF5F573B75CBB5AD38BC845F7A49F82A0966A49C2E3EA5EA0ECD326CD965F1DB402C6FA8B51A4658C5C5E2EC9E214602E55810345408596591009A82E7E7FFACA19EEA299B14A0081A705CB3296EBC14CDF658DCD336EA6D1136881AAEB87B81AB9EE53D5
310
F5EB8BC8362082DA24122F98680A4E7930C01A0079749CEA14382A0783E5EBA5A10F8C098456A03D6A4AEB6BB881E2513747552A5DB22C7EDAF83BD5528081A365F7FF06504B0304140006080000CC70623B000000000000000000000000350000006662782F41393633353835312D344632462D344230382D423046372D37
310
39314545314133324237412F76657274696365732E62696E504B0304140006080800CC70623BF270F1330600000004000000360000006662782F41393633353835312D344632462D344230382D423046372D3739314545314133324237412F747269616E676C65732E62696E636660600000504B0304140006080000CC7062
310
3B000000000000000000000000370000006662782F41393633353835312D344632462D344230382D423046372D3739314545314133324237412F617474726962757465732E62696E504B0304140006080800CC70623B08DA0BD19000000041010000360000006662782F41393633353835312D344632462D344230382D4230
310
46372D3739314545314133324237412F6469726563746F72792E786D6C858F410AC3201045AF22B36F53E9A60B35CBEEBAE80D244E44489C6234F4F835464A48035D0DF398FF9F8AF63D0E6CC63039F212F8F9020C7D47C6792B21C5FE7403D62A1188E2E60C98D7234A5830286103A55745067B9D86B8A3CF9C7F90C11DE6
310
07FB144396D7B6A82D282E9A152AD114D5EF2CB866EEE831B8EEA07A7BB5A8D7D61A2BAAEB7FD5F70921FF497D00504B0304140006080800CC70623BEDD1DC58FD000000A00100003B0000006662782F41393633353835312D344632462D344230382D423046372D3739314545314133324237412F7265736F75726365732F
310
636F72652E786D6C8D504B6E833010BD0A9A6D65B00922041947112427E8052C33A156828DFCA97AFC9A40A576D7CDCCE87D344F8F9FBFE667F689CE6B6B3A6039850C8DB2A336530731DC4903D95970676DF82583CCC8193B5861107C72362E3BA4AC096842428D1D7107A5F7182053CF7474E0D507CE32973124857FE48B
310
540F3961CEF244279DE03EB81420DB9EAC1384436FA353E879B1B182C7A8C75DA3C7F453DF353A1075D537A7BA6464B8F535A99AE14A9A2BBD90E350DD183B5CFABE3AF262350B1EF4FC9351399401471025A527C218A1E53BAB5A5AB765F5469B96525EACF23FA6B88CFF34456DC2A1DCE36E360F82A5202F42F062ED2BAD
310
579969AFDD8A6F504B010214000A0000080000CC70623B3DEE336E79000000790000001B00000000000000000000000000000000006175746F6465736B2D64657369676E2D7061636B6167652E786D6C504B01021400140006080800CC70623BD486FD9CA0000000F40000001300000000000000000000000000B20000005B
310
436F6E74656E745F54797065735D2E786D6C504B01021400140006080800CC70623B853B8169EB0000007C010000080000000000000000000000000083010000636F72652E786D6C504B01021400140006080800CC70623B55019EA25F0000007C000000070000000000000000000000000094020000636E782E786D6C504B
310
01021400140006080800CC70623BDBABAAF470010000D40300000C00000000000000000000000000180300006662782F636F72652E786D6C504B01021400140006080800CC70623B9C113CC27E0000009D0000000B00000000000000000000000000B20400006662782F636E782E786D6C504B01021400140006080800CC70
310
623B7DF2F77C2A010000120200003100000000000000000000000000590500006662782F41393633353835312D344632462D344230382D423046372D3739314545314133324237412F636F72652E786D6C504B01021400140006080800CC70623BAD7543B64E010000330300003000000000000000000000000000D2060000
310
6662782F41393633353835312D344632462D344230382D423046372D3739314545314133324237412F636E782E786D6C504B01021400140006080800CC70623BE75B7789680500003C10000034000000000000000000000000006E0800006662782F41393633353835312D344632462D344230382D423046372D3739314545
310
314133324237412F6F626A656374732E786D6C504B01021400140006080000CC70623B0000000000000000000000003500000000000000000000000000280E00006662782F41393633353835312D344632462D344230382D423046372D3739314545314133324237412F76657274696365732E62696E504B01021400140006
310
080800CC70623BF270F133060000000400000036000000000000000000000000007B0E00006662782F41393633353835312D344632462D344230382D423046372D3739314545314133324237412F747269616E676C65732E62696E504B01021400140006080000CC70623B0000000000000000000000003700000000000000
310
000000000000D50E00006662782F41393633353835312D344632462D344230382D423046372D3739314545314133324237412F617474726962757465732E62696E504B01021400140006080800CC70623B08DA0BD1900000004101000036000000000000000000000000002A0F00006662782F41393633353835312D344632
310
462D344230382D423046372D3739314545314133324237412F6469726563746F72792E786D6C504B01021400140006080800CC70623BEDD1DC58FD000000A00100003B000000000000000000000000000E1000006662782F41393633353835312D344632462D344230382D423046372D3739314545314133324237412F7265
310
736F75726365732F636F72652E786D6C504B0506000000000E000E0080040000641100000000
  0
XRECORD
  5
FA34
102
{ACAD_REACTORS
330
1F7
102
}
330
1F7
100
AcDbXrecord
280
     1
102
MATERIAL
148
0.0
149
0.0
149
0.0
 93
        0
 94
       63
282
     0
 72
     1
 77
     1
171
     1
175
     1
179
     1
273
     0
  0
XRECORD
  5
1F8
102
{ACAD_REACTORS
330
1F7
102
}
330
1F7
100
AcDbXrecord
280
     1
 70
     1
 90
429727718
  1
30362254-06B7-45E0-A893-8CFA70E3D6BC
310
504B03040A0000080000CC70623B3DEE336E79000000790000001B0000006175746F6465736B2D64657369676E2D7061636B6167652E786D6C3C3F786D6C2076657273696F6E3D22312E302220656E636F64696E673D227574662D3822203F3E3C666F726D6174733E3C666F726D61743E687474703A2F2F736368656D612E
310
6175746F6465736B2E636F6D2F64657369676E2D7061636B6167652F323030393C2F666F726D61743E3C2F666F726D6174733E504B0304140006080800CC70623BD486FD9CA0000000F4000000130000005B436F6E74656E745F54797065735D2E786D6C7D8EC10E82300C865F65E91D8A1E8C310C0EEA1BF002731658846E
310
D98AC1B77784ABF1D8FE5FBFBF75BBCE937A534CCEB38643598122B6FEE978D0B0485F9C41B54DDD7D022595594E1A469170414C76A4D9A4D207E29CF43ECE46F218070CC6BECC4078ACAA135ACF422C856C0E68EA1BF5669944DDD7BCDE7B1F8E415D77AECB980613C2E4AC91FC167A2B244592486606FC29C8FD7F045B9A
310
EF7053A7E60B504B0304140006080800CC70623B1EC5D7A3EB0000007C01000008000000636F72652E786D6C8D90416EC3201045AF82665B6103C6756C6122AB4D4ED00B204C5C94182C03558F5F9C3852BBEB6A467FFE9B197D71FC9E6FE8CBACC17AD7032D0820E3B41FAD9B7A48F1820F808E52ACDEC75F36404ECDA687
310
4D0629A6D5A76597B477D1B89855E747B38B2A041301E95B6E7A08FAD3CCAA50296647B8168BD2573599823EBB0CA76447F43862C7BCCF5EAC59410E4DDD9C7973C2755553CCCFA4C603E3040F1565ED3B1FDE4E432BCA0D9622DAF9795FAF464533826484B498524CD807E51D79ED187F21878E10516EF63F505AC67F42C9
310
BA58B1FDDD071640D2FCC87D2045B96591CB3DA85CB7DCE40F504B0304140006080800CC70623B55019EA25F0000007C00000007000000636E782E786D6C4DCB3B0E80201045D1AD90E915ED2CF8AC45050C11660C8261F98AB1B07AC9C97D42D718D865D3E909258CFD00CCE24AC6E326A164D74DC0B4128928FF32603847
310
2BA13128B1252AC747C6BAB984FC68F0B87FE8960A5C09FE86CFB69FBA01504B0304140006080800CC70623B8C9102E971010000D40300000C0000006662782F636F72652E786D6CC5535B6E833010BC8AE5DF0A6C08340F1947A84D4ED00B38C6A128602363A31CBFCB234A53A551FA553EC09AD9F5CE8C31DB9E9B1AF5CA
310
7695D1198E428A91D2D214952E33ECDD315861B4E5CC1AE3BE9561A445A3323CC098B3D21ADFCE9034DA29ED00D5A6503328BA4E398C640D8B0C77F253352214DE4145770A5B214FA2546114020D759C75CE8200340D19DE981F0F6746269C33EFAB6266AB02A655C74A59CCF365BADC27CB5D902ED22848F6340DF238A141
310
BE88E2F57B92BFEDF23523433367AE6A2EEAA455C2A902F398D2751045018D3FA264435F3771F242571B4A1919CA6F9A7C5B3CD9E42BED16F12C776AEB308F40C848FC700B1139D4891EF410CEC810227CC6846F8386402064270EF5C5C709A05E49676C024C61FC95EA45ED154CA5211D1FF4FB8291A913A68E9B83EBBB33
310
E2A7673CDE118E5AE8124C0807CB8377834E366998436B950D7A7746DAD846D4CFD978E0F04FD455FC5D49D2D4C6FE9722321F10997F0F32DC47FE05504B0304140006080800CC70623BFFEA85907E0000009D0000000B0000006662782F636E782E786D6C4DCCD10A83201886E15B91FFDC95D95A811AB6F23E625948A6C3
310
E9D8E5AF46073BFAE0E1E365ED67B3E8ADC3CB78C7815C7240DA3DFC64DCC221C519D7805AC182F7F1EF06C88D9BE6703008B6049F9E274D7A1E938DBB5AE3D6131B2589BA0D3D965551E0B2EA732C9B9A624AAEB41E3A557677029960D9AFB4EF11165F504B0304140006080800CC70623B4FEEA4082C0100001202000031
310
0000006662782F39464131463745442D413632322D343644302D413938332D3331353338454246344243312F636F72652E786D6C8D515B6EC32010BC0AE2AB55850DD871ED0813254D72825EC00192A2C460F1A872FC42ED48ED5F7E00CDCECCCEB26C731F6FE05B39AFADE921293004CA082BB5B9F43086336A21D870E6AC
310
0D7F68109861543DCC30E4ECE26C9C164858139409093556AA051CBC570102714B8F1E7AF1A5C6A11862480C7F2DA6415C878B2A4891CA89C7990F2E050073937C42DE1DB7E4F87ED8A36D4329AA9B3D46DBAEAD504556557BD81DEBDD0761E52CE42C462D17B996298E3E6BE59E35C962CE821E1FF18553435012728A7187
310
0841987E927A8D9B35ADDF70BBC6989599FE4F1427F9A4286A132ABAC49D651EF234CD5CE04CDA78BA3DC2A8FB645D00B9DF8B57E215725C60BCA2A463E54C4CE327C7A65E1C7DB02E7DEFCBF594B864C5CA6CDBD49C957943E9FA5D5FBAF336F90F504B0304140006080800CC70623BAD7543B64E01000033030000300000
310
006662782F39464131463745442D413632322D343644302D413938332D3331353338454246344243312F636E782E786D6CD593CD6EC32010845F0571AD6CE3D48AD20813A9873E410FBD12D82434182C7EAAE6EDBB2424CD25871E7B41D6EC30B3FA84F9E67BB2E40B4234DE8DB46F1925E094D7C6ED479AD3AE5951B2113C
310
789FEE6C943839C1488B4C05DF079FE72A69D8C96C13AAD6B8631503449F83828872B949AC57D26200B826A308D316B4064D6E46FCDA41C05550DC9E483A00797BFD207EFB092A45DE9514C1BBD22178396BD39D891265658C238DEA00936C654E5E433CB65A26D9F6EDB5EBC14EBF49A45CB856E66048291F6939A9A81BB5
310
C8917738143CA680F4AA299D66A042CEB3354A2684DC9D8D178FE0D9B8B41CAAD720F880EE7EF93C0C18769E099ECC04D5A102C8049A8A05632F4DDF376CF1DE0F6BB65C2F8627B65A33C6BB62177CEBBDAD973006829F89F22E814B54F4BC2BE347F8AA8F681390B50FA73F804400B5F542E796F19FF974E7F78DB802FE05
310
E207504B0304140006080800CC70623B16AB87BA640500003C100000340000006662782F39464131463745442D413632322D343644302D413938332D3331353338454246344243312F6F626A656374732E786D6CAD575B6FA33818FD2B887DE6924B3BED8A326A92B68A663B534DD4D13E548A0C38942D60649B369D5FBFC7
310
600890A493BDE42160637FD7F31D7FF63E6FB3D478A55C242CBF3247B66B1A340F5994E4F19559CA8D75611A9F7D8F33263BCB4C232719BD32D5B4E97B316765A1A722BA21652A07B3B7B33F0D11D29C9A46981221AE4C113ED38CD8A4942CA2E2C58E882476BCD9DA23BB5ED8171B73523C0F841684D35CC252CCE79062D4
310
468DFA43D7747CCF51DF7D4FFDEB5593E3AB9CCA9FBEFE241792E4E19EB28198C968BAB8199F5D5A67D3E9C49A9E8F47D6EC76B6B0469F26EEFC7C3EBFBCBEB98462213924694B38DD98FE1D62C393D073EA4FADC5DAF04326852CCF6958F90F0F2B9BB5C48816348F90C7840A68EB78EDF68723159BCEE7891A6B95DDE9D3
310
BCEAEEE8086A6C6F9E5D4B59F0175C10A7A0820BAA5055C7473B5AE3CFDD452D602CD5DF12616444529E90D448938013FE6EFA58AA96F85E4F8C42275708571E98FE6827AF6B2B4AE3D7D83D64E5A64C53054DD3AF90BD06FEA9149565C94FCA0F6B834DC85599E4F2423B24DF0B6AFA979E534DFA9E7A4CC6FA631D486393
310
921829879BF5D781A373557BCB85E97FB90DB62B558F8795179C15944B051F40AB495CF35451D26A4727654E6D8033BD98EF82F21D91FF8AF2DD9982BCF1643BDD4EB516C9492E368C67C88DED563FC36D5EACF66DFF057C3658BDBFA69DF9578B3DA735B64F18C7F20770A9D45CFCF7FCF563D6456A277DBEF78A02637CA2
310
43B90A490AEAB94F72244481D24819A6C0E59B606BFA4B3025981DBB48EAB701D97BF19C577CC77F2D1B6C55A9EF3C732474C0B727303F625995056C3B02963D9EAC146BE78EC5FCEC7FA999EBC5EACBAAE41B12D27B4D2C0BBA49F244E2ECDC81B76B502F113D8F5EE8FB1BE3111CDD4FC2AA9B844CAB1288B68AB90A7CDC
310
1C166AB0D3DC5310625FCC14E779BFD0709F8890A629C9292B1B2DED31A4B0DA928CEE135085754027E3018A397D4D5427D15BD1330B677DC8934285AC3DF45A9EB68FF8F2B8FC0A509AFEECFD0FF2DE25CC6047F7214B195F07EFEB9A094D800F7BFAE8FED187B78EA8A3A400F115961BCAD1215E47C966530AF0EE8128FE
310
58CEBB996A8964FFA529A046635D9353B0336A8F700DDF46271A024E70B0B37C9DE01847591E54DED53D54202AB947E4076556AC49C6CA5C9E1226B7F1A7B1BE15DEED62C41B91E1B3E9AFAAA735036547343A925075041DF0A9979E893B391F8FCFA6967B3EFB644DCF6E5CEBFAE272625DCC6FAF3FB93793C5F90CE1EF57
310
407342756B10D1C489E8953CD1617E5CEECAD6F4EF8914CE5D5D504E5C3F1F9736DA62CFC11E00BCDDB8CC8A9466349744C1F75EBDA4DF09BA8A9E8C7A7E9991989E20E5DBDD6A6003664ED8F7A04A8DBE0DF6EAD9B9AA858342E47399053949D2C146EDB85DE4B176BB0965FBAC19BD19AA918E27FA50C1D22402E144464C
310
59462568E704B6E71915404CB72B8FF4EDE184DDAF753F284990D2C6926782963815403548A70C657FDEF80D2D9CEAA2AE4C1C76F60BFE74219A06527D6582DF6412526107381E55E353090704D085B52408D0933C4ED159D79BDA71BB4BC506F4831350EB6F979CD22D69BF7AC49B91A2C0A9DDA3D5CA36AD20FC478E37E6
310
1844E2352865EBCB6EA275A652E3836BE04EFB400BF1A2556F515F1FBB35B2AB35BD889C744FFA1004B5544B121E57F70215746DD2F5E2C1412B602CBF19455AC6C8E5E9922C4E01E65215385004546899059180EAFCF7A707CE7017CD8CDB0410789AB32C63B91E5CEBBBACB17AC6CD347A022D5075FD106377347AAABA7E
310
7D11590744509B44E205134DC1290F06580320F78E537D3D73540E06CB970B431F185308AD40BBD794D6D77003C5A36E8EAA54BA64597CD8F83BD552A080A365F7FF06504B0304140006080000CC70623B000000000000000000000000350000006662782F39464131463745442D413632322D343644302D413938332D3331
310
353338454246344243312F76657274696365732E62696E504B0304140006080800CC70623BF270F1330600000004000000360000006662782F39464131463745442D413632322D343644302D413938332D3331353338454246344243312F747269616E676C65732E62696E636660600000504B0304140006080000CC70623B
310
000000000000000000000000370000006662782F39464131463745442D413632322D343644302D413938332D3331353338454246344243312F617474726962757465732E62696E504B0304140006080800CC70623B08DA0BD19000000041010000360000006662782F39464131463745442D413632322D343644302D413938
310
332D3331353338454246344243312F6469726563746F72792E786D6C858F410AC3201045AF22B36F53E9A60B35CBEEBAE80D244E44489C6234F4F835464A48035D0DF398FF9F8AF63D0E6CC63039F212F8F9020C7D47C6792B21C5FE7403D62A1188E2E60C98D7234A5830286103A55745067B9D86B8A3CF9C7F90C11DE607
310
FB144396D7B6A82D282E9A152AD114D5EF2CB866EEE831B8EEA07A7BB5A8D7D61A2BAAEB7FD5F70921FF497D00504B0304140006080800CC70623B0D6EF93BFE000000A00100003B0000006662782F39464131463745442D413632322D343644302D413938332D3331353338454246344243312F7265736F75726365732F63
310
6F72652E786D6C8D50596E833010BD0A9ADFCA60B334011947A8694ED00B586642AC041B79A97AFC9A40A5F6AF3F33A3B7689E1E3F7DCD8FEC139DD7D6F4C0720A191A65476DA61E62B892236427C19DB5E1970C322367EC618541F0C9D9B8EC90B226A009093576C41D94DE63804C3DD2D18357379C652E63480A7FCF17A9
310
EE72C29CE5894E3AC17D702940B63D59270887DE46A7D0F36263058F518FBB468FE9A7BE6A7420864373B8D4873369AA8691FA421B3294352543C5CAF65C0F6FEF43CB8BD52C78D0F34F46E550061C419494B6843142CB0F5677F4B52BEB177AEC28E5C52AFF638ACBF84F53D42654E51E77B379102C05791282176B5F693D
310
CB4C7BED567C03504B010214000A0000080000CC70623B3DEE336E79000000790000001B00000000000000000000000000000000006175746F6465736B2D64657369676E2D7061636B6167652E786D6C504B01021400140006080800CC70623BD486FD9CA0000000F40000001300000000000000000000000000B20000005B
310
436F6E74656E745F54797065735D2E786D6C504B01021400140006080800CC70623B1EC5D7A3EB0000007C010000080000000000000000000000000083010000636F72652E786D6C504B01021400140006080800CC70623B55019EA25F0000007C000000070000000000000000000000000094020000636E782E786D6C504B
310
01021400140006080800CC70623B8C9102E971010000D40300000C00000000000000000000000000180300006662782F636F72652E786D6C504B01021400140006080800CC70623BFFEA85907E0000009D0000000B00000000000000000000000000B30400006662782F636E782E786D6C504B01021400140006080800CC70
310
623B4FEEA4082C0100001202000031000000000000000000000000005A0500006662782F39464131463745442D413632322D343644302D413938332D3331353338454246344243312F636F72652E786D6C504B01021400140006080800CC70623BAD7543B64E010000330300003000000000000000000000000000D5060000
310
6662782F39464131463745442D413632322D343644302D413938332D3331353338454246344243312F636E782E786D6C504B01021400140006080800CC70623B16AB87BA640500003C1000003400000000000000000000000000710800006662782F39464131463745442D413632322D343644302D413938332D3331353338
310
454246344243312F6F626A656374732E786D6C504B01021400140006080000CC70623B0000000000000000000000003500000000000000000000000000270E00006662782F39464131463745442D413632322D343644302D413938332D3331353338454246344243312F76657274696365732E62696E504B01021400140006
310
080800CC70623BF270F133060000000400000036000000000000000000000000007A0E00006662782F39464131463745442D413632322D343644302D413938332D3331353338454246344243312F747269616E676C65732E62696E504B01021400140006080000CC70623B0000000000000000000000003700000000000000
310
000000000000D40E00006662782F39464131463745442D413632322D343644302D413938332D3331353338454246344243312F617474726962757465732E62696E504B01021400140006080800CC70623B08DA0BD190000000410100003600000000000000000000000000290F00006662782F39464131463745442D413632
310
322D343644302D413938332D3331353338454246344243312F6469726563746F72792E786D6C504B01021400140006080800CC70623B0D6EF93BFE000000A00100003B000000000000000000000000000D1000006662782F39464131463745442D413632322D343644302D413938332D3331353338454246344243312F7265
310
736F75726365732F636F72652E786D6C504B0506000000000E000E0080040000641100000000
  0
XRECORD
  5
FA36
102
{ACAD_REACTORS
330
173
102
}
330
173
100
AcDbXrecord
280
     1
102
MATERIAL
148
0.0
149
0.0
149
0.0
 93
        0
 94
       63
282
     0
 72
     1
 77
     1
171
     1
175
     1
179
     1
273
     0
  0
XRECORD
  5
175
102
{ACAD_REACTORS
330
173
102
}
330
173
100
AcDbXrecord
280
     1
270
     1
271
     1
  0
XRECORD
  5
174
102
{ACAD_REACTORS
330
173
102
}
330
173
100
AcDbXrecord
280
     1
270
     1
271
     1
  0
XRECORD
  5
1FB
102
{ACAD_REACTORS
330
173
102
}
330
173
100
AcDbXrecord
280
     1
 70
     0
 90
1673772943
  1
ECE7A1D2-D628-4531-984C-D00F80459256
310
504B03040A0000080000CC70623B3DEE336E79000000790000001B0000006175746F6465736B2D64657369676E2D7061636B6167652E786D6C3C3F786D6C2076657273696F6E3D22312E302220656E636F64696E673D227574662D3822203F3E3C666F726D6174733E3C666F726D61743E687474703A2F2F736368656D612E
310
6175746F6465736B2E636F6D2F64657369676E2D7061636B6167652F323030393C2F666F726D61743E3C2F666F726D6174733E504B0304140006080800CC70623BD486FD9CA0000000F4000000130000005B436F6E74656E745F54797065735D2E786D6C7D8EC10E82300C865F65E91D8A1E8C310C0EEA1BF002731658846E
310
D98AC1B77784ABF1D8FE5FBFBF75BBCE937A534CCEB38643598122B6FEE978D0B0485F9C41B54DDD7D022595594E1A469170414C76A4D9A4D207E29CF43ECE46F218070CC6BECC4078ACAA135ACF422C856C0E68EA1BF5669944DDD7BCDE7B1F8E415D77AECB980613C2E4AC91FC167A2B244592486606FC29C8FD7F045B9A
310
EF7053A7E60B504B0304140006080800CC70623BD9DDAED0EC0000007C01000008000000636F72652E786D6C8D90416EC3201045AF82665B61836D9CD8C2444DD39CA01740405C94182C03558F5F9C3852BBEB6A467FFE9B197D7EF89E6EE8CB2CC17A37002D0820E394D7D68D03A478C17B4007C117EFE32F1B20272733C0
310
2A83E0E3E2D3BC49CABB685CCCAAF3DA6CA20CC14440EA969B0182FA34932C648AD911AEC52CD5558EA6A0CF2EC329598D1E47ACCEFBECC59A050463A7EA5833865FEBDD0E37353BE3EE8DBDE3F6786A48D375FBF6CC78B9C282473B3DEFABC5C86834888A900E538A49F5419B9EB47DD5BC907D4F082F57FB1F28CDFA9F50
310
B22ED6D5F6EE030B20687EE43E10BC5CB3C8E51E54AE6B6EE207504B0304140006080800CC70623B55019EA25F0000007C00000007000000636E782E786D6C4DCB3B0E80201045D1AD90E915ED2CF8AC45050C11660C8261F98AB1B07AC9C97D42D718D865D3E909258CFD00CCE24AC6E326A164D74DC0B4128928FF326038
310
472BA13128B1252AC747C6BAB984FC68F0B87FE8960A5C09FE86CFB69FBA01504B0304140006080800CC70623BA24EB22D72010000D40300000C0000006662782F636F72652E786D6CC5535B6E833010BC8AE5DF0A6C5E49888CA3A6694ED00B38E05014B091B1518EDFE511A5A9D228FD2A1F60CDEC7A67C6986DCE4D8D7A
310
69BA4AAB0C073EC548AA5C17952A33ECECD15B61B4E1CC686DBF9561A44423333CC098B3D268D7CE50AE9595CA02AA74216750749DB418E5352C32DCE59FB211BE70162ABA93DF8AFC244AE9073ED050C759670D0840D390E18DF9F1706664C23973AE2A66B62A605A75ACA4C13C4976E1364A12EF355A2EBD384AF65EFA96
310
BC7B8BED2EA6719AAE16FB8491A199335B351775B991C2CA02F390D2D40B028F861F41BCA68B7518BFD0D59A524686F29B26D7164F36B94AD9289CE54E6D1DE6010819891F6E21228B3AD1831EC219194284CF98F06DD01008846CC5A1BEF83801D4CBDC6A1303536877A57A513B0953A94FC707FDBE6064EA84A9E3E6E0FA
310
EE8CF0E9198F7784A316AA0413C2C2F2E0ECA0934D1AE6D05A69BCDE9E91D2A611F573361E38FC1375157F5752AE6B6DFE4B11990F88CCBF0719EE23FF02504B0304140006080800CC70623B408A7D3B7C0000009D0000000B0000006662782F636E782E786D6C4DCCD10A83201886E15B91FFDC552A92A0064DBC8F581632
310
D3703A76F9ABD1C18E3E78F878E5F0D9027ABBFCF2292AE86E2D20171F69F6715550CB827B40839639A5F2770314A7CD293819B45C73AAFB45B35BA61ACAA1C1C7E7855C58C15BC331339661262CC762340413D68D77DA5B42298546CBE6573AF60CEB2F504B0304140006080800CC70623B449FB9BD290100001202000031
310
0000006662782F36394639363044362D344446342D343946362D394244322D3234314243333846323333332F636F72652E786D6C8D515B6EC32010BC0AE22B55850D98B871848994463E412FE002495162B07854397EA176A4F62F3F2C9A9D991D587EB84F37F0AD7D30CEF6905418026DA553C65E7A98E219ED203808EE9D
310
8B7F6810D871D23D2C3014FCE25D9A57483A1BB58D19B54EE9151C43D0110279CB971E06F9A5A7B11A53CC8C70ADE6515EC78BAE4895DB992778883E0700CB907242D17643D7E2538BD869608875438BBAE38922CAC8F1BDD90DB4691A5E2F42C153326A951B95E398B3D1FE599322163C9AE9115F7A3D46ADA0A018778810
310
84E907617BDCEE297BC5BB3DC6BC2EF47FA234AB2745C9D8D8D035EE220B50105E2F0DC1954B9FB747187D9F9D8FA0CCDB042D5FA0C015C65B42DF78BD10F3F3B363CB56C7109DCFDFBBB97E662ED92EB62D13BC2E1BCAE5777DB9966D8A1F504B0304140006080800CC70623BAD7543B64E01000033030000300000006662
310
782F36394639363044362D344446342D343946362D394244322D3234314243333846323333332F636E782E786D6CD593CD6EC32010845F0571AD6CE3D48AD20813A9873E410FBD12D82434182C7EAAE6EDBB2424CD25871E7B41D6EC30B3FA84F9E67BB2E40B4234DE8DB46F1925E094D7C6ED479AD3AE5951B2113C789FEE
310
6C943839C1488B4C05DF079FE72A69D8C96C13AAD6B8631503449F83828872B949AC57D26200B826A308D316B4064D6E46FCDA41C05550DC9E483A00797BFD207EFB092A45DE9514C1BBD22178396BD39D891265658C238DEA00936C654E5E433CB65A26D9F6EDB5EBC14EBF49A45CB856E66048291F6939A9A81BB5C89177
310
38143CA680F4AA299D66A042CEB3354A2684DC9D8D178FE0D9B8B41CAAD720F880EE7EF93C0C18769E099ECC04D5A102C8049A8A05632F4DDF376CF1DE0F6BB65C2F8627B65A33C6BB62177CEBBDAD973006829F89F22E814B54F4BC2BE347F8AA8F681390B50FA73F804400B5F542E796F19FF974E7F78DB802FE05E20750
310
4B0304140006080800CC70623B8D05915C650500003B100000340000006662782F36394639363044362D344446342D343946362D394244322D3234314243333846323333332F6F626A656374732E786D6CAD575B6FA33814FE2B887D06429276DA1565D4266D158D3A339A6846FB502932E050B66023DB74D2FDF5FB190C01
310
9276B2973C046C8ECFF53B17071F77456EBD502133CEAE6CDF9DD81665314F32965ED995DA3A17B6F5310C04E7AA47665B8C14F4CAD6DB7618A48257A5D94AE89654B91AEDDEDDFC61C998326A5B714EA4BCB265FC440BE2924AF184CA6737218AB8E976E7FA6E4338649B0A523E8D98964450A6A029F619B8588D52FE7039
310
B1BD30F0F4F730D0FF866AF6369557DB33949F31A9088B0F848DD8CCFCF9F2767A76E99CCDE733677E3EF59D9BBB9BA5E37F984D16E78BC5E5F5ED25044B25C0C96822E8D60EEFE11B91C581D77CEA34368A1F5329E68CD1B8B61F16D63A1B8E092D294B10C78C4A48EB593D192E7DED9BDEE7995E1B91FDEDD3ACEA9FE831
310
6A756F9F7D4D79F4274C90A7A04248AA51D5F8C718DAE06FB2F75AC4796EBE65D22A88A22223B995679120E2D50E41AA49C260C046A35368846B0BECD0DFF3EBEB8AD4F835768F69B9ADF25C43D30E6B646F807FAA64AD59F61715C7A54127C4AACA98BA3006A9D792DAE165E0D59B61A01FB3A9F9D838D2DAE62445C86166
310
F37564E842E7DE6A69879FEEA2DD5AE7E371E1A5E025154AC307D06A03D73EB5978C58FFA4C8E9033066E0F3BD53BEC1F39F91BE7B55103791EDE6BBB991A2046172CB4581D8B893FA674DDA17A77B3B7C413D1B511FD2743BFF8A38F03A658705E3ADF8015C3A3417FF3D7E439FF591DA0B5F18BC20C1B8981957AE6392A3
310
F43C640C01D1A0B4728E2DD4F26DB4B3C3152A252A3B4E913CEC1C72F012782FF88EFF8637AA552DBEF76408E8A8DE9E50F9E1CB3A2DA0DB1B6039A893B56063DC5B3E3FFB5F72E67AB9FEB4AEC496C4F4C1149625DD662C53E89D7BF0F6151A046260D1337DFDC94502430F83B0EE07A130A224BCAD7DAE1D9FB6CD422FF6
310
920702629C4BB9AE79C12F243C6432A6794E18E5552BA56B431AAB5D91317302B2B071E86C3A42B1A02F999E24061403B5D0EB639195DA655DD3EBEAB4FB862DDF579F014AD0E73C22F99E28DA57FB98E75C6CA2D74D53086D600F4786E0FE3144B771A8A7B900F03594DB8A633CBC49B2EDB69228BB479CF863B5E807AAAB
310
23872F6DFEB4129B949CA33823F58830E86D65621E10047D9DB34D862E8EAC3C2ABC2F7B2C40D67CDFE01F5545B92105AF983AC54D93D69E56FB8E797F88913F898A9FEC705D3F9D1B54EC8426FB500D40A03BD0119B06E1B95DDC7EB8F6975367793EBD70E66733DFB9BC982F9CE564727731999F5D4ECFCE3B8D6A4DC2A0
310
6D50FD148437D110834A64C6CDDF57FBACB5C307A2A477DFE4939736CFEF2B175371E0E10CF0DD1D5C15654E0BCA14D1E87DD02FF93782A162C0A3D95F1524A52770F972BF1EE9809D13CE7DD599467F8ECE9ADD85CE85A34CD45355448C64F9E8A031DC2D596ACC6E5DD93D9B82DE2EF5CAF81363A8E47996A0DE24564A79
310
4115AACE09C55E14540231FDA13C319787134EBF34E3A022514E5B4D9E0826E25C02D5805B15ABE1BEF51B26383D445DD9E875EE33FE4C22DA16427D65A3BCA92CA6D28DD01DF5DC53330704308475351050232CCD31583787BA75774AFB06E5070DD0C8EF484E19968C5D83BA5B90B244D31E54D55A372320FE4786B7EA58
310
44E135AA5467CB7EA333A61683CC6A8C3257034C10CF46F40EF9F5BE59BE5BD30C3C72D235E95D10345C1D45445A5F0BB47E46A5EBE5570F9380B5FA629579952296A773720405982B9DE04011506178964401AA8BDF1FBF0A8EAB6861DD6580C0E38217056766716DAEB2D6FA0917D3E4116581EADB879C4E7CFFB11EFACD
310
3D641311495D92C8676CB409A72D18610D803CE8A626049E8EC1887CB5B44CC39883690DDA8399B4B9855B481E7D71D4A9D22F96E5BB73BF5793020C02137BF837504B0304140006080000CC70623B000000000000000000000000350000006662782F36394639363044362D344446342D343946362D394244322D32343142
310
43333846323333332F76657274696365732E62696E504B0304140006080800CC70623BF270F1330600000004000000360000006662782F36394639363044362D344446342D343946362D394244322D3234314243333846323333332F747269616E676C65732E62696E636660600000504B0304140006080000CC70623B0000
310
00000000000000000000370000006662782F36394639363044362D344446342D343946362D394244322D3234314243333846323333332F617474726962757465732E62696E504B0304140006080800CC70623B08DA0BD19000000041010000360000006662782F36394639363044362D344446342D343946362D394244322D
310
3234314243333846323333332F6469726563746F72792E786D6C858F410AC3201045AF22B36F53E9A60B35CBEEBAE80D244E44489C6234F4F835464A48035D0DF398FF9F8AF63D0E6CC63039F212F8F9020C7D47C6792B21C5FE7403D62A1188E2E60C98D7234A5830286103A55745067B9D86B8A3CF9C7F90C11DE607FB14
310
4396D7B6A82D282E9A152AD114D5EF2CB866EEE831B8EEA07A7BB5A8D7D61A2BAAEB7FD5F70921FF497D00504B0304140006080800CC70623BCA768048FE000000A00100003B0000006662782F36394639363044362D344446342D343946362D394244322D3234314243333846323333332F7265736F75726365732F636F72
310
652E786D6C8D50596E833010BD0A9ADFCA60D600328E9AA639412F609909B1126CE4A5EAF16B0295DABFFECC8CDEA2797AECF8353F924FB44E193D409E5248504B332A3D0D10FC95B4901C39B3C6F85F3248B49871801506CE266BC2B243D2688FDA47549B11775038871E12F988C7004EDE7016A9083E2ADC3D5D84BC8B09
310
D33C8D74D471E6BC8D0192EDC93A815B742658898E651BCB59086ADC356A8C3FD555A1055ED7E7E254D615792D0F075295F585746FF53B694EE78A565DD736979A65AB9933AFE69F8CD2A2F038022F28ED489E135A7CE4554F9BBEA85E68DB53CAB255FEC71496F19FA6A0B42F8B3DEE6673C0F318E4497096AD7DC5F52C33
310
EEB55BFE0D504B010214000A0000080000CC70623B3DEE336E79000000790000001B00000000000000000000000000000000006175746F6465736B2D64657369676E2D7061636B6167652E786D6C504B01021400140006080800CC70623BD486FD9CA0000000F40000001300000000000000000000000000B20000005B436F
310
6E74656E745F54797065735D2E786D6C504B01021400140006080800CC70623BD9DDAED0EC0000007C010000080000000000000000000000000083010000636F72652E786D6C504B01021400140006080800CC70623B55019EA25F0000007C000000070000000000000000000000000095020000636E782E786D6C504B0102
310
1400140006080800CC70623BA24EB22D72010000D40300000C00000000000000000000000000190300006662782F636F72652E786D6C504B01021400140006080800CC70623B408A7D3B7C0000009D0000000B00000000000000000000000000B50400006662782F636E782E786D6C504B01021400140006080800CC70623B
310
449FB9BD290100001202000031000000000000000000000000005A0500006662782F36394639363044362D344446342D343946362D394244322D3234314243333846323333332F636F72652E786D6C504B01021400140006080800CC70623BAD7543B64E010000330300003000000000000000000000000000D20600006662
310
782F36394639363044362D344446342D343946362D394244322D3234314243333846323333332F636E782E786D6C504B01021400140006080800CC70623B8D05915C650500003B10000034000000000000000000000000006E0800006662782F36394639363044362D344446342D343946362D394244322D32343142433338
310
46323333332F6F626A656374732E786D6C504B01021400140006080000CC70623B0000000000000000000000003500000000000000000000000000250E00006662782F36394639363044362D344446342D343946362D394244322D3234314243333846323333332F76657274696365732E62696E504B010214001400060808
310
00CC70623BF270F13306000000040000003600000000000000000000000000780E00006662782F36394639363044362D344446342D343946362D394244322D3234314243333846323333332F747269616E676C65732E62696E504B01021400140006080000CC70623B00000000000000000000000037000000000000000000
310
00000000D20E00006662782F36394639363044362D344446342D343946362D394244322D3234314243333846323333332F617474726962757465732E62696E504B01021400140006080800CC70623B08DA0BD190000000410100003600000000000000000000000000270F00006662782F36394639363044362D344446342D
310
343946362D394244322D3234314243333846323333332F6469726563746F72792E786D6C504B01021400140006080800CC70623BCA768048FE000000A00100003B000000000000000000000000000B1000006662782F36394639363044362D344446342D343946362D394244322D3234314243333846323333332F7265736F
310
75726365732F636F72652E786D6C504B0506000000000E000E0080040000621100000000
  0
XRECORD
  5
176
102
{ACAD_REACTORS
330
173
102
}
330
173
100
AcDbXrecord
280
     1
270
     1
271
     1
  0
XRECORD
  5
177
102
{ACAD_REACTORS
330
173
102
}
330
173
100
AcDbXrecord
280
     1
270
     1
271
     1
  0
XRECORD
  5
FA58
102
{ACAD_REACTORS
330
FA57
102
}
330
FA57
100
AcDbXrecord
280
     1
102
ACAD_ROUNDTRIP_2012_MLEADER_STYLE
298
     1
  0
XRECORD
  5
FA6A
102
{ACAD_REACTORS
330
FA69
102
}
330
FA69
100
AcDbXrecord
280
     1
102
DISPLAYNAME
  1
Metric50
102
FLAGS
 90
        0
  0
CELLSTYLEMAP
  5
FA2A
102
{ACAD_REACTORS
330
162
102
}
330
162
100
AcDbCellStyleMap
 90
        3
300
CELLSTYLE
  1
TABLEFORMAT_BEGIN
 90
        5
170
     1
 91
        0
 92
    32768
 62
   257
 93
        1
300
CONTENTFORMAT
  1
CONTENTFORMAT_BEGIN
 90
        0
 91
        0
 92
      512
 93
        0
300

 40
0.0
140
1.0
 94
        5
 62
     0
340
11
144
6.0
309
CONTENTFORMAT_END
171
     1
301
MARGIN
  1
CELLMARGIN_BEGIN
 40
1.5
 40
1.5
 40
1.5
 40
1.5
 40
4.5
 40
4.5
309
CELLMARGIN_END
 94
        6
 95
        1
302
GRIDFORMAT
  1
GRIDFORMAT_BEGIN
 90
        0
 91
        1
 62
     0
 92
       -2
340
14
 93
        0
 40
1.125
309
GRIDFORMAT_END
 95
        2
302
GRIDFORMAT
  1
GRIDFORMAT_BEGIN
 90
        0
 91
        1
 62
     0
 92
       -2
340
14
 93
        0
 40
1.125
309
GRIDFORMAT_END
 95
        4
302
GRIDFORMAT
  1
GRIDFORMAT_BEGIN
 90
        0
 91
        1
 62
     0
 92
       -2
340
14
 93
        0
 40
1.125
309
GRIDFORMAT_END
 95
        8
302
GRIDFORMAT
  1
GRIDFORMAT_BEGIN
 90
        0
 91
        1
 62
     0
 92
       -2
340
14
 93
        0
 40
1.125
309
GRIDFORMAT_END
 95
       16
302
GRIDFORMAT
  1
GRIDFORMAT_BEGIN
 90
        0
 91
        1
 62
     0
 92
       -2
340
14
 93
        0
 40
1.125
309
GRIDFORMAT_END
 95
       32
302
GRIDFORMAT
  1
GRIDFORMAT_BEGIN
 90
        0
 91
        1
 62
     0
 92
       -2
340
14
 93
        0
 40
1.125
309
GRIDFORMAT_END
309
TABLEFORMAT_END
  1
CELLSTYLE_BEGIN
 90
        1
 91
        1
300
_TITLE
309
CELLSTYLE_END
300
CELLSTYLE
  1
TABLEFORMAT_BEGIN
 90
        5
170
     1
 91
        0
 92
        0
 62
   257
 93
        1
300
CONTENTFORMAT
  1
CONTENTFORMAT_BEGIN
 90
        0
 91
        0
 92
      512
 93
        0
300

 40
0.0
140
1.0
 94
        5
 62
     0
340
11
144
4.5
309
CONTENTFORMAT_END
171
     1
301
MARGIN
  1
CELLMARGIN_BEGIN
 40
1.5
 40
1.5
 40
1.5
 40
1.5
 40
4.5
 40
4.5
309
CELLMARGIN_END
 94
        6
 95
        1
302
GRIDFORMAT
  1
GRIDFORMAT_BEGIN
 90
        0
 91
        1
 62
     0
 92
       -2
340
14
 93
        0
 40
1.125
309
GRIDFORMAT_END
 95
        2
302
GRIDFORMAT
  1
GRIDFORMAT_BEGIN
 90
        0
 91
        1
 62
     0
 92
       -2
340
14
 93
        0
 40
1.125
309
GRIDFORMAT_END
 95
        4
302
GRIDFORMAT
  1
GRIDFORMAT_BEGIN
 90
        0
 91
        1
 62
     0
 92
       -2
340
14
 93
        0
 40
1.125
309
GRIDFORMAT_END
 95
        8
302
GRIDFORMAT
  1
GRIDFORMAT_BEGIN
 90
        0
 91
        1
 62
     0
 92
       -2
340
14
 93
        0
 40
1.125
309
GRIDFORMAT_END
 95
       16
302
GRIDFORMAT
  1
GRIDFORMAT_BEGIN
 90
        0
 91
        1
 62
     0
 92
       -2
340
14
 93
        0
 40
1.125
309
GRIDFORMAT_END
 95
       32
302
GRIDFORMAT
  1
GRIDFORMAT_BEGIN
 90
        0
 91
        1
 62
     0
 92
       -2
340
14
 93
        0
 40
1.125
309
GRIDFORMAT_END
309
TABLEFORMAT_END
  1
CELLSTYLE_BEGIN
 90
        2
 91
        1
300
_HEADER
309
CELLSTYLE_END
300
CELLSTYLE
  1
TABLEFORMAT_BEGIN
 90
        5
170
     1
 91
        0
 92
        0
 62
   257
 93
        1
300
CONTENTFORMAT
  1
CONTENTFORMAT_BEGIN
 90
        0
 91
        0
 92
      512
 93
        0
300

 40
0.0
140
1.0
 94
        2
 62
     0
340
11
144
4.5
309
CONTENTFORMAT_END
171
     1
301
MARGIN
  1
CELLMARGIN_BEGIN
 40
1.5
 40
1.5
 40
1.5
 40
1.5
 40
4.5
 40
4.5
309
CELLMARGIN_END
 94
        6
 95
        1
302
GRIDFORMAT
  1
GRIDFORMAT_BEGIN
 90
        0
 91
        1
 62
     0
 92
       -2
340
14
 93
        0
 40
1.125
309
GRIDFORMAT_END
 95
        2
302
GRIDFORMAT
  1
GRIDFORMAT_BEGIN
 90
        0
 91
        1
 62
     0
 92
       -2
340
14
 93
        0
 40
1.125
309
GRIDFORMAT_END
 95
        4
302
GRIDFORMAT
  1
GRIDFORMAT_BEGIN
 90
        0
 91
        1
 62
     0
 92
       -2
340
14
 93
        0
 40
1.125
309
GRIDFORMAT_END
 95
        8
302
GRIDFORMAT
  1
GRIDFORMAT_BEGIN
 90
        0
 91
        1
 62
     0
 92
       -2
340
14
 93
        0
 40
1.125
309
GRIDFORMAT_END
 95
       16
302
GRIDFORMAT
  1
GRIDFORMAT_BEGIN
 90
        0
 91
        1
 62
     0
 92
       -2
340
14
 93
        0
 40
1.125
309
GRIDFORMAT_END
 95
       32
302
GRIDFORMAT
  1
GRIDFORMAT_BEGIN
 90
        0
 91
        1
 62
     0
 92
       -2
340
14
 93
        0
 40
1.125
309
GRIDFORMAT_END
309
TABLEFORMAT_END
  1
CELLSTYLE_BEGIN
 90
        3
 91
        2
300
_DATA
309
CELLSTYLE_END
  0
XRECORD
  5
FA2F
102
{ACAD_REACTORS
330
162
102
}
330
162
100
AcDbXrecord
280
     1
102
ACAD_ROUNDTRIP_PRE2007_TABLESTYLE
 90
      512
 91
        0
  1

 92
      512
 93
        0
  2

 94
      512
 95
        0
  3

  0
XRECORD
  5
FA42
102
{ACAD_REACTORS
330
FA41
102
}
330
FA41
100
AcDbXrecord
280
     1
102
RTVSPost2010Prop28
280
     1
102
RTVSPost2010PropOp28
 70
     1
102
RTVSPost2010Prop29
280
     1
102
RTVSPost2010PropOp29
 70
     1
102
RTVSPost2010Prop30
280
     0
102
RTVSPost2010PropOp30
 70
     1
102
RTVSPost2010Prop31
280
     0
102
RTVSPost2010PropOp31
 70
     1
102
RTVSPost2010Prop32
280
     0
102
RTVSPost2010PropOp32
 70
     1
102
RTVSPost2010Prop33
280
     0
102
RTVSPost2010PropOp33
 70
     1
102
RTVSPost2010Prop34
280
     0
102
RTVSPost2010PropOp34
 70
     1
102
RTVSPost2010Prop35
280
     0
102
RTVSPost2010PropOp35
 70
     1
102
RTVSPost2010Prop36
280
     0
102
RTVSPost2010PropOp36
 70
     1
102
RTVSPost2010Prop37
 90
       50
102
RTVSPost2010PropOp37
 70
     1
102
RTVSPost2010Prop38
140
0.0
102
RTVSPost2010PropOp38
 70
     1
102
RTVSPost2010Prop39
140
1.0
102
RTVSPost2010PropOp39
 70
     1
102
RTVSPost2010Prop40
 90
        0
102
RTVSPost2010PropOp40
 70
     1
102
RTVSPost2010Prop41ColorIndex
 90
       18
102
RTVSPost2010Prop41ColorRGB
 90
        0
102
RTVSPost2010PropOp41
 70
     1
102
RTVSPost2010Prop42
 90
       50
102
RTVSPost2010PropOp42
 70
     1
102
RTVSPost2010Prop43
 90
        3
102
RTVSPost2010PropOp43
 70
     1
102
RTVSPost2010Prop44ColorIndex
 90
        5
102
RTVSPost2010Prop44ColorRGB
 90
      255
102
RTVSPost2010PropOp44
 70
     1
102
RTVSPost2010Prop45
280
     0
102
RTVSPost2010PropOp45
 70
     1
102
RTVSPost2010Prop46
 90
       50
102
RTVSPost2010PropOp46
 70
     1
102
RTVSPost2010Prop47
 90
       50
102
RTVSPost2010PropOp47
 70
     1
102
RTVSPost2010Prop48
 90
       50
102
RTVSPost2010PropOp48
 70
     1
102
RTVSPost2010Prop49
280
     0
102
RTVSPost2010PropOp49
 70
     1
102
RTVSPost2010Prop50
 90
       50
102
RTVSPost2010PropOp50
 70
     1
102
RTVSPost2010Prop51ColorIndex
 90
      256
102
RTVSPost2010Prop51ColorRGB
 90
-16777216
102
RTVSPost2010PropOp51
 70
     0
102
RTVSPost2010Prop52
140
1.0
102
RTVSPost2010PropOp52
 70
     0
102
RTVSPost2010Prop53
 90
        2
102
RTVSPost2010PropOp53
 70
     1
102
RTVSPost2010Prop54
  1
strokes_ogs.tif
102
RTVSPost2010PropOp54
 70
     1
102
RTVSPost2010Prop55
280
     0
102
RTVSPost2010PropOp55
 70
     1
102
RTVSPost2010Prop56
140
1.0
102
RTVSPost2010PropOp56
 70
     1
102
RTVSPost2010Prop57
140
1.0
102
RTVSPost2010PropOp57
 70
     1
102
RTVSPropertyOp0
 70
     1
102
RTVSPropertyOp1
 70
     1
102
RTVSPropertyOp2
 70
     1
102
RTVSPropertyOp3
 70
     1
102
RTVSPropertyOp4
 70
     1
102
RTVSPropertyOp5
 70
     1
102
RTVSPropertyOp6
 70
     1
102
RTVSPropertyOp7
 70
     1
102
RTVSPropertyOp8
 70
     1
102
RTVSPropertyOp9
 70
     1
102
RTVSPropertyOp10
 70
     1
102
RTVSPropertyOp11
 70
     1
102
RTVSPropertyOp12
 70
     1
102
RTVSPropertyOp13
 70
     1
102
RTVSPropertyOp14
 70
     1
102
RTVSPropertyOp15
 70
     1
102
RTVSPropertyOp16
 70
     1
102
RTVSPropertyOp17
 70
     1
102
RTVSPropertyOp18
 70
     1
102
RTVSPropertyOp19
 70
     1
102
RTVSPropertyOp20
 70
     1
102
RTVSPropertyOp21
 70
     1
102
RTVSPropertyOp22
 70
     1
102
RTVSPropertyOp23
 70
     1
102
RTVSPropertyOp24
 70
     1
102
RTVSPropertyOp25
 70
     1
102
RTVSPropertyOp26
 70
     1
102
RTVSPropertyOp27
 70
     1
102
RTVSPropertyOp28
 70
     1
102
RTVSPropertyOp29
 70
     1
102
RTVSPropertyOp30
 70
     1
102
RTVSPropertyOp31
 70
     1
102
RTVSPropertyOp32
 70
     1
102
RTVSPropertyOp33
 70
     1
102
RTVSPropertyOp34
 70
     1
102
RTVSPropertyOp35
 70
     1
102
RTVSPropertyOp36
 70
     1
102
RTVSPropertyOp37
 70
     1
102
RTVSPropertyOp38
 70
     1
102
RTVSPropertyOp39
 70
     1
102
RTVSPropertyOp40
 70
     1
102
RTVSPropertyOp41
 70
     1
102
RTVSPropertyOp42
 70
     1
102
RTVSPropertyOp43
 70
     1
102
RTVSPropertyOp44
 70
     1
102
RTVSPropertyOp45
 70
     1
102
RTVSPropertyOp46
 70
     1
102
RTVSPropertyOp47
 70
     1
102
RTVSPropertyOp48
 70
     1
102
RTVSPropertyOp49
 70
     1
102
RTVSPropertyOp50
 70
     1
102
RTVSPropertyOp51
 70
     0
102
RTVSPropertyOp52
 70
     0
102
RTVSPropertyOp53
 70
     1
102
RTVSPropertyOp54
 70
     1
102
RTVSPropertyOp55
 70
     1
102
RTVSPropertyOp56
 70
     1
102
RTVSPropertyOp57
 70
     1
102
RTVSPropertyOp58
 70
     1
102
RTVSPropertyOp59
 70
     1
102
RTVSPropertyOp60
 70
     1
102
RTVSPropertyOp61
 70
     1
102
RTVSPropertyOp62
 70
     1
  0
XRECORD
  5
FA40
102
{ACAD_REACTORS
330
FA3F
102
}
330
FA3F
100
AcDbXrecord
280
     1
102
RTVSPost2010Prop28
280
     0
102
RTVSPost2010PropOp28
 70
     1
102
RTVSPost2010Prop29
280
     1
102
RTVSPost2010PropOp29
 70
     1
102
RTVSPost2010Prop30
280
     1
102
RTVSPost2010PropOp30
 70
     1
102
RTVSPost2010Prop31
280
     0
102
RTVSPost2010PropOp31
 70
     1
102
RTVSPost2010Prop32
280
     0
102
RTVSPost2010PropOp32
 70
     1
102
RTVSPost2010Prop33
280
     0
102
RTVSPost2010PropOp33
 70
     1
102
RTVSPost2010Prop34
280
     0
102
RTVSPost2010PropOp34
 70
     1
102
RTVSPost2010Prop35
280
     0
102
RTVSPost2010PropOp35
 70
     1
102
RTVSPost2010Prop36
280
     0
102
RTVSPost2010PropOp36
 70
     1
102
RTVSPost2010Prop37
 90
       50
102
RTVSPost2010PropOp37
 70
     1
102
RTVSPost2010Prop38
140
0.0
102
RTVSPost2010PropOp38
 70
     1
102
RTVSPost2010Prop39
140
1.0
102
RTVSPost2010PropOp39
 70
     1
102
RTVSPost2010Prop40
 90
        0
102
RTVSPost2010PropOp40
 70
     1
102
RTVSPost2010Prop41ColorIndex
 90
       18
102
RTVSPost2010Prop41ColorRGB
 90
        0
102
RTVSPost2010PropOp41
 70
     1
102
RTVSPost2010Prop42
 90
       50
102
RTVSPost2010PropOp42
 70
     1
102
RTVSPost2010Prop43
 90
        3
102
RTVSPost2010PropOp43
 70
     1
102
RTVSPost2010Prop44ColorIndex
 90
        5
102
RTVSPost2010Prop44ColorRGB
 90
      255
102
RTVSPost2010PropOp44
 70
     1
102
RTVSPost2010Prop45
280
     0
102
RTVSPost2010PropOp45
 70
     1
102
RTVSPost2010Prop46
 90
       50
102
RTVSPost2010PropOp46
 70
     1
102
RTVSPost2010Prop47
 90
       50
102
RTVSPost2010PropOp47
 70
     1
102
RTVSPost2010Prop48
 90
       50
102
RTVSPost2010PropOp48
 70
     1
102
RTVSPost2010Prop49
280
     0
102
RTVSPost2010PropOp49
 70
     1
102
RTVSPost2010Prop50
 90
       50
102
RTVSPost2010PropOp50
 70
     1
102
RTVSPost2010Prop51ColorIndex
 90
      256
102
RTVSPost2010Prop51ColorRGB
 90
-16777216
102
RTVSPost2010PropOp51
 70
     0
102
RTVSPost2010Prop52
140
1.0
102
RTVSPost2010PropOp52
 70
     0
102
RTVSPost2010Prop53
 90
        2
102
RTVSPost2010PropOp53
 70
     1
102
RTVSPost2010Prop54
  1
strokes_ogs.tif
102
RTVSPost2010PropOp54
 70
     1
102
RTVSPost2010Prop55
280
     0
102
RTVSPost2010PropOp55
 70
     1
102
RTVSPost2010Prop56
140
1.0
102
RTVSPost2010PropOp56
 70
     1
102
RTVSPost2010Prop57
140
1.0
102
RTVSPost2010PropOp57
 70
     1
102
RTVSPropertyOp0
 70
     1
102
RTVSPropertyOp1
 70
     1
102
RTVSPropertyOp2
 70
     1
102
RTVSPropertyOp3
 70
     1
102
RTVSPropertyOp4
 70
     1
102
RTVSPropertyOp5
 70
     1
102
RTVSPropertyOp6
 70
     1
102
RTVSPropertyOp7
 70
     1
102
RTVSPropertyOp8
 70
     1
102
RTVSPropertyOp9
 70
     1
102
RTVSPropertyOp10
 70
     1
102
RTVSPropertyOp11
 70
     1
102
RTVSPropertyOp12
 70
     1
102
RTVSPropertyOp13
 70
     1
102
RTVSPropertyOp14
 70
     1
102
RTVSPropertyOp15
 70
     1
102
RTVSPropertyOp16
 70
     1
102
RTVSPropertyOp17
 70
     1
102
RTVSPropertyOp18
 70
     1
102
RTVSPropertyOp19
 70
     1
102
RTVSPropertyOp20
 70
     1
102
RTVSPropertyOp21
 70
     1
102
RTVSPropertyOp22
 70
     1
102
RTVSPropertyOp23
 70
     1
102
RTVSPropertyOp24
 70
     1
102
RTVSPropertyOp25
 70
     1
102
RTVSPropertyOp26
 70
     1
102
RTVSPropertyOp27
 70
     1
102
RTVSPropertyOp28
 70
     1
102
RTVSPropertyOp29
 70
     1
102
RTVSPropertyOp30
 70
     1
102
RTVSPropertyOp31
 70
     1
102
RTVSPropertyOp32
 70
     1
102
RTVSPropertyOp33
 70
     1
102
RTVSPropertyOp34
 70
     1
102
RTVSPropertyOp35
 70
     1
102
RTVSPropertyOp36
 70
     1
102
RTVSPropertyOp37
 70
     1
102
RTVSPropertyOp38
 70
     1
102
RTVSPropertyOp39
 70
     1
102
RTVSPropertyOp40
 70
     1
102
RTVSPropertyOp41
 70
     1
102
RTVSPropertyOp42
 70
     1
102
RTVSPropertyOp43
 70
     1
102
RTVSPropertyOp44
 70
     1
102
RTVSPropertyOp45
 70
     1
102
RTVSPropertyOp46
 70
     1
102
RTVSPropertyOp47
 70
     1
102
RTVSPropertyOp48
 70
     1
102
RTVSPropertyOp49
 70
     1
102
RTVSPropertyOp50
 70
     1
102
RTVSPropertyOp51
 70
     0
102
RTVSPropertyOp52
 70
     0
102
RTVSPropertyOp53
 70
     1
102
RTVSPropertyOp54
 70
     1
102
RTVSPropertyOp55
 70
     1
102
RTVSPropertyOp56
 70
     1
102
RTVSPropertyOp57
 70
     1
102
RTVSPropertyOp58
 70
     1
102
RTVSPropertyOp59
 70
     1
102
RTVSPropertyOp60
 70
     1
102
RTVSPropertyOp61
 70
     1
102
RTVSPropertyOp62
 70
     1
  0
XRECORD
  5
FA4E
102
{ACAD_REACTORS
330
FA4D
102
}
330
FA4D
100
AcDbXrecord
280
     1
102
RTVSPost2010Prop28
280
     0
102
RTVSPost2010PropOp28
 70
     1
102
RTVSPost2010Prop29
280
     1
102
RTVSPost2010PropOp29
 70
     1
102
RTVSPost2010Prop30
280
     1
102
RTVSPost2010PropOp30
 70
     1
102
RTVSPost2010Prop31
280
     0
102
RTVSPost2010PropOp31
 70
     1
102
RTVSPost2010Prop32
280
     0
102
RTVSPost2010PropOp32
 70
     1
102
RTVSPost2010Prop33
280
     0
102
RTVSPost2010PropOp33
 70
     1
102
RTVSPost2010Prop34
280
     0
102
RTVSPost2010PropOp34
 70
     1
102
RTVSPost2010Prop35
280
     0
102
RTVSPost2010PropOp35
 70
     1
102
RTVSPost2010Prop36
280
     0
102
RTVSPost2010PropOp36
 70
     1
102
RTVSPost2010Prop37
 90
       50
102
RTVSPost2010PropOp37
 70
     1
102
RTVSPost2010Prop38
140
0.0
102
RTVSPost2010PropOp38
 70
     1
102
RTVSPost2010Prop39
140
1.0
102
RTVSPost2010PropOp39
 70
     1
102
RTVSPost2010Prop40
 90
        0
102
RTVSPost2010PropOp40
 70
     1
102
RTVSPost2010Prop41ColorIndex
 90
       18
102
RTVSPost2010Prop41ColorRGB
 90
        0
102
RTVSPost2010PropOp41
 70
     1
102
RTVSPost2010Prop42
 90
       50
102
RTVSPost2010PropOp42
 70
     1
102
RTVSPost2010Prop43
 90
        3
102
RTVSPost2010PropOp43
 70
     1
102
RTVSPost2010Prop44ColorIndex
 90
        5
102
RTVSPost2010Prop44ColorRGB
 90
      255
102
RTVSPost2010PropOp44
 70
     1
102
RTVSPost2010Prop45
280
     0
102
RTVSPost2010PropOp45
 70
     1
102
RTVSPost2010Prop46
 90
       50
102
RTVSPost2010PropOp46
 70
     1
102
RTVSPost2010Prop47
 90
       50
102
RTVSPost2010PropOp47
 70
     1
102
RTVSPost2010Prop48
 90
       50
102
RTVSPost2010PropOp48
 70
     1
102
RTVSPost2010Prop49
280
     0
102
RTVSPost2010PropOp49
 70
     1
102
RTVSPost2010Prop50
 90
       50
102
RTVSPost2010PropOp50
 70
     1
102
RTVSPost2010Prop51ColorIndex
 90
      256
102
RTVSPost2010Prop51ColorRGB
 90
-16777216
102
RTVSPost2010PropOp51
 70
     0
102
RTVSPost2010Prop52
140
1.0
102
RTVSPost2010PropOp52
 70
     0
102
RTVSPost2010Prop53
 90
        2
102
RTVSPost2010PropOp53
 70
     1
102
RTVSPost2010Prop54
  1
strokes_ogs.tif
102
RTVSPost2010PropOp54
 70
     1
102
RTVSPost2010Prop55
280
     0
102
RTVSPost2010PropOp55
 70
     1
102
RTVSPost2010Prop56
140
1.0
102
RTVSPost2010PropOp56
 70
     1
102
RTVSPost2010Prop57
140
1.0
102
RTVSPost2010PropOp57
 70
     1
102
RTVSPropertyOp0
 70
     1
102
RTVSPropertyOp1
 70
     1
102
RTVSPropertyOp2
 70
     1
102
RTVSPropertyOp3
 70
     1
102
RTVSPropertyOp4
 70
     1
102
RTVSPropertyOp5
 70
     1
102
RTVSPropertyOp6
 70
     1
102
RTVSPropertyOp7
 70
     1
102
RTVSPropertyOp8
 70
     1
102
RTVSPropertyOp9
 70
     1
102
RTVSPropertyOp10
 70
     1
102
RTVSPropertyOp11
 70
     1
102
RTVSPropertyOp12
 70
     1
102
RTVSPropertyOp13
 70
     1
102
RTVSPropertyOp14
 70
     1
102
RTVSPropertyOp15
 70
     1
102
RTVSPropertyOp16
 70
     1
102
RTVSPropertyOp17
 70
     1
102
RTVSPropertyOp18
 70
     1
102
RTVSPropertyOp19
 70
     1
102
RTVSPropertyOp20
 70
     1
102
RTVSPropertyOp21
 70
     1
102
RTVSPropertyOp22
 70
     1
102
RTVSPropertyOp23
 70
     1
102
RTVSPropertyOp24
 70
     1
102
RTVSPropertyOp25
 70
     1
102
RTVSPropertyOp26
 70
     1
102
RTVSPropertyOp27
 70
     1
102
RTVSPropertyOp28
 70
     1
102
RTVSPropertyOp29
 70
     1
102
RTVSPropertyOp30
 70
     1
102
RTVSPropertyOp31
 70
     1
102
RTVSPropertyOp32
 70
     1
102
RTVSPropertyOp33
 70
     1
102
RTVSPropertyOp34
 70
     1
102
RTVSPropertyOp35
 70
     1
102
RTVSPropertyOp36
 70
     1
102
RTVSPropertyOp37
 70
     1
102
RTVSPropertyOp38
 70
     1
102
RTVSPropertyOp39
 70
     1
102
RTVSPropertyOp40
 70
     1
102
RTVSPropertyOp41
 70
     1
102
RTVSPropertyOp42
 70
     1
102
RTVSPropertyOp43
 70
     1
102
RTVSPropertyOp44
 70
     1
102
RTVSPropertyOp45
 70
     1
102
RTVSPropertyOp46
 70
     1
102
RTVSPropertyOp47
 70
     1
102
RTVSPropertyOp48
 70
     1
102
RTVSPropertyOp49
 70
     1
102
RTVSPropertyOp50
 70
     1
102
RTVSPropertyOp51
 70
     0
102
RTVSPropertyOp52
 70
     0
102
RTVSPropertyOp53
 70
     1
102
RTVSPropertyOp54
 70
     1
102
RTVSPropertyOp55
 70
     1
102
RTVSPropertyOp56
 70
     1
102
RTVSPropertyOp57
 70
     1
102
RTVSPropertyOp58
 70
     1
102
RTVSPropertyOp59
 70
     1
102
RTVSPropertyOp60
 70
     1
102
RTVSPropertyOp61
 70
     1
102
RTVSPropertyOp62
 70
     1
  0
XRECORD
  5
FA56
102
{ACAD_REACTORS
330
FA55
102
}
330
FA55
100
AcDbXrecord
280
     1
102
RTVSPost2010Prop28
280
     0
102
RTVSPost2010PropOp28
 70
     1
102
RTVSPost2010Prop29
280
     1
102
RTVSPost2010PropOp29
 70
     1
102
RTVSPost2010Prop30
280
     1
102
RTVSPost2010PropOp30
 70
     1
102
RTVSPost2010Prop31
280
     0
102
RTVSPost2010PropOp31
 70
     1
102
RTVSPost2010Prop32
280
     0
102
RTVSPost2010PropOp32
 70
     1
102
RTVSPost2010Prop33
280
     0
102
RTVSPost2010PropOp33
 70
     1
102
RTVSPost2010Prop34
280
     0
102
RTVSPost2010PropOp34
 70
     1
102
RTVSPost2010Prop35
280
     0
102
RTVSPost2010PropOp35
 70
     1
102
RTVSPost2010Prop36
280
     0
102
RTVSPost2010PropOp36
 70
     1
102
RTVSPost2010Prop37
 90
       50
102
RTVSPost2010PropOp37
 70
     1
102
RTVSPost2010Prop38
140
0.0
102
RTVSPost2010PropOp38
 70
     1
102
RTVSPost2010Prop39
140
1.0
102
RTVSPost2010PropOp39
 70
     1
102
RTVSPost2010Prop40
 90
        0
102
RTVSPost2010PropOp40
 70
     1
102
RTVSPost2010Prop41ColorIndex
 90
       18
102
RTVSPost2010Prop41ColorRGB
 90
        0
102
RTVSPost2010PropOp41
 70
     1
102
RTVSPost2010Prop42
 90
       50
102
RTVSPost2010PropOp42
 70
     1
102
RTVSPost2010Prop43
 90
        3
102
RTVSPost2010PropOp43
 70
     1
102
RTVSPost2010Prop44ColorIndex
 90
        5
102
RTVSPost2010Prop44ColorRGB
 90
      255
102
RTVSPost2010PropOp44
 70
     1
102
RTVSPost2010Prop45
280
     0
102
RTVSPost2010PropOp45
 70
     1
102
RTVSPost2010Prop46
 90
       50
102
RTVSPost2010PropOp46
 70
     1
102
RTVSPost2010Prop47
 90
       50
102
RTVSPost2010PropOp47
 70
     1
102
RTVSPost2010Prop48
 90
       50
102
RTVSPost2010PropOp48
 70
     1
102
RTVSPost2010Prop49
280
     0
102
RTVSPost2010PropOp49
 70
     1
102
RTVSPost2010Prop50
 90
       50
102
RTVSPost2010PropOp50
 70
     1
102
RTVSPost2010Prop51ColorIndex
 90
      256
102
RTVSPost2010Prop51ColorRGB
 90
-16777216
102
RTVSPost2010PropOp51
 70
     0
102
RTVSPost2010Prop52
140
1.0
102
RTVSPost2010PropOp52
 70
     0
102
RTVSPost2010Prop53
 90
        2
102
RTVSPost2010PropOp53
 70
     1
102
RTVSPost2010Prop54
  1
strokes_ogs.tif
102
RTVSPost2010PropOp54
 70
     1
102
RTVSPost2010Prop55
280
     0
102
RTVSPost2010PropOp55
 70
     1
102
RTVSPost2010Prop56
140
1.0
102
RTVSPost2010PropOp56
 70
     1
102
RTVSPost2010Prop57
140
1.0
102
RTVSPost2010PropOp57
 70
     1
102
RTVSPropertyOp0
 70
     1
102
RTVSPropertyOp1
 70
     1
102
RTVSPropertyOp2
 70
     1
102
RTVSPropertyOp3
 70
     1
102
RTVSPropertyOp4
 70
     1
102
RTVSPropertyOp5
 70
     1
102
RTVSPropertyOp6
 70
     1
102
RTVSPropertyOp7
 70
     1
102
RTVSPropertyOp8
 70
     1
102
RTVSPropertyOp9
 70
     1
102
RTVSPropertyOp10
 70
     1
102
RTVSPropertyOp11
 70
     1
102
RTVSPropertyOp12
 70
     1
102
RTVSPropertyOp13
 70
     1
102
RTVSPropertyOp14
 70
     1
102
RTVSPropertyOp15
 70
     1
102
RTVSPropertyOp16
 70
     1
102
RTVSPropertyOp17
 70
     1
102
RTVSPropertyOp18
 70
     1
102
RTVSPropertyOp19
 70
     1
102
RTVSPropertyOp20
 70
     1
102
RTVSPropertyOp21
 70
     1
102
RTVSPropertyOp22
 70
     1
102
RTVSPropertyOp23
 70
     1
102
RTVSPropertyOp24
 70
     1
102
RTVSPropertyOp25
 70
     1
102
RTVSPropertyOp26
 70
     1
102
RTVSPropertyOp27
 70
     1
102
RTVSPropertyOp28
 70
     1
102
RTVSPropertyOp29
 70
     1
102
RTVSPropertyOp30
 70
     1
102
RTVSPropertyOp31
 70
     1
102
RTVSPropertyOp32
 70
     1
102
RTVSPropertyOp33
 70
     1
102
RTVSPropertyOp34
 70
     1
102
RTVSPropertyOp35
 70
     1
102
RTVSPropertyOp36
 70
     1
102
RTVSPropertyOp37
 70
     1
102
RTVSPropertyOp38
 70
     1
102
RTVSPropertyOp39
 70
     1
102
RTVSPropertyOp40
 70
     1
102
RTVSPropertyOp41
 70
     1
102
RTVSPropertyOp42
 70
     1
102
RTVSPropertyOp43
 70
     1
102
RTVSPropertyOp44
 70
     1
102
RTVSPropertyOp45
 70
     1
102
RTVSPropertyOp46
 70
     1
102
RTVSPropertyOp47
 70
     1
102
RTVSPropertyOp48
 70
     1
102
RTVSPropertyOp49
 70
     1
102
RTVSPropertyOp50
 70
     1
102
RTVSPropertyOp51
 70
     0
102
RTVSPropertyOp52
 70
     0
102
RTVSPropertyOp53
 70
     1
102
RTVSPropertyOp54
 70
     1
102
RTVSPropertyOp55
 70
     1
102
RTVSPropertyOp56
 70
     1
102
RTVSPropertyOp57
 70
     1
102
RTVSPropertyOp58
 70
     1
102
RTVSPropertyOp59
 70
     1
102
RTVSPropertyOp60
 70
     1
102
RTVSPropertyOp61
 70
     1
102
RTVSPropertyOp62
 70
     1
  0
XRECORD
  5
FA48
102
{ACAD_REACTORS
330
FA47
102
}
330
FA47
100
AcDbXrecord
280
     1
102
RTVSPost2010Prop28
280
     0
102
RTVSPost2010PropOp28
 70
     1
102
RTVSPost2010Prop29
280
     1
102
RTVSPost2010PropOp29
 70
     1
102
RTVSPost2010Prop30
280
     1
102
RTVSPost2010PropOp30
 70
     1
102
RTVSPost2010Prop31
280
     0
102
RTVSPost2010PropOp31
 70
     1
102
RTVSPost2010Prop32
280
     0
102
RTVSPost2010PropOp32
 70
     1
102
RTVSPost2010Prop33
280
     0
102
RTVSPost2010PropOp33
 70
     1
102
RTVSPost2010Prop34
280
     0
102
RTVSPost2010PropOp34
 70
     1
102
RTVSPost2010Prop35
280
     0
102
RTVSPost2010PropOp35
 70
     1
102
RTVSPost2010Prop36
280
     0
102
RTVSPost2010PropOp36
 70
     1
102
RTVSPost2010Prop37
 90
       50
102
RTVSPost2010PropOp37
 70
     1
102
RTVSPost2010Prop38
140
0.0
102
RTVSPost2010PropOp38
 70
     1
102
RTVSPost2010Prop39
140
1.0
102
RTVSPost2010PropOp39
 70
     1
102
RTVSPost2010Prop40
 90
        0
102
RTVSPost2010PropOp40
 70
     1
102
RTVSPost2010Prop41ColorIndex
 90
       18
102
RTVSPost2010Prop41ColorRGB
 90
        0
102
RTVSPost2010PropOp41
 70
     1
102
RTVSPost2010Prop42
 90
       50
102
RTVSPost2010PropOp42
 70
     1
102
RTVSPost2010Prop43
 90
        3
102
RTVSPost2010PropOp43
 70
     1
102
RTVSPost2010Prop44ColorIndex
 90
        5
102
RTVSPost2010Prop44ColorRGB
 90
      255
102
RTVSPost2010PropOp44
 70
     1
102
RTVSPost2010Prop45
280
     0
102
RTVSPost2010PropOp45
 70
     1
102
RTVSPost2010Prop46
 90
       50
102
RTVSPost2010PropOp46
 70
     1
102
RTVSPost2010Prop47
 90
       50
102
RTVSPost2010PropOp47
 70
     1
102
RTVSPost2010Prop48
 90
       50
102
RTVSPost2010PropOp48
 70
     1
102
RTVSPost2010Prop49
280
     0
102
RTVSPost2010PropOp49
 70
     1
102
RTVSPost2010Prop50
 90
       50
102
RTVSPost2010PropOp50
 70
     1
102
RTVSPost2010Prop51ColorIndex
 90
      256
102
RTVSPost2010Prop51ColorRGB
 90
-16777216
102
RTVSPost2010PropOp51
 70
     0
102
RTVSPost2010Prop52
140
1.0
102
RTVSPost2010PropOp52
 70
     0
102
RTVSPost2010Prop53
 90
        2
102
RTVSPost2010PropOp53
 70
     1
102
RTVSPost2010Prop54
  1
strokes_ogs.tif
102
RTVSPost2010PropOp54
 70
     1
102
RTVSPost2010Prop55
280
     0
102
RTVSPost2010PropOp55
 70
     1
102
RTVSPost2010Prop56
140
1.0
102
RTVSPost2010PropOp56
 70
     1
102
RTVSPost2010Prop57
140
1.0
102
RTVSPost2010PropOp57
 70
     1
102
RTVSPropertyOp0
 70
     1
102
RTVSPropertyOp1
 70
     1
102
RTVSPropertyOp2
 70
     1
102
RTVSPropertyOp3
 70
     1
102
RTVSPropertyOp4
 70
     1
102
RTVSPropertyOp5
 70
     1
102
RTVSPropertyOp6
 70
     1
102
RTVSPropertyOp7
 70
     1
102
RTVSPropertyOp8
 70
     1
102
RTVSPropertyOp9
 70
     1
102
RTVSPropertyOp10
 70
     1
102
RTVSPropertyOp11
 70
     1
102
RTVSPropertyOp12
 70
     1
102
RTVSPropertyOp13
 70
     1
102
RTVSPropertyOp14
 70
     1
102
RTVSPropertyOp15
 70
     1
102
RTVSPropertyOp16
 70
     1
102
RTVSPropertyOp17
 70
     1
102
RTVSPropertyOp18
 70
     1
102
RTVSPropertyOp19
 70
     1
102
RTVSPropertyOp20
 70
     1
102
RTVSPropertyOp21
 70
     1
102
RTVSPropertyOp22
 70
     1
102
RTVSPropertyOp23
 70
     1
102
RTVSPropertyOp24
 70
     1
102
RTVSPropertyOp25
 70
     1
102
RTVSPropertyOp26
 70
     1
102
RTVSPropertyOp27
 70
     1
102
RTVSPropertyOp28
 70
     1
102
RTVSPropertyOp29
 70
     1
102
RTVSPropertyOp30
 70
     1
102
RTVSPropertyOp31
 70
     1
102
RTVSPropertyOp32
 70
     1
102
RTVSPropertyOp33
 70
     1
102
RTVSPropertyOp34
 70
     1
102
RTVSPropertyOp35
 70
     1
102
RTVSPropertyOp36
 70
     1
102
RTVSPropertyOp37
 70
     1
102
RTVSPropertyOp38
 70
     1
102
RTVSPropertyOp39
 70
     1
102
RTVSPropertyOp40
 70
     1
102
RTVSPropertyOp41
 70
     1
102
RTVSPropertyOp42
 70
     1
102
RTVSPropertyOp43
 70
     1
102
RTVSPropertyOp44
 70
     1
102
RTVSPropertyOp45
 70
     1
102
RTVSPropertyOp46
 70
     1
102
RTVSPropertyOp47
 70
     1
102
RTVSPropertyOp48
 70
     1
102
RTVSPropertyOp49
 70
     1
102
RTVSPropertyOp50
 70
     1
102
RTVSPropertyOp51
 70
     0
102
RTVSPropertyOp52
 70
     0
102
RTVSPropertyOp53
 70
     1
102
RTVSPropertyOp54
 70
     1
102
RTVSPropertyOp55
 70
     1
102
RTVSPropertyOp56
 70
     1
102
RTVSPropertyOp57
 70
     1
102
RTVSPropertyOp58
 70
     1
102
RTVSPropertyOp59
 70
     1
102
RTVSPropertyOp60
 70
     1
102
RTVSPropertyOp61
 70
     1
102
RTVSPropertyOp62
 70
     1
  0
XRECORD
  5
FA4C
102
{ACAD_REACTORS
330
FA4B
102
}
330
FA4B
100
AcDbXrecord
280
     1
102
RTVSPost2010Prop28
280
     0
102
RTVSPost2010PropOp28
 70
     1
102
RTVSPost2010Prop29
280
     1
102
RTVSPost2010PropOp29
 70
     1
102
RTVSPost2010Prop30
280
     1
102
RTVSPost2010PropOp30
 70
     1
102
RTVSPost2010Prop31
280
     0
102
RTVSPost2010PropOp31
 70
     1
102
RTVSPost2010Prop32
280
     0
102
RTVSPost2010PropOp32
 70
     1
102
RTVSPost2010Prop33
280
     0
102
RTVSPost2010PropOp33
 70
     1
102
RTVSPost2010Prop34
280
     0
102
RTVSPost2010PropOp34
 70
     1
102
RTVSPost2010Prop35
280
     0
102
RTVSPost2010PropOp35
 70
     1
102
RTVSPost2010Prop36
280
     0
102
RTVSPost2010PropOp36
 70
     1
102
RTVSPost2010Prop37
 90
       50
102
RTVSPost2010PropOp37
 70
     1
102
RTVSPost2010Prop38
140
0.0
102
RTVSPost2010PropOp38
 70
     1
102
RTVSPost2010Prop39
140
1.0
102
RTVSPost2010PropOp39
 70
     1
102
RTVSPost2010Prop40
 90
        0
102
RTVSPost2010PropOp40
 70
     1
102
RTVSPost2010Prop41ColorIndex
 90
       18
102
RTVSPost2010Prop41ColorRGB
 90
        0
102
RTVSPost2010PropOp41
 70
     1
102
RTVSPost2010Prop42
 90
       50
102
RTVSPost2010PropOp42
 70
     1
102
RTVSPost2010Prop43
 90
        3
102
RTVSPost2010PropOp43
 70
     1
102
RTVSPost2010Prop44ColorIndex
 90
        5
102
RTVSPost2010Prop44ColorRGB
 90
      255
102
RTVSPost2010PropOp44
 70
     1
102
RTVSPost2010Prop45
280
     0
102
RTVSPost2010PropOp45
 70
     1
102
RTVSPost2010Prop46
 90
       50
102
RTVSPost2010PropOp46
 70
     1
102
RTVSPost2010Prop47
 90
       50
102
RTVSPost2010PropOp47
 70
     1
102
RTVSPost2010Prop48
 90
       50
102
RTVSPost2010PropOp48
 70
     1
102
RTVSPost2010Prop49
280
     0
102
RTVSPost2010PropOp49
 70
     1
102
RTVSPost2010Prop50
 90
       50
102
RTVSPost2010PropOp50
 70
     1
102
RTVSPost2010Prop51ColorIndex
 90
      256
102
RTVSPost2010Prop51ColorRGB
 90
-16777216
102
RTVSPost2010PropOp51
 70
     0
102
RTVSPost2010Prop52
140
1.0
102
RTVSPost2010PropOp52
 70
     0
102
RTVSPost2010Prop53
 90
        2
102
RTVSPost2010PropOp53
 70
     1
102
RTVSPost2010Prop54
  1
strokes_ogs.tif
102
RTVSPost2010PropOp54
 70
     1
102
RTVSPost2010Prop55
280
     0
102
RTVSPost2010PropOp55
 70
     1
102
RTVSPost2010Prop56
140
1.0
102
RTVSPost2010PropOp56
 70
     1
102
RTVSPost2010Prop57
140
1.0
102
RTVSPost2010PropOp57
 70
     1
102
RTVSPropertyOp0
 70
     1
102
RTVSPropertyOp1
 70
     1
102
RTVSPropertyOp2
 70
     1
102
RTVSPropertyOp3
 70
     1
102
RTVSPropertyOp4
 70
     1
102
RTVSPropertyOp5
 70
     1
102
RTVSPropertyOp6
 70
     1
102
RTVSPropertyOp7
 70
     1
102
RTVSPropertyOp8
 70
     1
102
RTVSPropertyOp9
 70
     1
102
RTVSPropertyOp10
 70
     1
102
RTVSPropertyOp11
 70
     1
102
RTVSPropertyOp12
 70
     1
102
RTVSPropertyOp13
 70
     1
102
RTVSPropertyOp14
 70
     1
102
RTVSPropertyOp15
 70
     1
102
RTVSPropertyOp16
 70
     1
102
RTVSPropertyOp17
 70
     1
102
RTVSPropertyOp18
 70
     1
102
RTVSPropertyOp19
 70
     1
102
RTVSPropertyOp20
 70
     1
102
RTVSPropertyOp21
 70
     1
102
RTVSPropertyOp22
 70
     1
102
RTVSPropertyOp23
 70
     1
102
RTVSPropertyOp24
 70
     1
102
RTVSPropertyOp25
 70
     1
102
RTVSPropertyOp26
 70
     1
102
RTVSPropertyOp27
 70
     1
102
RTVSPropertyOp28
 70
     1
102
RTVSPropertyOp29
 70
     1
102
RTVSPropertyOp30
 70
     1
102
RTVSPropertyOp31
 70
     1
102
RTVSPropertyOp32
 70
     1
102
RTVSPropertyOp33
 70
     1
102
RTVSPropertyOp34
 70
     1
102
RTVSPropertyOp35
 70
     1
102
RTVSPropertyOp36
 70
     1
102
RTVSPropertyOp37
 70
     1
102
RTVSPropertyOp38
 70
     1
102
RTVSPropertyOp39
 70
     1
102
RTVSPropertyOp40
 70
     1
102
RTVSPropertyOp41
 70
     1
102
RTVSPropertyOp42
 70
     1
102
RTVSPropertyOp43
 70
     1
102
RTVSPropertyOp44
 70
     1
102
RTVSPropertyOp45
 70
     1
102
RTVSPropertyOp46
 70
     1
102
RTVSPropertyOp47
 70
     1
102
RTVSPropertyOp48
 70
     1
102
RTVSPropertyOp49
 70
     1
102
RTVSPropertyOp50
 70
     1
102
RTVSPropertyOp51
 70
     0
102
RTVSPropertyOp52
 70
     0
102
RTVSPropertyOp53
 70
     1
102
RTVSPropertyOp54
 70
     1
102
RTVSPropertyOp55
 70
     1
102
RTVSPropertyOp56
 70
     1
102
RTVSPropertyOp57
 70
     1
102
RTVSPropertyOp58
 70
     1
102
RTVSPropertyOp59
 70
     1
102
RTVSPropertyOp60
 70
     1
102
RTVSPropertyOp61
 70
     1
102
RTVSPropertyOp62
 70
     1
  0
XRECORD
  5
FA5E
102
{ACAD_REACTORS
330
FA5D
102
}
330
FA5D
100
AcDbXrecord
280
     1
102
RTVSPost2010Prop28
280
     0
102
RTVSPost2010PropOp28
 70
     1
102
RTVSPost2010Prop29
280
     1
102
RTVSPost2010PropOp29
 70
     1
102
RTVSPost2010Prop30
280
     1
102
RTVSPost2010PropOp30
 70
     1
102
RTVSPost2010Prop31
280
     0
102
RTVSPost2010PropOp31
 70
     1
102
RTVSPost2010Prop32
280
     0
102
RTVSPost2010PropOp32
 70
     1
102
RTVSPost2010Prop33
280
     0
102
RTVSPost2010PropOp33
 70
     1
102
RTVSPost2010Prop34
280
     0
102
RTVSPost2010PropOp34
 70
     1
102
RTVSPost2010Prop35
280
     0
102
RTVSPost2010PropOp35
 70
     1
102
RTVSPost2010Prop36
280
     0
102
RTVSPost2010PropOp36
 70
     1
102
RTVSPost2010Prop37
 90
       50
102
RTVSPost2010PropOp37
 70
     1
102
RTVSPost2010Prop38
140
0.0
102
RTVSPost2010PropOp38
 70
     1
102
RTVSPost2010Prop39
140
1.0
102
RTVSPost2010PropOp39
 70
     1
102
RTVSPost2010Prop40
 90
        0
102
RTVSPost2010PropOp40
 70
     1
102
RTVSPost2010Prop41ColorIndex
 90
       18
102
RTVSPost2010Prop41ColorRGB
 90
        0
102
RTVSPost2010PropOp41
 70
     1
102
RTVSPost2010Prop42
 90
       50
102
RTVSPost2010PropOp42
 70
     1
102
RTVSPost2010Prop43
 90
        3
102
RTVSPost2010PropOp43
 70
     1
102
RTVSPost2010Prop44ColorIndex
 90
        5
102
RTVSPost2010Prop44ColorRGB
 90
      255
102
RTVSPost2010PropOp44
 70
     1
102
RTVSPost2010Prop45
280
     0
102
RTVSPost2010PropOp45
 70
     1
102
RTVSPost2010Prop46
 90
       50
102
RTVSPost2010PropOp46
 70
     1
102
RTVSPost2010Prop47
 90
       50
102
RTVSPost2010PropOp47
 70
     1
102
RTVSPost2010Prop48
 90
       50
102
RTVSPost2010PropOp48
 70
     1
102
RTVSPost2010Prop49
280
     0
102
RTVSPost2010PropOp49
 70
     1
102
RTVSPost2010Prop50
 90
       50
102
RTVSPost2010PropOp50
 70
     1
102
RTVSPost2010Prop51ColorIndex
 90
      256
102
RTVSPost2010Prop51ColorRGB
 90
-16777216
102
RTVSPost2010PropOp51
 70
     0
102
RTVSPost2010Prop52
140
1.0
102
RTVSPost2010PropOp52
 70
     0
102
RTVSPost2010Prop53
 90
        2
102
RTVSPost2010PropOp53
 70
     1
102
RTVSPost2010Prop54
  1
strokes_ogs.tif
102
RTVSPost2010PropOp54
 70
     1
102
RTVSPost2010Prop55
280
     0
102
RTVSPost2010PropOp55
 70
     1
102
RTVSPost2010Prop56
140
1.0
102
RTVSPost2010PropOp56
 70
     1
102
RTVSPost2010Prop57
140
1.0
102
RTVSPost2010PropOp57
 70
     1
102
RTVSPropertyOp0
 70
     0
102
RTVSPropertyOp1
 70
     0
102
RTVSPropertyOp2
 70
     0
102
RTVSPropertyOp3
 70
     0
102
RTVSPropertyOp4
 70
     0
102
RTVSPropertyOp5
 70
     0
102
RTVSPropertyOp6
 70
     0
102
RTVSPropertyOp7
 70
     0
102
RTVSPropertyOp8
 70
     0
102
RTVSPropertyOp9
 70
     0
102
RTVSPropertyOp10
 70
     0
102
RTVSPropertyOp11
 70
     0
102
RTVSPropertyOp12
 70
     0
102
RTVSPropertyOp13
 70
     0
102
RTVSPropertyOp14
 70
     2
102
RTVSPropertyOp15
 70
     0
102
RTVSPropertyOp16
 70
     0
102
RTVSPropertyOp17
 70
     0
102
RTVSPropertyOp18
 70
     0
102
RTVSPropertyOp19
 70
     0
102
RTVSPropertyOp20
 70
     0
102
RTVSPropertyOp21
 70
     0
102
RTVSPropertyOp22
 70
     0
102
RTVSPropertyOp23
 70
     0
102
RTVSPropertyOp24
 70
     0
102
RTVSPropertyOp25
 70
     0
102
RTVSPropertyOp26
 70
     0
102
RTVSPropertyOp27
 70
     0
102
RTVSPropertyOp28
 70
     1
102
RTVSPropertyOp29
 70
     1
102
RTVSPropertyOp30
 70
     1
102
RTVSPropertyOp31
 70
     1
102
RTVSPropertyOp32
 70
     1
102
RTVSPropertyOp33
 70
     1
102
RTVSPropertyOp34
 70
     1
102
RTVSPropertyOp35
 70
     1
102
RTVSPropertyOp36
 70
     1
102
RTVSPropertyOp37
 70
     1
102
RTVSPropertyOp38
 70
     1
102
RTVSPropertyOp39
 70
     1
102
RTVSPropertyOp40
 70
     1
102
RTVSPropertyOp41
 70
     1
102
RTVSPropertyOp42
 70
     1
102
RTVSPropertyOp43
 70
     1
102
RTVSPropertyOp44
 70
     1
102
RTVSPropertyOp45
 70
     1
102
RTVSPropertyOp46
 70
     1
102
RTVSPropertyOp47
 70
     1
102
RTVSPropertyOp48
 70
     1
102
RTVSPropertyOp49
 70
     1
102
RTVSPropertyOp50
 70
     1
102
RTVSPropertyOp51
 70
     0
102
RTVSPropertyOp52
 70
     0
102
RTVSPropertyOp53
 70
     1
102
RTVSPropertyOp54
 70
     1
102
RTVSPropertyOp55
 70
     1
102
RTVSPropertyOp56
 70
     1
102
RTVSPropertyOp57
 70
     1
102
RTVSPropertyOp58
 70
     1
102
RTVSPropertyOp59
 70
     1
102
RTVSPropertyOp60
 70
     1
102
RTVSPropertyOp61
 70
     1
102
RTVSPropertyOp62
 70
     1
  0
XRECORD
  5
FA54
102
{ACAD_REACTORS
330
FA53
102
}
330
FA53
100
AcDbXrecord
280
     1
102
RTVSPost2010Prop28
280
     0
102
RTVSPost2010PropOp28
 70
     1
102
RTVSPost2010Prop29
280
     1
102
RTVSPost2010PropOp29
 70
     1
102
RTVSPost2010Prop30
280
     1
102
RTVSPost2010PropOp30
 70
     1
102
RTVSPost2010Prop31
280
     0
102
RTVSPost2010PropOp31
 70
     1
102
RTVSPost2010Prop32
280
     0
102
RTVSPost2010PropOp32
 70
     1
102
RTVSPost2010Prop33
280
     0
102
RTVSPost2010PropOp33
 70
     1
102
RTVSPost2010Prop34
280
     0
102
RTVSPost2010PropOp34
 70
     1
102
RTVSPost2010Prop35
280
     0
102
RTVSPost2010PropOp35
 70
     1
102
RTVSPost2010Prop36
280
     0
102
RTVSPost2010PropOp36
 70
     1
102
RTVSPost2010Prop37
 90
       50
102
RTVSPost2010PropOp37
 70
     1
102
RTVSPost2010Prop38
140
0.0
102
RTVSPost2010PropOp38
 70
     1
102
RTVSPost2010Prop39
140
1.0
102
RTVSPost2010PropOp39
 70
     1
102
RTVSPost2010Prop40
 90
        0
102
RTVSPost2010PropOp40
 70
     1
102
RTVSPost2010Prop41ColorIndex
 90
       18
102
RTVSPost2010Prop41ColorRGB
 90
        0
102
RTVSPost2010PropOp41
 70
     1
102
RTVSPost2010Prop42
 90
       50
102
RTVSPost2010PropOp42
 70
     1
102
RTVSPost2010Prop43
 90
        3
102
RTVSPost2010PropOp43
 70
     1
102
RTVSPost2010Prop44ColorIndex
 90
        5
102
RTVSPost2010Prop44ColorRGB
 90
      255
102
RTVSPost2010PropOp44
 70
     1
102
RTVSPost2010Prop45
280
     0
102
RTVSPost2010PropOp45
 70
     1
102
RTVSPost2010Prop46
 90
       50
102
RTVSPost2010PropOp46
 70
     1
102
RTVSPost2010Prop47
 90
       50
102
RTVSPost2010PropOp47
 70
     1
102
RTVSPost2010Prop48
 90
       50
102
RTVSPost2010PropOp48
 70
     1
102
RTVSPost2010Prop49
280
     0
102
RTVSPost2010PropOp49
 70
     1
102
RTVSPost2010Prop50
 90
       50
102
RTVSPost2010PropOp50
 70
     1
102
RTVSPost2010Prop51ColorIndex
 90
      256
102
RTVSPost2010Prop51ColorRGB
 90
-16777216
102
RTVSPost2010PropOp51
 70
     0
102
RTVSPost2010Prop52
140
1.0
102
RTVSPost2010PropOp52
 70
     0
102
RTVSPost2010Prop53
 90
        2
102
RTVSPost2010PropOp53
 70
     1
102
RTVSPost2010Prop54
  1
strokes_ogs.tif
102
RTVSPost2010PropOp54
 70
     1
102
RTVSPost2010Prop55
280
     0
102
RTVSPost2010PropOp55
 70
     1
102
RTVSPost2010Prop56
140
1.0
102
RTVSPost2010PropOp56
 70
     1
102
RTVSPost2010Prop57
140
1.0
102
RTVSPost2010PropOp57
 70
     1
102
RTVSPropertyOp0
 70
     1
102
RTVSPropertyOp1
 70
     1
102
RTVSPropertyOp2
 70
     1
102
RTVSPropertyOp3
 70
     1
102
RTVSPropertyOp4
 70
     1
102
RTVSPropertyOp5
 70
     1
102
RTVSPropertyOp6
 70
     1
102
RTVSPropertyOp7
 70
     1
102
RTVSPropertyOp8
 70
     1
102
RTVSPropertyOp9
 70
     1
102
RTVSPropertyOp10
 70
     1
102
RTVSPropertyOp11
 70
     1
102
RTVSPropertyOp12
 70
     1
102
RTVSPropertyOp13
 70
     1
102
RTVSPropertyOp14
 70
     1
102
RTVSPropertyOp15
 70
     1
102
RTVSPropertyOp16
 70
     1
102
RTVSPropertyOp17
 70
     1
102
RTVSPropertyOp18
 70
     1
102
RTVSPropertyOp19
 70
     1
102
RTVSPropertyOp20
 70
     1
102
RTVSPropertyOp21
 70
     1
102
RTVSPropertyOp22
 70
     1
102
RTVSPropertyOp23
 70
     1
102
RTVSPropertyOp24
 70
     1
102
RTVSPropertyOp25
 70
     1
102
RTVSPropertyOp26
 70
     1
102
RTVSPropertyOp27
 70
     1
102
RTVSPropertyOp28
 70
     1
102
RTVSPropertyOp29
 70
     1
102
RTVSPropertyOp30
 70
     1
102
RTVSPropertyOp31
 70
     1
102
RTVSPropertyOp32
 70
     1
102
RTVSPropertyOp33
 70
     1
102
RTVSPropertyOp34
 70
     1
102
RTVSPropertyOp35
 70
     1
102
RTVSPropertyOp36
 70
     1
102
RTVSPropertyOp37
 70
     1
102
RTVSPropertyOp38
 70
     1
102
RTVSPropertyOp39
 70
     1
102
RTVSPropertyOp40
 70
     1
102
RTVSPropertyOp41
 70
     1
102
RTVSPropertyOp42
 70
     1
102
RTVSPropertyOp43
 70
     1
102
RTVSPropertyOp44
 70
     1
102
RTVSPropertyOp45
 70
     1
102
RTVSPropertyOp46
 70
     1
102
RTVSPropertyOp47
 70
     1
102
RTVSPropertyOp48
 70
     1
102
RTVSPropertyOp49
 70
     1
102
RTVSPropertyOp50
 70
     1
102
RTVSPropertyOp51
 70
     0
102
RTVSPropertyOp52
 70
     0
102
RTVSPropertyOp53
 70
     1
102
RTVSPropertyOp54
 70
     1
102
RTVSPropertyOp55
 70
     1
102
RTVSPropertyOp56
 70
     1
102
RTVSPropertyOp57
 70
     1
102
RTVSPropertyOp58
 70
     1
102
RTVSPropertyOp59
 70
     1
102
RTVSPropertyOp60
 70
     1
102
RTVSPropertyOp61
 70
     1
102
RTVSPropertyOp62
 70
     1
  0
XRECORD
  5
FA38
102
{ACAD_REACTORS
330
FA37
102
}
330
FA37
100
AcDbXrecord
280
     1
102
RTVSPost2010Prop28
280
     0
102
RTVSPost2010PropOp28
 70
     1
102
RTVSPost2010Prop29
280
     1
102
RTVSPost2010PropOp29
 70
     1
102
RTVSPost2010Prop30
280
     1
102
RTVSPost2010PropOp30
 70
     1
102
RTVSPost2010Prop31
280
     0
102
RTVSPost2010PropOp31
 70
     1
102
RTVSPost2010Prop32
280
     0
102
RTVSPost2010PropOp32
 70
     1
102
RTVSPost2010Prop33
280
     0
102
RTVSPost2010PropOp33
 70
     1
102
RTVSPost2010Prop34
280
     0
102
RTVSPost2010PropOp34
 70
     1
102
RTVSPost2010Prop35
280
     0
102
RTVSPost2010PropOp35
 70
     1
102
RTVSPost2010Prop36
280
     0
102
RTVSPost2010PropOp36
 70
     1
102
RTVSPost2010Prop37
 90
       50
102
RTVSPost2010PropOp37
 70
     1
102
RTVSPost2010Prop38
140
0.0
102
RTVSPost2010PropOp38
 70
     1
102
RTVSPost2010Prop39
140
1.0
102
RTVSPost2010PropOp39
 70
     1
102
RTVSPost2010Prop40
 90
        0
102
RTVSPost2010PropOp40
 70
     1
102
RTVSPost2010Prop41ColorIndex
 90
       18
102
RTVSPost2010Prop41ColorRGB
 90
        0
102
RTVSPost2010PropOp41
 70
     1
102
RTVSPost2010Prop42
 90
       50
102
RTVSPost2010PropOp42
 70
     1
102
RTVSPost2010Prop43
 90
        3
102
RTVSPost2010PropOp43
 70
     1
102
RTVSPost2010Prop44ColorIndex
 90
        5
102
RTVSPost2010Prop44ColorRGB
 90
      255
102
RTVSPost2010PropOp44
 70
     1
102
RTVSPost2010Prop45
280
     0
102
RTVSPost2010PropOp45
 70
     1
102
RTVSPost2010Prop46
 90
       50
102
RTVSPost2010PropOp46
 70
     1
102
RTVSPost2010Prop47
 90
       50
102
RTVSPost2010PropOp47
 70
     1
102
RTVSPost2010Prop48
 90
       50
102
RTVSPost2010PropOp48
 70
     1
102
RTVSPost2010Prop49
280
     0
102
RTVSPost2010PropOp49
 70
     1
102
RTVSPost2010Prop50
 90
       50
102
RTVSPost2010PropOp50
 70
     1
102
RTVSPost2010Prop51ColorIndex
 90
      256
102
RTVSPost2010Prop51ColorRGB
 90
-16777216
102
RTVSPost2010PropOp51
 70
     0
102
RTVSPost2010Prop52
140
1.0
102
RTVSPost2010PropOp52
 70
     0
102
RTVSPost2010Prop53
 90
        2
102
RTVSPost2010PropOp53
 70
     1
102
RTVSPost2010Prop54
  1
strokes_ogs.tif
102
RTVSPost2010PropOp54
 70
     1
102
RTVSPost2010Prop55
280
     0
102
RTVSPost2010PropOp55
 70
     1
102
RTVSPost2010Prop56
140
1.0
102
RTVSPost2010PropOp56
 70
     1
102
RTVSPost2010Prop57
140
1.0
102
RTVSPost2010PropOp57
 70
     1
102
RTVSPropertyOp0
 70
     1
102
RTVSPropertyOp1
 70
     1
102
RTVSPropertyOp2
 70
     1
102
RTVSPropertyOp3
 70
     1
102
RTVSPropertyOp4
 70
     1
102
RTVSPropertyOp5
 70
     1
102
RTVSPropertyOp6
 70
     1
102
RTVSPropertyOp7
 70
     1
102
RTVSPropertyOp8
 70
     1
102
RTVSPropertyOp9
 70
     1
102
RTVSPropertyOp10
 70
     1
102
RTVSPropertyOp11
 70
     1
102
RTVSPropertyOp12
 70
     1
102
RTVSPropertyOp13
 70
     1
102
RTVSPropertyOp14
 70
     1
102
RTVSPropertyOp15
 70
     1
102
RTVSPropertyOp16
 70
     1
102
RTVSPropertyOp17
 70
     1
102
RTVSPropertyOp18
 70
     1
102
RTVSPropertyOp19
 70
     1
102
RTVSPropertyOp20
 70
     1
102
RTVSPropertyOp21
 70
     1
102
RTVSPropertyOp22
 70
     1
102
RTVSPropertyOp23
 70
     1
102
RTVSPropertyOp24
 70
     1
102
RTVSPropertyOp25
 70
     1
102
RTVSPropertyOp26
 70
     1
102
RTVSPropertyOp27
 70
     1
102
RTVSPropertyOp28
 70
     1
102
RTVSPropertyOp29
 70
     1
102
RTVSPropertyOp30
 70
     1
102
RTVSPropertyOp31
 70
     1
102
RTVSPropertyOp32
 70
     1
102
RTVSPropertyOp33
 70
     1
102
RTVSPropertyOp34
 70
     1
102
RTVSPropertyOp35
 70
     1
102
RTVSPropertyOp36
 70
     1
102
RTVSPropertyOp37
 70
     1
102
RTVSPropertyOp38
 70
     1
102
RTVSPropertyOp39
 70
     1
102
RTVSPropertyOp40
 70
     1
102
RTVSPropertyOp41
 70
     1
102
RTVSPropertyOp42
 70
     1
102
RTVSPropertyOp43
 70
     1
102
RTVSPropertyOp44
 70
     1
102
RTVSPropertyOp45
 70
     1
102
RTVSPropertyOp46
 70
     1
102
RTVSPropertyOp47
 70
     1
102
RTVSPropertyOp48
 70
     1
102
RTVSPropertyOp49
 70
     1
102
RTVSPropertyOp50
 70
     1
102
RTVSPropertyOp51
 70
     0
102
RTVSPropertyOp52
 70
     0
102
RTVSPropertyOp53
 70
     1
102
RTVSPropertyOp54
 70
     1
102
RTVSPropertyOp55
 70
     1
102
RTVSPropertyOp56
 70
     1
102
RTVSPropertyOp57
 70
     1
102
RTVSPropertyOp58
 70
     1
102
RTVSPropertyOp59
 70
     1
102
RTVSPropertyOp60
 70
     1
102
RTVSPropertyOp61
 70
     1
102
RTVSPropertyOp62
 70
     1
  0
XRECORD
  5
FA3A
102
{ACAD_REACTORS
330
FA39
102
}
330
FA39
100
AcDbXrecord
280
     1
102
RTVSPost2010Prop28
280
     0
102
RTVSPost2010PropOp28
 70
     1
102
RTVSPost2010Prop29
280
     1
102
RTVSPost2010PropOp29
 70
     1
102
RTVSPost2010Prop30
280
     1
102
RTVSPost2010PropOp30
 70
     1
102
RTVSPost2010Prop31
280
     0
102
RTVSPost2010PropOp31
 70
     1
102
RTVSPost2010Prop32
280
     0
102
RTVSPost2010PropOp32
 70
     1
102
RTVSPost2010Prop33
280
     0
102
RTVSPost2010PropOp33
 70
     1
102
RTVSPost2010Prop34
280
     0
102
RTVSPost2010PropOp34
 70
     1
102
RTVSPost2010Prop35
280
     0
102
RTVSPost2010PropOp35
 70
     1
102
RTVSPost2010Prop36
280
     0
102
RTVSPost2010PropOp36
 70
     1
102
RTVSPost2010Prop37
 90
       50
102
RTVSPost2010PropOp37
 70
     1
102
RTVSPost2010Prop38
140
0.0
102
RTVSPost2010PropOp38
 70
     1
102
RTVSPost2010Prop39
140
1.0
102
RTVSPost2010PropOp39
 70
     1
102
RTVSPost2010Prop40
 90
        0
102
RTVSPost2010PropOp40
 70
     1
102
RTVSPost2010Prop41ColorIndex
 90
       18
102
RTVSPost2010Prop41ColorRGB
 90
        0
102
RTVSPost2010PropOp41
 70
     1
102
RTVSPost2010Prop42
 90
       50
102
RTVSPost2010PropOp42
 70
     1
102
RTVSPost2010Prop43
 90
        3
102
RTVSPost2010PropOp43
 70
     1
102
RTVSPost2010Prop44ColorIndex
 90
        5
102
RTVSPost2010Prop44ColorRGB
 90
      255
102
RTVSPost2010PropOp44
 70
     1
102
RTVSPost2010Prop45
280
     0
102
RTVSPost2010PropOp45
 70
     1
102
RTVSPost2010Prop46
 90
       50
102
RTVSPost2010PropOp46
 70
     1
102
RTVSPost2010Prop47
 90
       50
102
RTVSPost2010PropOp47
 70
     1
102
RTVSPost2010Prop48
 90
       50
102
RTVSPost2010PropOp48
 70
     1
102
RTVSPost2010Prop49
280
     0
102
RTVSPost2010PropOp49
 70
     1
102
RTVSPost2010Prop50
 90
       50
102
RTVSPost2010PropOp50
 70
     1
102
RTVSPost2010Prop51ColorIndex
 90
      256
102
RTVSPost2010Prop51ColorRGB
 90
-16777216
102
RTVSPost2010PropOp51
 70
     0
102
RTVSPost2010Prop52
140
1.0
102
RTVSPost2010PropOp52
 70
     0
102
RTVSPost2010Prop53
 90
        2
102
RTVSPost2010PropOp53
 70
     1
102
RTVSPost2010Prop54
  1
strokes_ogs.tif
102
RTVSPost2010PropOp54
 70
     1
102
RTVSPost2010Prop55
280
     0
102
RTVSPost2010PropOp55
 70
     1
102
RTVSPost2010Prop56
140
1.0
102
RTVSPost2010PropOp56
 70
     1
102
RTVSPost2010Prop57
140
1.0
102
RTVSPost2010PropOp57
 70
     1
102
RTVSPropertyOp0
 70
     1
102
RTVSPropertyOp1
 70
     1
102
RTVSPropertyOp2
 70
     1
102
RTVSPropertyOp3
 70
     1
102
RTVSPropertyOp4
 70
     1
102
RTVSPropertyOp5
 70
     1
102
RTVSPropertyOp6
 70
     1
102
RTVSPropertyOp7
 70
     1
102
RTVSPropertyOp8
 70
     1
102
RTVSPropertyOp9
 70
     1
102
RTVSPropertyOp10
 70
     1
102
RTVSPropertyOp11
 70
     1
102
RTVSPropertyOp12
 70
     1
102
RTVSPropertyOp13
 70
     1
102
RTVSPropertyOp14
 70
     1
102
RTVSPropertyOp15
 70
     1
102
RTVSPropertyOp16
 70
     1
102
RTVSPropertyOp17
 70
     1
102
RTVSPropertyOp18
 70
     1
102
RTVSPropertyOp19
 70
     1
102
RTVSPropertyOp20
 70
     1
102
RTVSPropertyOp21
 70
     1
102
RTVSPropertyOp22
 70
     1
102
RTVSPropertyOp23
 70
     1
102
RTVSPropertyOp24
 70
     1
102
RTVSPropertyOp25
 70
     1
102
RTVSPropertyOp26
 70
     1
102
RTVSPropertyOp27
 70
     1
102
RTVSPropertyOp28
 70
     1
102
RTVSPropertyOp29
 70
     1
102
RTVSPropertyOp30
 70
     1
102
RTVSPropertyOp31
 70
     1
102
RTVSPropertyOp32
 70
     1
102
RTVSPropertyOp33
 70
     1
102
RTVSPropertyOp34
 70
     1
102
RTVSPropertyOp35
 70
     1
102
RTVSPropertyOp36
 70
     1
102
RTVSPropertyOp37
 70
     1
102
RTVSPropertyOp38
 70
     1
102
RTVSPropertyOp39
 70
     1
102
RTVSPropertyOp40
 70
     1
102
RTVSPropertyOp41
 70
     1
102
RTVSPropertyOp42
 70
     1
102
RTVSPropertyOp43
 70
     1
102
RTVSPropertyOp44
 70
     1
102
RTVSPropertyOp45
 70
     1
102
RTVSPropertyOp46
 70
     1
102
RTVSPropertyOp47
 70
     1
102
RTVSPropertyOp48
 70
     1
102
RTVSPropertyOp49
 70
     1
102
RTVSPropertyOp50
 70
     1
102
RTVSPropertyOp51
 70
     0
102
RTVSPropertyOp52
 70
     0
102
RTVSPropertyOp53
 70
     1
102
RTVSPropertyOp54
 70
     1
102
RTVSPropertyOp55
 70
     1
102
RTVSPropertyOp56
 70
     1
102
RTVSPropertyOp57
 70
     1
102
RTVSPropertyOp58
 70
     1
102
RTVSPropertyOp59
 70
     1
102
RTVSPropertyOp60
 70
     1
102
RTVSPropertyOp61
 70
     1
102
RTVSPropertyOp62
 70
     1
  0
XRECORD
  5
FA3C
102
{ACAD_REACTORS
330
FA3B
102
}
330
FA3B
100
AcDbXrecord
280
     1
102
RTVSPost2010Prop28
280
     0
102
RTVSPost2010PropOp28
 70
     1
102
RTVSPost2010Prop29
280
     1
102
RTVSPost2010PropOp29
 70
     1
102
RTVSPost2010Prop30
280
     1
102
RTVSPost2010PropOp30
 70
     1
102
RTVSPost2010Prop31
280
     0
102
RTVSPost2010PropOp31
 70
     1
102
RTVSPost2010Prop32
280
     0
102
RTVSPost2010PropOp32
 70
     1
102
RTVSPost2010Prop33
280
     0
102
RTVSPost2010PropOp33
 70
     1
102
RTVSPost2010Prop34
280
     0
102
RTVSPost2010PropOp34
 70
     1
102
RTVSPost2010Prop35
280
     0
102
RTVSPost2010PropOp35
 70
     1
102
RTVSPost2010Prop36
280
     0
102
RTVSPost2010PropOp36
 70
     1
102
RTVSPost2010Prop37
 90
       50
102
RTVSPost2010PropOp37
 70
     1
102
RTVSPost2010Prop38
140
0.0
102
RTVSPost2010PropOp38
 70
     1
102
RTVSPost2010Prop39
140
1.0
102
RTVSPost2010PropOp39
 70
     1
102
RTVSPost2010Prop40
 90
        0
102
RTVSPost2010PropOp40
 70
     1
102
RTVSPost2010Prop41ColorIndex
 90
       18
102
RTVSPost2010Prop41ColorRGB
 90
        0
102
RTVSPost2010PropOp41
 70
     1
102
RTVSPost2010Prop42
 90
       50
102
RTVSPost2010PropOp42
 70
     1
102
RTVSPost2010Prop43
 90
        3
102
RTVSPost2010PropOp43
 70
     1
102
RTVSPost2010Prop44ColorIndex
 90
        5
102
RTVSPost2010Prop44ColorRGB
 90
      255
102
RTVSPost2010PropOp44
 70
     1
102
RTVSPost2010Prop45
280
     0
102
RTVSPost2010PropOp45
 70
     1
102
RTVSPost2010Prop46
 90
       50
102
RTVSPost2010PropOp46
 70
     1
102
RTVSPost2010Prop47
 90
       50
102
RTVSPost2010PropOp47
 70
     1
102
RTVSPost2010Prop48
 90
       50
102
RTVSPost2010PropOp48
 70
     1
102
RTVSPost2010Prop49
280
     0
102
RTVSPost2010PropOp49
 70
     1
102
RTVSPost2010Prop50
 90
       50
102
RTVSPost2010PropOp50
 70
     1
102
RTVSPost2010Prop51ColorIndex
 90
      256
102
RTVSPost2010Prop51ColorRGB
 90
-16777216
102
RTVSPost2010PropOp51
 70
     0
102
RTVSPost2010Prop52
140
1.0
102
RTVSPost2010PropOp52
 70
     0
102
RTVSPost2010Prop53
 90
        2
102
RTVSPost2010PropOp53
 70
     1
102
RTVSPost2010Prop54
  1
strokes_ogs.tif
102
RTVSPost2010PropOp54
 70
     1
102
RTVSPost2010Prop55
280
     0
102
RTVSPost2010PropOp55
 70
     1
102
RTVSPost2010Prop56
140
1.0
102
RTVSPost2010PropOp56
 70
     1
102
RTVSPost2010Prop57
140
1.0
102
RTVSPost2010PropOp57
 70
     1
102
RTVSPropertyOp0
 70
     1
102
RTVSPropertyOp1
 70
     1
102
RTVSPropertyOp2
 70
     1
102
RTVSPropertyOp3
 70
     1
102
RTVSPropertyOp4
 70
     1
102
RTVSPropertyOp5
 70
     1
102
RTVSPropertyOp6
 70
     1
102
RTVSPropertyOp7
 70
     1
102
RTVSPropertyOp8
 70
     1
102
RTVSPropertyOp9
 70
     1
102
RTVSPropertyOp10
 70
     1
102
RTVSPropertyOp11
 70
     1
102
RTVSPropertyOp12
 70
     1
102
RTVSPropertyOp13
 70
     1
102
RTVSPropertyOp14
 70
     1
102
RTVSPropertyOp15
 70
     1
102
RTVSPropertyOp16
 70
     1
102
RTVSPropertyOp17
 70
     1
102
RTVSPropertyOp18
 70
     1
102
RTVSPropertyOp19
 70
     1
102
RTVSPropertyOp20
 70
     1
102
RTVSPropertyOp21
 70
     1
102
RTVSPropertyOp22
 70
     1
102
RTVSPropertyOp23
 70
     1
102
RTVSPropertyOp24
 70
     1
102
RTVSPropertyOp25
 70
     1
102
RTVSPropertyOp26
 70
     1
102
RTVSPropertyOp27
 70
     1
102
RTVSPropertyOp28
 70
     1
102
RTVSPropertyOp29
 70
     1
102
RTVSPropertyOp30
 70
     1
102
RTVSPropertyOp31
 70
     1
102
RTVSPropertyOp32
 70
     1
102
RTVSPropertyOp33
 70
     1
102
RTVSPropertyOp34
 70
     1
102
RTVSPropertyOp35
 70
     1
102
RTVSPropertyOp36
 70
     1
102
RTVSPropertyOp37
 70
     1
102
RTVSPropertyOp38
 70
     1
102
RTVSPropertyOp39
 70
     1
102
RTVSPropertyOp40
 70
     1
102
RTVSPropertyOp41
 70
     1
102
RTVSPropertyOp42
 70
     1
102
RTVSPropertyOp43
 70
     1
102
RTVSPropertyOp44
 70
     1
102
RTVSPropertyOp45
 70
     1
102
RTVSPropertyOp46
 70
     1
102
RTVSPropertyOp47
 70
     1
102
RTVSPropertyOp48
 70
     1
102
RTVSPropertyOp49
 70
     1
102
RTVSPropertyOp50
 70
     1
102
RTVSPropertyOp51
 70
     0
102
RTVSPropertyOp52
 70
     0
102
RTVSPropertyOp53
 70
     1
102
RTVSPropertyOp54
 70
     1
102
RTVSPropertyOp55
 70
     1
102
RTVSPropertyOp56
 70
     1
102
RTVSPropertyOp57
 70
     1
102
RTVSPropertyOp58
 70
     1
102
RTVSPropertyOp59
 70
     1
102
RTVSPropertyOp60
 70
     1
102
RTVSPropertyOp61
 70
     1
102
RTVSPropertyOp62
 70
     1
  0
XRECORD
  5
FA3E
102
{ACAD_REACTORS
330
FA3D
102
}
330
FA3D
100
AcDbXrecord
280
     1
102
RTVSPost2010Prop28
280
     0
102
RTVSPost2010PropOp28
 70
     1
102
RTVSPost2010Prop29
280
     1
102
RTVSPost2010PropOp29
 70
     1
102
RTVSPost2010Prop30
280
     1
102
RTVSPost2010PropOp30
 70
     1
102
RTVSPost2010Prop31
280
     0
102
RTVSPost2010PropOp31
 70
     1
102
RTVSPost2010Prop32
280
     0
102
RTVSPost2010PropOp32
 70
     1
102
RTVSPost2010Prop33
280
     0
102
RTVSPost2010PropOp33
 70
     1
102
RTVSPost2010Prop34
280
     0
102
RTVSPost2010PropOp34
 70
     1
102
RTVSPost2010Prop35
280
     0
102
RTVSPost2010PropOp35
 70
     1
102
RTVSPost2010Prop36
280
     0
102
RTVSPost2010PropOp36
 70
     1
102
RTVSPost2010Prop37
 90
       50
102
RTVSPost2010PropOp37
 70
     1
102
RTVSPost2010Prop38
140
0.0
102
RTVSPost2010PropOp38
 70
     1
102
RTVSPost2010Prop39
140
1.0
102
RTVSPost2010PropOp39
 70
     1
102
RTVSPost2010Prop40
 90
        0
102
RTVSPost2010PropOp40
 70
     1
102
RTVSPost2010Prop41ColorIndex
 90
       18
102
RTVSPost2010Prop41ColorRGB
 90
        0
102
RTVSPost2010PropOp41
 70
     1
102
RTVSPost2010Prop42
 90
       50
102
RTVSPost2010PropOp42
 70
     1
102
RTVSPost2010Prop43
 90
        3
102
RTVSPost2010PropOp43
 70
     1
102
RTVSPost2010Prop44ColorIndex
 90
        5
102
RTVSPost2010Prop44ColorRGB
 90
      255
102
RTVSPost2010PropOp44
 70
     1
102
RTVSPost2010Prop45
280
     0
102
RTVSPost2010PropOp45
 70
     1
102
RTVSPost2010Prop46
 90
       50
102
RTVSPost2010PropOp46
 70
     1
102
RTVSPost2010Prop47
 90
       50
102
RTVSPost2010PropOp47
 70
     1
102
RTVSPost2010Prop48
 90
       50
102
RTVSPost2010PropOp48
 70
     1
102
RTVSPost2010Prop49
280
     0
102
RTVSPost2010PropOp49
 70
     1
102
RTVSPost2010Prop50
 90
       50
102
RTVSPost2010PropOp50
 70
     1
102
RTVSPost2010Prop51ColorIndex
 90
      256
102
RTVSPost2010Prop51ColorRGB
 90
-16777216
102
RTVSPost2010PropOp51
 70
     0
102
RTVSPost2010Prop52
140
1.0
102
RTVSPost2010PropOp52
 70
     0
102
RTVSPost2010Prop53
 90
        2
102
RTVSPost2010PropOp53
 70
     1
102
RTVSPost2010Prop54
  1
strokes_ogs.tif
102
RTVSPost2010PropOp54
 70
     1
102
RTVSPost2010Prop55
280
     0
102
RTVSPost2010PropOp55
 70
     1
102
RTVSPost2010Prop56
140
1.0
102
RTVSPost2010PropOp56
 70
     1
102
RTVSPost2010Prop57
140
1.0
102
RTVSPost2010PropOp57
 70
     1
102
RTVSPropertyOp0
 70
     1
102
RTVSPropertyOp1
 70
     1
102
RTVSPropertyOp2
 70
     1
102
RTVSPropertyOp3
 70
     1
102
RTVSPropertyOp4
 70
     1
102
RTVSPropertyOp5
 70
     1
102
RTVSPropertyOp6
 70
     1
102
RTVSPropertyOp7
 70
     1
102
RTVSPropertyOp8
 70
     1
102
RTVSPropertyOp9
 70
     1
102
RTVSPropertyOp10
 70
     1
102
RTVSPropertyOp11
 70
     1
102
RTVSPropertyOp12
 70
     1
102
RTVSPropertyOp13
 70
     1
102
RTVSPropertyOp14
 70
     1
102
RTVSPropertyOp15
 70
     1
102
RTVSPropertyOp16
 70
     1
102
RTVSPropertyOp17
 70
     1
102
RTVSPropertyOp18
 70
     1
102
RTVSPropertyOp19
 70
     1
102
RTVSPropertyOp20
 70
     1
102
RTVSPropertyOp21
 70
     1
102
RTVSPropertyOp22
 70
     1
102
RTVSPropertyOp23
 70
     1
102
RTVSPropertyOp24
 70
     1
102
RTVSPropertyOp25
 70
     1
102
RTVSPropertyOp26
 70
     1
102
RTVSPropertyOp27
 70
     1
102
RTVSPropertyOp28
 70
     1
102
RTVSPropertyOp29
 70
     1
102
RTVSPropertyOp30
 70
     1
102
RTVSPropertyOp31
 70
     1
102
RTVSPropertyOp32
 70
     1
102
RTVSPropertyOp33
 70
     1
102
RTVSPropertyOp34
 70
     1
102
RTVSPropertyOp35
 70
     1
102
RTVSPropertyOp36
 70
     1
102
RTVSPropertyOp37
 70
     1
102
RTVSPropertyOp38
 70
     1
102
RTVSPropertyOp39
 70
     1
102
RTVSPropertyOp40
 70
     1
102
RTVSPropertyOp41
 70
     1
102
RTVSPropertyOp42
 70
     1
102
RTVSPropertyOp43
 70
     1
102
RTVSPropertyOp44
 70
     1
102
RTVSPropertyOp45
 70
     1
102
RTVSPropertyOp46
 70
     1
102
RTVSPropertyOp47
 70
     1
102
RTVSPropertyOp48
 70
     1
102
RTVSPropertyOp49
 70
     1
102
RTVSPropertyOp50
 70
     1
102
RTVSPropertyOp51
 70
     0
102
RTVSPropertyOp52
 70
     0
102
RTVSPropertyOp53
 70
     1
102
RTVSPropertyOp54
 70
     1
102
RTVSPropertyOp55
 70
     1
102
RTVSPropertyOp56
 70
     1
102
RTVSPropertyOp57
 70
     1
102
RTVSPropertyOp58
 70
     1
102
RTVSPropertyOp59
 70
     1
102
RTVSPropertyOp60
 70
     1
102
RTVSPropertyOp61
 70
     1
102
RTVSPropertyOp62
 70
     1
  0
XRECORD
  5
FA46
102
{ACAD_REACTORS
330
FA45
102
}
330
FA45
100
AcDbXrecord
280
     1
102
RTVSPost2010Prop28
280
     0
102
RTVSPost2010PropOp28
 70
     1
102
RTVSPost2010Prop29
280
     1
102
RTVSPost2010PropOp29
 70
     1
102
RTVSPost2010Prop30
280
     1
102
RTVSPost2010PropOp30
 70
     1
102
RTVSPost2010Prop31
280
     0
102
RTVSPost2010PropOp31
 70
     1
102
RTVSPost2010Prop32
280
     0
102
RTVSPost2010PropOp32
 70
     1
102
RTVSPost2010Prop33
280
     0
102
RTVSPost2010PropOp33
 70
     1
102
RTVSPost2010Prop34
280
     0
102
RTVSPost2010PropOp34
 70
     1
102
RTVSPost2010Prop35
280
     0
102
RTVSPost2010PropOp35
 70
     1
102
RTVSPost2010Prop36
280
     0
102
RTVSPost2010PropOp36
 70
     1
102
RTVSPost2010Prop37
 90
       50
102
RTVSPost2010PropOp37
 70
     1
102
RTVSPost2010Prop38
140
0.0
102
RTVSPost2010PropOp38
 70
     1
102
RTVSPost2010Prop39
140
1.0
102
RTVSPost2010PropOp39
 70
     1
102
RTVSPost2010Prop40
 90
        0
102
RTVSPost2010PropOp40
 70
     1
102
RTVSPost2010Prop41ColorIndex
 90
       18
102
RTVSPost2010Prop41ColorRGB
 90
        0
102
RTVSPost2010PropOp41
 70
     1
102
RTVSPost2010Prop42
 90
       50
102
RTVSPost2010PropOp42
 70
     1
102
RTVSPost2010Prop43
 90
        3
102
RTVSPost2010PropOp43
 70
     1
102
RTVSPost2010Prop44ColorIndex
 90
        5
102
RTVSPost2010Prop44ColorRGB
 90
      255
102
RTVSPost2010PropOp44
 70
     1
102
RTVSPost2010Prop45
280
     0
102
RTVSPost2010PropOp45
 70
     1
102
RTVSPost2010Prop46
 90
       50
102
RTVSPost2010PropOp46
 70
     1
102
RTVSPost2010Prop47
 90
       50
102
RTVSPost2010PropOp47
 70
     1
102
RTVSPost2010Prop48
 90
       50
102
RTVSPost2010PropOp48
 70
     1
102
RTVSPost2010Prop49
280
     0
102
RTVSPost2010PropOp49
 70
     1
102
RTVSPost2010Prop50
 90
       50
102
RTVSPost2010PropOp50
 70
     1
102
RTVSPost2010Prop51ColorIndex
 90
      256
102
RTVSPost2010Prop51ColorRGB
 90
-16777216
102
RTVSPost2010PropOp51
 70
     0
102
RTVSPost2010Prop52
140
1.0
102
RTVSPost2010PropOp52
 70
     0
102
RTVSPost2010Prop53
 90
        2
102
RTVSPost2010PropOp53
 70
     1
102
RTVSPost2010Prop54
  1
strokes_ogs.tif
102
RTVSPost2010PropOp54
 70
     1
102
RTVSPost2010Prop55
280
     0
102
RTVSPost2010PropOp55
 70
     1
102
RTVSPost2010Prop56
140
1.0
102
RTVSPost2010PropOp56
 70
     1
102
RTVSPost2010Prop57
140
1.0
102
RTVSPost2010PropOp57
 70
     1
102
RTVSPropertyOp0
 70
     1
102
RTVSPropertyOp1
 70
     1
102
RTVSPropertyOp2
 70
     1
102
RTVSPropertyOp3
 70
     1
102
RTVSPropertyOp4
 70
     1
102
RTVSPropertyOp5
 70
     1
102
RTVSPropertyOp6
 70
     1
102
RTVSPropertyOp7
 70
     1
102
RTVSPropertyOp8
 70
     1
102
RTVSPropertyOp9
 70
     1
102
RTVSPropertyOp10
 70
     1
102
RTVSPropertyOp11
 70
     1
102
RTVSPropertyOp12
 70
     1
102
RTVSPropertyOp13
 70
     1
102
RTVSPropertyOp14
 70
     1
102
RTVSPropertyOp15
 70
     1
102
RTVSPropertyOp16
 70
     1
102
RTVSPropertyOp17
 70
     1
102
RTVSPropertyOp18
 70
     1
102
RTVSPropertyOp19
 70
     1
102
RTVSPropertyOp20
 70
     1
102
RTVSPropertyOp21
 70
     1
102
RTVSPropertyOp22
 70
     1
102
RTVSPropertyOp23
 70
     1
102
RTVSPropertyOp24
 70
     1
102
RTVSPropertyOp25
 70
     1
102
RTVSPropertyOp26
 70
     1
102
RTVSPropertyOp27
 70
     1
102
RTVSPropertyOp28
 70
     1
102
RTVSPropertyOp29
 70
     1
102
RTVSPropertyOp30
 70
     1
102
RTVSPropertyOp31
 70
     1
102
RTVSPropertyOp32
 70
     1
102
RTVSPropertyOp33
 70
     1
102
RTVSPropertyOp34
 70
     1
102
RTVSPropertyOp35
 70
     1
102
RTVSPropertyOp36
 70
     1
102
RTVSPropertyOp37
 70
     1
102
RTVSPropertyOp38
 70
     1
102
RTVSPropertyOp39
 70
     1
102
RTVSPropertyOp40
 70
     1
102
RTVSPropertyOp41
 70
     1
102
RTVSPropertyOp42
 70
     1
102
RTVSPropertyOp43
 70
     1
102
RTVSPropertyOp44
 70
     1
102
RTVSPropertyOp45
 70
     1
102
RTVSPropertyOp46
 70
     1
102
RTVSPropertyOp47
 70
     1
102
RTVSPropertyOp48
 70
     1
102
RTVSPropertyOp49
 70
     1
102
RTVSPropertyOp50
 70
     1
102
RTVSPropertyOp51
 70
     0
102
RTVSPropertyOp52
 70
     0
102
RTVSPropertyOp53
 70
     1
102
RTVSPropertyOp54
 70
     1
102
RTVSPropertyOp55
 70
     1
102
RTVSPropertyOp56
 70
     1
102
RTVSPropertyOp57
 70
     1
102
RTVSPropertyOp58
 70
     1
102
RTVSPropertyOp59
 70
     1
102
RTVSPropertyOp60
 70
     1
102
RTVSPropertyOp61
 70
     1
102
RTVSPropertyOp62
 70
     1
  0
XRECORD
  5
FA5A
102
{ACAD_REACTORS
330
FA59
102
}
330
FA59
100
AcDbXrecord
280
     1
102
RTVSPost2010Prop28
280
     0
102
RTVSPost2010PropOp28
 70
     1
102
RTVSPost2010Prop29
280
     1
102
RTVSPost2010PropOp29
 70
     1
102
RTVSPost2010Prop30
280
     1
102
RTVSPost2010PropOp30
 70
     1
102
RTVSPost2010Prop31
280
     0
102
RTVSPost2010PropOp31
 70
     1
102
RTVSPost2010Prop32
280
     0
102
RTVSPost2010PropOp32
 70
     1
102
RTVSPost2010Prop33
280
     0
102
RTVSPost2010PropOp33
 70
     1
102
RTVSPost2010Prop34
280
     0
102
RTVSPost2010PropOp34
 70
     1
102
RTVSPost2010Prop35
280
     0
102
RTVSPost2010PropOp35
 70
     1
102
RTVSPost2010Prop36
280
     0
102
RTVSPost2010PropOp36
 70
     1
102
RTVSPost2010Prop37
 90
       50
102
RTVSPost2010PropOp37
 70
     1
102
RTVSPost2010Prop38
140
0.0
102
RTVSPost2010PropOp38
 70
     1
102
RTVSPost2010Prop39
140
1.0
102
RTVSPost2010PropOp39
 70
     1
102
RTVSPost2010Prop40
 90
        0
102
RTVSPost2010PropOp40
 70
     1
102
RTVSPost2010Prop41ColorIndex
 90
       18
102
RTVSPost2010Prop41ColorRGB
 90
        0
102
RTVSPost2010PropOp41
 70
     1
102
RTVSPost2010Prop42
 90
       50
102
RTVSPost2010PropOp42
 70
     1
102
RTVSPost2010Prop43
 90
        3
102
RTVSPost2010PropOp43
 70
     1
102
RTVSPost2010Prop44ColorIndex
 90
        5
102
RTVSPost2010Prop44ColorRGB
 90
      255
102
RTVSPost2010PropOp44
 70
     1
102
RTVSPost2010Prop45
280
     0
102
RTVSPost2010PropOp45
 70
     1
102
RTVSPost2010Prop46
 90
       50
102
RTVSPost2010PropOp46
 70
     1
102
RTVSPost2010Prop47
 90
       50
102
RTVSPost2010PropOp47
 70
     1
102
RTVSPost2010Prop48
 90
       50
102
RTVSPost2010PropOp48
 70
     1
102
RTVSPost2010Prop49
280
     0
102
RTVSPost2010PropOp49
 70
     1
102
RTVSPost2010Prop50
 90
       50
102
RTVSPost2010PropOp50
 70
     1
102
RTVSPost2010Prop51ColorIndex
 90
      256
102
RTVSPost2010Prop51ColorRGB
 90
-16777216
102
RTVSPost2010PropOp51
 70
     0
102
RTVSPost2010Prop52
140
1.0
102
RTVSPost2010PropOp52
 70
     0
102
RTVSPost2010Prop53
 90
        2
102
RTVSPost2010PropOp53
 70
     1
102
RTVSPost2010Prop54
  1
strokes_ogs.tif
102
RTVSPost2010PropOp54
 70
     1
102
RTVSPost2010Prop55
280
     0
102
RTVSPost2010PropOp55
 70
     1
102
RTVSPost2010Prop56
140
1.0
102
RTVSPost2010PropOp56
 70
     1
102
RTVSPost2010Prop57
140
1.0
102
RTVSPost2010PropOp57
 70
     1
102
RTVSPropertyOp0
 70
     0
102
RTVSPropertyOp1
 70
     0
102
RTVSPropertyOp2
 70
     0
102
RTVSPropertyOp3
 70
     0
102
RTVSPropertyOp4
 70
     0
102
RTVSPropertyOp5
 70
     0
102
RTVSPropertyOp6
 70
     0
102
RTVSPropertyOp7
 70
     0
102
RTVSPropertyOp8
 70
     0
102
RTVSPropertyOp9
 70
     0
102
RTVSPropertyOp10
 70
     0
102
RTVSPropertyOp11
 70
     0
102
RTVSPropertyOp12
 70
     0
102
RTVSPropertyOp13
 70
     0
102
RTVSPropertyOp14
 70
     2
102
RTVSPropertyOp15
 70
     0
102
RTVSPropertyOp16
 70
     0
102
RTVSPropertyOp17
 70
     0
102
RTVSPropertyOp18
 70
     0
102
RTVSPropertyOp19
 70
     0
102
RTVSPropertyOp20
 70
     0
102
RTVSPropertyOp21
 70
     0
102
RTVSPropertyOp22
 70
     0
102
RTVSPropertyOp23
 70
     0
102
RTVSPropertyOp24
 70
     0
102
RTVSPropertyOp25
 70
     0
102
RTVSPropertyOp26
 70
     0
102
RTVSPropertyOp27
 70
     0
102
RTVSPropertyOp28
 70
     1
102
RTVSPropertyOp29
 70
     1
102
RTVSPropertyOp30
 70
     1
102
RTVSPropertyOp31
 70
     1
102
RTVSPropertyOp32
 70
     1
102
RTVSPropertyOp33
 70
     1
102
RTVSPropertyOp34
 70
     1
102
RTVSPropertyOp35
 70
     1
102
RTVSPropertyOp36
 70
     1
102
RTVSPropertyOp37
 70
     1
102
RTVSPropertyOp38
 70
     1
102
RTVSPropertyOp39
 70
     1
102
RTVSPropertyOp40
 70
     1
102
RTVSPropertyOp41
 70
     1
102
RTVSPropertyOp42
 70
     1
102
RTVSPropertyOp43
 70
     1
102
RTVSPropertyOp44
 70
     1
102
RTVSPropertyOp45
 70
     1
102
RTVSPropertyOp46
 70
     1
102
RTVSPropertyOp47
 70
     1
102
RTVSPropertyOp48
 70
     1
102
RTVSPropertyOp49
 70
     1
102
RTVSPropertyOp50
 70
     1
102
RTVSPropertyOp51
 70
     0
102
RTVSPropertyOp52
 70
     0
102
RTVSPropertyOp53
 70
     1
102
RTVSPropertyOp54
 70
     1
102
RTVSPropertyOp55
 70
     1
102
RTVSPropertyOp56
 70
     1
102
RTVSPropertyOp57
 70
     1
102
RTVSPropertyOp58
 70
     1
102
RTVSPropertyOp59
 70
     1
102
RTVSPropertyOp60
 70
     1
102
RTVSPropertyOp61
 70
     1
102
RTVSPropertyOp62
 70
     1
  0
XRECORD
  5
FA52
102
{ACAD_REACTORS
330
FA51
102
}
330
FA51
100
AcDbXrecord
280
     1
102
RTVSPost2010Prop28
280
     0
102
RTVSPost2010PropOp28
 70
     1
102
RTVSPost2010Prop29
280
     1
102
RTVSPost2010PropOp29
 70
     1
102
RTVSPost2010Prop30
280
     1
102
RTVSPost2010PropOp30
 70
     1
102
RTVSPost2010Prop31
280
     0
102
RTVSPost2010PropOp31
 70
     1
102
RTVSPost2010Prop32
280
     0
102
RTVSPost2010PropOp32
 70
     1
102
RTVSPost2010Prop33
280
     0
102
RTVSPost2010PropOp33
 70
     1
102
RTVSPost2010Prop34
280
     0
102
RTVSPost2010PropOp34
 70
     1
102
RTVSPost2010Prop35
280
     0
102
RTVSPost2010PropOp35
 70
     1
102
RTVSPost2010Prop36
280
     0
102
RTVSPost2010PropOp36
 70
     1
102
RTVSPost2010Prop37
 90
       50
102
RTVSPost2010PropOp37
 70
     1
102
RTVSPost2010Prop38
140
0.0
102
RTVSPost2010PropOp38
 70
     1
102
RTVSPost2010Prop39
140
1.0
102
RTVSPost2010PropOp39
 70
     1
102
RTVSPost2010Prop40
 90
        0
102
RTVSPost2010PropOp40
 70
     1
102
RTVSPost2010Prop41ColorIndex
 90
       18
102
RTVSPost2010Prop41ColorRGB
 90
        0
102
RTVSPost2010PropOp41
 70
     1
102
RTVSPost2010Prop42
 90
       50
102
RTVSPost2010PropOp42
 70
     1
102
RTVSPost2010Prop43
 90
        3
102
RTVSPost2010PropOp43
 70
     1
102
RTVSPost2010Prop44ColorIndex
 90
        5
102
RTVSPost2010Prop44ColorRGB
 90
      255
102
RTVSPost2010PropOp44
 70
     1
102
RTVSPost2010Prop45
280
     0
102
RTVSPost2010PropOp45
 70
     1
102
RTVSPost2010Prop46
 90
       50
102
RTVSPost2010PropOp46
 70
     1
102
RTVSPost2010Prop47
 90
       50
102
RTVSPost2010PropOp47
 70
     1
102
RTVSPost2010Prop48
 90
       50
102
RTVSPost2010PropOp48
 70
     1
102
RTVSPost2010Prop49
280
     0
102
RTVSPost2010PropOp49
 70
     1
102
RTVSPost2010Prop50
 90
       50
102
RTVSPost2010PropOp50
 70
     1
102
RTVSPost2010Prop51ColorIndex
 90
      256
102
RTVSPost2010Prop51ColorRGB
 90
-16777216
102
RTVSPost2010PropOp51
 70
     0
102
RTVSPost2010Prop52
140
1.0
102
RTVSPost2010PropOp52
 70
     0
102
RTVSPost2010Prop53
 90
        2
102
RTVSPost2010PropOp53
 70
     1
102
RTVSPost2010Prop54
  1
strokes_ogs.tif
102
RTVSPost2010PropOp54
 70
     1
102
RTVSPost2010Prop55
280
     0
102
RTVSPost2010PropOp55
 70
     1
102
RTVSPost2010Prop56
140
1.0
102
RTVSPost2010PropOp56
 70
     1
102
RTVSPost2010Prop57
140
1.0
102
RTVSPost2010PropOp57
 70
     1
102
RTVSPropertyOp0
 70
     1
102
RTVSPropertyOp1
 70
     1
102
RTVSPropertyOp2
 70
     1
102
RTVSPropertyOp3
 70
     1
102
RTVSPropertyOp4
 70
     1
102
RTVSPropertyOp5
 70
     1
102
RTVSPropertyOp6
 70
     1
102
RTVSPropertyOp7
 70
     1
102
RTVSPropertyOp8
 70
     1
102
RTVSPropertyOp9
 70
     1
102
RTVSPropertyOp10
 70
     1
102
RTVSPropertyOp11
 70
     1
102
RTVSPropertyOp12
 70
     1
102
RTVSPropertyOp13
 70
     1
102
RTVSPropertyOp14
 70
     1
102
RTVSPropertyOp15
 70
     1
102
RTVSPropertyOp16
 70
     1
102
RTVSPropertyOp17
 70
     1
102
RTVSPropertyOp18
 70
     1
102
RTVSPropertyOp19
 70
     1
102
RTVSPropertyOp20
 70
     1
102
RTVSPropertyOp21
 70
     1
102
RTVSPropertyOp22
 70
     1
102
RTVSPropertyOp23
 70
     1
102
RTVSPropertyOp24
 70
     1
102
RTVSPropertyOp25
 70
     1
102
RTVSPropertyOp26
 70
     1
102
RTVSPropertyOp27
 70
     1
102
RTVSPropertyOp28
 70
     1
102
RTVSPropertyOp29
 70
     1
102
RTVSPropertyOp30
 70
     1
102
RTVSPropertyOp31
 70
     1
102
RTVSPropertyOp32
 70
     1
102
RTVSPropertyOp33
 70
     1
102
RTVSPropertyOp34
 70
     1
102
RTVSPropertyOp35
 70
     1
102
RTVSPropertyOp36
 70
     1
102
RTVSPropertyOp37
 70
     1
102
RTVSPropertyOp38
 70
     1
102
RTVSPropertyOp39
 70
     1
102
RTVSPropertyOp40
 70
     1
102
RTVSPropertyOp41
 70
     1
102
RTVSPropertyOp42
 70
     1
102
RTVSPropertyOp43
 70
     1
102
RTVSPropertyOp44
 70
     1
102
RTVSPropertyOp45
 70
     1
102
RTVSPropertyOp46
 70
     1
102
RTVSPropertyOp47
 70
     1
102
RTVSPropertyOp48
 70
     1
102
RTVSPropertyOp49
 70
     1
102
RTVSPropertyOp50
 70
     1
102
RTVSPropertyOp51
 70
     0
102
RTVSPropertyOp52
 70
     0
102
RTVSPropertyOp53
 70
     1
102
RTVSPropertyOp54
 70
     1
102
RTVSPropertyOp55
 70
     1
102
RTVSPropertyOp56
 70
     1
102
RTVSPropertyOp57
 70
     1
102
RTVSPropertyOp58
 70
     1
102
RTVSPropertyOp59
 70
     1
102
RTVSPropertyOp60
 70
     1
102
RTVSPropertyOp61
 70
     1
102
RTVSPropertyOp62
 70
     1
  0
XRECORD
  5
FA5C
102
{ACAD_REACTORS
330
FA5B
102
}
330
FA5B
100
AcDbXrecord
280
     1
102
RTVSPost2010Prop28
280
     0
102
RTVSPost2010PropOp28
 70
     1
102
RTVSPost2010Prop29
280
     1
102
RTVSPost2010PropOp29
 70
     1
102
RTVSPost2010Prop30
280
     1
102
RTVSPost2010PropOp30
 70
     1
102
RTVSPost2010Prop31
280
     0
102
RTVSPost2010PropOp31
 70
     1
102
RTVSPost2010Prop32
280
     0
102
RTVSPost2010PropOp32
 70
     1
102
RTVSPost2010Prop33
280
     0
102
RTVSPost2010PropOp33
 70
     1
102
RTVSPost2010Prop34
280
     0
102
RTVSPost2010PropOp34
 70
     1
102
RTVSPost2010Prop35
280
     0
102
RTVSPost2010PropOp35
 70
     1
102
RTVSPost2010Prop36
280
     0
102
RTVSPost2010PropOp36
 70
     1
102
RTVSPost2010Prop37
 90
       50
102
RTVSPost2010PropOp37
 70
     1
102
RTVSPost2010Prop38
140
0.0
102
RTVSPost2010PropOp38
 70
     1
102
RTVSPost2010Prop39
140
1.0
102
RTVSPost2010PropOp39
 70
     1
102
RTVSPost2010Prop40
 90
        0
102
RTVSPost2010PropOp40
 70
     1
102
RTVSPost2010Prop41ColorIndex
 90
       18
102
RTVSPost2010Prop41ColorRGB
 90
        0
102
RTVSPost2010PropOp41
 70
     1
102
RTVSPost2010Prop42
 90
       50
102
RTVSPost2010PropOp42
 70
     1
102
RTVSPost2010Prop43
 90
        3
102
RTVSPost2010PropOp43
 70
     1
102
RTVSPost2010Prop44ColorIndex
 90
        5
102
RTVSPost2010Prop44ColorRGB
 90
      255
102
RTVSPost2010PropOp44
 70
     1
102
RTVSPost2010Prop45
280
     0
102
RTVSPost2010PropOp45
 70
     1
102
RTVSPost2010Prop46
 90
       50
102
RTVSPost2010PropOp46
 70
     1
102
RTVSPost2010Prop47
 90
       50
102
RTVSPost2010PropOp47
 70
     1
102
RTVSPost2010Prop48
 90
       50
102
RTVSPost2010PropOp48
 70
     1
102
RTVSPost2010Prop49
280
     0
102
RTVSPost2010PropOp49
 70
     1
102
RTVSPost2010Prop50
 90
       50
102
RTVSPost2010PropOp50
 70
     1
102
RTVSPost2010Prop51ColorIndex
 90
      256
102
RTVSPost2010Prop51ColorRGB
 90
-16777216
102
RTVSPost2010PropOp51
 70
     0
102
RTVSPost2010Prop52
140
1.0
102
RTVSPost2010PropOp52
 70
     0
102
RTVSPost2010Prop53
 90
        2
102
RTVSPost2010PropOp53
 70
     1
102
RTVSPost2010Prop54
  1
strokes_ogs.tif
102
RTVSPost2010PropOp54
 70
     1
102
RTVSPost2010Prop55
280
     0
102
RTVSPost2010PropOp55
 70
     1
102
RTVSPost2010Prop56
140
1.0
102
RTVSPost2010PropOp56
 70
     1
102
RTVSPost2010Prop57
140
1.0
102
RTVSPost2010PropOp57
 70
     1
102
RTVSPropertyOp0
 70
     0
102
RTVSPropertyOp1
 70
     0
102
RTVSPropertyOp2
 70
     0
102
RTVSPropertyOp3
 70
     0
102
RTVSPropertyOp4
 70
     0
102
RTVSPropertyOp5
 70
     0
102
RTVSPropertyOp6
 70
     0
102
RTVSPropertyOp7
 70
     0
102
RTVSPropertyOp8
 70
     0
102
RTVSPropertyOp9
 70
     0
102
RTVSPropertyOp10
 70
     0
102
RTVSPropertyOp11
 70
     0
102
RTVSPropertyOp12
 70
     0
102
RTVSPropertyOp13
 70
     0
102
RTVSPropertyOp14
 70
     2
102
RTVSPropertyOp15
 70
     0
102
RTVSPropertyOp16
 70
     0
102
RTVSPropertyOp17
 70
     0
102
RTVSPropertyOp18
 70
     0
102
RTVSPropertyOp19
 70
     0
102
RTVSPropertyOp20
 70
     0
102
RTVSPropertyOp21
 70
     0
102
RTVSPropertyOp22
 70
     0
102
RTVSPropertyOp23
 70
     0
102
RTVSPropertyOp24
 70
     0
102
RTVSPropertyOp25
 70
     0
102
RTVSPropertyOp26
 70
     0
102
RTVSPropertyOp27
 70
     0
102
RTVSPropertyOp28
 70
     1
102
RTVSPropertyOp29
 70
     1
102
RTVSPropertyOp30
 70
     1
102
RTVSPropertyOp31
 70
     1
102
RTVSPropertyOp32
 70
     1
102
RTVSPropertyOp33
 70
     1
102
RTVSPropertyOp34
 70
     1
102
RTVSPropertyOp35
 70
     1
102
RTVSPropertyOp36
 70
     1
102
RTVSPropertyOp37
 70
     1
102
RTVSPropertyOp38
 70
     1
102
RTVSPropertyOp39
 70
     1
102
RTVSPropertyOp40
 70
     1
102
RTVSPropertyOp41
 70
     1
102
RTVSPropertyOp42
 70
     1
102
RTVSPropertyOp43
 70
     1
102
RTVSPropertyOp44
 70
     1
102
RTVSPropertyOp45
 70
     1
102
RTVSPropertyOp46
 70
     1
102
RTVSPropertyOp47
 70
     1
102
RTVSPropertyOp48
 70
     1
102
RTVSPropertyOp49
 70
     1
102
RTVSPropertyOp50
 70
     1
102
RTVSPropertyOp51
 70
     0
102
RTVSPropertyOp52
 70
     0
102
RTVSPropertyOp53
 70
     1
102
RTVSPropertyOp54
 70
     1
102
RTVSPropertyOp55
 70
     1
102
RTVSPropertyOp56
 70
     1
102
RTVSPropertyOp57
 70
     1
102
RTVSPropertyOp58
 70
     1
102
RTVSPropertyOp59
 70
     1
102
RTVSPropertyOp60
 70
     1
102
RTVSPropertyOp61
 70
     1
102
RTVSPropertyOp62
 70
     1
  0
XRECORD
  5
FA4A
102
{ACAD_REACTORS
330
FA49
102
}
330
FA49
100
AcDbXrecord
280
     1
102
RTVSPost2010Prop28
280
     0
102
RTVSPost2010PropOp28
 70
     1
102
RTVSPost2010Prop29
280
     1
102
RTVSPost2010PropOp29
 70
     1
102
RTVSPost2010Prop30
280
     1
102
RTVSPost2010PropOp30
 70
     1
102
RTVSPost2010Prop31
280
     0
102
RTVSPost2010PropOp31
 70
     1
102
RTVSPost2010Prop32
280
     0
102
RTVSPost2010PropOp32
 70
     1
102
RTVSPost2010Prop33
280
     0
102
RTVSPost2010PropOp33
 70
     1
102
RTVSPost2010Prop34
280
     0
102
RTVSPost2010PropOp34
 70
     1
102
RTVSPost2010Prop35
280
     0
102
RTVSPost2010PropOp35
 70
     1
102
RTVSPost2010Prop36
280
     0
102
RTVSPost2010PropOp36
 70
     1
102
RTVSPost2010Prop37
 90
       50
102
RTVSPost2010PropOp37
 70
     1
102
RTVSPost2010Prop38
140
0.0
102
RTVSPost2010PropOp38
 70
     1
102
RTVSPost2010Prop39
140
1.0
102
RTVSPost2010PropOp39
 70
     1
102
RTVSPost2010Prop40
 90
        0
102
RTVSPost2010PropOp40
 70
     1
102
RTVSPost2010Prop41ColorIndex
 90
       18
102
RTVSPost2010Prop41ColorRGB
 90
        0
102
RTVSPost2010PropOp41
 70
     1
102
RTVSPost2010Prop42
 90
       50
102
RTVSPost2010PropOp42
 70
     1
102
RTVSPost2010Prop43
 90
        3
102
RTVSPost2010PropOp43
 70
     1
102
RTVSPost2010Prop44ColorIndex
 90
        5
102
RTVSPost2010Prop44ColorRGB
 90
      255
102
RTVSPost2010PropOp44
 70
     1
102
RTVSPost2010Prop45
280
     0
102
RTVSPost2010PropOp45
 70
     1
102
RTVSPost2010Prop46
 90
       50
102
RTVSPost2010PropOp46
 70
     1
102
RTVSPost2010Prop47
 90
       50
102
RTVSPost2010PropOp47
 70
     1
102
RTVSPost2010Prop48
 90
       50
102
RTVSPost2010PropOp48
 70
     1
102
RTVSPost2010Prop49
280
     0
102
RTVSPost2010PropOp49
 70
     1
102
RTVSPost2010Prop50
 90
       50
102
RTVSPost2010PropOp50
 70
     1
102
RTVSPost2010Prop51ColorIndex
 90
      256
102
RTVSPost2010Prop51ColorRGB
 90
-16777216
102
RTVSPost2010PropOp51
 70
     0
102
RTVSPost2010Prop52
140
1.0
102
RTVSPost2010PropOp52
 70
     0
102
RTVSPost2010Prop53
 90
        2
102
RTVSPost2010PropOp53
 70
     1
102
RTVSPost2010Prop54
  1
strokes_ogs.tif
102
RTVSPost2010PropOp54
 70
     1
102
RTVSPost2010Prop55
280
     0
102
RTVSPost2010PropOp55
 70
     1
102
RTVSPost2010Prop56
140
1.0
102
RTVSPost2010PropOp56
 70
     1
102
RTVSPost2010Prop57
140
1.0
102
RTVSPost2010PropOp57
 70
     1
102
RTVSPropertyOp0
 70
     1
102
RTVSPropertyOp1
 70
     1
102
RTVSPropertyOp2
 70
     1
102
RTVSPropertyOp3
 70
     1
102
RTVSPropertyOp4
 70
     1
102
RTVSPropertyOp5
 70
     1
102
RTVSPropertyOp6
 70
     1
102
RTVSPropertyOp7
 70
     1
102
RTVSPropertyOp8
 70
     1
102
RTVSPropertyOp9
 70
     1
102
RTVSPropertyOp10
 70
     1
102
RTVSPropertyOp11
 70
     1
102
RTVSPropertyOp12
 70
     1
102
RTVSPropertyOp13
 70
     1
102
RTVSPropertyOp14
 70
     1
102
RTVSPropertyOp15
 70
     1
102
RTVSPropertyOp16
 70
     1
102
RTVSPropertyOp17
 70
     1
102
RTVSPropertyOp18
 70
     1
102
RTVSPropertyOp19
 70
     1
102
RTVSPropertyOp20
 70
     1
102
RTVSPropertyOp21
 70
     1
102
RTVSPropertyOp22
 70
     1
102
RTVSPropertyOp23
 70
     1
102
RTVSPropertyOp24
 70
     1
102
RTVSPropertyOp25
 70
     1
102
RTVSPropertyOp26
 70
     1
102
RTVSPropertyOp27
 70
     1
102
RTVSPropertyOp28
 70
     1
102
RTVSPropertyOp29
 70
     1
102
RTVSPropertyOp30
 70
     1
102
RTVSPropertyOp31
 70
     1
102
RTVSPropertyOp32
 70
     1
102
RTVSPropertyOp33
 70
     1
102
RTVSPropertyOp34
 70
     1
102
RTVSPropertyOp35
 70
     1
102
RTVSPropertyOp36
 70
     1
102
RTVSPropertyOp37
 70
     1
102
RTVSPropertyOp38
 70
     1
102
RTVSPropertyOp39
 70
     1
102
RTVSPropertyOp40
 70
     1
102
RTVSPropertyOp41
 70
     1
102
RTVSPropertyOp42
 70
     1
102
RTVSPropertyOp43
 70
     1
102
RTVSPropertyOp44
 70
     1
102
RTVSPropertyOp45
 70
     1
102
RTVSPropertyOp46
 70
     1
102
RTVSPropertyOp47
 70
     1
102
RTVSPropertyOp48
 70
     1
102
RTVSPropertyOp49
 70
     1
102
RTVSPropertyOp50
 70
     1
102
RTVSPropertyOp51
 70
     0
102
RTVSPropertyOp52
 70
     0
102
RTVSPropertyOp53
 70
     1
102
RTVSPropertyOp54
 70
     1
102
RTVSPropertyOp55
 70
     1
102
RTVSPropertyOp56
 70
     1
102
RTVSPropertyOp57
 70
     1
102
RTVSPropertyOp58
 70
     1
102
RTVSPropertyOp59
 70
     1
102
RTVSPropertyOp60
 70
     1
102
RTVSPropertyOp61
 70
     1
102
RTVSPropertyOp62
 70
     1
  0
XRECORD
  5
FA68
102
{ACAD_REACTORS
330
FA67
102
}
330
FA67
100
AcDbXrecord
280
     1
102
RTVSPost2010Prop28
280
     0
102
RTVSPost2010PropOp28
 70
     1
102
RTVSPost2010Prop29
280
     1
102
RTVSPost2010PropOp29
 70
     1
102
RTVSPost2010Prop30
280
     1
102
RTVSPost2010PropOp30
 70
     1
102
RTVSPost2010Prop31
280
     0
102
RTVSPost2010PropOp31
 70
     1
102
RTVSPost2010Prop32
280
     0
102
RTVSPost2010PropOp32
 70
     1
102
RTVSPost2010Prop33
280
     0
102
RTVSPost2010PropOp33
 70
     1
102
RTVSPost2010Prop34
280
     0
102
RTVSPost2010PropOp34
 70
     1
102
RTVSPost2010Prop35
280
     0
102
RTVSPost2010PropOp35
 70
     1
102
RTVSPost2010Prop36
280
     0
102
RTVSPost2010PropOp36
 70
     1
102
RTVSPost2010Prop37
 90
       50
102
RTVSPost2010PropOp37
 70
     1
102
RTVSPost2010Prop38
140
0.0
102
RTVSPost2010PropOp38
 70
     1
102
RTVSPost2010Prop39
140
1.0
102
RTVSPost2010PropOp39
 70
     1
102
RTVSPost2010Prop40
 90
        0
102
RTVSPost2010PropOp40
 70
     1
102
RTVSPost2010Prop41ColorIndex
 90
       18
102
RTVSPost2010Prop41ColorRGB
 90
        0
102
RTVSPost2010PropOp41
 70
     1
102
RTVSPost2010Prop42
 90
       50
102
RTVSPost2010PropOp42
 70
     1
102
RTVSPost2010Prop43
 90
        3
102
RTVSPost2010PropOp43
 70
     1
102
RTVSPost2010Prop44ColorIndex
 90
        5
102
RTVSPost2010Prop44ColorRGB
 90
      255
102
RTVSPost2010PropOp44
 70
     1
102
RTVSPost2010Prop45
280
     0
102
RTVSPost2010PropOp45
 70
     1
102
RTVSPost2010Prop46
 90
       50
102
RTVSPost2010PropOp46
 70
     1
102
RTVSPost2010Prop47
 90
       50
102
RTVSPost2010PropOp47
 70
     1
102
RTVSPost2010Prop48
 90
       50
102
RTVSPost2010PropOp48
 70
     1
102
RTVSPost2010Prop49
280
     0
102
RTVSPost2010PropOp49
 70
     1
102
RTVSPost2010Prop50
 90
       50
102
RTVSPost2010PropOp50
 70
     1
102
RTVSPost2010Prop51ColorIndex
 90
      256
102
RTVSPost2010Prop51ColorRGB
 90
-16777216
102
RTVSPost2010PropOp51
 70
     0
102
RTVSPost2010Prop52
140
1.0
102
RTVSPost2010PropOp52
 70
     0
102
RTVSPost2010Prop53
 90
        2
102
RTVSPost2010PropOp53
 70
     1
102
RTVSPost2010Prop54
  1
strokes_ogs.tif
102
RTVSPost2010PropOp54
 70
     1
102
RTVSPost2010Prop55
280
     0
102
RTVSPost2010PropOp55
 70
     1
102
RTVSPost2010Prop56
140
1.0
102
RTVSPost2010PropOp56
 70
     1
102
RTVSPost2010Prop57
140
1.0
102
RTVSPost2010PropOp57
 70
     1
102
RTVSPropertyOp0
 70
     1
102
RTVSPropertyOp1
 70
     1
102
RTVSPropertyOp2
 70
     1
102
RTVSPropertyOp3
 70
     1
102
RTVSPropertyOp4
 70
     1
102
RTVSPropertyOp5
 70
     1
102
RTVSPropertyOp6
 70
     1
102
RTVSPropertyOp7
 70
     1
102
RTVSPropertyOp8
 70
     1
102
RTVSPropertyOp9
 70
     1
102
RTVSPropertyOp10
 70
     1
102
RTVSPropertyOp11
 70
     1
102
RTVSPropertyOp12
 70
     1
102
RTVSPropertyOp13
 70
     1
102
RTVSPropertyOp14
 70
     1
102
RTVSPropertyOp15
 70
     1
102
RTVSPropertyOp16
 70
     1
102
RTVSPropertyOp17
 70
     1
102
RTVSPropertyOp18
 70
     1
102
RTVSPropertyOp19
 70
     1
102
RTVSPropertyOp20
 70
     1
102
RTVSPropertyOp21
 70
     1
102
RTVSPropertyOp22
 70
     1
102
RTVSPropertyOp23
 70
     1
102
RTVSPropertyOp24
 70
     1
102
RTVSPropertyOp25
 70
     1
102
RTVSPropertyOp26
 70
     1
102
RTVSPropertyOp27
 70
     1
102
RTVSPropertyOp28
 70
     1
102
RTVSPropertyOp29
 70
     1
102
RTVSPropertyOp30
 70
     1
102
RTVSPropertyOp31
 70
     1
102
RTVSPropertyOp32
 70
     1
102
RTVSPropertyOp33
 70
     1
102
RTVSPropertyOp34
 70
     1
102
RTVSPropertyOp35
 70
     1
102
RTVSPropertyOp36
 70
     1
102
RTVSPropertyOp37
 70
     1
102
RTVSPropertyOp38
 70
     1
102
RTVSPropertyOp39
 70
     1
102
RTVSPropertyOp40
 70
     1
102
RTVSPropertyOp41
 70
     1
102
RTVSPropertyOp42
 70
     1
102
RTVSPropertyOp43
 70
     1
102
RTVSPropertyOp44
 70
     1
102
RTVSPropertyOp45
 70
     1
102
RTVSPropertyOp46
 70
     1
102
RTVSPropertyOp47
 70
     1
102
RTVSPropertyOp48
 70
     1
102
RTVSPropertyOp49
 70
     1
102
RTVSPropertyOp50
 70
     1
102
RTVSPropertyOp51
 70
     0
102
RTVSPropertyOp52
 70
     0
102
RTVSPropertyOp53
 70
     1
102
RTVSPropertyOp54
 70
     1
102
RTVSPropertyOp55
 70
     1
102
RTVSPropertyOp56
 70
     1
102
RTVSPropertyOp57
 70
     1
102
RTVSPropertyOp58
 70
     1
102
RTVSPropertyOp59
 70
     1
102
RTVSPropertyOp60
 70
     1
102
RTVSPropertyOp61
 70
     1
102
RTVSPropertyOp62
 70
     1
  0
XRECORD
  5
FA66
102
{ACAD_REACTORS
330
FA65
102
}
330
FA65
100
AcDbXrecord
280
     1
102
RTVSPost2010Prop28
280
     0
102
RTVSPost2010PropOp28
 70
     1
102
RTVSPost2010Prop29
280
     1
102
RTVSPost2010PropOp29
 70
     1
102
RTVSPost2010Prop30
280
     1
102
RTVSPost2010PropOp30
 70
     1
102
RTVSPost2010Prop31
280
     0
102
RTVSPost2010PropOp31
 70
     1
102
RTVSPost2010Prop32
280
     0
102
RTVSPost2010PropOp32
 70
     1
102
RTVSPost2010Prop33
280
     0
102
RTVSPost2010PropOp33
 70
     1
102
RTVSPost2010Prop34
280
     0
102
RTVSPost2010PropOp34
 70
     1
102
RTVSPost2010Prop35
280
     0
102
RTVSPost2010PropOp35
 70
     1
102
RTVSPost2010Prop36
280
     0
102
RTVSPost2010PropOp36
 70
     1
102
RTVSPost2010Prop37
 90
       50
102
RTVSPost2010PropOp37
 70
     1
102
RTVSPost2010Prop38
140
0.0
102
RTVSPost2010PropOp38
 70
     1
102
RTVSPost2010Prop39
140
1.0
102
RTVSPost2010PropOp39
 70
     1
102
RTVSPost2010Prop40
 90
        0
102
RTVSPost2010PropOp40
 70
     1
102
RTVSPost2010Prop41ColorIndex
 90
       18
102
RTVSPost2010Prop41ColorRGB
 90
        0
102
RTVSPost2010PropOp41
 70
     1
102
RTVSPost2010Prop42
 90
       50
102
RTVSPost2010PropOp42
 70
     1
102
RTVSPost2010Prop43
 90
        3
102
RTVSPost2010PropOp43
 70
     1
102
RTVSPost2010Prop44ColorIndex
 90
        5
102
RTVSPost2010Prop44ColorRGB
 90
      255
102
RTVSPost2010PropOp44
 70
     1
102
RTVSPost2010Prop45
280
     0
102
RTVSPost2010PropOp45
 70
     1
102
RTVSPost2010Prop46
 90
       50
102
RTVSPost2010PropOp46
 70
     1
102
RTVSPost2010Prop47
 90
       50
102
RTVSPost2010PropOp47
 70
     1
102
RTVSPost2010Prop48
 90
       50
102
RTVSPost2010PropOp48
 70
     1
102
RTVSPost2010Prop49
280
     0
102
RTVSPost2010PropOp49
 70
     1
102
RTVSPost2010Prop50
 90
       50
102
RTVSPost2010PropOp50
 70
     1
102
RTVSPost2010Prop51ColorIndex
 90
      256
102
RTVSPost2010Prop51ColorRGB
 90
-16777216
102
RTVSPost2010PropOp51
 70
     0
102
RTVSPost2010Prop52
140
1.0
102
RTVSPost2010PropOp52
 70
     0
102
RTVSPost2010Prop53
 90
        2
102
RTVSPost2010PropOp53
 70
     1
102
RTVSPost2010Prop54
  1
strokes_ogs.tif
102
RTVSPost2010PropOp54
 70
     1
102
RTVSPost2010Prop55
280
     0
102
RTVSPost2010PropOp55
 70
     1
102
RTVSPost2010Prop56
140
1.0
102
RTVSPost2010PropOp56
 70
     1
102
RTVSPost2010Prop57
140
1.0
102
RTVSPost2010PropOp57
 70
     1
102
RTVSPropertyOp0
 70
     1
102
RTVSPropertyOp1
 70
     1
102
RTVSPropertyOp2
 70
     1
102
RTVSPropertyOp3
 70
     1
102
RTVSPropertyOp4
 70
     1
102
RTVSPropertyOp5
 70
     1
102
RTVSPropertyOp6
 70
     1
102
RTVSPropertyOp7
 70
     1
102
RTVSPropertyOp8
 70
     1
102
RTVSPropertyOp9
 70
     1
102
RTVSPropertyOp10
 70
     1
102
RTVSPropertyOp11
 70
     1
102
RTVSPropertyOp12
 70
     1
102
RTVSPropertyOp13
 70
     1
102
RTVSPropertyOp14
 70
     1
102
RTVSPropertyOp15
 70
     1
102
RTVSPropertyOp16
 70
     1
102
RTVSPropertyOp17
 70
     1
102
RTVSPropertyOp18
 70
     1
102
RTVSPropertyOp19
 70
     1
102
RTVSPropertyOp20
 70
     1
102
RTVSPropertyOp21
 70
     1
102
RTVSPropertyOp22
 70
     1
102
RTVSPropertyOp23
 70
     1
102
RTVSPropertyOp24
 70
     1
102
RTVSPropertyOp25
 70
     1
102
RTVSPropertyOp26
 70
     1
102
RTVSPropertyOp27
 70
     1
102
RTVSPropertyOp28
 70
     1
102
RTVSPropertyOp29
 70
     1
102
RTVSPropertyOp30
 70
     1
102
RTVSPropertyOp31
 70
     1
102
RTVSPropertyOp32
 70
     1
102
RTVSPropertyOp33
 70
     1
102
RTVSPropertyOp34
 70
     1
102
RTVSPropertyOp35
 70
     1
102
RTVSPropertyOp36
 70
     1
102
RTVSPropertyOp37
 70
     1
102
RTVSPropertyOp38
 70
     1
102
RTVSPropertyOp39
 70
     1
102
RTVSPropertyOp40
 70
     1
102
RTVSPropertyOp41
 70
     1
102
RTVSPropertyOp42
 70
     1
102
RTVSPropertyOp43
 70
     1
102
RTVSPropertyOp44
 70
     1
102
RTVSPropertyOp45
 70
     1
102
RTVSPropertyOp46
 70
     1
102
RTVSPropertyOp47
 70
     1
102
RTVSPropertyOp48
 70
     1
102
RTVSPropertyOp49
 70
     1
102
RTVSPropertyOp50
 70
     1
102
RTVSPropertyOp51
 70
     0
102
RTVSPropertyOp52
 70
     0
102
RTVSPropertyOp53
 70
     1
102
RTVSPropertyOp54
 70
     1
102
RTVSPropertyOp55
 70
     1
102
RTVSPropertyOp56
 70
     1
102
RTVSPropertyOp57
 70
     1
102
RTVSPropertyOp58
 70
     1
102
RTVSPropertyOp59
 70
     1
102
RTVSPropertyOp60
 70
     1
102
RTVSPropertyOp61
 70
     1
102
RTVSPropertyOp62
 70
     1
  0
XRECORD
  5
FA60
102
{ACAD_REACTORS
330
FA5F
102
}
330
FA5F
100
AcDbXrecord
280
     1
102
RTVSPost2010Prop28
280
     0
102
RTVSPost2010PropOp28
 70
     1
102
RTVSPost2010Prop29
280
     1
102
RTVSPost2010PropOp29
 70
     1
102
RTVSPost2010Prop30
280
     1
102
RTVSPost2010PropOp30
 70
     1
102
RTVSPost2010Prop31
280
     0
102
RTVSPost2010PropOp31
 70
     1
102
RTVSPost2010Prop32
280
     0
102
RTVSPost2010PropOp32
 70
     1
102
RTVSPost2010Prop33
280
     0
102
RTVSPost2010PropOp33
 70
     1
102
RTVSPost2010Prop34
280
     0
102
RTVSPost2010PropOp34
 70
     1
102
RTVSPost2010Prop35
280
     0
102
RTVSPost2010PropOp35
 70
     1
102
RTVSPost2010Prop36
280
     0
102
RTVSPost2010PropOp36
 70
     1
102
RTVSPost2010Prop37
 90
       50
102
RTVSPost2010PropOp37
 70
     1
102
RTVSPost2010Prop38
140
0.0
102
RTVSPost2010PropOp38
 70
     1
102
RTVSPost2010Prop39
140
1.0
102
RTVSPost2010PropOp39
 70
     1
102
RTVSPost2010Prop40
 90
        0
102
RTVSPost2010PropOp40
 70
     1
102
RTVSPost2010Prop41ColorIndex
 90
       18
102
RTVSPost2010Prop41ColorRGB
 90
        0
102
RTVSPost2010PropOp41
 70
     1
102
RTVSPost2010Prop42
 90
       50
102
RTVSPost2010PropOp42
 70
     1
102
RTVSPost2010Prop43
 90
        3
102
RTVSPost2010PropOp43
 70
     1
102
RTVSPost2010Prop44ColorIndex
 90
        5
102
RTVSPost2010Prop44ColorRGB
 90
      255
102
RTVSPost2010PropOp44
 70
     1
102
RTVSPost2010Prop45
280
     0
102
RTVSPost2010PropOp45
 70
     1
102
RTVSPost2010Prop46
 90
       50
102
RTVSPost2010PropOp46
 70
     1
102
RTVSPost2010Prop47
 90
       50
102
RTVSPost2010PropOp47
 70
     1
102
RTVSPost2010Prop48
 90
       50
102
RTVSPost2010PropOp48
 70
     1
102
RTVSPost2010Prop49
280
     0
102
RTVSPost2010PropOp49
 70
     1
102
RTVSPost2010Prop50
 90
       50
102
RTVSPost2010PropOp50
 70
     1
102
RTVSPost2010Prop51ColorIndex
 90
      256
102
RTVSPost2010Prop51ColorRGB
 90
-16777216
102
RTVSPost2010PropOp51
 70
     0
102
RTVSPost2010Prop52
140
1.0
102
RTVSPost2010PropOp52
 70
     0
102
RTVSPost2010Prop53
 90
        2
102
RTVSPost2010PropOp53
 70
     1
102
RTVSPost2010Prop54
  1
strokes_ogs.tif
102
RTVSPost2010PropOp54
 70
     1
102
RTVSPost2010Prop55
280
     0
102
RTVSPost2010PropOp55
 70
     1
102
RTVSPost2010Prop56
140
1.0
102
RTVSPost2010PropOp56
 70
     1
102
RTVSPost2010Prop57
140
1.0
102
RTVSPost2010PropOp57
 70
     1
102
RTVSPropertyOp0
 70
     1
102
RTVSPropertyOp1
 70
     1
102
RTVSPropertyOp2
 70
     1
102
RTVSPropertyOp3
 70
     1
102
RTVSPropertyOp4
 70
     1
102
RTVSPropertyOp5
 70
     1
102
RTVSPropertyOp6
 70
     1
102
RTVSPropertyOp7
 70
     1
102
RTVSPropertyOp8
 70
     1
102
RTVSPropertyOp9
 70
     1
102
RTVSPropertyOp10
 70
     1
102
RTVSPropertyOp11
 70
     1
102
RTVSPropertyOp12
 70
     1
102
RTVSPropertyOp13
 70
     1
102
RTVSPropertyOp14
 70
     1
102
RTVSPropertyOp15
 70
     1
102
RTVSPropertyOp16
 70
     1
102
RTVSPropertyOp17
 70
     1
102
RTVSPropertyOp18
 70
     1
102
RTVSPropertyOp19
 70
     1
102
RTVSPropertyOp20
 70
     1
102
RTVSPropertyOp21
 70
     1
102
RTVSPropertyOp22
 70
     1
102
RTVSPropertyOp23
 70
     1
102
RTVSPropertyOp24
 70
     1
102
RTVSPropertyOp25
 70
     1
102
RTVSPropertyOp26
 70
     1
102
RTVSPropertyOp27
 70
     1
102
RTVSPropertyOp28
 70
     1
102
RTVSPropertyOp29
 70
     1
102
RTVSPropertyOp30
 70
     1
102
RTVSPropertyOp31
 70
     1
102
RTVSPropertyOp32
 70
     1
102
RTVSPropertyOp33
 70
     1
102
RTVSPropertyOp34
 70
     1
102
RTVSPropertyOp35
 70
     1
102
RTVSPropertyOp36
 70
     1
102
RTVSPropertyOp37
 70
     1
102
RTVSPropertyOp38
 70
     1
102
RTVSPropertyOp39
 70
     1
102
RTVSPropertyOp40
 70
     1
102
RTVSPropertyOp41
 70
     1
102
RTVSPropertyOp42
 70
     1
102
RTVSPropertyOp43
 70
     1
102
RTVSPropertyOp44
 70
     1
102
RTVSPropertyOp45
 70
     1
102
RTVSPropertyOp46
 70
     1
102
RTVSPropertyOp47
 70
     1
102
RTVSPropertyOp48
 70
     1
102
RTVSPropertyOp49
 70
     1
102
RTVSPropertyOp50
 70
     1
102
RTVSPropertyOp51
 70
     0
102
RTVSPropertyOp52
 70
     0
102
RTVSPropertyOp53
 70
     1
102
RTVSPropertyOp54
 70
     1
102
RTVSPropertyOp55
 70
     1
102
RTVSPropertyOp56
 70
     1
102
RTVSPropertyOp57
 70
     1
102
RTVSPropertyOp58
 70
     1
102
RTVSPropertyOp59
 70
     1
102
RTVSPropertyOp60
 70
     1
102
RTVSPropertyOp61
 70
     1
102
RTVSPropertyOp62
 70
     1
  0
XRECORD
  5
FA62
102
{ACAD_REACTORS
330
FA61
102
}
330
FA61
100
AcDbXrecord
280
     1
102
RTVSPost2010Prop28
280
     0
102
RTVSPost2010PropOp28
 70
     1
102
RTVSPost2010Prop29
280
     1
102
RTVSPost2010PropOp29
 70
     1
102
RTVSPost2010Prop30
280
     1
102
RTVSPost2010PropOp30
 70
     1
102
RTVSPost2010Prop31
280
     0
102
RTVSPost2010PropOp31
 70
     1
102
RTVSPost2010Prop32
280
     0
102
RTVSPost2010PropOp32
 70
     1
102
RTVSPost2010Prop33
280
     0
102
RTVSPost2010PropOp33
 70
     1
102
RTVSPost2010Prop34
280
     0
102
RTVSPost2010PropOp34
 70
     1
102
RTVSPost2010Prop35
280
     0
102
RTVSPost2010PropOp35
 70
     1
102
RTVSPost2010Prop36
280
     0
102
RTVSPost2010PropOp36
 70
     1
102
RTVSPost2010Prop37
 90
       50
102
RTVSPost2010PropOp37
 70
     1
102
RTVSPost2010Prop38
140
0.0
102
RTVSPost2010PropOp38
 70
     1
102
RTVSPost2010Prop39
140
1.0
102
RTVSPost2010PropOp39
 70
     1
102
RTVSPost2010Prop40
 90
        0
102
RTVSPost2010PropOp40
 70
     1
102
RTVSPost2010Prop41ColorIndex
 90
       18
102
RTVSPost2010Prop41ColorRGB
 90
        0
102
RTVSPost2010PropOp41
 70
     1
102
RTVSPost2010Prop42
 90
       50
102
RTVSPost2010PropOp42
 70
     1
102
RTVSPost2010Prop43
 90
        3
102
RTVSPost2010PropOp43
 70
     1
102
RTVSPost2010Prop44ColorIndex
 90
        5
102
RTVSPost2010Prop44ColorRGB
 90
      255
102
RTVSPost2010PropOp44
 70
     1
102
RTVSPost2010Prop45
280
     0
102
RTVSPost2010PropOp45
 70
     1
102
RTVSPost2010Prop46
 90
       50
102
RTVSPost2010PropOp46
 70
     1
102
RTVSPost2010Prop47
 90
       50
102
RTVSPost2010PropOp47
 70
     1
102
RTVSPost2010Prop48
 90
       50
102
RTVSPost2010PropOp48
 70
     1
102
RTVSPost2010Prop49
280
     0
102
RTVSPost2010PropOp49
 70
     1
102
RTVSPost2010Prop50
 90
       50
102
RTVSPost2010PropOp50
 70
     1
102
RTVSPost2010Prop51ColorIndex
 90
      256
102
RTVSPost2010Prop51ColorRGB
 90
-16777216
102
RTVSPost2010PropOp51
 70
     0
102
RTVSPost2010Prop52
140
1.0
102
RTVSPost2010PropOp52
 70
     0
102
RTVSPost2010Prop53
 90
        2
102
RTVSPost2010PropOp53
 70
     1
102
RTVSPost2010Prop54
  1
strokes_ogs.tif
102
RTVSPost2010PropOp54
 70
     1
102
RTVSPost2010Prop55
280
     0
102
RTVSPost2010PropOp55
 70
     1
102
RTVSPost2010Prop56
140
1.0
102
RTVSPost2010PropOp56
 70
     1
102
RTVSPost2010Prop57
140
1.0
102
RTVSPost2010PropOp57
 70
     1
102
RTVSPropertyOp0
 70
     1
102
RTVSPropertyOp1
 70
     1
102
RTVSPropertyOp2
 70
     1
102
RTVSPropertyOp3
 70
     1
102
RTVSPropertyOp4
 70
     1
102
RTVSPropertyOp5
 70
     1
102
RTVSPropertyOp6
 70
     1
102
RTVSPropertyOp7
 70
     1
102
RTVSPropertyOp8
 70
     1
102
RTVSPropertyOp9
 70
     1
102
RTVSPropertyOp10
 70
     1
102
RTVSPropertyOp11
 70
     1
102
RTVSPropertyOp12
 70
     1
102
RTVSPropertyOp13
 70
     1
102
RTVSPropertyOp14
 70
     1
102
RTVSPropertyOp15
 70
     1
102
RTVSPropertyOp16
 70
     1
102
RTVSPropertyOp17
 70
     1
102
RTVSPropertyOp18
 70
     1
102
RTVSPropertyOp19
 70
     1
102
RTVSPropertyOp20
 70
     1
102
RTVSPropertyOp21
 70
     1
102
RTVSPropertyOp22
 70
     1
102
RTVSPropertyOp23
 70
     1
102
RTVSPropertyOp24
 70
     1
102
RTVSPropertyOp25
 70
     1
102
RTVSPropertyOp26
 70
     1
102
RTVSPropertyOp27
 70
     1
102
RTVSPropertyOp28
 70
     1
102
RTVSPropertyOp29
 70
     1
102
RTVSPropertyOp30
 70
     1
102
RTVSPropertyOp31
 70
     1
102
RTVSPropertyOp32
 70
     1
102
RTVSPropertyOp33
 70
     1
102
RTVSPropertyOp34
 70
     1
102
RTVSPropertyOp35
 70
     1
102
RTVSPropertyOp36
 70
     1
102
RTVSPropertyOp37
 70
     1
102
RTVSPropertyOp38
 70
     1
102
RTVSPropertyOp39
 70
     1
102
RTVSPropertyOp40
 70
     1
102
RTVSPropertyOp41
 70
     1
102
RTVSPropertyOp42
 70
     1
102
RTVSPropertyOp43
 70
     1
102
RTVSPropertyOp44
 70
     1
102
RTVSPropertyOp45
 70
     1
102
RTVSPropertyOp46
 70
     1
102
RTVSPropertyOp47
 70
     1
102
RTVSPropertyOp48
 70
     1
102
RTVSPropertyOp49
 70
     1
102
RTVSPropertyOp50
 70
     1
102
RTVSPropertyOp51
 70
     0
102
RTVSPropertyOp52
 70
     0
102
RTVSPropertyOp53
 70
     1
102
RTVSPropertyOp54
 70
     1
102
RTVSPropertyOp55
 70
     1
102
RTVSPropertyOp56
 70
     1
102
RTVSPropertyOp57
 70
     1
102
RTVSPropertyOp58
 70
     1
102
RTVSPropertyOp59
 70
     1
102
RTVSPropertyOp60
 70
     1
102
RTVSPropertyOp61
 70
     1
102
RTVSPropertyOp62
 70
     1
  0
XRECORD
  5
FA50
102
{ACAD_REACTORS
330
FA4F
102
}
330
FA4F
100
AcDbXrecord
280
     1
102
RTVSPost2010Prop28
280
     0
102
RTVSPost2010PropOp28
 70
     1
102
RTVSPost2010Prop29
280
     1
102
RTVSPost2010PropOp29
 70
     1
102
RTVSPost2010Prop30
280
     1
102
RTVSPost2010PropOp30
 70
     1
102
RTVSPost2010Prop31
280
     0
102
RTVSPost2010PropOp31
 70
     1
102
RTVSPost2010Prop32
280
     0
102
RTVSPost2010PropOp32
 70
     1
102
RTVSPost2010Prop33
280
     0
102
RTVSPost2010PropOp33
 70
     1
102
RTVSPost2010Prop34
280
     0
102
RTVSPost2010PropOp34
 70
     1
102
RTVSPost2010Prop35
280
     0
102
RTVSPost2010PropOp35
 70
     1
102
RTVSPost2010Prop36
280
     0
102
RTVSPost2010PropOp36
 70
     1
102
RTVSPost2010Prop37
 90
       50
102
RTVSPost2010PropOp37
 70
     1
102
RTVSPost2010Prop38
140
0.0
102
RTVSPost2010PropOp38
 70
     1
102
RTVSPost2010Prop39
140
1.0
102
RTVSPost2010PropOp39
 70
     1
102
RTVSPost2010Prop40
 90
        0
102
RTVSPost2010PropOp40
 70
     1
102
RTVSPost2010Prop41ColorIndex
 90
       18
102
RTVSPost2010Prop41ColorRGB
 90
        0
102
RTVSPost2010PropOp41
 70
     1
102
RTVSPost2010Prop42
 90
       50
102
RTVSPost2010PropOp42
 70
     1
102
RTVSPost2010Prop43
 90
        3
102
RTVSPost2010PropOp43
 70
     1
102
RTVSPost2010Prop44ColorIndex
 90
        5
102
RTVSPost2010Prop44ColorRGB
 90
      255
102
RTVSPost2010PropOp44
 70
     1
102
RTVSPost2010Prop45
280
     0
102
RTVSPost2010PropOp45
 70
     1
102
RTVSPost2010Prop46
 90
       50
102
RTVSPost2010PropOp46
 70
     1
102
RTVSPost2010Prop47
 90
       50
102
RTVSPost2010PropOp47
 70
     1
102
RTVSPost2010Prop48
 90
       50
102
RTVSPost2010PropOp48
 70
     1
102
RTVSPost2010Prop49
280
     0
102
RTVSPost2010PropOp49
 70
     1
102
RTVSPost2010Prop50
 90
       50
102
RTVSPost2010PropOp50
 70
     1
102
RTVSPost2010Prop51ColorIndex
 90
      256
102
RTVSPost2010Prop51ColorRGB
 90
-16777216
102
RTVSPost2010PropOp51
 70
     0
102
RTVSPost2010Prop52
140
1.0
102
RTVSPost2010PropOp52
 70
     0
102
RTVSPost2010Prop53
 90
        2
102
RTVSPost2010PropOp53
 70
     1
102
RTVSPost2010Prop54
  1
strokes_ogs.tif
102
RTVSPost2010PropOp54
 70
     1
102
RTVSPost2010Prop55
280
     0
102
RTVSPost2010PropOp55
 70
     1
102
RTVSPost2010Prop56
140
1.0
102
RTVSPost2010PropOp56
 70
     1
102
RTVSPost2010Prop57
140
1.0
102
RTVSPost2010PropOp57
 70
     1
102
RTVSPropertyOp0
 70
     1
102
RTVSPropertyOp1
 70
     1
102
RTVSPropertyOp2
 70
     1
102
RTVSPropertyOp3
 70
     1
102
RTVSPropertyOp4
 70
     1
102
RTVSPropertyOp5
 70
     1
102
RTVSPropertyOp6
 70
     1
102
RTVSPropertyOp7
 70
     1
102
RTVSPropertyOp8
 70
     1
102
RTVSPropertyOp9
 70
     1
102
RTVSPropertyOp10
 70
     1
102
RTVSPropertyOp11
 70
     1
102
RTVSPropertyOp12
 70
     1
102
RTVSPropertyOp13
 70
     1
102
RTVSPropertyOp14
 70
     1
102
RTVSPropertyOp15
 70
     1
102
RTVSPropertyOp16
 70
     1
102
RTVSPropertyOp17
 70
     1
102
RTVSPropertyOp18
 70
     1
102
RTVSPropertyOp19
 70
     1
102
RTVSPropertyOp20
 70
     1
102
RTVSPropertyOp21
 70
     1
102
RTVSPropertyOp22
 70
     1
102
RTVSPropertyOp23
 70
     1
102
RTVSPropertyOp24
 70
     1
102
RTVSPropertyOp25
 70
     1
102
RTVSPropertyOp26
 70
     1
102
RTVSPropertyOp27
 70
     1
102
RTVSPropertyOp28
 70
     1
102
RTVSPropertyOp29
 70
     1
102
RTVSPropertyOp30
 70
     1
102
RTVSPropertyOp31
 70
     1
102
RTVSPropertyOp32
 70
     1
102
RTVSPropertyOp33
 70
     1
102
RTVSPropertyOp34
 70
     1
102
RTVSPropertyOp35
 70
     1
102
RTVSPropertyOp36
 70
     1
102
RTVSPropertyOp37
 70
     1
102
RTVSPropertyOp38
 70
     1
102
RTVSPropertyOp39
 70
     1
102
RTVSPropertyOp40
 70
     1
102
RTVSPropertyOp41
 70
     1
102
RTVSPropertyOp42
 70
     1
102
RTVSPropertyOp43
 70
     1
102
RTVSPropertyOp44
 70
     1
102
RTVSPropertyOp45
 70
     1
102
RTVSPropertyOp46
 70
     1
102
RTVSPropertyOp47
 70
     1
102
RTVSPropertyOp48
 70
     1
102
RTVSPropertyOp49
 70
     1
102
RTVSPropertyOp50
 70
     1
102
RTVSPropertyOp51
 70
     0
102
RTVSPropertyOp52
 70
     0
102
RTVSPropertyOp53
 70
     1
102
RTVSPropertyOp54
 70
     1
102
RTVSPropertyOp55
 70
     1
102
RTVSPropertyOp56
 70
     1
102
RTVSPropertyOp57
 70
     1
102
RTVSPropertyOp58
 70
     1
102
RTVSPropertyOp59
 70
     1
102
RTVSPropertyOp60
 70
     1
102
RTVSPropertyOp61
 70
     1
102
RTVSPropertyOp62
 70
     1
  0
XRECORD
  5
FA44
102
{ACAD_REACTORS
330
FA43
102
}
330
FA43
100
AcDbXrecord
280
     1
102
RTVSPost2010Prop28
280
     0
102
RTVSPost2010PropOp28
 70
     1
102
RTVSPost2010Prop29
280
     1
102
RTVSPost2010PropOp29
 70
     1
102
RTVSPost2010Prop30
280
     1
102
RTVSPost2010PropOp30
 70
     1
102
RTVSPost2010Prop31
280
     0
102
RTVSPost2010PropOp31
 70
     1
102
RTVSPost2010Prop32
280
     0
102
RTVSPost2010PropOp32
 70
     1
102
RTVSPost2010Prop33
280
     0
102
RTVSPost2010PropOp33
 70
     1
102
RTVSPost2010Prop34
280
     0
102
RTVSPost2010PropOp34
 70
     1
102
RTVSPost2010Prop35
280
     0
102
RTVSPost2010PropOp35
 70
     1
102
RTVSPost2010Prop36
280
     0
102
RTVSPost2010PropOp36
 70
     1
102
RTVSPost2010Prop37
 90
       50
102
RTVSPost2010PropOp37
 70
     1
102
RTVSPost2010Prop38
140
0.0
102
RTVSPost2010PropOp38
 70
     1
102
RTVSPost2010Prop39
140
1.0
102
RTVSPost2010PropOp39
 70
     1
102
RTVSPost2010Prop40
 90
        0
102
RTVSPost2010PropOp40
 70
     1
102
RTVSPost2010Prop41ColorIndex
 90
       18
102
RTVSPost2010Prop41ColorRGB
 90
        0
102
RTVSPost2010PropOp41
 70
     1
102
RTVSPost2010Prop42
 90
       50
102
RTVSPost2010PropOp42
 70
     1
102
RTVSPost2010Prop43
 90
        3
102
RTVSPost2010PropOp43
 70
     1
102
RTVSPost2010Prop44ColorIndex
 90
        5
102
RTVSPost2010Prop44ColorRGB
 90
      255
102
RTVSPost2010PropOp44
 70
     1
102
RTVSPost2010Prop45
280
     0
102
RTVSPost2010PropOp45
 70
     1
102
RTVSPost2010Prop46
 90
       50
102
RTVSPost2010PropOp46
 70
     1
102
RTVSPost2010Prop47
 90
       50
102
RTVSPost2010PropOp47
 70
     1
102
RTVSPost2010Prop48
 90
       50
102
RTVSPost2010PropOp48
 70
     1
102
RTVSPost2010Prop49
280
     0
102
RTVSPost2010PropOp49
 70
     1
102
RTVSPost2010Prop50
 90
       50
102
RTVSPost2010PropOp50
 70
     1
102
RTVSPost2010Prop51ColorIndex
 90
      256
102
RTVSPost2010Prop51ColorRGB
 90
-16777216
102
RTVSPost2010PropOp51
 70
     0
102
RTVSPost2010Prop52
140
1.0
102
RTVSPost2010PropOp52
 70
     0
102
RTVSPost2010Prop53
 90
        2
102
RTVSPost2010PropOp53
 70
     1
102
RTVSPost2010Prop54
  1
strokes_ogs.tif
102
RTVSPost2010PropOp54
 70
     1
102
RTVSPost2010Prop55
280
     0
102
RTVSPost2010PropOp55
 70
     1
102
RTVSPost2010Prop56
140
1.0
102
RTVSPost2010PropOp56
 70
     1
102
RTVSPost2010Prop57
140
1.0
102
RTVSPost2010PropOp57
 70
     1
102
RTVSPropertyOp0
 70
     1
102
RTVSPropertyOp1
 70
     1
102
RTVSPropertyOp2
 70
     1
102
RTVSPropertyOp3
 70
     1
102
RTVSPropertyOp4
 70
     1
102
RTVSPropertyOp5
 70
     1
102
RTVSPropertyOp6
 70
     1
102
RTVSPropertyOp7
 70
     1
102
RTVSPropertyOp8
 70
     1
102
RTVSPropertyOp9
 70
     1
102
RTVSPropertyOp10
 70
     1
102
RTVSPropertyOp11
 70
     1
102
RTVSPropertyOp12
 70
     1
102
RTVSPropertyOp13
 70
     1
102
RTVSPropertyOp14
 70
     1
102
RTVSPropertyOp15
 70
     1
102
RTVSPropertyOp16
 70
     1
102
RTVSPropertyOp17
 70
     1
102
RTVSPropertyOp18
 70
     1
102
RTVSPropertyOp19
 70
     1
102
RTVSPropertyOp20
 70
     1
102
RTVSPropertyOp21
 70
     1
102
RTVSPropertyOp22
 70
     1
102
RTVSPropertyOp23
 70
     1
102
RTVSPropertyOp24
 70
     1
102
RTVSPropertyOp25
 70
     1
102
RTVSPropertyOp26
 70
     1
102
RTVSPropertyOp27
 70
     1
102
RTVSPropertyOp28
 70
     1
102
RTVSPropertyOp29
 70
     1
102
RTVSPropertyOp30
 70
     1
102
RTVSPropertyOp31
 70
     1
102
RTVSPropertyOp32
 70
     1
102
RTVSPropertyOp33
 70
     1
102
RTVSPropertyOp34
 70
     1
102
RTVSPropertyOp35
 70
     1
102
RTVSPropertyOp36
 70
     1
102
RTVSPropertyOp37
 70
     1
102
RTVSPropertyOp38
 70
     1
102
RTVSPropertyOp39
 70
     1
102
RTVSPropertyOp40
 70
     1
102
RTVSPropertyOp41
 70
     1
102
RTVSPropertyOp42
 70
     1
102
RTVSPropertyOp43
 70
     1
102
RTVSPropertyOp44
 70
     1
102
RTVSPropertyOp45
 70
     1
102
RTVSPropertyOp46
 70
     1
102
RTVSPropertyOp47
 70
     1
102
RTVSPropertyOp48
 70
     1
102
RTVSPropertyOp49
 70
     1
102
RTVSPropertyOp50
 70
     1
102
RTVSPropertyOp51
 70
     0
102
RTVSPropertyOp52
 70
     0
102
RTVSPropertyOp53
 70
     1
102
RTVSPropertyOp54
 70
     1
102
RTVSPropertyOp55
 70
     1
102
RTVSPropertyOp56
 70
     1
102
RTVSPropertyOp57
 70
     1
102
RTVSPropertyOp58
 70
     1
102
RTVSPropertyOp59
 70
     1
102
RTVSPropertyOp60
 70
     1
102
RTVSPropertyOp61
 70
     1
102
RTVSPropertyOp62
 70
     1
  0
XRECORD
  5
FA64
102
{ACAD_REACTORS
330
FA63
102
}
330
FA63
100
AcDbXrecord
280
     1
102
RTVSPost2010Prop28
280
     0
102
RTVSPost2010PropOp28
 70
     1
102
RTVSPost2010Prop29
280
     1
102
RTVSPost2010PropOp29
 70
     1
102
RTVSPost2010Prop30
280
     1
102
RTVSPost2010PropOp30
 70
     1
102
RTVSPost2010Prop31
280
     0
102
RTVSPost2010PropOp31
 70
     1
102
RTVSPost2010Prop32
280
     0
102
RTVSPost2010PropOp32
 70
     1
102
RTVSPost2010Prop33
280
     0
102
RTVSPost2010PropOp33
 70
     1
102
RTVSPost2010Prop34
280
     0
102
RTVSPost2010PropOp34
 70
     1
102
RTVSPost2010Prop35
280
     0
102
RTVSPost2010PropOp35
 70
     1
102
RTVSPost2010Prop36
280
     0
102
RTVSPost2010PropOp36
 70
     1
102
RTVSPost2010Prop37
 90
       50
102
RTVSPost2010PropOp37
 70
     1
102
RTVSPost2010Prop38
140
0.0
102
RTVSPost2010PropOp38
 70
     1
102
RTVSPost2010Prop39
140
1.0
102
RTVSPost2010PropOp39
 70
     1
102
RTVSPost2010Prop40
 90
        0
102
RTVSPost2010PropOp40
 70
     1
102
RTVSPost2010Prop41ColorIndex
 90
       18
102
RTVSPost2010Prop41ColorRGB
 90
        0
102
RTVSPost2010PropOp41
 70
     1
102
RTVSPost2010Prop42
 90
       50
102
RTVSPost2010PropOp42
 70
     1
102
RTVSPost2010Prop43
 90
        3
102
RTVSPost2010PropOp43
 70
     1
102
RTVSPost2010Prop44ColorIndex
 90
        5
102
RTVSPost2010Prop44ColorRGB
 90
      255
102
RTVSPost2010PropOp44
 70
     1
102
RTVSPost2010Prop45
280
     0
102
RTVSPost2010PropOp45
 70
     1
102
RTVSPost2010Prop46
 90
       50
102
RTVSPost2010PropOp46
 70
     1
102
RTVSPost2010Prop47
 90
       50
102
RTVSPost2010PropOp47
 70
     1
102
RTVSPost2010Prop48
 90
       50
102
RTVSPost2010PropOp48
 70
     1
102
RTVSPost2010Prop49
280
     0
102
RTVSPost2010PropOp49
 70
     1
102
RTVSPost2010Prop50
 90
       50
102
RTVSPost2010PropOp50
 70
     1
102
RTVSPost2010Prop51ColorIndex
 90
      256
102
RTVSPost2010Prop51ColorRGB
 90
-16777216
102
RTVSPost2010PropOp51
 70
     0
102
RTVSPost2010Prop52
140
1.0
102
RTVSPost2010PropOp52
 70
     0
102
RTVSPost2010Prop53
 90
        2
102
RTVSPost2010PropOp53
 70
     1
102
RTVSPost2010Prop54
  1
strokes_ogs.tif
102
RTVSPost2010PropOp54
 70
     1
102
RTVSPost2010Prop55
280
     0
102
RTVSPost2010PropOp55
 70
     1
102
RTVSPost2010Prop56
140
1.0
102
RTVSPost2010PropOp56
 70
     1
102
RTVSPost2010Prop57
140
1.0
102
RTVSPost2010PropOp57
 70
     1
102
RTVSPropertyOp0
 70
     1
102
RTVSPropertyOp1
 70
     1
102
RTVSPropertyOp2
 70
     1
102
RTVSPropertyOp3
 70
     1
102
RTVSPropertyOp4
 70
     1
102
RTVSPropertyOp5
 70
     1
102
RTVSPropertyOp6
 70
     1
102
RTVSPropertyOp7
 70
     1
102
RTVSPropertyOp8
 70
     1
102
RTVSPropertyOp9
 70
     1
102
RTVSPropertyOp10
 70
     1
102
RTVSPropertyOp11
 70
     1
102
RTVSPropertyOp12
 70
     1
102
RTVSPropertyOp13
 70
     1
102
RTVSPropertyOp14
 70
     1
102
RTVSPropertyOp15
 70
     1
102
RTVSPropertyOp16
 70
     1
102
RTVSPropertyOp17
 70
     1
102
RTVSPropertyOp18
 70
     1
102
RTVSPropertyOp19
 70
     1
102
RTVSPropertyOp20
 70
     1
102
RTVSPropertyOp21
 70
     1
102
RTVSPropertyOp22
 70
     1
102
RTVSPropertyOp23
 70
     1
102
RTVSPropertyOp24
 70
     1
102
RTVSPropertyOp25
 70
     1
102
RTVSPropertyOp26
 70
     1
102
RTVSPropertyOp27
 70
     1
102
RTVSPropertyOp28
 70
     1
102
RTVSPropertyOp29
 70
     1
102
RTVSPropertyOp30
 70
     1
102
RTVSPropertyOp31
 70
     1
102
RTVSPropertyOp32
 70
     1
102
RTVSPropertyOp33
 70
     1
102
RTVSPropertyOp34
 70
     1
102
RTVSPropertyOp35
 70
     1
102
RTVSPropertyOp36
 70
     1
102
RTVSPropertyOp37
 70
     1
102
RTVSPropertyOp38
 70
     1
102
RTVSPropertyOp39
 70
     1
102
RTVSPropertyOp40
 70
     1
102
RTVSPropertyOp41
 70
     1
102
RTVSPropertyOp42
 70
     1
102
RTVSPropertyOp43
 70
     1
102
RTVSPropertyOp44
 70
     1
102
RTVSPropertyOp45
 70
     1
102
RTVSPropertyOp46
 70
     1
102
RTVSPropertyOp47
 70
     1
102
RTVSPropertyOp48
 70
     1
102
RTVSPropertyOp49
 70
     1
102
RTVSPropertyOp50
 70
     1
102
RTVSPropertyOp51
 70
     0
102
RTVSPropertyOp52
 70
     0
102
RTVSPropertyOp53
 70
     1
102
RTVSPropertyOp54
 70
     1
102
RTVSPropertyOp55
 70
     1
102
RTVSPropertyOp56
 70
     1
102
RTVSPropertyOp57
 70
     1
102
RTVSPropertyOp58
 70
     1
102
RTVSPropertyOp59
 70
     1
102
RTVSPropertyOp60
 70
     1
102
RTVSPropertyOp61
 70
     1
102
RTVSPropertyOp62
 70
     1
  0
ENDSEC
  0
EOF
