  0
SECTION
  2
HEADER
  9
$ACADVER
  1
AC1015
  9
$ACADMAINTVER
 70
    18
  9
$DWGCODEPAGE
  3
ANSI_1252
  9
$INSBASE
 10
0.0
 20
0.0
 30
0.0
  9
$EXTMIN
 10
-233.4494011493509
 20
-373.207763414839
 30
-0.0015258207003583
  9
$EXTMAX
 10
294.3063362807809
 20
333.5811774919056
 30
0.0000000349246037
  9
$LIMMIN
 10
0.0
 20
0.0
  9
$LIMMAX
 10
420.0
 20
297.0
  9
$ORTHOMODE
 70
     0
  9
$REGENMODE
 70
     1
  9
$FILLMODE
 70
     1
  9
$QTEXTMODE
 70
     0
  9
$MIRRTEXT
 70
     0
  9
$LTSCALE
 40
1.0
  9
$ATTMODE
 70
     1
  9
$TEXTSIZE
 40
2.5
  9
$TRACEWID
 40
1.0
  9
$TEXTSTYLE
  7
Standard
  9
$CLAYER
  8
0
  9
$CELTYPE
  6
ByLayer
  9
$CECOLOR
 62
   256
  9
$CELTSCALE
 40
1.0
  9
$DISPSILH
 70
     0
  9
$DIMSCALE
 40
1.0
  9
$DIMASZ
 40
2.5
  9
$DIMEXO
 40
0.625
  9
$DIMDLI
 40
3.75
  9
$DIMRND
 40
0.0
  9
$DIMDLE
 40
0.0
  9
$DIMEXE
 40
1.25
  9
$DIMTP
 40
0.0
  9
$DIMTM
 40
0.0
  9
$DIMTXT
 40
2.5
  9
$DIMCEN
 40
2.5
  9
$DIMTSZ
 40
0.0
  9
$DIMTOL
 70
     0
  9
$DIMLIM
 70
     0
  9
$DIMTIH
 70
     0
  9
$DIMTOH
 70
     0
  9
$DIMSE1
 70
     0
  9
$DIMSE2
 70
     0
  9
$DIMTAD
 70
     1
  9
$DIMZIN
 70
     8
  9
$DIMBLK
  1

  9
$DIMASO
 70
     1
  9
$DIMSHO
 70
     1
  9
$DIMPOST
  1

  9
$DIMAPOST
  1

  9
$DIMALT
 70
     0
  9
$DIMALTD
 70
     3
  9
$DIMALTF
 40
0.03937007874016
  9
$DIMLFAC
 40
1.0
  9
$DIMTOFL
 70
     1
  9
$DIMTVP
 40
0.0
  9
$DIMTIX
 70
     0
  9
$DIMSOXD
 70
     0
  9
$DIMSAH
 70
     0
  9
$DIMBLK1
  1

  9
$DIMBLK2
  1

  9
$DIMSTYLE
  2
ISO-25
  9
$DIMCLRD
 70
     0
  9
$DIMCLRE
 70
     0
  9
$DIMCLRT
 70
     0
  9
$DIMTFAC
 40
1.0
  9
$DIMGAP
 40
0.625
  9
$DIMJUST
 70
     0
  9
$DIMSD1
 70
     0
  9
$DIMSD2
 70
     0
  9
$DIMTOLJ
 70
     0
  9
$DIMTZIN
 70
     8
  9
$DIMALTZ
 70
     0
  9
$DIMALTTZ
 70
     0
  9
$DIMUPT
 70
     0
  9
$DIMDEC
 70
     2
  9
$DIMTDEC
 70
     2
  9
$DIMALTU
 70
     2
  9
$DIMALTTD
 70
     3
  9
$DIMTXSTY
  7
Standard
  9
$DIMAUNIT
 70
     0
  9
$DIMADEC
 70
     0
  9
$DIMALTRND
 40
0.0
  9
$DIMAZIN
 70
     0
  9
$DIMDSEP
 70
    44
  9
$DIMATFIT
 70
     3
  9
$DIMFRAC
 70
     0
  9
$DIMLDRBLK
  1

  9
$DIMLUNIT
 70
     2
  9
$DIMLWD
 70
    -2
  9
$DIMLWE
 70
    -2
  9
$DIMTMOVE
 70
     0
  9
$LUNITS
 70
     2
  9
$LUPREC
 70
     4
  9
$SKETCHINC
 40
1.0
  9
$FILLETRAD
 40
0.0
  9
$AUNITS
 70
     0
  9
$AUPREC
 70
     0
  9
$MENU
  1
.
  9
$ELEVATION
 40
0.0
  9
$PELEVATION
 40
0.0
  9
$THICKNESS
 40
0.0
  9
$LIMCHECK
 70
     0
  9
$CHAMFERA
 40
0.0
  9
$CHAMFERB
 40
0.0
  9
$CHAMFERC
 40
0.0
  9
$CHAMFERD
 40
0.0
  9
$SKPOLY
 70
     0
  9
$TDCREATE
 40
2460719.406504630
  9
$TDUCREATE
 40
2460719.114837963
  9
$TDUPDATE
 40
2460719.414976852
  9
$TDUUPDATE
 40
2460719.123310185
  9
$TDINDWG
 40
0.0025810185
  9
$TDUSRTIMER
 40
0.0025810185
  9
$USRTIMER
 70
     1
  9
$ANGBASE
 50
0.0
  9
$ANGDIR
 70
     0
  9
$PDMODE
 70
     0
  9
$PDSIZE
 40
0.0
  9
$PLINEWID
 40
0.0
  9
$SPLFRAME
 70
     0
  9
$SPLINETYPE
 70
     6
  9
$SPLINESEGS
 70
     8
  9
$HANDSEED
  5
F0FE
  9
$SURFTAB1
 70
     6
  9
$SURFTAB2
 70
     6
  9
$SURFTYPE
 70
     6
  9
$SURFU
 70
     6
  9
$SURFV
 70
     6
  9
$UCSBASE
  2

  9
$UCSNAME
  2

  9
$UCSORG
 10
0.0
 20
0.0
 30
0.0
  9
$UCSXDIR
 10
1.0
 20
0.0
 30
0.0
  9
$UCSYDIR
 10
0.0
 20
1.0
 30
0.0
  9
$UCSORTHOREF
  2

  9
$UCSORTHOVIEW
 70
     0
  9
$UCSORGTOP
 10
0.0
 20
0.0
 30
0.0
  9
$UCSORGBOTTOM
 10
0.0
 20
0.0
 30
0.0
  9
$UCSORGLEFT
 10
0.0
 20
0.0
 30
0.0
  9
$UCSORGRIGHT
 10
0.0
 20
0.0
 30
0.0
  9
$UCSORGFRONT
 10
0.0
 20
0.0
 30
0.0
  9
$UCSORGBACK
 10
0.0
 20
0.0
 30
0.0
  9
$PUCSBASE
  2

  9
$PUCSNAME
  2

  9
$PUCSORG
 10
0.0
 20
0.0
 30
0.0
  9
$PUCSXDIR
 10
1.0
 20
0.0
 30
0.0
  9
$PUCSYDIR
 10
0.0
 20
1.0
 30
0.0
  9
$PUCSORTHOREF
  2

  9
$PUCSORTHOVIEW
 70
     0
  9
$PUCSORGTOP
 10
0.0
 20
0.0
 30
0.0
  9
$PUCSORGBOTTOM
 10
0.0
 20
0.0
 30
0.0
  9
$PUCSORGLEFT
 10
0.0
 20
0.0
 30
0.0
  9
$PUCSORGRIGHT
 10
0.0
 20
0.0
 30
0.0
  9
$PUCSORGFRONT
 10
0.0
 20
0.0
 30
0.0
  9
$PUCSORGBACK
 10
0.0
 20
0.0
 30
0.0
  9
$USERI1
 70
     0
  9
$USERI2
 70
     0
  9
$USERI3
 70
     0
  9
$USERI4
 70
     0
  9
$USERI5
 70
     0
  9
$USERR1
 40
0.0
  9
$USERR2
 40
0.0
  9
$USERR3
 40
0.0
  9
$USERR4
 40
0.0
  9
$USERR5
 40
0.0
  9
$WORLDVIEW
 70
     1
  9
$SHADEDGE
 70
     3
  9
$SHADEDIF
 70
    70
  9
$TILEMODE
 70
     1
  9
$MAXACTVP
 70
    48
  9
$PINSBASE
 10
0.0
 20
0.0
 30
0.0
  9
$PLIMCHECK
 70
     0
  9
$PEXTMIN
 10
0.0
 20
0.0
 30
0.0
  9
$PEXTMAX
 10
0.0
 20
0.0
 30
0.0
  9
$PLIMMIN
 10
0.0
 20
0.0
  9
$PLIMMAX
 10
12.0
 20
9.0
  9
$UNITMODE
 70
     0
  9
$VISRETAIN
 70
     1
  9
$PLINEGEN
 70
     0
  9
$PSLTSCALE
 70
     1
  9
$TREEDEPTH
 70
  3020
  9
$CMLSTYLE
  2
Standard
  9
$CMLJUST
 70
     0
  9
$CMLSCALE
 40
20.0
  9
$PROXYGRAPHICS
 70
     1
  9
$MEASUREMENT
 70
     1
  9
$CELWEIGHT
370
    -1
  9
$ENDCAPS
280
     0
  9
$JOINSTYLE
280
     0
  9
$LWDISPLAY
290
     0
  9
$INSUNITS
 70
     4
  9
$HYPERLINKBASE
  1

  9
$STYLESHEET
  1

  9
$XEDIT
290
     1
  9
$CEPSNTYPE
380
     0
  9
$PSTYLEMODE
290
     1
  9
$FINGERPRINTGUID
  2
{375C693C-302E-BC42-B92A-19F6C371B7B0}
  9
$VERSIONGUID
  2
{80643036-32F3-234E-BDDC-E526D0306946}
  9
$EXTNAMES
290
     1
  9
$PSVPSCALE
 40
0.0
  9
$OLESTARTUP
290
     0
  0
ENDSEC
  0
SECTION
  2
CLASSES
  0
CLASS
  1
ACDBDICTIONARYWDFLT
  2
AcDbDictionaryWithDefault
  3
ObjectDBX Classes
 90
        0
280
     0
281
     0
  0
CLASS
  1
ACDBPLACEHOLDER
  2
AcDbPlaceHolder
  3
ObjectDBX Classes
 90
        0
280
     0
281
     0
  0
CLASS
  1
LAYOUT
  2
AcDbLayout
  3
ObjectDBX Classes
 90
        0
280
     0
281
     0
  0
CLASS
  1
DICTIONARYVAR
  2
AcDbDictionaryVar
  3
ObjectDBX Classes
 90
        0
280
     0
281
     0
  0
CLASS
  1
TABLESTYLE
  2
AcDbTableStyle
  3
ObjectDBX Classes
 90
     4095
280
     0
281
     0
  0
CLASS
  1
MATERIAL
  2
AcDbMaterial
  3
ObjectDBX Classes
 90
     1153
280
     0
281
     0
  0
CLASS
  1
VISUALSTYLE
  2
AcDbVisualStyle
  3
ObjectDBX Classes
 90
     4095
280
     0
281
     0
  0
CLASS
  1
SCALE
  2
AcDbScale
  3
ObjectDBX Classes
 90
     1153
280
     0
281
     0
  0
CLASS
  1
MLEADERSTYLE
  2
AcDbMLeaderStyle
  3
ACDB_MLEADERSTYLE_CLASS
 90
     4095
280
     0
281
     0
  0
CLASS
  1
CELLSTYLEMAP
  2
AcDbCellStyleMap
  3
ObjectDBX Classes
 90
     1152
280
     0
281
     0
  0
CLASS
  1
EXACXREFPANELOBJECT
  2
ExAcXREFPanelObject
  3
EXAC_ESW
 90
    33793
280
     0
281
     0
  0
CLASS
  1
NPOCOLLECTION
  2
AcDbImpNonPersistentObjectsCollection
  3
ObjectDBX Classes
 90
    33921
280
     0
281
     0
  0
CLASS
  1
LAYER_INDEX
  2
AcDbLayerIndex
  3
ObjectDBX Classes
 90
    32768
280
     0
281
     0
  0
CLASS
  1
SPATIAL_INDEX
  2
AcDbSpatialIndex
  3
ObjectDBX Classes
 90
    32768
280
     0
281
     0
  0
CLASS
  1
IDBUFFER
  2
AcDbIdBuffer
  3
ObjectDBX Classes
 90
    32768
280
     0
281
     0
  0
CLASS
  1
ACDBSECTIONVIEWSTYLE
  2
AcDbSectionViewStyle
  3
ObjectDBX Classes
 90
     1025
280
     0
281
     0
  0
CLASS
  1
ACDBDETAILVIEWSTYLE
  2
AcDbDetailViewStyle
  3
ObjectDBX Classes
 90
     1025
280
     0
281
     0
  0
CLASS
  1
XRECORD
  2
AcDbXrecord
  3
ObjectDBX Classes
 90
        0
280
     0
281
     0
  0
ENDSEC
  0
SECTION
  2
TABLES
  0
TABLE
  2
VPORT
  5
8
102
{ACAD_XDICTIONARY
360
F00C
102
}
330
0
100
AcDbSymbolTable
 70
     1
  0
VPORT
  5
EA
330
8
100
AcDbSymbolTableRecord
100
AcDbViewportTableRecord
  2
*Active
 70
     0
 10
0.0
 20
0.0
 11
1.0
 21
1.0
 12
30.42846756571498
 22
-19.81329296146674
 13
0.0
 23
0.0
 14
10.0
 24
10.0
 15
10.0
 25
10.0
 16
0.0
 26
0.0
 36
1.0
 17
0.0
 27
0.0
 37
0.0
 40
751.6059870968076
 41
0.9846153846153846
 42
50.0
 43
0.0
 44
0.0
 50
0.0
 51
0.0
 71
     0
 72
  1000
 73
     1
 74
     3
 75
     0
 76
     1
 77
     0
 78
     0
281
     0
 65
     1
110
0.0
120
0.0
130
0.0
111
1.0
121
0.0
131
0.0
112
0.0
122
1.0
132
0.0
 79
     0
146
0.0
1001
ACAD_NAV_VCDISPLAY
1070
     3
  0
ENDTAB
  0
TABLE
  2
LTYPE
  5
5
330
0
100
AcDbSymbolTable
 70
     1
  0
LTYPE
  5
14
330
5
100
AcDbSymbolTableRecord
100
AcDbLinetypeTableRecord
  2
ByBlock
 70
     0
  3

 72
    65
 73
     0
 40
0.0
  0
LTYPE
  5
15
330
5
100
AcDbSymbolTableRecord
100
AcDbLinetypeTableRecord
  2
ByLayer
 70
     0
  3

 72
    65
 73
     0
 40
0.0
  0
LTYPE
  5
16
330
5
100
AcDbSymbolTableRecord
100
AcDbLinetypeTableRecord
  2
Continuous
 70
     0
  3
Solid line
 72
    65
 73
     0
 40
0.0
  0
ENDTAB
  0
TABLE
  2
LAYER
  5
2
102
{ACAD_XDICTIONARY
360
1FF
102
}
330
0
100
AcDbSymbolTable
 70
     1
  0
LAYER
  5
10
102
{ACAD_XDICTIONARY
360
13C
102
}
330
2
100
AcDbSymbolTableRecord
100
AcDbLayerTableRecord
  2
0
 70
     0
 62
     7
  6
Continuous
370
    -3
390
F
  0
ENDTAB
  0
TABLE
  2
STYLE
  5
3
330
0
100
AcDbSymbolTable
 70
     1
  0
STYLE
  5
11
330
3
100
AcDbSymbolTableRecord
100
AcDbTextStyleTableRecord
  2
Standard
 70
     0
 40
0.0
 41
1.0
 50
0.0
 71
     0
 42
2.5
  3
arial.ttf
  4

1001
ACAD
1000
Arial
1071
       34
  0
ENDTAB
  0
TABLE
  2
VIEW
  5
6
330
0
100
AcDbSymbolTable
 70
     0
  0
ENDTAB
  0
TABLE
  2
UCS
  5
7
330
0
100
AcDbSymbolTable
 70
     0
  0
ENDTAB
  0
TABLE
  2
APPID
  5
9
330
0
100
AcDbSymbolTable
 70
     8
  0
APPID
  5
12
330
9
100
AcDbSymbolTableRecord
100
AcDbRegAppTableRecord
  2
ACAD
 70
     0
  0
APPID
  5
9E
330
9
100
AcDbSymbolTableRecord
100
AcDbRegAppTableRecord
  2
ACAD_PSEXT
 70
     0
  0
APPID
  5
133
330
9
100
AcDbSymbolTableRecord
100
AcDbRegAppTableRecord
  2
AcadAnnoPO
 70
     0
  0
APPID
  5
134
330
9
100
AcDbSymbolTableRecord
100
AcDbRegAppTableRecord
  2
AcadAnnotative
 70
     0
  0
APPID
  5
135
330
9
100
AcDbSymbolTableRecord
100
AcDbRegAppTableRecord
  2
ACAD_DSTYLE_DIMJAG
 70
     0
  0
APPID
  5
136
330
9
100
AcDbSymbolTableRecord
100
AcDbRegAppTableRecord
  2
ACAD_DSTYLE_DIMTALN
 70
     0
  0
APPID
  5
165
330
9
100
AcDbSymbolTableRecord
100
AcDbRegAppTableRecord
  2
ACAD_MLEADERVER
 70
     0
  0
APPID
  5
217
330
9
100
AcDbSymbolTableRecord
100
AcDbRegAppTableRecord
  2
ACAD_NAV_VCDISPLAY
 70
     0
  0
ENDTAB
  0
TABLE
  2
DIMSTYLE
  5
A
330
0
100
AcDbSymbolTable
 70
     1
100
AcDbDimStyleTable
 71
     0
  0
DIMSTYLE
105
27
330
A
100
AcDbSymbolTableRecord
100
AcDbDimStyleTableRecord
  2
ISO-25
 70
     0
 41
2.5
 42
0.625
 43
3.75
 44
1.25
 73
     0
 74
     0
 77
     1
 78
     8
140
2.5
141
2.5
143
0.03937007874016
147
0.625
171
     3
172
     1
271
     2
272
     2
274
     3
278
    44
283
     0
284
     8
340
11
  0
ENDTAB
  0
TABLE
  2
BLOCK_RECORD
  5
1
330
0
100
AcDbSymbolTable
 70
     7
  0
BLOCK_RECORD
  5
1F
102
{ACAD_XDICTIONARY
360
1CE
102
}
330
1
100
AcDbSymbolTableRecord
100
AcDbBlockTableRecord
  2
*Model_Space
340
22
  0
BLOCK_RECORD
  5
D2
102
{ACAD_XDICTIONARY
360
EFBF
102
}
330
1
100
AcDbSymbolTableRecord
100
AcDbBlockTableRecord
  2
*Paper_Space
340
D3
  0
BLOCK_RECORD
  5
D6
102
{ACAD_XDICTIONARY
360
EFC1
102
}
330
1
100
AcDbSymbolTableRecord
100
AcDbBlockTableRecord
  2
*Paper_Space0
340
D7
  0
BLOCK_RECORD
  5
ED26
330
1
100
AcDbSymbolTableRecord
100
AcDbBlockTableRecord
  2
SPR76_180-Front
340
0
102
{BLKREFS
331
EFB5
102
}
  0
BLOCK_RECORD
  5
ED9C
330
1
100
AcDbSymbolTableRecord
100
AcDbBlockTableRecord
  2
SPR76_180-Left
340
0
102
{BLKREFS
331
EFB6
102
}
  0
BLOCK_RECORD
  5
EDD7
330
1
100
AcDbSymbolTableRecord
100
AcDbBlockTableRecord
  2
SPR76_180-Right
340
0
102
{BLKREFS
331
EFB7
102
}
  0
BLOCK_RECORD
  5
EE14
330
1
100
AcDbSymbolTableRecord
100
AcDbBlockTableRecord
  2
SPR76_180-Top
340
0
102
{BLKREFS
331
EFB8
102
}
  0
BLOCK_RECORD
  5
EE70
330
1
100
AcDbSymbolTableRecord
100
AcDbBlockTableRecord
  2
SPR76_180-Bottom
340
0
102
{BLKREFS
331
EFB9
102
}
  0
BLOCK_RECORD
  5
EEC0
330
1
100
AcDbSymbolTableRecord
100
AcDbBlockTableRecord
  2
SPR76_180-ISO
340
0
102
{BLKREFS
331
EFBA
102
}
  0
ENDTAB
  0
ENDSEC
  0
SECTION
  2
BLOCKS
  0
BLOCK
  5
20
330
1F
100
AcDbEntity
  8
0
100
AcDbBlockBegin
  2
*Model_Space
 70
     0
 10
0.0
 20
0.0
 30
0.0
  3
*Model_Space
  1

  0
ENDBLK
  5
21
330
1F
100
AcDbEntity
  8
0
100
AcDbBlockEnd
  0
BLOCK
  5
D4
330
D2
100
AcDbEntity
 67
     1
  8
0
100
AcDbBlockBegin
  2
*Paper_Space
 70
     0
 10
0.0
 20
0.0
 30
0.0
  3
*Paper_Space
  1

  0
ENDBLK
  5
D5
330
D2
100
AcDbEntity
 67
     1
  8
0
100
AcDbBlockEnd
  0
BLOCK
  5
D8
330
D6
100
AcDbEntity
 67
     1
  8
0
100
AcDbBlockBegin
  2
*Paper_Space0
 70
     0
 10
0.0
 20
0.0
 30
0.0
  3
*Paper_Space0
  1

  0
ENDBLK
  5
D9
330
D6
100
AcDbEntity
 67
     1
  8
0
100
AcDbBlockEnd
  0
BLOCK
  5
ED27
330
ED26
100
AcDbEntity
  8
0
100
AcDbBlockBegin
  2
SPR76_180-Front
 70
     0
 10
0.0
 20
0.0
 30
0.0
  3
SPR76_180-Front
  1

  0
LINE
  5
ED29
330
ED26
100
AcDbEntity
  8
0
100
AcDbLine
 10
80.52709056099997
 20
6.270000000000004
 30
0.0
 11
75.52709056099998
 21
1.270000000000004
 31
0.0
  0
LINE
  5
ED2A
330
ED26
100
AcDbEntity
  8
0
100
AcDbLine
 10
-75.52709056100001
 20
1.270000000000004
 30
0.0
 11
-80.52709056100001
 21
6.270000000000004
 31
0.0
  0
LINE
  5
ED2B
330
ED26
100
AcDbEntity
  8
0
100
AcDbLine
 10
-80.52709056100001
 20
72.27000000000002
 30
0.0
 11
-75.52709056100002
 21
77.27000000000002
 31
0.0
  0
LINE
  5
ED2C
330
ED26
100
AcDbEntity
  8
0
100
AcDbLine
 10
75.52709056099996
 20
77.27000000000001
 30
0.0
 11
80.52709056099997
 21
72.27000000000001
 31
0.0
  0
LINE
  5
ED2D
330
ED26
100
AcDbEntity
  8
0
100
AcDbLine
 10
80.52709056099997
 20
72.27000000000001
 30
0.0
 11
80.52709056099997
 21
6.270000000000006
 31
0.0
  0
LINE
  5
ED2E
330
ED26
100
AcDbEntity
  8
0
100
AcDbLine
 10
-80.52709056100001
 20
6.270000000000004
 30
0.0
 11
-80.52709056100001
 21
72.27000000000002
 31
0.0
  0
LINE
  5
ED2F
330
ED26
100
AcDbEntity
  8
0
100
AcDbLine
 10
34.49999999999999
 20
77.27000000000001
 30
0.0
 11
75.52709056099996
 21
77.27000000000001
 31
0.0
  0
LINE
  5
ED30
330
ED26
100
AcDbEntity
  8
0
100
AcDbLine
 10
-34.50000000000002
 20
1.269999999999996
 30
0.0
 11
-75.52709056100001
 21
1.270000000000004
 31
0.0
  0
LINE
  5
ED31
330
ED26
100
AcDbEntity
  8
0
100
AcDbLine
 10
75.52709056099998
 20
1.270000000000004
 30
0.0
 11
34.49999999999997
 21
1.269999999999996
 31
0.0
  0
ARC
  5
ED32
330
ED26
100
AcDbEntity
  8
0
100
AcDbCircle
 10
34.49999999999999
 20
78.77000000000004
 30
0.0
 40
1.5
100
AcDbArc
 50
90.00000000000033
 51
269.9999999999997
  0
LINE
  5
ED33
330
ED26
100
AcDbEntity
  8
0
100
AcDbLine
 10
-75.52709056100002
 20
77.27000000000002
 30
0.0
 11
-34.50000000000002
 21
77.27000000000002
 31
0.0
  0
ARC
  5
ED34
330
ED26
100
AcDbEntity
  8
0
100
AcDbCircle
 10
-34.50000000000002
 20
78.77000000000002
 30
0.0
 40
1.5
100
AcDbArc
 50
270.0
 51
90.0
  0
LINE
  5
ED35
330
ED26
100
AcDbEntity
  8
0
100
AcDbLine
 10
39.50000000000022
 20
80.27000000000004
 30
0.0
 11
39.50000000000024
 21
85.27000000000004
 31
0.0
  0
LINE
  5
ED36
330
ED26
100
AcDbEntity
  8
0
100
AcDbLine
 10
39.50000000000024
 20
85.27000000000004
 30
0.0
 11
38.00000000000024
 21
85.27000000000004
 31
0.0
  0
LINE
  5
ED37
330
ED26
100
AcDbEntity
  8
0
100
AcDbLine
 10
38.00000000000024
 20
85.27000000000004
 30
0.0
 11
38.00000000000022
 21
80.27000000000004
 31
0.0
  0
LINE
  5
ED38
330
ED26
100
AcDbEntity
  8
0
100
AcDbLine
 10
38.00000000000022
 20
80.27000000000004
 30
0.0
 11
39.50000000000022
 21
80.27000000000004
 31
0.0
  0
LINE
  5
ED39
330
ED26
100
AcDbEntity
  8
0
100
AcDbLine
 10
38.00000000000024
 20
175.67
 30
0.0
 11
39.50000000000024
 21
175.67
 31
0.0
  0
LINE
  5
ED3A
330
ED26
100
AcDbEntity
  8
0
100
AcDbLine
 10
39.50000000000024
 20
175.67
 30
0.0
 11
39.50000000000022
 21
180.67
 31
0.0
  0
LINE
  5
ED3B
330
ED26
100
AcDbEntity
  8
0
100
AcDbLine
 10
-39.50000000000001
 20
85.27000000000001
 30
0.0
 11
-39.50000000000001
 21
80.27000000000004
 31
0.0
  0
LINE
  5
ED3C
330
ED26
100
AcDbEntity
  8
0
100
AcDbLine
 10
-39.50000000000001
 20
80.27000000000004
 30
0.0
 11
-38.00000000000002
 21
80.27000000000004
 31
0.0
  0
LINE
  5
ED3D
330
ED26
100
AcDbEntity
  8
0
100
AcDbLine
 10
-38.00000000000002
 20
80.27000000000004
 30
0.0
 11
-38.00000000000002
 21
85.27000000000001
 31
0.0
  0
LINE
  5
ED3E
330
ED26
100
AcDbEntity
  8
0
100
AcDbLine
 10
-38.00000000000002
 20
85.27000000000001
 30
0.0
 11
-39.50000000000001
 21
85.27000000000001
 31
0.0
  0
LINE
  5
ED3F
330
ED26
100
AcDbEntity
  8
0
100
AcDbLine
 10
-39.50000000000001
 20
180.67
 30
0.0
 11
-39.50000000000001
 21
175.67
 31
0.0
  0
LINE
  5
ED40
330
ED26
100
AcDbEntity
  8
0
100
AcDbLine
 10
-39.50000000000001
 20
175.67
 30
0.0
 11
-38.00000000000002
 21
175.67
 31
0.0
  0
LINE
  5
ED41
330
ED26
100
AcDbEntity
  8
0
100
AcDbLine
 10
39.50000000000022
 20
180.67
 30
0.0
 11
38.00000000000022
 21
180.67
 31
0.0
  0
LINE
  5
ED42
330
ED26
100
AcDbEntity
  8
0
100
AcDbLine
 10
38.00000000000022
 20
180.67
 30
0.0
 11
38.00000000000024
 21
175.67
 31
0.0
  0
LINE
  5
ED43
330
ED26
100
AcDbEntity
  8
0
100
AcDbLine
 10
-38.00000000000002
 20
175.67
 30
0.0
 11
-38.00000000000002
 21
180.67
 31
0.0
  0
LINE
  5
ED44
330
ED26
100
AcDbEntity
  8
0
100
AcDbLine
 10
-38.00000000000002
 20
180.67
 30
0.0
 11
-39.50000000000001
 21
180.67
 31
0.0
  0
LINE
  5
ED45
330
ED26
100
AcDbEntity
  8
0
100
AcDbLine
 10
39.49999999999997
 20
-28.42608254450006
 30
0.0
 11
39.49999999999999
 21
-21.35501473263461
 31
0.0
  0
LINE
  5
ED46
330
ED26
100
AcDbEntity
  8
0
100
AcDbLine
 10
39.49999999999999
 20
-21.35501473263461
 30
0.0
 11
37.99999999999999
 21
-21.35501473263462
 31
0.0
  0
LINE
  5
ED47
330
ED26
100
AcDbEntity
  8
0
100
AcDbLine
 10
37.99999999999999
 20
-21.35501473263462
 30
0.0
 11
37.99999999999999
 21
-28.42608254450006
 31
0.0
  0
LINE
  5
ED48
330
ED26
100
AcDbEntity
  8
0
100
AcDbLine
 10
37.99999999999999
 20
-28.42608254450006
 30
0.0
 11
39.49999999999997
 21
-28.42608254450006
 31
0.0
  0
LINE
  5
ED49
330
ED26
100
AcDbEntity
  8
0
100
AcDbLine
 10
-39.49999999999999
 20
-21.35501473263462
 30
0.0
 11
-39.49999999999997
 21
-28.42608254450007
 31
0.0
  0
LINE
  5
ED4A
330
ED26
100
AcDbEntity
  8
0
100
AcDbLine
 10
-39.49999999999997
 20
-28.42608254450007
 30
0.0
 11
-37.99999999999999
 21
-28.42608254450007
 31
0.0
  0
LINE
  5
ED4B
330
ED26
100
AcDbEntity
  8
0
100
AcDbLine
 10
-37.99999999999999
 20
-28.42608254450007
 30
0.0
 11
-37.99999999999999
 21
-21.35501473263462
 31
0.0
  0
LINE
  5
ED4C
330
ED26
100
AcDbEntity
  8
0
100
AcDbLine
 10
-37.99999999999999
 20
-21.35501473263462
 30
0.0
 11
-39.49999999999999
 21
-21.35501473263462
 31
0.0
  0
LINE
  5
ED4D
330
ED26
100
AcDbEntity
  8
0
100
AcDbLine
 10
39.50000000000024
 20
85.27000000000004
 30
0.0
 11
39.50000000000024
 21
175.67
 31
0.0
  0
LINE
  5
ED4E
330
ED26
100
AcDbEntity
  8
0
100
AcDbLine
 10
38.00000000000024
 20
175.67
 30
0.0
 11
38.00000000000024
 21
85.27000000000004
 31
0.0
  0
LINE
  5
ED4F
330
ED26
100
AcDbEntity
  8
0
100
AcDbLine
 10
-39.50000000000001
 20
175.67
 30
0.0
 11
-39.50000000000001
 21
85.27000000000001
 31
0.0
  0
LINE
  5
ED50
330
ED26
100
AcDbEntity
  8
0
100
AcDbLine
 10
-38.00000000000002
 20
175.67
 30
0.0
 11
-38.00000000000002
 21
85.27000000000001
 31
0.0
  0
LINE
  5
ED51
330
ED26
100
AcDbEntity
  8
0
100
AcDbLine
 10
34.49999999999999
 20
80.27000000000004
 30
0.0
 11
37.40000000000001
 21
80.27000000000004
 31
0.0
  0
LINE
  5
ED52
330
ED26
100
AcDbEntity
  8
0
100
AcDbLine
 10
-37.40000000000001
 20
80.27000000000004
 30
0.0
 11
-34.50000000000002
 21
80.27000000000001
 31
0.0
  0
LINE
  5
ED53
330
ED26
100
AcDbEntity
  8
0
100
AcDbLine
 10
-37.40000000000001
 20
180.67
 30
0.0
 11
37.40000000000001
 21
180.67
 31
0.0
  0
LINE
  5
ED54
330
ED26
100
AcDbEntity
  8
0
100
AcDbLine
 10
39.50000000000251
 20
-2.263131642256548
 30
0.0
 11
39.49999999999999
 21
-21.35501473263461
 31
0.0
  0
LINE
  5
ED55
330
ED26
100
AcDbEntity
  8
0
100
AcDbLine
 10
38.00000000000217
 20
-2.263131642256547
 30
0.0
 11
37.99999999999999
 21
-21.35501473263462
 31
0.0
  0
ELLIPSE
  5
ED56
330
ED26
100
AcDbEntity
  8
0
100
AcDbEllipse
 10
37.39999999999999
 20
-54.16476937947049
 30
0.0
 11
0.6000000000000087
 21
0.0000000000000545
 31
0.0
210
0.0
220
0.0
230
1.0
 40
0.7071067811864884
 41
4.712388980384559
 42
6.283185307179607
  0
ELLIPSE
  5
ED57
330
ED26
100
AcDbEntity
  8
0
100
AcDbEllipse
 10
37.39999999999999
 20
-54.16476937947049
 30
0.0
 11
2.100000000000031
 21
0.0000000000001776
 31
0.0
210
0.0
220
0.0
230
1.0
 40
0.7071067811865484
 41
4.712388980384766
 42
6.283185307179861
  0
LINE
  5
ED58
330
ED26
100
AcDbEntity
  8
0
100
AcDbLine
 10
39.50000000000251
 20
-2.263131642256548
 30
0.0
 11
38.00000000000217
 21
-2.263131642256547
 31
0.0
  0
SPLINE
  5
ED59
330
ED26
100
AcDbEntity
  8
0
100
AcDbSpline
210
0.0
220
0.0
230
1.0
 70
     8
 71
     3
 72
     8
 73
     4
 74
     0
 42
0.000000001
 43
0.0000000001
 40
-1.0
 40
-1.0
 40
-1.0
 40
-1.0
 40
0.0
 40
0.0
 40
0.0
 40
0.0
 10
-33.01767776087199
 20
-0.0003899405809416
 30
0.0
 10
-32.97251992073986
 20
-0.1594792109354198
 30
0.0
 10
-33.01586474390134
 20
-0.3214850446752912
 30
0.0
 10
-33.14054197002049
 20
-0.4246540092928708
 30
0.0
  0
SPLINE
  5
ED5A
330
ED26
100
AcDbEntity
  8
0
100
AcDbSpline
210
0.0
220
0.0
230
1.0
 70
     8
 71
     3
 72
     8
 73
     4
 74
     0
 42
0.000000001
 43
0.0000000001
 40
-1.0
 40
-1.0
 40
-1.0
 40
-1.0
 40
0.0
 40
0.0
 40
0.0
 40
0.0
 10
33.14054197002042
 20
-0.4246540092928708
 30
0.0
 10
33.01586474390262
 20
-0.321485044675294
 30
0.0
 10
32.97251992073892
 20
-0.1594792109354182
 30
0.0
 10
33.01767776087195
 20
-0.0003899405809417
 30
0.0
  0
ELLIPSE
  5
ED5B
330
ED26
100
AcDbEntity
  8
0
100
AcDbEllipse
 10
-34.50000000000002
 20
0.0236058844764151
 30
0.0
 11
-1.5
 21
0.0000000000001095
 31
0.0
210
0.0
220
0.0
230
1.0
 40
0.7071067811865479
 41
1.570796326795022
 42
2.705254581962133
  0
LINE
  5
ED5C
330
ED26
100
AcDbEntity
  8
0
100
AcDbLine
 10
-34.50000000000002
 20
-1.037054287303404
 30
0.0
 11
-36.79315533855962
 21
-1.037054287303378
 31
0.0
  0
LINE
  5
ED5D
330
ED26
100
AcDbEntity
  8
0
100
AcDbLine
 10
-36.79315533855962
 20
-1.037054287303378
 30
0.0
 11
-37.40000000000002
 21
-1.466158262545941
 31
0.0
  0
LINE
  5
ED5E
330
ED26
100
AcDbEntity
  8
0
100
AcDbLine
 10
37.39999999999998
 20
-1.46615826254595
 30
0.0
 11
36.79315533855959
 21
-1.037054287303388
 31
0.0
  0
LINE
  5
ED5F
330
ED26
100
AcDbEntity
  8
0
100
AcDbLine
 10
36.79315533855959
 20
-1.037054287303388
 30
0.0
 11
34.49999999999998
 21
-1.037054287303412
 31
0.0
  0
ELLIPSE
  5
ED60
330
ED26
100
AcDbEntity
  8
0
100
AcDbEllipse
 10
34.49999999999998
 20
0.0236058844764151
 30
0.0
 11
-1.5
 21
0.0
 31
0.0
210
0.0
220
0.0
230
1.0
 40
0.7071067811865479
 41
0.4363380716279153
 42
1.570796326794896
  0
LINE
  5
ED61
330
ED26
100
AcDbEntity
  8
0
100
AcDbLine
 10
-38.00000000000501
 20
-2.263131642256721
 30
0.0
 11
-39.50000000000589
 21
-2.263131642256721
 31
0.0
  0
SPLINE
  5
ED62
330
ED26
100
AcDbEntity
  8
0
100
AcDbSpline
210
0.0
220
0.0
230
1.0
 70
     8
 71
     3
 72
     8
 73
     4
 74
     0
 42
0.000000001
 43
0.0000000001
 40
-1.0
 40
-1.0
 40
-1.0
 40
-1.0
 40
0.0
 40
0.0
 40
0.0
 40
0.0
 10
-37.40000000000002
 20
-1.466158262545935
 30
0.0
 10
-37.71415926535902
 20
-1.873237411765132
 30
0.0
 10
-38.00000000000005
 20
-2.078196639180625
 30
0.0
 10
-38.00000000000009
 20
-2.263131641492168
 30
0.0
  0
ARC
  5
ED63
330
ED26
100
AcDbEntity
  8
0
100
AcDbCircle
 10
-34.50000000000002
 20
-0.2299999999999897
 30
0.0
 40
1.5
100
AcDbArc
 50
8.805075259701395
 51
90.0
  0
SPLINE
  5
ED64
330
ED26
100
AcDbEntity
  8
0
100
AcDbSpline
210
0.0
220
0.0
230
1.0
 70
     8
 71
     3
 72
     8
 73
     4
 74
     0
 42
0.000000001
 43
0.0000000001
 40
-0.9999999999999944
 40
-0.9999999999999944
 40
-0.9999999999999944
 40
-0.9999999999999944
 40
0.0
 40
0.0
 40
0.0
 40
0.0
 10
38.0
 20
-2.263131641492159
 30
0.0
 10
37.99999999999999
 20
-2.0781966391807
 30
0.0
 10
37.71415926535897
 20
-1.873237411765751
 30
0.0
 10
37.39999999999998
 20
-1.466158262545917
 30
0.0
  0
ARC
  5
ED65
330
ED26
100
AcDbEntity
  8
0
100
AcDbCircle
 10
34.49999999999998
 20
-0.2299999999999897
 30
0.0
 40
1.5
100
AcDbArc
 50
90.0
 51
171.1949247402986
  0
SPLINE
  5
ED66
330
ED26
100
AcDbEntity
  8
0
100
AcDbSpline
210
0.0
220
0.0
230
1.0
 70
     8
 71
     3
 72
    16
 73
    12
 74
     0
 42
0.000000001
 43
0.0000000001
 40
0.0
 40
0.0
 40
0.0
 40
0.0
 40
0.035653724734125
 40
0.035653724734125
 40
0.0703704956550773
 40
0.0703704956550773
 40
0.1051345640230118
 40
0.1051345640230118
 40
0.1398962718778879
 40
0.1398962718778879
 40
0.1538885733137174
 40
0.1538885733137174
 40
0.1538885733137174
 40
0.1538885733137174
 10
-38.49950000000031
 20
-2.263131641492208
 30
0.0
 10
-38.49949999999971
 20
-2.263131641490645
 30
0.0
 10
-38.47955867539018
 20
-2.263059951014886
 30
0.0
 10
-38.40583172165544
 20
-2.250836451203865
 30
0.0
 10
-38.35213458022519
 20
-2.238741830448684
 30
0.0
 10
-38.22293730422775
 20
-2.194102190357996
 30
0.0
 10
-38.14591985426312
 20
-2.160888677188631
 30
0.0
 10
-37.98574064082533
 20
-2.06947920252538
 30
0.0
 10
-37.90073655250547
 20
-2.010107098186006
 30
0.0
 10
-37.78901418343618
 20
-1.909831885098023
 30
0.0
 10
-37.75758437989681
 20
-1.878943669845823
 30
0.0
 10
-37.72742155524388
 20
-1.846191951394233
 30
0.0
  0
SPLINE
  5
ED67
330
ED26
100
AcDbEntity
  8
0
100
AcDbSpline
210
0.0
220
0.0
230
1.0
 70
     8
 71
     3
 72
    16
 73
    12
 74
     0
 42
0.000000001
 43
0.0000000001
 40
0.0
 40
0.0
 40
0.0
 40
0.0
 40
0.0356266149270551
 40
0.0356266149270551
 40
0.0703447701745
 40
0.0703447701745
 40
0.1051087694930954
 40
0.1051087694930954
 40
0.1398704807986375
 40
0.1398704807986375
 40
0.1538888647030875
 40
0.1538888647030875
 40
0.1538888647030875
 40
0.1538888647030875
 10
37.72742155524384
 20
-1.846191951394234
 30
0.0
 10
37.80422088264191
 20
-1.929583012316285
 30
0.0
 10
37.88999615127202
 20
-2.001172959708452
 30
0.0
 10
38.05564046637957
 20
-2.113266523240792
 30
0.0
 10
38.1375026164549
 20
-2.155953002258854
 30
0.0
 10
38.28182181887568
 20
-2.217016702978999
 30
0.0
 10
38.34591305086213
 20
-2.236189491802571
 30
0.0
 10
38.44238223263321
 20
-2.258395304183657
 30
0.0
 10
38.47587215055638
 20
-2.261811174865864
 30
0.0
 10
38.49650501536093
 20
-2.263130971916382
 30
0.0
 10
38.49949999999984
 20
-2.263131641491563
 30
0.0
 10
38.49949999999999
 20
-2.263131641492173
 30
0.0
  0
LINE
  5
ED68
330
ED26
100
AcDbEntity
  8
0
100
AcDbLine
 10
39.49999999999999
 20
-54.16476937947051
 30
0.0
 11
39.49999999999997
 21
-28.42608254450006
 31
0.0
  0
LINE
  5
ED69
330
ED26
100
AcDbEntity
  8
0
100
AcDbLine
 10
-39.49999999999997
 20
-28.42608254450007
 30
0.0
 11
-39.5
 21
-54.16476937947051
 31
0.0
  0
LINE
  5
ED6A
330
ED26
100
AcDbEntity
  8
0
100
AcDbLine
 10
-37.99999999999999
 20
-28.42608254450007
 30
0.0
 11
-38.0
 21
-54.16476937947051
 31
0.0
  0
LINE
  5
ED6B
330
ED26
100
AcDbEntity
  8
0
100
AcDbLine
 10
-37.4
 20
-54.58903344818242
 30
0.0
 11
37.39999999999999
 21
-54.58903344818242
 31
0.0
  0
LINE
  5
ED6C
330
ED26
100
AcDbEntity
  8
0
100
AcDbLine
 10
37.99999999999999
 20
-54.16476937947051
 30
0.0
 11
37.99999999999999
 21
-28.42608254450006
 31
0.0
  0
LINE
  5
ED6D
330
ED26
100
AcDbEntity
  8
0
100
AcDbLine
 10
-37.4
 20
-55.64969361996225
 30
0.0
 11
37.39999999999999
 21
-55.64969361996225
 31
0.0
  0
LINE
  5
ED6E
330
ED26
100
AcDbEntity
  8
0
100
AcDbLine
 10
-39.50000000000589
 20
-2.263131642256721
 30
0.0
 11
-39.49999999999999
 21
-21.35501473263462
 31
0.0
  0
LINE
  5
ED6F
330
ED26
100
AcDbEntity
  8
0
100
AcDbLine
 10
-38.00000000000501
 20
-2.263131642256721
 30
0.0
 11
-37.99999999999999
 21
-21.35501473263462
 31
0.0
  0
CIRCLE
  5
ED70
330
ED26
100
AcDbEntity
  8
0
100
AcDbCircle
 10
27.99999999999998
 20
149.77
 30
0.0
 40
2.5
  0
CIRCLE
  5
ED71
330
ED26
100
AcDbEntity
  8
0
100
AcDbCircle
 10
27.99999999999998
 20
109.7699999999999
 30
0.0
 40
2.5
  0
CIRCLE
  5
ED72
330
ED26
100
AcDbEntity
  8
0
100
AcDbCircle
 10
27.99999999999998
 20
69.76999999999998
 30
0.0
 40
2.5
  0
CIRCLE
  5
ED73
330
ED26
100
AcDbEntity
  8
0
100
AcDbCircle
 10
27.99999999999998
 20
29.76999999999998
 30
0.0
 40
2.5
  0
CIRCLE
  5
ED74
330
ED26
100
AcDbEntity
  8
0
100
AcDbCircle
 10
17.99999999999998
 20
169.77
 30
0.0
 40
2.5
  0
CIRCLE
  5
ED75
330
ED26
100
AcDbEntity
  8
0
100
AcDbCircle
 10
17.99999999999998
 20
129.77
 30
0.0
 40
2.5
  0
CIRCLE
  5
ED76
330
ED26
100
AcDbEntity
  8
0
100
AcDbCircle
 10
17.99999999999998
 20
89.76999999999996
 30
0.0
 40
2.5
  0
CIRCLE
  5
ED77
330
ED26
100
AcDbEntity
  8
0
100
AcDbCircle
 10
17.99999999999998
 20
49.76999999999998
 30
0.0
 40
2.5
  0
CIRCLE
  5
ED78
330
ED26
100
AcDbEntity
  8
0
100
AcDbCircle
 10
17.99999999999998
 20
9.769999999999983
 30
0.0
 40
2.5
  0
CIRCLE
  5
ED79
330
ED26
100
AcDbEntity
  8
0
100
AcDbCircle
 10
-18.00000000000002
 20
149.77
 30
0.0
 40
2.5
  0
CIRCLE
  5
ED7A
330
ED26
100
AcDbEntity
  8
0
100
AcDbCircle
 10
-18.00000000000002
 20
109.77
 30
0.0
 40
2.5
  0
CIRCLE
  5
ED7B
330
ED26
100
AcDbEntity
  8
0
100
AcDbCircle
 10
-18.00000000000002
 20
69.77
 30
0.0
 40
2.5
  0
CIRCLE
  5
ED7C
330
ED26
100
AcDbEntity
  8
0
100
AcDbCircle
 10
-18.00000000000002
 20
29.77
 30
0.0
 40
2.5
  0
CIRCLE
  5
ED7D
330
ED26
100
AcDbEntity
  8
0
100
AcDbCircle
 10
-28.00000000000003
 20
169.77
 30
0.0
 40
2.5
  0
CIRCLE
  5
ED7E
330
ED26
100
AcDbEntity
  8
0
100
AcDbCircle
 10
-28.00000000000003
 20
129.77
 30
0.0
 40
2.5
  0
CIRCLE
  5
ED7F
330
ED26
100
AcDbEntity
  8
0
100
AcDbCircle
 10
-28.00000000000003
 20
89.77000000000002
 30
0.0
 40
2.5
  0
CIRCLE
  5
ED80
330
ED26
100
AcDbEntity
  8
0
100
AcDbCircle
 10
-28.00000000000003
 20
49.77
 30
0.0
 40
2.5
  0
CIRCLE
  5
ED81
330
ED26
100
AcDbEntity
  8
0
100
AcDbCircle
 10
-28.00000000000003
 20
9.769999999999992
 30
0.0
 40
2.5
  0
CIRCLE
  5
ED82
330
ED26
100
AcDbEntity
  8
0
100
AcDbCircle
 10
-51.02709056100002
 20
69.77
 30
0.0
 40
2.5
  0
CIRCLE
  5
ED83
330
ED26
100
AcDbEntity
  8
0
100
AcDbCircle
 10
45.02709056099994
 20
69.76999999999998
 30
0.0
 40
2.5
  0
CIRCLE
  5
ED84
330
ED26
100
AcDbEntity
  8
0
100
AcDbCircle
 10
-45.02709056100001
 20
29.77
 30
0.0
 40
2.5
  0
CIRCLE
  5
ED85
330
ED26
100
AcDbEntity
  8
0
100
AcDbCircle
 10
51.02709056099996
 20
29.76999999999999
 30
0.0
 40
2.5
  0
ELLIPSE
  5
ED86
330
ED26
100
AcDbEntity
  8
0
100
AcDbEllipse
 10
-20.50000000000002
 20
0.0236058844764151
 30
0.0
 11
2.5
 21
-0.0000000000000004
 31
0.0
210
0.0
220
0.0
230
1.0
 40
0.7071067811865479
 41
3.397965980608242
 42
6.026811980161137
  0
SPLINE
  5
ED87
330
ED26
100
AcDbEntity
  8
0
100
AcDbSpline
210
0.0
220
0.0
230
1.0
 70
     8
 71
     3
 72
     8
 73
     4
 74
     0
 42
0.000000001
 43
0.0000000001
 40
-1.0
 40
-1.0
 40
-1.0
 40
-1.0
 40
0.0
 40
0.0
 40
0.0
 40
0.0
 10
-22.91828991960765
 20
-0.4246540092928713
 30
0.0
 10
-22.99189972302042
 20
-0.3163012038325114
 30
0.0
 10
-23.0160948364392
 20
-0.1581319339738563
 30
0.0
 10
-22.98943351399746
 20
-0.0003899405809417
 30
0.0
  0
SPLINE
  5
ED88
330
ED26
100
AcDbEntity
  8
0
100
AcDbSpline
210
0.0
220
0.0
230
1.0
 70
     8
 71
     3
 72
     8
 73
     4
 74
     0
 42
0.000000001
 43
0.0000000001
 40
-1.0
 40
-1.0
 40
-1.0
 40
-1.0
 40
0.0
 40
0.0
 40
0.0
 40
0.0
 10
-18.01056648600259
 20
-0.0003899405809417
 30
0.0
 10
-17.98390516356059
 20
-0.1581319339738635
 30
0.0
 10
-18.00810027697975
 20
-0.3163012038324541
 30
0.0
 10
-18.08171008039239
 20
-0.4246540092928701
 30
0.0
  0
ARC
  5
ED89
330
ED26
100
AcDbEntity
  8
0
100
AcDbCircle
 10
-20.50000000000002
 20
-0.2299999999999897
 30
0.0
 40
2.499999999999999
100
AcDbArc
 50
5.269701326164559
 51
174.7302986738354
  0
ELLIPSE
  5
ED8A
330
ED26
100
AcDbEntity
  8
0
100
AcDbEllipse
 10
20.49999999999998
 20
0.0236058844764152
 30
0.0
 11
2.5
 21
-0.0000000000000005
 31
0.0
210
0.0
220
0.0
230
1.0
 40
0.7071067811865479
 41
3.39796598060824
 42
6.026811980161135
  0
SPLINE
  5
ED8B
330
ED26
100
AcDbEntity
  8
0
100
AcDbSpline
210
0.0
220
0.0
230
1.0
 70
     8
 71
     3
 72
     8
 73
     4
 74
     0
 42
0.000000001
 43
0.0000000001
 40
-1.0
 40
-1.0
 40
-1.0
 40
-1.0
 40
0.0
 40
0.0
 40
0.0
 40
0.0
 10
18.08171008039235
 20
-0.4246540092928704
 30
0.0
 10
18.0081002769797
 20
-0.3163012038324993
 30
0.0
 10
17.98390516356057
 20
-0.15813193397386
 30
0.0
 10
18.01056648600255
 20
-0.0003899405809416
 30
0.0
  0
SPLINE
  5
ED8C
330
ED26
100
AcDbEntity
  8
0
100
AcDbSpline
210
0.0
220
0.0
230
1.0
 70
     8
 71
     3
 72
     8
 73
     4
 74
     0
 42
0.000000001
 43
0.0000000001
 40
-1.0
 40
-1.0
 40
-1.0
 40
-1.0
 40
0.0
 40
0.0
 40
0.0
 40
0.0
 10
22.98943351399741
 20
-0.0003899405809418
 30
0.0
 10
23.01609483643944
 20
-0.1581319339738634
 30
0.0
 10
22.99189972302023
 20
-0.3163012038324476
 30
0.0
 10
22.91828991960762
 20
-0.4246540092928707
 30
0.0
  0
ARC
  5
ED8D
330
ED26
100
AcDbEntity
  8
0
100
AcDbCircle
 10
20.49999999999998
 20
-0.2299999999999897
 30
0.0
 40
2.5
100
AcDbArc
 50
5.269701326164559
 51
174.7302986738354
  0
SPLINE
  5
ED8E
330
ED26
100
AcDbEntity
  8
0
100
AcDbSpline
210
0.0
220
0.0
230
1.0
 70
     8
 71
     3
 72
     8
 73
     4
 74
     0
 42
0.000000001
 43
0.0000000001
 40
-1.0
 40
-1.0
 40
-1.0
 40
-1.0
 40
0.0
 40
0.0
 40
0.0
 40
0.0
 10
-4.918289920131934
 20
-0.4246540092928706
 30
0.0
 10
-4.991899723307432
 20
-0.3163012038163501
 30
0.0
 10
-5.016094836485444
 20
-0.1581319339514714
 30
0.0
 10
-4.98943351381298
 20
-0.0003899405809417
 30
0.0
  0
SPLINE
  5
ED8F
330
ED26
100
AcDbEntity
  8
0
100
AcDbSpline
210
0.0
220
0.0
230
1.0
 70
     8
 71
     3
 72
     8
 73
     4
 74
     0
 42
0.000000001
 43
0.0000000001
 40
-1.0
 40
-1.0
 40
-1.0
 40
-1.0
 40
0.0
 40
0.0
 40
0.0
 40
0.0
 10
4.98943351381294
 20
-0.0003899405809414
 30
0.0
 10
5.016094836485369
 20
-0.15813193395148
 30
0.0
 10
4.991899723307236
 20
-0.3163012038163476
 30
0.0
 10
4.918289920131902
 20
-0.4246540092928707
 30
0.0
  0
ELLIPSE
  5
ED90
330
ED26
100
AcDbEntity
  8
0
100
AcDbEllipse
 10
-2.500000000000017
 20
0.0236058830622013
 30
0.0
 11
-2.5
 21
0.0000000000000004
 31
0.0
210
0.0
220
0.0
230
1.0
 40
0.7071067811865478
 41
0.2563733261914178
 42
1.570796326794896
  0
LINE
  5
ED91
330
ED26
100
AcDbEntity
  8
0
100
AcDbLine
 10
2.499999999999982
 20
-1.74416106990418
 30
0.0
 11
-2.500000000000017
 21
-1.744161069904179
 31
0.0
  0
ELLIPSE
  5
ED92
330
ED26
100
AcDbEntity
  8
0
100
AcDbEllipse
 10
2.499999999999981
 20
0.0236058830622016
 30
0.0
 11
2.5
 21
-0.0000000000000003
 31
0.0
210
0.0
220
0.0
230
1.0
 40
0.7071067811865479
 41
4.712388980384689
 42
6.026811980988167
  0
ARC
  5
ED93
330
ED26
100
AcDbEntity
  8
0
100
AcDbCircle
 10
2.499999999999982
 20
-0.2300000019999898
 30
0.0
 40
2.5
100
AcDbArc
 50
5.269701372195739
 51
90.0
  0
LINE
  5
ED94
330
ED26
100
AcDbEntity
  8
0
100
AcDbLine
 10
-2.500000000000017
 20
2.26999999800001
 30
0.0
 11
2.499999999999982
 21
2.26999999800001
 31
0.0
  0
ARC
  5
ED95
330
ED26
100
AcDbEntity
  8
0
100
AcDbCircle
 10
-2.500000000000017
 20
-0.2300000019999898
 30
0.0
 40
2.5
100
AcDbArc
 50
90.0
 51
174.7302986278043
  0
ELLIPSE
  5
ED96
330
ED26
100
AcDbEntity
  8
0
100
AcDbEllipse
 10
-37.4
 20
-54.1647693794705
 30
0.0
 11
-2.100000000000031
 21
0.000000000000007
 31
0.0
210
0.0
220
0.0
230
1.0
 40
0.7071067811865476
 41
0.0
 42
1.5707963267949
  0
ELLIPSE
  5
ED97
330
ED26
100
AcDbEntity
  8
0
100
AcDbEllipse
 10
-37.4
 20
-54.16476937947046
 30
0.0
 11
-0.6000000000000592
 21
-0.0000000000000711
 31
0.0
210
0.0
220
0.0
230
1.0
 40
0.7071067811865265
 41
0.0
 42
1.570796326794649
  0
LINE
  5
ED98
330
ED26
100
AcDbEntity
  8
0
100
AcDbLine
 10
37.40000000000001
 20
180.67
 30
0.0
 11
38.0
 21
180.67
 31
0.0
  0
LINE
  5
ED99
330
ED26
100
AcDbEntity
  8
0
100
AcDbLine
 10
37.40000000000001
 20
80.27000000000004
 30
0.0
 11
38.0
 21
80.27000000000004
 31
0.0
  0
LINE
  5
ED9A
330
ED26
100
AcDbEntity
  8
0
100
AcDbLine
 10
-38.00000000000002
 20
180.67
 30
0.0
 11
-37.40000000000001
 21
180.67
 31
0.0
  0
LINE
  5
ED9B
330
ED26
100
AcDbEntity
  8
0
100
AcDbLine
 10
-38.00000000000002
 20
80.27000000000004
 30
0.0
 11
-37.40000000000001
 21
80.27000000000004
 31
0.0
  0
ENDBLK
  5
ED28
330
ED26
100
AcDbEntity
  8
0
100
AcDbBlockEnd
  0
BLOCK
  5
ED9D
330
ED9C
100
AcDbEntity
  8
0
100
AcDbBlockBegin
  2
SPR76_180-Left
 70
     0
 10
0.0
 20
0.0
 30
0.0
  3
SPR76_180-Left
  1

  0
LINE
  5
ED9F
330
ED9C
100
AcDbEntity
  8
0
100
AcDbLine
 10
0.0
 20
-0.0003899405809414
 30
0.0
 11
0.0
 21
1.27000000000001
 31
0.0
  0
LINE
  5
EDA0
330
ED9C
100
AcDbEntity
  8
0
100
AcDbLine
 10
62.91118318265866
 20
-2.263131642256721
 30
0.0
 11
4.362741700911136
 21
-2.263131641492299
 31
0.0
  0
SPLINE
  5
EDA1
330
ED9C
100
AcDbEntity
  8
0
100
AcDbSpline
210
0.0
220
0.0
230
1.0
 70
     8
 71
     3
 72
     8
 73
     4
 74
     0
 42
0.000000001
 43
0.0000000001
 40
-1.0
 40
-1.0
 40
-1.0
 40
-1.0
 40
0.0
 40
0.0
 40
0.0
 40
0.0
 10
1.500000000000019
 20
-0.0003899405809416
 30
0.0
 10
1.500000000000019
 20
-0.1594792109354198
 30
0.0
 10
1.572566966670511
 20
-0.3214850446752912
 30
0.0
 10
1.675735931288091
 20
-0.4246540092928708
 30
0.0
  0
SPLINE
  5
EDA2
330
ED9C
100
AcDbEntity
  8
0
100
AcDbSpline
210
0.0
220
0.0
230
1.0
 70
     8
 71
     3
 72
     8
 73
     4
 74
     0
 42
0.000000001
 43
0.0000000001
 40
0.0
 40
0.0
 40
0.0
 40
0.0
 40
1.0
 40
1.0
 40
1.0
 40
1.0
 10
0.6150757595082706
 20
-1.485314181072692
 30
0.0
 10
0.2539843833467418
 20
-1.124222804911164
 30
0.0
 10
0.0000000000000192
 20
-0.5572023868216148
 30
0.0
 10
0.0000000000000193
 20
-0.0003899405809413
 30
0.0
  0
LINE
  5
EDA3
330
ED9C
100
AcDbEntity
  8
0
100
AcDbLine
 10
1.675735931288089
 20
-0.4246540092928689
 30
0.0
 11
2.288136209298627
 21
-1.037054287303406
 31
0.0
  0
LINE
  5
EDA4
330
ED9C
100
AcDbEntity
  8
0
100
AcDbLine
 10
2.288136209298585
 20
-1.037054287303378
 30
0.0
 11
2.717240184541147
 21
-1.466158262545941
 31
0.0
  0
SPLINE
  5
EDA5
330
ED9C
100
AcDbEntity
  8
0
100
AcDbSpline
210
0.0
220
0.0
230
1.0
 70
     8
 71
     3
 72
     8
 73
     4
 74
     0
 42
0.000000001
 43
0.0000000001
 40
-1.0
 40
-1.0
 40
-1.0
 40
-1.0
 40
0.0
 40
0.0
 40
0.0
 40
0.0
 10
2.717240184541162
 20
-1.466158262545935
 30
0.0
 10
3.124319333760359
 20
-1.873237411765132
 30
0.0
 10
3.733518404783858
 20
-2.078196639180625
 30
0.0
 10
4.362741700911247
 20
-2.263131641492168
 30
0.0
  0
LINE
  5
EDA6
330
ED9C
100
AcDbEntity
  8
0
100
AcDbLine
 10
2.717240184541147
 20
-1.466158262545941
 30
0.0
 11
2.364040347338866
 21
-1.819358099748222
 31
0.0
  0
LINE
  5
EDA7
330
ED9C
100
AcDbEntity
  8
0
100
AcDbLine
 10
2.364040347338866
 20
-1.819358099748222
 30
0.0
 11
1.656580012761325
 21
-2.526818434325762
 31
0.0
  0
SPLINE
  5
EDA8
330
ED9C
100
AcDbEntity
  8
0
100
AcDbSpline
210
0.0
220
0.0
230
1.0
 70
     8
 71
     3
 72
     8
 73
     4
 74
     0
 42
0.000000001
 43
0.0000000001
 40
0.0
 40
0.0
 40
0.0
 40
0.0
 40
1.0
 40
1.0
 40
1.0
 40
1.0
 10
4.362741700911122
 20
-2.263131641492294
 30
0.0
 10
3.178158037513985
 20
-2.633557006450499
 30
0.0
 10
2.063659161980539
 20
-2.933897583544952
 30
0.0
 10
1.65658001276134
 20
-2.526818434325756
 30
0.0
  0
LINE
  5
EDA9
330
ED9C
100
AcDbEntity
  8
0
100
AcDbLine
 10
1.656580012761325
 20
-2.526818434325762
 30
0.0
 11
1.227476037518766
 21
-2.097714459083197
 31
0.0
  0
LINE
  5
EDAA
330
ED9C
100
AcDbEntity
  8
0
100
AcDbLine
 10
2.288136209298585
 20
-1.037054287303378
 30
0.0
 11
1.227476037518766
 21
-2.097714459083197
 31
0.0
  0
LINE
  5
EDAB
330
ED9C
100
AcDbEntity
  8
0
100
AcDbLine
 10
1.227476037518816
 20
-2.097714459083217
 30
0.0
 11
0.6150757595082785
 21
-1.485314181072678
 31
0.0
  0
LINE
  5
EDAC
330
ED9C
100
AcDbEntity
  8
0
100
AcDbLine
 10
1.675735931288091
 20
-0.4246540092928706
 30
0.0
 11
1.322536092804169
 21
-0.777853847776793
 31
0.0
  0
LINE
  5
EDAD
330
ED9C
100
AcDbEntity
  8
0
100
AcDbLine
 10
1.322536092804169
 20
-0.777853847776793
 30
0.0
 11
0.6150757595082696
 21
-1.485314181072691
 31
0.0
  0
LINE
  5
EDAE
330
ED9C
100
AcDbEntity
  8
0
100
AcDbLine
 10
1.500000000000007
 20
-0.0003899405809416
 30
0.0
 11
1.000499995430654
 21
-0.0003899405809416
 31
0.0
  0
LINE
  5
EDAF
330
ED9C
100
AcDbEntity
  8
0
100
AcDbLine
 10
1.000499995430654
 20
-0.0003899405809416
 30
0.0
 11
0.0
 21
-0.0003899405809416
 31
0.0
  0
LINE
  5
EDB0
330
ED9C
100
AcDbEntity
  8
0
100
AcDbLine
 10
1.500000000000002
 20
1.27000000000001
 30
0.0
 11
1.500000000000001
 21
-0.0003899405809416
 31
0.0
  0
LINE
  5
EDB1
330
ED9C
100
AcDbEntity
  8
0
100
AcDbLine
 10
0.0
 20
6.270000000000004
 30
0.0
 11
0.0
 21
1.270000000000004
 31
0.0
  0
LINE
  5
EDB2
330
ED9C
100
AcDbEntity
  8
0
100
AcDbLine
 10
0.0
 20
77.27000000000002
 30
0.0
 11
0.0
 21
72.27000000000002
 31
0.0
  0
LINE
  5
EDB3
330
ED9C
100
AcDbEntity
  8
0
100
AcDbLine
 10
1.500000000000025
 20
1.270000000000004
 30
0.0
 11
1.500000000000027
 21
6.270000000000004
 31
0.0
  0
LINE
  5
EDB4
330
ED9C
100
AcDbEntity
  8
0
100
AcDbLine
 10
1.500000000000027
 20
6.270000000000004
 30
0.0
 11
0.0
 21
6.270000000000004
 31
0.0
  0
LINE
  5
EDB5
330
ED9C
100
AcDbEntity
  8
0
100
AcDbLine
 10
0.0
 20
1.270000000000004
 30
0.0
 11
1.500000000000025
 21
1.270000000000004
 31
0.0
  0
LINE
  5
EDB6
330
ED9C
100
AcDbEntity
  8
0
100
AcDbLine
 10
0.0
 20
72.27000000000002
 30
0.0
 11
1.500000000000027
 21
72.27000000000002
 31
0.0
  0
LINE
  5
EDB7
330
ED9C
100
AcDbEntity
  8
0
100
AcDbLine
 10
1.500000000000027
 20
72.27000000000002
 30
0.0
 11
1.500000000000025
 21
77.27000000000002
 31
0.0
  0
LINE
  5
EDB8
330
ED9C
100
AcDbEntity
  8
0
100
AcDbLine
 10
1.500000000000025
 20
77.27000000000002
 30
0.0
 11
0.0
 21
77.27000000000002
 31
0.0
  0
LINE
  5
EDB9
330
ED9C
100
AcDbEntity
  8
0
100
AcDbLine
 10
0.0
 20
6.270000000000004
 30
0.0
 11
0.0
 21
72.27000000000002
 31
0.0
  0
LINE
  5
EDBA
330
ED9C
100
AcDbEntity
  8
0
100
AcDbLine
 10
0.0
 20
77.27000000000002
 30
0.0
 11
0.0
 21
80.27000000000002
 31
0.0
  0
LINE
  5
EDBB
330
ED9C
100
AcDbEntity
  8
0
100
AcDbLine
 10
1.500000000000027
 20
6.270000000000004
 30
0.0
 11
1.500000000000027
 21
72.27000000000002
 31
0.0
  0
LINE
  5
EDBC
330
ED9C
100
AcDbEntity
  8
0
100
AcDbLine
 10
1.500000000000009
 20
77.27000000000002
 30
0.0
 11
1.500000000000009
 21
80.27000000000002
 31
0.0
  0
LINE
  5
EDBD
330
ED9C
100
AcDbEntity
  8
0
100
AcDbLine
 10
0.0
 20
80.27000000000004
 30
0.0
 11
0.0
 21
180.67
 31
0.0
  0
LINE
  5
EDBE
330
ED9C
100
AcDbEntity
  8
0
100
AcDbLine
 10
2.100000000000008
 20
180.67
 30
0.0
 11
0.0
 21
180.67
 31
0.0
  0
LINE
  5
EDBF
330
ED9C
100
AcDbEntity
  8
0
100
AcDbLine
 10
0.0
 20
80.27000000000004
 30
0.0
 11
2.100000000000008
 21
80.27000000000004
 31
0.0
  0
LINE
  5
EDC0
330
ED9C
100
AcDbEntity
  8
0
100
AcDbLine
 10
43.50000000000001
 20
85.27000000000001
 30
0.0
 11
38.50000000000001
 21
80.27000000000004
 31
0.0
  0
LINE
  5
EDC1
330
ED9C
100
AcDbEntity
  8
0
100
AcDbLine
 10
38.50000000000001
 20
180.67
 30
0.0
 11
43.50000000000001
 21
175.67
 31
0.0
  0
LINE
  5
EDC2
330
ED9C
100
AcDbEntity
  8
0
100
AcDbLine
 10
82.00306627385998
 20
-21.35501473263462
 30
0.0
 11
82.00306627385996
 21
-28.42608254450007
 31
0.0
  0
CIRCLE
  5
EDC3
330
ED9C
100
AcDbEntity
  8
0
100
AcDbCircle
 10
35.50000000000002
 20
167.7699999999999
 30
0.0
 40
2.5
  0
CIRCLE
  5
EDC4
330
ED9C
100
AcDbEntity
  8
0
100
AcDbCircle
 10
35.50000000000002
 20
147.77
 30
0.0
 40
2.5
  0
CIRCLE
  5
EDC5
330
ED9C
100
AcDbEntity
  8
0
100
AcDbCircle
 10
35.50000000000002
 20
127.77
 30
0.0
 40
2.5
  0
CIRCLE
  5
EDC6
330
ED9C
100
AcDbEntity
  8
0
100
AcDbCircle
 10
35.50000000000002
 20
107.77
 30
0.0
 40
2.5
  0
CIRCLE
  5
EDC7
330
ED9C
100
AcDbEntity
  8
0
100
AcDbCircle
 10
35.50000000000002
 20
87.76999999999999
 30
0.0
 40
2.5
  0
LINE
  5
EDC8
330
ED9C
100
AcDbEntity
  8
0
100
AcDbLine
 10
43.50000000000001
 20
175.67
 30
0.0
 11
43.50000000000001
 21
85.27000000000001
 31
0.0
  0
LINE
  5
EDC9
330
ED9C
100
AcDbEntity
  8
0
100
AcDbLine
 10
2.100000000000008
 20
180.67
 30
0.0
 11
38.50000000000001
 21
180.67
 31
0.0
  0
LINE
  5
EDCA
330
ED9C
100
AcDbEntity
  8
0
100
AcDbLine
 10
38.50000000000001
 20
80.27000000000004
 30
0.0
 11
2.100000000000008
 21
80.27000000000004
 31
0.0
  0
LINE
  5
EDCB
330
ED9C
100
AcDbEntity
  8
0
100
AcDbLine
 10
82.00306627385996
 20
-28.42608254450007
 30
0.0
 11
56.26437943888955
 21
-54.16476937947051
 31
0.0
  0
LINE
  5
EDCC
330
ED9C
100
AcDbEntity
  8
0
100
AcDbLine
 10
62.91118318265866
 20
-2.263131642256721
 30
0.0
 11
82.00306627385998
 21
-21.35501473263462
 31
0.0
  0
CIRCLE
  5
EDCD
330
ED9C
100
AcDbEntity
  8
0
100
AcDbCircle
 10
74.57844507130477
 20
-25.24410202925711
 30
0.0
 40
2.5
  0
ARC
  5
EDCE
330
ED9C
100
AcDbEntity
  8
0
100
AcDbCircle
 10
59.31559010709463
 20
-13.99045269891599
 30
0.0
 40
0.8000000000000012
100
AcDbArc
 50
315.000000001042
 51
75.00000000104186
  0
LINE
  5
EDCF
330
ED9C
100
AcDbEntity
  8
0
100
AcDbLine
 10
59.88127553205416
 20
-14.55613812385493
 30
0.0
 11
56.81941335363088
 21
-17.61800030238963
 31
0.0
  0
ARC
  5
EDD0
330
ED9C
100
AcDbEntity
  8
0
100
AcDbCircle
 10
56.25372792867135
 20
-17.05231487745069
 30
0.0
 40
0.8
100
AcDbArc
 50
195.0000000010428
 51
315.0000000010428
  0
LINE
  5
EDD1
330
ED9C
100
AcDbEntity
  8
0
100
AcDbLine
 10
55.48098726764387
 20
-17.25937011354676
 30
0.0
 11
54.36026792735771
 21
-13.0767885948781
 31
0.0
  0
ARC
  5
EDD2
330
ED9C
100
AcDbEntity
  8
0
100
AcDbCircle
 10
55.13300858838519
 20
-12.86973335878202
 30
0.0
 40
0.8000000000000014
100
AcDbArc
 50
75.00000000104188
 51
195.0000000010427
  0
LINE
  5
EDD3
330
ED9C
100
AcDbEntity
  8
0
100
AcDbLine
 10
55.34006382445316
 20
-12.09699269774699
 30
0.0
 11
59.5226453431626
 21
-13.21771203788095
 31
0.0
  0
LINE
  5
EDD4
330
ED9C
100
AcDbEntity
  8
0
100
AcDbLine
 10
55.28251771018368
 20
-12.08382813389861
 30
0.0
 11
54.3471033635072
 21
-13.01924248060913
 31
0.0
  0
LINE
  5
EDD5
330
ED9C
100
AcDbEntity
  8
0
100
AcDbLine
 10
54.77945519839778
 20
-55.64969361996225
 30
0.0
 11
1.656580012761326
 21
-2.526818434325761
 31
0.0
  0
LINE
  5
EDD6
330
ED9C
100
AcDbEntity
  8
0
100
AcDbLine
 10
56.26437943888952
 20
-54.16476937947052
 30
0.0
 11
54.77945519839779
 21
-55.64969361996227
 31
0.0
  0
ENDBLK
  5
ED9E
330
ED9C
100
AcDbEntity
  8
0
100
AcDbBlockEnd
  0
BLOCK
  5
EDD8
330
EDD7
100
AcDbEntity
  8
0
100
AcDbBlockBegin
  2
SPR76_180-Right
 70
     0
 10
0.0
 20
0.0
 30
0.0
  3
SPR76_180-Right
  1

  0
LINE
  5
EDDA
330
EDD7
100
AcDbEntity
  8
0
100
AcDbLine
 10
-1.499999999999963
 20
6.270000000000004
 30
0.0
 11
-1.499999999999965
 21
1.270000000000004
 31
0.0
  0
LINE
  5
EDDB
330
EDD7
100
AcDbEntity
  8
0
100
AcDbLine
 10
-1.499999999999965
 20
1.270000000000004
 30
0.0
 11
0.0
 21
1.270000000000013
 31
0.0
  0
LINE
  5
EDDC
330
EDD7
100
AcDbEntity
  8
0
100
AcDbLine
 10
0.0
 20
1.270000000000013
 30
0.0
 11
0.0
 21
6.270000000000004
 31
0.0
  0
LINE
  5
EDDD
330
EDD7
100
AcDbEntity
  8
0
100
AcDbLine
 10
0.0
 20
6.270000000000004
 30
0.0
 11
-1.499999999999963
 21
6.270000000000004
 31
0.0
  0
LINE
  5
EDDE
330
EDD7
100
AcDbEntity
  8
0
100
AcDbLine
 10
-1.499999999999963
 20
72.27000000000001
 30
0.0
 11
0.0
 21
72.27000000000001
 31
0.0
  0
LINE
  5
EDDF
330
EDD7
100
AcDbEntity
  8
0
100
AcDbLine
 10
0.0
 20
72.27000000000001
 30
0.0
 11
0.0
 21
77.27000000000001
 31
0.0
  0
LINE
  5
EDE0
330
EDD7
100
AcDbEntity
  8
0
100
AcDbLine
 10
-1.499999999999966
 20
77.27000000000001
 30
0.0
 11
-1.499999999999963
 21
72.27000000000001
 31
0.0
  0
LINE
  5
EDE1
330
EDD7
100
AcDbEntity
  8
0
100
AcDbLine
 10
0.0
 20
77.27000000000001
 30
0.0
 11
-1.499999999999966
 21
77.27000000000001
 31
0.0
  0
LINE
  5
EDE2
330
EDD7
100
AcDbEntity
  8
0
100
AcDbLine
 10
0.0
 20
72.27000000000001
 30
0.0
 11
0.0
 21
6.270000000000006
 31
0.0
  0
LINE
  5
EDE3
330
EDD7
100
AcDbEntity
  8
0
100
AcDbLine
 10
-1.499999999999963
 20
72.27000000000001
 30
0.0
 11
-1.499999999999963
 21
6.270000000000006
 31
0.0
  0
LINE
  5
EDE4
330
EDD7
100
AcDbEntity
  8
0
100
AcDbLine
 10
0.0
 20
80.27000000000004
 30
0.0
 11
0.0
 21
77.27000000000003
 31
0.0
  0
LINE
  5
EDE5
330
EDD7
100
AcDbEntity
  8
0
100
AcDbLine
 10
-1.499999999999982
 20
80.27000000000004
 30
0.0
 11
-1.499999999999982
 21
77.27000000000003
 31
0.0
  0
LINE
  5
EDE6
330
EDD7
100
AcDbEntity
  8
0
100
AcDbLine
 10
0.0
 20
1.27000000000001
 30
0.0
 11
0.0
 21
-0.0003899405809416
 31
0.0
  0
LINE
  5
EDE7
330
EDD7
100
AcDbEntity
  8
0
100
AcDbLine
 10
-4.362741700911206
 20
-2.263131641492214
 30
0.0
 11
-62.91118318265849
 21
-2.263131642256548
 31
0.0
  0
SPLINE
  5
EDE8
330
EDD7
100
AcDbEntity
  8
0
100
AcDbSpline
210
0.0
220
0.0
230
1.0
 70
     8
 71
     3
 72
     8
 73
     4
 74
     0
 42
0.000000001
 43
0.0000000001
 40
-1.0
 40
-1.0
 40
-1.0
 40
-1.0
 40
0.0
 40
0.0
 40
0.0
 40
0.0
 10
-1.675735931288076
 20
-0.4246540092928708
 30
0.0
 10
-1.572566966670499
 20
-0.321485044675294
 30
0.0
 10
-1.500000000000004
 20
-0.1594792109354182
 30
0.0
 10
-1.500000000000004
 20
-0.0003899405809417
 30
0.0
  0
SPLINE
  5
EDE9
330
EDD7
100
AcDbEntity
  8
0
100
AcDbSpline
210
0.0
220
0.0
230
1.0
 70
     8
 71
     3
 72
     8
 73
     4
 74
     0
 42
0.000000001
 43
0.0000000001
 40
0.0
 40
0.0
 40
0.0
 40
0.0
 40
1.0
 40
1.0
 40
1.0
 40
1.0
 10
-0.0000000000000045
 20
-0.0003899405809417
 30
0.0
 10
-0.0000000000000045
 20
-0.5572023868216089
 30
0.0
 10
-0.2539843833467366
 20
-1.124222804911174
 30
0.0
 10
-0.6150757595082558
 20
-1.485314181072692
 30
0.0
  0
LINE
  5
EDEA
330
EDD7
100
AcDbEntity
  8
0
100
AcDbLine
 10
-2.717240184541121
 20
-1.46615826254595
 30
0.0
 11
-2.288136209298559
 21
-1.037054287303388
 31
0.0
  0
LINE
  5
EDEB
330
EDD7
100
AcDbEntity
  8
0
100
AcDbLine
 10
-2.288136209298611
 20
-1.037054287303406
 30
0.0
 11
-1.675735931288077
 21
-0.4246540092928719
 31
0.0
  0
LINE
  5
EDEC
330
EDD7
100
AcDbEntity
  8
0
100
AcDbLine
 10
-2.717240184541121
 20
-1.46615826254595
 30
0.0
 11
-2.364040347337621
 21
-1.819358099749449
 31
0.0
  0
SPLINE
  5
EDED
330
EDD7
100
AcDbEntity
  8
0
100
AcDbSpline
210
0.0
220
0.0
230
1.0
 70
     8
 71
     3
 72
     8
 73
     4
 74
     0
 42
0.000000001
 43
0.0000000001
 40
-0.9999999999999944
 40
-0.9999999999999944
 40
-0.9999999999999944
 40
-0.9999999999999944
 40
0.0
 40
0.0
 40
0.0
 40
0.0
 10
-4.362741700911208
 20
-2.263131641492159
 30
0.0
 10
-3.733518404783919
 20
-2.0781966391807
 30
0.0
 10
-3.124319333760961
 20
-1.873237411765751
 30
0.0
 10
-2.717240184541128
 20
-1.466158262545917
 30
0.0
  0
SPLINE
  5
EDEE
330
EDD7
100
AcDbEntity
  8
0
100
AcDbSpline
210
0.0
220
0.0
230
1.0
 70
     8
 71
     3
 72
     8
 73
     4
 74
     0
 42
0.000000001
 43
0.0000000001
 40
0.0
 40
0.0
 40
0.0
 40
0.0
 40
0.9999999999999944
 40
0.9999999999999944
 40
0.9999999999999944
 40
0.9999999999999944
 10
-1.656580012761306
 20
-2.526818434325738
 30
0.0
 10
-2.063659161981139
 20
-2.933897583545572
 30
0.0
 10
-3.178158037514097
 20
-2.633557006450521
 30
0.0
 10
-4.362741700911161
 20
-2.263131641492206
 30
0.0
  0
LINE
  5
EDEF
330
EDD7
100
AcDbEntity
  8
0
100
AcDbLine
 10
-2.364040347337621
 20
-1.819358099749449
 30
0.0
 11
-1.656580012761301
 21
-2.52681843432577
 31
0.0
  0
LINE
  5
EDF0
330
EDD7
100
AcDbEntity
  8
0
100
AcDbLine
 10
-0.6150757595082684
 20
-1.485314181072681
 30
0.0
 11
-1.227476037518802
 21
-2.097714459083215
 31
0.0
  0
LINE
  5
EDF1
330
EDD7
100
AcDbEntity
  8
0
100
AcDbLine
 10
-0.6150757595082547
 20
-1.485314181072691
 30
0.0
 11
-1.322536092812546
 21
-0.7778538477684018
 31
0.0
  0
LINE
  5
EDF2
330
EDD7
100
AcDbEntity
  8
0
100
AcDbLine
 10
-1.322536092812546
 20
-0.7778538477684018
 30
0.0
 11
-1.675735931288076
 21
-0.4246540092928706
 31
0.0
  0
LINE
  5
EDF3
330
EDD7
100
AcDbEntity
  8
0
100
AcDbLine
 10
-2.288136209298559
 20
-1.037054287303388
 30
0.0
 11
-1.227476037518745
 21
-2.097714459083201
 31
0.0
  0
LINE
  5
EDF4
330
EDD7
100
AcDbEntity
  8
0
100
AcDbLine
 10
-1.227476037518745
 20
-2.097714459083201
 30
0.0
 11
-1.656580012761301
 21
-2.52681843432577
 31
0.0
  0
LINE
  5
EDF5
330
EDD7
100
AcDbEntity
  8
0
100
AcDbLine
 10
-1.499999999999981
 20
-0.0003899405809416
 30
0.0
 11
-1.000499995412191
 21
-0.0003899405809416
 31
0.0
  0
LINE
  5
EDF6
330
EDD7
100
AcDbEntity
  8
0
100
AcDbLine
 10
-1.000499995412191
 20
-0.0003899405809416
 30
0.0
 11
0.0
 21
-0.0003899405809416
 31
0.0
  0
LINE
  5
EDF7
330
EDD7
100
AcDbEntity
  8
0
100
AcDbLine
 10
-1.499999999999987
 20
-0.0003899405809414
 30
0.0
 11
-1.499999999999986
 21
1.27000000000001
 31
0.0
  0
LINE
  5
EDF8
330
EDD7
100
AcDbEntity
  8
0
100
AcDbLine
 10
0.0
 20
80.27000000000004
 30
0.0
 11
0.0
 21
180.67
 31
0.0
  0
LINE
  5
EDF9
330
EDD7
100
AcDbEntity
  8
0
100
AcDbLine
 10
0.0
 20
180.67
 30
0.0
 11
-2.099999999999955
 21
180.67
 31
0.0
  0
LINE
  5
EDFA
330
EDD7
100
AcDbEntity
  8
0
100
AcDbLine
 10
-2.099999999999964
 20
80.27000000000004
 30
0.0
 11
0.0
 21
80.27000000000004
 31
0.0
  0
LINE
  5
EDFB
330
EDD7
100
AcDbEntity
  8
0
100
AcDbLine
 10
-38.49999999999997
 20
80.27000000000004
 30
0.0
 11
-43.49999999999996
 21
85.27000000000004
 31
0.0
  0
LINE
  5
EDFC
330
EDD7
100
AcDbEntity
  8
0
100
AcDbLine
 10
-43.49999999999996
 20
175.67
 30
0.0
 11
-38.49999999999997
 21
180.67
 31
0.0
  0
LINE
  5
EDFD
330
EDD7
100
AcDbEntity
  8
0
100
AcDbLine
 10
-82.00306627385998
 20
-28.42608254450006
 30
0.0
 11
-82.00306627385996
 21
-21.35501473263461
 31
0.0
  0
LINE
  5
EDFE
330
EDD7
100
AcDbEntity
  8
0
100
AcDbLine
 10
-43.49999999999996
 20
85.27000000000004
 30
0.0
 11
-43.49999999999996
 21
175.67
 31
0.0
  0
LINE
  5
EDFF
330
EDD7
100
AcDbEntity
  8
0
100
AcDbLine
 10
-2.099999999999964
 20
80.27000000000004
 30
0.0
 11
-38.49999999999997
 21
80.27000000000004
 31
0.0
  0
LINE
  5
EE00
330
EDD7
100
AcDbEntity
  8
0
100
AcDbLine
 10
-38.49999999999997
 20
180.67
 30
0.0
 11
-2.099999999999955
 21
180.67
 31
0.0
  0
CIRCLE
  5
EE01
330
EDD7
100
AcDbEntity
  8
0
100
AcDbCircle
 10
-35.5
 20
172.77
 30
0.0
 40
2.5
  0
CIRCLE
  5
EE02
330
EDD7
100
AcDbEntity
  8
0
100
AcDbCircle
 10
-35.5
 20
152.77
 30
0.0
 40
2.5
  0
CIRCLE
  5
EE03
330
EDD7
100
AcDbEntity
  8
0
100
AcDbCircle
 10
-35.5
 20
132.77
 30
0.0
 40
2.5
  0
CIRCLE
  5
EE04
330
EDD7
100
AcDbEntity
  8
0
100
AcDbCircle
 10
-35.5
 20
112.77
 30
0.0
 40
2.5
  0
CIRCLE
  5
EE05
330
EDD7
100
AcDbEntity
  8
0
100
AcDbCircle
 10
-35.5
 20
92.76999999999999
 30
0.0
 40
2.5
  0
LINE
  5
EE06
330
EDD7
100
AcDbEntity
  8
0
100
AcDbLine
 10
-62.91118318265849
 20
-2.263131642256548
 30
0.0
 11
-82.00306627385996
 21
-21.35501473263461
 31
0.0
  0
LINE
  5
EE07
330
EDD7
100
AcDbEntity
  8
0
100
AcDbLine
 10
-1.656580012761301
 20
-2.52681843432577
 30
0.0
 11
-54.77945519839777
 21
-55.64969361996225
 31
0.0
  0
LINE
  5
EE08
330
EDD7
100
AcDbEntity
  8
0
100
AcDbLine
 10
-54.77945519839775
 20
-55.64969361996226
 30
0.0
 11
-56.26437943888932
 21
-54.16476937947031
 31
0.0
  0
LINE
  5
EE09
330
EDD7
100
AcDbEntity
  8
0
100
AcDbLine
 10
-56.26437943888952
 20
-54.16476937947051
 30
0.0
 11
-82.00306627385998
 21
-28.42608254450006
 31
0.0
  0
CIRCLE
  5
EE0A
330
EDD7
100
AcDbEntity
  8
0
100
AcDbCircle
 10
-71.04291116530767
 20
-21.7085681233887
 30
0.0
 40
2.5
  0
ARC
  5
EE0B
330
EDD7
100
AcDbEntity
  8
0
100
AcDbCircle
 10
-51.59747468238809
 20
-9.334199452913621
 30
0.0
 40
0.8000000000000015
100
AcDbArc
 50
344.9999999989572
 51
355.4526675359234
  0
LINE
  5
EE0C
330
EDD7
100
AcDbEntity
  8
0
100
AcDbLine
 10
-50.82473402136063
 20
-9.541254689009697
 30
0.0
 11
-51.94545336164679
 21
-13.72383620767835
 31
0.0
  0
ARC
  5
EE0D
330
EDD7
100
AcDbEntity
  8
0
100
AcDbCircle
 10
-52.71819402267426
 20
-13.51678097158228
 30
0.0
 40
0.8
100
AcDbArc
 50
224.9999999989572
 51
344.9999999989576
  0
LINE
  5
EE0E
330
EDD7
100
AcDbEntity
  8
0
100
AcDbLine
 10
-53.28387944763379
 20
-14.08246639652123
 30
0.0
 11
-56.34574162605708
 21
-11.02060421798653
 31
0.0
  0
ARC
  5
EE0F
330
EDD7
100
AcDbEntity
  8
0
100
AcDbCircle
 10
-55.78005620109753
 20
-10.45491879304758
 30
0.0
 40
0.8000000000000014
100
AcDbArc
 50
104.9999999989575
 51
224.9999999989572
  0
LINE
  5
EE10
330
EDD7
100
AcDbEntity
  8
0
100
AcDbLine
 10
-55.9871114371655
 20
-9.68217813201255
 30
0.0
 11
-51.80452991845606
 21
-8.561458791878589
 31
0.0
  0
ARC
  5
EE11
330
EDD7
100
AcDbEntity
  8
0
100
AcDbCircle
 10
-51.59747468238809
 20
-9.334199452913621
 30
0.0
 40
0.8000000000000014
100
AcDbArc
 50
49.59733246198601
 51
104.9999999989581
  0
LINE
  5
EE12
330
EDD7
100
AcDbEntity
  8
0
100
AcDbLine
 10
-51.07895039795263
 20
-8.724992947325665
 30
0.0
 11
-50.79999294004348
 21
-9.397625556585477
 31
0.0
  0
ARC
  5
EE13
330
EDD7
100
AcDbEntity
  8
0
100
AcDbCircle
 10
-55.13300858838519
 20
-12.86973335878202
 30
0.0
 40
0.8000000000000015
100
AcDbArc
 50
349.2288663267696
 51
100.7711336711455
  0
ENDBLK
  5
EDD9
330
EDD7
100
AcDbEntity
  8
0
100
AcDbBlockEnd
  0
BLOCK
  5
EE15
330
EE14
100
AcDbEntity
  8
0
100
AcDbBlockBegin
  2
SPR76_180-Top
 70
     0
 10
0.0
 20
0.0
 30
0.0
  3
SPR76_180-Top
  1

  0
LINE
  5
EE17
330
EE14
100
AcDbEntity
  8
0
100
AcDbLine
 10
80.52709056099997
 20
-1.499999999999964
 30
0.0
 11
80.52709056099997
 21
0.0
 31
0.0
  0
LINE
  5
EE18
330
EE14
100
AcDbEntity
  8
0
100
AcDbLine
 10
-75.52709056100002
 20
0.0
 30
0.0
 11
-80.52709056100001
 21
0.0
 31
0.0
  0
LINE
  5
EE19
330
EE14
100
AcDbEntity
  8
0
100
AcDbLine
 10
80.52709056099997
 20
0.0
 30
0.0
 11
75.52709056099996
 21
0.0
 31
0.0
  0
LINE
  5
EE1A
330
EE14
100
AcDbEntity
  8
0
100
AcDbLine
 10
-80.52709056100001
 20
0.0
 30
0.0
 11
-80.52709056100001
 21
-1.500000000000027
 31
0.0
  0
LINE
  5
EE1B
330
EE14
100
AcDbEntity
  8
0
100
AcDbLine
 10
-80.52709056100001
 20
-1.500000000000027
 30
0.0
 11
-75.52709056100002
 21
-1.500000000000025
 31
0.0
  0
LINE
  5
EE1C
330
EE14
100
AcDbEntity
  8
0
100
AcDbLine
 10
-75.52709056100002
 20
-1.500000000000025
 30
0.0
 11
-75.52709056100002
 21
0.0
 31
0.0
  0
LINE
  5
EE1D
330
EE14
100
AcDbEntity
  8
0
100
AcDbLine
 10
75.52709056099996
 20
-1.499999999999966
 30
0.0
 11
80.52709056099997
 21
-1.499999999999964
 31
0.0
  0
LINE
  5
EE1E
330
EE14
100
AcDbEntity
  8
0
100
AcDbLine
 10
75.52709056099996
 20
0.0
 30
0.0
 11
75.52709056099996
 21
-1.499999999999966
 31
0.0
  0
LINE
  5
EE1F
330
EE14
100
AcDbEntity
  8
0
100
AcDbLine
 10
-75.52709056100002
 20
0.0
 30
0.0
 11
-37.40000000000002
 21
0.0
 31
0.0
  0
LINE
  5
EE20
330
EE14
100
AcDbEntity
  8
0
100
AcDbLine
 10
37.40000000000001
 20
0.0
 30
0.0
 11
75.52709056099996
 21
0.0
 31
0.0
  0
LINE
  5
EE21
330
EE14
100
AcDbEntity
  8
0
100
AcDbLine
 10
39.41246117974981
 20
-1.49999999999998
 30
0.0
 11
75.52709056099996
 21
-1.499999999999966
 31
0.0
  0
LINE
  5
EE22
330
EE14
100
AcDbEntity
  8
0
100
AcDbLine
 10
-75.52709056100002
 20
-1.500000000000025
 30
0.0
 11
-39.41246117974984
 21
-1.500000000000011
 31
0.0
  0
LINE
  5
EE23
330
EE14
100
AcDbEntity
  8
0
100
AcDbLine
 10
37.40000000000001
 20
0.0
 30
0.0
 11
-37.40000000000001
 21
0.0
 31
0.0
  0
LINE
  5
EE24
330
EE14
100
AcDbEntity
  8
0
100
AcDbLine
 10
39.50000000000022
 20
-38.49999999999997
 30
0.0
 11
39.5
 21
-2.099999999999955
 31
0.0
  0
LINE
  5
EE25
330
EE14
100
AcDbEntity
  8
0
100
AcDbLine
 10
-39.50000000000002
 20
-2.100000000000008
 30
0.0
 11
-39.50000000000001
 21
-38.50000000000001
 31
0.0
  0
LINE
  5
EE26
330
EE14
100
AcDbEntity
  8
0
100
AcDbLine
 10
38.0
 20
-2.099999999999964
 30
0.0
 11
38.00000000000022
 21
-38.49999999999997
 31
0.0
  0
LINE
  5
EE27
330
EE14
100
AcDbEntity
  8
0
100
AcDbLine
 10
-37.40000000000001
 20
-1.500000000000007
 30
0.0
 11
37.40000000000001
 21
-1.499999999999977
 31
0.0
  0
LINE
  5
EE28
330
EE14
100
AcDbEntity
  8
0
100
AcDbLine
 10
-38.00000000000002
 20
-38.50000000000001
 30
0.0
 11
-38.00000000000002
 21
-2.100000000000008
 31
0.0
  0
LINE
  5
EE29
330
EE14
100
AcDbEntity
  8
0
100
AcDbLine
 10
38.00000000000024
 20
-43.49999999999997
 30
0.0
 11
39.50000000000024
 21
-43.49999999999996
 31
0.0
  0
LINE
  5
EE2A
330
EE14
100
AcDbEntity
  8
0
100
AcDbLine
 10
39.50000000000024
 20
-43.49999999999996
 30
0.0
 11
39.50000000000022
 21
-38.49999999999997
 31
0.0
  0
LINE
  5
EE2B
330
EE14
100
AcDbEntity
  8
0
100
AcDbLine
 10
-39.50000000000001
 20
-38.50000000000001
 30
0.0
 11
-39.50000000000001
 21
-43.50000000000001
 31
0.0
  0
LINE
  5
EE2C
330
EE14
100
AcDbEntity
  8
0
100
AcDbLine
 10
-39.50000000000001
 20
-43.50000000000001
 30
0.0
 11
-38.00000000000002
 21
-43.50000000000001
 31
0.0
  0
LINE
  5
EE2D
330
EE14
100
AcDbEntity
  8
0
100
AcDbLine
 10
39.50000000000022
 20
-38.49999999999997
 30
0.0
 11
38.00000000000022
 21
-38.49999999999997
 31
0.0
  0
LINE
  5
EE2E
330
EE14
100
AcDbEntity
  8
0
100
AcDbLine
 10
38.00000000000022
 20
-38.49999999999997
 30
0.0
 11
38.00000000000024
 21
-43.49999999999997
 31
0.0
  0
LINE
  5
EE2F
330
EE14
100
AcDbEntity
  8
0
100
AcDbLine
 10
-38.00000000000002
 20
-43.50000000000001
 30
0.0
 11
-38.00000000000002
 21
-38.50000000000001
 31
0.0
  0
LINE
  5
EE30
330
EE14
100
AcDbEntity
  8
0
100
AcDbLine
 10
-38.00000000000002
 20
-38.50000000000001
 30
0.0
 11
-39.50000000000001
 21
-38.50000000000001
 31
0.0
  0
LINE
  5
EE31
330
EE14
100
AcDbEntity
  8
0
100
AcDbLine
 10
39.49999999999999
 20
-82.00306627385996
 30
0.0
 11
37.99999999999999
 21
-82.00306627385996
 31
0.0
  0
LINE
  5
EE32
330
EE14
100
AcDbEntity
  8
0
100
AcDbLine
 10
-37.99999999999999
 20
-82.00306627385998
 30
0.0
 11
-39.49999999999999
 21
-82.00306627385998
 31
0.0
  0
LINE
  5
EE33
330
EE14
100
AcDbEntity
  8
0
100
AcDbLine
 10
39.50000000000251
 20
-62.91118318265849
 30
0.0
 11
39.49999999999999
 21
-82.00306627385996
 31
0.0
  0
LINE
  5
EE34
330
EE14
100
AcDbEntity
  8
0
100
AcDbLine
 10
38.00000000000217
 20
-62.91118318265849
 30
0.0
 11
37.99999999999999
 21
-82.00306627385996
 31
0.0
  0
ELLIPSE
  5
EE35
330
EE14
100
AcDbEntity
  8
0
100
AcDbEllipse
 10
37.39999999999999
 20
-56.26437943888952
 30
0.0
 11
0.6000000000000087
 21
0.0000000000000546
 31
0.0
210
0.0
220
0.0
230
1.0
 40
0.7071067811866067
 41
0.0
 42
1.570796326794765
  0
LINE
  5
EE36
330
EE14
100
AcDbEntity
  8
0
100
AcDbLine
 10
39.50000000000251
 20
-62.91118318265849
 30
0.0
 11
38.00000000000217
 21
-62.91118318265849
 31
0.0
  0
LINE
  5
EE37
330
EE14
100
AcDbEntity
  8
0
100
AcDbLine
 10
39.49999999999999
 20
-43.49999999999996
 30
0.0
 11
39.50000000000251
 21
-62.91118318265849
 31
0.0
  0
LINE
  5
EE38
330
EE14
100
AcDbEntity
  8
0
100
AcDbLine
 10
-39.50000000000589
 20
-62.91118318265866
 30
0.0
 11
-39.5000000000059
 21
-43.50000000000001
 31
0.0
  0
SPLINE
  5
EE39
330
EE14
100
AcDbEntity
  8
0
100
AcDbSpline
210
0.0
220
0.0
230
1.0
 70
     8
 71
     3
 72
     8
 73
     4
 74
     0
 42
0.000000001
 43
0.0000000001
 40
-1.0
 40
-1.0
 40
-1.0
 40
-1.0
 40
0.0
 40
0.0
 40
0.0
 40
0.0
 10
-33.01767776087199
 20
-1.500000000000019
 30
0.0
 10
-32.97251992073986
 20
-1.500000000000019
 30
0.0
 10
-33.01586474390134
 20
-1.572566966670511
 30
0.0
 10
-33.14054197002049
 20
-1.675735931288091
 30
0.0
  0
SPLINE
  5
EE3A
330
EE14
100
AcDbEntity
  8
0
100
AcDbSpline
210
0.0
220
0.0
230
1.0
 70
     8
 71
     3
 72
     8
 73
     4
 74
     0
 42
0.000000001
 43
0.0000000001
 40
-1.0
 40
-1.0
 40
-1.0
 40
-1.0
 40
0.0
 40
0.0
 40
0.0
 40
0.0
 10
33.14054197002042
 20
-1.675735931288076
 30
0.0
 10
33.01586474390262
 20
-1.5725669666705
 30
0.0
 10
32.97251992073892
 20
-1.500000000000004
 30
0.0
 10
33.01767776087195
 20
-1.500000000000004
 30
0.0
  0
ELLIPSE
  5
EE3B
330
EE14
100
AcDbEntity
  8
0
100
AcDbEllipse
 10
-34.50000000000002
 20
-1.227476037518806
 30
0.0
 11
-1.5
 21
0.0000000000001092
 31
0.0
210
0.0
220
0.0
230
1.0
 40
0.7071067811865475
 41
1.570796326795022
 42
2.705254581962137
  0
LINE
  5
EE3C
330
EE14
100
AcDbEntity
  8
0
100
AcDbLine
 10
-34.50000000000002
 20
-2.288136209298609
 30
0.0
 11
-36.79315533855962
 21
-2.288136209298584
 31
0.0
  0
LINE
  5
EE3D
330
EE14
100
AcDbEntity
  8
0
100
AcDbLine
 10
-36.79315533855962
 20
-2.288136209298584
 30
0.0
 11
-37.40000000000002
 21
-2.717240184541147
 31
0.0
  0
LINE
  5
EE3E
330
EE14
100
AcDbEntity
  8
0
100
AcDbLine
 10
37.39999999999998
 20
-2.717240184541121
 30
0.0
 11
36.79315533855959
 21
-2.288136209298559
 31
0.0
  0
LINE
  5
EE3F
330
EE14
100
AcDbEntity
  8
0
100
AcDbLine
 10
36.79315533855959
 20
-2.288136209298559
 30
0.0
 11
34.49999999999998
 21
-2.288136209298585
 31
0.0
  0
ELLIPSE
  5
EE40
330
EE14
100
AcDbEntity
  8
0
100
AcDbEllipse
 10
34.49999999999998
 20
-1.22747603751879
 30
0.0
 11
-1.5
 21
-0.0000000000000003
 31
0.0
210
0.0
220
0.0
230
1.0
 40
0.7071067811865474
 41
0.4363380716279153
 42
1.570796326794896
  0
LINE
  5
EE41
330
EE14
100
AcDbEntity
  8
0
100
AcDbLine
 10
-38.00000000000501
 20
-62.91118318265866
 30
0.0
 11
-39.50000000000589
 21
-62.91118318265866
 31
0.0
  0
LINE
  5
EE42
330
EE14
100
AcDbEntity
  8
0
100
AcDbLine
 10
-38.00000000000007
 20
-43.50000000000001
 30
0.0
 11
-38.00000000000501
 21
-62.91118318265866
 31
0.0
  0
SPLINE
  5
EE43
330
EE14
100
AcDbEntity
  8
0
100
AcDbSpline
210
0.0
220
0.0
230
1.0
 70
     8
 71
     3
 72
     8
 73
     4
 74
     0
 42
0.000000001
 43
0.0000000001
 40
-1.0
 40
-1.0
 40
-1.0
 40
-1.0
 40
0.0
 40
0.0
 40
0.0
 40
0.0
 10
-37.40000000000002
 20
-2.717240184541162
 30
0.0
 10
-37.71415926535902
 20
-3.124319333760359
 30
0.0
 10
-38.00000000000005
 20
-3.733518404783858
 30
0.0
 10
-38.00000000000009
 20
-4.362741700911247
 30
0.0
  0
LINE
  5
EE44
330
EE14
100
AcDbEntity
  8
0
100
AcDbLine
 10
-37.40000000000002
 20
-2.717240184541147
 30
0.0
 11
-37.40000000000002
 21
-2.364040347338866
 31
0.0
  0
LINE
  5
EE45
330
EE14
100
AcDbEntity
  8
0
100
AcDbLine
 10
-37.40000000000002
 20
-2.364040347338866
 30
0.0
 11
-37.40000000000002
 21
-1.656580012761325
 31
0.0
  0
SPLINE
  5
EE46
330
EE14
100
AcDbEntity
  8
0
100
AcDbSpline
210
0.0
220
0.0
230
1.0
 70
     8
 71
     3
 72
     8
 73
     4
 74
     0
 42
0.000000001
 43
0.0000000001
 40
0.8233926083861636
 40
0.8233926083861636
 40
0.8233926083861636
 40
0.8233926083861636
 40
1.0
 40
1.0
 40
1.0
 40
1.0
 10
-37.96833079343952
 20
-1.934942494001893
 30
0.0
 10
-37.78528852951267
 20
-1.822430928280982
 30
0.0
 10
-37.59418996942231
 20
-1.728473199485322
 30
0.0
 10
-37.40000000000002
 20
-1.65658001276134
 30
0.0
  0
LINE
  5
EE47
330
EE14
100
AcDbEntity
  8
0
100
AcDbLine
 10
-37.40000000000002
 20
-1.656580012761325
 30
0.0
 11
-37.17856242236217
 21
-1.499999999999992
 31
0.0
  0
LINE
  5
EE48
330
EE14
100
AcDbEntity
  8
0
100
AcDbLine
 10
-36.79315533855962
 20
-2.288136209298584
 30
0.0
 11
-36.79315533855962
 21
-1.500000000000009
 31
0.0
  0
LINE
  5
EE49
330
EE14
100
AcDbEntity
  8
0
100
AcDbLine
 10
-33.14054197002045
 20
-1.675735931288091
 30
0.0
 11
-33.14054197002045
 21
-1.500000000000008
 31
0.0
  0
LINE
  5
EE4A
330
EE14
100
AcDbEntity
  8
0
100
AcDbLine
 10
38.00000000000217
 20
-62.91118318265849
 30
0.0
 11
38.00000000000217
 21
-43.49999999999997
 31
0.0
  0
LINE
  5
EE4B
330
EE14
100
AcDbEntity
  8
0
100
AcDbLine
 10
37.39999999999998
 20
-2.717240184541121
 30
0.0
 11
37.39999999999998
 21
-2.364040347337621
 31
0.0
  0
SPLINE
  5
EE4C
330
EE14
100
AcDbEntity
  8
0
100
AcDbSpline
210
0.0
220
0.0
230
1.0
 70
     8
 71
     3
 72
     8
 73
     4
 74
     0
 42
0.000000001
 43
0.0000000001
 40
-0.9999999999999944
 40
-0.9999999999999944
 40
-0.9999999999999944
 40
-0.9999999999999944
 40
0.0
 40
0.0
 40
0.0
 40
0.0
 10
38.0
 20
-4.362741700911208
 30
0.0
 10
37.99999999999999
 20
-3.733518404783919
 30
0.0
 10
37.71415926535897
 20
-3.124319333760961
 30
0.0
 10
37.39999999999998
 20
-2.717240184541128
 30
0.0
  0
SPLINE
  5
EE4D
330
EE14
100
AcDbEntity
  8
0
100
AcDbSpline
210
0.0
220
0.0
230
1.0
 70
     8
 71
     3
 72
     8
 73
     4
 74
     0
 42
0.000000001
 43
0.0000000001
 40
0.0
 40
0.0
 40
0.0
 40
0.0
 40
0.1766073916138402
 40
0.1766073916138402
 40
0.1766073916138402
 40
0.1766073916138402
 10
37.39999999999998
 20
-1.656580012761306
 30
0.0
 10
37.59418996942229
 20
-1.728473199485402
 30
0.0
 10
37.78528852951265
 20
-1.822430928281142
 30
0.0
 10
37.96833079343951
 20
-1.934942494002108
 30
0.0
  0
LINE
  5
EE4E
330
EE14
100
AcDbEntity
  8
0
100
AcDbLine
 10
37.39999999999998
 20
-2.364040347337621
 30
0.0
 11
37.39999999999998
 21
-1.656580012761301
 31
0.0
  0
LINE
  5
EE4F
330
EE14
100
AcDbEntity
  8
0
100
AcDbLine
 10
33.14054197002042
 20
-1.499999999999982
 30
0.0
 11
33.14054197002043
 21
-1.675735931288076
 31
0.0
  0
LINE
  5
EE50
330
EE14
100
AcDbEntity
  8
0
100
AcDbLine
 10
36.79315533855959
 20
-2.288136209298559
 30
0.0
 11
36.79315533855959
 21
-1.499999999999981
 31
0.0
  0
LINE
  5
EE51
330
EE14
100
AcDbEntity
  8
0
100
AcDbLine
 10
37.17856242236214
 20
-1.499999999999976
 30
0.0
 11
37.39999999999998
 21
-1.656580012761301
 31
0.0
  0
LINE
  5
EE52
330
EE14
100
AcDbEntity
  8
0
100
AcDbLine
 10
-39.50000000000589
 20
-62.91118318265866
 30
0.0
 11
-39.49999999999999
 21
-82.00306627385998
 31
0.0
  0
LINE
  5
EE53
330
EE14
100
AcDbEntity
  8
0
100
AcDbLine
 10
-38.00000000000501
 20
-62.91118318265866
 30
0.0
 11
-37.99999999999999
 21
-82.00306627385998
 31
0.0
  0
ELLIPSE
  5
EE54
330
EE14
100
AcDbEntity
  8
0
100
AcDbEllipse
 10
-20.50000000000002
 20
-0.1668158657389941
 30
0.0
 11
2.5
 21
0.0000000000001821
 31
0.0
210
0.0
220
0.0
230
1.0
 40
0.7071067811865472
 41
3.995971005724948
 42
5.428806955044163
  0
LINE
  5
EE55
330
EE14
100
AcDbEntity
  8
0
100
AcDbLine
 10
-22.91828991960765
 20
-1.500000000000001
 30
0.0
 11
-22.91828991960765
 21
-1.675735931288088
 31
0.0
  0
ELLIPSE
  5
EE56
330
EE14
100
AcDbEntity
  8
0
100
AcDbEllipse
 10
-20.50000000000002
 20
-1.227476037518803
 30
0.0
 11
2.5
 21
0.0000000000000006
 31
0.0
210
0.0
220
0.0
230
1.0
 40
0.7071067811865472
 41
3.397965980608242
 42
6.026811980161137
  0
LINE
  5
EE57
330
EE14
100
AcDbEntity
  8
0
100
AcDbLine
 10
-18.08171008039239
 20
-1.675735931288087
 30
0.0
 11
-18.08171008039239
 21
-1.5
 31
0.0
  0
SPLINE
  5
EE58
330
EE14
100
AcDbEntity
  8
0
100
AcDbSpline
210
0.0
220
0.0
230
1.0
 70
     8
 71
     3
 72
     8
 73
     4
 74
     0
 42
0.000000001
 43
0.0000000001
 40
-1.0
 40
-1.0
 40
-1.0
 40
-1.0
 40
0.0
 40
0.0
 40
0.0
 40
0.0
 10
-22.91828991960765
 20
-1.675735931288089
 30
0.0
 10
-22.99189972302042
 20
-1.567383125827729
 30
0.0
 10
-23.0160948364392
 20
-1.500000000000017
 30
0.0
 10
-22.98943351399746
 20
-1.500000000000017
 30
0.0
  0
SPLINE
  5
EE59
330
EE14
100
AcDbEntity
  8
0
100
AcDbSpline
210
0.0
220
0.0
230
1.0
 70
     8
 71
     3
 72
     8
 73
     4
 74
     0
 42
0.000000001
 43
0.0000000001
 40
-1.0
 40
-1.0
 40
-1.0
 40
-1.0
 40
0.0
 40
0.0
 40
0.0
 40
0.0
 10
-18.01056648600259
 20
-1.500000000000015
 30
0.0
 10
-17.98390516356059
 20
-1.500000000000015
 30
0.0
 10
-18.00810027697975
 20
-1.567383125827671
 30
0.0
 10
-18.08171008039239
 20
-1.675735931288087
 30
0.0
  0
ELLIPSE
  5
EE5A
330
EE14
100
AcDbEntity
  8
0
100
AcDbEllipse
 10
20.49999999999998
 20
-0.1668158657389921
 30
0.0
 11
2.5
 21
0.0000000000001836
 31
0.0
210
0.0
220
0.0
230
1.0
 40
0.7071067811865474
 41
3.995971005724943
 42
5.428806955044175
  0
LINE
  5
EE5B
330
EE14
100
AcDbEntity
  8
0
100
AcDbLine
 10
18.08171008039235
 20
-1.49999999999999
 30
0.0
 11
18.08171008039235
 21
-1.675735931288079
 31
0.0
  0
ELLIPSE
  5
EE5C
330
EE14
100
AcDbEntity
  8
0
100
AcDbEllipse
 10
20.49999999999998
 20
-1.227476037518794
 30
0.0
 11
2.5
 21
0.0000000000000006
 31
0.0
210
0.0
220
0.0
230
1.0
 40
0.7071067811865475
 41
3.39796598060824
 42
6.026811980161136
  0
LINE
  5
EE5D
330
EE14
100
AcDbEntity
  8
0
100
AcDbLine
 10
22.91828991960762
 20
-1.675735931288078
 30
0.0
 11
22.91828991960762
 21
-1.499999999999983
 31
0.0
  0
SPLINE
  5
EE5E
330
EE14
100
AcDbEntity
  8
0
100
AcDbSpline
210
0.0
220
0.0
230
1.0
 70
     8
 71
     3
 72
     8
 73
     4
 74
     0
 42
0.000000001
 43
0.0000000001
 40
-1.0
 40
-1.0
 40
-1.0
 40
-1.0
 40
0.0
 40
0.0
 40
0.0
 40
0.0
 10
18.08171008039235
 20
-1.675735931288079
 30
0.0
 10
18.0081002769797
 20
-1.567383125827708
 30
0.0
 10
17.98390516356057
 20
-1.500000000000008
 30
0.0
 10
18.01056648600255
 20
-1.500000000000008
 30
0.0
  0
SPLINE
  5
EE5F
330
EE14
100
AcDbEntity
  8
0
100
AcDbSpline
210
0.0
220
0.0
230
1.0
 70
     8
 71
     3
 72
     8
 73
     4
 74
     0
 42
0.000000001
 43
0.0000000001
 40
-1.0
 40
-1.0
 40
-1.0
 40
-1.0
 40
0.0
 40
0.0
 40
0.0
 40
0.0
 10
22.98943351399741
 20
-1.500000000000007
 30
0.0
 10
23.01609483643944
 20
-1.500000000000007
 30
0.0
 10
22.99189972302023
 20
-1.567383125827655
 30
0.0
 10
22.91828991960762
 20
-1.675735931288078
 30
0.0
  0
SPLINE
  5
EE60
330
EE14
100
AcDbEntity
  8
0
100
AcDbSpline
210
0.0
220
0.0
230
1.0
 70
     8
 71
     3
 72
     8
 73
     4
 74
     0
 42
0.000000001
 43
0.0000000001
 40
-1.0
 40
-1.0
 40
-1.0
 40
-1.0
 40
0.0
 40
0.0
 40
0.0
 40
0.0
 10
-4.918289920131934
 20
-1.675735931288084
 30
0.0
 10
-4.991899723307432
 20
-1.567383125811564
 30
0.0
 10
-5.016094836485444
 20
-1.500000000000013
 30
0.0
 10
-4.98943351381298
 20
-1.500000000000013
 30
0.0
  0
SPLINE
  5
EE61
330
EE14
100
AcDbEntity
  8
0
100
AcDbSpline
210
0.0
220
0.0
230
1.0
 70
     8
 71
     3
 72
     8
 73
     4
 74
     0
 42
0.000000001
 43
0.0000000001
 40
-1.0
 40
-1.0
 40
-1.0
 40
-1.0
 40
0.0
 40
0.0
 40
0.0
 40
0.0
 10
4.98943351381294
 20
-1.500000000000011
 30
0.0
 10
5.016094836485369
 20
-1.500000000000011
 30
0.0
 10
4.991899723307236
 20
-1.567383125811559
 30
0.0
 10
4.918289920131902
 20
-1.675735931288082
 30
0.0
  0
ELLIPSE
  5
EE62
330
EE14
100
AcDbEntity
  8
0
100
AcDbEllipse
 10
-2.500000000000017
 20
-0.1668158671532016
 30
0.0
 11
2.5
 21
0.000000000000183
 31
0.0
210
0.0
220
0.0
230
1.0
 40
0.7071067811865475
 41
3.99597100450671
 42
4.712388980384622
  0
LINE
  5
EE63
330
EE14
100
AcDbEntity
  8
0
100
AcDbLine
 10
-4.918289920131934
 20
-1.499999999999994
 30
0.0
 11
-4.918289920131937
 21
-1.675735931288084
 31
0.0
  0
ELLIPSE
  5
EE64
330
EE14
100
AcDbEntity
  8
0
100
AcDbEllipse
 10
-2.500000000000017
 20
-1.227476038933012
 30
0.0
 11
-2.5
 21
-0.0000000000000002
 31
0.0
210
0.0
220
0.0
230
1.0
 40
0.7071067811865474
 41
0.2563733261914178
 42
1.570796326794896
  0
LINE
  5
EE65
330
EE14
100
AcDbEntity
  8
0
100
AcDbLine
 10
-2.500000000000017
 20
-1.934582820119546
 30
0.0
 11
2.499999999999982
 21
-1.934582820119544
 31
0.0
  0
LINE
  5
EE66
330
EE14
100
AcDbEntity
  8
0
100
AcDbLine
 10
2.499999999999982
 20
-2.995242991899367
 30
0.0
 11
-2.500000000000017
 21
-2.995242991899369
 31
0.0
  0
ELLIPSE
  5
EE67
330
EE14
100
AcDbEntity
  8
0
100
AcDbEllipse
 10
2.499999999999981
 20
-0.1668158671531994
 30
0.0
 11
2.5
 21
0.0000000000000006
 31
0.0
210
0.0
220
0.0
230
1.0
 40
0.7071067811865474
 41
4.712388980384689
 42
5.428806956262533
  0
ELLIPSE
  5
EE68
330
EE14
100
AcDbEntity
  8
0
100
AcDbEllipse
 10
2.499999999999981
 20
-1.227476038933011
 30
0.0
 11
2.5
 21
0.0000000000000004
 31
0.0
210
0.0
220
0.0
230
1.0
 40
0.7071067811865474
 41
4.712388980384689
 42
6.026811980988167
  0
LINE
  5
EE69
330
EE14
100
AcDbEntity
  8
0
100
AcDbLine
 10
4.918289920131898
 20
-1.675735931288082
 30
0.0
 11
4.918289920131898
 21
-1.49999999999999
 31
0.0
  0
LINE
  5
EE6A
330
EE14
100
AcDbEntity
  8
0
100
AcDbLine
 10
-37.4
 20
-55.8401153701776
 30
0.0
 11
37.39999999999999
 21
-55.84011537017758
 31
0.0
  0
ELLIPSE
  5
EE6B
330
EE14
100
AcDbEntity
  8
0
100
AcDbEllipse
 10
-37.4
 20
-56.2643794388896
 30
0.0
 11
-0.6000000000000592
 21
0.0000000000000709
 31
0.0
210
0.0
220
0.0
230
1.0
 40
0.7071067811865688
 41
4.712388980384936
 42
6.283185307179921
  0
ARC
  5
EE6C
330
EE14
100
AcDbEntity
  8
0
100
AcDbCircle
 10
37.4
 20
-2.099999999999977
 30
0.0
 40
0.6000000000000006
100
AcDbArc
 50
0.0
 51
89.99999999999916
  0
ARC
  5
EE6D
330
EE14
100
AcDbEntity
  8
0
100
AcDbCircle
 10
37.4
 20
-2.099999999999977
 30
0.0
 40
2.099999999999999
100
AcDbArc
 50
0.0
 51
89.99999999999976
  0
ARC
  5
EE6E
330
EE14
100
AcDbEntity
  8
0
100
AcDbCircle
 10
-37.40000000000002
 20
-2.100000000000008
 30
0.0
 40
0.6000000000000006
100
AcDbArc
 50
89.99999999999957
 51
180.0
  0
ARC
  5
EE6F
330
EE14
100
AcDbEntity
  8
0
100
AcDbCircle
 10
-37.40000000000002
 20
-2.100000000000008
 30
0.0
 40
2.099999999999999
100
AcDbArc
 50
90.0
 51
180.0
  0
ENDBLK
  5
EE16
330
EE14
100
AcDbEntity
  8
0
100
AcDbBlockEnd
  0
BLOCK
  5
EE71
330
EE70
100
AcDbEntity
  8
0
100
AcDbBlockBegin
  2
SPR76_180-Bottom
 70
     0
 10
0.0
 20
0.0
 30
0.0
  3
SPR76_180-Bottom
  1

  0
LINE
  5
EE73
330
EE70
100
AcDbEntity
  8
0
100
AcDbLine
 10
80.52709056099997
 20
1.499999999999964
 30
0.0
 11
75.52709056099998
 21
1.499999999999966
 31
0.0
  0
LINE
  5
EE74
330
EE70
100
AcDbEntity
  8
0
100
AcDbLine
 10
75.52709056099998
 20
1.499999999999966
 30
0.0
 11
75.52709056099998
 21
0.0
 31
0.0
  0
LINE
  5
EE75
330
EE70
100
AcDbEntity
  8
0
100
AcDbLine
 10
75.52709056099998
 20
0.0
 30
0.0
 11
80.52709056099997
 21
0.0
 31
0.0
  0
LINE
  5
EE76
330
EE70
100
AcDbEntity
  8
0
100
AcDbLine
 10
80.52709056099997
 20
0.0
 30
0.0
 11
80.52709056099997
 21
1.499999999999964
 31
0.0
  0
LINE
  5
EE77
330
EE70
100
AcDbEntity
  8
0
100
AcDbLine
 10
-80.52709056100001
 20
0.0
 30
0.0
 11
-75.52709056100001
 21
0.0
 31
0.0
  0
LINE
  5
EE78
330
EE70
100
AcDbEntity
  8
0
100
AcDbLine
 10
-75.52709056100001
 20
1.500000000000025
 30
0.0
 11
-80.52709056100001
 21
1.500000000000027
 31
0.0
  0
LINE
  5
EE79
330
EE70
100
AcDbEntity
  8
0
100
AcDbLine
 10
-80.52709056100001
 20
1.500000000000027
 30
0.0
 11
-80.52709056100001
 21
0.0
 31
0.0
  0
LINE
  5
EE7A
330
EE70
100
AcDbEntity
  8
0
100
AcDbLine
 10
-75.52709056100001
 20
0.0
 30
0.0
 11
-75.52709056100001
 21
1.500000000000025
 31
0.0
  0
LINE
  5
EE7B
330
EE70
100
AcDbEntity
  8
0
100
AcDbLine
 10
75.52709056099998
 20
0.0
 30
0.0
 11
34.49999999999997
 21
0.0
 31
0.0
  0
LINE
  5
EE7C
330
EE70
100
AcDbEntity
  8
0
100
AcDbLine
 10
-34.50000000000002
 20
0.0
 30
0.0
 11
-75.52709056100001
 21
0.0
 31
0.0
  0
LINE
  5
EE7D
330
EE70
100
AcDbEntity
  8
0
100
AcDbLine
 10
-37.1785624223622
 20
1.500000000000009
 30
0.0
 11
-75.52709056100001
 21
1.500000000000025
 31
0.0
  0
LINE
  5
EE7E
330
EE70
100
AcDbEntity
  8
0
100
AcDbLine
 10
75.52709056099998
 20
1.499999999999966
 30
0.0
 11
37.17856242236215
 21
1.499999999999981
 31
0.0
  0
LINE
  5
EE7F
330
EE70
100
AcDbEntity
  8
0
100
AcDbLine
 10
34.49999999999998
 20
0.0
 30
0.0
 11
33.01767776087193
 21
0.0
 31
0.0
  0
LINE
  5
EE80
330
EE70
100
AcDbEntity
  8
0
100
AcDbLine
 10
-33.01767776087198
 20
0.0
 30
0.0
 11
-34.50000000000002
 21
0.0
 31
0.0
  0
SPLINE
  5
EE81
330
EE70
100
AcDbEntity
  8
0
100
AcDbSpline
210
0.0
220
0.0
230
1.0
 70
     8
 71
     3
 72
     8
 73
     4
 74
     0
 42
0.000000001
 43
0.0000000001
 40
0.0
 40
0.0
 40
0.0
 40
0.0
 40
1.0
 40
1.0
 40
1.0
 40
1.0
 10
-33.14054197002049
 20
0.6150757595082706
 30
0.0
 10
-33.01586474390134
 20
0.2539843833467417
 30
0.0
 10
-32.97251992073986
 20
0.0000000000000191
 30
0.0
 10
-33.01767776087199
 20
0.0000000000000193
 30
0.0
  0
SPLINE
  5
EE82
330
EE70
100
AcDbEntity
  8
0
100
AcDbSpline
210
0.0
220
0.0
230
1.0
 70
     8
 71
     3
 72
     8
 73
     4
 74
     0
 42
0.000000001
 43
0.0000000001
 40
0.0
 40
0.0
 40
0.0
 40
0.0
 40
1.0
 40
1.0
 40
1.0
 40
1.0
 10
33.01767776087195
 20
0.0000000000000046
 30
0.0
 10
32.97251992073892
 20
0.0000000000000046
 30
0.0
 10
33.01586474390262
 20
0.2539843833467368
 30
0.0
 10
33.14054197002042
 20
0.6150757595082558
 30
0.0
  0
SPLINE
  5
EE83
330
EE70
100
AcDbEntity
  8
0
100
AcDbSpline
210
0.0
220
0.0
230
1.0
 70
     8
 71
     3
 72
     8
 73
     4
 74
     0
 42
0.000000001
 43
0.0000000001
 40
0.0
 40
0.0
 40
0.0
 40
0.0
 40
1.0
 40
1.0
 40
1.0
 40
1.0
 10
-39.50000000000009
 20
4.362741700911122
 30
0.0
 10
-39.49999999999996
 20
3.178158037513985
 30
0.0
 10
-38.49955742875645
 20
2.063659161980539
 30
0.0
 10
-37.40000000000002
 20
1.65658001276134
 30
0.0
  0
LINE
  5
EE84
330
EE70
100
AcDbEntity
  8
0
100
AcDbLine
 10
-37.40000000000002
 20
1.656580012761325
 30
0.0
 11
-36.79315533855962
 21
1.227476037518766
 31
0.0
  0
LINE
  5
EE85
330
EE70
100
AcDbEntity
  8
0
100
AcDbLine
 10
-36.79315533855962
 20
1.227476037518766
 30
0.0
 11
-34.50000000000002
 21
1.227476037518786
 31
0.0
  0
ELLIPSE
  5
EE86
330
EE70
100
AcDbEntity
  8
0
100
AcDbEllipse
 10
-34.50000000000002
 20
0.1668158657389954
 30
0.0
 11
1.5
 21
-0.0000000000000003
 31
0.0
210
0.0
220
0.0
230
1.0
 40
0.7071067811865474
 41
0.4363380716279118
 42
1.570796326794896
  0
LINE
  5
EE87
330
EE70
100
AcDbEntity
  8
0
100
AcDbLine
 10
-33.01767776087198
 20
0.1805170265382706
 30
0.0
 11
-33.01767776087198
 21
0.0
 31
0.0
  0
SPLINE
  5
EE88
330
EE70
100
AcDbEntity
  8
0
100
AcDbSpline
210
0.0
220
0.0
230
1.0
 70
     8
 71
     3
 72
     8
 73
     4
 74
     0
 42
0.000000001
 43
0.0000000001
 40
0.0
 40
0.0
 40
0.0
 40
0.0
 40
0.9999999999999944
 40
0.9999999999999944
 40
0.9999999999999944
 40
0.9999999999999944
 10
37.39999999999998
 20
1.656580012761306
 30
0.0
 10
38.49955742875643
 20
2.063659161981139
 30
0.0
 10
39.49999999999995
 20
3.178158037514097
 30
0.0
 10
39.5
 20
4.362741700911161
 30
0.0
  0
ELLIPSE
  5
EE89
330
EE70
100
AcDbEntity
  8
0
100
AcDbEllipse
 10
34.49999999999998
 20
0.1668158657389815
 30
0.0
 11
1.5
 21
-0.0000000000001092
 31
0.0
210
0.0
220
0.0
230
1.0
 40
0.7071067811865475
 41
1.570796326795022
 42
2.70525458196213
  0
LINE
  5
EE8A
330
EE70
100
AcDbEntity
  8
0
100
AcDbLine
 10
34.49999999999998
 20
1.227476037518763
 30
0.0
 11
36.79315533855959
 21
1.227476037518745
 31
0.0
  0
LINE
  5
EE8B
330
EE70
100
AcDbEntity
  8
0
100
AcDbLine
 10
36.79315533855959
 20
1.227476037518745
 30
0.0
 11
37.39999999999998
 21
1.656580012761301
 31
0.0
  0
LINE
  5
EE8C
330
EE70
100
AcDbEntity
  8
0
100
AcDbLine
 10
33.01767776087193
 20
0.1805170265382918
 30
0.0
 11
33.01767776087193
 21
0.0
 31
0.0
  0
LINE
  5
EE8D
330
EE70
100
AcDbEntity
  8
0
100
AcDbLine
 10
22.98943351399741
 20
0.0
 30
0.0
 11
33.01767776087193
 21
0.0
 31
0.0
  0
LINE
  5
EE8E
330
EE70
100
AcDbEntity
  8
0
100
AcDbLine
 10
4.989433513812942
 20
0.0
 30
0.0
 11
18.01056648600255
 21
0.0
 31
0.0
  0
LINE
  5
EE8F
330
EE70
100
AcDbEntity
  8
0
100
AcDbLine
 10
-18.01056648600259
 20
0.0
 30
0.0
 11
-4.989433513812977
 21
0.0
 31
0.0
  0
LINE
  5
EE90
330
EE70
100
AcDbEntity
  8
0
100
AcDbLine
 10
-33.01767776087198
 20
0.0
 30
0.0
 11
-22.98943351399745
 21
0.0
 31
0.0
  0
LINE
  5
EE91
330
EE70
100
AcDbEntity
  8
0
100
AcDbLine
 10
39.49999999999999
 20
56.26437943888952
 30
0.0
 11
39.49999999999997
 21
82.00306627385998
 31
0.0
  0
LINE
  5
EE92
330
EE70
100
AcDbEntity
  8
0
100
AcDbLine
 10
-39.49999999999997
 20
82.00306627385996
 30
0.0
 11
-39.5
 21
56.26437943888955
 31
0.0
  0
LINE
  5
EE93
330
EE70
100
AcDbEntity
  8
0
100
AcDbLine
 10
-37.99999999999999
 20
82.00306627385996
 30
0.0
 11
-38.0
 21
56.26437943888955
 31
0.0
  0
LINE
  5
EE94
330
EE70
100
AcDbEntity
  8
0
100
AcDbLine
 10
-37.4
 20
55.8401153701776
 30
0.0
 11
37.39999999999999
 21
55.84011537017758
 31
0.0
  0
LINE
  5
EE95
330
EE70
100
AcDbEntity
  8
0
100
AcDbLine
 10
37.99999999999999
 20
56.26437943888952
 30
0.0
 11
37.99999999999999
 21
82.00306627385998
 31
0.0
  0
LINE
  5
EE96
330
EE70
100
AcDbEntity
  8
0
100
AcDbLine
 10
-37.4
 20
54.77945519839778
 30
0.0
 11
37.39999999999999
 21
54.77945519839777
 31
0.0
  0
LINE
  5
EE97
330
EE70
100
AcDbEntity
  8
0
100
AcDbLine
 10
22.98943351399741
 20
0.0
 30
0.0
 11
18.01056648600255
 21
0.0
 31
0.0
  0
LINE
  5
EE98
330
EE70
100
AcDbEntity
  8
0
100
AcDbLine
 10
-18.01056648600259
 20
0.0
 30
0.0
 11
-22.98943351399745
 21
0.0
 31
0.0
  0
ELLIPSE
  5
EE99
330
EE70
100
AcDbEntity
  8
0
100
AcDbEllipse
 10
-20.50000000000002
 20
0.1668158657389941
 30
0.0
 11
-2.5
 21
0.0000000000000002
 31
0.0
210
0.0
220
0.0
230
1.0
 40
0.7071067811865474
 41
3.39796598060824
 42
6.026811980161136
  0
SPLINE
  5
EE9A
330
EE70
100
AcDbEntity
  8
0
100
AcDbSpline
210
0.0
220
0.0
230
1.0
 70
     8
 71
     3
 72
     8
 73
     4
 74
     0
 42
0.000000001
 43
0.0000000001
 40
0.0
 40
0.0
 40
0.0
 40
0.0
 40
1.0
 40
1.0
 40
1.0
 40
1.0
 10
-22.98943351399746
 20
0.000000000000017
 30
0.0
 10
-23.0160948364392
 20
0.0000000000000171
 30
0.0
 10
-22.99189972302042
 20
0.2358409403970088
 30
0.0
 10
-22.91828991960765
 20
0.6150757595082692
 30
0.0
  0
LINE
  5
EE9B
330
EE70
100
AcDbEntity
  8
0
100
AcDbLine
 10
-22.98943351399745
 20
0.1805170265382595
 30
0.0
 11
-22.98943351399745
 21
0.0
 31
0.0
  0
LINE
  5
EE9C
330
EE70
100
AcDbEntity
  8
0
100
AcDbLine
 10
-18.01056648600259
 20
0.1805170265382631
 30
0.0
 11
-18.01056648600259
 21
0.0
 31
0.0
  0
SPLINE
  5
EE9D
330
EE70
100
AcDbEntity
  8
0
100
AcDbSpline
210
0.0
220
0.0
230
1.0
 70
     8
 71
     3
 72
     8
 73
     4
 74
     0
 42
0.000000001
 43
0.0000000001
 40
0.0
 40
0.0
 40
0.0
 40
0.0
 40
1.0
 40
1.0
 40
1.0
 40
1.0
 10
-18.08171008039239
 20
0.6150757595082642
 30
0.0
 10
-18.00810027697975
 20
0.2358409403968093
 30
0.0
 10
-17.98390516356059
 20
0.0000000000000159
 30
0.0
 10
-18.01056648600259
 20
0.0000000000000159
 30
0.0
  0
LINE
  5
EE9E
330
EE70
100
AcDbEntity
  8
0
100
AcDbLine
 10
-22.14171865077715
 20
1.499999999999999
 30
0.0
 11
-18.85828134922289
 21
1.499999999999998
 31
0.0
  0
ELLIPSE
  5
EE9F
330
EE70
100
AcDbEntity
  8
0
100
AcDbEllipse
 10
20.49999999999998
 20
0.1668158657389921
 30
0.0
 11
-2.5
 21
0.0000000000000008
 31
0.0
210
0.0
220
0.0
230
1.0
 40
0.7071067811865474
 41
3.397965980608242
 42
6.026811980161137
  0
SPLINE
  5
EEA0
330
EE70
100
AcDbEntity
  8
0
100
AcDbSpline
210
0.0
220
0.0
230
1.0
 70
     8
 71
     3
 72
     8
 73
     4
 74
     0
 42
0.000000001
 43
0.0000000001
 40
0.0
 40
0.0
 40
0.0
 40
0.0
 40
1.0
 40
1.0
 40
1.0
 40
1.0
 10
18.01056648600255
 20
0.0000000000000079
 30
0.0
 10
17.98390516356057
 20
0.0000000000000078
 30
0.0
 10
18.0081002769797
 20
0.2358409403969597
 30
0.0
 10
18.08171008039235
 20
0.6150757595082581
 30
0.0
  0
LINE
  5
EEA1
330
EE70
100
AcDbEntity
  8
0
100
AcDbLine
 10
18.01056648600255
 20
0.1805170265382521
 30
0.0
 11
18.01056648600255
 21
0.0
 31
0.0
  0
LINE
  5
EEA2
330
EE70
100
AcDbEntity
  8
0
100
AcDbLine
 10
22.98943351399741
 20
0.1805170265382443
 30
0.0
 11
22.98943351399741
 21
0.0
 31
0.0
  0
SPLINE
  5
EEA3
330
EE70
100
AcDbEntity
  8
0
100
AcDbSpline
210
0.0
220
0.0
230
1.0
 70
     8
 71
     3
 72
     8
 73
     4
 74
     0
 42
0.000000001
 43
0.0000000001
 40
0.0
 40
0.0
 40
0.0
 40
0.0
 40
1.0
 40
1.0
 40
1.0
 40
1.0
 10
22.91828991960762
 20
0.6150757595082571
 30
0.0
 10
22.99189972302023
 20
0.2358409403967768
 30
0.0
 10
23.01609483643944
 20
0.0000000000000069
 30
0.0
 10
22.98943351399741
 20
0.0000000000000068
 30
0.0
  0
LINE
  5
EEA4
330
EE70
100
AcDbEntity
  8
0
100
AcDbLine
 10
18.85828134922284
 20
1.49999999999999
 30
0.0
 11
22.14171865077712
 21
1.499999999999989
 31
0.0
  0
LINE
  5
EEA5
330
EE70
100
AcDbEntity
  8
0
100
AcDbLine
 10
4.989433513812942
 20
0.0
 30
0.0
 11
2.499999999999981
 21
0.0
 31
0.0
  0
LINE
  5
EEA6
330
EE70
100
AcDbEntity
  8
0
100
AcDbLine
 10
2.499999999999981
 20
0.0
 30
0.0
 11
-2.500000000000017
 21
0.0
 31
0.0
  0
LINE
  5
EEA7
330
EE70
100
AcDbEntity
  8
0
100
AcDbLine
 10
-2.500000000000017
 20
0.0
 30
0.0
 11
-4.989433513812977
 21
0.0
 31
0.0
  0
SPLINE
  5
EEA8
330
EE70
100
AcDbEntity
  8
0
100
AcDbSpline
210
0.0
220
0.0
230
1.0
 70
     8
 71
     3
 72
     8
 73
     4
 74
     0
 42
0.000000001
 43
0.0000000001
 40
0.0
 40
0.0
 40
0.0
 40
0.0
 40
1.0
 40
1.0
 40
1.0
 40
1.0
 10
-4.989433513812981
 20
0.000000000000013
 30
0.0
 10
-5.016094836485444
 20
0.000000000000013
 30
0.0
 10
-4.991899723307433
 20
0.235840940340442
 30
0.0
 10
-4.918289920131935
 20
0.6150757595082633
 30
0.0
  0
SPLINE
  5
EEA9
330
EE70
100
AcDbEntity
  8
0
100
AcDbSpline
210
0.0
220
0.0
230
1.0
 70
     8
 71
     3
 72
     8
 73
     4
 74
     0
 42
0.000000001
 43
0.0000000001
 40
0.0
 40
0.0
 40
0.0
 40
0.0
 40
1.0
 40
1.0
 40
1.0
 40
1.0
 10
4.918289920131902
 20
0.615075759508261
 30
0.0
 10
4.991899723307236
 20
0.2358409403404309
 30
0.0
 10
5.016094836485369
 20
0.0000000000000106
 30
0.0
 10
4.98943351381294
 20
0.0000000000000108
 30
0.0
  0
ELLIPSE
  5
EEAA
330
EE70
100
AcDbEntity
  8
0
100
AcDbEllipse
 10
-2.500000000000017
 20
0.1668158671532016
 30
0.0
 11
-2.5
 21
0.0000000000000008
 31
0.0
210
0.0
220
0.0
230
1.0
 40
0.7071067811865471
 41
4.712388980384689
 42
6.026811980988168
  0
LINE
  5
EEAB
330
EE70
100
AcDbEntity
  8
0
100
AcDbLine
 10
-2.500000000000017
 20
1.934582820119546
 30
0.0
 11
2.499999999999982
 21
1.934582820119544
 31
0.0
  0
ELLIPSE
  5
EEAC
330
EE70
100
AcDbEntity
  8
0
100
AcDbEllipse
 10
2.499999999999981
 20
0.1668158671531994
 30
0.0
 11
2.5
 21
-0.0000000000000006
 31
0.0
210
0.0
220
0.0
230
1.0
 40
0.7071067811865474
 41
0.2563733261914187
 42
1.570796326794896
  0
LINE
  5
EEAD
330
EE70
100
AcDbEntity
  8
0
100
AcDbLine
 10
-4.989433513812977
 20
0.1805170296371958
 30
0.0
 11
-4.989433513812977
 21
0.0
 31
0.0
  0
LINE
  5
EEAE
330
EE70
100
AcDbEntity
  8
0
100
AcDbLine
 10
4.989433513812942
 20
0.1805170296371458
 30
0.0
 11
4.989433513812942
 21
0.0
 31
0.0
  0
LINE
  5
EEAF
330
EE70
100
AcDbEntity
  8
0
100
AcDbLine
 10
2.499999999999983
 20
1.499999999999994
 30
0.0
 11
4.141718653073974
 21
1.499999999999993
 31
0.0
  0
LINE
  5
EEB0
330
EE70
100
AcDbEntity
  8
0
100
AcDbLine
 10
-2.500000000000017
 20
1.499999999999995
 30
0.0
 11
2.499999999999982
 21
1.499999999999993
 31
0.0
  0
LINE
  5
EEB1
330
EE70
100
AcDbEntity
  8
0
100
AcDbLine
 10
-4.141718653074009
 20
1.499999999999995
 30
0.0
 11
-2.500000000000017
 21
1.499999999999995
 31
0.0
  0
LINE
  5
EEB2
330
EE70
100
AcDbEntity
  8
0
100
AcDbLine
 10
39.5
 20
2.099999999999964
 30
0.0
 11
39.50000000000001
 21
4.362741700911206
 31
0.0
  0
LINE
  5
EEB3
330
EE70
100
AcDbEntity
  8
0
100
AcDbLine
 10
-39.50000000000002
 20
4.362741700911128
 30
0.0
 11
-39.50000000000002
 21
2.100000000000008
 31
0.0
  0
LINE
  5
EEB4
330
EE70
100
AcDbEntity
  8
0
100
AcDbLine
 10
37.99999999999999
 20
82.00306627385998
 30
0.0
 11
39.49999999999997
 21
82.00306627385998
 31
0.0
  0
LINE
  5
EEB5
330
EE70
100
AcDbEntity
  8
0
100
AcDbLine
 10
-39.49999999999997
 20
82.00306627385996
 30
0.0
 11
-37.99999999999999
 21
82.00306627385996
 31
0.0
  0
LINE
  5
EEB6
330
EE70
100
AcDbEntity
  8
0
100
AcDbLine
 10
39.49999999999999
 20
56.26437943888952
 30
0.0
 11
39.5
 21
4.362741700911207
 31
0.0
  0
ELLIPSE
  5
EEB7
330
EE70
100
AcDbEntity
  8
0
100
AcDbEllipse
 10
37.39999999999999
 20
56.26437943888952
 30
0.0
 11
0.6000000000000087
 21
-0.0000000000000546
 31
0.0
210
0.0
220
0.0
230
1.0
 40
0.7071067811866067
 41
4.71238898038482
 42
6.283185307179502
  0
ELLIPSE
  5
EEB8
330
EE70
100
AcDbEntity
  8
0
100
AcDbEllipse
 10
37.39999999999999
 20
56.26437943888952
 30
0.0
 11
2.100000000000031
 21
-0.0000000000002047
 31
0.0
210
0.0
220
0.0
230
1.0
 40
0.7071067811865466
 41
4.712388980384638
 42
6.283185307179347
  0
LINE
  5
EEB9
330
EE70
100
AcDbEntity
  8
0
100
AcDbLine
 10
-39.50000000000009
 20
4.362741700911135
 30
0.0
 11
-39.5
 21
56.26437943888955
 31
0.0
  0
ELLIPSE
  5
EEBA
330
EE70
100
AcDbEntity
  8
0
100
AcDbEllipse
 10
-37.4
 20
56.26437943888956
 30
0.0
 11
-2.100000000000031
 21
-0.0000000000000065
 31
0.0
210
0.0
220
0.0
230
1.0
 40
0.7071067811865476
 41
0.0
 42
1.570796326794892
  0
ELLIPSE
  5
EEBB
330
EE70
100
AcDbEntity
  8
0
100
AcDbEllipse
 10
-37.4
 20
56.2643794388896
 30
0.0
 11
-0.6000000000000592
 21
-0.0000000000000709
 31
0.0
210
0.0
220
0.0
230
1.0
 40
0.7071067811865688
 41
0.0
 42
1.57079632679465
  0
ARC
  5
EEBC
330
EE70
100
AcDbEntity
  8
0
100
AcDbCircle
 10
37.4
 20
2.099999999999977
 30
0.0
 40
0.6000000000000006
100
AcDbArc
 50
270.0000000000008
 51
343.4444348564571
  0
ARC
  5
EEBD
330
EE70
100
AcDbEntity
  8
0
100
AcDbCircle
 10
37.4
 20
2.099999999999977
 30
0.0
 40
2.099999999999999
100
AcDbArc
 50
343.3984504009799
 51
0.0
  0
ARC
  5
EEBE
330
EE70
100
AcDbEntity
  8
0
100
AcDbCircle
 10
-37.40000000000002
 20
2.100000000000008
 30
0.0
 40
0.6000000000000006
100
AcDbArc
 50
196.5555651435446
 51
270.0000000000004
  0
ARC
  5
EEBF
330
EE70
100
AcDbEntity
  8
0
100
AcDbCircle
 10
-37.40000000000002
 20
2.100000000000008
 30
0.0
 40
2.099999999999999
100
AcDbArc
 50
180.0
 51
196.60154959902
  0
ENDBLK
  5
EE72
330
EE70
100
AcDbEntity
  8
0
100
AcDbBlockEnd
  0
BLOCK
  5
EEC1
330
EEC0
100
AcDbEntity
  8
0
100
AcDbBlockBegin
  2
SPR76_180-ISO
 70
     0
 10
0.0
 20
0.0
 30
0.0
  3
SPR76_180-ISO
  1

  0
LINE
  5
EEC3
330
EEC0
100
AcDbEntity
  8
0
100
AcDbLine
 10
84.8706623076849
 20
-62.66988717597216
 30
0.0
 11
81.33512840175217
 21
-64.71112862829148
 31
0.0
  0
LINE
  5
EEC4
330
EEC0
100
AcDbEntity
  8
0
100
AcDbLine
 10
85.93132247946472
 20
-62.05751474027636
 30
0.0
 11
84.8706623076849
 21
-62.66988717597216
 31
0.0
  0
LINE
  5
EEC5
330
EEC0
100
AcDbEntity
  8
0
100
AcDbLine
 10
84.87066230768489
 20
-8.781112834742224
 30
0.0
 11
85.93132247946471
 21
-8.168740399046425
 31
0.0
  0
LINE
  5
EEC6
330
EEC0
100
AcDbEntity
  8
0
100
AcDbLine
 10
85.93132247946471
 20
-8.168740399046425
 30
0.0
 11
82.39578857353198
 21
-2.045016042088483
 31
0.0
  0
LINE
  5
EEC7
330
EEC0
100
AcDbEntity
  8
0
100
AcDbLine
 10
-25.47630739619504
 20
-3.043517417816272
 30
0.0
 11
-29.01184130212778
 21
3.080206939141669
 31
0.0
  0
LINE
  5
EEC8
330
EEC0
100
AcDbEntity
  8
0
100
AcDbLine
 10
81.33512840175216
 20
-2.657388477784281
 30
0.0
 11
84.87066230768489
 21
-8.781112834742224
 31
0.0
  0
LINE
  5
EEC9
330
EEC0
100
AcDbEntity
  8
0
100
AcDbLine
 10
82.39578857353198
 20
-2.045016042088483
 30
0.0
 11
81.33512840175216
 21
-2.657388477784281
 31
0.0
  0
LINE
  5
EECA
330
EEC0
100
AcDbEntity
  8
0
100
AcDbLine
 10
85.93132247946471
 20
-8.168740399046425
 30
0.0
 11
85.93132247946472
 21
-62.05751474027636
 31
0.0
  0
LINE
  5
EECB
330
EEC0
100
AcDbEntity
  8
0
100
AcDbLine
 10
84.87066230768489
 20
-8.781112834742224
 30
0.0
 11
84.8706623076849
 21
-62.66988717597216
 31
0.0
  0
LINE
  5
EECC
330
EEC0
100
AcDbEntity
  8
0
100
AcDbLine
 10
-0.0013073540900788
 20
45.52696947216751
 30
0.0
 11
4.594886723622493
 21
42.87335558415239
 31
0.0
  0
LINE
  5
EECD
330
EEC0
100
AcDbEntity
  8
0
100
AcDbLine
 10
54.79946818786737
 20
13.88772696121812
 30
0.0
 11
82.39578857353198
 21
-2.045016042088483
 31
0.0
  0
LINE
  5
EECE
330
EEC0
100
AcDbEntity
  8
0
100
AcDbLine
 10
-29.01184130212778
 20
3.080206939141669
 30
0.0
 11
-29.01184130212778
 21
33.29058043346756
 31
0.0
  0
LINE
  5
EECF
330
EEC0
100
AcDbEntity
  8
0
100
AcDbLine
 10
53.73880801608756
 20
13.27535452552232
 30
0.0
 11
81.33512840175216
 21
-2.657388477784281
 31
0.0
  0
LINE
  5
EED0
330
EEC0
100
AcDbEntity
  8
0
100
AcDbLine
 10
3.534226551842669
 20
-19.79275700205061
 30
0.0
 11
-25.47630739619504
 21
-3.043517417816272
 31
0.0
  0
LINE
  5
EED1
330
EEC0
100
AcDbEntity
  8
0
100
AcDbLine
 10
81.33512840175217
 20
-64.71112862829148
 30
0.0
 11
52.32459445371446
 21
-47.96188904405714
 31
0.0
  0
LINE
  5
EED2
330
EEC0
100
AcDbEntity
  8
0
100
AcDbLine
 10
-1.061967525869902
 20
44.91459703647172
 30
0.0
 11
3.534226551842669
 21
42.26098314845659
 31
0.0
  0
LINE
  5
EED3
330
EEC0
100
AcDbEntity
  8
0
100
AcDbLine
 10
4.594886723622493
 20
42.87335558415239
 30
0.0
 11
3.534226551842669
 21
42.26098314845659
 31
0.0
  0
ELLIPSE
  5
EED4
330
EEC0
100
AcDbEntity
  8
0
100
AcDbEllipse
 10
3.534226551842669
 20
43.48572801984818
 30
0.0
 11
0.7500000000000004
 21
-1.299038105676658
 31
0.0
210
0.0
220
0.0
230
0.9999999999999998
 40
0.577350269189626
 41
5.497787143782137
 42
8.63937979737193
  0
ELLIPSE
  5
EED5
330
EEC0
100
AcDbEntity
  8
0
100
AcDbEllipse
 10
48.78906054778171
 20
11.23411307320298
 30
0.0
 11
1.25
 21
-2.165063509461096
 31
0.0
210
0.0
220
0.0
230
0.9999999999999998
 40
0.5773502691896259
 41
4.999145532596241
 42
5.845036276595418
  0
ELLIPSE
  5
EED6
330
EEC0
100
AcDbEntity
  8
0
100
AcDbEllipse
 10
47.7284003760019
 20
10.62174063750718
 30
0.0
 11
1.25
 21
-2.165063509461096
 31
0.0
210
0.0
220
0.0
230
1.0
 40
0.5773502691896259
 41
4.999145532596246
 42
7.567225081762932
  0
ELLIPSE
  5
EED7
330
EEC0
100
AcDbEntity
  8
0
100
AcDbEllipse
 10
48.78906054778171
 20
-21.42575016390606
 30
0.0
 11
1.250000000000129
 21
-2.165063509461022
 31
0.0
210
0.0
220
0.0
230
1.0
 40
0.577350269189626
 41
3.579741684173546
 42
5.845036276594997
  0
ELLIPSE
  5
EED8
330
EEC0
100
AcDbEntity
  8
0
100
AcDbEllipse
 10
47.7284003760019
 20
-22.03812259960186
 30
0.0
 11
1.25
 21
-2.165063509461096
 31
0.0
210
0.0
220
0.0
230
1.0
 40
0.5773502691896259
 41
0.0
 42
6.283185307179586
  0
ELLIPSE
  5
EED9
330
EEC0
100
AcDbEntity
  8
0
100
AcDbEllipse
 10
41.71799273591624
 20
96.96625407061421
 30
0.0
 11
1.250000000000129
 21
-2.165063509461022
 31
0.0
210
0.0
220
0.0
230
1.0
 40
0.5773502691896259
 41
3.579741684173546
 42
5.845036276595005
  0
ELLIPSE
  5
EEDA
330
EEC0
100
AcDbEntity
  8
0
100
AcDbEllipse
 10
41.71799273591624
 20
-1.013335640712909
 30
0.0
 11
1.250000000000129
 21
-2.165063509461022
 31
0.0
210
0.0
220
0.0
230
1.0
 40
0.5773502691896259
 41
3.579741684173548
 42
5.845036276594998
  0
ELLIPSE
  5
EEDB
330
EEC0
100
AcDbEntity
  8
0
100
AcDbEllipse
 10
40.65733256413643
 20
96.35388163491843
 30
0.0
 11
1.25
 21
-2.165063509461096
 31
0.0
210
0.0
220
0.0
230
1.0
 40
0.5773502691896259
 41
0.0
 42
6.283185307179586
  0
ELLIPSE
  5
EEDC
330
EEC0
100
AcDbEntity
  8
0
100
AcDbEllipse
 10
40.65733256413643
 20
-1.625708076408702
 30
0.0
 11
1.25
 21
-2.165063509461096
 31
0.0
210
0.0
220
0.0
230
1.0
 40
0.5773502691896259
 41
0.0
 42
6.283185307179586
  0
ELLIPSE
  5
EEDD
330
EEC0
100
AcDbEntity
  8
0
100
AcDbEllipse
 10
41.71799273591624
 20
-33.67319887782196
 30
0.0
 11
1.250000000000129
 21
-2.165063509461022
 31
0.0
210
0.0
220
0.0
230
0.9999999999999998
 40
0.5773502691896259
 41
3.579741684173546
 42
5.845036276594998
  0
ELLIPSE
  5
EEDE
330
EEC0
100
AcDbEntity
  8
0
100
AcDbEllipse
 10
40.65733256413643
 20
-34.28557131351775
 30
0.0
 11
1.25
 21
-2.165063509461096
 31
0.0
210
0.0
220
0.0
230
1.0
 40
0.5773502691896259
 41
0.0
 42
6.283185307179586
  0
ELLIPSE
  5
EEDF
330
EEC0
100
AcDbEntity
  8
0
100
AcDbEllipse
 10
16.26214861320052
 20
95.33326090875878
 30
0.0
 11
1.250000000000129
 21
-2.165063509461022
 31
0.0
210
0.0
220
0.0
230
1.0
 40
0.5773502691896259
 41
3.579741684173548
 42
5.845036276595
  0
ELLIPSE
  5
EEE0
330
EEC0
100
AcDbEntity
  8
0
100
AcDbEllipse
 10
16.26214861320052
 20
62.67339767164973
 30
0.0
 11
1.250000000000129
 21
-2.165063509461022
 31
0.0
210
0.0
220
0.0
230
1.0
 40
0.5773502691896259
 41
3.579741684173548
 42
5.845036276595
  0
ELLIPSE
  5
EEE1
330
EEC0
100
AcDbEntity
  8
0
100
AcDbEllipse
 10
16.26214861320052
 20
30.01353443454068
 30
0.0
 11
1.250000000000129
 21
-2.165063509461022
 31
0.0
210
0.0
220
0.0
230
1.0
 40
0.5773502691896259
 41
3.579741684173548
 42
5.845036276594998
  0
ELLIPSE
  5
EEE2
330
EEC0
100
AcDbEntity
  8
0
100
AcDbEllipse
 10
15.2014884414207
 20
94.72088847306297
 30
0.0
 11
1.25
 21
-2.165063509461096
 31
0.0
210
0.0
220
0.0
230
1.0
 40
0.5773502691896259
 41
0.0
 42
6.283185307179586
  0
ELLIPSE
  5
EEE3
330
EEC0
100
AcDbEntity
  8
0
100
AcDbEllipse
 10
15.2014884414207
 20
62.06102523595392
 30
0.0
 11
1.25
 21
-2.165063509461096
 31
0.0
210
0.0
220
0.0
230
1.0
 40
0.5773502691896259
 41
0.0
 42
6.283185307179586
  0
ELLIPSE
  5
EEE4
330
EEC0
100
AcDbEntity
  8
0
100
AcDbEllipse
 10
15.2014884414207
 20
29.40116199884489
 30
0.0
 11
1.25
 21
-2.165063509461096
 31
0.0
210
0.0
220
0.0
230
1.0
 40
0.5773502691896259
 41
0.0
 42
6.283185307179586
  0
ELLIPSE
  5
EEE5
330
EEC0
100
AcDbEntity
  8
0
100
AcDbEllipse
 10
16.26214861320052
 20
-2.646328802568356
 30
0.0
 11
1.250000000000129
 21
-2.165063509461022
 31
0.0
210
0.0
220
0.0
230
1.0
 40
0.577350269189626
 41
3.579741684173542
 42
5.845036276594998
  0
ELLIPSE
  5
EEE6
330
EEC0
100
AcDbEntity
  8
0
100
AcDbEllipse
 10
15.2014884414207
 20
-3.25870123826415
 30
0.0
 11
1.25
 21
-2.165063509461096
 31
0.0
210
0.0
220
0.0
230
1.0
 40
0.5773502691896259
 41
0.0
 42
6.283185307179586
  0
ELLIPSE
  5
EEE7
330
EEC0
100
AcDbEntity
  8
0
100
AcDbEllipse
 10
9.191080801335044
 20
115.7456754319519
 30
0.0
 11
1.250000000000129
 21
-2.165063509461022
 31
0.0
210
0.0
220
0.0
230
1.0
 40
0.5773502691896259
 41
3.579741684173546
 42
5.845036276595005
  0
ELLIPSE
  5
EEE8
330
EEC0
100
AcDbEntity
  8
0
100
AcDbEllipse
 10
9.191080801335044
 20
83.08581219484288
 30
0.0
 11
1.250000000000129
 21
-2.165063509461022
 31
0.0
210
0.0
220
0.0
230
1.0
 40
0.5773502691896259
 41
3.579741684173546
 42
5.845036276595001
  0
ELLIPSE
  5
EEE9
330
EEC0
100
AcDbEntity
  8
0
100
AcDbEllipse
 10
9.191080801335045
 20
50.42594895773383
 30
0.0
 11
1.250000000000129
 21
-2.165063509461022
 31
0.0
210
0.0
220
0.0
230
1.0
 40
0.5773502691896259
 41
3.579741684173546
 42
5.845036276595001
  0
ELLIPSE
  5
EEEA
330
EEC0
100
AcDbEntity
  8
0
100
AcDbEllipse
 10
9.191080801335045
 20
17.7660857206248
 30
0.0
 11
1.250000000000129
 21
-2.165063509461022
 31
0.0
210
0.0
220
0.0
230
1.0
 40
0.5773502691896259
 41
3.579741684173544
 42
5.845036276594999
  0
ELLIPSE
  5
EEEB
330
EEC0
100
AcDbEntity
  8
0
100
AcDbEllipse
 10
8.130420629555224
 20
115.1333029962561
 30
0.0
 11
1.25
 21
-2.165063509461096
 31
0.0
210
0.0
220
0.0
230
1.0
 40
0.5773502691896259
 41
0.0
 42
6.283185307179586
  0
ELLIPSE
  5
EEEC
330
EEC0
100
AcDbEntity
  8
0
100
AcDbEllipse
 10
8.130420629555224
 20
82.47343975914709
 30
0.0
 11
1.25
 21
-2.165063509461096
 31
0.0
210
0.0
220
0.0
230
1.0
 40
0.5773502691896259
 41
0.0
 42
6.283185307179586
  0
ELLIPSE
  5
EEED
330
EEC0
100
AcDbEntity
  8
0
100
AcDbEllipse
 10
8.130420629555224
 20
49.81357652203804
 30
0.0
 11
1.25
 21
-2.165063509461096
 31
0.0
210
0.0
220
0.0
230
1.0
 40
0.5773502691896259
 41
0.0
 42
6.283185307179586
  0
ELLIPSE
  5
EEEE
330
EEC0
100
AcDbEntity
  8
0
100
AcDbEllipse
 10
8.130420629555228
 20
17.153713284929
 30
0.0
 11
1.25
 21
-2.165063509461096
 31
0.0
210
0.0
220
0.0
230
1.0
 40
0.5773502691896259
 41
0.0
 42
6.283185307179586
  0
ELLIPSE
  5
EEEF
330
EEC0
100
AcDbEntity
  8
0
100
AcDbEllipse
 10
9.191080801335047
 20
-14.89377751648425
 30
0.0
 11
1.250000000000129
 21
-2.165063509461022
 31
0.0
210
0.0
220
0.0
230
0.9999999999999998
 40
0.5773502691896259
 41
3.579741684173544
 42
5.845036276595
  0
ELLIPSE
  5
EEF0
330
EEC0
100
AcDbEntity
  8
0
100
AcDbEllipse
 10
8.130420629555228
 20
-15.50614995218004
 30
0.0
 11
1.25
 21
-2.165063509461096
 31
0.0
210
0.0
220
0.0
230
1.0
 40
0.5773502691896259
 41
0.0
 42
6.283185307179586
  0
ELLIPSE
  5
EEF1
330
EEC0
100
AcDbEntity
  8
0
100
AcDbEllipse
 10
-7.091531085344788
 20
43.49678769506411
 30
0.0
 11
1.25
 21
-2.165063509461096
 31
0.0
210
0.0
220
0.0
230
1.0
 40
0.5773502691896261
 41
5.508682942395983
 42
5.845036276595416
  0
ELLIPSE
  5
EEF2
330
EEC0
100
AcDbEntity
  8
0
100
AcDbEllipse
 10
60.82903174734226
 20
4.282832460101362
 30
0.0
 11
1.250000000000129
 21
-2.165063509461022
 31
0.0
210
0.0
220
0.0
230
1.0
 40
0.5773502691896259
 41
3.579741684173546
 42
5.845036276594998
  0
ELLIPSE
  5
EEF3
330
EEC0
100
AcDbEntity
  8
0
100
AcDbEllipse
 10
-8.152191257124613
 20
42.88441525936832
 30
0.0
 11
1.25
 21
-2.165063509461097
 31
0.0
210
0.0
220
0.0
230
1.0
 40
0.5773502691896259
 41
5.508682942395981
 42
7.057687671963186
  0
ELLIPSE
  5
EEF4
330
EEC0
100
AcDbEntity
  8
0
100
AcDbEllipse
 10
59.76837157556243
 20
3.670460024405572
 30
0.0
 11
1.25
 21
-2.165063509461096
 31
0.0
210
0.0
220
0.0
230
1.0
 40
0.5773502691896259
 41
0.0
 42
6.283185307179586
  0
ELLIPSE
  5
EEF5
330
EEC0
100
AcDbEntity
  8
0
100
AcDbEllipse
 10
-2.848890398225489
 20
8.387434715171888
 30
0.0
 11
1.25000000000013
 21
-2.165063509461022
 31
0.0
210
0.0
220
0.0
230
1.0
 40
0.577350269189626
 41
3.579741684173544
 42
5.845036276594998
  0
ELLIPSE
  5
EEF6
330
EEC0
100
AcDbEntity
  8
0
100
AcDbEllipse
 10
65.07167243446156
 20
-30.82652051979086
 30
0.0
 11
1.25000000000013
 21
-2.165063509461022
 31
0.0
210
0.0
220
0.0
230
1.0
 40
0.577350269189626
 41
3.579741684173541
 42
5.845036276594997
  0
ELLIPSE
  5
EEF7
330
EEC0
100
AcDbEntity
  8
0
100
AcDbEllipse
 10
-3.909550570005313
 20
7.775062279476099
 30
0.0
 11
1.25
 21
-2.165063509461096
 31
0.0
210
0.0
220
0.0
230
1.0
 40
0.5773502691896259
 41
0.0
 42
6.283185307179586
  0
ELLIPSE
  5
EEF8
330
EEC0
100
AcDbEntity
  8
0
100
AcDbEllipse
 10
64.01101226268173
 20
-31.43889295548665
 30
0.0
 11
1.25
 21
-2.165063509461096
 31
0.0
210
0.0
220
0.0
230
1.0
 40
0.5773502691896259
 41
0.0
 42
6.283185307179586
  0
ELLIPSE
  5
EEF9
330
EEC0
100
AcDbEntity
  8
0
100
AcDbEllipse
 10
43.48575968888262
 20
-42.85878541325885
 30
0.0
 11
1.250000000000129
 21
-2.165063509461021
 31
0.0
210
0.0
220
0.0
230
1.0
 40
0.5773502691896259
 41
3.579741684173544
 42
3.835017178248603
  0
ELLIPSE
  5
EEFA
330
EEC0
100
AcDbEntity
  8
0
100
AcDbEllipse
 10
14.49438166023416
 20
-26.12060550424047
 30
0.0
 11
1.250000000000129
 21
-2.165063509461022
 31
0.0
210
0.0
220
0.0
230
1.0
 40
0.5773502691896259
 41
3.579741684173546
 42
3.835017178248603
  0
ELLIPSE
  5
EEFB
330
EEC0
100
AcDbEntity
  8
0
100
AcDbEllipse
 10
14.37642503036061
 20
-26.84766486245696
 30
0.0
 11
-1.249999999999999
 21
-2.165063509461097
 31
0.0
210
0.0
220
0.0
230
0.9999999999999998
 40
0.816496580927726
 41
4.968762307403139
 42
6.069429174707153
  0
LINE
  5
EEFC
330
EEC0
100
AcDbEntity
  8
0
100
AcDbLine
 10
12.34946821871277
 20
-26.40940614287563
 30
0.0
 11
11.8492182188153
 21
-26.12058667077272
 31
0.0
  0
LINE
  5
EEFD
330
EEC0
100
AcDbEntity
  8
0
100
AcDbLine
 10
11.8492182188153
 20
-26.12058667077272
 30
0.0
 11
11.59946821871277
 21
-25.97639344098341
 31
0.0
  0
ELLIPSE
  5
EEFE
330
EEC0
100
AcDbEntity
  8
0
100
AcDbEllipse
 10
13.62642503036062
 20
-26.41465216056475
 30
0.0
 11
-1.249999999999999
 21
-2.165063509461097
 31
0.0
210
0.0
220
0.0
230
1.0
 40
0.8164965809277259
 41
4.968762307403139
 42
7.597608306956034
  0
LINE
  5
EEFF
330
EEC0
100
AcDbEntity
  8
0
100
AcDbLine
 10
11.6734261693937
 20
-25.52919513516111
 30
0.0
 11
12.02662600697167
 21
-25.32527511385773
 31
0.0
  0
SPLINE
  5
EF00
330
EEC0
100
AcDbEntity
  8
0
100
AcDbSpline
210
0.0
220
0.0
230
1.0
 70
     8
 71
     3
 72
     8
 73
     4
 74
     0
 42
0.000000001
 43
0.0000000001
 40
-1.0
 40
-1.0
 40
-1.0
 40
-1.0
 40
0.0
 40
0.0
 40
0.0
 40
0.0
 10
11.59946821871277
 20
-25.97639344098341
 30
0.0
 10
11.6240352310594
 20
-25.8136378217903
 30
0.0
 10
11.65457376749972
 20
-25.6471064941268
 30
0.0
 10
11.67342616939369
 20
-25.52919513516111
 30
0.0
  0
SPLINE
  5
EF01
330
EEC0
100
AcDbEntity
  8
0
100
AcDbSpline
210
0.0
220
0.0
230
1.0
 70
     8
 71
     3
 72
     8
 73
     4
 74
     0
 42
0.000000001
 43
0.0000000001
 40
0.0
 40
0.0
 40
0.0
 40
0.0
 40
1.0
 40
1.0
 40
1.0
 40
1.0
 10
12.73408634117351
 20
-24.91682269946532
 30
0.0
 10
12.71523393927954
 20
-25.3567235541161
 30
0.0
 10
12.56557773981342
 20
-25.91488916671135
 30
0.0
 10
12.34946821871277
 20
-26.40940614287563
 30
0.0
  0
LINE
  5
EF02
330
EEC0
100
AcDbEntity
  8
0
100
AcDbLine
 10
12.02662600697167
 20
-25.32527511385773
 30
0.0
 11
12.73408634117352
 21
-24.91682269946532
 31
0.0
  0
SPLINE
  5
EF03
330
EEC0
100
AcDbEntity
  8
0
100
AcDbSpline
210
0.0
220
0.0
230
1.0
 70
     8
 71
     3
 72
     8
 73
     4
 74
     0
 42
0.000000001
 43
0.0000000001
 40
-1.0
 40
-1.0
 40
-1.0
 40
-1.0
 40
0.0
 40
0.0
 40
0.0
 40
0.0
 10
15.19401680751496
 20
-27.56180908778691
 30
0.0
 10
15.2128692094091
 20
-27.70148932536941
 30
0.0
 10
15.14811361542856
 20
-27.84826542565108
 30
0.0
 10
15.01944662077203
 20
-27.95091889203503
 30
0.0
  0
ELLIPSE
  5
EF04
330
EEC0
100
AcDbEntity
  8
0
100
AcDbEllipse
 10
13.43372148845434
 20
-26.73297793993627
 30
0.0
 11
-1.25
 21
2.165063509461096
 31
0.0
210
0.0
220
0.0
230
1.0
 40
0.5773502691896259
 41
4.018964455725525
 42
6.976609831838752
  0
ELLIPSE
  5
EF05
330
EEC0
100
AcDbEntity
  8
0
100
AcDbEllipse
 10
43.36780305900906
 20
-43.58584477147534
 30
0.0
 11
-1.249999999999999
 21
-2.165063509461097
 31
0.0
210
0.0
220
0.0
230
1.0
 40
0.8164965809277259
 41
4.968762307403135
 42
6.069429174707154
  0
LINE
  5
EF06
330
EEC0
100
AcDbEntity
  8
0
100
AcDbLine
 10
41.34084624736122
 20
-43.14758605189401
 30
0.0
 11
40.84059624746281
 21
-42.85876657979054
 31
0.0
  0
LINE
  5
EF07
330
EEC0
100
AcDbEntity
  8
0
100
AcDbLine
 10
40.84059624746281
 20
-42.85876657979054
 30
0.0
 11
40.59084624736122
 21
-42.71457335000178
 31
0.0
  0
ELLIPSE
  5
EF08
330
EEC0
100
AcDbEntity
  8
0
100
AcDbEllipse
 10
42.61780305900908
 20
-43.15283206958312
 30
0.0
 11
-1.249999999999999
 21
-2.165063509461097
 31
0.0
210
0.0
220
0.0
230
1.0
 40
0.8164965809277262
 41
4.968762307403141
 42
7.597608306956037
  0
LINE
  5
EF09
330
EEC0
100
AcDbEntity
  8
0
100
AcDbLine
 10
40.66480419804216
 20
-42.26737504417949
 30
0.0
 11
41.01800403562684
 21
-42.06345502287224
 31
0.0
  0
SPLINE
  5
EF0A
330
EEC0
100
AcDbEntity
  8
0
100
AcDbSpline
210
0.0
220
0.0
230
1.0
 70
     8
 71
     3
 72
     8
 73
     4
 74
     0
 42
0.000000001
 43
0.0000000001
 40
-1.0
 40
-1.0
 40
-1.0
 40
-1.0
 40
0.0
 40
0.0
 40
0.0
 40
0.0
 10
40.59084624736122
 20
-42.71457335000179
 30
0.0
 10
40.61541325970795
 20
-42.55181773080871
 30
0.0
 10
40.64595179614801
 20
-42.38528640314509
 30
0.0
 10
40.66480419804214
 20
-42.2673750441795
 30
0.0
  0
SPLINE
  5
EF0B
330
EEC0
100
AcDbEntity
  8
0
100
AcDbSpline
210
0.0
220
0.0
230
1.0
 70
     8
 71
     3
 72
     8
 73
     4
 74
     0
 42
0.000000001
 43
0.0000000001
 40
0.0
 40
0.0
 40
0.0
 40
0.0
 40
1.0
 40
1.0
 40
1.0
 40
1.0
 10
41.72546436982196
 20
-41.6550026084837
 30
0.0
 10
41.70661196792784
 20
-42.0949034631344
 30
0.0
 10
41.55695576846198
 20
-42.65306907572973
 30
0.0
 10
41.34084624736122
 20
-43.14758605189401
 30
0.0
  0
LINE
  5
EF0C
330
EEC0
100
AcDbEntity
  8
0
100
AcDbLine
 10
41.01800403562684
 20
-42.06345502287224
 30
0.0
 11
41.72546436982198
 21
-41.65500260848369
 31
0.0
  0
SPLINE
  5
EF0D
330
EEC0
100
AcDbEntity
  8
0
100
AcDbSpline
210
0.0
220
0.0
230
1.0
 70
     8
 71
     3
 72
     8
 73
     4
 74
     0
 42
0.000000001
 43
0.0000000001
 40
-1.0
 40
-1.0
 40
-1.0
 40
-1.0
 40
0.0
 40
0.0
 40
0.0
 40
0.0
 10
44.18539483616342
 20
-44.29998899680529
 30
0.0
 10
44.20424723805759
 20
-44.4396692343878
 30
0.0
 10
44.139491644077
 20
-44.58644533466944
 30
0.0
 10
44.01082464942049
 20
-44.68909880105342
 30
0.0
  0
ELLIPSE
  5
EF0E
330
EEC0
100
AcDbEntity
  8
0
100
AcDbEllipse
 10
42.42509951710281
 20
-43.47115784895465
 30
0.0
 11
-1.25
 21
2.165063509461097
 31
0.0
210
0.0
220
0.0
230
1.0
 40
0.5773502691896259
 41
4.018964455725525
 42
6.97660983183875
  0
ELLIPSE
  5
EF0F
330
EEC0
100
AcDbEntity
  8
0
100
AcDbEllipse
 10
27.22230372159203
 20
-33.469074734223
 30
0.0
 11
1.25000000000013
 21
-2.165063509461022
 31
0.0
210
0.0
220
0.0
230
1.0
 40
0.5773502691896259
 41
3.579741684173548
 42
3.835017177445208
  0
SPLINE
  5
EF10
330
EEC0
100
AcDbEntity
  8
0
100
AcDbSpline
210
0.0
220
0.0
230
1.0
 70
     8
 71
     3
 72
     8
 73
     4
 74
     0
 42
0.000000001
 43
0.0000000001
 40
-1.0
 40
-1.0
 40
-1.0
 40
-1.0
 40
0.0
 40
0.0
 40
0.0
 40
0.0
 10
24.3273902796999
 20
-33.32486266911891
 30
0.0
 10
24.35195729222574
 20
-33.16210705000287
 30
0.0
 10
24.38249582882489
 20
-32.99557572243918
 30
0.0
 10
24.40134823088199
 20
-32.87766436358596
 30
0.0
  0
SPLINE
  5
EF11
330
EEC0
100
AcDbEntity
  8
0
100
AcDbSpline
210
0.0
220
0.0
230
1.0
 70
     8
 71
     3
 72
     8
 73
     4
 74
     0
 42
0.000000001
 43
0.0000000001
 40
0.0
 40
0.0
 40
0.0
 40
0.0
 40
1.0
 40
1.0
 40
1.0
 40
1.0
 10
25.46200840266181
 20
-32.26529192789016
 30
0.0
 10
25.44315600060471
 20
-32.70519278238279
 30
0.0
 10
25.29349980100832
 20
-33.26335839487444
 30
0.0
 10
25.07739027969991
 20
-33.75787537101113
 30
0.0
  0
SPLINE
  5
EF12
330
EEC0
100
AcDbEntity
  8
0
100
AcDbSpline
210
0.0
220
0.0
230
1.0
 70
     8
 71
     3
 72
     8
 73
     4
 74
     0
 42
0.000000001
 43
0.0000000001
 40
-1.0
 40
-1.0
 40
-1.0
 40
-1.0
 40
0.0
 40
0.0
 40
0.0
 40
0.0
 10
31.45747277467513
 20
-36.95151976838045
 30
0.0
 10
31.4763251767322
 20
-37.09120000603874
 30
0.0
 10
31.41156958293347
 20
-37.23797610641736
 30
0.0
 10
31.28290258843336
 20
-37.34062957291791
 30
0.0
  0
ELLIPSE
  5
EF13
330
EEC0
100
AcDbEntity
  8
0
100
AcDbEllipse
 10
27.10434709071848
 20
-34.19613409253855
 30
0.0
 11
-1.25
 21
-2.165063509461095
 31
0.0
210
0.0
220
0.0
230
1.0
 40
0.8164965809277262
 41
4.968762306576107
 42
6.283185307179585
  0
LINE
  5
EF14
330
EEC0
100
AcDbEntity
  8
0
100
AcDbLine
 10
25.07739027969991
 20
-33.75787537101113
 30
0.0
 11
24.577140279802
 21
-33.46905589890796
 31
0.0
  0
LINE
  5
EF15
330
EEC0
100
AcDbEntity
  8
0
100
AcDbLine
 10
24.577140279802
 20
-33.46905589890796
 30
0.0
 11
24.3273902796999
 21
-33.3248626691189
 31
0.0
  0
ELLIPSE
  5
EF16
330
EEC0
100
AcDbEntity
  8
0
100
AcDbEllipse
 10
26.35434709071848
 20
-33.76312139064634
 30
0.0
 11
-1.25
 21
-2.165063509461097
 31
0.0
210
0.0
220
0.0
230
1.0
 40
0.816496580927726
 41
4.968762306576106
 42
6.283185307179587
  0
LINE
  5
EF17
330
EEC0
100
AcDbEntity
  8
0
100
AcDbLine
 10
28.63988099665123
 20
-37.96942635242675
 30
0.0
 11
25.10434709071849
 21
-35.92818490010743
 31
0.0
  0
ELLIPSE
  5
EF18
330
EEC0
100
AcDbEntity
  8
0
100
AcDbEllipse
 10
29.88988099665122
 20
-35.80436284296565
 30
0.0
 11
-1.249999999999998
 21
-2.165063509461097
 31
0.0
210
0.0
220
0.0
230
1.0
 40
0.816496580927726
 41
0.0
 42
1.314423000603477
  0
LINE
  5
EF19
330
EEC0
100
AcDbEntity
  8
0
100
AcDbLine
 10
24.40134823088201
 20
-32.87766436358595
 30
0.0
 11
24.75454806846833
 21
-32.67374434227775
 31
0.0
  0
LINE
  5
EF1A
330
EEC0
100
AcDbEntity
  8
0
100
AcDbLine
 10
24.75454806846833
 20
-32.67374434227775
 30
0.0
 11
25.46200840266183
 21
-32.26529192789016
 31
0.0
  0
ELLIPSE
  5
EF1B
330
EEC0
100
AcDbEntity
  8
0
100
AcDbEllipse
 10
29.69717745574494
 20
-36.12268862223812
 30
0.0
 11
1.249999999999871
 21
-2.16506350946117
 31
0.0
210
0.0
220
0.0
230
1.0
 40
0.577350269189626
 41
0.8773718029393426
 42
2.356194490192585
  0
LINE
  5
EF1C
330
EEC0
100
AcDbEntity
  8
0
100
AcDbLine
 10
26.1616435498122
 20
-32.04020571759949
 30
0.0
 11
29.69717745574494
 21
-34.0814471699188
 31
0.0
  0
ELLIPSE
  5
EF1D
330
EEC0
100
AcDbEntity
  8
0
100
AcDbEllipse
 10
26.1616435498122
 20
-34.0814471699188
 30
0.0
 11
-1.250000000000001
 21
2.165063509461097
 31
0.0
210
0.0
220
0.0
230
1.0
 40
0.5773502691896261
 41
5.497787143782135
 42
6.976609831035355
  0
LINE
  5
EF1E
330
EEC0
100
AcDbEntity
  8
0
100
AcDbLine
 10
55.43586429093529
 20
97.94604996772751
 30
0.0
 11
2.544277058181503
 21
128.4830220944245
 31
0.0
  0
LINE
  5
EF1F
330
EEC0
100
AcDbEntity
  8
0
100
AcDbLine
 10
26.1616435498124
 20
1.436154102070217
 30
0.0
 11
26.1616435498124
 21
75.24744501793664
 31
0.0
  0
LINE
  5
EF20
330
EEC0
100
AcDbEntity
  8
0
100
AcDbLine
 10
25.10098337803257
 20
75.85981745363243
 30
0.0
 11
25.10098337803257
 21
2.048526537766006
 31
0.0
  0
LINE
  5
EF21
330
EEC0
100
AcDbEntity
  8
0
100
AcDbLine
 10
55.43586429093529
 20
14.2551504226356
 30
0.0
 11
29.69717745574511
 21
-0.6050873502490939
 31
0.0
  0
LINE
  5
EF22
330
EEC0
100
AcDbEntity
  8
0
100
AcDbLine
 10
29.69717745574511
 20
81.37116937489459
 30
0.0
 11
55.43586429093529
 21
96.23140714777932
 31
0.0
  0
LINE
  5
EF23
330
EEC0
100
AcDbEntity
  8
0
100
AcDbLine
 10
-29.69979216392508
 20
107.4990599645819
 30
0.0
 11
-29.69979216392506
 21
33.68776904871547
 31
0.0
  0
LINE
  5
EF24
330
EEC0
100
AcDbEntity
  8
0
100
AcDbLine
 10
-0.4255714228020003
 20
128.4830220944245
 30
0.0
 11
-26.16425825799235
 21
113.6227843215398
 31
0.0
  0
LINE
  5
EF25
330
EEC0
100
AcDbEntity
  8
0
100
AcDbLine
 10
-28.63913199214526
 20
106.8866875288861
 30
0.0
 11
-28.63913199214525
 21
33.07539661301968
 31
0.0
  0
LINE
  5
EF26
330
EEC0
100
AcDbEntity
  8
0
100
AcDbLine
 10
55.43586429093529
 20
96.23140714777932
 30
0.0
 11
54.37520411915548
 21
96.84377958347511
 31
0.0
  0
LINE
  5
EF27
330
EEC0
100
AcDbEntity
  8
0
100
AcDbLine
 10
54.37520411915548
 20
96.84377958347511
 30
0.0
 11
28.63651728396529
 21
81.98354181059038
 31
0.0
  0
LINE
  5
EF28
330
EEC0
100
AcDbEntity
  8
0
100
AcDbLine
 10
1.483616886401684
 20
45.89439293358498
 30
0.0
 11
3.534226551842665
 21
44.71047289123976
 31
0.0
  0
LINE
  5
EF29
330
EEC0
100
AcDbEntity
  8
0
100
AcDbLine
 10
55.43586429093529
 20
97.94604996772751
 30
0.0
 11
54.37520411915548
 21
97.33367753203172
 31
0.0
  0
LINE
  5
EF2A
330
EEC0
100
AcDbEntity
  8
0
100
AcDbLine
 10
2.544277058181498
 20
128.4830220944245
 30
0.0
 11
1.483616886401684
 21
127.8706496587287
 31
0.0
  0
LINE
  5
EF2B
330
EEC0
100
AcDbEntity
  8
0
100
AcDbLine
 10
-0.4255714228020003
 20
128.4830220944245
 30
0.0
 11
0.635088748977819
 21
127.8706496587287
 31
0.0
  0
LINE
  5
EF2C
330
EEC0
100
AcDbEntity
  8
0
100
AcDbLine
 10
1.483616886401684
 20
127.8706496587287
 30
0.0
 11
54.37520411915548
 21
97.33367753203172
 31
0.0
  0
LINE
  5
EF2D
330
EEC0
100
AcDbEntity
  8
0
100
AcDbLine
 10
-25.10359808621251
 20
31.03415516070036
 30
0.0
 11
0.635088748977819
 21
45.89439293358498
 31
0.0
  0
LINE
  5
EF2E
330
EEC0
100
AcDbEntity
  8
0
100
AcDbLine
 10
-25.10359808621251
 20
113.010411885844
 30
0.0
 11
0.635088748977819
 21
127.8706496587287
 31
0.0
  0
LINE
  5
EF2F
330
EEC0
100
AcDbEntity
  8
0
100
AcDbLine
 10
29.69717745574511
 20
-0.6050873502490939
 30
0.0
 11
26.1616435498124
 21
1.436154102070217
 31
0.0
  0
LINE
  5
EF30
330
EEC0
100
AcDbEntity
  8
0
100
AcDbLine
 10
26.1616435498124
 20
1.436154102070217
 30
0.0
 11
25.10098337803257
 21
2.048526537766006
 31
0.0
  0
LINE
  5
EF31
330
EEC0
100
AcDbEntity
  8
0
100
AcDbLine
 10
25.10098337803257
 20
75.85981745363243
 30
0.0
 11
26.1616435498124
 21
75.24744501793664
 31
0.0
  0
LINE
  5
EF32
330
EEC0
100
AcDbEntity
  8
0
100
AcDbLine
 10
26.1616435498124
 20
75.24744501793664
 30
0.0
 11
29.69717745574511
 21
81.37116937489459
 31
0.0
  0
LINE
  5
EF33
330
EEC0
100
AcDbEntity
  8
0
100
AcDbLine
 10
-25.10359808621251
 20
31.03415516070036
 30
0.0
 11
-28.63913199214525
 21
33.07539661301968
 31
0.0
  0
LINE
  5
EF34
330
EEC0
100
AcDbEntity
  8
0
100
AcDbLine
 10
-28.63913199214525
 20
33.07539661301968
 30
0.0
 11
-29.69979216392506
 21
33.68776904871547
 31
0.0
  0
LINE
  5
EF35
330
EEC0
100
AcDbEntity
  8
0
100
AcDbLine
 10
-26.16425825799235
 20
113.6227843215398
 30
0.0
 11
-29.69979216392508
 21
107.4990599645819
 31
0.0
  0
LINE
  5
EF36
330
EEC0
100
AcDbEntity
  8
0
100
AcDbLine
 10
-29.69979216392508
 20
107.4990599645819
 30
0.0
 11
-28.63913199214526
 21
106.8866875288861
 31
0.0
  0
LINE
  5
EF37
330
EEC0
100
AcDbEntity
  8
0
100
AcDbLine
 10
29.69717745574511
 20
81.37116937489459
 30
0.0
 11
28.63651728396529
 21
81.98354181059038
 31
0.0
  0
LINE
  5
EF38
330
EEC0
100
AcDbEntity
  8
0
100
AcDbLine
 10
28.63651728396529
 20
81.98354181059038
 30
0.0
 11
25.10098337803257
 21
75.85981745363243
 31
0.0
  0
LINE
  5
EF39
330
EEC0
100
AcDbEntity
  8
0
100
AcDbLine
 10
-28.63913199214526
 20
106.8866875288861
 30
0.0
 11
-25.10359808621251
 21
113.010411885844
 31
0.0
  0
LINE
  5
EF3A
330
EEC0
100
AcDbEntity
  8
0
100
AcDbLine
 10
-25.10359808621251
 20
113.010411885844
 30
0.0
 11
-26.16425825799235
 21
113.6227843215398
 31
0.0
  0
LINE
  5
EF3B
330
EEC0
100
AcDbEntity
  8
0
100
AcDbLine
 10
-1.064135708909268
 20
-107.1151195443107
 30
0.0
 11
-1.064135708909228
 21
-101.3416168524144
 31
0.0
  0
LINE
  5
EF3C
330
EEC0
100
AcDbEntity
  8
0
100
AcDbLine
 10
-1.064135708909228
 20
-101.3416168524144
 30
0.0
 11
-2.124795880689052
 21
-100.7292444167186
 31
0.0
  0
LINE
  5
EF3D
330
EEC0
100
AcDbEntity
  8
0
100
AcDbLine
 10
-2.124795880689052
 20
-100.7292444167186
 30
0.0
 11
-2.124795880689069
 21
-106.5027471086149
 31
0.0
  0
LINE
  5
EF3E
330
EEC0
100
AcDbEntity
  8
0
100
AcDbLine
 10
-2.124795880689069
 20
-106.5027471086149
 30
0.0
 11
-1.064135708909268
 21
-107.1151195443107
 31
0.0
  0
LINE
  5
EF3F
330
EEC0
100
AcDbEntity
  8
0
100
AcDbLine
 10
-56.9255714226465
 20
-69.09000190576931
 30
0.0
 11
-56.92557142264646
 21
-74.86350459766555
 31
0.0
  0
LINE
  5
EF40
330
EEC0
100
AcDbEntity
  8
0
100
AcDbLine
 10
-56.92557142264646
 20
-74.86350459766555
 30
0.0
 11
-55.86491125086666
 21
-75.47587703336133
 31
0.0
  0
LINE
  5
EF41
330
EEC0
100
AcDbEntity
  8
0
100
AcDbLine
 10
-55.86491125086666
 20
-75.47587703336133
 30
0.0
 11
-55.86491125086668
 21
-69.7023743414651
 31
0.0
  0
LINE
  5
EF42
330
EEC0
100
AcDbEntity
  8
0
100
AcDbLine
 10
-55.86491125086668
 20
-69.7023743414651
 30
0.0
 11
-56.9255714226465
 21
-69.09000190576931
 31
0.0
  0
ELLIPSE
  5
EF43
330
EEC0
100
AcDbEntity
  8
0
100
AcDbEllipse
 10
31.81849779930443
 20
76.14559125695729
 30
0.0
 11
1.250000000000128
 21
2.165063509461022
 31
0.0
210
0.0
220
0.0
230
1.0
 40
0.5773502691896258
 41
0.0
 42
6.283185307179586
  0
ELLIPSE
  5
EF44
330
EEC0
100
AcDbEntity
  8
0
100
AcDbEllipse
 10
31.81849779930443
 20
59.81565963840276
 30
0.0
 11
1.250000000000128
 21
2.165063509461022
 31
0.0
210
0.0
220
0.0
230
1.0
 40
0.5773502691896258
 41
0.0
 42
6.283185307179586
  0
ELLIPSE
  5
EF45
330
EEC0
100
AcDbEntity
  8
0
100
AcDbEllipse
 10
31.81849779930443
 20
43.48572801984824
 30
0.0
 11
1.250000000000128
 21
2.165063509461022
 31
0.0
210
0.0
220
0.0
230
1.0
 40
0.5773502691896258
 41
0.0
 42
6.283185307179586
  0
ELLIPSE
  5
EF46
330
EEC0
100
AcDbEntity
  8
0
100
AcDbEllipse
 10
31.81849779930443
 20
27.15579640129372
 30
0.0
 11
1.250000000000128
 21
2.165063509461022
 31
0.0
210
0.0
220
0.0
230
1.0
 40
0.5773502691896258
 41
0.0
 42
6.283185307179586
  0
ELLIPSE
  5
EF47
330
EEC0
100
AcDbEntity
  8
0
100
AcDbEllipse
 10
30.75783762752462
 20
76.75796369265308
 30
0.0
 11
1.249999999999864
 21
2.165063509461174
 31
0.0
210
0.0
220
0.0
230
1.0
 40
0.577350269189622
 41
3.579741684173541
 42
5.845036276594993
  0
ELLIPSE
  5
EF48
330
EEC0
100
AcDbEntity
  8
0
100
AcDbEllipse
 10
30.75783762752462
 20
60.42803207409855
 30
0.0
 11
1.249999999999864
 21
2.165063509461174
 31
0.0
210
0.0
220
0.0
230
1.0
 40
0.5773502691896219
 41
3.579741684173548
 42
5.84503627659499
  0
ELLIPSE
  5
EF49
330
EEC0
100
AcDbEntity
  8
0
100
AcDbEllipse
 10
30.75783762752462
 20
44.09810045554403
 30
0.0
 11
1.249999999999864
 21
2.165063509461174
 31
0.0
210
0.0
220
0.0
230
1.0
 40
0.5773502691896219
 41
3.579741684173548
 42
5.84503627659499
  0
ELLIPSE
  5
EF4A
330
EEC0
100
AcDbEntity
  8
0
100
AcDbEllipse
 10
30.75783762752462
 20
27.76816883698951
 30
0.0
 11
1.249999999999864
 21
2.165063509461174
 31
0.0
210
0.0
220
0.0
230
1.0
 40
0.5773502691896219
 41
3.579741684173548
 42
5.845036276594989
  0
ELLIPSE
  5
EF4B
330
EEC0
100
AcDbEntity
  8
0
100
AcDbEllipse
 10
31.81849779930443
 20
10.82586478273919
 30
0.0
 11
1.250000000000128
 21
2.165063509461022
 31
0.0
210
0.0
220
0.0
230
1.0
 40
0.5773502691896258
 41
0.0
 42
6.283185307179586
  0
ELLIPSE
  5
EF4C
330
EEC0
100
AcDbEntity
  8
0
100
AcDbEllipse
 10
30.75783762752462
 20
11.43823721843498
 30
0.0
 11
1.249999999999864
 21
2.165063509461174
 31
0.0
210
0.0
220
0.0
230
1.0
 40
0.5773502691896219
 41
3.579741684173544
 42
5.845036276594989
  0
LINE
  5
EF4D
330
EEC0
100
AcDbEntity
  8
0
100
AcDbLine
 10
55.43586429093529
 20
14.2551504226356
 30
0.0
 11
55.43586429093529
 21
96.23140714777932
 31
0.0
  0
ELLIPSE
  5
EF4E
330
EEC0
100
AcDbEntity
  8
0
100
AcDbEllipse
 10
53.95094005044353
 20
97.08872855775339
 30
0.0
 11
0.6000000000000006
 21
-0.0000000000000001
 31
0.0
210
0.0
220
0.0
230
1.0
 40
0.5773502691896258
 41
5.497787143782181
 42
7.068583470577047
  0
LINE
  5
EF4F
330
EEC0
100
AcDbEntity
  8
0
100
AcDbLine
 10
54.37520411915548
 20
97.33367753203172
 30
0.0
 11
54.37520411915548
 21
96.84377958347511
 31
0.0
  0
ELLIPSE
  5
EF50
330
EEC0
100
AcDbEntity
  8
0
100
AcDbEllipse
 10
53.95094005044353
 20
97.08872855775339
 30
0.0
 11
2.099999999999999
 21
0.0
 31
0.0
210
0.0
220
0.0
230
1.0
 40
0.5773502691896258
 41
5.497787143782155
 42
7.068583470577036
  0
ELLIPSE
  5
EF51
330
EEC0
100
AcDbEntity
  8
0
100
AcDbEllipse
 10
53.95094005044353
 20
15.11247183260971
 30
0.0
 11
2.099999999999999
 21
0.0000000000000001
 31
0.0
210
0.0
220
0.0
230
1.0
 40
0.5773502691896258
 41
5.497787143782145
 42
6.283185307179586
  0
LINE
  5
EF52
330
EEC0
100
AcDbEntity
  8
0
100
AcDbLine
 10
1.483616886401684
 20
127.8706496587287
 30
0.0
 11
1.483616886401684
 21
45.89439293358498
 31
0.0
  0
ELLIPSE
  5
EF53
330
EEC0
100
AcDbEntity
  8
0
100
AcDbEllipse
 10
1.059352817689749
 20
127.6257006844503
 30
0.0
 11
0.6000000000000006
 21
-0.0000000000000358
 31
0.0
210
0.0
220
0.0
230
1.0
 40
0.5773502691896258
 41
0.7853981633976926
 42
2.356194490192608
  0
LINE
  5
EF54
330
EEC0
100
AcDbEntity
  8
0
100
AcDbLine
 10
0.635088748977819
 20
127.8706496587287
 30
0.0
 11
0.635088748977819
 21
45.89439293358498
 31
0.0
  0
ELLIPSE
  5
EF55
330
EEC0
100
AcDbEntity
  8
0
100
AcDbEllipse
 10
1.059352817689749
 20
45.64944395930666
 30
0.0
 11
0.6000000000000006
 21
-0.0000000000000358
 31
0.0
210
0.0
220
0.0
230
1.0
 40
0.5773502691896258
 41
0.7853981633976837
 42
2.356194490192599
  0
ELLIPSE
  5
EF56
330
EEC0
100
AcDbEntity
  8
0
100
AcDbEllipse
 10
1.059352817689749
 20
127.6257006844503
 30
0.0
 11
-2.099999999999999
 21
-0.0000000000001255
 31
0.0
210
0.0
220
0.0
230
1.0
 40
0.5773502691896258
 41
3.926990816987002
 42
5.497787143781899
  0
LINE
  5
EF57
330
EEC0
100
AcDbEntity
  8
0
100
AcDbLine
 10
56.05094005044353
 20
97.08872855775339
 30
0.0
 11
56.05094005044353
 21
15.11247183260973
 31
0.0
  0
ELLIPSE
  5
EF58
330
EEC0
100
AcDbEntity
  8
0
100
AcDbEllipse
 10
-24.04293791443269
 20
104.3147232989637
 30
0.0
 11
1.24999999999987
 21
2.165063509461171
 31
0.0
210
0.0
220
0.0
230
1.0
 40
0.5773502691896259
 41
3.579741684173537
 42
5.845036276594988
  0
ELLIPSE
  5
EF59
330
EEC0
100
AcDbEntity
  8
0
100
AcDbEllipse
 10
-24.04293791443268
 20
87.98479168040922
 30
0.0
 11
1.24999999999987
 21
2.165063509461172
 31
0.0
210
0.0
220
0.0
230
0.9999999999999998
 40
0.5773502691896258
 41
3.579741684173541
 42
5.845036276595003
  0
ELLIPSE
  5
EF5A
330
EEC0
100
AcDbEntity
  8
0
100
AcDbEllipse
 10
-24.04293791443268
 20
71.65486006185469
 30
0.0
 11
1.24999999999987
 21
2.165063509461172
 31
0.0
210
0.0
220
0.0
230
0.9999999999999998
 40
0.5773502691896258
 41
3.579741684173542
 42
5.845036276594997
  0
ELLIPSE
  5
EF5B
330
EEC0
100
AcDbEntity
  8
0
100
AcDbEllipse
 10
-24.04293791443268
 20
55.32492844330016
 30
0.0
 11
1.24999999999987
 21
2.165063509461172
 31
0.0
210
0.0
220
0.0
230
0.9999999999999998
 40
0.5773502691896258
 41
3.579741684173542
 42
5.845036276594997
  0
ELLIPSE
  5
EF5C
330
EEC0
100
AcDbEntity
  8
0
100
AcDbEllipse
 10
-22.98227774265287
 20
103.7023508632679
 30
0.0
 11
1.250000000000128
 21
2.165063509461022
 31
0.0
210
0.0
220
0.0
230
1.0
 40
0.5773502691896258
 41
0.0
 42
6.283185307179586
  0
ELLIPSE
  5
EF5D
330
EEC0
100
AcDbEntity
  8
0
100
AcDbEllipse
 10
-22.98227774265286
 20
87.37241924471343
 30
0.0
 11
1.250000000000128
 21
2.165063509461022
 31
0.0
210
0.0
220
0.0
230
1.0
 40
0.5773502691896258
 41
0.0
 42
6.283185307179586
  0
ELLIPSE
  5
EF5E
330
EEC0
100
AcDbEntity
  8
0
100
AcDbEllipse
 10
-22.98227774265286
 20
71.0424876261589
 30
0.0
 11
1.250000000000128
 21
2.165063509461022
 31
0.0
210
0.0
220
0.0
230
1.0
 40
0.5773502691896258
 41
0.0
 42
6.283185307179586
  0
ELLIPSE
  5
EF5F
330
EEC0
100
AcDbEntity
  8
0
100
AcDbEllipse
 10
-22.98227774265286
 20
54.71255600760438
 30
0.0
 11
1.250000000000128
 21
2.165063509461022
 31
0.0
210
0.0
220
0.0
230
1.0
 40
0.5773502691896258
 41
0.0
 42
6.283185307179586
  0
ELLIPSE
  5
EF60
330
EEC0
100
AcDbEntity
  8
0
100
AcDbEllipse
 10
-24.04293791443268
 20
38.99499682474566
 30
0.0
 11
1.24999999999987
 21
2.165063509461172
 31
0.0
210
0.0
220
0.0
230
0.9999999999999998
 40
0.5773502691896258
 41
3.579741684173544
 42
5.845036276594997
  0
ELLIPSE
  5
EF61
330
EEC0
100
AcDbEntity
  8
0
100
AcDbEllipse
 10
-22.98227774265286
 20
38.38262438904985
 30
0.0
 11
1.250000000000128
 21
2.165063509461022
 31
0.0
210
0.0
220
0.0
230
1.0
 40
0.5773502691896258
 41
0.0
 42
6.283185307179586
  0
LINE
  5
EF62
330
EEC0
100
AcDbEntity
  8
0
100
AcDbLine
 10
12.43586429050189
 20
-77.958930951931
 30
0.0
 11
-1.064135708909228
 21
-101.3416168524144
 31
0.0
  0
LINE
  5
EF63
330
EEC0
100
AcDbEntity
  8
0
100
AcDbLine
 10
11.37520411872183
 20
-77.34655851623506
 30
0.0
 11
-2.124795880689052
 21
-100.7292444167186
 31
0.0
  0
LINE
  5
EF64
330
EEC0
100
AcDbEntity
  8
0
100
AcDbLine
 10
17.13586429093527
 20
-117.6228944434721
 30
0.0
 11
53.83586429014737
 21
-54.05662980705905
 31
0.0
  0
LINE
  5
EF65
330
EEC0
100
AcDbEntity
  8
0
100
AcDbLine
 10
52.52667598094041
 20
-53.58774515841175
 30
0.0
 11
53.51448533033366
 21
-51.87680917707111
 31
0.0
  0
LINE
  5
EF66
330
EEC0
100
AcDbEntity
  8
0
100
AcDbLine
 10
17.46959339839098
 20
-117.8155730334978
 30
0.0
 11
17.13586429093544
 21
-117.6228944434719
 31
0.0
  0
LINE
  5
EF67
330
EEC0
100
AcDbEntity
  8
0
100
AcDbLine
 10
54.50795336745331
 20
-53.66325173805662
 30
0.0
 11
17.46959339839099
 21
-117.8155730334978
 31
0.0
  0
LINE
  5
EF68
330
EEC0
100
AcDbEntity
  8
0
100
AcDbLine
 10
12.43586429050189
 20
-77.958930951931
 30
0.0
 11
11.37520411872183
 21
-77.34655851623506
 31
0.0
  0
LINE
  5
EF69
330
EEC0
100
AcDbEntity
  8
0
100
AcDbLine
 10
53.83586429014737
 20
-54.05662980705905
 30
0.0
 11
12.43586429050189
 21
-77.958930951931
 31
0.0
  0
LINE
  5
EF6A
330
EEC0
100
AcDbEntity
  8
0
100
AcDbLine
 10
-43.42557142324141
 20
-45.70731600528261
 30
0.0
 11
-2.025571423589891
 21
-21.80501486041387
 31
0.0
  0
SPLINE
  5
EF6B
330
EEC0
100
AcDbEntity
  8
0
100
AcDbSpline
210
0.0
220
0.0
230
1.0
 70
     8
 71
     3
 72
     8
 73
     4
 74
     0
 42
0.000000001
 43
0.0000000001
 40
-1.0
 40
-1.0
 40
-1.0
 40
-1.0
 40
0.0
 40
0.0
 40
0.0
 40
0.0
 10
4.582386659033717
 20
-21.43518156502052
 30
0.0
 10
4.614318074014889
 20
-21.58351302136221
 30
0.0
 10
4.532356061405229
 20
-21.72772012083241
 30
0.0
 10
4.371244474867763
 20
-21.80317651671165
 30
0.0
  0
SPLINE
  5
EF6C
330
EEC0
100
AcDbEntity
  8
0
100
AcDbSpline
210
0.0
220
0.0
230
1.0
 70
     8
 71
     3
 72
     8
 73
     4
 74
     0
 42
0.000000001
 43
0.0000000001
 40
-1.0
 40
-1.0
 40
-1.0
 40
-1.0
 40
0.0
 40
0.0
 40
0.0
 40
0.0
 10
51.23904839326548
 20
-48.86231572532516
 30
0.0
 10
51.22383975570713
 20
-48.68506080060062
 30
0.0
 10
51.24450293154159
 20
-48.50546280121726
 30
0.0
 10
51.2764343465234
 20
-48.39400256694588
 30
0.0
  0
SPLINE
  5
EF6D
330
EEC0
100
AcDbEntity
  8
0
100
AcDbSpline
210
0.0
220
0.0
230
1.0
 70
     8
 71
     3
 72
     8
 73
     4
 74
     0
 42
0.000000001
 43
0.0000000001
 40
0.1302463606542661
 40
0.1302463606542661
 40
0.1302463606542661
 40
0.1302463606542661
 40
1.0
 40
1.0
 40
1.0
 40
1.0
 10
52.31888086138451
 20
-47.95908151024352
 30
0.0
 10
52.2660549255953
 20
-48.36850273767979
 30
0.0
 10
52.1344451514809
 20
-48.86641457284692
 30
0.0
 10
51.98904839326546
 20
-49.29532842721737
 30
0.0
  0
ELLIPSE
  5
EF6E
330
EEC0
100
AcDbEntity
  8
0
100
AcDbEllipse
 10
3.726930093748959
 20
-20.69917609407067
 30
0.0
 11
-0.7499999999999999
 21
-1.299038105676658
 31
0.0
210
0.0
220
0.0
230
1.0
 40
0.816496580927726
 41
0.0
 42
1.134458255166984
  0
LINE
  5
EF6F
330
EEC0
100
AcDbEntity
  8
0
100
AcDbLine
 10
2.97693009374897
 20
-21.99821419974732
 30
0.0
 11
1.355424403539355
 21
-21.06203745301224
 31
0.0
  0
LINE
  5
EF70
330
EEC0
100
AcDbEntity
  8
0
100
AcDbLine
 10
1.355424403539355
 20
-21.06203745301224
 30
0.0
 11
0.6228980975798804
 21
-21.33983705037415
 31
0.0
  0
LINE
  5
EF71
330
EEC0
100
AcDbEntity
  8
0
100
AcDbLine
 10
53.51448533033366
 20
-51.87680917707111
 30
0.0
 11
53.38880368583041
 21
-51.10352298848887
 31
0.0
  0
LINE
  5
EF72
330
EEC0
100
AcDbEntity
  8
0
100
AcDbLine
 10
53.38880368583041
 20
-51.10352298848887
 30
0.0
 11
51.76729799562076
 21
-50.16734624175386
 31
0.0
  0
ELLIPSE
  5
EF73
330
EEC0
100
AcDbEntity
  8
0
100
AcDbEllipse
 10
52.51729799562074
 20
-48.8683081360772
 30
0.0
 11
-0.7499999999999996
 21
-1.299038105676658
 31
0.0
210
0.0
220
0.0
230
1.0
 40
0.816496580927726
 41
5.148727052012603
 42
6.283185307179585
  0
LINE
  5
EF74
330
EEC0
100
AcDbEntity
  8
0
100
AcDbLine
 10
-42.36491125146097
 20
-46.31968844097875
 30
0.0
 11
-43.42557142324141
 21
-45.70731600528261
 31
0.0
  0
LINE
  5
EF75
330
EEC0
100
AcDbEntity
  8
0
100
AcDbLine
 10
-0.9649112518101476
 20
-22.41738729610962
 30
0.0
 11
-42.36491125146097
 21
-46.31968844097875
 31
0.0
  0
LINE
  5
EF76
330
EEC0
100
AcDbEntity
  8
0
100
AcDbLine
 10
-0.9649112518101476
 20
-22.41738729610962
 30
0.0
 11
-1.318111089012949
 21
-22.21346727502283
 31
0.0
  0
LINE
  5
EF77
330
EEC0
100
AcDbEntity
  8
0
100
AcDbLine
 10
-1.318111089012949
 20
-22.21346727502283
 30
0.0
 11
-2.025571423589882
 21
-21.80501486041387
 31
0.0
  0
SPLINE
  5
EF78
330
EEC0
100
AcDbEntity
  8
0
100
AcDbSpline
210
0.0
220
0.0
230
1.0
 70
     8
 71
     3
 72
     8
 73
     4
 74
     0
 42
0.000000001
 43
0.0000000001
 40
-1.0
 40
-1.0
 40
-1.0
 40
-1.0
 40
0.0
 40
0.0
 40
0.0
 40
0.0
 10
0.6228980975798671
 20
-21.33983705037415
 30
0.0
 10
0.1129055237793874
 20
-21.71015016761462
 30
0.0
 10
-0.5199831922378895
 20
-22.00950916406434
 30
0.0
 10
-0.9649112518101388
 20
-22.41738729610961
 30
0.0
  0
SPLINE
  5
EF79
330
EEC0
100
AcDbEntity
  8
0
100
AcDbSpline
210
0.0
220
0.0
230
1.0
 70
     8
 71
     3
 72
     8
 73
     4
 74
     0
 42
0.000000001
 43
0.0000000001
 40
0.0
 40
0.0
 40
0.0
 40
0.0
 40
0.6081734479693676
 40
0.6081734479693676
 40
0.6081734479693676
 40
0.6081734479693676
 10
-2.025571423589878
 20
-21.80501486041386
 30
0.0
 10
-1.516148836970363
 20
-21.69484228715547
 30
0.0
 10
-0.7633994706616676
 20
-21.72515449565165
 30
0.0
 10
-0.0120666074590226
 20
-21.75464888569836
 30
0.0
  0
ELLIPSE
  5
EF7A
330
EEC0
100
AcDbEntity
  8
0
100
AcDbEllipse
 10
3.534226551842674
 20
-21.01750187344219
 30
0.0
 11
0.7499999999999226
 21
-1.299038105676702
 31
0.0
210
0.0
220
0.0
230
1.0
 40
0.577350269189626
 41
0.9390757175653323
 42
2.356194490192587
  0
LINE
  5
EF7B
330
EEC0
100
AcDbEntity
  8
0
100
AcDbLine
 10
53.83586429014737
 20
-54.05662980705905
 30
0.0
 11
53.12840395557024
 21
-53.6481773924499
 31
0.0
  0
LINE
  5
EF7C
330
EEC0
100
AcDbEntity
  8
0
100
AcDbLine
 10
53.12840395557024
 20
-53.6481773924499
 30
0.0
 11
52.77520411836754
 21
-53.44425737136325
 31
0.0
  0
LINE
  5
EF7D
330
EEC0
100
AcDbEntity
  8
0
100
AcDbLine
 10
11.37520411872183
 20
-77.34655851623506
 30
0.0
 11
52.77520411836754
 21
-53.44425737136323
 31
0.0
  0
LINE
  5
EF7E
330
EEC0
100
AcDbEntity
  8
0
100
AcDbLine
 10
53.51448533033366
 20
-51.87680917707111
 30
0.0
 11
53.76423533033423
 21
-52.02100240680154
 31
0.0
  0
SPLINE
  5
EF7F
330
EEC0
100
AcDbEntity
  8
0
100
AcDbSpline
210
0.0
220
0.0
230
1.0
 70
     8
 71
     3
 72
     8
 73
     4
 74
     0
 42
0.000000001
 43
0.0000000001
 40
-0.9999999999999944
 40
-0.9999999999999944
 40
-0.9999999999999944
 40
-0.9999999999999944
 40
0.0
 40
0.0
 40
0.0
 40
0.0
 10
52.77520411836755
 20
-53.44425737136321
 30
0.0
 10
53.2201321779397
 20
-53.03637923931803
 30
0.0
 10
53.44878105034858
 20
-52.50363226034472
 30
0.0
 10
53.51448533033364
 20
-51.87680917707108
 30
0.0
  0
SPLINE
  5
EF80
330
EEC0
100
AcDbEntity
  8
0
100
AcDbSpline
210
0.0
220
0.0
230
1.0
 70
     8
 71
     3
 72
     8
 73
     4
 74
     0
 42
0.000000001
 43
0.0000000001
 40
0.0
 40
0.0
 40
0.0
 40
0.0
 40
0.9999999999999944
 40
0.9999999999999944
 40
0.9999999999999944
 40
0.9999999999999944
 10
54.26448533033365
 20
-52.3098218789633
 30
0.0
 10
54.75414141761838
 20
-53.25728241977741
 30
0.0
 10
54.67349143141824
 20
-53.87547659554311
 30
0.0
 10
53.83586429014741
 20
-54.05662980705901
 30
0.0
  0
LINE
  5
EF81
330
EEC0
100
AcDbEntity
  8
0
100
AcDbLine
 10
53.76423533033423
 20
-52.02100240680154
 30
0.0
 11
54.26448533033365
 21
-52.30982187896332
 31
0.0
  0
ELLIPSE
  5
EF82
330
EEC0
100
AcDbEntity
  8
0
100
AcDbEllipse
 10
53.26729799562073
 20
-49.30132083796942
 30
0.0
 11
-0.7499999999999986
 21
-1.299038105676659
 31
0.0
210
0.0
220
0.0
230
1.0
 40
0.816496580927726
 41
5.148727052012603
 42
6.283185307179584
  0
LINE
  5
EF83
330
EEC0
100
AcDbEntity
  8
0
100
AcDbLine
 10
51.98904839326548
 20
-49.29532842721737
 30
0.0
 11
51.48879839416551
 21
-49.0065089555749
 31
0.0
  0
LINE
  5
EF84
330
EEC0
100
AcDbEntity
  8
0
100
AcDbLine
 10
51.48879839416551
 20
-49.0065089555749
 30
0.0
 11
51.23904839326548
 21
-48.86231572532516
 31
0.0
  0
LINE
  5
EF85
330
EEC0
100
AcDbEntity
  8
0
100
AcDbLine
 10
53.38880368583041
 20
-51.10352298848887
 30
0.0
 11
54.13880368583041
 21
-51.53653569038109
 31
0.0
  0
LINE
  5
EF86
330
EEC0
100
AcDbEntity
  8
0
100
AcDbLine
 10
54.13880368583041
 20
-51.53653569038109
 30
0.0
 11
54.26448533033365
 21
-52.30982187896332
 31
0.0
  0
LINE
  5
EF87
330
EEC0
100
AcDbEntity
  8
0
100
AcDbLine
 10
51.2764343465234
 20
-48.39400256694587
 30
0.0
 11
51.62963418697014
 21
-48.19008254398621
 31
0.0
  0
LINE
  5
EF88
330
EEC0
100
AcDbEntity
  8
0
100
AcDbLine
 10
51.62963418697014
 20
-48.19008254398621
 30
0.0
 11
52.16223562367061
 21
-47.88258496113641
 31
0.0
  0
ELLIPSE
  5
EF89
330
EEC0
100
AcDbEntity
  8
0
100
AcDbEllipse
 10
52.32459445371446
 20
-49.18663391544874
 30
0.0
 11
-0.7500000000000004
 21
1.299038105676658
 31
0.0
210
0.0
220
0.0
230
0.9999999999999998
 40
0.577350269189626
 41
5.497787143782137
 42
6.914905916409349
  0
LINE
  5
EF8A
330
EEC0
100
AcDbEntity
  8
0
100
AcDbLine
 10
17.13586429093527
 20
-117.6228944434721
 30
0.0
 11
-1.064135708909268
 21
-107.1151195443107
 31
0.0
  0
LINE
  5
EF8B
330
EEC0
100
AcDbEntity
  8
0
100
AcDbLine
 10
-55.86491125086666
 20
-75.47587703336133
 30
0.0
 11
-37.66491125102216
 21
-85.98365193252275
 31
0.0
  0
LINE
  5
EF8C
330
EEC0
100
AcDbEntity
  8
0
100
AcDbLine
 10
4.582386659033734
 20
-21.43518156502052
 30
0.0
 11
11.6734261693937
 21
-25.52919513516111
 31
0.0
  0
LINE
  5
EF8D
330
EEC0
100
AcDbEntity
  8
0
100
AcDbLine
 10
11.59946821871277
 20
-25.97639344098341
 30
0.0
 11
4.371244474867785
 21
-21.80317651671167
 31
0.0
  0
LINE
  5
EF8E
330
EEC0
100
AcDbEntity
  8
0
100
AcDbLine
 10
24.3273902796999
 20
-33.3248626691189
 30
0.0
 11
15.01944662077203
 21
-27.95091889203503
 31
0.0
  0
LINE
  5
EF8F
330
EEC0
100
AcDbEntity
  8
0
100
AcDbLine
 10
15.19401680751498
 20
-27.5618090877869
 30
0.0
 11
24.40134823088201
 21
-32.87766436358595
 31
0.0
  0
LINE
  5
EF90
330
EEC0
100
AcDbEntity
  8
0
100
AcDbLine
 10
31.45747277467514
 20
-36.95151976838044
 30
0.0
 11
40.66480419804216
 21
-42.26737504417949
 31
0.0
  0
LINE
  5
EF91
330
EEC0
100
AcDbEntity
  8
0
100
AcDbLine
 10
40.59084624736122
 20
-42.71457335000178
 30
0.0
 11
31.28290258843335
 21
-37.34062957291791
 31
0.0
  0
LINE
  5
EF92
330
EEC0
100
AcDbEntity
  8
0
100
AcDbLine
 10
51.23904839326548
 20
-48.86231572532516
 30
0.0
 11
44.01082464942049
 21
-44.68909880105342
 31
0.0
  0
LINE
  5
EF93
330
EEC0
100
AcDbEntity
  8
0
100
AcDbLine
 10
44.18539483616344
 20
-44.29998899680528
 30
0.0
 11
51.2764343465234
 21
-48.39400256694587
 31
0.0
  0
LINE
  5
EF94
330
EEC0
100
AcDbEntity
  8
0
100
AcDbLine
 10
-36.94064718231023
 20
-86.40180598755794
 30
0.0
 11
-2.124795880689065
 21
-106.5027471086149
 31
0.0
  0
ELLIPSE
  5
EF95
330
EEC0
100
AcDbEntity
  8
0
100
AcDbEllipse
 10
6.685864291204448
 20
-97.15582740085531
 30
0.0
 11
1.250000000000129
 21
2.165063509461022
 31
0.0
210
0.0
220
0.0
230
1.0
 40
0.5773502691896257
 41
0.0
 42
6.283185307179586
  0
ELLIPSE
  5
EF96
330
EEC0
100
AcDbEntity
  8
0
100
AcDbEllipse
 10
20.43586429140916
 20
-79.11363148879769
 30
0.0
 11
-0.4000000000000423
 21
-0.6928203230275285
 31
0.0
210
0.0
220
0.0
230
1.0
 40
0.5773502691896257
 41
2.094395102375143
 42
2.276828566511582
  0
LINE
  5
EF97
330
EEC0
100
AcDbEntity
  8
0
100
AcDbLine
 10
20.98227445292028
 20
-78.96722132729696
 30
0.0
 11
20.18980620759702
 21
-82.83981659150303
 31
0.0
  0
ELLIPSE
  5
EF98
330
EEC0
100
AcDbEntity
  8
0
100
AcDbEllipse
 10
19.6433960460859
 20
-82.98622675300377
 30
0.0
 11
-0.4000000000000415
 21
-0.6928203230275272
 31
0.0
210
0.0
220
0.0
230
1.0
 40
0.5773502691896257
 41
0.0
 42
2.094395102375107
  0
LINE
  5
EF99
330
EEC0
100
AcDbEntity
  8
0
100
AcDbLine
 10
19.24339604607864
 20
-83.67904707602713
 30
0.0
 11
17.07833253665692
 21
-82.42904707595888
 31
0.0
  0
ELLIPSE
  5
EF9A
330
EEC0
100
AcDbEntity
  8
0
100
AcDbEllipse
 10
17.47833253666419
 20
-81.73622675293552
 30
0.0
 11
-0.4000000000072804
 21
-0.6928203230233495
 31
0.0
210
0.0
220
0.0
230
1.0
 40
0.5773502691896257
 41
4.18879020482279
 42
6.283185307252368
  0
LINE
  5
EF9B
330
EEC0
100
AcDbEntity
  8
0
100
AcDbLine
 10
17.33192237516036
 20
-81.18981659141295
 30
0.0
 11
20.28945412990534
 21
-78.56722132727511
 31
0.0
  0
ELLIPSE
  5
EF9C
330
EEC0
100
AcDbEntity
  8
0
100
AcDbEllipse
 10
20.43586429140916
 20
-79.11363148879769
 30
0.0
 11
0.4000000000000012
 21
0.6928203230275522
 31
0.0
210
0.0
220
0.0
230
1.0
 40
0.577350269189626
 41
0.0802385882704835
 42
1.047197551178413
  0
LINE
  5
EF9D
330
EEC0
100
AcDbEntity
  8
0
100
AcDbLine
 10
20.8025163291434
 20
-78.40452980722144
 30
0.0
 11
20.99976903929352
 21
-78.83984812759901
 31
0.0
  0
ELLIPSE
  5
EF9E
330
EEC0
100
AcDbEntity
  8
0
100
AcDbEllipse
 10
18.58273587430611
 20
-82.373854317308
 30
0.0
 11
-0.4000000000072798
 21
-0.6928203230233483
 31
0.0
210
0.0
220
0.0
230
1.0
 40
0.5773502691896258
 41
0.0000000000727909
 42
2.094395102429602
  0
LINE
  5
EF9F
330
EEC0
100
AcDbEntity
  8
0
100
AcDbLine
 10
19.1291460358172
 20
-82.22744415580724
 30
0.0
 11
20.18980620759702
 21
-82.83981659150303
 31
0.0
  0
LINE
  5
EFA0
330
EEC0
100
AcDbEntity
  8
0
100
AcDbLine
 10
19.1291460358172
 20
-82.22744415580724
 30
0.0
 11
19.78697555196785
 21
-79.01279488255996
 31
0.0
  0
LINE
  5
EFA1
330
EEC0
100
AcDbEntity
  8
0
100
AcDbLine
 10
20.28945412989273
 20
-78.56722132729695
 30
0.0
 11
20.98227445292028
 21
-78.96722132729696
 31
0.0
  0
LINE
  5
EFA2
330
EEC0
100
AcDbEntity
  8
0
100
AcDbLine
 10
20.39101526339855
 20
-78.48838397121584
 30
0.0
 11
20.99976903929352
 21
-78.83984812759901
 31
0.0
  0
ELLIPSE
  5
EFA3
330
EEC0
100
AcDbEntity
  8
0
100
AcDbEllipse
 10
5.625204119424656
 20
-96.54345496515956
 30
0.0
 11
1.24999999999987
 21
2.165063509461172
 31
0.0
210
0.0
220
0.0
230
1.0
 40
0.5773502691896259
 41
3.579741684173535
 42
5.845036276595007
  0
LINE
  5
EFA4
330
EEC0
100
AcDbEntity
  8
0
100
AcDbLine
 10
-43.42557142324141
 20
-45.70731600528261
 30
0.0
 11
-56.9255714226465
 21
-69.09000190576931
 31
0.0
  0
LINE
  5
EFA5
330
EEC0
100
AcDbEntity
  8
0
100
AcDbLine
 10
-42.36491125146097
 20
-46.31968844097875
 30
0.0
 11
-55.86491125086668
 21
-69.7023743414651
 31
0.0
  0
ELLIPSE
  5
EFA6
330
EEC0
100
AcDbEntity
  8
0
100
AcDbEllipse
 10
-51.67557142257826
 20
-69.2343394731061
 30
0.0
 11
1.24999999999987
 21
2.165063509461172
 31
0.0
210
0.0
220
0.0
230
1.0
 40
0.5773502691896254
 41
3.579741684173539
 42
5.845036276595009
  0
ELLIPSE
  5
EFA7
330
EEC0
100
AcDbEntity
  8
0
100
AcDbEllipse
 10
-38.7180396676968
 20
-55.06473882525455
 30
0.0
 11
-0.4000000000072798
 21
-0.6928203230233483
 31
0.0
210
0.0
220
0.0
230
1.0
 40
0.5773502691896258
 41
0.0000000000727867
 42
2.094395102429588
  0
LINE
  5
EFA8
330
EEC0
100
AcDbEntity
  8
0
100
AcDbLine
 10
-38.17162950618571
 20
-54.91832866375379
 30
0.0
 11
-37.51379999003506
 21
-51.70367939050651
 31
0.0
  0
LINE
  5
EFA9
330
EEC0
100
AcDbEntity
  8
0
100
AcDbLine
 10
-37.1109693344059
 20
-55.53070109944958
 30
0.0
 11
-38.17162950618571
 21
-54.91832866375379
 31
0.0
  0
LINE
  5
EFAA
330
EEC0
100
AcDbEntity
  8
0
100
AcDbLine
 10
-36.31850108908265
 20
-51.65810583524351
 30
0.0
 11
-37.1109693344059
 21
-55.53070109944958
 31
0.0
  0
LINE
  5
EFAB
330
EEC0
100
AcDbEntity
  8
0
100
AcDbLine
 10
-36.31850108908265
 20
-51.65810583524351
 30
0.0
 11
-37.01132141211747
 21
-51.2581058352393
 31
0.0
  0
ELLIPSE
  5
EFAC
330
EEC0
100
AcDbEntity
  8
0
100
AcDbEllipse
 10
-36.86491125059375
 20
-51.80451599674426
 30
0.0
 11
0.4000000000000005
 21
0.6928203230275525
 31
0.0
210
0.0
220
0.0
230
1.0
 40
0.5773502691896257
 41
5.235987755964798
 42
7.330382858357998
  0
LINE
  5
EFAD
330
EEC0
100
AcDbEntity
  8
0
100
AcDbLine
 10
-39.96885316684255
 20
-53.88070109935951
 30
0.0
 11
-37.01132141209759
 21
-51.25810583522167
 31
0.0
  0
ELLIPSE
  5
EFAE
330
EEC0
100
AcDbEntity
  8
0
100
AcDbEllipse
 10
-39.82244300533872
 20
-54.42711126088209
 30
0.0
 11
-0.4000000000072796
 21
-0.6928203230233496
 31
0.0
210
0.0
220
0.0
230
1.0
 40
0.5773502691896258
 41
4.188790204822796
 42
6.283185307252376
  0
LINE
  5
EFAF
330
EEC0
100
AcDbEntity
  8
0
100
AcDbLine
 10
-38.05737949592428
 20
-56.3699315839737
 30
0.0
 11
-40.22244300534598
 21
-55.11993158390545
 31
0.0
  0
ELLIPSE
  5
EFB0
330
EEC0
100
AcDbEntity
  8
0
100
AcDbEllipse
 10
-37.65737949591701
 20
-55.67711126095034
 30
0.0
 11
-0.4000000000000411
 21
-0.6928203230275276
 31
0.0
210
0.0
220
0.0
230
1.0
 40
0.5773502691896258
 41
0.0
 42
2.094395102375107
  0
ELLIPSE
  5
EFB1
330
EEC0
100
AcDbEntity
  8
0
100
AcDbEllipse
 10
-50.61491125079847
 20
-69.84671190880189
 30
0.0
 11
1.250000000000128
 21
2.165063509461022
 31
0.0
210
0.0
220
0.0
230
1.0
 40
0.5773502691896259
 41
0.0
 42
6.283185307179586
  0
LINE
  5
EFB2
330
EEC0
100
AcDbEntity
  8
0
100
AcDbLine
 10
0.6228980975798804
 20
-21.33983705037415
 30
0.0
 11
-36.94064718231023
 21
-86.40180598755794
 31
0.0
  0
LINE
  5
EFB3
330
EEC0
100
AcDbEntity
  8
0
100
AcDbLine
 10
-37.6649112510222
 20
-85.98365193252275
 30
0.0
 11
-36.94064718231024
 21
-86.40180598755796
 31
0.0
  0
LINE
  5
EFB4
330
EEC0
100
AcDbEntity
  8
0
100
AcDbLine
 10
-37.66491125102216
 20
-85.98365193252275
 30
0.0
 11
-0.9649112518101432
 21
-22.41738729610962
 31
0.0
  0
ENDBLK
  5
EEC2
330
EEC0
100
AcDbEntity
  8
0
100
AcDbBlockEnd
  0
ENDSEC
  0
SECTION
  2
ENTITIES
  0
INSERT
  5
EFB5
330
1F
100
AcDbEntity
  8
0
100
AcDbBlockReference
  2
SPR76_180-Front
 10
0.0
 20
0.0
 30
0.0
  0
INSERT
  5
EFB6
330
1F
100
AcDbEntity
  8
0
100
AcDbBlockReference
  2
SPR76_180-Left
 10
151.4229986469886
 20
0.0
 30
0.0
  0
INSERT
  5
EFB7
330
1F
100
AcDbEntity
  8
0
100
AcDbBlockReference
  2
SPR76_180-Right
 10
-151.4229986469887
 20
0.0
 30
0.0
  0
INSERT
  5
EFB8
330
1F
100
AcDbEntity
  8
0
100
AcDbBlockReference
  2
SPR76_180-Top
 10
0.0
 20
-126.545601705951
 30
0.0
  0
INSERT
  5
EFB9
330
1F
100
AcDbEntity
  8
0
100
AcDbBlockReference
  2
SPR76_180-Bottom
 10
0.0
 20
251.5659080859887
 30
0.0
  0
INSERT
  5
EFBA
330
1F
100
AcDbEntity
  8
0
100
AcDbBlockReference
  2
SPR76_180-ISO
 10
208.3485700696352
 20
-255.3837379556995
 30
0.0
  0
MTEXT
  5
EFBB
330
1F
100
AcDbEntity
  8
0
100
AcDbMText
 10
0.0
 20
-279.4445760657997
 30
0.0
 40
23.29584594569057
 41
0.0
 71
     5
 72
     5
  1
SPR76/180
 73
     1
 44
1.0
1001
ACAD
1000
MTEXTBEGIN
1070
    73
1070
     1
1070
    44
1040
1.0
1070
    74
1070
     0
1000
MTEXTEND
  0
ENDSEC
  0
SECTION
  2
OBJECTS
  0
DICTIONARY
  5
C
330
0
100
AcDbDictionary
281
     1
  3
ACAD_CIP_PREVIOUS_PRODUCT_INFO
350
216
  3
ACAD_COLOR
350
6B
  3
ACAD_DETAILVIEWSTYLE
350
21B
  3
ACAD_GROUP
350
D
  3
ACAD_LAYOUT
350
1A
  3
ACAD_MATERIAL
350
6A
  3
ACAD_MLEADERSTYLE
350
12D
  3
ACAD_MLINESTYLE
350
17
  3
ACAD_PLOTSETTINGS
350
19
  3
ACAD_PLOTSTYLENAME
350
E
  3
ACAD_SCALELIST
350
10C
  3
ACAD_SECTIONVIEWSTYLE
350
219
  3
ACAD_TABLESTYLE
350
7E
  3
ACAD_VISUALSTYLE
350
EF
  3
ACDB_RECOMPOSE_DATA
350
F0BC
  3
AcDbVariableDictionary
350
5E
  3
DWGPROPS
350
F0BD
  0
DICTIONARY
  5
F00C
330
8
100
AcDbDictionary
280
     1
281
     1
  0
DICTIONARY
  5
1FF
330
2
100
AcDbDictionary
280
     1
281
     1
  3
ACAD_LAYERSTATES
360
200
  0
DICTIONARY
  5
13C
330
10
100
AcDbDictionary
280
     1
281
     1
  0
DICTIONARY
  5
1CE
330
1F
100
AcDbDictionary
280
     1
281
     1
  3
ACAD_LAYOUTSELFREF
360
F014
  0
DICTIONARY
  5
EFBF
330
D2
100
AcDbDictionary
280
     1
281
     1
  3
ACAD_LAYOUTSELFREF
360
F01D
  0
DICTIONARY
  5
EFC1
330
D6
100
AcDbDictionary
280
     1
281
     1
  3
ACAD_LAYOUTSELFREF
360
F020
  0
XRECORD
  5
216
102
{ACAD_REACTORS
330
C
102
}
330
C
100
AcDbXrecord
280
     1
300
ACD
300
2021
300
87393ACD_2021_0F
  0
DICTIONARY
  5
6B
102
{ACAD_REACTORS
330
C
102
}
330
C
100
AcDbDictionary
281
     1
  0
DICTIONARY
  5
21B
102
{ACAD_REACTORS
330
C
102
}
330
C
100
AcDbDictionary
281
     1
  3
Metric50
350
21C
  0
DICTIONARY
  5
D
102
{ACAD_REACTORS
330
C
102
}
330
C
100
AcDbDictionary
281
     1
  0
DICTIONARY
  5
1A
102
{ACAD_REACTORS
330
C
102
}
330
C
100
AcDbDictionary
281
     1
  3
Layout1
350
D3
  3
Layout2
350
D7
  3
Model
350
22
  0
DICTIONARY
  5
6A
102
{ACAD_REACTORS
330
C
102
}
330
C
100
AcDbDictionary
281
     1
  3
ByBlock
350
ED
  3
ByLayer
350
EC
  3
Global
350
EE
  0
DICTIONARY
  5
12D
102
{ACAD_REACTORS
330
C
102
}
330
C
100
AcDbDictionary
281
     1
  3
Standard
350
12E
  0
DICTIONARY
  5
17
102
{ACAD_REACTORS
330
C
102
}
330
C
100
AcDbDictionary
281
     1
  3
Standard
350
18
  0
DICTIONARY
  5
19
102
{ACAD_REACTORS
330
C
102
}
330
C
100
AcDbDictionary
281
     1
  0
ACDBDICTIONARYWDFLT
  5
E
102
{ACAD_REACTORS
330
C
102
}
330
C
100
AcDbDictionary
281
     1
  3
Normal
350
F
100
AcDbDictionaryWithDefault
340
F
  0
DICTIONARY
  5
10C
102
{ACAD_REACTORS
330
C
102
}
330
C
100
AcDbDictionary
281
     1
  3
A0
350
10D
  3
A1
350
1BE
  3
A2
350
1BF
  3
A3
350
1C0
  3
A4
350
1C1
  3
A5
350
1C2
  3
A6
350
1C3
  3
A7
350
1C4
  3
A8
350
1C5
  3
A9
350
1C6
  3
B0
350
1C7
  3
B1
350
1C8
  3
B2
350
1C9
  3
B3
350
1CA
  3
B4
350
1CB
  3
B5
350
1CC
  3
B6
350
1CD
  0
DICTIONARY
  5
219
102
{ACAD_REACTORS
330
C
102
}
330
C
100
AcDbDictionary
281
     1
  3
Metric50
350
21A
  0
DICTIONARY
  5
7E
102
{ACAD_REACTORS
330
C
102
}
330
C
100
AcDbDictionary
281
     1
  3
Standard
350
7F
  0
DICTIONARY
  5
EF
102
{ACAD_REACTORS
330
C
102
}
330
C
100
AcDbDictionary
281
     1
  3
2dWireframe
350
F5
  3
Basic
350
F4
  3
Brighten
350
FB
  3
ColorChange
350
FF
  3
Conceptual
350
F8
  3
Dim
350
FA
  3
EdgeColorOff
350
1E6
  3
Facepattern
350
FE
  3
Flat
350
F0
  3
FlatWithEdges
350
F1
  3
Gouraud
350
F2
  3
GouraudWithEdges
350
F3
  3
Hidden
350
F7
  3
JitterOff
350
1E4
  3
Linepattern
350
FD
  3
OverhangOff
350
1E5
  3
Realistic
350
F9
  3
Shaded
350
1F3
  3
Shaded with edges
350
1F2
  3
Shades of Gray
350
1EF
  3
Sketchy
350
1F0
  3
Thicken
350
FC
  3
Wireframe
350
F6
  3
X-Ray
350
1F1
  0
XRECORD
  5
F0BC
102
{ACAD_REACTORS
330
C
102
}
330
C
100
AcDbXrecord
280
     1
 90
        1
330
7F
  0
DICTIONARY
  5
5E
102
{ACAD_REACTORS
330
C
102
}
330
C
100
AcDbDictionary
281
     1
  3
CANNOSCALE
350
146
  3
CENTEREXE
350
259
  3
CENTERLTYPEFILE
350
25A
  3
CMLEADERSTYLE
350
145
  3
CTABLESTYLE
350
84
  3
CVIEWDETAILSTYLE
350
227
  3
CVIEWSECTIONSTYLE
350
228
  3
DIMASSOC
350
5F
  3
HIDETEXT
350
63
  3
INDEXCTL
350
F069
  3
LAYEREVAL
350
1AE
  3
LAYERNOTIFY
350
1AF
  3
LIGHTINGUNITS
350
F067
  3
MSLTSCALE
350
F066
  3
PSOLHEIGHT
350
F0B9
  3
PSOLWIDTH
350
F0B8
  3
SORTENTS
350
F068
  3
XCLIPFRAME
350
F0BA
  0
XRECORD
  5
F0BD
102
{ACAD_REACTORS
330
C
102
}
330
C
100
AcDbXrecord
280
     1
  1
DWGPROPS COOKIE
  2

  3

  4

  6

  7

  8
truole
  9

300
=
301
=
302
=
303
=
304
=
305
=
306
=
307
=
308
=
309
=
 40
0.0025810185185185
 41
2460719.40650463
 42
2460719.414976852
  1

 90
        0
  0
DICTIONARY
  5
200
102
{ACAD_REACTORS
330
1FF
102
}
330
1FF
100
AcDbDictionary
281
     1
  0
XRECORD
  5
F014
102
{ACAD_REACTORS
330
1CE
102
}
330
1CE
100
AcDbXrecord
280
     1
340
1F
  0
XRECORD
  5
F01D
102
{ACAD_REACTORS
330
EFBF
102
}
330
EFBF
100
AcDbXrecord
280
     1
340
D2
  0
XRECORD
  5
F020
102
{ACAD_REACTORS
330
EFC1
102
}
330
EFC1
100
AcDbXrecord
280
     1
340
D6
  0
ACDBDETAILVIEWSTYLE
  5
21C
102
{ACAD_XDICTIONARY
360
F0FC
102
}
102
{ACAD_REACTORS
330
21B
102
}
330
21B
100
AcDbModelDocViewStyle
 70
     0
  3
Metric50
290
     0
100
AcDbDetailViewStyle
 70
     0
 71
     0
 90
        3
 71
     1
340
11
 40
5.0
340
0
 40
5.0
300

 40
0.0
280
     1
 71
     2
340
16
 90
       25
 71
     3
340
11
 40
5.0
 90
        0
 40
15.0
 90
        1
300
%<\AcVar ViewDetailId>% (%<\AcVar ViewScale \f "%sn">%)
 71
     4
340
16
 90
       25
340
16
 90
       25
280
     0
  0
LAYOUT
  5
D3
102
{ACAD_XDICTIONARY
360
F0C1
102
}
102
{ACAD_REACTORS
330
1A
102
}
330
1A
100
AcDbPlotSettings
  1

  2
C:\Documents and Settings\basas\Application Data\Autodesk\AutoCAD 2005\R16.1\enu\plotters\Default Windows System Printer.pc3
  4

  6

 40
0.0
 41
0.0
 42
0.0
 43
0.0
 44
0.0
 45
0.0
 46
0.0
 47
0.0
 48
0.0
 49
0.0
140
0.0
141
0.0
142
1.0
143
1.0
 70
   688
 72
     0
 73
     0
 74
     5
  7

 75
    16
147
1.0
148
0.0
149
0.0
100
AcDbLayout
  1
Layout1
 70
     1
 71
     1
 10
0.0
 20
0.0
 11
12.0
 21
9.0
 12
0.0
 22
0.0
 32
0.0
 14
0.0
 24
0.0
 34
0.0
 15
0.0
 25
0.0
 35
0.0
146
0.0
 13
0.0
 23
0.0
 33
0.0
 16
1.0
 26
0.0
 36
0.0
 17
0.0
 27
1.0
 37
0.0
 76
     0
330
D2
  0
LAYOUT
  5
D7
102
{ACAD_XDICTIONARY
360
F0C3
102
}
102
{ACAD_REACTORS
330
1A
102
}
330
1A
100
AcDbPlotSettings
  1

  2
C:\Documents and Settings\basas\Application Data\Autodesk\AutoCAD 2005\R16.1\enu\plotters\Default Windows System Printer.pc3
  4

  6

 40
0.0
 41
0.0
 42
0.0
 43
0.0
 44
0.0
 45
0.0
 46
0.0
 47
0.0
 48
0.0
 49
0.0
140
0.0
141
0.0
142
1.0
143
1.0
 70
   688
 72
     0
 73
     0
 74
     5
  7

 75
    16
147
1.0
148
0.0
149
0.0
100
AcDbLayout
  1
Layout2
 70
     1
 71
     2
 10
0.0
 20
0.0
 11
12.0
 21
9.0
 12
0.0
 22
0.0
 32
0.0
 14
0.0
 24
0.0
 34
0.0
 15
0.0
 25
0.0
 35
0.0
146
0.0
 13
0.0
 23
0.0
 33
0.0
 16
1.0
 26
0.0
 36
0.0
 17
0.0
 27
1.0
 37
0.0
 76
     0
330
D6
  0
LAYOUT
  5
22
102
{ACAD_XDICTIONARY
360
F0BE
102
}
102
{ACAD_REACTORS
330
1A
102
}
330
1A
100
AcDbPlotSettings
  1

  2
none_device
  4
ISO_A4_(210.00_x_297.00_MM)
  6

 40
7.5
 41
20.0
 42
7.5
 43
20.0
 44
210.0
 45
297.0
 46
11.54999923706054
 47
-13.65000009536743
 48
0.0
 49
0.0
140
0.0
141
0.0
142
1.0
143
8.704084754739808
 70
 11952
 72
     1
 73
     0
 74
     0
  7

 75
     0
147
0.1148885871608098
148
0.0
149
0.0
100
AcDbLayout
  1
Model
 70
     1
 71
     0
 10
0.0
 20
0.0
 11
12.0
 21
9.0
 12
0.0
 22
0.0
 32
0.0
 14
0.0
 24
0.0
 34
0.0
 15
0.0
 25
0.0
 35
0.0
146
0.0
 13
0.0
 23
0.0
 33
0.0
 16
1.0
 26
0.0
 36
0.0
 17
0.0
 27
1.0
 37
0.0
 76
     0
330
1F
331
EA
1001
ACAD_PSEXT
1000
None
1000
None
1000
Not applicable
1000
The layout will not be plotted unless a new plotter configuration name is selected.
1070
     0
  0
MATERIAL
  5
ED
102
{ACAD_XDICTIONARY
360
1F9
102
}
102
{ACAD_REACTORS
330
6A
102
}
330
6A
100
AcDbMaterial
  1
ByBlock
  0
MATERIAL
  5
EC
102
{ACAD_XDICTIONARY
360
1F7
102
}
102
{ACAD_REACTORS
330
6A
102
}
330
6A
100
AcDbMaterial
  1
ByLayer
  0
MATERIAL
  5
EE
102
{ACAD_XDICTIONARY
360
173
102
}
102
{ACAD_REACTORS
330
6A
102
}
330
6A
100
AcDbMaterial
  1
Global
 43
0.0007999999797903
 43
0.0
 43
0.0
 43
0.0
 43
0.0
 43
0.0007999999797903
 43
0.0
 43
0.0
 43
0.0
 43
0.0
 43
1.0
 43
0.0
 43
0.0
 43
0.0
 43
0.0
 43
1.0
 49
0.0007999999797903
 49
0.0
 49
0.0
 49
0.0
 49
0.0
 49
0.0007999999797903
 49
0.0
 49
0.0
 49
0.0
 49
0.0
 49
1.0
 49
0.0
 49
0.0
 49
0.0
 49
0.0
 49
1.0
142
0.0007999999797903
142
0.0
142
0.0
142
0.0
142
0.0
142
0.0007999999797903
142
0.0
142
0.0
142
0.0
142
0.0
142
1.0
142
0.0
142
0.0
142
0.0
142
0.0
142
1.0
144
0.0007999999797903
144
0.0
144
0.0
144
0.0
144
0.0
144
0.0007999999797903
144
0.0
144
0.0
144
0.0
144
0.0
144
1.0
144
0.0
144
0.0
144
0.0
144
0.0
144
1.0
1001
ACAD
1070
    -1
1070
     3
1070
     0
1000

1071
        0
1070
     0
  0
MLEADERSTYLE
  5
12E
102
{ACAD_XDICTIONARY
360
F0E8
102
}
102
{ACAD_REACTORS
330
12D
102
}
330
12D
100
AcDbMLeaderStyle
170
     2
171
     1
172
     0
 90
        2
 40
0.0
 41
0.0
173
     1
 91
-1056964608
340
14
 92
       -2
290
     1
 42
2.0
291
     1
 43
8.0
  3
Standard
 44
4.0
300

342
11
174
     1
178
     1
175
     1
176
     0
 93
-1056964608
 45
4.0
292
     0
297
     0
 46
4.0
 94
-1056964608
 47
1.0
 49
1.0
140
1.0
293
     1
141
0.0
294
     1
177
     0
142
1.0
295
     0
296
     0
143
3.75
1001
ACAD_MLEADERVER
1070
     2
  0
MLINESTYLE
  5
18
102
{ACAD_REACTORS
330
17
102
}
330
17
100
AcDbMlineStyle
  2
STANDARD
 70
     0
  3

 62
   256
 51
90.0
 52
90.0
 71
     2
 49
0.5
 62
   256
  6
BYLAYER
 49
-0.5
 62
   256
  6
BYLAYER
  0
ACDBPLACEHOLDER
  5
F
102
{ACAD_REACTORS
330
E
102
}
330
E
  0
SCALE
  5
10D
102
{ACAD_REACTORS
330
10C
102
}
330
10C
100
AcDbScale
 70
     0
300
1:1
140
1.0
141
1.0
290
     1
  0
SCALE
  5
1BE
102
{ACAD_REACTORS
330
10C
102
}
330
10C
100
AcDbScale
 70
     0
300
1:2
140
1.0
141
2.0
290
     0
  0
SCALE
  5
1BF
102
{ACAD_REACTORS
330
10C
102
}
330
10C
100
AcDbScale
 70
     0
300
1:4
140
1.0
141
4.0
290
     0
  0
SCALE
  5
1C0
102
{ACAD_REACTORS
330
10C
102
}
330
10C
100
AcDbScale
 70
     0
300
1:5
140
1.0
141
5.0
290
     0
  0
SCALE
  5
1C1
102
{ACAD_REACTORS
330
10C
102
}
330
10C
100
AcDbScale
 70
     0
300
1:8
140
1.0
141
8.0
290
     0
  0
SCALE
  5
1C2
102
{ACAD_REACTORS
330
10C
102
}
330
10C
100
AcDbScale
 70
     0
300
1:10
140
1.0
141
10.0
290
     0
  0
SCALE
  5
1C3
102
{ACAD_REACTORS
330
10C
102
}
330
10C
100
AcDbScale
 70
     0
300
1:16
140
1.0
141
16.0
290
     0
  0
SCALE
  5
1C4
102
{ACAD_REACTORS
330
10C
102
}
330
10C
100
AcDbScale
 70
     0
300
1:20
140
1.0
141
20.0
290
     0
  0
SCALE
  5
1C5
102
{ACAD_REACTORS
330
10C
102
}
330
10C
100
AcDbScale
 70
     0
300
1:30
140
1.0
141
30.0
290
     0
  0
SCALE
  5
1C6
102
{ACAD_REACTORS
330
10C
102
}
330
10C
100
AcDbScale
 70
     0
300
1:40
140
1.0
141
40.0
290
     0
  0
SCALE
  5
1C7
102
{ACAD_REACTORS
330
10C
102
}
330
10C
100
AcDbScale
 70
     0
300
1:50
140
1.0
141
50.0
290
     0
  0
SCALE
  5
1C8
102
{ACAD_REACTORS
330
10C
102
}
330
10C
100
AcDbScale
 70
     0
300
1:100
140
1.0
141
100.0
290
     0
  0
SCALE
  5
1C9
102
{ACAD_REACTORS
330
10C
102
}
330
10C
100
AcDbScale
 70
     0
300
2:1
140
2.0
141
1.0
290
     0
  0
SCALE
  5
1CA
102
{ACAD_REACTORS
330
10C
102
}
330
10C
100
AcDbScale
 70
     0
300
4:1
140
4.0
141
1.0
290
     0
  0
SCALE
  5
1CB
102
{ACAD_REACTORS
330
10C
102
}
330
10C
100
AcDbScale
 70
     0
300
8:1
140
8.0
141
1.0
290
     0
  0
SCALE
  5
1CC
102
{ACAD_REACTORS
330
10C
102
}
330
10C
100
AcDbScale
 70
     0
300
10:1
140
10.0
141
1.0
290
     0
  0
SCALE
  5
1CD
102
{ACAD_REACTORS
330
10C
102
}
330
10C
100
AcDbScale
 70
     0
300
100:1
140
100.0
141
1.0
290
     0
  0
ACDBSECTIONVIEWSTYLE
  5
21A
102
{ACAD_XDICTIONARY
360
F0FA
102
}
102
{ACAD_REACTORS
330
219
102
}
330
219
100
AcDbModelDocViewStyle
 70
     0
  3
Metric50
290
     0
100
AcDbSectionViewStyle
 70
     0
 71
     0
 90
      102
 71
     1
340
11
 40
5.0
340
0
340
0
 40
5.0
300
I, O, Q, S, X, Z
 40
10.0
 90
        0
 40
2.5
 90
        0
 71
     2
340
16
 90
       25
340
16
 90
       50
 40
5.0
 40
2.5
 40
5.0
 71
     3
340
11
 40
5.0
 90
        0
 40
15.0
 90
        1
300
%<\AcVar ViewSectionStartId>%-%<\AcVar ViewSectionEndId>% (%<\AcVar ViewScale \f "%sn">%)
 71
     4
300
ANSI31
 40
1.0
 90
        0
290
     0
290
     0
 90
        6
 40
0.0
 40
1.570796326794896
 40
0.2617993877991494
 40
1.308996938995747
 40
-0.2617993877991494
 40
1.832595714594046
  0
TABLESTYLE
  5
7F
102
{ACAD_XDICTIONARY
360
162
102
}
102
{ACAD_REACTORS
330
7E
102
}
330
7E
100
AcDbTableStyle
  3
Standard
 70
     0
 71
     0
 40
1.5
 41
1.5
280
     0
281
     0
  7
Standard
140
4.5
170
     2
 62
     0
 63
     7
283
     0
274
    -2
284
     1
 64
     0
275
    -2
285
     1
 65
     0
276
    -2
286
     1
 66
     0
277
    -2
287
     1
 67
     0
278
    -2
288
     1
 68
     0
279
    -2
289
     1
 69
     0
  7
Standard
140
6.0
170
     5
 62
     0
 63
     7
283
     0
274
    -2
284
     1
 64
     0
275
    -2
285
     1
 65
     0
276
    -2
286
     1
 66
     0
277
    -2
287
     1
 67
     0
278
    -2
288
     1
 68
     0
279
    -2
289
     1
 69
     0
  7
Standard
140
4.5
170
     5
 62
     0
 63
     7
283
     0
274
    -2
284
     1
 64
     0
275
    -2
285
     1
 65
     0
276
    -2
286
     1
 66
     0
277
    -2
287
     1
 67
     0
278
    -2
288
     1
 68
     0
279
    -2
289
     1
 69
     0
  0
VISUALSTYLE
  5
F5
102
{ACAD_XDICTIONARY
360
F0D2
102
}
102
{ACAD_REACTORS
330
EF
102
}
330
EF
100
AcDbVisualStyle
  2
2dWireframe
 70
     4
 71
     0
 72
     2
 73
     1
 90
        0
 40
-0.6
 41
-30.0
 62
     5
 63
     7
 74
     1
 91
        4
 64
     7
 65
   257
 75
     1
175
     1
 42
1.0
 92
        0
 66
   257
 43
1.0
 76
     1
 77
     6
 78
     2
 67
     7
 79
     5
170
     0
171
     0
290
     0
174
     0
 93
        1
 44
0.0
173
     0
291
     0
 45
0.0
1001
ACAD
1000
AcDbSavedByObjectVersion
1070
     0
  0
VISUALSTYLE
  5
F4
102
{ACAD_XDICTIONARY
360
F0D0
102
}
102
{ACAD_REACTORS
330
EF
102
}
330
EF
100
AcDbVisualStyle
  2
Basic
 70
     7
 71
     1
 72
     0
 73
     1
 90
        0
 40
-0.6
 41
-30.0
 62
     5
 63
     7
 74
     0
 91
        4
 64
     7
 65
   257
 75
     1
175
     1
 42
1.0
 92
        8
 66
     7
 43
1.0
 76
     1
 77
     6
 78
     2
 67
     7
 79
     5
170
     0
171
     0
290
     0
174
     0
 93
        1
 44
0.0
173
     0
291
     1
 45
0.0
1001
ACAD
1000
AcDbSavedByObjectVersion
1070
     0
  0
VISUALSTYLE
  5
FB
102
{ACAD_XDICTIONARY
360
F0DE
102
}
102
{ACAD_REACTORS
330
EF
102
}
330
EF
100
AcDbVisualStyle
  2
Brighten
 70
    12
 71
     2
 72
     2
 73
     1
 90
        0
 40
-0.6
 41
-30.0
 62
     5
 63
     7
 74
     1
 91
        4
 64
     7
 65
   257
 75
     1
175
     1
 42
1.0
 92
        8
 66
     7
 43
1.0
 76
     1
 77
     6
 78
     2
 67
     7
 79
     5
170
     0
171
     0
290
     0
174
     0
 93
        1
 44
50.0
173
     0
291
     1
 45
0.0
1001
ACAD
1000
AcDbSavedByObjectVersion
1070
     0
  0
VISUALSTYLE
  5
FF
102
{ACAD_XDICTIONARY
360
F0E6
102
}
102
{ACAD_REACTORS
330
EF
102
}
330
EF
100
AcDbVisualStyle
  2
ColorChange
 70
    16
 71
     2
 72
     2
 73
     3
 90
        0
 40
-0.6
 41
-30.0
 62
     5
 63
     8
 74
     1
 91
        4
 64
     7
 65
   257
 75
     1
175
     1
 42
1.0
 92
        8
 66
     8
 43
1.0
 76
     1
 77
     6
 78
     2
 67
     7
 79
     5
170
     0
171
     0
290
     0
174
     0
 93
        1
 44
0.0
173
     0
291
     1
 45
0.0
1001
ACAD
1000
AcDbSavedByObjectVersion
1070
     0
  0
VISUALSTYLE
  5
F8
102
{ACAD_XDICTIONARY
360
F0D8
102
}
102
{ACAD_REACTORS
330
EF
102
}
330
EF
100
AcDbVisualStyle
  2
Conceptual
 70
     9
 71
     3
 72
     2
 73
     1
 90
        0
 40
-0.6
 41
-30.0
 62
     5
 63
     7
 74
     2
 91
        2
 64
     7
 65
   257
 75
     1
175
     1
 42
40.0
 92
        8
 66
     7
 43
1.0
 76
     1
 77
     6
 78
     2
 67
     7
 79
     3
170
     0
171
     0
290
     0
174
     0
 93
        1
 44
0.0
173
     0
291
     0
 45
0.0
1001
ACAD
1000
AcDbSavedByObjectVersion
1070
     0
  0
VISUALSTYLE
  5
FA
102
{ACAD_XDICTIONARY
360
F0DC
102
}
102
{ACAD_REACTORS
330
EF
102
}
330
EF
100
AcDbVisualStyle
  2
Dim
 70
    11
 71
     2
 72
     2
 73
     1
 90
        0
 40
-0.6
 41
-30.0
 62
     5
 63
     7
 74
     1
 91
        4
 64
     7
 65
   257
 75
     1
175
     1
 42
1.0
 92
        8
 66
     7
 43
1.0
 76
     1
 77
     6
 78
     2
 67
     7
 79
     5
170
     0
171
     0
290
     0
174
     0
 93
        1
 44
-50.0
173
     0
291
     1
 45
0.0
1001
ACAD
1000
AcDbSavedByObjectVersion
1070
     0
  0
VISUALSTYLE
  5
1E6
102
{ACAD_XDICTIONARY
360
F0EE
102
}
102
{ACAD_REACTORS
330
EF
102
}
330
EF
100
AcDbVisualStyle
  2
EdgeColorOff
 70
    22
 71
     2
 72
     2
 73
     0
 90
        0
 40
-0.6
 41
-30.0
 62
     5
 63
     7
 74
     1
 91
        4
 64
     7
 65
   257
 75
     1
175
     1
 42
1.0
 92
        8
 66
     7
 43
1.0
 76
     1
 77
     6
 78
     2
 67
     7
 79
     5
170
     0
171
     0
290
     0
174
     0
 93
        1
 44
0.0
173
     0
291
     1
 45
0.0
1001
ACAD
1000
AcDbSavedByObjectVersion
1070
     0
  0
VISUALSTYLE
  5
FE
102
{ACAD_XDICTIONARY
360
F0E4
102
}
102
{ACAD_REACTORS
330
EF
102
}
330
EF
100
AcDbVisualStyle
  2
Facepattern
 70
    15
 71
     2
 72
     2
 73
     1
 90
        0
 40
-0.6
 41
-30.0
 62
     5
 63
     7
 74
     1
 91
        4
 64
     7
 65
   257
 75
     1
175
     1
 42
1.0
 92
        8
 66
     7
 43
1.0
 76
     1
 77
     6
 78
     2
 67
     7
 79
     5
170
     0
171
     0
290
     0
174
     0
 93
        1
 44
0.0
173
     0
291
     1
 45
0.0
1001
ACAD
1000
AcDbSavedByObjectVersion
1070
     0
  0
VISUALSTYLE
  5
F0
102
{ACAD_XDICTIONARY
360
F0C8
102
}
102
{ACAD_REACTORS
330
EF
102
}
330
EF
100
AcDbVisualStyle
  2
Flat
 70
     0
 71
     2
 72
     1
 73
     1
 90
        2
 40
-0.6
 41
30.0
 62
     5
 63
     7
 74
     0
 91
        0
 64
     7
 65
   257
 75
     1
175
     1
 42
1.0
 92
        8
 66
     7
 43
1.0
 76
     1
 77
     6
 78
     2
 67
     7
 79
     5
170
     0
171
     0
290
     0
174
     0
 93
       13
 44
0.0
173
     0
291
     1
 45
0.0
1001
ACAD
1000
AcDbSavedByObjectVersion
1070
     0
  0
VISUALSTYLE
  5
F1
102
{ACAD_XDICTIONARY
360
F0CA
102
}
102
{ACAD_REACTORS
330
EF
102
}
330
EF
100
AcDbVisualStyle
  2
FlatWithEdges
 70
     1
 71
     2
 72
     1
 73
     1
 90
        2
 40
-0.6
 41
30.0
 62
     5
 63
     7
 74
     1
 91
        0
 64
     7
 65
   257
 75
     1
175
     1
 42
1.0
 92
        0
 66
   257
 43
1.0
 76
     1
 77
     6
 78
     2
 67
     7
 79
     5
170
     0
171
     0
290
     0
174
     0
 93
       13
 44
0.0
173
     0
291
     1
 45
0.0
1001
ACAD
1000
AcDbSavedByObjectVersion
1070
     0
  0
VISUALSTYLE
  5
F2
102
{ACAD_XDICTIONARY
360
F0CC
102
}
102
{ACAD_REACTORS
330
EF
102
}
330
EF
100
AcDbVisualStyle
  2
Gouraud
 70
     2
 71
     2
 72
     2
 73
     1
 90
        2
 40
-0.6
 41
30.0
 62
     5
 63
     7
 74
     0
 91
        0
 64
     7
 65
   257
 75
     1
175
     1
 42
1.0
 92
        0
 66
     7
 43
1.0
 76
     1
 77
     6
 78
     2
 67
     7
 79
     5
170
     0
171
     0
290
     0
174
     0
 93
       13
 44
0.0
173
     0
291
     1
 45
0.0
1001
ACAD
1000
AcDbSavedByObjectVersion
1070
     0
  0
VISUALSTYLE
  5
F3
102
{ACAD_XDICTIONARY
360
F0CE
102
}
102
{ACAD_REACTORS
330
EF
102
}
330
EF
100
AcDbVisualStyle
  2
GouraudWithEdges
 70
     3
 71
     2
 72
     2
 73
     1
 90
        2
 40
-0.6
 41
30.0
 62
     5
 63
     7
 74
     1
 91
        0
 64
     7
 65
   257
 75
     1
175
     1
 42
1.0
 92
        0
 66
   257
 43
1.0
 76
     1
 77
     6
 78
     2
 67
     7
 79
     5
170
     0
171
     0
290
     0
174
     0
 93
       13
 44
0.0
173
     0
291
     1
 45
0.0
1001
ACAD
1000
AcDbSavedByObjectVersion
1070
     0
  0
VISUALSTYLE
  5
F7
102
{ACAD_XDICTIONARY
360
F0D6
102
}
102
{ACAD_REACTORS
330
EF
102
}
330
EF
100
AcDbVisualStyle
  2
Hidden
 70
     6
 71
     1
 72
     2
 73
     2
 90
        0
 40
-0.6
 41
-30.0
 62
     5
 63
     7
 74
     2
 91
        2
 64
     7
 65
   257
 75
     2
175
     1
 42
40.0
 92
        0
 66
   257
 43
1.0
 76
     1
 77
     6
 78
     2
 67
     7
 79
     3
170
     0
171
     0
290
     0
174
     0
 93
        1
 44
0.0
173
     0
291
     0
 45
0.0
1001
ACAD
1000
AcDbSavedByObjectVersion
1070
     0
  0
VISUALSTYLE
  5
1E4
102
{ACAD_XDICTIONARY
360
F0EA
102
}
102
{ACAD_REACTORS
330
EF
102
}
330
EF
100
AcDbVisualStyle
  2
JitterOff
 70
    20
 71
     2
 72
     2
 73
     0
 90
        0
 40
-0.6
 41
-30.0
 62
     5
 63
     7
 74
     1
 91
        4
 64
     7
 65
   257
 75
     1
175
     1
 42
1.0
 92
       10
 66
     7
 43
1.0
 76
     1
 77
     6
 78
     2
 67
     7
 79
     5
170
     0
171
     0
290
     0
174
     0
 93
        1
 44
0.0
173
     0
291
     1
 45
0.0
1001
ACAD
1000
AcDbSavedByObjectVersion
1070
     0
  0
VISUALSTYLE
  5
FD
102
{ACAD_XDICTIONARY
360
F0E2
102
}
102
{ACAD_REACTORS
330
EF
102
}
330
EF
100
AcDbVisualStyle
  2
Linepattern
 70
    14
 71
     2
 72
     2
 73
     1
 90
        0
 40
-0.6
 41
-30.0
 62
     5
 63
     7
 74
     1
 91
        4
 64
     7
 65
   257
 75
     7
175
     7
 42
1.0
 92
        8
 66
     7
 43
1.0
 76
     1
 77
     6
 78
     2
 67
     7
 79
     5
170
     0
171
     0
290
     0
174
     0
 93
        1
 44
0.0
173
     0
291
     1
 45
0.0
1001
ACAD
1000
AcDbSavedByObjectVersion
1070
     0
  0
VISUALSTYLE
  5
1E5
102
{ACAD_XDICTIONARY
360
F0EC
102
}
102
{ACAD_REACTORS
330
EF
102
}
330
EF
100
AcDbVisualStyle
  2
OverhangOff
 70
    21
 71
     2
 72
     2
 73
     0
 90
        0
 40
-0.6
 41
-30.0
 62
     5
 63
     7
 74
     1
 91
        4
 64
     7
 65
   257
 75
     1
175
     1
 42
1.0
 92
        9
 66
     7
 43
1.0
 76
     1
 77
     6
 78
     2
 67
     7
 79
     5
170
     0
171
     0
290
     0
174
     0
 93
        1
 44
0.0
173
     0
291
     1
 45
0.0
1001
ACAD
1000
AcDbSavedByObjectVersion
1070
     0
  0
VISUALSTYLE
  5
F9
102
{ACAD_XDICTIONARY
360
F0DA
102
}
102
{ACAD_REACTORS
330
EF
102
}
330
EF
100
AcDbVisualStyle
  2
Realistic
 70
     8
 71
     2
 72
     2
 73
     0
 90
        2
 40
-0.6
 41
30.0
 62
     5
 63
     7
 74
     0
 91
        0
 64
     7
 65
   257
 75
     1
175
     1
 42
1.0
 92
        8
 66
   257
 43
1.0
 76
     1
 77
     6
 78
     2
 67
     7
 79
     3
170
     0
171
     0
290
     0
174
     0
 93
       13
 44
0.0
173
     0
291
     0
 45
0.0
1001
ACAD
1000
AcDbSavedByObjectVersion
1070
     0
  0
VISUALSTYLE
  5
1F3
102
{ACAD_XDICTIONARY
360
F0F8
102
}
102
{ACAD_REACTORS
330
EF
102
}
330
EF
100
AcDbVisualStyle
  2
Shaded
 70
    27
 71
     2
 72
     2
 73
     1
 90
        2
 40
-0.6
 41
30.0
 62
     5
 63
     7
 74
     0
 91
        4
 64
     7
 65
   257
 75
     1
175
     1
 42
1.0
 92
        8
 66
   257
 43
1.0
 76
     1
 77
     6
 78
     2
 67
     8
 79
     3
170
     0
171
     0
290
     0
174
     0
 93
        5
 44
0.0
173
     0
291
     0
 45
0.0
1001
ACAD
1000
AcDbSavedByObjectVersion
1070
     0
  0
VISUALSTYLE
  5
1F2
102
{ACAD_XDICTIONARY
360
F0F6
102
}
102
{ACAD_REACTORS
330
EF
102
}
330
EF
100
AcDbVisualStyle
  2
Shaded with edges
 70
    26
 71
     2
 72
     2
 73
     1
 90
        2
 40
-0.6
 41
30.0
 62
     5
 63
     7
 74
     1
 91
        2
 64
     7
 65
   257
 75
     2
175
     1
 42
1.0
 92
        8
 66
   257
 43
1.0
 76
     1
 77
     6
 78
     2
 67
     7
 79
     3
170
     0
171
     0
290
     0
174
     0
 93
        5
 44
0.0
173
     0
291
     0
 45
0.0
1001
ACAD
1000
AcDbSavedByObjectVersion
1070
     0
  0
VISUALSTYLE
  5
1EF
102
{ACAD_XDICTIONARY
360
F0F0
102
}
102
{ACAD_REACTORS
330
EF
102
}
330
EF
100
AcDbVisualStyle
  2
Shades of Gray
 70
    23
 71
     2
 72
     2
 73
     3
 90
        0
 40
-0.6
 41
-30.0
 62
     5
 63
     7
 74
     2
 91
        2
 64
     7
 65
     7
 75
     1
175
     1
 42
40.0
 92
        8
 66
     7
 43
1.0
 76
     1
 77
     6
 78
     2
 67
     7
 79
     3
170
     0
171
     0
290
     0
174
     0
 93
        1
 44
0.0
173
     0
291
     0
 45
0.0
1001
ACAD
1000
AcDbSavedByObjectVersion
1070
     0
  0
VISUALSTYLE
  5
1F0
102
{ACAD_XDICTIONARY
360
F0F2
102
}
102
{ACAD_REACTORS
330
EF
102
}
330
EF
100
AcDbVisualStyle
  2
Sketchy
 70
    24
 71
     1
 72
     2
 73
     2
 90
        0
 40
-0.6
 41
-30.0
 62
     5
 63
     7
 74
     2
 91
        2
 64
     7
 65
     7
 75
     1
175
     1
 42
40.0
 92
       11
 66
     7
 43
1.0
 76
     1
 77
     6
 78
     2
 67
     7
 79
     6
170
     0
171
     0
290
     0
174
     0
 93
        1
 44
0.0
173
     0
291
     0
 45
0.0
1001
ACAD
1000
AcDbSavedByObjectVersion
1070
     0
  0
VISUALSTYLE
  5
FC
102
{ACAD_XDICTIONARY
360
F0E0
102
}
102
{ACAD_REACTORS
330
EF
102
}
330
EF
100
AcDbVisualStyle
  2
Thicken
 70
    13
 71
     2
 72
     2
 73
     1
 90
        0
 40
-0.6
 41
-30.0
 62
     5
 63
     7
 74
     1
 91
        4
 64
     7
 65
   257
 75
     1
175
     1
 42
1.0
 92
       12
 66
     7
 43
1.0
 76
     1
 77
     6
 78
     2
 67
     7
 79
     5
170
     0
171
     0
290
     0
174
     0
 93
        1
 44
0.0
173
     0
291
     1
 45
0.0
1001
ACAD
1000
AcDbSavedByObjectVersion
1070
     0
  0
VISUALSTYLE
  5
F6
102
{ACAD_XDICTIONARY
360
F0D4
102
}
102
{ACAD_REACTORS
330
EF
102
}
330
EF
100
AcDbVisualStyle
  2
Wireframe
 70
     5
 71
     0
 72
     2
 73
     0
 90
        0
 40
-0.6
 41
-30.0
 62
     5
 63
     7
 74
     1
 91
        4
 64
     7
 65
   257
 75
     1
175
     1
 42
1.0
 92
        0
 66
   257
 43
1.0
 76
     1
 77
     6
 78
     2
 67
     7
 79
     3
170
     0
171
     0
290
     0
174
     0
 93
        1
 44
0.0
173
     0
291
     0
 45
0.0
1001
ACAD
1000
AcDbSavedByObjectVersion
1070
     0
  0
VISUALSTYLE
  5
1F1
102
{ACAD_XDICTIONARY
360
F0F4
102
}
102
{ACAD_REACTORS
330
EF
102
}
330
EF
100
AcDbVisualStyle
  2
X-Ray
 70
    25
 71
     2
 72
     2
 73
     1
 90
        1
 40
0.5
 41
-30.0
 62
     5
 63
     7
 74
     1
 91
        0
 64
     7
 65
   257
 75
     1
175
     1
 42
1.0
 92
        8
 66
     7
 43
1.0
 76
     1
 77
     6
 78
     2
 67
     7
 79
     3
170
     0
171
     0
290
     0
174
     0
 93
       13
 44
0.0
173
     0
291
     0
 45
0.0
1001
ACAD
1000
AcDbSavedByObjectVersion
1070
     0
  0
DICTIONARYVAR
  5
146
102
{ACAD_REACTORS
330
5E
102
}
330
5E
100
DictionaryVariables
280
     0
  1
1:1
  0
DICTIONARYVAR
  5
259
102
{ACAD_REACTORS
330
5E
102
}
330
5E
100
DictionaryVariables
280
     0
  1
3.500000
  0
DICTIONARYVAR
  5
25A
102
{ACAD_REACTORS
330
5E
102
}
330
5E
100
DictionaryVariables
280
     0
  1
acadiso.lin
  0
DICTIONARYVAR
  5
145
102
{ACAD_REACTORS
330
5E
102
}
330
5E
100
DictionaryVariables
280
     0
  1
STANDARD
  0
DICTIONARYVAR
  5
84
102
{ACAD_REACTORS
330
5E
102
}
330
5E
100
DictionaryVariables
280
     0
  1
STANDARD
  0
DICTIONARYVAR
  5
227
102
{ACAD_REACTORS
330
5E
102
}
330
5E
100
DictionaryVariables
280
     0
  1
Metric50
  0
DICTIONARYVAR
  5
228
102
{ACAD_REACTORS
330
5E
102
}
330
5E
100
DictionaryVariables
280
     0
  1
Metric50
  0
DICTIONARYVAR
  5
5F
102
{ACAD_REACTORS
330
5E
102
}
330
5E
100
DictionaryVariables
280
     0
  1
2
  0
DICTIONARYVAR
  5
63
102
{ACAD_REACTORS
330
5E
102
}
330
5E
100
DictionaryVariables
280
     0
  1
1
  0
DICTIONARYVAR
  5
F069
102
{ACAD_REACTORS
330
5E
102
}
330
5E
100
DictionaryVariables
280
     0
  1
0
  0
DICTIONARYVAR
  5
1AE
102
{ACAD_REACTORS
330
5E
102
}
330
5E
100
DictionaryVariables
280
     0
  1
0
  0
DICTIONARYVAR
  5
1AF
102
{ACAD_REACTORS
330
5E
102
}
330
5E
100
DictionaryVariables
280
     0
  1
0
  0
DICTIONARYVAR
  5
F067
102
{ACAD_REACTORS
330
5E
102
}
330
5E
100
DictionaryVariables
280
     0
  1
2
  0
DICTIONARYVAR
  5
F066
102
{ACAD_REACTORS
330
5E
102
}
330
5E
100
DictionaryVariables
280
     0
  1
1
  0
DICTIONARYVAR
  5
F0B9
102
{ACAD_REACTORS
330
5E
102
}
330
5E
100
DictionaryVariables
280
     0
  1
80.000000
  0
DICTIONARYVAR
  5
F0B8
102
{ACAD_REACTORS
330
5E
102
}
330
5E
100
DictionaryVariables
280
     0
  1
5.000000
  0
DICTIONARYVAR
  5
F068
102
{ACAD_REACTORS
330
5E
102
}
330
5E
100
DictionaryVariables
280
     0
  1
127
  0
DICTIONARYVAR
  5
F0BA
102
{ACAD_REACTORS
330
5E
102
}
330
5E
100
DictionaryVariables
280
     0
  1
2
  0
DICTIONARY
  5
F0FC
330
21C
100
AcDbDictionary
280
     1
281
     1
  3
ACAD_XREC_ROUNDTRIP
360
F0FD
  0
DICTIONARY
  5
F0C1
330
D3
100
AcDbDictionary
280
     1
281
     1
  3
ACAD_XREC_ROUNDTRIP
360
F0C2
  0
DICTIONARY
  5
F0C3
330
D7
100
AcDbDictionary
280
     1
281
     1
  3
ACAD_XREC_ROUNDTRIP
360
F0C4
  0
DICTIONARY
  5
F0BE
330
22
100
AcDbDictionary
280
     1
281
     1
  3
ACAD_XREC_ROUNDTRIP
360
F0BF
  0
DICTIONARY
  5
1F9
330
ED
100
AcDbDictionary
280
     1
281
     1
  3
ACAD_XREC_ROUNDTRIP
360
F0C6
  3
FBXASSET
360
1FA
  0
DICTIONARY
  5
1F7
330
EC
100
AcDbDictionary
280
     1
281
     1
  3
ACAD_XREC_ROUNDTRIP
360
F0C5
  3
FBXASSET
360
1F8
  0
DICTIONARY
  5
173
330
EE
100
AcDbDictionary
280
     1
281
     1
  3
ACAD_XREC_ROUNDTRIP
360
F0C7
  3
BUMPTILE
360
175
  3
DIFFUSETILE
360
174
  3
FBXASSET
360
1FB
  3
OPACITYTILE
360
176
  3
REFLECTIONTILE
360
177
  0
DICTIONARY
  5
F0E8
330
12E
100
AcDbDictionary
280
     1
281
     1
  3
ACAD_XREC_ROUNDTRIP
360
F0E9
  0
DICTIONARY
  5
F0FA
330
21A
100
AcDbDictionary
280
     1
281
     1
  3
ACAD_XREC_ROUNDTRIP
360
F0FB
  0
DICTIONARY
  5
162
330
7F
100
AcDbDictionary
280
     1
281
     1
  3
ACAD_ROUNDTRIP_2008_TABLESTYLE_CELLSTYLEMAP
360
F0BB
  3
ACAD_XREC_ROUNDTRIP
360
F0C0
  0
DICTIONARY
  5
F0D2
330
F5
100
AcDbDictionary
280
     1
281
     1
  3
ACAD_XREC_ROUNDTRIP
360
F0D3
  0
DICTIONARY
  5
F0D0
330
F4
100
AcDbDictionary
280
     1
281
     1
  3
ACAD_XREC_ROUNDTRIP
360
F0D1
  0
DICTIONARY
  5
F0DE
330
FB
100
AcDbDictionary
280
     1
281
     1
  3
ACAD_XREC_ROUNDTRIP
360
F0DF
  0
DICTIONARY
  5
F0E6
330
FF
100
AcDbDictionary
280
     1
281
     1
  3
ACAD_XREC_ROUNDTRIP
360
F0E7
  0
DICTIONARY
  5
F0D8
330
F8
100
AcDbDictionary
280
     1
281
     1
  3
ACAD_XREC_ROUNDTRIP
360
F0D9
  0
DICTIONARY
  5
F0DC
330
FA
100
AcDbDictionary
280
     1
281
     1
  3
ACAD_XREC_ROUNDTRIP
360
F0DD
  0
DICTIONARY
  5
F0EE
330
1E6
100
AcDbDictionary
280
     1
281
     1
  3
ACAD_XREC_ROUNDTRIP
360
F0EF
  0
DICTIONARY
  5
F0E4
330
FE
100
AcDbDictionary
280
     1
281
     1
  3
ACAD_XREC_ROUNDTRIP
360
F0E5
  0
DICTIONARY
  5
F0C8
330
F0
100
AcDbDictionary
280
     1
281
     1
  3
ACAD_XREC_ROUNDTRIP
360
F0C9
  0
DICTIONARY
  5
F0CA
330
F1
100
AcDbDictionary
280
     1
281
     1
  3
ACAD_XREC_ROUNDTRIP
360
F0CB
  0
DICTIONARY
  5
F0CC
330
F2
100
AcDbDictionary
280
     1
281
     1
  3
ACAD_XREC_ROUNDTRIP
360
F0CD
  0
DICTIONARY
  5
F0CE
330
F3
100
AcDbDictionary
280
     1
281
     1
  3
ACAD_XREC_ROUNDTRIP
360
F0CF
  0
DICTIONARY
  5
F0D6
330
F7
100
AcDbDictionary
280
     1
281
     1
  3
ACAD_XREC_ROUNDTRIP
360
F0D7
  0
DICTIONARY
  5
F0EA
330
1E4
100
AcDbDictionary
280
     1
281
     1
  3
ACAD_XREC_ROUNDTRIP
360
F0EB
  0
DICTIONARY
  5
F0E2
330
FD
100
AcDbDictionary
280
     1
281
     1
  3
ACAD_XREC_ROUNDTRIP
360
F0E3
  0
DICTIONARY
  5
F0EC
330
1E5
100
AcDbDictionary
280
     1
281
     1
  3
ACAD_XREC_ROUNDTRIP
360
F0ED
  0
DICTIONARY
  5
F0DA
330
F9
100
AcDbDictionary
280
     1
281
     1
  3
ACAD_XREC_ROUNDTRIP
360
F0DB
  0
DICTIONARY
  5
F0F8
330
1F3
100
AcDbDictionary
280
     1
281
     1
  3
ACAD_XREC_ROUNDTRIP
360
F0F9
  0
DICTIONARY
  5
F0F6
330
1F2
100
AcDbDictionary
280
     1
281
     1
  3
ACAD_XREC_ROUNDTRIP
360
F0F7
  0
DICTIONARY
  5
F0F0
330
1EF
100
AcDbDictionary
280
     1
281
     1
  3
ACAD_XREC_ROUNDTRIP
360
F0F1
  0
DICTIONARY
  5
F0F2
330
1F0
100
AcDbDictionary
280
     1
281
     1
  3
ACAD_XREC_ROUNDTRIP
360
F0F3
  0
DICTIONARY
  5
F0E0
330
FC
100
AcDbDictionary
280
     1
281
     1
  3
ACAD_XREC_ROUNDTRIP
360
F0E1
  0
DICTIONARY
  5
F0D4
330
F6
100
AcDbDictionary
280
     1
281
     1
  3
ACAD_XREC_ROUNDTRIP
360
F0D5
  0
DICTIONARY
  5
F0F4
330
1F1
100
AcDbDictionary
280
     1
281
     1
  3
ACAD_XREC_ROUNDTRIP
360
F0F5
  0
XRECORD
  5
F0FD
102
{ACAD_REACTORS
330
F0FC
102
}
330
F0FC
100
AcDbXrecord
280
     1
102
DISPLAYNAME
  1
Metric50
102
FLAGS
 90
        0
  0
XRECORD
  5
F0C2
102
{ACAD_REACTORS
330
F0C1
102
}
330
F0C1
100
AcDbXrecord
280
     1
102
SHADEPLOT
 70
     0
102
SHADEPLOTRESLEVEL
 70
     2
102
SHADEPLOTCUSTOMDPI
 70
   300
  0
XRECORD
  5
F0C4
102
{ACAD_REACTORS
330
F0C3
102
}
330
F0C3
100
AcDbXrecord
280
     1
102
SHADEPLOT
 70
     0
102
SHADEPLOTRESLEVEL
 70
     2
102
SHADEPLOTCUSTOMDPI
 70
   300
  0
XRECORD
  5
F0BF
102
{ACAD_REACTORS
330
F0BE
102
}
330
F0BE
100
AcDbXrecord
280
     1
102
SHADEPLOT
 70
     0
102
SHADEPLOTRESLEVEL
 70
     2
102
SHADEPLOTCUSTOMDPI
 70
   300
  0
XRECORD
  5
F0C6
102
{ACAD_REACTORS
330
1F9
102
}
330
1F9
100
AcDbXrecord
280
     1
102
MATERIAL
148
0.0
149
0.0
149
0.0
 93
        0
 94
       63
282
     0
 72
     1
 77
     1
171
     1
175
     1
179
     1
273
     0
  0
XRECORD
  5
1FA
102
{ACAD_REACTORS
330
1F9
102
}
330
1F9
100
AcDbXrecord
280
     1
 70
     1
 90
429727718
  1
D62C5603-E3A1-4AEA-B7FB-FE5D8D0755AF
310
504B03040A0000080000CC70623B3DEE336E79000000790000001B0000006175746F6465736B2D64657369676E2D7061636B6167652E786D6C3C3F786D6C2076657273696F6E3D22312E302220656E636F64696E673D227574662D3822203F3E3C666F726D6174733E3C666F726D61743E687474703A2F2F736368656D612E
310
6175746F6465736B2E636F6D2F64657369676E2D7061636B6167652F323030393C2F666F726D61743E3C2F666F726D6174733E504B0304140006080800CC70623BD486FD9CA0000000F4000000130000005B436F6E74656E745F54797065735D2E786D6C7D8EC10E82300C865F65E91D8A1E8C310C0EEA1BF002731658846E
310
D98AC1B77784ABF1D8FE5FBFBF75BBCE937A534CCEB38643598122B6FEE978D0B0485F9C41B54DDD7D022595594E1A469170414C76A4D9A4D207E29CF43ECE46F218070CC6BECC4078ACAA135ACF422C856C0E68EA1BF5669944DDD7BCDE7B1F8E415D77AECB980613C2E4AC91FC167A2B244592486606FC29C8FD7F045B9A
310
EF7053A7E60B504B0304140006080800CC70623B853B8169EB0000007C01000008000000636F72652E786D6C8D90416EC3201045AF62CDB6C206821CC7C244919D9CA01740401C94182C03558F5F9C3852BBEB6A467FFE9B197D7EFC9E1EC5975982F5AE035262288C535E5B377690E21535501C055FBC8FBF6C503839990E
310
5619041F179FE64D52DE45E362569DD7661365082642A11EB9E920A89B99642953CC8E702F67A9EE7234257977194EC9EAE275C4EABCCF5EAD5940D4AC6F0E35A568B8F43562CD7046CD199FD07E60174276A7BE677B5EADB0E0D14EEFFB6A31321A0D82627C4084204C3F096B71DD52F6819B16635EADF63F509AF53FA164
310
5DDCD1EDDD17164090FCC8732078B56691CB33A85CD7DCC40F504B0304140006080800CC70623B55019EA25F0000007C00000007000000636E782E786D6C4DCB3B0E80201045D1AD90E915ED2CF8AC45050C11660C8261F98AB1B07AC9C97D42D718D865D3E909258CFD00CCE24AC6E326A164D74DC0B4128928FF32603847
310
2BA13128B1252AC747C6BAB984FC68F0B87FE8960A5C09FE86CFB69FBA01504B0304140006080800CC70623BDBABAAF470010000D40300000C0000006662782F636F72652E786D6CC553D16E823014FD95A6AF4B694182CC941A83FA05FB810A9511A125A5257EFE2E82712ECEB8A7F100CD39F7F69E734AF9FADC366850B6
310
AF8DCE7018308C942E4C59EB2AC3DE1D498AD15A706B8CFB56869196ADCAF00863C12B6B7C374385D14E6907A836A59A41D9F7CA615434B0C8705F7CAA5606D23BA8E84F41278B93AC54100640439DE0BDB320004D43C63716C7C399D30917DCFBBA9CD9BA8469F5B156168B24CED3F7248AC8769F27244EB73B92EED8862C
310
B7F13E0C179B3C8F979C8ECD82BBBABDAA2BAC924E9558448CBD9330242CFA08E3154B5651FCC6D215639C8EE5774DBE2B5F6CF2B5768B68963BB5F5588420E442FC700B1139D4CB01F450C1E918227C2E09DF070D8140C84E1E9AAB8F1340832A9CB13130A5F1376A908D57309505ECF2A0DF179C4E9D30F5B239B87E3823
310
7A79C6F31DE1A8A5AEC08474B03C7837EAE4938639B44E5932B833D2C6B6B279CDC613877FA26EE21F4A2A4C63EC7F29A2F301D1F9F7A0E37D145F504B0304140006080800CC70623B9C113CC27E0000009D0000000B0000006662782F636E782E786D6C4DCCDF0A83201C86E15B91DFB94BFB330DD428C8FB886521330DA7
310
6397BF1A1DECE883878F57749FCDA1B7892F1BBC047A23808C7F84D9FA55424E0BE6803A256208E9EF06C84F9B91703228B1C690F78B66B34CD9A5439DF5CF0BFBF65E35BCA1B8D6A5C6F540381E886698B5741C695F9503EBA150A2F8958E3DC3EA0B504B0304140006080800CC70623B7DF2F77C2A010000120200003100
310
00006662782F41393633353835312D344632462D344230382D423046372D3739314545314133324237412F636F72652E786D6C8D51DB8EC22014FC15C2939B0D2DB4B45643319AE817EC0F6041255A68B86CFCFC856D4D76DF7CE190393373060EDB3DC707F856CE6B6B7A480A0C81328395DA5C7B18C3057510EC3873D686
310
3F34088C18550F330C39BB3A1BA7051AAC09CA84841A2BD5020AEF55806078A44B0FFD7053A328440C89E1EFC52486BBB8AA8214A99D789CF9E05200300FC927E4FB4D5B375D43103D5527440FB843077C5AA3F5861C8F645F5787F59E95B390B318B55CE45AA638FAA2957BD7248B390B7A7CC51F9C124149C82B8C378810
310
84AB2F42B7B8DD56F413775B8C5999E9FF4471926F8AA236A1AE96B8B3CC434E5839373893369E1FAF30EA395917409EB7F26AF8801C171837A4A6AC9C89E9F9C9B1A58BA30FD6A5EF5DDDCF894B9AD9B6A59C957943A9FCAE2FD5BC4DFE03504B0304140006080800CC70623BAD7543B64E01000033030000300000006662
310
782F41393633353835312D344632462D344230382D423046372D3739314545314133324237412F636E782E786D6CD593CD6EC32010845F0571AD6CE3D48AD20813A9873E410FBD12D82434182C7EAAE6EDBB2424CD25871E7B41D6EC30B3FA84F9E67BB2E40B4234DE8DB46F1925E094D7C6ED479AD3AE5951B2113C789FEE
310
6C943839C1488B4C05DF079FE72A69D8C96C13AAD6B8631503449F83828872B949AC57D26200B826A308D316B4064D6E46FCDA41C05550DC9E483A00797BFD207EFB092A45DE9514C1BBD22178396BD39D891265658C238DEA00936C654E5E433CB65A26D9F6EDB5EBC14EBF49A45CB856E66048291F6939A9A81BB5C89177
310
38143CA680F4AA299D66A042CEB3354A2684DC9D8D178FE0D9B8B41CAAD720F880EE7EF93C0C18769E099ECC04D5A102C8049A8A05632F4DDF376CF1DE0F6BB65C2F8627B65A33C6BB62177CEBBDAD973006829F89F22E814B54F4BC2BE347F8AA8F681390B50FA73F804400B5F542E796F19FF974E7F78DB802FE05E20750
310
4B0304140006080800CC70623BE75B7789680500003C100000340000006662782F41393633353835312D344632462D344230382D423046372D3739314545314133324237412F6F626A656374732E786D6CAD575B8F9B3818FD2B887D06C22499CB8AA1CA655245D5B455A356FB305264C061D8018C6C3393D95FBFC7600890
310
A4CD5EF210B0B1BFEBF98E3F7B1FF6596ABC522E1296DF9BAE3D320D9A872C4AF2F8DE2CE5CEBA358D0FBEC719939D65A691938CDE9B6ADAF4BD98B3B2D05311DD91329583D9D5FC0F438434A7A611A644887B5384CF34233629258BA878B12322891DEFF6B66BD70BFB62634E8AE781D082709A4B588AF91C528CDA28B73F
310
1C998EEF39EABBEFA97FBD6A7C7E9553F9D3D79FE442923C3C523610337627CB87ABE99D359D4CC6D6E4FACAB5E6ABF9D2726FC6A3C5F56271377BB88362213924694B38DD99FE47C48627A1E7D49F5A8BB5E1A74C0A599ED3B0F21F1E56366B89112D681E218F0915D0D6F17AD41FBA2A369DCF6335D62ABBD39779D5DDD1
310
11D4D8DE3CBB96B2E04FB8202E41051754A1AA8E8F76B4C6DFE810B580B1547F4B84911149794252234D024EF8BBE963A95AE27B3D310A9D5C215C7960FAEE415ED75694C6AFB17BCACA5D99A60A9AA65F217B0BFC53292ACB92BF283FAD0D3621576592CB5BED907C2FA8E9DF794E35E97BEA31BED21FEB401ABB94C44839
310
DCACBF0E1C5DA8DA5B2F4DFFD32AD86F543D9E565E7056502E157C00AD2671CD534549AB752FCA9CDA00677A313F04E51B22FF19E57B300579E3C97EB29F682D92935CEC18CF901B7B54FD8C51F362B56FC72FE0B3C1EAE335EDCCBF5AEC39ADB17DC238973F804BA5E6F6BFE7AF1FB32E523BE9F3BD571418E3631DCA4D48
310
5250CF639223210A9446CA30052EDF057BD35F8329C1ECD84552BF0DC8D18BE7BCE23BFE6BD960AB4A7DE79923A103BEBD80F911CBAA2C60DB19B01CF164A5583B772EE6D3FFA56666CBCDA74DC97724A48F9A58967497E489C4D979006FD7A05E227A1EBDD0F737C623387A9C844D3709995625106D157315F8B8392CD4E0
310
A0B9A720C4BE9829CEF37EA1E13111214D53925356365ADA634861B52519DD27A00AEB808EAF0628E6F435519D446F45CF2C9CF5214F0A15B2F6D06B79DA3EE3CBF7F56780D2F4E7EF73A0F5E5B02A38D07DC852C6B7C1FBB6664213E0C39E3EBA7FF4E1AD23EA2829407C85E586727488B751B2DB9502BC7B228A3FD68B6E
310
A65A22397E690AA8D158D7E404EC8CDA235CC3B7D1898680131CEC2CDF2638C65196279577750F15884AEE19F94199155B92B13297978469D4F8D358DF0AEF7631E28DC8F0D9F437D5D39A83B2231A1D52D543813A824EF8D44BCFF2FA6A31BD1E8DAD87F1CCB526B3879935BF59CDADD5C37479BB1CDD4CA7B3556B516589
310
EF352754B706114D9C885EC9131DE6EFEB43D99AFE2391C2F958179413D7CFEF6B1B6DB1E7600F00DE6E5C67454A339A4BA2E0FBA85ED26F045D454F463DBFCE484C2F90F2E5E3666003662ED8F755951A7D1BECD5B30B550B2785C8E7320B7292A4838DDA71BBC863ED7613CAF659337A3354231D4FF4A182A54904C2898C
310
98B28C4AD0CE056CCF332A80986E571EE9DBC305BB5FEB7E509220A58D25CF042D712A806AC0AD0C657FDEF80D2D9CEAA2EE4D1C76F60BFE74219A06527D6F82DF6412526107381E55E353090704D085B52408A8913C4ED159D79BDA71BB4BC506F4831350EB6F975CD22D69BF7AC49B91A2C0A9DDA3D5CA36AD20FC478E37
310
E61844E2352865EBCB61A275A65283CAAA9DD27703B4102F5AF51EF5F573B75CBB5AD38BC845F7A49F82A0966A49C2E3EA5EA0ECD326CD965F1DB402C6FA8B51A4658C5C5E2EC9E214602E55810345408596591009A82E7E7FFACA19EEA299B14A0081A705CB3296EBC14CDF658DCD336EA6D1136881AAEB87B81AB9EE53D5
310
F5EB8BC8362082DA24122F98680A4E7930C01A0079749CEA14382A0783E5EBA5A10F8C098456A03D6A4AEB6BB881E2513747552A5DB22C7EDAF83BD5528081A365F7FF06504B0304140006080000CC70623B000000000000000000000000350000006662782F41393633353835312D344632462D344230382D423046372D37
310
39314545314133324237412F76657274696365732E62696E504B0304140006080800CC70623BF270F1330600000004000000360000006662782F41393633353835312D344632462D344230382D423046372D3739314545314133324237412F747269616E676C65732E62696E636660600000504B0304140006080000CC7062
310
3B000000000000000000000000370000006662782F41393633353835312D344632462D344230382D423046372D3739314545314133324237412F617474726962757465732E62696E504B0304140006080800CC70623B08DA0BD19000000041010000360000006662782F41393633353835312D344632462D344230382D4230
310
46372D3739314545314133324237412F6469726563746F72792E786D6C858F410AC3201045AF22B36F53E9A60B35CBEEBAE80D244E44489C6234F4F835464A48035D0DF398FF9F8AF63D0E6CC63039F212F8F9020C7D47C6792B21C5FE7403D62A1188E2E60C98D7234A5830286103A55745067B9D86B8A3CF9C7F90C11DE6
310
07FB144396D7B6A82D282E9A152AD114D5EF2CB866EEE831B8EEA07A7BB5A8D7D61A2BAAEB7FD5F70921FF497D00504B0304140006080800CC70623BEDD1DC58FD000000A00100003B0000006662782F41393633353835312D344632462D344230382D423046372D3739314545314133324237412F7265736F75726365732F
310
636F72652E786D6C8D504B6E833010BD0A9A6D65B00922041947112427E8052C33A156828DFCA97AFC9A40A576D7CDCCE87D344F8F9FBFE667F689CE6B6B3A6039850C8DB2A336530731DC4903D95970676DF82583CCC8193B5861107C72362E3BA4AC096842428D1D7107A5F7182053CF7474E0D507CE32973124857FE48B
310
540F3961CEF244279DE03EB81420DB9EAC1384436FA353E879B1B182C7A8C75DA3C7F453DF353A1075D537A7BA6464B8F535A99AE14A9A2BBD90E350DD183B5CFABE3AF262350B1EF4FC9351399401471025A527C218A1E53BAB5A5AB765F5469B96525EACF23FA6B88CFF34456DC2A1DCE36E360F82A5202F42F062ED2BAD
310
579969AFDD8A6F504B010214000A0000080000CC70623B3DEE336E79000000790000001B00000000000000000000000000000000006175746F6465736B2D64657369676E2D7061636B6167652E786D6C504B01021400140006080800CC70623BD486FD9CA0000000F40000001300000000000000000000000000B20000005B
310
436F6E74656E745F54797065735D2E786D6C504B01021400140006080800CC70623B853B8169EB0000007C010000080000000000000000000000000083010000636F72652E786D6C504B01021400140006080800CC70623B55019EA25F0000007C000000070000000000000000000000000094020000636E782E786D6C504B
310
01021400140006080800CC70623BDBABAAF470010000D40300000C00000000000000000000000000180300006662782F636F72652E786D6C504B01021400140006080800CC70623B9C113CC27E0000009D0000000B00000000000000000000000000B20400006662782F636E782E786D6C504B01021400140006080800CC70
310
623B7DF2F77C2A010000120200003100000000000000000000000000590500006662782F41393633353835312D344632462D344230382D423046372D3739314545314133324237412F636F72652E786D6C504B01021400140006080800CC70623BAD7543B64E010000330300003000000000000000000000000000D2060000
310
6662782F41393633353835312D344632462D344230382D423046372D3739314545314133324237412F636E782E786D6C504B01021400140006080800CC70623BE75B7789680500003C10000034000000000000000000000000006E0800006662782F41393633353835312D344632462D344230382D423046372D3739314545
310
314133324237412F6F626A656374732E786D6C504B01021400140006080000CC70623B0000000000000000000000003500000000000000000000000000280E00006662782F41393633353835312D344632462D344230382D423046372D3739314545314133324237412F76657274696365732E62696E504B01021400140006
310
080800CC70623BF270F133060000000400000036000000000000000000000000007B0E00006662782F41393633353835312D344632462D344230382D423046372D3739314545314133324237412F747269616E676C65732E62696E504B01021400140006080000CC70623B0000000000000000000000003700000000000000
310
000000000000D50E00006662782F41393633353835312D344632462D344230382D423046372D3739314545314133324237412F617474726962757465732E62696E504B01021400140006080800CC70623B08DA0BD1900000004101000036000000000000000000000000002A0F00006662782F41393633353835312D344632
310
462D344230382D423046372D3739314545314133324237412F6469726563746F72792E786D6C504B01021400140006080800CC70623BEDD1DC58FD000000A00100003B000000000000000000000000000E1000006662782F41393633353835312D344632462D344230382D423046372D3739314545314133324237412F7265
310
736F75726365732F636F72652E786D6C504B0506000000000E000E0080040000641100000000
  0
XRECORD
  5
F0C5
102
{ACAD_REACTORS
330
1F7
102
}
330
1F7
100
AcDbXrecord
280
     1
102
MATERIAL
148
0.0
149
0.0
149
0.0
 93
        0
 94
       63
282
     0
 72
     1
 77
     1
171
     1
175
     1
179
     1
273
     0
  0
XRECORD
  5
1F8
102
{ACAD_REACTORS
330
1F7
102
}
330
1F7
100
AcDbXrecord
280
     1
 70
     1
 90
429727718
  1
30362254-06B7-45E0-A893-8CFA70E3D6BC
310
504B03040A0000080000CC70623B3DEE336E79000000790000001B0000006175746F6465736B2D64657369676E2D7061636B6167652E786D6C3C3F786D6C2076657273696F6E3D22312E302220656E636F64696E673D227574662D3822203F3E3C666F726D6174733E3C666F726D61743E687474703A2F2F736368656D612E
310
6175746F6465736B2E636F6D2F64657369676E2D7061636B6167652F323030393C2F666F726D61743E3C2F666F726D6174733E504B0304140006080800CC70623BD486FD9CA0000000F4000000130000005B436F6E74656E745F54797065735D2E786D6C7D8EC10E82300C865F65E91D8A1E8C310C0EEA1BF002731658846E
310
D98AC1B77784ABF1D8FE5FBFBF75BBCE937A534CCEB38643598122B6FEE978D0B0485F9C41B54DDD7D022595594E1A469170414C76A4D9A4D207E29CF43ECE46F218070CC6BECC4078ACAA135ACF422C856C0E68EA1BF5669944DDD7BCDE7B1F8E415D77AECB980613C2E4AC91FC167A2B244592486606FC29C8FD7F045B9A
310
EF7053A7E60B504B0304140006080800CC70623B1EC5D7A3EB0000007C01000008000000636F72652E786D6C8D90416EC3201045AF82665B6103C6756C6122AB4D4ED00B204C5C94182C03558F5F9C3852BBEB6A467FFE9B197D71FC9E6FE8CBACC17AD7032D0820E3B41FAD9B7A48F1820F808E52ACDEC75F36404ECDA687
310
4D0629A6D5A76597B477D1B89855E747B38B2A041301E95B6E7A08FAD3CCAA50296647B8168BD2573599823EBB0CA76447F43862C7BCCF5EAC59410E4DDD9C7973C2755553CCCFA4C603E3040F1565ED3B1FDE4E432BCA0D9622DAF9795FAF464533826484B498524CD807E51D79ED187F21878E10516EF63F505AC67F42C9
310
BA58B1FDDD071640D2FCC87D2045B96591CB3DA85CB7DCE40F504B0304140006080800CC70623B55019EA25F0000007C00000007000000636E782E786D6C4DCB3B0E80201045D1AD90E915ED2CF8AC45050C11660C8261F98AB1B07AC9C97D42D718D865D3E909258CFD00CCE24AC6E326A164D74DC0B4128928FF32603847
310
2BA13128B1252AC747C6BAB984FC68F0B87FE8960A5C09FE86CFB69FBA01504B0304140006080800CC70623B8C9102E971010000D40300000C0000006662782F636F72652E786D6CC5535B6E833010BC8AE5DF0A6C08340F1947A84D4ED00B38C6A128602363A31CBFCB234A53A551FA553EC09AD9F5CE8C31DB9E9B1AF5CA
310
7695D1198E428A91D2D214952E33ECDD315861B4E5CC1AE3BE9561A445A3323CC098B3D21ADFCE9034DA29ED00D5A6503328BA4E398C640D8B0C77F253352214DE4145770A5B214FA2546114020D759C75CE8200340D19DE981F0F6746269C33EFAB6266AB02A655C74A59CCF365BADC27CB5D902ED22848F6340DF238A141
310
BE88E2F57B92BFEDF23523433367AE6A2EEAA455C2A902F398D2751045018D3FA264435F3771F242571B4A1919CA6F9A7C5B3CD9E42BED16F12C776AEB308F40C848FC700B1139D4891EF410CEC810227CC6846F8386402064270EF5C5C709A05E49676C024C61FC95EA45ED154CA5211D1FF4FB8291A913A68E9B83EBBB33
310
E2A7673CDE118E5AE8124C0807CB8377834E366998436B950D7A7746DAD846D4CFD978E0F04FD455FC5D49D2D4C6FE9722321F10997F0F32DC47FE05504B0304140006080800CC70623BFFEA85907E0000009D0000000B0000006662782F636E782E786D6C4DCCD10A83201886E15B91FFDC95D95A811AB6F23E625948A6C3
310
E9D8E5AF46073BFAE0E1E365ED67B3E8ADC3CB78C7815C7240DA3DFC64DCC221C519D7805AC182F7F1EF06C88D9BE6703008B6049F9E274D7A1E938DBB5AE3D6131B2589BA0D3D965551E0B2EA732C9B9A624AAEB41E3A557677029960D9AFB4EF11165F504B0304140006080800CC70623B4FEEA4082C0100001202000031
310
0000006662782F39464131463745442D413632322D343644302D413938332D3331353338454246344243312F636F72652E786D6C8D515B6EC32010BC0AE2AB55850DD871ED0813254D72825EC00192A2C460F1A872FC42ED48ED5F7E00CDCECCCEB26C731F6FE05B39AFADE921293004CA082BB5B9F43086336A21D870E6AC
310
0D7F68109861543DCC30E4ECE26C9C164858139409093556AA051CBC570102714B8F1E7AF1A5C6A11862480C7F2DA6415C878B2A4891CA89C7990F2E050073937C42DE1DB7E4F87ED8A36D4329AA9B3D46DBAEAD504556557BD81DEBDD0761E52CE42C462D17B996298E3E6BE59E35C962CE821E1FF18553435012728A7187
310
0841987E927A8D9B35ADDF70BBC6989599FE4F1427F9A4286A132ABAC49D651EF234CD5CE04CDA78BA3DC2A8FB645D00B9DF8B57E215725C60BCA2A463E54C4CE327C7A65E1C7DB02E7DEFCBF594B864C5CA6CDBD49C957943E9FA5D5FBAF336F90F504B0304140006080800CC70623BAD7543B64E01000033030000300000
310
006662782F39464131463745442D413632322D343644302D413938332D3331353338454246344243312F636E782E786D6CD593CD6EC32010845F0571AD6CE3D48AD20813A9873E410FBD12D82434182C7EAAE6EDBB2424CD25871E7B41D6EC30B3FA84F9E67BB2E40B4234DE8DB46F1925E094D7C6ED479AD3AE5951B2113C
310
789FEE6C943839C1488B4C05DF079FE72A69D8C96C13AAD6B8631503449F83828872B949AC57D26200B826A308D316B4064D6E46FCDA41C05550DC9E483A00797BFD207EFB092A45DE9514C1BBD22178396BD39D891265658C238DEA00936C654E5E433CB65A26D9F6EDB5EBC14EBF49A45CB856E66048291F6939A9A81BB5
310
C8917738143CA680F4AA299D66A042CEB3354A2684DC9D8D178FE0D9B8B41CAAD720F880EE7EF93C0C18769E099ECC04D5A102C8049A8A05632F4DDF376CF1DE0F6BB65C2F8627B65A33C6BB62177CEBBDAD973006829F89F22E814B54F4BC2BE347F8AA8F681390B50FA73F804400B5F542E796F19FF974E7F78DB802FE05
310
E207504B0304140006080800CC70623B16AB87BA640500003C100000340000006662782F39464131463745442D413632322D343644302D413938332D3331353338454246344243312F6F626A656374732E786D6CAD575B6FA33818FD2B887DE6924B3BED8A326A92B68A663B534DD4D13E548A0C38942D60649B369D5FBFC7
310
600890A493BDE42160637FD7F31D7FF63E6FB3D478A55C242CBF3247B66B1A340F5994E4F19559CA8D75611A9F7D8F33263BCB4C232719BD32D5B4E97B316765A1A722BA21652A07B3B7B33F0D11D29C9A46981221AE4C113ED38CD8A4942CA2E2C58E882476BCD9DA23BB5ED8171B73523C0F841684D35CC252CCE79062D4
310
468DFA43D7747CCF51DF7D4FFDEB5593E3AB9CCA9FBEFE241792E4E19EB28198C968BAB8199F5D5A67D3E9C49A9E8F47D6EC76B6B0469F26EEFC7C3EBFBCBEB98462213924694B38DD98FE1D62C393D073EA4FADC5DAF04326852CCF6958F90F0F2B9BB5C48816348F90C7840A68EB78EDF68723159BCEE7891A6B95DDE9D3
310
BCEAEEE8086A6C6F9E5D4B59F0175C10A7A0820BAA5055C7473B5AE3CFDD452D602CD5DF12616444529E90D448938013FE6EFA58AA96F85E4F8C42275708571E98FE6827AF6B2B4AE3D7D83D64E5A64C53054DD3AF90BD06FEA9149565C94FCA0F6B834DC85599E4F2423B24DF0B6AFA979E534DFA9E7A4CC6FA631D486393
310
921829879BF5D781A373557BCB85E97FB90DB62B558F8795179C15944B051F40AB495CF35451D26A4727654E6D8033BD98EF82F21D91FF8AF2DD9982BCF1643BDD4EB516C9492E368C67C88DED563FC36D5EACF66DFF057C3658BDBFA69DF9578B3DA735B64F18C7F20770A9D45CFCF7FCF563D6456A277DBEF78A02637CA2
310
43B90A490AEAB94F72244481D24819A6C0E59B606BFA4B3025981DBB48EAB701D97BF19C577CC77F2D1B6C55A9EF3C732474C0B727303F625995056C3B02963D9EAC146BE78EC5FCEC7FA999EBC5EACBAAE41B12D27B4D2C0BBA49F244E2ECDC81B76B502F113D8F5EE8FB1BE3111CDD4FC2AA9B844CAB1288B68AB90A7CDC
310
1C166AB0D3DC5310625FCC14E779BFD0709F8890A629C9292B1B2DED31A4B0DA928CEE135085754027E3018A397D4D5427D15BD1330B677DC8934285AC3DF45A9EB68FF8F2B8FC0A509AFEECFD0FF2DE25CC6047F7214B195F07EFEB9A094D800F7BFAE8FED187B78EA8A3A400F115961BCAD1215E47C966530AF0EE8128FE
310
58CEBB996A8964FFA529A046635D9353B0336A8F700DDF46271A024E70B0B37C9DE01847591E54DED53D54202AB947E4076556AC49C6CA5C9E1226B7F1A7B1BE15DEED62C41B91E1B3E9AFAAA735036547343A925075041DF0A9979E893B391F8FCFA6967B3EFB644DCF6E5CEBFAE272625DCC6FAF3FB93793C5F90CE1EF57
310
407342756B10D1C489E8953CD1617E5CEECAD6F4EF8914CE5D5D504E5C3F1F9736DA62CFC11E00BCDDB8CC8A9466349744C1F75EBDA4DF09BA8A9E8C7A7E9991989E20E5DBDD6A6003664ED8F7A04A8DBE0DF6EAD9B9AA858342E47399053949D2C146EDB85DE4B176BB0965FBAC19BD19AA918E27FA50C1D22402E144464C
310
59462568E704B6E71915404CB72B8FF4EDE184DDAF753F284990D2C6926782963815403548A70C657FDEF80D2D9CEAA2AE4C1C76F60BFE74219A06527D6582DF6412526107381E55E353090704D085B52408D0933C4ED159D79BDA71BB4BC506F4831350EB6F979CD22D69BF7AC49B91A2C0A9DDA3D5CA36AD20FC478E37E6
310
1844E2352865EBCB6EA275A652E3836BE04EFB400BF1A2556F515F1FBB35B2AB35BD889C744FFA1004B5544B121E57F70215746DD2F5E2C1412B602CBF19455AC6C8E5E9922C4E01E65215385004546899059180EAFCF7A707CE7017CD8CDB0410789AB32C63B91E5CEBBBACB17AC6CD347A022D5075FD106377347AAABA7E
310
7D11590744509B44E205134DC1290F06580320F78E537D3D73540E06CB970B431F185308AD40BBD794D6D77003C5A36E8EAA54BA64597CD8F83BD552A080A365F7FF06504B0304140006080000CC70623B000000000000000000000000350000006662782F39464131463745442D413632322D343644302D413938332D3331
310
353338454246344243312F76657274696365732E62696E504B0304140006080800CC70623BF270F1330600000004000000360000006662782F39464131463745442D413632322D343644302D413938332D3331353338454246344243312F747269616E676C65732E62696E636660600000504B0304140006080000CC70623B
310
000000000000000000000000370000006662782F39464131463745442D413632322D343644302D413938332D3331353338454246344243312F617474726962757465732E62696E504B0304140006080800CC70623B08DA0BD19000000041010000360000006662782F39464131463745442D413632322D343644302D413938
310
332D3331353338454246344243312F6469726563746F72792E786D6C858F410AC3201045AF22B36F53E9A60B35CBEEBAE80D244E44489C6234F4F835464A48035D0DF398FF9F8AF63D0E6CC63039F212F8F9020C7D47C6792B21C5FE7403D62A1188E2E60C98D7234A5830286103A55745067B9D86B8A3CF9C7F90C11DE607
310
FB144396D7B6A82D282E9A152AD114D5EF2CB866EEE831B8EEA07A7BB5A8D7D61A2BAAEB7FD5F70921FF497D00504B0304140006080800CC70623B0D6EF93BFE000000A00100003B0000006662782F39464131463745442D413632322D343644302D413938332D3331353338454246344243312F7265736F75726365732F63
310
6F72652E786D6C8D50596E833010BD0A9ADFCA60B334011947A8694ED00B586642AC041B79A97AFC9A40A5F6AF3F33A3B7689E1E3F7DCD8FEC139DD7D6F4C0720A191A65476DA61E62B892236427C19DB5E1970C322367EC618541F0C9D9B8EC90B226A009093576C41D94DE63804C3DD2D18357379C652E63480A7FCF17A9
310
EE72C29CE5894E3AC17D702940B63D59270887DE46A7D0F36263058F518FBB468FE9A7BE6A7420864373B8D4873369AA8691FA421B3294352543C5CAF65C0F6FEF43CB8BD52C78D0F34F46E550061C419494B6843142CB0F5677F4B52BEB177AEC28E5C52AFF638ACBF84F53D42654E51E77B379102C05791282176B5F693D
310
CB4C7BED567C03504B010214000A0000080000CC70623B3DEE336E79000000790000001B00000000000000000000000000000000006175746F6465736B2D64657369676E2D7061636B6167652E786D6C504B01021400140006080800CC70623BD486FD9CA0000000F40000001300000000000000000000000000B20000005B
310
436F6E74656E745F54797065735D2E786D6C504B01021400140006080800CC70623B1EC5D7A3EB0000007C010000080000000000000000000000000083010000636F72652E786D6C504B01021400140006080800CC70623B55019EA25F0000007C000000070000000000000000000000000094020000636E782E786D6C504B
310
01021400140006080800CC70623B8C9102E971010000D40300000C00000000000000000000000000180300006662782F636F72652E786D6C504B01021400140006080800CC70623BFFEA85907E0000009D0000000B00000000000000000000000000B30400006662782F636E782E786D6C504B01021400140006080800CC70
310
623B4FEEA4082C0100001202000031000000000000000000000000005A0500006662782F39464131463745442D413632322D343644302D413938332D3331353338454246344243312F636F72652E786D6C504B01021400140006080800CC70623BAD7543B64E010000330300003000000000000000000000000000D5060000
310
6662782F39464131463745442D413632322D343644302D413938332D3331353338454246344243312F636E782E786D6C504B01021400140006080800CC70623B16AB87BA640500003C1000003400000000000000000000000000710800006662782F39464131463745442D413632322D343644302D413938332D3331353338
310
454246344243312F6F626A656374732E786D6C504B01021400140006080000CC70623B0000000000000000000000003500000000000000000000000000270E00006662782F39464131463745442D413632322D343644302D413938332D3331353338454246344243312F76657274696365732E62696E504B01021400140006
310
080800CC70623BF270F133060000000400000036000000000000000000000000007A0E00006662782F39464131463745442D413632322D343644302D413938332D3331353338454246344243312F747269616E676C65732E62696E504B01021400140006080000CC70623B0000000000000000000000003700000000000000
310
000000000000D40E00006662782F39464131463745442D413632322D343644302D413938332D3331353338454246344243312F617474726962757465732E62696E504B01021400140006080800CC70623B08DA0BD190000000410100003600000000000000000000000000290F00006662782F39464131463745442D413632
310
322D343644302D413938332D3331353338454246344243312F6469726563746F72792E786D6C504B01021400140006080800CC70623B0D6EF93BFE000000A00100003B000000000000000000000000000D1000006662782F39464131463745442D413632322D343644302D413938332D3331353338454246344243312F7265
310
736F75726365732F636F72652E786D6C504B0506000000000E000E0080040000641100000000
  0
XRECORD
  5
F0C7
102
{ACAD_REACTORS
330
173
102
}
330
173
100
AcDbXrecord
280
     1
102
MATERIAL
148
0.0
149
0.0
149
0.0
 93
        0
 94
       63
282
     0
 72
     1
 77
     1
171
     1
175
     1
179
     1
273
     0
  0
XRECORD
  5
175
102
{ACAD_REACTORS
330
173
102
}
330
173
100
AcDbXrecord
280
     1
270
     1
271
     1
  0
XRECORD
  5
174
102
{ACAD_REACTORS
330
173
102
}
330
173
100
AcDbXrecord
280
     1
270
     1
271
     1
  0
XRECORD
  5
1FB
102
{ACAD_REACTORS
330
173
102
}
330
173
100
AcDbXrecord
280
     1
 70
     0
 90
1673772943
  1
ECE7A1D2-D628-4531-984C-D00F80459256
310
504B03040A0000080000CC70623B3DEE336E79000000790000001B0000006175746F6465736B2D64657369676E2D7061636B6167652E786D6C3C3F786D6C2076657273696F6E3D22312E302220656E636F64696E673D227574662D3822203F3E3C666F726D6174733E3C666F726D61743E687474703A2F2F736368656D612E
310
6175746F6465736B2E636F6D2F64657369676E2D7061636B6167652F323030393C2F666F726D61743E3C2F666F726D6174733E504B0304140006080800CC70623BD486FD9CA0000000F4000000130000005B436F6E74656E745F54797065735D2E786D6C7D8EC10E82300C865F65E91D8A1E8C310C0EEA1BF002731658846E
310
D98AC1B77784ABF1D8FE5FBFBF75BBCE937A534CCEB38643598122B6FEE978D0B0485F9C41B54DDD7D022595594E1A469170414C76A4D9A4D207E29CF43ECE46F218070CC6BECC4078ACAA135ACF422C856C0E68EA1BF5669944DDD7BCDE7B1F8E415D77AECB980613C2E4AC91FC167A2B244592486606FC29C8FD7F045B9A
310
EF7053A7E60B504B0304140006080800CC70623BD9DDAED0EC0000007C01000008000000636F72652E786D6C8D90416EC3201045AF82665B61836D9CD8C2444DD39CA01740405C94182C03558F5F9C3852BBEB6A467FFE9B197D7EF89E6EE8CB2CC17A37002D0820E394D7D68D03A478C17B4007C117EFE32F1B20272733C0
310
2A83E0E3E2D3BC49CABB685CCCAAF3DA6CA20CC14440EA969B0182FA34932C648AD911AEC52CD5558EA6A0CF2EC329598D1E47ACCEFBECC59A050463A7EA5833865FEBDD0E37353BE3EE8DBDE3F6786A48D375FBF6CC78B9C282473B3DEFABC5C86834888A900E538A49F5419B9EB47DD5BC907D4F082F57FB1F28CDFA9F50
310
B22ED6D5F6EE030B20687EE43E10BC5CB3C8E51E54AE6B6EE207504B0304140006080800CC70623B55019EA25F0000007C00000007000000636E782E786D6C4DCB3B0E80201045D1AD90E915ED2CF8AC45050C11660C8261F98AB1B07AC9C97D42D718D865D3E909258CFD00CCE24AC6E326A164D74DC0B4128928FF326038
310
472BA13128B1252AC747C6BAB984FC68F0B87FE8960A5C09FE86CFB69FBA01504B0304140006080800CC70623BA24EB22D72010000D40300000C0000006662782F636F72652E786D6CC5535B6E833010BC8AE5DF0A6C5E49888CA3A6694ED00B38E05014B091B1518EDFE511A5A9D228FD2A1F60CDEC7A67C6986DCE4D8D7A
310
69BA4AAB0C073EC548AA5C17952A33ECECD15B61B4E1CC686DBF9561A44423333CC098B3D268D7CE50AE9595CA02AA74216750749DB418E5352C32DCE59FB211BE70162ABA93DF8AFC244AE9073ED050C759670D0840D390E18DF9F1706664C23973AE2A66B62A605A75ACA4C13C4976E1364A12EF355A2EBD384AF65EFA96
310
BC7B8BED2EA6719AAE16FB8491A199335B351775B991C2CA02F390D2D40B028F861F41BCA68B7518BFD0D59A524686F29B26D7164F36B94AD9289CE54E6D1DE6010819891F6E21228B3AD1831EC219194284CF98F06DD01008846CC5A1BEF83801D4CBDC6A1303536877A57A513B0953A94FC707FDBE6064EA84A9E3E6E0FA
310
EE8CF0E9198F7784A316AA0413C2C2F2E0ECA0934D1AE6D05A69BCDE9E91D2A611F573361E38FC1375157F5752AE6B6DFE4B11990F88CCBF0719EE23FF02504B0304140006080800CC70623B408A7D3B7C0000009D0000000B0000006662782F636E782E786D6C4DCCD10A83201886E15B91FFDC552A92A0064DBC8F581632
310
D3703A76F9ABD1C18E3E78F878E5F0D9027ABBFCF2292AE86E2D20171F69F6715550CB827B40839639A5F2770314A7CD293819B45C73AAFB45B35BA61ACAA1C1C7E7855C58C15BC331339661262CC762340413D68D77DA5B42298546CBE6573AF60CEB2F504B0304140006080800CC70623B449FB9BD290100001202000031
310
0000006662782F36394639363044362D344446342D343946362D394244322D3234314243333846323333332F636F72652E786D6C8D515B6EC32010BC0AE22B55850D98B871848994463E412FE002495162B07854397EA176A4F62F3F2C9A9D991D587EB84F37F0AD7D30CEF6905418026DA553C65E7A98E219ED203808EE9D
310
8B7F6810D871D23D2C3014FCE25D9A57483A1BB58D19B54EE9151C43D0110279CB971E06F9A5A7B11A53CC8C70ADE6515EC78BAE4895DB992778883E0700CB907242D17643D7E2538BD869608875438BBAE38922CAC8F1BDD90DB4691A5E2F42C153326A951B95E398B3D1FE599322163C9AE9115F7A3D46ADA0A018778810
310
84E907617BDCEE297BC5BB3DC6BC2EF47FA234AB2745C9D8D8D035EE220B50105E2F0DC1954B9FB747187D9F9D8FA0CCDB042D5FA0C015C65B42DF78BD10F3F3B363CB56C7109DCFDFBBB97E662ED92EB62D13BC2E1BCAE5777DB9966D8A1F504B0304140006080800CC70623BAD7543B64E01000033030000300000006662
310
782F36394639363044362D344446342D343946362D394244322D3234314243333846323333332F636E782E786D6CD593CD6EC32010845F0571AD6CE3D48AD20813A9873E410FBD12D82434182C7EAAE6EDBB2424CD25871E7B41D6EC30B3FA84F9E67BB2E40B4234DE8DB46F1925E094D7C6ED479AD3AE5951B2113C789FEE
310
6C943839C1488B4C05DF079FE72A69D8C96C13AAD6B8631503449F83828872B949AC57D26200B826A308D316B4064D6E46FCDA41C05550DC9E483A00797BFD207EFB092A45DE9514C1BBD22178396BD39D891265658C238DEA00936C654E5E433CB65A26D9F6EDB5EBC14EBF49A45CB856E66048291F6939A9A81BB5C89177
310
38143CA680F4AA299D66A042CEB3354A2684DC9D8D178FE0D9B8B41CAAD720F880EE7EF93C0C18769E099ECC04D5A102C8049A8A05632F4DDF376CF1DE0F6BB65C2F8627B65A33C6BB62177CEBBDAD973006829F89F22E814B54F4BC2BE347F8AA8F681390B50FA73F804400B5F542E796F19FF974E7F78DB802FE05E20750
310
4B0304140006080800CC70623B8D05915C650500003B100000340000006662782F36394639363044362D344446342D343946362D394244322D3234314243333846323333332F6F626A656374732E786D6CAD575B6FA33814FE2B887D06429276DA1565D4266D158D3A339A6846FB502932E050B66023DB74D2FDF5FB190C01
310
9276B2973C046C8ECFF53B17071F77456EBD502133CEAE6CDF9DD81665314F32965ED995DA3A17B6F5310C04E7AA47665B8C14F4CAD6DB7618A48257A5D94AE89654B91AEDDEDDFC61C998326A5B714EA4BCB265FC440BE2924AF184CA6737218AB8E976E7FA6E4338649B0A523E8D98964450A6A029F619B8588D52FE7039
310
B1BD30F0F4F730D0FF866AF6369557DB33949F31A9088B0F848DD8CCFCF9F2767A76E99CCDE733677E3EF59D9BBB9BA5E37F984D16E78BC5E5F5ED25044B25C0C96822E8D60EEFE11B91C581D77CEA34368A1F5329E68CD1B8B61F16D63A1B8E092D294B10C78C4A48EB593D192E7DED9BDEE7995E1B91FDEDD3ACEA9FE831
310
6A756F9F7D4D79F4274C90A7A04248AA51D5F8C718DAE06FB2F75AC4796EBE65D22A88A22223B995679120E2D50E41AA49C260C046A35368846B0BECD0DFF3EBEB8AD4F835768F69B9ADF25C43D30E6B646F807FAA64AD59F61715C7A54127C4AACA98BA3006A9D792DAE165E0D59B61A01FB3A9F9D838D2DAE62445C86166
310
F37564E842E7DE6A69879FEEA2DD5AE7E371E1A5E025154AC307D06A03D73EB5978C58FFA4C8E9033066E0F3BD53BEC1F39F91BE7B55103791EDE6BBB991A2046172CB4581D8B893FA674DDA17A77B3B7C413D1B511FD2743BFF8A38F03A658705E3ADF8015C3A3417FF3D7E439FF591DA0B5F18BC20C1B8981957AE6392A3
310
F43C640C01D1A0B4728E2DD4F26DB4B3C3152A252A3B4E913CEC1C72F012782FF88EFF8637AA552DBEF76408E8A8DE9E50F9E1CB3A2DA0DB1B6039A893B56063DC5B3E3FFB5F72E67AB9FEB4AEC496C4F4C1149625DD662C53E89D7BF0F6151A046260D1337DFDC94502430F83B0EE07A130A224BCAD7DAE1D9FB6CD422FF6
310
920702629C4BB9AE79C12F243C6432A6794E18E5552BA56B431AAB5D91317302B2B071E86C3A42B1A02F999E24061403B5D0EB639195DA655DD3EBEAB4FB862DDF579F014AD0E73C22F99E28DA57FB98E75C6CA2D74D53086D600F4786E0FE3144B771A8A7B900F03594DB8A633CBC49B2EDB69228BB479CF863B5E807AAAB
310
23872F6DFEB4129B949CA33823F58830E86D65621E10047D9DB34D862E8EAC3C2ABC2F7B2C40D67CDFE01F5545B92105AF983AC54D93D69E56FB8E797F88913F898A9FEC705D3F9D1B54EC8426FB500D40A03BD0119B06E1B95DDC7EB8F6975367793EBD70E66733DFB9BC982F9CE564727731999F5D4ECFCE3B8D6A4DC2A0
310
6D50FD148437D110834A64C6CDDF57FBACB5C307A2A477DFE4939736CFEF2B175371E0E10CF0DD1D5C15654E0BCA14D1E87DD02FF93782A162C0A3D95F1524A52770F972BF1EE9809D13CE7DD599467F8ECE9ADD85CE85A34CD45355448C64F9E8A031DC2D596ACC6E5DD93D9B82DE2EF5CAF81363A8E47996A0DE24564A79
310
4115AACE09C55E14540231FDA13C319787134EBF34E3A022514E5B4D9E0826E25C02D5805B15ABE1BEF51B26383D445DD9E875EE33FE4C22DA16427D65A3BCA92CA6D28DD01DF5DC53330704308475351050232CCD31583787BA75774AFB06E5070DD0C8EF484E19968C5D83BA5B90B244D31E54D55A372320FE4786B7EA58
310
44E135AA5467CB7EA333A61683CC6A8C3257034C10CF46F40EF9F5BE59BE5BD30C3C72D235E95D10345C1D45445A5F0BB47E46A5EBE5570F9380B5FA629579952296A773720405982B9DE04011506178964401AA8BDF1FBF0A8EAB6861DD6580C0E38217056766716DAEB2D6FA0917D3E4116581EADB879C4E7CFFB11EFACD
310
3D641311495D92C8676CB409A72D18610D803CE8A626049E8EC1887CB5B44CC39883690DDA8399B4B9855B481E7D71D4A9D22F96E5BB73BF5793020C02137BF837504B0304140006080000CC70623B000000000000000000000000350000006662782F36394639363044362D344446342D343946362D394244322D32343142
310
43333846323333332F76657274696365732E62696E504B0304140006080800CC70623BF270F1330600000004000000360000006662782F36394639363044362D344446342D343946362D394244322D3234314243333846323333332F747269616E676C65732E62696E636660600000504B0304140006080000CC70623B0000
310
00000000000000000000370000006662782F36394639363044362D344446342D343946362D394244322D3234314243333846323333332F617474726962757465732E62696E504B0304140006080800CC70623B08DA0BD19000000041010000360000006662782F36394639363044362D344446342D343946362D394244322D
310
3234314243333846323333332F6469726563746F72792E786D6C858F410AC3201045AF22B36F53E9A60B35CBEEBAE80D244E44489C6234F4F835464A48035D0DF398FF9F8AF63D0E6CC63039F212F8F9020C7D47C6792B21C5FE7403D62A1188E2E60C98D7234A5830286103A55745067B9D86B8A3CF9C7F90C11DE607FB14
310
4396D7B6A82D282E9A152AD114D5EF2CB866EEE831B8EEA07A7BB5A8D7D61A2BAAEB7FD5F70921FF497D00504B0304140006080800CC70623BCA768048FE000000A00100003B0000006662782F36394639363044362D344446342D343946362D394244322D3234314243333846323333332F7265736F75726365732F636F72
310
652E786D6C8D50596E833010BD0A9ADFCA60D600328E9AA639412F609909B1126CE4A5EAF16B0295DABFFECC8CDEA2797AECF8353F924FB44E193D409E5248504B332A3D0D10FC95B4901C39B3C6F85F3248B49871801506CE266BC2B243D2688FDA47549B11775038871E12F988C7004EDE7016A9083E2ADC3D5D84BC8B09
310
D33C8D74D471E6BC8D0192EDC93A815B742658898E651BCB59086ADC356A8C3FD555A1055ED7E7E254D615792D0F075295F585746FF53B694EE78A565DD736979A65AB9933AFE69F8CD2A2F038022F28ED489E135A7CE4554F9BBEA85E68DB53CAB255FEC71496F19FA6A0B42F8B3DEE6673C0F318E4497096AD7DC5F52C33
310
EEB55BFE0D504B010214000A0000080000CC70623B3DEE336E79000000790000001B00000000000000000000000000000000006175746F6465736B2D64657369676E2D7061636B6167652E786D6C504B01021400140006080800CC70623BD486FD9CA0000000F40000001300000000000000000000000000B20000005B436F
310
6E74656E745F54797065735D2E786D6C504B01021400140006080800CC70623BD9DDAED0EC0000007C010000080000000000000000000000000083010000636F72652E786D6C504B01021400140006080800CC70623B55019EA25F0000007C000000070000000000000000000000000095020000636E782E786D6C504B0102
310
1400140006080800CC70623BA24EB22D72010000D40300000C00000000000000000000000000190300006662782F636F72652E786D6C504B01021400140006080800CC70623B408A7D3B7C0000009D0000000B00000000000000000000000000B50400006662782F636E782E786D6C504B01021400140006080800CC70623B
310
449FB9BD290100001202000031000000000000000000000000005A0500006662782F36394639363044362D344446342D343946362D394244322D3234314243333846323333332F636F72652E786D6C504B01021400140006080800CC70623BAD7543B64E010000330300003000000000000000000000000000D20600006662
310
782F36394639363044362D344446342D343946362D394244322D3234314243333846323333332F636E782E786D6C504B01021400140006080800CC70623B8D05915C650500003B10000034000000000000000000000000006E0800006662782F36394639363044362D344446342D343946362D394244322D32343142433338
310
46323333332F6F626A656374732E786D6C504B01021400140006080000CC70623B0000000000000000000000003500000000000000000000000000250E00006662782F36394639363044362D344446342D343946362D394244322D3234314243333846323333332F76657274696365732E62696E504B010214001400060808
310
00CC70623BF270F13306000000040000003600000000000000000000000000780E00006662782F36394639363044362D344446342D343946362D394244322D3234314243333846323333332F747269616E676C65732E62696E504B01021400140006080000CC70623B00000000000000000000000037000000000000000000
310
00000000D20E00006662782F36394639363044362D344446342D343946362D394244322D3234314243333846323333332F617474726962757465732E62696E504B01021400140006080800CC70623B08DA0BD190000000410100003600000000000000000000000000270F00006662782F36394639363044362D344446342D
310
343946362D394244322D3234314243333846323333332F6469726563746F72792E786D6C504B01021400140006080800CC70623BCA768048FE000000A00100003B000000000000000000000000000B1000006662782F36394639363044362D344446342D343946362D394244322D3234314243333846323333332F7265736F
310
75726365732F636F72652E786D6C504B0506000000000E000E0080040000621100000000
  0
XRECORD
  5
176
102
{ACAD_REACTORS
330
173
102
}
330
173
100
AcDbXrecord
280
     1
270
     1
271
     1
  0
XRECORD
  5
177
102
{ACAD_REACTORS
330
173
102
}
330
173
100
AcDbXrecord
280
     1
270
     1
271
     1
  0
XRECORD
  5
F0E9
102
{ACAD_REACTORS
330
F0E8
102
}
330
F0E8
100
AcDbXrecord
280
     1
102
ACAD_ROUNDTRIP_2012_MLEADER_STYLE
298
     1
  0
XRECORD
  5
F0FB
102
{ACAD_REACTORS
330
F0FA
102
}
330
F0FA
100
AcDbXrecord
280
     1
102
DISPLAYNAME
  1
Metric50
102
FLAGS
 90
        0
  0
CELLSTYLEMAP
  5
F0BB
102
{ACAD_REACTORS
330
162
102
}
330
162
100
AcDbCellStyleMap
 90
        3
300
CELLSTYLE
  1
TABLEFORMAT_BEGIN
 90
        5
170
     1
 91
        0
 92
    32768
 62
   257
 93
        1
300
CONTENTFORMAT
  1
CONTENTFORMAT_BEGIN
 90
        0
 91
        0
 92
      512
 93
        0
300

 40
0.0
140
1.0
 94
        5
 62
     0
340
11
144
6.0
309
CONTENTFORMAT_END
171
     1
301
MARGIN
  1
CELLMARGIN_BEGIN
 40
1.5
 40
1.5
 40
1.5
 40
1.5
 40
4.5
 40
4.5
309
CELLMARGIN_END
 94
        6
 95
        1
302
GRIDFORMAT
  1
GRIDFORMAT_BEGIN
 90
        0
 91
        1
 62
     0
 92
       -2
340
14
 93
        0
 40
1.125
309
GRIDFORMAT_END
 95
        2
302
GRIDFORMAT
  1
GRIDFORMAT_BEGIN
 90
        0
 91
        1
 62
     0
 92
       -2
340
14
 93
        0
 40
1.125
309
GRIDFORMAT_END
 95
        4
302
GRIDFORMAT
  1
GRIDFORMAT_BEGIN
 90
        0
 91
        1
 62
     0
 92
       -2
340
14
 93
        0
 40
1.125
309
GRIDFORMAT_END
 95
        8
302
GRIDFORMAT
  1
GRIDFORMAT_BEGIN
 90
        0
 91
        1
 62
     0
 92
       -2
340
14
 93
        0
 40
1.125
309
GRIDFORMAT_END
 95
       16
302
GRIDFORMAT
  1
GRIDFORMAT_BEGIN
 90
        0
 91
        1
 62
     0
 92
       -2
340
14
 93
        0
 40
1.125
309
GRIDFORMAT_END
 95
       32
302
GRIDFORMAT
  1
GRIDFORMAT_BEGIN
 90
        0
 91
        1
 62
     0
 92
       -2
340
14
 93
        0
 40
1.125
309
GRIDFORMAT_END
309
TABLEFORMAT_END
  1
CELLSTYLE_BEGIN
 90
        1
 91
        1
300
_TITLE
309
CELLSTYLE_END
300
CELLSTYLE
  1
TABLEFORMAT_BEGIN
 90
        5
170
     1
 91
        0
 92
        0
 62
   257
 93
        1
300
CONTENTFORMAT
  1
CONTENTFORMAT_BEGIN
 90
        0
 91
        0
 92
      512
 93
        0
300

 40
0.0
140
1.0
 94
        5
 62
     0
340
11
144
4.5
309
CONTENTFORMAT_END
171
     1
301
MARGIN
  1
CELLMARGIN_BEGIN
 40
1.5
 40
1.5
 40
1.5
 40
1.5
 40
4.5
 40
4.5
309
CELLMARGIN_END
 94
        6
 95
        1
302
GRIDFORMAT
  1
GRIDFORMAT_BEGIN
 90
        0
 91
        1
 62
     0
 92
       -2
340
14
 93
        0
 40
1.125
309
GRIDFORMAT_END
 95
        2
302
GRIDFORMAT
  1
GRIDFORMAT_BEGIN
 90
        0
 91
        1
 62
     0
 92
       -2
340
14
 93
        0
 40
1.125
309
GRIDFORMAT_END
 95
        4
302
GRIDFORMAT
  1
GRIDFORMAT_BEGIN
 90
        0
 91
        1
 62
     0
 92
       -2
340
14
 93
        0
 40
1.125
309
GRIDFORMAT_END
 95
        8
302
GRIDFORMAT
  1
GRIDFORMAT_BEGIN
 90
        0
 91
        1
 62
     0
 92
       -2
340
14
 93
        0
 40
1.125
309
GRIDFORMAT_END
 95
       16
302
GRIDFORMAT
  1
GRIDFORMAT_BEGIN
 90
        0
 91
        1
 62
     0
 92
       -2
340
14
 93
        0
 40
1.125
309
GRIDFORMAT_END
 95
       32
302
GRIDFORMAT
  1
GRIDFORMAT_BEGIN
 90
        0
 91
        1
 62
     0
 92
       -2
340
14
 93
        0
 40
1.125
309
GRIDFORMAT_END
309
TABLEFORMAT_END
  1
CELLSTYLE_BEGIN
 90
        2
 91
        1
300
_HEADER
309
CELLSTYLE_END
300
CELLSTYLE
  1
TABLEFORMAT_BEGIN
 90
        5
170
     1
 91
        0
 92
        0
 62
   257
 93
        1
300
CONTENTFORMAT
  1
CONTENTFORMAT_BEGIN
 90
        0
 91
        0
 92
      512
 93
        0
300

 40
0.0
140
1.0
 94
        2
 62
     0
340
11
144
4.5
309
CONTENTFORMAT_END
171
     1
301
MARGIN
  1
CELLMARGIN_BEGIN
 40
1.5
 40
1.5
 40
1.5
 40
1.5
 40
4.5
 40
4.5
309
CELLMARGIN_END
 94
        6
 95
        1
302
GRIDFORMAT
  1
GRIDFORMAT_BEGIN
 90
        0
 91
        1
 62
     0
 92
       -2
340
14
 93
        0
 40
1.125
309
GRIDFORMAT_END
 95
        2
302
GRIDFORMAT
  1
GRIDFORMAT_BEGIN
 90
        0
 91
        1
 62
     0
 92
       -2
340
14
 93
        0
 40
1.125
309
GRIDFORMAT_END
 95
        4
302
GRIDFORMAT
  1
GRIDFORMAT_BEGIN
 90
        0
 91
        1
 62
     0
 92
       -2
340
14
 93
        0
 40
1.125
309
GRIDFORMAT_END
 95
        8
302
GRIDFORMAT
  1
GRIDFORMAT_BEGIN
 90
        0
 91
        1
 62
     0
 92
       -2
340
14
 93
        0
 40
1.125
309
GRIDFORMAT_END
 95
       16
302
GRIDFORMAT
  1
GRIDFORMAT_BEGIN
 90
        0
 91
        1
 62
     0
 92
       -2
340
14
 93
        0
 40
1.125
309
GRIDFORMAT_END
 95
       32
302
GRIDFORMAT
  1
GRIDFORMAT_BEGIN
 90
        0
 91
        1
 62
     0
 92
       -2
340
14
 93
        0
 40
1.125
309
GRIDFORMAT_END
309
TABLEFORMAT_END
  1
CELLSTYLE_BEGIN
 90
        3
 91
        2
300
_DATA
309
CELLSTYLE_END
  0
XRECORD
  5
F0C0
102
{ACAD_REACTORS
330
162
102
}
330
162
100
AcDbXrecord
280
     1
102
ACAD_ROUNDTRIP_PRE2007_TABLESTYLE
 90
      512
 91
        0
  1

 92
      512
 93
        0
  2

 94
      512
 95
        0
  3

  0
XRECORD
  5
F0D3
102
{ACAD_REACTORS
330
F0D2
102
}
330
F0D2
100
AcDbXrecord
280
     1
102
RTVSPost2010Prop28
280
     1
102
RTVSPost2010PropOp28
 70
     1
102
RTVSPost2010Prop29
280
     1
102
RTVSPost2010PropOp29
 70
     1
102
RTVSPost2010Prop30
280
     0
102
RTVSPost2010PropOp30
 70
     1
102
RTVSPost2010Prop31
280
     0
102
RTVSPost2010PropOp31
 70
     1
102
RTVSPost2010Prop32
280
     0
102
RTVSPost2010PropOp32
 70
     1
102
RTVSPost2010Prop33
280
     0
102
RTVSPost2010PropOp33
 70
     1
102
RTVSPost2010Prop34
280
     0
102
RTVSPost2010PropOp34
 70
     1
102
RTVSPost2010Prop35
280
     0
102
RTVSPost2010PropOp35
 70
     1
102
RTVSPost2010Prop36
280
     0
102
RTVSPost2010PropOp36
 70
     1
102
RTVSPost2010Prop37
 90
       50
102
RTVSPost2010PropOp37
 70
     1
102
RTVSPost2010Prop38
140
0.0
102
RTVSPost2010PropOp38
 70
     1
102
RTVSPost2010Prop39
140
1.0
102
RTVSPost2010PropOp39
 70
     1
102
RTVSPost2010Prop40
 90
        0
102
RTVSPost2010PropOp40
 70
     1
102
RTVSPost2010Prop41ColorIndex
 90
       18
102
RTVSPost2010Prop41ColorRGB
 90
        0
102
RTVSPost2010PropOp41
 70
     1
102
RTVSPost2010Prop42
 90
       50
102
RTVSPost2010PropOp42
 70
     1
102
RTVSPost2010Prop43
 90
        3
102
RTVSPost2010PropOp43
 70
     1
102
RTVSPost2010Prop44ColorIndex
 90
        5
102
RTVSPost2010Prop44ColorRGB
 90
      255
102
RTVSPost2010PropOp44
 70
     1
102
RTVSPost2010Prop45
280
     0
102
RTVSPost2010PropOp45
 70
     1
102
RTVSPost2010Prop46
 90
       50
102
RTVSPost2010PropOp46
 70
     1
102
RTVSPost2010Prop47
 90
       50
102
RTVSPost2010PropOp47
 70
     1
102
RTVSPost2010Prop48
 90
       50
102
RTVSPost2010PropOp48
 70
     1
102
RTVSPost2010Prop49
280
     0
102
RTVSPost2010PropOp49
 70
     1
102
RTVSPost2010Prop50
 90
       50
102
RTVSPost2010PropOp50
 70
     1
102
RTVSPost2010Prop51ColorIndex
 90
      256
102
RTVSPost2010Prop51ColorRGB
 90
-16777216
102
RTVSPost2010PropOp51
 70
     0
102
RTVSPost2010Prop52
140
1.0
102
RTVSPost2010PropOp52
 70
     0
102
RTVSPost2010Prop53
 90
        2
102
RTVSPost2010PropOp53
 70
     1
102
RTVSPost2010Prop54
  1
strokes_ogs.tif
102
RTVSPost2010PropOp54
 70
     1
102
RTVSPost2010Prop55
280
     0
102
RTVSPost2010PropOp55
 70
     1
102
RTVSPost2010Prop56
140
1.0
102
RTVSPost2010PropOp56
 70
     1
102
RTVSPost2010Prop57
140
1.0
102
RTVSPost2010PropOp57
 70
     1
102
RTVSPropertyOp0
 70
     1
102
RTVSPropertyOp1
 70
     1
102
RTVSPropertyOp2
 70
     1
102
RTVSPropertyOp3
 70
     1
102
RTVSPropertyOp4
 70
     1
102
RTVSPropertyOp5
 70
     1
102
RTVSPropertyOp6
 70
     1
102
RTVSPropertyOp7
 70
     1
102
RTVSPropertyOp8
 70
     1
102
RTVSPropertyOp9
 70
     1
102
RTVSPropertyOp10
 70
     1
102
RTVSPropertyOp11
 70
     1
102
RTVSPropertyOp12
 70
     1
102
RTVSPropertyOp13
 70
     1
102
RTVSPropertyOp14
 70
     1
102
RTVSPropertyOp15
 70
     1
102
RTVSPropertyOp16
 70
     1
102
RTVSPropertyOp17
 70
     1
102
RTVSPropertyOp18
 70
     1
102
RTVSPropertyOp19
 70
     1
102
RTVSPropertyOp20
 70
     1
102
RTVSPropertyOp21
 70
     1
102
RTVSPropertyOp22
 70
     1
102
RTVSPropertyOp23
 70
     1
102
RTVSPropertyOp24
 70
     1
102
RTVSPropertyOp25
 70
     1
102
RTVSPropertyOp26
 70
     1
102
RTVSPropertyOp27
 70
     1
102
RTVSPropertyOp28
 70
     1
102
RTVSPropertyOp29
 70
     1
102
RTVSPropertyOp30
 70
     1
102
RTVSPropertyOp31
 70
     1
102
RTVSPropertyOp32
 70
     1
102
RTVSPropertyOp33
 70
     1
102
RTVSPropertyOp34
 70
     1
102
RTVSPropertyOp35
 70
     1
102
RTVSPropertyOp36
 70
     1
102
RTVSPropertyOp37
 70
     1
102
RTVSPropertyOp38
 70
     1
102
RTVSPropertyOp39
 70
     1
102
RTVSPropertyOp40
 70
     1
102
RTVSPropertyOp41
 70
     1
102
RTVSPropertyOp42
 70
     1
102
RTVSPropertyOp43
 70
     1
102
RTVSPropertyOp44
 70
     1
102
RTVSPropertyOp45
 70
     1
102
RTVSPropertyOp46
 70
     1
102
RTVSPropertyOp47
 70
     1
102
RTVSPropertyOp48
 70
     1
102
RTVSPropertyOp49
 70
     1
102
RTVSPropertyOp50
 70
     1
102
RTVSPropertyOp51
 70
     0
102
RTVSPropertyOp52
 70
     0
102
RTVSPropertyOp53
 70
     1
102
RTVSPropertyOp54
 70
     1
102
RTVSPropertyOp55
 70
     1
102
RTVSPropertyOp56
 70
     1
102
RTVSPropertyOp57
 70
     1
102
RTVSPropertyOp58
 70
     1
102
RTVSPropertyOp59
 70
     1
102
RTVSPropertyOp60
 70
     1
102
RTVSPropertyOp61
 70
     1
102
RTVSPropertyOp62
 70
     1
  0
XRECORD
  5
F0D1
102
{ACAD_REACTORS
330
F0D0
102
}
330
F0D0
100
AcDbXrecord
280
     1
102
RTVSPost2010Prop28
280
     0
102
RTVSPost2010PropOp28
 70
     1
102
RTVSPost2010Prop29
280
     1
102
RTVSPost2010PropOp29
 70
     1
102
RTVSPost2010Prop30
280
     1
102
RTVSPost2010PropOp30
 70
     1
102
RTVSPost2010Prop31
280
     0
102
RTVSPost2010PropOp31
 70
     1
102
RTVSPost2010Prop32
280
     0
102
RTVSPost2010PropOp32
 70
     1
102
RTVSPost2010Prop33
280
     0
102
RTVSPost2010PropOp33
 70
     1
102
RTVSPost2010Prop34
280
     0
102
RTVSPost2010PropOp34
 70
     1
102
RTVSPost2010Prop35
280
     0
102
RTVSPost2010PropOp35
 70
     1
102
RTVSPost2010Prop36
280
     0
102
RTVSPost2010PropOp36
 70
     1
102
RTVSPost2010Prop37
 90
       50
102
RTVSPost2010PropOp37
 70
     1
102
RTVSPost2010Prop38
140
0.0
102
RTVSPost2010PropOp38
 70
     1
102
RTVSPost2010Prop39
140
1.0
102
RTVSPost2010PropOp39
 70
     1
102
RTVSPost2010Prop40
 90
        0
102
RTVSPost2010PropOp40
 70
     1
102
RTVSPost2010Prop41ColorIndex
 90
       18
102
RTVSPost2010Prop41ColorRGB
 90
        0
102
RTVSPost2010PropOp41
 70
     1
102
RTVSPost2010Prop42
 90
       50
102
RTVSPost2010PropOp42
 70
     1
102
RTVSPost2010Prop43
 90
        3
102
RTVSPost2010PropOp43
 70
     1
102
RTVSPost2010Prop44ColorIndex
 90
        5
102
RTVSPost2010Prop44ColorRGB
 90
      255
102
RTVSPost2010PropOp44
 70
     1
102
RTVSPost2010Prop45
280
     0
102
RTVSPost2010PropOp45
 70
     1
102
RTVSPost2010Prop46
 90
       50
102
RTVSPost2010PropOp46
 70
     1
102
RTVSPost2010Prop47
 90
       50
102
RTVSPost2010PropOp47
 70
     1
102
RTVSPost2010Prop48
 90
       50
102
RTVSPost2010PropOp48
 70
     1
102
RTVSPost2010Prop49
280
     0
102
RTVSPost2010PropOp49
 70
     1
102
RTVSPost2010Prop50
 90
       50
102
RTVSPost2010PropOp50
 70
     1
102
RTVSPost2010Prop51ColorIndex
 90
      256
102
RTVSPost2010Prop51ColorRGB
 90
-16777216
102
RTVSPost2010PropOp51
 70
     0
102
RTVSPost2010Prop52
140
1.0
102
RTVSPost2010PropOp52
 70
     0
102
RTVSPost2010Prop53
 90
        2
102
RTVSPost2010PropOp53
 70
     1
102
RTVSPost2010Prop54
  1
strokes_ogs.tif
102
RTVSPost2010PropOp54
 70
     1
102
RTVSPost2010Prop55
280
     0
102
RTVSPost2010PropOp55
 70
     1
102
RTVSPost2010Prop56
140
1.0
102
RTVSPost2010PropOp56
 70
     1
102
RTVSPost2010Prop57
140
1.0
102
RTVSPost2010PropOp57
 70
     1
102
RTVSPropertyOp0
 70
     1
102
RTVSPropertyOp1
 70
     1
102
RTVSPropertyOp2
 70
     1
102
RTVSPropertyOp3
 70
     1
102
RTVSPropertyOp4
 70
     1
102
RTVSPropertyOp5
 70
     1
102
RTVSPropertyOp6
 70
     1
102
RTVSPropertyOp7
 70
     1
102
RTVSPropertyOp8
 70
     1
102
RTVSPropertyOp9
 70
     1
102
RTVSPropertyOp10
 70
     1
102
RTVSPropertyOp11
 70
     1
102
RTVSPropertyOp12
 70
     1
102
RTVSPropertyOp13
 70
     1
102
RTVSPropertyOp14
 70
     1
102
RTVSPropertyOp15
 70
     1
102
RTVSPropertyOp16
 70
     1
102
RTVSPropertyOp17
 70
     1
102
RTVSPropertyOp18
 70
     1
102
RTVSPropertyOp19
 70
     1
102
RTVSPropertyOp20
 70
     1
102
RTVSPropertyOp21
 70
     1
102
RTVSPropertyOp22
 70
     1
102
RTVSPropertyOp23
 70
     1
102
RTVSPropertyOp24
 70
     1
102
RTVSPropertyOp25
 70
     1
102
RTVSPropertyOp26
 70
     1
102
RTVSPropertyOp27
 70
     1
102
RTVSPropertyOp28
 70
     1
102
RTVSPropertyOp29
 70
     1
102
RTVSPropertyOp30
 70
     1
102
RTVSPropertyOp31
 70
     1
102
RTVSPropertyOp32
 70
     1
102
RTVSPropertyOp33
 70
     1
102
RTVSPropertyOp34
 70
     1
102
RTVSPropertyOp35
 70
     1
102
RTVSPropertyOp36
 70
     1
102
RTVSPropertyOp37
 70
     1
102
RTVSPropertyOp38
 70
     1
102
RTVSPropertyOp39
 70
     1
102
RTVSPropertyOp40
 70
     1
102
RTVSPropertyOp41
 70
     1
102
RTVSPropertyOp42
 70
     1
102
RTVSPropertyOp43
 70
     1
102
RTVSPropertyOp44
 70
     1
102
RTVSPropertyOp45
 70
     1
102
RTVSPropertyOp46
 70
     1
102
RTVSPropertyOp47
 70
     1
102
RTVSPropertyOp48
 70
     1
102
RTVSPropertyOp49
 70
     1
102
RTVSPropertyOp50
 70
     1
102
RTVSPropertyOp51
 70
     0
102
RTVSPropertyOp52
 70
     0
102
RTVSPropertyOp53
 70
     1
102
RTVSPropertyOp54
 70
     1
102
RTVSPropertyOp55
 70
     1
102
RTVSPropertyOp56
 70
     1
102
RTVSPropertyOp57
 70
     1
102
RTVSPropertyOp58
 70
     1
102
RTVSPropertyOp59
 70
     1
102
RTVSPropertyOp60
 70
     1
102
RTVSPropertyOp61
 70
     1
102
RTVSPropertyOp62
 70
     1
  0
XRECORD
  5
F0DF
102
{ACAD_REACTORS
330
F0DE
102
}
330
F0DE
100
AcDbXrecord
280
     1
102
RTVSPost2010Prop28
280
     0
102
RTVSPost2010PropOp28
 70
     1
102
RTVSPost2010Prop29
280
     1
102
RTVSPost2010PropOp29
 70
     1
102
RTVSPost2010Prop30
280
     1
102
RTVSPost2010PropOp30
 70
     1
102
RTVSPost2010Prop31
280
     0
102
RTVSPost2010PropOp31
 70
     1
102
RTVSPost2010Prop32
280
     0
102
RTVSPost2010PropOp32
 70
     1
102
RTVSPost2010Prop33
280
     0
102
RTVSPost2010PropOp33
 70
     1
102
RTVSPost2010Prop34
280
     0
102
RTVSPost2010PropOp34
 70
     1
102
RTVSPost2010Prop35
280
     0
102
RTVSPost2010PropOp35
 70
     1
102
RTVSPost2010Prop36
280
     0
102
RTVSPost2010PropOp36
 70
     1
102
RTVSPost2010Prop37
 90
       50
102
RTVSPost2010PropOp37
 70
     1
102
RTVSPost2010Prop38
140
0.0
102
RTVSPost2010PropOp38
 70
     1
102
RTVSPost2010Prop39
140
1.0
102
RTVSPost2010PropOp39
 70
     1
102
RTVSPost2010Prop40
 90
        0
102
RTVSPost2010PropOp40
 70
     1
102
RTVSPost2010Prop41ColorIndex
 90
       18
102
RTVSPost2010Prop41ColorRGB
 90
        0
102
RTVSPost2010PropOp41
 70
     1
102
RTVSPost2010Prop42
 90
       50
102
RTVSPost2010PropOp42
 70
     1
102
RTVSPost2010Prop43
 90
        3
102
RTVSPost2010PropOp43
 70
     1
102
RTVSPost2010Prop44ColorIndex
 90
        5
102
RTVSPost2010Prop44ColorRGB
 90
      255
102
RTVSPost2010PropOp44
 70
     1
102
RTVSPost2010Prop45
280
     0
102
RTVSPost2010PropOp45
 70
     1
102
RTVSPost2010Prop46
 90
       50
102
RTVSPost2010PropOp46
 70
     1
102
RTVSPost2010Prop47
 90
       50
102
RTVSPost2010PropOp47
 70
     1
102
RTVSPost2010Prop48
 90
       50
102
RTVSPost2010PropOp48
 70
     1
102
RTVSPost2010Prop49
280
     0
102
RTVSPost2010PropOp49
 70
     1
102
RTVSPost2010Prop50
 90
       50
102
RTVSPost2010PropOp50
 70
     1
102
RTVSPost2010Prop51ColorIndex
 90
      256
102
RTVSPost2010Prop51ColorRGB
 90
-16777216
102
RTVSPost2010PropOp51
 70
     0
102
RTVSPost2010Prop52
140
1.0
102
RTVSPost2010PropOp52
 70
     0
102
RTVSPost2010Prop53
 90
        2
102
RTVSPost2010PropOp53
 70
     1
102
RTVSPost2010Prop54
  1
strokes_ogs.tif
102
RTVSPost2010PropOp54
 70
     1
102
RTVSPost2010Prop55
280
     0
102
RTVSPost2010PropOp55
 70
     1
102
RTVSPost2010Prop56
140
1.0
102
RTVSPost2010PropOp56
 70
     1
102
RTVSPost2010Prop57
140
1.0
102
RTVSPost2010PropOp57
 70
     1
102
RTVSPropertyOp0
 70
     1
102
RTVSPropertyOp1
 70
     1
102
RTVSPropertyOp2
 70
     1
102
RTVSPropertyOp3
 70
     1
102
RTVSPropertyOp4
 70
     1
102
RTVSPropertyOp5
 70
     1
102
RTVSPropertyOp6
 70
     1
102
RTVSPropertyOp7
 70
     1
102
RTVSPropertyOp8
 70
     1
102
RTVSPropertyOp9
 70
     1
102
RTVSPropertyOp10
 70
     1
102
RTVSPropertyOp11
 70
     1
102
RTVSPropertyOp12
 70
     1
102
RTVSPropertyOp13
 70
     1
102
RTVSPropertyOp14
 70
     1
102
RTVSPropertyOp15
 70
     1
102
RTVSPropertyOp16
 70
     1
102
RTVSPropertyOp17
 70
     1
102
RTVSPropertyOp18
 70
     1
102
RTVSPropertyOp19
 70
     1
102
RTVSPropertyOp20
 70
     1
102
RTVSPropertyOp21
 70
     1
102
RTVSPropertyOp22
 70
     1
102
RTVSPropertyOp23
 70
     1
102
RTVSPropertyOp24
 70
     1
102
RTVSPropertyOp25
 70
     1
102
RTVSPropertyOp26
 70
     1
102
RTVSPropertyOp27
 70
     1
102
RTVSPropertyOp28
 70
     1
102
RTVSPropertyOp29
 70
     1
102
RTVSPropertyOp30
 70
     1
102
RTVSPropertyOp31
 70
     1
102
RTVSPropertyOp32
 70
     1
102
RTVSPropertyOp33
 70
     1
102
RTVSPropertyOp34
 70
     1
102
RTVSPropertyOp35
 70
     1
102
RTVSPropertyOp36
 70
     1
102
RTVSPropertyOp37
 70
     1
102
RTVSPropertyOp38
 70
     1
102
RTVSPropertyOp39
 70
     1
102
RTVSPropertyOp40
 70
     1
102
RTVSPropertyOp41
 70
     1
102
RTVSPropertyOp42
 70
     1
102
RTVSPropertyOp43
 70
     1
102
RTVSPropertyOp44
 70
     1
102
RTVSPropertyOp45
 70
     1
102
RTVSPropertyOp46
 70
     1
102
RTVSPropertyOp47
 70
     1
102
RTVSPropertyOp48
 70
     1
102
RTVSPropertyOp49
 70
     1
102
RTVSPropertyOp50
 70
     1
102
RTVSPropertyOp51
 70
     0
102
RTVSPropertyOp52
 70
     0
102
RTVSPropertyOp53
 70
     1
102
RTVSPropertyOp54
 70
     1
102
RTVSPropertyOp55
 70
     1
102
RTVSPropertyOp56
 70
     1
102
RTVSPropertyOp57
 70
     1
102
RTVSPropertyOp58
 70
     1
102
RTVSPropertyOp59
 70
     1
102
RTVSPropertyOp60
 70
     1
102
RTVSPropertyOp61
 70
     1
102
RTVSPropertyOp62
 70
     1
  0
XRECORD
  5
F0E7
102
{ACAD_REACTORS
330
F0E6
102
}
330
F0E6
100
AcDbXrecord
280
     1
102
RTVSPost2010Prop28
280
     0
102
RTVSPost2010PropOp28
 70
     1
102
RTVSPost2010Prop29
280
     1
102
RTVSPost2010PropOp29
 70
     1
102
RTVSPost2010Prop30
280
     1
102
RTVSPost2010PropOp30
 70
     1
102
RTVSPost2010Prop31
280
     0
102
RTVSPost2010PropOp31
 70
     1
102
RTVSPost2010Prop32
280
     0
102
RTVSPost2010PropOp32
 70
     1
102
RTVSPost2010Prop33
280
     0
102
RTVSPost2010PropOp33
 70
     1
102
RTVSPost2010Prop34
280
     0
102
RTVSPost2010PropOp34
 70
     1
102
RTVSPost2010Prop35
280
     0
102
RTVSPost2010PropOp35
 70
     1
102
RTVSPost2010Prop36
280
     0
102
RTVSPost2010PropOp36
 70
     1
102
RTVSPost2010Prop37
 90
       50
102
RTVSPost2010PropOp37
 70
     1
102
RTVSPost2010Prop38
140
0.0
102
RTVSPost2010PropOp38
 70
     1
102
RTVSPost2010Prop39
140
1.0
102
RTVSPost2010PropOp39
 70
     1
102
RTVSPost2010Prop40
 90
        0
102
RTVSPost2010PropOp40
 70
     1
102
RTVSPost2010Prop41ColorIndex
 90
       18
102
RTVSPost2010Prop41ColorRGB
 90
        0
102
RTVSPost2010PropOp41
 70
     1
102
RTVSPost2010Prop42
 90
       50
102
RTVSPost2010PropOp42
 70
     1
102
RTVSPost2010Prop43
 90
        3
102
RTVSPost2010PropOp43
 70
     1
102
RTVSPost2010Prop44ColorIndex
 90
        5
102
RTVSPost2010Prop44ColorRGB
 90
      255
102
RTVSPost2010PropOp44
 70
     1
102
RTVSPost2010Prop45
280
     0
102
RTVSPost2010PropOp45
 70
     1
102
RTVSPost2010Prop46
 90
       50
102
RTVSPost2010PropOp46
 70
     1
102
RTVSPost2010Prop47
 90
       50
102
RTVSPost2010PropOp47
 70
     1
102
RTVSPost2010Prop48
 90
       50
102
RTVSPost2010PropOp48
 70
     1
102
RTVSPost2010Prop49
280
     0
102
RTVSPost2010PropOp49
 70
     1
102
RTVSPost2010Prop50
 90
       50
102
RTVSPost2010PropOp50
 70
     1
102
RTVSPost2010Prop51ColorIndex
 90
      256
102
RTVSPost2010Prop51ColorRGB
 90
-16777216
102
RTVSPost2010PropOp51
 70
     0
102
RTVSPost2010Prop52
140
1.0
102
RTVSPost2010PropOp52
 70
     0
102
RTVSPost2010Prop53
 90
        2
102
RTVSPost2010PropOp53
 70
     1
102
RTVSPost2010Prop54
  1
strokes_ogs.tif
102
RTVSPost2010PropOp54
 70
     1
102
RTVSPost2010Prop55
280
     0
102
RTVSPost2010PropOp55
 70
     1
102
RTVSPost2010Prop56
140
1.0
102
RTVSPost2010PropOp56
 70
     1
102
RTVSPost2010Prop57
140
1.0
102
RTVSPost2010PropOp57
 70
     1
102
RTVSPropertyOp0
 70
     1
102
RTVSPropertyOp1
 70
     1
102
RTVSPropertyOp2
 70
     1
102
RTVSPropertyOp3
 70
     1
102
RTVSPropertyOp4
 70
     1
102
RTVSPropertyOp5
 70
     1
102
RTVSPropertyOp6
 70
     1
102
RTVSPropertyOp7
 70
     1
102
RTVSPropertyOp8
 70
     1
102
RTVSPropertyOp9
 70
     1
102
RTVSPropertyOp10
 70
     1
102
RTVSPropertyOp11
 70
     1
102
RTVSPropertyOp12
 70
     1
102
RTVSPropertyOp13
 70
     1
102
RTVSPropertyOp14
 70
     1
102
RTVSPropertyOp15
 70
     1
102
RTVSPropertyOp16
 70
     1
102
RTVSPropertyOp17
 70
     1
102
RTVSPropertyOp18
 70
     1
102
RTVSPropertyOp19
 70
     1
102
RTVSPropertyOp20
 70
     1
102
RTVSPropertyOp21
 70
     1
102
RTVSPropertyOp22
 70
     1
102
RTVSPropertyOp23
 70
     1
102
RTVSPropertyOp24
 70
     1
102
RTVSPropertyOp25
 70
     1
102
RTVSPropertyOp26
 70
     1
102
RTVSPropertyOp27
 70
     1
102
RTVSPropertyOp28
 70
     1
102
RTVSPropertyOp29
 70
     1
102
RTVSPropertyOp30
 70
     1
102
RTVSPropertyOp31
 70
     1
102
RTVSPropertyOp32
 70
     1
102
RTVSPropertyOp33
 70
     1
102
RTVSPropertyOp34
 70
     1
102
RTVSPropertyOp35
 70
     1
102
RTVSPropertyOp36
 70
     1
102
RTVSPropertyOp37
 70
     1
102
RTVSPropertyOp38
 70
     1
102
RTVSPropertyOp39
 70
     1
102
RTVSPropertyOp40
 70
     1
102
RTVSPropertyOp41
 70
     1
102
RTVSPropertyOp42
 70
     1
102
RTVSPropertyOp43
 70
     1
102
RTVSPropertyOp44
 70
     1
102
RTVSPropertyOp45
 70
     1
102
RTVSPropertyOp46
 70
     1
102
RTVSPropertyOp47
 70
     1
102
RTVSPropertyOp48
 70
     1
102
RTVSPropertyOp49
 70
     1
102
RTVSPropertyOp50
 70
     1
102
RTVSPropertyOp51
 70
     0
102
RTVSPropertyOp52
 70
     0
102
RTVSPropertyOp53
 70
     1
102
RTVSPropertyOp54
 70
     1
102
RTVSPropertyOp55
 70
     1
102
RTVSPropertyOp56
 70
     1
102
RTVSPropertyOp57
 70
     1
102
RTVSPropertyOp58
 70
     1
102
RTVSPropertyOp59
 70
     1
102
RTVSPropertyOp60
 70
     1
102
RTVSPropertyOp61
 70
     1
102
RTVSPropertyOp62
 70
     1
  0
XRECORD
  5
F0D9
102
{ACAD_REACTORS
330
F0D8
102
}
330
F0D8
100
AcDbXrecord
280
     1
102
RTVSPost2010Prop28
280
     0
102
RTVSPost2010PropOp28
 70
     1
102
RTVSPost2010Prop29
280
     1
102
RTVSPost2010PropOp29
 70
     1
102
RTVSPost2010Prop30
280
     1
102
RTVSPost2010PropOp30
 70
     1
102
RTVSPost2010Prop31
280
     0
102
RTVSPost2010PropOp31
 70
     1
102
RTVSPost2010Prop32
280
     0
102
RTVSPost2010PropOp32
 70
     1
102
RTVSPost2010Prop33
280
     0
102
RTVSPost2010PropOp33
 70
     1
102
RTVSPost2010Prop34
280
     0
102
RTVSPost2010PropOp34
 70
     1
102
RTVSPost2010Prop35
280
     0
102
RTVSPost2010PropOp35
 70
     1
102
RTVSPost2010Prop36
280
     0
102
RTVSPost2010PropOp36
 70
     1
102
RTVSPost2010Prop37
 90
       50
102
RTVSPost2010PropOp37
 70
     1
102
RTVSPost2010Prop38
140
0.0
102
RTVSPost2010PropOp38
 70
     1
102
RTVSPost2010Prop39
140
1.0
102
RTVSPost2010PropOp39
 70
     1
102
RTVSPost2010Prop40
 90
        0
102
RTVSPost2010PropOp40
 70
     1
102
RTVSPost2010Prop41ColorIndex
 90
       18
102
RTVSPost2010Prop41ColorRGB
 90
        0
102
RTVSPost2010PropOp41
 70
     1
102
RTVSPost2010Prop42
 90
       50
102
RTVSPost2010PropOp42
 70
     1
102
RTVSPost2010Prop43
 90
        3
102
RTVSPost2010PropOp43
 70
     1
102
RTVSPost2010Prop44ColorIndex
 90
        5
102
RTVSPost2010Prop44ColorRGB
 90
      255
102
RTVSPost2010PropOp44
 70
     1
102
RTVSPost2010Prop45
280
     0
102
RTVSPost2010PropOp45
 70
     1
102
RTVSPost2010Prop46
 90
       50
102
RTVSPost2010PropOp46
 70
     1
102
RTVSPost2010Prop47
 90
       50
102
RTVSPost2010PropOp47
 70
     1
102
RTVSPost2010Prop48
 90
       50
102
RTVSPost2010PropOp48
 70
     1
102
RTVSPost2010Prop49
280
     0
102
RTVSPost2010PropOp49
 70
     1
102
RTVSPost2010Prop50
 90
       50
102
RTVSPost2010PropOp50
 70
     1
102
RTVSPost2010Prop51ColorIndex
 90
      256
102
RTVSPost2010Prop51ColorRGB
 90
-16777216
102
RTVSPost2010PropOp51
 70
     0
102
RTVSPost2010Prop52
140
1.0
102
RTVSPost2010PropOp52
 70
     0
102
RTVSPost2010Prop53
 90
        2
102
RTVSPost2010PropOp53
 70
     1
102
RTVSPost2010Prop54
  1
strokes_ogs.tif
102
RTVSPost2010PropOp54
 70
     1
102
RTVSPost2010Prop55
280
     0
102
RTVSPost2010PropOp55
 70
     1
102
RTVSPost2010Prop56
140
1.0
102
RTVSPost2010PropOp56
 70
     1
102
RTVSPost2010Prop57
140
1.0
102
RTVSPost2010PropOp57
 70
     1
102
RTVSPropertyOp0
 70
     1
102
RTVSPropertyOp1
 70
     1
102
RTVSPropertyOp2
 70
     1
102
RTVSPropertyOp3
 70
     1
102
RTVSPropertyOp4
 70
     1
102
RTVSPropertyOp5
 70
     1
102
RTVSPropertyOp6
 70
     1
102
RTVSPropertyOp7
 70
     1
102
RTVSPropertyOp8
 70
     1
102
RTVSPropertyOp9
 70
     1
102
RTVSPropertyOp10
 70
     1
102
RTVSPropertyOp11
 70
     1
102
RTVSPropertyOp12
 70
     1
102
RTVSPropertyOp13
 70
     1
102
RTVSPropertyOp14
 70
     1
102
RTVSPropertyOp15
 70
     1
102
RTVSPropertyOp16
 70
     1
102
RTVSPropertyOp17
 70
     1
102
RTVSPropertyOp18
 70
     1
102
RTVSPropertyOp19
 70
     1
102
RTVSPropertyOp20
 70
     1
102
RTVSPropertyOp21
 70
     1
102
RTVSPropertyOp22
 70
     1
102
RTVSPropertyOp23
 70
     1
102
RTVSPropertyOp24
 70
     1
102
RTVSPropertyOp25
 70
     1
102
RTVSPropertyOp26
 70
     1
102
RTVSPropertyOp27
 70
     1
102
RTVSPropertyOp28
 70
     1
102
RTVSPropertyOp29
 70
     1
102
RTVSPropertyOp30
 70
     1
102
RTVSPropertyOp31
 70
     1
102
RTVSPropertyOp32
 70
     1
102
RTVSPropertyOp33
 70
     1
102
RTVSPropertyOp34
 70
     1
102
RTVSPropertyOp35
 70
     1
102
RTVSPropertyOp36
 70
     1
102
RTVSPropertyOp37
 70
     1
102
RTVSPropertyOp38
 70
     1
102
RTVSPropertyOp39
 70
     1
102
RTVSPropertyOp40
 70
     1
102
RTVSPropertyOp41
 70
     1
102
RTVSPropertyOp42
 70
     1
102
RTVSPropertyOp43
 70
     1
102
RTVSPropertyOp44
 70
     1
102
RTVSPropertyOp45
 70
     1
102
RTVSPropertyOp46
 70
     1
102
RTVSPropertyOp47
 70
     1
102
RTVSPropertyOp48
 70
     1
102
RTVSPropertyOp49
 70
     1
102
RTVSPropertyOp50
 70
     1
102
RTVSPropertyOp51
 70
     0
102
RTVSPropertyOp52
 70
     0
102
RTVSPropertyOp53
 70
     1
102
RTVSPropertyOp54
 70
     1
102
RTVSPropertyOp55
 70
     1
102
RTVSPropertyOp56
 70
     1
102
RTVSPropertyOp57
 70
     1
102
RTVSPropertyOp58
 70
     1
102
RTVSPropertyOp59
 70
     1
102
RTVSPropertyOp60
 70
     1
102
RTVSPropertyOp61
 70
     1
102
RTVSPropertyOp62
 70
     1
  0
XRECORD
  5
F0DD
102
{ACAD_REACTORS
330
F0DC
102
}
330
F0DC
100
AcDbXrecord
280
     1
102
RTVSPost2010Prop28
280
     0
102
RTVSPost2010PropOp28
 70
     1
102
RTVSPost2010Prop29
280
     1
102
RTVSPost2010PropOp29
 70
     1
102
RTVSPost2010Prop30
280
     1
102
RTVSPost2010PropOp30
 70
     1
102
RTVSPost2010Prop31
280
     0
102
RTVSPost2010PropOp31
 70
     1
102
RTVSPost2010Prop32
280
     0
102
RTVSPost2010PropOp32
 70
     1
102
RTVSPost2010Prop33
280
     0
102
RTVSPost2010PropOp33
 70
     1
102
RTVSPost2010Prop34
280
     0
102
RTVSPost2010PropOp34
 70
     1
102
RTVSPost2010Prop35
280
     0
102
RTVSPost2010PropOp35
 70
     1
102
RTVSPost2010Prop36
280
     0
102
RTVSPost2010PropOp36
 70
     1
102
RTVSPost2010Prop37
 90
       50
102
RTVSPost2010PropOp37
 70
     1
102
RTVSPost2010Prop38
140
0.0
102
RTVSPost2010PropOp38
 70
     1
102
RTVSPost2010Prop39
140
1.0
102
RTVSPost2010PropOp39
 70
     1
102
RTVSPost2010Prop40
 90
        0
102
RTVSPost2010PropOp40
 70
     1
102
RTVSPost2010Prop41ColorIndex
 90
       18
102
RTVSPost2010Prop41ColorRGB
 90
        0
102
RTVSPost2010PropOp41
 70
     1
102
RTVSPost2010Prop42
 90
       50
102
RTVSPost2010PropOp42
 70
     1
102
RTVSPost2010Prop43
 90
        3
102
RTVSPost2010PropOp43
 70
     1
102
RTVSPost2010Prop44ColorIndex
 90
        5
102
RTVSPost2010Prop44ColorRGB
 90
      255
102
RTVSPost2010PropOp44
 70
     1
102
RTVSPost2010Prop45
280
     0
102
RTVSPost2010PropOp45
 70
     1
102
RTVSPost2010Prop46
 90
       50
102
RTVSPost2010PropOp46
 70
     1
102
RTVSPost2010Prop47
 90
       50
102
RTVSPost2010PropOp47
 70
     1
102
RTVSPost2010Prop48
 90
       50
102
RTVSPost2010PropOp48
 70
     1
102
RTVSPost2010Prop49
280
     0
102
RTVSPost2010PropOp49
 70
     1
102
RTVSPost2010Prop50
 90
       50
102
RTVSPost2010PropOp50
 70
     1
102
RTVSPost2010Prop51ColorIndex
 90
      256
102
RTVSPost2010Prop51ColorRGB
 90
-16777216
102
RTVSPost2010PropOp51
 70
     0
102
RTVSPost2010Prop52
140
1.0
102
RTVSPost2010PropOp52
 70
     0
102
RTVSPost2010Prop53
 90
        2
102
RTVSPost2010PropOp53
 70
     1
102
RTVSPost2010Prop54
  1
strokes_ogs.tif
102
RTVSPost2010PropOp54
 70
     1
102
RTVSPost2010Prop55
280
     0
102
RTVSPost2010PropOp55
 70
     1
102
RTVSPost2010Prop56
140
1.0
102
RTVSPost2010PropOp56
 70
     1
102
RTVSPost2010Prop57
140
1.0
102
RTVSPost2010PropOp57
 70
     1
102
RTVSPropertyOp0
 70
     1
102
RTVSPropertyOp1
 70
     1
102
RTVSPropertyOp2
 70
     1
102
RTVSPropertyOp3
 70
     1
102
RTVSPropertyOp4
 70
     1
102
RTVSPropertyOp5
 70
     1
102
RTVSPropertyOp6
 70
     1
102
RTVSPropertyOp7
 70
     1
102
RTVSPropertyOp8
 70
     1
102
RTVSPropertyOp9
 70
     1
102
RTVSPropertyOp10
 70
     1
102
RTVSPropertyOp11
 70
     1
102
RTVSPropertyOp12
 70
     1
102
RTVSPropertyOp13
 70
     1
102
RTVSPropertyOp14
 70
     1
102
RTVSPropertyOp15
 70
     1
102
RTVSPropertyOp16
 70
     1
102
RTVSPropertyOp17
 70
     1
102
RTVSPropertyOp18
 70
     1
102
RTVSPropertyOp19
 70
     1
102
RTVSPropertyOp20
 70
     1
102
RTVSPropertyOp21
 70
     1
102
RTVSPropertyOp22
 70
     1
102
RTVSPropertyOp23
 70
     1
102
RTVSPropertyOp24
 70
     1
102
RTVSPropertyOp25
 70
     1
102
RTVSPropertyOp26
 70
     1
102
RTVSPropertyOp27
 70
     1
102
RTVSPropertyOp28
 70
     1
102
RTVSPropertyOp29
 70
     1
102
RTVSPropertyOp30
 70
     1
102
RTVSPropertyOp31
 70
     1
102
RTVSPropertyOp32
 70
     1
102
RTVSPropertyOp33
 70
     1
102
RTVSPropertyOp34
 70
     1
102
RTVSPropertyOp35
 70
     1
102
RTVSPropertyOp36
 70
     1
102
RTVSPropertyOp37
 70
     1
102
RTVSPropertyOp38
 70
     1
102
RTVSPropertyOp39
 70
     1
102
RTVSPropertyOp40
 70
     1
102
RTVSPropertyOp41
 70
     1
102
RTVSPropertyOp42
 70
     1
102
RTVSPropertyOp43
 70
     1
102
RTVSPropertyOp44
 70
     1
102
RTVSPropertyOp45
 70
     1
102
RTVSPropertyOp46
 70
     1
102
RTVSPropertyOp47
 70
     1
102
RTVSPropertyOp48
 70
     1
102
RTVSPropertyOp49
 70
     1
102
RTVSPropertyOp50
 70
     1
102
RTVSPropertyOp51
 70
     0
102
RTVSPropertyOp52
 70
     0
102
RTVSPropertyOp53
 70
     1
102
RTVSPropertyOp54
 70
     1
102
RTVSPropertyOp55
 70
     1
102
RTVSPropertyOp56
 70
     1
102
RTVSPropertyOp57
 70
     1
102
RTVSPropertyOp58
 70
     1
102
RTVSPropertyOp59
 70
     1
102
RTVSPropertyOp60
 70
     1
102
RTVSPropertyOp61
 70
     1
102
RTVSPropertyOp62
 70
     1
  0
XRECORD
  5
F0EF
102
{ACAD_REACTORS
330
F0EE
102
}
330
F0EE
100
AcDbXrecord
280
     1
102
RTVSPost2010Prop28
280
     0
102
RTVSPost2010PropOp28
 70
     1
102
RTVSPost2010Prop29
280
     1
102
RTVSPost2010PropOp29
 70
     1
102
RTVSPost2010Prop30
280
     1
102
RTVSPost2010PropOp30
 70
     1
102
RTVSPost2010Prop31
280
     0
102
RTVSPost2010PropOp31
 70
     1
102
RTVSPost2010Prop32
280
     0
102
RTVSPost2010PropOp32
 70
     1
102
RTVSPost2010Prop33
280
     0
102
RTVSPost2010PropOp33
 70
     1
102
RTVSPost2010Prop34
280
     0
102
RTVSPost2010PropOp34
 70
     1
102
RTVSPost2010Prop35
280
     0
102
RTVSPost2010PropOp35
 70
     1
102
RTVSPost2010Prop36
280
     0
102
RTVSPost2010PropOp36
 70
     1
102
RTVSPost2010Prop37
 90
       50
102
RTVSPost2010PropOp37
 70
     1
102
RTVSPost2010Prop38
140
0.0
102
RTVSPost2010PropOp38
 70
     1
102
RTVSPost2010Prop39
140
1.0
102
RTVSPost2010PropOp39
 70
     1
102
RTVSPost2010Prop40
 90
        0
102
RTVSPost2010PropOp40
 70
     1
102
RTVSPost2010Prop41ColorIndex
 90
       18
102
RTVSPost2010Prop41ColorRGB
 90
        0
102
RTVSPost2010PropOp41
 70
     1
102
RTVSPost2010Prop42
 90
       50
102
RTVSPost2010PropOp42
 70
     1
102
RTVSPost2010Prop43
 90
        3
102
RTVSPost2010PropOp43
 70
     1
102
RTVSPost2010Prop44ColorIndex
 90
        5
102
RTVSPost2010Prop44ColorRGB
 90
      255
102
RTVSPost2010PropOp44
 70
     1
102
RTVSPost2010Prop45
280
     0
102
RTVSPost2010PropOp45
 70
     1
102
RTVSPost2010Prop46
 90
       50
102
RTVSPost2010PropOp46
 70
     1
102
RTVSPost2010Prop47
 90
       50
102
RTVSPost2010PropOp47
 70
     1
102
RTVSPost2010Prop48
 90
       50
102
RTVSPost2010PropOp48
 70
     1
102
RTVSPost2010Prop49
280
     0
102
RTVSPost2010PropOp49
 70
     1
102
RTVSPost2010Prop50
 90
       50
102
RTVSPost2010PropOp50
 70
     1
102
RTVSPost2010Prop51ColorIndex
 90
      256
102
RTVSPost2010Prop51ColorRGB
 90
-16777216
102
RTVSPost2010PropOp51
 70
     0
102
RTVSPost2010Prop52
140
1.0
102
RTVSPost2010PropOp52
 70
     0
102
RTVSPost2010Prop53
 90
        2
102
RTVSPost2010PropOp53
 70
     1
102
RTVSPost2010Prop54
  1
strokes_ogs.tif
102
RTVSPost2010PropOp54
 70
     1
102
RTVSPost2010Prop55
280
     0
102
RTVSPost2010PropOp55
 70
     1
102
RTVSPost2010Prop56
140
1.0
102
RTVSPost2010PropOp56
 70
     1
102
RTVSPost2010Prop57
140
1.0
102
RTVSPost2010PropOp57
 70
     1
102
RTVSPropertyOp0
 70
     0
102
RTVSPropertyOp1
 70
     0
102
RTVSPropertyOp2
 70
     0
102
RTVSPropertyOp3
 70
     0
102
RTVSPropertyOp4
 70
     0
102
RTVSPropertyOp5
 70
     0
102
RTVSPropertyOp6
 70
     0
102
RTVSPropertyOp7
 70
     0
102
RTVSPropertyOp8
 70
     0
102
RTVSPropertyOp9
 70
     0
102
RTVSPropertyOp10
 70
     0
102
RTVSPropertyOp11
 70
     0
102
RTVSPropertyOp12
 70
     0
102
RTVSPropertyOp13
 70
     0
102
RTVSPropertyOp14
 70
     2
102
RTVSPropertyOp15
 70
     0
102
RTVSPropertyOp16
 70
     0
102
RTVSPropertyOp17
 70
     0
102
RTVSPropertyOp18
 70
     0
102
RTVSPropertyOp19
 70
     0
102
RTVSPropertyOp20
 70
     0
102
RTVSPropertyOp21
 70
     0
102
RTVSPropertyOp22
 70
     0
102
RTVSPropertyOp23
 70
     0
102
RTVSPropertyOp24
 70
     0
102
RTVSPropertyOp25
 70
     0
102
RTVSPropertyOp26
 70
     0
102
RTVSPropertyOp27
 70
     0
102
RTVSPropertyOp28
 70
     1
102
RTVSPropertyOp29
 70
     1
102
RTVSPropertyOp30
 70
     1
102
RTVSPropertyOp31
 70
     1
102
RTVSPropertyOp32
 70
     1
102
RTVSPropertyOp33
 70
     1
102
RTVSPropertyOp34
 70
     1
102
RTVSPropertyOp35
 70
     1
102
RTVSPropertyOp36
 70
     1
102
RTVSPropertyOp37
 70
     1
102
RTVSPropertyOp38
 70
     1
102
RTVSPropertyOp39
 70
     1
102
RTVSPropertyOp40
 70
     1
102
RTVSPropertyOp41
 70
     1
102
RTVSPropertyOp42
 70
     1
102
RTVSPropertyOp43
 70
     1
102
RTVSPropertyOp44
 70
     1
102
RTVSPropertyOp45
 70
     1
102
RTVSPropertyOp46
 70
     1
102
RTVSPropertyOp47
 70
     1
102
RTVSPropertyOp48
 70
     1
102
RTVSPropertyOp49
 70
     1
102
RTVSPropertyOp50
 70
     1
102
RTVSPropertyOp51
 70
     0
102
RTVSPropertyOp52
 70
     0
102
RTVSPropertyOp53
 70
     1
102
RTVSPropertyOp54
 70
     1
102
RTVSPropertyOp55
 70
     1
102
RTVSPropertyOp56
 70
     1
102
RTVSPropertyOp57
 70
     1
102
RTVSPropertyOp58
 70
     1
102
RTVSPropertyOp59
 70
     1
102
RTVSPropertyOp60
 70
     1
102
RTVSPropertyOp61
 70
     1
102
RTVSPropertyOp62
 70
     1
  0
XRECORD
  5
F0E5
102
{ACAD_REACTORS
330
F0E4
102
}
330
F0E4
100
AcDbXrecord
280
     1
102
RTVSPost2010Prop28
280
     0
102
RTVSPost2010PropOp28
 70
     1
102
RTVSPost2010Prop29
280
     1
102
RTVSPost2010PropOp29
 70
     1
102
RTVSPost2010Prop30
280
     1
102
RTVSPost2010PropOp30
 70
     1
102
RTVSPost2010Prop31
280
     0
102
RTVSPost2010PropOp31
 70
     1
102
RTVSPost2010Prop32
280
     0
102
RTVSPost2010PropOp32
 70
     1
102
RTVSPost2010Prop33
280
     0
102
RTVSPost2010PropOp33
 70
     1
102
RTVSPost2010Prop34
280
     0
102
RTVSPost2010PropOp34
 70
     1
102
RTVSPost2010Prop35
280
     0
102
RTVSPost2010PropOp35
 70
     1
102
RTVSPost2010Prop36
280
     0
102
RTVSPost2010PropOp36
 70
     1
102
RTVSPost2010Prop37
 90
       50
102
RTVSPost2010PropOp37
 70
     1
102
RTVSPost2010Prop38
140
0.0
102
RTVSPost2010PropOp38
 70
     1
102
RTVSPost2010Prop39
140
1.0
102
RTVSPost2010PropOp39
 70
     1
102
RTVSPost2010Prop40
 90
        0
102
RTVSPost2010PropOp40
 70
     1
102
RTVSPost2010Prop41ColorIndex
 90
       18
102
RTVSPost2010Prop41ColorRGB
 90
        0
102
RTVSPost2010PropOp41
 70
     1
102
RTVSPost2010Prop42
 90
       50
102
RTVSPost2010PropOp42
 70
     1
102
RTVSPost2010Prop43
 90
        3
102
RTVSPost2010PropOp43
 70
     1
102
RTVSPost2010Prop44ColorIndex
 90
        5
102
RTVSPost2010Prop44ColorRGB
 90
      255
102
RTVSPost2010PropOp44
 70
     1
102
RTVSPost2010Prop45
280
     0
102
RTVSPost2010PropOp45
 70
     1
102
RTVSPost2010Prop46
 90
       50
102
RTVSPost2010PropOp46
 70
     1
102
RTVSPost2010Prop47
 90
       50
102
RTVSPost2010PropOp47
 70
     1
102
RTVSPost2010Prop48
 90
       50
102
RTVSPost2010PropOp48
 70
     1
102
RTVSPost2010Prop49
280
     0
102
RTVSPost2010PropOp49
 70
     1
102
RTVSPost2010Prop50
 90
       50
102
RTVSPost2010PropOp50
 70
     1
102
RTVSPost2010Prop51ColorIndex
 90
      256
102
RTVSPost2010Prop51ColorRGB
 90
-16777216
102
RTVSPost2010PropOp51
 70
     0
102
RTVSPost2010Prop52
140
1.0
102
RTVSPost2010PropOp52
 70
     0
102
RTVSPost2010Prop53
 90
        2
102
RTVSPost2010PropOp53
 70
     1
102
RTVSPost2010Prop54
  1
strokes_ogs.tif
102
RTVSPost2010PropOp54
 70
     1
102
RTVSPost2010Prop55
280
     0
102
RTVSPost2010PropOp55
 70
     1
102
RTVSPost2010Prop56
140
1.0
102
RTVSPost2010PropOp56
 70
     1
102
RTVSPost2010Prop57
140
1.0
102
RTVSPost2010PropOp57
 70
     1
102
RTVSPropertyOp0
 70
     1
102
RTVSPropertyOp1
 70
     1
102
RTVSPropertyOp2
 70
     1
102
RTVSPropertyOp3
 70
     1
102
RTVSPropertyOp4
 70
     1
102
RTVSPropertyOp5
 70
     1
102
RTVSPropertyOp6
 70
     1
102
RTVSPropertyOp7
 70
     1
102
RTVSPropertyOp8
 70
     1
102
RTVSPropertyOp9
 70
     1
102
RTVSPropertyOp10
 70
     1
102
RTVSPropertyOp11
 70
     1
102
RTVSPropertyOp12
 70
     1
102
RTVSPropertyOp13
 70
     1
102
RTVSPropertyOp14
 70
     1
102
RTVSPropertyOp15
 70
     1
102
RTVSPropertyOp16
 70
     1
102
RTVSPropertyOp17
 70
     1
102
RTVSPropertyOp18
 70
     1
102
RTVSPropertyOp19
 70
     1
102
RTVSPropertyOp20
 70
     1
102
RTVSPropertyOp21
 70
     1
102
RTVSPropertyOp22
 70
     1
102
RTVSPropertyOp23
 70
     1
102
RTVSPropertyOp24
 70
     1
102
RTVSPropertyOp25
 70
     1
102
RTVSPropertyOp26
 70
     1
102
RTVSPropertyOp27
 70
     1
102
RTVSPropertyOp28
 70
     1
102
RTVSPropertyOp29
 70
     1
102
RTVSPropertyOp30
 70
     1
102
RTVSPropertyOp31
 70
     1
102
RTVSPropertyOp32
 70
     1
102
RTVSPropertyOp33
 70
     1
102
RTVSPropertyOp34
 70
     1
102
RTVSPropertyOp35
 70
     1
102
RTVSPropertyOp36
 70
     1
102
RTVSPropertyOp37
 70
     1
102
RTVSPropertyOp38
 70
     1
102
RTVSPropertyOp39
 70
     1
102
RTVSPropertyOp40
 70
     1
102
RTVSPropertyOp41
 70
     1
102
RTVSPropertyOp42
 70
     1
102
RTVSPropertyOp43
 70
     1
102
RTVSPropertyOp44
 70
     1
102
RTVSPropertyOp45
 70
     1
102
RTVSPropertyOp46
 70
     1
102
RTVSPropertyOp47
 70
     1
102
RTVSPropertyOp48
 70
     1
102
RTVSPropertyOp49
 70
     1
102
RTVSPropertyOp50
 70
     1
102
RTVSPropertyOp51
 70
     0
102
RTVSPropertyOp52
 70
     0
102
RTVSPropertyOp53
 70
     1
102
RTVSPropertyOp54
 70
     1
102
RTVSPropertyOp55
 70
     1
102
RTVSPropertyOp56
 70
     1
102
RTVSPropertyOp57
 70
     1
102
RTVSPropertyOp58
 70
     1
102
RTVSPropertyOp59
 70
     1
102
RTVSPropertyOp60
 70
     1
102
RTVSPropertyOp61
 70
     1
102
RTVSPropertyOp62
 70
     1
  0
XRECORD
  5
F0C9
102
{ACAD_REACTORS
330
F0C8
102
}
330
F0C8
100
AcDbXrecord
280
     1
102
RTVSPost2010Prop28
280
     0
102
RTVSPost2010PropOp28
 70
     1
102
RTVSPost2010Prop29
280
     1
102
RTVSPost2010PropOp29
 70
     1
102
RTVSPost2010Prop30
280
     1
102
RTVSPost2010PropOp30
 70
     1
102
RTVSPost2010Prop31
280
     0
102
RTVSPost2010PropOp31
 70
     1
102
RTVSPost2010Prop32
280
     0
102
RTVSPost2010PropOp32
 70
     1
102
RTVSPost2010Prop33
280
     0
102
RTVSPost2010PropOp33
 70
     1
102
RTVSPost2010Prop34
280
     0
102
RTVSPost2010PropOp34
 70
     1
102
RTVSPost2010Prop35
280
     0
102
RTVSPost2010PropOp35
 70
     1
102
RTVSPost2010Prop36
280
     0
102
RTVSPost2010PropOp36
 70
     1
102
RTVSPost2010Prop37
 90
       50
102
RTVSPost2010PropOp37
 70
     1
102
RTVSPost2010Prop38
140
0.0
102
RTVSPost2010PropOp38
 70
     1
102
RTVSPost2010Prop39
140
1.0
102
RTVSPost2010PropOp39
 70
     1
102
RTVSPost2010Prop40
 90
        0
102
RTVSPost2010PropOp40
 70
     1
102
RTVSPost2010Prop41ColorIndex
 90
       18
102
RTVSPost2010Prop41ColorRGB
 90
        0
102
RTVSPost2010PropOp41
 70
     1
102
RTVSPost2010Prop42
 90
       50
102
RTVSPost2010PropOp42
 70
     1
102
RTVSPost2010Prop43
 90
        3
102
RTVSPost2010PropOp43
 70
     1
102
RTVSPost2010Prop44ColorIndex
 90
        5
102
RTVSPost2010Prop44ColorRGB
 90
      255
102
RTVSPost2010PropOp44
 70
     1
102
RTVSPost2010Prop45
280
     0
102
RTVSPost2010PropOp45
 70
     1
102
RTVSPost2010Prop46
 90
       50
102
RTVSPost2010PropOp46
 70
     1
102
RTVSPost2010Prop47
 90
       50
102
RTVSPost2010PropOp47
 70
     1
102
RTVSPost2010Prop48
 90
       50
102
RTVSPost2010PropOp48
 70
     1
102
RTVSPost2010Prop49
280
     0
102
RTVSPost2010PropOp49
 70
     1
102
RTVSPost2010Prop50
 90
       50
102
RTVSPost2010PropOp50
 70
     1
102
RTVSPost2010Prop51ColorIndex
 90
      256
102
RTVSPost2010Prop51ColorRGB
 90
-16777216
102
RTVSPost2010PropOp51
 70
     0
102
RTVSPost2010Prop52
140
1.0
102
RTVSPost2010PropOp52
 70
     0
102
RTVSPost2010Prop53
 90
        2
102
RTVSPost2010PropOp53
 70
     1
102
RTVSPost2010Prop54
  1
strokes_ogs.tif
102
RTVSPost2010PropOp54
 70
     1
102
RTVSPost2010Prop55
280
     0
102
RTVSPost2010PropOp55
 70
     1
102
RTVSPost2010Prop56
140
1.0
102
RTVSPost2010PropOp56
 70
     1
102
RTVSPost2010Prop57
140
1.0
102
RTVSPost2010PropOp57
 70
     1
102
RTVSPropertyOp0
 70
     1
102
RTVSPropertyOp1
 70
     1
102
RTVSPropertyOp2
 70
     1
102
RTVSPropertyOp3
 70
     1
102
RTVSPropertyOp4
 70
     1
102
RTVSPropertyOp5
 70
     1
102
RTVSPropertyOp6
 70
     1
102
RTVSPropertyOp7
 70
     1
102
RTVSPropertyOp8
 70
     1
102
RTVSPropertyOp9
 70
     1
102
RTVSPropertyOp10
 70
     1
102
RTVSPropertyOp11
 70
     1
102
RTVSPropertyOp12
 70
     1
102
RTVSPropertyOp13
 70
     1
102
RTVSPropertyOp14
 70
     1
102
RTVSPropertyOp15
 70
     1
102
RTVSPropertyOp16
 70
     1
102
RTVSPropertyOp17
 70
     1
102
RTVSPropertyOp18
 70
     1
102
RTVSPropertyOp19
 70
     1
102
RTVSPropertyOp20
 70
     1
102
RTVSPropertyOp21
 70
     1
102
RTVSPropertyOp22
 70
     1
102
RTVSPropertyOp23
 70
     1
102
RTVSPropertyOp24
 70
     1
102
RTVSPropertyOp25
 70
     1
102
RTVSPropertyOp26
 70
     1
102
RTVSPropertyOp27
 70
     1
102
RTVSPropertyOp28
 70
     1
102
RTVSPropertyOp29
 70
     1
102
RTVSPropertyOp30
 70
     1
102
RTVSPropertyOp31
 70
     1
102
RTVSPropertyOp32
 70
     1
102
RTVSPropertyOp33
 70
     1
102
RTVSPropertyOp34
 70
     1
102
RTVSPropertyOp35
 70
     1
102
RTVSPropertyOp36
 70
     1
102
RTVSPropertyOp37
 70
     1
102
RTVSPropertyOp38
 70
     1
102
RTVSPropertyOp39
 70
     1
102
RTVSPropertyOp40
 70
     1
102
RTVSPropertyOp41
 70
     1
102
RTVSPropertyOp42
 70
     1
102
RTVSPropertyOp43
 70
     1
102
RTVSPropertyOp44
 70
     1
102
RTVSPropertyOp45
 70
     1
102
RTVSPropertyOp46
 70
     1
102
RTVSPropertyOp47
 70
     1
102
RTVSPropertyOp48
 70
     1
102
RTVSPropertyOp49
 70
     1
102
RTVSPropertyOp50
 70
     1
102
RTVSPropertyOp51
 70
     0
102
RTVSPropertyOp52
 70
     0
102
RTVSPropertyOp53
 70
     1
102
RTVSPropertyOp54
 70
     1
102
RTVSPropertyOp55
 70
     1
102
RTVSPropertyOp56
 70
     1
102
RTVSPropertyOp57
 70
     1
102
RTVSPropertyOp58
 70
     1
102
RTVSPropertyOp59
 70
     1
102
RTVSPropertyOp60
 70
     1
102
RTVSPropertyOp61
 70
     1
102
RTVSPropertyOp62
 70
     1
  0
XRECORD
  5
F0CB
102
{ACAD_REACTORS
330
F0CA
102
}
330
F0CA
100
AcDbXrecord
280
     1
102
RTVSPost2010Prop28
280
     0
102
RTVSPost2010PropOp28
 70
     1
102
RTVSPost2010Prop29
280
     1
102
RTVSPost2010PropOp29
 70
     1
102
RTVSPost2010Prop30
280
     1
102
RTVSPost2010PropOp30
 70
     1
102
RTVSPost2010Prop31
280
     0
102
RTVSPost2010PropOp31
 70
     1
102
RTVSPost2010Prop32
280
     0
102
RTVSPost2010PropOp32
 70
     1
102
RTVSPost2010Prop33
280
     0
102
RTVSPost2010PropOp33
 70
     1
102
RTVSPost2010Prop34
280
     0
102
RTVSPost2010PropOp34
 70
     1
102
RTVSPost2010Prop35
280
     0
102
RTVSPost2010PropOp35
 70
     1
102
RTVSPost2010Prop36
280
     0
102
RTVSPost2010PropOp36
 70
     1
102
RTVSPost2010Prop37
 90
       50
102
RTVSPost2010PropOp37
 70
     1
102
RTVSPost2010Prop38
140
0.0
102
RTVSPost2010PropOp38
 70
     1
102
RTVSPost2010Prop39
140
1.0
102
RTVSPost2010PropOp39
 70
     1
102
RTVSPost2010Prop40
 90
        0
102
RTVSPost2010PropOp40
 70
     1
102
RTVSPost2010Prop41ColorIndex
 90
       18
102
RTVSPost2010Prop41ColorRGB
 90
        0
102
RTVSPost2010PropOp41
 70
     1
102
RTVSPost2010Prop42
 90
       50
102
RTVSPost2010PropOp42
 70
     1
102
RTVSPost2010Prop43
 90
        3
102
RTVSPost2010PropOp43
 70
     1
102
RTVSPost2010Prop44ColorIndex
 90
        5
102
RTVSPost2010Prop44ColorRGB
 90
      255
102
RTVSPost2010PropOp44
 70
     1
102
RTVSPost2010Prop45
280
     0
102
RTVSPost2010PropOp45
 70
     1
102
RTVSPost2010Prop46
 90
       50
102
RTVSPost2010PropOp46
 70
     1
102
RTVSPost2010Prop47
 90
       50
102
RTVSPost2010PropOp47
 70
     1
102
RTVSPost2010Prop48
 90
       50
102
RTVSPost2010PropOp48
 70
     1
102
RTVSPost2010Prop49
280
     0
102
RTVSPost2010PropOp49
 70
     1
102
RTVSPost2010Prop50
 90
       50
102
RTVSPost2010PropOp50
 70
     1
102
RTVSPost2010Prop51ColorIndex
 90
      256
102
RTVSPost2010Prop51ColorRGB
 90
-16777216
102
RTVSPost2010PropOp51
 70
     0
102
RTVSPost2010Prop52
140
1.0
102
RTVSPost2010PropOp52
 70
     0
102
RTVSPost2010Prop53
 90
        2
102
RTVSPost2010PropOp53
 70
     1
102
RTVSPost2010Prop54
  1
strokes_ogs.tif
102
RTVSPost2010PropOp54
 70
     1
102
RTVSPost2010Prop55
280
     0
102
RTVSPost2010PropOp55
 70
     1
102
RTVSPost2010Prop56
140
1.0
102
RTVSPost2010PropOp56
 70
     1
102
RTVSPost2010Prop57
140
1.0
102
RTVSPost2010PropOp57
 70
     1
102
RTVSPropertyOp0
 70
     1
102
RTVSPropertyOp1
 70
     1
102
RTVSPropertyOp2
 70
     1
102
RTVSPropertyOp3
 70
     1
102
RTVSPropertyOp4
 70
     1
102
RTVSPropertyOp5
 70
     1
102
RTVSPropertyOp6
 70
     1
102
RTVSPropertyOp7
 70
     1
102
RTVSPropertyOp8
 70
     1
102
RTVSPropertyOp9
 70
     1
102
RTVSPropertyOp10
 70
     1
102
RTVSPropertyOp11
 70
     1
102
RTVSPropertyOp12
 70
     1
102
RTVSPropertyOp13
 70
     1
102
RTVSPropertyOp14
 70
     1
102
RTVSPropertyOp15
 70
     1
102
RTVSPropertyOp16
 70
     1
102
RTVSPropertyOp17
 70
     1
102
RTVSPropertyOp18
 70
     1
102
RTVSPropertyOp19
 70
     1
102
RTVSPropertyOp20
 70
     1
102
RTVSPropertyOp21
 70
     1
102
RTVSPropertyOp22
 70
     1
102
RTVSPropertyOp23
 70
     1
102
RTVSPropertyOp24
 70
     1
102
RTVSPropertyOp25
 70
     1
102
RTVSPropertyOp26
 70
     1
102
RTVSPropertyOp27
 70
     1
102
RTVSPropertyOp28
 70
     1
102
RTVSPropertyOp29
 70
     1
102
RTVSPropertyOp30
 70
     1
102
RTVSPropertyOp31
 70
     1
102
RTVSPropertyOp32
 70
     1
102
RTVSPropertyOp33
 70
     1
102
RTVSPropertyOp34
 70
     1
102
RTVSPropertyOp35
 70
     1
102
RTVSPropertyOp36
 70
     1
102
RTVSPropertyOp37
 70
     1
102
RTVSPropertyOp38
 70
     1
102
RTVSPropertyOp39
 70
     1
102
RTVSPropertyOp40
 70
     1
102
RTVSPropertyOp41
 70
     1
102
RTVSPropertyOp42
 70
     1
102
RTVSPropertyOp43
 70
     1
102
RTVSPropertyOp44
 70
     1
102
RTVSPropertyOp45
 70
     1
102
RTVSPropertyOp46
 70
     1
102
RTVSPropertyOp47
 70
     1
102
RTVSPropertyOp48
 70
     1
102
RTVSPropertyOp49
 70
     1
102
RTVSPropertyOp50
 70
     1
102
RTVSPropertyOp51
 70
     0
102
RTVSPropertyOp52
 70
     0
102
RTVSPropertyOp53
 70
     1
102
RTVSPropertyOp54
 70
     1
102
RTVSPropertyOp55
 70
     1
102
RTVSPropertyOp56
 70
     1
102
RTVSPropertyOp57
 70
     1
102
RTVSPropertyOp58
 70
     1
102
RTVSPropertyOp59
 70
     1
102
RTVSPropertyOp60
 70
     1
102
RTVSPropertyOp61
 70
     1
102
RTVSPropertyOp62
 70
     1
  0
XRECORD
  5
F0CD
102
{ACAD_REACTORS
330
F0CC
102
}
330
F0CC
100
AcDbXrecord
280
     1
102
RTVSPost2010Prop28
280
     0
102
RTVSPost2010PropOp28
 70
     1
102
RTVSPost2010Prop29
280
     1
102
RTVSPost2010PropOp29
 70
     1
102
RTVSPost2010Prop30
280
     1
102
RTVSPost2010PropOp30
 70
     1
102
RTVSPost2010Prop31
280
     0
102
RTVSPost2010PropOp31
 70
     1
102
RTVSPost2010Prop32
280
     0
102
RTVSPost2010PropOp32
 70
     1
102
RTVSPost2010Prop33
280
     0
102
RTVSPost2010PropOp33
 70
     1
102
RTVSPost2010Prop34
280
     0
102
RTVSPost2010PropOp34
 70
     1
102
RTVSPost2010Prop35
280
     0
102
RTVSPost2010PropOp35
 70
     1
102
RTVSPost2010Prop36
280
     0
102
RTVSPost2010PropOp36
 70
     1
102
RTVSPost2010Prop37
 90
       50
102
RTVSPost2010PropOp37
 70
     1
102
RTVSPost2010Prop38
140
0.0
102
RTVSPost2010PropOp38
 70
     1
102
RTVSPost2010Prop39
140
1.0
102
RTVSPost2010PropOp39
 70
     1
102
RTVSPost2010Prop40
 90
        0
102
RTVSPost2010PropOp40
 70
     1
102
RTVSPost2010Prop41ColorIndex
 90
       18
102
RTVSPost2010Prop41ColorRGB
 90
        0
102
RTVSPost2010PropOp41
 70
     1
102
RTVSPost2010Prop42
 90
       50
102
RTVSPost2010PropOp42
 70
     1
102
RTVSPost2010Prop43
 90
        3
102
RTVSPost2010PropOp43
 70
     1
102
RTVSPost2010Prop44ColorIndex
 90
        5
102
RTVSPost2010Prop44ColorRGB
 90
      255
102
RTVSPost2010PropOp44
 70
     1
102
RTVSPost2010Prop45
280
     0
102
RTVSPost2010PropOp45
 70
     1
102
RTVSPost2010Prop46
 90
       50
102
RTVSPost2010PropOp46
 70
     1
102
RTVSPost2010Prop47
 90
       50
102
RTVSPost2010PropOp47
 70
     1
102
RTVSPost2010Prop48
 90
       50
102
RTVSPost2010PropOp48
 70
     1
102
RTVSPost2010Prop49
280
     0
102
RTVSPost2010PropOp49
 70
     1
102
RTVSPost2010Prop50
 90
       50
102
RTVSPost2010PropOp50
 70
     1
102
RTVSPost2010Prop51ColorIndex
 90
      256
102
RTVSPost2010Prop51ColorRGB
 90
-16777216
102
RTVSPost2010PropOp51
 70
     0
102
RTVSPost2010Prop52
140
1.0
102
RTVSPost2010PropOp52
 70
     0
102
RTVSPost2010Prop53
 90
        2
102
RTVSPost2010PropOp53
 70
     1
102
RTVSPost2010Prop54
  1
strokes_ogs.tif
102
RTVSPost2010PropOp54
 70
     1
102
RTVSPost2010Prop55
280
     0
102
RTVSPost2010PropOp55
 70
     1
102
RTVSPost2010Prop56
140
1.0
102
RTVSPost2010PropOp56
 70
     1
102
RTVSPost2010Prop57
140
1.0
102
RTVSPost2010PropOp57
 70
     1
102
RTVSPropertyOp0
 70
     1
102
RTVSPropertyOp1
 70
     1
102
RTVSPropertyOp2
 70
     1
102
RTVSPropertyOp3
 70
     1
102
RTVSPropertyOp4
 70
     1
102
RTVSPropertyOp5
 70
     1
102
RTVSPropertyOp6
 70
     1
102
RTVSPropertyOp7
 70
     1
102
RTVSPropertyOp8
 70
     1
102
RTVSPropertyOp9
 70
     1
102
RTVSPropertyOp10
 70
     1
102
RTVSPropertyOp11
 70
     1
102
RTVSPropertyOp12
 70
     1
102
RTVSPropertyOp13
 70
     1
102
RTVSPropertyOp14
 70
     1
102
RTVSPropertyOp15
 70
     1
102
RTVSPropertyOp16
 70
     1
102
RTVSPropertyOp17
 70
     1
102
RTVSPropertyOp18
 70
     1
102
RTVSPropertyOp19
 70
     1
102
RTVSPropertyOp20
 70
     1
102
RTVSPropertyOp21
 70
     1
102
RTVSPropertyOp22
 70
     1
102
RTVSPropertyOp23
 70
     1
102
RTVSPropertyOp24
 70
     1
102
RTVSPropertyOp25
 70
     1
102
RTVSPropertyOp26
 70
     1
102
RTVSPropertyOp27
 70
     1
102
RTVSPropertyOp28
 70
     1
102
RTVSPropertyOp29
 70
     1
102
RTVSPropertyOp30
 70
     1
102
RTVSPropertyOp31
 70
     1
102
RTVSPropertyOp32
 70
     1
102
RTVSPropertyOp33
 70
     1
102
RTVSPropertyOp34
 70
     1
102
RTVSPropertyOp35
 70
     1
102
RTVSPropertyOp36
 70
     1
102
RTVSPropertyOp37
 70
     1
102
RTVSPropertyOp38
 70
     1
102
RTVSPropertyOp39
 70
     1
102
RTVSPropertyOp40
 70
     1
102
RTVSPropertyOp41
 70
     1
102
RTVSPropertyOp42
 70
     1
102
RTVSPropertyOp43
 70
     1
102
RTVSPropertyOp44
 70
     1
102
RTVSPropertyOp45
 70
     1
102
RTVSPropertyOp46
 70
     1
102
RTVSPropertyOp47
 70
     1
102
RTVSPropertyOp48
 70
     1
102
RTVSPropertyOp49
 70
     1
102
RTVSPropertyOp50
 70
     1
102
RTVSPropertyOp51
 70
     0
102
RTVSPropertyOp52
 70
     0
102
RTVSPropertyOp53
 70
     1
102
RTVSPropertyOp54
 70
     1
102
RTVSPropertyOp55
 70
     1
102
RTVSPropertyOp56
 70
     1
102
RTVSPropertyOp57
 70
     1
102
RTVSPropertyOp58
 70
     1
102
RTVSPropertyOp59
 70
     1
102
RTVSPropertyOp60
 70
     1
102
RTVSPropertyOp61
 70
     1
102
RTVSPropertyOp62
 70
     1
  0
XRECORD
  5
F0CF
102
{ACAD_REACTORS
330
F0CE
102
}
330
F0CE
100
AcDbXrecord
280
     1
102
RTVSPost2010Prop28
280
     0
102
RTVSPost2010PropOp28
 70
     1
102
RTVSPost2010Prop29
280
     1
102
RTVSPost2010PropOp29
 70
     1
102
RTVSPost2010Prop30
280
     1
102
RTVSPost2010PropOp30
 70
     1
102
RTVSPost2010Prop31
280
     0
102
RTVSPost2010PropOp31
 70
     1
102
RTVSPost2010Prop32
280
     0
102
RTVSPost2010PropOp32
 70
     1
102
RTVSPost2010Prop33
280
     0
102
RTVSPost2010PropOp33
 70
     1
102
RTVSPost2010Prop34
280
     0
102
RTVSPost2010PropOp34
 70
     1
102
RTVSPost2010Prop35
280
     0
102
RTVSPost2010PropOp35
 70
     1
102
RTVSPost2010Prop36
280
     0
102
RTVSPost2010PropOp36
 70
     1
102
RTVSPost2010Prop37
 90
       50
102
RTVSPost2010PropOp37
 70
     1
102
RTVSPost2010Prop38
140
0.0
102
RTVSPost2010PropOp38
 70
     1
102
RTVSPost2010Prop39
140
1.0
102
RTVSPost2010PropOp39
 70
     1
102
RTVSPost2010Prop40
 90
        0
102
RTVSPost2010PropOp40
 70
     1
102
RTVSPost2010Prop41ColorIndex
 90
       18
102
RTVSPost2010Prop41ColorRGB
 90
        0
102
RTVSPost2010PropOp41
 70
     1
102
RTVSPost2010Prop42
 90
       50
102
RTVSPost2010PropOp42
 70
     1
102
RTVSPost2010Prop43
 90
        3
102
RTVSPost2010PropOp43
 70
     1
102
RTVSPost2010Prop44ColorIndex
 90
        5
102
RTVSPost2010Prop44ColorRGB
 90
      255
102
RTVSPost2010PropOp44
 70
     1
102
RTVSPost2010Prop45
280
     0
102
RTVSPost2010PropOp45
 70
     1
102
RTVSPost2010Prop46
 90
       50
102
RTVSPost2010PropOp46
 70
     1
102
RTVSPost2010Prop47
 90
       50
102
RTVSPost2010PropOp47
 70
     1
102
RTVSPost2010Prop48
 90
       50
102
RTVSPost2010PropOp48
 70
     1
102
RTVSPost2010Prop49
280
     0
102
RTVSPost2010PropOp49
 70
     1
102
RTVSPost2010Prop50
 90
       50
102
RTVSPost2010PropOp50
 70
     1
102
RTVSPost2010Prop51ColorIndex
 90
      256
102
RTVSPost2010Prop51ColorRGB
 90
-16777216
102
RTVSPost2010PropOp51
 70
     0
102
RTVSPost2010Prop52
140
1.0
102
RTVSPost2010PropOp52
 70
     0
102
RTVSPost2010Prop53
 90
        2
102
RTVSPost2010PropOp53
 70
     1
102
RTVSPost2010Prop54
  1
strokes_ogs.tif
102
RTVSPost2010PropOp54
 70
     1
102
RTVSPost2010Prop55
280
     0
102
RTVSPost2010PropOp55
 70
     1
102
RTVSPost2010Prop56
140
1.0
102
RTVSPost2010PropOp56
 70
     1
102
RTVSPost2010Prop57
140
1.0
102
RTVSPost2010PropOp57
 70
     1
102
RTVSPropertyOp0
 70
     1
102
RTVSPropertyOp1
 70
     1
102
RTVSPropertyOp2
 70
     1
102
RTVSPropertyOp3
 70
     1
102
RTVSPropertyOp4
 70
     1
102
RTVSPropertyOp5
 70
     1
102
RTVSPropertyOp6
 70
     1
102
RTVSPropertyOp7
 70
     1
102
RTVSPropertyOp8
 70
     1
102
RTVSPropertyOp9
 70
     1
102
RTVSPropertyOp10
 70
     1
102
RTVSPropertyOp11
 70
     1
102
RTVSPropertyOp12
 70
     1
102
RTVSPropertyOp13
 70
     1
102
RTVSPropertyOp14
 70
     1
102
RTVSPropertyOp15
 70
     1
102
RTVSPropertyOp16
 70
     1
102
RTVSPropertyOp17
 70
     1
102
RTVSPropertyOp18
 70
     1
102
RTVSPropertyOp19
 70
     1
102
RTVSPropertyOp20
 70
     1
102
RTVSPropertyOp21
 70
     1
102
RTVSPropertyOp22
 70
     1
102
RTVSPropertyOp23
 70
     1
102
RTVSPropertyOp24
 70
     1
102
RTVSPropertyOp25
 70
     1
102
RTVSPropertyOp26
 70
     1
102
RTVSPropertyOp27
 70
     1
102
RTVSPropertyOp28
 70
     1
102
RTVSPropertyOp29
 70
     1
102
RTVSPropertyOp30
 70
     1
102
RTVSPropertyOp31
 70
     1
102
RTVSPropertyOp32
 70
     1
102
RTVSPropertyOp33
 70
     1
102
RTVSPropertyOp34
 70
     1
102
RTVSPropertyOp35
 70
     1
102
RTVSPropertyOp36
 70
     1
102
RTVSPropertyOp37
 70
     1
102
RTVSPropertyOp38
 70
     1
102
RTVSPropertyOp39
 70
     1
102
RTVSPropertyOp40
 70
     1
102
RTVSPropertyOp41
 70
     1
102
RTVSPropertyOp42
 70
     1
102
RTVSPropertyOp43
 70
     1
102
RTVSPropertyOp44
 70
     1
102
RTVSPropertyOp45
 70
     1
102
RTVSPropertyOp46
 70
     1
102
RTVSPropertyOp47
 70
     1
102
RTVSPropertyOp48
 70
     1
102
RTVSPropertyOp49
 70
     1
102
RTVSPropertyOp50
 70
     1
102
RTVSPropertyOp51
 70
     0
102
RTVSPropertyOp52
 70
     0
102
RTVSPropertyOp53
 70
     1
102
RTVSPropertyOp54
 70
     1
102
RTVSPropertyOp55
 70
     1
102
RTVSPropertyOp56
 70
     1
102
RTVSPropertyOp57
 70
     1
102
RTVSPropertyOp58
 70
     1
102
RTVSPropertyOp59
 70
     1
102
RTVSPropertyOp60
 70
     1
102
RTVSPropertyOp61
 70
     1
102
RTVSPropertyOp62
 70
     1
  0
XRECORD
  5
F0D7
102
{ACAD_REACTORS
330
F0D6
102
}
330
F0D6
100
AcDbXrecord
280
     1
102
RTVSPost2010Prop28
280
     0
102
RTVSPost2010PropOp28
 70
     1
102
RTVSPost2010Prop29
280
     1
102
RTVSPost2010PropOp29
 70
     1
102
RTVSPost2010Prop30
280
     1
102
RTVSPost2010PropOp30
 70
     1
102
RTVSPost2010Prop31
280
     0
102
RTVSPost2010PropOp31
 70
     1
102
RTVSPost2010Prop32
280
     0
102
RTVSPost2010PropOp32
 70
     1
102
RTVSPost2010Prop33
280
     0
102
RTVSPost2010PropOp33
 70
     1
102
RTVSPost2010Prop34
280
     0
102
RTVSPost2010PropOp34
 70
     1
102
RTVSPost2010Prop35
280
     0
102
RTVSPost2010PropOp35
 70
     1
102
RTVSPost2010Prop36
280
     0
102
RTVSPost2010PropOp36
 70
     1
102
RTVSPost2010Prop37
 90
       50
102
RTVSPost2010PropOp37
 70
     1
102
RTVSPost2010Prop38
140
0.0
102
RTVSPost2010PropOp38
 70
     1
102
RTVSPost2010Prop39
140
1.0
102
RTVSPost2010PropOp39
 70
     1
102
RTVSPost2010Prop40
 90
        0
102
RTVSPost2010PropOp40
 70
     1
102
RTVSPost2010Prop41ColorIndex
 90
       18
102
RTVSPost2010Prop41ColorRGB
 90
        0
102
RTVSPost2010PropOp41
 70
     1
102
RTVSPost2010Prop42
 90
       50
102
RTVSPost2010PropOp42
 70
     1
102
RTVSPost2010Prop43
 90
        3
102
RTVSPost2010PropOp43
 70
     1
102
RTVSPost2010Prop44ColorIndex
 90
        5
102
RTVSPost2010Prop44ColorRGB
 90
      255
102
RTVSPost2010PropOp44
 70
     1
102
RTVSPost2010Prop45
280
     0
102
RTVSPost2010PropOp45
 70
     1
102
RTVSPost2010Prop46
 90
       50
102
RTVSPost2010PropOp46
 70
     1
102
RTVSPost2010Prop47
 90
       50
102
RTVSPost2010PropOp47
 70
     1
102
RTVSPost2010Prop48
 90
       50
102
RTVSPost2010PropOp48
 70
     1
102
RTVSPost2010Prop49
280
     0
102
RTVSPost2010PropOp49
 70
     1
102
RTVSPost2010Prop50
 90
       50
102
RTVSPost2010PropOp50
 70
     1
102
RTVSPost2010Prop51ColorIndex
 90
      256
102
RTVSPost2010Prop51ColorRGB
 90
-16777216
102
RTVSPost2010PropOp51
 70
     0
102
RTVSPost2010Prop52
140
1.0
102
RTVSPost2010PropOp52
 70
     0
102
RTVSPost2010Prop53
 90
        2
102
RTVSPost2010PropOp53
 70
     1
102
RTVSPost2010Prop54
  1
strokes_ogs.tif
102
RTVSPost2010PropOp54
 70
     1
102
RTVSPost2010Prop55
280
     0
102
RTVSPost2010PropOp55
 70
     1
102
RTVSPost2010Prop56
140
1.0
102
RTVSPost2010PropOp56
 70
     1
102
RTVSPost2010Prop57
140
1.0
102
RTVSPost2010PropOp57
 70
     1
102
RTVSPropertyOp0
 70
     1
102
RTVSPropertyOp1
 70
     1
102
RTVSPropertyOp2
 70
     1
102
RTVSPropertyOp3
 70
     1
102
RTVSPropertyOp4
 70
     1
102
RTVSPropertyOp5
 70
     1
102
RTVSPropertyOp6
 70
     1
102
RTVSPropertyOp7
 70
     1
102
RTVSPropertyOp8
 70
     1
102
RTVSPropertyOp9
 70
     1
102
RTVSPropertyOp10
 70
     1
102
RTVSPropertyOp11
 70
     1
102
RTVSPropertyOp12
 70
     1
102
RTVSPropertyOp13
 70
     1
102
RTVSPropertyOp14
 70
     1
102
RTVSPropertyOp15
 70
     1
102
RTVSPropertyOp16
 70
     1
102
RTVSPropertyOp17
 70
     1
102
RTVSPropertyOp18
 70
     1
102
RTVSPropertyOp19
 70
     1
102
RTVSPropertyOp20
 70
     1
102
RTVSPropertyOp21
 70
     1
102
RTVSPropertyOp22
 70
     1
102
RTVSPropertyOp23
 70
     1
102
RTVSPropertyOp24
 70
     1
102
RTVSPropertyOp25
 70
     1
102
RTVSPropertyOp26
 70
     1
102
RTVSPropertyOp27
 70
     1
102
RTVSPropertyOp28
 70
     1
102
RTVSPropertyOp29
 70
     1
102
RTVSPropertyOp30
 70
     1
102
RTVSPropertyOp31
 70
     1
102
RTVSPropertyOp32
 70
     1
102
RTVSPropertyOp33
 70
     1
102
RTVSPropertyOp34
 70
     1
102
RTVSPropertyOp35
 70
     1
102
RTVSPropertyOp36
 70
     1
102
RTVSPropertyOp37
 70
     1
102
RTVSPropertyOp38
 70
     1
102
RTVSPropertyOp39
 70
     1
102
RTVSPropertyOp40
 70
     1
102
RTVSPropertyOp41
 70
     1
102
RTVSPropertyOp42
 70
     1
102
RTVSPropertyOp43
 70
     1
102
RTVSPropertyOp44
 70
     1
102
RTVSPropertyOp45
 70
     1
102
RTVSPropertyOp46
 70
     1
102
RTVSPropertyOp47
 70
     1
102
RTVSPropertyOp48
 70
     1
102
RTVSPropertyOp49
 70
     1
102
RTVSPropertyOp50
 70
     1
102
RTVSPropertyOp51
 70
     0
102
RTVSPropertyOp52
 70
     0
102
RTVSPropertyOp53
 70
     1
102
RTVSPropertyOp54
 70
     1
102
RTVSPropertyOp55
 70
     1
102
RTVSPropertyOp56
 70
     1
102
RTVSPropertyOp57
 70
     1
102
RTVSPropertyOp58
 70
     1
102
RTVSPropertyOp59
 70
     1
102
RTVSPropertyOp60
 70
     1
102
RTVSPropertyOp61
 70
     1
102
RTVSPropertyOp62
 70
     1
  0
XRECORD
  5
F0EB
102
{ACAD_REACTORS
330
F0EA
102
}
330
F0EA
100
AcDbXrecord
280
     1
102
RTVSPost2010Prop28
280
     0
102
RTVSPost2010PropOp28
 70
     1
102
RTVSPost2010Prop29
280
     1
102
RTVSPost2010PropOp29
 70
     1
102
RTVSPost2010Prop30
280
     1
102
RTVSPost2010PropOp30
 70
     1
102
RTVSPost2010Prop31
280
     0
102
RTVSPost2010PropOp31
 70
     1
102
RTVSPost2010Prop32
280
     0
102
RTVSPost2010PropOp32
 70
     1
102
RTVSPost2010Prop33
280
     0
102
RTVSPost2010PropOp33
 70
     1
102
RTVSPost2010Prop34
280
     0
102
RTVSPost2010PropOp34
 70
     1
102
RTVSPost2010Prop35
280
     0
102
RTVSPost2010PropOp35
 70
     1
102
RTVSPost2010Prop36
280
     0
102
RTVSPost2010PropOp36
 70
     1
102
RTVSPost2010Prop37
 90
       50
102
RTVSPost2010PropOp37
 70
     1
102
RTVSPost2010Prop38
140
0.0
102
RTVSPost2010PropOp38
 70
     1
102
RTVSPost2010Prop39
140
1.0
102
RTVSPost2010PropOp39
 70
     1
102
RTVSPost2010Prop40
 90
        0
102
RTVSPost2010PropOp40
 70
     1
102
RTVSPost2010Prop41ColorIndex
 90
       18
102
RTVSPost2010Prop41ColorRGB
 90
        0
102
RTVSPost2010PropOp41
 70
     1
102
RTVSPost2010Prop42
 90
       50
102
RTVSPost2010PropOp42
 70
     1
102
RTVSPost2010Prop43
 90
        3
102
RTVSPost2010PropOp43
 70
     1
102
RTVSPost2010Prop44ColorIndex
 90
        5
102
RTVSPost2010Prop44ColorRGB
 90
      255
102
RTVSPost2010PropOp44
 70
     1
102
RTVSPost2010Prop45
280
     0
102
RTVSPost2010PropOp45
 70
     1
102
RTVSPost2010Prop46
 90
       50
102
RTVSPost2010PropOp46
 70
     1
102
RTVSPost2010Prop47
 90
       50
102
RTVSPost2010PropOp47
 70
     1
102
RTVSPost2010Prop48
 90
       50
102
RTVSPost2010PropOp48
 70
     1
102
RTVSPost2010Prop49
280
     0
102
RTVSPost2010PropOp49
 70
     1
102
RTVSPost2010Prop50
 90
       50
102
RTVSPost2010PropOp50
 70
     1
102
RTVSPost2010Prop51ColorIndex
 90
      256
102
RTVSPost2010Prop51ColorRGB
 90
-16777216
102
RTVSPost2010PropOp51
 70
     0
102
RTVSPost2010Prop52
140
1.0
102
RTVSPost2010PropOp52
 70
     0
102
RTVSPost2010Prop53
 90
        2
102
RTVSPost2010PropOp53
 70
     1
102
RTVSPost2010Prop54
  1
strokes_ogs.tif
102
RTVSPost2010PropOp54
 70
     1
102
RTVSPost2010Prop55
280
     0
102
RTVSPost2010PropOp55
 70
     1
102
RTVSPost2010Prop56
140
1.0
102
RTVSPost2010PropOp56
 70
     1
102
RTVSPost2010Prop57
140
1.0
102
RTVSPost2010PropOp57
 70
     1
102
RTVSPropertyOp0
 70
     0
102
RTVSPropertyOp1
 70
     0
102
RTVSPropertyOp2
 70
     0
102
RTVSPropertyOp3
 70
     0
102
RTVSPropertyOp4
 70
     0
102
RTVSPropertyOp5
 70
     0
102
RTVSPropertyOp6
 70
     0
102
RTVSPropertyOp7
 70
     0
102
RTVSPropertyOp8
 70
     0
102
RTVSPropertyOp9
 70
     0
102
RTVSPropertyOp10
 70
     0
102
RTVSPropertyOp11
 70
     0
102
RTVSPropertyOp12
 70
     0
102
RTVSPropertyOp13
 70
     0
102
RTVSPropertyOp14
 70
     2
102
RTVSPropertyOp15
 70
     0
102
RTVSPropertyOp16
 70
     0
102
RTVSPropertyOp17
 70
     0
102
RTVSPropertyOp18
 70
     0
102
RTVSPropertyOp19
 70
     0
102
RTVSPropertyOp20
 70
     0
102
RTVSPropertyOp21
 70
     0
102
RTVSPropertyOp22
 70
     0
102
RTVSPropertyOp23
 70
     0
102
RTVSPropertyOp24
 70
     0
102
RTVSPropertyOp25
 70
     0
102
RTVSPropertyOp26
 70
     0
102
RTVSPropertyOp27
 70
     0
102
RTVSPropertyOp28
 70
     1
102
RTVSPropertyOp29
 70
     1
102
RTVSPropertyOp30
 70
     1
102
RTVSPropertyOp31
 70
     1
102
RTVSPropertyOp32
 70
     1
102
RTVSPropertyOp33
 70
     1
102
RTVSPropertyOp34
 70
     1
102
RTVSPropertyOp35
 70
     1
102
RTVSPropertyOp36
 70
     1
102
RTVSPropertyOp37
 70
     1
102
RTVSPropertyOp38
 70
     1
102
RTVSPropertyOp39
 70
     1
102
RTVSPropertyOp40
 70
     1
102
RTVSPropertyOp41
 70
     1
102
RTVSPropertyOp42
 70
     1
102
RTVSPropertyOp43
 70
     1
102
RTVSPropertyOp44
 70
     1
102
RTVSPropertyOp45
 70
     1
102
RTVSPropertyOp46
 70
     1
102
RTVSPropertyOp47
 70
     1
102
RTVSPropertyOp48
 70
     1
102
RTVSPropertyOp49
 70
     1
102
RTVSPropertyOp50
 70
     1
102
RTVSPropertyOp51
 70
     0
102
RTVSPropertyOp52
 70
     0
102
RTVSPropertyOp53
 70
     1
102
RTVSPropertyOp54
 70
     1
102
RTVSPropertyOp55
 70
     1
102
RTVSPropertyOp56
 70
     1
102
RTVSPropertyOp57
 70
     1
102
RTVSPropertyOp58
 70
     1
102
RTVSPropertyOp59
 70
     1
102
RTVSPropertyOp60
 70
     1
102
RTVSPropertyOp61
 70
     1
102
RTVSPropertyOp62
 70
     1
  0
XRECORD
  5
F0E3
102
{ACAD_REACTORS
330
F0E2
102
}
330
F0E2
100
AcDbXrecord
280
     1
102
RTVSPost2010Prop28
280
     0
102
RTVSPost2010PropOp28
 70
     1
102
RTVSPost2010Prop29
280
     1
102
RTVSPost2010PropOp29
 70
     1
102
RTVSPost2010Prop30
280
     1
102
RTVSPost2010PropOp30
 70
     1
102
RTVSPost2010Prop31
280
     0
102
RTVSPost2010PropOp31
 70
     1
102
RTVSPost2010Prop32
280
     0
102
RTVSPost2010PropOp32
 70
     1
102
RTVSPost2010Prop33
280
     0
102
RTVSPost2010PropOp33
 70
     1
102
RTVSPost2010Prop34
280
     0
102
RTVSPost2010PropOp34
 70
     1
102
RTVSPost2010Prop35
280
     0
102
RTVSPost2010PropOp35
 70
     1
102
RTVSPost2010Prop36
280
     0
102
RTVSPost2010PropOp36
 70
     1
102
RTVSPost2010Prop37
 90
       50
102
RTVSPost2010PropOp37
 70
     1
102
RTVSPost2010Prop38
140
0.0
102
RTVSPost2010PropOp38
 70
     1
102
RTVSPost2010Prop39
140
1.0
102
RTVSPost2010PropOp39
 70
     1
102
RTVSPost2010Prop40
 90
        0
102
RTVSPost2010PropOp40
 70
     1
102
RTVSPost2010Prop41ColorIndex
 90
       18
102
RTVSPost2010Prop41ColorRGB
 90
        0
102
RTVSPost2010PropOp41
 70
     1
102
RTVSPost2010Prop42
 90
       50
102
RTVSPost2010PropOp42
 70
     1
102
RTVSPost2010Prop43
 90
        3
102
RTVSPost2010PropOp43
 70
     1
102
RTVSPost2010Prop44ColorIndex
 90
        5
102
RTVSPost2010Prop44ColorRGB
 90
      255
102
RTVSPost2010PropOp44
 70
     1
102
RTVSPost2010Prop45
280
     0
102
RTVSPost2010PropOp45
 70
     1
102
RTVSPost2010Prop46
 90
       50
102
RTVSPost2010PropOp46
 70
     1
102
RTVSPost2010Prop47
 90
       50
102
RTVSPost2010PropOp47
 70
     1
102
RTVSPost2010Prop48
 90
       50
102
RTVSPost2010PropOp48
 70
     1
102
RTVSPost2010Prop49
280
     0
102
RTVSPost2010PropOp49
 70
     1
102
RTVSPost2010Prop50
 90
       50
102
RTVSPost2010PropOp50
 70
     1
102
RTVSPost2010Prop51ColorIndex
 90
      256
102
RTVSPost2010Prop51ColorRGB
 90
-16777216
102
RTVSPost2010PropOp51
 70
     0
102
RTVSPost2010Prop52
140
1.0
102
RTVSPost2010PropOp52
 70
     0
102
RTVSPost2010Prop53
 90
        2
102
RTVSPost2010PropOp53
 70
     1
102
RTVSPost2010Prop54
  1
strokes_ogs.tif
102
RTVSPost2010PropOp54
 70
     1
102
RTVSPost2010Prop55
280
     0
102
RTVSPost2010PropOp55
 70
     1
102
RTVSPost2010Prop56
140
1.0
102
RTVSPost2010PropOp56
 70
     1
102
RTVSPost2010Prop57
140
1.0
102
RTVSPost2010PropOp57
 70
     1
102
RTVSPropertyOp0
 70
     1
102
RTVSPropertyOp1
 70
     1
102
RTVSPropertyOp2
 70
     1
102
RTVSPropertyOp3
 70
     1
102
RTVSPropertyOp4
 70
     1
102
RTVSPropertyOp5
 70
     1
102
RTVSPropertyOp6
 70
     1
102
RTVSPropertyOp7
 70
     1
102
RTVSPropertyOp8
 70
     1
102
RTVSPropertyOp9
 70
     1
102
RTVSPropertyOp10
 70
     1
102
RTVSPropertyOp11
 70
     1
102
RTVSPropertyOp12
 70
     1
102
RTVSPropertyOp13
 70
     1
102
RTVSPropertyOp14
 70
     1
102
RTVSPropertyOp15
 70
     1
102
RTVSPropertyOp16
 70
     1
102
RTVSPropertyOp17
 70
     1
102
RTVSPropertyOp18
 70
     1
102
RTVSPropertyOp19
 70
     1
102
RTVSPropertyOp20
 70
     1
102
RTVSPropertyOp21
 70
     1
102
RTVSPropertyOp22
 70
     1
102
RTVSPropertyOp23
 70
     1
102
RTVSPropertyOp24
 70
     1
102
RTVSPropertyOp25
 70
     1
102
RTVSPropertyOp26
 70
     1
102
RTVSPropertyOp27
 70
     1
102
RTVSPropertyOp28
 70
     1
102
RTVSPropertyOp29
 70
     1
102
RTVSPropertyOp30
 70
     1
102
RTVSPropertyOp31
 70
     1
102
RTVSPropertyOp32
 70
     1
102
RTVSPropertyOp33
 70
     1
102
RTVSPropertyOp34
 70
     1
102
RTVSPropertyOp35
 70
     1
102
RTVSPropertyOp36
 70
     1
102
RTVSPropertyOp37
 70
     1
102
RTVSPropertyOp38
 70
     1
102
RTVSPropertyOp39
 70
     1
102
RTVSPropertyOp40
 70
     1
102
RTVSPropertyOp41
 70
     1
102
RTVSPropertyOp42
 70
     1
102
RTVSPropertyOp43
 70
     1
102
RTVSPropertyOp44
 70
     1
102
RTVSPropertyOp45
 70
     1
102
RTVSPropertyOp46
 70
     1
102
RTVSPropertyOp47
 70
     1
102
RTVSPropertyOp48
 70
     1
102
RTVSPropertyOp49
 70
     1
102
RTVSPropertyOp50
 70
     1
102
RTVSPropertyOp51
 70
     0
102
RTVSPropertyOp52
 70
     0
102
RTVSPropertyOp53
 70
     1
102
RTVSPropertyOp54
 70
     1
102
RTVSPropertyOp55
 70
     1
102
RTVSPropertyOp56
 70
     1
102
RTVSPropertyOp57
 70
     1
102
RTVSPropertyOp58
 70
     1
102
RTVSPropertyOp59
 70
     1
102
RTVSPropertyOp60
 70
     1
102
RTVSPropertyOp61
 70
     1
102
RTVSPropertyOp62
 70
     1
  0
XRECORD
  5
F0ED
102
{ACAD_REACTORS
330
F0EC
102
}
330
F0EC
100
AcDbXrecord
280
     1
102
RTVSPost2010Prop28
280
     0
102
RTVSPost2010PropOp28
 70
     1
102
RTVSPost2010Prop29
280
     1
102
RTVSPost2010PropOp29
 70
     1
102
RTVSPost2010Prop30
280
     1
102
RTVSPost2010PropOp30
 70
     1
102
RTVSPost2010Prop31
280
     0
102
RTVSPost2010PropOp31
 70
     1
102
RTVSPost2010Prop32
280
     0
102
RTVSPost2010PropOp32
 70
     1
102
RTVSPost2010Prop33
280
     0
102
RTVSPost2010PropOp33
 70
     1
102
RTVSPost2010Prop34
280
     0
102
RTVSPost2010PropOp34
 70
     1
102
RTVSPost2010Prop35
280
     0
102
RTVSPost2010PropOp35
 70
     1
102
RTVSPost2010Prop36
280
     0
102
RTVSPost2010PropOp36
 70
     1
102
RTVSPost2010Prop37
 90
       50
102
RTVSPost2010PropOp37
 70
     1
102
RTVSPost2010Prop38
140
0.0
102
RTVSPost2010PropOp38
 70
     1
102
RTVSPost2010Prop39
140
1.0
102
RTVSPost2010PropOp39
 70
     1
102
RTVSPost2010Prop40
 90
        0
102
RTVSPost2010PropOp40
 70
     1
102
RTVSPost2010Prop41ColorIndex
 90
       18
102
RTVSPost2010Prop41ColorRGB
 90
        0
102
RTVSPost2010PropOp41
 70
     1
102
RTVSPost2010Prop42
 90
       50
102
RTVSPost2010PropOp42
 70
     1
102
RTVSPost2010Prop43
 90
        3
102
RTVSPost2010PropOp43
 70
     1
102
RTVSPost2010Prop44ColorIndex
 90
        5
102
RTVSPost2010Prop44ColorRGB
 90
      255
102
RTVSPost2010PropOp44
 70
     1
102
RTVSPost2010Prop45
280
     0
102
RTVSPost2010PropOp45
 70
     1
102
RTVSPost2010Prop46
 90
       50
102
RTVSPost2010PropOp46
 70
     1
102
RTVSPost2010Prop47
 90
       50
102
RTVSPost2010PropOp47
 70
     1
102
RTVSPost2010Prop48
 90
       50
102
RTVSPost2010PropOp48
 70
     1
102
RTVSPost2010Prop49
280
     0
102
RTVSPost2010PropOp49
 70
     1
102
RTVSPost2010Prop50
 90
       50
102
RTVSPost2010PropOp50
 70
     1
102
RTVSPost2010Prop51ColorIndex
 90
      256
102
RTVSPost2010Prop51ColorRGB
 90
-16777216
102
RTVSPost2010PropOp51
 70
     0
102
RTVSPost2010Prop52
140
1.0
102
RTVSPost2010PropOp52
 70
     0
102
RTVSPost2010Prop53
 90
        2
102
RTVSPost2010PropOp53
 70
     1
102
RTVSPost2010Prop54
  1
strokes_ogs.tif
102
RTVSPost2010PropOp54
 70
     1
102
RTVSPost2010Prop55
280
     0
102
RTVSPost2010PropOp55
 70
     1
102
RTVSPost2010Prop56
140
1.0
102
RTVSPost2010PropOp56
 70
     1
102
RTVSPost2010Prop57
140
1.0
102
RTVSPost2010PropOp57
 70
     1
102
RTVSPropertyOp0
 70
     0
102
RTVSPropertyOp1
 70
     0
102
RTVSPropertyOp2
 70
     0
102
RTVSPropertyOp3
 70
     0
102
RTVSPropertyOp4
 70
     0
102
RTVSPropertyOp5
 70
     0
102
RTVSPropertyOp6
 70
     0
102
RTVSPropertyOp7
 70
     0
102
RTVSPropertyOp8
 70
     0
102
RTVSPropertyOp9
 70
     0
102
RTVSPropertyOp10
 70
     0
102
RTVSPropertyOp11
 70
     0
102
RTVSPropertyOp12
 70
     0
102
RTVSPropertyOp13
 70
     0
102
RTVSPropertyOp14
 70
     2
102
RTVSPropertyOp15
 70
     0
102
RTVSPropertyOp16
 70
     0
102
RTVSPropertyOp17
 70
     0
102
RTVSPropertyOp18
 70
     0
102
RTVSPropertyOp19
 70
     0
102
RTVSPropertyOp20
 70
     0
102
RTVSPropertyOp21
 70
     0
102
RTVSPropertyOp22
 70
     0
102
RTVSPropertyOp23
 70
     0
102
RTVSPropertyOp24
 70
     0
102
RTVSPropertyOp25
 70
     0
102
RTVSPropertyOp26
 70
     0
102
RTVSPropertyOp27
 70
     0
102
RTVSPropertyOp28
 70
     1
102
RTVSPropertyOp29
 70
     1
102
RTVSPropertyOp30
 70
     1
102
RTVSPropertyOp31
 70
     1
102
RTVSPropertyOp32
 70
     1
102
RTVSPropertyOp33
 70
     1
102
RTVSPropertyOp34
 70
     1
102
RTVSPropertyOp35
 70
     1
102
RTVSPropertyOp36
 70
     1
102
RTVSPropertyOp37
 70
     1
102
RTVSPropertyOp38
 70
     1
102
RTVSPropertyOp39
 70
     1
102
RTVSPropertyOp40
 70
     1
102
RTVSPropertyOp41
 70
     1
102
RTVSPropertyOp42
 70
     1
102
RTVSPropertyOp43
 70
     1
102
RTVSPropertyOp44
 70
     1
102
RTVSPropertyOp45
 70
     1
102
RTVSPropertyOp46
 70
     1
102
RTVSPropertyOp47
 70
     1
102
RTVSPropertyOp48
 70
     1
102
RTVSPropertyOp49
 70
     1
102
RTVSPropertyOp50
 70
     1
102
RTVSPropertyOp51
 70
     0
102
RTVSPropertyOp52
 70
     0
102
RTVSPropertyOp53
 70
     1
102
RTVSPropertyOp54
 70
     1
102
RTVSPropertyOp55
 70
     1
102
RTVSPropertyOp56
 70
     1
102
RTVSPropertyOp57
 70
     1
102
RTVSPropertyOp58
 70
     1
102
RTVSPropertyOp59
 70
     1
102
RTVSPropertyOp60
 70
     1
102
RTVSPropertyOp61
 70
     1
102
RTVSPropertyOp62
 70
     1
  0
XRECORD
  5
F0DB
102
{ACAD_REACTORS
330
F0DA
102
}
330
F0DA
100
AcDbXrecord
280
     1
102
RTVSPost2010Prop28
280
     0
102
RTVSPost2010PropOp28
 70
     1
102
RTVSPost2010Prop29
280
     1
102
RTVSPost2010PropOp29
 70
     1
102
RTVSPost2010Prop30
280
     1
102
RTVSPost2010PropOp30
 70
     1
102
RTVSPost2010Prop31
280
     0
102
RTVSPost2010PropOp31
 70
     1
102
RTVSPost2010Prop32
280
     0
102
RTVSPost2010PropOp32
 70
     1
102
RTVSPost2010Prop33
280
     0
102
RTVSPost2010PropOp33
 70
     1
102
RTVSPost2010Prop34
280
     0
102
RTVSPost2010PropOp34
 70
     1
102
RTVSPost2010Prop35
280
     0
102
RTVSPost2010PropOp35
 70
     1
102
RTVSPost2010Prop36
280
     0
102
RTVSPost2010PropOp36
 70
     1
102
RTVSPost2010Prop37
 90
       50
102
RTVSPost2010PropOp37
 70
     1
102
RTVSPost2010Prop38
140
0.0
102
RTVSPost2010PropOp38
 70
     1
102
RTVSPost2010Prop39
140
1.0
102
RTVSPost2010PropOp39
 70
     1
102
RTVSPost2010Prop40
 90
        0
102
RTVSPost2010PropOp40
 70
     1
102
RTVSPost2010Prop41ColorIndex
 90
       18
102
RTVSPost2010Prop41ColorRGB
 90
        0
102
RTVSPost2010PropOp41
 70
     1
102
RTVSPost2010Prop42
 90
       50
102
RTVSPost2010PropOp42
 70
     1
102
RTVSPost2010Prop43
 90
        3
102
RTVSPost2010PropOp43
 70
     1
102
RTVSPost2010Prop44ColorIndex
 90
        5
102
RTVSPost2010Prop44ColorRGB
 90
      255
102
RTVSPost2010PropOp44
 70
     1
102
RTVSPost2010Prop45
280
     0
102
RTVSPost2010PropOp45
 70
     1
102
RTVSPost2010Prop46
 90
       50
102
RTVSPost2010PropOp46
 70
     1
102
RTVSPost2010Prop47
 90
       50
102
RTVSPost2010PropOp47
 70
     1
102
RTVSPost2010Prop48
 90
       50
102
RTVSPost2010PropOp48
 70
     1
102
RTVSPost2010Prop49
280
     0
102
RTVSPost2010PropOp49
 70
     1
102
RTVSPost2010Prop50
 90
       50
102
RTVSPost2010PropOp50
 70
     1
102
RTVSPost2010Prop51ColorIndex
 90
      256
102
RTVSPost2010Prop51ColorRGB
 90
-16777216
102
RTVSPost2010PropOp51
 70
     0
102
RTVSPost2010Prop52
140
1.0
102
RTVSPost2010PropOp52
 70
     0
102
RTVSPost2010Prop53
 90
        2
102
RTVSPost2010PropOp53
 70
     1
102
RTVSPost2010Prop54
  1
strokes_ogs.tif
102
RTVSPost2010PropOp54
 70
     1
102
RTVSPost2010Prop55
280
     0
102
RTVSPost2010PropOp55
 70
     1
102
RTVSPost2010Prop56
140
1.0
102
RTVSPost2010PropOp56
 70
     1
102
RTVSPost2010Prop57
140
1.0
102
RTVSPost2010PropOp57
 70
     1
102
RTVSPropertyOp0
 70
     1
102
RTVSPropertyOp1
 70
     1
102
RTVSPropertyOp2
 70
     1
102
RTVSPropertyOp3
 70
     1
102
RTVSPropertyOp4
 70
     1
102
RTVSPropertyOp5
 70
     1
102
RTVSPropertyOp6
 70
     1
102
RTVSPropertyOp7
 70
     1
102
RTVSPropertyOp8
 70
     1
102
RTVSPropertyOp9
 70
     1
102
RTVSPropertyOp10
 70
     1
102
RTVSPropertyOp11
 70
     1
102
RTVSPropertyOp12
 70
     1
102
RTVSPropertyOp13
 70
     1
102
RTVSPropertyOp14
 70
     1
102
RTVSPropertyOp15
 70
     1
102
RTVSPropertyOp16
 70
     1
102
RTVSPropertyOp17
 70
     1
102
RTVSPropertyOp18
 70
     1
102
RTVSPropertyOp19
 70
     1
102
RTVSPropertyOp20
 70
     1
102
RTVSPropertyOp21
 70
     1
102
RTVSPropertyOp22
 70
     1
102
RTVSPropertyOp23
 70
     1
102
RTVSPropertyOp24
 70
     1
102
RTVSPropertyOp25
 70
     1
102
RTVSPropertyOp26
 70
     1
102
RTVSPropertyOp27
 70
     1
102
RTVSPropertyOp28
 70
     1
102
RTVSPropertyOp29
 70
     1
102
RTVSPropertyOp30
 70
     1
102
RTVSPropertyOp31
 70
     1
102
RTVSPropertyOp32
 70
     1
102
RTVSPropertyOp33
 70
     1
102
RTVSPropertyOp34
 70
     1
102
RTVSPropertyOp35
 70
     1
102
RTVSPropertyOp36
 70
     1
102
RTVSPropertyOp37
 70
     1
102
RTVSPropertyOp38
 70
     1
102
RTVSPropertyOp39
 70
     1
102
RTVSPropertyOp40
 70
     1
102
RTVSPropertyOp41
 70
     1
102
RTVSPropertyOp42
 70
     1
102
RTVSPropertyOp43
 70
     1
102
RTVSPropertyOp44
 70
     1
102
RTVSPropertyOp45
 70
     1
102
RTVSPropertyOp46
 70
     1
102
RTVSPropertyOp47
 70
     1
102
RTVSPropertyOp48
 70
     1
102
RTVSPropertyOp49
 70
     1
102
RTVSPropertyOp50
 70
     1
102
RTVSPropertyOp51
 70
     0
102
RTVSPropertyOp52
 70
     0
102
RTVSPropertyOp53
 70
     1
102
RTVSPropertyOp54
 70
     1
102
RTVSPropertyOp55
 70
     1
102
RTVSPropertyOp56
 70
     1
102
RTVSPropertyOp57
 70
     1
102
RTVSPropertyOp58
 70
     1
102
RTVSPropertyOp59
 70
     1
102
RTVSPropertyOp60
 70
     1
102
RTVSPropertyOp61
 70
     1
102
RTVSPropertyOp62
 70
     1
  0
XRECORD
  5
F0F9
102
{ACAD_REACTORS
330
F0F8
102
}
330
F0F8
100
AcDbXrecord
280
     1
102
RTVSPost2010Prop28
280
     0
102
RTVSPost2010PropOp28
 70
     1
102
RTVSPost2010Prop29
280
     1
102
RTVSPost2010PropOp29
 70
     1
102
RTVSPost2010Prop30
280
     1
102
RTVSPost2010PropOp30
 70
     1
102
RTVSPost2010Prop31
280
     0
102
RTVSPost2010PropOp31
 70
     1
102
RTVSPost2010Prop32
280
     0
102
RTVSPost2010PropOp32
 70
     1
102
RTVSPost2010Prop33
280
     0
102
RTVSPost2010PropOp33
 70
     1
102
RTVSPost2010Prop34
280
     0
102
RTVSPost2010PropOp34
 70
     1
102
RTVSPost2010Prop35
280
     0
102
RTVSPost2010PropOp35
 70
     1
102
RTVSPost2010Prop36
280
     0
102
RTVSPost2010PropOp36
 70
     1
102
RTVSPost2010Prop37
 90
       50
102
RTVSPost2010PropOp37
 70
     1
102
RTVSPost2010Prop38
140
0.0
102
RTVSPost2010PropOp38
 70
     1
102
RTVSPost2010Prop39
140
1.0
102
RTVSPost2010PropOp39
 70
     1
102
RTVSPost2010Prop40
 90
        0
102
RTVSPost2010PropOp40
 70
     1
102
RTVSPost2010Prop41ColorIndex
 90
       18
102
RTVSPost2010Prop41ColorRGB
 90
        0
102
RTVSPost2010PropOp41
 70
     1
102
RTVSPost2010Prop42
 90
       50
102
RTVSPost2010PropOp42
 70
     1
102
RTVSPost2010Prop43
 90
        3
102
RTVSPost2010PropOp43
 70
     1
102
RTVSPost2010Prop44ColorIndex
 90
        5
102
RTVSPost2010Prop44ColorRGB
 90
      255
102
RTVSPost2010PropOp44
 70
     1
102
RTVSPost2010Prop45
280
     0
102
RTVSPost2010PropOp45
 70
     1
102
RTVSPost2010Prop46
 90
       50
102
RTVSPost2010PropOp46
 70
     1
102
RTVSPost2010Prop47
 90
       50
102
RTVSPost2010PropOp47
 70
     1
102
RTVSPost2010Prop48
 90
       50
102
RTVSPost2010PropOp48
 70
     1
102
RTVSPost2010Prop49
280
     0
102
RTVSPost2010PropOp49
 70
     1
102
RTVSPost2010Prop50
 90
       50
102
RTVSPost2010PropOp50
 70
     1
102
RTVSPost2010Prop51ColorIndex
 90
      256
102
RTVSPost2010Prop51ColorRGB
 90
-16777216
102
RTVSPost2010PropOp51
 70
     0
102
RTVSPost2010Prop52
140
1.0
102
RTVSPost2010PropOp52
 70
     0
102
RTVSPost2010Prop53
 90
        2
102
RTVSPost2010PropOp53
 70
     1
102
RTVSPost2010Prop54
  1
strokes_ogs.tif
102
RTVSPost2010PropOp54
 70
     1
102
RTVSPost2010Prop55
280
     0
102
RTVSPost2010PropOp55
 70
     1
102
RTVSPost2010Prop56
140
1.0
102
RTVSPost2010PropOp56
 70
     1
102
RTVSPost2010Prop57
140
1.0
102
RTVSPost2010PropOp57
 70
     1
102
RTVSPropertyOp0
 70
     1
102
RTVSPropertyOp1
 70
     1
102
RTVSPropertyOp2
 70
     1
102
RTVSPropertyOp3
 70
     1
102
RTVSPropertyOp4
 70
     1
102
RTVSPropertyOp5
 70
     1
102
RTVSPropertyOp6
 70
     1
102
RTVSPropertyOp7
 70
     1
102
RTVSPropertyOp8
 70
     1
102
RTVSPropertyOp9
 70
     1
102
RTVSPropertyOp10
 70
     1
102
RTVSPropertyOp11
 70
     1
102
RTVSPropertyOp12
 70
     1
102
RTVSPropertyOp13
 70
     1
102
RTVSPropertyOp14
 70
     1
102
RTVSPropertyOp15
 70
     1
102
RTVSPropertyOp16
 70
     1
102
RTVSPropertyOp17
 70
     1
102
RTVSPropertyOp18
 70
     1
102
RTVSPropertyOp19
 70
     1
102
RTVSPropertyOp20
 70
     1
102
RTVSPropertyOp21
 70
     1
102
RTVSPropertyOp22
 70
     1
102
RTVSPropertyOp23
 70
     1
102
RTVSPropertyOp24
 70
     1
102
RTVSPropertyOp25
 70
     1
102
RTVSPropertyOp26
 70
     1
102
RTVSPropertyOp27
 70
     1
102
RTVSPropertyOp28
 70
     1
102
RTVSPropertyOp29
 70
     1
102
RTVSPropertyOp30
 70
     1
102
RTVSPropertyOp31
 70
     1
102
RTVSPropertyOp32
 70
     1
102
RTVSPropertyOp33
 70
     1
102
RTVSPropertyOp34
 70
     1
102
RTVSPropertyOp35
 70
     1
102
RTVSPropertyOp36
 70
     1
102
RTVSPropertyOp37
 70
     1
102
RTVSPropertyOp38
 70
     1
102
RTVSPropertyOp39
 70
     1
102
RTVSPropertyOp40
 70
     1
102
RTVSPropertyOp41
 70
     1
102
RTVSPropertyOp42
 70
     1
102
RTVSPropertyOp43
 70
     1
102
RTVSPropertyOp44
 70
     1
102
RTVSPropertyOp45
 70
     1
102
RTVSPropertyOp46
 70
     1
102
RTVSPropertyOp47
 70
     1
102
RTVSPropertyOp48
 70
     1
102
RTVSPropertyOp49
 70
     1
102
RTVSPropertyOp50
 70
     1
102
RTVSPropertyOp51
 70
     0
102
RTVSPropertyOp52
 70
     0
102
RTVSPropertyOp53
 70
     1
102
RTVSPropertyOp54
 70
     1
102
RTVSPropertyOp55
 70
     1
102
RTVSPropertyOp56
 70
     1
102
RTVSPropertyOp57
 70
     1
102
RTVSPropertyOp58
 70
     1
102
RTVSPropertyOp59
 70
     1
102
RTVSPropertyOp60
 70
     1
102
RTVSPropertyOp61
 70
     1
102
RTVSPropertyOp62
 70
     1
  0
XRECORD
  5
F0F7
102
{ACAD_REACTORS
330
F0F6
102
}
330
F0F6
100
AcDbXrecord
280
     1
102
RTVSPost2010Prop28
280
     0
102
RTVSPost2010PropOp28
 70
     1
102
RTVSPost2010Prop29
280
     1
102
RTVSPost2010PropOp29
 70
     1
102
RTVSPost2010Prop30
280
     1
102
RTVSPost2010PropOp30
 70
     1
102
RTVSPost2010Prop31
280
     0
102
RTVSPost2010PropOp31
 70
     1
102
RTVSPost2010Prop32
280
     0
102
RTVSPost2010PropOp32
 70
     1
102
RTVSPost2010Prop33
280
     0
102
RTVSPost2010PropOp33
 70
     1
102
RTVSPost2010Prop34
280
     0
102
RTVSPost2010PropOp34
 70
     1
102
RTVSPost2010Prop35
280
     0
102
RTVSPost2010PropOp35
 70
     1
102
RTVSPost2010Prop36
280
     0
102
RTVSPost2010PropOp36
 70
     1
102
RTVSPost2010Prop37
 90
       50
102
RTVSPost2010PropOp37
 70
     1
102
RTVSPost2010Prop38
140
0.0
102
RTVSPost2010PropOp38
 70
     1
102
RTVSPost2010Prop39
140
1.0
102
RTVSPost2010PropOp39
 70
     1
102
RTVSPost2010Prop40
 90
        0
102
RTVSPost2010PropOp40
 70
     1
102
RTVSPost2010Prop41ColorIndex
 90
       18
102
RTVSPost2010Prop41ColorRGB
 90
        0
102
RTVSPost2010PropOp41
 70
     1
102
RTVSPost2010Prop42
 90
       50
102
RTVSPost2010PropOp42
 70
     1
102
RTVSPost2010Prop43
 90
        3
102
RTVSPost2010PropOp43
 70
     1
102
RTVSPost2010Prop44ColorIndex
 90
        5
102
RTVSPost2010Prop44ColorRGB
 90
      255
102
RTVSPost2010PropOp44
 70
     1
102
RTVSPost2010Prop45
280
     0
102
RTVSPost2010PropOp45
 70
     1
102
RTVSPost2010Prop46
 90
       50
102
RTVSPost2010PropOp46
 70
     1
102
RTVSPost2010Prop47
 90
       50
102
RTVSPost2010PropOp47
 70
     1
102
RTVSPost2010Prop48
 90
       50
102
RTVSPost2010PropOp48
 70
     1
102
RTVSPost2010Prop49
280
     0
102
RTVSPost2010PropOp49
 70
     1
102
RTVSPost2010Prop50
 90
       50
102
RTVSPost2010PropOp50
 70
     1
102
RTVSPost2010Prop51ColorIndex
 90
      256
102
RTVSPost2010Prop51ColorRGB
 90
-16777216
102
RTVSPost2010PropOp51
 70
     0
102
RTVSPost2010Prop52
140
1.0
102
RTVSPost2010PropOp52
 70
     0
102
RTVSPost2010Prop53
 90
        2
102
RTVSPost2010PropOp53
 70
     1
102
RTVSPost2010Prop54
  1
strokes_ogs.tif
102
RTVSPost2010PropOp54
 70
     1
102
RTVSPost2010Prop55
280
     0
102
RTVSPost2010PropOp55
 70
     1
102
RTVSPost2010Prop56
140
1.0
102
RTVSPost2010PropOp56
 70
     1
102
RTVSPost2010Prop57
140
1.0
102
RTVSPost2010PropOp57
 70
     1
102
RTVSPropertyOp0
 70
     1
102
RTVSPropertyOp1
 70
     1
102
RTVSPropertyOp2
 70
     1
102
RTVSPropertyOp3
 70
     1
102
RTVSPropertyOp4
 70
     1
102
RTVSPropertyOp5
 70
     1
102
RTVSPropertyOp6
 70
     1
102
RTVSPropertyOp7
 70
     1
102
RTVSPropertyOp8
 70
     1
102
RTVSPropertyOp9
 70
     1
102
RTVSPropertyOp10
 70
     1
102
RTVSPropertyOp11
 70
     1
102
RTVSPropertyOp12
 70
     1
102
RTVSPropertyOp13
 70
     1
102
RTVSPropertyOp14
 70
     1
102
RTVSPropertyOp15
 70
     1
102
RTVSPropertyOp16
 70
     1
102
RTVSPropertyOp17
 70
     1
102
RTVSPropertyOp18
 70
     1
102
RTVSPropertyOp19
 70
     1
102
RTVSPropertyOp20
 70
     1
102
RTVSPropertyOp21
 70
     1
102
RTVSPropertyOp22
 70
     1
102
RTVSPropertyOp23
 70
     1
102
RTVSPropertyOp24
 70
     1
102
RTVSPropertyOp25
 70
     1
102
RTVSPropertyOp26
 70
     1
102
RTVSPropertyOp27
 70
     1
102
RTVSPropertyOp28
 70
     1
102
RTVSPropertyOp29
 70
     1
102
RTVSPropertyOp30
 70
     1
102
RTVSPropertyOp31
 70
     1
102
RTVSPropertyOp32
 70
     1
102
RTVSPropertyOp33
 70
     1
102
RTVSPropertyOp34
 70
     1
102
RTVSPropertyOp35
 70
     1
102
RTVSPropertyOp36
 70
     1
102
RTVSPropertyOp37
 70
     1
102
RTVSPropertyOp38
 70
     1
102
RTVSPropertyOp39
 70
     1
102
RTVSPropertyOp40
 70
     1
102
RTVSPropertyOp41
 70
     1
102
RTVSPropertyOp42
 70
     1
102
RTVSPropertyOp43
 70
     1
102
RTVSPropertyOp44
 70
     1
102
RTVSPropertyOp45
 70
     1
102
RTVSPropertyOp46
 70
     1
102
RTVSPropertyOp47
 70
     1
102
RTVSPropertyOp48
 70
     1
102
RTVSPropertyOp49
 70
     1
102
RTVSPropertyOp50
 70
     1
102
RTVSPropertyOp51
 70
     0
102
RTVSPropertyOp52
 70
     0
102
RTVSPropertyOp53
 70
     1
102
RTVSPropertyOp54
 70
     1
102
RTVSPropertyOp55
 70
     1
102
RTVSPropertyOp56
 70
     1
102
RTVSPropertyOp57
 70
     1
102
RTVSPropertyOp58
 70
     1
102
RTVSPropertyOp59
 70
     1
102
RTVSPropertyOp60
 70
     1
102
RTVSPropertyOp61
 70
     1
102
RTVSPropertyOp62
 70
     1
  0
XRECORD
  5
F0F1
102
{ACAD_REACTORS
330
F0F0
102
}
330
F0F0
100
AcDbXrecord
280
     1
102
RTVSPost2010Prop28
280
     0
102
RTVSPost2010PropOp28
 70
     1
102
RTVSPost2010Prop29
280
     1
102
RTVSPost2010PropOp29
 70
     1
102
RTVSPost2010Prop30
280
     1
102
RTVSPost2010PropOp30
 70
     1
102
RTVSPost2010Prop31
280
     0
102
RTVSPost2010PropOp31
 70
     1
102
RTVSPost2010Prop32
280
     0
102
RTVSPost2010PropOp32
 70
     1
102
RTVSPost2010Prop33
280
     0
102
RTVSPost2010PropOp33
 70
     1
102
RTVSPost2010Prop34
280
     0
102
RTVSPost2010PropOp34
 70
     1
102
RTVSPost2010Prop35
280
     0
102
RTVSPost2010PropOp35
 70
     1
102
RTVSPost2010Prop36
280
     0
102
RTVSPost2010PropOp36
 70
     1
102
RTVSPost2010Prop37
 90
       50
102
RTVSPost2010PropOp37
 70
     1
102
RTVSPost2010Prop38
140
0.0
102
RTVSPost2010PropOp38
 70
     1
102
RTVSPost2010Prop39
140
1.0
102
RTVSPost2010PropOp39
 70
     1
102
RTVSPost2010Prop40
 90
        0
102
RTVSPost2010PropOp40
 70
     1
102
RTVSPost2010Prop41ColorIndex
 90
       18
102
RTVSPost2010Prop41ColorRGB
 90
        0
102
RTVSPost2010PropOp41
 70
     1
102
RTVSPost2010Prop42
 90
       50
102
RTVSPost2010PropOp42
 70
     1
102
RTVSPost2010Prop43
 90
        3
102
RTVSPost2010PropOp43
 70
     1
102
RTVSPost2010Prop44ColorIndex
 90
        5
102
RTVSPost2010Prop44ColorRGB
 90
      255
102
RTVSPost2010PropOp44
 70
     1
102
RTVSPost2010Prop45
280
     0
102
RTVSPost2010PropOp45
 70
     1
102
RTVSPost2010Prop46
 90
       50
102
RTVSPost2010PropOp46
 70
     1
102
RTVSPost2010Prop47
 90
       50
102
RTVSPost2010PropOp47
 70
     1
102
RTVSPost2010Prop48
 90
       50
102
RTVSPost2010PropOp48
 70
     1
102
RTVSPost2010Prop49
280
     0
102
RTVSPost2010PropOp49
 70
     1
102
RTVSPost2010Prop50
 90
       50
102
RTVSPost2010PropOp50
 70
     1
102
RTVSPost2010Prop51ColorIndex
 90
      256
102
RTVSPost2010Prop51ColorRGB
 90
-16777216
102
RTVSPost2010PropOp51
 70
     0
102
RTVSPost2010Prop52
140
1.0
102
RTVSPost2010PropOp52
 70
     0
102
RTVSPost2010Prop53
 90
        2
102
RTVSPost2010PropOp53
 70
     1
102
RTVSPost2010Prop54
  1
strokes_ogs.tif
102
RTVSPost2010PropOp54
 70
     1
102
RTVSPost2010Prop55
280
     0
102
RTVSPost2010PropOp55
 70
     1
102
RTVSPost2010Prop56
140
1.0
102
RTVSPost2010PropOp56
 70
     1
102
RTVSPost2010Prop57
140
1.0
102
RTVSPost2010PropOp57
 70
     1
102
RTVSPropertyOp0
 70
     1
102
RTVSPropertyOp1
 70
     1
102
RTVSPropertyOp2
 70
     1
102
RTVSPropertyOp3
 70
     1
102
RTVSPropertyOp4
 70
     1
102
RTVSPropertyOp5
 70
     1
102
RTVSPropertyOp6
 70
     1
102
RTVSPropertyOp7
 70
     1
102
RTVSPropertyOp8
 70
     1
102
RTVSPropertyOp9
 70
     1
102
RTVSPropertyOp10
 70
     1
102
RTVSPropertyOp11
 70
     1
102
RTVSPropertyOp12
 70
     1
102
RTVSPropertyOp13
 70
     1
102
RTVSPropertyOp14
 70
     1
102
RTVSPropertyOp15
 70
     1
102
RTVSPropertyOp16
 70
     1
102
RTVSPropertyOp17
 70
     1
102
RTVSPropertyOp18
 70
     1
102
RTVSPropertyOp19
 70
     1
102
RTVSPropertyOp20
 70
     1
102
RTVSPropertyOp21
 70
     1
102
RTVSPropertyOp22
 70
     1
102
RTVSPropertyOp23
 70
     1
102
RTVSPropertyOp24
 70
     1
102
RTVSPropertyOp25
 70
     1
102
RTVSPropertyOp26
 70
     1
102
RTVSPropertyOp27
 70
     1
102
RTVSPropertyOp28
 70
     1
102
RTVSPropertyOp29
 70
     1
102
RTVSPropertyOp30
 70
     1
102
RTVSPropertyOp31
 70
     1
102
RTVSPropertyOp32
 70
     1
102
RTVSPropertyOp33
 70
     1
102
RTVSPropertyOp34
 70
     1
102
RTVSPropertyOp35
 70
     1
102
RTVSPropertyOp36
 70
     1
102
RTVSPropertyOp37
 70
     1
102
RTVSPropertyOp38
 70
     1
102
RTVSPropertyOp39
 70
     1
102
RTVSPropertyOp40
 70
     1
102
RTVSPropertyOp41
 70
     1
102
RTVSPropertyOp42
 70
     1
102
RTVSPropertyOp43
 70
     1
102
RTVSPropertyOp44
 70
     1
102
RTVSPropertyOp45
 70
     1
102
RTVSPropertyOp46
 70
     1
102
RTVSPropertyOp47
 70
     1
102
RTVSPropertyOp48
 70
     1
102
RTVSPropertyOp49
 70
     1
102
RTVSPropertyOp50
 70
     1
102
RTVSPropertyOp51
 70
     0
102
RTVSPropertyOp52
 70
     0
102
RTVSPropertyOp53
 70
     1
102
RTVSPropertyOp54
 70
     1
102
RTVSPropertyOp55
 70
     1
102
RTVSPropertyOp56
 70
     1
102
RTVSPropertyOp57
 70
     1
102
RTVSPropertyOp58
 70
     1
102
RTVSPropertyOp59
 70
     1
102
RTVSPropertyOp60
 70
     1
102
RTVSPropertyOp61
 70
     1
102
RTVSPropertyOp62
 70
     1
  0
XRECORD
  5
F0F3
102
{ACAD_REACTORS
330
F0F2
102
}
330
F0F2
100
AcDbXrecord
280
     1
102
RTVSPost2010Prop28
280
     0
102
RTVSPost2010PropOp28
 70
     1
102
RTVSPost2010Prop29
280
     1
102
RTVSPost2010PropOp29
 70
     1
102
RTVSPost2010Prop30
280
     1
102
RTVSPost2010PropOp30
 70
     1
102
RTVSPost2010Prop31
280
     0
102
RTVSPost2010PropOp31
 70
     1
102
RTVSPost2010Prop32
280
     0
102
RTVSPost2010PropOp32
 70
     1
102
RTVSPost2010Prop33
280
     0
102
RTVSPost2010PropOp33
 70
     1
102
RTVSPost2010Prop34
280
     0
102
RTVSPost2010PropOp34
 70
     1
102
RTVSPost2010Prop35
280
     0
102
RTVSPost2010PropOp35
 70
     1
102
RTVSPost2010Prop36
280
     0
102
RTVSPost2010PropOp36
 70
     1
102
RTVSPost2010Prop37
 90
       50
102
RTVSPost2010PropOp37
 70
     1
102
RTVSPost2010Prop38
140
0.0
102
RTVSPost2010PropOp38
 70
     1
102
RTVSPost2010Prop39
140
1.0
102
RTVSPost2010PropOp39
 70
     1
102
RTVSPost2010Prop40
 90
        0
102
RTVSPost2010PropOp40
 70
     1
102
RTVSPost2010Prop41ColorIndex
 90
       18
102
RTVSPost2010Prop41ColorRGB
 90
        0
102
RTVSPost2010PropOp41
 70
     1
102
RTVSPost2010Prop42
 90
       50
102
RTVSPost2010PropOp42
 70
     1
102
RTVSPost2010Prop43
 90
        3
102
RTVSPost2010PropOp43
 70
     1
102
RTVSPost2010Prop44ColorIndex
 90
        5
102
RTVSPost2010Prop44ColorRGB
 90
      255
102
RTVSPost2010PropOp44
 70
     1
102
RTVSPost2010Prop45
280
     0
102
RTVSPost2010PropOp45
 70
     1
102
RTVSPost2010Prop46
 90
       50
102
RTVSPost2010PropOp46
 70
     1
102
RTVSPost2010Prop47
 90
       50
102
RTVSPost2010PropOp47
 70
     1
102
RTVSPost2010Prop48
 90
       50
102
RTVSPost2010PropOp48
 70
     1
102
RTVSPost2010Prop49
280
     0
102
RTVSPost2010PropOp49
 70
     1
102
RTVSPost2010Prop50
 90
       50
102
RTVSPost2010PropOp50
 70
     1
102
RTVSPost2010Prop51ColorIndex
 90
      256
102
RTVSPost2010Prop51ColorRGB
 90
-16777216
102
RTVSPost2010PropOp51
 70
     0
102
RTVSPost2010Prop52
140
1.0
102
RTVSPost2010PropOp52
 70
     0
102
RTVSPost2010Prop53
 90
        2
102
RTVSPost2010PropOp53
 70
     1
102
RTVSPost2010Prop54
  1
strokes_ogs.tif
102
RTVSPost2010PropOp54
 70
     1
102
RTVSPost2010Prop55
280
     0
102
RTVSPost2010PropOp55
 70
     1
102
RTVSPost2010Prop56
140
1.0
102
RTVSPost2010PropOp56
 70
     1
102
RTVSPost2010Prop57
140
1.0
102
RTVSPost2010PropOp57
 70
     1
102
RTVSPropertyOp0
 70
     1
102
RTVSPropertyOp1
 70
     1
102
RTVSPropertyOp2
 70
     1
102
RTVSPropertyOp3
 70
     1
102
RTVSPropertyOp4
 70
     1
102
RTVSPropertyOp5
 70
     1
102
RTVSPropertyOp6
 70
     1
102
RTVSPropertyOp7
 70
     1
102
RTVSPropertyOp8
 70
     1
102
RTVSPropertyOp9
 70
     1
102
RTVSPropertyOp10
 70
     1
102
RTVSPropertyOp11
 70
     1
102
RTVSPropertyOp12
 70
     1
102
RTVSPropertyOp13
 70
     1
102
RTVSPropertyOp14
 70
     1
102
RTVSPropertyOp15
 70
     1
102
RTVSPropertyOp16
 70
     1
102
RTVSPropertyOp17
 70
     1
102
RTVSPropertyOp18
 70
     1
102
RTVSPropertyOp19
 70
     1
102
RTVSPropertyOp20
 70
     1
102
RTVSPropertyOp21
 70
     1
102
RTVSPropertyOp22
 70
     1
102
RTVSPropertyOp23
 70
     1
102
RTVSPropertyOp24
 70
     1
102
RTVSPropertyOp25
 70
     1
102
RTVSPropertyOp26
 70
     1
102
RTVSPropertyOp27
 70
     1
102
RTVSPropertyOp28
 70
     1
102
RTVSPropertyOp29
 70
     1
102
RTVSPropertyOp30
 70
     1
102
RTVSPropertyOp31
 70
     1
102
RTVSPropertyOp32
 70
     1
102
RTVSPropertyOp33
 70
     1
102
RTVSPropertyOp34
 70
     1
102
RTVSPropertyOp35
 70
     1
102
RTVSPropertyOp36
 70
     1
102
RTVSPropertyOp37
 70
     1
102
RTVSPropertyOp38
 70
     1
102
RTVSPropertyOp39
 70
     1
102
RTVSPropertyOp40
 70
     1
102
RTVSPropertyOp41
 70
     1
102
RTVSPropertyOp42
 70
     1
102
RTVSPropertyOp43
 70
     1
102
RTVSPropertyOp44
 70
     1
102
RTVSPropertyOp45
 70
     1
102
RTVSPropertyOp46
 70
     1
102
RTVSPropertyOp47
 70
     1
102
RTVSPropertyOp48
 70
     1
102
RTVSPropertyOp49
 70
     1
102
RTVSPropertyOp50
 70
     1
102
RTVSPropertyOp51
 70
     0
102
RTVSPropertyOp52
 70
     0
102
RTVSPropertyOp53
 70
     1
102
RTVSPropertyOp54
 70
     1
102
RTVSPropertyOp55
 70
     1
102
RTVSPropertyOp56
 70
     1
102
RTVSPropertyOp57
 70
     1
102
RTVSPropertyOp58
 70
     1
102
RTVSPropertyOp59
 70
     1
102
RTVSPropertyOp60
 70
     1
102
RTVSPropertyOp61
 70
     1
102
RTVSPropertyOp62
 70
     1
  0
XRECORD
  5
F0E1
102
{ACAD_REACTORS
330
F0E0
102
}
330
F0E0
100
AcDbXrecord
280
     1
102
RTVSPost2010Prop28
280
     0
102
RTVSPost2010PropOp28
 70
     1
102
RTVSPost2010Prop29
280
     1
102
RTVSPost2010PropOp29
 70
     1
102
RTVSPost2010Prop30
280
     1
102
RTVSPost2010PropOp30
 70
     1
102
RTVSPost2010Prop31
280
     0
102
RTVSPost2010PropOp31
 70
     1
102
RTVSPost2010Prop32
280
     0
102
RTVSPost2010PropOp32
 70
     1
102
RTVSPost2010Prop33
280
     0
102
RTVSPost2010PropOp33
 70
     1
102
RTVSPost2010Prop34
280
     0
102
RTVSPost2010PropOp34
 70
     1
102
RTVSPost2010Prop35
280
     0
102
RTVSPost2010PropOp35
 70
     1
102
RTVSPost2010Prop36
280
     0
102
RTVSPost2010PropOp36
 70
     1
102
RTVSPost2010Prop37
 90
       50
102
RTVSPost2010PropOp37
 70
     1
102
RTVSPost2010Prop38
140
0.0
102
RTVSPost2010PropOp38
 70
     1
102
RTVSPost2010Prop39
140
1.0
102
RTVSPost2010PropOp39
 70
     1
102
RTVSPost2010Prop40
 90
        0
102
RTVSPost2010PropOp40
 70
     1
102
RTVSPost2010Prop41ColorIndex
 90
       18
102
RTVSPost2010Prop41ColorRGB
 90
        0
102
RTVSPost2010PropOp41
 70
     1
102
RTVSPost2010Prop42
 90
       50
102
RTVSPost2010PropOp42
 70
     1
102
RTVSPost2010Prop43
 90
        3
102
RTVSPost2010PropOp43
 70
     1
102
RTVSPost2010Prop44ColorIndex
 90
        5
102
RTVSPost2010Prop44ColorRGB
 90
      255
102
RTVSPost2010PropOp44
 70
     1
102
RTVSPost2010Prop45
280
     0
102
RTVSPost2010PropOp45
 70
     1
102
RTVSPost2010Prop46
 90
       50
102
RTVSPost2010PropOp46
 70
     1
102
RTVSPost2010Prop47
 90
       50
102
RTVSPost2010PropOp47
 70
     1
102
RTVSPost2010Prop48
 90
       50
102
RTVSPost2010PropOp48
 70
     1
102
RTVSPost2010Prop49
280
     0
102
RTVSPost2010PropOp49
 70
     1
102
RTVSPost2010Prop50
 90
       50
102
RTVSPost2010PropOp50
 70
     1
102
RTVSPost2010Prop51ColorIndex
 90
      256
102
RTVSPost2010Prop51ColorRGB
 90
-16777216
102
RTVSPost2010PropOp51
 70
     0
102
RTVSPost2010Prop52
140
1.0
102
RTVSPost2010PropOp52
 70
     0
102
RTVSPost2010Prop53
 90
        2
102
RTVSPost2010PropOp53
 70
     1
102
RTVSPost2010Prop54
  1
strokes_ogs.tif
102
RTVSPost2010PropOp54
 70
     1
102
RTVSPost2010Prop55
280
     0
102
RTVSPost2010PropOp55
 70
     1
102
RTVSPost2010Prop56
140
1.0
102
RTVSPost2010PropOp56
 70
     1
102
RTVSPost2010Prop57
140
1.0
102
RTVSPost2010PropOp57
 70
     1
102
RTVSPropertyOp0
 70
     1
102
RTVSPropertyOp1
 70
     1
102
RTVSPropertyOp2
 70
     1
102
RTVSPropertyOp3
 70
     1
102
RTVSPropertyOp4
 70
     1
102
RTVSPropertyOp5
 70
     1
102
RTVSPropertyOp6
 70
     1
102
RTVSPropertyOp7
 70
     1
102
RTVSPropertyOp8
 70
     1
102
RTVSPropertyOp9
 70
     1
102
RTVSPropertyOp10
 70
     1
102
RTVSPropertyOp11
 70
     1
102
RTVSPropertyOp12
 70
     1
102
RTVSPropertyOp13
 70
     1
102
RTVSPropertyOp14
 70
     1
102
RTVSPropertyOp15
 70
     1
102
RTVSPropertyOp16
 70
     1
102
RTVSPropertyOp17
 70
     1
102
RTVSPropertyOp18
 70
     1
102
RTVSPropertyOp19
 70
     1
102
RTVSPropertyOp20
 70
     1
102
RTVSPropertyOp21
 70
     1
102
RTVSPropertyOp22
 70
     1
102
RTVSPropertyOp23
 70
     1
102
RTVSPropertyOp24
 70
     1
102
RTVSPropertyOp25
 70
     1
102
RTVSPropertyOp26
 70
     1
102
RTVSPropertyOp27
 70
     1
102
RTVSPropertyOp28
 70
     1
102
RTVSPropertyOp29
 70
     1
102
RTVSPropertyOp30
 70
     1
102
RTVSPropertyOp31
 70
     1
102
RTVSPropertyOp32
 70
     1
102
RTVSPropertyOp33
 70
     1
102
RTVSPropertyOp34
 70
     1
102
RTVSPropertyOp35
 70
     1
102
RTVSPropertyOp36
 70
     1
102
RTVSPropertyOp37
 70
     1
102
RTVSPropertyOp38
 70
     1
102
RTVSPropertyOp39
 70
     1
102
RTVSPropertyOp40
 70
     1
102
RTVSPropertyOp41
 70
     1
102
RTVSPropertyOp42
 70
     1
102
RTVSPropertyOp43
 70
     1
102
RTVSPropertyOp44
 70
     1
102
RTVSPropertyOp45
 70
     1
102
RTVSPropertyOp46
 70
     1
102
RTVSPropertyOp47
 70
     1
102
RTVSPropertyOp48
 70
     1
102
RTVSPropertyOp49
 70
     1
102
RTVSPropertyOp50
 70
     1
102
RTVSPropertyOp51
 70
     0
102
RTVSPropertyOp52
 70
     0
102
RTVSPropertyOp53
 70
     1
102
RTVSPropertyOp54
 70
     1
102
RTVSPropertyOp55
 70
     1
102
RTVSPropertyOp56
 70
     1
102
RTVSPropertyOp57
 70
     1
102
RTVSPropertyOp58
 70
     1
102
RTVSPropertyOp59
 70
     1
102
RTVSPropertyOp60
 70
     1
102
RTVSPropertyOp61
 70
     1
102
RTVSPropertyOp62
 70
     1
  0
XRECORD
  5
F0D5
102
{ACAD_REACTORS
330
F0D4
102
}
330
F0D4
100
AcDbXrecord
280
     1
102
RTVSPost2010Prop28
280
     0
102
RTVSPost2010PropOp28
 70
     1
102
RTVSPost2010Prop29
280
     1
102
RTVSPost2010PropOp29
 70
     1
102
RTVSPost2010Prop30
280
     1
102
RTVSPost2010PropOp30
 70
     1
102
RTVSPost2010Prop31
280
     0
102
RTVSPost2010PropOp31
 70
     1
102
RTVSPost2010Prop32
280
     0
102
RTVSPost2010PropOp32
 70
     1
102
RTVSPost2010Prop33
280
     0
102
RTVSPost2010PropOp33
 70
     1
102
RTVSPost2010Prop34
280
     0
102
RTVSPost2010PropOp34
 70
     1
102
RTVSPost2010Prop35
280
     0
102
RTVSPost2010PropOp35
 70
     1
102
RTVSPost2010Prop36
280
     0
102
RTVSPost2010PropOp36
 70
     1
102
RTVSPost2010Prop37
 90
       50
102
RTVSPost2010PropOp37
 70
     1
102
RTVSPost2010Prop38
140
0.0
102
RTVSPost2010PropOp38
 70
     1
102
RTVSPost2010Prop39
140
1.0
102
RTVSPost2010PropOp39
 70
     1
102
RTVSPost2010Prop40
 90
        0
102
RTVSPost2010PropOp40
 70
     1
102
RTVSPost2010Prop41ColorIndex
 90
       18
102
RTVSPost2010Prop41ColorRGB
 90
        0
102
RTVSPost2010PropOp41
 70
     1
102
RTVSPost2010Prop42
 90
       50
102
RTVSPost2010PropOp42
 70
     1
102
RTVSPost2010Prop43
 90
        3
102
RTVSPost2010PropOp43
 70
     1
102
RTVSPost2010Prop44ColorIndex
 90
        5
102
RTVSPost2010Prop44ColorRGB
 90
      255
102
RTVSPost2010PropOp44
 70
     1
102
RTVSPost2010Prop45
280
     0
102
RTVSPost2010PropOp45
 70
     1
102
RTVSPost2010Prop46
 90
       50
102
RTVSPost2010PropOp46
 70
     1
102
RTVSPost2010Prop47
 90
       50
102
RTVSPost2010PropOp47
 70
     1
102
RTVSPost2010Prop48
 90
       50
102
RTVSPost2010PropOp48
 70
     1
102
RTVSPost2010Prop49
280
     0
102
RTVSPost2010PropOp49
 70
     1
102
RTVSPost2010Prop50
 90
       50
102
RTVSPost2010PropOp50
 70
     1
102
RTVSPost2010Prop51ColorIndex
 90
      256
102
RTVSPost2010Prop51ColorRGB
 90
-16777216
102
RTVSPost2010PropOp51
 70
     0
102
RTVSPost2010Prop52
140
1.0
102
RTVSPost2010PropOp52
 70
     0
102
RTVSPost2010Prop53
 90
        2
102
RTVSPost2010PropOp53
 70
     1
102
RTVSPost2010Prop54
  1
strokes_ogs.tif
102
RTVSPost2010PropOp54
 70
     1
102
RTVSPost2010Prop55
280
     0
102
RTVSPost2010PropOp55
 70
     1
102
RTVSPost2010Prop56
140
1.0
102
RTVSPost2010PropOp56
 70
     1
102
RTVSPost2010Prop57
140
1.0
102
RTVSPost2010PropOp57
 70
     1
102
RTVSPropertyOp0
 70
     1
102
RTVSPropertyOp1
 70
     1
102
RTVSPropertyOp2
 70
     1
102
RTVSPropertyOp3
 70
     1
102
RTVSPropertyOp4
 70
     1
102
RTVSPropertyOp5
 70
     1
102
RTVSPropertyOp6
 70
     1
102
RTVSPropertyOp7
 70
     1
102
RTVSPropertyOp8
 70
     1
102
RTVSPropertyOp9
 70
     1
102
RTVSPropertyOp10
 70
     1
102
RTVSPropertyOp11
 70
     1
102
RTVSPropertyOp12
 70
     1
102
RTVSPropertyOp13
 70
     1
102
RTVSPropertyOp14
 70
     1
102
RTVSPropertyOp15
 70
     1
102
RTVSPropertyOp16
 70
     1
102
RTVSPropertyOp17
 70
     1
102
RTVSPropertyOp18
 70
     1
102
RTVSPropertyOp19
 70
     1
102
RTVSPropertyOp20
 70
     1
102
RTVSPropertyOp21
 70
     1
102
RTVSPropertyOp22
 70
     1
102
RTVSPropertyOp23
 70
     1
102
RTVSPropertyOp24
 70
     1
102
RTVSPropertyOp25
 70
     1
102
RTVSPropertyOp26
 70
     1
102
RTVSPropertyOp27
 70
     1
102
RTVSPropertyOp28
 70
     1
102
RTVSPropertyOp29
 70
     1
102
RTVSPropertyOp30
 70
     1
102
RTVSPropertyOp31
 70
     1
102
RTVSPropertyOp32
 70
     1
102
RTVSPropertyOp33
 70
     1
102
RTVSPropertyOp34
 70
     1
102
RTVSPropertyOp35
 70
     1
102
RTVSPropertyOp36
 70
     1
102
RTVSPropertyOp37
 70
     1
102
RTVSPropertyOp38
 70
     1
102
RTVSPropertyOp39
 70
     1
102
RTVSPropertyOp40
 70
     1
102
RTVSPropertyOp41
 70
     1
102
RTVSPropertyOp42
 70
     1
102
RTVSPropertyOp43
 70
     1
102
RTVSPropertyOp44
 70
     1
102
RTVSPropertyOp45
 70
     1
102
RTVSPropertyOp46
 70
     1
102
RTVSPropertyOp47
 70
     1
102
RTVSPropertyOp48
 70
     1
102
RTVSPropertyOp49
 70
     1
102
RTVSPropertyOp50
 70
     1
102
RTVSPropertyOp51
 70
     0
102
RTVSPropertyOp52
 70
     0
102
RTVSPropertyOp53
 70
     1
102
RTVSPropertyOp54
 70
     1
102
RTVSPropertyOp55
 70
     1
102
RTVSPropertyOp56
 70
     1
102
RTVSPropertyOp57
 70
     1
102
RTVSPropertyOp58
 70
     1
102
RTVSPropertyOp59
 70
     1
102
RTVSPropertyOp60
 70
     1
102
RTVSPropertyOp61
 70
     1
102
RTVSPropertyOp62
 70
     1
  0
XRECORD
  5
F0F5
102
{ACAD_REACTORS
330
F0F4
102
}
330
F0F4
100
AcDbXrecord
280
     1
102
RTVSPost2010Prop28
280
     0
102
RTVSPost2010PropOp28
 70
     1
102
RTVSPost2010Prop29
280
     1
102
RTVSPost2010PropOp29
 70
     1
102
RTVSPost2010Prop30
280
     1
102
RTVSPost2010PropOp30
 70
     1
102
RTVSPost2010Prop31
280
     0
102
RTVSPost2010PropOp31
 70
     1
102
RTVSPost2010Prop32
280
     0
102
RTVSPost2010PropOp32
 70
     1
102
RTVSPost2010Prop33
280
     0
102
RTVSPost2010PropOp33
 70
     1
102
RTVSPost2010Prop34
280
     0
102
RTVSPost2010PropOp34
 70
     1
102
RTVSPost2010Prop35
280
     0
102
RTVSPost2010PropOp35
 70
     1
102
RTVSPost2010Prop36
280
     0
102
RTVSPost2010PropOp36
 70
     1
102
RTVSPost2010Prop37
 90
       50
102
RTVSPost2010PropOp37
 70
     1
102
RTVSPost2010Prop38
140
0.0
102
RTVSPost2010PropOp38
 70
     1
102
RTVSPost2010Prop39
140
1.0
102
RTVSPost2010PropOp39
 70
     1
102
RTVSPost2010Prop40
 90
        0
102
RTVSPost2010PropOp40
 70
     1
102
RTVSPost2010Prop41ColorIndex
 90
       18
102
RTVSPost2010Prop41ColorRGB
 90
        0
102
RTVSPost2010PropOp41
 70
     1
102
RTVSPost2010Prop42
 90
       50
102
RTVSPost2010PropOp42
 70
     1
102
RTVSPost2010Prop43
 90
        3
102
RTVSPost2010PropOp43
 70
     1
102
RTVSPost2010Prop44ColorIndex
 90
        5
102
RTVSPost2010Prop44ColorRGB
 90
      255
102
RTVSPost2010PropOp44
 70
     1
102
RTVSPost2010Prop45
280
     0
102
RTVSPost2010PropOp45
 70
     1
102
RTVSPost2010Prop46
 90
       50
102
RTVSPost2010PropOp46
 70
     1
102
RTVSPost2010Prop47
 90
       50
102
RTVSPost2010PropOp47
 70
     1
102
RTVSPost2010Prop48
 90
       50
102
RTVSPost2010PropOp48
 70
     1
102
RTVSPost2010Prop49
280
     0
102
RTVSPost2010PropOp49
 70
     1
102
RTVSPost2010Prop50
 90
       50
102
RTVSPost2010PropOp50
 70
     1
102
RTVSPost2010Prop51ColorIndex
 90
      256
102
RTVSPost2010Prop51ColorRGB
 90
-16777216
102
RTVSPost2010PropOp51
 70
     0
102
RTVSPost2010Prop52
140
1.0
102
RTVSPost2010PropOp52
 70
     0
102
RTVSPost2010Prop53
 90
        2
102
RTVSPost2010PropOp53
 70
     1
102
RTVSPost2010Prop54
  1
strokes_ogs.tif
102
RTVSPost2010PropOp54
 70
     1
102
RTVSPost2010Prop55
280
     0
102
RTVSPost2010PropOp55
 70
     1
102
RTVSPost2010Prop56
140
1.0
102
RTVSPost2010PropOp56
 70
     1
102
RTVSPost2010Prop57
140
1.0
102
RTVSPost2010PropOp57
 70
     1
102
RTVSPropertyOp0
 70
     1
102
RTVSPropertyOp1
 70
     1
102
RTVSPropertyOp2
 70
     1
102
RTVSPropertyOp3
 70
     1
102
RTVSPropertyOp4
 70
     1
102
RTVSPropertyOp5
 70
     1
102
RTVSPropertyOp6
 70
     1
102
RTVSPropertyOp7
 70
     1
102
RTVSPropertyOp8
 70
     1
102
RTVSPropertyOp9
 70
     1
102
RTVSPropertyOp10
 70
     1
102
RTVSPropertyOp11
 70
     1
102
RTVSPropertyOp12
 70
     1
102
RTVSPropertyOp13
 70
     1
102
RTVSPropertyOp14
 70
     1
102
RTVSPropertyOp15
 70
     1
102
RTVSPropertyOp16
 70
     1
102
RTVSPropertyOp17
 70
     1
102
RTVSPropertyOp18
 70
     1
102
RTVSPropertyOp19
 70
     1
102
RTVSPropertyOp20
 70
     1
102
RTVSPropertyOp21
 70
     1
102
RTVSPropertyOp22
 70
     1
102
RTVSPropertyOp23
 70
     1
102
RTVSPropertyOp24
 70
     1
102
RTVSPropertyOp25
 70
     1
102
RTVSPropertyOp26
 70
     1
102
RTVSPropertyOp27
 70
     1
102
RTVSPropertyOp28
 70
     1
102
RTVSPropertyOp29
 70
     1
102
RTVSPropertyOp30
 70
     1
102
RTVSPropertyOp31
 70
     1
102
RTVSPropertyOp32
 70
     1
102
RTVSPropertyOp33
 70
     1
102
RTVSPropertyOp34
 70
     1
102
RTVSPropertyOp35
 70
     1
102
RTVSPropertyOp36
 70
     1
102
RTVSPropertyOp37
 70
     1
102
RTVSPropertyOp38
 70
     1
102
RTVSPropertyOp39
 70
     1
102
RTVSPropertyOp40
 70
     1
102
RTVSPropertyOp41
 70
     1
102
RTVSPropertyOp42
 70
     1
102
RTVSPropertyOp43
 70
     1
102
RTVSPropertyOp44
 70
     1
102
RTVSPropertyOp45
 70
     1
102
RTVSPropertyOp46
 70
     1
102
RTVSPropertyOp47
 70
     1
102
RTVSPropertyOp48
 70
     1
102
RTVSPropertyOp49
 70
     1
102
RTVSPropertyOp50
 70
     1
102
RTVSPropertyOp51
 70
     0
102
RTVSPropertyOp52
 70
     0
102
RTVSPropertyOp53
 70
     1
102
RTVSPropertyOp54
 70
     1
102
RTVSPropertyOp55
 70
     1
102
RTVSPropertyOp56
 70
     1
102
RTVSPropertyOp57
 70
     1
102
RTVSPropertyOp58
 70
     1
102
RTVSPropertyOp59
 70
     1
102
RTVSPropertyOp60
 70
     1
102
RTVSPropertyOp61
 70
     1
102
RTVSPropertyOp62
 70
     1
  0
ENDSEC
  0
EOF
