  0
SECTION
  2
HEADER
  9
$ACADVER
  1
AC1015
  9
$ACADMAINTVER
 70
    18
  9
$DWGCODEPAGE
  3
ANSI_1252
  9
$INSBASE
 10
0.0
 20
0.0
 30
0.0
  9
$EXTMIN
 10
-221.4331047486433
 20
-345.971282670241
 30
-0.0015258207003583
  9
$EXTMAX
 10
273.7985237569067
 20
307.590958345438
 30
0.0000000349246037
  9
$LIMMIN
 10
0.0
 20
0.0
  9
$LIMMAX
 10
420.0
 20
297.0
  9
$ORTHOMODE
 70
     0
  9
$REGENMODE
 70
     1
  9
$FILLMODE
 70
     1
  9
$QTEXTMODE
 70
     0
  9
$MIRRTEXT
 70
     0
  9
$LTSCALE
 40
1.0
  9
$ATTMODE
 70
     1
  9
$TEXTSIZE
 40
2.5
  9
$TRACEWID
 40
1.0
  9
$TEXTSTYLE
  7
Standard
  9
$CLAYER
  8
0
  9
$CELTYPE
  6
ByLayer
  9
$CECOLOR
 62
   256
  9
$CELTSCALE
 40
1.0
  9
$DISPSILH
 70
     0
  9
$DIMSCALE
 40
1.0
  9
$DIMASZ
 40
2.5
  9
$DIMEXO
 40
0.625
  9
$DIMDLI
 40
3.75
  9
$DIMRND
 40
0.0
  9
$DIMDLE
 40
0.0
  9
$DIMEXE
 40
1.25
  9
$DIMTP
 40
0.0
  9
$DIMTM
 40
0.0
  9
$DIMTXT
 40
2.5
  9
$DIMCEN
 40
2.5
  9
$DIMTSZ
 40
0.0
  9
$DIMTOL
 70
     0
  9
$DIMLIM
 70
     0
  9
$DIMTIH
 70
     0
  9
$DIMTOH
 70
     0
  9
$DIMSE1
 70
     0
  9
$DIMSE2
 70
     0
  9
$DIMTAD
 70
     1
  9
$DIMZIN
 70
     8
  9
$DIMBLK
  1

  9
$DIMASO
 70
     1
  9
$DIMSHO
 70
     1
  9
$DIMPOST
  1

  9
$DIMAPOST
  1

  9
$DIMALT
 70
     0
  9
$DIMALTD
 70
     3
  9
$DIMALTF
 40
0.03937007874016
  9
$DIMLFAC
 40
1.0
  9
$DIMTOFL
 70
     1
  9
$DIMTVP
 40
0.0
  9
$DIMTIX
 70
     0
  9
$DIMSOXD
 70
     0
  9
$DIMSAH
 70
     0
  9
$DIMBLK1
  1

  9
$DIMBLK2
  1

  9
$DIMSTYLE
  2
ISO-25
  9
$DIMCLRD
 70
     0
  9
$DIMCLRE
 70
     0
  9
$DIMCLRT
 70
     0
  9
$DIMTFAC
 40
1.0
  9
$DIMGAP
 40
0.625
  9
$DIMJUST
 70
     0
  9
$DIMSD1
 70
     0
  9
$DIMSD2
 70
     0
  9
$DIMTOLJ
 70
     0
  9
$DIMTZIN
 70
     8
  9
$DIMALTZ
 70
     0
  9
$DIMALTTZ
 70
     0
  9
$DIMUPT
 70
     0
  9
$DIMDEC
 70
     2
  9
$DIMTDEC
 70
     2
  9
$DIMALTU
 70
     2
  9
$DIMALTTD
 70
     3
  9
$DIMTXSTY
  7
Standard
  9
$DIMAUNIT
 70
     0
  9
$DIMADEC
 70
     0
  9
$DIMALTRND
 40
0.0
  9
$DIMAZIN
 70
     0
  9
$DIMDSEP
 70
    44
  9
$DIMATFIT
 70
     3
  9
$DIMFRAC
 70
     0
  9
$DIMLDRBLK
  1

  9
$DIMLUNIT
 70
     2
  9
$DIMLWD
 70
    -2
  9
$DIMLWE
 70
    -2
  9
$DIMTMOVE
 70
     0
  9
$LUNITS
 70
     2
  9
$LUPREC
 70
     4
  9
$SKETCHINC
 40
1.0
  9
$FILLETRAD
 40
0.0
  9
$AUNITS
 70
     0
  9
$AUPREC
 70
     0
  9
$MENU
  1
.
  9
$ELEVATION
 40
0.0
  9
$PELEVATION
 40
0.0
  9
$THICKNESS
 40
0.0
  9
$LIMCHECK
 70
     0
  9
$CHAMFERA
 40
0.0
  9
$CHAMFERB
 40
0.0
  9
$CHAMFERC
 40
0.0
  9
$CHAMFERD
 40
0.0
  9
$SKPOLY
 70
     0
  9
$TDCREATE
 40
2460719.406504630
  9
$TDUCREATE
 40
2460719.114837963
  9
$TDUPDATE
 40
2460719.414907408
  9
$TDUUPDATE
 40
2460719.123240741
  9
$TDINDWG
 40
0.0025694444
  9
$TDUSRTIMER
 40
0.0025694444
  9
$USRTIMER
 70
     1
  9
$ANGBASE
 50
0.0
  9
$ANGDIR
 70
     0
  9
$PDMODE
 70
     0
  9
$PDSIZE
 40
0.0
  9
$PLINEWID
 40
0.0
  9
$SPLFRAME
 70
     0
  9
$SPLINETYPE
 70
     6
  9
$SPLINESEGS
 70
     8
  9
$HANDSEED
  5
EDB7
  9
$SURFTAB1
 70
     6
  9
$SURFTAB2
 70
     6
  9
$SURFTYPE
 70
     6
  9
$SURFU
 70
     6
  9
$SURFV
 70
     6
  9
$UCSBASE
  2

  9
$UCSNAME
  2

  9
$UCSORG
 10
0.0
 20
0.0
 30
0.0
  9
$UCSXDIR
 10
1.0
 20
0.0
 30
0.0
  9
$UCSYDIR
 10
0.0
 20
1.0
 30
0.0
  9
$UCSORTHOREF
  2

  9
$UCSORTHOVIEW
 70
     0
  9
$UCSORGTOP
 10
0.0
 20
0.0
 30
0.0
  9
$UCSORGBOTTOM
 10
0.0
 20
0.0
 30
0.0
  9
$UCSORGLEFT
 10
0.0
 20
0.0
 30
0.0
  9
$UCSORGRIGHT
 10
0.0
 20
0.0
 30
0.0
  9
$UCSORGFRONT
 10
0.0
 20
0.0
 30
0.0
  9
$UCSORGBACK
 10
0.0
 20
0.0
 30
0.0
  9
$PUCSBASE
  2

  9
$PUCSNAME
  2

  9
$PUCSORG
 10
0.0
 20
0.0
 30
0.0
  9
$PUCSXDIR
 10
1.0
 20
0.0
 30
0.0
  9
$PUCSYDIR
 10
0.0
 20
1.0
 30
0.0
  9
$PUCSORTHOREF
  2

  9
$PUCSORTHOVIEW
 70
     0
  9
$PUCSORGTOP
 10
0.0
 20
0.0
 30
0.0
  9
$PUCSORGBOTTOM
 10
0.0
 20
0.0
 30
0.0
  9
$PUCSORGLEFT
 10
0.0
 20
0.0
 30
0.0
  9
$PUCSORGRIGHT
 10
0.0
 20
0.0
 30
0.0
  9
$PUCSORGFRONT
 10
0.0
 20
0.0
 30
0.0
  9
$PUCSORGBACK
 10
0.0
 20
0.0
 30
0.0
  9
$USERI1
 70
     0
  9
$USERI2
 70
     0
  9
$USERI3
 70
     0
  9
$USERI4
 70
     0
  9
$USERI5
 70
     0
  9
$USERR1
 40
0.0
  9
$USERR2
 40
0.0
  9
$USERR3
 40
0.0
  9
$USERR4
 40
0.0
  9
$USERR5
 40
0.0
  9
$WORLDVIEW
 70
     1
  9
$SHADEDGE
 70
     3
  9
$SHADEDIF
 70
    70
  9
$TILEMODE
 70
     1
  9
$MAXACTVP
 70
    48
  9
$PINSBASE
 10
0.0
 20
0.0
 30
0.0
  9
$PLIMCHECK
 70
     0
  9
$PEXTMIN
 10
0.0
 20
0.0
 30
0.0
  9
$PEXTMAX
 10
0.0
 20
0.0
 30
0.0
  9
$PLIMMIN
 10
0.0
 20
0.0
  9
$PLIMMAX
 10
12.0
 20
9.0
  9
$UNITMODE
 70
     0
  9
$VISRETAIN
 70
     1
  9
$PLINEGEN
 70
     0
  9
$PSLTSCALE
 70
     1
  9
$TREEDEPTH
 70
  3020
  9
$CMLSTYLE
  2
Standard
  9
$CMLJUST
 70
     0
  9
$CMLSCALE
 40
20.0
  9
$PROXYGRAPHICS
 70
     1
  9
$MEASUREMENT
 70
     1
  9
$CELWEIGHT
370
    -1
  9
$ENDCAPS
280
     0
  9
$JOINSTYLE
280
     0
  9
$LWDISPLAY
290
     0
  9
$INSUNITS
 70
     4
  9
$HYPERLINKBASE
  1

  9
$STYLESHEET
  1

  9
$XEDIT
290
     1
  9
$CEPSNTYPE
380
     0
  9
$PSTYLEMODE
290
     1
  9
$FINGERPRINTGUID
  2
{375C693C-302E-BC42-B92A-19F6C371B7B0}
  9
$VERSIONGUID
  2
{201C4160-A641-0548-A8EA-A90DD4CFFF5E}
  9
$EXTNAMES
290
     1
  9
$PSVPSCALE
 40
0.0
  9
$OLESTARTUP
290
     0
  0
ENDSEC
  0
SECTION
  2
CLASSES
  0
CLASS
  1
ACDBDICTIONARYWDFLT
  2
AcDbDictionaryWithDefault
  3
ObjectDBX Classes
 90
        0
280
     0
281
     0
  0
CLASS
  1
ACDBPLACEHOLDER
  2
AcDbPlaceHolder
  3
ObjectDBX Classes
 90
        0
280
     0
281
     0
  0
CLASS
  1
LAYOUT
  2
AcDbLayout
  3
ObjectDBX Classes
 90
        0
280
     0
281
     0
  0
CLASS
  1
DICTIONARYVAR
  2
AcDbDictionaryVar
  3
ObjectDBX Classes
 90
        0
280
     0
281
     0
  0
CLASS
  1
TABLESTYLE
  2
AcDbTableStyle
  3
ObjectDBX Classes
 90
     4095
280
     0
281
     0
  0
CLASS
  1
MATERIAL
  2
AcDbMaterial
  3
ObjectDBX Classes
 90
     1153
280
     0
281
     0
  0
CLASS
  1
VISUALSTYLE
  2
AcDbVisualStyle
  3
ObjectDBX Classes
 90
     4095
280
     0
281
     0
  0
CLASS
  1
SCALE
  2
AcDbScale
  3
ObjectDBX Classes
 90
     1153
280
     0
281
     0
  0
CLASS
  1
MLEADERSTYLE
  2
AcDbMLeaderStyle
  3
ACDB_MLEADERSTYLE_CLASS
 90
     4095
280
     0
281
     0
  0
CLASS
  1
CELLSTYLEMAP
  2
AcDbCellStyleMap
  3
ObjectDBX Classes
 90
     1152
280
     0
281
     0
  0
CLASS
  1
EXACXREFPANELOBJECT
  2
ExAcXREFPanelObject
  3
EXAC_ESW
 90
    33793
280
     0
281
     0
  0
CLASS
  1
NPOCOLLECTION
  2
AcDbImpNonPersistentObjectsCollection
  3
ObjectDBX Classes
 90
    33921
280
     0
281
     0
  0
CLASS
  1
LAYER_INDEX
  2
AcDbLayerIndex
  3
ObjectDBX Classes
 90
    32768
280
     0
281
     0
  0
CLASS
  1
SPATIAL_INDEX
  2
AcDbSpatialIndex
  3
ObjectDBX Classes
 90
    32768
280
     0
281
     0
  0
CLASS
  1
IDBUFFER
  2
AcDbIdBuffer
  3
ObjectDBX Classes
 90
    32768
280
     0
281
     0
  0
CLASS
  1
ACDBSECTIONVIEWSTYLE
  2
AcDbSectionViewStyle
  3
ObjectDBX Classes
 90
     1025
280
     0
281
     0
  0
CLASS
  1
ACDBDETAILVIEWSTYLE
  2
AcDbDetailViewStyle
  3
ObjectDBX Classes
 90
     1025
280
     0
281
     0
  0
CLASS
  1
XRECORD
  2
AcDbXrecord
  3
ObjectDBX Classes
 90
        0
280
     0
281
     0
  0
ENDSEC
  0
SECTION
  2
TABLES
  0
TABLE
  2
VPORT
  5
8
102
{ACAD_XDICTIONARY
360
ECC5
102
}
330
0
100
AcDbSymbolTable
 70
     1
  0
VPORT
  5
EA
330
8
100
AcDbSymbolTableRecord
100
AcDbViewportTableRecord
  2
*Active
 70
     0
 10
0.0
 20
0.0
 11
1.0
 21
1.0
 12
26.18270950413168
 22
-19.19016216240146
 13
0.0
 23
0.0
 14
10.0
 24
10.0
 15
10.0
 25
10.0
 16
0.0
 26
0.0
 36
1.0
 17
0.0
 27
0.0
 37
0.0
 40
695.0042153427014
 41
0.9846153846153844
 42
50.0
 43
0.0
 44
0.0
 50
0.0
 51
0.0
 71
     0
 72
  1000
 73
     1
 74
     3
 75
     0
 76
     1
 77
     0
 78
     0
281
     0
 65
     1
110
0.0
120
0.0
130
0.0
111
1.0
121
0.0
131
0.0
112
0.0
122
1.0
132
0.0
 79
     0
146
0.0
1001
ACAD_NAV_VCDISPLAY
1070
     3
  0
ENDTAB
  0
TABLE
  2
LTYPE
  5
5
330
0
100
AcDbSymbolTable
 70
     1
  0
LTYPE
  5
14
330
5
100
AcDbSymbolTableRecord
100
AcDbLinetypeTableRecord
  2
ByBlock
 70
     0
  3

 72
    65
 73
     0
 40
0.0
  0
LTYPE
  5
15
330
5
100
AcDbSymbolTableRecord
100
AcDbLinetypeTableRecord
  2
ByLayer
 70
     0
  3

 72
    65
 73
     0
 40
0.0
  0
LTYPE
  5
16
330
5
100
AcDbSymbolTableRecord
100
AcDbLinetypeTableRecord
  2
Continuous
 70
     0
  3
Solid line
 72
    65
 73
     0
 40
0.0
  0
ENDTAB
  0
TABLE
  2
LAYER
  5
2
102
{ACAD_XDICTIONARY
360
1FF
102
}
330
0
100
AcDbSymbolTable
 70
     1
  0
LAYER
  5
10
102
{ACAD_XDICTIONARY
360
13C
102
}
330
2
100
AcDbSymbolTableRecord
100
AcDbLayerTableRecord
  2
0
 70
     0
 62
     7
  6
Continuous
370
    -3
390
F
  0
ENDTAB
  0
TABLE
  2
STYLE
  5
3
330
0
100
AcDbSymbolTable
 70
     1
  0
STYLE
  5
11
330
3
100
AcDbSymbolTableRecord
100
AcDbTextStyleTableRecord
  2
Standard
 70
     0
 40
0.0
 41
1.0
 50
0.0
 71
     0
 42
2.5
  3
arial.ttf
  4

1001
ACAD
1000
Arial
1071
       34
  0
ENDTAB
  0
TABLE
  2
VIEW
  5
6
330
0
100
AcDbSymbolTable
 70
     0
  0
ENDTAB
  0
TABLE
  2
UCS
  5
7
330
0
100
AcDbSymbolTable
 70
     0
  0
ENDTAB
  0
TABLE
  2
APPID
  5
9
330
0
100
AcDbSymbolTable
 70
     8
  0
APPID
  5
12
330
9
100
AcDbSymbolTableRecord
100
AcDbRegAppTableRecord
  2
ACAD
 70
     0
  0
APPID
  5
9E
330
9
100
AcDbSymbolTableRecord
100
AcDbRegAppTableRecord
  2
ACAD_PSEXT
 70
     0
  0
APPID
  5
133
330
9
100
AcDbSymbolTableRecord
100
AcDbRegAppTableRecord
  2
AcadAnnoPO
 70
     0
  0
APPID
  5
134
330
9
100
AcDbSymbolTableRecord
100
AcDbRegAppTableRecord
  2
AcadAnnotative
 70
     0
  0
APPID
  5
135
330
9
100
AcDbSymbolTableRecord
100
AcDbRegAppTableRecord
  2
ACAD_DSTYLE_DIMJAG
 70
     0
  0
APPID
  5
136
330
9
100
AcDbSymbolTableRecord
100
AcDbRegAppTableRecord
  2
ACAD_DSTYLE_DIMTALN
 70
     0
  0
APPID
  5
165
330
9
100
AcDbSymbolTableRecord
100
AcDbRegAppTableRecord
  2
ACAD_MLEADERVER
 70
     0
  0
APPID
  5
217
330
9
100
AcDbSymbolTableRecord
100
AcDbRegAppTableRecord
  2
ACAD_NAV_VCDISPLAY
 70
     0
  0
ENDTAB
  0
TABLE
  2
DIMSTYLE
  5
A
330
0
100
AcDbSymbolTable
 70
     1
100
AcDbDimStyleTable
 71
     0
  0
DIMSTYLE
105
27
330
A
100
AcDbSymbolTableRecord
100
AcDbDimStyleTableRecord
  2
ISO-25
 70
     0
 41
2.5
 42
0.625
 43
3.75
 44
1.25
 73
     0
 74
     0
 77
     1
 78
     8
140
2.5
141
2.5
143
0.03937007874016
147
0.625
171
     3
172
     1
271
     2
272
     2
274
     3
278
    44
283
     0
284
     8
340
11
  0
ENDTAB
  0
TABLE
  2
BLOCK_RECORD
  5
1
330
0
100
AcDbSymbolTable
 70
     7
  0
BLOCK_RECORD
  5
1F
102
{ACAD_XDICTIONARY
360
1CE
102
}
330
1
100
AcDbSymbolTableRecord
100
AcDbBlockTableRecord
  2
*Model_Space
340
22
  0
BLOCK_RECORD
  5
D2
102
{ACAD_XDICTIONARY
360
EC78
102
}
330
1
100
AcDbSymbolTableRecord
100
AcDbBlockTableRecord
  2
*Paper_Space
340
D3
  0
BLOCK_RECORD
  5
D6
102
{ACAD_XDICTIONARY
360
EC7A
102
}
330
1
100
AcDbSymbolTableRecord
100
AcDbBlockTableRecord
  2
*Paper_Space0
340
D7
  0
BLOCK_RECORD
  5
EA27
330
1
100
AcDbSymbolTableRecord
100
AcDbBlockTableRecord
  2
SPR64_160-Front
340
0
102
{BLKREFS
331
EC6E
102
}
  0
BLOCK_RECORD
  5
EA93
330
1
100
AcDbSymbolTableRecord
100
AcDbBlockTableRecord
  2
SPR64_160-Left
340
0
102
{BLKREFS
331
EC6F
102
}
  0
BLOCK_RECORD
  5
EACD
330
1
100
AcDbSymbolTableRecord
100
AcDbBlockTableRecord
  2
SPR64_160-Right
340
0
102
{BLKREFS
331
EC70
102
}
  0
BLOCK_RECORD
  5
EB09
330
1
100
AcDbSymbolTableRecord
100
AcDbBlockTableRecord
  2
SPR64_160-Top
340
0
102
{BLKREFS
331
EC71
102
}
  0
BLOCK_RECORD
  5
EB59
330
1
100
AcDbSymbolTableRecord
100
AcDbBlockTableRecord
  2
SPR64_160-Bottom
340
0
102
{BLKREFS
331
EC72
102
}
  0
BLOCK_RECORD
  5
EB99
330
1
100
AcDbSymbolTableRecord
100
AcDbBlockTableRecord
  2
SPR64_160-ISO
340
0
102
{BLKREFS
331
EC73
102
}
  0
ENDTAB
  0
ENDSEC
  0
SECTION
  2
BLOCKS
  0
BLOCK
  5
20
330
1F
100
AcDbEntity
  8
0
100
AcDbBlockBegin
  2
*Model_Space
 70
     0
 10
0.0
 20
0.0
 30
0.0
  3
*Model_Space
  1

  0
ENDBLK
  5
21
330
1F
100
AcDbEntity
  8
0
100
AcDbBlockEnd
  0
BLOCK
  5
D4
330
D2
100
AcDbEntity
 67
     1
  8
0
100
AcDbBlockBegin
  2
*Paper_Space
 70
     0
 10
0.0
 20
0.0
 30
0.0
  3
*Paper_Space
  1

  0
ENDBLK
  5
D5
330
D2
100
AcDbEntity
 67
     1
  8
0
100
AcDbBlockEnd
  0
BLOCK
  5
D8
330
D6
100
AcDbEntity
 67
     1
  8
0
100
AcDbBlockBegin
  2
*Paper_Space0
 70
     0
 10
0.0
 20
0.0
 30
0.0
  3
*Paper_Space0
  1

  0
ENDBLK
  5
D9
330
D6
100
AcDbEntity
 67
     1
  8
0
100
AcDbBlockEnd
  0
BLOCK
  5
EA28
330
EA27
100
AcDbEntity
  8
0
100
AcDbBlockBegin
  2
SPR64_160-Front
 70
     0
 10
0.0
 20
0.0
 30
0.0
  3
SPR64_160-Front
  1

  0
LINE
  5
EA2A
330
EA27
100
AcDbEntity
  8
0
100
AcDbLine
 10
74.52709056099997
 20
6.269999999999987
 30
0.0
 11
69.52709056099997
 21
1.269999999999996
 31
0.0
  0
LINE
  5
EA2B
330
EA27
100
AcDbEntity
  8
0
100
AcDbLine
 10
-69.52709056100001
 20
1.269999999999996
 30
0.0
 11
-74.52709056100001
 21
6.269999999999996
 31
0.0
  0
LINE
  5
EA2C
330
EA27
100
AcDbEntity
  8
0
100
AcDbLine
 10
-74.52709056100001
 20
72.27000000000001
 30
0.0
 11
-69.52709056100001
 21
77.27000000000001
 31
0.0
  0
LINE
  5
EA2D
330
EA27
100
AcDbEntity
  8
0
100
AcDbLine
 10
69.52709056099997
 20
77.27000000000001
 30
0.0
 11
74.52709056099997
 21
72.27000000000001
 31
0.0
  0
LINE
  5
EA2E
330
EA27
100
AcDbEntity
  8
0
100
AcDbLine
 10
74.52709056099997
 20
72.27000000000001
 30
0.0
 11
74.52709056099997
 21
6.269999999999988
 31
0.0
  0
LINE
  5
EA2F
330
EA27
100
AcDbEntity
  8
0
100
AcDbLine
 10
-74.52709056100001
 20
6.269999999999996
 30
0.0
 11
-74.52709056100001
 21
72.27000000000001
 31
0.0
  0
LINE
  5
EA30
330
EA27
100
AcDbEntity
  8
0
100
AcDbLine
 10
28.5
 20
77.27000000000001
 30
0.0
 11
69.52709056099998
 21
77.27000000000001
 31
0.0
  0
LINE
  5
EA31
330
EA27
100
AcDbEntity
  8
0
100
AcDbLine
 10
-28.50000000000001
 20
1.269999999999987
 30
0.0
 11
-69.52709056100002
 21
1.269999999999996
 31
0.0
  0
LINE
  5
EA32
330
EA27
100
AcDbEntity
  8
0
100
AcDbLine
 10
69.52709056099997
 20
1.269999999999996
 30
0.0
 11
28.49999999999999
 21
1.269999999999987
 31
0.0
  0
ARC
  5
EA33
330
EA27
100
AcDbEntity
  8
0
100
AcDbCircle
 10
28.5
 20
78.77000000000004
 30
0.0
 40
1.5
100
AcDbArc
 50
90.0
 51
270.0
  0
LINE
  5
EA34
330
EA27
100
AcDbEntity
  8
0
100
AcDbLine
 10
-69.52709056100001
 20
77.27000000000001
 30
0.0
 11
-28.50000000000001
 21
77.27000000000001
 31
0.0
  0
ARC
  5
EA35
330
EA27
100
AcDbEntity
  8
0
100
AcDbCircle
 10
-28.50000000000001
 20
78.77000000000001
 30
0.0
 40
1.5
100
AcDbArc
 50
270.0
 51
90.0
  0
LINE
  5
EA36
330
EA27
100
AcDbEntity
  8
0
100
AcDbLine
 10
33.49999999999994
 20
80.27000000000002
 30
0.0
 11
33.49999999999994
 21
85.27000000000002
 31
0.0
  0
LINE
  5
EA37
330
EA27
100
AcDbEntity
  8
0
100
AcDbLine
 10
33.49999999999994
 20
85.27000000000002
 30
0.0
 11
31.99999999999994
 21
85.27000000000002
 31
0.0
  0
LINE
  5
EA38
330
EA27
100
AcDbEntity
  8
0
100
AcDbLine
 10
31.99999999999994
 20
85.27000000000002
 30
0.0
 11
31.99999999999995
 21
80.27000000000002
 31
0.0
  0
LINE
  5
EA39
330
EA27
100
AcDbEntity
  8
0
100
AcDbLine
 10
31.99999999999995
 20
80.27000000000002
 30
0.0
 11
33.49999999999994
 21
80.27000000000002
 31
0.0
  0
LINE
  5
EA3A
330
EA27
100
AcDbEntity
  8
0
100
AcDbLine
 10
31.99999999999994
 20
155.67
 30
0.0
 11
33.49999999999994
 21
155.67
 31
0.0
  0
LINE
  5
EA3B
330
EA27
100
AcDbEntity
  8
0
100
AcDbLine
 10
33.49999999999994
 20
155.67
 30
0.0
 11
33.49999999999995
 21
160.67
 31
0.0
  0
LINE
  5
EA3C
330
EA27
100
AcDbEntity
  8
0
100
AcDbLine
 10
-33.50000000000001
 20
85.27000000000001
 30
0.0
 11
-33.5
 21
80.27000000000002
 31
0.0
  0
LINE
  5
EA3D
330
EA27
100
AcDbEntity
  8
0
100
AcDbLine
 10
-33.5
 20
80.27000000000002
 30
0.0
 11
-32.00000000000001
 21
80.27000000000002
 31
0.0
  0
LINE
  5
EA3E
330
EA27
100
AcDbEntity
  8
0
100
AcDbLine
 10
-32.00000000000001
 20
80.27000000000002
 30
0.0
 11
-32.00000000000001
 21
85.27000000000001
 31
0.0
  0
LINE
  5
EA3F
330
EA27
100
AcDbEntity
  8
0
100
AcDbLine
 10
-32.00000000000001
 20
85.27000000000001
 30
0.0
 11
-33.50000000000001
 21
85.27000000000001
 31
0.0
  0
LINE
  5
EA40
330
EA27
100
AcDbEntity
  8
0
100
AcDbLine
 10
-33.50000000000001
 20
160.67
 30
0.0
 11
-33.50000000000001
 21
155.67
 31
0.0
  0
LINE
  5
EA41
330
EA27
100
AcDbEntity
  8
0
100
AcDbLine
 10
-33.50000000000001
 20
155.67
 30
0.0
 11
-32.00000000000001
 21
155.67
 31
0.0
  0
LINE
  5
EA42
330
EA27
100
AcDbEntity
  8
0
100
AcDbLine
 10
33.49999999999995
 20
160.67
 30
0.0
 11
31.99999999999995
 21
160.67
 31
0.0
  0
LINE
  5
EA43
330
EA27
100
AcDbEntity
  8
0
100
AcDbLine
 10
31.99999999999995
 20
160.67
 30
0.0
 11
31.99999999999994
 21
155.67
 31
0.0
  0
LINE
  5
EA44
330
EA27
100
AcDbEntity
  8
0
100
AcDbLine
 10
-32.00000000000001
 20
155.67
 30
0.0
 11
-32.00000000000001
 21
160.67
 31
0.0
  0
LINE
  5
EA45
330
EA27
100
AcDbEntity
  8
0
100
AcDbLine
 10
-32.00000000000001
 20
160.67
 30
0.0
 11
-33.50000000000001
 21
160.67
 31
0.0
  0
LINE
  5
EA46
330
EA27
100
AcDbEntity
  8
0
100
AcDbLine
 10
33.49999999999997
 20
-28.42608254450008
 30
0.0
 11
33.5
 21
-21.35501473263462
 31
0.0
  0
LINE
  5
EA47
330
EA27
100
AcDbEntity
  8
0
100
AcDbLine
 10
33.5
 20
-21.35501473263462
 30
0.0
 11
32.0
 21
-21.35501473263463
 31
0.0
  0
LINE
  5
EA48
330
EA27
100
AcDbEntity
  8
0
100
AcDbLine
 10
32.0
 20
-21.35501473263463
 30
0.0
 11
32.0
 21
-28.42608254450008
 31
0.0
  0
LINE
  5
EA49
330
EA27
100
AcDbEntity
  8
0
100
AcDbLine
 10
32.0
 20
-28.42608254450008
 30
0.0
 11
33.49999999999997
 21
-28.42608254450008
 31
0.0
  0
LINE
  5
EA4A
330
EA27
100
AcDbEntity
  8
0
100
AcDbLine
 10
-33.49999999999999
 20
-21.35501473263464
 30
0.0
 11
-33.49999999999996
 21
-28.4260825445001
 31
0.0
  0
LINE
  5
EA4B
330
EA27
100
AcDbEntity
  8
0
100
AcDbLine
 10
-33.49999999999996
 20
-28.4260825445001
 30
0.0
 11
-31.99999999999999
 21
-28.4260825445001
 31
0.0
  0
LINE
  5
EA4C
330
EA27
100
AcDbEntity
  8
0
100
AcDbLine
 10
-31.99999999999999
 20
-28.4260825445001
 30
0.0
 11
-31.99999999999999
 21
-21.35501473263464
 31
0.0
  0
LINE
  5
EA4D
330
EA27
100
AcDbEntity
  8
0
100
AcDbLine
 10
-31.99999999999999
 20
-21.35501473263464
 30
0.0
 11
-33.49999999999999
 21
-21.35501473263464
 31
0.0
  0
LINE
  5
EA4E
330
EA27
100
AcDbEntity
  8
0
100
AcDbLine
 10
33.49999999999994
 20
85.27000000000002
 30
0.0
 11
33.49999999999994
 21
155.67
 31
0.0
  0
LINE
  5
EA4F
330
EA27
100
AcDbEntity
  8
0
100
AcDbLine
 10
31.99999999999994
 20
155.67
 30
0.0
 11
31.99999999999994
 21
85.27000000000002
 31
0.0
  0
LINE
  5
EA50
330
EA27
100
AcDbEntity
  8
0
100
AcDbLine
 10
-33.50000000000001
 20
155.67
 30
0.0
 11
-33.50000000000001
 21
85.27000000000001
 31
0.0
  0
LINE
  5
EA51
330
EA27
100
AcDbEntity
  8
0
100
AcDbLine
 10
-32.00000000000001
 20
155.67
 30
0.0
 11
-32.00000000000001
 21
85.27000000000001
 31
0.0
  0
LINE
  5
EA52
330
EA27
100
AcDbEntity
  8
0
100
AcDbLine
 10
28.5
 20
80.27000000000002
 30
0.0
 11
31.39999999999999
 21
80.27000000000002
 31
0.0
  0
LINE
  5
EA53
330
EA27
100
AcDbEntity
  8
0
100
AcDbLine
 10
-31.40000000000001
 20
80.27000000000002
 30
0.0
 11
-28.50000000000001
 21
80.27000000000001
 31
0.0
  0
LINE
  5
EA54
330
EA27
100
AcDbEntity
  8
0
100
AcDbLine
 10
-31.40000000000001
 20
160.67
 30
0.0
 11
31.39999999999999
 21
160.67
 31
0.0
  0
LINE
  5
EA55
330
EA27
100
AcDbEntity
  8
0
100
AcDbLine
 10
33.50000000000127
 20
-2.26313164225655
 30
0.0
 11
33.5
 21
-21.35501473263462
 31
0.0
  0
LINE
  5
EA56
330
EA27
100
AcDbEntity
  8
0
100
AcDbLine
 10
32.00000000000109
 20
-2.26313164225655
 30
0.0
 11
32.0
 21
-21.35501473263463
 31
0.0
  0
ELLIPSE
  5
EA57
330
EA27
100
AcDbEntity
  8
0
100
AcDbEllipse
 10
31.4
 20
-54.1647693794705
 30
0.0
 11
0.6000000000000087
 21
0.0000000000000644
 31
0.0
210
0.0
220
0.0
230
1.0
 40
0.7071067811864884
 41
4.712388980384599
 42
6.283185307179569
  0
ELLIPSE
  5
EA58
330
EA27
100
AcDbEntity
  8
0
100
AcDbEllipse
 10
31.4
 20
-54.1647693794705
 30
0.0
 11
2.100000000000031
 21
0.0000000000001688
 31
0.0
210
0.0
220
0.0
230
1.0
 40
0.7071067811865469
 41
4.712388980384773
 42
6.28318530717985
  0
LINE
  5
EA59
330
EA27
100
AcDbEntity
  8
0
100
AcDbLine
 10
33.50000000000127
 20
-2.26313164225655
 30
0.0
 11
32.00000000000109
 21
-2.26313164225655
 31
0.0
  0
ELLIPSE
  5
EA5A
330
EA27
100
AcDbEntity
  8
0
100
AcDbEllipse
 10
-28.50000000000001
 20
0.0236058844764062
 30
0.0
 11
-1.5
 21
0.0000000000001095
 31
0.0
210
0.0
220
0.0
230
1.0
 40
0.7071067811865479
 41
1.570796326795022
 42
2.705254581962133
  0
LINE
  5
EA5B
330
EA27
100
AcDbEntity
  8
0
100
AcDbLine
 10
-28.50000000000001
 20
-1.037054287303411
 30
0.0
 11
-30.79315533855961
 21
-1.037054287303411
 31
0.0
  0
LINE
  5
EA5C
330
EA27
100
AcDbEntity
  8
0
100
AcDbLine
 10
-30.79315533855961
 20
-1.037054287303411
 30
0.0
 11
-31.40000000000001
 21
-1.466158262545973
 31
0.0
  0
LINE
  5
EA5D
330
EA27
100
AcDbEntity
  8
0
100
AcDbLine
 10
31.39999999999999
 20
-1.466158262545982
 30
0.0
 11
30.7931553385596
 21
-1.037054287303417
 31
0.0
  0
LINE
  5
EA5E
330
EA27
100
AcDbEntity
  8
0
100
AcDbLine
 10
30.7931553385596
 20
-1.037054287303417
 30
0.0
 11
28.5
 21
-1.037054287303417
 31
0.0
  0
ELLIPSE
  5
EA5F
330
EA27
100
AcDbEntity
  8
0
100
AcDbEllipse
 10
28.5
 20
0.0236058844764062
 30
0.0
 11
-1.5
 21
0.0
 31
0.0
210
0.0
220
0.0
230
1.0
 40
0.7071067811865479
 41
0.4363380716279064
 42
1.570796326794896
  0
SPLINE
  5
EA60
330
EA27
100
AcDbEntity
  8
0
100
AcDbSpline
210
0.0
220
0.0
230
1.0
 70
     8
 71
     3
 72
     8
 73
     4
 74
     0
 42
0.000000001
 43
0.0000000001
 40
-1.0
 40
-1.0
 40
-1.0
 40
-1.0
 40
0.0
 40
0.0
 40
0.0
 40
0.0
 10
-27.01767776087198
 20
-0.0003899405809504
 30
0.0
 10
-26.97251992073971
 20
-0.1594792109354338
 30
0.0
 10
-27.01586474390331
 20
-0.3214850446752977
 30
0.0
 10
-27.14054197002042
 20
-0.4246540092928796
 30
0.0
  0
SPLINE
  5
EA61
330
EA27
100
AcDbEntity
  8
0
100
AcDbSpline
210
0.0
220
0.0
230
1.0
 70
     8
 71
     3
 72
     8
 73
     4
 74
     0
 42
0.000000001
 43
0.0000000001
 40
-1.0
 40
-1.0
 40
-1.0
 40
-1.0
 40
0.0
 40
0.0
 40
0.0
 40
0.0
 10
27.14054197002043
 20
-0.4246540092928797
 30
0.0
 10
27.01586474390286
 20
-0.3214850446753029
 30
0.0
 10
26.97251992073907
 20
-0.159479210935427
 30
0.0
 10
27.01767776087195
 20
-0.0003899405809506
 30
0.0
  0
LINE
  5
EA62
330
EA27
100
AcDbEntity
  8
0
100
AcDbLine
 10
-32.00000000000061
 20
-2.263131642256718
 30
0.0
 11
-33.5000000000008
 21
-2.263131642256719
 31
0.0
  0
SPLINE
  5
EA63
330
EA27
100
AcDbEntity
  8
0
100
AcDbSpline
210
0.0
220
0.0
230
1.0
 70
     8
 71
     3
 72
     8
 73
     4
 74
     0
 42
0.000000001
 43
0.0000000001
 40
-1.0
 40
-1.0
 40
-1.0
 40
-1.0
 40
0.0
 40
0.0
 40
0.0
 40
0.0
 10
-31.40000000000001
 20
-1.466158262545961
 30
0.0
 10
-31.714159265359
 20
-1.873237411765509
 30
0.0
 10
-32.00000000000002
 20
-2.078196639181171
 30
0.0
 10
-32.00000000000003
 20
-2.263131641492177
 30
0.0
  0
ARC
  5
EA64
330
EA27
100
AcDbEntity
  8
0
100
AcDbCircle
 10
-28.50000000000001
 20
-0.2299999999999986
 30
0.0
 40
1.5
100
AcDbArc
 50
8.805075259701395
 51
90.0
  0
SPLINE
  5
EA65
330
EA27
100
AcDbEntity
  8
0
100
AcDbSpline
210
0.0
220
0.0
230
1.0
 70
     8
 71
     3
 72
     8
 73
     4
 74
     0
 42
0.000000001
 43
0.0000000001
 40
-1.0
 40
-1.0
 40
-1.0
 40
-1.0
 40
0.0
 40
0.0
 40
0.0
 40
0.0
 10
32.00000000000001
 20
-2.263131641492212
 30
0.0
 10
32.0
 20
-2.078196639180777
 30
0.0
 10
31.714159265359
 20
-1.873237411765227
 30
0.0
 10
31.39999999999999
 20
-1.466158262545953
 30
0.0
  0
ARC
  5
EA66
330
EA27
100
AcDbEntity
  8
0
100
AcDbCircle
 10
28.5
 20
-0.2299999999999986
 30
0.0
 40
1.5
100
AcDbArc
 50
90.0
 51
171.1949247402986
  0
SPLINE
  5
EA67
330
EA27
100
AcDbEntity
  8
0
100
AcDbSpline
210
0.0
220
0.0
230
1.0
 70
     8
 71
     3
 72
    16
 73
    12
 74
     0
 42
0.000000001
 43
0.0000000001
 40
0.0
 40
0.0
 40
0.0
 40
0.0
 40
0.0356537247221776
 40
0.0356537247221776
 40
0.0703704956412154
 40
0.0703704956412154
 40
0.1051345640073593
 40
0.1051345640073593
 40
0.1398962718647903
 40
0.1398962718647903
 40
0.1538885733138779
 40
0.1538885733138779
 40
0.1538885733138779
 40
0.1538885733138779
 10
-32.49949999999874
 20
-2.263131641492183
 30
0.0
 10
-32.49950000000052
 20
-2.26313164149063
 30
0.0
 10
-32.47955867540407
 20
-2.263059951015042
 30
0.0
 10
-32.40583172170658
 20
-2.250836451214478
 30
0.0
 10
-32.35213458029261
 20
-2.238741830466858
 30
0.0
 10
-32.22293730431657
 20
-2.194102190393859
 30
0.0
 10
-32.14591985436506
 20
-2.160888677237286
 30
0.0
 10
-31.9857406409324
 20
-2.06947920259603
 30
0.0
 10
-31.90073655260569
 20
-2.010107098263487
 30
0.0
 10
-31.7890141834957
 20
-1.909831885156553
 30
0.0
 10
-31.75758437992525
 20
-1.87894366987677
 30
0.0
 10
-31.72742155524372
 20
-1.846191951394109
 30
0.0
  0
SPLINE
  5
EA68
330
EA27
100
AcDbEntity
  8
0
100
AcDbSpline
210
0.0
220
0.0
230
1.0
 70
     8
 71
     3
 72
    16
 73
    12
 74
     0
 42
0.000000001
 43
0.0000000001
 40
0.0
 40
0.0
 40
0.0
 40
0.0
 40
0.0356266149352874
 40
0.0356266149352874
 40
0.0703447701818137
 40
0.0703447701818137
 40
0.10510876950137
 40
0.10510876950137
 40
0.1398704808049853
 40
0.1398704808049853
 40
0.1538888647029939
 40
0.1538888647029939
 40
0.1538888647029939
 40
0.1538888647029939
 10
31.72742155524397
 20
-1.846191951394398
 30
0.0
 10
31.80422088265979
 20
-1.929583012335668
 30
0.0
 10
31.88999615131234
 20
-2.001172959741865
 30
0.0
 10
32.05564046643583
 20
-2.113266523272913
 30
0.0
 10
32.13750261650658
 20
-2.155953002284055
 30
0.0
 10
32.2818218189207
 20
-2.217016702994756
 30
0.0
 10
32.34591305090433
 20
-2.236189491814391
 30
0.0
 10
32.44238223265743
 20
-2.258395304187196
 30
0.0
 10
32.47587215057218
 20
-2.261811174867336
 30
0.0
 10
32.49650501536375
 20
-2.263130971916421
 30
0.0
 10
32.49950000000006
 20
-2.263131641491608
 30
0.0
 10
32.49949999999991
 20
-2.263131641492218
 30
0.0
  0
LINE
  5
EA69
330
EA27
100
AcDbEntity
  8
0
100
AcDbLine
 10
33.5
 20
-54.16476937947052
 30
0.0
 11
33.49999999999997
 21
-28.42608254450008
 31
0.0
  0
LINE
  5
EA6A
330
EA27
100
AcDbEntity
  8
0
100
AcDbLine
 10
-33.49999999999996
 20
-28.4260825445001
 30
0.0
 11
-33.49999999999999
 21
-54.16476937947052
 31
0.0
  0
LINE
  5
EA6B
330
EA27
100
AcDbEntity
  8
0
100
AcDbLine
 10
-31.99999999999999
 20
-28.4260825445001
 30
0.0
 11
-31.99999999999999
 21
-54.16476937947052
 31
0.0
  0
LINE
  5
EA6C
330
EA27
100
AcDbEntity
  8
0
100
AcDbLine
 10
-31.39999999999999
 20
-54.58903344818243
 30
0.0
 11
31.4
 21
-54.58903344818243
 31
0.0
  0
LINE
  5
EA6D
330
EA27
100
AcDbEntity
  8
0
100
AcDbLine
 10
32.0
 20
-54.16476937947052
 30
0.0
 11
32.0
 21
-28.42608254450008
 31
0.0
  0
LINE
  5
EA6E
330
EA27
100
AcDbEntity
  8
0
100
AcDbLine
 10
-31.39999999999999
 20
-55.64969361996226
 30
0.0
 11
31.4
 21
-55.64969361996226
 31
0.0
  0
LINE
  5
EA6F
330
EA27
100
AcDbEntity
  8
0
100
AcDbLine
 10
-33.5000000000008
 20
-2.263131642256719
 30
0.0
 11
-33.49999999999999
 21
-21.35501473263464
 31
0.0
  0
LINE
  5
EA70
330
EA27
100
AcDbEntity
  8
0
100
AcDbLine
 10
-32.00000000000061
 20
-2.263131642256718
 30
0.0
 11
-31.99999999999999
 21
-21.35501473263464
 31
0.0
  0
CIRCLE
  5
EA71
330
EA27
100
AcDbEntity
  8
0
100
AcDbCircle
 10
21.99999999999999
 20
149.77
 30
0.0
 40
2.5
  0
CIRCLE
  5
EA72
330
EA27
100
AcDbEntity
  8
0
100
AcDbCircle
 10
21.99999999999999
 20
109.77
 30
0.0
 40
2.5
  0
CIRCLE
  5
EA73
330
EA27
100
AcDbEntity
  8
0
100
AcDbCircle
 10
21.99999999999999
 20
69.76999999999998
 30
0.0
 40
2.5
  0
CIRCLE
  5
EA74
330
EA27
100
AcDbEntity
  8
0
100
AcDbCircle
 10
21.99999999999999
 20
29.76999999999998
 30
0.0
 40
2.5
  0
CIRCLE
  5
EA75
330
EA27
100
AcDbEntity
  8
0
100
AcDbCircle
 10
11.99999999999998
 20
129.77
 30
0.0
 40
2.5
  0
CIRCLE
  5
EA76
330
EA27
100
AcDbEntity
  8
0
100
AcDbCircle
 10
11.99999999999998
 20
89.76999999999996
 30
0.0
 40
2.5
  0
CIRCLE
  5
EA77
330
EA27
100
AcDbEntity
  8
0
100
AcDbCircle
 10
11.99999999999998
 20
49.76999999999997
 30
0.0
 40
2.5
  0
CIRCLE
  5
EA78
330
EA27
100
AcDbEntity
  8
0
100
AcDbCircle
 10
11.99999999999998
 20
9.769999999999974
 30
0.0
 40
2.5
  0
CIRCLE
  5
EA79
330
EA27
100
AcDbEntity
  8
0
100
AcDbCircle
 10
-12.00000000000001
 20
149.77
 30
0.0
 40
2.5
  0
CIRCLE
  5
EA7A
330
EA27
100
AcDbEntity
  8
0
100
AcDbCircle
 10
-12.00000000000001
 20
109.77
 30
0.0
 40
2.5
  0
CIRCLE
  5
EA7B
330
EA27
100
AcDbEntity
  8
0
100
AcDbCircle
 10
-12.00000000000001
 20
69.76999999999998
 30
0.0
 40
2.5
  0
CIRCLE
  5
EA7C
330
EA27
100
AcDbEntity
  8
0
100
AcDbCircle
 10
-12.00000000000001
 20
29.76999999999998
 30
0.0
 40
2.5
  0
CIRCLE
  5
EA7D
330
EA27
100
AcDbEntity
  8
0
100
AcDbCircle
 10
-22.00000000000002
 20
129.77
 30
0.0
 40
2.5
  0
CIRCLE
  5
EA7E
330
EA27
100
AcDbEntity
  8
0
100
AcDbCircle
 10
-22.00000000000002
 20
89.76999999999998
 30
0.0
 40
2.5
  0
CIRCLE
  5
EA7F
330
EA27
100
AcDbEntity
  8
0
100
AcDbCircle
 10
-22.00000000000002
 20
49.76999999999998
 30
0.0
 40
2.5
  0
CIRCLE
  5
EA80
330
EA27
100
AcDbEntity
  8
0
100
AcDbCircle
 10
-22.00000000000002
 20
9.769999999999983
 30
0.0
 40
2.5
  0
CIRCLE
  5
EA81
330
EA27
100
AcDbEntity
  8
0
100
AcDbCircle
 10
-45.02709056100001
 20
69.76999999999998
 30
0.0
 40
2.5
  0
CIRCLE
  5
EA82
330
EA27
100
AcDbEntity
  8
0
100
AcDbCircle
 10
39.02709056099997
 20
69.76999999999998
 30
0.0
 40
2.5
  0
CIRCLE
  5
EA83
330
EA27
100
AcDbEntity
  8
0
100
AcDbCircle
 10
-39.02709056100001
 20
29.76999999999999
 30
0.0
 40
2.5
  0
CIRCLE
  5
EA84
330
EA27
100
AcDbEntity
  8
0
100
AcDbCircle
 10
45.02709056099996
 20
29.76999999999998
 30
0.0
 40
2.5
  0
ELLIPSE
  5
EA85
330
EA27
100
AcDbEntity
  8
0
100
AcDbEllipse
 10
-2.500000000000008
 20
0.0236058830621926
 30
0.0
 11
-2.5
 21
0.0000000000000004
 31
0.0
210
0.0
220
0.0
230
1.0
 40
0.7071067811865479
 41
0.2563733261914187
 42
1.570796326794896
  0
LINE
  5
EA86
330
EA27
100
AcDbEntity
  8
0
100
AcDbLine
 10
2.499999999999991
 20
-1.744161069904186
 30
0.0
 11
-2.500000000000008
 21
-1.744161069904185
 31
0.0
  0
ELLIPSE
  5
EA87
330
EA27
100
AcDbEntity
  8
0
100
AcDbEllipse
 10
2.49999999999999
 20
0.0236058830621926
 30
0.0
 11
2.5
 21
-0.0000000000000005
 31
0.0
210
0.0
220
0.0
230
1.0
 40
0.7071067811865479
 41
4.712388980384689
 42
6.026811980988168
  0
SPLINE
  5
EA88
330
EA27
100
AcDbEntity
  8
0
100
AcDbSpline
210
0.0
220
0.0
230
1.0
 70
     8
 71
     3
 72
     8
 73
     4
 74
     0
 42
0.000000001
 43
0.0000000001
 40
-1.0
 40
-1.0
 40
-1.0
 40
-1.0
 40
0.0
 40
0.0
 40
0.0
 40
0.0
 10
-4.918289920131925
 20
-0.4246540092928794
 30
0.0
 10
-4.991899723307439
 20
-0.316301203816359
 30
0.0
 10
-5.01609483648548
 20
-0.1581319339514803
 30
0.0
 10
-4.989433513812967
 20
-0.0003899405809506
 30
0.0
  0
SPLINE
  5
EA89
330
EA27
100
AcDbEntity
  8
0
100
AcDbSpline
210
0.0
220
0.0
230
1.0
 70
     8
 71
     3
 72
     8
 73
     4
 74
     0
 42
0.000000001
 43
0.0000000001
 40
-1.0
 40
-1.0
 40
-1.0
 40
-1.0
 40
0.0
 40
0.0
 40
0.0
 40
0.0
 10
4.989433513812952
 20
-0.0003899405809503
 30
0.0
 10
5.016094836485298
 20
-0.1581319339514889
 30
0.0
 10
4.991899723307279
 20
-0.3163012038163565
 30
0.0
 10
4.918289920131913
 20
-0.4246540092928796
 30
0.0
  0
ARC
  5
EA8A
330
EA27
100
AcDbEntity
  8
0
100
AcDbCircle
 10
2.499999999999991
 20
-0.2300000019999987
 30
0.0
 40
2.5
100
AcDbArc
 50
5.269701372195739
 51
90.0
  0
LINE
  5
EA8B
330
EA27
100
AcDbEntity
  8
0
100
AcDbLine
 10
-2.500000000000008
 20
2.269999998000001
 30
0.0
 11
2.499999999999991
 21
2.269999998000001
 31
0.0
  0
ARC
  5
EA8C
330
EA27
100
AcDbEntity
  8
0
100
AcDbCircle
 10
-2.500000000000008
 20
-0.2300000019999987
 30
0.0
 40
2.5
100
AcDbArc
 50
90.0
 51
174.7302986278043
  0
ELLIPSE
  5
EA8D
330
EA27
100
AcDbEntity
  8
0
100
AcDbEllipse
 10
-31.39999999999999
 20
-54.16476937947051
 30
0.0
 11
-2.100000000000031
 21
0.000000000000007
 31
0.0
210
0.0
220
0.0
230
1.0
 40
0.7071067811865476
 41
0.0
 42
1.5707963267949
  0
ELLIPSE
  5
EA8E
330
EA27
100
AcDbEntity
  8
0
100
AcDbEllipse
 10
-31.39999999999999
 20
-54.16476937947051
 30
0.0
 11
-0.6000000000000089
 21
0.0000000000000089
 31
0.0
210
0.0
220
0.0
230
1.0
 40
0.7071067811865851
 41
0.0000000000000422
 42
1.570796326794929
  0
LINE
  5
EA8F
330
EA27
100
AcDbEntity
  8
0
100
AcDbLine
 10
31.39999999999999
 20
160.67
 30
0.0
 11
31.99999999999999
 21
160.67
 31
0.0
  0
LINE
  5
EA90
330
EA27
100
AcDbEntity
  8
0
100
AcDbLine
 10
31.39999999999999
 20
80.27000000000002
 30
0.0
 11
31.99999999999999
 21
80.27000000000002
 31
0.0
  0
LINE
  5
EA91
330
EA27
100
AcDbEntity
  8
0
100
AcDbLine
 10
-32.00000000000001
 20
160.67
 30
0.0
 11
-31.40000000000001
 21
160.67
 31
0.0
  0
LINE
  5
EA92
330
EA27
100
AcDbEntity
  8
0
100
AcDbLine
 10
-32.00000000000001
 20
80.27000000000002
 30
0.0
 11
-31.40000000000001
 21
80.27000000000002
 31
0.0
  0
ENDBLK
  5
EA29
330
EA27
100
AcDbEntity
  8
0
100
AcDbBlockEnd
  0
BLOCK
  5
EA94
330
EA93
100
AcDbEntity
  8
0
100
AcDbBlockBegin
  2
SPR64_160-Left
 70
     0
 10
0.0
 20
0.0
 30
0.0
  3
SPR64_160-Left
  1

  0
LINE
  5
EA96
330
EA93
100
AcDbEntity
  8
0
100
AcDbLine
 10
0.0
 20
-0.0003899405809503
 30
0.0
 11
0.0
 21
1.270000000000001
 31
0.0
  0
LINE
  5
EA97
330
EA93
100
AcDbEntity
  8
0
100
AcDbLine
 10
62.91118318265866
 20
-2.263131642256719
 30
0.0
 11
4.36274170091127
 21
-2.263131641492234
 31
0.0
  0
SPLINE
  5
EA98
330
EA93
100
AcDbEntity
  8
0
100
AcDbSpline
210
0.0
220
0.0
230
1.0
 70
     8
 71
     3
 72
     8
 73
     4
 74
     0
 42
0.000000001
 43
0.0000000001
 40
0.0
 40
0.0
 40
0.0
 40
0.0
 40
1.0
 40
1.0
 40
1.0
 40
1.0
 10
0.6150757595082681
 20
-1.485314181072701
 30
0.0
 10
0.253984383346732
 20
-1.124222804911164
 30
0.0
 10
0.0000000000000179
 20
-0.557202386821642
 30
0.0
 10
0.000000000000018
 20
-0.0003899405809502
 30
0.0
  0
LINE
  5
EA99
330
EA93
100
AcDbEntity
  8
0
100
AcDbLine
 10
1.675735931288088
 20
-0.4246540092928777
 30
0.0
 11
2.288136209298626
 21
-1.037054287303415
 31
0.0
  0
LINE
  5
EA9A
330
EA93
100
AcDbEntity
  8
0
100
AcDbLine
 10
2.288136209298611
 20
-1.037054287303411
 30
0.0
 11
2.717240184541172
 21
-1.466158262545973
 31
0.0
  0
SPLINE
  5
EA9B
330
EA93
100
AcDbEntity
  8
0
100
AcDbSpline
210
0.0
220
0.0
230
1.0
 70
     8
 71
     3
 72
     8
 73
     4
 74
     0
 42
0.000000001
 43
0.0000000001
 40
-1.0
 40
-1.0
 40
-1.0
 40
-1.0
 40
0.0
 40
0.0
 40
0.0
 40
0.0
 10
1.500000000000018
 20
-0.0003899405809504
 30
0.0
 10
1.500000000000018
 20
-0.1594792109354338
 30
0.0
 10
1.572566966670508
 20
-0.3214850446752977
 30
0.0
 10
1.675735931288089
 20
-0.4246540092928796
 30
0.0
  0
SPLINE
  5
EA9C
330
EA93
100
AcDbEntity
  8
0
100
AcDbSpline
210
0.0
220
0.0
230
1.0
 70
     8
 71
     3
 72
     8
 73
     4
 74
     0
 42
0.000000001
 43
0.0000000001
 40
-1.0
 40
-1.0
 40
-1.0
 40
-1.0
 40
0.0
 40
0.0
 40
0.0
 40
0.0
 10
2.717240184541179
 20
-1.466158262545961
 30
0.0
 10
3.124319333760726
 20
-1.873237411765509
 30
0.0
 10
3.733518404784383
 20
-2.078196639181171
 30
0.0
 10
4.362741700911255
 20
-2.263131641492177
 30
0.0
  0
LINE
  5
EA9D
330
EA93
100
AcDbEntity
  8
0
100
AcDbLine
 10
2.717240184541172
 20
-1.466158262545973
 30
0.0
 11
2.364040347338209
 21
-1.819358099748937
 31
0.0
  0
LINE
  5
EA9E
330
EA93
100
AcDbEntity
  8
0
100
AcDbLine
 10
2.364040347338209
 20
-1.819358099748937
 30
0.0
 11
1.656580012761351
 21
-2.526818434325794
 31
0.0
  0
SPLINE
  5
EA9F
330
EA93
100
AcDbEntity
  8
0
100
AcDbSpline
210
0.0
220
0.0
230
1.0
 70
     8
 71
     3
 72
     8
 73
     4
 74
     0
 42
0.000000001
 43
0.0000000001
 40
0.0
 40
0.0
 40
0.0
 40
0.0
 40
1.0
 40
1.0
 40
1.0
 40
1.0
 10
4.362741700911231
 20
-2.263131641492201
 30
0.0
 10
3.178158037514541
 20
-2.633557006451012
 30
0.0
 10
2.063659161980905
 20
-2.933897583545329
 30
0.0
 10
1.656580012761357
 20
-2.526818434325782
 30
0.0
  0
LINE
  5
EAA0
330
EA93
100
AcDbEntity
  8
0
100
AcDbLine
 10
1.656580012761351
 20
-2.526818434325794
 30
0.0
 11
1.227476037518791
 21
-2.097714459083229
 31
0.0
  0
LINE
  5
EAA1
330
EA93
100
AcDbEntity
  8
0
100
AcDbLine
 10
2.288136209298611
 20
-1.037054287303411
 30
0.0
 11
1.227476037518791
 21
-2.097714459083229
 31
0.0
  0
LINE
  5
EAA2
330
EA93
100
AcDbEntity
  8
0
100
AcDbLine
 10
1.227476037518817
 20
-2.097714459083223
 30
0.0
 11
0.6150757595082794
 21
-1.485314181072685
 31
0.0
  0
LINE
  5
EAA3
330
EA93
100
AcDbEntity
  8
0
100
AcDbLine
 10
1.675735931288089
 20
-0.4246540092928794
 30
0.0
 11
1.322536092816896
 21
-0.7778538477640728
 31
0.0
  0
LINE
  5
EAA4
330
EA93
100
AcDbEntity
  8
0
100
AcDbLine
 10
1.322536092816896
 20
-0.7778538477640728
 30
0.0
 11
0.6150757595082681
 21
-1.4853141810727
 31
0.0
  0
LINE
  5
EAA5
330
EA93
100
AcDbEntity
  8
0
100
AcDbLine
 10
1.500000000000009
 20
-0.0003899405809504
 30
0.0
 11
1.000499995430699
 21
-0.0003899405809504
 31
0.0
  0
LINE
  5
EAA6
330
EA93
100
AcDbEntity
  8
0
100
AcDbLine
 10
1.000499995430699
 20
-0.0003899405809504
 30
0.0
 11
0.0
 21
-0.0003899405809504
 31
0.0
  0
LINE
  5
EAA7
330
EA93
100
AcDbEntity
  8
0
100
AcDbLine
 10
1.500000000000005
 20
1.270000000000001
 30
0.0
 11
1.500000000000004
 21
-0.0003899405809504
 31
0.0
  0
LINE
  5
EAA8
330
EA93
100
AcDbEntity
  8
0
100
AcDbLine
 10
0.0
 20
6.269999999999996
 30
0.0
 11
0.0
 21
1.269999999999996
 31
0.0
  0
LINE
  5
EAA9
330
EA93
100
AcDbEntity
  8
0
100
AcDbLine
 10
0.0
 20
77.27000000000001
 30
0.0
 11
0.0
 21
72.27000000000001
 31
0.0
  0
LINE
  5
EAAA
330
EA93
100
AcDbEntity
  8
0
100
AcDbLine
 10
1.500000000000027
 20
1.269999999999996
 30
0.0
 11
1.500000000000029
 21
6.269999999999996
 31
0.0
  0
LINE
  5
EAAB
330
EA93
100
AcDbEntity
  8
0
100
AcDbLine
 10
1.500000000000029
 20
6.269999999999996
 30
0.0
 11
0.0
 21
6.269999999999996
 31
0.0
  0
LINE
  5
EAAC
330
EA93
100
AcDbEntity
  8
0
100
AcDbLine
 10
0.0
 20
1.269999999999996
 30
0.0
 11
1.500000000000027
 21
1.269999999999996
 31
0.0
  0
LINE
  5
EAAD
330
EA93
100
AcDbEntity
  8
0
100
AcDbLine
 10
0.0
 20
72.27000000000001
 30
0.0
 11
1.500000000000029
 21
72.27000000000001
 31
0.0
  0
LINE
  5
EAAE
330
EA93
100
AcDbEntity
  8
0
100
AcDbLine
 10
1.500000000000029
 20
72.27000000000001
 30
0.0
 11
1.500000000000027
 21
77.27000000000001
 31
0.0
  0
LINE
  5
EAAF
330
EA93
100
AcDbEntity
  8
0
100
AcDbLine
 10
1.500000000000027
 20
77.27000000000001
 30
0.0
 11
0.0
 21
77.27000000000001
 31
0.0
  0
LINE
  5
EAB0
330
EA93
100
AcDbEntity
  8
0
100
AcDbLine
 10
0.0
 20
6.269999999999996
 30
0.0
 11
0.0
 21
72.27000000000001
 31
0.0
  0
LINE
  5
EAB1
330
EA93
100
AcDbEntity
  8
0
100
AcDbLine
 10
0.0
 20
77.27000000000001
 30
0.0
 11
0.0
 21
80.27000000000001
 31
0.0
  0
LINE
  5
EAB2
330
EA93
100
AcDbEntity
  8
0
100
AcDbLine
 10
1.500000000000029
 20
6.269999999999996
 30
0.0
 11
1.500000000000029
 21
72.27000000000001
 31
0.0
  0
LINE
  5
EAB3
330
EA93
100
AcDbEntity
  8
0
100
AcDbLine
 10
1.500000000000011
 20
77.27000000000001
 30
0.0
 11
1.500000000000011
 21
80.27000000000001
 31
0.0
  0
LINE
  5
EAB4
330
EA93
100
AcDbEntity
  8
0
100
AcDbLine
 10
0.0
 20
80.27000000000002
 30
0.0
 11
0.0
 21
160.67
 31
0.0
  0
LINE
  5
EAB5
330
EA93
100
AcDbEntity
  8
0
100
AcDbLine
 10
2.100000000000007
 20
160.67
 30
0.0
 11
0.0
 21
160.67
 31
0.0
  0
LINE
  5
EAB6
330
EA93
100
AcDbEntity
  8
0
100
AcDbLine
 10
0.0
 20
80.27000000000002
 30
0.0
 11
2.100000000000007
 21
80.27000000000002
 31
0.0
  0
LINE
  5
EAB7
330
EA93
100
AcDbEntity
  8
0
100
AcDbLine
 10
43.50000000000001
 20
85.27000000000001
 30
0.0
 11
38.50000000000002
 21
80.27000000000002
 31
0.0
  0
LINE
  5
EAB8
330
EA93
100
AcDbEntity
  8
0
100
AcDbLine
 10
38.50000000000001
 20
160.67
 30
0.0
 11
43.50000000000001
 21
155.67
 31
0.0
  0
LINE
  5
EAB9
330
EA93
100
AcDbEntity
  8
0
100
AcDbLine
 10
82.00306627386002
 20
-21.35501473263464
 30
0.0
 11
82.00306627385998
 21
-28.4260825445001
 31
0.0
  0
CIRCLE
  5
EABA
330
EA93
100
AcDbEntity
  8
0
100
AcDbCircle
 10
35.50000000000002
 20
147.77
 30
0.0
 40
2.5
  0
CIRCLE
  5
EABB
330
EA93
100
AcDbEntity
  8
0
100
AcDbCircle
 10
35.50000000000002
 20
127.77
 30
0.0
 40
2.5
  0
CIRCLE
  5
EABC
330
EA93
100
AcDbEntity
  8
0
100
AcDbCircle
 10
35.50000000000002
 20
107.77
 30
0.0
 40
2.5
  0
CIRCLE
  5
EABD
330
EA93
100
AcDbEntity
  8
0
100
AcDbCircle
 10
35.50000000000002
 20
87.77000000000001
 30
0.0
 40
2.5
  0
LINE
  5
EABE
330
EA93
100
AcDbEntity
  8
0
100
AcDbLine
 10
43.50000000000001
 20
155.67
 30
0.0
 11
43.50000000000001
 21
85.27000000000001
 31
0.0
  0
LINE
  5
EABF
330
EA93
100
AcDbEntity
  8
0
100
AcDbLine
 10
2.100000000000007
 20
160.67
 30
0.0
 11
38.50000000000001
 21
160.67
 31
0.0
  0
LINE
  5
EAC0
330
EA93
100
AcDbEntity
  8
0
100
AcDbLine
 10
38.50000000000002
 20
80.27000000000002
 30
0.0
 11
2.100000000000008
 21
80.27000000000002
 31
0.0
  0
LINE
  5
EAC1
330
EA93
100
AcDbEntity
  8
0
100
AcDbLine
 10
82.00306627385998
 20
-28.4260825445001
 30
0.0
 11
56.26437943888955
 21
-54.16476937947052
 31
0.0
  0
LINE
  5
EAC2
330
EA93
100
AcDbEntity
  8
0
100
AcDbLine
 10
62.91118318265866
 20
-2.263131642256719
 30
0.0
 11
82.00306627386002
 21
-21.35501473263464
 31
0.0
  0
CIRCLE
  5
EAC3
330
EA93
100
AcDbEntity
  8
0
100
AcDbCircle
 10
74.57844507130477
 20
-25.24410202925711
 30
0.0
 40
2.5
  0
ARC
  5
EAC4
330
EA93
100
AcDbEntity
  8
0
100
AcDbCircle
 10
59.31559010709463
 20
-13.990452698916
 30
0.0
 40
0.8000000000000012
100
AcDbArc
 50
315.000000001042
 51
75.00000000104186
  0
LINE
  5
EAC5
330
EA93
100
AcDbEntity
  8
0
100
AcDbLine
 10
59.88127553205416
 20
-14.55613812385494
 30
0.0
 11
56.81941335363088
 21
-17.61800030238964
 31
0.0
  0
ARC
  5
EAC6
330
EA93
100
AcDbEntity
  8
0
100
AcDbCircle
 10
56.25372792867135
 20
-17.0523148774507
 30
0.0
 40
0.8
100
AcDbArc
 50
195.0000000010428
 51
315.0000000010428
  0
LINE
  5
EAC7
330
EA93
100
AcDbEntity
  8
0
100
AcDbLine
 10
55.48098726764387
 20
-17.25937011354677
 30
0.0
 11
54.36026792735771
 21
-13.07678859487811
 31
0.0
  0
ARC
  5
EAC8
330
EA93
100
AcDbEntity
  8
0
100
AcDbCircle
 10
55.13300858838519
 20
-12.86973335878203
 30
0.0
 40
0.8000000000000014
100
AcDbArc
 50
75.00000000104188
 51
195.0000000010427
  0
LINE
  5
EAC9
330
EA93
100
AcDbEntity
  8
0
100
AcDbLine
 10
55.34006382445316
 20
-12.096992697747
 30
0.0
 11
59.5226453431626
 21
-13.21771203788096
 31
0.0
  0
LINE
  5
EACA
330
EA93
100
AcDbEntity
  8
0
100
AcDbLine
 10
55.28251771018369
 20
-12.08382813389861
 30
0.0
 11
54.3471033635072
 21
-13.01924248060914
 31
0.0
  0
LINE
  5
EACB
330
EA93
100
AcDbEntity
  8
0
100
AcDbLine
 10
54.77945519839778
 20
-55.64969361996226
 30
0.0
 11
1.656580012761352
 21
-2.526818434325797
 31
0.0
  0
LINE
  5
EACC
330
EA93
100
AcDbEntity
  8
0
100
AcDbLine
 10
56.26437943888956
 20
-54.16476937947049
 30
0.0
 11
54.77945519839779
 21
-55.64969361996228
 31
0.0
  0
ENDBLK
  5
EA95
330
EA93
100
AcDbEntity
  8
0
100
AcDbBlockEnd
  0
BLOCK
  5
EACE
330
EACD
100
AcDbEntity
  8
0
100
AcDbBlockBegin
  2
SPR64_160-Right
 70
     0
 10
0.0
 20
0.0
 30
0.0
  3
SPR64_160-Right
  1

  0
LINE
  5
EAD0
330
EACD
100
AcDbEntity
  8
0
100
AcDbLine
 10
-1.499999999999971
 20
6.269999999999987
 30
0.0
 11
-1.499999999999973
 21
1.269999999999996
 31
0.0
  0
LINE
  5
EAD1
330
EACD
100
AcDbEntity
  8
0
100
AcDbLine
 10
-1.499999999999973
 20
1.269999999999996
 30
0.0
 11
0.0
 21
1.270000000000016
 31
0.0
  0
LINE
  5
EAD2
330
EACD
100
AcDbEntity
  8
0
100
AcDbLine
 10
0.0
 20
1.270000000000016
 30
0.0
 11
0.0
 21
6.269999999999987
 31
0.0
  0
LINE
  5
EAD3
330
EACD
100
AcDbEntity
  8
0
100
AcDbLine
 10
0.0
 20
6.269999999999987
 30
0.0
 11
-1.499999999999971
 21
6.269999999999987
 31
0.0
  0
LINE
  5
EAD4
330
EACD
100
AcDbEntity
  8
0
100
AcDbLine
 10
-1.499999999999971
 20
72.27000000000001
 30
0.0
 11
0.0
 21
72.27000000000001
 31
0.0
  0
LINE
  5
EAD5
330
EACD
100
AcDbEntity
  8
0
100
AcDbLine
 10
0.0
 20
72.27000000000001
 30
0.0
 11
0.0
 21
77.27000000000001
 31
0.0
  0
LINE
  5
EAD6
330
EACD
100
AcDbEntity
  8
0
100
AcDbLine
 10
-1.499999999999973
 20
77.27000000000001
 30
0.0
 11
-1.499999999999971
 21
72.27000000000001
 31
0.0
  0
LINE
  5
EAD7
330
EACD
100
AcDbEntity
  8
0
100
AcDbLine
 10
0.0
 20
77.27000000000001
 30
0.0
 11
-1.499999999999973
 21
77.27000000000001
 31
0.0
  0
LINE
  5
EAD8
330
EACD
100
AcDbEntity
  8
0
100
AcDbLine
 10
0.0
 20
72.27000000000001
 30
0.0
 11
0.0
 21
6.269999999999988
 31
0.0
  0
LINE
  5
EAD9
330
EACD
100
AcDbEntity
  8
0
100
AcDbLine
 10
-1.499999999999971
 20
72.27000000000001
 30
0.0
 11
-1.499999999999971
 21
6.269999999999988
 31
0.0
  0
LINE
  5
EADA
330
EACD
100
AcDbEntity
  8
0
100
AcDbLine
 10
0.0
 20
80.27000000000002
 30
0.0
 11
0.0
 21
77.27000000000002
 31
0.0
  0
LINE
  5
EADB
330
EACD
100
AcDbEntity
  8
0
100
AcDbLine
 10
-1.499999999999989
 20
80.27000000000002
 30
0.0
 11
-1.499999999999989
 21
77.27000000000002
 31
0.0
  0
LINE
  5
EADC
330
EACD
100
AcDbEntity
  8
0
100
AcDbLine
 10
0.0
 20
1.270000000000001
 30
0.0
 11
0.0
 21
-0.0003899405809504
 31
0.0
  0
LINE
  5
EADD
330
EACD
100
AcDbEntity
  8
0
100
AcDbLine
 10
-4.362741700911239
 20
-2.263131641492221
 30
0.0
 11
-62.91118318265851
 21
-2.26313164225655
 31
0.0
  0
LINE
  5
EADE
330
EACD
100
AcDbEntity
  8
0
100
AcDbLine
 10
-2.717240184541154
 20
-1.466158262545982
 30
0.0
 11
-2.288136209298589
 21
-1.037054287303417
 31
0.0
  0
LINE
  5
EADF
330
EACD
100
AcDbEntity
  8
0
100
AcDbLine
 10
-2.288136209298613
 20
-1.037054287303415
 30
0.0
 11
-1.67573593128807
 21
-0.4246540092928724
 31
0.0
  0
SPLINE
  5
EAE0
330
EACD
100
AcDbEntity
  8
0
100
AcDbSpline
210
0.0
220
0.0
230
1.0
 70
     8
 71
     3
 72
     8
 73
     4
 74
     0
 42
0.000000001
 43
0.0000000001
 40
-1.0
 40
-1.0
 40
-1.0
 40
-1.0
 40
0.0
 40
0.0
 40
0.0
 40
0.0
 10
-1.675735931288078
 20
-0.4246540092928797
 30
0.0
 10
-1.572566966670501
 20
-0.3214850446753029
 30
0.0
 10
-1.500000000000006
 20
-0.159479210935427
 30
0.0
 10
-1.500000000000006
 20
-0.0003899405809506
 30
0.0
  0
LINE
  5
EAE1
330
EACD
100
AcDbEntity
  8
0
100
AcDbLine
 10
-2.717240184541154
 20
-1.466158262545982
 30
0.0
 11
-2.364040347338753
 21
-1.819358099748384
 31
0.0
  0
SPLINE
  5
EAE2
330
EACD
100
AcDbEntity
  8
0
100
AcDbSpline
210
0.0
220
0.0
230
1.0
 70
     8
 71
     3
 72
     8
 73
     4
 74
     0
 42
0.000000001
 43
0.0000000001
 40
-1.0
 40
-1.0
 40
-1.0
 40
-1.0
 40
0.0
 40
0.0
 40
0.0
 40
0.0
 10
-4.362741700911276
 20
-2.263131641492212
 30
0.0
 10
-3.733518404783985
 20
-2.078196639180777
 30
0.0
 10
-3.124319333760429
 20
-1.873237411765227
 30
0.0
 10
-2.717240184541156
 20
-1.466158262545953
 30
0.0
  0
SPLINE
  5
EAE3
330
EACD
100
AcDbEntity
  8
0
100
AcDbSpline
210
0.0
220
0.0
230
1.0
 70
     8
 71
     3
 72
     8
 73
     4
 74
     0
 42
0.000000001
 43
0.0000000001
 40
0.0
 40
0.0
 40
0.0
 40
0.0
 40
1.0
 40
1.0
 40
1.0
 40
1.0
 10
-1.656580012761333
 20
-2.526818434325774
 30
0.0
 10
-2.063659161980608
 20
-2.933897583545048
 30
0.0
 10
-3.178158037514153
 20
-2.633557006450608
 30
0.0
 10
-4.362741700911252
 20
-2.263131641492235
 30
0.0
  0
LINE
  5
EAE4
330
EACD
100
AcDbEntity
  8
0
100
AcDbLine
 10
-2.364040347338753
 20
-1.819358099748384
 30
0.0
 11
-1.656580012761333
 21
-2.526818434325803
 31
0.0
  0
LINE
  5
EAE5
330
EACD
100
AcDbEntity
  8
0
100
AcDbLine
 10
-0.6150757595082656
 20
-1.485314181072677
 30
0.0
 11
-1.227476037518807
 21
-2.097714459083221
 31
0.0
  0
LINE
  5
EAE6
330
EACD
100
AcDbEntity
  8
0
100
AcDbLine
 10
-0.6150757595082559
 20
-1.4853141810727
 30
0.0
 11
-1.322536092813985
 21
-0.7778538477669726
 31
0.0
  0
LINE
  5
EAE7
330
EACD
100
AcDbEntity
  8
0
100
AcDbLine
 10
-1.322536092813985
 20
-0.7778538477669726
 30
0.0
 11
-1.675735931288077
 21
-0.4246540092928794
 31
0.0
  0
LINE
  5
EAE8
330
EACD
100
AcDbEntity
  8
0
100
AcDbLine
 10
-2.288136209298589
 20
-1.037054287303417
 30
0.0
 11
-1.227476037518773
 21
-2.097714459083233
 31
0.0
  0
LINE
  5
EAE9
330
EACD
100
AcDbEntity
  8
0
100
AcDbLine
 10
-1.227476037518773
 20
-2.097714459083233
 30
0.0
 11
-1.656580012761333
 21
-2.526818434325803
 31
0.0
  0
LINE
  5
EAEA
330
EACD
100
AcDbEntity
  8
0
100
AcDbLine
 10
-1.499999999999988
 20
-0.0003899405809504
 30
0.0
 11
-1.000499995415823
 21
-0.0003899405809504
 31
0.0
  0
SPLINE
  5
EAEB
330
EACD
100
AcDbEntity
  8
0
100
AcDbSpline
210
0.0
220
0.0
230
1.0
 70
     8
 71
     3
 72
     8
 73
     4
 74
     0
 42
0.000000001
 43
0.0000000001
 40
0.0
 40
0.0
 40
0.0
 40
0.0
 40
1.0
 40
1.0
 40
1.0
 40
1.0
 10
-0.0000000000000058
 20
-0.0003899405809506
 30
0.0
 10
-0.0000000000000058
 20
-0.5572023868216178
 30
0.0
 10
-0.253984383346738
 20
-1.124222804911183
 30
0.0
 10
-0.6150757595082571
 20
-1.485314181072701
 30
0.0
  0
LINE
  5
EAEC
330
EACD
100
AcDbEntity
  8
0
100
AcDbLine
 10
-1.000499995415823
 20
-0.0003899405809504
 30
0.0
 11
0.0
 21
-0.0003899405809504
 31
0.0
  0
LINE
  5
EAED
330
EACD
100
AcDbEntity
  8
0
100
AcDbLine
 10
-1.499999999999993
 20
-0.0003899405809503
 30
0.0
 11
-1.499999999999992
 21
1.270000000000001
 31
0.0
  0
LINE
  5
EAEE
330
EACD
100
AcDbEntity
  8
0
100
AcDbLine
 10
0.0
 20
80.27000000000002
 30
0.0
 11
0.0
 21
160.67
 31
0.0
  0
LINE
  5
EAEF
330
EACD
100
AcDbEntity
  8
0
100
AcDbLine
 10
0.0
 20
160.67
 30
0.0
 11
-2.099999999999982
 21
160.67
 31
0.0
  0
LINE
  5
EAF0
330
EACD
100
AcDbEntity
  8
0
100
AcDbLine
 10
-2.099999999999973
 20
80.27000000000002
 30
0.0
 11
0.0
 21
80.27000000000002
 31
0.0
  0
LINE
  5
EAF1
330
EACD
100
AcDbEntity
  8
0
100
AcDbLine
 10
-38.49999999999999
 20
80.27000000000002
 30
0.0
 11
-43.49999999999998
 21
85.27000000000002
 31
0.0
  0
LINE
  5
EAF2
330
EACD
100
AcDbEntity
  8
0
100
AcDbLine
 10
-43.49999999999998
 20
155.67
 30
0.0
 11
-38.49999999999999
 21
160.67
 31
0.0
  0
LINE
  5
EAF3
330
EACD
100
AcDbEntity
  8
0
100
AcDbLine
 10
-82.00306627385998
 20
-28.42608254450008
 30
0.0
 11
-82.00306627386
 21
-21.35501473263462
 31
0.0
  0
LINE
  5
EAF4
330
EACD
100
AcDbEntity
  8
0
100
AcDbLine
 10
-43.49999999999998
 20
85.27000000000002
 30
0.0
 11
-43.49999999999998
 21
155.67
 31
0.0
  0
LINE
  5
EAF5
330
EACD
100
AcDbEntity
  8
0
100
AcDbLine
 10
-2.099999999999974
 20
80.27000000000002
 30
0.0
 11
-38.49999999999999
 21
80.27000000000002
 31
0.0
  0
LINE
  5
EAF6
330
EACD
100
AcDbEntity
  8
0
100
AcDbLine
 10
-38.49999999999999
 20
160.67
 30
0.0
 11
-2.099999999999981
 21
160.67
 31
0.0
  0
CIRCLE
  5
EAF7
330
EACD
100
AcDbEntity
  8
0
100
AcDbCircle
 10
-35.5
 20
152.77
 30
0.0
 40
2.5
  0
CIRCLE
  5
EAF8
330
EACD
100
AcDbEntity
  8
0
100
AcDbCircle
 10
-35.5
 20
132.77
 30
0.0
 40
2.5
  0
CIRCLE
  5
EAF9
330
EACD
100
AcDbEntity
  8
0
100
AcDbCircle
 10
-35.5
 20
112.77
 30
0.0
 40
2.5
  0
CIRCLE
  5
EAFA
330
EACD
100
AcDbEntity
  8
0
100
AcDbCircle
 10
-35.5
 20
92.77000000000001
 30
0.0
 40
2.5
  0
LINE
  5
EAFB
330
EACD
100
AcDbEntity
  8
0
100
AcDbLine
 10
-62.91118318265851
 20
-2.26313164225655
 30
0.0
 11
-82.00306627386
 21
-21.35501473263462
 31
0.0
  0
LINE
  5
EAFC
330
EACD
100
AcDbEntity
  8
0
100
AcDbLine
 10
-1.656580012761333
 20
-2.526818434325803
 30
0.0
 11
-54.77945519839777
 21
-55.64969361996226
 31
0.0
  0
LINE
  5
EAFD
330
EACD
100
AcDbEntity
  8
0
100
AcDbLine
 10
-54.77945519839775
 20
-55.64969361996227
 30
0.0
 11
-56.26437943888934
 21
-54.16476937947033
 31
0.0
  0
LINE
  5
EAFE
330
EACD
100
AcDbEntity
  8
0
100
AcDbLine
 10
-56.26437943888952
 20
-54.16476937947052
 30
0.0
 11
-82.00306627385998
 21
-28.42608254450008
 31
0.0
  0
CIRCLE
  5
EAFF
330
EACD
100
AcDbEntity
  8
0
100
AcDbCircle
 10
-71.04291116530767
 20
-21.70856812338872
 30
0.0
 40
2.5
  0
ARC
  5
EB00
330
EACD
100
AcDbEntity
  8
0
100
AcDbCircle
 10
-51.59747468238809
 20
-9.33419945291363
 30
0.0
 40
0.8000000000000015
100
AcDbArc
 50
344.9999999989572
 51
355.4526675359234
  0
LINE
  5
EB01
330
EACD
100
AcDbEntity
  8
0
100
AcDbLine
 10
-50.82473402136063
 20
-9.541254689009706
 30
0.0
 11
-51.94545336164679
 21
-13.72383620767836
 31
0.0
  0
ARC
  5
EB02
330
EACD
100
AcDbEntity
  8
0
100
AcDbCircle
 10
-52.71819402267426
 20
-13.51678097158229
 30
0.0
 40
0.8
100
AcDbArc
 50
224.9999999989572
 51
344.9999999989576
  0
LINE
  5
EB03
330
EACD
100
AcDbEntity
  8
0
100
AcDbLine
 10
-53.28387944763379
 20
-14.08246639652124
 30
0.0
 11
-56.34574162605708
 21
-11.02060421798654
 31
0.0
  0
ARC
  5
EB04
330
EACD
100
AcDbEntity
  8
0
100
AcDbCircle
 10
-55.78005620109753
 20
-10.45491879304759
 30
0.0
 40
0.8000000000000014
100
AcDbArc
 50
104.9999999989575
 51
224.9999999989572
  0
LINE
  5
EB05
330
EACD
100
AcDbEntity
  8
0
100
AcDbLine
 10
-55.9871114371655
 20
-9.682178132012559
 30
0.0
 11
-51.80452991845606
 21
-8.561458791878598
 31
0.0
  0
ARC
  5
EB06
330
EACD
100
AcDbEntity
  8
0
100
AcDbCircle
 10
-51.59747468238809
 20
-9.33419945291363
 30
0.0
 40
0.8000000000000014
100
AcDbArc
 50
49.59733246198601
 51
104.9999999989581
  0
LINE
  5
EB07
330
EACD
100
AcDbEntity
  8
0
100
AcDbLine
 10
-51.07895039795263
 20
-8.724992947325674
 30
0.0
 11
-50.79999294004348
 21
-9.397625556585486
 31
0.0
  0
ARC
  5
EB08
330
EACD
100
AcDbEntity
  8
0
100
AcDbCircle
 10
-55.13300858838519
 20
-12.86973335878203
 30
0.0
 40
0.8000000000000015
100
AcDbArc
 50
349.2288663267692
 51
100.7711336711455
  0
ENDBLK
  5
EACF
330
EACD
100
AcDbEntity
  8
0
100
AcDbBlockEnd
  0
BLOCK
  5
EB0A
330
EB09
100
AcDbEntity
  8
0
100
AcDbBlockBegin
  2
SPR64_160-Top
 70
     0
 10
0.0
 20
0.0
 30
0.0
  3
SPR64_160-Top
  1

  0
LINE
  5
EB0C
330
EB09
100
AcDbEntity
  8
0
100
AcDbLine
 10
74.52709056099997
 20
-1.499999999999971
 30
0.0
 11
74.52709056099997
 21
0.0
 31
0.0
  0
LINE
  5
EB0D
330
EB09
100
AcDbEntity
  8
0
100
AcDbLine
 10
-69.52709056100001
 20
0.0
 30
0.0
 11
-74.52709056100001
 21
0.0
 31
0.0
  0
LINE
  5
EB0E
330
EB09
100
AcDbEntity
  8
0
100
AcDbLine
 10
74.52709056099997
 20
0.0
 30
0.0
 11
69.52709056099997
 21
0.0
 31
0.0
  0
LINE
  5
EB0F
330
EB09
100
AcDbEntity
  8
0
100
AcDbLine
 10
-74.52709056100001
 20
0.0
 30
0.0
 11
-74.52709056100001
 21
-1.500000000000028
 31
0.0
  0
LINE
  5
EB10
330
EB09
100
AcDbEntity
  8
0
100
AcDbLine
 10
-74.52709056100001
 20
-1.500000000000028
 30
0.0
 11
-69.52709056100001
 21
-1.500000000000026
 31
0.0
  0
LINE
  5
EB11
330
EB09
100
AcDbEntity
  8
0
100
AcDbLine
 10
-69.52709056100001
 20
-1.500000000000026
 30
0.0
 11
-69.52709056100001
 21
0.0
 31
0.0
  0
LINE
  5
EB12
330
EB09
100
AcDbEntity
  8
0
100
AcDbLine
 10
69.52709056099997
 20
-1.499999999999973
 30
0.0
 11
74.52709056099997
 21
-1.499999999999971
 31
0.0
  0
LINE
  5
EB13
330
EB09
100
AcDbEntity
  8
0
100
AcDbLine
 10
69.52709056099997
 20
0.0
 30
0.0
 11
69.52709056099997
 21
-1.499999999999973
 31
0.0
  0
LINE
  5
EB14
330
EB09
100
AcDbEntity
  8
0
100
AcDbLine
 10
-69.52709056100001
 20
0.0
 30
0.0
 11
-31.40000000000001
 21
0.0
 31
0.0
  0
LINE
  5
EB15
330
EB09
100
AcDbEntity
  8
0
100
AcDbLine
 10
31.39999999999999
 20
0.0
 30
0.0
 11
69.52709056099997
 21
0.0
 31
0.0
  0
LINE
  5
EB16
330
EB09
100
AcDbEntity
  8
0
100
AcDbLine
 10
33.41246117974981
 20
-1.499999999999987
 30
0.0
 11
69.52709056099997
 21
-1.499999999999973
 31
0.0
  0
LINE
  5
EB17
330
EB09
100
AcDbEntity
  8
0
100
AcDbLine
 10
-69.52709056100001
 20
-1.500000000000026
 30
0.0
 11
-33.41246117974982
 21
-1.500000000000012
 31
0.0
  0
LINE
  5
EB18
330
EB09
100
AcDbEntity
  8
0
100
AcDbLine
 10
31.39999999999999
 20
0.0
 30
0.0
 11
-31.40000000000001
 21
0.0
 31
0.0
  0
LINE
  5
EB19
330
EB09
100
AcDbEntity
  8
0
100
AcDbLine
 10
33.49999999999995
 20
-38.49999999999999
 30
0.0
 11
33.5
 21
-2.099999999999981
 31
0.0
  0
LINE
  5
EB1A
330
EB09
100
AcDbEntity
  8
0
100
AcDbLine
 10
-33.50000000000001
 20
-2.100000000000007
 30
0.0
 11
-33.50000000000001
 21
-38.50000000000001
 31
0.0
  0
LINE
  5
EB1B
330
EB09
100
AcDbEntity
  8
0
100
AcDbLine
 10
31.99999999999999
 20
-2.099999999999983
 30
0.0
 11
31.99999999999995
 21
-38.49999999999999
 31
0.0
  0
LINE
  5
EB1C
330
EB09
100
AcDbEntity
  8
0
100
AcDbLine
 10
-31.40000000000001
 20
-1.500000000000006
 30
0.0
 11
31.39999999999999
 21
-1.499999999999983
 31
0.0
  0
LINE
  5
EB1D
330
EB09
100
AcDbEntity
  8
0
100
AcDbLine
 10
-32.00000000000001
 20
-38.50000000000001
 30
0.0
 11
-32.00000000000001
 21
-2.100000000000008
 31
0.0
  0
LINE
  5
EB1E
330
EB09
100
AcDbEntity
  8
0
100
AcDbLine
 10
31.99999999999994
 20
-43.49999999999998
 30
0.0
 11
33.49999999999994
 21
-43.49999999999998
 31
0.0
  0
LINE
  5
EB1F
330
EB09
100
AcDbEntity
  8
0
100
AcDbLine
 10
33.49999999999994
 20
-43.49999999999998
 30
0.0
 11
33.49999999999995
 21
-38.49999999999999
 31
0.0
  0
LINE
  5
EB20
330
EB09
100
AcDbEntity
  8
0
100
AcDbLine
 10
-33.50000000000001
 20
-38.50000000000001
 30
0.0
 11
-33.50000000000001
 21
-43.50000000000001
 31
0.0
  0
LINE
  5
EB21
330
EB09
100
AcDbEntity
  8
0
100
AcDbLine
 10
-33.50000000000001
 20
-43.50000000000001
 30
0.0
 11
-32.00000000000001
 21
-43.50000000000001
 31
0.0
  0
LINE
  5
EB22
330
EB09
100
AcDbEntity
  8
0
100
AcDbLine
 10
33.49999999999995
 20
-38.49999999999999
 30
0.0
 11
31.99999999999995
 21
-38.49999999999999
 31
0.0
  0
LINE
  5
EB23
330
EB09
100
AcDbEntity
  8
0
100
AcDbLine
 10
31.99999999999995
 20
-38.49999999999999
 30
0.0
 11
31.99999999999994
 21
-43.49999999999998
 31
0.0
  0
LINE
  5
EB24
330
EB09
100
AcDbEntity
  8
0
100
AcDbLine
 10
-32.00000000000001
 20
-43.50000000000001
 30
0.0
 11
-32.00000000000001
 21
-38.50000000000001
 31
0.0
  0
LINE
  5
EB25
330
EB09
100
AcDbEntity
  8
0
100
AcDbLine
 10
-32.00000000000001
 20
-38.50000000000001
 30
0.0
 11
-33.50000000000001
 21
-38.50000000000001
 31
0.0
  0
LINE
  5
EB26
330
EB09
100
AcDbEntity
  8
0
100
AcDbLine
 10
33.5
 20
-82.00306627386
 30
0.0
 11
32.0
 21
-82.00306627385998
 31
0.0
  0
LINE
  5
EB27
330
EB09
100
AcDbEntity
  8
0
100
AcDbLine
 10
-31.99999999999999
 20
-82.00306627386
 30
0.0
 11
-33.49999999999999
 21
-82.00306627386002
 31
0.0
  0
LINE
  5
EB28
330
EB09
100
AcDbEntity
  8
0
100
AcDbLine
 10
33.50000000000127
 20
-62.91118318265851
 30
0.0
 11
33.5
 21
-82.00306627386
 31
0.0
  0
LINE
  5
EB29
330
EB09
100
AcDbEntity
  8
0
100
AcDbLine
 10
32.00000000000109
 20
-62.91118318265851
 30
0.0
 11
32.0
 21
-82.00306627385998
 31
0.0
  0
ELLIPSE
  5
EB2A
330
EB09
100
AcDbEntity
  8
0
100
AcDbEllipse
 10
31.4
 20
-56.26437943888952
 30
0.0
 11
0.6000000000000087
 21
0.0000000000000394
 31
0.0
210
0.0
220
0.0
230
1.0
 40
0.7071067811866067
 41
0.0
 42
1.570796326794746
  0
LINE
  5
EB2B
330
EB09
100
AcDbEntity
  8
0
100
AcDbLine
 10
33.50000000000127
 20
-62.91118318265851
 30
0.0
 11
32.00000000000109
 21
-62.91118318265851
 31
0.0
  0
LINE
  5
EB2C
330
EB09
100
AcDbEntity
  8
0
100
AcDbLine
 10
33.5
 20
-43.49999999999998
 30
0.0
 11
33.50000000000127
 21
-62.91118318265851
 31
0.0
  0
LINE
  5
EB2D
330
EB09
100
AcDbEntity
  8
0
100
AcDbLine
 10
-33.5000000000008
 20
-62.91118318265866
 30
0.0
 11
-33.50000000000081
 21
-43.50000000000001
 31
0.0
  0
ELLIPSE
  5
EB2E
330
EB09
100
AcDbEntity
  8
0
100
AcDbEllipse
 10
-28.50000000000001
 20
-1.227476037518804
 30
0.0
 11
-1.5
 21
0.0000000000001092
 31
0.0
210
0.0
220
0.0
230
1.0
 40
0.7071067811865475
 41
1.570796326795022
 42
2.705254581962137
  0
LINE
  5
EB2F
330
EB09
100
AcDbEntity
  8
0
100
AcDbLine
 10
-28.50000000000001
 20
-2.288136209298609
 30
0.0
 11
-30.79315533855961
 21
-2.288136209298611
 31
0.0
  0
LINE
  5
EB30
330
EB09
100
AcDbEntity
  8
0
100
AcDbLine
 10
-30.79315533855961
 20
-2.288136209298611
 30
0.0
 11
-31.40000000000001
 21
-2.717240184541172
 31
0.0
  0
LINE
  5
EB31
330
EB09
100
AcDbEntity
  8
0
100
AcDbLine
 10
31.39999999999999
 20
-2.717240184541154
 30
0.0
 11
30.7931553385596
 21
-2.288136209298589
 31
0.0
  0
LINE
  5
EB32
330
EB09
100
AcDbEntity
  8
0
100
AcDbLine
 10
30.7931553385596
 20
-2.288136209298589
 30
0.0
 11
28.5
 21
-2.288136209298591
 31
0.0
  0
ELLIPSE
  5
EB33
330
EB09
100
AcDbEntity
  8
0
100
AcDbEllipse
 10
28.5
 20
-1.227476037518792
 30
0.0
 11
-1.5
 21
-0.0000000000000003
 31
0.0
210
0.0
220
0.0
230
1.0
 40
0.7071067811865474
 41
0.4363380716279064
 42
1.570796326794896
  0
SPLINE
  5
EB34
330
EB09
100
AcDbEntity
  8
0
100
AcDbSpline
210
0.0
220
0.0
230
1.0
 70
     8
 71
     3
 72
     8
 73
     4
 74
     0
 42
0.000000001
 43
0.0000000001
 40
-1.0
 40
-1.0
 40
-1.0
 40
-1.0
 40
0.0
 40
0.0
 40
0.0
 40
0.0
 10
-27.01767776087198
 20
-1.500000000000018
 30
0.0
 10
-26.97251992073971
 20
-1.500000000000018
 30
0.0
 10
-27.01586474390331
 20
-1.572566966670508
 30
0.0
 10
-27.14054197002042
 20
-1.675735931288089
 30
0.0
  0
SPLINE
  5
EB35
330
EB09
100
AcDbEntity
  8
0
100
AcDbSpline
210
0.0
220
0.0
230
1.0
 70
     8
 71
     3
 72
     8
 73
     4
 74
     0
 42
0.000000001
 43
0.0000000001
 40
-1.0
 40
-1.0
 40
-1.0
 40
-1.0
 40
0.0
 40
0.0
 40
0.0
 40
0.0
 10
27.14054197002043
 20
-1.675735931288078
 30
0.0
 10
27.01586474390286
 20
-1.572566966670501
 30
0.0
 10
26.97251992073907
 20
-1.500000000000006
 30
0.0
 10
27.01767776087195
 20
-1.500000000000006
 30
0.0
  0
LINE
  5
EB36
330
EB09
100
AcDbEntity
  8
0
100
AcDbLine
 10
-32.00000000000061
 20
-62.91118318265866
 30
0.0
 11
-33.5000000000008
 21
-62.91118318265866
 31
0.0
  0
LINE
  5
EB37
330
EB09
100
AcDbEntity
  8
0
100
AcDbLine
 10
-32.00000000000001
 20
-43.50000000000001
 30
0.0
 11
-32.00000000000061
 21
-62.91118318265866
 31
0.0
  0
SPLINE
  5
EB38
330
EB09
100
AcDbEntity
  8
0
100
AcDbSpline
210
0.0
220
0.0
230
1.0
 70
     8
 71
     3
 72
     8
 73
     4
 74
     0
 42
0.000000001
 43
0.0000000001
 40
-1.0
 40
-1.0
 40
-1.0
 40
-1.0
 40
0.0
 40
0.0
 40
0.0
 40
0.0
 10
-31.40000000000001
 20
-2.717240184541179
 30
0.0
 10
-31.714159265359
 20
-3.124319333760726
 30
0.0
 10
-32.00000000000002
 20
-3.733518404784383
 30
0.0
 10
-32.00000000000003
 20
-4.362741700911255
 30
0.0
  0
LINE
  5
EB39
330
EB09
100
AcDbEntity
  8
0
100
AcDbLine
 10
-31.40000000000001
 20
-2.717240184541172
 30
0.0
 11
-31.40000000000001
 21
-2.364040347338208
 31
0.0
  0
LINE
  5
EB3A
330
EB09
100
AcDbEntity
  8
0
100
AcDbLine
 10
-31.40000000000001
 20
-2.364040347338208
 30
0.0
 11
-31.40000000000001
 21
-1.65658001276135
 31
0.0
  0
SPLINE
  5
EB3B
330
EB09
100
AcDbEntity
  8
0
100
AcDbSpline
210
0.0
220
0.0
230
1.0
 70
     8
 71
     3
 72
     8
 73
     4
 74
     0
 42
0.000000001
 43
0.0000000001
 40
0.8233926083861719
 40
0.8233926083861719
 40
0.8233926083861719
 40
0.8233926083861719
 40
1.0
 40
1.0
 40
1.0
 40
1.0
 10
-31.9683307934395
 20
-1.934942494002062
 30
0.0
 10
-31.78528852951264
 20
-1.822430928281109
 30
0.0
 10
-31.59418996942229
 20
-1.728473199485397
 30
0.0
 10
-31.40000000000001
 20
-1.656580012761357
 30
0.0
  0
LINE
  5
EB3C
330
EB09
100
AcDbEntity
  8
0
100
AcDbLine
 10
-31.40000000000001
 20
-1.65658001276135
 30
0.0
 11
-31.17856242236215
 21
-1.500000000000007
 31
0.0
  0
LINE
  5
EB3D
330
EB09
100
AcDbEntity
  8
0
100
AcDbLine
 10
-30.79315533855961
 20
-2.288136209298611
 30
0.0
 11
-30.79315533855961
 21
-1.500000000000011
 31
0.0
  0
LINE
  5
EB3E
330
EB09
100
AcDbEntity
  8
0
100
AcDbLine
 10
-27.14054197002044
 20
-1.675735931288089
 30
0.0
 11
-27.14054197002044
 21
-1.50000000000001
 31
0.0
  0
LINE
  5
EB3F
330
EB09
100
AcDbEntity
  8
0
100
AcDbLine
 10
32.00000000000109
 20
-62.91118318265851
 30
0.0
 11
32.00000000000109
 21
-43.49999999999998
 31
0.0
  0
LINE
  5
EB40
330
EB09
100
AcDbEntity
  8
0
100
AcDbLine
 10
31.39999999999999
 20
-2.717240184541154
 30
0.0
 11
31.39999999999999
 21
-2.364040347338753
 31
0.0
  0
SPLINE
  5
EB41
330
EB09
100
AcDbEntity
  8
0
100
AcDbSpline
210
0.0
220
0.0
230
1.0
 70
     8
 71
     3
 72
     8
 73
     4
 74
     0
 42
0.000000001
 43
0.0000000001
 40
-1.0
 40
-1.0
 40
-1.0
 40
-1.0
 40
0.0
 40
0.0
 40
0.0
 40
0.0
 10
32.00000000000001
 20
-4.362741700911276
 30
0.0
 10
32.0
 20
-3.733518404783985
 30
0.0
 10
31.714159265359
 20
-3.124319333760429
 30
0.0
 10
31.39999999999999
 20
-2.717240184541156
 30
0.0
  0
SPLINE
  5
EB42
330
EB09
100
AcDbEntity
  8
0
100
AcDbSpline
210
0.0
220
0.0
230
1.0
 70
     8
 71
     3
 72
     8
 73
     4
 74
     0
 42
0.000000001
 43
0.0000000001
 40
0.0
 40
0.0
 40
0.0
 40
0.0
 40
0.1766073916138365
 40
0.1766073916138365
 40
0.1766073916138365
 40
0.1766073916138365
 10
31.39999999999999
 20
-1.656580012761334
 30
0.0
 10
31.59418996942229
 20
-1.728473199485329
 30
0.0
 10
31.78528852951265
 20
-1.822430928281004
 30
0.0
 10
31.96833079343952
 20
-1.934942494001928
 30
0.0
  0
LINE
  5
EB43
330
EB09
100
AcDbEntity
  8
0
100
AcDbLine
 10
31.39999999999999
 20
-2.364040347338753
 30
0.0
 11
31.39999999999999
 21
-1.656580012761334
 31
0.0
  0
LINE
  5
EB44
330
EB09
100
AcDbEntity
  8
0
100
AcDbLine
 10
27.14054197002043
 20
-1.499999999999989
 30
0.0
 11
27.14054197002041
 21
-1.675735931288077
 31
0.0
  0
LINE
  5
EB45
330
EB09
100
AcDbEntity
  8
0
100
AcDbLine
 10
30.7931553385596
 20
-2.288136209298589
 30
0.0
 11
30.7931553385596
 21
-1.499999999999988
 31
0.0
  0
LINE
  5
EB46
330
EB09
100
AcDbEntity
  8
0
100
AcDbLine
 10
31.17856242236211
 20
-1.49999999999998
 30
0.0
 11
31.39999999999999
 21
-1.656580012761334
 31
0.0
  0
LINE
  5
EB47
330
EB09
100
AcDbEntity
  8
0
100
AcDbLine
 10
-33.5000000000008
 20
-62.91118318265866
 30
0.0
 11
-33.49999999999999
 21
-82.00306627386002
 31
0.0
  0
LINE
  5
EB48
330
EB09
100
AcDbEntity
  8
0
100
AcDbLine
 10
-32.00000000000061
 20
-62.91118318265866
 30
0.0
 11
-31.99999999999999
 21
-82.00306627386
 31
0.0
  0
ELLIPSE
  5
EB49
330
EB09
100
AcDbEntity
  8
0
100
AcDbEllipse
 10
-2.500000000000008
 20
-0.1668158671532106
 30
0.0
 11
2.5
 21
0.0000000000001826
 31
0.0
210
0.0
220
0.0
230
1.0
 40
0.7071067811865472
 41
3.995971004506705
 42
4.712388980384622
  0
LINE
  5
EB4A
330
EB09
100
AcDbEntity
  8
0
100
AcDbLine
 10
-4.918289920131925
 20
-1.499999999999996
 30
0.0
 11
-4.918289920131927
 21
-1.675735931288084
 31
0.0
  0
ELLIPSE
  5
EB4B
330
EB09
100
AcDbEntity
  8
0
100
AcDbEllipse
 10
-2.500000000000008
 20
-1.227476038933012
 30
0.0
 11
-2.5
 21
-0.0000000000000002
 31
0.0
210
0.0
220
0.0
230
1.0
 40
0.7071067811865472
 41
0.2563733261914187
 42
1.570796326794896
  0
LINE
  5
EB4C
330
EB09
100
AcDbEntity
  8
0
100
AcDbLine
 10
-2.500000000000008
 20
-1.934582820119549
 30
0.0
 11
2.499999999999991
 21
-1.934582820119548
 31
0.0
  0
LINE
  5
EB4D
330
EB09
100
AcDbEntity
  8
0
100
AcDbLine
 10
2.499999999999991
 20
-2.99524299189937
 30
0.0
 11
-2.500000000000008
 21
-2.995242991899372
 31
0.0
  0
ELLIPSE
  5
EB4E
330
EB09
100
AcDbEntity
  8
0
100
AcDbEllipse
 10
2.49999999999999
 20
-0.166815867153209
 30
0.0
 11
2.5
 21
0.0000000000000006
 31
0.0
210
0.0
220
0.0
230
1.0
 40
0.7071067811865472
 41
4.712388980384689
 42
5.42880695626254
  0
ELLIPSE
  5
EB4F
330
EB09
100
AcDbEntity
  8
0
100
AcDbEllipse
 10
2.49999999999999
 20
-1.227476038933011
 30
0.0
 11
2.499999999999999
 21
0.0000000000000006
 31
0.0
210
0.0
220
0.0
230
1.0
 40
0.7071067811865475
 41
4.712388980384689
 42
6.026811980988168
  0
LINE
  5
EB50
330
EB09
100
AcDbEntity
  8
0
100
AcDbLine
 10
4.918289920131909
 20
-1.675735931288082
 30
0.0
 11
4.918289920131909
 21
-1.499999999999992
 31
0.0
  0
SPLINE
  5
EB51
330
EB09
100
AcDbEntity
  8
0
100
AcDbSpline
210
0.0
220
0.0
230
1.0
 70
     8
 71
     3
 72
     8
 73
     4
 74
     0
 42
0.000000001
 43
0.0000000001
 40
-1.0
 40
-1.0
 40
-1.0
 40
-1.0
 40
0.0
 40
0.0
 40
0.0
 40
0.0
 10
-4.918289920131925
 20
-1.675735931288084
 30
0.0
 10
-4.991899723307439
 20
-1.567383125811564
 30
0.0
 10
-5.01609483648548
 20
-1.500000000000013
 30
0.0
 10
-4.989433513812967
 20
-1.500000000000013
 30
0.0
  0
SPLINE
  5
EB52
330
EB09
100
AcDbEntity
  8
0
100
AcDbSpline
210
0.0
220
0.0
230
1.0
 70
     8
 71
     3
 72
     8
 73
     4
 74
     0
 42
0.000000001
 43
0.0000000001
 40
-1.0
 40
-1.0
 40
-1.0
 40
-1.0
 40
0.0
 40
0.0
 40
0.0
 40
0.0
 10
4.989433513812952
 20
-1.500000000000011
 30
0.0
 10
5.016094836485298
 20
-1.500000000000011
 30
0.0
 10
4.991899723307279
 20
-1.567383125811559
 30
0.0
 10
4.918289920131913
 20
-1.675735931288082
 30
0.0
  0
LINE
  5
EB53
330
EB09
100
AcDbEntity
  8
0
100
AcDbLine
 10
-31.39999999999999
 20
-55.8401153701776
 30
0.0
 11
31.4
 21
-55.84011537017758
 31
0.0
  0
ELLIPSE
  5
EB54
330
EB09
100
AcDbEntity
  8
0
100
AcDbEllipse
 10
-31.39999999999999
 20
-56.26437943888956
 30
0.0
 11
-0.6000000000000089
 21
-0.000000000000009
 31
0.0
210
0.0
220
0.0
230
1.0
 40
0.7071067811865102
 41
4.712388980384656
 42
6.283185307179544
  0
ARC
  5
EB55
330
EB09
100
AcDbEntity
  8
0
100
AcDbCircle
 10
31.39999999999999
 20
-2.099999999999983
 30
0.0
 40
0.6000000000000006
100
AcDbArc
 50
0.0
 51
90.00000000000087
  0
ARC
  5
EB56
330
EB09
100
AcDbEntity
  8
0
100
AcDbCircle
 10
31.39999999999999
 20
-2.099999999999983
 30
0.0
 40
2.100000000000004
100
AcDbArc
 50
0.0
 51
90.00000000000024
  0
ARC
  5
EB57
330
EB09
100
AcDbEntity
  8
0
100
AcDbCircle
 10
-31.40000000000001
 20
-2.100000000000006
 30
0.0
 40
0.6000000000000006
100
AcDbArc
 50
90.0
 51
180.0
  0
ARC
  5
EB58
330
EB09
100
AcDbEntity
  8
0
100
AcDbCircle
 10
-31.40000000000001
 20
-2.100000000000006
 30
0.0
 40
2.099999999999999
100
AcDbArc
 50
90.0
 51
180.0
  0
ENDBLK
  5
EB0B
330
EB09
100
AcDbEntity
  8
0
100
AcDbBlockEnd
  0
BLOCK
  5
EB5A
330
EB59
100
AcDbEntity
  8
0
100
AcDbBlockBegin
  2
SPR64_160-Bottom
 70
     0
 10
0.0
 20
0.0
 30
0.0
  3
SPR64_160-Bottom
  1

  0
LINE
  5
EB5C
330
EB59
100
AcDbEntity
  8
0
100
AcDbLine
 10
74.52709056099997
 20
1.499999999999971
 30
0.0
 11
69.52709056099997
 21
1.499999999999973
 31
0.0
  0
LINE
  5
EB5D
330
EB59
100
AcDbEntity
  8
0
100
AcDbLine
 10
69.52709056099997
 20
1.499999999999973
 30
0.0
 11
69.52709056099997
 21
0.0
 31
0.0
  0
LINE
  5
EB5E
330
EB59
100
AcDbEntity
  8
0
100
AcDbLine
 10
69.52709056099997
 20
0.0
 30
0.0
 11
74.52709056099997
 21
0.0
 31
0.0
  0
LINE
  5
EB5F
330
EB59
100
AcDbEntity
  8
0
100
AcDbLine
 10
74.52709056099997
 20
0.0
 30
0.0
 11
74.52709056099997
 21
1.499999999999971
 31
0.0
  0
LINE
  5
EB60
330
EB59
100
AcDbEntity
  8
0
100
AcDbLine
 10
-74.52709056100001
 20
0.0
 30
0.0
 11
-69.52709056100001
 21
0.0
 31
0.0
  0
LINE
  5
EB61
330
EB59
100
AcDbEntity
  8
0
100
AcDbLine
 10
-69.52709056100001
 20
1.500000000000027
 30
0.0
 11
-74.52709056100001
 21
1.500000000000028
 31
0.0
  0
LINE
  5
EB62
330
EB59
100
AcDbEntity
  8
0
100
AcDbLine
 10
-74.52709056100001
 20
1.500000000000028
 30
0.0
 11
-74.52709056100001
 21
0.0
 31
0.0
  0
LINE
  5
EB63
330
EB59
100
AcDbEntity
  8
0
100
AcDbLine
 10
-69.52709056100001
 20
0.0
 30
0.0
 11
-69.52709056100001
 21
1.500000000000027
 31
0.0
  0
LINE
  5
EB64
330
EB59
100
AcDbEntity
  8
0
100
AcDbLine
 10
69.52709056099997
 20
0.0
 30
0.0
 11
28.49999999999999
 21
0.0
 31
0.0
  0
LINE
  5
EB65
330
EB59
100
AcDbEntity
  8
0
100
AcDbLine
 10
-28.50000000000001
 20
0.0
 30
0.0
 11
-69.52709056100002
 21
0.0
 31
0.0
  0
LINE
  5
EB66
330
EB59
100
AcDbEntity
  8
0
100
AcDbLine
 10
-31.17856242236216
 20
1.500000000000011
 30
0.0
 11
-69.52709056100001
 21
1.500000000000027
 31
0.0
  0
LINE
  5
EB67
330
EB59
100
AcDbEntity
  8
0
100
AcDbLine
 10
69.52709056099997
 20
1.499999999999973
 30
0.0
 11
31.17856242236212
 21
1.499999999999988
 31
0.0
  0
LINE
  5
EB68
330
EB59
100
AcDbEntity
  8
0
100
AcDbLine
 10
28.5
 20
0.0
 30
0.0
 11
27.01767776087195
 21
0.0
 31
0.0
  0
LINE
  5
EB69
330
EB59
100
AcDbEntity
  8
0
100
AcDbLine
 10
-27.01767776087196
 20
0.0
 30
0.0
 11
-28.50000000000001
 21
0.0
 31
0.0
  0
SPLINE
  5
EB6A
330
EB59
100
AcDbEntity
  8
0
100
AcDbSpline
210
0.0
220
0.0
230
1.0
 70
     8
 71
     3
 72
     8
 73
     4
 74
     0
 42
0.000000001
 43
0.0000000001
 40
0.0
 40
0.0
 40
0.0
 40
0.0
 40
1.0
 40
1.0
 40
1.0
 40
1.0
 10
-27.14054197002042
 20
0.6150757595082681
 30
0.0
 10
-27.01586474390331
 20
0.2539843833467319
 30
0.0
 10
-26.97251992073971
 20
0.0000000000000178
 30
0.0
 10
-27.01767776087198
 20
0.0000000000000179
 30
0.0
  0
SPLINE
  5
EB6B
330
EB59
100
AcDbEntity
  8
0
100
AcDbSpline
210
0.0
220
0.0
230
1.0
 70
     8
 71
     3
 72
     8
 73
     4
 74
     0
 42
0.000000001
 43
0.0000000001
 40
0.0
 40
0.0
 40
0.0
 40
0.0
 40
1.0
 40
1.0
 40
1.0
 40
1.0
 10
-33.50000000000003
 20
4.362741700911231
 30
0.0
 10
-33.50000000000001
 20
3.178158037514541
 30
0.0
 10
-32.49955742875645
 20
2.063659161980905
 30
0.0
 10
-31.40000000000001
 20
1.656580012761357
 30
0.0
  0
LINE
  5
EB6C
330
EB59
100
AcDbEntity
  8
0
100
AcDbLine
 10
-31.40000000000001
 20
1.65658001276135
 30
0.0
 11
-30.79315533855961
 21
1.227476037518791
 31
0.0
  0
LINE
  5
EB6D
330
EB59
100
AcDbEntity
  8
0
100
AcDbLine
 10
-30.79315533855961
 20
1.227476037518791
 30
0.0
 11
-28.50000000000001
 21
1.227476037518787
 31
0.0
  0
ELLIPSE
  5
EB6E
330
EB59
100
AcDbEntity
  8
0
100
AcDbEllipse
 10
-28.50000000000001
 20
0.1668158657389962
 30
0.0
 11
1.5
 21
-0.0000000000000003
 31
0.0
210
0.0
220
0.0
230
1.0
 40
0.7071067811865474
 41
0.4363380716279126
 42
1.570796326794896
  0
LINE
  5
EB6F
330
EB59
100
AcDbEntity
  8
0
100
AcDbLine
 10
-27.01767776087196
 20
0.1805170265383273
 30
0.0
 11
-27.01767776087196
 21
0.0
 31
0.0
  0
SPLINE
  5
EB70
330
EB59
100
AcDbEntity
  8
0
100
AcDbSpline
210
0.0
220
0.0
230
1.0
 70
     8
 71
     3
 72
     8
 73
     4
 74
     0
 42
0.000000001
 43
0.0000000001
 40
0.0
 40
0.0
 40
0.0
 40
0.0
 40
1.0
 40
1.0
 40
1.0
 40
1.0
 10
31.39999999999999
 20
1.656580012761334
 30
0.0
 10
32.49955742875648
 20
2.063659161980608
 30
0.0
 10
33.49999999999999
 20
3.178158037514154
 30
0.0
 10
33.50000000000001
 20
4.362741700911253
 30
0.0
  0
ELLIPSE
  5
EB71
330
EB59
100
AcDbEntity
  8
0
100
AcDbEllipse
 10
28.5
 20
0.1668158657389867
 30
0.0
 11
1.5
 21
-0.0000000000001102
 31
0.0
210
0.0
220
0.0
230
1.0
 40
0.7071067811865474
 41
1.570796326795026
 42
2.70525458196214
  0
LINE
  5
EB72
330
EB59
100
AcDbEntity
  8
0
100
AcDbLine
 10
28.5
 20
1.227476037518768
 30
0.0
 11
30.7931553385596
 21
1.227476037518773
 31
0.0
  0
LINE
  5
EB73
330
EB59
100
AcDbEntity
  8
0
100
AcDbLine
 10
30.7931553385596
 20
1.227476037518773
 30
0.0
 11
31.39999999999999
 21
1.656580012761334
 31
0.0
  0
SPLINE
  5
EB74
330
EB59
100
AcDbEntity
  8
0
100
AcDbSpline
210
0.0
220
0.0
230
1.0
 70
     8
 71
     3
 72
     8
 73
     4
 74
     0
 42
0.000000001
 43
0.0000000001
 40
0.0
 40
0.0
 40
0.0
 40
0.0
 40
1.0
 40
1.0
 40
1.0
 40
1.0
 10
27.01767776087195
 20
0.0000000000000059
 30
0.0
 10
26.97251992073907
 20
0.0000000000000059
 30
0.0
 10
27.01586474390286
 20
0.2539843833467381
 30
0.0
 10
27.14054197002043
 20
0.6150757595082572
 30
0.0
  0
LINE
  5
EB75
330
EB59
100
AcDbEntity
  8
0
100
AcDbLine
 10
27.01767776087195
 20
0.1805170265383258
 30
0.0
 11
27.01767776087195
 21
0.0
 31
0.0
  0
LINE
  5
EB76
330
EB59
100
AcDbEntity
  8
0
100
AcDbLine
 10
4.989433513812951
 20
0.0
 30
0.0
 11
27.01767776087195
 21
0.0
 31
0.0
  0
LINE
  5
EB77
330
EB59
100
AcDbEntity
  8
0
100
AcDbLine
 10
-27.01767776087196
 20
0.0
 30
0.0
 11
-4.98943351381297
 21
0.0
 31
0.0
  0
LINE
  5
EB78
330
EB59
100
AcDbEntity
  8
0
100
AcDbLine
 10
33.5
 20
56.26437943888952
 30
0.0
 11
33.49999999999997
 21
82.00306627385998
 31
0.0
  0
LINE
  5
EB79
330
EB59
100
AcDbEntity
  8
0
100
AcDbLine
 10
-33.49999999999996
 20
82.00306627385998
 30
0.0
 11
-33.49999999999999
 21
56.26437943888955
 31
0.0
  0
LINE
  5
EB7A
330
EB59
100
AcDbEntity
  8
0
100
AcDbLine
 10
-31.99999999999999
 20
82.00306627385998
 30
0.0
 11
-31.99999999999999
 21
56.26437943888955
 31
0.0
  0
LINE
  5
EB7B
330
EB59
100
AcDbEntity
  8
0
100
AcDbLine
 10
-31.39999999999999
 20
55.8401153701776
 30
0.0
 11
31.4
 21
55.84011537017758
 31
0.0
  0
LINE
  5
EB7C
330
EB59
100
AcDbEntity
  8
0
100
AcDbLine
 10
32.0
 20
56.26437943888952
 30
0.0
 11
32.0
 21
82.00306627385998
 31
0.0
  0
LINE
  5
EB7D
330
EB59
100
AcDbEntity
  8
0
100
AcDbLine
 10
-31.39999999999999
 20
54.77945519839778
 30
0.0
 11
31.4
 21
54.77945519839777
 31
0.0
  0
LINE
  5
EB7E
330
EB59
100
AcDbEntity
  8
0
100
AcDbLine
 10
4.989433513812951
 20
0.0
 30
0.0
 11
2.49999999999999
 21
0.0
 31
0.0
  0
LINE
  5
EB7F
330
EB59
100
AcDbEntity
  8
0
100
AcDbLine
 10
2.49999999999999
 20
0.0
 30
0.0
 11
-2.500000000000008
 21
0.0
 31
0.0
  0
LINE
  5
EB80
330
EB59
100
AcDbEntity
  8
0
100
AcDbLine
 10
-2.500000000000008
 20
0.0
 30
0.0
 11
-4.989433513812969
 21
0.0
 31
0.0
  0
ELLIPSE
  5
EB81
330
EB59
100
AcDbEntity
  8
0
100
AcDbEllipse
 10
-2.500000000000008
 20
0.1668158671532106
 30
0.0
 11
-2.5
 21
0.0000000000000004
 31
0.0
210
0.0
220
0.0
230
1.0
 40
0.7071067811865472
 41
4.712388980384689
 42
6.026811980988167
  0
LINE
  5
EB82
330
EB59
100
AcDbEntity
  8
0
100
AcDbLine
 10
-2.500000000000008
 20
1.934582820119549
 30
0.0
 11
2.499999999999991
 21
1.934582820119548
 31
0.0
  0
ELLIPSE
  5
EB83
330
EB59
100
AcDbEntity
  8
0
100
AcDbEllipse
 10
2.49999999999999
 20
0.166815867153209
 30
0.0
 11
2.5
 21
-0.0000000000000006
 31
0.0
210
0.0
220
0.0
230
1.0
 40
0.7071067811865472
 41
0.2563733261914187
 42
1.570796326794896
  0
SPLINE
  5
EB84
330
EB59
100
AcDbEntity
  8
0
100
AcDbSpline
210
0.0
220
0.0
230
1.0
 70
     8
 71
     3
 72
     8
 73
     4
 74
     0
 42
0.000000001
 43
0.0000000001
 40
0.0
 40
0.0
 40
0.0
 40
0.0
 40
1.0
 40
1.0
 40
1.0
 40
1.0
 10
-4.989433513812968
 20
0.000000000000013
 30
0.0
 10
-5.01609483648548
 20
0.000000000000013
 30
0.0
 10
-4.99189972330744
 20
0.235840940340442
 30
0.0
 10
-4.918289920131925
 20
0.6150757595082633
 30
0.0
  0
LINE
  5
EB85
330
EB59
100
AcDbEntity
  8
0
100
AcDbLine
 10
-4.989433513812969
 20
0.1805170296371819
 30
0.0
 11
-4.989433513812969
 21
0.0
 31
0.0
  0
LINE
  5
EB86
330
EB59
100
AcDbEntity
  8
0
100
AcDbLine
 10
4.989433513812951
 20
0.1805170296371641
 30
0.0
 11
4.989433513812951
 21
0.0
 31
0.0
  0
SPLINE
  5
EB87
330
EB59
100
AcDbEntity
  8
0
100
AcDbSpline
210
0.0
220
0.0
230
1.0
 70
     8
 71
     3
 72
     8
 73
     4
 74
     0
 42
0.000000001
 43
0.0000000001
 40
0.0
 40
0.0
 40
0.0
 40
0.0
 40
1.0
 40
1.0
 40
1.0
 40
1.0
 10
4.918289920131912
 20
0.615075759508261
 30
0.0
 10
4.991899723307279
 20
0.2358409403404309
 30
0.0
 10
5.016094836485298
 20
0.0000000000000106
 30
0.0
 10
4.989433513812951
 20
0.0000000000000108
 30
0.0
  0
LINE
  5
EB88
330
EB59
100
AcDbEntity
  8
0
100
AcDbLine
 10
2.499999999999992
 20
1.499999999999998
 30
0.0
 11
4.141718653073991
 21
1.499999999999998
 31
0.0
  0
LINE
  5
EB89
330
EB59
100
AcDbEntity
  8
0
100
AcDbLine
 10
-2.500000000000008
 20
1.5
 30
0.0
 11
2.499999999999991
 21
1.499999999999998
 31
0.0
  0
LINE
  5
EB8A
330
EB59
100
AcDbEntity
  8
0
100
AcDbLine
 10
-4.141718653074008
 20
1.5
 30
0.0
 11
-2.500000000000008
 21
1.499999999999999
 31
0.0
  0
LINE
  5
EB8B
330
EB59
100
AcDbEntity
  8
0
100
AcDbLine
 10
33.5
 20
2.099999999999974
 30
0.0
 11
33.49999999999999
 21
4.36274170091124
 31
0.0
  0
LINE
  5
EB8C
330
EB59
100
AcDbEntity
  8
0
100
AcDbLine
 10
-33.50000000000001
 20
4.362741700911268
 30
0.0
 11
-33.50000000000001
 21
2.100000000000007
 31
0.0
  0
LINE
  5
EB8D
330
EB59
100
AcDbEntity
  8
0
100
AcDbLine
 10
32.0
 20
82.00306627385998
 30
0.0
 11
33.49999999999997
 21
82.00306627385998
 31
0.0
  0
LINE
  5
EB8E
330
EB59
100
AcDbEntity
  8
0
100
AcDbLine
 10
-33.49999999999996
 20
82.00306627385998
 30
0.0
 11
-31.99999999999999
 21
82.00306627385998
 31
0.0
  0
LINE
  5
EB8F
330
EB59
100
AcDbEntity
  8
0
100
AcDbLine
 10
33.5
 20
56.26437943888952
 30
0.0
 11
33.50000000000001
 21
4.362741700911234
 31
0.0
  0
ELLIPSE
  5
EB90
330
EB59
100
AcDbEntity
  8
0
100
AcDbEllipse
 10
31.4
 20
56.26437943888952
 30
0.0
 11
0.6000000000000087
 21
-0.0000000000000394
 31
0.0
210
0.0
220
0.0
230
1.0
 40
0.7071067811866067
 41
4.712388980384839
 42
6.283185307179464
  0
ELLIPSE
  5
EB91
330
EB59
100
AcDbEntity
  8
0
100
AcDbEllipse
 10
31.4
 20
56.26437943888952
 30
0.0
 11
2.100000000000031
 21
-0.0000000000001959
 31
0.0
210
0.0
220
0.0
230
1.0
 40
0.7071067811865481
 41
4.712388980384649
 42
6.283185307179358
  0
LINE
  5
EB92
330
EB59
100
AcDbEntity
  8
0
100
AcDbLine
 10
-33.50000000000003
 20
4.362741700911268
 30
0.0
 11
-33.49999999999999
 21
56.26437943888955
 31
0.0
  0
ELLIPSE
  5
EB93
330
EB59
100
AcDbEntity
  8
0
100
AcDbEllipse
 10
-31.39999999999999
 20
56.26437943888956
 30
0.0
 11
-2.100000000000031
 21
-0.0000000000000065
 31
0.0
210
0.0
220
0.0
230
1.0
 40
0.7071067811865476
 41
0.0
 42
1.570796326794892
  0
ELLIPSE
  5
EB94
330
EB59
100
AcDbEntity
  8
0
100
AcDbEllipse
 10
-31.39999999999999
 20
56.26437943888956
 30
0.0
 11
-0.6000000000000089
 21
0.000000000000009
 31
0.0
210
0.0
220
0.0
230
1.0
 40
0.7071067811865102
 41
0.0000000000000422
 42
1.570796326794929
  0
ARC
  5
EB95
330
EB59
100
AcDbEntity
  8
0
100
AcDbCircle
 10
31.39999999999999
 20
2.099999999999983
 30
0.0
 40
0.6000000000000006
100
AcDbArc
 50
269.9999999999992
 51
343.4444348564593
  0
ARC
  5
EB96
330
EB59
100
AcDbEntity
  8
0
100
AcDbCircle
 10
31.39999999999999
 20
2.099999999999983
 30
0.0
 40
2.099999999999999
100
AcDbArc
 50
343.3984504009799
 51
0.0
  0
ARC
  5
EB97
330
EB59
100
AcDbEntity
  8
0
100
AcDbCircle
 10
-31.40000000000001
 20
2.100000000000006
 30
0.0
 40
0.6000000000000007
100
AcDbArc
 50
196.5555651435457
 51
270.0
  0
ARC
  5
EB98
330
EB59
100
AcDbEntity
  8
0
100
AcDbCircle
 10
-31.40000000000001
 20
2.100000000000006
 30
0.0
 40
2.099999999999999
100
AcDbArc
 50
180.0
 51
196.60154959902
  0
ENDBLK
  5
EB5B
330
EB59
100
AcDbEntity
  8
0
100
AcDbBlockEnd
  0
BLOCK
  5
EB9A
330
EB99
100
AcDbEntity
  8
0
100
AcDbBlockBegin
  2
SPR64_160-ISO
 70
     0
 10
0.0
 20
0.0
 30
0.0
  3
SPR64_160-ISO
  1

  0
LINE
  5
EB9C
330
EB99
100
AcDbEntity
  8
0
100
AcDbLine
 10
80.62802162056568
 20
-52.05543162391162
 30
0.0
 11
77.09248771463292
 21
-54.09667307623092
 31
0.0
  0
LINE
  5
EB9D
330
EB99
100
AcDbEntity
  8
0
100
AcDbLine
 10
81.68868179234548
 20
-51.44305918821583
 30
0.0
 11
80.62802162056568
 21
-52.05543162391162
 31
0.0
  0
LINE
  5
EB9E
330
EB99
100
AcDbEntity
  8
0
100
AcDbLine
 10
80.62802162056568
 20
1.833342717318311
 30
0.0
 11
81.68868179234548
 21
2.445715153014105
 31
0.0
  0
LINE
  5
EB9F
330
EB99
100
AcDbEntity
  8
0
100
AcDbLine
 10
81.68868179234548
 20
2.445715153014105
 30
0.0
 11
78.15314788641273
 21
8.569439509972053
 31
0.0
  0
LINE
  5
EBA0
330
EB99
100
AcDbEntity
  8
0
100
AcDbLine
 10
-21.2336667090757
 20
2.671958648677921
 30
0.0
 11
-24.76920061500845
 21
8.795683005635863
 31
0.0
  0
LINE
  5
EBA1
330
EB99
100
AcDbEntity
  8
0
100
AcDbLine
 10
77.09248771463292
 20
7.957067074276258
 30
0.0
 11
80.62802162056568
 21
1.833342717318311
 31
0.0
  0
LINE
  5
EBA2
330
EB99
100
AcDbEntity
  8
0
100
AcDbLine
 10
78.15314788641273
 20
8.569439509972053
 30
0.0
 11
77.09248771463292
 21
7.957067074276258
 31
0.0
  0
LINE
  5
EBA3
330
EB99
100
AcDbEntity
  8
0
100
AcDbLine
 10
81.68868179234548
 20
2.445715153014105
 30
0.0
 11
81.68868179234548
 21
-51.44305918821581
 31
0.0
  0
LINE
  5
EBA4
330
EB99
100
AcDbEntity
  8
0
100
AcDbLine
 10
80.62802162056568
 20
1.833342717318311
 30
0.0
 11
80.62802162056568
 21
-52.05543162391162
 31
0.0
  0
LINE
  5
EBA5
330
EB99
100
AcDbEntity
  8
0
100
AcDbLine
 10
4.241333333029255
 20
51.24244553866169
 30
0.0
 11
8.837527410741824
 21
48.58883165064657
 31
0.0
  0
LINE
  5
EBA6
330
EB99
100
AcDbEntity
  8
0
100
AcDbLine
 10
50.55682750074814
 20
24.50218251327866
 30
0.0
 11
78.15314788641273
 21
8.569439509972053
 31
0.0
  0
LINE
  5
EBA7
330
EB99
100
AcDbEntity
  8
0
100
AcDbLine
 10
-24.76920061500845
 20
8.795683005635863
 30
0.0
 11
-24.76920061500845
 21
39.00605649996175
 31
0.0
  0
LINE
  5
EBA8
330
EB99
100
AcDbEntity
  8
0
100
AcDbLine
 10
49.49616732896831
 20
23.88981007758287
 30
0.0
 11
77.09248771463292
 21
7.957067074276258
 31
0.0
  0
LINE
  5
EBA9
330
EB99
100
AcDbEntity
  8
0
100
AcDbLine
 10
7.776867238962004
 20
-14.07728093555642
 30
0.0
 11
-21.2336667090757
 21
2.671958648677921
 31
0.0
  0
LINE
  5
EBAA
330
EB99
100
AcDbEntity
  8
0
100
AcDbLine
 10
77.09248771463292
 20
-54.09667307623092
 30
0.0
 11
48.08195376659522
 21
-37.34743349199661
 31
0.0
  0
LINE
  5
EBAB
330
EB99
100
AcDbEntity
  8
0
100
AcDbLine
 10
3.180673161249432
 20
50.6300731029659
 30
0.0
 11
7.776867238962004
 21
47.97645921495077
 31
0.0
  0
LINE
  5
EBAC
330
EB99
100
AcDbEntity
  8
0
100
AcDbLine
 10
8.837527410741824
 20
48.58883165064657
 30
0.0
 11
7.776867238962004
 21
47.97645921495077
 31
0.0
  0
ELLIPSE
  5
EBAD
330
EB99
100
AcDbEntity
  8
0
100
AcDbEllipse
 10
7.776867238962004
 20
49.20120408634236
 30
0.0
 11
0.750000000000001
 21
-1.299038105676658
 31
0.0
210
0.0
220
0.0
230
1.0
 40
0.5773502691896259
 41
5.497787143782137
 42
8.63937979737193
  0
ELLIPSE
  5
EBAE
330
EB99
100
AcDbEntity
  8
0
100
AcDbEllipse
 10
44.54641986066248
 20
87.1682950994816
 30
0.0
 11
1.250000000000129
 21
-2.165063509461022
 31
0.0
210
0.0
220
0.0
230
1.0
 40
0.5773502691896259
 41
3.579741684173546
 42
4.454997905016198
  0
ELLIPSE
  5
EBAF
330
EB99
100
AcDbEntity
  8
0
100
AcDbEllipse
 10
44.54641986066248
 20
21.84856862526352
 30
0.0
 11
1.25
 21
-2.165063509461095
 31
0.0
210
0.0
220
0.0
230
1.0
 40
0.577350269189626
 41
4.999145532596225
 42
5.845036276595418
  0
ELLIPSE
  5
EBB0
330
EB99
100
AcDbEntity
  8
0
100
AcDbEllipse
 10
43.48575968888266
 20
86.55592266378581
 30
0.0
 11
-1.25
 21
2.165063509461096
 31
0.0
210
0.0
220
0.0
230
0.9999999999999998
 40
0.577350269189626
 41
4.969780055752959
 42
7.596590558606199
  0
ELLIPSE
  5
EBB1
330
EB99
100
AcDbEntity
  8
0
100
AcDbEllipse
 10
43.48575968888266
 20
21.23619618956773
 30
0.0
 11
1.25
 21
-2.165063509461096
 31
0.0
210
0.0
220
0.0
230
0.9999999999999998
 40
0.5773502691896259
 41
4.999145532596222
 42
7.567225081762952
  0
ELLIPSE
  5
EBB2
330
EB99
100
AcDbEntity
  8
0
100
AcDbEllipse
 10
44.54641986066248
 20
-10.81129461184552
 30
0.0
 11
1.250000000000129
 21
-2.165063509461022
 31
0.0
210
0.0
220
0.0
230
1.0
 40
0.577350269189626
 41
3.579741684173546
 42
5.845036276594998
  0
ELLIPSE
  5
EBB3
330
EB99
100
AcDbEntity
  8
0
100
AcDbEllipse
 10
43.48575968888265
 20
-11.42366704754131
 30
0.0
 11
1.25
 21
-2.165063509461096
 31
0.0
210
0.0
220
0.0
230
1.0
 40
0.5773502691896259
 41
0.0
 42
6.283185307179586
  0
ELLIPSE
  5
EBB4
330
EB99
100
AcDbEntity
  8
0
100
AcDbEllipse
 10
37.47535204879701
 20
9.601119911347627
 30
0.0
 11
1.250000000000129
 21
-2.165063509461022
 31
0.0
210
0.0
220
0.0
230
1.0
 40
0.577350269189626
 41
3.579741684173544
 42
5.845036276594996
  0
ELLIPSE
  5
EBB5
330
EB99
100
AcDbEntity
  8
0
100
AcDbEllipse
 10
36.41469187701719
 20
8.988747475651832
 30
0.0
 11
1.25
 21
-2.165063509461096
 31
0.0
210
0.0
220
0.0
230
1.0
 40
0.5773502691896259
 41
0.0
 42
6.283185307179586
  0
ELLIPSE
  5
EBB6
330
EB99
100
AcDbEntity
  8
0
100
AcDbEllipse
 10
37.47535204879701
 20
-23.05874332576141
 30
0.0
 11
1.250000000000129
 21
-2.165063509461022
 31
0.0
210
0.0
220
0.0
230
1.0
 40
0.577350269189626
 41
3.579741684173544
 42
5.845036276594998
  0
ELLIPSE
  5
EBB7
330
EB99
100
AcDbEntity
  8
0
100
AcDbEllipse
 10
36.41469187701718
 20
-23.67111576145721
 30
0.0
 11
1.25
 21
-2.165063509461096
 31
0.0
210
0.0
220
0.0
230
1.0
 40
0.5773502691896259
 41
0.0
 42
6.283185307179586
  0
ELLIPSE
  5
EBB8
330
EB99
100
AcDbEntity
  8
0
100
AcDbEllipse
 10
20.50478930031987
 20
101.0487369752529
 30
0.0
 11
1.250000000000129
 21
-2.165063509461022
 31
0.0
210
0.0
220
0.0
230
1.0
 40
0.5773502691896259
 41
3.579741684173546
 42
5.845036276595005
  0
ELLIPSE
  5
EBB9
330
EB99
100
AcDbEntity
  8
0
100
AcDbEllipse
 10
20.50478930031987
 20
68.3888737381439
 30
0.0
 11
1.250000000000129
 21
-2.165063509461022
 31
0.0
210
0.0
220
0.0
230
1.0
 40
0.5773502691896259
 41
3.579741684173546
 42
5.699145064572081
  0
ELLIPSE
  5
EBBA
330
EB99
100
AcDbEntity
  8
0
100
AcDbEllipse
 10
20.50478930031986
 20
35.72901050103487
 30
0.0
 11
1.250000000000129
 21
-2.165063509461022
 31
0.0
210
0.0
220
0.0
230
1.0
 40
0.5773502691896259
 41
3.579741684173548
 42
5.699145064572078
  0
ELLIPSE
  5
EBBB
330
EB99
100
AcDbEntity
  8
0
100
AcDbEllipse
 10
19.44412912854004
 20
100.4363645395571
 30
0.0
 11
1.25
 21
-2.165063509461096
 31
0.0
210
0.0
220
0.0
230
1.0
 40
0.5773502691896259
 41
0.0
 42
6.283185307179586
  0
ELLIPSE
  5
EBBC
330
EB99
100
AcDbEntity
  8
0
100
AcDbEllipse
 10
19.44412912854004
 20
67.77650130244811
 30
0.0
 11
1.249999999999999
 21
-2.165063509461096
 31
0.0
210
0.0
220
0.0
230
1.0
 40
0.577350269189626
 41
1.428899272190743
 42
6.425082361783739
  0
ELLIPSE
  5
EBBD
330
EB99
100
AcDbEntity
  8
0
100
AcDbEllipse
 10
19.44412912854004
 20
35.11663806533907
 30
0.0
 11
1.25
 21
-2.165063509461095
 31
0.0
210
0.0
220
0.0
230
1.0
 40
0.5773502691896261
 41
1.428899272190738
 42
6.425082361783744
  0
ELLIPSE
  5
EBBE
330
EB99
100
AcDbEntity
  8
0
100
AcDbEllipse
 10
20.50478930031986
 20
3.069147263925828
 30
0.0
 11
1.250000000000129
 21
-2.165063509461022
 31
0.0
210
0.0
220
0.0
230
1.0
 40
0.577350269189626
 41
3.579741684173544
 42
5.845036276594998
  0
ELLIPSE
  5
EBBF
330
EB99
100
AcDbEntity
  8
0
100
AcDbEllipse
 10
19.44412912854004
 20
2.456774828230035
 30
0.0
 11
1.25
 21
-2.165063509461096
 31
0.0
210
0.0
220
0.0
230
1.0
 40
0.5773502691896259
 41
0.0
 42
6.283185307179586
  0
ELLIPSE
  5
EBC0
330
EB99
100
AcDbEntity
  8
0
100
AcDbEllipse
 10
13.43372148845438
 20
88.80128826133704
 30
0.0
 11
1.250000000000129
 21
-2.165063509461022
 31
0.0
210
0.0
220
0.0
230
1.0
 40
0.5773502691896259
 41
3.579741684173546
 42
5.845036276595005
  0
ELLIPSE
  5
EBC1
330
EB99
100
AcDbEntity
  8
0
100
AcDbEllipse
 10
13.43372148845438
 20
56.14142502422801
 30
0.0
 11
1.250000000000129
 21
-2.165063509461022
 31
0.0
210
0.0
220
0.0
230
1.0
 40
0.5773502691896259
 41
3.579741684173546
 42
5.845036276595005
  0
ELLIPSE
  5
EBC2
330
EB99
100
AcDbEntity
  8
0
100
AcDbEllipse
 10
13.43372148845438
 20
23.48156178711898
 30
0.0
 11
1.250000000000129
 21
-2.165063509461022
 31
0.0
210
0.0
220
0.0
230
1.0
 40
0.5773502691896259
 41
3.579741684173548
 42
5.845036276595001
  0
ELLIPSE
  5
EBC3
330
EB99
100
AcDbEntity
  8
0
100
AcDbEllipse
 10
12.37306131667456
 20
88.18891582564125
 30
0.0
 11
1.25
 21
-2.165063509461096
 31
0.0
210
0.0
220
0.0
230
1.0
 40
0.5773502691896259
 41
0.0
 42
6.283185307179586
  0
ELLIPSE
  5
EBC4
330
EB99
100
AcDbEntity
  8
0
100
AcDbEllipse
 10
12.37306131667456
 20
55.52905258853222
 30
0.0
 11
1.25
 21
-2.165063509461096
 31
0.0
210
0.0
220
0.0
230
1.0
 40
0.5773502691896259
 41
0.0
 42
6.283185307179586
  0
ELLIPSE
  5
EBC5
330
EB99
100
AcDbEntity
  8
0
100
AcDbEllipse
 10
12.37306131667456
 20
22.86918935142318
 30
0.0
 11
1.25
 21
-2.165063509461096
 31
0.0
210
0.0
220
0.0
230
1.0
 40
0.5773502691896259
 41
0.0
 42
6.283185307179586
  0
ELLIPSE
  5
EBC6
330
EB99
100
AcDbEntity
  8
0
100
AcDbEllipse
 10
13.43372148845438
 20
-9.178301449990065
 30
0.0
 11
1.250000000000129
 21
-2.165063509461022
 31
0.0
210
0.0
220
0.0
230
1.0
 40
0.577350269189626
 41
3.579741684173544
 42
5.845036276594999
  0
ELLIPSE
  5
EBC7
330
EB99
100
AcDbEntity
  8
0
100
AcDbEllipse
 10
12.37306131667456
 20
-9.790673885685858
 30
0.0
 11
1.25
 21
-2.165063509461096
 31
0.0
210
0.0
220
0.0
230
1.0
 40
0.5773502691896259
 41
0.0
 42
6.283185307179586
  0
ELLIPSE
  5
EBC8
330
EB99
100
AcDbEntity
  8
0
100
AcDbEllipse
 10
-2.848890398225458
 20
49.21226376155829
 30
0.0
 11
1.25
 21
-2.165063509461096
 31
0.0
210
0.0
220
0.0
230
0.9999999999999998
 40
0.5773502691896261
 41
5.508682942395987
 42
5.845036276595416
  0
ELLIPSE
  5
EBC9
330
EB99
100
AcDbEntity
  8
0
100
AcDbEllipse
 10
56.58639106022302
 20
14.8972880121619
 30
0.0
 11
1.250000000000129
 21
-2.165063509461022
 31
0.0
210
0.0
220
0.0
230
1.0
 40
0.5773502691896259
 41
3.579741684173548
 42
5.845036276594998
  0
ELLIPSE
  5
EBCA
330
EB99
100
AcDbEntity
  8
0
100
AcDbEllipse
 10
-3.909550570005277
 20
48.5998913258625
 30
0.0
 11
1.25
 21
-2.165063509461097
 31
0.0
210
0.0
220
0.0
230
1.0
 40
0.5773502691896259
 41
5.508682942395989
 42
7.057687671963186
  0
ELLIPSE
  5
EBCB
330
EB99
100
AcDbEntity
  8
0
100
AcDbEllipse
 10
55.5257308884432
 20
14.28491557646611
 30
0.0
 11
1.25
 21
-2.165063509461096
 31
0.0
210
0.0
220
0.0
230
1.0
 40
0.5773502691896259
 41
0.0
 42
6.283185307179586
  0
ELLIPSE
  5
EBCC
330
EB99
100
AcDbEntity
  8
0
100
AcDbEllipse
 10
1.393750288893831
 20
14.10291078166608
 30
0.0
 11
1.250000000000129
 21
-2.165063509461022
 31
0.0
210
0.0
220
0.0
230
1.0
 40
0.577350269189626
 41
3.579741684173544
 42
5.845036276595
  0
ELLIPSE
  5
EBCD
330
EB99
100
AcDbEntity
  8
0
100
AcDbEllipse
 10
60.82903174734231
 20
-20.21206496773032
 30
0.0
 11
1.250000000000129
 21
-2.165063509461022
 31
0.0
210
0.0
220
0.0
230
1.0
 40
0.577350269189626
 41
3.579741684173542
 42
5.845036276594997
  0
ELLIPSE
  5
EBCE
330
EB99
100
AcDbEntity
  8
0
100
AcDbEllipse
 10
0.3330901171140121
 20
13.49053834597029
 30
0.0
 11
1.25
 21
-2.165063509461096
 31
0.0
210
0.0
220
0.0
230
1.0
 40
0.5773502691896259
 41
0.0
 42
6.283185307179586
  0
ELLIPSE
  5
EBCF
330
EB99
100
AcDbEntity
  8
0
100
AcDbEllipse
 10
59.7683715755625
 20
-20.82443740342611
 30
0.0
 11
1.25
 21
-2.165063509461096
 31
0.0
210
0.0
220
0.0
230
1.0
 40
0.5773502691896259
 41
0.0
 42
6.283185307179586
  0
ELLIPSE
  5
EBD0
330
EB99
100
AcDbEntity
  8
0
100
AcDbEllipse
 10
27.22230372159207
 20
-25.30410892494563
 30
0.0
 11
1.25000000000013
 21
-2.165063509461021
 31
0.0
210
0.0
220
0.0
230
1.0
 40
0.5773502691896261
 41
3.579741684173544
 42
3.835017177445208
  0
ELLIPSE
  5
EBD1
330
EB99
100
AcDbEntity
  8
0
100
AcDbEllipse
 10
27.10434709071852
 20
-26.03116828326117
 30
0.0
 11
-1.25
 21
-2.165063509461097
 31
0.0
210
0.0
220
0.0
230
1.0
 40
0.816496580927726
 41
4.968762306576107
 42
6.283185307179587
  0
LINE
  5
EBD2
330
EB99
100
AcDbEntity
  8
0
100
AcDbLine
 10
25.07739027969996
 20
-25.59290956173376
 30
0.0
 11
24.57714027980217
 21
-25.30409008963066
 31
0.0
  0
LINE
  5
EBD3
330
EB99
100
AcDbEntity
  8
0
100
AcDbLine
 10
24.57714027980217
 20
-25.30409008963066
 30
0.0
 11
24.32739027969996
 21
-25.15989685984153
 31
0.0
  0
ELLIPSE
  5
EBD4
330
EB99
100
AcDbEntity
  8
0
100
AcDbEllipse
 10
26.35434709071854
 20
-25.59815558136897
 30
0.0
 11
-1.249999999999999
 21
-2.165063509461096
 31
0.0
210
0.0
220
0.0
230
1.0
 40
0.8164965809277262
 41
4.968762306576106
 42
6.283185307179587
  0
LINE
  5
EBD5
330
EB99
100
AcDbEntity
  8
0
100
AcDbLine
 10
28.63988099665128
 20
-29.80446054314938
 30
0.0
 11
25.10434709071854
 21
-27.76321909083006
 31
0.0
  0
ELLIPSE
  5
EBD6
330
EB99
100
AcDbEntity
  8
0
100
AcDbEllipse
 10
29.88988099665127
 20
-27.63939703368828
 30
0.0
 11
-1.249999999999998
 21
-2.165063509461097
 31
0.0
210
0.0
220
0.0
230
1.0
 40
0.816496580927726
 41
0.0
 42
1.314423000603477
  0
LINE
  5
EBD7
330
EB99
100
AcDbEntity
  8
0
100
AcDbLine
 10
24.40134823088205
 20
-24.71269855430858
 30
0.0
 11
24.75454806846983
 21
-24.50877853299955
 31
0.0
  0
SPLINE
  5
EBD8
330
EB99
100
AcDbEntity
  8
0
100
AcDbSpline
210
0.0
220
0.0
230
1.0
 70
     8
 71
     3
 72
     8
 73
     4
 74
     0
 42
0.000000001
 43
0.0000000001
 40
-1.0
 40
-1.0
 40
-1.0
 40
-1.0
 40
0.0
 40
0.0
 40
0.0
 40
0.0
 10
24.32739027969996
 20
-25.15989685984154
 30
0.0
 10
24.35195729222578
 20
-24.99714124072549
 30
0.0
 10
24.3824958288249
 20
-24.83060991316179
 30
0.0
 10
24.40134823088204
 20
-24.71269855430859
 30
0.0
  0
SPLINE
  5
EBD9
330
EB99
100
AcDbEntity
  8
0
100
AcDbSpline
210
0.0
220
0.0
230
1.0
 70
     8
 71
     3
 72
     8
 73
     4
 74
     0
 42
0.000000001
 43
0.0000000001
 40
0.0
 40
0.0
 40
0.0
 40
0.0
 40
1.0
 40
1.0
 40
1.0
 40
1.0
 10
25.46200840266186
 20
-24.1003261186128
 30
0.0
 10
25.44315600060472
 20
-24.5402269731054
 30
0.0
 10
25.29349980100836
 20
-25.09839258559706
 30
0.0
 10
25.07739027969996
 20
-25.59290956173376
 30
0.0
  0
LINE
  5
EBDA
330
EB99
100
AcDbEntity
  8
0
100
AcDbLine
 10
24.75454806846983
 20
-24.50877853299955
 30
0.0
 11
25.46200840266187
 21
-24.10032611861279
 31
0.0
  0
SPLINE
  5
EBDB
330
EB99
100
AcDbEntity
  8
0
100
AcDbSpline
210
0.0
220
0.0
230
1.0
 70
     8
 71
     3
 72
     8
 73
     4
 74
     0
 42
0.000000001
 43
0.0000000001
 40
-1.0
 40
-1.0
 40
-1.0
 40
-1.0
 40
0.0
 40
0.0
 40
0.0
 40
0.0
 10
31.45747277467517
 20
-28.78655395910308
 30
0.0
 10
31.4763251767322
 20
-28.92623419676134
 30
0.0
 10
31.41156958293355
 20
-29.07301029714001
 30
0.0
 10
31.2829025884334
 20
-29.17566376364055
 30
0.0
  0
ELLIPSE
  5
EBDC
330
EB99
100
AcDbEntity
  8
0
100
AcDbEllipse
 10
29.69717745574499
 20
-27.95772281296074
 30
0.0
 11
1.249999999999871
 21
-2.16506350946117
 31
0.0
210
0.0
220
0.0
230
1.0
 40
0.577350269189626
 41
0.8773718029393426
 42
2.356194490192585
  0
LINE
  5
EBDD
330
EB99
100
AcDbEntity
  8
0
100
AcDbLine
 10
26.16164354981225
 20
-23.87523990832212
 30
0.0
 11
29.69717745574499
 21
-25.91648136064143
 31
0.0
  0
ELLIPSE
  5
EBDE
330
EB99
100
AcDbEntity
  8
0
100
AcDbEllipse
 10
26.16164354981225
 20
-25.91648136064143
 30
0.0
 11
-1.25
 21
2.165063509461096
 31
0.0
210
0.0
220
0.0
230
0.9999999999999998
 40
0.5773502691896261
 41
5.497787143782135
 42
6.976609831035355
  0
LINE
  5
EBDF
330
EB99
100
AcDbEntity
  8
0
100
AcDbLine
 10
51.19322360381604
 20
92.23057390123353
 30
0.0
 11
6.786917745300842
 21
117.8685665423641
 31
0.0
  0
LINE
  5
EBE0
330
EB99
100
AcDbEntity
  8
0
100
AcDbLine
 10
21.91900286269293
 20
12.05060965413087
 30
0.0
 11
21.91900286269294
 21
69.53196895144277
 31
0.0
  0
LINE
  5
EBE1
330
EB99
100
AcDbEntity
  8
0
100
AcDbLine
 10
20.85834269091312
 20
70.14434138713856
 30
0.0
 11
20.85834269091311
 21
12.66298208982666
 31
0.0
  0
LINE
  5
EBE2
330
EB99
100
AcDbEntity
  8
0
100
AcDbLine
 10
51.19322360381605
 20
24.86960597469615
 30
0.0
 11
25.45453676862567
 21
10.00936820181155
 31
0.0
  0
LINE
  5
EBE3
330
EB99
100
AcDbEntity
  8
0
100
AcDbLine
 10
25.45453676862568
 20
75.65569330840069
 30
0.0
 11
51.19322360381604
 21
90.5159310812853
 31
0.0
  0
LINE
  5
EBE4
330
EB99
100
AcDbEntity
  8
0
100
AcDbLine
 10
-25.45715147680574
 20
96.88460441252155
 30
0.0
 11
-25.45715147680574
 21
39.40324511520966
 31
0.0
  0
LINE
  5
EBE5
330
EB99
100
AcDbEntity
  8
0
100
AcDbLine
 10
3.817069264317343
 20
117.8685665423641
 30
0.0
 11
-21.92161757087298
 21
103.0083287694795
 31
0.0
  0
LINE
  5
EBE6
330
EB99
100
AcDbEntity
  8
0
100
AcDbLine
 10
-24.39649130502591
 20
96.27223197682576
 30
0.0
 11
-24.39649130502591
 21
38.79087267951386
 31
0.0
  0
LINE
  5
EBE7
330
EB99
100
AcDbEntity
  8
0
100
AcDbLine
 10
51.19322360381604
 20
90.5159310812853
 30
0.0
 11
50.13256343203622
 21
91.12830351698109
 31
0.0
  0
LINE
  5
EBE8
330
EB99
100
AcDbEntity
  8
0
100
AcDbLine
 10
50.13256343203622
 20
91.12830351698109
 30
0.0
 11
24.39387659684586
 21
76.26806574409648
 31
0.0
  0
LINE
  5
EBE9
330
EB99
100
AcDbEntity
  8
0
100
AcDbLine
 10
5.726257573521023
 20
51.60986900007916
 30
0.0
 11
7.776867238962008
 21
50.42594895773395
 31
0.0
  0
LINE
  5
EBEA
330
EB99
100
AcDbEntity
  8
0
100
AcDbLine
 10
51.19322360381604
 20
92.23057390123353
 30
0.0
 11
50.13256343203622
 21
91.61820146553774
 31
0.0
  0
LINE
  5
EBEB
330
EB99
100
AcDbEntity
  8
0
100
AcDbLine
 10
6.786917745300842
 20
117.8685665423641
 30
0.0
 11
5.726257573521023
 21
117.2561941066683
 31
0.0
  0
LINE
  5
EBEC
330
EB99
100
AcDbEntity
  8
0
100
AcDbLine
 10
3.817069264317343
 20
117.8685665423641
 30
0.0
 11
4.877729436097166
 21
117.2561941066683
 31
0.0
  0
LINE
  5
EBED
330
EB99
100
AcDbEntity
  8
0
100
AcDbLine
 10
5.726257573521023
 20
117.2561941066683
 30
0.0
 11
50.13256343203622
 21
91.61820146553774
 31
0.0
  0
LINE
  5
EBEE
330
EB99
100
AcDbEntity
  8
0
100
AcDbLine
 10
-20.86095739909318
 20
36.74963122719455
 30
0.0
 11
4.877729436097166
 21
51.60986900007916
 31
0.0
  0
LINE
  5
EBEF
330
EB99
100
AcDbEntity
  8
0
100
AcDbLine
 10
-20.86095739909316
 20
102.3959563337837
 30
0.0
 11
4.877729436097166
 21
117.2561941066683
 31
0.0
  0
LINE
  5
EBF0
330
EB99
100
AcDbEntity
  8
0
100
AcDbLine
 10
25.45453676862567
 20
10.00936820181155
 30
0.0
 11
21.91900286269293
 21
12.05060965413087
 31
0.0
  0
LINE
  5
EBF1
330
EB99
100
AcDbEntity
  8
0
100
AcDbLine
 10
21.91900286269293
 20
12.05060965413087
 30
0.0
 11
20.85834269091311
 21
12.66298208982666
 31
0.0
  0
LINE
  5
EBF2
330
EB99
100
AcDbEntity
  8
0
100
AcDbLine
 10
20.85834269091312
 20
70.14434138713856
 30
0.0
 11
21.91900286269294
 21
69.53196895144277
 31
0.0
  0
LINE
  5
EBF3
330
EB99
100
AcDbEntity
  8
0
100
AcDbLine
 10
21.91900286269294
 20
69.53196895144277
 30
0.0
 11
25.45453676862568
 21
75.65569330840069
 31
0.0
  0
LINE
  5
EBF4
330
EB99
100
AcDbEntity
  8
0
100
AcDbLine
 10
-20.86095739909318
 20
36.74963122719455
 30
0.0
 11
-24.39649130502591
 21
38.79087267951386
 31
0.0
  0
LINE
  5
EBF5
330
EB99
100
AcDbEntity
  8
0
100
AcDbLine
 10
-24.39649130502591
 20
38.79087267951386
 30
0.0
 11
-25.45715147680574
 21
39.40324511520966
 31
0.0
  0
LINE
  5
EBF6
330
EB99
100
AcDbEntity
  8
0
100
AcDbLine
 10
-21.92161757087298
 20
103.0083287694795
 30
0.0
 11
-25.45715147680574
 21
96.88460441252155
 31
0.0
  0
LINE
  5
EBF7
330
EB99
100
AcDbEntity
  8
0
100
AcDbLine
 10
-25.45715147680574
 20
96.88460441252155
 30
0.0
 11
-24.39649130502591
 21
96.27223197682576
 31
0.0
  0
LINE
  5
EBF8
330
EB99
100
AcDbEntity
  8
0
100
AcDbLine
 10
25.45453676862568
 20
75.65569330840069
 30
0.0
 11
24.39387659684586
 21
76.26806574409648
 31
0.0
  0
LINE
  5
EBF9
330
EB99
100
AcDbEntity
  8
0
100
AcDbLine
 10
24.39387659684586
 20
76.26806574409648
 30
0.0
 11
20.85834269091312
 21
70.14434138713856
 31
0.0
  0
LINE
  5
EBFA
330
EB99
100
AcDbEntity
  8
0
100
AcDbLine
 10
-24.39649130502591
 20
96.27223197682576
 30
0.0
 11
-20.86095739909316
 21
102.3959563337837
 31
0.0
  0
LINE
  5
EBFB
330
EB99
100
AcDbEntity
  8
0
100
AcDbLine
 10
-20.86095739909316
 20
102.3959563337837
 30
0.0
 11
-21.92161757087298
 21
103.0083287694795
 31
0.0
  0
LINE
  5
EBFC
330
EB99
100
AcDbEntity
  8
0
100
AcDbLine
 10
-5.306776396028505
 20
-96.50066399225014
 30
0.0
 11
-5.306776396028496
 21
-90.72716130035392
 31
0.0
  0
LINE
  5
EBFD
330
EB99
100
AcDbEntity
  8
0
100
AcDbLine
 10
-5.306776396028496
 20
-90.72716130035392
 30
0.0
 11
-6.367436567808306
 21
-90.11478886465813
 31
0.0
  0
LINE
  5
EBFE
330
EB99
100
AcDbEntity
  8
0
100
AcDbLine
 10
-6.367436567808306
 20
-90.11478886465813
 30
0.0
 11
-6.367436567808306
 21
-95.88829155655435
 31
0.0
  0
LINE
  5
EBFF
330
EB99
100
AcDbEntity
  8
0
100
AcDbLine
 10
-6.367436567808306
 20
-95.88829155655435
 30
0.0
 11
-5.306776396028505
 21
-96.50066399225014
 31
0.0
  0
LINE
  5
EC00
330
EB99
100
AcDbEntity
  8
0
100
AcDbLine
 10
-52.6829307355272
 20
-63.37452583927515
 30
0.0
 11
-52.68293073552715
 21
-69.14802853117137
 31
0.0
  0
LINE
  5
EC01
330
EB99
100
AcDbEntity
  8
0
100
AcDbLine
 10
-52.68293073552715
 20
-69.14802853117137
 30
0.0
 11
-51.62227056374735
 21
-69.76040096686716
 31
0.0
  0
LINE
  5
EC02
330
EB99
100
AcDbEntity
  8
0
100
AcDbLine
 10
-51.62227056374735
 20
-69.76040096686716
 30
0.0
 11
-51.62227056374736
 21
-63.98689827497094
 31
0.0
  0
LINE
  5
EC03
330
EB99
100
AcDbEntity
  8
0
100
AcDbLine
 10
-51.62227056374736
 20
-63.98689827497094
 30
0.0
 11
-52.6829307355272
 21
-63.37452583927515
 31
0.0
  0
ELLIPSE
  5
EC04
330
EB99
100
AcDbEntity
  8
0
100
AcDbEllipse
 10
27.57585711218539
 20
70.43011519046324
 30
0.0
 11
1.250000000000129
 21
2.165063509461022
 31
0.0
210
0.0
220
0.0
230
1.0
 40
0.5773502691896258
 41
0.0
 42
6.283185307179586
  0
ELLIPSE
  5
EC05
330
EB99
100
AcDbEntity
  8
0
100
AcDbEllipse
 10
27.57585711218539
 20
54.10018357190871
 30
0.0
 11
1.250000000000129
 21
2.165063509461022
 31
0.0
210
0.0
220
0.0
230
1.0
 40
0.5773502691896258
 41
0.0
 42
6.283185307179586
  0
ELLIPSE
  5
EC06
330
EB99
100
AcDbEntity
  8
0
100
AcDbEllipse
 10
27.57585711218539
 20
37.77025195335419
 30
0.0
 11
1.250000000000129
 21
2.165063509461022
 31
0.0
210
0.0
220
0.0
230
1.0
 40
0.5773502691896258
 41
0.0
 42
6.283185307179586
  0
ELLIPSE
  5
EC07
330
EB99
100
AcDbEntity
  8
0
100
AcDbEllipse
 10
26.51519694040556
 20
71.04248762615902
 30
0.0
 11
1.249999999999872
 21
2.16506350946117
 31
0.0
210
0.0
220
0.0
230
1.0
 40
0.5773502691896269
 41
3.579741684173544
 42
5.845036276594995
  0
ELLIPSE
  5
EC08
330
EB99
100
AcDbEntity
  8
0
100
AcDbEllipse
 10
26.51519694040556
 20
54.7125560076045
 30
0.0
 11
1.249999999999872
 21
2.16506350946117
 31
0.0
210
0.0
220
0.0
230
1.0
 40
0.5773502691896269
 41
3.579741684173544
 42
5.845036276594995
  0
ELLIPSE
  5
EC09
330
EB99
100
AcDbEntity
  8
0
100
AcDbEllipse
 10
26.51519694040556
 20
38.38262438904997
 30
0.0
 11
1.249999999999872
 21
2.16506350946117
 31
0.0
210
0.0
220
0.0
230
1.0
 40
0.5773502691896269
 41
3.579741684173544
 42
5.845036276594995
  0
ELLIPSE
  5
EC0A
330
EB99
100
AcDbEntity
  8
0
100
AcDbEllipse
 10
27.57585711218539
 20
21.44032033479966
 30
0.0
 11
1.250000000000129
 21
2.165063509461022
 31
0.0
210
0.0
220
0.0
230
1.0
 40
0.5773502691896258
 41
0.0
 42
6.283185307179586
  0
ELLIPSE
  5
EC0B
330
EB99
100
AcDbEntity
  8
0
100
AcDbEllipse
 10
26.51519694040556
 20
22.05269277049545
 30
0.0
 11
1.249999999999872
 21
2.16506350946117
 31
0.0
210
0.0
220
0.0
230
1.0
 40
0.5773502691896269
 41
3.579741684173544
 42
5.845036276594995
  0
LINE
  5
EC0C
330
EB99
100
AcDbEntity
  8
0
100
AcDbLine
 10
51.19322360381605
 20
24.86960597469615
 30
0.0
 11
51.19322360381604
 21
90.5159310812853
 31
0.0
  0
ELLIPSE
  5
EC0D
330
EB99
100
AcDbEntity
  8
0
100
AcDbEllipse
 10
49.70829936332429
 20
91.37325249125941
 30
0.0
 11
0.6000000000000006
 21
0.0000000000000001
 31
0.0
210
0.0
220
0.0
230
1.0
 40
0.5773502691896258
 41
5.497787143782124
 42
7.068583470577047
  0
LINE
  5
EC0E
330
EB99
100
AcDbEntity
  8
0
100
AcDbLine
 10
50.13256343203622
 20
91.61820146553774
 30
0.0
 11
50.13256343203622
 21
91.12830351698109
 31
0.0
  0
ELLIPSE
  5
EC0F
330
EB99
100
AcDbEntity
  8
0
100
AcDbEllipse
 10
49.70829936332429
 20
91.37325249125941
 30
0.0
 11
2.100000000000004
 21
-0.0000000000000001
 31
0.0
210
0.0
220
0.0
230
1.0
 40
0.5773502691896258
 41
5.497787143782139
 42
7.068583470577036
  0
ELLIPSE
  5
EC10
330
EB99
100
AcDbEntity
  8
0
100
AcDbEllipse
 10
49.70829936332429
 20
25.72692738467026
 30
0.0
 11
2.099999999999999
 21
0.0000000000000001
 31
0.0
210
0.0
220
0.0
230
1.0
 40
0.5773502691896258
 41
5.497787143782141
 42
6.283185307179586
  0
LINE
  5
EC11
330
EB99
100
AcDbEntity
  8
0
100
AcDbLine
 10
5.726257573521023
 20
117.2561941066683
 30
0.0
 11
5.726257573521023
 21
51.60986900007916
 31
0.0
  0
ELLIPSE
  5
EC12
330
EB99
100
AcDbEntity
  8
0
100
AcDbEllipse
 10
5.301993504809092
 20
117.01124513239
 30
0.0
 11
0.6000000000000006
 21
-0.0000000000000358
 31
0.0
210
0.0
220
0.0
230
1.0
 40
0.5773502691896258
 41
0.7853981633976961
 42
2.35619449019261
  0
LINE
  5
EC13
330
EB99
100
AcDbEntity
  8
0
100
AcDbLine
 10
4.877729436097166
 20
117.2561941066683
 30
0.0
 11
4.877729436097166
 21
51.60986900007916
 31
0.0
  0
ELLIPSE
  5
EC14
330
EB99
100
AcDbEntity
  8
0
100
AcDbEllipse
 10
5.301993504809092
 20
51.36492002580085
 30
0.0
 11
0.6000000000000006
 21
-0.0000000000000358
 31
0.0
210
0.0
220
0.0
230
1.0
 40
0.5773502691896258
 41
0.7853981633976872
 42
2.356194490192599
  0
ELLIPSE
  5
EC15
330
EB99
100
AcDbEntity
  8
0
100
AcDbEllipse
 10
5.301993504809092
 20
117.01124513239
 30
0.0
 11
-2.099999999999999
 21
-0.0000000000001255
 31
0.0
210
0.0
220
0.0
230
1.0
 40
0.5773502691896258
 41
3.926990816987002
 42
5.497787143781899
  0
LINE
  5
EC16
330
EB99
100
AcDbEntity
  8
0
100
AcDbLine
 10
51.80829936332429
 20
91.37325249125941
 30
0.0
 11
51.80829936332429
 21
25.72692738467028
 31
0.0
  0
ELLIPSE
  5
EC17
330
EB99
100
AcDbEntity
  8
0
100
AcDbEllipse
 10
-19.80029722731334
 20
93.70026774690343
 30
0.0
 11
1.24999999999987
 21
2.165063509461171
 31
0.0
210
0.0
220
0.0
230
1.0
 40
0.5773502691896258
 41
3.579741684173544
 42
5.845036276595003
  0
ELLIPSE
  5
EC18
330
EB99
100
AcDbEntity
  8
0
100
AcDbEllipse
 10
-19.80029722731334
 20
77.37033612834891
 30
0.0
 11
1.24999999999987
 21
2.165063509461171
 31
0.0
210
0.0
220
0.0
230
1.0
 40
0.5773502691896258
 41
3.579741684173544
 42
5.845036276594996
  0
ELLIPSE
  5
EC19
330
EB99
100
AcDbEntity
  8
0
100
AcDbEllipse
 10
-19.80029722731334
 20
61.04040450979439
 30
0.0
 11
1.24999999999987
 21
2.165063509461171
 31
0.0
210
0.0
220
0.0
230
1.0
 40
0.5773502691896258
 41
3.579741684173544
 42
5.845036276594996
  0
ELLIPSE
  5
EC1A
330
EB99
100
AcDbEntity
  8
0
100
AcDbEllipse
 10
-18.73963705553352
 20
93.08789531120764
 30
0.0
 11
1.250000000000129
 21
2.165063509461022
 31
0.0
210
0.0
220
0.0
230
1.0
 40
0.5773502691896258
 41
0.0
 42
6.283185307179586
  0
ELLIPSE
  5
EC1B
330
EB99
100
AcDbEntity
  8
0
100
AcDbEllipse
 10
-18.73963705553352
 20
76.75796369265312
 30
0.0
 11
1.250000000000129
 21
2.165063509461022
 31
0.0
210
0.0
220
0.0
230
1.0
 40
0.5773502691896258
 41
0.0
 42
6.283185307179586
  0
ELLIPSE
  5
EC1C
330
EB99
100
AcDbEntity
  8
0
100
AcDbEllipse
 10
-18.73963705553352
 20
60.4280320740986
 30
0.0
 11
1.250000000000129
 21
2.165063509461022
 31
0.0
210
0.0
220
0.0
230
1.0
 40
0.5773502691896258
 41
0.0
 42
6.283185307179586
  0
ELLIPSE
  5
EC1D
330
EB99
100
AcDbEntity
  8
0
100
AcDbEllipse
 10
-19.80029722731334
 20
44.71047289123986
 30
0.0
 11
1.24999999999987
 21
2.165063509461171
 31
0.0
210
0.0
220
0.0
230
1.0
 40
0.5773502691896258
 41
3.579741684173544
 42
5.845036276594996
  0
ELLIPSE
  5
EC1E
330
EB99
100
AcDbEntity
  8
0
100
AcDbEllipse
 10
-18.73963705553352
 20
44.09810045554407
 30
0.0
 11
1.250000000000129
 21
2.165063509461022
 31
0.0
210
0.0
220
0.0
230
1.0
 40
0.5773502691896258
 41
0.0
 42
6.283185307179586
  0
LINE
  5
EC1F
330
EB99
100
AcDbEntity
  8
0
100
AcDbLine
 10
8.193223603381749
 20
-67.34447539986994
 30
0.0
 11
-5.306776396028496
 21
-90.72716130035392
 31
0.0
  0
LINE
  5
EC20
330
EB99
100
AcDbEntity
  8
0
100
AcDbLine
 10
7.132563431601806
 20
-66.73210296417408
 30
0.0
 11
-6.367436567808306
 21
-90.11478886465813
 31
0.0
  0
LINE
  5
EC21
330
EB99
100
AcDbEntity
  8
0
100
AcDbLine
 10
12.89322360381603
 20
-107.0084388914116
 30
0.0
 11
49.59322360302812
 21
-43.4421742549985
 31
0.0
  0
LINE
  5
EC22
330
EB99
100
AcDbEntity
  8
0
100
AcDbLine
 10
48.28403529382116
 20
-42.9732896063512
 30
0.0
 11
49.27184464321439
 21
-41.26235362501059
 31
0.0
  0
LINE
  5
EC23
330
EB99
100
AcDbEntity
  8
0
100
AcDbLine
 10
13.22695271127173
 20
-107.2011174814373
 30
0.0
 11
12.89322360381619
 21
-107.0084388914113
 31
0.0
  0
LINE
  5
EC24
330
EB99
100
AcDbEntity
  8
0
100
AcDbLine
 10
50.26531268033405
 20
-43.04879618599608
 30
0.0
 11
13.22695271127173
 21
-107.2011174814373
 31
0.0
  0
LINE
  5
EC25
330
EB99
100
AcDbEntity
  8
0
100
AcDbLine
 10
8.193223603381749
 20
-67.34447539986994
 30
0.0
 11
7.132563431601806
 21
-66.73210296417408
 31
0.0
  0
LINE
  5
EC26
330
EB99
100
AcDbEntity
  8
0
100
AcDbLine
 10
49.59322360302812
 20
-43.4421742549985
 30
0.0
 11
8.193223603381749
 21
-67.34447539986994
 31
0.0
  0
LINE
  5
EC27
330
EB99
100
AcDbEntity
  8
0
100
AcDbLine
 10
-39.18293073611849
 20
-39.99183993879048
 30
0.0
 11
2.217069263529394
 21
-16.08953879391969
 31
0.0
  0
ELLIPSE
  5
EC28
330
EB99
100
AcDbEntity
  8
0
100
AcDbEllipse
 10
7.969570780868293
 20
-14.98370002757647
 30
0.0
 11
-0.7500000000000005
 21
-1.299038105676658
 31
0.0
210
0.0
220
0.0
230
0.9999999999999998
 40
0.8164965809277259
 41
0.0
 42
1.134458255166984
  0
LINE
  5
EC29
330
EB99
100
AcDbEntity
  8
0
100
AcDbLine
 10
7.219570780868305
 20
-16.28273813325312
 30
0.0
 11
5.598065090658672
 21
-15.34656138651808
 31
0.0
  0
LINE
  5
EC2A
330
EB99
100
AcDbEntity
  8
0
100
AcDbLine
 10
5.598065090658672
 20
-15.34656138651808
 30
0.0
 11
4.865538784699192
 21
-15.62436098387999
 31
0.0
  0
LINE
  5
EC2B
330
EB99
100
AcDbEntity
  8
0
100
AcDbLine
 10
49.27184464321439
 20
-41.26235362501059
 30
0.0
 11
49.14616299871115
 21
-40.48906743642834
 31
0.0
  0
LINE
  5
EC2C
330
EB99
100
AcDbEntity
  8
0
100
AcDbLine
 10
49.14616299871115
 20
-40.48906743642834
 30
0.0
 11
47.52465730850153
 21
-39.55289068969332
 31
0.0
  0
ELLIPSE
  5
EC2D
330
EB99
100
AcDbEntity
  8
0
100
AcDbEllipse
 10
48.27465730850151
 20
-38.25385258401666
 30
0.0
 11
-0.7499999999999996
 21
-1.299038105676658
 31
0.0
210
0.0
220
0.0
230
1.0
 40
0.816496580927726
 41
5.148727052012594
 42
6.283185307179585
  0
SPLINE
  5
EC2E
330
EB99
100
AcDbEntity
  8
0
100
AcDbSpline
210
0.0
220
0.0
230
1.0
 70
     8
 71
     3
 72
     8
 73
     4
 74
     0
 42
0.000000001
 43
0.0000000001
 40
-1.0
 40
-1.0
 40
-1.0
 40
-1.0
 40
0.0
 40
0.0
 40
0.0
 40
0.0
 10
8.825027346153056
 20
-15.71970549852632
 30
0.0
 10
8.856958761134322
 20
-15.86803695486808
 30
0.0
 10
8.774996748523165
 20
-16.01224405433741
 30
0.0
 10
8.613885161987141
 20
-16.08770045021748
 30
0.0
  0
SPLINE
  5
EC2F
330
EB99
100
AcDbEntity
  8
0
100
AcDbSpline
210
0.0
220
0.0
230
1.0
 70
     8
 71
     3
 72
     8
 73
     4
 74
     0
 42
0.000000001
 43
0.0000000001
 40
-1.0
 40
-1.0
 40
-1.0
 40
-1.0
 40
0.0
 40
0.0
 40
0.0
 40
0.0
 10
46.99640770614623
 20
-38.24786017326461
 30
0.0
 10
46.98119906858805
 20
-38.07060524854018
 30
0.0
 10
47.00186224442245
 20
-37.89100724915677
 30
0.0
 10
47.03379365940414
 20
-37.77954701488534
 30
0.0
  0
LINE
  5
EC30
330
EB99
100
AcDbEntity
  8
0
100
AcDbLine
 10
-38.12227056433854
 20
-40.60421237448635
 30
0.0
 11
-39.18293073611849
 21
-39.99183993879048
 31
0.0
  0
LINE
  5
EC31
330
EB99
100
AcDbEntity
  8
0
100
AcDbLine
 10
3.277729435309195
 20
-16.70191122961548
 30
0.0
 11
-38.12227056433854
 21
-40.60421237448635
 31
0.0
  0
LINE
  5
EC32
330
EB99
100
AcDbEntity
  8
0
100
AcDbLine
 10
3.277729435309195
 20
-16.70191122961548
 30
0.0
 11
2.924529598107454
 21
-16.49799120852926
 31
0.0
  0
LINE
  5
EC33
330
EB99
100
AcDbEntity
  8
0
100
AcDbLine
 10
2.924529598107454
 20
-16.49799120852926
 30
0.0
 11
2.217069263529389
 21
-16.08953879391969
 31
0.0
  0
SPLINE
  5
EC34
330
EB99
100
AcDbEntity
  8
0
100
AcDbSpline
210
0.0
220
0.0
230
1.0
 70
     8
 71
     3
 72
     8
 73
     4
 74
     0
 42
0.000000001
 43
0.0000000001
 40
-1.0
 40
-1.0
 40
-1.0
 40
-1.0
 40
0.0
 40
0.0
 40
0.0
 40
0.0
 10
4.865538784699188
 20
-15.62436098387998
 30
0.0
 10
4.355546210898473
 20
-15.99467410112089
 30
0.0
 10
3.722657494881085
 20
-16.29403309757081
 30
0.0
 10
3.277729435309222
 20
-16.70191122961544
 30
0.0
  0
SPLINE
  5
EC35
330
EB99
100
AcDbEntity
  8
0
100
AcDbSpline
210
0.0
220
0.0
230
1.0
 70
     8
 71
     3
 72
     8
 73
     4
 74
     0
 42
0.000000001
 43
0.0000000001
 40
0.0
 40
0.0
 40
0.0
 40
0.0
 40
0.6081734479693909
 40
0.6081734479693909
 40
0.6081734479693909
 40
0.6081734479693909
 10
2.217069263529416
 20
-16.08953879391965
 30
0.0
 10
2.726491850148713
 20
-15.97936622066164
 30
0.0
 10
3.479241216457413
 20
-16.00967842915792
 30
0.0
 10
4.23057407966016
 20
-16.03917281920454
 30
0.0
  0
ELLIPSE
  5
EC36
330
EB99
100
AcDbEntity
  8
0
100
AcDbEllipse
 10
7.776867238962008
 20
-15.302025806948
 30
0.0
 11
0.7499999999999233
 21
-1.299038105676702
 31
0.0
210
0.0
220
0.0
230
1.0
 40
0.577350269189626
 41
0.9390757175653297
 42
2.356194490192585
  0
LINE
  5
EC37
330
EB99
100
AcDbEntity
  8
0
100
AcDbLine
 10
49.59322360302812
 20
-43.4421742549985
 30
0.0
 11
48.88576326845089
 21
-43.03372184038938
 31
0.0
  0
LINE
  5
EC38
330
EB99
100
AcDbEntity
  8
0
100
AcDbLine
 10
48.88576326845089
 20
-43.03372184038938
 30
0.0
 11
48.53256343124828
 21
-42.82980181930271
 31
0.0
  0
LINE
  5
EC39
330
EB99
100
AcDbEntity
  8
0
100
AcDbLine
 10
7.132563431601806
 20
-66.73210296417408
 30
0.0
 11
48.53256343124828
 21
-42.82980181930271
 31
0.0
  0
LINE
  5
EC3A
330
EB99
100
AcDbEntity
  8
0
100
AcDbLine
 10
49.27184464321439
 20
-41.26235362501059
 30
0.0
 11
49.52159464321419
 21
-41.40654685474058
 31
0.0
  0
SPLINE
  5
EC3B
330
EB99
100
AcDbEntity
  8
0
100
AcDbSpline
210
0.0
220
0.0
230
1.0
 70
     8
 71
     3
 72
     8
 73
     4
 74
     0
 42
0.000000001
 43
0.0000000001
 40
-1.0
 40
-1.0
 40
-1.0
 40
-1.0
 40
0.0
 40
0.0
 40
0.0
 40
0.0
 10
48.53256343124827
 20
-42.82980181930272
 30
0.0
 10
48.97749149082042
 20
-42.42192368725757
 30
0.0
 10
49.20614036322973
 20
-41.88917670828351
 30
0.0
 10
49.27184464321439
 20
-41.26235362501057
 30
0.0
  0
SPLINE
  5
EC3C
330
EB99
100
AcDbEntity
  8
0
100
AcDbSpline
210
0.0
220
0.0
230
1.0
 70
     8
 71
     3
 72
     8
 73
     4
 74
     0
 42
0.000000001
 43
0.0000000001
 40
0.0
 40
0.0
 40
0.0
 40
0.0
 40
1.0
 40
1.0
 40
1.0
 40
1.0
 10
50.02184464321439
 20
-41.69536632690278
 30
0.0
 10
50.51150073049955
 20
-42.64282686771622
 30
0.0
 10
50.43085074429898
 20
-43.26102104348264
 30
0.0
 10
49.5932236030281
 20
-43.44217425499852
 30
0.0
  0
LINE
  5
EC3D
330
EB99
100
AcDbEntity
  8
0
100
AcDbLine
 10
49.52159464321419
 20
-41.40654685474058
 30
0.0
 11
50.02184464321439
 21
-41.69536632690281
 31
0.0
  0
ELLIPSE
  5
EC3E
330
EB99
100
AcDbEntity
  8
0
100
AcDbEllipse
 10
49.02465730850149
 20
-38.68686528590888
 30
0.0
 11
-0.7500000000000002
 21
-1.299038105676658
 31
0.0
210
0.0
220
0.0
230
1.0
 40
0.8164965809277259
 41
5.148727052012597
 42
6.283185307179585
  0
LINE
  5
EC3F
330
EB99
100
AcDbEntity
  8
0
100
AcDbLine
 10
47.74640770614621
 20
-38.68087287515682
 30
0.0
 11
47.24615770704525
 21
-38.39205340351377
 31
0.0
  0
LINE
  5
EC40
330
EB99
100
AcDbEntity
  8
0
100
AcDbLine
 10
47.24615770704525
 20
-38.39205340351377
 30
0.0
 11
46.99640770614621
 21
-38.2478601732646
 31
0.0
  0
LINE
  5
EC41
330
EB99
100
AcDbEntity
  8
0
100
AcDbLine
 10
49.14616299871115
 20
-40.48906743642834
 30
0.0
 11
49.89616299871116
 21
-40.92208013832056
 31
0.0
  0
LINE
  5
EC42
330
EB99
100
AcDbEntity
  8
0
100
AcDbLine
 10
49.89616299871116
 20
-40.92208013832056
 30
0.0
 11
50.02184464321439
 21
-41.69536632690281
 31
0.0
  0
LINE
  5
EC43
330
EB99
100
AcDbEntity
  8
0
100
AcDbLine
 10
47.03379365940415
 20
-37.77954701488533
 30
0.0
 11
47.38699349984833
 21
-37.57562699192715
 31
0.0
  0
SPLINE
  5
EC44
330
EB99
100
AcDbEntity
  8
0
100
AcDbSpline
210
0.0
220
0.0
230
1.0
 70
     8
 71
     3
 72
     8
 73
     4
 74
     0
 42
0.000000001
 43
0.0000000001
 40
0.1302463606542684
 40
0.1302463606542684
 40
0.1302463606542684
 40
0.1302463606542684
 40
1.0
 40
1.0
 40
1.0
 40
1.0
 10
48.07624017426531
 20
-37.344625958183
 30
0.0
 10
48.02341423847618
 20
-37.75404718561932
 30
0.0
 10
47.89180446436181
 20
-38.25195902078647
 30
0.0
 10
47.74640770614623
 20
-38.68087287515683
 30
0.0
  0
LINE
  5
EC45
330
EB99
100
AcDbEntity
  8
0
100
AcDbLine
 10
47.38699349984833
 20
-37.57562699192715
 30
0.0
 11
47.91959493655136
 21
-37.26812940907588
 31
0.0
  0
ELLIPSE
  5
EC46
330
EB99
100
AcDbEntity
  8
0
100
AcDbEllipse
 10
48.08195376659522
 20
-38.57217836338819
 30
0.0
 11
-0.7500000000000009
 21
1.299038105676658
 31
0.0
210
0.0
220
0.0
230
1.0
 40
0.577350269189626
 41
5.497787143782137
 42
6.914905916409352
  0
LINE
  5
EC47
330
EB99
100
AcDbEntity
  8
0
100
AcDbLine
 10
12.89322360381603
 20
-107.0084388914116
 30
0.0
 11
-5.306776396028505
 21
-96.50066399225014
 31
0.0
  0
LINE
  5
EC48
330
EB99
100
AcDbEntity
  8
0
100
AcDbLine
 10
-51.62227056374735
 20
-69.76040096686716
 30
0.0
 11
-33.42227056390283
 21
-80.26817586602858
 31
0.0
  0
LINE
  5
EC49
330
EB99
100
AcDbEntity
  8
0
100
AcDbLine
 10
24.32739027969996
 20
-25.15989685984153
 30
0.0
 11
8.613885161987123
 21
-16.08770045021747
 31
0.0
  0
LINE
  5
EC4A
330
EB99
100
AcDbEntity
  8
0
100
AcDbLine
 10
-32.69800649519088
 20
-80.68632992106374
 30
0.0
 11
-6.367436567808293
 21
-95.88829155655435
 31
0.0
  0
LINE
  5
EC4B
330
EB99
100
AcDbEntity
  8
0
100
AcDbLine
 10
46.99640770614621
 20
-38.2478601732646
 30
0.0
 11
31.2829025884334
 21
-29.17566376364055
 31
0.0
  0
LINE
  5
EC4C
330
EB99
100
AcDbEntity
  8
0
100
AcDbLine
 10
8.825027346153074
 20
-15.71970549852632
 30
0.0
 11
24.40134823088205
 21
-24.71269855430858
 31
0.0
  0
LINE
  5
EC4D
330
EB99
100
AcDbEntity
  8
0
100
AcDbLine
 10
31.45747277467518
 20
-28.78655395910307
 30
0.0
 11
47.03379365940415
 21
-37.77954701488533
 31
0.0
  0
ELLIPSE
  5
EC4E
330
EB99
100
AcDbEntity
  8
0
100
AcDbEllipse
 10
2.443223604085211
 20
-86.54137184879477
 30
0.0
 11
1.250000000000129
 21
2.165063509461022
 31
0.0
210
0.0
220
0.0
230
1.0
 40
0.5773502691896255
 41
0.0
 42
6.283185307179586
  0
ELLIPSE
  5
EC4F
330
EB99
100
AcDbEntity
  8
0
100
AcDbEllipse
 10
16.19322360428992
 20
-68.49917593673715
 30
0.0
 11
-0.4000000000000425
 21
-0.6928203230275284
 31
0.0
210
0.0
220
0.0
230
1.0
 40
0.5773502691896255
 41
2.094395102375145
 42
2.276828566511584
  0
LINE
  5
EC50
330
EB99
100
AcDbEntity
  8
0
100
AcDbLine
 10
16.73963376580104
 20
-68.3527657752364
 30
0.0
 11
15.94716552047778
 21
-72.22536103944247
 31
0.0
  0
ELLIPSE
  5
EC51
330
EB99
100
AcDbEntity
  8
0
100
AcDbEllipse
 10
15.40075535896667
 20
-72.37177120094322
 30
0.0
 11
-0.4000000000000419
 21
-0.6928203230275269
 31
0.0
210
0.0
220
0.0
230
1.0
 40
0.5773502691896255
 41
0.0
 42
2.094395102375107
  0
LINE
  5
EC52
330
EB99
100
AcDbEntity
  8
0
100
AcDbLine
 10
15.0007553589594
 20
-73.06459152396659
 30
0.0
 11
12.83569184953768
 21
-71.81459152389834
 31
0.0
  0
ELLIPSE
  5
EC53
330
EB99
100
AcDbEntity
  8
0
100
AcDbEllipse
 10
13.23569184954495
 20
-71.12177120087498
 30
0.0
 11
-0.4000000000072805
 21
-0.6928203230233495
 31
0.0
210
0.0
220
0.0
230
1.0
 40
0.5773502691896257
 41
4.188790204822801
 42
6.283185307252382
  0
LINE
  5
EC54
330
EB99
100
AcDbEntity
  8
0
100
AcDbLine
 10
13.08928168804113
 20
-70.5753610393524
 30
0.0
 11
16.0468134427861
 21
-67.95276577521455
 31
0.0
  0
ELLIPSE
  5
EC55
330
EB99
100
AcDbEntity
  8
0
100
AcDbEllipse
 10
16.19322360428992
 20
-68.49917593673715
 30
0.0
 11
0.4000000000000012
 21
0.6928203230275522
 31
0.0
210
0.0
220
0.0
230
1.0
 40
0.5773502691896259
 41
0.0802385882704835
 42
1.047197551178419
  0
LINE
  5
EC56
330
EB99
100
AcDbEntity
  8
0
100
AcDbLine
 10
16.55987564202416
 20
-67.79007425516088
 30
0.0
 11
16.75712835217428
 21
-68.22539257553845
 31
0.0
  0
ELLIPSE
  5
EC57
330
EB99
100
AcDbEntity
  8
0
100
AcDbEllipse
 10
14.34009518718687
 20
-71.75939876524743
 30
0.0
 11
-0.4000000000072799
 21
-0.6928203230233481
 31
0.0
210
0.0
220
0.0
230
1.0
 40
0.5773502691896257
 41
0.0000000000727906
 42
2.094395102429589
  0
LINE
  5
EC58
330
EB99
100
AcDbEntity
  8
0
100
AcDbLine
 10
14.88650534869796
 20
-71.61298860374668
 30
0.0
 11
15.94716552047778
 21
-72.22536103944247
 31
0.0
  0
LINE
  5
EC59
330
EB99
100
AcDbEntity
  8
0
100
AcDbLine
 10
14.88650534869796
 20
-71.61298860374668
 30
0.0
 11
15.5443348648486
 21
-68.39833933049942
 31
0.0
  0
LINE
  5
EC5A
330
EB99
100
AcDbEntity
  8
0
100
AcDbLine
 10
16.04681344277349
 20
-67.9527657752364
 30
0.0
 11
16.73963376580104
 21
-68.3527657752364
 31
0.0
  0
LINE
  5
EC5B
330
EB99
100
AcDbEntity
  8
0
100
AcDbLine
 10
16.14837457627931
 20
-67.8739284191553
 30
0.0
 11
16.75712835217428
 21
-68.22539257553845
 31
0.0
  0
ELLIPSE
  5
EC5C
330
EB99
100
AcDbEntity
  8
0
100
AcDbEllipse
 10
1.382563432305414
 20
-85.92899941309898
 30
0.0
 11
1.24999999999987
 21
2.165063509461171
 31
0.0
210
0.0
220
0.0
230
1.0
 40
0.5773502691896259
 41
3.579741684173535
 42
5.845036276595007
  0
LINE
  5
EC5D
330
EB99
100
AcDbEntity
  8
0
100
AcDbLine
 10
-39.18293073611849
 20
-39.99183993879048
 30
0.0
 11
-52.6829307355272
 21
-63.37452583927515
 31
0.0
  0
LINE
  5
EC5E
330
EB99
100
AcDbEntity
  8
0
100
AcDbLine
 10
-38.12227056433854
 20
-40.60421237448635
 30
0.0
 11
-51.62227056374736
 21
-63.98689827497094
 31
0.0
  0
ELLIPSE
  5
EC5F
330
EB99
100
AcDbEntity
  8
0
100
AcDbEllipse
 10
-47.43293073545892
 20
-63.51886340661192
 30
0.0
 11
1.24999999999987
 21
2.165063509461172
 31
0.0
210
0.0
220
0.0
230
1.0
 40
0.5773502691896254
 41
3.579741684173528
 42
5.845036276595005
  0
ELLIPSE
  5
EC60
330
EB99
100
AcDbEntity
  8
0
100
AcDbEllipse
 10
-34.47539898057748
 20
-49.34926275876036
 30
0.0
 11
-0.4000000000072799
 21
-0.6928203230233481
 31
0.0
210
0.0
220
0.0
230
1.0
 40
0.5773502691896257
 41
0.0000000000727865
 42
2.094395102429588
  0
LINE
  5
EC61
330
EB99
100
AcDbEntity
  8
0
100
AcDbLine
 10
-33.92898881906638
 20
-49.20285259725961
 30
0.0
 11
-33.27115930291573
 21
-45.98820332401232
 31
0.0
  0
LINE
  5
EC62
330
EB99
100
AcDbEntity
  8
0
100
AcDbLine
 10
-32.86832864728656
 20
-49.8152250329554
 30
0.0
 11
-33.92898881906638
 21
-49.20285259725961
 31
0.0
  0
LINE
  5
EC63
330
EB99
100
AcDbEntity
  8
0
100
AcDbLine
 10
-32.0758604019633
 20
-45.94262976874931
 30
0.0
 11
-32.86832864728656
 21
-49.8152250329554
 31
0.0
  0
LINE
  5
EC64
330
EB99
100
AcDbEntity
  8
0
100
AcDbLine
 10
-32.0758604019633
 20
-45.94262976874931
 30
0.0
 11
-32.76868072499814
 21
-45.54262976874511
 31
0.0
  0
ELLIPSE
  5
EC65
330
EB99
100
AcDbEntity
  8
0
100
AcDbEllipse
 10
-32.62227056347441
 20
-46.08903993025006
 30
0.0
 11
0.4000000000000005
 21
0.6928203230275525
 31
0.0
210
0.0
220
0.0
230
1.0
 40
0.5773502691896255
 41
5.235987755964798
 42
7.330382858357998
  0
LINE
  5
EC66
330
EB99
100
AcDbEntity
  8
0
100
AcDbLine
 10
-35.72621247972321
 20
-48.16522503286531
 30
0.0
 11
-32.76868072497824
 21
-45.54262976872748
 31
0.0
  0
ELLIPSE
  5
EC67
330
EB99
100
AcDbEntity
  8
0
100
AcDbEllipse
 10
-35.57980231821937
 20
-48.71163519438789
 30
0.0
 11
-0.4000000000072796
 21
-0.6928203230233496
 31
0.0
210
0.0
220
0.0
230
1.0
 40
0.5773502691896258
 41
4.188790204822796
 42
6.283185307252384
  0
LINE
  5
EC68
330
EB99
100
AcDbEntity
  8
0
100
AcDbLine
 10
-33.81473880880495
 20
-50.65445551747949
 30
0.0
 11
-35.97980231822665
 21
-49.40445551741126
 31
0.0
  0
ELLIPSE
  5
EC69
330
EB99
100
AcDbEntity
  8
0
100
AcDbEllipse
 10
-33.41473880879767
 20
-49.96163519445615
 30
0.0
 11
-0.4000000000000412
 21
-0.6928203230275275
 31
0.0
210
0.0
220
0.0
230
0.9999999999999998
 40
0.5773502691896258
 41
0.0
 42
2.094395102375107
  0
ELLIPSE
  5
EC6A
330
EB99
100
AcDbEntity
  8
0
100
AcDbEllipse
 10
-46.37227056367913
 20
-64.13123584230769
 30
0.0
 11
1.250000000000128
 21
2.165063509461022
 31
0.0
210
0.0
220
0.0
230
1.0
 40
0.5773502691896259
 41
0.0
 42
6.283185307179586
  0
LINE
  5
EC6B
330
EB99
100
AcDbEntity
  8
0
100
AcDbLine
 10
4.865538784699192
 20
-15.62436098387999
 30
0.0
 11
-32.69800649519088
 21
-80.68632992106374
 31
0.0
  0
LINE
  5
EC6C
330
EB99
100
AcDbEntity
  8
0
100
AcDbLine
 10
-33.42227056390285
 20
-80.26817586602858
 30
0.0
 11
-32.69800649519093
 21
-80.6863299210638
 31
0.0
  0
LINE
  5
EC6D
330
EB99
100
AcDbEntity
  8
0
100
AcDbLine
 10
-33.42227056390283
 20
-80.26817586602858
 30
0.0
 11
3.2777294353092
 21
-16.70191122961548
 31
0.0
  0
ENDBLK
  5
EB9B
330
EB99
100
AcDbEntity
  8
0
100
AcDbBlockEnd
  0
ENDSEC
  0
SECTION
  2
ENTITIES
  0
INSERT
  5
EC6E
330
1F
100
AcDbEntity
  8
0
100
AcDbBlockReference
  2
SPR64_160-Front
 10
0.0
 20
0.0
 30
0.0
  0
INSERT
  5
EC6F
330
1F
100
AcDbEntity
  8
0
100
AcDbBlockReference
  2
SPR64_160-Left
 10
139.4229986469887
 20
0.0
 30
0.0
  0
INSERT
  5
EC70
330
1F
100
AcDbEntity
  8
0
100
AcDbBlockReference
  2
SPR64_160-Right
 10
-139.4229986469887
 20
0.0
 30
0.0
  0
INSERT
  5
EC71
330
1F
100
AcDbEntity
  8
0
100
AcDbBlockReference
  2
SPR64_160-Top
 10
0.0
 20
-120.545601705951
 30
0.0
  0
INSERT
  5
EC72
330
1F
100
AcDbEntity
  8
0
100
AcDbBlockReference
  2
SPR64_160-Bottom
 10
0.0
 20
225.5659080859887
 30
0.0
  0
INSERT
  5
EC73
330
1F
100
AcDbEntity
  8
0
100
AcDbBlockReference
  2
SPR64_160-ISO
 10
192.1059293825158
 20
-238.7692824036392
 30
0.0
  0
MTEXT
  5
EC74
330
1F
100
AcDbEntity
  8
0
100
AcDbMText
 10
0.0
 20
-267.4445760657997
 30
0.0
 40
21.44969209953672
 41
0.0
 71
     5
 72
     5
  1
SPR64/160
 73
     1
 44
1.0
1001
ACAD
1000
MTEXTBEGIN
1070
    73
1070
     1
1070
    44
1040
1.0
1070
    74
1070
     0
1000
MTEXTEND
  0
ENDSEC
  0
SECTION
  2
OBJECTS
  0
DICTIONARY
  5
C
330
0
100
AcDbDictionary
281
     1
  3
ACAD_CIP_PREVIOUS_PRODUCT_INFO
350
216
  3
ACAD_COLOR
350
6B
  3
ACAD_DETAILVIEWSTYLE
350
21B
  3
ACAD_GROUP
350
D
  3
ACAD_LAYOUT
350
1A
  3
ACAD_MATERIAL
350
6A
  3
ACAD_MLEADERSTYLE
350
12D
  3
ACAD_MLINESTYLE
350
17
  3
ACAD_PLOTSETTINGS
350
19
  3
ACAD_PLOTSTYLENAME
350
E
  3
ACAD_SCALELIST
350
10C
  3
ACAD_SECTIONVIEWSTYLE
350
219
  3
ACAD_TABLESTYLE
350
7E
  3
ACAD_VISUALSTYLE
350
EF
  3
ACDB_RECOMPOSE_DATA
350
ED75
  3
AcDbVariableDictionary
350
5E
  3
DWGPROPS
350
ED76
  0
DICTIONARY
  5
ECC5
330
8
100
AcDbDictionary
280
     1
281
     1
  0
DICTIONARY
  5
1FF
330
2
100
AcDbDictionary
280
     1
281
     1
  3
ACAD_LAYERSTATES
360
200
  0
DICTIONARY
  5
13C
330
10
100
AcDbDictionary
280
     1
281
     1
  0
DICTIONARY
  5
1CE
330
1F
100
AcDbDictionary
280
     1
281
     1
  3
ACAD_LAYOUTSELFREF
360
ECCD
  0
DICTIONARY
  5
EC78
330
D2
100
AcDbDictionary
280
     1
281
     1
  3
ACAD_LAYOUTSELFREF
360
ECD6
  0
DICTIONARY
  5
EC7A
330
D6
100
AcDbDictionary
280
     1
281
     1
  3
ACAD_LAYOUTSELFREF
360
ECD9
  0
XRECORD
  5
216
102
{ACAD_REACTORS
330
C
102
}
330
C
100
AcDbXrecord
280
     1
300
ACD
300
2021
300
87393ACD_2021_0F
  0
DICTIONARY
  5
6B
102
{ACAD_REACTORS
330
C
102
}
330
C
100
AcDbDictionary
281
     1
  0
DICTIONARY
  5
21B
102
{ACAD_REACTORS
330
C
102
}
330
C
100
AcDbDictionary
281
     1
  3
Metric50
350
21C
  0
DICTIONARY
  5
D
102
{ACAD_REACTORS
330
C
102
}
330
C
100
AcDbDictionary
281
     1
  0
DICTIONARY
  5
1A
102
{ACAD_REACTORS
330
C
102
}
330
C
100
AcDbDictionary
281
     1
  3
Layout1
350
D3
  3
Layout2
350
D7
  3
Model
350
22
  0
DICTIONARY
  5
6A
102
{ACAD_REACTORS
330
C
102
}
330
C
100
AcDbDictionary
281
     1
  3
ByBlock
350
ED
  3
ByLayer
350
EC
  3
Global
350
EE
  0
DICTIONARY
  5
12D
102
{ACAD_REACTORS
330
C
102
}
330
C
100
AcDbDictionary
281
     1
  3
Standard
350
12E
  0
DICTIONARY
  5
17
102
{ACAD_REACTORS
330
C
102
}
330
C
100
AcDbDictionary
281
     1
  3
Standard
350
18
  0
DICTIONARY
  5
19
102
{ACAD_REACTORS
330
C
102
}
330
C
100
AcDbDictionary
281
     1
  0
ACDBDICTIONARYWDFLT
  5
E
102
{ACAD_REACTORS
330
C
102
}
330
C
100
AcDbDictionary
281
     1
  3
Normal
350
F
100
AcDbDictionaryWithDefault
340
F
  0
DICTIONARY
  5
10C
102
{ACAD_REACTORS
330
C
102
}
330
C
100
AcDbDictionary
281
     1
  3
A0
350
10D
  3
A1
350
1BE
  3
A2
350
1BF
  3
A3
350
1C0
  3
A4
350
1C1
  3
A5
350
1C2
  3
A6
350
1C3
  3
A7
350
1C4
  3
A8
350
1C5
  3
A9
350
1C6
  3
B0
350
1C7
  3
B1
350
1C8
  3
B2
350
1C9
  3
B3
350
1CA
  3
B4
350
1CB
  3
B5
350
1CC
  3
B6
350
1CD
  0
DICTIONARY
  5
219
102
{ACAD_REACTORS
330
C
102
}
330
C
100
AcDbDictionary
281
     1
  3
Metric50
350
21A
  0
DICTIONARY
  5
7E
102
{ACAD_REACTORS
330
C
102
}
330
C
100
AcDbDictionary
281
     1
  3
Standard
350
7F
  0
DICTIONARY
  5
EF
102
{ACAD_REACTORS
330
C
102
}
330
C
100
AcDbDictionary
281
     1
  3
2dWireframe
350
F5
  3
Basic
350
F4
  3
Brighten
350
FB
  3
ColorChange
350
FF
  3
Conceptual
350
F8
  3
Dim
350
FA
  3
EdgeColorOff
350
1E6
  3
Facepattern
350
FE
  3
Flat
350
F0
  3
FlatWithEdges
350
F1
  3
Gouraud
350
F2
  3
GouraudWithEdges
350
F3
  3
Hidden
350
F7
  3
JitterOff
350
1E4
  3
Linepattern
350
FD
  3
OverhangOff
350
1E5
  3
Realistic
350
F9
  3
Shaded
350
1F3
  3
Shaded with edges
350
1F2
  3
Shades of Gray
350
1EF
  3
Sketchy
350
1F0
  3
Thicken
350
FC
  3
Wireframe
350
F6
  3
X-Ray
350
1F1
  0
XRECORD
  5
ED75
102
{ACAD_REACTORS
330
C
102
}
330
C
100
AcDbXrecord
280
     1
 90
        1
330
7F
  0
DICTIONARY
  5
5E
102
{ACAD_REACTORS
330
C
102
}
330
C
100
AcDbDictionary
281
     1
  3
CANNOSCALE
350
146
  3
CENTEREXE
350
259
  3
CENTERLTYPEFILE
350
25A
  3
CMLEADERSTYLE
350
145
  3
CTABLESTYLE
350
84
  3
CVIEWDETAILSTYLE
350
227
  3
CVIEWSECTIONSTYLE
350
228
  3
DIMASSOC
350
5F
  3
HIDETEXT
350
63
  3
INDEXCTL
350
ED22
  3
LAYEREVAL
350
1AE
  3
LAYERNOTIFY
350
1AF
  3
LIGHTINGUNITS
350
ED20
  3
MSLTSCALE
350
ED1F
  3
PSOLHEIGHT
350
ED72
  3
PSOLWIDTH
350
ED71
  3
SORTENTS
350
ED21
  3
XCLIPFRAME
350
ED73
  0
XRECORD
  5
ED76
102
{ACAD_REACTORS
330
C
102
}
330
C
100
AcDbXrecord
280
     1
  1
DWGPROPS COOKIE
  2

  3

  4

  6

  7

  8
truole
  9

300
=
301
=
302
=
303
=
304
=
305
=
306
=
307
=
308
=
309
=
 40
0.0025694444444444
 41
2460719.40650463
 42
2460719.414907408
  1

 90
        0
  0
DICTIONARY
  5
200
102
{ACAD_REACTORS
330
1FF
102
}
330
1FF
100
AcDbDictionary
281
     1
  0
XRECORD
  5
ECCD
102
{ACAD_REACTORS
330
1CE
102
}
330
1CE
100
AcDbXrecord
280
     1
340
1F
  0
XRECORD
  5
ECD6
102
{ACAD_REACTORS
330
EC78
102
}
330
EC78
100
AcDbXrecord
280
     1
340
D2
  0
XRECORD
  5
ECD9
102
{ACAD_REACTORS
330
EC7A
102
}
330
EC7A
100
AcDbXrecord
280
     1
340
D6
  0
ACDBDETAILVIEWSTYLE
  5
21C
102
{ACAD_XDICTIONARY
360
EDB5
102
}
102
{ACAD_REACTORS
330
21B
102
}
330
21B
100
AcDbModelDocViewStyle
 70
     0
  3
Metric50
290
     0
100
AcDbDetailViewStyle
 70
     0
 71
     0
 90
        3
 71
     1
340
11
 40
5.0
340
0
 40
5.0
300

 40
0.0
280
     1
 71
     2
340
16
 90
       25
 71
     3
340
11
 40
5.0
 90
        0
 40
15.0
 90
        1
300
%<\AcVar ViewDetailId>% (%<\AcVar ViewScale \f "%sn">%)
 71
     4
340
16
 90
       25
340
16
 90
       25
280
     0
  0
LAYOUT
  5
D3
102
{ACAD_XDICTIONARY
360
ED7A
102
}
102
{ACAD_REACTORS
330
1A
102
}
330
1A
100
AcDbPlotSettings
  1

  2
C:\Documents and Settings\basas\Application Data\Autodesk\AutoCAD 2005\R16.1\enu\plotters\Default Windows System Printer.pc3
  4

  6

 40
0.0
 41
0.0
 42
0.0
 43
0.0
 44
0.0
 45
0.0
 46
0.0
 47
0.0
 48
0.0
 49
0.0
140
0.0
141
0.0
142
1.0
143
1.0
 70
   688
 72
     0
 73
     0
 74
     5
  7

 75
    16
147
1.0
148
0.0
149
0.0
100
AcDbLayout
  1
Layout1
 70
     1
 71
     1
 10
0.0
 20
0.0
 11
12.0
 21
9.0
 12
0.0
 22
0.0
 32
0.0
 14
0.0
 24
0.0
 34
0.0
 15
0.0
 25
0.0
 35
0.0
146
0.0
 13
0.0
 23
0.0
 33
0.0
 16
1.0
 26
0.0
 36
0.0
 17
0.0
 27
1.0
 37
0.0
 76
     0
330
D2
  0
LAYOUT
  5
D7
102
{ACAD_XDICTIONARY
360
ED7C
102
}
102
{ACAD_REACTORS
330
1A
102
}
330
1A
100
AcDbPlotSettings
  1

  2
C:\Documents and Settings\basas\Application Data\Autodesk\AutoCAD 2005\R16.1\enu\plotters\Default Windows System Printer.pc3
  4

  6

 40
0.0
 41
0.0
 42
0.0
 43
0.0
 44
0.0
 45
0.0
 46
0.0
 47
0.0
 48
0.0
 49
0.0
140
0.0
141
0.0
142
1.0
143
1.0
 70
   688
 72
     0
 73
     0
 74
     5
  7

 75
    16
147
1.0
148
0.0
149
0.0
100
AcDbLayout
  1
Layout2
 70
     1
 71
     2
 10
0.0
 20
0.0
 11
12.0
 21
9.0
 12
0.0
 22
0.0
 32
0.0
 14
0.0
 24
0.0
 34
0.0
 15
0.0
 25
0.0
 35
0.0
146
0.0
 13
0.0
 23
0.0
 33
0.0
 16
1.0
 26
0.0
 36
0.0
 17
0.0
 27
1.0
 37
0.0
 76
     0
330
D6
  0
LAYOUT
  5
22
102
{ACAD_XDICTIONARY
360
ED77
102
}
102
{ACAD_REACTORS
330
1A
102
}
330
1A
100
AcDbPlotSettings
  1

  2
none_device
  4
ISO_A4_(210.00_x_297.00_MM)
  6

 40
7.5
 41
20.0
 42
7.5
 43
20.0
 44
210.0
 45
297.0
 46
11.54999923706054
 47
-13.65000009536743
 48
0.0
 49
0.0
140
0.0
141
0.0
142
1.0
143
8.704084754739808
 70
 11952
 72
     1
 73
     0
 74
     0
  7

 75
     0
147
0.1148885871608098
148
0.0
149
0.0
100
AcDbLayout
  1
Model
 70
     1
 71
     0
 10
0.0
 20
0.0
 11
12.0
 21
9.0
 12
0.0
 22
0.0
 32
0.0
 14
0.0
 24
0.0
 34
0.0
 15
0.0
 25
0.0
 35
0.0
146
0.0
 13
0.0
 23
0.0
 33
0.0
 16
1.0
 26
0.0
 36
0.0
 17
0.0
 27
1.0
 37
0.0
 76
     0
330
1F
331
EA
1001
ACAD_PSEXT
1000
None
1000
None
1000
Not applicable
1000
The layout will not be plotted unless a new plotter configuration name is selected.
1070
     0
  0
MATERIAL
  5
ED
102
{ACAD_XDICTIONARY
360
1F9
102
}
102
{ACAD_REACTORS
330
6A
102
}
330
6A
100
AcDbMaterial
  1
ByBlock
  0
MATERIAL
  5
EC
102
{ACAD_XDICTIONARY
360
1F7
102
}
102
{ACAD_REACTORS
330
6A
102
}
330
6A
100
AcDbMaterial
  1
ByLayer
  0
MATERIAL
  5
EE
102
{ACAD_XDICTIONARY
360
173
102
}
102
{ACAD_REACTORS
330
6A
102
}
330
6A
100
AcDbMaterial
  1
Global
 43
0.0007999999797903
 43
0.0
 43
0.0
 43
0.0
 43
0.0
 43
0.0007999999797903
 43
0.0
 43
0.0
 43
0.0
 43
0.0
 43
1.0
 43
0.0
 43
0.0
 43
0.0
 43
0.0
 43
1.0
 49
0.0007999999797903
 49
0.0
 49
0.0
 49
0.0
 49
0.0
 49
0.0007999999797903
 49
0.0
 49
0.0
 49
0.0
 49
0.0
 49
1.0
 49
0.0
 49
0.0
 49
0.0
 49
0.0
 49
1.0
142
0.0007999999797903
142
0.0
142
0.0
142
0.0
142
0.0
142
0.0007999999797903
142
0.0
142
0.0
142
0.0
142
0.0
142
1.0
142
0.0
142
0.0
142
0.0
142
0.0
142
1.0
144
0.0007999999797903
144
0.0
144
0.0
144
0.0
144
0.0
144
0.0007999999797903
144
0.0
144
0.0
144
0.0
144
0.0
144
1.0
144
0.0
144
0.0
144
0.0
144
0.0
144
1.0
1001
ACAD
1070
    -1
1070
     3
1070
     0
1000

1071
        0
1070
     0
  0
MLEADERSTYLE
  5
12E
102
{ACAD_XDICTIONARY
360
EDA1
102
}
102
{ACAD_REACTORS
330
12D
102
}
330
12D
100
AcDbMLeaderStyle
170
     2
171
     1
172
     0
 90
        2
 40
0.0
 41
0.0
173
     1
 91
-1056964608
340
14
 92
       -2
290
     1
 42
2.0
291
     1
 43
8.0
  3
Standard
 44
4.0
300

342
11
174
     1
178
     1
175
     1
176
     0
 93
-1056964608
 45
4.0
292
     0
297
     0
 46
4.0
 94
-1056964608
 47
1.0
 49
1.0
140
1.0
293
     1
141
0.0
294
     1
177
     0
142
1.0
295
     0
296
     0
143
3.75
1001
ACAD_MLEADERVER
1070
     2
  0
MLINESTYLE
  5
18
102
{ACAD_REACTORS
330
17
102
}
330
17
100
AcDbMlineStyle
  2
STANDARD
 70
     0
  3

 62
   256
 51
90.0
 52
90.0
 71
     2
 49
0.5
 62
   256
  6
BYLAYER
 49
-0.5
 62
   256
  6
BYLAYER
  0
ACDBPLACEHOLDER
  5
F
102
{ACAD_REACTORS
330
E
102
}
330
E
  0
SCALE
  5
10D
102
{ACAD_REACTORS
330
10C
102
}
330
10C
100
AcDbScale
 70
     0
300
1:1
140
1.0
141
1.0
290
     1
  0
SCALE
  5
1BE
102
{ACAD_REACTORS
330
10C
102
}
330
10C
100
AcDbScale
 70
     0
300
1:2
140
1.0
141
2.0
290
     0
  0
SCALE
  5
1BF
102
{ACAD_REACTORS
330
10C
102
}
330
10C
100
AcDbScale
 70
     0
300
1:4
140
1.0
141
4.0
290
     0
  0
SCALE
  5
1C0
102
{ACAD_REACTORS
330
10C
102
}
330
10C
100
AcDbScale
 70
     0
300
1:5
140
1.0
141
5.0
290
     0
  0
SCALE
  5
1C1
102
{ACAD_REACTORS
330
10C
102
}
330
10C
100
AcDbScale
 70
     0
300
1:8
140
1.0
141
8.0
290
     0
  0
SCALE
  5
1C2
102
{ACAD_REACTORS
330
10C
102
}
330
10C
100
AcDbScale
 70
     0
300
1:10
140
1.0
141
10.0
290
     0
  0
SCALE
  5
1C3
102
{ACAD_REACTORS
330
10C
102
}
330
10C
100
AcDbScale
 70
     0
300
1:16
140
1.0
141
16.0
290
     0
  0
SCALE
  5
1C4
102
{ACAD_REACTORS
330
10C
102
}
330
10C
100
AcDbScale
 70
     0
300
1:20
140
1.0
141
20.0
290
     0
  0
SCALE
  5
1C5
102
{ACAD_REACTORS
330
10C
102
}
330
10C
100
AcDbScale
 70
     0
300
1:30
140
1.0
141
30.0
290
     0
  0
SCALE
  5
1C6
102
{ACAD_REACTORS
330
10C
102
}
330
10C
100
AcDbScale
 70
     0
300
1:40
140
1.0
141
40.0
290
     0
  0
SCALE
  5
1C7
102
{ACAD_REACTORS
330
10C
102
}
330
10C
100
AcDbScale
 70
     0
300
1:50
140
1.0
141
50.0
290
     0
  0
SCALE
  5
1C8
102
{ACAD_REACTORS
330
10C
102
}
330
10C
100
AcDbScale
 70
     0
300
1:100
140
1.0
141
100.0
290
     0
  0
SCALE
  5
1C9
102
{ACAD_REACTORS
330
10C
102
}
330
10C
100
AcDbScale
 70
     0
300
2:1
140
2.0
141
1.0
290
     0
  0
SCALE
  5
1CA
102
{ACAD_REACTORS
330
10C
102
}
330
10C
100
AcDbScale
 70
     0
300
4:1
140
4.0
141
1.0
290
     0
  0
SCALE
  5
1CB
102
{ACAD_REACTORS
330
10C
102
}
330
10C
100
AcDbScale
 70
     0
300
8:1
140
8.0
141
1.0
290
     0
  0
SCALE
  5
1CC
102
{ACAD_REACTORS
330
10C
102
}
330
10C
100
AcDbScale
 70
     0
300
10:1
140
10.0
141
1.0
290
     0
  0
SCALE
  5
1CD
102
{ACAD_REACTORS
330
10C
102
}
330
10C
100
AcDbScale
 70
     0
300
100:1
140
100.0
141
1.0
290
     0
  0
ACDBSECTIONVIEWSTYLE
  5
21A
102
{ACAD_XDICTIONARY
360
EDB3
102
}
102
{ACAD_REACTORS
330
219
102
}
330
219
100
AcDbModelDocViewStyle
 70
     0
  3
Metric50
290
     0
100
AcDbSectionViewStyle
 70
     0
 71
     0
 90
      102
 71
     1
340
11
 40
5.0
340
0
340
0
 40
5.0
300
I, O, Q, S, X, Z
 40
10.0
 90
        0
 40
2.5
 90
        0
 71
     2
340
16
 90
       25
340
16
 90
       50
 40
5.0
 40
2.5
 40
5.0
 71
     3
340
11
 40
5.0
 90
        0
 40
15.0
 90
        1
300
%<\AcVar ViewSectionStartId>%-%<\AcVar ViewSectionEndId>% (%<\AcVar ViewScale \f "%sn">%)
 71
     4
300
ANSI31
 40
1.0
 90
        0
290
     0
290
     0
 90
        6
 40
0.0
 40
1.570796326794896
 40
0.2617993877991494
 40
1.308996938995747
 40
-0.2617993877991494
 40
1.832595714594046
  0
TABLESTYLE
  5
7F
102
{ACAD_XDICTIONARY
360
162
102
}
102
{ACAD_REACTORS
330
7E
102
}
330
7E
100
AcDbTableStyle
  3
Standard
 70
     0
 71
     0
 40
1.5
 41
1.5
280
     0
281
     0
  7
Standard
140
4.5
170
     2
 62
     0
 63
     7
283
     0
274
    -2
284
     1
 64
     0
275
    -2
285
     1
 65
     0
276
    -2
286
     1
 66
     0
277
    -2
287
     1
 67
     0
278
    -2
288
     1
 68
     0
279
    -2
289
     1
 69
     0
  7
Standard
140
6.0
170
     5
 62
     0
 63
     7
283
     0
274
    -2
284
     1
 64
     0
275
    -2
285
     1
 65
     0
276
    -2
286
     1
 66
     0
277
    -2
287
     1
 67
     0
278
    -2
288
     1
 68
     0
279
    -2
289
     1
 69
     0
  7
Standard
140
4.5
170
     5
 62
     0
 63
     7
283
     0
274
    -2
284
     1
 64
     0
275
    -2
285
     1
 65
     0
276
    -2
286
     1
 66
     0
277
    -2
287
     1
 67
     0
278
    -2
288
     1
 68
     0
279
    -2
289
     1
 69
     0
  0
VISUALSTYLE
  5
F5
102
{ACAD_XDICTIONARY
360
ED8B
102
}
102
{ACAD_REACTORS
330
EF
102
}
330
EF
100
AcDbVisualStyle
  2
2dWireframe
 70
     4
 71
     0
 72
     2
 73
     1
 90
        0
 40
-0.6
 41
-30.0
 62
     5
 63
     7
 74
     1
 91
        4
 64
     7
 65
   257
 75
     1
175
     1
 42
1.0
 92
        0
 66
   257
 43
1.0
 76
     1
 77
     6
 78
     2
 67
     7
 79
     5
170
     0
171
     0
290
     0
174
     0
 93
        1
 44
0.0
173
     0
291
     0
 45
0.0
1001
ACAD
1000
AcDbSavedByObjectVersion
1070
     0
  0
VISUALSTYLE
  5
F4
102
{ACAD_XDICTIONARY
360
ED89
102
}
102
{ACAD_REACTORS
330
EF
102
}
330
EF
100
AcDbVisualStyle
  2
Basic
 70
     7
 71
     1
 72
     0
 73
     1
 90
        0
 40
-0.6
 41
-30.0
 62
     5
 63
     7
 74
     0
 91
        4
 64
     7
 65
   257
 75
     1
175
     1
 42
1.0
 92
        8
 66
     7
 43
1.0
 76
     1
 77
     6
 78
     2
 67
     7
 79
     5
170
     0
171
     0
290
     0
174
     0
 93
        1
 44
0.0
173
     0
291
     1
 45
0.0
1001
ACAD
1000
AcDbSavedByObjectVersion
1070
     0
  0
VISUALSTYLE
  5
FB
102
{ACAD_XDICTIONARY
360
ED97
102
}
102
{ACAD_REACTORS
330
EF
102
}
330
EF
100
AcDbVisualStyle
  2
Brighten
 70
    12
 71
     2
 72
     2
 73
     1
 90
        0
 40
-0.6
 41
-30.0
 62
     5
 63
     7
 74
     1
 91
        4
 64
     7
 65
   257
 75
     1
175
     1
 42
1.0
 92
        8
 66
     7
 43
1.0
 76
     1
 77
     6
 78
     2
 67
     7
 79
     5
170
     0
171
     0
290
     0
174
     0
 93
        1
 44
50.0
173
     0
291
     1
 45
0.0
1001
ACAD
1000
AcDbSavedByObjectVersion
1070
     0
  0
VISUALSTYLE
  5
FF
102
{ACAD_XDICTIONARY
360
ED9F
102
}
102
{ACAD_REACTORS
330
EF
102
}
330
EF
100
AcDbVisualStyle
  2
ColorChange
 70
    16
 71
     2
 72
     2
 73
     3
 90
        0
 40
-0.6
 41
-30.0
 62
     5
 63
     8
 74
     1
 91
        4
 64
     7
 65
   257
 75
     1
175
     1
 42
1.0
 92
        8
 66
     8
 43
1.0
 76
     1
 77
     6
 78
     2
 67
     7
 79
     5
170
     0
171
     0
290
     0
174
     0
 93
        1
 44
0.0
173
     0
291
     1
 45
0.0
1001
ACAD
1000
AcDbSavedByObjectVersion
1070
     0
  0
VISUALSTYLE
  5
F8
102
{ACAD_XDICTIONARY
360
ED91
102
}
102
{ACAD_REACTORS
330
EF
102
}
330
EF
100
AcDbVisualStyle
  2
Conceptual
 70
     9
 71
     3
 72
     2
 73
     1
 90
        0
 40
-0.6
 41
-30.0
 62
     5
 63
     7
 74
     2
 91
        2
 64
     7
 65
   257
 75
     1
175
     1
 42
40.0
 92
        8
 66
     7
 43
1.0
 76
     1
 77
     6
 78
     2
 67
     7
 79
     3
170
     0
171
     0
290
     0
174
     0
 93
        1
 44
0.0
173
     0
291
     0
 45
0.0
1001
ACAD
1000
AcDbSavedByObjectVersion
1070
     0
  0
VISUALSTYLE
  5
FA
102
{ACAD_XDICTIONARY
360
ED95
102
}
102
{ACAD_REACTORS
330
EF
102
}
330
EF
100
AcDbVisualStyle
  2
Dim
 70
    11
 71
     2
 72
     2
 73
     1
 90
        0
 40
-0.6
 41
-30.0
 62
     5
 63
     7
 74
     1
 91
        4
 64
     7
 65
   257
 75
     1
175
     1
 42
1.0
 92
        8
 66
     7
 43
1.0
 76
     1
 77
     6
 78
     2
 67
     7
 79
     5
170
     0
171
     0
290
     0
174
     0
 93
        1
 44
-50.0
173
     0
291
     1
 45
0.0
1001
ACAD
1000
AcDbSavedByObjectVersion
1070
     0
  0
VISUALSTYLE
  5
1E6
102
{ACAD_XDICTIONARY
360
EDA7
102
}
102
{ACAD_REACTORS
330
EF
102
}
330
EF
100
AcDbVisualStyle
  2
EdgeColorOff
 70
    22
 71
     2
 72
     2
 73
     0
 90
        0
 40
-0.6
 41
-30.0
 62
     5
 63
     7
 74
     1
 91
        4
 64
     7
 65
   257
 75
     1
175
     1
 42
1.0
 92
        8
 66
     7
 43
1.0
 76
     1
 77
     6
 78
     2
 67
     7
 79
     5
170
     0
171
     0
290
     0
174
     0
 93
        1
 44
0.0
173
     0
291
     1
 45
0.0
1001
ACAD
1000
AcDbSavedByObjectVersion
1070
     0
  0
VISUALSTYLE
  5
FE
102
{ACAD_XDICTIONARY
360
ED9D
102
}
102
{ACAD_REACTORS
330
EF
102
}
330
EF
100
AcDbVisualStyle
  2
Facepattern
 70
    15
 71
     2
 72
     2
 73
     1
 90
        0
 40
-0.6
 41
-30.0
 62
     5
 63
     7
 74
     1
 91
        4
 64
     7
 65
   257
 75
     1
175
     1
 42
1.0
 92
        8
 66
     7
 43
1.0
 76
     1
 77
     6
 78
     2
 67
     7
 79
     5
170
     0
171
     0
290
     0
174
     0
 93
        1
 44
0.0
173
     0
291
     1
 45
0.0
1001
ACAD
1000
AcDbSavedByObjectVersion
1070
     0
  0
VISUALSTYLE
  5
F0
102
{ACAD_XDICTIONARY
360
ED81
102
}
102
{ACAD_REACTORS
330
EF
102
}
330
EF
100
AcDbVisualStyle
  2
Flat
 70
     0
 71
     2
 72
     1
 73
     1
 90
        2
 40
-0.6
 41
30.0
 62
     5
 63
     7
 74
     0
 91
        0
 64
     7
 65
   257
 75
     1
175
     1
 42
1.0
 92
        8
 66
     7
 43
1.0
 76
     1
 77
     6
 78
     2
 67
     7
 79
     5
170
     0
171
     0
290
     0
174
     0
 93
       13
 44
0.0
173
     0
291
     1
 45
0.0
1001
ACAD
1000
AcDbSavedByObjectVersion
1070
     0
  0
VISUALSTYLE
  5
F1
102
{ACAD_XDICTIONARY
360
ED83
102
}
102
{ACAD_REACTORS
330
EF
102
}
330
EF
100
AcDbVisualStyle
  2
FlatWithEdges
 70
     1
 71
     2
 72
     1
 73
     1
 90
        2
 40
-0.6
 41
30.0
 62
     5
 63
     7
 74
     1
 91
        0
 64
     7
 65
   257
 75
     1
175
     1
 42
1.0
 92
        0
 66
   257
 43
1.0
 76
     1
 77
     6
 78
     2
 67
     7
 79
     5
170
     0
171
     0
290
     0
174
     0
 93
       13
 44
0.0
173
     0
291
     1
 45
0.0
1001
ACAD
1000
AcDbSavedByObjectVersion
1070
     0
  0
VISUALSTYLE
  5
F2
102
{ACAD_XDICTIONARY
360
ED85
102
}
102
{ACAD_REACTORS
330
EF
102
}
330
EF
100
AcDbVisualStyle
  2
Gouraud
 70
     2
 71
     2
 72
     2
 73
     1
 90
        2
 40
-0.6
 41
30.0
 62
     5
 63
     7
 74
     0
 91
        0
 64
     7
 65
   257
 75
     1
175
     1
 42
1.0
 92
        0
 66
     7
 43
1.0
 76
     1
 77
     6
 78
     2
 67
     7
 79
     5
170
     0
171
     0
290
     0
174
     0
 93
       13
 44
0.0
173
     0
291
     1
 45
0.0
1001
ACAD
1000
AcDbSavedByObjectVersion
1070
     0
  0
VISUALSTYLE
  5
F3
102
{ACAD_XDICTIONARY
360
ED87
102
}
102
{ACAD_REACTORS
330
EF
102
}
330
EF
100
AcDbVisualStyle
  2
GouraudWithEdges
 70
     3
 71
     2
 72
     2
 73
     1
 90
        2
 40
-0.6
 41
30.0
 62
     5
 63
     7
 74
     1
 91
        0
 64
     7
 65
   257
 75
     1
175
     1
 42
1.0
 92
        0
 66
   257
 43
1.0
 76
     1
 77
     6
 78
     2
 67
     7
 79
     5
170
     0
171
     0
290
     0
174
     0
 93
       13
 44
0.0
173
     0
291
     1
 45
0.0
1001
ACAD
1000
AcDbSavedByObjectVersion
1070
     0
  0
VISUALSTYLE
  5
F7
102
{ACAD_XDICTIONARY
360
ED8F
102
}
102
{ACAD_REACTORS
330
EF
102
}
330
EF
100
AcDbVisualStyle
  2
Hidden
 70
     6
 71
     1
 72
     2
 73
     2
 90
        0
 40
-0.6
 41
-30.0
 62
     5
 63
     7
 74
     2
 91
        2
 64
     7
 65
   257
 75
     2
175
     1
 42
40.0
 92
        0
 66
   257
 43
1.0
 76
     1
 77
     6
 78
     2
 67
     7
 79
     3
170
     0
171
     0
290
     0
174
     0
 93
        1
 44
0.0
173
     0
291
     0
 45
0.0
1001
ACAD
1000
AcDbSavedByObjectVersion
1070
     0
  0
VISUALSTYLE
  5
1E4
102
{ACAD_XDICTIONARY
360
EDA3
102
}
102
{ACAD_REACTORS
330
EF
102
}
330
EF
100
AcDbVisualStyle
  2
JitterOff
 70
    20
 71
     2
 72
     2
 73
     0
 90
        0
 40
-0.6
 41
-30.0
 62
     5
 63
     7
 74
     1
 91
        4
 64
     7
 65
   257
 75
     1
175
     1
 42
1.0
 92
       10
 66
     7
 43
1.0
 76
     1
 77
     6
 78
     2
 67
     7
 79
     5
170
     0
171
     0
290
     0
174
     0
 93
        1
 44
0.0
173
     0
291
     1
 45
0.0
1001
ACAD
1000
AcDbSavedByObjectVersion
1070
     0
  0
VISUALSTYLE
  5
FD
102
{ACAD_XDICTIONARY
360
ED9B
102
}
102
{ACAD_REACTORS
330
EF
102
}
330
EF
100
AcDbVisualStyle
  2
Linepattern
 70
    14
 71
     2
 72
     2
 73
     1
 90
        0
 40
-0.6
 41
-30.0
 62
     5
 63
     7
 74
     1
 91
        4
 64
     7
 65
   257
 75
     7
175
     7
 42
1.0
 92
        8
 66
     7
 43
1.0
 76
     1
 77
     6
 78
     2
 67
     7
 79
     5
170
     0
171
     0
290
     0
174
     0
 93
        1
 44
0.0
173
     0
291
     1
 45
0.0
1001
ACAD
1000
AcDbSavedByObjectVersion
1070
     0
  0
VISUALSTYLE
  5
1E5
102
{ACAD_XDICTIONARY
360
EDA5
102
}
102
{ACAD_REACTORS
330
EF
102
}
330
EF
100
AcDbVisualStyle
  2
OverhangOff
 70
    21
 71
     2
 72
     2
 73
     0
 90
        0
 40
-0.6
 41
-30.0
 62
     5
 63
     7
 74
     1
 91
        4
 64
     7
 65
   257
 75
     1
175
     1
 42
1.0
 92
        9
 66
     7
 43
1.0
 76
     1
 77
     6
 78
     2
 67
     7
 79
     5
170
     0
171
     0
290
     0
174
     0
 93
        1
 44
0.0
173
     0
291
     1
 45
0.0
1001
ACAD
1000
AcDbSavedByObjectVersion
1070
     0
  0
VISUALSTYLE
  5
F9
102
{ACAD_XDICTIONARY
360
ED93
102
}
102
{ACAD_REACTORS
330
EF
102
}
330
EF
100
AcDbVisualStyle
  2
Realistic
 70
     8
 71
     2
 72
     2
 73
     0
 90
        2
 40
-0.6
 41
30.0
 62
     5
 63
     7
 74
     0
 91
        0
 64
     7
 65
   257
 75
     1
175
     1
 42
1.0
 92
        8
 66
   257
 43
1.0
 76
     1
 77
     6
 78
     2
 67
     7
 79
     3
170
     0
171
     0
290
     0
174
     0
 93
       13
 44
0.0
173
     0
291
     0
 45
0.0
1001
ACAD
1000
AcDbSavedByObjectVersion
1070
     0
  0
VISUALSTYLE
  5
1F3
102
{ACAD_XDICTIONARY
360
EDB1
102
}
102
{ACAD_REACTORS
330
EF
102
}
330
EF
100
AcDbVisualStyle
  2
Shaded
 70
    27
 71
     2
 72
     2
 73
     1
 90
        2
 40
-0.6
 41
30.0
 62
     5
 63
     7
 74
     0
 91
        4
 64
     7
 65
   257
 75
     1
175
     1
 42
1.0
 92
        8
 66
   257
 43
1.0
 76
     1
 77
     6
 78
     2
 67
     8
 79
     3
170
     0
171
     0
290
     0
174
     0
 93
        5
 44
0.0
173
     0
291
     0
 45
0.0
1001
ACAD
1000
AcDbSavedByObjectVersion
1070
     0
  0
VISUALSTYLE
  5
1F2
102
{ACAD_XDICTIONARY
360
EDAF
102
}
102
{ACAD_REACTORS
330
EF
102
}
330
EF
100
AcDbVisualStyle
  2
Shaded with edges
 70
    26
 71
     2
 72
     2
 73
     1
 90
        2
 40
-0.6
 41
30.0
 62
     5
 63
     7
 74
     1
 91
        2
 64
     7
 65
   257
 75
     2
175
     1
 42
1.0
 92
        8
 66
   257
 43
1.0
 76
     1
 77
     6
 78
     2
 67
     7
 79
     3
170
     0
171
     0
290
     0
174
     0
 93
        5
 44
0.0
173
     0
291
     0
 45
0.0
1001
ACAD
1000
AcDbSavedByObjectVersion
1070
     0
  0
VISUALSTYLE
  5
1EF
102
{ACAD_XDICTIONARY
360
EDA9
102
}
102
{ACAD_REACTORS
330
EF
102
}
330
EF
100
AcDbVisualStyle
  2
Shades of Gray
 70
    23
 71
     2
 72
     2
 73
     3
 90
        0
 40
-0.6
 41
-30.0
 62
     5
 63
     7
 74
     2
 91
        2
 64
     7
 65
     7
 75
     1
175
     1
 42
40.0
 92
        8
 66
     7
 43
1.0
 76
     1
 77
     6
 78
     2
 67
     7
 79
     3
170
     0
171
     0
290
     0
174
     0
 93
        1
 44
0.0
173
     0
291
     0
 45
0.0
1001
ACAD
1000
AcDbSavedByObjectVersion
1070
     0
  0
VISUALSTYLE
  5
1F0
102
{ACAD_XDICTIONARY
360
EDAB
102
}
102
{ACAD_REACTORS
330
EF
102
}
330
EF
100
AcDbVisualStyle
  2
Sketchy
 70
    24
 71
     1
 72
     2
 73
     2
 90
        0
 40
-0.6
 41
-30.0
 62
     5
 63
     7
 74
     2
 91
        2
 64
     7
 65
     7
 75
     1
175
     1
 42
40.0
 92
       11
 66
     7
 43
1.0
 76
     1
 77
     6
 78
     2
 67
     7
 79
     6
170
     0
171
     0
290
     0
174
     0
 93
        1
 44
0.0
173
     0
291
     0
 45
0.0
1001
ACAD
1000
AcDbSavedByObjectVersion
1070
     0
  0
VISUALSTYLE
  5
FC
102
{ACAD_XDICTIONARY
360
ED99
102
}
102
{ACAD_REACTORS
330
EF
102
}
330
EF
100
AcDbVisualStyle
  2
Thicken
 70
    13
 71
     2
 72
     2
 73
     1
 90
        0
 40
-0.6
 41
-30.0
 62
     5
 63
     7
 74
     1
 91
        4
 64
     7
 65
   257
 75
     1
175
     1
 42
1.0
 92
       12
 66
     7
 43
1.0
 76
     1
 77
     6
 78
     2
 67
     7
 79
     5
170
     0
171
     0
290
     0
174
     0
 93
        1
 44
0.0
173
     0
291
     1
 45
0.0
1001
ACAD
1000
AcDbSavedByObjectVersion
1070
     0
  0
VISUALSTYLE
  5
F6
102
{ACAD_XDICTIONARY
360
ED8D
102
}
102
{ACAD_REACTORS
330
EF
102
}
330
EF
100
AcDbVisualStyle
  2
Wireframe
 70
     5
 71
     0
 72
     2
 73
     0
 90
        0
 40
-0.6
 41
-30.0
 62
     5
 63
     7
 74
     1
 91
        4
 64
     7
 65
   257
 75
     1
175
     1
 42
1.0
 92
        0
 66
   257
 43
1.0
 76
     1
 77
     6
 78
     2
 67
     7
 79
     3
170
     0
171
     0
290
     0
174
     0
 93
        1
 44
0.0
173
     0
291
     0
 45
0.0
1001
ACAD
1000
AcDbSavedByObjectVersion
1070
     0
  0
VISUALSTYLE
  5
1F1
102
{ACAD_XDICTIONARY
360
EDAD
102
}
102
{ACAD_REACTORS
330
EF
102
}
330
EF
100
AcDbVisualStyle
  2
X-Ray
 70
    25
 71
     2
 72
     2
 73
     1
 90
        1
 40
0.5
 41
-30.0
 62
     5
 63
     7
 74
     1
 91
        0
 64
     7
 65
   257
 75
     1
175
     1
 42
1.0
 92
        8
 66
     7
 43
1.0
 76
     1
 77
     6
 78
     2
 67
     7
 79
     3
170
     0
171
     0
290
     0
174
     0
 93
       13
 44
0.0
173
     0
291
     0
 45
0.0
1001
ACAD
1000
AcDbSavedByObjectVersion
1070
     0
  0
DICTIONARYVAR
  5
146
102
{ACAD_REACTORS
330
5E
102
}
330
5E
100
DictionaryVariables
280
     0
  1
1:1
  0
DICTIONARYVAR
  5
259
102
{ACAD_REACTORS
330
5E
102
}
330
5E
100
DictionaryVariables
280
     0
  1
3.500000
  0
DICTIONARYVAR
  5
25A
102
{ACAD_REACTORS
330
5E
102
}
330
5E
100
DictionaryVariables
280
     0
  1
acadiso.lin
  0
DICTIONARYVAR
  5
145
102
{ACAD_REACTORS
330
5E
102
}
330
5E
100
DictionaryVariables
280
     0
  1
STANDARD
  0
DICTIONARYVAR
  5
84
102
{ACAD_REACTORS
330
5E
102
}
330
5E
100
DictionaryVariables
280
     0
  1
STANDARD
  0
DICTIONARYVAR
  5
227
102
{ACAD_REACTORS
330
5E
102
}
330
5E
100
DictionaryVariables
280
     0
  1
Metric50
  0
DICTIONARYVAR
  5
228
102
{ACAD_REACTORS
330
5E
102
}
330
5E
100
DictionaryVariables
280
     0
  1
Metric50
  0
DICTIONARYVAR
  5
5F
102
{ACAD_REACTORS
330
5E
102
}
330
5E
100
DictionaryVariables
280
     0
  1
2
  0
DICTIONARYVAR
  5
63
102
{ACAD_REACTORS
330
5E
102
}
330
5E
100
DictionaryVariables
280
     0
  1
1
  0
DICTIONARYVAR
  5
ED22
102
{ACAD_REACTORS
330
5E
102
}
330
5E
100
DictionaryVariables
280
     0
  1
0
  0
DICTIONARYVAR
  5
1AE
102
{ACAD_REACTORS
330
5E
102
}
330
5E
100
DictionaryVariables
280
     0
  1
0
  0
DICTIONARYVAR
  5
1AF
102
{ACAD_REACTORS
330
5E
102
}
330
5E
100
DictionaryVariables
280
     0
  1
0
  0
DICTIONARYVAR
  5
ED20
102
{ACAD_REACTORS
330
5E
102
}
330
5E
100
DictionaryVariables
280
     0
  1
2
  0
DICTIONARYVAR
  5
ED1F
102
{ACAD_REACTORS
330
5E
102
}
330
5E
100
DictionaryVariables
280
     0
  1
1
  0
DICTIONARYVAR
  5
ED72
102
{ACAD_REACTORS
330
5E
102
}
330
5E
100
DictionaryVariables
280
     0
  1
80.000000
  0
DICTIONARYVAR
  5
ED71
102
{ACAD_REACTORS
330
5E
102
}
330
5E
100
DictionaryVariables
280
     0
  1
5.000000
  0
DICTIONARYVAR
  5
ED21
102
{ACAD_REACTORS
330
5E
102
}
330
5E
100
DictionaryVariables
280
     0
  1
127
  0
DICTIONARYVAR
  5
ED73
102
{ACAD_REACTORS
330
5E
102
}
330
5E
100
DictionaryVariables
280
     0
  1
2
  0
DICTIONARY
  5
EDB5
330
21C
100
AcDbDictionary
280
     1
281
     1
  3
ACAD_XREC_ROUNDTRIP
360
EDB6
  0
DICTIONARY
  5
ED7A
330
D3
100
AcDbDictionary
280
     1
281
     1
  3
ACAD_XREC_ROUNDTRIP
360
ED7B
  0
DICTIONARY
  5
ED7C
330
D7
100
AcDbDictionary
280
     1
281
     1
  3
ACAD_XREC_ROUNDTRIP
360
ED7D
  0
DICTIONARY
  5
ED77
330
22
100
AcDbDictionary
280
     1
281
     1
  3
ACAD_XREC_ROUNDTRIP
360
ED78
  0
DICTIONARY
  5
1F9
330
ED
100
AcDbDictionary
280
     1
281
     1
  3
ACAD_XREC_ROUNDTRIP
360
ED7F
  3
FBXASSET
360
1FA
  0
DICTIONARY
  5
1F7
330
EC
100
AcDbDictionary
280
     1
281
     1
  3
ACAD_XREC_ROUNDTRIP
360
ED7E
  3
FBXASSET
360
1F8
  0
DICTIONARY
  5
173
330
EE
100
AcDbDictionary
280
     1
281
     1
  3
ACAD_XREC_ROUNDTRIP
360
ED80
  3
BUMPTILE
360
175
  3
DIFFUSETILE
360
174
  3
FBXASSET
360
1FB
  3
OPACITYTILE
360
176
  3
REFLECTIONTILE
360
177
  0
DICTIONARY
  5
EDA1
330
12E
100
AcDbDictionary
280
     1
281
     1
  3
ACAD_XREC_ROUNDTRIP
360
EDA2
  0
DICTIONARY
  5
EDB3
330
21A
100
AcDbDictionary
280
     1
281
     1
  3
ACAD_XREC_ROUNDTRIP
360
EDB4
  0
DICTIONARY
  5
162
330
7F
100
AcDbDictionary
280
     1
281
     1
  3
ACAD_ROUNDTRIP_2008_TABLESTYLE_CELLSTYLEMAP
360
ED74
  3
ACAD_XREC_ROUNDTRIP
360
ED79
  0
DICTIONARY
  5
ED8B
330
F5
100
AcDbDictionary
280
     1
281
     1
  3
ACAD_XREC_ROUNDTRIP
360
ED8C
  0
DICTIONARY
  5
ED89
330
F4
100
AcDbDictionary
280
     1
281
     1
  3
ACAD_XREC_ROUNDTRIP
360
ED8A
  0
DICTIONARY
  5
ED97
330
FB
100
AcDbDictionary
280
     1
281
     1
  3
ACAD_XREC_ROUNDTRIP
360
ED98
  0
DICTIONARY
  5
ED9F
330
FF
100
AcDbDictionary
280
     1
281
     1
  3
ACAD_XREC_ROUNDTRIP
360
EDA0
  0
DICTIONARY
  5
ED91
330
F8
100
AcDbDictionary
280
     1
281
     1
  3
ACAD_XREC_ROUNDTRIP
360
ED92
  0
DICTIONARY
  5
ED95
330
FA
100
AcDbDictionary
280
     1
281
     1
  3
ACAD_XREC_ROUNDTRIP
360
ED96
  0
DICTIONARY
  5
EDA7
330
1E6
100
AcDbDictionary
280
     1
281
     1
  3
ACAD_XREC_ROUNDTRIP
360
EDA8
  0
DICTIONARY
  5
ED9D
330
FE
100
AcDbDictionary
280
     1
281
     1
  3
ACAD_XREC_ROUNDTRIP
360
ED9E
  0
DICTIONARY
  5
ED81
330
F0
100
AcDbDictionary
280
     1
281
     1
  3
ACAD_XREC_ROUNDTRIP
360
ED82
  0
DICTIONARY
  5
ED83
330
F1
100
AcDbDictionary
280
     1
281
     1
  3
ACAD_XREC_ROUNDTRIP
360
ED84
  0
DICTIONARY
  5
ED85
330
F2
100
AcDbDictionary
280
     1
281
     1
  3
ACAD_XREC_ROUNDTRIP
360
ED86
  0
DICTIONARY
  5
ED87
330
F3
100
AcDbDictionary
280
     1
281
     1
  3
ACAD_XREC_ROUNDTRIP
360
ED88
  0
DICTIONARY
  5
ED8F
330
F7
100
AcDbDictionary
280
     1
281
     1
  3
ACAD_XREC_ROUNDTRIP
360
ED90
  0
DICTIONARY
  5
EDA3
330
1E4
100
AcDbDictionary
280
     1
281
     1
  3
ACAD_XREC_ROUNDTRIP
360
EDA4
  0
DICTIONARY
  5
ED9B
330
FD
100
AcDbDictionary
280
     1
281
     1
  3
ACAD_XREC_ROUNDTRIP
360
ED9C
  0
DICTIONARY
  5
EDA5
330
1E5
100
AcDbDictionary
280
     1
281
     1
  3
ACAD_XREC_ROUNDTRIP
360
EDA6
  0
DICTIONARY
  5
ED93
330
F9
100
AcDbDictionary
280
     1
281
     1
  3
ACAD_XREC_ROUNDTRIP
360
ED94
  0
DICTIONARY
  5
EDB1
330
1F3
100
AcDbDictionary
280
     1
281
     1
  3
ACAD_XREC_ROUNDTRIP
360
EDB2
  0
DICTIONARY
  5
EDAF
330
1F2
100
AcDbDictionary
280
     1
281
     1
  3
ACAD_XREC_ROUNDTRIP
360
EDB0
  0
DICTIONARY
  5
EDA9
330
1EF
100
AcDbDictionary
280
     1
281
     1
  3
ACAD_XREC_ROUNDTRIP
360
EDAA
  0
DICTIONARY
  5
EDAB
330
1F0
100
AcDbDictionary
280
     1
281
     1
  3
ACAD_XREC_ROUNDTRIP
360
EDAC
  0
DICTIONARY
  5
ED99
330
FC
100
AcDbDictionary
280
     1
281
     1
  3
ACAD_XREC_ROUNDTRIP
360
ED9A
  0
DICTIONARY
  5
ED8D
330
F6
100
AcDbDictionary
280
     1
281
     1
  3
ACAD_XREC_ROUNDTRIP
360
ED8E
  0
DICTIONARY
  5
EDAD
330
1F1
100
AcDbDictionary
280
     1
281
     1
  3
ACAD_XREC_ROUNDTRIP
360
EDAE
  0
XRECORD
  5
EDB6
102
{ACAD_REACTORS
330
EDB5
102
}
330
EDB5
100
AcDbXrecord
280
     1
102
DISPLAYNAME
  1
Metric50
102
FLAGS
 90
        0
  0
XRECORD
  5
ED7B
102
{ACAD_REACTORS
330
ED7A
102
}
330
ED7A
100
AcDbXrecord
280
     1
102
SHADEPLOT
 70
     0
102
SHADEPLOTRESLEVEL
 70
     2
102
SHADEPLOTCUSTOMDPI
 70
   300
  0
XRECORD
  5
ED7D
102
{ACAD_REACTORS
330
ED7C
102
}
330
ED7C
100
AcDbXrecord
280
     1
102
SHADEPLOT
 70
     0
102
SHADEPLOTRESLEVEL
 70
     2
102
SHADEPLOTCUSTOMDPI
 70
   300
  0
XRECORD
  5
ED78
102
{ACAD_REACTORS
330
ED77
102
}
330
ED77
100
AcDbXrecord
280
     1
102
SHADEPLOT
 70
     0
102
SHADEPLOTRESLEVEL
 70
     2
102
SHADEPLOTCUSTOMDPI
 70
   300
  0
XRECORD
  5
ED7F
102
{ACAD_REACTORS
330
1F9
102
}
330
1F9
100
AcDbXrecord
280
     1
102
MATERIAL
148
0.0
149
0.0
149
0.0
 93
        0
 94
       63
282
     0
 72
     1
 77
     1
171
     1
175
     1
179
     1
273
     0
  0
XRECORD
  5
1FA
102
{ACAD_REACTORS
330
1F9
102
}
330
1F9
100
AcDbXrecord
280
     1
 70
     1
 90
429727718
  1
D62C5603-E3A1-4AEA-B7FB-FE5D8D0755AF
310
504B03040A0000080000CC70623B3DEE336E79000000790000001B0000006175746F6465736B2D64657369676E2D7061636B6167652E786D6C3C3F786D6C2076657273696F6E3D22312E302220656E636F64696E673D227574662D3822203F3E3C666F726D6174733E3C666F726D61743E687474703A2F2F736368656D612E
310
6175746F6465736B2E636F6D2F64657369676E2D7061636B6167652F323030393C2F666F726D61743E3C2F666F726D6174733E504B0304140006080800CC70623BD486FD9CA0000000F4000000130000005B436F6E74656E745F54797065735D2E786D6C7D8EC10E82300C865F65E91D8A1E8C310C0EEA1BF002731658846E
310
D98AC1B77784ABF1D8FE5FBFBF75BBCE937A534CCEB38643598122B6FEE978D0B0485F9C41B54DDD7D022595594E1A469170414C76A4D9A4D207E29CF43ECE46F218070CC6BECC4078ACAA135ACF422C856C0E68EA1BF5669944DDD7BCDE7B1F8E415D77AECB980613C2E4AC91FC167A2B244592486606FC29C8FD7F045B9A
310
EF7053A7E60B504B0304140006080800CC70623B853B8169EB0000007C01000008000000636F72652E786D6C8D90416EC3201045AF62CDB6C206821CC7C244919D9CA01740401C94182C03558F5F9C3852BBEB6A467FFE9B197D7EFC9E1EC5975982F5AE035262288C535E5B377690E21535501C055FBC8FBF6C503839990E
310
5619041F179FE64D52DE45E362569DD7661365082642A11EB9E920A89B99642953CC8E702F67A9EE7234257977194EC9EAE275C4EABCCF5EAD5940D4AC6F0E35A568B8F43562CD7046CD199FD07E60174276A7BE677B5EADB0E0D14EEFFB6A31321A0D82627C4084204C3F096B71DD52F6819B16635EADF63F509AF53FA164
310
5DDCD1EDDD17164090FCC8732078B56691CB33A85CD7DCC40F504B0304140006080800CC70623B55019EA25F0000007C00000007000000636E782E786D6C4DCB3B0E80201045D1AD90E915ED2CF8AC45050C11660C8261F98AB1B07AC9C97D42D718D865D3E909258CFD00CCE24AC6E326A164D74DC0B4128928FF32603847
310
2BA13128B1252AC747C6BAB984FC68F0B87FE8960A5C09FE86CFB69FBA01504B0304140006080800CC70623BDBABAAF470010000D40300000C0000006662782F636F72652E786D6CC553D16E823014FD95A6AF4B694182CC941A83FA05FB810A9511A125A5257EFE2E82712ECEB8A7F100CD39F7F69E734AF9FADC366850B6
310
AF8DCE7018308C942E4C59EB2AC3DE1D498AD15A706B8CFB56869196ADCAF00863C12B6B7C374385D14E6907A836A59A41D9F7CA615434B0C8705F7CAA5606D23BA8E84F41278B93AC54100640439DE0BDB320004D43C63716C7C399D30917DCFBBA9CD9BA8469F5B156168B24CED3F7248AC8769F27244EB73B92EED8862C
310
B7F13E0C179B3C8F979C8ECD82BBBABDAA2BAC924E9558448CBD9330242CFA08E3154B5651FCC6D215639C8EE5774DBE2B5F6CF2B5768B68963BB5F5588420E442FC700B1139D4CB01F450C1E918227C2E09DF070D8140C84E1E9AAB8F1340832A9CB13130A5F1376A908D57309505ECF2A0DF179C4E9D30F5B239B87E3823
310
7A79C6F31DE1A8A5AEC08474B03C7837EAE4938639B44E5932B833D2C6B6B279CDC613877FA26EE21F4A2A4C63EC7F29A2F301D1F9F7A0E37D145F504B0304140006080800CC70623B9C113CC27E0000009D0000000B0000006662782F636E782E786D6C4DCCDF0A83201C86E15B91DFB94BFB330DD428C8FB886521330DA7
310
6397BF1A1DECE883878F57749FCDA1B7892F1BBC047A23808C7F84D9FA55424E0BE6803A256208E9EF06C84F9B91703228B1C690F78B66B34CD9A5439DF5CF0BFBF65E35BCA1B8D6A5C6F540381E886698B5741C695F9503EBA150A2F8958E3DC3EA0B504B0304140006080800CC70623B7DF2F77C2A010000120200003100
310
00006662782F41393633353835312D344632462D344230382D423046372D3739314545314133324237412F636F72652E786D6C8D51DB8EC22014FC15C2939B0D2DB4B45643319AE817EC0F6041255A68B86CFCFC856D4D76DF7CE190393373060EDB3DC707F856CE6B6B7A480A0C81328395DA5C7B18C3057510EC3873D686
310
3F34088C18550F330C39BB3A1BA7051AAC09CA84841A2BD5020AEF55806078A44B0FFD7053A328440C89E1EFC52486BBB8AA8214A99D789CF9E05200300FC927E4FB4D5B375D43103D5527440FB843077C5AA3F5861C8F645F5787F59E95B390B318B55CE45AA638FAA2957BD7248B390B7A7CC51F9C124149C82B8C378810
310
84AB2F42B7B8DD56F413775B8C5999E9FF4471926F8AA236A1AE96B8B3CC434E5839373893369E1FAF30EA395917409EB7F26AF8801C171837A4A6AC9C89E9F9C9B1A58BA30FD6A5EF5DDDCF894B9AD9B6A59C957943A9FCAE2FD5BC4DFE03504B0304140006080800CC70623BAD7543B64E01000033030000300000006662
310
782F41393633353835312D344632462D344230382D423046372D3739314545314133324237412F636E782E786D6CD593CD6EC32010845F0571AD6CE3D48AD20813A9873E410FBD12D82434182C7EAAE6EDBB2424CD25871E7B41D6EC30B3FA84F9E67BB2E40B4234DE8DB46F1925E094D7C6ED479AD3AE5951B2113C789FEE
310
6C943839C1488B4C05DF079FE72A69D8C96C13AAD6B8631503449F83828872B949AC57D26200B826A308D316B4064D6E46FCDA41C05550DC9E483A00797BFD207EFB092A45DE9514C1BBD22178396BD39D891265658C238DEA00936C654E5E433CB65A26D9F6EDB5EBC14EBF49A45CB856E66048291F6939A9A81BB5C89177
310
38143CA680F4AA299D66A042CEB3354A2684DC9D8D178FE0D9B8B41CAAD720F880EE7EF93C0C18769E099ECC04D5A102C8049A8A05632F4DDF376CF1DE0F6BB65C2F8627B65A33C6BB62177CEBBDAD973006829F89F22E814B54F4BC2BE347F8AA8F681390B50FA73F804400B5F542E796F19FF974E7F78DB802FE05E20750
310
4B0304140006080800CC70623BE75B7789680500003C100000340000006662782F41393633353835312D344632462D344230382D423046372D3739314545314133324237412F6F626A656374732E786D6CAD575B8F9B3818FD2B887D06C22499CB8AA1CA655245D5B455A356FB305264C061D8018C6C3393D95FBFC7600890
310
A4CD5EF210B0B1BFEBF98E3F7B1FF6596ABC522E1296DF9BAE3D320D9A872C4AF2F8DE2CE5CEBA358D0FBEC719939D65A691938CDE9B6ADAF4BD98B3B2D05311DD91329583D9D5FC0F438434A7A611A644887B5384CF34233629258BA878B12322891DEFF6B66BD70BFB62634E8AE781D082709A4B588AF91C528CDA28B73F
310
1C998EEF39EABBEFA97FBD6A7C7E9553F9D3D79FE442923C3C523610337627CB87ABE99D359D4CC6D6E4FACAB5E6ABF9D2726FC6A3C5F56271377BB88362213924694B38DD99FE47C48627A1E7D49F5A8BB5E1A74C0A599ED3B0F21F1E56366B89112D681E218F0915D0D6F17AD41FBA2A369DCF6335D62ABBD39779D5DDD1
310
11D4D8DE3CBB96B2E04FB8202E41051754A1AA8E8F76B4C6DFE810B580B1547F4B84911149794252234D024EF8BBE963A95AE27B3D310A9D5C215C7960FAEE415ED75694C6AFB17BCACA5D99A60A9AA65F217B0BFC53292ACB92BF283FAD0D3621576592CB5BED907C2FA8E9DF794E35E97BEA31BED21FEB401ABB94C44839
310
DCACBF0E1C5DA8DA5B2F4DFFD32AD86F543D9E565E7056502E157C00AD2671CD534549AB752FCA9CDA00677A313F04E51B22FF19E57B300579E3C97EB29F682D92935CEC18CF901B7B54FD8C51F362B56FC72FE0B3C1EAE335EDCCBF5AEC39ADB17DC238973F804BA5E6F6BFE7AF1FB32E523BE9F3BD571418E3631DCA4D48
310
5250CF639223210A9446CA30052EDF057BD35F8329C1ECD84552BF0DC8D18BE7BCE23BFE6BD960AB4A7DE79923A103BEBD80F911CBAA2C60DB19B01CF164A5583B772EE6D3FFA56666CBCDA74DC97724A48F9A58967497E489C4D979006FD7A05E227A1EBDD0F737C623387A9C844D3709995625106D157315F8B8392CD4E0
310
A0B9A720C4BE9829CEF37EA1E13111214D53925356365ADA634861B52519DD27A00AEB808EAF0628E6F435519D446F45CF2C9CF5214F0A15B2F6D06B79DA3EE3CBF7F56780D2F4E7EF73A0F5E5B02A38D07DC852C6B7C1FBB6664213E0C39E3EBA7FF4E1AD23EA2829407C85E586727488B751B2DB9502BC7B228A3FD68B6E
310
A65A22397E690AA8D158D7E404EC8CDA235CC3B7D1898680131CEC2CDF2638C65196279577750F15884AEE19F94199155B92B13297978469D4F8D358DF0AEF7631E28DC8F0D9F437D5D39A83B2231A1D52D543813A824EF8D44BCFF2FA6A31BD1E8DAD87F1CCB526B3879935BF59CDADD5C37479BB1CDD4CA7B3556B516589
310
EF352754B706114D9C885EC9131DE6EFEB43D99AFE2391C2F958179413D7CFEF6B1B6DB1E7600F00DE6E5C67454A339A4BA2E0FBA85ED26F045D454F463DBFCE484C2F90F2E5E3666003662ED8F755951A7D1BECD5B30B550B2785C8E7320B7292A4838DDA71BBC863ED7613CAF659337A3354231D4FF4A182A54904C2898C
310
98B28C4AD0CE056CCF332A80986E571EE9DBC305BB5FEB7E509220A58D25CF042D712A806AC0AD0C657FDEF80D2D9CEAA2EE4D1C76F60BFE74219A06527D6F82DF6412526107381E55E353090704D085B52408A8913C4ED159D79BDA71BB4BC506F4831350EB6F975CD22D69BF7AC49B91A2C0A9DDA3D5CA36AD20FC478E37
310
E61844E2352865EBCB61A275A65283CAAA9DD27703B4102F5AF51EF5F573B75CBB5AD38BC845F7A49F82A0966A49C2E3EA5EA0ECD326CD965F1DB402C6FA8B51A4658C5C5E2EC9E214602E55810345408596591009A82E7E7FFACA19EEA299B14A0081A705CB3296EBC14CDF658DCD336EA6D1136881AAEB87B81AB9EE53D5
310
F5EB8BC8362082DA24122F98680A4E7930C01A0079749CEA14382A0783E5EBA5A10F8C098456A03D6A4AEB6BB881E2513747552A5DB22C7EDAF83BD5528081A365F7FF06504B0304140006080000CC70623B000000000000000000000000350000006662782F41393633353835312D344632462D344230382D423046372D37
310
39314545314133324237412F76657274696365732E62696E504B0304140006080800CC70623BF270F1330600000004000000360000006662782F41393633353835312D344632462D344230382D423046372D3739314545314133324237412F747269616E676C65732E62696E636660600000504B0304140006080000CC7062
310
3B000000000000000000000000370000006662782F41393633353835312D344632462D344230382D423046372D3739314545314133324237412F617474726962757465732E62696E504B0304140006080800CC70623B08DA0BD19000000041010000360000006662782F41393633353835312D344632462D344230382D4230
310
46372D3739314545314133324237412F6469726563746F72792E786D6C858F410AC3201045AF22B36F53E9A60B35CBEEBAE80D244E44489C6234F4F835464A48035D0DF398FF9F8AF63D0E6CC63039F212F8F9020C7D47C6792B21C5FE7403D62A1188E2E60C98D7234A5830286103A55745067B9D86B8A3CF9C7F90C11DE6
310
07FB144396D7B6A82D282E9A152AD114D5EF2CB866EEE831B8EEA07A7BB5A8D7D61A2BAAEB7FD5F70921FF497D00504B0304140006080800CC70623BEDD1DC58FD000000A00100003B0000006662782F41393633353835312D344632462D344230382D423046372D3739314545314133324237412F7265736F75726365732F
310
636F72652E786D6C8D504B6E833010BD0A9A6D65B00922041947112427E8052C33A156828DFCA97AFC9A40A576D7CDCCE87D344F8F9FBFE667F689CE6B6B3A6039850C8DB2A336530731DC4903D95970676DF82583CCC8193B5861107C72362E3BA4AC096842428D1D7107A5F7182053CF7474E0D507CE32973124857FE48B
310
540F3961CEF244279DE03EB81420DB9EAC1384436FA353E879B1B182C7A8C75DA3C7F453DF353A1075D537A7BA6464B8F535A99AE14A9A2BBD90E350DD183B5CFABE3AF262350B1EF4FC9351399401471025A527C218A1E53BAB5A5AB765F5469B96525EACF23FA6B88CFF34456DC2A1DCE36E360F82A5202F42F062ED2BAD
310
579969AFDD8A6F504B010214000A0000080000CC70623B3DEE336E79000000790000001B00000000000000000000000000000000006175746F6465736B2D64657369676E2D7061636B6167652E786D6C504B01021400140006080800CC70623BD486FD9CA0000000F40000001300000000000000000000000000B20000005B
310
436F6E74656E745F54797065735D2E786D6C504B01021400140006080800CC70623B853B8169EB0000007C010000080000000000000000000000000083010000636F72652E786D6C504B01021400140006080800CC70623B55019EA25F0000007C000000070000000000000000000000000094020000636E782E786D6C504B
310
01021400140006080800CC70623BDBABAAF470010000D40300000C00000000000000000000000000180300006662782F636F72652E786D6C504B01021400140006080800CC70623B9C113CC27E0000009D0000000B00000000000000000000000000B20400006662782F636E782E786D6C504B01021400140006080800CC70
310
623B7DF2F77C2A010000120200003100000000000000000000000000590500006662782F41393633353835312D344632462D344230382D423046372D3739314545314133324237412F636F72652E786D6C504B01021400140006080800CC70623BAD7543B64E010000330300003000000000000000000000000000D2060000
310
6662782F41393633353835312D344632462D344230382D423046372D3739314545314133324237412F636E782E786D6C504B01021400140006080800CC70623BE75B7789680500003C10000034000000000000000000000000006E0800006662782F41393633353835312D344632462D344230382D423046372D3739314545
310
314133324237412F6F626A656374732E786D6C504B01021400140006080000CC70623B0000000000000000000000003500000000000000000000000000280E00006662782F41393633353835312D344632462D344230382D423046372D3739314545314133324237412F76657274696365732E62696E504B01021400140006
310
080800CC70623BF270F133060000000400000036000000000000000000000000007B0E00006662782F41393633353835312D344632462D344230382D423046372D3739314545314133324237412F747269616E676C65732E62696E504B01021400140006080000CC70623B0000000000000000000000003700000000000000
310
000000000000D50E00006662782F41393633353835312D344632462D344230382D423046372D3739314545314133324237412F617474726962757465732E62696E504B01021400140006080800CC70623B08DA0BD1900000004101000036000000000000000000000000002A0F00006662782F41393633353835312D344632
310
462D344230382D423046372D3739314545314133324237412F6469726563746F72792E786D6C504B01021400140006080800CC70623BEDD1DC58FD000000A00100003B000000000000000000000000000E1000006662782F41393633353835312D344632462D344230382D423046372D3739314545314133324237412F7265
310
736F75726365732F636F72652E786D6C504B0506000000000E000E0080040000641100000000
  0
XRECORD
  5
ED7E
102
{ACAD_REACTORS
330
1F7
102
}
330
1F7
100
AcDbXrecord
280
     1
102
MATERIAL
148
0.0
149
0.0
149
0.0
 93
        0
 94
       63
282
     0
 72
     1
 77
     1
171
     1
175
     1
179
     1
273
     0
  0
XRECORD
  5
1F8
102
{ACAD_REACTORS
330
1F7
102
}
330
1F7
100
AcDbXrecord
280
     1
 70
     1
 90
429727718
  1
30362254-06B7-45E0-A893-8CFA70E3D6BC
310
504B03040A0000080000CC70623B3DEE336E79000000790000001B0000006175746F6465736B2D64657369676E2D7061636B6167652E786D6C3C3F786D6C2076657273696F6E3D22312E302220656E636F64696E673D227574662D3822203F3E3C666F726D6174733E3C666F726D61743E687474703A2F2F736368656D612E
310
6175746F6465736B2E636F6D2F64657369676E2D7061636B6167652F323030393C2F666F726D61743E3C2F666F726D6174733E504B0304140006080800CC70623BD486FD9CA0000000F4000000130000005B436F6E74656E745F54797065735D2E786D6C7D8EC10E82300C865F65E91D8A1E8C310C0EEA1BF002731658846E
310
D98AC1B77784ABF1D8FE5FBFBF75BBCE937A534CCEB38643598122B6FEE978D0B0485F9C41B54DDD7D022595594E1A469170414C76A4D9A4D207E29CF43ECE46F218070CC6BECC4078ACAA135ACF422C856C0E68EA1BF5669944DDD7BCDE7B1F8E415D77AECB980613C2E4AC91FC167A2B244592486606FC29C8FD7F045B9A
310
EF7053A7E60B504B0304140006080800CC70623B1EC5D7A3EB0000007C01000008000000636F72652E786D6C8D90416EC3201045AF82665B6103C6756C6122AB4D4ED00B204C5C94182C03558F5F9C3852BBEB6A467FFE9B197D71FC9E6FE8CBACC17AD7032D0820E3B41FAD9B7A48F1820F808E52ACDEC75F36404ECDA687
310
4D0629A6D5A76597B477D1B89855E747B38B2A041301E95B6E7A08FAD3CCAA50296647B8168BD2573599823EBB0CA76447F43862C7BCCF5EAC59410E4DDD9C7973C2755553CCCFA4C603E3040F1565ED3B1FDE4E432BCA0D9622DAF9795FAF464533826484B498524CD807E51D79ED187F21878E10516EF63F505AC67F42C9
310
BA58B1FDDD071640D2FCC87D2045B96591CB3DA85CB7DCE40F504B0304140006080800CC70623B55019EA25F0000007C00000007000000636E782E786D6C4DCB3B0E80201045D1AD90E915ED2CF8AC45050C11660C8261F98AB1B07AC9C97D42D718D865D3E909258CFD00CCE24AC6E326A164D74DC0B4128928FF32603847
310
2BA13128B1252AC747C6BAB984FC68F0B87FE8960A5C09FE86CFB69FBA01504B0304140006080800CC70623B8C9102E971010000D40300000C0000006662782F636F72652E786D6CC5535B6E833010BC8AE5DF0A6C08340F1947A84D4ED00B38C6A128602363A31CBFCB234A53A551FA553EC09AD9F5CE8C31DB9E9B1AF5CA
310
7695D1198E428A91D2D214952E33ECDD315861B4E5CC1AE3BE9561A445A3323CC098B3D21ADFCE9034DA29ED00D5A6503328BA4E398C640D8B0C77F253352214DE4145770A5B214FA2546114020D759C75CE8200340D19DE981F0F6746269C33EFAB6266AB02A655C74A59CCF365BADC27CB5D902ED22848F6340DF238A141
310
BE88E2F57B92BFEDF23523433367AE6A2EEAA455C2A902F398D2751045018D3FA264435F3771F242571B4A1919CA6F9A7C5B3CD9E42BED16F12C776AEB308F40C848FC700B1139D4891EF410CEC810227CC6846F8386402064270EF5C5C709A05E49676C024C61FC95EA45ED154CA5211D1FF4FB8291A913A68E9B83EBBB33
310
E2A7673CDE118E5AE8124C0807CB8377834E366998436B950D7A7746DAD846D4CFD978E0F04FD455FC5D49D2D4C6FE9722321F10997F0F32DC47FE05504B0304140006080800CC70623BFFEA85907E0000009D0000000B0000006662782F636E782E786D6C4DCCD10A83201886E15B91FFDC95D95A811AB6F23E625948A6C3
310
E9D8E5AF46073BFAE0E1E365ED67B3E8ADC3CB78C7815C7240DA3DFC64DCC221C519D7805AC182F7F1EF06C88D9BE6703008B6049F9E274D7A1E938DBB5AE3D6131B2589BA0D3D965551E0B2EA732C9B9A624AAEB41E3A557677029960D9AFB4EF11165F504B0304140006080800CC70623B4FEEA4082C0100001202000031
310
0000006662782F39464131463745442D413632322D343644302D413938332D3331353338454246344243312F636F72652E786D6C8D515B6EC32010BC0AE2AB55850DD871ED0813254D72825EC00192A2C460F1A872FC42ED48ED5F7E00CDCECCCEB26C731F6FE05B39AFADE921293004CA082BB5B9F43086336A21D870E6AC
310
0D7F68109861543DCC30E4ECE26C9C164858139409093556AA051CBC570102714B8F1E7AF1A5C6A11862480C7F2DA6415C878B2A4891CA89C7990F2E050073937C42DE1DB7E4F87ED8A36D4329AA9B3D46DBAEAD504556557BD81DEBDD0761E52CE42C462D17B996298E3E6BE59E35C962CE821E1FF18553435012728A7187
310
0841987E927A8D9B35ADDF70BBC6989599FE4F1427F9A4286A132ABAC49D651EF234CD5CE04CDA78BA3DC2A8FB645D00B9DF8B57E215725C60BCA2A463E54C4CE327C7A65E1C7DB02E7DEFCBF594B864C5CA6CDBD49C957943E9FA5D5FBAF336F90F504B0304140006080800CC70623BAD7543B64E01000033030000300000
310
006662782F39464131463745442D413632322D343644302D413938332D3331353338454246344243312F636E782E786D6CD593CD6EC32010845F0571AD6CE3D48AD20813A9873E410FBD12D82434182C7EAAE6EDBB2424CD25871E7B41D6EC30B3FA84F9E67BB2E40B4234DE8DB46F1925E094D7C6ED479AD3AE5951B2113C
310
789FEE6C943839C1488B4C05DF079FE72A69D8C96C13AAD6B8631503449F83828872B949AC57D26200B826A308D316B4064D6E46FCDA41C05550DC9E483A00797BFD207EFB092A45DE9514C1BBD22178396BD39D891265658C238DEA00936C654E5E433CB65A26D9F6EDB5EBC14EBF49A45CB856E66048291F6939A9A81BB5
310
C8917738143CA680F4AA299D66A042CEB3354A2684DC9D8D178FE0D9B8B41CAAD720F880EE7EF93C0C18769E099ECC04D5A102C8049A8A05632F4DDF376CF1DE0F6BB65C2F8627B65A33C6BB62177CEBBDAD973006829F89F22E814B54F4BC2BE347F8AA8F681390B50FA73F804400B5F542E796F19FF974E7F78DB802FE05
310
E207504B0304140006080800CC70623B16AB87BA640500003C100000340000006662782F39464131463745442D413632322D343644302D413938332D3331353338454246344243312F6F626A656374732E786D6CAD575B6FA33818FD2B887DE6924B3BED8A326A92B68A663B534DD4D13E548A0C38942D60649B369D5FBFC7
310
600890A493BDE42160637FD7F31D7FF63E6FB3D478A55C242CBF3247B66B1A340F5994E4F19559CA8D75611A9F7D8F33263BCB4C232719BD32D5B4E97B316765A1A722BA21652A07B3B7B33F0D11D29C9A46981221AE4C113ED38CD8A4942CA2E2C58E882476BCD9DA23BB5ED8171B73523C0F841684D35CC252CCE79062D4
310
468DFA43D7747CCF51DF7D4FFDEB5593E3AB9CCA9FBEFE241792E4E19EB28198C968BAB8199F5D5A67D3E9C49A9E8F47D6EC76B6B0469F26EEFC7C3EBFBCBEB98462213924694B38DD98FE1D62C393D073EA4FADC5DAF04326852CCF6958F90F0F2B9BB5C48816348F90C7840A68EB78EDF68723159BCEE7891A6B95DDE9D3
310
BCEAEEE8086A6C6F9E5D4B59F0175C10A7A0820BAA5055C7473B5AE3CFDD452D602CD5DF12616444529E90D448938013FE6EFA58AA96F85E4F8C42275708571E98FE6827AF6B2B4AE3D7D83D64E5A64C53054DD3AF90BD06FEA9149565C94FCA0F6B834DC85599E4F2423B24DF0B6AFA979E534DFA9E7A4CC6FA631D486393
310
921829879BF5D781A373557BCB85E97FB90DB62B558F8795179C15944B051F40AB495CF35451D26A4727654E6D8033BD98EF82F21D91FF8AF2DD9982BCF1643BDD4EB516C9492E368C67C88DED563FC36D5EACF66DFF057C3658BDBFA69DF9578B3DA735B64F18C7F20770A9D45CFCF7FCF563D6456A277DBEF78A02637CA2
310
43B90A490AEAB94F72244481D24819A6C0E59B606BFA4B3025981DBB48EAB701D97BF19C577CC77F2D1B6C55A9EF3C732474C0B727303F625995056C3B02963D9EAC146BE78EC5FCEC7FA999EBC5EACBAAE41B12D27B4D2C0BBA49F244E2ECDC81B76B502F113D8F5EE8FB1BE3111CDD4FC2AA9B844CAB1288B68AB90A7CDC
310
1C166AB0D3DC5310625FCC14E779BFD0709F8890A629C9292B1B2DED31A4B0DA928CEE135085754027E3018A397D4D5427D15BD1330B677DC8934285AC3DF45A9EB68FF8F2B8FC0A509AFEECFD0FF2DE25CC6047F7214B195F07EFEB9A094D800F7BFAE8FED187B78EA8A3A400F115961BCAD1215E47C966530AF0EE8128FE
310
58CEBB996A8964FFA529A046635D9353B0336A8F700DDF46271A024E70B0B37C9DE01847591E54DED53D54202AB947E4076556AC49C6CA5C9E1226B7F1A7B1BE15DEED62C41B91E1B3E9AFAAA735036547343A925075041DF0A9979E893B391F8FCFA6967B3EFB644DCF6E5CEBFAE272625DCC6FAF3FB93793C5F90CE1EF57
310
407342756B10D1C489E8953CD1617E5CEECAD6F4EF8914CE5D5D504E5C3F1F9736DA62CFC11E00BCDDB8CC8A9466349744C1F75EBDA4DF09BA8A9E8C7A7E9991989E20E5DBDD6A6003664ED8F7A04A8DBE0DF6EAD9B9AA858342E47399053949D2C146EDB85DE4B176BB0965FBAC19BD19AA918E27FA50C1D22402E144464C
310
59462568E704B6E71915404CB72B8FF4EDE184DDAF753F284990D2C6926782963815403548A70C657FDEF80D2D9CEAA2AE4C1C76F60BFE74219A06527D6582DF6412526107381E55E353090704D085B52408D0933C4ED159D79BDA71BB4BC506F4831350EB6F979CD22D69BF7AC49B91A2C0A9DDA3D5CA36AD20FC478E37E6
310
1844E2352865EBCB6EA275A652E3836BE04EFB400BF1A2556F515F1FBB35B2AB35BD889C744FFA1004B5544B121E57F70215746DD2F5E2C1412B602CBF19455AC6C8E5E9922C4E01E65215385004546899059180EAFCF7A707CE7017CD8CDB0410789AB32C63B91E5CEBBBACB17AC6CD347A022D5075FD106377347AAABA7E
310
7D11590744509B44E205134DC1290F06580320F78E537D3D73540E06CB970B431F185308AD40BBD794D6D77003C5A36E8EAA54BA64597CD8F83BD552A080A365F7FF06504B0304140006080000CC70623B000000000000000000000000350000006662782F39464131463745442D413632322D343644302D413938332D3331
310
353338454246344243312F76657274696365732E62696E504B0304140006080800CC70623BF270F1330600000004000000360000006662782F39464131463745442D413632322D343644302D413938332D3331353338454246344243312F747269616E676C65732E62696E636660600000504B0304140006080000CC70623B
310
000000000000000000000000370000006662782F39464131463745442D413632322D343644302D413938332D3331353338454246344243312F617474726962757465732E62696E504B0304140006080800CC70623B08DA0BD19000000041010000360000006662782F39464131463745442D413632322D343644302D413938
310
332D3331353338454246344243312F6469726563746F72792E786D6C858F410AC3201045AF22B36F53E9A60B35CBEEBAE80D244E44489C6234F4F835464A48035D0DF398FF9F8AF63D0E6CC63039F212F8F9020C7D47C6792B21C5FE7403D62A1188E2E60C98D7234A5830286103A55745067B9D86B8A3CF9C7F90C11DE607
310
FB144396D7B6A82D282E9A152AD114D5EF2CB866EEE831B8EEA07A7BB5A8D7D61A2BAAEB7FD5F70921FF497D00504B0304140006080800CC70623B0D6EF93BFE000000A00100003B0000006662782F39464131463745442D413632322D343644302D413938332D3331353338454246344243312F7265736F75726365732F63
310
6F72652E786D6C8D50596E833010BD0A9ADFCA60B334011947A8694ED00B586642AC041B79A97AFC9A40A5F6AF3F33A3B7689E1E3F7DCD8FEC139DD7D6F4C0720A191A65476DA61E62B892236427C19DB5E1970C322367EC618541F0C9D9B8EC90B226A009093576C41D94DE63804C3DD2D18357379C652E63480A7FCF17A9
310
EE72C29CE5894E3AC17D702940B63D59270887DE46A7D0F36263058F518FBB468FE9A7BE6A7420864373B8D4873369AA8691FA421B3294352543C5CAF65C0F6FEF43CB8BD52C78D0F34F46E550061C419494B6843142CB0F5677F4B52BEB177AEC28E5C52AFF638ACBF84F53D42654E51E77B379102C05791282176B5F693D
310
CB4C7BED567C03504B010214000A0000080000CC70623B3DEE336E79000000790000001B00000000000000000000000000000000006175746F6465736B2D64657369676E2D7061636B6167652E786D6C504B01021400140006080800CC70623BD486FD9CA0000000F40000001300000000000000000000000000B20000005B
310
436F6E74656E745F54797065735D2E786D6C504B01021400140006080800CC70623B1EC5D7A3EB0000007C010000080000000000000000000000000083010000636F72652E786D6C504B01021400140006080800CC70623B55019EA25F0000007C000000070000000000000000000000000094020000636E782E786D6C504B
310
01021400140006080800CC70623B8C9102E971010000D40300000C00000000000000000000000000180300006662782F636F72652E786D6C504B01021400140006080800CC70623BFFEA85907E0000009D0000000B00000000000000000000000000B30400006662782F636E782E786D6C504B01021400140006080800CC70
310
623B4FEEA4082C0100001202000031000000000000000000000000005A0500006662782F39464131463745442D413632322D343644302D413938332D3331353338454246344243312F636F72652E786D6C504B01021400140006080800CC70623BAD7543B64E010000330300003000000000000000000000000000D5060000
310
6662782F39464131463745442D413632322D343644302D413938332D3331353338454246344243312F636E782E786D6C504B01021400140006080800CC70623B16AB87BA640500003C1000003400000000000000000000000000710800006662782F39464131463745442D413632322D343644302D413938332D3331353338
310
454246344243312F6F626A656374732E786D6C504B01021400140006080000CC70623B0000000000000000000000003500000000000000000000000000270E00006662782F39464131463745442D413632322D343644302D413938332D3331353338454246344243312F76657274696365732E62696E504B01021400140006
310
080800CC70623BF270F133060000000400000036000000000000000000000000007A0E00006662782F39464131463745442D413632322D343644302D413938332D3331353338454246344243312F747269616E676C65732E62696E504B01021400140006080000CC70623B0000000000000000000000003700000000000000
310
000000000000D40E00006662782F39464131463745442D413632322D343644302D413938332D3331353338454246344243312F617474726962757465732E62696E504B01021400140006080800CC70623B08DA0BD190000000410100003600000000000000000000000000290F00006662782F39464131463745442D413632
310
322D343644302D413938332D3331353338454246344243312F6469726563746F72792E786D6C504B01021400140006080800CC70623B0D6EF93BFE000000A00100003B000000000000000000000000000D1000006662782F39464131463745442D413632322D343644302D413938332D3331353338454246344243312F7265
310
736F75726365732F636F72652E786D6C504B0506000000000E000E0080040000641100000000
  0
XRECORD
  5
ED80
102
{ACAD_REACTORS
330
173
102
}
330
173
100
AcDbXrecord
280
     1
102
MATERIAL
148
0.0
149
0.0
149
0.0
 93
        0
 94
       63
282
     0
 72
     1
 77
     1
171
     1
175
     1
179
     1
273
     0
  0
XRECORD
  5
175
102
{ACAD_REACTORS
330
173
102
}
330
173
100
AcDbXrecord
280
     1
270
     1
271
     1
  0
XRECORD
  5
174
102
{ACAD_REACTORS
330
173
102
}
330
173
100
AcDbXrecord
280
     1
270
     1
271
     1
  0
XRECORD
  5
1FB
102
{ACAD_REACTORS
330
173
102
}
330
173
100
AcDbXrecord
280
     1
 70
     0
 90
1673772943
  1
ECE7A1D2-D628-4531-984C-D00F80459256
310
504B03040A0000080000CC70623B3DEE336E79000000790000001B0000006175746F6465736B2D64657369676E2D7061636B6167652E786D6C3C3F786D6C2076657273696F6E3D22312E302220656E636F64696E673D227574662D3822203F3E3C666F726D6174733E3C666F726D61743E687474703A2F2F736368656D612E
310
6175746F6465736B2E636F6D2F64657369676E2D7061636B6167652F323030393C2F666F726D61743E3C2F666F726D6174733E504B0304140006080800CC70623BD486FD9CA0000000F4000000130000005B436F6E74656E745F54797065735D2E786D6C7D8EC10E82300C865F65E91D8A1E8C310C0EEA1BF002731658846E
310
D98AC1B77784ABF1D8FE5FBFBF75BBCE937A534CCEB38643598122B6FEE978D0B0485F9C41B54DDD7D022595594E1A469170414C76A4D9A4D207E29CF43ECE46F218070CC6BECC4078ACAA135ACF422C856C0E68EA1BF5669944DDD7BCDE7B1F8E415D77AECB980613C2E4AC91FC167A2B244592486606FC29C8FD7F045B9A
310
EF7053A7E60B504B0304140006080800CC70623BD9DDAED0EC0000007C01000008000000636F72652E786D6C8D90416EC3201045AF82665B61836D9CD8C2444DD39CA01740405C94182C03558F5F9C3852BBEB6A467FFE9B197D7EF89E6EE8CB2CC17A37002D0820E394D7D68D03A478C17B4007C117EFE32F1B20272733C0
310
2A83E0E3E2D3BC49CABB685CCCAAF3DA6CA20CC14440EA969B0182FA34932C648AD911AEC52CD5558EA6A0CF2EC329598D1E47ACCEFBECC59A050463A7EA5833865FEBDD0E37353BE3EE8DBDE3F6786A48D375FBF6CC78B9C282473B3DEFABC5C86834888A900E538A49F5419B9EB47DD5BC907D4F082F57FB1F28CDFA9F50
310
B22ED6D5F6EE030B20687EE43E10BC5CB3C8E51E54AE6B6EE207504B0304140006080800CC70623B55019EA25F0000007C00000007000000636E782E786D6C4DCB3B0E80201045D1AD90E915ED2CF8AC45050C11660C8261F98AB1B07AC9C97D42D718D865D3E909258CFD00CCE24AC6E326A164D74DC0B4128928FF326038
310
472BA13128B1252AC747C6BAB984FC68F0B87FE8960A5C09FE86CFB69FBA01504B0304140006080800CC70623BA24EB22D72010000D40300000C0000006662782F636F72652E786D6CC5535B6E833010BC8AE5DF0A6C5E49888CA3A6694ED00B38E05014B091B1518EDFE511A5A9D228FD2A1F60CDEC7A67C6986DCE4D8D7A
310
69BA4AAB0C073EC548AA5C17952A33ECECD15B61B4E1CC686DBF9561A44423333CC098B3D268D7CE50AE9595CA02AA74216750749DB418E5352C32DCE59FB211BE70162ABA93DF8AFC244AE9073ED050C759670D0840D390E18DF9F1706664C23973AE2A66B62A605A75ACA4C13C4976E1364A12EF355A2EBD384AF65EFA96
310
BC7B8BED2EA6719AAE16FB8491A199335B351775B991C2CA02F390D2D40B028F861F41BCA68B7518BFD0D59A524686F29B26D7164F36B94AD9289CE54E6D1DE6010819891F6E21228B3AD1831EC219194284CF98F06DD01008846CC5A1BEF83801D4CBDC6A1303536877A57A513B0953A94FC707FDBE6064EA84A9E3E6E0FA
310
EE8CF0E9198F7784A316AA0413C2C2F2E0ECA0934D1AE6D05A69BCDE9E91D2A611F573361E38FC1375157F5752AE6B6DFE4B11990F88CCBF0719EE23FF02504B0304140006080800CC70623B408A7D3B7C0000009D0000000B0000006662782F636E782E786D6C4DCCD10A83201886E15B91FFDC552A92A0064DBC8F581632
310
D3703A76F9ABD1C18E3E78F878E5F0D9027ABBFCF2292AE86E2D20171F69F6715550CB827B40839639A5F2770314A7CD293819B45C73AAFB45B35BA61ACAA1C1C7E7855C58C15BC331339661262CC762340413D68D77DA5B42298546CBE6573AF60CEB2F504B0304140006080800CC70623B449FB9BD290100001202000031
310
0000006662782F36394639363044362D344446342D343946362D394244322D3234314243333846323333332F636F72652E786D6C8D515B6EC32010BC0AE22B55850D98B871848994463E412FE002495162B07854397EA176A4F62F3F2C9A9D991D587EB84F37F0AD7D30CEF6905418026DA553C65E7A98E219ED203808EE9D
310
8B7F6810D871D23D2C3014FCE25D9A57483A1BB58D19B54EE9151C43D0110279CB971E06F9A5A7B11A53CC8C70ADE6515EC78BAE4895DB992778883E0700CB907242D17643D7E2538BD869608875438BBAE38922CAC8F1BDD90DB4691A5E2F42C153326A951B95E398B3D1FE599322163C9AE9115F7A3D46ADA0A018778810
310
84E907617BDCEE297BC5BB3DC6BC2EF47FA234AB2745C9D8D8D035EE220B50105E2F0DC1954B9FB747187D9F9D8FA0CCDB042D5FA0C015C65B42DF78BD10F3F3B363CB56C7109DCFDFBBB97E662ED92EB62D13BC2E1BCAE5777DB9966D8A1F504B0304140006080800CC70623BAD7543B64E01000033030000300000006662
310
782F36394639363044362D344446342D343946362D394244322D3234314243333846323333332F636E782E786D6CD593CD6EC32010845F0571AD6CE3D48AD20813A9873E410FBD12D82434182C7EAAE6EDBB2424CD25871E7B41D6EC30B3FA84F9E67BB2E40B4234DE8DB46F1925E094D7C6ED479AD3AE5951B2113C789FEE
310
6C943839C1488B4C05DF079FE72A69D8C96C13AAD6B8631503449F83828872B949AC57D26200B826A308D316B4064D6E46FCDA41C05550DC9E483A00797BFD207EFB092A45DE9514C1BBD22178396BD39D891265658C238DEA00936C654E5E433CB65A26D9F6EDB5EBC14EBF49A45CB856E66048291F6939A9A81BB5C89177
310
38143CA680F4AA299D66A042CEB3354A2684DC9D8D178FE0D9B8B41CAAD720F880EE7EF93C0C18769E099ECC04D5A102C8049A8A05632F4DDF376CF1DE0F6BB65C2F8627B65A33C6BB62177CEBBDAD973006829F89F22E814B54F4BC2BE347F8AA8F681390B50FA73F804400B5F542E796F19FF974E7F78DB802FE05E20750
310
4B0304140006080800CC70623B8D05915C650500003B100000340000006662782F36394639363044362D344446342D343946362D394244322D3234314243333846323333332F6F626A656374732E786D6CAD575B6FA33814FE2B887D06429276DA1565D4266D158D3A339A6846FB502932E050B66023DB74D2FDF5FB190C01
310
9276B2973C046C8ECFF53B17071F77456EBD502133CEAE6CDF9DD81665314F32965ED995DA3A17B6F5310C04E7AA47665B8C14F4CAD6DB7618A48257A5D94AE89654B91AEDDEDDFC61C998326A5B714EA4BCB265FC440BE2924AF184CA6737218AB8E976E7FA6E4338649B0A523E8D98964450A6A029F619B8588D52FE7039
310
B1BD30F0F4F730D0FF866AF6369557DB33949F31A9088B0F848DD8CCFCF9F2767A76E99CCDE733677E3EF59D9BBB9BA5E37F984D16E78BC5E5F5ED25044B25C0C96822E8D60EEFE11B91C581D77CEA34368A1F5329E68CD1B8B61F16D63A1B8E092D294B10C78C4A48EB593D192E7DED9BDEE7995E1B91FDEDD3ACEA9FE831
310
6A756F9F7D4D79F4274C90A7A04248AA51D5F8C718DAE06FB2F75AC4796EBE65D22A88A22223B995679120E2D50E41AA49C260C046A35368846B0BECD0DFF3EBEB8AD4F835768F69B9ADF25C43D30E6B646F807FAA64AD59F61715C7A54127C4AACA98BA3006A9D792DAE165E0D59B61A01FB3A9F9D838D2DAE62445C86166
310
F37564E842E7DE6A69879FEEA2DD5AE7E371E1A5E025154AC307D06A03D73EB5978C58FFA4C8E9033066E0F3BD53BEC1F39F91BE7B55103791EDE6BBB991A2046172CB4581D8B893FA674DDA17A77B3B7C413D1B511FD2743BFF8A38F03A658705E3ADF8015C3A3417FF3D7E439FF591DA0B5F18BC20C1B8981957AE6392A3
310
F43C640C01D1A0B4728E2DD4F26DB4B3C3152A252A3B4E913CEC1C72F012782FF88EFF8637AA552DBEF76408E8A8DE9E50F9E1CB3A2DA0DB1B6039A893B56063DC5B3E3FFB5F72E67AB9FEB4AEC496C4F4C1149625DD662C53E89D7BF0F6151A046260D1337DFDC94502430F83B0EE07A130A224BCAD7DAE1D9FB6CD422FF6
310
920702629C4BB9AE79C12F243C6432A6794E18E5552BA56B431AAB5D91317302B2B071E86C3A42B1A02F999E24061403B5D0EB639195DA655DD3EBEAB4FB862DDF579F014AD0E73C22F99E28DA57FB98E75C6CA2D74D53086D600F4786E0FE3144B771A8A7B900F03594DB8A633CBC49B2EDB69228BB479CF863B5E807AAAB
310
23872F6DFEB4129B949CA33823F58830E86D65621E10047D9DB34D862E8EAC3C2ABC2F7B2C40D67CDFE01F5545B92105AF983AC54D93D69E56FB8E797F88913F898A9FEC705D3F9D1B54EC8426FB500D40A03BD0119B06E1B95DDC7EB8F6975367793EBD70E66733DFB9BC982F9CE564727731999F5D4ECFCE3B8D6A4DC2A0
310
6D50FD148437D110834A64C6CDDF57FBACB5C307A2A477DFE4939736CFEF2B175371E0E10CF0DD1D5C15654E0BCA14D1E87DD02FF93782A162C0A3D95F1524A52770F972BF1EE9809D13CE7DD599467F8ECE9ADD85CE85A34CD45355448C64F9E8A031DC2D596ACC6E5DD93D9B82DE2EF5CAF81363A8E47996A0DE24564A79
310
4115AACE09C55E14540231FDA13C319787134EBF34E3A022514E5B4D9E0826E25C02D5805B15ABE1BEF51B26383D445DD9E875EE33FE4C22DA16427D65A3BCA92CA6D28DD01DF5DC53330704308475351050232CCD31583787BA75774AFB06E5070DD0C8EF484E19968C5D83BA5B90B244D31E54D55A372320FE4786B7EA58
310
44E135AA5467CB7EA333A61683CC6A8C3257034C10CF46F40EF9F5BE59BE5BD30C3C72D235E95D10345C1D45445A5F0BB47E46A5EBE5570F9380B5FA629579952296A773720405982B9DE04011506178964401AA8BDF1FBF0A8EAB6861DD6580C0E38217056766716DAEB2D6FA0917D3E4116581EADB879C4E7CFFB11EFACD
310
3D641311495D92C8676CB409A72D18610D803CE8A626049E8EC1887CB5B44CC39883690DDA8399B4B9855B481E7D71D4A9D22F96E5BB73BF5793020C02137BF837504B0304140006080000CC70623B000000000000000000000000350000006662782F36394639363044362D344446342D343946362D394244322D32343142
310
43333846323333332F76657274696365732E62696E504B0304140006080800CC70623BF270F1330600000004000000360000006662782F36394639363044362D344446342D343946362D394244322D3234314243333846323333332F747269616E676C65732E62696E636660600000504B0304140006080000CC70623B0000
310
00000000000000000000370000006662782F36394639363044362D344446342D343946362D394244322D3234314243333846323333332F617474726962757465732E62696E504B0304140006080800CC70623B08DA0BD19000000041010000360000006662782F36394639363044362D344446342D343946362D394244322D
310
3234314243333846323333332F6469726563746F72792E786D6C858F410AC3201045AF22B36F53E9A60B35CBEEBAE80D244E44489C6234F4F835464A48035D0DF398FF9F8AF63D0E6CC63039F212F8F9020C7D47C6792B21C5FE7403D62A1188E2E60C98D7234A5830286103A55745067B9D86B8A3CF9C7F90C11DE607FB14
310
4396D7B6A82D282E9A152AD114D5EF2CB866EEE831B8EEA07A7BB5A8D7D61A2BAAEB7FD5F70921FF497D00504B0304140006080800CC70623BCA768048FE000000A00100003B0000006662782F36394639363044362D344446342D343946362D394244322D3234314243333846323333332F7265736F75726365732F636F72
310
652E786D6C8D50596E833010BD0A9ADFCA60D600328E9AA639412F609909B1126CE4A5EAF16B0295DABFFECC8CDEA2797AECF8353F924FB44E193D409E5248504B332A3D0D10FC95B4901C39B3C6F85F3248B49871801506CE266BC2B243D2688FDA47549B11775038871E12F988C7004EDE7016A9083E2ADC3D5D84BC8B09
310
D33C8D74D471E6BC8D0192EDC93A815B742658898E651BCB59086ADC356A8C3FD555A1055ED7E7E254D615792D0F075295F585746FF53B694EE78A565DD736979A65AB9933AFE69F8CD2A2F038022F28ED489E135A7CE4554F9BBEA85E68DB53CAB255FEC71496F19FA6A0B42F8B3DEE6673C0F318E4497096AD7DC5F52C33
310
EEB55BFE0D504B010214000A0000080000CC70623B3DEE336E79000000790000001B00000000000000000000000000000000006175746F6465736B2D64657369676E2D7061636B6167652E786D6C504B01021400140006080800CC70623BD486FD9CA0000000F40000001300000000000000000000000000B20000005B436F
310
6E74656E745F54797065735D2E786D6C504B01021400140006080800CC70623BD9DDAED0EC0000007C010000080000000000000000000000000083010000636F72652E786D6C504B01021400140006080800CC70623B55019EA25F0000007C000000070000000000000000000000000095020000636E782E786D6C504B0102
310
1400140006080800CC70623BA24EB22D72010000D40300000C00000000000000000000000000190300006662782F636F72652E786D6C504B01021400140006080800CC70623B408A7D3B7C0000009D0000000B00000000000000000000000000B50400006662782F636E782E786D6C504B01021400140006080800CC70623B
310
449FB9BD290100001202000031000000000000000000000000005A0500006662782F36394639363044362D344446342D343946362D394244322D3234314243333846323333332F636F72652E786D6C504B01021400140006080800CC70623BAD7543B64E010000330300003000000000000000000000000000D20600006662
310
782F36394639363044362D344446342D343946362D394244322D3234314243333846323333332F636E782E786D6C504B01021400140006080800CC70623B8D05915C650500003B10000034000000000000000000000000006E0800006662782F36394639363044362D344446342D343946362D394244322D32343142433338
310
46323333332F6F626A656374732E786D6C504B01021400140006080000CC70623B0000000000000000000000003500000000000000000000000000250E00006662782F36394639363044362D344446342D343946362D394244322D3234314243333846323333332F76657274696365732E62696E504B010214001400060808
310
00CC70623BF270F13306000000040000003600000000000000000000000000780E00006662782F36394639363044362D344446342D343946362D394244322D3234314243333846323333332F747269616E676C65732E62696E504B01021400140006080000CC70623B00000000000000000000000037000000000000000000
310
00000000D20E00006662782F36394639363044362D344446342D343946362D394244322D3234314243333846323333332F617474726962757465732E62696E504B01021400140006080800CC70623B08DA0BD190000000410100003600000000000000000000000000270F00006662782F36394639363044362D344446342D
310
343946362D394244322D3234314243333846323333332F6469726563746F72792E786D6C504B01021400140006080800CC70623BCA768048FE000000A00100003B000000000000000000000000000B1000006662782F36394639363044362D344446342D343946362D394244322D3234314243333846323333332F7265736F
310
75726365732F636F72652E786D6C504B0506000000000E000E0080040000621100000000
  0
XRECORD
  5
176
102
{ACAD_REACTORS
330
173
102
}
330
173
100
AcDbXrecord
280
     1
270
     1
271
     1
  0
XRECORD
  5
177
102
{ACAD_REACTORS
330
173
102
}
330
173
100
AcDbXrecord
280
     1
270
     1
271
     1
  0
XRECORD
  5
EDA2
102
{ACAD_REACTORS
330
EDA1
102
}
330
EDA1
100
AcDbXrecord
280
     1
102
ACAD_ROUNDTRIP_2012_MLEADER_STYLE
298
     1
  0
XRECORD
  5
EDB4
102
{ACAD_REACTORS
330
EDB3
102
}
330
EDB3
100
AcDbXrecord
280
     1
102
DISPLAYNAME
  1
Metric50
102
FLAGS
 90
        0
  0
CELLSTYLEMAP
  5
ED74
102
{ACAD_REACTORS
330
162
102
}
330
162
100
AcDbCellStyleMap
 90
        3
300
CELLSTYLE
  1
TABLEFORMAT_BEGIN
 90
        5
170
     1
 91
        0
 92
    32768
 62
   257
 93
        1
300
CONTENTFORMAT
  1
CONTENTFORMAT_BEGIN
 90
        0
 91
        0
 92
      512
 93
        0
300

 40
0.0
140
1.0
 94
        5
 62
     0
340
11
144
6.0
309
CONTENTFORMAT_END
171
     1
301
MARGIN
  1
CELLMARGIN_BEGIN
 40
1.5
 40
1.5
 40
1.5
 40
1.5
 40
4.5
 40
4.5
309
CELLMARGIN_END
 94
        6
 95
        1
302
GRIDFORMAT
  1
GRIDFORMAT_BEGIN
 90
        0
 91
        1
 62
     0
 92
       -2
340
14
 93
        0
 40
1.125
309
GRIDFORMAT_END
 95
        2
302
GRIDFORMAT
  1
GRIDFORMAT_BEGIN
 90
        0
 91
        1
 62
     0
 92
       -2
340
14
 93
        0
 40
1.125
309
GRIDFORMAT_END
 95
        4
302
GRIDFORMAT
  1
GRIDFORMAT_BEGIN
 90
        0
 91
        1
 62
     0
 92
       -2
340
14
 93
        0
 40
1.125
309
GRIDFORMAT_END
 95
        8
302
GRIDFORMAT
  1
GRIDFORMAT_BEGIN
 90
        0
 91
        1
 62
     0
 92
       -2
340
14
 93
        0
 40
1.125
309
GRIDFORMAT_END
 95
       16
302
GRIDFORMAT
  1
GRIDFORMAT_BEGIN
 90
        0
 91
        1
 62
     0
 92
       -2
340
14
 93
        0
 40
1.125
309
GRIDFORMAT_END
 95
       32
302
GRIDFORMAT
  1
GRIDFORMAT_BEGIN
 90
        0
 91
        1
 62
     0
 92
       -2
340
14
 93
        0
 40
1.125
309
GRIDFORMAT_END
309
TABLEFORMAT_END
  1
CELLSTYLE_BEGIN
 90
        1
 91
        1
300
_TITLE
309
CELLSTYLE_END
300
CELLSTYLE
  1
TABLEFORMAT_BEGIN
 90
        5
170
     1
 91
        0
 92
        0
 62
   257
 93
        1
300
CONTENTFORMAT
  1
CONTENTFORMAT_BEGIN
 90
        0
 91
        0
 92
      512
 93
        0
300

 40
0.0
140
1.0
 94
        5
 62
     0
340
11
144
4.5
309
CONTENTFORMAT_END
171
     1
301
MARGIN
  1
CELLMARGIN_BEGIN
 40
1.5
 40
1.5
 40
1.5
 40
1.5
 40
4.5
 40
4.5
309
CELLMARGIN_END
 94
        6
 95
        1
302
GRIDFORMAT
  1
GRIDFORMAT_BEGIN
 90
        0
 91
        1
 62
     0
 92
       -2
340
14
 93
        0
 40
1.125
309
GRIDFORMAT_END
 95
        2
302
GRIDFORMAT
  1
GRIDFORMAT_BEGIN
 90
        0
 91
        1
 62
     0
 92
       -2
340
14
 93
        0
 40
1.125
309
GRIDFORMAT_END
 95
        4
302
GRIDFORMAT
  1
GRIDFORMAT_BEGIN
 90
        0
 91
        1
 62
     0
 92
       -2
340
14
 93
        0
 40
1.125
309
GRIDFORMAT_END
 95
        8
302
GRIDFORMAT
  1
GRIDFORMAT_BEGIN
 90
        0
 91
        1
 62
     0
 92
       -2
340
14
 93
        0
 40
1.125
309
GRIDFORMAT_END
 95
       16
302
GRIDFORMAT
  1
GRIDFORMAT_BEGIN
 90
        0
 91
        1
 62
     0
 92
       -2
340
14
 93
        0
 40
1.125
309
GRIDFORMAT_END
 95
       32
302
GRIDFORMAT
  1
GRIDFORMAT_BEGIN
 90
        0
 91
        1
 62
     0
 92
       -2
340
14
 93
        0
 40
1.125
309
GRIDFORMAT_END
309
TABLEFORMAT_END
  1
CELLSTYLE_BEGIN
 90
        2
 91
        1
300
_HEADER
309
CELLSTYLE_END
300
CELLSTYLE
  1
TABLEFORMAT_BEGIN
 90
        5
170
     1
 91
        0
 92
        0
 62
   257
 93
        1
300
CONTENTFORMAT
  1
CONTENTFORMAT_BEGIN
 90
        0
 91
        0
 92
      512
 93
        0
300

 40
0.0
140
1.0
 94
        2
 62
     0
340
11
144
4.5
309
CONTENTFORMAT_END
171
     1
301
MARGIN
  1
CELLMARGIN_BEGIN
 40
1.5
 40
1.5
 40
1.5
 40
1.5
 40
4.5
 40
4.5
309
CELLMARGIN_END
 94
        6
 95
        1
302
GRIDFORMAT
  1
GRIDFORMAT_BEGIN
 90
        0
 91
        1
 62
     0
 92
       -2
340
14
 93
        0
 40
1.125
309
GRIDFORMAT_END
 95
        2
302
GRIDFORMAT
  1
GRIDFORMAT_BEGIN
 90
        0
 91
        1
 62
     0
 92
       -2
340
14
 93
        0
 40
1.125
309
GRIDFORMAT_END
 95
        4
302
GRIDFORMAT
  1
GRIDFORMAT_BEGIN
 90
        0
 91
        1
 62
     0
 92
       -2
340
14
 93
        0
 40
1.125
309
GRIDFORMAT_END
 95
        8
302
GRIDFORMAT
  1
GRIDFORMAT_BEGIN
 90
        0
 91
        1
 62
     0
 92
       -2
340
14
 93
        0
 40
1.125
309
GRIDFORMAT_END
 95
       16
302
GRIDFORMAT
  1
GRIDFORMAT_BEGIN
 90
        0
 91
        1
 62
     0
 92
       -2
340
14
 93
        0
 40
1.125
309
GRIDFORMAT_END
 95
       32
302
GRIDFORMAT
  1
GRIDFORMAT_BEGIN
 90
        0
 91
        1
 62
     0
 92
       -2
340
14
 93
        0
 40
1.125
309
GRIDFORMAT_END
309
TABLEFORMAT_END
  1
CELLSTYLE_BEGIN
 90
        3
 91
        2
300
_DATA
309
CELLSTYLE_END
  0
XRECORD
  5
ED79
102
{ACAD_REACTORS
330
162
102
}
330
162
100
AcDbXrecord
280
     1
102
ACAD_ROUNDTRIP_PRE2007_TABLESTYLE
 90
      512
 91
        0
  1

 92
      512
 93
        0
  2

 94
      512
 95
        0
  3

  0
XRECORD
  5
ED8C
102
{ACAD_REACTORS
330
ED8B
102
}
330
ED8B
100
AcDbXrecord
280
     1
102
RTVSPost2010Prop28
280
     1
102
RTVSPost2010PropOp28
 70
     1
102
RTVSPost2010Prop29
280
     1
102
RTVSPost2010PropOp29
 70
     1
102
RTVSPost2010Prop30
280
     0
102
RTVSPost2010PropOp30
 70
     1
102
RTVSPost2010Prop31
280
     0
102
RTVSPost2010PropOp31
 70
     1
102
RTVSPost2010Prop32
280
     0
102
RTVSPost2010PropOp32
 70
     1
102
RTVSPost2010Prop33
280
     0
102
RTVSPost2010PropOp33
 70
     1
102
RTVSPost2010Prop34
280
     0
102
RTVSPost2010PropOp34
 70
     1
102
RTVSPost2010Prop35
280
     0
102
RTVSPost2010PropOp35
 70
     1
102
RTVSPost2010Prop36
280
     0
102
RTVSPost2010PropOp36
 70
     1
102
RTVSPost2010Prop37
 90
       50
102
RTVSPost2010PropOp37
 70
     1
102
RTVSPost2010Prop38
140
0.0
102
RTVSPost2010PropOp38
 70
     1
102
RTVSPost2010Prop39
140
1.0
102
RTVSPost2010PropOp39
 70
     1
102
RTVSPost2010Prop40
 90
        0
102
RTVSPost2010PropOp40
 70
     1
102
RTVSPost2010Prop41ColorIndex
 90
       18
102
RTVSPost2010Prop41ColorRGB
 90
        0
102
RTVSPost2010PropOp41
 70
     1
102
RTVSPost2010Prop42
 90
       50
102
RTVSPost2010PropOp42
 70
     1
102
RTVSPost2010Prop43
 90
        3
102
RTVSPost2010PropOp43
 70
     1
102
RTVSPost2010Prop44ColorIndex
 90
        5
102
RTVSPost2010Prop44ColorRGB
 90
      255
102
RTVSPost2010PropOp44
 70
     1
102
RTVSPost2010Prop45
280
     0
102
RTVSPost2010PropOp45
 70
     1
102
RTVSPost2010Prop46
 90
       50
102
RTVSPost2010PropOp46
 70
     1
102
RTVSPost2010Prop47
 90
       50
102
RTVSPost2010PropOp47
 70
     1
102
RTVSPost2010Prop48
 90
       50
102
RTVSPost2010PropOp48
 70
     1
102
RTVSPost2010Prop49
280
     0
102
RTVSPost2010PropOp49
 70
     1
102
RTVSPost2010Prop50
 90
       50
102
RTVSPost2010PropOp50
 70
     1
102
RTVSPost2010Prop51ColorIndex
 90
      256
102
RTVSPost2010Prop51ColorRGB
 90
-16777216
102
RTVSPost2010PropOp51
 70
     0
102
RTVSPost2010Prop52
140
1.0
102
RTVSPost2010PropOp52
 70
     0
102
RTVSPost2010Prop53
 90
        2
102
RTVSPost2010PropOp53
 70
     1
102
RTVSPost2010Prop54
  1
strokes_ogs.tif
102
RTVSPost2010PropOp54
 70
     1
102
RTVSPost2010Prop55
280
     0
102
RTVSPost2010PropOp55
 70
     1
102
RTVSPost2010Prop56
140
1.0
102
RTVSPost2010PropOp56
 70
     1
102
RTVSPost2010Prop57
140
1.0
102
RTVSPost2010PropOp57
 70
     1
102
RTVSPropertyOp0
 70
     1
102
RTVSPropertyOp1
 70
     1
102
RTVSPropertyOp2
 70
     1
102
RTVSPropertyOp3
 70
     1
102
RTVSPropertyOp4
 70
     1
102
RTVSPropertyOp5
 70
     1
102
RTVSPropertyOp6
 70
     1
102
RTVSPropertyOp7
 70
     1
102
RTVSPropertyOp8
 70
     1
102
RTVSPropertyOp9
 70
     1
102
RTVSPropertyOp10
 70
     1
102
RTVSPropertyOp11
 70
     1
102
RTVSPropertyOp12
 70
     1
102
RTVSPropertyOp13
 70
     1
102
RTVSPropertyOp14
 70
     1
102
RTVSPropertyOp15
 70
     1
102
RTVSPropertyOp16
 70
     1
102
RTVSPropertyOp17
 70
     1
102
RTVSPropertyOp18
 70
     1
102
RTVSPropertyOp19
 70
     1
102
RTVSPropertyOp20
 70
     1
102
RTVSPropertyOp21
 70
     1
102
RTVSPropertyOp22
 70
     1
102
RTVSPropertyOp23
 70
     1
102
RTVSPropertyOp24
 70
     1
102
RTVSPropertyOp25
 70
     1
102
RTVSPropertyOp26
 70
     1
102
RTVSPropertyOp27
 70
     1
102
RTVSPropertyOp28
 70
     1
102
RTVSPropertyOp29
 70
     1
102
RTVSPropertyOp30
 70
     1
102
RTVSPropertyOp31
 70
     1
102
RTVSPropertyOp32
 70
     1
102
RTVSPropertyOp33
 70
     1
102
RTVSPropertyOp34
 70
     1
102
RTVSPropertyOp35
 70
     1
102
RTVSPropertyOp36
 70
     1
102
RTVSPropertyOp37
 70
     1
102
RTVSPropertyOp38
 70
     1
102
RTVSPropertyOp39
 70
     1
102
RTVSPropertyOp40
 70
     1
102
RTVSPropertyOp41
 70
     1
102
RTVSPropertyOp42
 70
     1
102
RTVSPropertyOp43
 70
     1
102
RTVSPropertyOp44
 70
     1
102
RTVSPropertyOp45
 70
     1
102
RTVSPropertyOp46
 70
     1
102
RTVSPropertyOp47
 70
     1
102
RTVSPropertyOp48
 70
     1
102
RTVSPropertyOp49
 70
     1
102
RTVSPropertyOp50
 70
     1
102
RTVSPropertyOp51
 70
     0
102
RTVSPropertyOp52
 70
     0
102
RTVSPropertyOp53
 70
     1
102
RTVSPropertyOp54
 70
     1
102
RTVSPropertyOp55
 70
     1
102
RTVSPropertyOp56
 70
     1
102
RTVSPropertyOp57
 70
     1
102
RTVSPropertyOp58
 70
     1
102
RTVSPropertyOp59
 70
     1
102
RTVSPropertyOp60
 70
     1
102
RTVSPropertyOp61
 70
     1
102
RTVSPropertyOp62
 70
     1
  0
XRECORD
  5
ED8A
102
{ACAD_REACTORS
330
ED89
102
}
330
ED89
100
AcDbXrecord
280
     1
102
RTVSPost2010Prop28
280
     0
102
RTVSPost2010PropOp28
 70
     1
102
RTVSPost2010Prop29
280
     1
102
RTVSPost2010PropOp29
 70
     1
102
RTVSPost2010Prop30
280
     1
102
RTVSPost2010PropOp30
 70
     1
102
RTVSPost2010Prop31
280
     0
102
RTVSPost2010PropOp31
 70
     1
102
RTVSPost2010Prop32
280
     0
102
RTVSPost2010PropOp32
 70
     1
102
RTVSPost2010Prop33
280
     0
102
RTVSPost2010PropOp33
 70
     1
102
RTVSPost2010Prop34
280
     0
102
RTVSPost2010PropOp34
 70
     1
102
RTVSPost2010Prop35
280
     0
102
RTVSPost2010PropOp35
 70
     1
102
RTVSPost2010Prop36
280
     0
102
RTVSPost2010PropOp36
 70
     1
102
RTVSPost2010Prop37
 90
       50
102
RTVSPost2010PropOp37
 70
     1
102
RTVSPost2010Prop38
140
0.0
102
RTVSPost2010PropOp38
 70
     1
102
RTVSPost2010Prop39
140
1.0
102
RTVSPost2010PropOp39
 70
     1
102
RTVSPost2010Prop40
 90
        0
102
RTVSPost2010PropOp40
 70
     1
102
RTVSPost2010Prop41ColorIndex
 90
       18
102
RTVSPost2010Prop41ColorRGB
 90
        0
102
RTVSPost2010PropOp41
 70
     1
102
RTVSPost2010Prop42
 90
       50
102
RTVSPost2010PropOp42
 70
     1
102
RTVSPost2010Prop43
 90
        3
102
RTVSPost2010PropOp43
 70
     1
102
RTVSPost2010Prop44ColorIndex
 90
        5
102
RTVSPost2010Prop44ColorRGB
 90
      255
102
RTVSPost2010PropOp44
 70
     1
102
RTVSPost2010Prop45
280
     0
102
RTVSPost2010PropOp45
 70
     1
102
RTVSPost2010Prop46
 90
       50
102
RTVSPost2010PropOp46
 70
     1
102
RTVSPost2010Prop47
 90
       50
102
RTVSPost2010PropOp47
 70
     1
102
RTVSPost2010Prop48
 90
       50
102
RTVSPost2010PropOp48
 70
     1
102
RTVSPost2010Prop49
280
     0
102
RTVSPost2010PropOp49
 70
     1
102
RTVSPost2010Prop50
 90
       50
102
RTVSPost2010PropOp50
 70
     1
102
RTVSPost2010Prop51ColorIndex
 90
      256
102
RTVSPost2010Prop51ColorRGB
 90
-16777216
102
RTVSPost2010PropOp51
 70
     0
102
RTVSPost2010Prop52
140
1.0
102
RTVSPost2010PropOp52
 70
     0
102
RTVSPost2010Prop53
 90
        2
102
RTVSPost2010PropOp53
 70
     1
102
RTVSPost2010Prop54
  1
strokes_ogs.tif
102
RTVSPost2010PropOp54
 70
     1
102
RTVSPost2010Prop55
280
     0
102
RTVSPost2010PropOp55
 70
     1
102
RTVSPost2010Prop56
140
1.0
102
RTVSPost2010PropOp56
 70
     1
102
RTVSPost2010Prop57
140
1.0
102
RTVSPost2010PropOp57
 70
     1
102
RTVSPropertyOp0
 70
     1
102
RTVSPropertyOp1
 70
     1
102
RTVSPropertyOp2
 70
     1
102
RTVSPropertyOp3
 70
     1
102
RTVSPropertyOp4
 70
     1
102
RTVSPropertyOp5
 70
     1
102
RTVSPropertyOp6
 70
     1
102
RTVSPropertyOp7
 70
     1
102
RTVSPropertyOp8
 70
     1
102
RTVSPropertyOp9
 70
     1
102
RTVSPropertyOp10
 70
     1
102
RTVSPropertyOp11
 70
     1
102
RTVSPropertyOp12
 70
     1
102
RTVSPropertyOp13
 70
     1
102
RTVSPropertyOp14
 70
     1
102
RTVSPropertyOp15
 70
     1
102
RTVSPropertyOp16
 70
     1
102
RTVSPropertyOp17
 70
     1
102
RTVSPropertyOp18
 70
     1
102
RTVSPropertyOp19
 70
     1
102
RTVSPropertyOp20
 70
     1
102
RTVSPropertyOp21
 70
     1
102
RTVSPropertyOp22
 70
     1
102
RTVSPropertyOp23
 70
     1
102
RTVSPropertyOp24
 70
     1
102
RTVSPropertyOp25
 70
     1
102
RTVSPropertyOp26
 70
     1
102
RTVSPropertyOp27
 70
     1
102
RTVSPropertyOp28
 70
     1
102
RTVSPropertyOp29
 70
     1
102
RTVSPropertyOp30
 70
     1
102
RTVSPropertyOp31
 70
     1
102
RTVSPropertyOp32
 70
     1
102
RTVSPropertyOp33
 70
     1
102
RTVSPropertyOp34
 70
     1
102
RTVSPropertyOp35
 70
     1
102
RTVSPropertyOp36
 70
     1
102
RTVSPropertyOp37
 70
     1
102
RTVSPropertyOp38
 70
     1
102
RTVSPropertyOp39
 70
     1
102
RTVSPropertyOp40
 70
     1
102
RTVSPropertyOp41
 70
     1
102
RTVSPropertyOp42
 70
     1
102
RTVSPropertyOp43
 70
     1
102
RTVSPropertyOp44
 70
     1
102
RTVSPropertyOp45
 70
     1
102
RTVSPropertyOp46
 70
     1
102
RTVSPropertyOp47
 70
     1
102
RTVSPropertyOp48
 70
     1
102
RTVSPropertyOp49
 70
     1
102
RTVSPropertyOp50
 70
     1
102
RTVSPropertyOp51
 70
     0
102
RTVSPropertyOp52
 70
     0
102
RTVSPropertyOp53
 70
     1
102
RTVSPropertyOp54
 70
     1
102
RTVSPropertyOp55
 70
     1
102
RTVSPropertyOp56
 70
     1
102
RTVSPropertyOp57
 70
     1
102
RTVSPropertyOp58
 70
     1
102
RTVSPropertyOp59
 70
     1
102
RTVSPropertyOp60
 70
     1
102
RTVSPropertyOp61
 70
     1
102
RTVSPropertyOp62
 70
     1
  0
XRECORD
  5
ED98
102
{ACAD_REACTORS
330
ED97
102
}
330
ED97
100
AcDbXrecord
280
     1
102
RTVSPost2010Prop28
280
     0
102
RTVSPost2010PropOp28
 70
     1
102
RTVSPost2010Prop29
280
     1
102
RTVSPost2010PropOp29
 70
     1
102
RTVSPost2010Prop30
280
     1
102
RTVSPost2010PropOp30
 70
     1
102
RTVSPost2010Prop31
280
     0
102
RTVSPost2010PropOp31
 70
     1
102
RTVSPost2010Prop32
280
     0
102
RTVSPost2010PropOp32
 70
     1
102
RTVSPost2010Prop33
280
     0
102
RTVSPost2010PropOp33
 70
     1
102
RTVSPost2010Prop34
280
     0
102
RTVSPost2010PropOp34
 70
     1
102
RTVSPost2010Prop35
280
     0
102
RTVSPost2010PropOp35
 70
     1
102
RTVSPost2010Prop36
280
     0
102
RTVSPost2010PropOp36
 70
     1
102
RTVSPost2010Prop37
 90
       50
102
RTVSPost2010PropOp37
 70
     1
102
RTVSPost2010Prop38
140
0.0
102
RTVSPost2010PropOp38
 70
     1
102
RTVSPost2010Prop39
140
1.0
102
RTVSPost2010PropOp39
 70
     1
102
RTVSPost2010Prop40
 90
        0
102
RTVSPost2010PropOp40
 70
     1
102
RTVSPost2010Prop41ColorIndex
 90
       18
102
RTVSPost2010Prop41ColorRGB
 90
        0
102
RTVSPost2010PropOp41
 70
     1
102
RTVSPost2010Prop42
 90
       50
102
RTVSPost2010PropOp42
 70
     1
102
RTVSPost2010Prop43
 90
        3
102
RTVSPost2010PropOp43
 70
     1
102
RTVSPost2010Prop44ColorIndex
 90
        5
102
RTVSPost2010Prop44ColorRGB
 90
      255
102
RTVSPost2010PropOp44
 70
     1
102
RTVSPost2010Prop45
280
     0
102
RTVSPost2010PropOp45
 70
     1
102
RTVSPost2010Prop46
 90
       50
102
RTVSPost2010PropOp46
 70
     1
102
RTVSPost2010Prop47
 90
       50
102
RTVSPost2010PropOp47
 70
     1
102
RTVSPost2010Prop48
 90
       50
102
RTVSPost2010PropOp48
 70
     1
102
RTVSPost2010Prop49
280
     0
102
RTVSPost2010PropOp49
 70
     1
102
RTVSPost2010Prop50
 90
       50
102
RTVSPost2010PropOp50
 70
     1
102
RTVSPost2010Prop51ColorIndex
 90
      256
102
RTVSPost2010Prop51ColorRGB
 90
-16777216
102
RTVSPost2010PropOp51
 70
     0
102
RTVSPost2010Prop52
140
1.0
102
RTVSPost2010PropOp52
 70
     0
102
RTVSPost2010Prop53
 90
        2
102
RTVSPost2010PropOp53
 70
     1
102
RTVSPost2010Prop54
  1
strokes_ogs.tif
102
RTVSPost2010PropOp54
 70
     1
102
RTVSPost2010Prop55
280
     0
102
RTVSPost2010PropOp55
 70
     1
102
RTVSPost2010Prop56
140
1.0
102
RTVSPost2010PropOp56
 70
     1
102
RTVSPost2010Prop57
140
1.0
102
RTVSPost2010PropOp57
 70
     1
102
RTVSPropertyOp0
 70
     1
102
RTVSPropertyOp1
 70
     1
102
RTVSPropertyOp2
 70
     1
102
RTVSPropertyOp3
 70
     1
102
RTVSPropertyOp4
 70
     1
102
RTVSPropertyOp5
 70
     1
102
RTVSPropertyOp6
 70
     1
102
RTVSPropertyOp7
 70
     1
102
RTVSPropertyOp8
 70
     1
102
RTVSPropertyOp9
 70
     1
102
RTVSPropertyOp10
 70
     1
102
RTVSPropertyOp11
 70
     1
102
RTVSPropertyOp12
 70
     1
102
RTVSPropertyOp13
 70
     1
102
RTVSPropertyOp14
 70
     1
102
RTVSPropertyOp15
 70
     1
102
RTVSPropertyOp16
 70
     1
102
RTVSPropertyOp17
 70
     1
102
RTVSPropertyOp18
 70
     1
102
RTVSPropertyOp19
 70
     1
102
RTVSPropertyOp20
 70
     1
102
RTVSPropertyOp21
 70
     1
102
RTVSPropertyOp22
 70
     1
102
RTVSPropertyOp23
 70
     1
102
RTVSPropertyOp24
 70
     1
102
RTVSPropertyOp25
 70
     1
102
RTVSPropertyOp26
 70
     1
102
RTVSPropertyOp27
 70
     1
102
RTVSPropertyOp28
 70
     1
102
RTVSPropertyOp29
 70
     1
102
RTVSPropertyOp30
 70
     1
102
RTVSPropertyOp31
 70
     1
102
RTVSPropertyOp32
 70
     1
102
RTVSPropertyOp33
 70
     1
102
RTVSPropertyOp34
 70
     1
102
RTVSPropertyOp35
 70
     1
102
RTVSPropertyOp36
 70
     1
102
RTVSPropertyOp37
 70
     1
102
RTVSPropertyOp38
 70
     1
102
RTVSPropertyOp39
 70
     1
102
RTVSPropertyOp40
 70
     1
102
RTVSPropertyOp41
 70
     1
102
RTVSPropertyOp42
 70
     1
102
RTVSPropertyOp43
 70
     1
102
RTVSPropertyOp44
 70
     1
102
RTVSPropertyOp45
 70
     1
102
RTVSPropertyOp46
 70
     1
102
RTVSPropertyOp47
 70
     1
102
RTVSPropertyOp48
 70
     1
102
RTVSPropertyOp49
 70
     1
102
RTVSPropertyOp50
 70
     1
102
RTVSPropertyOp51
 70
     0
102
RTVSPropertyOp52
 70
     0
102
RTVSPropertyOp53
 70
     1
102
RTVSPropertyOp54
 70
     1
102
RTVSPropertyOp55
 70
     1
102
RTVSPropertyOp56
 70
     1
102
RTVSPropertyOp57
 70
     1
102
RTVSPropertyOp58
 70
     1
102
RTVSPropertyOp59
 70
     1
102
RTVSPropertyOp60
 70
     1
102
RTVSPropertyOp61
 70
     1
102
RTVSPropertyOp62
 70
     1
  0
XRECORD
  5
EDA0
102
{ACAD_REACTORS
330
ED9F
102
}
330
ED9F
100
AcDbXrecord
280
     1
102
RTVSPost2010Prop28
280
     0
102
RTVSPost2010PropOp28
 70
     1
102
RTVSPost2010Prop29
280
     1
102
RTVSPost2010PropOp29
 70
     1
102
RTVSPost2010Prop30
280
     1
102
RTVSPost2010PropOp30
 70
     1
102
RTVSPost2010Prop31
280
     0
102
RTVSPost2010PropOp31
 70
     1
102
RTVSPost2010Prop32
280
     0
102
RTVSPost2010PropOp32
 70
     1
102
RTVSPost2010Prop33
280
     0
102
RTVSPost2010PropOp33
 70
     1
102
RTVSPost2010Prop34
280
     0
102
RTVSPost2010PropOp34
 70
     1
102
RTVSPost2010Prop35
280
     0
102
RTVSPost2010PropOp35
 70
     1
102
RTVSPost2010Prop36
280
     0
102
RTVSPost2010PropOp36
 70
     1
102
RTVSPost2010Prop37
 90
       50
102
RTVSPost2010PropOp37
 70
     1
102
RTVSPost2010Prop38
140
0.0
102
RTVSPost2010PropOp38
 70
     1
102
RTVSPost2010Prop39
140
1.0
102
RTVSPost2010PropOp39
 70
     1
102
RTVSPost2010Prop40
 90
        0
102
RTVSPost2010PropOp40
 70
     1
102
RTVSPost2010Prop41ColorIndex
 90
       18
102
RTVSPost2010Prop41ColorRGB
 90
        0
102
RTVSPost2010PropOp41
 70
     1
102
RTVSPost2010Prop42
 90
       50
102
RTVSPost2010PropOp42
 70
     1
102
RTVSPost2010Prop43
 90
        3
102
RTVSPost2010PropOp43
 70
     1
102
RTVSPost2010Prop44ColorIndex
 90
        5
102
RTVSPost2010Prop44ColorRGB
 90
      255
102
RTVSPost2010PropOp44
 70
     1
102
RTVSPost2010Prop45
280
     0
102
RTVSPost2010PropOp45
 70
     1
102
RTVSPost2010Prop46
 90
       50
102
RTVSPost2010PropOp46
 70
     1
102
RTVSPost2010Prop47
 90
       50
102
RTVSPost2010PropOp47
 70
     1
102
RTVSPost2010Prop48
 90
       50
102
RTVSPost2010PropOp48
 70
     1
102
RTVSPost2010Prop49
280
     0
102
RTVSPost2010PropOp49
 70
     1
102
RTVSPost2010Prop50
 90
       50
102
RTVSPost2010PropOp50
 70
     1
102
RTVSPost2010Prop51ColorIndex
 90
      256
102
RTVSPost2010Prop51ColorRGB
 90
-16777216
102
RTVSPost2010PropOp51
 70
     0
102
RTVSPost2010Prop52
140
1.0
102
RTVSPost2010PropOp52
 70
     0
102
RTVSPost2010Prop53
 90
        2
102
RTVSPost2010PropOp53
 70
     1
102
RTVSPost2010Prop54
  1
strokes_ogs.tif
102
RTVSPost2010PropOp54
 70
     1
102
RTVSPost2010Prop55
280
     0
102
RTVSPost2010PropOp55
 70
     1
102
RTVSPost2010Prop56
140
1.0
102
RTVSPost2010PropOp56
 70
     1
102
RTVSPost2010Prop57
140
1.0
102
RTVSPost2010PropOp57
 70
     1
102
RTVSPropertyOp0
 70
     1
102
RTVSPropertyOp1
 70
     1
102
RTVSPropertyOp2
 70
     1
102
RTVSPropertyOp3
 70
     1
102
RTVSPropertyOp4
 70
     1
102
RTVSPropertyOp5
 70
     1
102
RTVSPropertyOp6
 70
     1
102
RTVSPropertyOp7
 70
     1
102
RTVSPropertyOp8
 70
     1
102
RTVSPropertyOp9
 70
     1
102
RTVSPropertyOp10
 70
     1
102
RTVSPropertyOp11
 70
     1
102
RTVSPropertyOp12
 70
     1
102
RTVSPropertyOp13
 70
     1
102
RTVSPropertyOp14
 70
     1
102
RTVSPropertyOp15
 70
     1
102
RTVSPropertyOp16
 70
     1
102
RTVSPropertyOp17
 70
     1
102
RTVSPropertyOp18
 70
     1
102
RTVSPropertyOp19
 70
     1
102
RTVSPropertyOp20
 70
     1
102
RTVSPropertyOp21
 70
     1
102
RTVSPropertyOp22
 70
     1
102
RTVSPropertyOp23
 70
     1
102
RTVSPropertyOp24
 70
     1
102
RTVSPropertyOp25
 70
     1
102
RTVSPropertyOp26
 70
     1
102
RTVSPropertyOp27
 70
     1
102
RTVSPropertyOp28
 70
     1
102
RTVSPropertyOp29
 70
     1
102
RTVSPropertyOp30
 70
     1
102
RTVSPropertyOp31
 70
     1
102
RTVSPropertyOp32
 70
     1
102
RTVSPropertyOp33
 70
     1
102
RTVSPropertyOp34
 70
     1
102
RTVSPropertyOp35
 70
     1
102
RTVSPropertyOp36
 70
     1
102
RTVSPropertyOp37
 70
     1
102
RTVSPropertyOp38
 70
     1
102
RTVSPropertyOp39
 70
     1
102
RTVSPropertyOp40
 70
     1
102
RTVSPropertyOp41
 70
     1
102
RTVSPropertyOp42
 70
     1
102
RTVSPropertyOp43
 70
     1
102
RTVSPropertyOp44
 70
     1
102
RTVSPropertyOp45
 70
     1
102
RTVSPropertyOp46
 70
     1
102
RTVSPropertyOp47
 70
     1
102
RTVSPropertyOp48
 70
     1
102
RTVSPropertyOp49
 70
     1
102
RTVSPropertyOp50
 70
     1
102
RTVSPropertyOp51
 70
     0
102
RTVSPropertyOp52
 70
     0
102
RTVSPropertyOp53
 70
     1
102
RTVSPropertyOp54
 70
     1
102
RTVSPropertyOp55
 70
     1
102
RTVSPropertyOp56
 70
     1
102
RTVSPropertyOp57
 70
     1
102
RTVSPropertyOp58
 70
     1
102
RTVSPropertyOp59
 70
     1
102
RTVSPropertyOp60
 70
     1
102
RTVSPropertyOp61
 70
     1
102
RTVSPropertyOp62
 70
     1
  0
XRECORD
  5
ED92
102
{ACAD_REACTORS
330
ED91
102
}
330
ED91
100
AcDbXrecord
280
     1
102
RTVSPost2010Prop28
280
     0
102
RTVSPost2010PropOp28
 70
     1
102
RTVSPost2010Prop29
280
     1
102
RTVSPost2010PropOp29
 70
     1
102
RTVSPost2010Prop30
280
     1
102
RTVSPost2010PropOp30
 70
     1
102
RTVSPost2010Prop31
280
     0
102
RTVSPost2010PropOp31
 70
     1
102
RTVSPost2010Prop32
280
     0
102
RTVSPost2010PropOp32
 70
     1
102
RTVSPost2010Prop33
280
     0
102
RTVSPost2010PropOp33
 70
     1
102
RTVSPost2010Prop34
280
     0
102
RTVSPost2010PropOp34
 70
     1
102
RTVSPost2010Prop35
280
     0
102
RTVSPost2010PropOp35
 70
     1
102
RTVSPost2010Prop36
280
     0
102
RTVSPost2010PropOp36
 70
     1
102
RTVSPost2010Prop37
 90
       50
102
RTVSPost2010PropOp37
 70
     1
102
RTVSPost2010Prop38
140
0.0
102
RTVSPost2010PropOp38
 70
     1
102
RTVSPost2010Prop39
140
1.0
102
RTVSPost2010PropOp39
 70
     1
102
RTVSPost2010Prop40
 90
        0
102
RTVSPost2010PropOp40
 70
     1
102
RTVSPost2010Prop41ColorIndex
 90
       18
102
RTVSPost2010Prop41ColorRGB
 90
        0
102
RTVSPost2010PropOp41
 70
     1
102
RTVSPost2010Prop42
 90
       50
102
RTVSPost2010PropOp42
 70
     1
102
RTVSPost2010Prop43
 90
        3
102
RTVSPost2010PropOp43
 70
     1
102
RTVSPost2010Prop44ColorIndex
 90
        5
102
RTVSPost2010Prop44ColorRGB
 90
      255
102
RTVSPost2010PropOp44
 70
     1
102
RTVSPost2010Prop45
280
     0
102
RTVSPost2010PropOp45
 70
     1
102
RTVSPost2010Prop46
 90
       50
102
RTVSPost2010PropOp46
 70
     1
102
RTVSPost2010Prop47
 90
       50
102
RTVSPost2010PropOp47
 70
     1
102
RTVSPost2010Prop48
 90
       50
102
RTVSPost2010PropOp48
 70
     1
102
RTVSPost2010Prop49
280
     0
102
RTVSPost2010PropOp49
 70
     1
102
RTVSPost2010Prop50
 90
       50
102
RTVSPost2010PropOp50
 70
     1
102
RTVSPost2010Prop51ColorIndex
 90
      256
102
RTVSPost2010Prop51ColorRGB
 90
-16777216
102
RTVSPost2010PropOp51
 70
     0
102
RTVSPost2010Prop52
140
1.0
102
RTVSPost2010PropOp52
 70
     0
102
RTVSPost2010Prop53
 90
        2
102
RTVSPost2010PropOp53
 70
     1
102
RTVSPost2010Prop54
  1
strokes_ogs.tif
102
RTVSPost2010PropOp54
 70
     1
102
RTVSPost2010Prop55
280
     0
102
RTVSPost2010PropOp55
 70
     1
102
RTVSPost2010Prop56
140
1.0
102
RTVSPost2010PropOp56
 70
     1
102
RTVSPost2010Prop57
140
1.0
102
RTVSPost2010PropOp57
 70
     1
102
RTVSPropertyOp0
 70
     1
102
RTVSPropertyOp1
 70
     1
102
RTVSPropertyOp2
 70
     1
102
RTVSPropertyOp3
 70
     1
102
RTVSPropertyOp4
 70
     1
102
RTVSPropertyOp5
 70
     1
102
RTVSPropertyOp6
 70
     1
102
RTVSPropertyOp7
 70
     1
102
RTVSPropertyOp8
 70
     1
102
RTVSPropertyOp9
 70
     1
102
RTVSPropertyOp10
 70
     1
102
RTVSPropertyOp11
 70
     1
102
RTVSPropertyOp12
 70
     1
102
RTVSPropertyOp13
 70
     1
102
RTVSPropertyOp14
 70
     1
102
RTVSPropertyOp15
 70
     1
102
RTVSPropertyOp16
 70
     1
102
RTVSPropertyOp17
 70
     1
102
RTVSPropertyOp18
 70
     1
102
RTVSPropertyOp19
 70
     1
102
RTVSPropertyOp20
 70
     1
102
RTVSPropertyOp21
 70
     1
102
RTVSPropertyOp22
 70
     1
102
RTVSPropertyOp23
 70
     1
102
RTVSPropertyOp24
 70
     1
102
RTVSPropertyOp25
 70
     1
102
RTVSPropertyOp26
 70
     1
102
RTVSPropertyOp27
 70
     1
102
RTVSPropertyOp28
 70
     1
102
RTVSPropertyOp29
 70
     1
102
RTVSPropertyOp30
 70
     1
102
RTVSPropertyOp31
 70
     1
102
RTVSPropertyOp32
 70
     1
102
RTVSPropertyOp33
 70
     1
102
RTVSPropertyOp34
 70
     1
102
RTVSPropertyOp35
 70
     1
102
RTVSPropertyOp36
 70
     1
102
RTVSPropertyOp37
 70
     1
102
RTVSPropertyOp38
 70
     1
102
RTVSPropertyOp39
 70
     1
102
RTVSPropertyOp40
 70
     1
102
RTVSPropertyOp41
 70
     1
102
RTVSPropertyOp42
 70
     1
102
RTVSPropertyOp43
 70
     1
102
RTVSPropertyOp44
 70
     1
102
RTVSPropertyOp45
 70
     1
102
RTVSPropertyOp46
 70
     1
102
RTVSPropertyOp47
 70
     1
102
RTVSPropertyOp48
 70
     1
102
RTVSPropertyOp49
 70
     1
102
RTVSPropertyOp50
 70
     1
102
RTVSPropertyOp51
 70
     0
102
RTVSPropertyOp52
 70
     0
102
RTVSPropertyOp53
 70
     1
102
RTVSPropertyOp54
 70
     1
102
RTVSPropertyOp55
 70
     1
102
RTVSPropertyOp56
 70
     1
102
RTVSPropertyOp57
 70
     1
102
RTVSPropertyOp58
 70
     1
102
RTVSPropertyOp59
 70
     1
102
RTVSPropertyOp60
 70
     1
102
RTVSPropertyOp61
 70
     1
102
RTVSPropertyOp62
 70
     1
  0
XRECORD
  5
ED96
102
{ACAD_REACTORS
330
ED95
102
}
330
ED95
100
AcDbXrecord
280
     1
102
RTVSPost2010Prop28
280
     0
102
RTVSPost2010PropOp28
 70
     1
102
RTVSPost2010Prop29
280
     1
102
RTVSPost2010PropOp29
 70
     1
102
RTVSPost2010Prop30
280
     1
102
RTVSPost2010PropOp30
 70
     1
102
RTVSPost2010Prop31
280
     0
102
RTVSPost2010PropOp31
 70
     1
102
RTVSPost2010Prop32
280
     0
102
RTVSPost2010PropOp32
 70
     1
102
RTVSPost2010Prop33
280
     0
102
RTVSPost2010PropOp33
 70
     1
102
RTVSPost2010Prop34
280
     0
102
RTVSPost2010PropOp34
 70
     1
102
RTVSPost2010Prop35
280
     0
102
RTVSPost2010PropOp35
 70
     1
102
RTVSPost2010Prop36
280
     0
102
RTVSPost2010PropOp36
 70
     1
102
RTVSPost2010Prop37
 90
       50
102
RTVSPost2010PropOp37
 70
     1
102
RTVSPost2010Prop38
140
0.0
102
RTVSPost2010PropOp38
 70
     1
102
RTVSPost2010Prop39
140
1.0
102
RTVSPost2010PropOp39
 70
     1
102
RTVSPost2010Prop40
 90
        0
102
RTVSPost2010PropOp40
 70
     1
102
RTVSPost2010Prop41ColorIndex
 90
       18
102
RTVSPost2010Prop41ColorRGB
 90
        0
102
RTVSPost2010PropOp41
 70
     1
102
RTVSPost2010Prop42
 90
       50
102
RTVSPost2010PropOp42
 70
     1
102
RTVSPost2010Prop43
 90
        3
102
RTVSPost2010PropOp43
 70
     1
102
RTVSPost2010Prop44ColorIndex
 90
        5
102
RTVSPost2010Prop44ColorRGB
 90
      255
102
RTVSPost2010PropOp44
 70
     1
102
RTVSPost2010Prop45
280
     0
102
RTVSPost2010PropOp45
 70
     1
102
RTVSPost2010Prop46
 90
       50
102
RTVSPost2010PropOp46
 70
     1
102
RTVSPost2010Prop47
 90
       50
102
RTVSPost2010PropOp47
 70
     1
102
RTVSPost2010Prop48
 90
       50
102
RTVSPost2010PropOp48
 70
     1
102
RTVSPost2010Prop49
280
     0
102
RTVSPost2010PropOp49
 70
     1
102
RTVSPost2010Prop50
 90
       50
102
RTVSPost2010PropOp50
 70
     1
102
RTVSPost2010Prop51ColorIndex
 90
      256
102
RTVSPost2010Prop51ColorRGB
 90
-16777216
102
RTVSPost2010PropOp51
 70
     0
102
RTVSPost2010Prop52
140
1.0
102
RTVSPost2010PropOp52
 70
     0
102
RTVSPost2010Prop53
 90
        2
102
RTVSPost2010PropOp53
 70
     1
102
RTVSPost2010Prop54
  1
strokes_ogs.tif
102
RTVSPost2010PropOp54
 70
     1
102
RTVSPost2010Prop55
280
     0
102
RTVSPost2010PropOp55
 70
     1
102
RTVSPost2010Prop56
140
1.0
102
RTVSPost2010PropOp56
 70
     1
102
RTVSPost2010Prop57
140
1.0
102
RTVSPost2010PropOp57
 70
     1
102
RTVSPropertyOp0
 70
     1
102
RTVSPropertyOp1
 70
     1
102
RTVSPropertyOp2
 70
     1
102
RTVSPropertyOp3
 70
     1
102
RTVSPropertyOp4
 70
     1
102
RTVSPropertyOp5
 70
     1
102
RTVSPropertyOp6
 70
     1
102
RTVSPropertyOp7
 70
     1
102
RTVSPropertyOp8
 70
     1
102
RTVSPropertyOp9
 70
     1
102
RTVSPropertyOp10
 70
     1
102
RTVSPropertyOp11
 70
     1
102
RTVSPropertyOp12
 70
     1
102
RTVSPropertyOp13
 70
     1
102
RTVSPropertyOp14
 70
     1
102
RTVSPropertyOp15
 70
     1
102
RTVSPropertyOp16
 70
     1
102
RTVSPropertyOp17
 70
     1
102
RTVSPropertyOp18
 70
     1
102
RTVSPropertyOp19
 70
     1
102
RTVSPropertyOp20
 70
     1
102
RTVSPropertyOp21
 70
     1
102
RTVSPropertyOp22
 70
     1
102
RTVSPropertyOp23
 70
     1
102
RTVSPropertyOp24
 70
     1
102
RTVSPropertyOp25
 70
     1
102
RTVSPropertyOp26
 70
     1
102
RTVSPropertyOp27
 70
     1
102
RTVSPropertyOp28
 70
     1
102
RTVSPropertyOp29
 70
     1
102
RTVSPropertyOp30
 70
     1
102
RTVSPropertyOp31
 70
     1
102
RTVSPropertyOp32
 70
     1
102
RTVSPropertyOp33
 70
     1
102
RTVSPropertyOp34
 70
     1
102
RTVSPropertyOp35
 70
     1
102
RTVSPropertyOp36
 70
     1
102
RTVSPropertyOp37
 70
     1
102
RTVSPropertyOp38
 70
     1
102
RTVSPropertyOp39
 70
     1
102
RTVSPropertyOp40
 70
     1
102
RTVSPropertyOp41
 70
     1
102
RTVSPropertyOp42
 70
     1
102
RTVSPropertyOp43
 70
     1
102
RTVSPropertyOp44
 70
     1
102
RTVSPropertyOp45
 70
     1
102
RTVSPropertyOp46
 70
     1
102
RTVSPropertyOp47
 70
     1
102
RTVSPropertyOp48
 70
     1
102
RTVSPropertyOp49
 70
     1
102
RTVSPropertyOp50
 70
     1
102
RTVSPropertyOp51
 70
     0
102
RTVSPropertyOp52
 70
     0
102
RTVSPropertyOp53
 70
     1
102
RTVSPropertyOp54
 70
     1
102
RTVSPropertyOp55
 70
     1
102
RTVSPropertyOp56
 70
     1
102
RTVSPropertyOp57
 70
     1
102
RTVSPropertyOp58
 70
     1
102
RTVSPropertyOp59
 70
     1
102
RTVSPropertyOp60
 70
     1
102
RTVSPropertyOp61
 70
     1
102
RTVSPropertyOp62
 70
     1
  0
XRECORD
  5
EDA8
102
{ACAD_REACTORS
330
EDA7
102
}
330
EDA7
100
AcDbXrecord
280
     1
102
RTVSPost2010Prop28
280
     0
102
RTVSPost2010PropOp28
 70
     1
102
RTVSPost2010Prop29
280
     1
102
RTVSPost2010PropOp29
 70
     1
102
RTVSPost2010Prop30
280
     1
102
RTVSPost2010PropOp30
 70
     1
102
RTVSPost2010Prop31
280
     0
102
RTVSPost2010PropOp31
 70
     1
102
RTVSPost2010Prop32
280
     0
102
RTVSPost2010PropOp32
 70
     1
102
RTVSPost2010Prop33
280
     0
102
RTVSPost2010PropOp33
 70
     1
102
RTVSPost2010Prop34
280
     0
102
RTVSPost2010PropOp34
 70
     1
102
RTVSPost2010Prop35
280
     0
102
RTVSPost2010PropOp35
 70
     1
102
RTVSPost2010Prop36
280
     0
102
RTVSPost2010PropOp36
 70
     1
102
RTVSPost2010Prop37
 90
       50
102
RTVSPost2010PropOp37
 70
     1
102
RTVSPost2010Prop38
140
0.0
102
RTVSPost2010PropOp38
 70
     1
102
RTVSPost2010Prop39
140
1.0
102
RTVSPost2010PropOp39
 70
     1
102
RTVSPost2010Prop40
 90
        0
102
RTVSPost2010PropOp40
 70
     1
102
RTVSPost2010Prop41ColorIndex
 90
       18
102
RTVSPost2010Prop41ColorRGB
 90
        0
102
RTVSPost2010PropOp41
 70
     1
102
RTVSPost2010Prop42
 90
       50
102
RTVSPost2010PropOp42
 70
     1
102
RTVSPost2010Prop43
 90
        3
102
RTVSPost2010PropOp43
 70
     1
102
RTVSPost2010Prop44ColorIndex
 90
        5
102
RTVSPost2010Prop44ColorRGB
 90
      255
102
RTVSPost2010PropOp44
 70
     1
102
RTVSPost2010Prop45
280
     0
102
RTVSPost2010PropOp45
 70
     1
102
RTVSPost2010Prop46
 90
       50
102
RTVSPost2010PropOp46
 70
     1
102
RTVSPost2010Prop47
 90
       50
102
RTVSPost2010PropOp47
 70
     1
102
RTVSPost2010Prop48
 90
       50
102
RTVSPost2010PropOp48
 70
     1
102
RTVSPost2010Prop49
280
     0
102
RTVSPost2010PropOp49
 70
     1
102
RTVSPost2010Prop50
 90
       50
102
RTVSPost2010PropOp50
 70
     1
102
RTVSPost2010Prop51ColorIndex
 90
      256
102
RTVSPost2010Prop51ColorRGB
 90
-16777216
102
RTVSPost2010PropOp51
 70
     0
102
RTVSPost2010Prop52
140
1.0
102
RTVSPost2010PropOp52
 70
     0
102
RTVSPost2010Prop53
 90
        2
102
RTVSPost2010PropOp53
 70
     1
102
RTVSPost2010Prop54
  1
strokes_ogs.tif
102
RTVSPost2010PropOp54
 70
     1
102
RTVSPost2010Prop55
280
     0
102
RTVSPost2010PropOp55
 70
     1
102
RTVSPost2010Prop56
140
1.0
102
RTVSPost2010PropOp56
 70
     1
102
RTVSPost2010Prop57
140
1.0
102
RTVSPost2010PropOp57
 70
     1
102
RTVSPropertyOp0
 70
     0
102
RTVSPropertyOp1
 70
     0
102
RTVSPropertyOp2
 70
     0
102
RTVSPropertyOp3
 70
     0
102
RTVSPropertyOp4
 70
     0
102
RTVSPropertyOp5
 70
     0
102
RTVSPropertyOp6
 70
     0
102
RTVSPropertyOp7
 70
     0
102
RTVSPropertyOp8
 70
     0
102
RTVSPropertyOp9
 70
     0
102
RTVSPropertyOp10
 70
     0
102
RTVSPropertyOp11
 70
     0
102
RTVSPropertyOp12
 70
     0
102
RTVSPropertyOp13
 70
     0
102
RTVSPropertyOp14
 70
     2
102
RTVSPropertyOp15
 70
     0
102
RTVSPropertyOp16
 70
     0
102
RTVSPropertyOp17
 70
     0
102
RTVSPropertyOp18
 70
     0
102
RTVSPropertyOp19
 70
     0
102
RTVSPropertyOp20
 70
     0
102
RTVSPropertyOp21
 70
     0
102
RTVSPropertyOp22
 70
     0
102
RTVSPropertyOp23
 70
     0
102
RTVSPropertyOp24
 70
     0
102
RTVSPropertyOp25
 70
     0
102
RTVSPropertyOp26
 70
     0
102
RTVSPropertyOp27
 70
     0
102
RTVSPropertyOp28
 70
     1
102
RTVSPropertyOp29
 70
     1
102
RTVSPropertyOp30
 70
     1
102
RTVSPropertyOp31
 70
     1
102
RTVSPropertyOp32
 70
     1
102
RTVSPropertyOp33
 70
     1
102
RTVSPropertyOp34
 70
     1
102
RTVSPropertyOp35
 70
     1
102
RTVSPropertyOp36
 70
     1
102
RTVSPropertyOp37
 70
     1
102
RTVSPropertyOp38
 70
     1
102
RTVSPropertyOp39
 70
     1
102
RTVSPropertyOp40
 70
     1
102
RTVSPropertyOp41
 70
     1
102
RTVSPropertyOp42
 70
     1
102
RTVSPropertyOp43
 70
     1
102
RTVSPropertyOp44
 70
     1
102
RTVSPropertyOp45
 70
     1
102
RTVSPropertyOp46
 70
     1
102
RTVSPropertyOp47
 70
     1
102
RTVSPropertyOp48
 70
     1
102
RTVSPropertyOp49
 70
     1
102
RTVSPropertyOp50
 70
     1
102
RTVSPropertyOp51
 70
     0
102
RTVSPropertyOp52
 70
     0
102
RTVSPropertyOp53
 70
     1
102
RTVSPropertyOp54
 70
     1
102
RTVSPropertyOp55
 70
     1
102
RTVSPropertyOp56
 70
     1
102
RTVSPropertyOp57
 70
     1
102
RTVSPropertyOp58
 70
     1
102
RTVSPropertyOp59
 70
     1
102
RTVSPropertyOp60
 70
     1
102
RTVSPropertyOp61
 70
     1
102
RTVSPropertyOp62
 70
     1
  0
XRECORD
  5
ED9E
102
{ACAD_REACTORS
330
ED9D
102
}
330
ED9D
100
AcDbXrecord
280
     1
102
RTVSPost2010Prop28
280
     0
102
RTVSPost2010PropOp28
 70
     1
102
RTVSPost2010Prop29
280
     1
102
RTVSPost2010PropOp29
 70
     1
102
RTVSPost2010Prop30
280
     1
102
RTVSPost2010PropOp30
 70
     1
102
RTVSPost2010Prop31
280
     0
102
RTVSPost2010PropOp31
 70
     1
102
RTVSPost2010Prop32
280
     0
102
RTVSPost2010PropOp32
 70
     1
102
RTVSPost2010Prop33
280
     0
102
RTVSPost2010PropOp33
 70
     1
102
RTVSPost2010Prop34
280
     0
102
RTVSPost2010PropOp34
 70
     1
102
RTVSPost2010Prop35
280
     0
102
RTVSPost2010PropOp35
 70
     1
102
RTVSPost2010Prop36
280
     0
102
RTVSPost2010PropOp36
 70
     1
102
RTVSPost2010Prop37
 90
       50
102
RTVSPost2010PropOp37
 70
     1
102
RTVSPost2010Prop38
140
0.0
102
RTVSPost2010PropOp38
 70
     1
102
RTVSPost2010Prop39
140
1.0
102
RTVSPost2010PropOp39
 70
     1
102
RTVSPost2010Prop40
 90
        0
102
RTVSPost2010PropOp40
 70
     1
102
RTVSPost2010Prop41ColorIndex
 90
       18
102
RTVSPost2010Prop41ColorRGB
 90
        0
102
RTVSPost2010PropOp41
 70
     1
102
RTVSPost2010Prop42
 90
       50
102
RTVSPost2010PropOp42
 70
     1
102
RTVSPost2010Prop43
 90
        3
102
RTVSPost2010PropOp43
 70
     1
102
RTVSPost2010Prop44ColorIndex
 90
        5
102
RTVSPost2010Prop44ColorRGB
 90
      255
102
RTVSPost2010PropOp44
 70
     1
102
RTVSPost2010Prop45
280
     0
102
RTVSPost2010PropOp45
 70
     1
102
RTVSPost2010Prop46
 90
       50
102
RTVSPost2010PropOp46
 70
     1
102
RTVSPost2010Prop47
 90
       50
102
RTVSPost2010PropOp47
 70
     1
102
RTVSPost2010Prop48
 90
       50
102
RTVSPost2010PropOp48
 70
     1
102
RTVSPost2010Prop49
280
     0
102
RTVSPost2010PropOp49
 70
     1
102
RTVSPost2010Prop50
 90
       50
102
RTVSPost2010PropOp50
 70
     1
102
RTVSPost2010Prop51ColorIndex
 90
      256
102
RTVSPost2010Prop51ColorRGB
 90
-16777216
102
RTVSPost2010PropOp51
 70
     0
102
RTVSPost2010Prop52
140
1.0
102
RTVSPost2010PropOp52
 70
     0
102
RTVSPost2010Prop53
 90
        2
102
RTVSPost2010PropOp53
 70
     1
102
RTVSPost2010Prop54
  1
strokes_ogs.tif
102
RTVSPost2010PropOp54
 70
     1
102
RTVSPost2010Prop55
280
     0
102
RTVSPost2010PropOp55
 70
     1
102
RTVSPost2010Prop56
140
1.0
102
RTVSPost2010PropOp56
 70
     1
102
RTVSPost2010Prop57
140
1.0
102
RTVSPost2010PropOp57
 70
     1
102
RTVSPropertyOp0
 70
     1
102
RTVSPropertyOp1
 70
     1
102
RTVSPropertyOp2
 70
     1
102
RTVSPropertyOp3
 70
     1
102
RTVSPropertyOp4
 70
     1
102
RTVSPropertyOp5
 70
     1
102
RTVSPropertyOp6
 70
     1
102
RTVSPropertyOp7
 70
     1
102
RTVSPropertyOp8
 70
     1
102
RTVSPropertyOp9
 70
     1
102
RTVSPropertyOp10
 70
     1
102
RTVSPropertyOp11
 70
     1
102
RTVSPropertyOp12
 70
     1
102
RTVSPropertyOp13
 70
     1
102
RTVSPropertyOp14
 70
     1
102
RTVSPropertyOp15
 70
     1
102
RTVSPropertyOp16
 70
     1
102
RTVSPropertyOp17
 70
     1
102
RTVSPropertyOp18
 70
     1
102
RTVSPropertyOp19
 70
     1
102
RTVSPropertyOp20
 70
     1
102
RTVSPropertyOp21
 70
     1
102
RTVSPropertyOp22
 70
     1
102
RTVSPropertyOp23
 70
     1
102
RTVSPropertyOp24
 70
     1
102
RTVSPropertyOp25
 70
     1
102
RTVSPropertyOp26
 70
     1
102
RTVSPropertyOp27
 70
     1
102
RTVSPropertyOp28
 70
     1
102
RTVSPropertyOp29
 70
     1
102
RTVSPropertyOp30
 70
     1
102
RTVSPropertyOp31
 70
     1
102
RTVSPropertyOp32
 70
     1
102
RTVSPropertyOp33
 70
     1
102
RTVSPropertyOp34
 70
     1
102
RTVSPropertyOp35
 70
     1
102
RTVSPropertyOp36
 70
     1
102
RTVSPropertyOp37
 70
     1
102
RTVSPropertyOp38
 70
     1
102
RTVSPropertyOp39
 70
     1
102
RTVSPropertyOp40
 70
     1
102
RTVSPropertyOp41
 70
     1
102
RTVSPropertyOp42
 70
     1
102
RTVSPropertyOp43
 70
     1
102
RTVSPropertyOp44
 70
     1
102
RTVSPropertyOp45
 70
     1
102
RTVSPropertyOp46
 70
     1
102
RTVSPropertyOp47
 70
     1
102
RTVSPropertyOp48
 70
     1
102
RTVSPropertyOp49
 70
     1
102
RTVSPropertyOp50
 70
     1
102
RTVSPropertyOp51
 70
     0
102
RTVSPropertyOp52
 70
     0
102
RTVSPropertyOp53
 70
     1
102
RTVSPropertyOp54
 70
     1
102
RTVSPropertyOp55
 70
     1
102
RTVSPropertyOp56
 70
     1
102
RTVSPropertyOp57
 70
     1
102
RTVSPropertyOp58
 70
     1
102
RTVSPropertyOp59
 70
     1
102
RTVSPropertyOp60
 70
     1
102
RTVSPropertyOp61
 70
     1
102
RTVSPropertyOp62
 70
     1
  0
XRECORD
  5
ED82
102
{ACAD_REACTORS
330
ED81
102
}
330
ED81
100
AcDbXrecord
280
     1
102
RTVSPost2010Prop28
280
     0
102
RTVSPost2010PropOp28
 70
     1
102
RTVSPost2010Prop29
280
     1
102
RTVSPost2010PropOp29
 70
     1
102
RTVSPost2010Prop30
280
     1
102
RTVSPost2010PropOp30
 70
     1
102
RTVSPost2010Prop31
280
     0
102
RTVSPost2010PropOp31
 70
     1
102
RTVSPost2010Prop32
280
     0
102
RTVSPost2010PropOp32
 70
     1
102
RTVSPost2010Prop33
280
     0
102
RTVSPost2010PropOp33
 70
     1
102
RTVSPost2010Prop34
280
     0
102
RTVSPost2010PropOp34
 70
     1
102
RTVSPost2010Prop35
280
     0
102
RTVSPost2010PropOp35
 70
     1
102
RTVSPost2010Prop36
280
     0
102
RTVSPost2010PropOp36
 70
     1
102
RTVSPost2010Prop37
 90
       50
102
RTVSPost2010PropOp37
 70
     1
102
RTVSPost2010Prop38
140
0.0
102
RTVSPost2010PropOp38
 70
     1
102
RTVSPost2010Prop39
140
1.0
102
RTVSPost2010PropOp39
 70
     1
102
RTVSPost2010Prop40
 90
        0
102
RTVSPost2010PropOp40
 70
     1
102
RTVSPost2010Prop41ColorIndex
 90
       18
102
RTVSPost2010Prop41ColorRGB
 90
        0
102
RTVSPost2010PropOp41
 70
     1
102
RTVSPost2010Prop42
 90
       50
102
RTVSPost2010PropOp42
 70
     1
102
RTVSPost2010Prop43
 90
        3
102
RTVSPost2010PropOp43
 70
     1
102
RTVSPost2010Prop44ColorIndex
 90
        5
102
RTVSPost2010Prop44ColorRGB
 90
      255
102
RTVSPost2010PropOp44
 70
     1
102
RTVSPost2010Prop45
280
     0
102
RTVSPost2010PropOp45
 70
     1
102
RTVSPost2010Prop46
 90
       50
102
RTVSPost2010PropOp46
 70
     1
102
RTVSPost2010Prop47
 90
       50
102
RTVSPost2010PropOp47
 70
     1
102
RTVSPost2010Prop48
 90
       50
102
RTVSPost2010PropOp48
 70
     1
102
RTVSPost2010Prop49
280
     0
102
RTVSPost2010PropOp49
 70
     1
102
RTVSPost2010Prop50
 90
       50
102
RTVSPost2010PropOp50
 70
     1
102
RTVSPost2010Prop51ColorIndex
 90
      256
102
RTVSPost2010Prop51ColorRGB
 90
-16777216
102
RTVSPost2010PropOp51
 70
     0
102
RTVSPost2010Prop52
140
1.0
102
RTVSPost2010PropOp52
 70
     0
102
RTVSPost2010Prop53
 90
        2
102
RTVSPost2010PropOp53
 70
     1
102
RTVSPost2010Prop54
  1
strokes_ogs.tif
102
RTVSPost2010PropOp54
 70
     1
102
RTVSPost2010Prop55
280
     0
102
RTVSPost2010PropOp55
 70
     1
102
RTVSPost2010Prop56
140
1.0
102
RTVSPost2010PropOp56
 70
     1
102
RTVSPost2010Prop57
140
1.0
102
RTVSPost2010PropOp57
 70
     1
102
RTVSPropertyOp0
 70
     1
102
RTVSPropertyOp1
 70
     1
102
RTVSPropertyOp2
 70
     1
102
RTVSPropertyOp3
 70
     1
102
RTVSPropertyOp4
 70
     1
102
RTVSPropertyOp5
 70
     1
102
RTVSPropertyOp6
 70
     1
102
RTVSPropertyOp7
 70
     1
102
RTVSPropertyOp8
 70
     1
102
RTVSPropertyOp9
 70
     1
102
RTVSPropertyOp10
 70
     1
102
RTVSPropertyOp11
 70
     1
102
RTVSPropertyOp12
 70
     1
102
RTVSPropertyOp13
 70
     1
102
RTVSPropertyOp14
 70
     1
102
RTVSPropertyOp15
 70
     1
102
RTVSPropertyOp16
 70
     1
102
RTVSPropertyOp17
 70
     1
102
RTVSPropertyOp18
 70
     1
102
RTVSPropertyOp19
 70
     1
102
RTVSPropertyOp20
 70
     1
102
RTVSPropertyOp21
 70
     1
102
RTVSPropertyOp22
 70
     1
102
RTVSPropertyOp23
 70
     1
102
RTVSPropertyOp24
 70
     1
102
RTVSPropertyOp25
 70
     1
102
RTVSPropertyOp26
 70
     1
102
RTVSPropertyOp27
 70
     1
102
RTVSPropertyOp28
 70
     1
102
RTVSPropertyOp29
 70
     1
102
RTVSPropertyOp30
 70
     1
102
RTVSPropertyOp31
 70
     1
102
RTVSPropertyOp32
 70
     1
102
RTVSPropertyOp33
 70
     1
102
RTVSPropertyOp34
 70
     1
102
RTVSPropertyOp35
 70
     1
102
RTVSPropertyOp36
 70
     1
102
RTVSPropertyOp37
 70
     1
102
RTVSPropertyOp38
 70
     1
102
RTVSPropertyOp39
 70
     1
102
RTVSPropertyOp40
 70
     1
102
RTVSPropertyOp41
 70
     1
102
RTVSPropertyOp42
 70
     1
102
RTVSPropertyOp43
 70
     1
102
RTVSPropertyOp44
 70
     1
102
RTVSPropertyOp45
 70
     1
102
RTVSPropertyOp46
 70
     1
102
RTVSPropertyOp47
 70
     1
102
RTVSPropertyOp48
 70
     1
102
RTVSPropertyOp49
 70
     1
102
RTVSPropertyOp50
 70
     1
102
RTVSPropertyOp51
 70
     0
102
RTVSPropertyOp52
 70
     0
102
RTVSPropertyOp53
 70
     1
102
RTVSPropertyOp54
 70
     1
102
RTVSPropertyOp55
 70
     1
102
RTVSPropertyOp56
 70
     1
102
RTVSPropertyOp57
 70
     1
102
RTVSPropertyOp58
 70
     1
102
RTVSPropertyOp59
 70
     1
102
RTVSPropertyOp60
 70
     1
102
RTVSPropertyOp61
 70
     1
102
RTVSPropertyOp62
 70
     1
  0
XRECORD
  5
ED84
102
{ACAD_REACTORS
330
ED83
102
}
330
ED83
100
AcDbXrecord
280
     1
102
RTVSPost2010Prop28
280
     0
102
RTVSPost2010PropOp28
 70
     1
102
RTVSPost2010Prop29
280
     1
102
RTVSPost2010PropOp29
 70
     1
102
RTVSPost2010Prop30
280
     1
102
RTVSPost2010PropOp30
 70
     1
102
RTVSPost2010Prop31
280
     0
102
RTVSPost2010PropOp31
 70
     1
102
RTVSPost2010Prop32
280
     0
102
RTVSPost2010PropOp32
 70
     1
102
RTVSPost2010Prop33
280
     0
102
RTVSPost2010PropOp33
 70
     1
102
RTVSPost2010Prop34
280
     0
102
RTVSPost2010PropOp34
 70
     1
102
RTVSPost2010Prop35
280
     0
102
RTVSPost2010PropOp35
 70
     1
102
RTVSPost2010Prop36
280
     0
102
RTVSPost2010PropOp36
 70
     1
102
RTVSPost2010Prop37
 90
       50
102
RTVSPost2010PropOp37
 70
     1
102
RTVSPost2010Prop38
140
0.0
102
RTVSPost2010PropOp38
 70
     1
102
RTVSPost2010Prop39
140
1.0
102
RTVSPost2010PropOp39
 70
     1
102
RTVSPost2010Prop40
 90
        0
102
RTVSPost2010PropOp40
 70
     1
102
RTVSPost2010Prop41ColorIndex
 90
       18
102
RTVSPost2010Prop41ColorRGB
 90
        0
102
RTVSPost2010PropOp41
 70
     1
102
RTVSPost2010Prop42
 90
       50
102
RTVSPost2010PropOp42
 70
     1
102
RTVSPost2010Prop43
 90
        3
102
RTVSPost2010PropOp43
 70
     1
102
RTVSPost2010Prop44ColorIndex
 90
        5
102
RTVSPost2010Prop44ColorRGB
 90
      255
102
RTVSPost2010PropOp44
 70
     1
102
RTVSPost2010Prop45
280
     0
102
RTVSPost2010PropOp45
 70
     1
102
RTVSPost2010Prop46
 90
       50
102
RTVSPost2010PropOp46
 70
     1
102
RTVSPost2010Prop47
 90
       50
102
RTVSPost2010PropOp47
 70
     1
102
RTVSPost2010Prop48
 90
       50
102
RTVSPost2010PropOp48
 70
     1
102
RTVSPost2010Prop49
280
     0
102
RTVSPost2010PropOp49
 70
     1
102
RTVSPost2010Prop50
 90
       50
102
RTVSPost2010PropOp50
 70
     1
102
RTVSPost2010Prop51ColorIndex
 90
      256
102
RTVSPost2010Prop51ColorRGB
 90
-16777216
102
RTVSPost2010PropOp51
 70
     0
102
RTVSPost2010Prop52
140
1.0
102
RTVSPost2010PropOp52
 70
     0
102
RTVSPost2010Prop53
 90
        2
102
RTVSPost2010PropOp53
 70
     1
102
RTVSPost2010Prop54
  1
strokes_ogs.tif
102
RTVSPost2010PropOp54
 70
     1
102
RTVSPost2010Prop55
280
     0
102
RTVSPost2010PropOp55
 70
     1
102
RTVSPost2010Prop56
140
1.0
102
RTVSPost2010PropOp56
 70
     1
102
RTVSPost2010Prop57
140
1.0
102
RTVSPost2010PropOp57
 70
     1
102
RTVSPropertyOp0
 70
     1
102
RTVSPropertyOp1
 70
     1
102
RTVSPropertyOp2
 70
     1
102
RTVSPropertyOp3
 70
     1
102
RTVSPropertyOp4
 70
     1
102
RTVSPropertyOp5
 70
     1
102
RTVSPropertyOp6
 70
     1
102
RTVSPropertyOp7
 70
     1
102
RTVSPropertyOp8
 70
     1
102
RTVSPropertyOp9
 70
     1
102
RTVSPropertyOp10
 70
     1
102
RTVSPropertyOp11
 70
     1
102
RTVSPropertyOp12
 70
     1
102
RTVSPropertyOp13
 70
     1
102
RTVSPropertyOp14
 70
     1
102
RTVSPropertyOp15
 70
     1
102
RTVSPropertyOp16
 70
     1
102
RTVSPropertyOp17
 70
     1
102
RTVSPropertyOp18
 70
     1
102
RTVSPropertyOp19
 70
     1
102
RTVSPropertyOp20
 70
     1
102
RTVSPropertyOp21
 70
     1
102
RTVSPropertyOp22
 70
     1
102
RTVSPropertyOp23
 70
     1
102
RTVSPropertyOp24
 70
     1
102
RTVSPropertyOp25
 70
     1
102
RTVSPropertyOp26
 70
     1
102
RTVSPropertyOp27
 70
     1
102
RTVSPropertyOp28
 70
     1
102
RTVSPropertyOp29
 70
     1
102
RTVSPropertyOp30
 70
     1
102
RTVSPropertyOp31
 70
     1
102
RTVSPropertyOp32
 70
     1
102
RTVSPropertyOp33
 70
     1
102
RTVSPropertyOp34
 70
     1
102
RTVSPropertyOp35
 70
     1
102
RTVSPropertyOp36
 70
     1
102
RTVSPropertyOp37
 70
     1
102
RTVSPropertyOp38
 70
     1
102
RTVSPropertyOp39
 70
     1
102
RTVSPropertyOp40
 70
     1
102
RTVSPropertyOp41
 70
     1
102
RTVSPropertyOp42
 70
     1
102
RTVSPropertyOp43
 70
     1
102
RTVSPropertyOp44
 70
     1
102
RTVSPropertyOp45
 70
     1
102
RTVSPropertyOp46
 70
     1
102
RTVSPropertyOp47
 70
     1
102
RTVSPropertyOp48
 70
     1
102
RTVSPropertyOp49
 70
     1
102
RTVSPropertyOp50
 70
     1
102
RTVSPropertyOp51
 70
     0
102
RTVSPropertyOp52
 70
     0
102
RTVSPropertyOp53
 70
     1
102
RTVSPropertyOp54
 70
     1
102
RTVSPropertyOp55
 70
     1
102
RTVSPropertyOp56
 70
     1
102
RTVSPropertyOp57
 70
     1
102
RTVSPropertyOp58
 70
     1
102
RTVSPropertyOp59
 70
     1
102
RTVSPropertyOp60
 70
     1
102
RTVSPropertyOp61
 70
     1
102
RTVSPropertyOp62
 70
     1
  0
XRECORD
  5
ED86
102
{ACAD_REACTORS
330
ED85
102
}
330
ED85
100
AcDbXrecord
280
     1
102
RTVSPost2010Prop28
280
     0
102
RTVSPost2010PropOp28
 70
     1
102
RTVSPost2010Prop29
280
     1
102
RTVSPost2010PropOp29
 70
     1
102
RTVSPost2010Prop30
280
     1
102
RTVSPost2010PropOp30
 70
     1
102
RTVSPost2010Prop31
280
     0
102
RTVSPost2010PropOp31
 70
     1
102
RTVSPost2010Prop32
280
     0
102
RTVSPost2010PropOp32
 70
     1
102
RTVSPost2010Prop33
280
     0
102
RTVSPost2010PropOp33
 70
     1
102
RTVSPost2010Prop34
280
     0
102
RTVSPost2010PropOp34
 70
     1
102
RTVSPost2010Prop35
280
     0
102
RTVSPost2010PropOp35
 70
     1
102
RTVSPost2010Prop36
280
     0
102
RTVSPost2010PropOp36
 70
     1
102
RTVSPost2010Prop37
 90
       50
102
RTVSPost2010PropOp37
 70
     1
102
RTVSPost2010Prop38
140
0.0
102
RTVSPost2010PropOp38
 70
     1
102
RTVSPost2010Prop39
140
1.0
102
RTVSPost2010PropOp39
 70
     1
102
RTVSPost2010Prop40
 90
        0
102
RTVSPost2010PropOp40
 70
     1
102
RTVSPost2010Prop41ColorIndex
 90
       18
102
RTVSPost2010Prop41ColorRGB
 90
        0
102
RTVSPost2010PropOp41
 70
     1
102
RTVSPost2010Prop42
 90
       50
102
RTVSPost2010PropOp42
 70
     1
102
RTVSPost2010Prop43
 90
        3
102
RTVSPost2010PropOp43
 70
     1
102
RTVSPost2010Prop44ColorIndex
 90
        5
102
RTVSPost2010Prop44ColorRGB
 90
      255
102
RTVSPost2010PropOp44
 70
     1
102
RTVSPost2010Prop45
280
     0
102
RTVSPost2010PropOp45
 70
     1
102
RTVSPost2010Prop46
 90
       50
102
RTVSPost2010PropOp46
 70
     1
102
RTVSPost2010Prop47
 90
       50
102
RTVSPost2010PropOp47
 70
     1
102
RTVSPost2010Prop48
 90
       50
102
RTVSPost2010PropOp48
 70
     1
102
RTVSPost2010Prop49
280
     0
102
RTVSPost2010PropOp49
 70
     1
102
RTVSPost2010Prop50
 90
       50
102
RTVSPost2010PropOp50
 70
     1
102
RTVSPost2010Prop51ColorIndex
 90
      256
102
RTVSPost2010Prop51ColorRGB
 90
-16777216
102
RTVSPost2010PropOp51
 70
     0
102
RTVSPost2010Prop52
140
1.0
102
RTVSPost2010PropOp52
 70
     0
102
RTVSPost2010Prop53
 90
        2
102
RTVSPost2010PropOp53
 70
     1
102
RTVSPost2010Prop54
  1
strokes_ogs.tif
102
RTVSPost2010PropOp54
 70
     1
102
RTVSPost2010Prop55
280
     0
102
RTVSPost2010PropOp55
 70
     1
102
RTVSPost2010Prop56
140
1.0
102
RTVSPost2010PropOp56
 70
     1
102
RTVSPost2010Prop57
140
1.0
102
RTVSPost2010PropOp57
 70
     1
102
RTVSPropertyOp0
 70
     1
102
RTVSPropertyOp1
 70
     1
102
RTVSPropertyOp2
 70
     1
102
RTVSPropertyOp3
 70
     1
102
RTVSPropertyOp4
 70
     1
102
RTVSPropertyOp5
 70
     1
102
RTVSPropertyOp6
 70
     1
102
RTVSPropertyOp7
 70
     1
102
RTVSPropertyOp8
 70
     1
102
RTVSPropertyOp9
 70
     1
102
RTVSPropertyOp10
 70
     1
102
RTVSPropertyOp11
 70
     1
102
RTVSPropertyOp12
 70
     1
102
RTVSPropertyOp13
 70
     1
102
RTVSPropertyOp14
 70
     1
102
RTVSPropertyOp15
 70
     1
102
RTVSPropertyOp16
 70
     1
102
RTVSPropertyOp17
 70
     1
102
RTVSPropertyOp18
 70
     1
102
RTVSPropertyOp19
 70
     1
102
RTVSPropertyOp20
 70
     1
102
RTVSPropertyOp21
 70
     1
102
RTVSPropertyOp22
 70
     1
102
RTVSPropertyOp23
 70
     1
102
RTVSPropertyOp24
 70
     1
102
RTVSPropertyOp25
 70
     1
102
RTVSPropertyOp26
 70
     1
102
RTVSPropertyOp27
 70
     1
102
RTVSPropertyOp28
 70
     1
102
RTVSPropertyOp29
 70
     1
102
RTVSPropertyOp30
 70
     1
102
RTVSPropertyOp31
 70
     1
102
RTVSPropertyOp32
 70
     1
102
RTVSPropertyOp33
 70
     1
102
RTVSPropertyOp34
 70
     1
102
RTVSPropertyOp35
 70
     1
102
RTVSPropertyOp36
 70
     1
102
RTVSPropertyOp37
 70
     1
102
RTVSPropertyOp38
 70
     1
102
RTVSPropertyOp39
 70
     1
102
RTVSPropertyOp40
 70
     1
102
RTVSPropertyOp41
 70
     1
102
RTVSPropertyOp42
 70
     1
102
RTVSPropertyOp43
 70
     1
102
RTVSPropertyOp44
 70
     1
102
RTVSPropertyOp45
 70
     1
102
RTVSPropertyOp46
 70
     1
102
RTVSPropertyOp47
 70
     1
102
RTVSPropertyOp48
 70
     1
102
RTVSPropertyOp49
 70
     1
102
RTVSPropertyOp50
 70
     1
102
RTVSPropertyOp51
 70
     0
102
RTVSPropertyOp52
 70
     0
102
RTVSPropertyOp53
 70
     1
102
RTVSPropertyOp54
 70
     1
102
RTVSPropertyOp55
 70
     1
102
RTVSPropertyOp56
 70
     1
102
RTVSPropertyOp57
 70
     1
102
RTVSPropertyOp58
 70
     1
102
RTVSPropertyOp59
 70
     1
102
RTVSPropertyOp60
 70
     1
102
RTVSPropertyOp61
 70
     1
102
RTVSPropertyOp62
 70
     1
  0
XRECORD
  5
ED88
102
{ACAD_REACTORS
330
ED87
102
}
330
ED87
100
AcDbXrecord
280
     1
102
RTVSPost2010Prop28
280
     0
102
RTVSPost2010PropOp28
 70
     1
102
RTVSPost2010Prop29
280
     1
102
RTVSPost2010PropOp29
 70
     1
102
RTVSPost2010Prop30
280
     1
102
RTVSPost2010PropOp30
 70
     1
102
RTVSPost2010Prop31
280
     0
102
RTVSPost2010PropOp31
 70
     1
102
RTVSPost2010Prop32
280
     0
102
RTVSPost2010PropOp32
 70
     1
102
RTVSPost2010Prop33
280
     0
102
RTVSPost2010PropOp33
 70
     1
102
RTVSPost2010Prop34
280
     0
102
RTVSPost2010PropOp34
 70
     1
102
RTVSPost2010Prop35
280
     0
102
RTVSPost2010PropOp35
 70
     1
102
RTVSPost2010Prop36
280
     0
102
RTVSPost2010PropOp36
 70
     1
102
RTVSPost2010Prop37
 90
       50
102
RTVSPost2010PropOp37
 70
     1
102
RTVSPost2010Prop38
140
0.0
102
RTVSPost2010PropOp38
 70
     1
102
RTVSPost2010Prop39
140
1.0
102
RTVSPost2010PropOp39
 70
     1
102
RTVSPost2010Prop40
 90
        0
102
RTVSPost2010PropOp40
 70
     1
102
RTVSPost2010Prop41ColorIndex
 90
       18
102
RTVSPost2010Prop41ColorRGB
 90
        0
102
RTVSPost2010PropOp41
 70
     1
102
RTVSPost2010Prop42
 90
       50
102
RTVSPost2010PropOp42
 70
     1
102
RTVSPost2010Prop43
 90
        3
102
RTVSPost2010PropOp43
 70
     1
102
RTVSPost2010Prop44ColorIndex
 90
        5
102
RTVSPost2010Prop44ColorRGB
 90
      255
102
RTVSPost2010PropOp44
 70
     1
102
RTVSPost2010Prop45
280
     0
102
RTVSPost2010PropOp45
 70
     1
102
RTVSPost2010Prop46
 90
       50
102
RTVSPost2010PropOp46
 70
     1
102
RTVSPost2010Prop47
 90
       50
102
RTVSPost2010PropOp47
 70
     1
102
RTVSPost2010Prop48
 90
       50
102
RTVSPost2010PropOp48
 70
     1
102
RTVSPost2010Prop49
280
     0
102
RTVSPost2010PropOp49
 70
     1
102
RTVSPost2010Prop50
 90
       50
102
RTVSPost2010PropOp50
 70
     1
102
RTVSPost2010Prop51ColorIndex
 90
      256
102
RTVSPost2010Prop51ColorRGB
 90
-16777216
102
RTVSPost2010PropOp51
 70
     0
102
RTVSPost2010Prop52
140
1.0
102
RTVSPost2010PropOp52
 70
     0
102
RTVSPost2010Prop53
 90
        2
102
RTVSPost2010PropOp53
 70
     1
102
RTVSPost2010Prop54
  1
strokes_ogs.tif
102
RTVSPost2010PropOp54
 70
     1
102
RTVSPost2010Prop55
280
     0
102
RTVSPost2010PropOp55
 70
     1
102
RTVSPost2010Prop56
140
1.0
102
RTVSPost2010PropOp56
 70
     1
102
RTVSPost2010Prop57
140
1.0
102
RTVSPost2010PropOp57
 70
     1
102
RTVSPropertyOp0
 70
     1
102
RTVSPropertyOp1
 70
     1
102
RTVSPropertyOp2
 70
     1
102
RTVSPropertyOp3
 70
     1
102
RTVSPropertyOp4
 70
     1
102
RTVSPropertyOp5
 70
     1
102
RTVSPropertyOp6
 70
     1
102
RTVSPropertyOp7
 70
     1
102
RTVSPropertyOp8
 70
     1
102
RTVSPropertyOp9
 70
     1
102
RTVSPropertyOp10
 70
     1
102
RTVSPropertyOp11
 70
     1
102
RTVSPropertyOp12
 70
     1
102
RTVSPropertyOp13
 70
     1
102
RTVSPropertyOp14
 70
     1
102
RTVSPropertyOp15
 70
     1
102
RTVSPropertyOp16
 70
     1
102
RTVSPropertyOp17
 70
     1
102
RTVSPropertyOp18
 70
     1
102
RTVSPropertyOp19
 70
     1
102
RTVSPropertyOp20
 70
     1
102
RTVSPropertyOp21
 70
     1
102
RTVSPropertyOp22
 70
     1
102
RTVSPropertyOp23
 70
     1
102
RTVSPropertyOp24
 70
     1
102
RTVSPropertyOp25
 70
     1
102
RTVSPropertyOp26
 70
     1
102
RTVSPropertyOp27
 70
     1
102
RTVSPropertyOp28
 70
     1
102
RTVSPropertyOp29
 70
     1
102
RTVSPropertyOp30
 70
     1
102
RTVSPropertyOp31
 70
     1
102
RTVSPropertyOp32
 70
     1
102
RTVSPropertyOp33
 70
     1
102
RTVSPropertyOp34
 70
     1
102
RTVSPropertyOp35
 70
     1
102
RTVSPropertyOp36
 70
     1
102
RTVSPropertyOp37
 70
     1
102
RTVSPropertyOp38
 70
     1
102
RTVSPropertyOp39
 70
     1
102
RTVSPropertyOp40
 70
     1
102
RTVSPropertyOp41
 70
     1
102
RTVSPropertyOp42
 70
     1
102
RTVSPropertyOp43
 70
     1
102
RTVSPropertyOp44
 70
     1
102
RTVSPropertyOp45
 70
     1
102
RTVSPropertyOp46
 70
     1
102
RTVSPropertyOp47
 70
     1
102
RTVSPropertyOp48
 70
     1
102
RTVSPropertyOp49
 70
     1
102
RTVSPropertyOp50
 70
     1
102
RTVSPropertyOp51
 70
     0
102
RTVSPropertyOp52
 70
     0
102
RTVSPropertyOp53
 70
     1
102
RTVSPropertyOp54
 70
     1
102
RTVSPropertyOp55
 70
     1
102
RTVSPropertyOp56
 70
     1
102
RTVSPropertyOp57
 70
     1
102
RTVSPropertyOp58
 70
     1
102
RTVSPropertyOp59
 70
     1
102
RTVSPropertyOp60
 70
     1
102
RTVSPropertyOp61
 70
     1
102
RTVSPropertyOp62
 70
     1
  0
XRECORD
  5
ED90
102
{ACAD_REACTORS
330
ED8F
102
}
330
ED8F
100
AcDbXrecord
280
     1
102
RTVSPost2010Prop28
280
     0
102
RTVSPost2010PropOp28
 70
     1
102
RTVSPost2010Prop29
280
     1
102
RTVSPost2010PropOp29
 70
     1
102
RTVSPost2010Prop30
280
     1
102
RTVSPost2010PropOp30
 70
     1
102
RTVSPost2010Prop31
280
     0
102
RTVSPost2010PropOp31
 70
     1
102
RTVSPost2010Prop32
280
     0
102
RTVSPost2010PropOp32
 70
     1
102
RTVSPost2010Prop33
280
     0
102
RTVSPost2010PropOp33
 70
     1
102
RTVSPost2010Prop34
280
     0
102
RTVSPost2010PropOp34
 70
     1
102
RTVSPost2010Prop35
280
     0
102
RTVSPost2010PropOp35
 70
     1
102
RTVSPost2010Prop36
280
     0
102
RTVSPost2010PropOp36
 70
     1
102
RTVSPost2010Prop37
 90
       50
102
RTVSPost2010PropOp37
 70
     1
102
RTVSPost2010Prop38
140
0.0
102
RTVSPost2010PropOp38
 70
     1
102
RTVSPost2010Prop39
140
1.0
102
RTVSPost2010PropOp39
 70
     1
102
RTVSPost2010Prop40
 90
        0
102
RTVSPost2010PropOp40
 70
     1
102
RTVSPost2010Prop41ColorIndex
 90
       18
102
RTVSPost2010Prop41ColorRGB
 90
        0
102
RTVSPost2010PropOp41
 70
     1
102
RTVSPost2010Prop42
 90
       50
102
RTVSPost2010PropOp42
 70
     1
102
RTVSPost2010Prop43
 90
        3
102
RTVSPost2010PropOp43
 70
     1
102
RTVSPost2010Prop44ColorIndex
 90
        5
102
RTVSPost2010Prop44ColorRGB
 90
      255
102
RTVSPost2010PropOp44
 70
     1
102
RTVSPost2010Prop45
280
     0
102
RTVSPost2010PropOp45
 70
     1
102
RTVSPost2010Prop46
 90
       50
102
RTVSPost2010PropOp46
 70
     1
102
RTVSPost2010Prop47
 90
       50
102
RTVSPost2010PropOp47
 70
     1
102
RTVSPost2010Prop48
 90
       50
102
RTVSPost2010PropOp48
 70
     1
102
RTVSPost2010Prop49
280
     0
102
RTVSPost2010PropOp49
 70
     1
102
RTVSPost2010Prop50
 90
       50
102
RTVSPost2010PropOp50
 70
     1
102
RTVSPost2010Prop51ColorIndex
 90
      256
102
RTVSPost2010Prop51ColorRGB
 90
-16777216
102
RTVSPost2010PropOp51
 70
     0
102
RTVSPost2010Prop52
140
1.0
102
RTVSPost2010PropOp52
 70
     0
102
RTVSPost2010Prop53
 90
        2
102
RTVSPost2010PropOp53
 70
     1
102
RTVSPost2010Prop54
  1
strokes_ogs.tif
102
RTVSPost2010PropOp54
 70
     1
102
RTVSPost2010Prop55
280
     0
102
RTVSPost2010PropOp55
 70
     1
102
RTVSPost2010Prop56
140
1.0
102
RTVSPost2010PropOp56
 70
     1
102
RTVSPost2010Prop57
140
1.0
102
RTVSPost2010PropOp57
 70
     1
102
RTVSPropertyOp0
 70
     1
102
RTVSPropertyOp1
 70
     1
102
RTVSPropertyOp2
 70
     1
102
RTVSPropertyOp3
 70
     1
102
RTVSPropertyOp4
 70
     1
102
RTVSPropertyOp5
 70
     1
102
RTVSPropertyOp6
 70
     1
102
RTVSPropertyOp7
 70
     1
102
RTVSPropertyOp8
 70
     1
102
RTVSPropertyOp9
 70
     1
102
RTVSPropertyOp10
 70
     1
102
RTVSPropertyOp11
 70
     1
102
RTVSPropertyOp12
 70
     1
102
RTVSPropertyOp13
 70
     1
102
RTVSPropertyOp14
 70
     1
102
RTVSPropertyOp15
 70
     1
102
RTVSPropertyOp16
 70
     1
102
RTVSPropertyOp17
 70
     1
102
RTVSPropertyOp18
 70
     1
102
RTVSPropertyOp19
 70
     1
102
RTVSPropertyOp20
 70
     1
102
RTVSPropertyOp21
 70
     1
102
RTVSPropertyOp22
 70
     1
102
RTVSPropertyOp23
 70
     1
102
RTVSPropertyOp24
 70
     1
102
RTVSPropertyOp25
 70
     1
102
RTVSPropertyOp26
 70
     1
102
RTVSPropertyOp27
 70
     1
102
RTVSPropertyOp28
 70
     1
102
RTVSPropertyOp29
 70
     1
102
RTVSPropertyOp30
 70
     1
102
RTVSPropertyOp31
 70
     1
102
RTVSPropertyOp32
 70
     1
102
RTVSPropertyOp33
 70
     1
102
RTVSPropertyOp34
 70
     1
102
RTVSPropertyOp35
 70
     1
102
RTVSPropertyOp36
 70
     1
102
RTVSPropertyOp37
 70
     1
102
RTVSPropertyOp38
 70
     1
102
RTVSPropertyOp39
 70
     1
102
RTVSPropertyOp40
 70
     1
102
RTVSPropertyOp41
 70
     1
102
RTVSPropertyOp42
 70
     1
102
RTVSPropertyOp43
 70
     1
102
RTVSPropertyOp44
 70
     1
102
RTVSPropertyOp45
 70
     1
102
RTVSPropertyOp46
 70
     1
102
RTVSPropertyOp47
 70
     1
102
RTVSPropertyOp48
 70
     1
102
RTVSPropertyOp49
 70
     1
102
RTVSPropertyOp50
 70
     1
102
RTVSPropertyOp51
 70
     0
102
RTVSPropertyOp52
 70
     0
102
RTVSPropertyOp53
 70
     1
102
RTVSPropertyOp54
 70
     1
102
RTVSPropertyOp55
 70
     1
102
RTVSPropertyOp56
 70
     1
102
RTVSPropertyOp57
 70
     1
102
RTVSPropertyOp58
 70
     1
102
RTVSPropertyOp59
 70
     1
102
RTVSPropertyOp60
 70
     1
102
RTVSPropertyOp61
 70
     1
102
RTVSPropertyOp62
 70
     1
  0
XRECORD
  5
EDA4
102
{ACAD_REACTORS
330
EDA3
102
}
330
EDA3
100
AcDbXrecord
280
     1
102
RTVSPost2010Prop28
280
     0
102
RTVSPost2010PropOp28
 70
     1
102
RTVSPost2010Prop29
280
     1
102
RTVSPost2010PropOp29
 70
     1
102
RTVSPost2010Prop30
280
     1
102
RTVSPost2010PropOp30
 70
     1
102
RTVSPost2010Prop31
280
     0
102
RTVSPost2010PropOp31
 70
     1
102
RTVSPost2010Prop32
280
     0
102
RTVSPost2010PropOp32
 70
     1
102
RTVSPost2010Prop33
280
     0
102
RTVSPost2010PropOp33
 70
     1
102
RTVSPost2010Prop34
280
     0
102
RTVSPost2010PropOp34
 70
     1
102
RTVSPost2010Prop35
280
     0
102
RTVSPost2010PropOp35
 70
     1
102
RTVSPost2010Prop36
280
     0
102
RTVSPost2010PropOp36
 70
     1
102
RTVSPost2010Prop37
 90
       50
102
RTVSPost2010PropOp37
 70
     1
102
RTVSPost2010Prop38
140
0.0
102
RTVSPost2010PropOp38
 70
     1
102
RTVSPost2010Prop39
140
1.0
102
RTVSPost2010PropOp39
 70
     1
102
RTVSPost2010Prop40
 90
        0
102
RTVSPost2010PropOp40
 70
     1
102
RTVSPost2010Prop41ColorIndex
 90
       18
102
RTVSPost2010Prop41ColorRGB
 90
        0
102
RTVSPost2010PropOp41
 70
     1
102
RTVSPost2010Prop42
 90
       50
102
RTVSPost2010PropOp42
 70
     1
102
RTVSPost2010Prop43
 90
        3
102
RTVSPost2010PropOp43
 70
     1
102
RTVSPost2010Prop44ColorIndex
 90
        5
102
RTVSPost2010Prop44ColorRGB
 90
      255
102
RTVSPost2010PropOp44
 70
     1
102
RTVSPost2010Prop45
280
     0
102
RTVSPost2010PropOp45
 70
     1
102
RTVSPost2010Prop46
 90
       50
102
RTVSPost2010PropOp46
 70
     1
102
RTVSPost2010Prop47
 90
       50
102
RTVSPost2010PropOp47
 70
     1
102
RTVSPost2010Prop48
 90
       50
102
RTVSPost2010PropOp48
 70
     1
102
RTVSPost2010Prop49
280
     0
102
RTVSPost2010PropOp49
 70
     1
102
RTVSPost2010Prop50
 90
       50
102
RTVSPost2010PropOp50
 70
     1
102
RTVSPost2010Prop51ColorIndex
 90
      256
102
RTVSPost2010Prop51ColorRGB
 90
-16777216
102
RTVSPost2010PropOp51
 70
     0
102
RTVSPost2010Prop52
140
1.0
102
RTVSPost2010PropOp52
 70
     0
102
RTVSPost2010Prop53
 90
        2
102
RTVSPost2010PropOp53
 70
     1
102
RTVSPost2010Prop54
  1
strokes_ogs.tif
102
RTVSPost2010PropOp54
 70
     1
102
RTVSPost2010Prop55
280
     0
102
RTVSPost2010PropOp55
 70
     1
102
RTVSPost2010Prop56
140
1.0
102
RTVSPost2010PropOp56
 70
     1
102
RTVSPost2010Prop57
140
1.0
102
RTVSPost2010PropOp57
 70
     1
102
RTVSPropertyOp0
 70
     0
102
RTVSPropertyOp1
 70
     0
102
RTVSPropertyOp2
 70
     0
102
RTVSPropertyOp3
 70
     0
102
RTVSPropertyOp4
 70
     0
102
RTVSPropertyOp5
 70
     0
102
RTVSPropertyOp6
 70
     0
102
RTVSPropertyOp7
 70
     0
102
RTVSPropertyOp8
 70
     0
102
RTVSPropertyOp9
 70
     0
102
RTVSPropertyOp10
 70
     0
102
RTVSPropertyOp11
 70
     0
102
RTVSPropertyOp12
 70
     0
102
RTVSPropertyOp13
 70
     0
102
RTVSPropertyOp14
 70
     2
102
RTVSPropertyOp15
 70
     0
102
RTVSPropertyOp16
 70
     0
102
RTVSPropertyOp17
 70
     0
102
RTVSPropertyOp18
 70
     0
102
RTVSPropertyOp19
 70
     0
102
RTVSPropertyOp20
 70
     0
102
RTVSPropertyOp21
 70
     0
102
RTVSPropertyOp22
 70
     0
102
RTVSPropertyOp23
 70
     0
102
RTVSPropertyOp24
 70
     0
102
RTVSPropertyOp25
 70
     0
102
RTVSPropertyOp26
 70
     0
102
RTVSPropertyOp27
 70
     0
102
RTVSPropertyOp28
 70
     1
102
RTVSPropertyOp29
 70
     1
102
RTVSPropertyOp30
 70
     1
102
RTVSPropertyOp31
 70
     1
102
RTVSPropertyOp32
 70
     1
102
RTVSPropertyOp33
 70
     1
102
RTVSPropertyOp34
 70
     1
102
RTVSPropertyOp35
 70
     1
102
RTVSPropertyOp36
 70
     1
102
RTVSPropertyOp37
 70
     1
102
RTVSPropertyOp38
 70
     1
102
RTVSPropertyOp39
 70
     1
102
RTVSPropertyOp40
 70
     1
102
RTVSPropertyOp41
 70
     1
102
RTVSPropertyOp42
 70
     1
102
RTVSPropertyOp43
 70
     1
102
RTVSPropertyOp44
 70
     1
102
RTVSPropertyOp45
 70
     1
102
RTVSPropertyOp46
 70
     1
102
RTVSPropertyOp47
 70
     1
102
RTVSPropertyOp48
 70
     1
102
RTVSPropertyOp49
 70
     1
102
RTVSPropertyOp50
 70
     1
102
RTVSPropertyOp51
 70
     0
102
RTVSPropertyOp52
 70
     0
102
RTVSPropertyOp53
 70
     1
102
RTVSPropertyOp54
 70
     1
102
RTVSPropertyOp55
 70
     1
102
RTVSPropertyOp56
 70
     1
102
RTVSPropertyOp57
 70
     1
102
RTVSPropertyOp58
 70
     1
102
RTVSPropertyOp59
 70
     1
102
RTVSPropertyOp60
 70
     1
102
RTVSPropertyOp61
 70
     1
102
RTVSPropertyOp62
 70
     1
  0
XRECORD
  5
ED9C
102
{ACAD_REACTORS
330
ED9B
102
}
330
ED9B
100
AcDbXrecord
280
     1
102
RTVSPost2010Prop28
280
     0
102
RTVSPost2010PropOp28
 70
     1
102
RTVSPost2010Prop29
280
     1
102
RTVSPost2010PropOp29
 70
     1
102
RTVSPost2010Prop30
280
     1
102
RTVSPost2010PropOp30
 70
     1
102
RTVSPost2010Prop31
280
     0
102
RTVSPost2010PropOp31
 70
     1
102
RTVSPost2010Prop32
280
     0
102
RTVSPost2010PropOp32
 70
     1
102
RTVSPost2010Prop33
280
     0
102
RTVSPost2010PropOp33
 70
     1
102
RTVSPost2010Prop34
280
     0
102
RTVSPost2010PropOp34
 70
     1
102
RTVSPost2010Prop35
280
     0
102
RTVSPost2010PropOp35
 70
     1
102
RTVSPost2010Prop36
280
     0
102
RTVSPost2010PropOp36
 70
     1
102
RTVSPost2010Prop37
 90
       50
102
RTVSPost2010PropOp37
 70
     1
102
RTVSPost2010Prop38
140
0.0
102
RTVSPost2010PropOp38
 70
     1
102
RTVSPost2010Prop39
140
1.0
102
RTVSPost2010PropOp39
 70
     1
102
RTVSPost2010Prop40
 90
        0
102
RTVSPost2010PropOp40
 70
     1
102
RTVSPost2010Prop41ColorIndex
 90
       18
102
RTVSPost2010Prop41ColorRGB
 90
        0
102
RTVSPost2010PropOp41
 70
     1
102
RTVSPost2010Prop42
 90
       50
102
RTVSPost2010PropOp42
 70
     1
102
RTVSPost2010Prop43
 90
        3
102
RTVSPost2010PropOp43
 70
     1
102
RTVSPost2010Prop44ColorIndex
 90
        5
102
RTVSPost2010Prop44ColorRGB
 90
      255
102
RTVSPost2010PropOp44
 70
     1
102
RTVSPost2010Prop45
280
     0
102
RTVSPost2010PropOp45
 70
     1
102
RTVSPost2010Prop46
 90
       50
102
RTVSPost2010PropOp46
 70
     1
102
RTVSPost2010Prop47
 90
       50
102
RTVSPost2010PropOp47
 70
     1
102
RTVSPost2010Prop48
 90
       50
102
RTVSPost2010PropOp48
 70
     1
102
RTVSPost2010Prop49
280
     0
102
RTVSPost2010PropOp49
 70
     1
102
RTVSPost2010Prop50
 90
       50
102
RTVSPost2010PropOp50
 70
     1
102
RTVSPost2010Prop51ColorIndex
 90
      256
102
RTVSPost2010Prop51ColorRGB
 90
-16777216
102
RTVSPost2010PropOp51
 70
     0
102
RTVSPost2010Prop52
140
1.0
102
RTVSPost2010PropOp52
 70
     0
102
RTVSPost2010Prop53
 90
        2
102
RTVSPost2010PropOp53
 70
     1
102
RTVSPost2010Prop54
  1
strokes_ogs.tif
102
RTVSPost2010PropOp54
 70
     1
102
RTVSPost2010Prop55
280
     0
102
RTVSPost2010PropOp55
 70
     1
102
RTVSPost2010Prop56
140
1.0
102
RTVSPost2010PropOp56
 70
     1
102
RTVSPost2010Prop57
140
1.0
102
RTVSPost2010PropOp57
 70
     1
102
RTVSPropertyOp0
 70
     1
102
RTVSPropertyOp1
 70
     1
102
RTVSPropertyOp2
 70
     1
102
RTVSPropertyOp3
 70
     1
102
RTVSPropertyOp4
 70
     1
102
RTVSPropertyOp5
 70
     1
102
RTVSPropertyOp6
 70
     1
102
RTVSPropertyOp7
 70
     1
102
RTVSPropertyOp8
 70
     1
102
RTVSPropertyOp9
 70
     1
102
RTVSPropertyOp10
 70
     1
102
RTVSPropertyOp11
 70
     1
102
RTVSPropertyOp12
 70
     1
102
RTVSPropertyOp13
 70
     1
102
RTVSPropertyOp14
 70
     1
102
RTVSPropertyOp15
 70
     1
102
RTVSPropertyOp16
 70
     1
102
RTVSPropertyOp17
 70
     1
102
RTVSPropertyOp18
 70
     1
102
RTVSPropertyOp19
 70
     1
102
RTVSPropertyOp20
 70
     1
102
RTVSPropertyOp21
 70
     1
102
RTVSPropertyOp22
 70
     1
102
RTVSPropertyOp23
 70
     1
102
RTVSPropertyOp24
 70
     1
102
RTVSPropertyOp25
 70
     1
102
RTVSPropertyOp26
 70
     1
102
RTVSPropertyOp27
 70
     1
102
RTVSPropertyOp28
 70
     1
102
RTVSPropertyOp29
 70
     1
102
RTVSPropertyOp30
 70
     1
102
RTVSPropertyOp31
 70
     1
102
RTVSPropertyOp32
 70
     1
102
RTVSPropertyOp33
 70
     1
102
RTVSPropertyOp34
 70
     1
102
RTVSPropertyOp35
 70
     1
102
RTVSPropertyOp36
 70
     1
102
RTVSPropertyOp37
 70
     1
102
RTVSPropertyOp38
 70
     1
102
RTVSPropertyOp39
 70
     1
102
RTVSPropertyOp40
 70
     1
102
RTVSPropertyOp41
 70
     1
102
RTVSPropertyOp42
 70
     1
102
RTVSPropertyOp43
 70
     1
102
RTVSPropertyOp44
 70
     1
102
RTVSPropertyOp45
 70
     1
102
RTVSPropertyOp46
 70
     1
102
RTVSPropertyOp47
 70
     1
102
RTVSPropertyOp48
 70
     1
102
RTVSPropertyOp49
 70
     1
102
RTVSPropertyOp50
 70
     1
102
RTVSPropertyOp51
 70
     0
102
RTVSPropertyOp52
 70
     0
102
RTVSPropertyOp53
 70
     1
102
RTVSPropertyOp54
 70
     1
102
RTVSPropertyOp55
 70
     1
102
RTVSPropertyOp56
 70
     1
102
RTVSPropertyOp57
 70
     1
102
RTVSPropertyOp58
 70
     1
102
RTVSPropertyOp59
 70
     1
102
RTVSPropertyOp60
 70
     1
102
RTVSPropertyOp61
 70
     1
102
RTVSPropertyOp62
 70
     1
  0
XRECORD
  5
EDA6
102
{ACAD_REACTORS
330
EDA5
102
}
330
EDA5
100
AcDbXrecord
280
     1
102
RTVSPost2010Prop28
280
     0
102
RTVSPost2010PropOp28
 70
     1
102
RTVSPost2010Prop29
280
     1
102
RTVSPost2010PropOp29
 70
     1
102
RTVSPost2010Prop30
280
     1
102
RTVSPost2010PropOp30
 70
     1
102
RTVSPost2010Prop31
280
     0
102
RTVSPost2010PropOp31
 70
     1
102
RTVSPost2010Prop32
280
     0
102
RTVSPost2010PropOp32
 70
     1
102
RTVSPost2010Prop33
280
     0
102
RTVSPost2010PropOp33
 70
     1
102
RTVSPost2010Prop34
280
     0
102
RTVSPost2010PropOp34
 70
     1
102
RTVSPost2010Prop35
280
     0
102
RTVSPost2010PropOp35
 70
     1
102
RTVSPost2010Prop36
280
     0
102
RTVSPost2010PropOp36
 70
     1
102
RTVSPost2010Prop37
 90
       50
102
RTVSPost2010PropOp37
 70
     1
102
RTVSPost2010Prop38
140
0.0
102
RTVSPost2010PropOp38
 70
     1
102
RTVSPost2010Prop39
140
1.0
102
RTVSPost2010PropOp39
 70
     1
102
RTVSPost2010Prop40
 90
        0
102
RTVSPost2010PropOp40
 70
     1
102
RTVSPost2010Prop41ColorIndex
 90
       18
102
RTVSPost2010Prop41ColorRGB
 90
        0
102
RTVSPost2010PropOp41
 70
     1
102
RTVSPost2010Prop42
 90
       50
102
RTVSPost2010PropOp42
 70
     1
102
RTVSPost2010Prop43
 90
        3
102
RTVSPost2010PropOp43
 70
     1
102
RTVSPost2010Prop44ColorIndex
 90
        5
102
RTVSPost2010Prop44ColorRGB
 90
      255
102
RTVSPost2010PropOp44
 70
     1
102
RTVSPost2010Prop45
280
     0
102
RTVSPost2010PropOp45
 70
     1
102
RTVSPost2010Prop46
 90
       50
102
RTVSPost2010PropOp46
 70
     1
102
RTVSPost2010Prop47
 90
       50
102
RTVSPost2010PropOp47
 70
     1
102
RTVSPost2010Prop48
 90
       50
102
RTVSPost2010PropOp48
 70
     1
102
RTVSPost2010Prop49
280
     0
102
RTVSPost2010PropOp49
 70
     1
102
RTVSPost2010Prop50
 90
       50
102
RTVSPost2010PropOp50
 70
     1
102
RTVSPost2010Prop51ColorIndex
 90
      256
102
RTVSPost2010Prop51ColorRGB
 90
-16777216
102
RTVSPost2010PropOp51
 70
     0
102
RTVSPost2010Prop52
140
1.0
102
RTVSPost2010PropOp52
 70
     0
102
RTVSPost2010Prop53
 90
        2
102
RTVSPost2010PropOp53
 70
     1
102
RTVSPost2010Prop54
  1
strokes_ogs.tif
102
RTVSPost2010PropOp54
 70
     1
102
RTVSPost2010Prop55
280
     0
102
RTVSPost2010PropOp55
 70
     1
102
RTVSPost2010Prop56
140
1.0
102
RTVSPost2010PropOp56
 70
     1
102
RTVSPost2010Prop57
140
1.0
102
RTVSPost2010PropOp57
 70
     1
102
RTVSPropertyOp0
 70
     0
102
RTVSPropertyOp1
 70
     0
102
RTVSPropertyOp2
 70
     0
102
RTVSPropertyOp3
 70
     0
102
RTVSPropertyOp4
 70
     0
102
RTVSPropertyOp5
 70
     0
102
RTVSPropertyOp6
 70
     0
102
RTVSPropertyOp7
 70
     0
102
RTVSPropertyOp8
 70
     0
102
RTVSPropertyOp9
 70
     0
102
RTVSPropertyOp10
 70
     0
102
RTVSPropertyOp11
 70
     0
102
RTVSPropertyOp12
 70
     0
102
RTVSPropertyOp13
 70
     0
102
RTVSPropertyOp14
 70
     2
102
RTVSPropertyOp15
 70
     0
102
RTVSPropertyOp16
 70
     0
102
RTVSPropertyOp17
 70
     0
102
RTVSPropertyOp18
 70
     0
102
RTVSPropertyOp19
 70
     0
102
RTVSPropertyOp20
 70
     0
102
RTVSPropertyOp21
 70
     0
102
RTVSPropertyOp22
 70
     0
102
RTVSPropertyOp23
 70
     0
102
RTVSPropertyOp24
 70
     0
102
RTVSPropertyOp25
 70
     0
102
RTVSPropertyOp26
 70
     0
102
RTVSPropertyOp27
 70
     0
102
RTVSPropertyOp28
 70
     1
102
RTVSPropertyOp29
 70
     1
102
RTVSPropertyOp30
 70
     1
102
RTVSPropertyOp31
 70
     1
102
RTVSPropertyOp32
 70
     1
102
RTVSPropertyOp33
 70
     1
102
RTVSPropertyOp34
 70
     1
102
RTVSPropertyOp35
 70
     1
102
RTVSPropertyOp36
 70
     1
102
RTVSPropertyOp37
 70
     1
102
RTVSPropertyOp38
 70
     1
102
RTVSPropertyOp39
 70
     1
102
RTVSPropertyOp40
 70
     1
102
RTVSPropertyOp41
 70
     1
102
RTVSPropertyOp42
 70
     1
102
RTVSPropertyOp43
 70
     1
102
RTVSPropertyOp44
 70
     1
102
RTVSPropertyOp45
 70
     1
102
RTVSPropertyOp46
 70
     1
102
RTVSPropertyOp47
 70
     1
102
RTVSPropertyOp48
 70
     1
102
RTVSPropertyOp49
 70
     1
102
RTVSPropertyOp50
 70
     1
102
RTVSPropertyOp51
 70
     0
102
RTVSPropertyOp52
 70
     0
102
RTVSPropertyOp53
 70
     1
102
RTVSPropertyOp54
 70
     1
102
RTVSPropertyOp55
 70
     1
102
RTVSPropertyOp56
 70
     1
102
RTVSPropertyOp57
 70
     1
102
RTVSPropertyOp58
 70
     1
102
RTVSPropertyOp59
 70
     1
102
RTVSPropertyOp60
 70
     1
102
RTVSPropertyOp61
 70
     1
102
RTVSPropertyOp62
 70
     1
  0
XRECORD
  5
ED94
102
{ACAD_REACTORS
330
ED93
102
}
330
ED93
100
AcDbXrecord
280
     1
102
RTVSPost2010Prop28
280
     0
102
RTVSPost2010PropOp28
 70
     1
102
RTVSPost2010Prop29
280
     1
102
RTVSPost2010PropOp29
 70
     1
102
RTVSPost2010Prop30
280
     1
102
RTVSPost2010PropOp30
 70
     1
102
RTVSPost2010Prop31
280
     0
102
RTVSPost2010PropOp31
 70
     1
102
RTVSPost2010Prop32
280
     0
102
RTVSPost2010PropOp32
 70
     1
102
RTVSPost2010Prop33
280
     0
102
RTVSPost2010PropOp33
 70
     1
102
RTVSPost2010Prop34
280
     0
102
RTVSPost2010PropOp34
 70
     1
102
RTVSPost2010Prop35
280
     0
102
RTVSPost2010PropOp35
 70
     1
102
RTVSPost2010Prop36
280
     0
102
RTVSPost2010PropOp36
 70
     1
102
RTVSPost2010Prop37
 90
       50
102
RTVSPost2010PropOp37
 70
     1
102
RTVSPost2010Prop38
140
0.0
102
RTVSPost2010PropOp38
 70
     1
102
RTVSPost2010Prop39
140
1.0
102
RTVSPost2010PropOp39
 70
     1
102
RTVSPost2010Prop40
 90
        0
102
RTVSPost2010PropOp40
 70
     1
102
RTVSPost2010Prop41ColorIndex
 90
       18
102
RTVSPost2010Prop41ColorRGB
 90
        0
102
RTVSPost2010PropOp41
 70
     1
102
RTVSPost2010Prop42
 90
       50
102
RTVSPost2010PropOp42
 70
     1
102
RTVSPost2010Prop43
 90
        3
102
RTVSPost2010PropOp43
 70
     1
102
RTVSPost2010Prop44ColorIndex
 90
        5
102
RTVSPost2010Prop44ColorRGB
 90
      255
102
RTVSPost2010PropOp44
 70
     1
102
RTVSPost2010Prop45
280
     0
102
RTVSPost2010PropOp45
 70
     1
102
RTVSPost2010Prop46
 90
       50
102
RTVSPost2010PropOp46
 70
     1
102
RTVSPost2010Prop47
 90
       50
102
RTVSPost2010PropOp47
 70
     1
102
RTVSPost2010Prop48
 90
       50
102
RTVSPost2010PropOp48
 70
     1
102
RTVSPost2010Prop49
280
     0
102
RTVSPost2010PropOp49
 70
     1
102
RTVSPost2010Prop50
 90
       50
102
RTVSPost2010PropOp50
 70
     1
102
RTVSPost2010Prop51ColorIndex
 90
      256
102
RTVSPost2010Prop51ColorRGB
 90
-16777216
102
RTVSPost2010PropOp51
 70
     0
102
RTVSPost2010Prop52
140
1.0
102
RTVSPost2010PropOp52
 70
     0
102
RTVSPost2010Prop53
 90
        2
102
RTVSPost2010PropOp53
 70
     1
102
RTVSPost2010Prop54
  1
strokes_ogs.tif
102
RTVSPost2010PropOp54
 70
     1
102
RTVSPost2010Prop55
280
     0
102
RTVSPost2010PropOp55
 70
     1
102
RTVSPost2010Prop56
140
1.0
102
RTVSPost2010PropOp56
 70
     1
102
RTVSPost2010Prop57
140
1.0
102
RTVSPost2010PropOp57
 70
     1
102
RTVSPropertyOp0
 70
     1
102
RTVSPropertyOp1
 70
     1
102
RTVSPropertyOp2
 70
     1
102
RTVSPropertyOp3
 70
     1
102
RTVSPropertyOp4
 70
     1
102
RTVSPropertyOp5
 70
     1
102
RTVSPropertyOp6
 70
     1
102
RTVSPropertyOp7
 70
     1
102
RTVSPropertyOp8
 70
     1
102
RTVSPropertyOp9
 70
     1
102
RTVSPropertyOp10
 70
     1
102
RTVSPropertyOp11
 70
     1
102
RTVSPropertyOp12
 70
     1
102
RTVSPropertyOp13
 70
     1
102
RTVSPropertyOp14
 70
     1
102
RTVSPropertyOp15
 70
     1
102
RTVSPropertyOp16
 70
     1
102
RTVSPropertyOp17
 70
     1
102
RTVSPropertyOp18
 70
     1
102
RTVSPropertyOp19
 70
     1
102
RTVSPropertyOp20
 70
     1
102
RTVSPropertyOp21
 70
     1
102
RTVSPropertyOp22
 70
     1
102
RTVSPropertyOp23
 70
     1
102
RTVSPropertyOp24
 70
     1
102
RTVSPropertyOp25
 70
     1
102
RTVSPropertyOp26
 70
     1
102
RTVSPropertyOp27
 70
     1
102
RTVSPropertyOp28
 70
     1
102
RTVSPropertyOp29
 70
     1
102
RTVSPropertyOp30
 70
     1
102
RTVSPropertyOp31
 70
     1
102
RTVSPropertyOp32
 70
     1
102
RTVSPropertyOp33
 70
     1
102
RTVSPropertyOp34
 70
     1
102
RTVSPropertyOp35
 70
     1
102
RTVSPropertyOp36
 70
     1
102
RTVSPropertyOp37
 70
     1
102
RTVSPropertyOp38
 70
     1
102
RTVSPropertyOp39
 70
     1
102
RTVSPropertyOp40
 70
     1
102
RTVSPropertyOp41
 70
     1
102
RTVSPropertyOp42
 70
     1
102
RTVSPropertyOp43
 70
     1
102
RTVSPropertyOp44
 70
     1
102
RTVSPropertyOp45
 70
     1
102
RTVSPropertyOp46
 70
     1
102
RTVSPropertyOp47
 70
     1
102
RTVSPropertyOp48
 70
     1
102
RTVSPropertyOp49
 70
     1
102
RTVSPropertyOp50
 70
     1
102
RTVSPropertyOp51
 70
     0
102
RTVSPropertyOp52
 70
     0
102
RTVSPropertyOp53
 70
     1
102
RTVSPropertyOp54
 70
     1
102
RTVSPropertyOp55
 70
     1
102
RTVSPropertyOp56
 70
     1
102
RTVSPropertyOp57
 70
     1
102
RTVSPropertyOp58
 70
     1
102
RTVSPropertyOp59
 70
     1
102
RTVSPropertyOp60
 70
     1
102
RTVSPropertyOp61
 70
     1
102
RTVSPropertyOp62
 70
     1
  0
XRECORD
  5
EDB2
102
{ACAD_REACTORS
330
EDB1
102
}
330
EDB1
100
AcDbXrecord
280
     1
102
RTVSPost2010Prop28
280
     0
102
RTVSPost2010PropOp28
 70
     1
102
RTVSPost2010Prop29
280
     1
102
RTVSPost2010PropOp29
 70
     1
102
RTVSPost2010Prop30
280
     1
102
RTVSPost2010PropOp30
 70
     1
102
RTVSPost2010Prop31
280
     0
102
RTVSPost2010PropOp31
 70
     1
102
RTVSPost2010Prop32
280
     0
102
RTVSPost2010PropOp32
 70
     1
102
RTVSPost2010Prop33
280
     0
102
RTVSPost2010PropOp33
 70
     1
102
RTVSPost2010Prop34
280
     0
102
RTVSPost2010PropOp34
 70
     1
102
RTVSPost2010Prop35
280
     0
102
RTVSPost2010PropOp35
 70
     1
102
RTVSPost2010Prop36
280
     0
102
RTVSPost2010PropOp36
 70
     1
102
RTVSPost2010Prop37
 90
       50
102
RTVSPost2010PropOp37
 70
     1
102
RTVSPost2010Prop38
140
0.0
102
RTVSPost2010PropOp38
 70
     1
102
RTVSPost2010Prop39
140
1.0
102
RTVSPost2010PropOp39
 70
     1
102
RTVSPost2010Prop40
 90
        0
102
RTVSPost2010PropOp40
 70
     1
102
RTVSPost2010Prop41ColorIndex
 90
       18
102
RTVSPost2010Prop41ColorRGB
 90
        0
102
RTVSPost2010PropOp41
 70
     1
102
RTVSPost2010Prop42
 90
       50
102
RTVSPost2010PropOp42
 70
     1
102
RTVSPost2010Prop43
 90
        3
102
RTVSPost2010PropOp43
 70
     1
102
RTVSPost2010Prop44ColorIndex
 90
        5
102
RTVSPost2010Prop44ColorRGB
 90
      255
102
RTVSPost2010PropOp44
 70
     1
102
RTVSPost2010Prop45
280
     0
102
RTVSPost2010PropOp45
 70
     1
102
RTVSPost2010Prop46
 90
       50
102
RTVSPost2010PropOp46
 70
     1
102
RTVSPost2010Prop47
 90
       50
102
RTVSPost2010PropOp47
 70
     1
102
RTVSPost2010Prop48
 90
       50
102
RTVSPost2010PropOp48
 70
     1
102
RTVSPost2010Prop49
280
     0
102
RTVSPost2010PropOp49
 70
     1
102
RTVSPost2010Prop50
 90
       50
102
RTVSPost2010PropOp50
 70
     1
102
RTVSPost2010Prop51ColorIndex
 90
      256
102
RTVSPost2010Prop51ColorRGB
 90
-16777216
102
RTVSPost2010PropOp51
 70
     0
102
RTVSPost2010Prop52
140
1.0
102
RTVSPost2010PropOp52
 70
     0
102
RTVSPost2010Prop53
 90
        2
102
RTVSPost2010PropOp53
 70
     1
102
RTVSPost2010Prop54
  1
strokes_ogs.tif
102
RTVSPost2010PropOp54
 70
     1
102
RTVSPost2010Prop55
280
     0
102
RTVSPost2010PropOp55
 70
     1
102
RTVSPost2010Prop56
140
1.0
102
RTVSPost2010PropOp56
 70
     1
102
RTVSPost2010Prop57
140
1.0
102
RTVSPost2010PropOp57
 70
     1
102
RTVSPropertyOp0
 70
     1
102
RTVSPropertyOp1
 70
     1
102
RTVSPropertyOp2
 70
     1
102
RTVSPropertyOp3
 70
     1
102
RTVSPropertyOp4
 70
     1
102
RTVSPropertyOp5
 70
     1
102
RTVSPropertyOp6
 70
     1
102
RTVSPropertyOp7
 70
     1
102
RTVSPropertyOp8
 70
     1
102
RTVSPropertyOp9
 70
     1
102
RTVSPropertyOp10
 70
     1
102
RTVSPropertyOp11
 70
     1
102
RTVSPropertyOp12
 70
     1
102
RTVSPropertyOp13
 70
     1
102
RTVSPropertyOp14
 70
     1
102
RTVSPropertyOp15
 70
     1
102
RTVSPropertyOp16
 70
     1
102
RTVSPropertyOp17
 70
     1
102
RTVSPropertyOp18
 70
     1
102
RTVSPropertyOp19
 70
     1
102
RTVSPropertyOp20
 70
     1
102
RTVSPropertyOp21
 70
     1
102
RTVSPropertyOp22
 70
     1
102
RTVSPropertyOp23
 70
     1
102
RTVSPropertyOp24
 70
     1
102
RTVSPropertyOp25
 70
     1
102
RTVSPropertyOp26
 70
     1
102
RTVSPropertyOp27
 70
     1
102
RTVSPropertyOp28
 70
     1
102
RTVSPropertyOp29
 70
     1
102
RTVSPropertyOp30
 70
     1
102
RTVSPropertyOp31
 70
     1
102
RTVSPropertyOp32
 70
     1
102
RTVSPropertyOp33
 70
     1
102
RTVSPropertyOp34
 70
     1
102
RTVSPropertyOp35
 70
     1
102
RTVSPropertyOp36
 70
     1
102
RTVSPropertyOp37
 70
     1
102
RTVSPropertyOp38
 70
     1
102
RTVSPropertyOp39
 70
     1
102
RTVSPropertyOp40
 70
     1
102
RTVSPropertyOp41
 70
     1
102
RTVSPropertyOp42
 70
     1
102
RTVSPropertyOp43
 70
     1
102
RTVSPropertyOp44
 70
     1
102
RTVSPropertyOp45
 70
     1
102
RTVSPropertyOp46
 70
     1
102
RTVSPropertyOp47
 70
     1
102
RTVSPropertyOp48
 70
     1
102
RTVSPropertyOp49
 70
     1
102
RTVSPropertyOp50
 70
     1
102
RTVSPropertyOp51
 70
     0
102
RTVSPropertyOp52
 70
     0
102
RTVSPropertyOp53
 70
     1
102
RTVSPropertyOp54
 70
     1
102
RTVSPropertyOp55
 70
     1
102
RTVSPropertyOp56
 70
     1
102
RTVSPropertyOp57
 70
     1
102
RTVSPropertyOp58
 70
     1
102
RTVSPropertyOp59
 70
     1
102
RTVSPropertyOp60
 70
     1
102
RTVSPropertyOp61
 70
     1
102
RTVSPropertyOp62
 70
     1
  0
XRECORD
  5
EDB0
102
{ACAD_REACTORS
330
EDAF
102
}
330
EDAF
100
AcDbXrecord
280
     1
102
RTVSPost2010Prop28
280
     0
102
RTVSPost2010PropOp28
 70
     1
102
RTVSPost2010Prop29
280
     1
102
RTVSPost2010PropOp29
 70
     1
102
RTVSPost2010Prop30
280
     1
102
RTVSPost2010PropOp30
 70
     1
102
RTVSPost2010Prop31
280
     0
102
RTVSPost2010PropOp31
 70
     1
102
RTVSPost2010Prop32
280
     0
102
RTVSPost2010PropOp32
 70
     1
102
RTVSPost2010Prop33
280
     0
102
RTVSPost2010PropOp33
 70
     1
102
RTVSPost2010Prop34
280
     0
102
RTVSPost2010PropOp34
 70
     1
102
RTVSPost2010Prop35
280
     0
102
RTVSPost2010PropOp35
 70
     1
102
RTVSPost2010Prop36
280
     0
102
RTVSPost2010PropOp36
 70
     1
102
RTVSPost2010Prop37
 90
       50
102
RTVSPost2010PropOp37
 70
     1
102
RTVSPost2010Prop38
140
0.0
102
RTVSPost2010PropOp38
 70
     1
102
RTVSPost2010Prop39
140
1.0
102
RTVSPost2010PropOp39
 70
     1
102
RTVSPost2010Prop40
 90
        0
102
RTVSPost2010PropOp40
 70
     1
102
RTVSPost2010Prop41ColorIndex
 90
       18
102
RTVSPost2010Prop41ColorRGB
 90
        0
102
RTVSPost2010PropOp41
 70
     1
102
RTVSPost2010Prop42
 90
       50
102
RTVSPost2010PropOp42
 70
     1
102
RTVSPost2010Prop43
 90
        3
102
RTVSPost2010PropOp43
 70
     1
102
RTVSPost2010Prop44ColorIndex
 90
        5
102
RTVSPost2010Prop44ColorRGB
 90
      255
102
RTVSPost2010PropOp44
 70
     1
102
RTVSPost2010Prop45
280
     0
102
RTVSPost2010PropOp45
 70
     1
102
RTVSPost2010Prop46
 90
       50
102
RTVSPost2010PropOp46
 70
     1
102
RTVSPost2010Prop47
 90
       50
102
RTVSPost2010PropOp47
 70
     1
102
RTVSPost2010Prop48
 90
       50
102
RTVSPost2010PropOp48
 70
     1
102
RTVSPost2010Prop49
280
     0
102
RTVSPost2010PropOp49
 70
     1
102
RTVSPost2010Prop50
 90
       50
102
RTVSPost2010PropOp50
 70
     1
102
RTVSPost2010Prop51ColorIndex
 90
      256
102
RTVSPost2010Prop51ColorRGB
 90
-16777216
102
RTVSPost2010PropOp51
 70
     0
102
RTVSPost2010Prop52
140
1.0
102
RTVSPost2010PropOp52
 70
     0
102
RTVSPost2010Prop53
 90
        2
102
RTVSPost2010PropOp53
 70
     1
102
RTVSPost2010Prop54
  1
strokes_ogs.tif
102
RTVSPost2010PropOp54
 70
     1
102
RTVSPost2010Prop55
280
     0
102
RTVSPost2010PropOp55
 70
     1
102
RTVSPost2010Prop56
140
1.0
102
RTVSPost2010PropOp56
 70
     1
102
RTVSPost2010Prop57
140
1.0
102
RTVSPost2010PropOp57
 70
     1
102
RTVSPropertyOp0
 70
     1
102
RTVSPropertyOp1
 70
     1
102
RTVSPropertyOp2
 70
     1
102
RTVSPropertyOp3
 70
     1
102
RTVSPropertyOp4
 70
     1
102
RTVSPropertyOp5
 70
     1
102
RTVSPropertyOp6
 70
     1
102
RTVSPropertyOp7
 70
     1
102
RTVSPropertyOp8
 70
     1
102
RTVSPropertyOp9
 70
     1
102
RTVSPropertyOp10
 70
     1
102
RTVSPropertyOp11
 70
     1
102
RTVSPropertyOp12
 70
     1
102
RTVSPropertyOp13
 70
     1
102
RTVSPropertyOp14
 70
     1
102
RTVSPropertyOp15
 70
     1
102
RTVSPropertyOp16
 70
     1
102
RTVSPropertyOp17
 70
     1
102
RTVSPropertyOp18
 70
     1
102
RTVSPropertyOp19
 70
     1
102
RTVSPropertyOp20
 70
     1
102
RTVSPropertyOp21
 70
     1
102
RTVSPropertyOp22
 70
     1
102
RTVSPropertyOp23
 70
     1
102
RTVSPropertyOp24
 70
     1
102
RTVSPropertyOp25
 70
     1
102
RTVSPropertyOp26
 70
     1
102
RTVSPropertyOp27
 70
     1
102
RTVSPropertyOp28
 70
     1
102
RTVSPropertyOp29
 70
     1
102
RTVSPropertyOp30
 70
     1
102
RTVSPropertyOp31
 70
     1
102
RTVSPropertyOp32
 70
     1
102
RTVSPropertyOp33
 70
     1
102
RTVSPropertyOp34
 70
     1
102
RTVSPropertyOp35
 70
     1
102
RTVSPropertyOp36
 70
     1
102
RTVSPropertyOp37
 70
     1
102
RTVSPropertyOp38
 70
     1
102
RTVSPropertyOp39
 70
     1
102
RTVSPropertyOp40
 70
     1
102
RTVSPropertyOp41
 70
     1
102
RTVSPropertyOp42
 70
     1
102
RTVSPropertyOp43
 70
     1
102
RTVSPropertyOp44
 70
     1
102
RTVSPropertyOp45
 70
     1
102
RTVSPropertyOp46
 70
     1
102
RTVSPropertyOp47
 70
     1
102
RTVSPropertyOp48
 70
     1
102
RTVSPropertyOp49
 70
     1
102
RTVSPropertyOp50
 70
     1
102
RTVSPropertyOp51
 70
     0
102
RTVSPropertyOp52
 70
     0
102
RTVSPropertyOp53
 70
     1
102
RTVSPropertyOp54
 70
     1
102
RTVSPropertyOp55
 70
     1
102
RTVSPropertyOp56
 70
     1
102
RTVSPropertyOp57
 70
     1
102
RTVSPropertyOp58
 70
     1
102
RTVSPropertyOp59
 70
     1
102
RTVSPropertyOp60
 70
     1
102
RTVSPropertyOp61
 70
     1
102
RTVSPropertyOp62
 70
     1
  0
XRECORD
  5
EDAA
102
{ACAD_REACTORS
330
EDA9
102
}
330
EDA9
100
AcDbXrecord
280
     1
102
RTVSPost2010Prop28
280
     0
102
RTVSPost2010PropOp28
 70
     1
102
RTVSPost2010Prop29
280
     1
102
RTVSPost2010PropOp29
 70
     1
102
RTVSPost2010Prop30
280
     1
102
RTVSPost2010PropOp30
 70
     1
102
RTVSPost2010Prop31
280
     0
102
RTVSPost2010PropOp31
 70
     1
102
RTVSPost2010Prop32
280
     0
102
RTVSPost2010PropOp32
 70
     1
102
RTVSPost2010Prop33
280
     0
102
RTVSPost2010PropOp33
 70
     1
102
RTVSPost2010Prop34
280
     0
102
RTVSPost2010PropOp34
 70
     1
102
RTVSPost2010Prop35
280
     0
102
RTVSPost2010PropOp35
 70
     1
102
RTVSPost2010Prop36
280
     0
102
RTVSPost2010PropOp36
 70
     1
102
RTVSPost2010Prop37
 90
       50
102
RTVSPost2010PropOp37
 70
     1
102
RTVSPost2010Prop38
140
0.0
102
RTVSPost2010PropOp38
 70
     1
102
RTVSPost2010Prop39
140
1.0
102
RTVSPost2010PropOp39
 70
     1
102
RTVSPost2010Prop40
 90
        0
102
RTVSPost2010PropOp40
 70
     1
102
RTVSPost2010Prop41ColorIndex
 90
       18
102
RTVSPost2010Prop41ColorRGB
 90
        0
102
RTVSPost2010PropOp41
 70
     1
102
RTVSPost2010Prop42
 90
       50
102
RTVSPost2010PropOp42
 70
     1
102
RTVSPost2010Prop43
 90
        3
102
RTVSPost2010PropOp43
 70
     1
102
RTVSPost2010Prop44ColorIndex
 90
        5
102
RTVSPost2010Prop44ColorRGB
 90
      255
102
RTVSPost2010PropOp44
 70
     1
102
RTVSPost2010Prop45
280
     0
102
RTVSPost2010PropOp45
 70
     1
102
RTVSPost2010Prop46
 90
       50
102
RTVSPost2010PropOp46
 70
     1
102
RTVSPost2010Prop47
 90
       50
102
RTVSPost2010PropOp47
 70
     1
102
RTVSPost2010Prop48
 90
       50
102
RTVSPost2010PropOp48
 70
     1
102
RTVSPost2010Prop49
280
     0
102
RTVSPost2010PropOp49
 70
     1
102
RTVSPost2010Prop50
 90
       50
102
RTVSPost2010PropOp50
 70
     1
102
RTVSPost2010Prop51ColorIndex
 90
      256
102
RTVSPost2010Prop51ColorRGB
 90
-16777216
102
RTVSPost2010PropOp51
 70
     0
102
RTVSPost2010Prop52
140
1.0
102
RTVSPost2010PropOp52
 70
     0
102
RTVSPost2010Prop53
 90
        2
102
RTVSPost2010PropOp53
 70
     1
102
RTVSPost2010Prop54
  1
strokes_ogs.tif
102
RTVSPost2010PropOp54
 70
     1
102
RTVSPost2010Prop55
280
     0
102
RTVSPost2010PropOp55
 70
     1
102
RTVSPost2010Prop56
140
1.0
102
RTVSPost2010PropOp56
 70
     1
102
RTVSPost2010Prop57
140
1.0
102
RTVSPost2010PropOp57
 70
     1
102
RTVSPropertyOp0
 70
     1
102
RTVSPropertyOp1
 70
     1
102
RTVSPropertyOp2
 70
     1
102
RTVSPropertyOp3
 70
     1
102
RTVSPropertyOp4
 70
     1
102
RTVSPropertyOp5
 70
     1
102
RTVSPropertyOp6
 70
     1
102
RTVSPropertyOp7
 70
     1
102
RTVSPropertyOp8
 70
     1
102
RTVSPropertyOp9
 70
     1
102
RTVSPropertyOp10
 70
     1
102
RTVSPropertyOp11
 70
     1
102
RTVSPropertyOp12
 70
     1
102
RTVSPropertyOp13
 70
     1
102
RTVSPropertyOp14
 70
     1
102
RTVSPropertyOp15
 70
     1
102
RTVSPropertyOp16
 70
     1
102
RTVSPropertyOp17
 70
     1
102
RTVSPropertyOp18
 70
     1
102
RTVSPropertyOp19
 70
     1
102
RTVSPropertyOp20
 70
     1
102
RTVSPropertyOp21
 70
     1
102
RTVSPropertyOp22
 70
     1
102
RTVSPropertyOp23
 70
     1
102
RTVSPropertyOp24
 70
     1
102
RTVSPropertyOp25
 70
     1
102
RTVSPropertyOp26
 70
     1
102
RTVSPropertyOp27
 70
     1
102
RTVSPropertyOp28
 70
     1
102
RTVSPropertyOp29
 70
     1
102
RTVSPropertyOp30
 70
     1
102
RTVSPropertyOp31
 70
     1
102
RTVSPropertyOp32
 70
     1
102
RTVSPropertyOp33
 70
     1
102
RTVSPropertyOp34
 70
     1
102
RTVSPropertyOp35
 70
     1
102
RTVSPropertyOp36
 70
     1
102
RTVSPropertyOp37
 70
     1
102
RTVSPropertyOp38
 70
     1
102
RTVSPropertyOp39
 70
     1
102
RTVSPropertyOp40
 70
     1
102
RTVSPropertyOp41
 70
     1
102
RTVSPropertyOp42
 70
     1
102
RTVSPropertyOp43
 70
     1
102
RTVSPropertyOp44
 70
     1
102
RTVSPropertyOp45
 70
     1
102
RTVSPropertyOp46
 70
     1
102
RTVSPropertyOp47
 70
     1
102
RTVSPropertyOp48
 70
     1
102
RTVSPropertyOp49
 70
     1
102
RTVSPropertyOp50
 70
     1
102
RTVSPropertyOp51
 70
     0
102
RTVSPropertyOp52
 70
     0
102
RTVSPropertyOp53
 70
     1
102
RTVSPropertyOp54
 70
     1
102
RTVSPropertyOp55
 70
     1
102
RTVSPropertyOp56
 70
     1
102
RTVSPropertyOp57
 70
     1
102
RTVSPropertyOp58
 70
     1
102
RTVSPropertyOp59
 70
     1
102
RTVSPropertyOp60
 70
     1
102
RTVSPropertyOp61
 70
     1
102
RTVSPropertyOp62
 70
     1
  0
XRECORD
  5
EDAC
102
{ACAD_REACTORS
330
EDAB
102
}
330
EDAB
100
AcDbXrecord
280
     1
102
RTVSPost2010Prop28
280
     0
102
RTVSPost2010PropOp28
 70
     1
102
RTVSPost2010Prop29
280
     1
102
RTVSPost2010PropOp29
 70
     1
102
RTVSPost2010Prop30
280
     1
102
RTVSPost2010PropOp30
 70
     1
102
RTVSPost2010Prop31
280
     0
102
RTVSPost2010PropOp31
 70
     1
102
RTVSPost2010Prop32
280
     0
102
RTVSPost2010PropOp32
 70
     1
102
RTVSPost2010Prop33
280
     0
102
RTVSPost2010PropOp33
 70
     1
102
RTVSPost2010Prop34
280
     0
102
RTVSPost2010PropOp34
 70
     1
102
RTVSPost2010Prop35
280
     0
102
RTVSPost2010PropOp35
 70
     1
102
RTVSPost2010Prop36
280
     0
102
RTVSPost2010PropOp36
 70
     1
102
RTVSPost2010Prop37
 90
       50
102
RTVSPost2010PropOp37
 70
     1
102
RTVSPost2010Prop38
140
0.0
102
RTVSPost2010PropOp38
 70
     1
102
RTVSPost2010Prop39
140
1.0
102
RTVSPost2010PropOp39
 70
     1
102
RTVSPost2010Prop40
 90
        0
102
RTVSPost2010PropOp40
 70
     1
102
RTVSPost2010Prop41ColorIndex
 90
       18
102
RTVSPost2010Prop41ColorRGB
 90
        0
102
RTVSPost2010PropOp41
 70
     1
102
RTVSPost2010Prop42
 90
       50
102
RTVSPost2010PropOp42
 70
     1
102
RTVSPost2010Prop43
 90
        3
102
RTVSPost2010PropOp43
 70
     1
102
RTVSPost2010Prop44ColorIndex
 90
        5
102
RTVSPost2010Prop44ColorRGB
 90
      255
102
RTVSPost2010PropOp44
 70
     1
102
RTVSPost2010Prop45
280
     0
102
RTVSPost2010PropOp45
 70
     1
102
RTVSPost2010Prop46
 90
       50
102
RTVSPost2010PropOp46
 70
     1
102
RTVSPost2010Prop47
 90
       50
102
RTVSPost2010PropOp47
 70
     1
102
RTVSPost2010Prop48
 90
       50
102
RTVSPost2010PropOp48
 70
     1
102
RTVSPost2010Prop49
280
     0
102
RTVSPost2010PropOp49
 70
     1
102
RTVSPost2010Prop50
 90
       50
102
RTVSPost2010PropOp50
 70
     1
102
RTVSPost2010Prop51ColorIndex
 90
      256
102
RTVSPost2010Prop51ColorRGB
 90
-16777216
102
RTVSPost2010PropOp51
 70
     0
102
RTVSPost2010Prop52
140
1.0
102
RTVSPost2010PropOp52
 70
     0
102
RTVSPost2010Prop53
 90
        2
102
RTVSPost2010PropOp53
 70
     1
102
RTVSPost2010Prop54
  1
strokes_ogs.tif
102
RTVSPost2010PropOp54
 70
     1
102
RTVSPost2010Prop55
280
     0
102
RTVSPost2010PropOp55
 70
     1
102
RTVSPost2010Prop56
140
1.0
102
RTVSPost2010PropOp56
 70
     1
102
RTVSPost2010Prop57
140
1.0
102
RTVSPost2010PropOp57
 70
     1
102
RTVSPropertyOp0
 70
     1
102
RTVSPropertyOp1
 70
     1
102
RTVSPropertyOp2
 70
     1
102
RTVSPropertyOp3
 70
     1
102
RTVSPropertyOp4
 70
     1
102
RTVSPropertyOp5
 70
     1
102
RTVSPropertyOp6
 70
     1
102
RTVSPropertyOp7
 70
     1
102
RTVSPropertyOp8
 70
     1
102
RTVSPropertyOp9
 70
     1
102
RTVSPropertyOp10
 70
     1
102
RTVSPropertyOp11
 70
     1
102
RTVSPropertyOp12
 70
     1
102
RTVSPropertyOp13
 70
     1
102
RTVSPropertyOp14
 70
     1
102
RTVSPropertyOp15
 70
     1
102
RTVSPropertyOp16
 70
     1
102
RTVSPropertyOp17
 70
     1
102
RTVSPropertyOp18
 70
     1
102
RTVSPropertyOp19
 70
     1
102
RTVSPropertyOp20
 70
     1
102
RTVSPropertyOp21
 70
     1
102
RTVSPropertyOp22
 70
     1
102
RTVSPropertyOp23
 70
     1
102
RTVSPropertyOp24
 70
     1
102
RTVSPropertyOp25
 70
     1
102
RTVSPropertyOp26
 70
     1
102
RTVSPropertyOp27
 70
     1
102
RTVSPropertyOp28
 70
     1
102
RTVSPropertyOp29
 70
     1
102
RTVSPropertyOp30
 70
     1
102
RTVSPropertyOp31
 70
     1
102
RTVSPropertyOp32
 70
     1
102
RTVSPropertyOp33
 70
     1
102
RTVSPropertyOp34
 70
     1
102
RTVSPropertyOp35
 70
     1
102
RTVSPropertyOp36
 70
     1
102
RTVSPropertyOp37
 70
     1
102
RTVSPropertyOp38
 70
     1
102
RTVSPropertyOp39
 70
     1
102
RTVSPropertyOp40
 70
     1
102
RTVSPropertyOp41
 70
     1
102
RTVSPropertyOp42
 70
     1
102
RTVSPropertyOp43
 70
     1
102
RTVSPropertyOp44
 70
     1
102
RTVSPropertyOp45
 70
     1
102
RTVSPropertyOp46
 70
     1
102
RTVSPropertyOp47
 70
     1
102
RTVSPropertyOp48
 70
     1
102
RTVSPropertyOp49
 70
     1
102
RTVSPropertyOp50
 70
     1
102
RTVSPropertyOp51
 70
     0
102
RTVSPropertyOp52
 70
     0
102
RTVSPropertyOp53
 70
     1
102
RTVSPropertyOp54
 70
     1
102
RTVSPropertyOp55
 70
     1
102
RTVSPropertyOp56
 70
     1
102
RTVSPropertyOp57
 70
     1
102
RTVSPropertyOp58
 70
     1
102
RTVSPropertyOp59
 70
     1
102
RTVSPropertyOp60
 70
     1
102
RTVSPropertyOp61
 70
     1
102
RTVSPropertyOp62
 70
     1
  0
XRECORD
  5
ED9A
102
{ACAD_REACTORS
330
ED99
102
}
330
ED99
100
AcDbXrecord
280
     1
102
RTVSPost2010Prop28
280
     0
102
RTVSPost2010PropOp28
 70
     1
102
RTVSPost2010Prop29
280
     1
102
RTVSPost2010PropOp29
 70
     1
102
RTVSPost2010Prop30
280
     1
102
RTVSPost2010PropOp30
 70
     1
102
RTVSPost2010Prop31
280
     0
102
RTVSPost2010PropOp31
 70
     1
102
RTVSPost2010Prop32
280
     0
102
RTVSPost2010PropOp32
 70
     1
102
RTVSPost2010Prop33
280
     0
102
RTVSPost2010PropOp33
 70
     1
102
RTVSPost2010Prop34
280
     0
102
RTVSPost2010PropOp34
 70
     1
102
RTVSPost2010Prop35
280
     0
102
RTVSPost2010PropOp35
 70
     1
102
RTVSPost2010Prop36
280
     0
102
RTVSPost2010PropOp36
 70
     1
102
RTVSPost2010Prop37
 90
       50
102
RTVSPost2010PropOp37
 70
     1
102
RTVSPost2010Prop38
140
0.0
102
RTVSPost2010PropOp38
 70
     1
102
RTVSPost2010Prop39
140
1.0
102
RTVSPost2010PropOp39
 70
     1
102
RTVSPost2010Prop40
 90
        0
102
RTVSPost2010PropOp40
 70
     1
102
RTVSPost2010Prop41ColorIndex
 90
       18
102
RTVSPost2010Prop41ColorRGB
 90
        0
102
RTVSPost2010PropOp41
 70
     1
102
RTVSPost2010Prop42
 90
       50
102
RTVSPost2010PropOp42
 70
     1
102
RTVSPost2010Prop43
 90
        3
102
RTVSPost2010PropOp43
 70
     1
102
RTVSPost2010Prop44ColorIndex
 90
        5
102
RTVSPost2010Prop44ColorRGB
 90
      255
102
RTVSPost2010PropOp44
 70
     1
102
RTVSPost2010Prop45
280
     0
102
RTVSPost2010PropOp45
 70
     1
102
RTVSPost2010Prop46
 90
       50
102
RTVSPost2010PropOp46
 70
     1
102
RTVSPost2010Prop47
 90
       50
102
RTVSPost2010PropOp47
 70
     1
102
RTVSPost2010Prop48
 90
       50
102
RTVSPost2010PropOp48
 70
     1
102
RTVSPost2010Prop49
280
     0
102
RTVSPost2010PropOp49
 70
     1
102
RTVSPost2010Prop50
 90
       50
102
RTVSPost2010PropOp50
 70
     1
102
RTVSPost2010Prop51ColorIndex
 90
      256
102
RTVSPost2010Prop51ColorRGB
 90
-16777216
102
RTVSPost2010PropOp51
 70
     0
102
RTVSPost2010Prop52
140
1.0
102
RTVSPost2010PropOp52
 70
     0
102
RTVSPost2010Prop53
 90
        2
102
RTVSPost2010PropOp53
 70
     1
102
RTVSPost2010Prop54
  1
strokes_ogs.tif
102
RTVSPost2010PropOp54
 70
     1
102
RTVSPost2010Prop55
280
     0
102
RTVSPost2010PropOp55
 70
     1
102
RTVSPost2010Prop56
140
1.0
102
RTVSPost2010PropOp56
 70
     1
102
RTVSPost2010Prop57
140
1.0
102
RTVSPost2010PropOp57
 70
     1
102
RTVSPropertyOp0
 70
     1
102
RTVSPropertyOp1
 70
     1
102
RTVSPropertyOp2
 70
     1
102
RTVSPropertyOp3
 70
     1
102
RTVSPropertyOp4
 70
     1
102
RTVSPropertyOp5
 70
     1
102
RTVSPropertyOp6
 70
     1
102
RTVSPropertyOp7
 70
     1
102
RTVSPropertyOp8
 70
     1
102
RTVSPropertyOp9
 70
     1
102
RTVSPropertyOp10
 70
     1
102
RTVSPropertyOp11
 70
     1
102
RTVSPropertyOp12
 70
     1
102
RTVSPropertyOp13
 70
     1
102
RTVSPropertyOp14
 70
     1
102
RTVSPropertyOp15
 70
     1
102
RTVSPropertyOp16
 70
     1
102
RTVSPropertyOp17
 70
     1
102
RTVSPropertyOp18
 70
     1
102
RTVSPropertyOp19
 70
     1
102
RTVSPropertyOp20
 70
     1
102
RTVSPropertyOp21
 70
     1
102
RTVSPropertyOp22
 70
     1
102
RTVSPropertyOp23
 70
     1
102
RTVSPropertyOp24
 70
     1
102
RTVSPropertyOp25
 70
     1
102
RTVSPropertyOp26
 70
     1
102
RTVSPropertyOp27
 70
     1
102
RTVSPropertyOp28
 70
     1
102
RTVSPropertyOp29
 70
     1
102
RTVSPropertyOp30
 70
     1
102
RTVSPropertyOp31
 70
     1
102
RTVSPropertyOp32
 70
     1
102
RTVSPropertyOp33
 70
     1
102
RTVSPropertyOp34
 70
     1
102
RTVSPropertyOp35
 70
     1
102
RTVSPropertyOp36
 70
     1
102
RTVSPropertyOp37
 70
     1
102
RTVSPropertyOp38
 70
     1
102
RTVSPropertyOp39
 70
     1
102
RTVSPropertyOp40
 70
     1
102
RTVSPropertyOp41
 70
     1
102
RTVSPropertyOp42
 70
     1
102
RTVSPropertyOp43
 70
     1
102
RTVSPropertyOp44
 70
     1
102
RTVSPropertyOp45
 70
     1
102
RTVSPropertyOp46
 70
     1
102
RTVSPropertyOp47
 70
     1
102
RTVSPropertyOp48
 70
     1
102
RTVSPropertyOp49
 70
     1
102
RTVSPropertyOp50
 70
     1
102
RTVSPropertyOp51
 70
     0
102
RTVSPropertyOp52
 70
     0
102
RTVSPropertyOp53
 70
     1
102
RTVSPropertyOp54
 70
     1
102
RTVSPropertyOp55
 70
     1
102
RTVSPropertyOp56
 70
     1
102
RTVSPropertyOp57
 70
     1
102
RTVSPropertyOp58
 70
     1
102
RTVSPropertyOp59
 70
     1
102
RTVSPropertyOp60
 70
     1
102
RTVSPropertyOp61
 70
     1
102
RTVSPropertyOp62
 70
     1
  0
XRECORD
  5
ED8E
102
{ACAD_REACTORS
330
ED8D
102
}
330
ED8D
100
AcDbXrecord
280
     1
102
RTVSPost2010Prop28
280
     0
102
RTVSPost2010PropOp28
 70
     1
102
RTVSPost2010Prop29
280
     1
102
RTVSPost2010PropOp29
 70
     1
102
RTVSPost2010Prop30
280
     1
102
RTVSPost2010PropOp30
 70
     1
102
RTVSPost2010Prop31
280
     0
102
RTVSPost2010PropOp31
 70
     1
102
RTVSPost2010Prop32
280
     0
102
RTVSPost2010PropOp32
 70
     1
102
RTVSPost2010Prop33
280
     0
102
RTVSPost2010PropOp33
 70
     1
102
RTVSPost2010Prop34
280
     0
102
RTVSPost2010PropOp34
 70
     1
102
RTVSPost2010Prop35
280
     0
102
RTVSPost2010PropOp35
 70
     1
102
RTVSPost2010Prop36
280
     0
102
RTVSPost2010PropOp36
 70
     1
102
RTVSPost2010Prop37
 90
       50
102
RTVSPost2010PropOp37
 70
     1
102
RTVSPost2010Prop38
140
0.0
102
RTVSPost2010PropOp38
 70
     1
102
RTVSPost2010Prop39
140
1.0
102
RTVSPost2010PropOp39
 70
     1
102
RTVSPost2010Prop40
 90
        0
102
RTVSPost2010PropOp40
 70
     1
102
RTVSPost2010Prop41ColorIndex
 90
       18
102
RTVSPost2010Prop41ColorRGB
 90
        0
102
RTVSPost2010PropOp41
 70
     1
102
RTVSPost2010Prop42
 90
       50
102
RTVSPost2010PropOp42
 70
     1
102
RTVSPost2010Prop43
 90
        3
102
RTVSPost2010PropOp43
 70
     1
102
RTVSPost2010Prop44ColorIndex
 90
        5
102
RTVSPost2010Prop44ColorRGB
 90
      255
102
RTVSPost2010PropOp44
 70
     1
102
RTVSPost2010Prop45
280
     0
102
RTVSPost2010PropOp45
 70
     1
102
RTVSPost2010Prop46
 90
       50
102
RTVSPost2010PropOp46
 70
     1
102
RTVSPost2010Prop47
 90
       50
102
RTVSPost2010PropOp47
 70
     1
102
RTVSPost2010Prop48
 90
       50
102
RTVSPost2010PropOp48
 70
     1
102
RTVSPost2010Prop49
280
     0
102
RTVSPost2010PropOp49
 70
     1
102
RTVSPost2010Prop50
 90
       50
102
RTVSPost2010PropOp50
 70
     1
102
RTVSPost2010Prop51ColorIndex
 90
      256
102
RTVSPost2010Prop51ColorRGB
 90
-16777216
102
RTVSPost2010PropOp51
 70
     0
102
RTVSPost2010Prop52
140
1.0
102
RTVSPost2010PropOp52
 70
     0
102
RTVSPost2010Prop53
 90
        2
102
RTVSPost2010PropOp53
 70
     1
102
RTVSPost2010Prop54
  1
strokes_ogs.tif
102
RTVSPost2010PropOp54
 70
     1
102
RTVSPost2010Prop55
280
     0
102
RTVSPost2010PropOp55
 70
     1
102
RTVSPost2010Prop56
140
1.0
102
RTVSPost2010PropOp56
 70
     1
102
RTVSPost2010Prop57
140
1.0
102
RTVSPost2010PropOp57
 70
     1
102
RTVSPropertyOp0
 70
     1
102
RTVSPropertyOp1
 70
     1
102
RTVSPropertyOp2
 70
     1
102
RTVSPropertyOp3
 70
     1
102
RTVSPropertyOp4
 70
     1
102
RTVSPropertyOp5
 70
     1
102
RTVSPropertyOp6
 70
     1
102
RTVSPropertyOp7
 70
     1
102
RTVSPropertyOp8
 70
     1
102
RTVSPropertyOp9
 70
     1
102
RTVSPropertyOp10
 70
     1
102
RTVSPropertyOp11
 70
     1
102
RTVSPropertyOp12
 70
     1
102
RTVSPropertyOp13
 70
     1
102
RTVSPropertyOp14
 70
     1
102
RTVSPropertyOp15
 70
     1
102
RTVSPropertyOp16
 70
     1
102
RTVSPropertyOp17
 70
     1
102
RTVSPropertyOp18
 70
     1
102
RTVSPropertyOp19
 70
     1
102
RTVSPropertyOp20
 70
     1
102
RTVSPropertyOp21
 70
     1
102
RTVSPropertyOp22
 70
     1
102
RTVSPropertyOp23
 70
     1
102
RTVSPropertyOp24
 70
     1
102
RTVSPropertyOp25
 70
     1
102
RTVSPropertyOp26
 70
     1
102
RTVSPropertyOp27
 70
     1
102
RTVSPropertyOp28
 70
     1
102
RTVSPropertyOp29
 70
     1
102
RTVSPropertyOp30
 70
     1
102
RTVSPropertyOp31
 70
     1
102
RTVSPropertyOp32
 70
     1
102
RTVSPropertyOp33
 70
     1
102
RTVSPropertyOp34
 70
     1
102
RTVSPropertyOp35
 70
     1
102
RTVSPropertyOp36
 70
     1
102
RTVSPropertyOp37
 70
     1
102
RTVSPropertyOp38
 70
     1
102
RTVSPropertyOp39
 70
     1
102
RTVSPropertyOp40
 70
     1
102
RTVSPropertyOp41
 70
     1
102
RTVSPropertyOp42
 70
     1
102
RTVSPropertyOp43
 70
     1
102
RTVSPropertyOp44
 70
     1
102
RTVSPropertyOp45
 70
     1
102
RTVSPropertyOp46
 70
     1
102
RTVSPropertyOp47
 70
     1
102
RTVSPropertyOp48
 70
     1
102
RTVSPropertyOp49
 70
     1
102
RTVSPropertyOp50
 70
     1
102
RTVSPropertyOp51
 70
     0
102
RTVSPropertyOp52
 70
     0
102
RTVSPropertyOp53
 70
     1
102
RTVSPropertyOp54
 70
     1
102
RTVSPropertyOp55
 70
     1
102
RTVSPropertyOp56
 70
     1
102
RTVSPropertyOp57
 70
     1
102
RTVSPropertyOp58
 70
     1
102
RTVSPropertyOp59
 70
     1
102
RTVSPropertyOp60
 70
     1
102
RTVSPropertyOp61
 70
     1
102
RTVSPropertyOp62
 70
     1
  0
XRECORD
  5
EDAE
102
{ACAD_REACTORS
330
EDAD
102
}
330
EDAD
100
AcDbXrecord
280
     1
102
RTVSPost2010Prop28
280
     0
102
RTVSPost2010PropOp28
 70
     1
102
RTVSPost2010Prop29
280
     1
102
RTVSPost2010PropOp29
 70
     1
102
RTVSPost2010Prop30
280
     1
102
RTVSPost2010PropOp30
 70
     1
102
RTVSPost2010Prop31
280
     0
102
RTVSPost2010PropOp31
 70
     1
102
RTVSPost2010Prop32
280
     0
102
RTVSPost2010PropOp32
 70
     1
102
RTVSPost2010Prop33
280
     0
102
RTVSPost2010PropOp33
 70
     1
102
RTVSPost2010Prop34
280
     0
102
RTVSPost2010PropOp34
 70
     1
102
RTVSPost2010Prop35
280
     0
102
RTVSPost2010PropOp35
 70
     1
102
RTVSPost2010Prop36
280
     0
102
RTVSPost2010PropOp36
 70
     1
102
RTVSPost2010Prop37
 90
       50
102
RTVSPost2010PropOp37
 70
     1
102
RTVSPost2010Prop38
140
0.0
102
RTVSPost2010PropOp38
 70
     1
102
RTVSPost2010Prop39
140
1.0
102
RTVSPost2010PropOp39
 70
     1
102
RTVSPost2010Prop40
 90
        0
102
RTVSPost2010PropOp40
 70
     1
102
RTVSPost2010Prop41ColorIndex
 90
       18
102
RTVSPost2010Prop41ColorRGB
 90
        0
102
RTVSPost2010PropOp41
 70
     1
102
RTVSPost2010Prop42
 90
       50
102
RTVSPost2010PropOp42
 70
     1
102
RTVSPost2010Prop43
 90
        3
102
RTVSPost2010PropOp43
 70
     1
102
RTVSPost2010Prop44ColorIndex
 90
        5
102
RTVSPost2010Prop44ColorRGB
 90
      255
102
RTVSPost2010PropOp44
 70
     1
102
RTVSPost2010Prop45
280
     0
102
RTVSPost2010PropOp45
 70
     1
102
RTVSPost2010Prop46
 90
       50
102
RTVSPost2010PropOp46
 70
     1
102
RTVSPost2010Prop47
 90
       50
102
RTVSPost2010PropOp47
 70
     1
102
RTVSPost2010Prop48
 90
       50
102
RTVSPost2010PropOp48
 70
     1
102
RTVSPost2010Prop49
280
     0
102
RTVSPost2010PropOp49
 70
     1
102
RTVSPost2010Prop50
 90
       50
102
RTVSPost2010PropOp50
 70
     1
102
RTVSPost2010Prop51ColorIndex
 90
      256
102
RTVSPost2010Prop51ColorRGB
 90
-16777216
102
RTVSPost2010PropOp51
 70
     0
102
RTVSPost2010Prop52
140
1.0
102
RTVSPost2010PropOp52
 70
     0
102
RTVSPost2010Prop53
 90
        2
102
RTVSPost2010PropOp53
 70
     1
102
RTVSPost2010Prop54
  1
strokes_ogs.tif
102
RTVSPost2010PropOp54
 70
     1
102
RTVSPost2010Prop55
280
     0
102
RTVSPost2010PropOp55
 70
     1
102
RTVSPost2010Prop56
140
1.0
102
RTVSPost2010PropOp56
 70
     1
102
RTVSPost2010Prop57
140
1.0
102
RTVSPost2010PropOp57
 70
     1
102
RTVSPropertyOp0
 70
     1
102
RTVSPropertyOp1
 70
     1
102
RTVSPropertyOp2
 70
     1
102
RTVSPropertyOp3
 70
     1
102
RTVSPropertyOp4
 70
     1
102
RTVSPropertyOp5
 70
     1
102
RTVSPropertyOp6
 70
     1
102
RTVSPropertyOp7
 70
     1
102
RTVSPropertyOp8
 70
     1
102
RTVSPropertyOp9
 70
     1
102
RTVSPropertyOp10
 70
     1
102
RTVSPropertyOp11
 70
     1
102
RTVSPropertyOp12
 70
     1
102
RTVSPropertyOp13
 70
     1
102
RTVSPropertyOp14
 70
     1
102
RTVSPropertyOp15
 70
     1
102
RTVSPropertyOp16
 70
     1
102
RTVSPropertyOp17
 70
     1
102
RTVSPropertyOp18
 70
     1
102
RTVSPropertyOp19
 70
     1
102
RTVSPropertyOp20
 70
     1
102
RTVSPropertyOp21
 70
     1
102
RTVSPropertyOp22
 70
     1
102
RTVSPropertyOp23
 70
     1
102
RTVSPropertyOp24
 70
     1
102
RTVSPropertyOp25
 70
     1
102
RTVSPropertyOp26
 70
     1
102
RTVSPropertyOp27
 70
     1
102
RTVSPropertyOp28
 70
     1
102
RTVSPropertyOp29
 70
     1
102
RTVSPropertyOp30
 70
     1
102
RTVSPropertyOp31
 70
     1
102
RTVSPropertyOp32
 70
     1
102
RTVSPropertyOp33
 70
     1
102
RTVSPropertyOp34
 70
     1
102
RTVSPropertyOp35
 70
     1
102
RTVSPropertyOp36
 70
     1
102
RTVSPropertyOp37
 70
     1
102
RTVSPropertyOp38
 70
     1
102
RTVSPropertyOp39
 70
     1
102
RTVSPropertyOp40
 70
     1
102
RTVSPropertyOp41
 70
     1
102
RTVSPropertyOp42
 70
     1
102
RTVSPropertyOp43
 70
     1
102
RTVSPropertyOp44
 70
     1
102
RTVSPropertyOp45
 70
     1
102
RTVSPropertyOp46
 70
     1
102
RTVSPropertyOp47
 70
     1
102
RTVSPropertyOp48
 70
     1
102
RTVSPropertyOp49
 70
     1
102
RTVSPropertyOp50
 70
     1
102
RTVSPropertyOp51
 70
     0
102
RTVSPropertyOp52
 70
     0
102
RTVSPropertyOp53
 70
     1
102
RTVSPropertyOp54
 70
     1
102
RTVSPropertyOp55
 70
     1
102
RTVSPropertyOp56
 70
     1
102
RTVSPropertyOp57
 70
     1
102
RTVSPropertyOp58
 70
     1
102
RTVSPropertyOp59
 70
     1
102
RTVSPropertyOp60
 70
     1
102
RTVSPropertyOp61
 70
     1
102
RTVSPropertyOp62
 70
     1
  0
ENDSEC
  0
EOF
