  0
SECTION
  2
HEADER
  9
$ACADVER
  1
AC1015
  9
$ACADMAINTVER
 70
    18
  9
$DWGCODEPAGE
  3
ANSI_1252
  9
$INSBASE
 10
0.0
 20
0.0
 30
0.0
  9
$EXTMIN
 10
-279.4317620427252
 20
-567.6472320249854
 30
-0.0015258207003583
  9
$EXTMAX
 10
328.9773568289557
 20
567.5837870172501
 30
0.0000000349246037
  9
$LIMMIN
 10
0.0
 20
0.0
  9
$LIMMAX
 10
420.0
 20
297.0
  9
$ORTHOMODE
 70
     0
  9
$REGENMODE
 70
     1
  9
$FILLMODE
 70
     1
  9
$QTEXTMODE
 70
     0
  9
$MIRRTEXT
 70
     0
  9
$LTSCALE
 40
1.0
  9
$ATTMODE
 70
     1
  9
$TEXTSIZE
 40
2.5
  9
$TRACEWID
 40
1.0
  9
$TEXTSTYLE
  7
Standard
  9
$CLAYER
  8
0
  9
$CELTYPE
  6
ByLayer
  9
$CECOLOR
 62
   256
  9
$CELTSCALE
 40
1.0
  9
$DISPSILH
 70
     0
  9
$DIMSCALE
 40
1.0
  9
$DIMASZ
 40
2.5
  9
$DIMEXO
 40
0.625
  9
$DIMDLI
 40
3.75
  9
$DIMRND
 40
0.0
  9
$DIMDLE
 40
0.0
  9
$DIMEXE
 40
1.25
  9
$DIMTP
 40
0.0
  9
$DIMTM
 40
0.0
  9
$DIMTXT
 40
2.5
  9
$DIMCEN
 40
2.5
  9
$DIMTSZ
 40
0.0
  9
$DIMTOL
 70
     0
  9
$DIMLIM
 70
     0
  9
$DIMTIH
 70
     0
  9
$DIMTOH
 70
     0
  9
$DIMSE1
 70
     0
  9
$DIMSE2
 70
     0
  9
$DIMTAD
 70
     1
  9
$DIMZIN
 70
     8
  9
$DIMBLK
  1

  9
$DIMASO
 70
     1
  9
$DIMSHO
 70
     1
  9
$DIMPOST
  1

  9
$DIMAPOST
  1

  9
$DIMALT
 70
     0
  9
$DIMALTD
 70
     3
  9
$DIMALTF
 40
0.03937007874016
  9
$DIMLFAC
 40
1.0
  9
$DIMTOFL
 70
     1
  9
$DIMTVP
 40
0.0
  9
$DIMTIX
 70
     0
  9
$DIMSOXD
 70
     0
  9
$DIMSAH
 70
     0
  9
$DIMBLK1
  1

  9
$DIMBLK2
  1

  9
$DIMSTYLE
  2
ISO-25
  9
$DIMCLRD
 70
     0
  9
$DIMCLRE
 70
     0
  9
$DIMCLRT
 70
     0
  9
$DIMTFAC
 40
1.0
  9
$DIMGAP
 40
0.625
  9
$DIMJUST
 70
     0
  9
$DIMSD1
 70
     0
  9
$DIMSD2
 70
     0
  9
$DIMTOLJ
 70
     0
  9
$DIMTZIN
 70
     8
  9
$DIMALTZ
 70
     0
  9
$DIMALTTZ
 70
     0
  9
$DIMUPT
 70
     0
  9
$DIMDEC
 70
     2
  9
$DIMTDEC
 70
     2
  9
$DIMALTU
 70
     2
  9
$DIMALTTD
 70
     3
  9
$DIMTXSTY
  7
Standard
  9
$DIMAUNIT
 70
     0
  9
$DIMADEC
 70
     0
  9
$DIMALTRND
 40
0.0
  9
$DIMAZIN
 70
     0
  9
$DIMDSEP
 70
    44
  9
$DIMATFIT
 70
     3
  9
$DIMFRAC
 70
     0
  9
$DIMLDRBLK
  1

  9
$DIMLUNIT
 70
     2
  9
$DIMLWD
 70
    -2
  9
$DIMLWE
 70
    -2
  9
$DIMTMOVE
 70
     0
  9
$LUNITS
 70
     2
  9
$LUPREC
 70
     4
  9
$SKETCHINC
 40
1.0
  9
$FILLETRAD
 40
0.0
  9
$AUNITS
 70
     0
  9
$AUPREC
 70
     0
  9
$MENU
  1
.
  9
$ELEVATION
 40
0.0
  9
$PELEVATION
 40
0.0
  9
$THICKNESS
 40
0.0
  9
$LIMCHECK
 70
     0
  9
$CHAMFERA
 40
0.0
  9
$CHAMFERB
 40
0.0
  9
$CHAMFERC
 40
0.0
  9
$CHAMFERD
 40
0.0
  9
$SKPOLY
 70
     0
  9
$TDCREATE
 40
2460719.406504630
  9
$TDUCREATE
 40
2460719.114837963
  9
$TDUPDATE
 40
2460719.414687500
  9
$TDUUPDATE
 40
2460719.123020834
  9
$TDINDWG
 40
0.0025347222
  9
$TDUSRTIMER
 40
0.0025347222
  9
$USRTIMER
 70
     1
  9
$ANGBASE
 50
0.0
  9
$ANGDIR
 70
     0
  9
$PDMODE
 70
     0
  9
$PDSIZE
 40
0.0
  9
$PLINEWID
 40
0.0
  9
$SPLFRAME
 70
     0
  9
$SPLINETYPE
 70
     6
  9
$SPLINESEGS
 70
     8
  9
$HANDSEED
  5
E3E3
  9
$SURFTAB1
 70
     6
  9
$SURFTAB2
 70
     6
  9
$SURFTYPE
 70
     6
  9
$SURFU
 70
     6
  9
$SURFV
 70
     6
  9
$UCSBASE
  2

  9
$UCSNAME
  2

  9
$UCSORG
 10
0.0
 20
0.0
 30
0.0
  9
$UCSXDIR
 10
1.0
 20
0.0
 30
0.0
  9
$UCSYDIR
 10
0.0
 20
1.0
 30
0.0
  9
$UCSORTHOREF
  2

  9
$UCSORTHOVIEW
 70
     0
  9
$UCSORGTOP
 10
0.0
 20
0.0
 30
0.0
  9
$UCSORGBOTTOM
 10
0.0
 20
0.0
 30
0.0
  9
$UCSORGLEFT
 10
0.0
 20
0.0
 30
0.0
  9
$UCSORGRIGHT
 10
0.0
 20
0.0
 30
0.0
  9
$UCSORGFRONT
 10
0.0
 20
0.0
 30
0.0
  9
$UCSORGBACK
 10
0.0
 20
0.0
 30
0.0
  9
$PUCSBASE
  2

  9
$PUCSNAME
  2

  9
$PUCSORG
 10
0.0
 20
0.0
 30
0.0
  9
$PUCSXDIR
 10
1.0
 20
0.0
 30
0.0
  9
$PUCSYDIR
 10
0.0
 20
1.0
 30
0.0
  9
$PUCSORTHOREF
  2

  9
$PUCSORTHOVIEW
 70
     0
  9
$PUCSORGTOP
 10
0.0
 20
0.0
 30
0.0
  9
$PUCSORGBOTTOM
 10
0.0
 20
0.0
 30
0.0
  9
$PUCSORGLEFT
 10
0.0
 20
0.0
 30
0.0
  9
$PUCSORGRIGHT
 10
0.0
 20
0.0
 30
0.0
  9
$PUCSORGFRONT
 10
0.0
 20
0.0
 30
0.0
  9
$PUCSORGBACK
 10
0.0
 20
0.0
 30
0.0
  9
$USERI1
 70
     0
  9
$USERI2
 70
     0
  9
$USERI3
 70
     0
  9
$USERI4
 70
     0
  9
$USERI5
 70
     0
  9
$USERR1
 40
0.0
  9
$USERR2
 40
0.0
  9
$USERR3
 40
0.0
  9
$USERR4
 40
0.0
  9
$USERR5
 40
0.0
  9
$WORLDVIEW
 70
     1
  9
$SHADEDGE
 70
     3
  9
$SHADEDIF
 70
    70
  9
$TILEMODE
 70
     1
  9
$MAXACTVP
 70
    48
  9
$PINSBASE
 10
0.0
 20
0.0
 30
0.0
  9
$PLIMCHECK
 70
     0
  9
$PEXTMIN
 10
0.0
 20
0.0
 30
0.0
  9
$PEXTMAX
 10
0.0
 20
0.0
 30
0.0
  9
$PLIMMIN
 10
0.0
 20
0.0
  9
$PLIMMAX
 10
12.0
 20
9.0
  9
$UNITMODE
 70
     0
  9
$VISRETAIN
 70
     1
  9
$PLINEGEN
 70
     0
  9
$PSLTSCALE
 70
     1
  9
$TREEDEPTH
 70
  3020
  9
$CMLSTYLE
  2
Standard
  9
$CMLJUST
 70
     0
  9
$CMLSCALE
 40
20.0
  9
$PROXYGRAPHICS
 70
     1
  9
$MEASUREMENT
 70
     1
  9
$CELWEIGHT
370
    -1
  9
$ENDCAPS
280
     0
  9
$JOINSTYLE
280
     0
  9
$LWDISPLAY
290
     0
  9
$INSUNITS
 70
     4
  9
$HYPERLINKBASE
  1

  9
$STYLESHEET
  1

  9
$XEDIT
290
     1
  9
$CEPSNTYPE
380
     0
  9
$PSTYLEMODE
290
     1
  9
$FINGERPRINTGUID
  2
{375C693C-302E-BC42-B92A-19F6C371B7B0}
  9
$VERSIONGUID
  2
{5EFABBC8-354D-D842-A081-3D951BE77505}
  9
$EXTNAMES
290
     1
  9
$PSVPSCALE
 40
0.0
  9
$OLESTARTUP
290
     0
  0
ENDSEC
  0
SECTION
  2
CLASSES
  0
CLASS
  1
ACDBDICTIONARYWDFLT
  2
AcDbDictionaryWithDefault
  3
ObjectDBX Classes
 90
        0
280
     0
281
     0
  0
CLASS
  1
ACDBPLACEHOLDER
  2
AcDbPlaceHolder
  3
ObjectDBX Classes
 90
        0
280
     0
281
     0
  0
CLASS
  1
LAYOUT
  2
AcDbLayout
  3
ObjectDBX Classes
 90
        0
280
     0
281
     0
  0
CLASS
  1
DICTIONARYVAR
  2
AcDbDictionaryVar
  3
ObjectDBX Classes
 90
        0
280
     0
281
     0
  0
CLASS
  1
TABLESTYLE
  2
AcDbTableStyle
  3
ObjectDBX Classes
 90
     4095
280
     0
281
     0
  0
CLASS
  1
MATERIAL
  2
AcDbMaterial
  3
ObjectDBX Classes
 90
     1153
280
     0
281
     0
  0
CLASS
  1
VISUALSTYLE
  2
AcDbVisualStyle
  3
ObjectDBX Classes
 90
     4095
280
     0
281
     0
  0
CLASS
  1
SCALE
  2
AcDbScale
  3
ObjectDBX Classes
 90
     1153
280
     0
281
     0
  0
CLASS
  1
MLEADERSTYLE
  2
AcDbMLeaderStyle
  3
ACDB_MLEADERSTYLE_CLASS
 90
     4095
280
     0
281
     0
  0
CLASS
  1
CELLSTYLEMAP
  2
AcDbCellStyleMap
  3
ObjectDBX Classes
 90
     1152
280
     0
281
     0
  0
CLASS
  1
EXACXREFPANELOBJECT
  2
ExAcXREFPanelObject
  3
EXAC_ESW
 90
    33793
280
     0
281
     0
  0
CLASS
  1
NPOCOLLECTION
  2
AcDbImpNonPersistentObjectsCollection
  3
ObjectDBX Classes
 90
    33921
280
     0
281
     0
  0
CLASS
  1
LAYER_INDEX
  2
AcDbLayerIndex
  3
ObjectDBX Classes
 90
    32768
280
     0
281
     0
  0
CLASS
  1
SPATIAL_INDEX
  2
AcDbSpatialIndex
  3
ObjectDBX Classes
 90
    32768
280
     0
281
     0
  0
CLASS
  1
IDBUFFER
  2
AcDbIdBuffer
  3
ObjectDBX Classes
 90
    32768
280
     0
281
     0
  0
CLASS
  1
ACDBSECTIONVIEWSTYLE
  2
AcDbSectionViewStyle
  3
ObjectDBX Classes
 90
     1025
280
     0
281
     0
  0
CLASS
  1
ACDBDETAILVIEWSTYLE
  2
AcDbDetailViewStyle
  3
ObjectDBX Classes
 90
     1025
280
     0
281
     0
  0
CLASS
  1
XRECORD
  2
AcDbXrecord
  3
ObjectDBX Classes
 90
        0
280
     0
281
     0
  0
ENDSEC
  0
SECTION
  2
TABLES
  0
TABLE
  2
VPORT
  5
8
102
{ACAD_XDICTIONARY
360
E2F1
102
}
330
0
100
AcDbSymbolTable
 70
     1
  0
VPORT
  5
EA
330
8
100
AcDbSymbolTableRecord
100
AcDbViewportTableRecord
  2
*Active
 70
     0
 10
0.0
 20
0.0
 11
1.0
 21
1.0
 12
24.7727973931153
 22
-0.031722503867627
 13
0.0
 23
0.0
 14
10.0
 24
10.0
 15
10.0
 25
10.0
 16
0.0
 26
0.0
 36
1.0
 17
0.0
 27
0.0
 37
0.0
 40
1207.215310352081
 41
0.9846153846153846
 42
50.0
 43
0.0
 44
0.0
 50
0.0
 51
0.0
 71
     0
 72
  1000
 73
     1
 74
     3
 75
     0
 76
     1
 77
     0
 78
     0
281
     0
 65
     1
110
0.0
120
0.0
130
0.0
111
1.0
121
0.0
131
0.0
112
0.0
122
1.0
132
0.0
 79
     0
146
0.0
1001
ACAD_NAV_VCDISPLAY
1070
     3
  0
ENDTAB
  0
TABLE
  2
LTYPE
  5
5
330
0
100
AcDbSymbolTable
 70
     1
  0
LTYPE
  5
14
330
5
100
AcDbSymbolTableRecord
100
AcDbLinetypeTableRecord
  2
ByBlock
 70
     0
  3

 72
    65
 73
     0
 40
0.0
  0
LTYPE
  5
15
330
5
100
AcDbSymbolTableRecord
100
AcDbLinetypeTableRecord
  2
ByLayer
 70
     0
  3

 72
    65
 73
     0
 40
0.0
  0
LTYPE
  5
16
330
5
100
AcDbSymbolTableRecord
100
AcDbLinetypeTableRecord
  2
Continuous
 70
     0
  3
Solid line
 72
    65
 73
     0
 40
0.0
  0
ENDTAB
  0
TABLE
  2
LAYER
  5
2
102
{ACAD_XDICTIONARY
360
1FF
102
}
330
0
100
AcDbSymbolTable
 70
     1
  0
LAYER
  5
10
102
{ACAD_XDICTIONARY
360
13C
102
}
330
2
100
AcDbSymbolTableRecord
100
AcDbLayerTableRecord
  2
0
 70
     0
 62
     7
  6
Continuous
370
    -3
390
F
  0
ENDTAB
  0
TABLE
  2
STYLE
  5
3
330
0
100
AcDbSymbolTable
 70
     1
  0
STYLE
  5
11
330
3
100
AcDbSymbolTableRecord
100
AcDbTextStyleTableRecord
  2
Standard
 70
     0
 40
0.0
 41
1.0
 50
0.0
 71
     0
 42
2.5
  3
arial.ttf
  4

1001
ACAD
1000
Arial
1071
       34
  0
ENDTAB
  0
TABLE
  2
VIEW
  5
6
330
0
100
AcDbSymbolTable
 70
     0
  0
ENDTAB
  0
TABLE
  2
UCS
  5
7
330
0
100
AcDbSymbolTable
 70
     0
  0
ENDTAB
  0
TABLE
  2
APPID
  5
9
330
0
100
AcDbSymbolTable
 70
     8
  0
APPID
  5
12
330
9
100
AcDbSymbolTableRecord
100
AcDbRegAppTableRecord
  2
ACAD
 70
     0
  0
APPID
  5
9E
330
9
100
AcDbSymbolTableRecord
100
AcDbRegAppTableRecord
  2
ACAD_PSEXT
 70
     0
  0
APPID
  5
133
330
9
100
AcDbSymbolTableRecord
100
AcDbRegAppTableRecord
  2
AcadAnnoPO
 70
     0
  0
APPID
  5
134
330
9
100
AcDbSymbolTableRecord
100
AcDbRegAppTableRecord
  2
AcadAnnotative
 70
     0
  0
APPID
  5
135
330
9
100
AcDbSymbolTableRecord
100
AcDbRegAppTableRecord
  2
ACAD_DSTYLE_DIMJAG
 70
     0
  0
APPID
  5
136
330
9
100
AcDbSymbolTableRecord
100
AcDbRegAppTableRecord
  2
ACAD_DSTYLE_DIMTALN
 70
     0
  0
APPID
  5
165
330
9
100
AcDbSymbolTableRecord
100
AcDbRegAppTableRecord
  2
ACAD_MLEADERVER
 70
     0
  0
APPID
  5
217
330
9
100
AcDbSymbolTableRecord
100
AcDbRegAppTableRecord
  2
ACAD_NAV_VCDISPLAY
 70
     0
  0
ENDTAB
  0
TABLE
  2
DIMSTYLE
  5
A
330
0
100
AcDbSymbolTable
 70
     1
100
AcDbDimStyleTable
 71
     0
  0
DIMSTYLE
105
27
330
A
100
AcDbSymbolTableRecord
100
AcDbDimStyleTableRecord
  2
ISO-25
 70
     0
 41
2.5
 42
0.625
 43
3.75
 44
1.25
 73
     0
 74
     0
 77
     1
 78
     8
140
2.5
141
2.5
143
0.03937007874016
147
0.625
171
     3
172
     1
271
     2
272
     2
274
     3
278
    44
283
     0
284
     8
340
11
  0
ENDTAB
  0
TABLE
  2
BLOCK_RECORD
  5
1
330
0
100
AcDbSymbolTable
 70
     7
  0
BLOCK_RECORD
  5
1F
102
{ACAD_XDICTIONARY
360
1CE
102
}
330
1
100
AcDbSymbolTableRecord
100
AcDbBlockTableRecord
  2
*Model_Space
340
22
  0
BLOCK_RECORD
  5
D2
102
{ACAD_XDICTIONARY
360
E2A4
102
}
330
1
100
AcDbSymbolTableRecord
100
AcDbBlockTableRecord
  2
*Paper_Space
340
D3
  0
BLOCK_RECORD
  5
D6
102
{ACAD_XDICTIONARY
360
E2A6
102
}
330
1
100
AcDbSymbolTableRecord
100
AcDbBlockTableRecord
  2
*Paper_Space0
340
D7
  0
BLOCK_RECORD
  5
DFF6
330
1
100
AcDbSymbolTableRecord
100
AcDbBlockTableRecord
  2
SPR60_360-Front
340
0
102
{BLKREFS
331
E29A
102
}
  0
BLOCK_RECORD
  5
E076
330
1
100
AcDbSymbolTableRecord
100
AcDbBlockTableRecord
  2
SPR60_360-Left
340
0
102
{BLKREFS
331
E29B
102
}
  0
BLOCK_RECORD
  5
E0BA
330
1
100
AcDbSymbolTableRecord
100
AcDbBlockTableRecord
  2
SPR60_360-Right
340
0
102
{BLKREFS
331
E29C
102
}
  0
BLOCK_RECORD
  5
E100
330
1
100
AcDbSymbolTableRecord
100
AcDbBlockTableRecord
  2
SPR60_360-Top
340
0
102
{BLKREFS
331
E29D
102
}
  0
BLOCK_RECORD
  5
E150
330
1
100
AcDbSymbolTableRecord
100
AcDbBlockTableRecord
  2
SPR60_360-Bottom
340
0
102
{BLKREFS
331
E29E
102
}
  0
BLOCK_RECORD
  5
E190
330
1
100
AcDbSymbolTableRecord
100
AcDbBlockTableRecord
  2
SPR60_360-ISO
340
0
102
{BLKREFS
331
E29F
102
}
  0
ENDTAB
  0
ENDSEC
  0
SECTION
  2
BLOCKS
  0
BLOCK
  5
20
330
1F
100
AcDbEntity
  8
0
100
AcDbBlockBegin
  2
*Model_Space
 70
     0
 10
0.0
 20
0.0
 30
0.0
  3
*Model_Space
  1

  0
ENDBLK
  5
21
330
1F
100
AcDbEntity
  8
0
100
AcDbBlockEnd
  0
BLOCK
  5
D4
330
D2
100
AcDbEntity
 67
     1
  8
0
100
AcDbBlockBegin
  2
*Paper_Space
 70
     0
 10
0.0
 20
0.0
 30
0.0
  3
*Paper_Space
  1

  0
ENDBLK
  5
D5
330
D2
100
AcDbEntity
 67
     1
  8
0
100
AcDbBlockEnd
  0
BLOCK
  5
D8
330
D6
100
AcDbEntity
 67
     1
  8
0
100
AcDbBlockBegin
  2
*Paper_Space0
 70
     0
 10
0.0
 20
0.0
 30
0.0
  3
*Paper_Space0
  1

  0
ENDBLK
  5
D9
330
D6
100
AcDbEntity
 67
     1
  8
0
100
AcDbBlockEnd
  0
BLOCK
  5
DFF7
330
DFF6
100
AcDbEntity
  8
0
100
AcDbBlockBegin
  2
SPR60_360-Front
 70
     0
 10
0.0
 20
0.0
 30
0.0
  3
SPR60_360-Front
  1

  0
LINE
  5
DFF9
330
DFF6
100
AcDbEntity
  8
0
100
AcDbLine
 10
72.52709056099998
 20
6.269999999999996
 30
0.0
 11
67.52709056099998
 21
1.269999999999996
 31
0.0
  0
LINE
  5
DFFA
330
DFF6
100
AcDbEntity
  8
0
100
AcDbLine
 10
-67.52709056099999
 20
1.269999999999996
 30
0.0
 11
-72.52709056099999
 21
6.269999999999996
 31
0.0
  0
LINE
  5
DFFB
330
DFF6
100
AcDbEntity
  8
0
100
AcDbLine
 10
-72.52709056100001
 20
72.27
 30
0.0
 11
-67.52709056100001
 21
77.27
 31
0.0
  0
LINE
  5
DFFC
330
DFF6
100
AcDbEntity
  8
0
100
AcDbLine
 10
67.52709056099999
 20
77.27000000000001
 30
0.0
 11
72.52709056099999
 21
72.27000000000001
 31
0.0
  0
LINE
  5
DFFD
330
DFF6
100
AcDbEntity
  8
0
100
AcDbLine
 10
72.52709056099999
 20
72.27000000000001
 30
0.0
 11
72.52709056099998
 21
6.269999999999997
 31
0.0
  0
LINE
  5
DFFE
330
DFF6
100
AcDbEntity
  8
0
100
AcDbLine
 10
-72.52709056099999
 20
6.269999999999996
 30
0.0
 11
-72.52709056100001
 21
72.27
 31
0.0
  0
LINE
  5
DFFF
330
DFF6
100
AcDbEntity
  8
0
100
AcDbLine
 10
26.49999999999999
 20
77.27000000000001
 30
0.0
 11
67.52709056099999
 21
77.27000000000001
 31
0.0
  0
LINE
  5
E000
330
DFF6
100
AcDbEntity
  8
0
100
AcDbLine
 10
-26.5
 20
1.270000000000022
 30
0.0
 11
-67.52709056099999
 21
1.269999999999996
 31
0.0
  0
LINE
  5
E001
330
DFF6
100
AcDbEntity
  8
0
100
AcDbLine
 10
67.52709056099998
 20
1.269999999999996
 30
0.0
 11
26.49999999999999
 21
1.270000000000022
 31
0.0
  0
ARC
  5
E002
330
DFF6
100
AcDbEntity
  8
0
100
AcDbCircle
 10
26.5
 20
78.77000000000001
 30
0.0
 40
1.5
100
AcDbArc
 50
90.00000000000033
 51
269.9999999999997
  0
LINE
  5
E003
330
DFF6
100
AcDbEntity
  8
0
100
AcDbLine
 10
-67.52709056100001
 20
77.27
 30
0.0
 11
-26.5
 21
77.27
 31
0.0
  0
ARC
  5
E004
330
DFF6
100
AcDbEntity
  8
0
100
AcDbCircle
 10
-26.5
 20
78.76999999999999
 30
0.0
 40
1.5
100
AcDbArc
 50
270.0
 51
90.0
  0
LINE
  5
E005
330
DFF6
100
AcDbEntity
  8
0
100
AcDbLine
 10
31.49999999999995
 20
80.27000000000001
 30
0.0
 11
31.49999999999994
 21
85.27000000000001
 31
0.0
  0
LINE
  5
E006
330
DFF6
100
AcDbEntity
  8
0
100
AcDbLine
 10
31.49999999999994
 20
85.27000000000001
 30
0.0
 11
29.99999999999994
 21
85.27000000000001
 31
0.0
  0
LINE
  5
E007
330
DFF6
100
AcDbEntity
  8
0
100
AcDbLine
 10
29.99999999999994
 20
85.27000000000001
 30
0.0
 11
29.99999999999995
 21
80.27000000000001
 31
0.0
  0
LINE
  5
E008
330
DFF6
100
AcDbEntity
  8
0
100
AcDbLine
 10
29.99999999999995
 20
80.27000000000001
 30
0.0
 11
31.49999999999995
 21
80.27000000000001
 31
0.0
  0
LINE
  5
E009
330
DFF6
100
AcDbEntity
  8
0
100
AcDbLine
 10
29.99999999999994
 20
355.67
 30
0.0
 11
31.49999999999994
 21
355.67
 31
0.0
  0
LINE
  5
E00A
330
DFF6
100
AcDbEntity
  8
0
100
AcDbLine
 10
31.49999999999994
 20
355.67
 30
0.0
 11
31.49999999999995
 21
360.67
 31
0.0
  0
LINE
  5
E00B
330
DFF6
100
AcDbEntity
  8
0
100
AcDbLine
 10
-31.5
 20
85.27000000000001
 30
0.0
 11
-31.49999999999999
 21
80.27000000000001
 31
0.0
  0
LINE
  5
E00C
330
DFF6
100
AcDbEntity
  8
0
100
AcDbLine
 10
-31.49999999999999
 20
80.27000000000001
 30
0.0
 11
-30.0
 21
80.27000000000001
 31
0.0
  0
LINE
  5
E00D
330
DFF6
100
AcDbEntity
  8
0
100
AcDbLine
 10
-30.0
 20
80.27000000000001
 30
0.0
 11
-30.0
 21
85.27000000000001
 31
0.0
  0
LINE
  5
E00E
330
DFF6
100
AcDbEntity
  8
0
100
AcDbLine
 10
-30.0
 20
85.27000000000001
 30
0.0
 11
-31.5
 21
85.27000000000001
 31
0.0
  0
LINE
  5
E00F
330
DFF6
100
AcDbEntity
  8
0
100
AcDbLine
 10
-31.5
 20
360.67
 30
0.0
 11
-31.5
 21
355.67
 31
0.0
  0
LINE
  5
E010
330
DFF6
100
AcDbEntity
  8
0
100
AcDbLine
 10
-31.5
 20
355.67
 30
0.0
 11
-30.0
 21
355.67
 31
0.0
  0
LINE
  5
E011
330
DFF6
100
AcDbEntity
  8
0
100
AcDbLine
 10
31.49999999999995
 20
360.67
 30
0.0
 11
29.99999999999995
 21
360.67
 31
0.0
  0
LINE
  5
E012
330
DFF6
100
AcDbEntity
  8
0
100
AcDbLine
 10
29.99999999999995
 20
360.67
 30
0.0
 11
29.99999999999994
 21
355.67
 31
0.0
  0
LINE
  5
E013
330
DFF6
100
AcDbEntity
  8
0
100
AcDbLine
 10
-30.0
 20
355.67
 30
0.0
 11
-30.0
 21
360.67
 31
0.0
  0
LINE
  5
E014
330
DFF6
100
AcDbEntity
  8
0
100
AcDbLine
 10
-30.0
 20
360.67
 30
0.0
 11
-31.5
 21
360.67
 31
0.0
  0
LINE
  5
E015
330
DFF6
100
AcDbEntity
  8
0
100
AcDbLine
 10
31.49999999999998
 20
-28.42608254450011
 30
0.0
 11
31.5
 21
-21.3550147326346
 31
0.0
  0
LINE
  5
E016
330
DFF6
100
AcDbEntity
  8
0
100
AcDbLine
 10
31.5
 20
-21.3550147326346
 30
0.0
 11
30.0
 21
-21.35501473263461
 31
0.0
  0
LINE
  5
E017
330
DFF6
100
AcDbEntity
  8
0
100
AcDbLine
 10
30.0
 20
-21.35501473263461
 30
0.0
 11
30.0
 21
-28.42608254450011
 31
0.0
  0
LINE
  5
E018
330
DFF6
100
AcDbEntity
  8
0
100
AcDbLine
 10
30.0
 20
-28.42608254450011
 30
0.0
 11
31.49999999999998
 21
-28.42608254450011
 31
0.0
  0
LINE
  5
E019
330
DFF6
100
AcDbEntity
  8
0
100
AcDbLine
 10
-31.49999999999998
 20
-21.35501473263462
 30
0.0
 11
-31.49999999999995
 21
-28.42608254450011
 31
0.0
  0
LINE
  5
E01A
330
DFF6
100
AcDbEntity
  8
0
100
AcDbLine
 10
-31.49999999999995
 20
-28.42608254450011
 30
0.0
 11
-29.99999999999998
 21
-28.42608254450011
 31
0.0
  0
LINE
  5
E01B
330
DFF6
100
AcDbEntity
  8
0
100
AcDbLine
 10
-29.99999999999998
 20
-28.42608254450011
 30
0.0
 11
-29.99999999999998
 21
-21.35501473263463
 31
0.0
  0
LINE
  5
E01C
330
DFF6
100
AcDbEntity
  8
0
100
AcDbLine
 10
-29.99999999999998
 20
-21.35501473263463
 30
0.0
 11
-31.49999999999998
 21
-21.35501473263462
 31
0.0
  0
LINE
  5
E01D
330
DFF6
100
AcDbEntity
  8
0
100
AcDbLine
 10
31.49999999999994
 20
85.27000000000001
 30
0.0
 11
31.49999999999994
 21
355.67
 31
0.0
  0
LINE
  5
E01E
330
DFF6
100
AcDbEntity
  8
0
100
AcDbLine
 10
29.99999999999994
 20
355.67
 30
0.0
 11
29.99999999999994
 21
85.27000000000001
 31
0.0
  0
LINE
  5
E01F
330
DFF6
100
AcDbEntity
  8
0
100
AcDbLine
 10
-31.5
 20
355.67
 30
0.0
 11
-31.5
 21
85.27000000000001
 31
0.0
  0
LINE
  5
E020
330
DFF6
100
AcDbEntity
  8
0
100
AcDbLine
 10
-30.0
 20
355.67
 30
0.0
 11
-30.0
 21
85.27000000000001
 31
0.0
  0
LINE
  5
E021
330
DFF6
100
AcDbEntity
  8
0
100
AcDbLine
 10
26.49999999999999
 20
80.27000000000001
 30
0.0
 11
29.40000000000001
 21
80.27000000000001
 31
0.0
  0
LINE
  5
E022
330
DFF6
100
AcDbEntity
  8
0
100
AcDbLine
 10
-29.4
 20
80.27000000000001
 30
0.0
 11
-26.5
 21
80.26999999999999
 31
0.0
  0
LINE
  5
E023
330
DFF6
100
AcDbEntity
  8
0
100
AcDbLine
 10
-29.4
 20
360.67
 30
0.0
 11
29.40000000000001
 21
360.67
 31
0.0
  0
LINE
  5
E024
330
DFF6
100
AcDbEntity
  8
0
100
AcDbLine
 10
31.50000000000131
 20
-2.263131642256623
 30
0.0
 11
31.5
 21
-21.3550147326346
 31
0.0
  0
LINE
  5
E025
330
DFF6
100
AcDbEntity
  8
0
100
AcDbLine
 10
30.00000000000105
 20
-2.263131642256623
 30
0.0
 11
30.0
 21
-21.35501473263461
 31
0.0
  0
ELLIPSE
  5
E026
330
DFF6
100
AcDbEntity
  8
0
100
AcDbEllipse
 10
29.4
 20
-54.16476937947049
 30
0.0
 11
0.6000000000000087
 21
0.0000000000000282
 31
0.0
210
0.0
220
0.0
230
1.0
 40
0.7071067811866661
 41
4.712388980384648
 42
6.283185307179515
  0
ELLIPSE
  5
E027
330
DFF6
100
AcDbEntity
  8
0
100
AcDbEllipse
 10
29.4
 20
-54.16476937947049
 30
0.0
 11
2.100000000000056
 21
0.0000000000000533
 31
0.0
210
0.0
220
0.0
230
1.0
 40
0.7071067811865487
 41
4.712388980384741
 42
6.283185307179718
  0
LINE
  5
E028
330
DFF6
100
AcDbEntity
  8
0
100
AcDbLine
 10
31.50000000000131
 20
-2.263131642256623
 30
0.0
 11
30.00000000000105
 21
-2.263131642256623
 31
0.0
  0
ELLIPSE
  5
E029
330
DFF6
100
AcDbEntity
  8
0
100
AcDbEllipse
 10
-26.5
 20
0.0236058844764817
 30
0.0
 11
-1.5
 21
0.00000000000011
 31
0.0
210
0.0
220
0.0
230
1.0
 40
0.7071067811865479
 41
1.570796326795026
 42
2.705254581962059
  0
LINE
  5
E02A
330
DFF6
100
AcDbEntity
  8
0
100
AcDbLine
 10
-26.5
 20
-1.037054287303337
 30
0.0
 11
-28.79315533855964
 21
-1.037054287303337
 31
0.0
  0
LINE
  5
E02B
330
DFF6
100
AcDbEntity
  8
0
100
AcDbLine
 10
-28.79315533855964
 20
-1.037054287303337
 30
0.0
 11
-29.40000000000001
 21
-1.466158262545877
 31
0.0
  0
LINE
  5
E02C
330
DFF6
100
AcDbEntity
  8
0
100
AcDbLine
 10
29.39999999999999
 20
-1.466158262545877
 30
0.0
 11
28.79315533855963
 21
-1.037054287303334
 31
0.0
  0
LINE
  5
E02D
330
DFF6
100
AcDbEntity
  8
0
100
AcDbLine
 10
28.79315533855963
 20
-1.037054287303334
 30
0.0
 11
26.5
 21
-1.037054287303334
 31
0.0
  0
ELLIPSE
  5
E02E
330
DFF6
100
AcDbEntity
  8
0
100
AcDbEllipse
 10
26.5
 20
0.0236058844764814
 30
0.0
 11
-1.5
 21
0.0
 31
0.0
210
0.0
220
0.0
230
1.0
 40
0.7071067811865479
 41
0.4363380716279935
 42
1.570796326794896
  0
SPLINE
  5
E02F
330
DFF6
100
AcDbEntity
  8
0
100
AcDbSpline
210
0.0
220
0.0
230
1.0
 70
     8
 71
     3
 72
     8
 73
     4
 74
     0
 42
0.000000001
 43
0.0000000001
 40
-1.0
 40
-1.0
 40
-1.0
 40
-1.0
 40
0.0
 40
0.0
 40
0.0
 40
0.0
 10
-25.01767776087194
 20
-0.0003899405809504
 30
0.0
 10
-24.97251992074021
 20
-0.1594792109354416
 30
0.0
 10
-25.0158647439017
 20
-0.321485044675321
 30
0.0
 10
-25.14054197002052
 20
-0.4246540092928796
 30
0.0
  0
SPLINE
  5
E030
330
DFF6
100
AcDbEntity
  8
0
100
AcDbSpline
210
0.0
220
0.0
230
1.0
 70
     8
 71
     3
 72
     8
 73
     4
 74
     0
 42
0.000000001
 43
0.0000000001
 40
-1.0
 40
-1.0
 40
-1.0
 40
-1.0
 40
0.0
 40
0.0
 40
0.0
 40
0.0
 10
25.14054197002047
 20
-0.4246540092928792
 30
0.0
 10
25.01586474390317
 20
-0.3214850446753284
 30
0.0
 10
24.97251992073922
 20
-0.1594792109354413
 30
0.0
 10
25.01767776087191
 20
-0.0003899405809504
 30
0.0
  0
LINE
  5
E031
330
DFF6
100
AcDbEntity
  8
0
100
AcDbLine
 10
-30.00000000000083
 20
-2.263131642256625
 30
0.0
 11
-31.50000000000105
 21
-2.263131642256626
 31
0.0
  0
SPLINE
  5
E032
330
DFF6
100
AcDbEntity
  8
0
100
AcDbSpline
210
0.0
220
0.0
230
1.0
 70
     8
 71
     3
 72
     8
 73
     4
 74
     0
 42
0.000000001
 43
0.0000000001
 40
-1.0
 40
-1.0
 40
-1.0
 40
-1.0
 40
0.0
 40
0.0
 40
0.0
 40
0.0
 10
-29.40000000000001
 20
-1.46615826254589
 30
0.0
 10
-29.71415926535899
 20
-1.873237411764898
 30
0.0
 10
-30.00000000000002
 20
-2.078196639181167
 30
0.0
 10
-30.00000000000002
 20
-2.263131641492052
 30
0.0
  0
ARC
  5
E033
330
DFF6
100
AcDbEntity
  8
0
100
AcDbCircle
 10
-26.5
 20
-0.229999999999892
 30
0.0
 40
1.5
100
AcDbArc
 50
8.80507525969728
 51
90.0
  0
SPLINE
  5
E034
330
DFF6
100
AcDbEntity
  8
0
100
AcDbSpline
210
0.0
220
0.0
230
1.0
 70
     8
 71
     3
 72
     8
 73
     4
 74
     0
 42
0.000000001
 43
0.0000000001
 40
-1.0
 40
-1.0
 40
-1.0
 40
-1.0
 40
0.0
 40
0.0
 40
0.0
 40
0.0
 10
30.00000000000002
 20
-2.263131641492114
 30
0.0
 10
30.0
 20
-2.078196639180753
 30
0.0
 10
29.71415926535897
 20
-1.873237411765344
 30
0.0
 10
29.39999999999999
 20
-1.466158262545864
 30
0.0
  0
ARC
  5
E035
330
DFF6
100
AcDbEntity
  8
0
100
AcDbCircle
 10
26.5
 20
-0.229999999999892
 30
0.0
 40
1.5
100
AcDbArc
 50
90.0
 51
171.1949247403028
  0
SPLINE
  5
E036
330
DFF6
100
AcDbEntity
  8
0
100
AcDbSpline
210
0.0
220
0.0
230
1.0
 70
     8
 71
     3
 72
    16
 73
    12
 74
     0
 42
0.000000001
 43
0.0000000001
 40
0.0
 40
0.0
 40
0.0
 40
0.0
 40
0.0356537247223842
 40
0.0356537247223842
 40
0.0703704956415469
 40
0.0703704956415469
 40
0.1051345640087072
 40
0.1051345640087072
 40
0.1398962718659605
 40
0.1398962718659605
 40
0.1538885733138561
 40
0.1538885733138561
 40
0.1538885733138561
 40
0.1538885733138561
 10
-30.49949999999844
 20
-2.263131641492057
 30
0.0
 10
-30.49950000000004
 20
-2.263131641490505
 30
0.0
 10
-30.47955867540393
 20
-2.263059951014959
 30
0.0
 10
-30.4058317217056
 20
-2.250836451214174
 30
0.0
 10
-30.35213458029049
 20
-2.238741830466182
 30
0.0
 10
-30.22293730431357
 20
-2.194102190392589
 30
0.0
 10
-30.14591985435766
 20
-2.16088867723382
 30
0.0
 10
-29.98574064092391
 20
-2.069479202590282
 30
0.0
 10
-29.90073655259682
 20
-2.010107098256545
 30
0.0
 10
-29.78901418349038
 20
-1.909831885151231
 30
0.0
 10
-29.75758437992273
 20
-1.878943669873948
 30
0.0
 10
-29.72742155524377
 20
-1.846191951394082
 30
0.0
  0
SPLINE
  5
E037
330
DFF6
100
AcDbEntity
  8
0
100
AcDbSpline
210
0.0
220
0.0
230
1.0
 70
     8
 71
     3
 72
    16
 73
    12
 74
     0
 42
0.000000001
 43
0.0000000001
 40
0.0
 40
0.0
 40
0.0
 40
0.0
 40
0.0356266149378716
 40
0.0356266149378716
 40
0.0703447701852293
 40
0.0703447701852293
 40
0.1051087695050709
 40
0.1051087695050709
 40
0.139870480809399
 40
0.139870480809399
 40
0.153888864702991
 40
0.153888864702991
 40
0.153888864702991
 40
0.153888864702991
 10
29.72742155524379
 20
-1.846191951394096
 30
0.0
 10
29.80422088266517
 20
-1.929583012341452
 30
0.0
 10
29.88999615132419
 20
-2.001172959751654
 30
0.0
 10
30.05564046645631
 20
-2.113266523284832
 30
0.0
 10
30.13750261652733
 20
-2.155953002294244
 30
0.0
 10
30.28182181894163
 20
-2.217016703002013
 30
0.0
 10
30.34591305092129
 20
-2.236189491819095
 30
0.0
 10
30.44238223267194
 20
-2.258395304189564
 30
0.0
 10
30.47587215058232
 20
-2.261811174868197
 30
0.0
 10
30.49650501536548
 20
-2.263130971916318
 30
0.0
 10
30.49949999999978
 20
-2.263131641491513
 30
0.0
 10
30.49949999999973
 20
-2.263131641492127
 30
0.0
  0
LINE
  5
E038
330
DFF6
100
AcDbEntity
  8
0
100
AcDbLine
 10
31.5
 20
-54.16476937947052
 30
0.0
 11
31.49999999999998
 21
-28.42608254450011
 31
0.0
  0
LINE
  5
E039
330
DFF6
100
AcDbEntity
  8
0
100
AcDbLine
 10
-31.49999999999995
 20
-28.42608254450011
 30
0.0
 11
-31.49999999999999
 21
-54.16476937947052
 31
0.0
  0
LINE
  5
E03A
330
DFF6
100
AcDbEntity
  8
0
100
AcDbLine
 10
-29.99999999999998
 20
-28.42608254450011
 30
0.0
 11
-29.99999999999998
 21
-54.16476937947052
 31
0.0
  0
LINE
  5
E03B
330
DFF6
100
AcDbEntity
  8
0
100
AcDbLine
 10
-29.39999999999998
 20
-54.58903344818243
 30
0.0
 11
29.4
 21
-54.58903344818243
 31
0.0
  0
LINE
  5
E03C
330
DFF6
100
AcDbEntity
  8
0
100
AcDbLine
 10
30.0
 20
-54.16476937947052
 30
0.0
 11
30.0
 21
-28.42608254450011
 31
0.0
  0
LINE
  5
E03D
330
DFF6
100
AcDbEntity
  8
0
100
AcDbLine
 10
-29.39999999999998
 20
-55.64969361996226
 30
0.0
 11
29.4
 21
-55.64969361996226
 31
0.0
  0
LINE
  5
E03E
330
DFF6
100
AcDbEntity
  8
0
100
AcDbLine
 10
-31.50000000000105
 20
-2.263131642256626
 30
0.0
 11
-31.49999999999998
 21
-21.35501473263462
 31
0.0
  0
LINE
  5
E03F
330
DFF6
100
AcDbEntity
  8
0
100
AcDbLine
 10
-30.00000000000083
 20
-2.263131642256625
 30
0.0
 11
-29.99999999999998
 21
-21.35501473263463
 31
0.0
  0
CIRCLE
  5
E040
330
DFF6
100
AcDbEntity
  8
0
100
AcDbCircle
 10
19.99999999999999
 20
349.77
 30
0.0
 40
2.5
  0
CIRCLE
  5
E041
330
DFF6
100
AcDbEntity
  8
0
100
AcDbCircle
 10
19.99999999999999
 20
309.7700000000001
 30
0.0
 40
2.5
  0
CIRCLE
  5
E042
330
DFF6
100
AcDbEntity
  8
0
100
AcDbCircle
 10
19.99999999999999
 20
269.7700000000001
 30
0.0
 40
2.5
  0
CIRCLE
  5
E043
330
DFF6
100
AcDbEntity
  8
0
100
AcDbCircle
 10
19.99999999999999
 20
229.77
 30
0.0
 40
2.5
  0
CIRCLE
  5
E044
330
DFF6
100
AcDbEntity
  8
0
100
AcDbCircle
 10
19.99999999999999
 20
189.77
 30
0.0
 40
2.5
  0
CIRCLE
  5
E045
330
DFF6
100
AcDbEntity
  8
0
100
AcDbCircle
 10
19.99999999999999
 20
149.77
 30
0.0
 40
2.5
  0
CIRCLE
  5
E046
330
DFF6
100
AcDbEntity
  8
0
100
AcDbCircle
 10
19.99999999999999
 20
109.77
 30
0.0
 40
2.5
  0
CIRCLE
  5
E047
330
DFF6
100
AcDbEntity
  8
0
100
AcDbCircle
 10
19.99999999999999
 20
69.77000000000005
 30
0.0
 40
2.5
  0
CIRCLE
  5
E048
330
DFF6
100
AcDbEntity
  8
0
100
AcDbCircle
 10
19.99999999999999
 20
29.77000000000005
 30
0.0
 40
2.5
  0
CIRCLE
  5
E049
330
DFF6
100
AcDbEntity
  8
0
100
AcDbCircle
 10
9.999999999999989
 20
329.77
 30
0.0
 40
2.5
  0
CIRCLE
  5
E04A
330
DFF6
100
AcDbEntity
  8
0
100
AcDbCircle
 10
9.999999999999989
 20
289.77
 30
0.0
 40
2.5
  0
CIRCLE
  5
E04B
330
DFF6
100
AcDbEntity
  8
0
100
AcDbCircle
 10
9.999999999999989
 20
249.77
 30
0.0
 40
2.5
  0
CIRCLE
  5
E04C
330
DFF6
100
AcDbEntity
  8
0
100
AcDbCircle
 10
9.999999999999989
 20
209.7700000000001
 30
0.0
 40
2.5
  0
CIRCLE
  5
E04D
330
DFF6
100
AcDbEntity
  8
0
100
AcDbCircle
 10
9.999999999999989
 20
169.77
 30
0.0
 40
2.5
  0
CIRCLE
  5
E04E
330
DFF6
100
AcDbEntity
  8
0
100
AcDbCircle
 10
9.999999999999989
 20
129.77
 30
0.0
 40
2.5
  0
CIRCLE
  5
E04F
330
DFF6
100
AcDbEntity
  8
0
100
AcDbCircle
 10
9.999999999999989
 20
89.77000000000003
 30
0.0
 40
2.5
  0
CIRCLE
  5
E050
330
DFF6
100
AcDbEntity
  8
0
100
AcDbCircle
 10
9.999999999999989
 20
49.77000000000003
 30
0.0
 40
2.5
  0
CIRCLE
  5
E051
330
DFF6
100
AcDbEntity
  8
0
100
AcDbCircle
 10
9.999999999999989
 20
9.770000000000036
 30
0.0
 40
2.5
  0
CIRCLE
  5
E052
330
DFF6
100
AcDbEntity
  8
0
100
AcDbCircle
 10
-10.00000000000001
 20
349.77
 30
0.0
 40
2.5
  0
CIRCLE
  5
E053
330
DFF6
100
AcDbEntity
  8
0
100
AcDbCircle
 10
-10.00000000000001
 20
309.7700000000001
 30
0.0
 40
2.5
  0
CIRCLE
  5
E054
330
DFF6
100
AcDbEntity
  8
0
100
AcDbCircle
 10
-10.00000000000001
 20
269.7700000000001
 30
0.0
 40
2.5
  0
CIRCLE
  5
E055
330
DFF6
100
AcDbEntity
  8
0
100
AcDbCircle
 10
-10.00000000000001
 20
229.77
 30
0.0
 40
2.5
  0
CIRCLE
  5
E056
330
DFF6
100
AcDbEntity
  8
0
100
AcDbCircle
 10
-10.00000000000001
 20
189.77
 30
0.0
 40
2.5
  0
CIRCLE
  5
E057
330
DFF6
100
AcDbEntity
  8
0
100
AcDbCircle
 10
-10.00000000000001
 20
149.77
 30
0.0
 40
2.5
  0
CIRCLE
  5
E058
330
DFF6
100
AcDbEntity
  8
0
100
AcDbCircle
 10
-10.00000000000001
 20
109.77
 30
0.0
 40
2.5
  0
CIRCLE
  5
E059
330
DFF6
100
AcDbEntity
  8
0
100
AcDbCircle
 10
-10.00000000000001
 20
69.77000000000003
 30
0.0
 40
2.5
  0
CIRCLE
  5
E05A
330
DFF6
100
AcDbEntity
  8
0
100
AcDbCircle
 10
-10.00000000000001
 20
29.77000000000004
 30
0.0
 40
2.5
  0
CIRCLE
  5
E05B
330
DFF6
100
AcDbEntity
  8
0
100
AcDbCircle
 10
-20.00000000000001
 20
329.77
 30
0.0
 40
2.5
  0
CIRCLE
  5
E05C
330
DFF6
100
AcDbEntity
  8
0
100
AcDbCircle
 10
-20.00000000000001
 20
289.77
 30
0.0
 40
2.5
  0
CIRCLE
  5
E05D
330
DFF6
100
AcDbEntity
  8
0
100
AcDbCircle
 10
-20.00000000000001
 20
249.77
 30
0.0
 40
2.5
  0
CIRCLE
  5
E05E
330
DFF6
100
AcDbEntity
  8
0
100
AcDbCircle
 10
-20.00000000000001
 20
209.7700000000001
 30
0.0
 40
2.5
  0
CIRCLE
  5
E05F
330
DFF6
100
AcDbEntity
  8
0
100
AcDbCircle
 10
-20.00000000000001
 20
169.77
 30
0.0
 40
2.5
  0
CIRCLE
  5
E060
330
DFF6
100
AcDbEntity
  8
0
100
AcDbCircle
 10
-20.00000000000001
 20
129.77
 30
0.0
 40
2.5
  0
CIRCLE
  5
E061
330
DFF6
100
AcDbEntity
  8
0
100
AcDbCircle
 10
-20.00000000000001
 20
89.77000000000002
 30
0.0
 40
2.5
  0
CIRCLE
  5
E062
330
DFF6
100
AcDbEntity
  8
0
100
AcDbCircle
 10
-20.00000000000001
 20
49.77000000000002
 30
0.0
 40
2.5
  0
CIRCLE
  5
E063
330
DFF6
100
AcDbEntity
  8
0
100
AcDbCircle
 10
-20.00000000000001
 20
9.770000000000019
 30
0.0
 40
2.5
  0
CIRCLE
  5
E064
330
DFF6
100
AcDbEntity
  8
0
100
AcDbCircle
 10
-43.027090561
 20
69.77000000000002
 30
0.0
 40
2.5
  0
CIRCLE
  5
E065
330
DFF6
100
AcDbEntity
  8
0
100
AcDbCircle
 10
37.027090561
 20
69.77000000000002
 30
0.0
 40
2.5
  0
CIRCLE
  5
E066
330
DFF6
100
AcDbEntity
  8
0
100
AcDbCircle
 10
-37.027090561
 20
29.77000000000002
 30
0.0
 40
2.5
  0
CIRCLE
  5
E067
330
DFF6
100
AcDbEntity
  8
0
100
AcDbCircle
 10
43.02709056099999
 20
29.77000000000002
 30
0.0
 40
2.5
  0
ELLIPSE
  5
E068
330
DFF6
100
AcDbEntity
  8
0
100
AcDbEllipse
 10
-2.500000000000004
 20
0.0236058830621423
 30
0.0
 11
-2.5
 21
0.0000000000000004
 31
0.0
210
0.0
220
0.0
230
1.0
 40
0.7071067811865479
 41
0.2563733261913885
 42
1.570796326794896
  0
LINE
  5
E069
330
DFF6
100
AcDbEntity
  8
0
100
AcDbLine
 10
2.499999999999996
 20
-1.744161069904232
 30
0.0
 11
-2.500000000000004
 21
-1.744161069904232
 31
0.0
  0
ELLIPSE
  5
E06A
330
DFF6
100
AcDbEntity
  8
0
100
AcDbEllipse
 10
2.499999999999995
 20
0.0236058830621926
 30
0.0
 11
2.5
 21
-0.0000000000000003
 31
0.0
210
0.0
220
0.0
230
1.0
 40
0.7071067811865479
 41
4.712388980384689
 42
6.026811980988167
  0
SPLINE
  5
E06B
330
DFF6
100
AcDbEntity
  8
0
100
AcDbSpline
210
0.0
220
0.0
230
1.0
 70
     8
 71
     3
 72
     8
 73
     4
 74
     0
 42
0.000000001
 43
0.0000000001
 40
-1.0
 40
-1.0
 40
-1.0
 40
-1.0
 40
0.0
 40
0.0
 40
0.0
 40
0.0
 10
-4.918289920131943
 20
-0.4246540092928796
 30
0.0
 10
-4.991899723307392
 20
-0.3163012038163594
 30
0.0
 10
-5.016094836485422
 20
-0.158131933951479
 30
0.0
 10
-4.989433513812959
 20
-0.0003899405809503
 30
0.0
  0
SPLINE
  5
E06C
330
DFF6
100
AcDbEntity
  8
0
100
AcDbSpline
210
0.0
220
0.0
230
1.0
 70
     8
 71
     3
 72
     8
 73
     4
 74
     0
 42
0.000000001
 43
0.0000000001
 40
-1.0
 40
-1.0
 40
-1.0
 40
-1.0
 40
0.0
 40
0.0
 40
0.0
 40
0.0
 10
4.989433513812954
 20
-0.0003899405809503
 30
0.0
 10
5.016094836485285
 20
-0.1581319339514889
 30
0.0
 10
4.991899723307213
 20
-0.3163012038163565
 30
0.0
 10
4.918289920131913
 20
-0.4246540092928796
 30
0.0
  0
ARC
  5
E06D
330
DFF6
100
AcDbEntity
  8
0
100
AcDbCircle
 10
2.499999999999996
 20
-0.2300000019999987
 30
0.0
 40
2.5
100
AcDbArc
 50
5.269701372195739
 51
90.0
  0
LINE
  5
E06E
330
DFF6
100
AcDbEntity
  8
0
100
AcDbLine
 10
-2.500000000000004
 20
2.269999997999859
 30
0.0
 11
2.499999999999995
 21
2.269999997999859
 31
0.0
  0
ARC
  5
E06F
330
DFF6
100
AcDbEntity
  8
0
100
AcDbCircle
 10
-2.500000000000004
 20
-0.2300000020000698
 30
0.0
 40
2.5
100
AcDbArc
 50
90.0
 51
174.7302986278027
  0
ELLIPSE
  5
E070
330
DFF6
100
AcDbEntity
  8
0
100
AcDbEllipse
 10
-29.39999999999998
 20
-54.16476937947049
 30
0.0
 11
-2.100000000000006
 21
0.0000000000000032
 31
0.0
210
0.0
220
0.0
230
1.0
 40
0.7071067811865475
 41
0.0
 42
1.570796326794897
  0
ELLIPSE
  5
E071
330
DFF6
100
AcDbEntity
  8
0
100
AcDbEllipse
 10
-29.39999999999998
 20
-54.1647693794705
 30
0.0
 11
-0.6000000000000089
 21
0.0000000000000178
 31
0.0
210
0.0
220
0.0
230
1.0
 40
0.7071067811865697
 41
0.0000000000000422
 42
1.570796326794939
  0
LINE
  5
E072
330
DFF6
100
AcDbEntity
  8
0
100
AcDbLine
 10
29.40000000000001
 20
360.67
 30
0.0
 11
30.0
 21
360.67
 31
0.0
  0
LINE
  5
E073
330
DFF6
100
AcDbEntity
  8
0
100
AcDbLine
 10
29.40000000000001
 20
80.27000000000001
 30
0.0
 11
30.0
 21
80.27000000000001
 31
0.0
  0
LINE
  5
E074
330
DFF6
100
AcDbEntity
  8
0
100
AcDbLine
 10
-30.0
 20
360.67
 30
0.0
 11
-29.4
 21
360.67
 31
0.0
  0
LINE
  5
E075
330
DFF6
100
AcDbEntity
  8
0
100
AcDbLine
 10
-30.0
 20
80.27000000000001
 30
0.0
 11
-29.4
 21
80.27000000000001
 31
0.0
  0
ENDBLK
  5
DFF8
330
DFF6
100
AcDbEntity
  8
0
100
AcDbBlockEnd
  0
BLOCK
  5
E077
330
E076
100
AcDbEntity
  8
0
100
AcDbBlockBegin
  2
SPR60_360-Left
 70
     0
 10
0.0
 20
0.0
 30
0.0
  3
SPR60_360-Left
  1

  0
LINE
  5
E079
330
E076
100
AcDbEntity
  8
0
100
AcDbLine
 10
0.0
 20
-0.0003899405809505
 30
0.0
 11
0.0
 21
1.270000000000108
 31
0.0
  0
LINE
  5
E07A
330
E076
100
AcDbEntity
  8
0
100
AcDbLine
 10
62.91118318265855
 20
-2.263131642256626
 30
0.0
 11
4.362741700911172
 21
-2.263131641492137
 31
0.0
  0
SPLINE
  5
E07B
330
E076
100
AcDbEntity
  8
0
100
AcDbSpline
210
0.0
220
0.0
230
1.0
 70
     8
 71
     3
 72
     8
 73
     4
 74
     0
 42
0.000000001
 43
0.0000000001
 40
0.0
 40
0.0
 40
0.0
 40
0.0
 40
1.0
 40
1.0
 40
1.0
 40
1.0
 10
0.6150757595082676
 20
-1.485314181072701
 30
0.0
 10
0.2539843833468129
 20
-1.124222804911246
 30
0.0
 10
0.0000000000000172
 20
-0.5572023868216692
 30
0.0
 10
0.0000000000000174
 20
-0.0003899405809502
 30
0.0
  0
LINE
  5
E07C
330
E076
100
AcDbEntity
  8
0
100
AcDbLine
 10
1.675735931288087
 20
-0.4246540092928772
 30
0.0
 11
2.28813620929855
 21
-1.03705428730334
 31
0.0
  0
LINE
  5
E07D
330
E076
100
AcDbEntity
  8
0
100
AcDbLine
 10
2.288136209298533
 20
-1.037054287303337
 30
0.0
 11
2.717240184541073
 21
-1.466158262545877
 31
0.0
  0
SPLINE
  5
E07E
330
E076
100
AcDbEntity
  8
0
100
AcDbSpline
210
0.0
220
0.0
230
1.0
 70
     8
 71
     3
 72
     8
 73
     4
 74
     0
 42
0.000000001
 43
0.0000000001
 40
-1.0
 40
-1.0
 40
-1.0
 40
-1.0
 40
0.0
 40
0.0
 40
0.0
 40
0.0
 10
1.500000000000017
 20
-0.0003899405809504
 30
0.0
 10
1.500000000000017
 20
-0.1594792109354416
 30
0.0
 10
1.57256696667053
 20
-0.321485044675321
 30
0.0
 10
1.675735931288089
 20
-0.4246540092928796
 30
0.0
  0
SPLINE
  5
E07F
330
E076
100
AcDbEntity
  8
0
100
AcDbSpline
210
0.0
220
0.0
230
1.0
 70
     8
 71
     3
 72
     8
 73
     4
 74
     0
 42
0.000000001
 43
0.0000000001
 40
-1.0
 40
-1.0
 40
-1.0
 40
-1.0
 40
0.0
 40
0.0
 40
0.0
 40
0.0
 10
2.717240184541107
 20
-1.46615826254589
 30
0.0
 10
3.124319333760115
 20
-1.873237411764898
 30
0.0
 10
3.733518404784412
 20
-2.078196639181167
 30
0.0
 10
4.362741700911135
 20
-2.263131641492052
 30
0.0
  0
LINE
  5
E080
330
E076
100
AcDbEntity
  8
0
100
AcDbLine
 10
2.717240184541073
 20
-1.466158262545877
 30
0.0
 11
2.364040347339139
 21
-1.81935809974781
 31
0.0
  0
LINE
  5
E081
330
E076
100
AcDbEntity
  8
0
100
AcDbLine
 10
2.364040347339139
 20
-1.81935809974781
 30
0.0
 11
1.65658001276125
 21
-2.526818434325698
 31
0.0
  0
SPLINE
  5
E082
330
E076
100
AcDbEntity
  8
0
100
AcDbSpline
210
0.0
220
0.0
230
1.0
 70
     8
 71
     3
 72
     8
 73
     4
 74
     0
 42
0.000000001
 43
0.0000000001
 40
0.0
 40
0.0
 40
0.0
 40
0.0
 40
1.0
 40
1.0
 40
1.0
 40
1.0
 10
4.362741700911115
 20
-2.263131641492072
 30
0.0
 10
3.178158037514613
 20
-2.633557006450967
 30
0.0
 10
2.063659161980293
 20
-2.933897583544718
 30
0.0
 10
1.656580012761285
 20
-2.526818434325711
 30
0.0
  0
LINE
  5
E083
330
E076
100
AcDbEntity
  8
0
100
AcDbLine
 10
1.65658001276125
 20
-2.526818434325698
 30
0.0
 11
1.227476037518714
 21
-2.097714459083155
 31
0.0
  0
LINE
  5
E084
330
E076
100
AcDbEntity
  8
0
100
AcDbLine
 10
2.288136209298533
 20
-1.037054287303337
 30
0.0
 11
1.227476037518714
 21
-2.097714459083155
 31
0.0
  0
LINE
  5
E085
330
E076
100
AcDbEntity
  8
0
100
AcDbLine
 10
1.227476037518743
 20
-2.097714459083146
 30
0.0
 11
0.6150757595082805
 21
-1.485314181072683
 31
0.0
  0
LINE
  5
E086
330
E076
100
AcDbEntity
  8
0
100
AcDbLine
 10
1.675735931288089
 20
-0.4246540092928796
 30
0.0
 11
1.322536092806265
 21
-0.7778538477747031
 31
0.0
  0
LINE
  5
E087
330
E076
100
AcDbEntity
  8
0
100
AcDbLine
 10
1.322536092806265
 20
-0.7778538477747031
 30
0.0
 11
0.6150757595082677
 21
-1.485314181072701
 31
0.0
  0
LINE
  5
E088
330
E076
100
AcDbEntity
  8
0
100
AcDbLine
 10
1.500000000000007
 20
-0.0003899405809504
 30
0.0
 11
1.000499995443509
 21
-0.0003899405809504
 31
0.0
  0
LINE
  5
E089
330
E076
100
AcDbEntity
  8
0
100
AcDbLine
 10
1.000499995443509
 20
-0.0003899405809504
 30
0.0
 11
0.0
 21
-0.0003899405809504
 31
0.0
  0
LINE
  5
E08A
330
E076
100
AcDbEntity
  8
0
100
AcDbLine
 10
1.500000000000009
 20
1.270000000000108
 30
0.0
 11
1.500000000000009
 21
-0.0003899405809504
 31
0.0
  0
LINE
  5
E08B
330
E076
100
AcDbEntity
  8
0
100
AcDbLine
 10
0.0
 20
6.269999999999996
 30
0.0
 11
0.0
 21
1.269999999999996
 31
0.0
  0
LINE
  5
E08C
330
E076
100
AcDbEntity
  8
0
100
AcDbLine
 10
0.0
 20
77.27
 30
0.0
 11
0.0
 21
72.27
 31
0.0
  0
LINE
  5
E08D
330
E076
100
AcDbEntity
  8
0
100
AcDbLine
 10
1.500000000000014
 20
1.269999999999996
 30
0.0
 11
1.500000000000015
 21
6.269999999999996
 31
0.0
  0
LINE
  5
E08E
330
E076
100
AcDbEntity
  8
0
100
AcDbLine
 10
1.500000000000015
 20
6.269999999999996
 30
0.0
 11
0.0
 21
6.269999999999996
 31
0.0
  0
LINE
  5
E08F
330
E076
100
AcDbEntity
  8
0
100
AcDbLine
 10
0.0
 20
1.269999999999996
 30
0.0
 11
1.500000000000014
 21
1.269999999999996
 31
0.0
  0
LINE
  5
E090
330
E076
100
AcDbEntity
  8
0
100
AcDbLine
 10
0.0
 20
72.27
 30
0.0
 11
1.500000000000015
 21
72.27
 31
0.0
  0
LINE
  5
E091
330
E076
100
AcDbEntity
  8
0
100
AcDbLine
 10
1.500000000000015
 20
72.27
 30
0.0
 11
1.500000000000014
 21
77.27
 31
0.0
  0
LINE
  5
E092
330
E076
100
AcDbEntity
  8
0
100
AcDbLine
 10
1.500000000000014
 20
77.27
 30
0.0
 11
0.0
 21
77.27
 31
0.0
  0
LINE
  5
E093
330
E076
100
AcDbEntity
  8
0
100
AcDbLine
 10
0.0
 20
6.269999999999996
 30
0.0
 11
0.0
 21
72.27
 31
0.0
  0
LINE
  5
E094
330
E076
100
AcDbEntity
  8
0
100
AcDbLine
 10
0.0
 20
77.27
 30
0.0
 11
0.0
 21
80.26999999999999
 31
0.0
  0
LINE
  5
E095
330
E076
100
AcDbEntity
  8
0
100
AcDbLine
 10
1.500000000000015
 20
6.269999999999996
 30
0.0
 11
1.500000000000015
 21
72.27
 31
0.0
  0
LINE
  5
E096
330
E076
100
AcDbEntity
  8
0
100
AcDbLine
 10
1.500000000000008
 20
77.27
 30
0.0
 11
1.500000000000008
 21
80.26999999999999
 31
0.0
  0
LINE
  5
E097
330
E076
100
AcDbEntity
  8
0
100
AcDbLine
 10
0.0
 20
80.27000000000001
 30
0.0
 11
0.0
 21
360.67
 31
0.0
  0
LINE
  5
E098
330
E076
100
AcDbEntity
  8
0
100
AcDbLine
 10
2.100000000000006
 20
360.67
 30
0.0
 11
0.0
 21
360.67
 31
0.0
  0
LINE
  5
E099
330
E076
100
AcDbEntity
  8
0
100
AcDbLine
 10
0.0
 20
80.27000000000001
 30
0.0
 11
2.100000000000006
 21
80.27000000000001
 31
0.0
  0
LINE
  5
E09A
330
E076
100
AcDbEntity
  8
0
100
AcDbLine
 10
43.50000000000001
 20
85.27000000000001
 30
0.0
 11
38.50000000000001
 21
80.27000000000001
 31
0.0
  0
LINE
  5
E09B
330
E076
100
AcDbEntity
  8
0
100
AcDbLine
 10
38.50000000000001
 20
360.67
 30
0.0
 11
43.50000000000001
 21
355.67
 31
0.0
  0
LINE
  5
E09C
330
E076
100
AcDbEntity
  8
0
100
AcDbLine
 10
82.00306627385996
 20
-21.35501473263462
 30
0.0
 11
82.00306627385996
 21
-28.42608254450011
 31
0.0
  0
CIRCLE
  5
E09D
330
E076
100
AcDbEntity
  8
0
100
AcDbCircle
 10
35.50000000000002
 20
347.7699999999999
 30
0.0
 40
2.5
  0
CIRCLE
  5
E09E
330
E076
100
AcDbEntity
  8
0
100
AcDbCircle
 10
35.50000000000002
 20
327.7699999999999
 30
0.0
 40
2.5
  0
CIRCLE
  5
E09F
330
E076
100
AcDbEntity
  8
0
100
AcDbCircle
 10
35.50000000000002
 20
307.77
 30
0.0
 40
2.5
  0
CIRCLE
  5
E0A0
330
E076
100
AcDbEntity
  8
0
100
AcDbCircle
 10
35.50000000000002
 20
287.77
 30
0.0
 40
2.5
  0
CIRCLE
  5
E0A1
330
E076
100
AcDbEntity
  8
0
100
AcDbCircle
 10
35.50000000000002
 20
267.77
 30
0.0
 40
2.5
  0
CIRCLE
  5
E0A2
330
E076
100
AcDbEntity
  8
0
100
AcDbCircle
 10
35.50000000000002
 20
247.77
 30
0.0
 40
2.5
  0
CIRCLE
  5
E0A3
330
E076
100
AcDbEntity
  8
0
100
AcDbCircle
 10
35.50000000000002
 20
227.77
 30
0.0
 40
2.5
  0
CIRCLE
  5
E0A4
330
E076
100
AcDbEntity
  8
0
100
AcDbCircle
 10
35.50000000000002
 20
207.77
 30
0.0
 40
2.5
  0
CIRCLE
  5
E0A5
330
E076
100
AcDbEntity
  8
0
100
AcDbCircle
 10
35.50000000000002
 20
187.77
 30
0.0
 40
2.5
  0
CIRCLE
  5
E0A6
330
E076
100
AcDbEntity
  8
0
100
AcDbCircle
 10
35.50000000000002
 20
167.7699999999999
 30
0.0
 40
2.5
  0
CIRCLE
  5
E0A7
330
E076
100
AcDbEntity
  8
0
100
AcDbCircle
 10
35.50000000000002
 20
147.77
 30
0.0
 40
2.5
  0
CIRCLE
  5
E0A8
330
E076
100
AcDbEntity
  8
0
100
AcDbCircle
 10
35.50000000000002
 20
127.77
 30
0.0
 40
2.5
  0
CIRCLE
  5
E0A9
330
E076
100
AcDbEntity
  8
0
100
AcDbCircle
 10
35.50000000000002
 20
107.77
 30
0.0
 40
2.5
  0
CIRCLE
  5
E0AA
330
E076
100
AcDbEntity
  8
0
100
AcDbCircle
 10
35.50000000000002
 20
87.76999999999999
 30
0.0
 40
2.5
  0
LINE
  5
E0AB
330
E076
100
AcDbEntity
  8
0
100
AcDbLine
 10
43.50000000000001
 20
355.67
 30
0.0
 11
43.50000000000001
 21
85.27000000000001
 31
0.0
  0
LINE
  5
E0AC
330
E076
100
AcDbEntity
  8
0
100
AcDbLine
 10
2.100000000000006
 20
360.67
 30
0.0
 11
38.50000000000001
 21
360.67
 31
0.0
  0
LINE
  5
E0AD
330
E076
100
AcDbEntity
  8
0
100
AcDbLine
 10
38.50000000000001
 20
80.27000000000001
 30
0.0
 11
2.100000000000008
 21
80.27000000000001
 31
0.0
  0
LINE
  5
E0AE
330
E076
100
AcDbEntity
  8
0
100
AcDbLine
 10
82.00306627385996
 20
-28.42608254450011
 30
0.0
 11
56.26437943888955
 21
-54.16476937947052
 31
0.0
  0
LINE
  5
E0AF
330
E076
100
AcDbEntity
  8
0
100
AcDbLine
 10
62.91118318265855
 20
-2.263131642256626
 30
0.0
 11
82.00306627385996
 21
-21.35501473263462
 31
0.0
  0
CIRCLE
  5
E0B0
330
E076
100
AcDbEntity
  8
0
100
AcDbCircle
 10
74.57844507130477
 20
-25.24410202925711
 30
0.0
 40
2.5
  0
ARC
  5
E0B1
330
E076
100
AcDbEntity
  8
0
100
AcDbCircle
 10
59.31559010709463
 20
-13.990452698916
 30
0.0
 40
0.8000000000000012
100
AcDbArc
 50
315.000000001042
 51
75.00000000104186
  0
LINE
  5
E0B2
330
E076
100
AcDbEntity
  8
0
100
AcDbLine
 10
59.88127553205416
 20
-14.55613812385494
 30
0.0
 11
56.81941335363088
 21
-17.61800030238964
 31
0.0
  0
ARC
  5
E0B3
330
E076
100
AcDbEntity
  8
0
100
AcDbCircle
 10
56.25372792867135
 20
-17.0523148774507
 30
0.0
 40
0.8
100
AcDbArc
 50
195.0000000010428
 51
315.0000000010428
  0
LINE
  5
E0B4
330
E076
100
AcDbEntity
  8
0
100
AcDbLine
 10
55.48098726764387
 20
-17.25937011354677
 30
0.0
 11
54.36026792735771
 21
-13.07678859487811
 31
0.0
  0
ARC
  5
E0B5
330
E076
100
AcDbEntity
  8
0
100
AcDbCircle
 10
55.13300858838519
 20
-12.86973335878203
 30
0.0
 40
0.8000000000000014
100
AcDbArc
 50
75.00000000104188
 51
195.0000000010427
  0
LINE
  5
E0B6
330
E076
100
AcDbEntity
  8
0
100
AcDbLine
 10
55.34006382445316
 20
-12.096992697747
 30
0.0
 11
59.5226453431626
 21
-13.21771203788096
 31
0.0
  0
LINE
  5
E0B7
330
E076
100
AcDbEntity
  8
0
100
AcDbLine
 10
55.28251771018369
 20
-12.08382813389861
 30
0.0
 11
54.3471033635072
 21
-13.01924248060914
 31
0.0
  0
LINE
  5
E0B8
330
E076
100
AcDbEntity
  8
0
100
AcDbLine
 10
54.77945519839778
 20
-55.64969361996226
 30
0.0
 11
1.656580012761255
 21
-2.526818434325699
 31
0.0
  0
LINE
  5
E0B9
330
E076
100
AcDbEntity
  8
0
100
AcDbLine
 10
56.26437943888956
 20
-54.16476937947047
 30
0.0
 11
54.77945519839779
 21
-55.64969361996225
 31
0.0
  0
ENDBLK
  5
E078
330
E076
100
AcDbEntity
  8
0
100
AcDbBlockEnd
  0
BLOCK
  5
E0BB
330
E0BA
100
AcDbEntity
  8
0
100
AcDbBlockBegin
  2
SPR60_360-Right
 70
     0
 10
0.0
 20
0.0
 30
0.0
  3
SPR60_360-Right
  1

  0
LINE
  5
E0BD
330
E0BA
100
AcDbEntity
  8
0
100
AcDbLine
 10
-1.499999999999993
 20
6.269999999999996
 30
0.0
 11
-1.499999999999994
 21
1.269999999999996
 31
0.0
  0
LINE
  5
E0BE
330
E0BA
100
AcDbEntity
  8
0
100
AcDbLine
 10
-1.499999999999994
 20
1.269999999999996
 30
0.0
 11
0.0
 21
1.269999999999987
 31
0.0
  0
LINE
  5
E0BF
330
E0BA
100
AcDbEntity
  8
0
100
AcDbLine
 10
0.0
 20
1.269999999999987
 30
0.0
 11
0.0
 21
6.269999999999996
 31
0.0
  0
LINE
  5
E0C0
330
E0BA
100
AcDbEntity
  8
0
100
AcDbLine
 10
0.0
 20
6.269999999999996
 30
0.0
 11
-1.499999999999993
 21
6.269999999999996
 31
0.0
  0
LINE
  5
E0C1
330
E0BA
100
AcDbEntity
  8
0
100
AcDbLine
 10
-1.499999999999993
 20
72.27000000000001
 30
0.0
 11
0.0
 21
72.27000000000001
 31
0.0
  0
LINE
  5
E0C2
330
E0BA
100
AcDbEntity
  8
0
100
AcDbLine
 10
0.0
 20
72.27000000000001
 30
0.0
 11
0.0
 21
77.27000000000001
 31
0.0
  0
LINE
  5
E0C3
330
E0BA
100
AcDbEntity
  8
0
100
AcDbLine
 10
-1.499999999999994
 20
77.27000000000001
 30
0.0
 11
-1.499999999999993
 21
72.27000000000001
 31
0.0
  0
LINE
  5
E0C4
330
E0BA
100
AcDbEntity
  8
0
100
AcDbLine
 10
0.0
 20
77.27000000000001
 30
0.0
 11
-1.499999999999994
 21
77.27000000000001
 31
0.0
  0
LINE
  5
E0C5
330
E0BA
100
AcDbEntity
  8
0
100
AcDbLine
 10
0.0
 20
72.27000000000001
 30
0.0
 11
0.0
 21
6.269999999999997
 31
0.0
  0
LINE
  5
E0C6
330
E0BA
100
AcDbEntity
  8
0
100
AcDbLine
 10
-1.499999999999993
 20
72.27000000000001
 30
0.0
 11
-1.499999999999993
 21
6.269999999999997
 31
0.0
  0
LINE
  5
E0C7
330
E0BA
100
AcDbEntity
  8
0
100
AcDbLine
 10
0.0
 20
80.27000000000001
 30
0.0
 11
0.0
 21
77.27000000000001
 31
0.0
  0
LINE
  5
E0C8
330
E0BA
100
AcDbEntity
  8
0
100
AcDbLine
 10
-1.5
 20
80.27000000000001
 30
0.0
 11
-1.5
 21
77.27000000000001
 31
0.0
  0
LINE
  5
E0C9
330
E0BA
100
AcDbEntity
  8
0
100
AcDbLine
 10
0.0
 20
1.270000000000108
 30
0.0
 11
0.0
 21
-0.0003899405809504
 31
0.0
  0
LINE
  5
E0CA
330
E0BA
100
AcDbEntity
  8
0
100
AcDbLine
 10
-4.362741700911132
 20
-2.263131641492132
 30
0.0
 11
-62.91118318265853
 21
-2.263131642256623
 31
0.0
  0
LINE
  5
E0CB
330
E0BA
100
AcDbEntity
  8
0
100
AcDbLine
 10
-2.717240184541065
 20
-1.466158262545877
 30
0.0
 11
-2.288136209298523
 21
-1.037054287303334
 31
0.0
  0
LINE
  5
E0CC
330
E0BA
100
AcDbEntity
  8
0
100
AcDbLine
 10
-2.288136209298538
 20
-1.03705428730334
 30
0.0
 11
-1.67573593128808
 21
-0.424654009292882
 31
0.0
  0
SPLINE
  5
E0CD
330
E0BA
100
AcDbEntity
  8
0
100
AcDbSpline
210
0.0
220
0.0
230
1.0
 70
     8
 71
     3
 72
     8
 73
     4
 74
     0
 42
0.000000001
 43
0.0000000001
 40
-1.0
 40
-1.0
 40
-1.0
 40
-1.0
 40
0.0
 40
0.0
 40
0.0
 40
0.0
 10
-1.675735931288078
 20
-0.4246540092928792
 30
0.0
 10
-1.572566966670527
 20
-0.3214850446753284
 30
0.0
 10
-1.500000000000006
 20
-0.1594792109354413
 30
0.0
 10
-1.500000000000006
 20
-0.0003899405809504
 30
0.0
  0
LINE
  5
E0CE
330
E0BA
100
AcDbEntity
  8
0
100
AcDbLine
 10
-2.717240184541065
 20
-1.466158262545877
 30
0.0
 11
-2.364040347338188
 21
-1.819358099748754
 31
0.0
  0
SPLINE
  5
E0CF
330
E0BA
100
AcDbEntity
  8
0
100
AcDbSpline
210
0.0
220
0.0
230
1.0
 70
     8
 71
     3
 72
     8
 73
     4
 74
     0
 42
0.000000001
 43
0.0000000001
 40
-1.0
 40
-1.0
 40
-1.0
 40
-1.0
 40
0.0
 40
0.0
 40
0.0
 40
0.0
 10
-4.36274170091117
 20
-2.263131641492114
 30
0.0
 10
-3.73351840478398
 20
-2.078196639180753
 30
0.0
 10
-3.124319333760538
 20
-1.873237411765344
 30
0.0
 10
-2.717240184541058
 20
-1.466158262545864
 30
0.0
  0
SPLINE
  5
E0D0
330
E0BA
100
AcDbEntity
  8
0
100
AcDbSpline
210
0.0
220
0.0
230
1.0
 70
     8
 71
     3
 72
     8
 73
     4
 74
     0
 42
0.000000001
 43
0.0000000001
 40
0.0
 40
0.0
 40
0.0
 40
0.0
 40
1.0
 40
1.0
 40
1.0
 40
1.0
 10
-1.656580012761237
 20
-2.526818434325685
 30
0.0
 10
-2.063659161980716
 20
-2.933897583545165
 30
0.0
 10
-3.178158037514188
 20
-2.633557006450544
 30
0.0
 10
-4.362741700911146
 20
-2.263131641492138
 30
0.0
  0
LINE
  5
E0D1
330
E0BA
100
AcDbEntity
  8
0
100
AcDbLine
 10
-2.364040347338188
 20
-1.819358099748754
 30
0.0
 11
-1.656580012761243
 21
-2.526818434325699
 31
0.0
  0
LINE
  5
E0D2
330
E0BA
100
AcDbEntity
  8
0
100
AcDbLine
 10
-0.6150757595082729
 20
-1.485314181072687
 30
0.0
 11
-1.227476037518731
 21
-2.097714459083146
 31
0.0
  0
LINE
  5
E0D3
330
E0BA
100
AcDbEntity
  8
0
100
AcDbLine
 10
-0.6150757595082565
 20
-1.4853141810727
 30
0.0
 11
-1.322536092815572
 21
-0.7778538477653841
 31
0.0
  0
LINE
  5
E0D4
330
E0BA
100
AcDbEntity
  8
0
100
AcDbLine
 10
-1.322536092815572
 20
-0.7778538477653841
 30
0.0
 11
-1.675735931288078
 21
-0.4246540092928794
 31
0.0
  0
LINE
  5
E0D5
330
E0BA
100
AcDbEntity
  8
0
100
AcDbLine
 10
-2.288136209298523
 20
-1.037054287303334
 30
0.0
 11
-1.227476037518702
 21
-2.097714459083154
 31
0.0
  0
LINE
  5
E0D6
330
E0BA
100
AcDbEntity
  8
0
100
AcDbLine
 10
-1.227476037518702
 20
-2.097714459083154
 30
0.0
 11
-1.656580012761243
 21
-2.526818434325699
 31
0.0
  0
LINE
  5
E0D7
330
E0BA
100
AcDbEntity
  8
0
100
AcDbLine
 10
-1.499999999999999
 20
-0.0003899405809504
 30
0.0
 11
-1.000499995420014
 21
-0.0003899405809504
 31
0.0
  0
SPLINE
  5
E0D8
330
E0BA
100
AcDbEntity
  8
0
100
AcDbSpline
210
0.0
220
0.0
230
1.0
 70
     8
 71
     3
 72
     8
 73
     4
 74
     0
 42
0.000000001
 43
0.0000000001
 40
0.0
 40
0.0
 40
0.0
 40
0.0
 40
1.0
 40
1.0
 40
1.0
 40
1.0
 10
-0.0000000000000065
 20
-0.0003899405809502
 30
0.0
 10
-0.0000000000000064
 20
-0.5572023868216683
 30
0.0
 10
-0.2539843833468293
 20
-1.124222804911272
 30
0.0
 10
-0.6150757595082556
 20
-1.485314181072699
 30
0.0
  0
LINE
  5
E0D9
330
E0BA
100
AcDbEntity
  8
0
100
AcDbLine
 10
-1.000499995420014
 20
-0.0003899405809504
 30
0.0
 11
0.0
 21
-0.0003899405809504
 31
0.0
  0
LINE
  5
E0DA
330
E0BA
100
AcDbEntity
  8
0
100
AcDbLine
 10
-1.499999999999998
 20
-0.0003899405809505
 30
0.0
 11
-1.499999999999997
 21
1.270000000000108
 31
0.0
  0
LINE
  5
E0DB
330
E0BA
100
AcDbEntity
  8
0
100
AcDbLine
 10
0.0
 20
80.27000000000001
 30
0.0
 11
0.0
 21
360.67
 31
0.0
  0
LINE
  5
E0DC
330
E0BA
100
AcDbEntity
  8
0
100
AcDbLine
 10
0.0
 20
360.67
 30
0.0
 11
-2.099999999999992
 21
360.67
 31
0.0
  0
LINE
  5
E0DD
330
E0BA
100
AcDbEntity
  8
0
100
AcDbLine
 10
-2.100000000000001
 20
80.27000000000001
 30
0.0
 11
0.0
 21
80.27000000000001
 31
0.0
  0
LINE
  5
E0DE
330
E0BA
100
AcDbEntity
  8
0
100
AcDbLine
 10
-38.50000000000001
 20
80.27000000000001
 30
0.0
 11
-43.5
 21
85.27000000000001
 31
0.0
  0
LINE
  5
E0DF
330
E0BA
100
AcDbEntity
  8
0
100
AcDbLine
 10
-43.5
 20
355.67
 30
0.0
 11
-38.50000000000001
 21
360.67
 31
0.0
  0
LINE
  5
E0E0
330
E0BA
100
AcDbEntity
  8
0
100
AcDbLine
 10
-82.00306627385996
 20
-28.42608254450011
 30
0.0
 11
-82.00306627385996
 21
-21.3550147326346
 31
0.0
  0
LINE
  5
E0E1
330
E0BA
100
AcDbEntity
  8
0
100
AcDbLine
 10
-43.5
 20
85.27000000000001
 30
0.0
 11
-43.5
 21
355.67
 31
0.0
  0
LINE
  5
E0E2
330
E0BA
100
AcDbEntity
  8
0
100
AcDbLine
 10
-2.100000000000001
 20
80.27000000000001
 30
0.0
 11
-38.50000000000001
 21
80.27000000000001
 31
0.0
  0
LINE
  5
E0E3
330
E0BA
100
AcDbEntity
  8
0
100
AcDbLine
 10
-38.50000000000001
 20
360.67
 30
0.0
 11
-2.09999999999999
 21
360.67
 31
0.0
  0
CIRCLE
  5
E0E4
330
E0BA
100
AcDbEntity
  8
0
100
AcDbCircle
 10
-35.5
 20
352.7699999999999
 30
0.0
 40
2.5
  0
CIRCLE
  5
E0E5
330
E0BA
100
AcDbEntity
  8
0
100
AcDbCircle
 10
-35.5
 20
332.7699999999999
 30
0.0
 40
2.5
  0
CIRCLE
  5
E0E6
330
E0BA
100
AcDbEntity
  8
0
100
AcDbCircle
 10
-35.5
 20
312.77
 30
0.0
 40
2.5
  0
CIRCLE
  5
E0E7
330
E0BA
100
AcDbEntity
  8
0
100
AcDbCircle
 10
-35.5
 20
292.77
 30
0.0
 40
2.5
  0
CIRCLE
  5
E0E8
330
E0BA
100
AcDbEntity
  8
0
100
AcDbCircle
 10
-35.5
 20
272.77
 30
0.0
 40
2.5
  0
CIRCLE
  5
E0E9
330
E0BA
100
AcDbEntity
  8
0
100
AcDbCircle
 10
-35.5
 20
252.77
 30
0.0
 40
2.5
  0
CIRCLE
  5
E0EA
330
E0BA
100
AcDbEntity
  8
0
100
AcDbCircle
 10
-35.5
 20
232.77
 30
0.0
 40
2.5
  0
CIRCLE
  5
E0EB
330
E0BA
100
AcDbEntity
  8
0
100
AcDbCircle
 10
-35.5
 20
212.77
 30
0.0
 40
2.5
  0
CIRCLE
  5
E0EC
330
E0BA
100
AcDbEntity
  8
0
100
AcDbCircle
 10
-35.5
 20
192.77
 30
0.0
 40
2.5
  0
CIRCLE
  5
E0ED
330
E0BA
100
AcDbEntity
  8
0
100
AcDbCircle
 10
-35.5
 20
172.77
 30
0.0
 40
2.5
  0
CIRCLE
  5
E0EE
330
E0BA
100
AcDbEntity
  8
0
100
AcDbCircle
 10
-35.5
 20
152.77
 30
0.0
 40
2.5
  0
CIRCLE
  5
E0EF
330
E0BA
100
AcDbEntity
  8
0
100
AcDbCircle
 10
-35.5
 20
132.77
 30
0.0
 40
2.5
  0
CIRCLE
  5
E0F0
330
E0BA
100
AcDbEntity
  8
0
100
AcDbCircle
 10
-35.5
 20
112.77
 30
0.0
 40
2.5
  0
CIRCLE
  5
E0F1
330
E0BA
100
AcDbEntity
  8
0
100
AcDbCircle
 10
-35.5
 20
92.76999999999999
 30
0.0
 40
2.5
  0
LINE
  5
E0F2
330
E0BA
100
AcDbEntity
  8
0
100
AcDbLine
 10
-62.91118318265852
 20
-2.263131642256623
 30
0.0
 11
-82.00306627385996
 21
-21.3550147326346
 31
0.0
  0
LINE
  5
E0F3
330
E0BA
100
AcDbEntity
  8
0
100
AcDbLine
 10
-1.656580012761243
 20
-2.526818434325699
 30
0.0
 11
-54.77945519839777
 21
-55.64969361996226
 31
0.0
  0
LINE
  5
E0F4
330
E0BA
100
AcDbEntity
  8
0
100
AcDbLine
 10
-54.77945519839773
 20
-55.64969361996228
 30
0.0
 11
-56.26437943888942
 21
-54.16476937947044
 31
0.0
  0
LINE
  5
E0F5
330
E0BA
100
AcDbEntity
  8
0
100
AcDbLine
 10
-56.26437943888952
 20
-54.16476937947052
 30
0.0
 11
-82.00306627385996
 21
-28.42608254450011
 31
0.0
  0
CIRCLE
  5
E0F6
330
E0BA
100
AcDbEntity
  8
0
100
AcDbCircle
 10
-71.04291116530767
 20
-21.70856812338872
 30
0.0
 40
2.5
  0
ARC
  5
E0F7
330
E0BA
100
AcDbEntity
  8
0
100
AcDbCircle
 10
-51.59747468238809
 20
-9.33419945291363
 30
0.0
 40
0.8000000000000015
100
AcDbArc
 50
344.9999999989572
 51
355.4526675359234
  0
LINE
  5
E0F8
330
E0BA
100
AcDbEntity
  8
0
100
AcDbLine
 10
-50.82473402136063
 20
-9.541254689009706
 30
0.0
 11
-51.94545336164679
 21
-13.72383620767836
 31
0.0
  0
ARC
  5
E0F9
330
E0BA
100
AcDbEntity
  8
0
100
AcDbCircle
 10
-52.71819402267426
 20
-13.51678097158229
 30
0.0
 40
0.8
100
AcDbArc
 50
224.9999999989572
 51
344.9999999989576
  0
LINE
  5
E0FA
330
E0BA
100
AcDbEntity
  8
0
100
AcDbLine
 10
-53.28387944763379
 20
-14.08246639652124
 30
0.0
 11
-56.34574162605708
 21
-11.02060421798654
 31
0.0
  0
ARC
  5
E0FB
330
E0BA
100
AcDbEntity
  8
0
100
AcDbCircle
 10
-55.78005620109753
 20
-10.45491879304759
 30
0.0
 40
0.8000000000000014
100
AcDbArc
 50
104.9999999989575
 51
224.9999999989572
  0
LINE
  5
E0FC
330
E0BA
100
AcDbEntity
  8
0
100
AcDbLine
 10
-55.9871114371655
 20
-9.682178132012559
 30
0.0
 11
-51.80452991845606
 21
-8.561458791878598
 31
0.0
  0
ARC
  5
E0FD
330
E0BA
100
AcDbEntity
  8
0
100
AcDbCircle
 10
-51.59747468238809
 20
-9.33419945291363
 30
0.0
 40
0.8000000000000014
100
AcDbArc
 50
49.59733246198601
 51
104.9999999989581
  0
LINE
  5
E0FE
330
E0BA
100
AcDbEntity
  8
0
100
AcDbLine
 10
-51.07895039795263
 20
-8.724992947325674
 30
0.0
 11
-50.79999294004348
 21
-9.397625556585486
 31
0.0
  0
ARC
  5
E0FF
330
E0BA
100
AcDbEntity
  8
0
100
AcDbCircle
 10
-55.13300858838519
 20
-12.86973335878203
 30
0.0
 40
0.8000000000000015
100
AcDbArc
 50
349.2288663267692
 51
100.7711336711455
  0
ENDBLK
  5
E0BC
330
E0BA
100
AcDbEntity
  8
0
100
AcDbBlockEnd
  0
BLOCK
  5
E101
330
E100
100
AcDbEntity
  8
0
100
AcDbBlockBegin
  2
SPR60_360-Top
 70
     0
 10
0.0
 20
0.0
 30
0.0
  3
SPR60_360-Top
  1

  0
LINE
  5
E103
330
E100
100
AcDbEntity
  8
0
100
AcDbLine
 10
72.52709056099999
 20
-1.499999999999993
 30
0.0
 11
72.52709056099999
 21
0.0
 31
0.0
  0
LINE
  5
E104
330
E100
100
AcDbEntity
  8
0
100
AcDbLine
 10
-67.52709056100001
 20
0.0
 30
0.0
 11
-72.52709056100001
 21
0.0
 31
0.0
  0
LINE
  5
E105
330
E100
100
AcDbEntity
  8
0
100
AcDbLine
 10
72.52709056099999
 20
0.0
 30
0.0
 11
67.52709056099999
 21
0.0
 31
0.0
  0
LINE
  5
E106
330
E100
100
AcDbEntity
  8
0
100
AcDbLine
 10
-72.52709056100001
 20
0.0
 30
0.0
 11
-72.52709056100001
 21
-1.500000000000015
 31
0.0
  0
LINE
  5
E107
330
E100
100
AcDbEntity
  8
0
100
AcDbLine
 10
-72.52709056100001
 20
-1.500000000000015
 30
0.0
 11
-67.52709056100001
 21
-1.500000000000015
 31
0.0
  0
LINE
  5
E108
330
E100
100
AcDbEntity
  8
0
100
AcDbLine
 10
-67.52709056100001
 20
-1.500000000000015
 30
0.0
 11
-67.52709056100001
 21
0.0
 31
0.0
  0
LINE
  5
E109
330
E100
100
AcDbEntity
  8
0
100
AcDbLine
 10
67.52709056099999
 20
-1.499999999999994
 30
0.0
 11
72.52709056099999
 21
-1.499999999999993
 31
0.0
  0
LINE
  5
E10A
330
E100
100
AcDbEntity
  8
0
100
AcDbLine
 10
67.52709056099999
 20
0.0
 30
0.0
 11
67.52709056099999
 21
-1.499999999999994
 31
0.0
  0
LINE
  5
E10B
330
E100
100
AcDbEntity
  8
0
100
AcDbLine
 10
-67.52709056100001
 20
0.0
 30
0.0
 11
-29.4
 21
0.0
 31
0.0
  0
LINE
  5
E10C
330
E100
100
AcDbEntity
  8
0
100
AcDbLine
 10
29.40000000000001
 20
0.0
 30
0.0
 11
67.52709056099999
 21
0.0
 31
0.0
  0
LINE
  5
E10D
330
E100
100
AcDbEntity
  8
0
100
AcDbLine
 10
31.41246117974981
 20
-1.499999999999999
 30
0.0
 11
67.52709056099999
 21
-1.499999999999994
 31
0.0
  0
LINE
  5
E10E
330
E100
100
AcDbEntity
  8
0
100
AcDbLine
 10
-67.52709056100001
 20
-1.500000000000015
 30
0.0
 11
-31.41246117974981
 21
-1.500000000000009
 31
0.0
  0
LINE
  5
E10F
330
E100
100
AcDbEntity
  8
0
100
AcDbLine
 10
29.40000000000001
 20
0.0
 30
0.0
 11
-29.4
 21
0.0
 31
0.0
  0
LINE
  5
E110
330
E100
100
AcDbEntity
  8
0
100
AcDbLine
 10
31.49999999999995
 20
-38.50000000000001
 30
0.0
 11
31.50000000000001
 21
-2.09999999999999
 31
0.0
  0
LINE
  5
E111
330
E100
100
AcDbEntity
  8
0
100
AcDbLine
 10
-31.5
 20
-2.100000000000006
 30
0.0
 11
-31.5
 21
-38.50000000000001
 31
0.0
  0
LINE
  5
E112
330
E100
100
AcDbEntity
  8
0
100
AcDbLine
 10
30.00000000000001
 20
-2.099999999999992
 30
0.0
 11
29.99999999999995
 21
-38.50000000000001
 31
0.0
  0
LINE
  5
E113
330
E100
100
AcDbEntity
  8
0
100
AcDbLine
 10
-29.4
 20
-1.500000000000005
 30
0.0
 11
29.40000000000001
 21
-1.499999999999992
 31
0.0
  0
LINE
  5
E114
330
E100
100
AcDbEntity
  8
0
100
AcDbLine
 10
-30.0
 20
-38.50000000000001
 30
0.0
 11
-30.0
 21
-2.100000000000004
 31
0.0
  0
LINE
  5
E115
330
E100
100
AcDbEntity
  8
0
100
AcDbLine
 10
29.99999999999994
 20
-43.5
 30
0.0
 11
31.49999999999994
 21
-43.5
 31
0.0
  0
LINE
  5
E116
330
E100
100
AcDbEntity
  8
0
100
AcDbLine
 10
31.49999999999994
 20
-43.5
 30
0.0
 11
31.49999999999995
 21
-38.50000000000001
 31
0.0
  0
LINE
  5
E117
330
E100
100
AcDbEntity
  8
0
100
AcDbLine
 10
-31.5
 20
-38.50000000000001
 30
0.0
 11
-31.5
 21
-43.50000000000001
 31
0.0
  0
LINE
  5
E118
330
E100
100
AcDbEntity
  8
0
100
AcDbLine
 10
-31.5
 20
-43.50000000000001
 30
0.0
 11
-30.0
 21
-43.50000000000001
 31
0.0
  0
LINE
  5
E119
330
E100
100
AcDbEntity
  8
0
100
AcDbLine
 10
31.49999999999995
 20
-38.50000000000001
 30
0.0
 11
29.99999999999995
 21
-38.50000000000001
 31
0.0
  0
LINE
  5
E11A
330
E100
100
AcDbEntity
  8
0
100
AcDbLine
 10
29.99999999999995
 20
-38.50000000000001
 30
0.0
 11
29.99999999999994
 21
-43.5
 31
0.0
  0
LINE
  5
E11B
330
E100
100
AcDbEntity
  8
0
100
AcDbLine
 10
-30.0
 20
-43.50000000000001
 30
0.0
 11
-30.0
 21
-38.50000000000001
 31
0.0
  0
LINE
  5
E11C
330
E100
100
AcDbEntity
  8
0
100
AcDbLine
 10
-30.0
 20
-38.50000000000001
 30
0.0
 11
-31.5
 21
-38.50000000000001
 31
0.0
  0
LINE
  5
E11D
330
E100
100
AcDbEntity
  8
0
100
AcDbLine
 10
31.5
 20
-82.00306627385996
 30
0.0
 11
30.0
 21
-82.00306627385996
 31
0.0
  0
LINE
  5
E11E
330
E100
100
AcDbEntity
  8
0
100
AcDbLine
 10
-29.99999999999998
 20
-82.00306627385996
 30
0.0
 11
-31.49999999999998
 21
-82.00306627385996
 31
0.0
  0
LINE
  5
E11F
330
E100
100
AcDbEntity
  8
0
100
AcDbLine
 10
31.50000000000131
 20
-62.91118318265852
 30
0.0
 11
31.5
 21
-82.00306627385996
 31
0.0
  0
LINE
  5
E120
330
E100
100
AcDbEntity
  8
0
100
AcDbLine
 10
30.00000000000105
 20
-62.91118318265852
 30
0.0
 11
30.0
 21
-82.00306627385996
 31
0.0
  0
ELLIPSE
  5
E121
330
E100
100
AcDbEntity
  8
0
100
AcDbEllipse
 10
29.4
 20
-56.26437943888952
 30
0.0
 11
0.6000000000000087
 21
0.0000000000000158
 31
0.0
210
0.0
220
0.0
230
1.0
 40
0.7071067811864291
 41
0.0
 42
1.570796326794826
  0
LINE
  5
E122
330
E100
100
AcDbEntity
  8
0
100
AcDbLine
 10
31.50000000000131
 20
-62.91118318265852
 30
0.0
 11
30.00000000000105
 21
-62.91118318265852
 31
0.0
  0
LINE
  5
E123
330
E100
100
AcDbEntity
  8
0
100
AcDbLine
 10
31.50000000000001
 20
-43.5
 30
0.0
 11
31.50000000000131
 21
-62.91118318265852
 31
0.0
  0
LINE
  5
E124
330
E100
100
AcDbEntity
  8
0
100
AcDbLine
 10
-31.50000000000105
 20
-62.91118318265855
 30
0.0
 11
-31.50000000000107
 21
-43.50000000000001
 31
0.0
  0
ELLIPSE
  5
E125
330
E100
100
AcDbEntity
  8
0
100
AcDbEllipse
 10
-26.5
 20
-1.227476037518729
 30
0.0
 11
-1.5
 21
0.0000000000001091
 31
0.0
210
0.0
220
0.0
230
1.0
 40
0.7071067811865475
 41
1.570796326795022
 42
2.705254581962059
  0
LINE
  5
E126
330
E100
100
AcDbEntity
  8
0
100
AcDbLine
 10
-26.5
 20
-2.288136209298532
 30
0.0
 11
-28.79315533855964
 21
-2.288136209298533
 31
0.0
  0
LINE
  5
E127
330
E100
100
AcDbEntity
  8
0
100
AcDbLine
 10
-28.79315533855964
 20
-2.288136209298533
 30
0.0
 11
-29.40000000000001
 21
-2.717240184541073
 31
0.0
  0
LINE
  5
E128
330
E100
100
AcDbEntity
  8
0
100
AcDbLine
 10
29.39999999999999
 20
-2.717240184541065
 30
0.0
 11
28.79315533855963
 21
-2.288136209298523
 31
0.0
  0
LINE
  5
E129
330
E100
100
AcDbEntity
  8
0
100
AcDbLine
 10
28.79315533855963
 20
-2.288136209298523
 30
0.0
 11
26.5
 21
-2.288136209298524
 31
0.0
  0
ELLIPSE
  5
E12A
330
E100
100
AcDbEntity
  8
0
100
AcDbEllipse
 10
26.5
 20
-1.227476037518717
 30
0.0
 11
-1.5
 21
-0.0000000000000003
 31
0.0
210
0.0
220
0.0
230
1.0
 40
0.7071067811865474
 41
0.4363380716279935
 42
1.570796326794896
  0
SPLINE
  5
E12B
330
E100
100
AcDbEntity
  8
0
100
AcDbSpline
210
0.0
220
0.0
230
1.0
 70
     8
 71
     3
 72
     8
 73
     4
 74
     0
 42
0.000000001
 43
0.0000000001
 40
-1.0
 40
-1.0
 40
-1.0
 40
-1.0
 40
0.0
 40
0.0
 40
0.0
 40
0.0
 10
-25.01767776087194
 20
-1.500000000000017
 30
0.0
 10
-24.97251992074021
 20
-1.500000000000017
 30
0.0
 10
-25.0158647439017
 20
-1.57256696667053
 30
0.0
 10
-25.14054197002052
 20
-1.675735931288089
 30
0.0
  0
SPLINE
  5
E12C
330
E100
100
AcDbEntity
  8
0
100
AcDbSpline
210
0.0
220
0.0
230
1.0
 70
     8
 71
     3
 72
     8
 73
     4
 74
     0
 42
0.000000001
 43
0.0000000001
 40
-1.0
 40
-1.0
 40
-1.0
 40
-1.0
 40
0.0
 40
0.0
 40
0.0
 40
0.0
 10
25.14054197002047
 20
-1.675735931288078
 30
0.0
 10
25.01586474390317
 20
-1.572566966670527
 30
0.0
 10
24.97251992073922
 20
-1.500000000000006
 30
0.0
 10
25.01767776087191
 20
-1.500000000000006
 30
0.0
  0
LINE
  5
E12D
330
E100
100
AcDbEntity
  8
0
100
AcDbLine
 10
-30.00000000000083
 20
-62.91118318265855
 30
0.0
 11
-31.50000000000105
 21
-62.91118318265855
 31
0.0
  0
LINE
  5
E12E
330
E100
100
AcDbEntity
  8
0
100
AcDbLine
 10
-30.0
 20
-43.50000000000001
 30
0.0
 11
-30.00000000000083
 21
-62.91118318265855
 31
0.0
  0
SPLINE
  5
E12F
330
E100
100
AcDbEntity
  8
0
100
AcDbSpline
210
0.0
220
0.0
230
1.0
 70
     8
 71
     3
 72
     8
 73
     4
 74
     0
 42
0.000000001
 43
0.0000000001
 40
-1.0
 40
-1.0
 40
-1.0
 40
-1.0
 40
0.0
 40
0.0
 40
0.0
 40
0.0
 10
-29.40000000000001
 20
-2.717240184541107
 30
0.0
 10
-29.71415926535899
 20
-3.124319333760115
 30
0.0
 10
-30.00000000000002
 20
-3.733518404784412
 30
0.0
 10
-30.00000000000002
 20
-4.362741700911135
 30
0.0
  0
LINE
  5
E130
330
E100
100
AcDbEntity
  8
0
100
AcDbLine
 10
-29.40000000000001
 20
-2.717240184541073
 30
0.0
 11
-29.40000000000001
 21
-2.36404034733914
 31
0.0
  0
LINE
  5
E131
330
E100
100
AcDbEntity
  8
0
100
AcDbLine
 10
-29.40000000000001
 20
-2.36404034733914
 30
0.0
 11
-29.40000000000001
 21
-1.656580012761251
 31
0.0
  0
SPLINE
  5
E132
330
E100
100
AcDbEntity
  8
0
100
AcDbSpline
210
0.0
220
0.0
230
1.0
 70
     8
 71
     3
 72
     8
 73
     4
 74
     0
 42
0.000000001
 43
0.0000000001
 40
0.823392608386182
 40
0.823392608386182
 40
0.823392608386182
 40
0.823392608386182
 40
1.0
 40
1.0
 40
1.0
 40
1.0
 10
-29.96833079343945
 20
-1.934942494001788
 30
0.0
 10
-29.78528852951261
 20
-1.822430928280874
 30
0.0
 10
-29.59418996942228
 20
-1.728473199485227
 30
0.0
 10
-29.40000000000001
 20
-1.656580012761285
 30
0.0
  0
LINE
  5
E133
330
E100
100
AcDbEntity
  8
0
100
AcDbLine
 10
-29.40000000000001
 20
-1.656580012761251
 30
0.0
 11
-29.17856242236227
 21
-1.499999999999998
 31
0.0
  0
LINE
  5
E134
330
E100
100
AcDbEntity
  8
0
100
AcDbLine
 10
-28.79315533855964
 20
-2.288136209298533
 30
0.0
 11
-28.79315533855964
 21
-1.500000000000009
 31
0.0
  0
LINE
  5
E135
330
E100
100
AcDbEntity
  8
0
100
AcDbLine
 10
-25.14054197002049
 20
-1.675735931288089
 30
0.0
 11
-25.14054197002049
 21
-1.500000000000008
 31
0.0
  0
LINE
  5
E136
330
E100
100
AcDbEntity
  8
0
100
AcDbLine
 10
30.00000000000105
 20
-62.91118318265852
 30
0.0
 11
30.00000000000105
 21
-43.5
 31
0.0
  0
LINE
  5
E137
330
E100
100
AcDbEntity
  8
0
100
AcDbLine
 10
29.39999999999999
 20
-2.717240184541065
 30
0.0
 11
29.39999999999999
 21
-2.364040347338188
 31
0.0
  0
SPLINE
  5
E138
330
E100
100
AcDbEntity
  8
0
100
AcDbSpline
210
0.0
220
0.0
230
1.0
 70
     8
 71
     3
 72
     8
 73
     4
 74
     0
 42
0.000000001
 43
0.0000000001
 40
-1.0
 40
-1.0
 40
-1.0
 40
-1.0
 40
0.0
 40
0.0
 40
0.0
 40
0.0
 10
30.00000000000002
 20
-4.36274170091117
 30
0.0
 10
30.0
 20
-3.73351840478398
 30
0.0
 10
29.71415926535897
 20
-3.124319333760538
 30
0.0
 10
29.39999999999999
 20
-2.717240184541058
 30
0.0
  0
SPLINE
  5
E139
330
E100
100
AcDbEntity
  8
0
100
AcDbSpline
210
0.0
220
0.0
230
1.0
 70
     8
 71
     3
 72
     8
 73
     4
 74
     0
 42
0.000000001
 43
0.0000000001
 40
0.0
 40
0.0
 40
0.0
 40
0.0
 40
0.1766073916138222
 40
0.1766073916138222
 40
0.1766073916138222
 40
0.1766073916138222
 10
29.39999999999999
 20
-1.656580012761236
 30
0.0
 10
29.59418996942226
 20
-1.728473199485263
 30
0.0
 10
29.78528852951259
 20
-1.822430928280955
 30
0.0
 10
29.96833079343943
 20
-1.934942494001887
 30
0.0
  0
LINE
  5
E13A
330
E100
100
AcDbEntity
  8
0
100
AcDbLine
 10
29.39999999999999
 20
-2.364040347338188
 30
0.0
 11
29.39999999999999
 21
-1.656580012761243
 31
0.0
  0
LINE
  5
E13B
330
E100
100
AcDbEntity
  8
0
100
AcDbLine
 10
25.14054197002047
 20
-1.5
 30
0.0
 11
25.1405419700205
 21
-1.675735931288078
 31
0.0
  0
LINE
  5
E13C
330
E100
100
AcDbEntity
  8
0
100
AcDbLine
 10
28.79315533855963
 20
-2.288136209298523
 30
0.0
 11
28.79315533855963
 21
-1.5
 31
0.0
  0
LINE
  5
E13D
330
E100
100
AcDbEntity
  8
0
100
AcDbLine
 10
29.17856242236227
 20
-1.499999999999997
 30
0.0
 11
29.39999999999999
 21
-1.656580012761243
 31
0.0
  0
LINE
  5
E13E
330
E100
100
AcDbEntity
  8
0
100
AcDbLine
 10
-31.50000000000105
 20
-62.91118318265855
 30
0.0
 11
-31.49999999999998
 21
-82.00306627385996
 31
0.0
  0
LINE
  5
E13F
330
E100
100
AcDbEntity
  8
0
100
AcDbLine
 10
-30.00000000000083
 20
-62.91118318265855
 30
0.0
 11
-29.99999999999998
 21
-82.00306627385996
 31
0.0
  0
ELLIPSE
  5
E140
330
E100
100
AcDbEntity
  8
0
100
AcDbEllipse
 10
-2.500000000000004
 20
-0.1668158671532574
 30
0.0
 11
2.5
 21
0.0000000000001829
 31
0.0
210
0.0
220
0.0
230
1.0
 40
0.7071067811865474
 41
3.995971004506671
 42
4.712388980384622
  0
LINE
  5
E141
330
E100
100
AcDbEntity
  8
0
100
AcDbLine
 10
-4.918289920131943
 20
-1.5
 30
0.0
 11
-4.918289920131942
 21
-1.675735931288084
 31
0.0
  0
ELLIPSE
  5
E142
330
E100
100
AcDbEntity
  8
0
100
AcDbEllipse
 10
-2.500000000000004
 20
-1.227476038933063
 30
0.0
 11
-2.5
 21
-0.0000000000000002
 31
0.0
210
0.0
220
0.0
230
1.0
 40
0.7071067811865474
 41
0.2563733261913885
 42
1.570796326794896
  0
LINE
  5
E143
330
E100
100
AcDbEntity
  8
0
100
AcDbLine
 10
-2.500000000000003
 20
-1.934582820119603
 30
0.0
 11
2.499999999999996
 21
-1.934582820119602
 31
0.0
  0
LINE
  5
E144
330
E100
100
AcDbEntity
  8
0
100
AcDbLine
 10
2.499999999999996
 20
-2.995242991899424
 30
0.0
 11
-2.500000000000004
 21
-2.995242991899425
 31
0.0
  0
ELLIPSE
  5
E145
330
E100
100
AcDbEntity
  8
0
100
AcDbEllipse
 10
2.499999999999995
 20
-0.1668158671532063
 30
0.0
 11
2.5
 21
0.0000000000000006
 31
0.0
210
0.0
220
0.0
230
1.0
 40
0.7071067811865474
 41
4.712388980384689
 42
5.428806956262532
  0
ELLIPSE
  5
E146
330
E100
100
AcDbEntity
  8
0
100
AcDbEllipse
 10
2.499999999999995
 20
-1.227476038933011
 30
0.0
 11
2.5
 21
0.000000000000001
 31
0.0
210
0.0
220
0.0
230
1.0
 40
0.7071067811865472
 41
4.712388980384689
 42
6.026811980988167
  0
LINE
  5
E147
330
E100
100
AcDbEntity
  8
0
100
AcDbLine
 10
4.918289920131911
 20
-1.675735931288082
 30
0.0
 11
4.918289920131911
 21
-1.499999999999998
 31
0.0
  0
SPLINE
  5
E148
330
E100
100
AcDbEntity
  8
0
100
AcDbSpline
210
0.0
220
0.0
230
1.0
 70
     8
 71
     3
 72
     8
 73
     4
 74
     0
 42
0.000000001
 43
0.0000000001
 40
-1.0
 40
-1.0
 40
-1.0
 40
-1.0
 40
0.0
 40
0.0
 40
0.0
 40
0.0
 10
-4.918289920131943
 20
-1.675735931288084
 30
0.0
 10
-4.991899723307392
 20
-1.567383125811564
 30
0.0
 10
-5.016094836485422
 20
-1.500000000000013
 30
0.0
 10
-4.989433513812959
 20
-1.500000000000013
 30
0.0
  0
SPLINE
  5
E149
330
E100
100
AcDbEntity
  8
0
100
AcDbSpline
210
0.0
220
0.0
230
1.0
 70
     8
 71
     3
 72
     8
 73
     4
 74
     0
 42
0.000000001
 43
0.0000000001
 40
-1.0
 40
-1.0
 40
-1.0
 40
-1.0
 40
0.0
 40
0.0
 40
0.0
 40
0.0
 10
4.989433513812954
 20
-1.500000000000011
 30
0.0
 10
5.016094836485285
 20
-1.500000000000011
 30
0.0
 10
4.991899723307213
 20
-1.567383125811559
 30
0.0
 10
4.918289920131913
 20
-1.675735931288082
 30
0.0
  0
LINE
  5
E14A
330
E100
100
AcDbEntity
  8
0
100
AcDbLine
 10
-29.39999999999998
 20
-55.8401153701776
 30
0.0
 11
29.4
 21
-55.84011537017758
 31
0.0
  0
ELLIPSE
  5
E14B
330
E100
100
AcDbEntity
  8
0
100
AcDbEllipse
 10
-29.39999999999998
 20
-56.26437943888955
 30
0.0
 11
-0.6000000000000089
 21
-0.000000000000009
 31
0.0
210
0.0
220
0.0
230
1.0
 40
0.7071067811865252
 41
4.712388980384634
 42
6.283185307179501
  0
ARC
  5
E14C
330
E100
100
AcDbEntity
  8
0
100
AcDbCircle
 10
29.4
 20
-2.099999999999997
 30
0.0
 40
0.600000000000005
100
AcDbArc
 50
0.0
 51
89.99999999999916
  0
ARC
  5
E14D
330
E100
100
AcDbEntity
  8
0
100
AcDbCircle
 10
29.4
 20
-2.099999999999997
 30
0.0
 40
2.100000000000004
100
AcDbArc
 50
0.0
 51
89.99999999999976
  0
ARC
  5
E14E
330
E100
100
AcDbEntity
  8
0
100
AcDbCircle
 10
-29.40000000000001
 20
-2.100000000000006
 30
0.0
 40
0.6000000000000006
100
AcDbArc
 50
89.99999999999957
 51
180.0
  0
ARC
  5
E14F
330
E100
100
AcDbEntity
  8
0
100
AcDbCircle
 10
-29.40000000000001
 20
-2.100000000000006
 30
0.0
 40
2.099999999999999
100
AcDbArc
 50
89.99999999999989
 51
180.0
  0
ENDBLK
  5
E102
330
E100
100
AcDbEntity
  8
0
100
AcDbBlockEnd
  0
BLOCK
  5
E151
330
E150
100
AcDbEntity
  8
0
100
AcDbBlockBegin
  2
SPR60_360-Bottom
 70
     0
 10
0.0
 20
0.0
 30
0.0
  3
SPR60_360-Bottom
  1

  0
LINE
  5
E153
330
E150
100
AcDbEntity
  8
0
100
AcDbLine
 10
72.52709056099998
 20
1.499999999999993
 30
0.0
 11
67.52709056099998
 21
1.499999999999994
 31
0.0
  0
LINE
  5
E154
330
E150
100
AcDbEntity
  8
0
100
AcDbLine
 10
67.52709056099998
 20
1.499999999999994
 30
0.0
 11
67.52709056099998
 21
0.0
 31
0.0
  0
LINE
  5
E155
330
E150
100
AcDbEntity
  8
0
100
AcDbLine
 10
67.52709056099998
 20
0.0
 30
0.0
 11
72.52709056099998
 21
0.0
 31
0.0
  0
LINE
  5
E156
330
E150
100
AcDbEntity
  8
0
100
AcDbLine
 10
72.52709056099998
 20
0.0
 30
0.0
 11
72.52709056099998
 21
1.499999999999993
 31
0.0
  0
LINE
  5
E157
330
E150
100
AcDbEntity
  8
0
100
AcDbLine
 10
-72.52709056099999
 20
0.0
 30
0.0
 11
-67.52709056099999
 21
0.0
 31
0.0
  0
LINE
  5
E158
330
E150
100
AcDbEntity
  8
0
100
AcDbLine
 10
-67.52709056099999
 20
1.500000000000015
 30
0.0
 11
-72.52709056099999
 21
1.500000000000015
 31
0.0
  0
LINE
  5
E159
330
E150
100
AcDbEntity
  8
0
100
AcDbLine
 10
-72.52709056099999
 20
1.500000000000015
 30
0.0
 11
-72.52709056099999
 21
0.0
 31
0.0
  0
LINE
  5
E15A
330
E150
100
AcDbEntity
  8
0
100
AcDbLine
 10
-67.52709056099999
 20
0.0
 30
0.0
 11
-67.52709056099999
 21
1.500000000000015
 31
0.0
  0
LINE
  5
E15B
330
E150
100
AcDbEntity
  8
0
100
AcDbLine
 10
67.52709056099998
 20
0.0
 30
0.0
 11
26.49999999999999
 21
0.0
 31
0.0
  0
LINE
  5
E15C
330
E150
100
AcDbEntity
  8
0
100
AcDbLine
 10
-26.5
 20
0.0
 30
0.0
 11
-67.52709056099999
 21
0.0
 31
0.0
  0
LINE
  5
E15D
330
E150
100
AcDbEntity
  8
0
100
AcDbLine
 10
-29.17856242236228
 20
1.500000000000007
 30
0.0
 11
-67.52709056099999
 21
1.500000000000015
 31
0.0
  0
LINE
  5
E15E
330
E150
100
AcDbEntity
  8
0
100
AcDbLine
 10
67.52709056099998
 20
1.499999999999994
 30
0.0
 11
29.17856242236228
 21
1.5
 31
0.0
  0
LINE
  5
E15F
330
E150
100
AcDbEntity
  8
0
100
AcDbLine
 10
26.5
 20
0.0
 30
0.0
 11
25.01767776087194
 21
0.0
 31
0.0
  0
LINE
  5
E160
330
E150
100
AcDbEntity
  8
0
100
AcDbLine
 10
-25.01767776087194
 20
0.0
 30
0.0
 11
-26.5
 21
0.0
 31
0.0
  0
SPLINE
  5
E161
330
E150
100
AcDbEntity
  8
0
100
AcDbSpline
210
0.0
220
0.0
230
1.0
 70
     8
 71
     3
 72
     8
 73
     4
 74
     0
 42
0.000000001
 43
0.0000000001
 40
0.0
 40
0.0
 40
0.0
 40
0.0
 40
1.0
 40
1.0
 40
1.0
 40
1.0
 10
-25.14054197002052
 20
0.6150757595082677
 30
0.0
 10
-25.0158647439017
 20
0.253984383346813
 30
0.0
 10
-24.97251992074021
 20
0.0000000000000173
 30
0.0
 10
-25.01767776087194
 20
0.0000000000000175
 30
0.0
  0
SPLINE
  5
E162
330
E150
100
AcDbEntity
  8
0
100
AcDbSpline
210
0.0
220
0.0
230
1.0
 70
     8
 71
     3
 72
     8
 73
     4
 74
     0
 42
0.000000001
 43
0.0000000001
 40
0.0
 40
0.0
 40
0.0
 40
0.0
 40
1.0
 40
1.0
 40
1.0
 40
1.0
 10
-31.50000000000002
 20
4.362741700911115
 30
0.0
 10
-31.5
 20
3.178158037514613
 30
0.0
 10
-30.49955742875643
 20
2.063659161980293
 30
0.0
 10
-29.40000000000001
 20
1.656580012761285
 30
0.0
  0
LINE
  5
E163
330
E150
100
AcDbEntity
  8
0
100
AcDbLine
 10
-29.40000000000001
 20
1.656580012761251
 30
0.0
 11
-28.79315533855964
 21
1.227476037518714
 31
0.0
  0
LINE
  5
E164
330
E150
100
AcDbEntity
  8
0
100
AcDbLine
 10
-28.79315533855964
 20
1.227476037518714
 30
0.0
 11
-26.5
 21
1.22747603751871
 31
0.0
  0
ELLIPSE
  5
E165
330
E150
100
AcDbEntity
  8
0
100
AcDbEllipse
 10
-26.5
 20
0.1668158657389222
 30
0.0
 11
1.5
 21
-0.0000000000000003
 31
0.0
210
0.0
220
0.0
230
1.0
 40
0.7071067811865474
 41
0.4363380716279899
 42
1.570796326794896
  0
LINE
  5
E166
330
E150
100
AcDbEntity
  8
0
100
AcDbLine
 10
-25.01767776087194
 20
0.1805170265381095
 30
0.0
 11
-25.01767776087194
 21
0.0
 31
0.0
  0
SPLINE
  5
E167
330
E150
100
AcDbEntity
  8
0
100
AcDbSpline
210
0.0
220
0.0
230
1.0
 70
     8
 71
     3
 72
     8
 73
     4
 74
     0
 42
0.000000001
 43
0.0000000001
 40
0.0
 40
0.0
 40
0.0
 40
0.0
 40
1.0
 40
1.0
 40
1.0
 40
1.0
 10
29.39999999999999
 20
1.656580012761236
 30
0.0
 10
30.49955742875638
 20
2.063659161980716
 30
0.0
 10
31.49999999999999
 20
3.178158037514187
 30
0.0
 10
31.50000000000002
 20
4.362741700911146
 30
0.0
  0
ELLIPSE
  5
E168
330
E150
100
AcDbEntity
  8
0
100
AcDbEllipse
 10
26.5
 20
0.1668158657389099
 30
0.0
 11
1.5
 21
-0.0000000000001098
 31
0.0
210
0.0
220
0.0
230
1.0
 40
0.7071067811865475
 41
1.570796326795026
 42
2.705254581962053
  0
LINE
  5
E169
330
E150
100
AcDbEntity
  8
0
100
AcDbLine
 10
26.5
 20
1.227476037518701
 30
0.0
 11
28.79315533855963
 21
1.227476037518702
 31
0.0
  0
LINE
  5
E16A
330
E150
100
AcDbEntity
  8
0
100
AcDbLine
 10
28.79315533855963
 20
1.227476037518702
 30
0.0
 11
29.39999999999999
 21
1.656580012761243
 31
0.0
  0
SPLINE
  5
E16B
330
E150
100
AcDbEntity
  8
0
100
AcDbSpline
210
0.0
220
0.0
230
1.0
 70
     8
 71
     3
 72
     8
 73
     4
 74
     0
 42
0.000000001
 43
0.0000000001
 40
0.0
 40
0.0
 40
0.0
 40
0.0
 40
1.0
 40
1.0
 40
1.0
 40
1.0
 10
25.01767776087191
 20
0.0000000000000064
 30
0.0
 10
24.97251992073922
 20
0.0000000000000063
 30
0.0
 10
25.01586474390317
 20
0.2539843833468292
 30
0.0
 10
25.14054197002047
 20
0.6150757595082556
 30
0.0
  0
LINE
  5
E16C
330
E150
100
AcDbEntity
  8
0
100
AcDbLine
 10
25.01767776087194
 20
0.1805170265379813
 30
0.0
 11
25.01767776087194
 21
0.0
 31
0.0
  0
LINE
  5
E16D
330
E150
100
AcDbEntity
  8
0
100
AcDbLine
 10
4.989433513812954
 20
0.0
 30
0.0
 11
25.01767776087194
 21
0.0
 31
0.0
  0
LINE
  5
E16E
330
E150
100
AcDbEntity
  8
0
100
AcDbLine
 10
-25.01767776087194
 20
0.0
 30
0.0
 11
-4.989433513812957
 21
0.0
 31
0.0
  0
LINE
  5
E16F
330
E150
100
AcDbEntity
  8
0
100
AcDbLine
 10
31.5
 20
56.26437943888952
 30
0.0
 11
31.49999999999998
 21
82.00306627385996
 31
0.0
  0
LINE
  5
E170
330
E150
100
AcDbEntity
  8
0
100
AcDbLine
 10
-31.49999999999995
 20
82.00306627385996
 30
0.0
 11
-31.49999999999999
 21
56.26437943888955
 31
0.0
  0
LINE
  5
E171
330
E150
100
AcDbEntity
  8
0
100
AcDbLine
 10
-29.99999999999998
 20
82.00306627385996
 30
0.0
 11
-29.99999999999998
 21
56.26437943888955
 31
0.0
  0
LINE
  5
E172
330
E150
100
AcDbEntity
  8
0
100
AcDbLine
 10
-29.39999999999998
 20
55.8401153701776
 30
0.0
 11
29.4
 21
55.84011537017758
 31
0.0
  0
LINE
  5
E173
330
E150
100
AcDbEntity
  8
0
100
AcDbLine
 10
30.0
 20
56.26437943888952
 30
0.0
 11
30.0
 21
82.00306627385996
 31
0.0
  0
LINE
  5
E174
330
E150
100
AcDbEntity
  8
0
100
AcDbLine
 10
-29.39999999999998
 20
54.77945519839778
 30
0.0
 11
29.4
 21
54.77945519839777
 31
0.0
  0
LINE
  5
E175
330
E150
100
AcDbEntity
  8
0
100
AcDbLine
 10
4.989433513812954
 20
0.0
 30
0.0
 11
2.499999999999995
 21
0.0
 31
0.0
  0
LINE
  5
E176
330
E150
100
AcDbEntity
  8
0
100
AcDbLine
 10
2.499999999999995
 20
0.0
 30
0.0
 11
-2.500000000000004
 21
0.0
 31
0.0
  0
LINE
  5
E177
330
E150
100
AcDbEntity
  8
0
100
AcDbLine
 10
-2.500000000000004
 20
0.0
 30
0.0
 11
-4.989433513812957
 21
0.0
 31
0.0
  0
ELLIPSE
  5
E178
330
E150
100
AcDbEntity
  8
0
100
AcDbEllipse
 10
-2.500000000000004
 20
0.1668158671532574
 30
0.0
 11
-2.5
 21
0.0000000000000003
 31
0.0
210
0.0
220
0.0
230
1.0
 40
0.7071067811865475
 41
4.712388980384689
 42
6.026811980988197
  0
LINE
  5
E179
330
E150
100
AcDbEntity
  8
0
100
AcDbLine
 10
-2.500000000000003
 20
1.934582820119603
 30
0.0
 11
2.499999999999996
 21
1.934582820119602
 31
0.0
  0
ELLIPSE
  5
E17A
330
E150
100
AcDbEntity
  8
0
100
AcDbEllipse
 10
2.499999999999995
 20
0.1668158671532063
 30
0.0
 11
2.5
 21
-0.0000000000000006
 31
0.0
210
0.0
220
0.0
230
1.0
 40
0.7071067811865474
 41
0.2563733261914187
 42
1.570796326794896
  0
SPLINE
  5
E17B
330
E150
100
AcDbEntity
  8
0
100
AcDbSpline
210
0.0
220
0.0
230
1.0
 70
     8
 71
     3
 72
     8
 73
     4
 74
     0
 42
0.000000001
 43
0.0000000001
 40
0.0
 40
0.0
 40
0.0
 40
0.0
 40
1.0
 40
1.0
 40
1.0
 40
1.0
 10
-4.98943351381296
 20
0.000000000000013
 30
0.0
 10
-5.016094836485422
 20
0.0000000000000128
 30
0.0
 10
-4.991899723307392
 20
0.2358409403404432
 30
0.0
 10
-4.918289920131943
 20
0.6150757595082633
 30
0.0
  0
LINE
  5
E17C
330
E150
100
AcDbEntity
  8
0
100
AcDbLine
 10
-4.989433513812957
 20
0.1805170296372907
 30
0.0
 11
-4.989433513812957
 21
0.0
 31
0.0
  0
LINE
  5
E17D
330
E150
100
AcDbEntity
  8
0
100
AcDbLine
 10
4.989433513812954
 20
0.1805170296371564
 30
0.0
 11
4.989433513812954
 21
0.0
 31
0.0
  0
SPLINE
  5
E17E
330
E150
100
AcDbEntity
  8
0
100
AcDbSpline
210
0.0
220
0.0
230
1.0
 70
     8
 71
     3
 72
     8
 73
     4
 74
     0
 42
0.000000001
 43
0.0000000001
 40
0.0
 40
0.0
 40
0.0
 40
0.0
 40
1.0
 40
1.0
 40
1.0
 40
1.0
 10
4.918289920131912
 20
0.615075759508261
 30
0.0
 10
4.991899723307213
 20
0.2358409403404309
 30
0.0
 10
5.016094836485285
 20
0.0000000000000106
 30
0.0
 10
4.989433513812954
 20
0.0000000000000108
 30
0.0
  0
LINE
  5
E17F
330
E150
100
AcDbEntity
  8
0
100
AcDbLine
 10
2.499999999999996
 20
1.500000000000003
 30
0.0
 11
4.141718653073983
 21
1.500000000000002
 31
0.0
  0
LINE
  5
E180
330
E150
100
AcDbEntity
  8
0
100
AcDbLine
 10
-2.500000000000004
 20
1.500000000000003
 30
0.0
 11
2.499999999999995
 21
1.500000000000003
 31
0.0
  0
LINE
  5
E181
330
E150
100
AcDbEntity
  8
0
100
AcDbLine
 10
-4.141718653074073
 20
1.500000000000004
 30
0.0
 11
-2.500000000000004
 21
1.500000000000003
 31
0.0
  0
LINE
  5
E182
330
E150
100
AcDbEntity
  8
0
100
AcDbLine
 10
31.5
 20
2.100000000000001
 30
0.0
 11
31.5
 21
4.362741700911131
 31
0.0
  0
LINE
  5
E183
330
E150
100
AcDbEntity
  8
0
100
AcDbLine
 10
-31.5
 20
4.36274170091117
 30
0.0
 11
-31.5
 21
2.100000000000006
 31
0.0
  0
LINE
  5
E184
330
E150
100
AcDbEntity
  8
0
100
AcDbLine
 10
30.0
 20
82.00306627385996
 30
0.0
 11
31.49999999999998
 21
82.00306627385996
 31
0.0
  0
LINE
  5
E185
330
E150
100
AcDbEntity
  8
0
100
AcDbLine
 10
-31.49999999999995
 20
82.00306627385996
 30
0.0
 11
-29.99999999999998
 21
82.00306627385996
 31
0.0
  0
LINE
  5
E186
330
E150
100
AcDbEntity
  8
0
100
AcDbLine
 10
31.5
 20
56.26437943888952
 30
0.0
 11
31.50000000000002
 21
4.362741700911128
 31
0.0
  0
ELLIPSE
  5
E187
330
E150
100
AcDbEntity
  8
0
100
AcDbEllipse
 10
29.4
 20
56.26437943888952
 30
0.0
 11
0.6000000000000087
 21
-0.0000000000000158
 31
0.0
210
0.0
220
0.0
230
1.0
 40
0.7071067811864291
 41
4.712388980384759
 42
6.283185307179473
  0
ELLIPSE
  5
E188
330
E150
100
AcDbEntity
  8
0
100
AcDbEllipse
 10
29.4
 20
56.26437943888952
 30
0.0
 11
2.100000000000056
 21
-0.0000000000000982
 31
0.0
210
0.0
220
0.0
230
1.0
 40
0.7071067811865463
 41
4.712388980384691
 42
6.283185307179515
  0
LINE
  5
E189
330
E150
100
AcDbEntity
  8
0
100
AcDbLine
 10
-31.50000000000002
 20
4.36274170091117
 30
0.0
 11
-31.49999999999999
 21
56.26437943888955
 31
0.0
  0
ELLIPSE
  5
E18A
330
E150
100
AcDbEntity
  8
0
100
AcDbEllipse
 10
-29.39999999999998
 20
56.26437943888955
 30
0.0
 11
-2.100000000000006
 21
-0.0000000000000027
 31
0.0
210
0.0
220
0.0
230
1.0
 40
0.7071067811865475
 41
0.0
 42
1.570796326794895
  0
ELLIPSE
  5
E18B
330
E150
100
AcDbEntity
  8
0
100
AcDbEllipse
 10
-29.39999999999998
 20
56.26437943888955
 30
0.0
 11
-0.6000000000000089
 21
0.000000000000009
 31
0.0
210
0.0
220
0.0
230
1.0
 40
0.7071067811865252
 41
0.0000000000000841
 42
1.570796326794951
  0
ARC
  5
E18C
330
E150
100
AcDbEntity
  8
0
100
AcDbCircle
 10
29.4
 20
2.099999999999997
 30
0.0
 40
0.600000000000005
100
AcDbArc
 50
270.0000000000008
 51
343.4444348564444
  0
ARC
  5
E18D
330
E150
100
AcDbEntity
  8
0
100
AcDbCircle
 10
29.4
 20
2.099999999999997
 30
0.0
 40
2.099999999999999
100
AcDbArc
 50
343.3984504009799
 51
0.0
  0
ARC
  5
E18E
330
E150
100
AcDbEntity
  8
0
100
AcDbCircle
 10
-29.40000000000001
 20
2.100000000000006
 30
0.0
 40
0.6000000000000005
100
AcDbArc
 50
196.5555651435564
 51
270.0000000000004
  0
ARC
  5
E18F
330
E150
100
AcDbEntity
  8
0
100
AcDbCircle
 10
-29.40000000000001
 20
2.100000000000006
 30
0.0
 40
2.099999999999995
100
AcDbArc
 50
180.0
 51
196.60154959902
  0
ENDBLK
  5
E152
330
E150
100
AcDbEntity
  8
0
100
AcDbBlockEnd
  0
BLOCK
  5
E191
330
E190
100
AcDbEntity
  8
0
100
AcDbBlockBegin
  2
SPR60_360-ISO
 70
     0
 10
0.0
 20
0.0
 30
0.0
  3
SPR60_360-ISO
  1

  0
LINE
  5
E193
330
E190
100
AcDbEntity
  8
0
100
AcDbLine
 10
79.21380805819246
 20
-132.8885931357564
 30
0.0
 11
75.67827415225972
 21
-134.9298345880757
 31
0.0
  0
LINE
  5
E194
330
E190
100
AcDbEntity
  8
0
100
AcDbLine
 10
80.27446822997228
 20
-132.2762207000606
 30
0.0
 11
79.21380805819246
 21
-132.8885931357564
 31
0.0
  0
LINE
  5
E195
330
E190
100
AcDbEntity
  8
0
100
AcDbLine
 10
79.21380805819246
 20
-78.9998187945265
 30
0.0
 11
80.27446822997228
 21
-78.38744635883071
 31
0.0
  0
LINE
  5
E196
330
E190
100
AcDbEntity
  8
0
100
AcDbLine
 10
80.27446822997228
 20
-78.38744635883071
 30
0.0
 11
76.73893432403956
 21
-72.26372200187276
 31
0.0
  0
LINE
  5
E197
330
E190
100
AcDbEntity
  8
0
100
AcDbLine
 10
-19.81945314670268
 20
-79.79419602502234
 30
0.0
 11
-23.35498705263542
 21
-73.6704716680644
 31
0.0
  0
LINE
  5
E198
330
E190
100
AcDbEntity
  8
0
100
AcDbLine
 10
75.67827415225974
 20
-72.87609443756855
 30
0.0
 11
79.21380805819246
 21
-78.9998187945265
 31
0.0
  0
LINE
  5
E199
330
E190
100
AcDbEntity
  8
0
100
AcDbLine
 10
76.73893432403956
 20
-72.26372200187276
 30
0.0
 11
75.67827415225974
 21
-72.87609443756855
 31
0.0
  0
LINE
  5
E19A
330
E190
100
AcDbEntity
  8
0
100
AcDbLine
 10
80.27446822997228
 20
-78.38744635883071
 30
0.0
 11
80.27446822997228
 21
-132.2762207000606
 31
0.0
  0
LINE
  5
E19B
330
E190
100
AcDbEntity
  8
0
100
AcDbLine
 10
79.21380805819246
 20
-78.9998187945265
 30
0.0
 11
79.21380805819246
 21
-132.8885931357564
 31
0.0
  0
LINE
  5
E19C
330
E190
100
AcDbEntity
  8
0
100
AcDbLine
 10
5.65554689540225
 20
-31.22370913503857
 30
0.0
 11
10.25174097311483
 21
-33.87732302305369
 31
0.0
  0
LINE
  5
E19D
330
E190
100
AcDbEntity
  8
0
100
AcDbLine
 10
49.14261393837493
 20
-56.33097899856615
 30
0.0
 11
76.73893432403956
 21
-72.26372200187276
 31
0.0
  0
LINE
  5
E19E
330
E190
100
AcDbEntity
  8
0
100
AcDbLine
 10
-23.35498705263542
 20
-73.6704716680644
 30
0.0
 11
-23.35498705263542
 21
-43.46009817373853
 31
0.0
  0
LINE
  5
E19F
330
E190
100
AcDbEntity
  8
0
100
AcDbLine
 10
48.08195376659512
 20
-56.94335143426194
 30
0.0
 11
75.67827415225974
 21
-72.87609443756855
 31
0.0
  0
LINE
  5
E1A0
330
E190
100
AcDbEntity
  8
0
100
AcDbLine
 10
9.19108080133501
 20
-96.54343560925667
 30
0.0
 11
-19.81945314670268
 21
-79.79419602502234
 31
0.0
  0
LINE
  5
E1A1
330
E190
100
AcDbEntity
  8
0
100
AcDbLine
 10
75.67827415225972
 20
-134.9298345880757
 30
0.0
 11
46.66774020422203
 21
-118.1805950038414
 31
0.0
  0
LINE
  5
E1A2
330
E190
100
AcDbEntity
  8
0
100
AcDbLine
 10
4.594886723622426
 20
-31.83608157073436
 30
0.0
 11
9.19108080133501
 21
-34.48969545874949
 31
0.0
  0
LINE
  5
E1A3
330
E190
100
AcDbEntity
  8
0
100
AcDbLine
 10
10.25174097311483
 20
-33.87732302305369
 30
0.0
 11
9.19108080133501
 21
-34.48969545874949
 31
0.0
  0
ELLIPSE
  5
E1A4
330
E190
100
AcDbEntity
  8
0
100
AcDbEllipse
 10
9.19108080133501
 20
-33.2649505873579
 30
0.0
 11
0.7500000000000004
 21
-1.299038105676658
 31
0.0
210
0.0
220
0.0
230
0.9999999999999998
 40
0.577350269189626
 41
5.497787143782137
 42
8.63937979737193
  0
ELLIPSE
  5
E1A5
330
E190
100
AcDbEntity
  8
0
100
AcDbEllipse
 10
43.13220629828929
 20
169.6344497731821
 30
0.0
 11
1.250000000000129
 21
-2.165063509461022
 31
0.0
210
0.0
220
0.0
230
1.0
 40
0.577350269189626
 41
3.579741684173537
 42
4.454997905016221
  0
ELLIPSE
  5
E1A6
330
E190
100
AcDbEntity
  8
0
100
AcDbEllipse
 10
43.13220629828929
 20
-58.98459288658121
 30
0.0
 11
1.25
 21
-2.165063509461097
 31
0.0
210
0.0
220
0.0
230
0.9999999999999998
 40
0.5773502691896259
 41
4.999145532596252
 42
5.845036276595418
  0
ELLIPSE
  5
E1A7
330
E190
100
AcDbEntity
  8
0
100
AcDbEllipse
 10
42.07154612650946
 20
169.0220773374863
 30
0.0
 11
-1.25
 21
2.165063509461097
 31
0.0
210
0.0
220
0.0
230
1.0
 40
0.5773502691896259
 41
4.969780055752959
 42
7.596590558606207
  0
ELLIPSE
  5
E1A8
330
E190
100
AcDbEntity
  8
0
100
AcDbEllipse
 10
42.07154612650946
 20
-59.596965322277
 30
0.0
 11
1.25
 21
-2.165063509461097
 31
0.0
210
0.0
220
0.0
230
0.9999999999999998
 40
0.577350269189626
 41
4.999145532596251
 42
7.567225081762918
  0
ELLIPSE
  5
E1A9
330
E190
100
AcDbEntity
  8
0
100
AcDbEllipse
 10
43.13220629828929
 20
-91.64445612369027
 30
0.0
 11
1.250000000000129
 21
-2.165063509461022
 31
0.0
210
0.0
220
0.0
230
0.9999999999999998
 40
0.5773502691896258
 41
3.579741684173546
 42
5.845036276594998
  0
ELLIPSE
  5
E1AA
330
E190
100
AcDbEntity
  8
0
100
AcDbEllipse
 10
42.07154612650946
 20
-92.25682855938606
 30
0.0
 11
1.25
 21
-2.165063509461097
 31
0.0
210
0.0
220
0.0
230
1.0
 40
0.5773502691896259
 41
0.0
 42
6.283185307179586
  0
ELLIPSE
  5
E1AB
330
E190
100
AcDbEntity
  8
0
100
AcDbEllipse
 10
36.06113848642382
 20
-71.23204160049713
 30
0.0
 11
1.250000000000129
 21
-2.165063509461022
 31
0.0
210
0.0
220
0.0
230
0.9999999999999998
 40
0.5773502691896258
 41
3.579741684173548
 42
5.845036276594998
  0
ELLIPSE
  5
E1AC
330
E190
100
AcDbEntity
  8
0
100
AcDbEllipse
 10
35.00047831464399
 20
-71.84441403619292
 30
0.0
 11
1.25
 21
-2.165063509461097
 31
0.0
210
0.0
220
0.0
230
1.0
 40
0.5773502691896259
 41
0.0
 42
6.283185307179586
  0
ELLIPSE
  5
E1AD
330
E190
100
AcDbEntity
  8
0
100
AcDbEllipse
 10
36.06113848642382
 20
-103.8919048376061
 30
0.0
 11
1.250000000000129
 21
-2.165063509461022
 31
0.0
210
0.0
220
0.0
230
0.9999999999999998
 40
0.5773502691896259
 41
3.579741684173548
 42
5.845036276594998
  0
ELLIPSE
  5
E1AE
330
E190
100
AcDbEntity
  8
0
100
AcDbEllipse
 10
35.00047831464399
 20
-104.5042772733019
 30
0.0
 11
1.25
 21
-2.165063509461097
 31
0.0
210
0.0
220
0.0
230
1.0
 40
0.5773502691896259
 41
0.0
 42
6.283185307179586
  0
ELLIPSE
  5
E1AF
330
E190
100
AcDbEntity
  8
0
100
AcDbEllipse
 10
21.91900286269286
 20
181.881898487098
 30
0.0
 11
1.250000000000129
 21
-2.165063509461022
 31
0.0
210
0.0
220
0.0
230
1.0
 40
0.577350269189626
 41
3.579741684173534
 42
5.845036276594981
  0
ELLIPSE
  5
E1B0
330
E190
100
AcDbEntity
  8
0
100
AcDbEllipse
 10
20.85834269091304
 20
181.2695260514022
 30
0.0
 11
1.25
 21
-2.165063509461097
 31
0.0
210
0.0
220
0.0
230
1.0
 40
0.5773502691896259
 41
0.0
 42
6.283185307179586
  0
ELLIPSE
  5
E1B1
330
E190
100
AcDbEntity
  8
0
100
AcDbEllipse
 10
20.85834269091304
 20
148.6096628142932
 30
0.0
 11
-1.25
 21
2.165063509461097
 31
0.0
210
0.0
220
0.0
230
1.0
 40
0.5773502691896259
 41
0.1418970546042102
 42
1.42889927219069
  0
ELLIPSE
  5
E1B2
330
E190
100
AcDbEntity
  8
0
100
AcDbEllipse
 10
20.85834269091304
 20
115.9497995771841
 30
0.0
 11
-1.25
 21
2.165063509461097
 31
0.0
210
0.0
220
0.0
230
1.0
 40
0.5773502691896259
 41
0.1418970546042102
 42
1.42889927219069
  0
ELLIPSE
  5
E1B3
330
E190
100
AcDbEntity
  8
0
100
AcDbEllipse
 10
20.85834269091304
 20
83.28993634007508
 30
0.0
 11
-1.25
 21
2.165063509461097
 31
0.0
210
0.0
220
0.0
230
1.0
 40
0.5773502691896259
 41
0.1418970546042102
 42
1.42889927219069
  0
ELLIPSE
  5
E1B4
330
E190
100
AcDbEntity
  8
0
100
AcDbEllipse
 10
20.85834269091304
 20
50.63007310296604
 30
0.0
 11
-1.25
 21
2.165063509461097
 31
0.0
210
0.0
220
0.0
230
1.0
 40
0.5773502691896259
 41
0.1418970546042066
 42
1.42889927219069
  0
ELLIPSE
  5
E1B5
330
E190
100
AcDbEntity
  8
0
100
AcDbEllipse
 10
20.85834269091304
 20
17.97020986585698
 30
0.0
 11
-1.25
 21
2.165063509461097
 31
0.0
210
0.0
220
0.0
230
1.0
 40
0.5773502691896259
 41
0.1418970546042066
 42
1.42889927219069
  0
ELLIPSE
  5
E1B6
330
E190
100
AcDbEntity
  8
0
100
AcDbEllipse
 10
20.85834269091304
 20
-14.68965337125206
 30
0.0
 11
-1.25
 21
2.165063509461097
 31
0.0
210
0.0
220
0.0
230
1.0
 40
0.5773502691896259
 41
0.1418970546042066
 42
1.42889927219069
  0
ELLIPSE
  5
E1B7
330
E190
100
AcDbEntity
  8
0
100
AcDbEllipse
 10
20.85834269091304
 20
-47.34951660836113
 30
0.0
 11
-1.25
 21
2.165063509461097
 31
0.0
210
0.0
220
0.0
230
1.0
 40
0.5773502691896259
 41
0.1418970546042004
 42
1.428899272190695
  0
ELLIPSE
  5
E1B8
330
E190
100
AcDbEntity
  8
0
100
AcDbEllipse
 10
21.91900286269286
 20
-79.3970074097744
 30
0.0
 11
1.250000000000129
 21
-2.165063509461022
 31
0.0
210
0.0
220
0.0
230
0.9999999999999998
 40
0.5773502691896258
 41
3.579741684173546
 42
5.845036276594996
  0
ELLIPSE
  5
E1B9
330
E190
100
AcDbEntity
  8
0
100
AcDbEllipse
 10
20.85834269091304
 20
-80.0093798454702
 30
0.0
 11
1.25
 21
-2.165063509461097
 31
0.0
210
0.0
220
0.0
230
1.0
 40
0.5773502691896259
 41
0.0
 42
6.283185307179586
  0
ELLIPSE
  5
E1BA
330
E190
100
AcDbEntity
  8
0
100
AcDbEllipse
 10
14.84793505082738
 20
169.6344497731821
 30
0.0
 11
1.250000000000129
 21
-2.165063509461022
 31
0.0
210
0.0
220
0.0
230
1.0
 40
0.577350269189626
 41
3.579741684173537
 42
5.845036276594984
  0
ELLIPSE
  5
E1BB
330
E190
100
AcDbEntity
  8
0
100
AcDbEllipse
 10
14.84793505082738
 20
136.9745865360731
 30
0.0
 11
1.250000000000129
 21
-2.165063509461022
 31
0.0
210
0.0
220
0.0
230
1.0
 40
0.577350269189626
 41
3.579741684173546
 42
5.845036276595004
  0
ELLIPSE
  5
E1BC
330
E190
100
AcDbEntity
  8
0
100
AcDbEllipse
 10
14.84793505082738
 20
104.314723298964
 30
0.0
 11
1.250000000000129
 21
-2.165063509461022
 31
0.0
210
0.0
220
0.0
230
1.0
 40
0.577350269189626
 41
3.579741684173546
 42
5.845036276595004
  0
ELLIPSE
  5
E1BD
330
E190
100
AcDbEntity
  8
0
100
AcDbEllipse
 10
14.84793505082738
 20
71.65486006185497
 30
0.0
 11
1.250000000000129
 21
-2.165063509461022
 31
0.0
210
0.0
220
0.0
230
1.0
 40
0.577350269189626
 41
3.579741684173546
 42
5.845036276595004
  0
ELLIPSE
  5
E1BE
330
E190
100
AcDbEntity
  8
0
100
AcDbEllipse
 10
14.84793505082738
 20
38.99499682474593
 30
0.0
 11
1.250000000000129
 21
-2.165063509461022
 31
0.0
210
0.0
220
0.0
230
1.0
 40
0.577350269189626
 41
3.579741684173546
 42
5.845036276595003
  0
ELLIPSE
  5
E1BF
330
E190
100
AcDbEntity
  8
0
100
AcDbEllipse
 10
14.84793505082738
 20
6.33513358763686
 30
0.0
 11
1.250000000000129
 21
-2.165063509461022
 31
0.0
210
0.0
220
0.0
230
1.0
 40
0.577350269189626
 41
3.579741684173546
 42
5.845036276594999
  0
ELLIPSE
  5
E1C0
330
E190
100
AcDbEntity
  8
0
100
AcDbEllipse
 10
14.84793505082738
 20
-26.32472964947221
 30
0.0
 11
1.250000000000129
 21
-2.165063509461022
 31
0.0
210
0.0
220
0.0
230
1.0
 40
0.577350269189626
 41
3.579741684173546
 42
5.845036276595
  0
ELLIPSE
  5
E1C1
330
E190
100
AcDbEntity
  8
0
100
AcDbEllipse
 10
14.84793505082738
 20
-58.98459288658124
 30
0.0
 11
1.250000000000129
 21
-2.165063509461022
 31
0.0
210
0.0
220
0.0
230
1.0
 40
0.577350269189626
 41
3.579741684173546
 42
5.845036276594998
  0
ELLIPSE
  5
E1C2
330
E190
100
AcDbEntity
  8
0
100
AcDbEllipse
 10
13.78727487904756
 20
169.0220773374863
 30
0.0
 11
1.25
 21
-2.165063509461097
 31
0.0
210
0.0
220
0.0
230
1.0
 40
0.5773502691896259
 41
0.0
 42
6.283185307179586
  0
ELLIPSE
  5
E1C3
330
E190
100
AcDbEntity
  8
0
100
AcDbEllipse
 10
13.78727487904756
 20
136.3622141003773
 30
0.0
 11
1.25
 21
-2.165063509461097
 31
0.0
210
0.0
220
0.0
230
1.0
 40
0.5773502691896259
 41
0.0
 42
6.283185307179586
  0
ELLIPSE
  5
E1C4
330
E190
100
AcDbEntity
  8
0
100
AcDbEllipse
 10
13.78727487904756
 20
103.7023508632682
 30
0.0
 11
1.25
 21
-2.165063509461097
 31
0.0
210
0.0
220
0.0
230
1.0
 40
0.5773502691896259
 41
0.0
 42
6.283185307179586
  0
ELLIPSE
  5
E1C5
330
E190
100
AcDbEntity
  8
0
100
AcDbEllipse
 10
13.78727487904756
 20
71.04248762615918
 30
0.0
 11
1.25
 21
-2.165063509461097
 31
0.0
210
0.0
220
0.0
230
1.0
 40
0.5773502691896259
 41
0.0
 42
6.283185307179586
  0
ELLIPSE
  5
E1C6
330
E190
100
AcDbEntity
  8
0
100
AcDbEllipse
 10
13.78727487904756
 20
38.38262438905014
 30
0.0
 11
1.25
 21
-2.165063509461097
 31
0.0
210
0.0
220
0.0
230
1.0
 40
0.5773502691896259
 41
0.0
 42
6.283185307179586
  0
ELLIPSE
  5
E1C7
330
E190
100
AcDbEntity
  8
0
100
AcDbEllipse
 10
13.78727487904756
 20
5.722761151941071
 30
0.0
 11
1.25
 21
-2.165063509461097
 31
0.0
210
0.0
220
0.0
230
1.0
 40
0.5773502691896259
 41
0.0
 42
6.283185307179586
  0
ELLIPSE
  5
E1C8
330
E190
100
AcDbEntity
  8
0
100
AcDbEllipse
 10
13.78727487904756
 20
-26.937102085168
 30
0.0
 11
1.25
 21
-2.165063509461097
 31
0.0
210
0.0
220
0.0
230
1.0
 40
0.5773502691896259
 41
0.0
 42
6.283185307179586
  0
ELLIPSE
  5
E1C9
330
E190
100
AcDbEntity
  8
0
100
AcDbEllipse
 10
13.78727487904756
 20
-59.59696532227704
 30
0.0
 11
1.25
 21
-2.165063509461097
 31
0.0
210
0.0
220
0.0
230
1.0
 40
0.5773502691896259
 41
0.0
 42
6.283185307179586
  0
ELLIPSE
  5
E1CA
330
E190
100
AcDbEntity
  8
0
100
AcDbEllipse
 10
14.84793505082738
 20
-91.64445612369028
 30
0.0
 11
1.250000000000129
 21
-2.165063509461022
 31
0.0
210
0.0
220
0.0
230
0.9999999999999998
 40
0.5773502691896259
 41
3.579741684173546
 42
5.845036276595
  0
ELLIPSE
  5
E1CB
330
E190
100
AcDbEntity
  8
0
100
AcDbEllipse
 10
13.78727487904756
 20
-92.25682855938609
 30
0.0
 11
1.25
 21
-2.165063509461097
 31
0.0
210
0.0
220
0.0
230
1.0
 40
0.5773502691896259
 41
0.0
 42
6.283185307179586
  0
ELLIPSE
  5
E1CC
330
E190
100
AcDbEntity
  8
0
100
AcDbEllipse
 10
-1.434676835852455
 20
-33.25389091214192
 30
0.0
 11
1.25
 21
-2.165063509461097
 31
0.0
210
0.0
220
0.0
230
1.0
 40
0.5773502691896259
 41
5.508682942396005
 42
5.845036276595415
  0
ELLIPSE
  5
E1CD
330
E190
100
AcDbEntity
  8
0
100
AcDbEllipse
 10
55.17217749784984
 20
-65.93587349968287
 30
0.0
 11
1.250000000000129
 21
-2.165063509461022
 31
0.0
210
0.0
220
0.0
230
1.0
 40
0.577350269189626
 41
3.579741684173546
 42
5.845036276594998
  0
ELLIPSE
  5
E1CE
330
E190
100
AcDbEntity
  8
0
100
AcDbEllipse
 10
-2.495337007632274
 20
-33.86626334783772
 30
0.0
 11
1.25
 21
-2.165063509461097
 31
0.0
210
0.0
220
0.0
230
1.0
 40
0.5773502691896259
 41
5.508682942396005
 42
7.057687671963167
  0
ELLIPSE
  5
E1CF
330
E190
100
AcDbEntity
  8
0
100
AcDbEllipse
 10
54.11151732607002
 20
-66.54824593537867
 30
0.0
 11
1.25
 21
-2.165063509461097
 31
0.0
210
0.0
220
0.0
230
1.0
 40
0.5773502691896259
 41
0.0
 42
6.283185307179586
  0
ELLIPSE
  5
E1D0
330
E190
100
AcDbEntity
  8
0
100
AcDbEllipse
 10
2.807963851266834
 20
-68.36324389203415
 30
0.0
 11
1.250000000000129
 21
-2.165063509461022
 31
0.0
210
0.0
220
0.0
230
0.9999999999999998
 40
0.5773502691896258
 41
3.579741684173544
 42
5.845036276594998
  0
ELLIPSE
  5
E1D1
330
E190
100
AcDbEntity
  8
0
100
AcDbEllipse
 10
59.41481818496914
 20
-101.0452264795751
 30
0.0
 11
1.250000000000129
 21
-2.165063509461022
 31
0.0
210
0.0
220
0.0
230
0.9999999999999998
 40
0.5773502691896259
 41
3.579741684173544
 42
5.845036276594997
  0
ELLIPSE
  5
E1D2
330
E190
100
AcDbEntity
  8
0
100
AcDbEllipse
 10
1.747303679487015
 20
-68.97561632772994
 30
0.0
 11
1.25
 21
-2.165063509461097
 31
0.0
210
0.0
220
0.0
230
1.0
 40
0.5773502691896259
 41
0.0
 42
6.283185307179586
  0
ELLIPSE
  5
E1D3
330
E190
100
AcDbEntity
  8
0
100
AcDbEllipse
 10
58.35415801318932
 20
-101.6575989152709
 30
0.0
 11
1.25
 21
-2.165063509461097
 31
0.0
210
0.0
220
0.0
230
1.0
 40
0.5773502691896259
 41
0.0
 42
6.283185307179586
  0
ELLIPSE
  5
E1D4
330
E190
100
AcDbEntity
  8
0
100
AcDbEllipse
 10
27.22230372159197
 20
-106.9537670177182
 30
0.0
 11
1.250000000000129
 21
-2.165063509461022
 31
0.0
210
0.0
220
0.0
230
1.0
 40
0.577350269189626
 41
3.579741684173546
 42
3.835017177445183
  0
ELLIPSE
  5
E1D5
330
E190
100
AcDbEntity
  8
0
100
AcDbEllipse
 10
27.10434709071839
 20
-107.6808263760338
 30
0.0
 11
-1.249999999999998
 21
-2.165063509461097
 31
0.0
210
0.0
220
0.0
230
1.0
 40
0.816496580927726
 41
4.968762306576076
 42
6.283185307179585
  0
LINE
  5
E1D6
330
E190
100
AcDbEntity
  8
0
100
AcDbLine
 10
25.07739027969985
 20
-107.2425676545063
 30
0.0
 11
24.57714027980164
 21
-106.9537481824029
 31
0.0
  0
LINE
  5
E1D7
330
E190
100
AcDbEntity
  8
0
100
AcDbLine
 10
24.57714027980164
 20
-106.9537481824029
 30
0.0
 11
24.32739027969985
 21
-106.809554952614
 31
0.0
  0
ELLIPSE
  5
E1D8
330
E190
100
AcDbEntity
  8
0
100
AcDbEllipse
 10
26.35434709071841
 20
-107.2478136741415
 30
0.0
 11
-1.249999999999999
 21
-2.165063509461097
 31
0.0
210
0.0
220
0.0
230
1.0
 40
0.816496580927726
 41
4.968762306576078
 42
6.283185307179589
  0
LINE
  5
E1D9
330
E190
100
AcDbEntity
  8
0
100
AcDbLine
 10
28.63988099665115
 20
-111.454118635922
 30
0.0
 11
25.10434709071841
 21
-109.4128771836026
 31
0.0
  0
ELLIPSE
  5
E1DA
330
E190
100
AcDbEntity
  8
0
100
AcDbEllipse
 10
29.88988099665118
 20
-109.2890551264608
 30
0.0
 11
-1.249999999999997
 21
-2.165063509461099
 31
0.0
210
0.0
220
0.0
230
1.0
 40
0.816496580927726
 41
0.0
 42
1.314423000603478
  0
LINE
  5
E1DB
330
E190
100
AcDbEntity
  8
0
100
AcDbLine
 10
24.40134823088196
 20
-106.3623566470811
 30
0.0
 11
24.75454806846805
 21
-106.158436625773
 31
0.0
  0
SPLINE
  5
E1DC
330
E190
100
AcDbEntity
  8
0
100
AcDbSpline
210
0.0
220
0.0
230
1.0
 70
     8
 71
     3
 72
     8
 73
     4
 74
     0
 42
0.000000001
 43
0.0000000001
 40
-1.0
 40
-1.0
 40
-1.0
 40
-1.0
 40
0.0
 40
0.0
 40
0.0
 40
0.0
 10
24.32739027969985
 20
-106.809554952614
 30
0.0
 10
24.35195729222571
 20
-106.646799333498
 30
0.0
 10
24.38249582882485
 20
-106.4802680059343
 30
0.0
 10
24.40134823088195
 20
-106.3623566470811
 30
0.0
  0
SPLINE
  5
E1DD
330
E190
100
AcDbEntity
  8
0
100
AcDbSpline
210
0.0
220
0.0
230
1.0
 70
     8
 71
     3
 72
     8
 73
     4
 74
     0
 42
0.000000001
 43
0.0000000001
 40
0.0
 40
0.0
 40
0.0
 40
0.0
 40
1.0
 40
1.0
 40
1.0
 40
1.0
 10
25.46200840266177
 20
-105.7499842113853
 30
0.0
 10
25.44315600060467
 20
-106.1898850658779
 30
0.0
 10
25.29349980100831
 20
-106.7480506783696
 30
0.0
 10
25.07739027969984
 20
-107.2425676545063
 30
0.0
  0
LINE
  5
E1DE
330
E190
100
AcDbEntity
  8
0
100
AcDbLine
 10
24.75454806846805
 20
-106.158436625773
 30
0.0
 11
25.46200840266178
 21
-105.7499842113853
 31
0.0
  0
SPLINE
  5
E1DF
330
E190
100
AcDbEntity
  8
0
100
AcDbSpline
210
0.0
220
0.0
230
1.0
 70
     8
 71
     3
 72
     8
 73
     4
 74
     0
 42
0.000000001
 43
0.0000000001
 40
-1.0
 40
-1.0
 40
-1.0
 40
-1.0
 40
0.0
 40
0.0
 40
0.0
 40
0.0
 10
31.45747277467509
 20
-110.4362120518756
 30
0.0
 10
31.47632517673209
 20
-110.5758922895338
 30
0.0
 10
31.41156958293341
 20
-110.7226683899125
 30
0.0
 10
31.28290258843331
 20
-110.8253218564131
 30
0.0
  0
ELLIPSE
  5
E1E0
330
E190
100
AcDbEntity
  8
0
100
AcDbEllipse
 10
29.69717745574489
 20
-109.6073809057332
 30
0.0
 11
1.24999999999987
 21
-2.165063509461171
 31
0.0
210
0.0
220
0.0
230
1.0
 40
0.5773502691896259
 41
0.877371802939348
 42
2.356194490192585
  0
LINE
  5
E1E1
330
E190
100
AcDbEntity
  8
0
100
AcDbLine
 10
26.16164354981215
 20
-105.5248980010947
 30
0.0
 11
29.69717745574489
 21
-107.5661394534141
 31
0.0
  0
ELLIPSE
  5
E1E2
330
E190
100
AcDbEntity
  8
0
100
AcDbEllipse
 10
26.16164354981215
 20
-107.566139453414
 30
0.0
 11
-1.25
 21
2.165063509461097
 31
0.0
210
0.0
220
0.0
230
0.9999999999999998
 40
0.5773502691896259
 41
5.49778714378214
 42
6.97660983103533
  0
LINE
  5
E1E3
330
E190
100
AcDbEntity
  8
0
100
AcDbLine
 10
49.77901004144285
 20
174.696728574934
 30
0.0
 11
8.201131307673845
 21
198.7017280542091
 31
0.0
  0
LINE
  5
E1E4
330
E190
100
AcDbEntity
  8
0
100
AcDbLine
 10
20.50478930031973
 20
-68.78255185771394
 30
0.0
 11
20.50478930031973
 21
151.9981236251432
 31
0.0
  0
LINE
  5
E1E5
330
E190
100
AcDbEntity
  8
0
100
AcDbLine
 10
19.44412912853991
 20
152.610496060839
 30
0.0
 11
19.44412912853991
 21
-68.17017942201816
 31
0.0
  0
LINE
  5
E1E6
330
E190
100
AcDbEntity
  8
0
100
AcDbLine
 10
49.77901004144285
 20
-55.96355553714866
 30
0.0
 11
24.04032320625247
 21
-70.82379331003327
 31
0.0
  0
LINE
  5
E1E7
330
E190
100
AcDbEntity
  8
0
100
AcDbLine
 10
24.04032320625248
 20
158.1218479821012
 30
0.0
 11
49.77901004144285
 21
172.9820857549857
 31
0.0
  0
LINE
  5
E1E8
330
E190
100
AcDbEntity
  8
0
100
AcDbLine
 10
-24.04293791443273
 20
177.7177659243666
 30
0.0
 11
-24.04293791443273
 21
-43.0629095584906
 31
0.0
  0
LINE
  5
E1E9
330
E190
100
AcDbEntity
  8
0
100
AcDbLine
 10
5.231282826690342
 20
198.7017280542091
 30
0.0
 11
-20.50740400849999
 21
183.8414902813244
 31
0.0
  0
LINE
  5
E1EA
330
E190
100
AcDbEntity
  8
0
100
AcDbLine
 10
-22.9822777426529
 20
177.1053934886707
 30
0.0
 11
-22.9822777426529
 21
-43.67528199418639
 31
0.0
  0
LINE
  5
E1EB
330
E190
100
AcDbEntity
  8
0
100
AcDbLine
 10
49.77901004144285
 20
172.9820857549857
 30
0.0
 11
48.71834986966304
 21
173.5944581906815
 31
0.0
  0
LINE
  5
E1EC
330
E190
100
AcDbEntity
  8
0
100
AcDbLine
 10
48.71834986966304
 20
173.5944581906815
 30
0.0
 11
22.97966303447265
 21
158.7342204177969
 31
0.0
  0
LINE
  5
E1ED
330
E190
100
AcDbEntity
  8
0
100
AcDbLine
 10
7.140471135894026
 20
-30.85628567362109
 30
0.0
 11
9.19108080133501
 21
-32.04020571596631
 31
0.0
  0
LINE
  5
E1EE
330
E190
100
AcDbEntity
  8
0
100
AcDbLine
 10
49.77901004144285
 20
174.696728574934
 30
0.0
 11
48.71834986966303
 21
174.0843561392382
 31
0.0
  0
LINE
  5
E1EF
330
E190
100
AcDbEntity
  8
0
100
AcDbLine
 10
8.201131307673845
 20
198.7017280542091
 30
0.0
 11
7.140471135894026
 21
198.0893556185133
 31
0.0
  0
LINE
  5
E1F0
330
E190
100
AcDbEntity
  8
0
100
AcDbLine
 10
5.231282826690342
 20
198.7017280542091
 30
0.0
 11
6.291942998470165
 21
198.0893556185133
 31
0.0
  0
LINE
  5
E1F1
330
E190
100
AcDbEntity
  8
0
100
AcDbLine
 10
7.140471135894026
 20
198.0893556185133
 30
0.0
 11
48.71834986966303
 21
174.0843561392382
 31
0.0
  0
LINE
  5
E1F2
330
E190
100
AcDbEntity
  8
0
100
AcDbLine
 10
-19.44674383672016
 20
-45.7165234465057
 30
0.0
 11
6.291942998470165
 21
-30.85628567362109
 31
0.0
  0
LINE
  5
E1F3
330
E190
100
AcDbEntity
  8
0
100
AcDbLine
 10
-19.44674383672016
 20
183.2291178456287
 30
0.0
 11
6.291942998470165
 21
198.0893556185133
 31
0.0
  0
LINE
  5
E1F4
330
E190
100
AcDbEntity
  8
0
100
AcDbLine
 10
24.04032320625247
 20
-70.82379331003327
 30
0.0
 11
20.50478930031973
 21
-68.78255185771394
 31
0.0
  0
LINE
  5
E1F5
330
E190
100
AcDbEntity
  8
0
100
AcDbLine
 10
20.50478930031973
 20
-68.78255185771394
 30
0.0
 11
19.44412912853991
 21
-68.17017942201815
 31
0.0
  0
LINE
  5
E1F6
330
E190
100
AcDbEntity
  8
0
100
AcDbLine
 10
19.44412912853991
 20
152.610496060839
 30
0.0
 11
20.50478930031973
 21
151.9981236251432
 31
0.0
  0
LINE
  5
E1F7
330
E190
100
AcDbEntity
  8
0
100
AcDbLine
 10
20.50478930031973
 20
151.9981236251432
 30
0.0
 11
24.04032320625248
 21
158.1218479821012
 31
0.0
  0
LINE
  5
E1F8
330
E190
100
AcDbEntity
  8
0
100
AcDbLine
 10
-19.44674383672016
 20
-45.7165234465057
 30
0.0
 11
-22.9822777426529
 21
-43.67528199418639
 31
0.0
  0
LINE
  5
E1F9
330
E190
100
AcDbEntity
  8
0
100
AcDbLine
 10
-22.9822777426529
 20
-43.67528199418639
 30
0.0
 11
-24.04293791443273
 21
-43.0629095584906
 31
0.0
  0
LINE
  5
E1FA
330
E190
100
AcDbEntity
  8
0
100
AcDbLine
 10
-20.50740400849999
 20
183.8414902813244
 30
0.0
 11
-24.04293791443273
 21
177.7177659243666
 31
0.0
  0
LINE
  5
E1FB
330
E190
100
AcDbEntity
  8
0
100
AcDbLine
 10
-24.04293791443273
 20
177.7177659243666
 30
0.0
 11
-22.9822777426529
 21
177.1053934886707
 31
0.0
  0
LINE
  5
E1FC
330
E190
100
AcDbEntity
  8
0
100
AcDbLine
 10
24.04032320625248
 20
158.1218479821012
 30
0.0
 11
22.97966303447265
 21
158.7342204177969
 31
0.0
  0
LINE
  5
E1FD
330
E190
100
AcDbEntity
  8
0
100
AcDbLine
 10
22.97966303447265
 20
158.7342204177969
 30
0.0
 11
19.44412912853991
 21
152.610496060839
 31
0.0
  0
LINE
  5
E1FE
330
E190
100
AcDbEntity
  8
0
100
AcDbLine
 10
-22.9822777426529
 20
177.1053934886707
 30
0.0
 11
-19.44674383672016
 21
183.2291178456287
 31
0.0
  0
LINE
  5
E1FF
330
E190
100
AcDbEntity
  8
0
100
AcDbLine
 10
-19.44674383672016
 20
183.2291178456287
 30
0.0
 11
-20.50740400849999
 21
183.8414902813244
 31
0.0
  0
LINE
  5
E200
330
E190
100
AcDbEntity
  8
0
100
AcDbLine
 10
-6.720989958401668
 20
-177.333825504095
 30
0.0
 11
-6.72098995840165
 21
-171.5603228121987
 31
0.0
  0
LINE
  5
E201
330
E190
100
AcDbEntity
  8
0
100
AcDbLine
 10
-6.72098995840165
 20
-171.5603228121987
 30
0.0
 11
-7.781650130181461
 21
-170.9479503765029
 31
0.0
  0
LINE
  5
E202
330
E190
100
AcDbEntity
  8
0
100
AcDbLine
 10
-7.781650130181461
 20
-170.9479503765029
 30
0.0
 11
-7.78165013018147
 21
-176.7214530683992
 31
0.0
  0
LINE
  5
E203
330
E190
100
AcDbEntity
  8
0
100
AcDbLine
 10
-7.78165013018147
 20
-176.7214530683992
 30
0.0
 11
-6.720989958401668
 21
-177.333825504095
 31
0.0
  0
LINE
  5
E204
330
E190
100
AcDbEntity
  8
0
100
AcDbLine
 10
-51.26871717315413
 20
-145.8406805129754
 30
0.0
 11
-51.26871717315411
 21
-151.6141832048717
 31
0.0
  0
LINE
  5
E205
330
E190
100
AcDbEntity
  8
0
100
AcDbLine
 10
-51.26871717315411
 20
-151.6141832048717
 30
0.0
 11
-50.20805700137431
 21
-152.2265556405674
 31
0.0
  0
LINE
  5
E206
330
E190
100
AcDbEntity
  8
0
100
AcDbLine
 10
-50.20805700137431
 20
-152.2265556405674
 30
0.0
 11
-50.20805700137431
 21
-146.4530529486711
 31
0.0
  0
LINE
  5
E207
330
E190
100
AcDbEntity
  8
0
100
AcDbLine
 10
-50.20805700137431
 20
-146.4530529486711
 30
0.0
 11
-51.26871717315413
 21
-145.8406805129754
 31
0.0
  0
ELLIPSE
  5
E208
330
E190
100
AcDbEntity
  8
0
100
AcDbEllipse
 10
26.16164354981221
 20
152.8962698641636
 30
0.0
 11
1.250000000000128
 21
2.165063509461023
 31
0.0
210
0.0
220
0.0
230
0.9999999999999998
 40
0.5773502691896258
 41
0.0
 42
6.283185307179586
  0
ELLIPSE
  5
E209
330
E190
100
AcDbEntity
  8
0
100
AcDbEllipse
 10
26.16164354981221
 20
136.5663382456091
 30
0.0
 11
1.250000000000128
 21
2.165063509461023
 31
0.0
210
0.0
220
0.0
230
0.9999999999999998
 40
0.5773502691896258
 41
0.0
 42
6.283185307179586
  0
ELLIPSE
  5
E20A
330
E190
100
AcDbEntity
  8
0
100
AcDbEllipse
 10
26.16164354981221
 20
120.2364066270546
 30
0.0
 11
1.250000000000128
 21
2.165063509461023
 31
0.0
210
0.0
220
0.0
230
0.9999999999999998
 40
0.5773502691896258
 41
0.0
 42
6.283185307179586
  0
ELLIPSE
  5
E20B
330
E190
100
AcDbEntity
  8
0
100
AcDbEllipse
 10
26.16164354981221
 20
103.9064750085
 30
0.0
 11
1.250000000000128
 21
2.165063509461023
 31
0.0
210
0.0
220
0.0
230
0.9999999999999998
 40
0.5773502691896258
 41
0.0
 42
6.283185307179586
  0
ELLIPSE
  5
E20C
330
E190
100
AcDbEntity
  8
0
100
AcDbEllipse
 10
26.16164354981221
 20
87.57654338994553
 30
0.0
 11
1.250000000000128
 21
2.165063509461023
 31
0.0
210
0.0
220
0.0
230
0.9999999999999998
 40
0.5773502691896258
 41
0.0
 42
6.283185307179586
  0
ELLIPSE
  5
E20D
330
E190
100
AcDbEntity
  8
0
100
AcDbEllipse
 10
26.16164354981221
 20
71.24661177139102
 30
0.0
 11
1.250000000000128
 21
2.165063509461023
 31
0.0
210
0.0
220
0.0
230
0.9999999999999998
 40
0.5773502691896258
 41
0.0
 42
6.283185307179586
  0
ELLIPSE
  5
E20E
330
E190
100
AcDbEntity
  8
0
100
AcDbEllipse
 10
26.16164354981221
 20
54.91668015283649
 30
0.0
 11
1.250000000000128
 21
2.165063509461023
 31
0.0
210
0.0
220
0.0
230
0.9999999999999998
 40
0.5773502691896258
 41
0.0
 42
6.283185307179586
  0
ELLIPSE
  5
E20F
330
E190
100
AcDbEntity
  8
0
100
AcDbEllipse
 10
26.16164354981221
 20
38.58674853428198
 30
0.0
 11
1.250000000000128
 21
2.165063509461023
 31
0.0
210
0.0
220
0.0
230
0.9999999999999998
 40
0.5773502691896258
 41
0.0
 42
6.283185307179586
  0
ELLIPSE
  5
E210
330
E190
100
AcDbEntity
  8
0
100
AcDbEllipse
 10
26.16164354981221
 20
22.25681691572745
 30
0.0
 11
1.250000000000128
 21
2.165063509461023
 31
0.0
210
0.0
220
0.0
230
0.9999999999999998
 40
0.5773502691896258
 41
0.0
 42
6.283185307179586
  0
ELLIPSE
  5
E211
330
E190
100
AcDbEntity
  8
0
100
AcDbEllipse
 10
26.16164354981221
 20
5.92688529717293
 30
0.0
 11
1.250000000000128
 21
2.165063509461023
 31
0.0
210
0.0
220
0.0
230
0.9999999999999998
 40
0.5773502691896258
 41
0.0
 42
6.283185307179586
  0
ELLIPSE
  5
E212
330
E190
100
AcDbEntity
  8
0
100
AcDbEllipse
 10
26.16164354981221
 20
-10.40304632138159
 30
0.0
 11
1.250000000000128
 21
2.165063509461023
 31
0.0
210
0.0
220
0.0
230
0.9999999999999998
 40
0.5773502691896258
 41
0.0
 42
6.283185307179586
  0
ELLIPSE
  5
E213
330
E190
100
AcDbEntity
  8
0
100
AcDbEllipse
 10
26.16164354981221
 20
-26.73297793993612
 30
0.0
 11
1.250000000000128
 21
2.165063509461023
 31
0.0
210
0.0
220
0.0
230
0.9999999999999998
 40
0.5773502691896258
 41
0.0
 42
6.283185307179586
  0
ELLIPSE
  5
E214
330
E190
100
AcDbEntity
  8
0
100
AcDbEllipse
 10
26.16164354981221
 20
-43.06290955849064
 30
0.0
 11
1.250000000000128
 21
2.165063509461023
 31
0.0
210
0.0
220
0.0
230
0.9999999999999998
 40
0.5773502691896258
 41
0.0
 42
6.283185307179586
  0
ELLIPSE
  5
E215
330
E190
100
AcDbEntity
  8
0
100
AcDbEllipse
 10
25.10098337803238
 20
153.5086422998594
 30
0.0
 11
1.249999999999872
 21
2.16506350946117
 31
0.0
210
0.0
220
0.0
230
1.0
 40
0.577350269189627
 41
3.579741684173544
 42
5.845036276594988
  0
ELLIPSE
  5
E216
330
E190
100
AcDbEntity
  8
0
100
AcDbEllipse
 10
25.10098337803238
 20
137.1787106813049
 30
0.0
 11
1.249999999999872
 21
2.16506350946117
 31
0.0
210
0.0
220
0.0
230
1.0
 40
0.577350269189627
 41
3.579741684173544
 42
5.845036276594988
  0
ELLIPSE
  5
E217
330
E190
100
AcDbEntity
  8
0
100
AcDbEllipse
 10
25.10098337803238
 20
120.8487790627504
 30
0.0
 11
1.249999999999871
 21
2.165063509461171
 31
0.0
210
0.0
220
0.0
230
0.9999999999999998
 40
0.5773502691896269
 41
3.579741684173539
 42
5.845036276595005
  0
ELLIPSE
  5
E218
330
E190
100
AcDbEntity
  8
0
100
AcDbEllipse
 10
25.10098337803238
 20
104.5188474441959
 30
0.0
 11
1.249999999999871
 21
2.165063509461171
 31
0.0
210
0.0
220
0.0
230
0.9999999999999998
 40
0.5773502691896269
 41
3.579741684173539
 42
5.845036276595005
  0
ELLIPSE
  5
E219
330
E190
100
AcDbEntity
  8
0
100
AcDbEllipse
 10
25.10098337803238
 20
88.18891582564136
 30
0.0
 11
1.249999999999871
 21
2.165063509461171
 31
0.0
210
0.0
220
0.0
230
0.9999999999999998
 40
0.5773502691896269
 41
3.579741684173539
 42
5.845036276595005
  0
ELLIPSE
  5
E21A
330
E190
100
AcDbEntity
  8
0
100
AcDbEllipse
 10
25.10098337803238
 20
71.85898420708683
 30
0.0
 11
1.249999999999871
 21
2.165063509461171
 31
0.0
210
0.0
220
0.0
230
0.9999999999999998
 40
0.5773502691896269
 41
3.579741684173539
 42
5.845036276594994
  0
ELLIPSE
  5
E21B
330
E190
100
AcDbEntity
  8
0
100
AcDbEllipse
 10
25.10098337803238
 20
55.52905258853231
 30
0.0
 11
1.249999999999871
 21
2.165063509461171
 31
0.0
210
0.0
220
0.0
230
0.9999999999999998
 40
0.5773502691896269
 41
3.579741684173539
 42
5.845036276594994
  0
ELLIPSE
  5
E21C
330
E190
100
AcDbEntity
  8
0
100
AcDbEllipse
 10
25.10098337803238
 20
39.19912096997779
 30
0.0
 11
1.249999999999871
 21
2.165063509461171
 31
0.0
210
0.0
220
0.0
230
0.9999999999999998
 40
0.5773502691896269
 41
3.579741684173539
 42
5.845036276594994
  0
ELLIPSE
  5
E21D
330
E190
100
AcDbEntity
  8
0
100
AcDbEllipse
 10
25.10098337803238
 20
22.86918935142326
 30
0.0
 11
1.249999999999871
 21
2.165063509461171
 31
0.0
210
0.0
220
0.0
230
0.9999999999999998
 40
0.5773502691896269
 41
3.579741684173539
 42
5.845036276594994
  0
ELLIPSE
  5
E21E
330
E190
100
AcDbEntity
  8
0
100
AcDbEllipse
 10
25.10098337803238
 20
6.539257732868737
 30
0.0
 11
1.249999999999871
 21
2.165063509461171
 31
0.0
210
0.0
220
0.0
230
0.9999999999999998
 40
0.5773502691896269
 41
3.579741684173537
 42
5.845036276594994
  0
ELLIPSE
  5
E21F
330
E190
100
AcDbEntity
  8
0
100
AcDbEllipse
 10
25.10098337803238
 20
-9.790673885685787
 30
0.0
 11
1.249999999999871
 21
2.16506350946117
 31
0.0
210
0.0
220
0.0
230
1.0
 40
0.577350269189627
 41
3.579741684173544
 42
5.845036276594997
  0
ELLIPSE
  5
E220
330
E190
100
AcDbEntity
  8
0
100
AcDbEllipse
 10
25.10098337803238
 20
-26.12060550424031
 30
0.0
 11
1.249999999999871
 21
2.16506350946117
 31
0.0
210
0.0
220
0.0
230
1.0
 40
0.577350269189627
 41
3.579741684173544
 42
5.845036276594997
  0
ELLIPSE
  5
E221
330
E190
100
AcDbEntity
  8
0
100
AcDbEllipse
 10
25.10098337803238
 20
-42.45053712279484
 30
0.0
 11
1.249999999999871
 21
2.16506350946117
 31
0.0
210
0.0
220
0.0
230
1.0
 40
0.577350269189627
 41
3.579741684173544
 42
5.845036276594997
  0
ELLIPSE
  5
E222
330
E190
100
AcDbEntity
  8
0
100
AcDbEllipse
 10
26.16164354981221
 20
-59.39284117704517
 30
0.0
 11
1.250000000000128
 21
2.165063509461023
 31
0.0
210
0.0
220
0.0
230
0.9999999999999998
 40
0.5773502691896258
 41
0.0
 42
6.283185307179586
  0
ELLIPSE
  5
E223
330
E190
100
AcDbEntity
  8
0
100
AcDbEllipse
 10
25.10098337803238
 20
-58.78046874134938
 30
0.0
 11
1.249999999999871
 21
2.16506350946117
 31
0.0
210
0.0
220
0.0
230
1.0
 40
0.577350269189627
 41
3.579741684173544
 42
5.845036276594997
  0
LINE
  5
E224
330
E190
100
AcDbEntity
  8
0
100
AcDbLine
 10
49.77901004144285
 20
-55.96355553714866
 30
0.0
 11
49.77901004144285
 21
172.9820857549857
 31
0.0
  0
ELLIPSE
  5
E225
330
E190
100
AcDbEntity
  8
0
100
AcDbEllipse
 10
48.29408580095109
 20
173.8394071649598
 30
0.0
 11
0.6000000000000049
 21
0.0
 31
0.0
210
0.0
220
0.0
230
1.0
 40
0.5773502691896259
 41
5.497787143782145
 42
7.068583470577037
  0
LINE
  5
E226
330
E190
100
AcDbEntity
  8
0
100
AcDbLine
 10
48.71834986966303
 20
174.0843561392382
 30
0.0
 11
48.71834986966303
 21
173.5944581906815
 31
0.0
  0
ELLIPSE
  5
E227
330
E190
100
AcDbEntity
  8
0
100
AcDbEllipse
 10
48.29408580095109
 20
173.8394071649598
 30
0.0
 11
2.100000000000003
 21
0.0000000000000003
 31
0.0
210
0.0
220
0.0
230
1.0
 40
0.577350269189626
 41
5.497787143782138
 42
7.06858347057703
  0
ELLIPSE
  5
E228
330
E190
100
AcDbEntity
  8
0
100
AcDbEllipse
 10
48.29408580095109
 20
-55.10623412717456
 30
0.0
 11
2.099999999999999
 21
0.0000000000000002
 31
0.0
210
0.0
220
0.0
230
1.0
 40
0.5773502691896259
 41
5.497787143782136
 42
6.283185307179585
  0
LINE
  5
E229
330
E190
100
AcDbEntity
  8
0
100
AcDbLine
 10
7.140471135894026
 20
198.0893556185133
 30
0.0
 11
7.140471135894026
 21
-30.85628567362107
 31
0.0
  0
ELLIPSE
  5
E22A
330
E190
100
AcDbEntity
  8
0
100
AcDbEllipse
 10
6.716207067182091
 20
197.844406644235
 30
0.0
 11
0.6000000000000006
 21
-0.0000000000000358
 31
0.0
210
0.0
220
0.0
230
1.0
 40
0.577350269189626
 41
0.785398163397657
 42
2.356194490192537
  0
LINE
  5
E22B
330
E190
100
AcDbEntity
  8
0
100
AcDbLine
 10
6.291942998470165
 20
198.0893556185133
 30
0.0
 11
6.291942998470165
 21
-30.85628567362107
 31
0.0
  0
ELLIPSE
  5
E22C
330
E190
100
AcDbEntity
  8
0
100
AcDbEllipse
 10
6.716207067182091
 20
-31.1012346478994
 30
0.0
 11
0.6000000000000006
 21
-0.0000000000000358
 31
0.0
210
0.0
220
0.0
230
1.0
 40
0.577350269189626
 41
0.7853981633976792
 42
2.356194490192587
  0
ELLIPSE
  5
E22D
330
E190
100
AcDbEntity
  8
0
100
AcDbEllipse
 10
6.716207067182091
 20
197.844406644235
 30
0.0
 11
-2.099999999999999
 21
-0.000000000000125
 31
0.0
210
0.0
220
0.0
230
1.0
 40
0.5773502691896259
 41
3.926990816986993
 42
5.497787143781891
  0
LINE
  5
E22E
330
E190
100
AcDbEntity
  8
0
100
AcDbLine
 10
50.39408580095109
 20
173.8394071649598
 30
0.0
 11
50.39408580095109
 21
-55.10623412717457
 31
0.0
  0
ELLIPSE
  5
E22F
330
E190
100
AcDbEntity
  8
0
100
AcDbEllipse
 10
-18.38608366494034
 20
174.5334292587483
 30
0.0
 11
1.24999999999987
 21
2.165063509461171
 31
0.0
210
0.0
220
0.0
230
0.9999999999999998
 40
0.5773502691896259
 41
3.57974168417355
 42
5.845036276595004
  0
ELLIPSE
  5
E230
330
E190
100
AcDbEntity
  8
0
100
AcDbEllipse
 10
-18.38608366494034
 20
158.2034976401938
 30
0.0
 11
1.24999999999987
 21
2.165063509461171
 31
0.0
210
0.0
220
0.0
230
0.9999999999999998
 40
0.5773502691896259
 41
3.579741684173546
 42
5.845036276594985
  0
ELLIPSE
  5
E231
330
E190
100
AcDbEntity
  8
0
100
AcDbEllipse
 10
-18.38608366494034
 20
141.8735660216393
 30
0.0
 11
1.24999999999987
 21
2.165063509461172
 31
0.0
210
0.0
220
0.0
230
0.9999999999999998
 40
0.5773502691896258
 41
3.579741684173541
 42
5.845036276595003
  0
ELLIPSE
  5
E232
330
E190
100
AcDbEntity
  8
0
100
AcDbEllipse
 10
-18.38608366494034
 20
125.5436344030848
 30
0.0
 11
1.24999999999987
 21
2.165063509461172
 31
0.0
210
0.0
220
0.0
230
0.9999999999999998
 40
0.5773502691896258
 41
3.579741684173541
 42
5.845036276595003
  0
ELLIPSE
  5
E233
330
E190
100
AcDbEntity
  8
0
100
AcDbEllipse
 10
-18.38608366494034
 20
109.2137027845303
 30
0.0
 11
1.24999999999987
 21
2.165063509461172
 31
0.0
210
0.0
220
0.0
230
0.9999999999999998
 40
0.5773502691896258
 41
3.579741684173541
 42
5.845036276595003
  0
ELLIPSE
  5
E234
330
E190
100
AcDbEntity
  8
0
100
AcDbEllipse
 10
-18.38608366494034
 20
92.88377116597578
 30
0.0
 11
1.24999999999987
 21
2.165063509461172
 31
0.0
210
0.0
220
0.0
230
0.9999999999999998
 40
0.5773502691896258
 41
3.579741684173541
 42
5.845036276595003
  0
ELLIPSE
  5
E235
330
E190
100
AcDbEntity
  8
0
100
AcDbEllipse
 10
-18.38608366494034
 20
76.55383954742126
 30
0.0
 11
1.24999999999987
 21
2.165063509461172
 31
0.0
210
0.0
220
0.0
230
0.9999999999999998
 40
0.5773502691896258
 41
3.579741684173541
 42
5.845036276594996
  0
ELLIPSE
  5
E236
330
E190
100
AcDbEntity
  8
0
100
AcDbEllipse
 10
-18.38608366494034
 20
60.22390792886674
 30
0.0
 11
1.24999999999987
 21
2.165063509461172
 31
0.0
210
0.0
220
0.0
230
0.9999999999999998
 40
0.5773502691896258
 41
3.579741684173541
 42
5.845036276594996
  0
ELLIPSE
  5
E237
330
E190
100
AcDbEntity
  8
0
100
AcDbEllipse
 10
-18.38608366494034
 20
43.89397631031222
 30
0.0
 11
1.24999999999987
 21
2.165063509461172
 31
0.0
210
0.0
220
0.0
230
0.9999999999999998
 40
0.5773502691896258
 41
3.579741684173541
 42
5.845036276594996
  0
ELLIPSE
  5
E238
330
E190
100
AcDbEntity
  8
0
100
AcDbEllipse
 10
-18.38608366494034
 20
27.5640446917577
 30
0.0
 11
1.24999999999987
 21
2.165063509461172
 31
0.0
210
0.0
220
0.0
230
0.9999999999999998
 40
0.5773502691896258
 41
3.579741684173541
 42
5.845036276594996
  0
ELLIPSE
  5
E239
330
E190
100
AcDbEntity
  8
0
100
AcDbEllipse
 10
-18.38608366494034
 20
11.23411307320317
 30
0.0
 11
1.24999999999987
 21
2.165063509461172
 31
0.0
210
0.0
220
0.0
230
0.9999999999999998
 40
0.5773502691896257
 41
3.579741684173544
 42
5.845036276594997
  0
ELLIPSE
  5
E23A
330
E190
100
AcDbEntity
  8
0
100
AcDbEllipse
 10
-18.38608366494034
 20
-5.095818545351349
 30
0.0
 11
1.24999999999987
 21
2.165063509461172
 31
0.0
210
0.0
220
0.0
230
0.9999999999999998
 40
0.5773502691896257
 41
3.579741684173544
 42
5.845036276594997
  0
ELLIPSE
  5
E23B
330
E190
100
AcDbEntity
  8
0
100
AcDbEllipse
 10
-18.38608366494034
 20
-21.42575016390587
 30
0.0
 11
1.24999999999987
 21
2.165063509461172
 31
0.0
210
0.0
220
0.0
230
0.9999999999999998
 40
0.5773502691896257
 41
3.579741684173544
 42
5.845036276594997
  0
ELLIPSE
  5
E23C
330
E190
100
AcDbEntity
  8
0
100
AcDbEllipse
 10
-17.32542349316052
 20
173.9210568230525
 30
0.0
 11
1.250000000000128
 21
2.165063509461023
 31
0.0
210
0.0
220
0.0
230
0.9999999999999998
 40
0.5773502691896258
 41
0.0
 42
6.283185307179586
  0
ELLIPSE
  5
E23D
330
E190
100
AcDbEntity
  8
0
100
AcDbEllipse
 10
-17.32542349316052
 20
157.591125204498
 30
0.0
 11
1.250000000000128
 21
2.165063509461023
 31
0.0
210
0.0
220
0.0
230
0.9999999999999998
 40
0.5773502691896258
 41
0.0
 42
6.283185307179586
  0
ELLIPSE
  5
E23E
330
E190
100
AcDbEntity
  8
0
100
AcDbEllipse
 10
-17.32542349316052
 20
141.2611935859436
 30
0.0
 11
1.250000000000128
 21
2.165063509461023
 31
0.0
210
0.0
220
0.0
230
0.9999999999999998
 40
0.5773502691896258
 41
0.0
 42
6.283185307179586
  0
ELLIPSE
  5
E23F
330
E190
100
AcDbEntity
  8
0
100
AcDbEllipse
 10
-17.32542349316052
 20
124.931261967389
 30
0.0
 11
1.250000000000128
 21
2.165063509461023
 31
0.0
210
0.0
220
0.0
230
0.9999999999999998
 40
0.5773502691896258
 41
0.0
 42
6.283185307179586
  0
ELLIPSE
  5
E240
330
E190
100
AcDbEntity
  8
0
100
AcDbEllipse
 10
-17.32542349316052
 20
108.6013303488345
 30
0.0
 11
1.250000000000128
 21
2.165063509461023
 31
0.0
210
0.0
220
0.0
230
0.9999999999999998
 40
0.5773502691896258
 41
0.0
 42
6.283185307179586
  0
ELLIPSE
  5
E241
330
E190
100
AcDbEntity
  8
0
100
AcDbEllipse
 10
-17.32542349316052
 20
92.27139873027999
 30
0.0
 11
1.250000000000128
 21
2.165063509461023
 31
0.0
210
0.0
220
0.0
230
0.9999999999999998
 40
0.5773502691896258
 41
0.0
 42
6.283185307179586
  0
ELLIPSE
  5
E242
330
E190
100
AcDbEntity
  8
0
100
AcDbEllipse
 10
-17.32542349316052
 20
75.94146711172547
 30
0.0
 11
1.250000000000128
 21
2.165063509461023
 31
0.0
210
0.0
220
0.0
230
0.9999999999999998
 40
0.5773502691896258
 41
0.0
 42
6.283185307179586
  0
ELLIPSE
  5
E243
330
E190
100
AcDbEntity
  8
0
100
AcDbEllipse
 10
-17.32542349316052
 20
59.61153549317095
 30
0.0
 11
1.250000000000128
 21
2.165063509461023
 31
0.0
210
0.0
220
0.0
230
0.9999999999999998
 40
0.5773502691896258
 41
0.0
 42
6.283185307179586
  0
ELLIPSE
  5
E244
330
E190
100
AcDbEntity
  8
0
100
AcDbEllipse
 10
-17.32542349316052
 20
43.28160387461642
 30
0.0
 11
1.250000000000128
 21
2.165063509461023
 31
0.0
210
0.0
220
0.0
230
0.9999999999999998
 40
0.5773502691896258
 41
0.0
 42
6.283185307179586
  0
ELLIPSE
  5
E245
330
E190
100
AcDbEntity
  8
0
100
AcDbEllipse
 10
-17.32542349316052
 20
26.95167225606189
 30
0.0
 11
1.250000000000128
 21
2.165063509461023
 31
0.0
210
0.0
220
0.0
230
0.9999999999999998
 40
0.5773502691896258
 41
0.0
 42
6.283185307179586
  0
ELLIPSE
  5
E246
330
E190
100
AcDbEntity
  8
0
100
AcDbEllipse
 10
-17.32542349316052
 20
10.62174063750737
 30
0.0
 11
1.250000000000128
 21
2.165063509461023
 31
0.0
210
0.0
220
0.0
230
0.9999999999999998
 40
0.5773502691896258
 41
0.0
 42
6.283185307179586
  0
ELLIPSE
  5
E247
330
E190
100
AcDbEntity
  8
0
100
AcDbEllipse
 10
-17.32542349316052
 20
-5.708190981047156
 30
0.0
 11
1.250000000000128
 21
2.165063509461023
 31
0.0
210
0.0
220
0.0
230
0.9999999999999998
 40
0.5773502691896258
 41
0.0
 42
6.283185307179586
  0
ELLIPSE
  5
E248
330
E190
100
AcDbEntity
  8
0
100
AcDbEllipse
 10
-17.32542349316052
 20
-22.03812259960168
 30
0.0
 11
1.250000000000128
 21
2.165063509461023
 31
0.0
210
0.0
220
0.0
230
0.9999999999999998
 40
0.5773502691896258
 41
0.0
 42
6.283185307179586
  0
ELLIPSE
  5
E249
330
E190
100
AcDbEntity
  8
0
100
AcDbEllipse
 10
-18.38608366494034
 20
-37.75568178246041
 30
0.0
 11
1.24999999999987
 21
2.165063509461172
 31
0.0
210
0.0
220
0.0
230
0.9999999999999998
 40
0.5773502691896257
 41
3.579741684173544
 42
5.845036276594996
  0
ELLIPSE
  5
E24A
330
E190
100
AcDbEntity
  8
0
100
AcDbEllipse
 10
-17.32542349316052
 20
-38.3680542181562
 30
0.0
 11
1.250000000000128
 21
2.165063509461023
 31
0.0
210
0.0
220
0.0
230
0.9999999999999998
 40
0.5773502691896258
 41
0.0
 42
6.283185307179586
  0
LINE
  5
E24B
330
E190
100
AcDbEntity
  8
0
100
AcDbLine
 10
6.77901004100859
 20
-148.1776369117148
 30
0.0
 11
-6.72098995840165
 21
-171.5603228121987
 31
0.0
  0
LINE
  5
E24C
330
E190
100
AcDbEntity
  8
0
100
AcDbLine
 10
5.718349869228589
 20
-147.5652644760189
 30
0.0
 11
-7.781650130181461
 21
-170.9479503765029
 31
0.0
  0
LINE
  5
E24D
330
E190
100
AcDbEntity
  8
0
100
AcDbLine
 10
11.47901004144285
 20
-187.8416004032564
 30
0.0
 11
48.179010040655
 21
-124.2753357668432
 31
0.0
  0
LINE
  5
E24E
330
E190
100
AcDbEntity
  8
0
100
AcDbLine
 10
46.86982173144804
 20
-123.8064511181959
 30
0.0
 11
47.85763108084126
 21
-122.0955151368553
 31
0.0
  0
LINE
  5
E24F
330
E190
100
AcDbEntity
  8
0
100
AcDbLine
 10
11.81273914889851
 20
-188.0342789932822
 30
0.0
 11
11.47901004144296
 21
-187.8416004032563
 31
0.0
  0
LINE
  5
E250
330
E190
100
AcDbEntity
  8
0
100
AcDbLine
 10
48.85109911796096
 20
-123.8819576978408
 30
0.0
 11
11.81273914889851
 21
-188.0342789932822
 31
0.0
  0
LINE
  5
E251
330
E190
100
AcDbEntity
  8
0
100
AcDbLine
 10
6.77901004100859
 20
-148.1776369117148
 30
0.0
 11
5.718349869228589
 21
-147.5652644760189
 31
0.0
  0
LINE
  5
E252
330
E190
100
AcDbEntity
  8
0
100
AcDbLine
 10
48.179010040655
 20
-124.2753357668432
 30
0.0
 11
6.779010041008586
 21
-148.1776369117148
 31
0.0
  0
LINE
  5
E253
330
E190
100
AcDbEntity
  8
0
100
AcDbLine
 10
-37.76871717374559
 20
-122.4579946124905
 30
0.0
 11
3.631282825902464
 21
-98.55569346761983
 31
0.0
  0
ELLIPSE
  5
E254
330
E190
100
AcDbEntity
  8
0
100
AcDbEllipse
 10
9.38378434324135
 20
-97.44985470127666
 30
0.0
 11
-0.7499999999999993
 21
-1.299038105676659
 31
0.0
210
0.0
220
0.0
230
1.0
 40
0.8164965809277259
 41
0.0
 42
1.134458255166903
  0
LINE
  5
E255
330
E190
100
AcDbEntity
  8
0
100
AcDbLine
 10
8.633784343241362
 20
-98.74889280695329
 30
0.0
 11
7.012278653031707
 21
-97.81271606021824
 31
0.0
  0
LINE
  5
E256
330
E190
100
AcDbEntity
  8
0
100
AcDbLine
 10
7.012278653031707
 20
-97.81271606021824
 30
0.0
 11
6.279752347072267
 21
-98.09051565758013
 31
0.0
  0
LINE
  5
E257
330
E190
100
AcDbEntity
  8
0
100
AcDbLine
 10
47.85763108084126
 20
-122.0955151368553
 30
0.0
 11
47.73194943633803
 21
-121.3222289482731
 31
0.0
  0
LINE
  5
E258
330
E190
100
AcDbEntity
  8
0
100
AcDbLine
 10
47.73194943633803
 20
-121.3222289482731
 30
0.0
 11
46.11044374612839
 21
-120.386052201538
 31
0.0
  0
ELLIPSE
  5
E259
330
E190
100
AcDbEntity
  8
0
100
AcDbEllipse
 10
46.86044374612837
 20
-119.0870140958613
 30
0.0
 11
-0.7499999999999999
 21
-1.299038105676659
 31
0.0
210
0.0
220
0.0
230
1.0
 40
0.8164965809277259
 41
5.148727052012677
 42
6.283185307179575
  0
SPLINE
  5
E25A
330
E190
100
AcDbEntity
  8
0
100
AcDbSpline
210
0.0
220
0.0
230
1.0
 70
     8
 71
     3
 72
     8
 73
     4
 74
     0
 42
0.000000001
 43
0.0000000001
 40
-1.0
 40
-1.0
 40
-1.0
 40
-1.0
 40
0.0
 40
0.0
 40
0.0
 40
0.0
 10
10.23924090852608
 20
-98.1858601722266
 30
0.0
 10
10.27117232350696
 20
-98.33419162856815
 30
0.0
 10
10.18921031089728
 20
-98.47839872803834
 30
0.0
 10
10.02809872436007
 20
-98.55385512391769
 30
0.0
  0
SPLINE
  5
E25B
330
E190
100
AcDbEntity
  8
0
100
AcDbSpline
210
0.0
220
0.0
230
1.0
 70
     8
 71
     3
 72
     8
 73
     4
 74
     0
 42
0.000000001
 43
0.0000000001
 40
-1.0
 40
-1.0
 40
-1.0
 40
-1.0
 40
0.0
 40
0.0
 40
0.0
 40
0.0
 10
45.58219414377306
 20
-119.0810216851094
 30
0.0
 10
45.56698550621506
 20
-118.9037667603851
 30
0.0
 10
45.58764868204936
 20
-118.7241687610016
 30
0.0
 10
45.61958009703092
 20
-118.6127085267301
 30
0.0
  0
LINE
  5
E25C
330
E190
100
AcDbEntity
  8
0
100
AcDbLine
 10
-36.70805700196559
 20
-123.0703670481864
 30
0.0
 11
-37.76871717374559
 21
-122.4579946124905
 31
0.0
  0
LINE
  5
E25D
330
E190
100
AcDbEntity
  8
0
100
AcDbLine
 10
4.69194299768227
 20
-99.16806590331562
 30
0.0
 11
-36.70805700196559
 21
-123.0703670481864
 31
0.0
  0
LINE
  5
E25E
330
E190
100
AcDbEntity
  8
0
100
AcDbLine
 10
4.69194299768227
 20
-99.16806590331562
 30
0.0
 11
4.338743160480746
 21
-98.96414588222951
 31
0.0
  0
LINE
  5
E25F
330
E190
100
AcDbEntity
  8
0
100
AcDbLine
 10
4.338743160480746
 20
-98.96414588222951
 30
0.0
 11
3.631282825902464
 21
-98.55569346761983
 31
0.0
  0
SPLINE
  5
E260
330
E190
100
AcDbEntity
  8
0
100
AcDbSpline
210
0.0
220
0.0
230
1.0
 70
     8
 71
     3
 72
     8
 73
     4
 74
     0
 42
0.000000001
 43
0.0000000001
 40
-1.0
 40
-1.0
 40
-1.0
 40
-1.0
 40
0.0
 40
0.0
 40
0.0
 40
0.0
 10
6.279752347072244
 20
-98.09051565758018
 30
0.0
 10
5.769759773271907
 20
-98.46082877482039
 30
0.0
 10
5.136871057254071
 20
-98.76018777127107
 30
0.0
 10
4.69194299768231
 20
-99.16806590331555
 30
0.0
  0
SPLINE
  5
E261
330
E190
100
AcDbEntity
  8
0
100
AcDbSpline
210
0.0
220
0.0
230
1.0
 70
     8
 71
     3
 72
     8
 73
     4
 74
     0
 42
0.000000001
 43
0.0000000001
 40
0.0
 40
0.0
 40
0.0
 40
0.0
 40
0.608173447969387
 40
0.608173447969387
 40
0.608173447969387
 40
0.608173447969387
 10
3.631282825902499
 20
-98.55569346761976
 30
0.0
 10
4.140705412521712
 20
-98.44552089436184
 30
0.0
 10
4.893454778830559
 20
-98.47583310285788
 30
0.0
 10
5.644787642033342
 20
-98.50532749290444
 30
0.0
  0
ELLIPSE
  5
E262
330
E190
100
AcDbEntity
  8
0
100
AcDbEllipse
 10
9.191080801335008
 20
-97.76818048064818
 30
0.0
 11
0.7499999999999226
 21
-1.299038105676702
 31
0.0
210
0.0
220
0.0
230
0.9999999999999998
 40
0.577350269189626
 41
0.9390757175652577
 42
2.356194490192585
  0
LINE
  5
E263
330
E190
100
AcDbEntity
  8
0
100
AcDbLine
 10
48.179010040655
 20
-124.2753357668432
 30
0.0
 11
47.47154970607765
 21
-123.866883352234
 31
0.0
  0
LINE
  5
E264
330
E190
100
AcDbEntity
  8
0
100
AcDbLine
 10
47.47154970607765
 20
-123.866883352234
 30
0.0
 11
47.11834986887516
 21
-123.6629633311474
 31
0.0
  0
LINE
  5
E265
330
E190
100
AcDbEntity
  8
0
100
AcDbLine
 10
5.718349869228589
 20
-147.5652644760189
 30
0.0
 11
47.11834986887516
 21
-123.6629633311474
 31
0.0
  0
LINE
  5
E266
330
E190
100
AcDbEntity
  8
0
100
AcDbLine
 10
47.85763108084126
 20
-122.0955151368553
 30
0.0
 11
48.10738108084141
 21
-122.2397083665854
 31
0.0
  0
SPLINE
  5
E267
330
E190
100
AcDbEntity
  8
0
100
AcDbSpline
210
0.0
220
0.0
230
1.0
 70
     8
 71
     3
 72
     8
 73
     4
 74
     0
 42
0.000000001
 43
0.0000000001
 40
-1.0
 40
-1.0
 40
-1.0
 40
-1.0
 40
0.0
 40
0.0
 40
0.0
 40
0.0
 10
47.11834986887516
 20
-123.6629633311474
 30
0.0
 10
47.56327792844723
 20
-123.2550851991023
 30
0.0
 10
47.79192680085644
 20
-122.7223382201285
 30
0.0
 10
47.85763108084127
 20
-122.0955151368553
 30
0.0
  0
SPLINE
  5
E268
330
E190
100
AcDbEntity
  8
0
100
AcDbSpline
210
0.0
220
0.0
230
1.0
 70
     8
 71
     3
 72
     8
 73
     4
 74
     0
 42
0.000000001
 43
0.0000000001
 40
0.0
 40
0.0
 40
0.0
 40
0.0
 40
1.0
 40
1.0
 40
1.0
 40
1.0
 10
48.60763108084127
 20
-122.5285278387475
 30
0.0
 10
49.09728716812622
 20
-123.4759883795611
 30
0.0
 10
49.01663718192576
 20
-124.0941825553274
 30
0.0
 10
48.179010040655
 20
-124.2753357668432
 30
0.0
  0
LINE
  5
E269
330
E190
100
AcDbEntity
  8
0
100
AcDbLine
 10
48.10738108084141
 20
-122.2397083665854
 30
0.0
 11
48.60763108084127
 21
-122.5285278387475
 31
0.0
  0
ELLIPSE
  5
E26A
330
E190
100
AcDbEntity
  8
0
100
AcDbEllipse
 10
47.61044374612836
 20
-119.5200267977536
 30
0.0
 11
-0.7499999999999992
 21
-1.299038105676658
 31
0.0
210
0.0
220
0.0
230
0.9999999999999998
 40
0.816496580927726
 41
5.148727052012676
 42
6.283185307179574
  0
LINE
  5
E26B
330
E190
100
AcDbEntity
  8
0
100
AcDbLine
 10
46.33219414377309
 20
-119.5140343870017
 30
0.0
 11
45.83194414467097
 21
-119.2252149153579
 31
0.0
  0
LINE
  5
E26C
330
E190
100
AcDbEntity
  8
0
100
AcDbLine
 10
45.83194414467097
 20
-119.2252149153579
 30
0.0
 11
45.58219414377309
 21
-119.0810216851094
 31
0.0
  0
LINE
  5
E26D
330
E190
100
AcDbEntity
  8
0
100
AcDbLine
 10
47.73194943633803
 20
-121.3222289482731
 30
0.0
 11
48.48194943633803
 21
-121.7552416501653
 31
0.0
  0
LINE
  5
E26E
330
E190
100
AcDbEntity
  8
0
100
AcDbLine
 10
48.48194943633803
 20
-121.7552416501653
 30
0.0
 11
48.60763108084127
 21
-122.5285278387475
 31
0.0
  0
LINE
  5
E26F
330
E190
100
AcDbEntity
  8
0
100
AcDbLine
 10
45.61958009703096
 20
-118.6127085267301
 30
0.0
 11
45.97277993747218
 21
-118.4087885037736
 31
0.0
  0
SPLINE
  5
E270
330
E190
100
AcDbEntity
  8
0
100
AcDbSpline
210
0.0
220
0.0
230
1.0
 70
     8
 71
     3
 72
     8
 73
     4
 74
     0
 42
0.000000001
 43
0.0000000001
 40
0.1302463606542106
 40
0.1302463606542106
 40
0.1302463606542106
 40
0.1302463606542106
 40
1.0
 40
1.0
 40
1.0
 40
1.0
 10
46.66202661189213
 20
-118.1777874700277
 30
0.0
 10
46.60920067610311
 20
-118.5872086974642
 30
0.0
 10
46.47759090198876
 20
-119.0851205326314
 30
0.0
 10
46.33219414377307
 20
-119.5140343870016
 30
0.0
  0
LINE
  5
E271
330
E190
100
AcDbEntity
  8
0
100
AcDbLine
 10
45.97277993747218
 20
-118.4087885037736
 30
0.0
 11
46.50538137417825
 21
-118.1012909209206
 31
0.0
  0
ELLIPSE
  5
E272
330
E190
100
AcDbEntity
  8
0
100
AcDbEllipse
 10
46.66774020422203
 20
-119.4053398752329
 30
0.0
 11
-0.7500000000000002
 21
1.299038105676658
 31
0.0
210
0.0
220
0.0
230
1.0
 40
0.5773502691896258
 41
5.497787143782137
 42
6.91490591640942
  0
LINE
  5
E273
330
E190
100
AcDbEntity
  8
0
100
AcDbLine
 10
11.47901004144285
 20
-187.8416004032564
 30
0.0
 11
-6.720989958401668
 21
-177.333825504095
 31
0.0
  0
LINE
  5
E274
330
E190
100
AcDbEntity
  8
0
100
AcDbLine
 10
-50.20805700137431
 20
-152.2265556405674
 30
0.0
 11
-32.00805700152982
 21
-162.7343305397288
 31
0.0
  0
LINE
  5
E275
330
E190
100
AcDbEntity
  8
0
100
AcDbLine
 10
24.32739027969985
 20
-106.809554952614
 30
0.0
 11
10.02809872436009
 21
-98.55385512391771
 31
0.0
  0
LINE
  5
E276
330
E190
100
AcDbEntity
  8
0
100
AcDbLine
 10
-31.28379293281787
 20
-163.152484594764
 30
0.0
 11
-7.781650130181465
 21
-176.7214530683992
 31
0.0
  0
LINE
  5
E277
330
E190
100
AcDbEntity
  8
0
100
AcDbLine
 10
45.58219414377309
 20
-119.0810216851094
 30
0.0
 11
31.28290258843331
 21
-110.825321856413
 31
0.0
  0
LINE
  5
E278
330
E190
100
AcDbEntity
  8
0
100
AcDbLine
 10
10.23924090852609
 20
-98.18586017222658
 30
0.0
 11
24.40134823088196
 21
-106.3623566470811
 31
0.0
  0
LINE
  5
E279
330
E190
100
AcDbEntity
  8
0
100
AcDbLine
 10
31.45747277467509
 20
-110.4362120518756
 30
0.0
 11
45.61958009703096
 21
-118.6127085267301
 31
0.0
  0
ELLIPSE
  5
E27A
330
E190
100
AcDbEntity
  8
0
100
AcDbEllipse
 10
1.02901004171203
 20
-167.3745333606396
 30
0.0
 11
1.250000000000128
 21
2.165063509461022
 31
0.0
210
0.0
220
0.0
230
0.9999999999999998
 40
0.5773502691896254
 41
0.0
 42
6.283185307179586
  0
ELLIPSE
  5
E27B
330
E190
100
AcDbEntity
  8
0
100
AcDbEllipse
 10
14.77901004191674
 20
-149.3323374485819
 30
0.0
 11
-0.4000000000000423
 21
-0.6928203230275286
 31
0.0
210
0.0
220
0.0
230
1.0
 40
0.5773502691896253
 41
2.094395102375155
 42
2.27682856651157
  0
LINE
  5
E27C
330
E190
100
AcDbEntity
  8
0
100
AcDbLine
 10
15.32542020342786
 20
-149.1859272870812
 30
0.0
 11
14.5329519581046
 21
-153.0585225512873
 31
0.0
  0
ELLIPSE
  5
E27D
330
E190
100
AcDbEntity
  8
0
100
AcDbEllipse
 10
13.98654179659348
 20
-153.204932712788
 30
0.0
 11
-0.4000000000000416
 21
-0.6928203230275272
 31
0.0
210
0.0
220
0.0
230
0.9999999999999998
 40
0.5773502691896255
 41
0.0
 42
2.094395102375109
  0
LINE
  5
E27E
330
E190
100
AcDbEntity
  8
0
100
AcDbLine
 10
13.58654179658621
 20
-153.8977530358114
 30
0.0
 11
11.4214782871645
 21
-152.6477530357431
 31
0.0
  0
ELLIPSE
  5
E27F
330
E190
100
AcDbEntity
  8
0
100
AcDbEllipse
 10
11.82147828717177
 20
-151.9549327127198
 30
0.0
 11
-0.4000000000072804
 21
-0.6928203230233493
 31
0.0
210
0.0
220
0.0
230
1.0
 40
0.5773502691896257
 41
4.18879020482279
 42
6.283185307252368
  0
LINE
  5
E280
330
E190
100
AcDbEntity
  8
0
100
AcDbLine
 10
11.67506812566794
 20
-151.4085225511972
 30
0.0
 11
14.63259988041292
 21
-148.7859272870594
 31
0.0
  0
ELLIPSE
  5
E281
330
E190
100
AcDbEntity
  8
0
100
AcDbEllipse
 10
14.77901004191674
 20
-149.3323374485819
 30
0.0
 11
0.4000000000000011
 21
0.6928203230275525
 31
0.0
210
0.0
220
0.0
230
1.0
 40
0.5773502691896259
 41
0.0802385882704782
 42
1.047197551178416
  0
LINE
  5
E282
330
E190
100
AcDbEntity
  8
0
100
AcDbLine
 10
15.14566207965098
 20
-148.6232357670057
 30
0.0
 11
15.34291478980111
 21
-149.0585540873833
 31
0.0
  0
ELLIPSE
  5
E283
330
E190
100
AcDbEntity
  8
0
100
AcDbEllipse
 10
12.92588162481369
 20
-152.5925602770922
 30
0.0
 11
-0.4000000000072798
 21
-0.6928203230233483
 31
0.0
210
0.0
220
0.0
230
1.0
 40
0.5773502691896258
 41
0.000000000072791
 42
2.094395102429602
  0
LINE
  5
E284
330
E190
100
AcDbEntity
  8
0
100
AcDbLine
 10
13.47229178632478
 20
-152.4461501155915
 30
0.0
 11
14.5329519581046
 21
-153.0585225512873
 31
0.0
  0
LINE
  5
E285
330
E190
100
AcDbEntity
  8
0
100
AcDbLine
 10
13.47229178632478
 20
-152.4461501155915
 30
0.0
 11
14.13012130247542
 21
-149.2315008423442
 31
0.0
  0
LINE
  5
E286
330
E190
100
AcDbEntity
  8
0
100
AcDbLine
 10
14.63259988040029
 20
-148.7859272870812
 30
0.0
 11
15.32542020342786
 21
-149.1859272870812
 31
0.0
  0
LINE
  5
E287
330
E190
100
AcDbEntity
  8
0
100
AcDbLine
 10
14.73416101390612
 20
-148.7070899310001
 30
0.0
 11
15.34291478980111
 21
-149.0585540873833
 31
0.0
  0
ELLIPSE
  5
E288
330
E190
100
AcDbEntity
  8
0
100
AcDbEllipse
 10
-0.0316501300677663
 20
-166.7621609249438
 30
0.0
 11
1.24999999999987
 21
2.165063509461172
 31
0.0
210
0.0
220
0.0
230
0.9999999999999998
 40
0.5773502691896258
 41
3.579741684173535
 42
5.845036276595008
  0
LINE
  5
E289
330
E190
100
AcDbEntity
  8
0
100
AcDbLine
 10
-37.76871717374559
 20
-122.4579946124905
 30
0.0
 11
-51.26871717315413
 21
-145.8406805129754
 31
0.0
  0
LINE
  5
E28A
330
E190
100
AcDbEntity
  8
0
100
AcDbLine
 10
-36.70805700196559
 20
-123.0703670481864
 30
0.0
 11
-50.20805700137431
 21
-146.4530529486711
 31
0.0
  0
ELLIPSE
  5
E28B
330
E190
100
AcDbEntity
  8
0
100
AcDbEllipse
 10
-46.01871717308592
 20
-145.9850180803122
 30
0.0
 11
1.249999999999869
 21
2.165063509461173
 31
0.0
210
0.0
220
0.0
230
1.0
 40
0.5773502691896254
 41
3.579741684173537
 42
5.845036276595008
  0
ELLIPSE
  5
E28C
330
E190
100
AcDbEntity
  8
0
100
AcDbEllipse
 10
-33.06118541820445
 20
-131.8154174324606
 30
0.0
 11
-0.4000000000072798
 21
-0.6928203230233483
 31
0.0
210
0.0
220
0.0
230
1.0
 40
0.5773502691896258
 41
0.0000000000727868
 42
2.094395102429601
  0
LINE
  5
E28D
330
E190
100
AcDbEntity
  8
0
100
AcDbLine
 10
-32.51477525669336
 20
-131.6690072709598
 30
0.0
 11
-31.85694574054272
 21
-128.4543579977126
 31
0.0
  0
LINE
  5
E28E
330
E190
100
AcDbEntity
  8
0
100
AcDbLine
 10
-31.45411508491355
 20
-132.2813797066556
 30
0.0
 11
-32.51477525669336
 21
-131.6690072709598
 31
0.0
  0
LINE
  5
E28F
330
E190
100
AcDbEntity
  8
0
100
AcDbLine
 10
-30.66164683959029
 20
-128.4087844424496
 30
0.0
 11
-31.45411508491355
 21
-132.2813797066556
 31
0.0
  0
LINE
  5
E290
330
E190
100
AcDbEntity
  8
0
100
AcDbLine
 10
-30.66164683959029
 20
-128.4087844424496
 30
0.0
 11
-31.35446716262512
 21
-128.0087844424454
 31
0.0
  0
ELLIPSE
  5
E291
330
E190
100
AcDbEntity
  8
0
100
AcDbEllipse
 10
-31.2080570011014
 20
-128.5551946039503
 30
0.0
 11
0.4000000000000003
 21
0.6928203230275527
 31
0.0
210
0.0
220
0.0
230
1.0
 40
0.5773502691896255
 41
5.235987755964771
 42
7.330382858357998
  0
LINE
  5
E292
330
E190
100
AcDbEntity
  8
0
100
AcDbLine
 10
-34.3119989173502
 20
-130.6313797065655
 30
0.0
 11
-31.35446716260523
 21
-128.0087844424277
 31
0.0
  0
ELLIPSE
  5
E293
330
E190
100
AcDbEntity
  8
0
100
AcDbEllipse
 10
-34.16558875584637
 20
-131.1777898680882
 30
0.0
 11
-0.4000000000072796
 21
-0.6928203230233497
 31
0.0
210
0.0
220
0.0
230
0.9999999999999998
 40
0.5773502691896255
 41
4.188790204822792
 42
6.283185307252367
  0
LINE
  5
E294
330
E190
100
AcDbEntity
  8
0
100
AcDbLine
 10
-32.40052524643193
 20
-133.1206101911798
 30
0.0
 11
-34.56558875585364
 21
-131.8706101911115
 31
0.0
  0
ELLIPSE
  5
E295
330
E190
100
AcDbEntity
  8
0
100
AcDbEllipse
 10
-32.00052524642465
 20
-132.4277898681564
 30
0.0
 11
-0.4000000000000411
 21
-0.6928203230275276
 31
0.0
210
0.0
220
0.0
230
1.0
 40
0.5773502691896258
 41
0.0
 42
2.094395102375107
  0
ELLIPSE
  5
E296
330
E190
100
AcDbEntity
  8
0
100
AcDbEllipse
 10
-44.95805700130611
 20
-146.597390516008
 30
0.0
 11
1.250000000000128
 21
2.165063509461023
 31
0.0
210
0.0
220
0.0
230
0.9999999999999998
 40
0.5773502691896258
 41
0.0
 42
6.283185307179586
  0
LINE
  5
E297
330
E190
100
AcDbEntity
  8
0
100
AcDbLine
 10
6.279752347072267
 20
-98.09051565758013
 30
0.0
 11
-31.28379293281787
 21
-163.152484594764
 31
0.0
  0
LINE
  5
E298
330
E190
100
AcDbEntity
  8
0
100
AcDbLine
 10
-32.00805700152983
 20
-162.7343305397288
 30
0.0
 11
-31.28379293281789
 21
-163.1524845947641
 31
0.0
  0
LINE
  5
E299
330
E190
100
AcDbEntity
  8
0
100
AcDbLine
 10
-32.00805700152982
 20
-162.7343305397288
 30
0.0
 11
4.691942997682265
 21
-99.16806590331562
 31
0.0
  0
ENDBLK
  5
E192
330
E190
100
AcDbEntity
  8
0
100
AcDbBlockEnd
  0
ENDSEC
  0
SECTION
  2
ENTITIES
  0
INSERT
  5
E29A
330
1F
100
AcDbEntity
  8
0
100
AcDbBlockReference
  2
SPR60_360-Front
 10
0.0
 20
0.0
 30
0.0
  0
INSERT
  5
E29B
330
1F
100
AcDbEntity
  8
0
100
AcDbBlockReference
  2
SPR60_360-Left
 10
197.4229986469886
 20
0.0
 30
0.0
  0
INSERT
  5
E29C
330
1F
100
AcDbEntity
  8
0
100
AcDbBlockReference
  2
SPR60_360-Right
 10
-197.4229986469887
 20
0.0
 30
0.0
  0
INSERT
  5
E29D
330
1F
100
AcDbEntity
  8
0
100
AcDbBlockReference
  2
SPR60_360-Top
 10
0.0
 20
-180.545601705951
 30
0.0
  0
INSERT
  5
E29E
330
1F
100
AcDbEntity
  8
0
100
AcDbBlockReference
  2
SPR60_360-Bottom
 10
0.0
 20
485.5659080859886
 30
0.0
  0
INSERT
  5
E29F
330
1F
100
AcDbEntity
  8
0
100
AcDbBlockReference
  2
SPR60_360-ISO
 10
248.6917158201428
 20
-379.6024439154842
 30
0.0
  0
MTEXT
  5
E2A0
330
1F
100
AcDbEntity
  8
0
100
AcDbMText
 10
0.0
 20
-387.4445760657997
 30
0.0
 40
30.37276902261365
 41
0.0
 71
     5
 72
     5
  1
SPR60/360
 73
     1
 44
1.0
1001
ACAD
1000
MTEXTBEGIN
1070
    73
1070
     1
1070
    44
1040
1.0
1070
    74
1070
     0
1000
MTEXTEND
  0
ENDSEC
  0
SECTION
  2
OBJECTS
  0
DICTIONARY
  5
C
330
0
100
AcDbDictionary
281
     1
  3
ACAD_CIP_PREVIOUS_PRODUCT_INFO
350
216
  3
ACAD_COLOR
350
6B
  3
ACAD_DETAILVIEWSTYLE
350
21B
  3
ACAD_GROUP
350
D
  3
ACAD_LAYOUT
350
1A
  3
ACAD_MATERIAL
350
6A
  3
ACAD_MLEADERSTYLE
350
12D
  3
ACAD_MLINESTYLE
350
17
  3
ACAD_PLOTSETTINGS
350
19
  3
ACAD_PLOTSTYLENAME
350
E
  3
ACAD_SCALELIST
350
10C
  3
ACAD_SECTIONVIEWSTYLE
350
219
  3
ACAD_TABLESTYLE
350
7E
  3
ACAD_VISUALSTYLE
350
EF
  3
ACDB_RECOMPOSE_DATA
350
E3A1
  3
AcDbVariableDictionary
350
5E
  3
DWGPROPS
350
E3A2
  0
DICTIONARY
  5
E2F1
330
8
100
AcDbDictionary
280
     1
281
     1
  0
DICTIONARY
  5
1FF
330
2
100
AcDbDictionary
280
     1
281
     1
  3
ACAD_LAYERSTATES
360
200
  0
DICTIONARY
  5
13C
330
10
100
AcDbDictionary
280
     1
281
     1
  0
DICTIONARY
  5
1CE
330
1F
100
AcDbDictionary
280
     1
281
     1
  3
ACAD_LAYOUTSELFREF
360
E2F9
  0
DICTIONARY
  5
E2A4
330
D2
100
AcDbDictionary
280
     1
281
     1
  3
ACAD_LAYOUTSELFREF
360
E302
  0
DICTIONARY
  5
E2A6
330
D6
100
AcDbDictionary
280
     1
281
     1
  3
ACAD_LAYOUTSELFREF
360
E305
  0
XRECORD
  5
216
102
{ACAD_REACTORS
330
C
102
}
330
C
100
AcDbXrecord
280
     1
300
ACD
300
2021
300
87393ACD_2021_0F
  0
DICTIONARY
  5
6B
102
{ACAD_REACTORS
330
C
102
}
330
C
100
AcDbDictionary
281
     1
  0
DICTIONARY
  5
21B
102
{ACAD_REACTORS
330
C
102
}
330
C
100
AcDbDictionary
281
     1
  3
Metric50
350
21C
  0
DICTIONARY
  5
D
102
{ACAD_REACTORS
330
C
102
}
330
C
100
AcDbDictionary
281
     1
  0
DICTIONARY
  5
1A
102
{ACAD_REACTORS
330
C
102
}
330
C
100
AcDbDictionary
281
     1
  3
Layout1
350
D3
  3
Layout2
350
D7
  3
Model
350
22
  0
DICTIONARY
  5
6A
102
{ACAD_REACTORS
330
C
102
}
330
C
100
AcDbDictionary
281
     1
  3
ByBlock
350
ED
  3
ByLayer
350
EC
  3
Global
350
EE
  0
DICTIONARY
  5
12D
102
{ACAD_REACTORS
330
C
102
}
330
C
100
AcDbDictionary
281
     1
  3
Standard
350
12E
  0
DICTIONARY
  5
17
102
{ACAD_REACTORS
330
C
102
}
330
C
100
AcDbDictionary
281
     1
  3
Standard
350
18
  0
DICTIONARY
  5
19
102
{ACAD_REACTORS
330
C
102
}
330
C
100
AcDbDictionary
281
     1
  0
ACDBDICTIONARYWDFLT
  5
E
102
{ACAD_REACTORS
330
C
102
}
330
C
100
AcDbDictionary
281
     1
  3
Normal
350
F
100
AcDbDictionaryWithDefault
340
F
  0
DICTIONARY
  5
10C
102
{ACAD_REACTORS
330
C
102
}
330
C
100
AcDbDictionary
281
     1
  3
A0
350
10D
  3
A1
350
1BE
  3
A2
350
1BF
  3
A3
350
1C0
  3
A4
350
1C1
  3
A5
350
1C2
  3
A6
350
1C3
  3
A7
350
1C4
  3
A8
350
1C5
  3
A9
350
1C6
  3
B0
350
1C7
  3
B1
350
1C8
  3
B2
350
1C9
  3
B3
350
1CA
  3
B4
350
1CB
  3
B5
350
1CC
  3
B6
350
1CD
  0
DICTIONARY
  5
219
102
{ACAD_REACTORS
330
C
102
}
330
C
100
AcDbDictionary
281
     1
  3
Metric50
350
21A
  0
DICTIONARY
  5
7E
102
{ACAD_REACTORS
330
C
102
}
330
C
100
AcDbDictionary
281
     1
  3
Standard
350
7F
  0
DICTIONARY
  5
EF
102
{ACAD_REACTORS
330
C
102
}
330
C
100
AcDbDictionary
281
     1
  3
2dWireframe
350
F5
  3
Basic
350
F4
  3
Brighten
350
FB
  3
ColorChange
350
FF
  3
Conceptual
350
F8
  3
Dim
350
FA
  3
EdgeColorOff
350
1E6
  3
Facepattern
350
FE
  3
Flat
350
F0
  3
FlatWithEdges
350
F1
  3
Gouraud
350
F2
  3
GouraudWithEdges
350
F3
  3
Hidden
350
F7
  3
JitterOff
350
1E4
  3
Linepattern
350
FD
  3
OverhangOff
350
1E5
  3
Realistic
350
F9
  3
Shaded
350
1F3
  3
Shaded with edges
350
1F2
  3
Shades of Gray
350
1EF
  3
Sketchy
350
1F0
  3
Thicken
350
FC
  3
Wireframe
350
F6
  3
X-Ray
350
1F1
  0
XRECORD
  5
E3A1
102
{ACAD_REACTORS
330
C
102
}
330
C
100
AcDbXrecord
280
     1
 90
        1
330
7F
  0
DICTIONARY
  5
5E
102
{ACAD_REACTORS
330
C
102
}
330
C
100
AcDbDictionary
281
     1
  3
CANNOSCALE
350
146
  3
CENTEREXE
350
259
  3
CENTERLTYPEFILE
350
25A
  3
CMLEADERSTYLE
350
145
  3
CTABLESTYLE
350
84
  3
CVIEWDETAILSTYLE
350
227
  3
CVIEWSECTIONSTYLE
350
228
  3
DIMASSOC
350
5F
  3
HIDETEXT
350
63
  3
INDEXCTL
350
E34E
  3
LAYEREVAL
350
1AE
  3
LAYERNOTIFY
350
1AF
  3
LIGHTINGUNITS
350
E34C
  3
MSLTSCALE
350
E34B
  3
PSOLHEIGHT
350
E39E
  3
PSOLWIDTH
350
E39D
  3
SORTENTS
350
E34D
  3
XCLIPFRAME
350
E39F
  0
XRECORD
  5
E3A2
102
{ACAD_REACTORS
330
C
102
}
330
C
100
AcDbXrecord
280
     1
  1
DWGPROPS COOKIE
  2

  3

  4

  6

  7

  8
truole
  9

300
=
301
=
302
=
303
=
304
=
305
=
306
=
307
=
308
=
309
=
 40
0.0025347222222222
 41
2460719.40650463
 42
2460719.4146875
  1

 90
        0
  0
DICTIONARY
  5
200
102
{ACAD_REACTORS
330
1FF
102
}
330
1FF
100
AcDbDictionary
281
     1
  0
XRECORD
  5
E2F9
102
{ACAD_REACTORS
330
1CE
102
}
330
1CE
100
AcDbXrecord
280
     1
340
1F
  0
XRECORD
  5
E302
102
{ACAD_REACTORS
330
E2A4
102
}
330
E2A4
100
AcDbXrecord
280
     1
340
D2
  0
XRECORD
  5
E305
102
{ACAD_REACTORS
330
E2A6
102
}
330
E2A6
100
AcDbXrecord
280
     1
340
D6
  0
ACDBDETAILVIEWSTYLE
  5
21C
102
{ACAD_XDICTIONARY
360
E3E1
102
}
102
{ACAD_REACTORS
330
21B
102
}
330
21B
100
AcDbModelDocViewStyle
 70
     0
  3
Metric50
290
     0
100
AcDbDetailViewStyle
 70
     0
 71
     0
 90
        3
 71
     1
340
11
 40
5.0
340
0
 40
5.0
300

 40
0.0
280
     1
 71
     2
340
16
 90
       25
 71
     3
340
11
 40
5.0
 90
        0
 40
15.0
 90
        1
300
%<\AcVar ViewDetailId>% (%<\AcVar ViewScale \f "%sn">%)
 71
     4
340
16
 90
       25
340
16
 90
       25
280
     0
  0
LAYOUT
  5
D3
102
{ACAD_XDICTIONARY
360
E3A6
102
}
102
{ACAD_REACTORS
330
1A
102
}
330
1A
100
AcDbPlotSettings
  1

  2
C:\Documents and Settings\basas\Application Data\Autodesk\AutoCAD 2005\R16.1\enu\plotters\Default Windows System Printer.pc3
  4

  6

 40
0.0
 41
0.0
 42
0.0
 43
0.0
 44
0.0
 45
0.0
 46
0.0
 47
0.0
 48
0.0
 49
0.0
140
0.0
141
0.0
142
1.0
143
1.0
 70
   688
 72
     0
 73
     0
 74
     5
  7

 75
    16
147
1.0
148
0.0
149
0.0
100
AcDbLayout
  1
Layout1
 70
     1
 71
     1
 10
0.0
 20
0.0
 11
12.0
 21
9.0
 12
0.0
 22
0.0
 32
0.0
 14
0.0
 24
0.0
 34
0.0
 15
0.0
 25
0.0
 35
0.0
146
0.0
 13
0.0
 23
0.0
 33
0.0
 16
1.0
 26
0.0
 36
0.0
 17
0.0
 27
1.0
 37
0.0
 76
     0
330
D2
  0
LAYOUT
  5
D7
102
{ACAD_XDICTIONARY
360
E3A8
102
}
102
{ACAD_REACTORS
330
1A
102
}
330
1A
100
AcDbPlotSettings
  1

  2
C:\Documents and Settings\basas\Application Data\Autodesk\AutoCAD 2005\R16.1\enu\plotters\Default Windows System Printer.pc3
  4

  6

 40
0.0
 41
0.0
 42
0.0
 43
0.0
 44
0.0
 45
0.0
 46
0.0
 47
0.0
 48
0.0
 49
0.0
140
0.0
141
0.0
142
1.0
143
1.0
 70
   688
 72
     0
 73
     0
 74
     5
  7

 75
    16
147
1.0
148
0.0
149
0.0
100
AcDbLayout
  1
Layout2
 70
     1
 71
     2
 10
0.0
 20
0.0
 11
12.0
 21
9.0
 12
0.0
 22
0.0
 32
0.0
 14
0.0
 24
0.0
 34
0.0
 15
0.0
 25
0.0
 35
0.0
146
0.0
 13
0.0
 23
0.0
 33
0.0
 16
1.0
 26
0.0
 36
0.0
 17
0.0
 27
1.0
 37
0.0
 76
     0
330
D6
  0
LAYOUT
  5
22
102
{ACAD_XDICTIONARY
360
E3A3
102
}
102
{ACAD_REACTORS
330
1A
102
}
330
1A
100
AcDbPlotSettings
  1

  2
none_device
  4
ISO_A4_(210.00_x_297.00_MM)
  6

 40
7.5
 41
20.0
 42
7.5
 43
20.0
 44
210.0
 45
297.0
 46
11.54999923706054
 47
-13.65000009536743
 48
0.0
 49
0.0
140
0.0
141
0.0
142
1.0
143
8.704084754739808
 70
 11952
 72
     1
 73
     0
 74
     0
  7

 75
     0
147
0.1148885871608098
148
0.0
149
0.0
100
AcDbLayout
  1
Model
 70
     1
 71
     0
 10
0.0
 20
0.0
 11
12.0
 21
9.0
 12
0.0
 22
0.0
 32
0.0
 14
0.0
 24
0.0
 34
0.0
 15
0.0
 25
0.0
 35
0.0
146
0.0
 13
0.0
 23
0.0
 33
0.0
 16
1.0
 26
0.0
 36
0.0
 17
0.0
 27
1.0
 37
0.0
 76
     0
330
1F
331
EA
1001
ACAD_PSEXT
1000
None
1000
None
1000
Not applicable
1000
The layout will not be plotted unless a new plotter configuration name is selected.
1070
     0
  0
MATERIAL
  5
ED
102
{ACAD_XDICTIONARY
360
1F9
102
}
102
{ACAD_REACTORS
330
6A
102
}
330
6A
100
AcDbMaterial
  1
ByBlock
  0
MATERIAL
  5
EC
102
{ACAD_XDICTIONARY
360
1F7
102
}
102
{ACAD_REACTORS
330
6A
102
}
330
6A
100
AcDbMaterial
  1
ByLayer
  0
MATERIAL
  5
EE
102
{ACAD_XDICTIONARY
360
173
102
}
102
{ACAD_REACTORS
330
6A
102
}
330
6A
100
AcDbMaterial
  1
Global
 43
0.0007999999797903
 43
0.0
 43
0.0
 43
0.0
 43
0.0
 43
0.0007999999797903
 43
0.0
 43
0.0
 43
0.0
 43
0.0
 43
1.0
 43
0.0
 43
0.0
 43
0.0
 43
0.0
 43
1.0
 49
0.0007999999797903
 49
0.0
 49
0.0
 49
0.0
 49
0.0
 49
0.0007999999797903
 49
0.0
 49
0.0
 49
0.0
 49
0.0
 49
1.0
 49
0.0
 49
0.0
 49
0.0
 49
0.0
 49
1.0
142
0.0007999999797903
142
0.0
142
0.0
142
0.0
142
0.0
142
0.0007999999797903
142
0.0
142
0.0
142
0.0
142
0.0
142
1.0
142
0.0
142
0.0
142
0.0
142
0.0
142
1.0
144
0.0007999999797903
144
0.0
144
0.0
144
0.0
144
0.0
144
0.0007999999797903
144
0.0
144
0.0
144
0.0
144
0.0
144
1.0
144
0.0
144
0.0
144
0.0
144
0.0
144
1.0
1001
ACAD
1070
    -1
1070
     3
1070
     0
1000

1071
        0
1070
     0
  0
MLEADERSTYLE
  5
12E
102
{ACAD_XDICTIONARY
360
E3CD
102
}
102
{ACAD_REACTORS
330
12D
102
}
330
12D
100
AcDbMLeaderStyle
170
     2
171
     1
172
     0
 90
        2
 40
0.0
 41
0.0
173
     1
 91
-1056964608
340
14
 92
       -2
290
     1
 42
2.0
291
     1
 43
8.0
  3
Standard
 44
4.0
300

342
11
174
     1
178
     1
175
     1
176
     0
 93
-1056964608
 45
4.0
292
     0
297
     0
 46
4.0
 94
-1056964608
 47
1.0
 49
1.0
140
1.0
293
     1
141
0.0
294
     1
177
     0
142
1.0
295
     0
296
     0
143
3.75
1001
ACAD_MLEADERVER
1070
     2
  0
MLINESTYLE
  5
18
102
{ACAD_REACTORS
330
17
102
}
330
17
100
AcDbMlineStyle
  2
STANDARD
 70
     0
  3

 62
   256
 51
90.0
 52
90.0
 71
     2
 49
0.5
 62
   256
  6
BYLAYER
 49
-0.5
 62
   256
  6
BYLAYER
  0
ACDBPLACEHOLDER
  5
F
102
{ACAD_REACTORS
330
E
102
}
330
E
  0
SCALE
  5
10D
102
{ACAD_REACTORS
330
10C
102
}
330
10C
100
AcDbScale
 70
     0
300
1:1
140
1.0
141
1.0
290
     1
  0
SCALE
  5
1BE
102
{ACAD_REACTORS
330
10C
102
}
330
10C
100
AcDbScale
 70
     0
300
1:2
140
1.0
141
2.0
290
     0
  0
SCALE
  5
1BF
102
{ACAD_REACTORS
330
10C
102
}
330
10C
100
AcDbScale
 70
     0
300
1:4
140
1.0
141
4.0
290
     0
  0
SCALE
  5
1C0
102
{ACAD_REACTORS
330
10C
102
}
330
10C
100
AcDbScale
 70
     0
300
1:5
140
1.0
141
5.0
290
     0
  0
SCALE
  5
1C1
102
{ACAD_REACTORS
330
10C
102
}
330
10C
100
AcDbScale
 70
     0
300
1:8
140
1.0
141
8.0
290
     0
  0
SCALE
  5
1C2
102
{ACAD_REACTORS
330
10C
102
}
330
10C
100
AcDbScale
 70
     0
300
1:10
140
1.0
141
10.0
290
     0
  0
SCALE
  5
1C3
102
{ACAD_REACTORS
330
10C
102
}
330
10C
100
AcDbScale
 70
     0
300
1:16
140
1.0
141
16.0
290
     0
  0
SCALE
  5
1C4
102
{ACAD_REACTORS
330
10C
102
}
330
10C
100
AcDbScale
 70
     0
300
1:20
140
1.0
141
20.0
290
     0
  0
SCALE
  5
1C5
102
{ACAD_REACTORS
330
10C
102
}
330
10C
100
AcDbScale
 70
     0
300
1:30
140
1.0
141
30.0
290
     0
  0
SCALE
  5
1C6
102
{ACAD_REACTORS
330
10C
102
}
330
10C
100
AcDbScale
 70
     0
300
1:40
140
1.0
141
40.0
290
     0
  0
SCALE
  5
1C7
102
{ACAD_REACTORS
330
10C
102
}
330
10C
100
AcDbScale
 70
     0
300
1:50
140
1.0
141
50.0
290
     0
  0
SCALE
  5
1C8
102
{ACAD_REACTORS
330
10C
102
}
330
10C
100
AcDbScale
 70
     0
300
1:100
140
1.0
141
100.0
290
     0
  0
SCALE
  5
1C9
102
{ACAD_REACTORS
330
10C
102
}
330
10C
100
AcDbScale
 70
     0
300
2:1
140
2.0
141
1.0
290
     0
  0
SCALE
  5
1CA
102
{ACAD_REACTORS
330
10C
102
}
330
10C
100
AcDbScale
 70
     0
300
4:1
140
4.0
141
1.0
290
     0
  0
SCALE
  5
1CB
102
{ACAD_REACTORS
330
10C
102
}
330
10C
100
AcDbScale
 70
     0
300
8:1
140
8.0
141
1.0
290
     0
  0
SCALE
  5
1CC
102
{ACAD_REACTORS
330
10C
102
}
330
10C
100
AcDbScale
 70
     0
300
10:1
140
10.0
141
1.0
290
     0
  0
SCALE
  5
1CD
102
{ACAD_REACTORS
330
10C
102
}
330
10C
100
AcDbScale
 70
     0
300
100:1
140
100.0
141
1.0
290
     0
  0
ACDBSECTIONVIEWSTYLE
  5
21A
102
{ACAD_XDICTIONARY
360
E3DF
102
}
102
{ACAD_REACTORS
330
219
102
}
330
219
100
AcDbModelDocViewStyle
 70
     0
  3
Metric50
290
     0
100
AcDbSectionViewStyle
 70
     0
 71
     0
 90
      102
 71
     1
340
11
 40
5.0
340
0
340
0
 40
5.0
300
I, O, Q, S, X, Z
 40
10.0
 90
        0
 40
2.5
 90
        0
 71
     2
340
16
 90
       25
340
16
 90
       50
 40
5.0
 40
2.5
 40
5.0
 71
     3
340
11
 40
5.0
 90
        0
 40
15.0
 90
        1
300
%<\AcVar ViewSectionStartId>%-%<\AcVar ViewSectionEndId>% (%<\AcVar ViewScale \f "%sn">%)
 71
     4
300
ANSI31
 40
1.0
 90
        0
290
     0
290
     0
 90
        6
 40
0.0
 40
1.570796326794896
 40
0.2617993877991494
 40
1.308996938995747
 40
-0.2617993877991494
 40
1.832595714594046
  0
TABLESTYLE
  5
7F
102
{ACAD_XDICTIONARY
360
162
102
}
102
{ACAD_REACTORS
330
7E
102
}
330
7E
100
AcDbTableStyle
  3
Standard
 70
     0
 71
     0
 40
1.5
 41
1.5
280
     0
281
     0
  7
Standard
140
4.5
170
     2
 62
     0
 63
     7
283
     0
274
    -2
284
     1
 64
     0
275
    -2
285
     1
 65
     0
276
    -2
286
     1
 66
     0
277
    -2
287
     1
 67
     0
278
    -2
288
     1
 68
     0
279
    -2
289
     1
 69
     0
  7
Standard
140
6.0
170
     5
 62
     0
 63
     7
283
     0
274
    -2
284
     1
 64
     0
275
    -2
285
     1
 65
     0
276
    -2
286
     1
 66
     0
277
    -2
287
     1
 67
     0
278
    -2
288
     1
 68
     0
279
    -2
289
     1
 69
     0
  7
Standard
140
4.5
170
     5
 62
     0
 63
     7
283
     0
274
    -2
284
     1
 64
     0
275
    -2
285
     1
 65
     0
276
    -2
286
     1
 66
     0
277
    -2
287
     1
 67
     0
278
    -2
288
     1
 68
     0
279
    -2
289
     1
 69
     0
  0
VISUALSTYLE
  5
F5
102
{ACAD_XDICTIONARY
360
E3B7
102
}
102
{ACAD_REACTORS
330
EF
102
}
330
EF
100
AcDbVisualStyle
  2
2dWireframe
 70
     4
 71
     0
 72
     2
 73
     1
 90
        0
 40
-0.6
 41
-30.0
 62
     5
 63
     7
 74
     1
 91
        4
 64
     7
 65
   257
 75
     1
175
     1
 42
1.0
 92
        0
 66
   257
 43
1.0
 76
     1
 77
     6
 78
     2
 67
     7
 79
     5
170
     0
171
     0
290
     0
174
     0
 93
        1
 44
0.0
173
     0
291
     0
 45
0.0
1001
ACAD
1000
AcDbSavedByObjectVersion
1070
     0
  0
VISUALSTYLE
  5
F4
102
{ACAD_XDICTIONARY
360
E3B5
102
}
102
{ACAD_REACTORS
330
EF
102
}
330
EF
100
AcDbVisualStyle
  2
Basic
 70
     7
 71
     1
 72
     0
 73
     1
 90
        0
 40
-0.6
 41
-30.0
 62
     5
 63
     7
 74
     0
 91
        4
 64
     7
 65
   257
 75
     1
175
     1
 42
1.0
 92
        8
 66
     7
 43
1.0
 76
     1
 77
     6
 78
     2
 67
     7
 79
     5
170
     0
171
     0
290
     0
174
     0
 93
        1
 44
0.0
173
     0
291
     1
 45
0.0
1001
ACAD
1000
AcDbSavedByObjectVersion
1070
     0
  0
VISUALSTYLE
  5
FB
102
{ACAD_XDICTIONARY
360
E3C3
102
}
102
{ACAD_REACTORS
330
EF
102
}
330
EF
100
AcDbVisualStyle
  2
Brighten
 70
    12
 71
     2
 72
     2
 73
     1
 90
        0
 40
-0.6
 41
-30.0
 62
     5
 63
     7
 74
     1
 91
        4
 64
     7
 65
   257
 75
     1
175
     1
 42
1.0
 92
        8
 66
     7
 43
1.0
 76
     1
 77
     6
 78
     2
 67
     7
 79
     5
170
     0
171
     0
290
     0
174
     0
 93
        1
 44
50.0
173
     0
291
     1
 45
0.0
1001
ACAD
1000
AcDbSavedByObjectVersion
1070
     0
  0
VISUALSTYLE
  5
FF
102
{ACAD_XDICTIONARY
360
E3CB
102
}
102
{ACAD_REACTORS
330
EF
102
}
330
EF
100
AcDbVisualStyle
  2
ColorChange
 70
    16
 71
     2
 72
     2
 73
     3
 90
        0
 40
-0.6
 41
-30.0
 62
     5
 63
     8
 74
     1
 91
        4
 64
     7
 65
   257
 75
     1
175
     1
 42
1.0
 92
        8
 66
     8
 43
1.0
 76
     1
 77
     6
 78
     2
 67
     7
 79
     5
170
     0
171
     0
290
     0
174
     0
 93
        1
 44
0.0
173
     0
291
     1
 45
0.0
1001
ACAD
1000
AcDbSavedByObjectVersion
1070
     0
  0
VISUALSTYLE
  5
F8
102
{ACAD_XDICTIONARY
360
E3BD
102
}
102
{ACAD_REACTORS
330
EF
102
}
330
EF
100
AcDbVisualStyle
  2
Conceptual
 70
     9
 71
     3
 72
     2
 73
     1
 90
        0
 40
-0.6
 41
-30.0
 62
     5
 63
     7
 74
     2
 91
        2
 64
     7
 65
   257
 75
     1
175
     1
 42
40.0
 92
        8
 66
     7
 43
1.0
 76
     1
 77
     6
 78
     2
 67
     7
 79
     3
170
     0
171
     0
290
     0
174
     0
 93
        1
 44
0.0
173
     0
291
     0
 45
0.0
1001
ACAD
1000
AcDbSavedByObjectVersion
1070
     0
  0
VISUALSTYLE
  5
FA
102
{ACAD_XDICTIONARY
360
E3C1
102
}
102
{ACAD_REACTORS
330
EF
102
}
330
EF
100
AcDbVisualStyle
  2
Dim
 70
    11
 71
     2
 72
     2
 73
     1
 90
        0
 40
-0.6
 41
-30.0
 62
     5
 63
     7
 74
     1
 91
        4
 64
     7
 65
   257
 75
     1
175
     1
 42
1.0
 92
        8
 66
     7
 43
1.0
 76
     1
 77
     6
 78
     2
 67
     7
 79
     5
170
     0
171
     0
290
     0
174
     0
 93
        1
 44
-50.0
173
     0
291
     1
 45
0.0
1001
ACAD
1000
AcDbSavedByObjectVersion
1070
     0
  0
VISUALSTYLE
  5
1E6
102
{ACAD_XDICTIONARY
360
E3D3
102
}
102
{ACAD_REACTORS
330
EF
102
}
330
EF
100
AcDbVisualStyle
  2
EdgeColorOff
 70
    22
 71
     2
 72
     2
 73
     0
 90
        0
 40
-0.6
 41
-30.0
 62
     5
 63
     7
 74
     1
 91
        4
 64
     7
 65
   257
 75
     1
175
     1
 42
1.0
 92
        8
 66
     7
 43
1.0
 76
     1
 77
     6
 78
     2
 67
     7
 79
     5
170
     0
171
     0
290
     0
174
     0
 93
        1
 44
0.0
173
     0
291
     1
 45
0.0
1001
ACAD
1000
AcDbSavedByObjectVersion
1070
     0
  0
VISUALSTYLE
  5
FE
102
{ACAD_XDICTIONARY
360
E3C9
102
}
102
{ACAD_REACTORS
330
EF
102
}
330
EF
100
AcDbVisualStyle
  2
Facepattern
 70
    15
 71
     2
 72
     2
 73
     1
 90
        0
 40
-0.6
 41
-30.0
 62
     5
 63
     7
 74
     1
 91
        4
 64
     7
 65
   257
 75
     1
175
     1
 42
1.0
 92
        8
 66
     7
 43
1.0
 76
     1
 77
     6
 78
     2
 67
     7
 79
     5
170
     0
171
     0
290
     0
174
     0
 93
        1
 44
0.0
173
     0
291
     1
 45
0.0
1001
ACAD
1000
AcDbSavedByObjectVersion
1070
     0
  0
VISUALSTYLE
  5
F0
102
{ACAD_XDICTIONARY
360
E3AD
102
}
102
{ACAD_REACTORS
330
EF
102
}
330
EF
100
AcDbVisualStyle
  2
Flat
 70
     0
 71
     2
 72
     1
 73
     1
 90
        2
 40
-0.6
 41
30.0
 62
     5
 63
     7
 74
     0
 91
        0
 64
     7
 65
   257
 75
     1
175
     1
 42
1.0
 92
        8
 66
     7
 43
1.0
 76
     1
 77
     6
 78
     2
 67
     7
 79
     5
170
     0
171
     0
290
     0
174
     0
 93
       13
 44
0.0
173
     0
291
     1
 45
0.0
1001
ACAD
1000
AcDbSavedByObjectVersion
1070
     0
  0
VISUALSTYLE
  5
F1
102
{ACAD_XDICTIONARY
360
E3AF
102
}
102
{ACAD_REACTORS
330
EF
102
}
330
EF
100
AcDbVisualStyle
  2
FlatWithEdges
 70
     1
 71
     2
 72
     1
 73
     1
 90
        2
 40
-0.6
 41
30.0
 62
     5
 63
     7
 74
     1
 91
        0
 64
     7
 65
   257
 75
     1
175
     1
 42
1.0
 92
        0
 66
   257
 43
1.0
 76
     1
 77
     6
 78
     2
 67
     7
 79
     5
170
     0
171
     0
290
     0
174
     0
 93
       13
 44
0.0
173
     0
291
     1
 45
0.0
1001
ACAD
1000
AcDbSavedByObjectVersion
1070
     0
  0
VISUALSTYLE
  5
F2
102
{ACAD_XDICTIONARY
360
E3B1
102
}
102
{ACAD_REACTORS
330
EF
102
}
330
EF
100
AcDbVisualStyle
  2
Gouraud
 70
     2
 71
     2
 72
     2
 73
     1
 90
        2
 40
-0.6
 41
30.0
 62
     5
 63
     7
 74
     0
 91
        0
 64
     7
 65
   257
 75
     1
175
     1
 42
1.0
 92
        0
 66
     7
 43
1.0
 76
     1
 77
     6
 78
     2
 67
     7
 79
     5
170
     0
171
     0
290
     0
174
     0
 93
       13
 44
0.0
173
     0
291
     1
 45
0.0
1001
ACAD
1000
AcDbSavedByObjectVersion
1070
     0
  0
VISUALSTYLE
  5
F3
102
{ACAD_XDICTIONARY
360
E3B3
102
}
102
{ACAD_REACTORS
330
EF
102
}
330
EF
100
AcDbVisualStyle
  2
GouraudWithEdges
 70
     3
 71
     2
 72
     2
 73
     1
 90
        2
 40
-0.6
 41
30.0
 62
     5
 63
     7
 74
     1
 91
        0
 64
     7
 65
   257
 75
     1
175
     1
 42
1.0
 92
        0
 66
   257
 43
1.0
 76
     1
 77
     6
 78
     2
 67
     7
 79
     5
170
     0
171
     0
290
     0
174
     0
 93
       13
 44
0.0
173
     0
291
     1
 45
0.0
1001
ACAD
1000
AcDbSavedByObjectVersion
1070
     0
  0
VISUALSTYLE
  5
F7
102
{ACAD_XDICTIONARY
360
E3BB
102
}
102
{ACAD_REACTORS
330
EF
102
}
330
EF
100
AcDbVisualStyle
  2
Hidden
 70
     6
 71
     1
 72
     2
 73
     2
 90
        0
 40
-0.6
 41
-30.0
 62
     5
 63
     7
 74
     2
 91
        2
 64
     7
 65
   257
 75
     2
175
     1
 42
40.0
 92
        0
 66
   257
 43
1.0
 76
     1
 77
     6
 78
     2
 67
     7
 79
     3
170
     0
171
     0
290
     0
174
     0
 93
        1
 44
0.0
173
     0
291
     0
 45
0.0
1001
ACAD
1000
AcDbSavedByObjectVersion
1070
     0
  0
VISUALSTYLE
  5
1E4
102
{ACAD_XDICTIONARY
360
E3CF
102
}
102
{ACAD_REACTORS
330
EF
102
}
330
EF
100
AcDbVisualStyle
  2
JitterOff
 70
    20
 71
     2
 72
     2
 73
     0
 90
        0
 40
-0.6
 41
-30.0
 62
     5
 63
     7
 74
     1
 91
        4
 64
     7
 65
   257
 75
     1
175
     1
 42
1.0
 92
       10
 66
     7
 43
1.0
 76
     1
 77
     6
 78
     2
 67
     7
 79
     5
170
     0
171
     0
290
     0
174
     0
 93
        1
 44
0.0
173
     0
291
     1
 45
0.0
1001
ACAD
1000
AcDbSavedByObjectVersion
1070
     0
  0
VISUALSTYLE
  5
FD
102
{ACAD_XDICTIONARY
360
E3C7
102
}
102
{ACAD_REACTORS
330
EF
102
}
330
EF
100
AcDbVisualStyle
  2
Linepattern
 70
    14
 71
     2
 72
     2
 73
     1
 90
        0
 40
-0.6
 41
-30.0
 62
     5
 63
     7
 74
     1
 91
        4
 64
     7
 65
   257
 75
     7
175
     7
 42
1.0
 92
        8
 66
     7
 43
1.0
 76
     1
 77
     6
 78
     2
 67
     7
 79
     5
170
     0
171
     0
290
     0
174
     0
 93
        1
 44
0.0
173
     0
291
     1
 45
0.0
1001
ACAD
1000
AcDbSavedByObjectVersion
1070
     0
  0
VISUALSTYLE
  5
1E5
102
{ACAD_XDICTIONARY
360
E3D1
102
}
102
{ACAD_REACTORS
330
EF
102
}
330
EF
100
AcDbVisualStyle
  2
OverhangOff
 70
    21
 71
     2
 72
     2
 73
     0
 90
        0
 40
-0.6
 41
-30.0
 62
     5
 63
     7
 74
     1
 91
        4
 64
     7
 65
   257
 75
     1
175
     1
 42
1.0
 92
        9
 66
     7
 43
1.0
 76
     1
 77
     6
 78
     2
 67
     7
 79
     5
170
     0
171
     0
290
     0
174
     0
 93
        1
 44
0.0
173
     0
291
     1
 45
0.0
1001
ACAD
1000
AcDbSavedByObjectVersion
1070
     0
  0
VISUALSTYLE
  5
F9
102
{ACAD_XDICTIONARY
360
E3BF
102
}
102
{ACAD_REACTORS
330
EF
102
}
330
EF
100
AcDbVisualStyle
  2
Realistic
 70
     8
 71
     2
 72
     2
 73
     0
 90
        2
 40
-0.6
 41
30.0
 62
     5
 63
     7
 74
     0
 91
        0
 64
     7
 65
   257
 75
     1
175
     1
 42
1.0
 92
        8
 66
   257
 43
1.0
 76
     1
 77
     6
 78
     2
 67
     7
 79
     3
170
     0
171
     0
290
     0
174
     0
 93
       13
 44
0.0
173
     0
291
     0
 45
0.0
1001
ACAD
1000
AcDbSavedByObjectVersion
1070
     0
  0
VISUALSTYLE
  5
1F3
102
{ACAD_XDICTIONARY
360
E3DD
102
}
102
{ACAD_REACTORS
330
EF
102
}
330
EF
100
AcDbVisualStyle
  2
Shaded
 70
    27
 71
     2
 72
     2
 73
     1
 90
        2
 40
-0.6
 41
30.0
 62
     5
 63
     7
 74
     0
 91
        4
 64
     7
 65
   257
 75
     1
175
     1
 42
1.0
 92
        8
 66
   257
 43
1.0
 76
     1
 77
     6
 78
     2
 67
     8
 79
     3
170
     0
171
     0
290
     0
174
     0
 93
        5
 44
0.0
173
     0
291
     0
 45
0.0
1001
ACAD
1000
AcDbSavedByObjectVersion
1070
     0
  0
VISUALSTYLE
  5
1F2
102
{ACAD_XDICTIONARY
360
E3DB
102
}
102
{ACAD_REACTORS
330
EF
102
}
330
EF
100
AcDbVisualStyle
  2
Shaded with edges
 70
    26
 71
     2
 72
     2
 73
     1
 90
        2
 40
-0.6
 41
30.0
 62
     5
 63
     7
 74
     1
 91
        2
 64
     7
 65
   257
 75
     2
175
     1
 42
1.0
 92
        8
 66
   257
 43
1.0
 76
     1
 77
     6
 78
     2
 67
     7
 79
     3
170
     0
171
     0
290
     0
174
     0
 93
        5
 44
0.0
173
     0
291
     0
 45
0.0
1001
ACAD
1000
AcDbSavedByObjectVersion
1070
     0
  0
VISUALSTYLE
  5
1EF
102
{ACAD_XDICTIONARY
360
E3D5
102
}
102
{ACAD_REACTORS
330
EF
102
}
330
EF
100
AcDbVisualStyle
  2
Shades of Gray
 70
    23
 71
     2
 72
     2
 73
     3
 90
        0
 40
-0.6
 41
-30.0
 62
     5
 63
     7
 74
     2
 91
        2
 64
     7
 65
     7
 75
     1
175
     1
 42
40.0
 92
        8
 66
     7
 43
1.0
 76
     1
 77
     6
 78
     2
 67
     7
 79
     3
170
     0
171
     0
290
     0
174
     0
 93
        1
 44
0.0
173
     0
291
     0
 45
0.0
1001
ACAD
1000
AcDbSavedByObjectVersion
1070
     0
  0
VISUALSTYLE
  5
1F0
102
{ACAD_XDICTIONARY
360
E3D7
102
}
102
{ACAD_REACTORS
330
EF
102
}
330
EF
100
AcDbVisualStyle
  2
Sketchy
 70
    24
 71
     1
 72
     2
 73
     2
 90
        0
 40
-0.6
 41
-30.0
 62
     5
 63
     7
 74
     2
 91
        2
 64
     7
 65
     7
 75
     1
175
     1
 42
40.0
 92
       11
 66
     7
 43
1.0
 76
     1
 77
     6
 78
     2
 67
     7
 79
     6
170
     0
171
     0
290
     0
174
     0
 93
        1
 44
0.0
173
     0
291
     0
 45
0.0
1001
ACAD
1000
AcDbSavedByObjectVersion
1070
     0
  0
VISUALSTYLE
  5
FC
102
{ACAD_XDICTIONARY
360
E3C5
102
}
102
{ACAD_REACTORS
330
EF
102
}
330
EF
100
AcDbVisualStyle
  2
Thicken
 70
    13
 71
     2
 72
     2
 73
     1
 90
        0
 40
-0.6
 41
-30.0
 62
     5
 63
     7
 74
     1
 91
        4
 64
     7
 65
   257
 75
     1
175
     1
 42
1.0
 92
       12
 66
     7
 43
1.0
 76
     1
 77
     6
 78
     2
 67
     7
 79
     5
170
     0
171
     0
290
     0
174
     0
 93
        1
 44
0.0
173
     0
291
     1
 45
0.0
1001
ACAD
1000
AcDbSavedByObjectVersion
1070
     0
  0
VISUALSTYLE
  5
F6
102
{ACAD_XDICTIONARY
360
E3B9
102
}
102
{ACAD_REACTORS
330
EF
102
}
330
EF
100
AcDbVisualStyle
  2
Wireframe
 70
     5
 71
     0
 72
     2
 73
     0
 90
        0
 40
-0.6
 41
-30.0
 62
     5
 63
     7
 74
     1
 91
        4
 64
     7
 65
   257
 75
     1
175
     1
 42
1.0
 92
        0
 66
   257
 43
1.0
 76
     1
 77
     6
 78
     2
 67
     7
 79
     3
170
     0
171
     0
290
     0
174
     0
 93
        1
 44
0.0
173
     0
291
     0
 45
0.0
1001
ACAD
1000
AcDbSavedByObjectVersion
1070
     0
  0
VISUALSTYLE
  5
1F1
102
{ACAD_XDICTIONARY
360
E3D9
102
}
102
{ACAD_REACTORS
330
EF
102
}
330
EF
100
AcDbVisualStyle
  2
X-Ray
 70
    25
 71
     2
 72
     2
 73
     1
 90
        1
 40
0.5
 41
-30.0
 62
     5
 63
     7
 74
     1
 91
        0
 64
     7
 65
   257
 75
     1
175
     1
 42
1.0
 92
        8
 66
     7
 43
1.0
 76
     1
 77
     6
 78
     2
 67
     7
 79
     3
170
     0
171
     0
290
     0
174
     0
 93
       13
 44
0.0
173
     0
291
     0
 45
0.0
1001
ACAD
1000
AcDbSavedByObjectVersion
1070
     0
  0
DICTIONARYVAR
  5
146
102
{ACAD_REACTORS
330
5E
102
}
330
5E
100
DictionaryVariables
280
     0
  1
1:1
  0
DICTIONARYVAR
  5
259
102
{ACAD_REACTORS
330
5E
102
}
330
5E
100
DictionaryVariables
280
     0
  1
3.500000
  0
DICTIONARYVAR
  5
25A
102
{ACAD_REACTORS
330
5E
102
}
330
5E
100
DictionaryVariables
280
     0
  1
acadiso.lin
  0
DICTIONARYVAR
  5
145
102
{ACAD_REACTORS
330
5E
102
}
330
5E
100
DictionaryVariables
280
     0
  1
STANDARD
  0
DICTIONARYVAR
  5
84
102
{ACAD_REACTORS
330
5E
102
}
330
5E
100
DictionaryVariables
280
     0
  1
STANDARD
  0
DICTIONARYVAR
  5
227
102
{ACAD_REACTORS
330
5E
102
}
330
5E
100
DictionaryVariables
280
     0
  1
Metric50
  0
DICTIONARYVAR
  5
228
102
{ACAD_REACTORS
330
5E
102
}
330
5E
100
DictionaryVariables
280
     0
  1
Metric50
  0
DICTIONARYVAR
  5
5F
102
{ACAD_REACTORS
330
5E
102
}
330
5E
100
DictionaryVariables
280
     0
  1
2
  0
DICTIONARYVAR
  5
63
102
{ACAD_REACTORS
330
5E
102
}
330
5E
100
DictionaryVariables
280
     0
  1
1
  0
DICTIONARYVAR
  5
E34E
102
{ACAD_REACTORS
330
5E
102
}
330
5E
100
DictionaryVariables
280
     0
  1
0
  0
DICTIONARYVAR
  5
1AE
102
{ACAD_REACTORS
330
5E
102
}
330
5E
100
DictionaryVariables
280
     0
  1
0
  0
DICTIONARYVAR
  5
1AF
102
{ACAD_REACTORS
330
5E
102
}
330
5E
100
DictionaryVariables
280
     0
  1
0
  0
DICTIONARYVAR
  5
E34C
102
{ACAD_REACTORS
330
5E
102
}
330
5E
100
DictionaryVariables
280
     0
  1
2
  0
DICTIONARYVAR
  5
E34B
102
{ACAD_REACTORS
330
5E
102
}
330
5E
100
DictionaryVariables
280
     0
  1
1
  0
DICTIONARYVAR
  5
E39E
102
{ACAD_REACTORS
330
5E
102
}
330
5E
100
DictionaryVariables
280
     0
  1
80.000000
  0
DICTIONARYVAR
  5
E39D
102
{ACAD_REACTORS
330
5E
102
}
330
5E
100
DictionaryVariables
280
     0
  1
5.000000
  0
DICTIONARYVAR
  5
E34D
102
{ACAD_REACTORS
330
5E
102
}
330
5E
100
DictionaryVariables
280
     0
  1
127
  0
DICTIONARYVAR
  5
E39F
102
{ACAD_REACTORS
330
5E
102
}
330
5E
100
DictionaryVariables
280
     0
  1
2
  0
DICTIONARY
  5
E3E1
330
21C
100
AcDbDictionary
280
     1
281
     1
  3
ACAD_XREC_ROUNDTRIP
360
E3E2
  0
DICTIONARY
  5
E3A6
330
D3
100
AcDbDictionary
280
     1
281
     1
  3
ACAD_XREC_ROUNDTRIP
360
E3A7
  0
DICTIONARY
  5
E3A8
330
D7
100
AcDbDictionary
280
     1
281
     1
  3
ACAD_XREC_ROUNDTRIP
360
E3A9
  0
DICTIONARY
  5
E3A3
330
22
100
AcDbDictionary
280
     1
281
     1
  3
ACAD_XREC_ROUNDTRIP
360
E3A4
  0
DICTIONARY
  5
1F9
330
ED
100
AcDbDictionary
280
     1
281
     1
  3
ACAD_XREC_ROUNDTRIP
360
E3AB
  3
FBXASSET
360
1FA
  0
DICTIONARY
  5
1F7
330
EC
100
AcDbDictionary
280
     1
281
     1
  3
ACAD_XREC_ROUNDTRIP
360
E3AA
  3
FBXASSET
360
1F8
  0
DICTIONARY
  5
173
330
EE
100
AcDbDictionary
280
     1
281
     1
  3
ACAD_XREC_ROUNDTRIP
360
E3AC
  3
BUMPTILE
360
175
  3
DIFFUSETILE
360
174
  3
FBXASSET
360
1FB
  3
OPACITYTILE
360
176
  3
REFLECTIONTILE
360
177
  0
DICTIONARY
  5
E3CD
330
12E
100
AcDbDictionary
280
     1
281
     1
  3
ACAD_XREC_ROUNDTRIP
360
E3CE
  0
DICTIONARY
  5
E3DF
330
21A
100
AcDbDictionary
280
     1
281
     1
  3
ACAD_XREC_ROUNDTRIP
360
E3E0
  0
DICTIONARY
  5
162
330
7F
100
AcDbDictionary
280
     1
281
     1
  3
ACAD_ROUNDTRIP_2008_TABLESTYLE_CELLSTYLEMAP
360
E3A0
  3
ACAD_XREC_ROUNDTRIP
360
E3A5
  0
DICTIONARY
  5
E3B7
330
F5
100
AcDbDictionary
280
     1
281
     1
  3
ACAD_XREC_ROUNDTRIP
360
E3B8
  0
DICTIONARY
  5
E3B5
330
F4
100
AcDbDictionary
280
     1
281
     1
  3
ACAD_XREC_ROUNDTRIP
360
E3B6
  0
DICTIONARY
  5
E3C3
330
FB
100
AcDbDictionary
280
     1
281
     1
  3
ACAD_XREC_ROUNDTRIP
360
E3C4
  0
DICTIONARY
  5
E3CB
330
FF
100
AcDbDictionary
280
     1
281
     1
  3
ACAD_XREC_ROUNDTRIP
360
E3CC
  0
DICTIONARY
  5
E3BD
330
F8
100
AcDbDictionary
280
     1
281
     1
  3
ACAD_XREC_ROUNDTRIP
360
E3BE
  0
DICTIONARY
  5
E3C1
330
FA
100
AcDbDictionary
280
     1
281
     1
  3
ACAD_XREC_ROUNDTRIP
360
E3C2
  0
DICTIONARY
  5
E3D3
330
1E6
100
AcDbDictionary
280
     1
281
     1
  3
ACAD_XREC_ROUNDTRIP
360
E3D4
  0
DICTIONARY
  5
E3C9
330
FE
100
AcDbDictionary
280
     1
281
     1
  3
ACAD_XREC_ROUNDTRIP
360
E3CA
  0
DICTIONARY
  5
E3AD
330
F0
100
AcDbDictionary
280
     1
281
     1
  3
ACAD_XREC_ROUNDTRIP
360
E3AE
  0
DICTIONARY
  5
E3AF
330
F1
100
AcDbDictionary
280
     1
281
     1
  3
ACAD_XREC_ROUNDTRIP
360
E3B0
  0
DICTIONARY
  5
E3B1
330
F2
100
AcDbDictionary
280
     1
281
     1
  3
ACAD_XREC_ROUNDTRIP
360
E3B2
  0
DICTIONARY
  5
E3B3
330
F3
100
AcDbDictionary
280
     1
281
     1
  3
ACAD_XREC_ROUNDTRIP
360
E3B4
  0
DICTIONARY
  5
E3BB
330
F7
100
AcDbDictionary
280
     1
281
     1
  3
ACAD_XREC_ROUNDTRIP
360
E3BC
  0
DICTIONARY
  5
E3CF
330
1E4
100
AcDbDictionary
280
     1
281
     1
  3
ACAD_XREC_ROUNDTRIP
360
E3D0
  0
DICTIONARY
  5
E3C7
330
FD
100
AcDbDictionary
280
     1
281
     1
  3
ACAD_XREC_ROUNDTRIP
360
E3C8
  0
DICTIONARY
  5
E3D1
330
1E5
100
AcDbDictionary
280
     1
281
     1
  3
ACAD_XREC_ROUNDTRIP
360
E3D2
  0
DICTIONARY
  5
E3BF
330
F9
100
AcDbDictionary
280
     1
281
     1
  3
ACAD_XREC_ROUNDTRIP
360
E3C0
  0
DICTIONARY
  5
E3DD
330
1F3
100
AcDbDictionary
280
     1
281
     1
  3
ACAD_XREC_ROUNDTRIP
360
E3DE
  0
DICTIONARY
  5
E3DB
330
1F2
100
AcDbDictionary
280
     1
281
     1
  3
ACAD_XREC_ROUNDTRIP
360
E3DC
  0
DICTIONARY
  5
E3D5
330
1EF
100
AcDbDictionary
280
     1
281
     1
  3
ACAD_XREC_ROUNDTRIP
360
E3D6
  0
DICTIONARY
  5
E3D7
330
1F0
100
AcDbDictionary
280
     1
281
     1
  3
ACAD_XREC_ROUNDTRIP
360
E3D8
  0
DICTIONARY
  5
E3C5
330
FC
100
AcDbDictionary
280
     1
281
     1
  3
ACAD_XREC_ROUNDTRIP
360
E3C6
  0
DICTIONARY
  5
E3B9
330
F6
100
AcDbDictionary
280
     1
281
     1
  3
ACAD_XREC_ROUNDTRIP
360
E3BA
  0
DICTIONARY
  5
E3D9
330
1F1
100
AcDbDictionary
280
     1
281
     1
  3
ACAD_XREC_ROUNDTRIP
360
E3DA
  0
XRECORD
  5
E3E2
102
{ACAD_REACTORS
330
E3E1
102
}
330
E3E1
100
AcDbXrecord
280
     1
102
DISPLAYNAME
  1
Metric50
102
FLAGS
 90
        0
  0
XRECORD
  5
E3A7
102
{ACAD_REACTORS
330
E3A6
102
}
330
E3A6
100
AcDbXrecord
280
     1
102
SHADEPLOT
 70
     0
102
SHADEPLOTRESLEVEL
 70
     2
102
SHADEPLOTCUSTOMDPI
 70
   300
  0
XRECORD
  5
E3A9
102
{ACAD_REACTORS
330
E3A8
102
}
330
E3A8
100
AcDbXrecord
280
     1
102
SHADEPLOT
 70
     0
102
SHADEPLOTRESLEVEL
 70
     2
102
SHADEPLOTCUSTOMDPI
 70
   300
  0
XRECORD
  5
E3A4
102
{ACAD_REACTORS
330
E3A3
102
}
330
E3A3
100
AcDbXrecord
280
     1
102
SHADEPLOT
 70
     0
102
SHADEPLOTRESLEVEL
 70
     2
102
SHADEPLOTCUSTOMDPI
 70
   300
  0
XRECORD
  5
E3AB
102
{ACAD_REACTORS
330
1F9
102
}
330
1F9
100
AcDbXrecord
280
     1
102
MATERIAL
148
0.0
149
0.0
149
0.0
 93
        0
 94
       63
282
     0
 72
     1
 77
     1
171
     1
175
     1
179
     1
273
     0
  0
XRECORD
  5
1FA
102
{ACAD_REACTORS
330
1F9
102
}
330
1F9
100
AcDbXrecord
280
     1
 70
     1
 90
429727718
  1
D62C5603-E3A1-4AEA-B7FB-FE5D8D0755AF
310
504B03040A0000080000CC70623B3DEE336E79000000790000001B0000006175746F6465736B2D64657369676E2D7061636B6167652E786D6C3C3F786D6C2076657273696F6E3D22312E302220656E636F64696E673D227574662D3822203F3E3C666F726D6174733E3C666F726D61743E687474703A2F2F736368656D612E
310
6175746F6465736B2E636F6D2F64657369676E2D7061636B6167652F323030393C2F666F726D61743E3C2F666F726D6174733E504B0304140006080800CC70623BD486FD9CA0000000F4000000130000005B436F6E74656E745F54797065735D2E786D6C7D8EC10E82300C865F65E91D8A1E8C310C0EEA1BF002731658846E
310
D98AC1B77784ABF1D8FE5FBFBF75BBCE937A534CCEB38643598122B6FEE978D0B0485F9C41B54DDD7D022595594E1A469170414C76A4D9A4D207E29CF43ECE46F218070CC6BECC4078ACAA135ACF422C856C0E68EA1BF5669944DDD7BCDE7B1F8E415D77AECB980613C2E4AC91FC167A2B244592486606FC29C8FD7F045B9A
310
EF7053A7E60B504B0304140006080800CC70623B853B8169EB0000007C01000008000000636F72652E786D6C8D90416EC3201045AF62CDB6C206821CC7C244919D9CA01740401C94182C03558F5F9C3852BBEB6A467FFE9B197D7EFC9E1EC5975982F5AE035262288C535E5B377690E21535501C055FBC8FBF6C503839990E
310
5619041F179FE64D52DE45E362569DD7661365082642A11EB9E920A89B99642953CC8E702F67A9EE7234257977194EC9EAE275C4EABCCF5EAD5940D4AC6F0E35A568B8F43562CD7046CD199FD07E60174276A7BE677B5EADB0E0D14EEFFB6A31321A0D82627C4084204C3F096B71DD52F6819B16635EADF63F509AF53FA164
310
5DDCD1EDDD17164090FCC8732078B56691CB33A85CD7DCC40F504B0304140006080800CC70623B55019EA25F0000007C00000007000000636E782E786D6C4DCB3B0E80201045D1AD90E915ED2CF8AC45050C11660C8261F98AB1B07AC9C97D42D718D865D3E909258CFD00CCE24AC6E326A164D74DC0B4128928FF32603847
310
2BA13128B1252AC747C6BAB984FC68F0B87FE8960A5C09FE86CFB69FBA01504B0304140006080800CC70623BDBABAAF470010000D40300000C0000006662782F636F72652E786D6CC553D16E823014FD95A6AF4B694182CC941A83FA05FB810A9511A125A5257EFE2E82712ECEB8A7F100CD39F7F69E734AF9FADC366850B6
310
AF8DCE7018308C942E4C59EB2AC3DE1D498AD15A706B8CFB56869196ADCAF00863C12B6B7C374385D14E6907A836A59A41D9F7CA615434B0C8705F7CAA5606D23BA8E84F41278B93AC54100640439DE0BDB320004D43C63716C7C399D30917DCFBBA9CD9BA8469F5B156168B24CED3F7248AC8769F27244EB73B92EED8862C
310
B7F13E0C179B3C8F979C8ECD82BBBABDAA2BAC924E9558448CBD9330242CFA08E3154B5651FCC6D215639C8EE5774DBE2B5F6CF2B5768B68963BB5F5588420E442FC700B1139D4CB01F450C1E918227C2E09DF070D8140C84E1E9AAB8F1340832A9CB13130A5F1376A908D57309505ECF2A0DF179C4E9D30F5B239B87E3823
310
7A79C6F31DE1A8A5AEC08474B03C7837EAE4938639B44E5932B833D2C6B6B279CDC613877FA26EE21F4A2A4C63EC7F29A2F301D1F9F7A0E37D145F504B0304140006080800CC70623B9C113CC27E0000009D0000000B0000006662782F636E782E786D6C4DCCDF0A83201C86E15B91DFB94BFB330DD428C8FB886521330DA7
310
6397BF1A1DECE883878F57749FCDA1B7892F1BBC047A23808C7F84D9FA55424E0BE6803A256208E9EF06C84F9B91703228B1C690F78B66B34CD9A5439DF5CF0BFBF65E35BCA1B8D6A5C6F540381E886698B5741C695F9503EBA150A2F8958E3DC3EA0B504B0304140006080800CC70623B7DF2F77C2A010000120200003100
310
00006662782F41393633353835312D344632462D344230382D423046372D3739314545314133324237412F636F72652E786D6C8D51DB8EC22014FC15C2939B0D2DB4B45643319AE817EC0F6041255A68B86CFCFC856D4D76DF7CE190393373060EDB3DC707F856CE6B6B7A480A0C81328395DA5C7B18C3057510EC3873D686
310
3F34088C18550F330C39BB3A1BA7051AAC09CA84841A2BD5020AEF55806078A44B0FFD7053A328440C89E1EFC52486BBB8AA8214A99D789CF9E05200300FC927E4FB4D5B375D43103D5527440FB843077C5AA3F5861C8F645F5787F59E95B390B318B55CE45AA638FAA2957BD7248B390B7A7CC51F9C124149C82B8C378810
310
84AB2F42B7B8DD56F413775B8C5999E9FF4471926F8AA236A1AE96B8B3CC434E5839373893369E1FAF30EA395917409EB7F26AF8801C171837A4A6AC9C89E9F9C9B1A58BA30FD6A5EF5DDDCF894B9AD9B6A59C957943A9FCAE2FD5BC4DFE03504B0304140006080800CC70623BAD7543B64E01000033030000300000006662
310
782F41393633353835312D344632462D344230382D423046372D3739314545314133324237412F636E782E786D6CD593CD6EC32010845F0571AD6CE3D48AD20813A9873E410FBD12D82434182C7EAAE6EDBB2424CD25871E7B41D6EC30B3FA84F9E67BB2E40B4234DE8DB46F1925E094D7C6ED479AD3AE5951B2113C789FEE
310
6C943839C1488B4C05DF079FE72A69D8C96C13AAD6B8631503449F83828872B949AC57D26200B826A308D316B4064D6E46FCDA41C05550DC9E483A00797BFD207EFB092A45DE9514C1BBD22178396BD39D891265658C238DEA00936C654E5E433CB65A26D9F6EDB5EBC14EBF49A45CB856E66048291F6939A9A81BB5C89177
310
38143CA680F4AA299D66A042CEB3354A2684DC9D8D178FE0D9B8B41CAAD720F880EE7EF93C0C18769E099ECC04D5A102C8049A8A05632F4DDF376CF1DE0F6BB65C2F8627B65A33C6BB62177CEBBDAD973006829F89F22E814B54F4BC2BE347F8AA8F681390B50FA73F804400B5F542E796F19FF974E7F78DB802FE05E20750
310
4B0304140006080800CC70623BE75B7789680500003C100000340000006662782F41393633353835312D344632462D344230382D423046372D3739314545314133324237412F6F626A656374732E786D6CAD575B8F9B3818FD2B887D06C22499CB8AA1CA655245D5B455A356FB305264C061D8018C6C3393D95FBFC7600890
310
A4CD5EF210B0B1BFEBF98E3F7B1FF6596ABC522E1296DF9BAE3D320D9A872C4AF2F8DE2CE5CEBA358D0FBEC719939D65A691938CDE9B6ADAF4BD98B3B2D05311DD91329583D9D5FC0F438434A7A611A644887B5384CF34233629258BA878B12322891DEFF6B66BD70BFB62634E8AE781D082709A4B588AF91C528CDA28B73F
310
1C998EEF39EABBEFA97FBD6A7C7E9553F9D3D79FE442923C3C523610337627CB87ABE99D359D4CC6D6E4FACAB5E6ABF9D2726FC6A3C5F56271377BB88362213924694B38DD99FE47C48627A1E7D49F5A8BB5E1A74C0A599ED3B0F21F1E56366B89112D681E218F0915D0D6F17AD41FBA2A369DCF6335D62ABBD39779D5DDD1
310
11D4D8DE3CBB96B2E04FB8202E41051754A1AA8E8F76B4C6DFE810B580B1547F4B84911149794252234D024EF8BBE963A95AE27B3D310A9D5C215C7960FAEE415ED75694C6AFB17BCACA5D99A60A9AA65F217B0BFC53292ACB92BF283FAD0D3621576592CB5BED907C2FA8E9DF794E35E97BEA31BED21FEB401ABB94C44839
310
DCACBF0E1C5DA8DA5B2F4DFFD32AD86F543D9E565E7056502E157C00AD2671CD534549AB752FCA9CDA00677A313F04E51B22FF19E57B300579E3C97EB29F682D92935CEC18CF901B7B54FD8C51F362B56FC72FE0B3C1EAE335EDCCBF5AEC39ADB17DC238973F804BA5E6F6BFE7AF1FB32E523BE9F3BD571418E3631DCA4D48
310
5250CF639223210A9446CA30052EDF057BD35F8329C1ECD84552BF0DC8D18BE7BCE23BFE6BD960AB4A7DE79923A103BEBD80F911CBAA2C60DB19B01CF164A5583B772EE6D3FFA56666CBCDA74DC97724A48F9A58967497E489C4D979006FD7A05E227A1EBDD0F737C623387A9C844D3709995625106D157315F8B8392CD4E0
310
A0B9A720C4BE9829CEF37EA1E13111214D53925356365ADA634861B52519DD27A00AEB808EAF0628E6F435519D446F45CF2C9CF5214F0A15B2F6D06B79DA3EE3CBF7F56780D2F4E7EF73A0F5E5B02A38D07DC852C6B7C1FBB6664213E0C39E3EBA7FF4E1AD23EA2829407C85E586727488B751B2DB9502BC7B228A3FD68B6E
310
A65A22397E690AA8D158D7E404EC8CDA235CC3B7D1898680131CEC2CDF2638C65196279577750F15884AEE19F94199155B92B13297978469D4F8D358DF0AEF7631E28DC8F0D9F437D5D39A83B2231A1D52D543813A824EF8D44BCFF2FA6A31BD1E8DAD87F1CCB526B3879935BF59CDADD5C37479BB1CDD4CA7B3556B516589
310
EF352754B706114D9C885EC9131DE6EFEB43D99AFE2391C2F958179413D7CFEF6B1B6DB1E7600F00DE6E5C67454A339A4BA2E0FBA85ED26F045D454F463DBFCE484C2F90F2E5E3666003662ED8F755951A7D1BECD5B30B550B2785C8E7320B7292A4838DDA71BBC863ED7613CAF659337A3354231D4FF4A182A54904C2898C
310
98B28C4AD0CE056CCF332A80986E571EE9DBC305BB5FEB7E509220A58D25CF042D712A806AC0AD0C657FDEF80D2D9CEAA2EE4D1C76F60BFE74219A06527D6F82DF6412526107381E55E353090704D085B52408A8913C4ED159D79BDA71BB4BC506F4831350EB6F975CD22D69BF7AC49B91A2C0A9DDA3D5CA36AD20FC478E37
310
E61844E2352865EBCB61A275A65283CAAA9DD27703B4102F5AF51EF5F573B75CBB5AD38BC845F7A49F82A0966A49C2E3EA5EA0ECD326CD965F1DB402C6FA8B51A4658C5C5E2EC9E214602E55810345408596591009A82E7E7FFACA19EEA299B14A0081A705CB3296EBC14CDF658DCD336EA6D1136881AAEB87B81AB9EE53D5
310
F5EB8BC8362082DA24122F98680A4E7930C01A0079749CEA14382A0783E5EBA5A10F8C098456A03D6A4AEB6BB881E2513747552A5DB22C7EDAF83BD5528081A365F7FF06504B0304140006080000CC70623B000000000000000000000000350000006662782F41393633353835312D344632462D344230382D423046372D37
310
39314545314133324237412F76657274696365732E62696E504B0304140006080800CC70623BF270F1330600000004000000360000006662782F41393633353835312D344632462D344230382D423046372D3739314545314133324237412F747269616E676C65732E62696E636660600000504B0304140006080000CC7062
310
3B000000000000000000000000370000006662782F41393633353835312D344632462D344230382D423046372D3739314545314133324237412F617474726962757465732E62696E504B0304140006080800CC70623B08DA0BD19000000041010000360000006662782F41393633353835312D344632462D344230382D4230
310
46372D3739314545314133324237412F6469726563746F72792E786D6C858F410AC3201045AF22B36F53E9A60B35CBEEBAE80D244E44489C6234F4F835464A48035D0DF398FF9F8AF63D0E6CC63039F212F8F9020C7D47C6792B21C5FE7403D62A1188E2E60C98D7234A5830286103A55745067B9D86B8A3CF9C7F90C11DE6
310
07FB144396D7B6A82D282E9A152AD114D5EF2CB866EEE831B8EEA07A7BB5A8D7D61A2BAAEB7FD5F70921FF497D00504B0304140006080800CC70623BEDD1DC58FD000000A00100003B0000006662782F41393633353835312D344632462D344230382D423046372D3739314545314133324237412F7265736F75726365732F
310
636F72652E786D6C8D504B6E833010BD0A9A6D65B00922041947112427E8052C33A156828DFCA97AFC9A40A576D7CDCCE87D344F8F9FBFE667F689CE6B6B3A6039850C8DB2A336530731DC4903D95970676DF82583CCC8193B5861107C72362E3BA4AC096842428D1D7107A5F7182053CF7474E0D507CE32973124857FE48B
310
540F3961CEF244279DE03EB81420DB9EAC1384436FA353E879B1B182C7A8C75DA3C7F453DF353A1075D537A7BA6464B8F535A99AE14A9A2BBD90E350DD183B5CFABE3AF262350B1EF4FC9351399401471025A527C218A1E53BAB5A5AB765F5469B96525EACF23FA6B88CFF34456DC2A1DCE36E360F82A5202F42F062ED2BAD
310
579969AFDD8A6F504B010214000A0000080000CC70623B3DEE336E79000000790000001B00000000000000000000000000000000006175746F6465736B2D64657369676E2D7061636B6167652E786D6C504B01021400140006080800CC70623BD486FD9CA0000000F40000001300000000000000000000000000B20000005B
310
436F6E74656E745F54797065735D2E786D6C504B01021400140006080800CC70623B853B8169EB0000007C010000080000000000000000000000000083010000636F72652E786D6C504B01021400140006080800CC70623B55019EA25F0000007C000000070000000000000000000000000094020000636E782E786D6C504B
310
01021400140006080800CC70623BDBABAAF470010000D40300000C00000000000000000000000000180300006662782F636F72652E786D6C504B01021400140006080800CC70623B9C113CC27E0000009D0000000B00000000000000000000000000B20400006662782F636E782E786D6C504B01021400140006080800CC70
310
623B7DF2F77C2A010000120200003100000000000000000000000000590500006662782F41393633353835312D344632462D344230382D423046372D3739314545314133324237412F636F72652E786D6C504B01021400140006080800CC70623BAD7543B64E010000330300003000000000000000000000000000D2060000
310
6662782F41393633353835312D344632462D344230382D423046372D3739314545314133324237412F636E782E786D6C504B01021400140006080800CC70623BE75B7789680500003C10000034000000000000000000000000006E0800006662782F41393633353835312D344632462D344230382D423046372D3739314545
310
314133324237412F6F626A656374732E786D6C504B01021400140006080000CC70623B0000000000000000000000003500000000000000000000000000280E00006662782F41393633353835312D344632462D344230382D423046372D3739314545314133324237412F76657274696365732E62696E504B01021400140006
310
080800CC70623BF270F133060000000400000036000000000000000000000000007B0E00006662782F41393633353835312D344632462D344230382D423046372D3739314545314133324237412F747269616E676C65732E62696E504B01021400140006080000CC70623B0000000000000000000000003700000000000000
310
000000000000D50E00006662782F41393633353835312D344632462D344230382D423046372D3739314545314133324237412F617474726962757465732E62696E504B01021400140006080800CC70623B08DA0BD1900000004101000036000000000000000000000000002A0F00006662782F41393633353835312D344632
310
462D344230382D423046372D3739314545314133324237412F6469726563746F72792E786D6C504B01021400140006080800CC70623BEDD1DC58FD000000A00100003B000000000000000000000000000E1000006662782F41393633353835312D344632462D344230382D423046372D3739314545314133324237412F7265
310
736F75726365732F636F72652E786D6C504B0506000000000E000E0080040000641100000000
  0
XRECORD
  5
E3AA
102
{ACAD_REACTORS
330
1F7
102
}
330
1F7
100
AcDbXrecord
280
     1
102
MATERIAL
148
0.0
149
0.0
149
0.0
 93
        0
 94
       63
282
     0
 72
     1
 77
     1
171
     1
175
     1
179
     1
273
     0
  0
XRECORD
  5
1F8
102
{ACAD_REACTORS
330
1F7
102
}
330
1F7
100
AcDbXrecord
280
     1
 70
     1
 90
429727718
  1
30362254-06B7-45E0-A893-8CFA70E3D6BC
310
504B03040A0000080000CC70623B3DEE336E79000000790000001B0000006175746F6465736B2D64657369676E2D7061636B6167652E786D6C3C3F786D6C2076657273696F6E3D22312E302220656E636F64696E673D227574662D3822203F3E3C666F726D6174733E3C666F726D61743E687474703A2F2F736368656D612E
310
6175746F6465736B2E636F6D2F64657369676E2D7061636B6167652F323030393C2F666F726D61743E3C2F666F726D6174733E504B0304140006080800CC70623BD486FD9CA0000000F4000000130000005B436F6E74656E745F54797065735D2E786D6C7D8EC10E82300C865F65E91D8A1E8C310C0EEA1BF002731658846E
310
D98AC1B77784ABF1D8FE5FBFBF75BBCE937A534CCEB38643598122B6FEE978D0B0485F9C41B54DDD7D022595594E1A469170414C76A4D9A4D207E29CF43ECE46F218070CC6BECC4078ACAA135ACF422C856C0E68EA1BF5669944DDD7BCDE7B1F8E415D77AECB980613C2E4AC91FC167A2B244592486606FC29C8FD7F045B9A
310
EF7053A7E60B504B0304140006080800CC70623B1EC5D7A3EB0000007C01000008000000636F72652E786D6C8D90416EC3201045AF82665B6103C6756C6122AB4D4ED00B204C5C94182C03558F5F9C3852BBEB6A467FFE9B197D71FC9E6FE8CBACC17AD7032D0820E3B41FAD9B7A48F1820F808E52ACDEC75F36404ECDA687
310
4D0629A6D5A76597B477D1B89855E747B38B2A041301E95B6E7A08FAD3CCAA50296647B8168BD2573599823EBB0CA76447F43862C7BCCF5EAC59410E4DDD9C7973C2755553CCCFA4C603E3040F1565ED3B1FDE4E432BCA0D9622DAF9795FAF464533826484B498524CD807E51D79ED187F21878E10516EF63F505AC67F42C9
310
BA58B1FDDD071640D2FCC87D2045B96591CB3DA85CB7DCE40F504B0304140006080800CC70623B55019EA25F0000007C00000007000000636E782E786D6C4DCB3B0E80201045D1AD90E915ED2CF8AC45050C11660C8261F98AB1B07AC9C97D42D718D865D3E909258CFD00CCE24AC6E326A164D74DC0B4128928FF32603847
310
2BA13128B1252AC747C6BAB984FC68F0B87FE8960A5C09FE86CFB69FBA01504B0304140006080800CC70623B8C9102E971010000D40300000C0000006662782F636F72652E786D6CC5535B6E833010BC8AE5DF0A6C08340F1947A84D4ED00B38C6A128602363A31CBFCB234A53A551FA553EC09AD9F5CE8C31DB9E9B1AF5CA
310
7695D1198E428A91D2D214952E33ECDD315861B4E5CC1AE3BE9561A445A3323CC098B3D21ADFCE9034DA29ED00D5A6503328BA4E398C640D8B0C77F253352214DE4145770A5B214FA2546114020D759C75CE8200340D19DE981F0F6746269C33EFAB6266AB02A655C74A59CCF365BADC27CB5D902ED22848F6340DF238A141
310
BE88E2F57B92BFEDF23523433367AE6A2EEAA455C2A902F398D2751045018D3FA264435F3771F242571B4A1919CA6F9A7C5B3CD9E42BED16F12C776AEB308F40C848FC700B1139D4891EF410CEC810227CC6846F8386402064270EF5C5C709A05E49676C024C61FC95EA45ED154CA5211D1FF4FB8291A913A68E9B83EBBB33
310
E2A7673CDE118E5AE8124C0807CB8377834E366998436B950D7A7746DAD846D4CFD978E0F04FD455FC5D49D2D4C6FE9722321F10997F0F32DC47FE05504B0304140006080800CC70623BFFEA85907E0000009D0000000B0000006662782F636E782E786D6C4DCCD10A83201886E15B91FFDC95D95A811AB6F23E625948A6C3
310
E9D8E5AF46073BFAE0E1E365ED67B3E8ADC3CB78C7815C7240DA3DFC64DCC221C519D7805AC182F7F1EF06C88D9BE6703008B6049F9E274D7A1E938DBB5AE3D6131B2589BA0D3D965551E0B2EA732C9B9A624AAEB41E3A557677029960D9AFB4EF11165F504B0304140006080800CC70623B4FEEA4082C0100001202000031
310
0000006662782F39464131463745442D413632322D343644302D413938332D3331353338454246344243312F636F72652E786D6C8D515B6EC32010BC0AE2AB55850DD871ED0813254D72825EC00192A2C460F1A872FC42ED48ED5F7E00CDCECCCEB26C731F6FE05B39AFADE921293004CA082BB5B9F43086336A21D870E6AC
310
0D7F68109861543DCC30E4ECE26C9C164858139409093556AA051CBC570102714B8F1E7AF1A5C6A11862480C7F2DA6415C878B2A4891CA89C7990F2E050073937C42DE1DB7E4F87ED8A36D4329AA9B3D46DBAEAD504556557BD81DEBDD0761E52CE42C462D17B996298E3E6BE59E35C962CE821E1FF18553435012728A7187
310
0841987E927A8D9B35ADDF70BBC6989599FE4F1427F9A4286A132ABAC49D651EF234CD5CE04CDA78BA3DC2A8FB645D00B9DF8B57E215725C60BCA2A463E54C4CE327C7A65E1C7DB02E7DEFCBF594B864C5CA6CDBD49C957943E9FA5D5FBAF336F90F504B0304140006080800CC70623BAD7543B64E01000033030000300000
310
006662782F39464131463745442D413632322D343644302D413938332D3331353338454246344243312F636E782E786D6CD593CD6EC32010845F0571AD6CE3D48AD20813A9873E410FBD12D82434182C7EAAE6EDBB2424CD25871E7B41D6EC30B3FA84F9E67BB2E40B4234DE8DB46F1925E094D7C6ED479AD3AE5951B2113C
310
789FEE6C943839C1488B4C05DF079FE72A69D8C96C13AAD6B8631503449F83828872B949AC57D26200B826A308D316B4064D6E46FCDA41C05550DC9E483A00797BFD207EFB092A45DE9514C1BBD22178396BD39D891265658C238DEA00936C654E5E433CB65A26D9F6EDB5EBC14EBF49A45CB856E66048291F6939A9A81BB5
310
C8917738143CA680F4AA299D66A042CEB3354A2684DC9D8D178FE0D9B8B41CAAD720F880EE7EF93C0C18769E099ECC04D5A102C8049A8A05632F4DDF376CF1DE0F6BB65C2F8627B65A33C6BB62177CEBBDAD973006829F89F22E814B54F4BC2BE347F8AA8F681390B50FA73F804400B5F542E796F19FF974E7F78DB802FE05
310
E207504B0304140006080800CC70623B16AB87BA640500003C100000340000006662782F39464131463745442D413632322D343644302D413938332D3331353338454246344243312F6F626A656374732E786D6CAD575B6FA33818FD2B887DE6924B3BED8A326A92B68A663B534DD4D13E548A0C38942D60649B369D5FBFC7
310
600890A493BDE42160637FD7F31D7FF63E6FB3D478A55C242CBF3247B66B1A340F5994E4F19559CA8D75611A9F7D8F33263BCB4C232719BD32D5B4E97B316765A1A722BA21652A07B3B7B33F0D11D29C9A46981221AE4C113ED38CD8A4942CA2E2C58E882476BCD9DA23BB5ED8171B73523C0F841684D35CC252CCE79062D4
310
468DFA43D7747CCF51DF7D4FFDEB5593E3AB9CCA9FBEFE241792E4E19EB28198C968BAB8199F5D5A67D3E9C49A9E8F47D6EC76B6B0469F26EEFC7C3EBFBCBEB98462213924694B38DD98FE1D62C393D073EA4FADC5DAF04326852CCF6958F90F0F2B9BB5C48816348F90C7840A68EB78EDF68723159BCEE7891A6B95DDE9D3
310
BCEAEEE8086A6C6F9E5D4B59F0175C10A7A0820BAA5055C7473B5AE3CFDD452D602CD5DF12616444529E90D448938013FE6EFA58AA96F85E4F8C42275708571E98FE6827AF6B2B4AE3D7D83D64E5A64C53054DD3AF90BD06FEA9149565C94FCA0F6B834DC85599E4F2423B24DF0B6AFA979E534DFA9E7A4CC6FA631D486393
310
921829879BF5D781A373557BCB85E97FB90DB62B558F8795179C15944B051F40AB495CF35451D26A4727654E6D8033BD98EF82F21D91FF8AF2DD9982BCF1643BDD4EB516C9492E368C67C88DED563FC36D5EACF66DFF057C3658BDBFA69DF9578B3DA735B64F18C7F20770A9D45CFCF7FCF563D6456A277DBEF78A02637CA2
310
43B90A490AEAB94F72244481D24819A6C0E59B606BFA4B3025981DBB48EAB701D97BF19C577CC77F2D1B6C55A9EF3C732474C0B727303F625995056C3B02963D9EAC146BE78EC5FCEC7FA999EBC5EACBAAE41B12D27B4D2C0BBA49F244E2ECDC81B76B502F113D8F5EE8FB1BE3111CDD4FC2AA9B844CAB1288B68AB90A7CDC
310
1C166AB0D3DC5310625FCC14E779BFD0709F8890A629C9292B1B2DED31A4B0DA928CEE135085754027E3018A397D4D5427D15BD1330B677DC8934285AC3DF45A9EB68FF8F2B8FC0A509AFEECFD0FF2DE25CC6047F7214B195F07EFEB9A094D800F7BFAE8FED187B78EA8A3A400F115961BCAD1215E47C966530AF0EE8128FE
310
58CEBB996A8964FFA529A046635D9353B0336A8F700DDF46271A024E70B0B37C9DE01847591E54DED53D54202AB947E4076556AC49C6CA5C9E1226B7F1A7B1BE15DEED62C41B91E1B3E9AFAAA735036547343A925075041DF0A9979E893B391F8FCFA6967B3EFB644DCF6E5CEBFAE272625DCC6FAF3FB93793C5F90CE1EF57
310
407342756B10D1C489E8953CD1617E5CEECAD6F4EF8914CE5D5D504E5C3F1F9736DA62CFC11E00BCDDB8CC8A9466349744C1F75EBDA4DF09BA8A9E8C7A7E9991989E20E5DBDD6A6003664ED8F7A04A8DBE0DF6EAD9B9AA858342E47399053949D2C146EDB85DE4B176BB0965FBAC19BD19AA918E27FA50C1D22402E144464C
310
59462568E704B6E71915404CB72B8FF4EDE184DDAF753F284990D2C6926782963815403548A70C657FDEF80D2D9CEAA2AE4C1C76F60BFE74219A06527D6582DF6412526107381E55E353090704D085B52408D0933C4ED159D79BDA71BB4BC506F4831350EB6F979CD22D69BF7AC49B91A2C0A9DDA3D5CA36AD20FC478E37E6
310
1844E2352865EBCB6EA275A652E3836BE04EFB400BF1A2556F515F1FBB35B2AB35BD889C744FFA1004B5544B121E57F70215746DD2F5E2C1412B602CBF19455AC6C8E5E9922C4E01E65215385004546899059180EAFCF7A707CE7017CD8CDB0410789AB32C63B91E5CEBBBACB17AC6CD347A022D5075FD106377347AAABA7E
310
7D11590744509B44E205134DC1290F06580320F78E537D3D73540E06CB970B431F185308AD40BBD794D6D77003C5A36E8EAA54BA64597CD8F83BD552A080A365F7FF06504B0304140006080000CC70623B000000000000000000000000350000006662782F39464131463745442D413632322D343644302D413938332D3331
310
353338454246344243312F76657274696365732E62696E504B0304140006080800CC70623BF270F1330600000004000000360000006662782F39464131463745442D413632322D343644302D413938332D3331353338454246344243312F747269616E676C65732E62696E636660600000504B0304140006080000CC70623B
310
000000000000000000000000370000006662782F39464131463745442D413632322D343644302D413938332D3331353338454246344243312F617474726962757465732E62696E504B0304140006080800CC70623B08DA0BD19000000041010000360000006662782F39464131463745442D413632322D343644302D413938
310
332D3331353338454246344243312F6469726563746F72792E786D6C858F410AC3201045AF22B36F53E9A60B35CBEEBAE80D244E44489C6234F4F835464A48035D0DF398FF9F8AF63D0E6CC63039F212F8F9020C7D47C6792B21C5FE7403D62A1188E2E60C98D7234A5830286103A55745067B9D86B8A3CF9C7F90C11DE607
310
FB144396D7B6A82D282E9A152AD114D5EF2CB866EEE831B8EEA07A7BB5A8D7D61A2BAAEB7FD5F70921FF497D00504B0304140006080800CC70623B0D6EF93BFE000000A00100003B0000006662782F39464131463745442D413632322D343644302D413938332D3331353338454246344243312F7265736F75726365732F63
310
6F72652E786D6C8D50596E833010BD0A9ADFCA60B334011947A8694ED00B586642AC041B79A97AFC9A40A5F6AF3F33A3B7689E1E3F7DCD8FEC139DD7D6F4C0720A191A65476DA61E62B892236427C19DB5E1970C322367EC618541F0C9D9B8EC90B226A009093576C41D94DE63804C3DD2D18357379C652E63480A7FCF17A9
310
EE72C29CE5894E3AC17D702940B63D59270887DE46A7D0F36263058F518FBB468FE9A7BE6A7420864373B8D4873369AA8691FA421B3294352543C5CAF65C0F6FEF43CB8BD52C78D0F34F46E550061C419494B6843142CB0F5677F4B52BEB177AEC28E5C52AFF638ACBF84F53D42654E51E77B379102C05791282176B5F693D
310
CB4C7BED567C03504B010214000A0000080000CC70623B3DEE336E79000000790000001B00000000000000000000000000000000006175746F6465736B2D64657369676E2D7061636B6167652E786D6C504B01021400140006080800CC70623BD486FD9CA0000000F40000001300000000000000000000000000B20000005B
310
436F6E74656E745F54797065735D2E786D6C504B01021400140006080800CC70623B1EC5D7A3EB0000007C010000080000000000000000000000000083010000636F72652E786D6C504B01021400140006080800CC70623B55019EA25F0000007C000000070000000000000000000000000094020000636E782E786D6C504B
310
01021400140006080800CC70623B8C9102E971010000D40300000C00000000000000000000000000180300006662782F636F72652E786D6C504B01021400140006080800CC70623BFFEA85907E0000009D0000000B00000000000000000000000000B30400006662782F636E782E786D6C504B01021400140006080800CC70
310
623B4FEEA4082C0100001202000031000000000000000000000000005A0500006662782F39464131463745442D413632322D343644302D413938332D3331353338454246344243312F636F72652E786D6C504B01021400140006080800CC70623BAD7543B64E010000330300003000000000000000000000000000D5060000
310
6662782F39464131463745442D413632322D343644302D413938332D3331353338454246344243312F636E782E786D6C504B01021400140006080800CC70623B16AB87BA640500003C1000003400000000000000000000000000710800006662782F39464131463745442D413632322D343644302D413938332D3331353338
310
454246344243312F6F626A656374732E786D6C504B01021400140006080000CC70623B0000000000000000000000003500000000000000000000000000270E00006662782F39464131463745442D413632322D343644302D413938332D3331353338454246344243312F76657274696365732E62696E504B01021400140006
310
080800CC70623BF270F133060000000400000036000000000000000000000000007A0E00006662782F39464131463745442D413632322D343644302D413938332D3331353338454246344243312F747269616E676C65732E62696E504B01021400140006080000CC70623B0000000000000000000000003700000000000000
310
000000000000D40E00006662782F39464131463745442D413632322D343644302D413938332D3331353338454246344243312F617474726962757465732E62696E504B01021400140006080800CC70623B08DA0BD190000000410100003600000000000000000000000000290F00006662782F39464131463745442D413632
310
322D343644302D413938332D3331353338454246344243312F6469726563746F72792E786D6C504B01021400140006080800CC70623B0D6EF93BFE000000A00100003B000000000000000000000000000D1000006662782F39464131463745442D413632322D343644302D413938332D3331353338454246344243312F7265
310
736F75726365732F636F72652E786D6C504B0506000000000E000E0080040000641100000000
  0
XRECORD
  5
E3AC
102
{ACAD_REACTORS
330
173
102
}
330
173
100
AcDbXrecord
280
     1
102
MATERIAL
148
0.0
149
0.0
149
0.0
 93
        0
 94
       63
282
     0
 72
     1
 77
     1
171
     1
175
     1
179
     1
273
     0
  0
XRECORD
  5
175
102
{ACAD_REACTORS
330
173
102
}
330
173
100
AcDbXrecord
280
     1
270
     1
271
     1
  0
XRECORD
  5
174
102
{ACAD_REACTORS
330
173
102
}
330
173
100
AcDbXrecord
280
     1
270
     1
271
     1
  0
XRECORD
  5
1FB
102
{ACAD_REACTORS
330
173
102
}
330
173
100
AcDbXrecord
280
     1
 70
     0
 90
1673772943
  1
ECE7A1D2-D628-4531-984C-D00F80459256
310
504B03040A0000080000CC70623B3DEE336E79000000790000001B0000006175746F6465736B2D64657369676E2D7061636B6167652E786D6C3C3F786D6C2076657273696F6E3D22312E302220656E636F64696E673D227574662D3822203F3E3C666F726D6174733E3C666F726D61743E687474703A2F2F736368656D612E
310
6175746F6465736B2E636F6D2F64657369676E2D7061636B6167652F323030393C2F666F726D61743E3C2F666F726D6174733E504B0304140006080800CC70623BD486FD9CA0000000F4000000130000005B436F6E74656E745F54797065735D2E786D6C7D8EC10E82300C865F65E91D8A1E8C310C0EEA1BF002731658846E
310
D98AC1B77784ABF1D8FE5FBFBF75BBCE937A534CCEB38643598122B6FEE978D0B0485F9C41B54DDD7D022595594E1A469170414C76A4D9A4D207E29CF43ECE46F218070CC6BECC4078ACAA135ACF422C856C0E68EA1BF5669944DDD7BCDE7B1F8E415D77AECB980613C2E4AC91FC167A2B244592486606FC29C8FD7F045B9A
310
EF7053A7E60B504B0304140006080800CC70623BD9DDAED0EC0000007C01000008000000636F72652E786D6C8D90416EC3201045AF82665B61836D9CD8C2444DD39CA01740405C94182C03558F5F9C3852BBEB6A467FFE9B197D7EF89E6EE8CB2CC17A37002D0820E394D7D68D03A478C17B4007C117EFE32F1B20272733C0
310
2A83E0E3E2D3BC49CABB685CCCAAF3DA6CA20CC14440EA969B0182FA34932C648AD911AEC52CD5558EA6A0CF2EC329598D1E47ACCEFBECC59A050463A7EA5833865FEBDD0E37353BE3EE8DBDE3F6786A48D375FBF6CC78B9C282473B3DEFABC5C86834888A900E538A49F5419B9EB47DD5BC907D4F082F57FB1F28CDFA9F50
310
B22ED6D5F6EE030B20687EE43E10BC5CB3C8E51E54AE6B6EE207504B0304140006080800CC70623B55019EA25F0000007C00000007000000636E782E786D6C4DCB3B0E80201045D1AD90E915ED2CF8AC45050C11660C8261F98AB1B07AC9C97D42D718D865D3E909258CFD00CCE24AC6E326A164D74DC0B4128928FF326038
310
472BA13128B1252AC747C6BAB984FC68F0B87FE8960A5C09FE86CFB69FBA01504B0304140006080800CC70623BA24EB22D72010000D40300000C0000006662782F636F72652E786D6CC5535B6E833010BC8AE5DF0A6C5E49888CA3A6694ED00B38E05014B091B1518EDFE511A5A9D228FD2A1F60CDEC7A67C6986DCE4D8D7A
310
69BA4AAB0C073EC548AA5C17952A33ECECD15B61B4E1CC686DBF9561A44423333CC098B3D268D7CE50AE9595CA02AA74216750749DB418E5352C32DCE59FB211BE70162ABA93DF8AFC244AE9073ED050C759670D0840D390E18DF9F1706664C23973AE2A66B62A605A75ACA4C13C4976E1364A12EF355A2EBD384AF65EFA96
310
BC7B8BED2EA6719AAE16FB8491A199335B351775B991C2CA02F390D2D40B028F861F41BCA68B7518BFD0D59A524686F29B26D7164F36B94AD9289CE54E6D1DE6010819891F6E21228B3AD1831EC219194284CF98F06DD01008846CC5A1BEF83801D4CBDC6A1303536877A57A513B0953A94FC707FDBE6064EA84A9E3E6E0FA
310
EE8CF0E9198F7784A316AA0413C2C2F2E0ECA0934D1AE6D05A69BCDE9E91D2A611F573361E38FC1375157F5752AE6B6DFE4B11990F88CCBF0719EE23FF02504B0304140006080800CC70623B408A7D3B7C0000009D0000000B0000006662782F636E782E786D6C4DCCD10A83201886E15B91FFDC552A92A0064DBC8F581632
310
D3703A76F9ABD1C18E3E78F878E5F0D9027ABBFCF2292AE86E2D20171F69F6715550CB827B40839639A5F2770314A7CD293819B45C73AAFB45B35BA61ACAA1C1C7E7855C58C15BC331339661262CC762340413D68D77DA5B42298546CBE6573AF60CEB2F504B0304140006080800CC70623B449FB9BD290100001202000031
310
0000006662782F36394639363044362D344446342D343946362D394244322D3234314243333846323333332F636F72652E786D6C8D515B6EC32010BC0AE22B55850D98B871848994463E412FE002495162B07854397EA176A4F62F3F2C9A9D991D587EB84F37F0AD7D30CEF6905418026DA553C65E7A98E219ED203808EE9D
310
8B7F6810D871D23D2C3014FCE25D9A57483A1BB58D19B54EE9151C43D0110279CB971E06F9A5A7B11A53CC8C70ADE6515EC78BAE4895DB992778883E0700CB907242D17643D7E2538BD869608875438BBAE38922CAC8F1BDD90DB4691A5E2F42C153326A951B95E398B3D1FE599322163C9AE9115F7A3D46ADA0A018778810
310
84E907617BDCEE297BC5BB3DC6BC2EF47FA234AB2745C9D8D8D035EE220B50105E2F0DC1954B9FB747187D9F9D8FA0CCDB042D5FA0C015C65B42DF78BD10F3F3B363CB56C7109DCFDFBBB97E662ED92EB62D13BC2E1BCAE5777DB9966D8A1F504B0304140006080800CC70623BAD7543B64E01000033030000300000006662
310
782F36394639363044362D344446342D343946362D394244322D3234314243333846323333332F636E782E786D6CD593CD6EC32010845F0571AD6CE3D48AD20813A9873E410FBD12D82434182C7EAAE6EDBB2424CD25871E7B41D6EC30B3FA84F9E67BB2E40B4234DE8DB46F1925E094D7C6ED479AD3AE5951B2113C789FEE
310
6C943839C1488B4C05DF079FE72A69D8C96C13AAD6B8631503449F83828872B949AC57D26200B826A308D316B4064D6E46FCDA41C05550DC9E483A00797BFD207EFB092A45DE9514C1BBD22178396BD39D891265658C238DEA00936C654E5E433CB65A26D9F6EDB5EBC14EBF49A45CB856E66048291F6939A9A81BB5C89177
310
38143CA680F4AA299D66A042CEB3354A2684DC9D8D178FE0D9B8B41CAAD720F880EE7EF93C0C18769E099ECC04D5A102C8049A8A05632F4DDF376CF1DE0F6BB65C2F8627B65A33C6BB62177CEBBDAD973006829F89F22E814B54F4BC2BE347F8AA8F681390B50FA73F804400B5F542E796F19FF974E7F78DB802FE05E20750
310
4B0304140006080800CC70623B8D05915C650500003B100000340000006662782F36394639363044362D344446342D343946362D394244322D3234314243333846323333332F6F626A656374732E786D6CAD575B6FA33814FE2B887D06429276DA1565D4266D158D3A339A6846FB502932E050B66023DB74D2FDF5FB190C01
310
9276B2973C046C8ECFF53B17071F77456EBD502133CEAE6CDF9DD81665314F32965ED995DA3A17B6F5310C04E7AA47665B8C14F4CAD6DB7618A48257A5D94AE89654B91AEDDEDDFC61C998326A5B714EA4BCB265FC440BE2924AF184CA6737218AB8E976E7FA6E4338649B0A523E8D98964450A6A029F619B8588D52FE7039
310
B1BD30F0F4F730D0FF866AF6369557DB33949F31A9088B0F848DD8CCFCF9F2767A76E99CCDE733677E3EF59D9BBB9BA5E37F984D16E78BC5E5F5ED25044B25C0C96822E8D60EEFE11B91C581D77CEA34368A1F5329E68CD1B8B61F16D63A1B8E092D294B10C78C4A48EB593D192E7DED9BDEE7995E1B91FDEDD3ACEA9FE831
310
6A756F9F7D4D79F4274C90A7A04248AA51D5F8C718DAE06FB2F75AC4796EBE65D22A88A22223B995679120E2D50E41AA49C260C046A35368846B0BECD0DFF3EBEB8AD4F835768F69B9ADF25C43D30E6B646F807FAA64AD59F61715C7A54127C4AACA98BA3006A9D792DAE165E0D59B61A01FB3A9F9D838D2DAE62445C86166
310
F37564E842E7DE6A69879FEEA2DD5AE7E371E1A5E025154AC307D06A03D73EB5978C58FFA4C8E9033066E0F3BD53BEC1F39F91BE7B55103791EDE6BBB991A2046172CB4581D8B893FA674DDA17A77B3B7C413D1B511FD2743BFF8A38F03A658705E3ADF8015C3A3417FF3D7E439FF591DA0B5F18BC20C1B8981957AE6392A3
310
F43C640C01D1A0B4728E2DD4F26DB4B3C3152A252A3B4E913CEC1C72F012782FF88EFF8637AA552DBEF76408E8A8DE9E50F9E1CB3A2DA0DB1B6039A893B56063DC5B3E3FFB5F72E67AB9FEB4AEC496C4F4C1149625DD662C53E89D7BF0F6151A046260D1337DFDC94502430F83B0EE07A130A224BCAD7DAE1D9FB6CD422FF6
310
920702629C4BB9AE79C12F243C6432A6794E18E5552BA56B431AAB5D91317302B2B071E86C3A42B1A02F999E24061403B5D0EB639195DA655DD3EBEAB4FB862DDF579F014AD0E73C22F99E28DA57FB98E75C6CA2D74D53086D600F4786E0FE3144B771A8A7B900F03594DB8A633CBC49B2EDB69228BB479CF863B5E807AAAB
310
23872F6DFEB4129B949CA33823F58830E86D65621E10047D9DB34D862E8EAC3C2ABC2F7B2C40D67CDFE01F5545B92105AF983AC54D93D69E56FB8E797F88913F898A9FEC705D3F9D1B54EC8426FB500D40A03BD0119B06E1B95DDC7EB8F6975367793EBD70E66733DFB9BC982F9CE564727731999F5D4ECFCE3B8D6A4DC2A0
310
6D50FD148437D110834A64C6CDDF57FBACB5C307A2A477DFE4939736CFEF2B175371E0E10CF0DD1D5C15654E0BCA14D1E87DD02FF93782A162C0A3D95F1524A52770F972BF1EE9809D13CE7DD599467F8ECE9ADD85CE85A34CD45355448C64F9E8A031DC2D596ACC6E5DD93D9B82DE2EF5CAF81363A8E47996A0DE24564A79
310
4115AACE09C55E14540231FDA13C319787134EBF34E3A022514E5B4D9E0826E25C02D5805B15ABE1BEF51B26383D445DD9E875EE33FE4C22DA16427D65A3BCA92CA6D28DD01DF5DC53330704308475351050232CCD31583787BA75774AFB06E5070DD0C8EF484E19968C5D83BA5B90B244D31E54D55A372320FE4786B7EA58
310
44E135AA5467CB7EA333A61683CC6A8C3257034C10CF46F40EF9F5BE59BE5BD30C3C72D235E95D10345C1D45445A5F0BB47E46A5EBE5570F9380B5FA629579952296A773720405982B9DE04011506178964401AA8BDF1FBF0A8EAB6861DD6580C0E38217056766716DAEB2D6FA0917D3E4116581EADB879C4E7CFFB11EFACD
310
3D641311495D92C8676CB409A72D18610D803CE8A626049E8EC1887CB5B44CC39883690DDA8399B4B9855B481E7D71D4A9D22F96E5BB73BF5793020C02137BF837504B0304140006080000CC70623B000000000000000000000000350000006662782F36394639363044362D344446342D343946362D394244322D32343142
310
43333846323333332F76657274696365732E62696E504B0304140006080800CC70623BF270F1330600000004000000360000006662782F36394639363044362D344446342D343946362D394244322D3234314243333846323333332F747269616E676C65732E62696E636660600000504B0304140006080000CC70623B0000
310
00000000000000000000370000006662782F36394639363044362D344446342D343946362D394244322D3234314243333846323333332F617474726962757465732E62696E504B0304140006080800CC70623B08DA0BD19000000041010000360000006662782F36394639363044362D344446342D343946362D394244322D
310
3234314243333846323333332F6469726563746F72792E786D6C858F410AC3201045AF22B36F53E9A60B35CBEEBAE80D244E44489C6234F4F835464A48035D0DF398FF9F8AF63D0E6CC63039F212F8F9020C7D47C6792B21C5FE7403D62A1188E2E60C98D7234A5830286103A55745067B9D86B8A3CF9C7F90C11DE607FB14
310
4396D7B6A82D282E9A152AD114D5EF2CB866EEE831B8EEA07A7BB5A8D7D61A2BAAEB7FD5F70921FF497D00504B0304140006080800CC70623BCA768048FE000000A00100003B0000006662782F36394639363044362D344446342D343946362D394244322D3234314243333846323333332F7265736F75726365732F636F72
310
652E786D6C8D50596E833010BD0A9ADFCA60D600328E9AA639412F609909B1126CE4A5EAF16B0295DABFFECC8CDEA2797AECF8353F924FB44E193D409E5248504B332A3D0D10FC95B4901C39B3C6F85F3248B49871801506CE266BC2B243D2688FDA47549B11775038871E12F988C7004EDE7016A9083E2ADC3D5D84BC8B09
310
D33C8D74D471E6BC8D0192EDC93A815B742658898E651BCB59086ADC356A8C3FD555A1055ED7E7E254D615792D0F075295F585746FF53B694EE78A565DD736979A65AB9933AFE69F8CD2A2F038022F28ED489E135A7CE4554F9BBEA85E68DB53CAB255FEC71496F19FA6A0B42F8B3DEE6673C0F318E4497096AD7DC5F52C33
310
EEB55BFE0D504B010214000A0000080000CC70623B3DEE336E79000000790000001B00000000000000000000000000000000006175746F6465736B2D64657369676E2D7061636B6167652E786D6C504B01021400140006080800CC70623BD486FD9CA0000000F40000001300000000000000000000000000B20000005B436F
310
6E74656E745F54797065735D2E786D6C504B01021400140006080800CC70623BD9DDAED0EC0000007C010000080000000000000000000000000083010000636F72652E786D6C504B01021400140006080800CC70623B55019EA25F0000007C000000070000000000000000000000000095020000636E782E786D6C504B0102
310
1400140006080800CC70623BA24EB22D72010000D40300000C00000000000000000000000000190300006662782F636F72652E786D6C504B01021400140006080800CC70623B408A7D3B7C0000009D0000000B00000000000000000000000000B50400006662782F636E782E786D6C504B01021400140006080800CC70623B
310
449FB9BD290100001202000031000000000000000000000000005A0500006662782F36394639363044362D344446342D343946362D394244322D3234314243333846323333332F636F72652E786D6C504B01021400140006080800CC70623BAD7543B64E010000330300003000000000000000000000000000D20600006662
310
782F36394639363044362D344446342D343946362D394244322D3234314243333846323333332F636E782E786D6C504B01021400140006080800CC70623B8D05915C650500003B10000034000000000000000000000000006E0800006662782F36394639363044362D344446342D343946362D394244322D32343142433338
310
46323333332F6F626A656374732E786D6C504B01021400140006080000CC70623B0000000000000000000000003500000000000000000000000000250E00006662782F36394639363044362D344446342D343946362D394244322D3234314243333846323333332F76657274696365732E62696E504B010214001400060808
310
00CC70623BF270F13306000000040000003600000000000000000000000000780E00006662782F36394639363044362D344446342D343946362D394244322D3234314243333846323333332F747269616E676C65732E62696E504B01021400140006080000CC70623B00000000000000000000000037000000000000000000
310
00000000D20E00006662782F36394639363044362D344446342D343946362D394244322D3234314243333846323333332F617474726962757465732E62696E504B01021400140006080800CC70623B08DA0BD190000000410100003600000000000000000000000000270F00006662782F36394639363044362D344446342D
310
343946362D394244322D3234314243333846323333332F6469726563746F72792E786D6C504B01021400140006080800CC70623BCA768048FE000000A00100003B000000000000000000000000000B1000006662782F36394639363044362D344446342D343946362D394244322D3234314243333846323333332F7265736F
310
75726365732F636F72652E786D6C504B0506000000000E000E0080040000621100000000
  0
XRECORD
  5
176
102
{ACAD_REACTORS
330
173
102
}
330
173
100
AcDbXrecord
280
     1
270
     1
271
     1
  0
XRECORD
  5
177
102
{ACAD_REACTORS
330
173
102
}
330
173
100
AcDbXrecord
280
     1
270
     1
271
     1
  0
XRECORD
  5
E3CE
102
{ACAD_REACTORS
330
E3CD
102
}
330
E3CD
100
AcDbXrecord
280
     1
102
ACAD_ROUNDTRIP_2012_MLEADER_STYLE
298
     1
  0
XRECORD
  5
E3E0
102
{ACAD_REACTORS
330
E3DF
102
}
330
E3DF
100
AcDbXrecord
280
     1
102
DISPLAYNAME
  1
Metric50
102
FLAGS
 90
        0
  0
CELLSTYLEMAP
  5
E3A0
102
{ACAD_REACTORS
330
162
102
}
330
162
100
AcDbCellStyleMap
 90
        3
300
CELLSTYLE
  1
TABLEFORMAT_BEGIN
 90
        5
170
     1
 91
        0
 92
    32768
 62
   257
 93
        1
300
CONTENTFORMAT
  1
CONTENTFORMAT_BEGIN
 90
        0
 91
        0
 92
      512
 93
        0
300

 40
0.0
140
1.0
 94
        5
 62
     0
340
11
144
6.0
309
CONTENTFORMAT_END
171
     1
301
MARGIN
  1
CELLMARGIN_BEGIN
 40
1.5
 40
1.5
 40
1.5
 40
1.5
 40
4.5
 40
4.5
309
CELLMARGIN_END
 94
        6
 95
        1
302
GRIDFORMAT
  1
GRIDFORMAT_BEGIN
 90
        0
 91
        1
 62
     0
 92
       -2
340
14
 93
        0
 40
1.125
309
GRIDFORMAT_END
 95
        2
302
GRIDFORMAT
  1
GRIDFORMAT_BEGIN
 90
        0
 91
        1
 62
     0
 92
       -2
340
14
 93
        0
 40
1.125
309
GRIDFORMAT_END
 95
        4
302
GRIDFORMAT
  1
GRIDFORMAT_BEGIN
 90
        0
 91
        1
 62
     0
 92
       -2
340
14
 93
        0
 40
1.125
309
GRIDFORMAT_END
 95
        8
302
GRIDFORMAT
  1
GRIDFORMAT_BEGIN
 90
        0
 91
        1
 62
     0
 92
       -2
340
14
 93
        0
 40
1.125
309
GRIDFORMAT_END
 95
       16
302
GRIDFORMAT
  1
GRIDFORMAT_BEGIN
 90
        0
 91
        1
 62
     0
 92
       -2
340
14
 93
        0
 40
1.125
309
GRIDFORMAT_END
 95
       32
302
GRIDFORMAT
  1
GRIDFORMAT_BEGIN
 90
        0
 91
        1
 62
     0
 92
       -2
340
14
 93
        0
 40
1.125
309
GRIDFORMAT_END
309
TABLEFORMAT_END
  1
CELLSTYLE_BEGIN
 90
        1
 91
        1
300
_TITLE
309
CELLSTYLE_END
300
CELLSTYLE
  1
TABLEFORMAT_BEGIN
 90
        5
170
     1
 91
        0
 92
        0
 62
   257
 93
        1
300
CONTENTFORMAT
  1
CONTENTFORMAT_BEGIN
 90
        0
 91
        0
 92
      512
 93
        0
300

 40
0.0
140
1.0
 94
        5
 62
     0
340
11
144
4.5
309
CONTENTFORMAT_END
171
     1
301
MARGIN
  1
CELLMARGIN_BEGIN
 40
1.5
 40
1.5
 40
1.5
 40
1.5
 40
4.5
 40
4.5
309
CELLMARGIN_END
 94
        6
 95
        1
302
GRIDFORMAT
  1
GRIDFORMAT_BEGIN
 90
        0
 91
        1
 62
     0
 92
       -2
340
14
 93
        0
 40
1.125
309
GRIDFORMAT_END
 95
        2
302
GRIDFORMAT
  1
GRIDFORMAT_BEGIN
 90
        0
 91
        1
 62
     0
 92
       -2
340
14
 93
        0
 40
1.125
309
GRIDFORMAT_END
 95
        4
302
GRIDFORMAT
  1
GRIDFORMAT_BEGIN
 90
        0
 91
        1
 62
     0
 92
       -2
340
14
 93
        0
 40
1.125
309
GRIDFORMAT_END
 95
        8
302
GRIDFORMAT
  1
GRIDFORMAT_BEGIN
 90
        0
 91
        1
 62
     0
 92
       -2
340
14
 93
        0
 40
1.125
309
GRIDFORMAT_END
 95
       16
302
GRIDFORMAT
  1
GRIDFORMAT_BEGIN
 90
        0
 91
        1
 62
     0
 92
       -2
340
14
 93
        0
 40
1.125
309
GRIDFORMAT_END
 95
       32
302
GRIDFORMAT
  1
GRIDFORMAT_BEGIN
 90
        0
 91
        1
 62
     0
 92
       -2
340
14
 93
        0
 40
1.125
309
GRIDFORMAT_END
309
TABLEFORMAT_END
  1
CELLSTYLE_BEGIN
 90
        2
 91
        1
300
_HEADER
309
CELLSTYLE_END
300
CELLSTYLE
  1
TABLEFORMAT_BEGIN
 90
        5
170
     1
 91
        0
 92
        0
 62
   257
 93
        1
300
CONTENTFORMAT
  1
CONTENTFORMAT_BEGIN
 90
        0
 91
        0
 92
      512
 93
        0
300

 40
0.0
140
1.0
 94
        2
 62
     0
340
11
144
4.5
309
CONTENTFORMAT_END
171
     1
301
MARGIN
  1
CELLMARGIN_BEGIN
 40
1.5
 40
1.5
 40
1.5
 40
1.5
 40
4.5
 40
4.5
309
CELLMARGIN_END
 94
        6
 95
        1
302
GRIDFORMAT
  1
GRIDFORMAT_BEGIN
 90
        0
 91
        1
 62
     0
 92
       -2
340
14
 93
        0
 40
1.125
309
GRIDFORMAT_END
 95
        2
302
GRIDFORMAT
  1
GRIDFORMAT_BEGIN
 90
        0
 91
        1
 62
     0
 92
       -2
340
14
 93
        0
 40
1.125
309
GRIDFORMAT_END
 95
        4
302
GRIDFORMAT
  1
GRIDFORMAT_BEGIN
 90
        0
 91
        1
 62
     0
 92
       -2
340
14
 93
        0
 40
1.125
309
GRIDFORMAT_END
 95
        8
302
GRIDFORMAT
  1
GRIDFORMAT_BEGIN
 90
        0
 91
        1
 62
     0
 92
       -2
340
14
 93
        0
 40
1.125
309
GRIDFORMAT_END
 95
       16
302
GRIDFORMAT
  1
GRIDFORMAT_BEGIN
 90
        0
 91
        1
 62
     0
 92
       -2
340
14
 93
        0
 40
1.125
309
GRIDFORMAT_END
 95
       32
302
GRIDFORMAT
  1
GRIDFORMAT_BEGIN
 90
        0
 91
        1
 62
     0
 92
       -2
340
14
 93
        0
 40
1.125
309
GRIDFORMAT_END
309
TABLEFORMAT_END
  1
CELLSTYLE_BEGIN
 90
        3
 91
        2
300
_DATA
309
CELLSTYLE_END
  0
XRECORD
  5
E3A5
102
{ACAD_REACTORS
330
162
102
}
330
162
100
AcDbXrecord
280
     1
102
ACAD_ROUNDTRIP_PRE2007_TABLESTYLE
 90
      512
 91
        0
  1

 92
      512
 93
        0
  2

 94
      512
 95
        0
  3

  0
XRECORD
  5
E3B8
102
{ACAD_REACTORS
330
E3B7
102
}
330
E3B7
100
AcDbXrecord
280
     1
102
RTVSPost2010Prop28
280
     1
102
RTVSPost2010PropOp28
 70
     1
102
RTVSPost2010Prop29
280
     1
102
RTVSPost2010PropOp29
 70
     1
102
RTVSPost2010Prop30
280
     0
102
RTVSPost2010PropOp30
 70
     1
102
RTVSPost2010Prop31
280
     0
102
RTVSPost2010PropOp31
 70
     1
102
RTVSPost2010Prop32
280
     0
102
RTVSPost2010PropOp32
 70
     1
102
RTVSPost2010Prop33
280
     0
102
RTVSPost2010PropOp33
 70
     1
102
RTVSPost2010Prop34
280
     0
102
RTVSPost2010PropOp34
 70
     1
102
RTVSPost2010Prop35
280
     0
102
RTVSPost2010PropOp35
 70
     1
102
RTVSPost2010Prop36
280
     0
102
RTVSPost2010PropOp36
 70
     1
102
RTVSPost2010Prop37
 90
       50
102
RTVSPost2010PropOp37
 70
     1
102
RTVSPost2010Prop38
140
0.0
102
RTVSPost2010PropOp38
 70
     1
102
RTVSPost2010Prop39
140
1.0
102
RTVSPost2010PropOp39
 70
     1
102
RTVSPost2010Prop40
 90
        0
102
RTVSPost2010PropOp40
 70
     1
102
RTVSPost2010Prop41ColorIndex
 90
       18
102
RTVSPost2010Prop41ColorRGB
 90
        0
102
RTVSPost2010PropOp41
 70
     1
102
RTVSPost2010Prop42
 90
       50
102
RTVSPost2010PropOp42
 70
     1
102
RTVSPost2010Prop43
 90
        3
102
RTVSPost2010PropOp43
 70
     1
102
RTVSPost2010Prop44ColorIndex
 90
        5
102
RTVSPost2010Prop44ColorRGB
 90
      255
102
RTVSPost2010PropOp44
 70
     1
102
RTVSPost2010Prop45
280
     0
102
RTVSPost2010PropOp45
 70
     1
102
RTVSPost2010Prop46
 90
       50
102
RTVSPost2010PropOp46
 70
     1
102
RTVSPost2010Prop47
 90
       50
102
RTVSPost2010PropOp47
 70
     1
102
RTVSPost2010Prop48
 90
       50
102
RTVSPost2010PropOp48
 70
     1
102
RTVSPost2010Prop49
280
     0
102
RTVSPost2010PropOp49
 70
     1
102
RTVSPost2010Prop50
 90
       50
102
RTVSPost2010PropOp50
 70
     1
102
RTVSPost2010Prop51ColorIndex
 90
      256
102
RTVSPost2010Prop51ColorRGB
 90
-16777216
102
RTVSPost2010PropOp51
 70
     0
102
RTVSPost2010Prop52
140
1.0
102
RTVSPost2010PropOp52
 70
     0
102
RTVSPost2010Prop53
 90
        2
102
RTVSPost2010PropOp53
 70
     1
102
RTVSPost2010Prop54
  1
strokes_ogs.tif
102
RTVSPost2010PropOp54
 70
     1
102
RTVSPost2010Prop55
280
     0
102
RTVSPost2010PropOp55
 70
     1
102
RTVSPost2010Prop56
140
1.0
102
RTVSPost2010PropOp56
 70
     1
102
RTVSPost2010Prop57
140
1.0
102
RTVSPost2010PropOp57
 70
     1
102
RTVSPropertyOp0
 70
     1
102
RTVSPropertyOp1
 70
     1
102
RTVSPropertyOp2
 70
     1
102
RTVSPropertyOp3
 70
     1
102
RTVSPropertyOp4
 70
     1
102
RTVSPropertyOp5
 70
     1
102
RTVSPropertyOp6
 70
     1
102
RTVSPropertyOp7
 70
     1
102
RTVSPropertyOp8
 70
     1
102
RTVSPropertyOp9
 70
     1
102
RTVSPropertyOp10
 70
     1
102
RTVSPropertyOp11
 70
     1
102
RTVSPropertyOp12
 70
     1
102
RTVSPropertyOp13
 70
     1
102
RTVSPropertyOp14
 70
     1
102
RTVSPropertyOp15
 70
     1
102
RTVSPropertyOp16
 70
     1
102
RTVSPropertyOp17
 70
     1
102
RTVSPropertyOp18
 70
     1
102
RTVSPropertyOp19
 70
     1
102
RTVSPropertyOp20
 70
     1
102
RTVSPropertyOp21
 70
     1
102
RTVSPropertyOp22
 70
     1
102
RTVSPropertyOp23
 70
     1
102
RTVSPropertyOp24
 70
     1
102
RTVSPropertyOp25
 70
     1
102
RTVSPropertyOp26
 70
     1
102
RTVSPropertyOp27
 70
     1
102
RTVSPropertyOp28
 70
     1
102
RTVSPropertyOp29
 70
     1
102
RTVSPropertyOp30
 70
     1
102
RTVSPropertyOp31
 70
     1
102
RTVSPropertyOp32
 70
     1
102
RTVSPropertyOp33
 70
     1
102
RTVSPropertyOp34
 70
     1
102
RTVSPropertyOp35
 70
     1
102
RTVSPropertyOp36
 70
     1
102
RTVSPropertyOp37
 70
     1
102
RTVSPropertyOp38
 70
     1
102
RTVSPropertyOp39
 70
     1
102
RTVSPropertyOp40
 70
     1
102
RTVSPropertyOp41
 70
     1
102
RTVSPropertyOp42
 70
     1
102
RTVSPropertyOp43
 70
     1
102
RTVSPropertyOp44
 70
     1
102
RTVSPropertyOp45
 70
     1
102
RTVSPropertyOp46
 70
     1
102
RTVSPropertyOp47
 70
     1
102
RTVSPropertyOp48
 70
     1
102
RTVSPropertyOp49
 70
     1
102
RTVSPropertyOp50
 70
     1
102
RTVSPropertyOp51
 70
     0
102
RTVSPropertyOp52
 70
     0
102
RTVSPropertyOp53
 70
     1
102
RTVSPropertyOp54
 70
     1
102
RTVSPropertyOp55
 70
     1
102
RTVSPropertyOp56
 70
     1
102
RTVSPropertyOp57
 70
     1
102
RTVSPropertyOp58
 70
     1
102
RTVSPropertyOp59
 70
     1
102
RTVSPropertyOp60
 70
     1
102
RTVSPropertyOp61
 70
     1
102
RTVSPropertyOp62
 70
     1
  0
XRECORD
  5
E3B6
102
{ACAD_REACTORS
330
E3B5
102
}
330
E3B5
100
AcDbXrecord
280
     1
102
RTVSPost2010Prop28
280
     0
102
RTVSPost2010PropOp28
 70
     1
102
RTVSPost2010Prop29
280
     1
102
RTVSPost2010PropOp29
 70
     1
102
RTVSPost2010Prop30
280
     1
102
RTVSPost2010PropOp30
 70
     1
102
RTVSPost2010Prop31
280
     0
102
RTVSPost2010PropOp31
 70
     1
102
RTVSPost2010Prop32
280
     0
102
RTVSPost2010PropOp32
 70
     1
102
RTVSPost2010Prop33
280
     0
102
RTVSPost2010PropOp33
 70
     1
102
RTVSPost2010Prop34
280
     0
102
RTVSPost2010PropOp34
 70
     1
102
RTVSPost2010Prop35
280
     0
102
RTVSPost2010PropOp35
 70
     1
102
RTVSPost2010Prop36
280
     0
102
RTVSPost2010PropOp36
 70
     1
102
RTVSPost2010Prop37
 90
       50
102
RTVSPost2010PropOp37
 70
     1
102
RTVSPost2010Prop38
140
0.0
102
RTVSPost2010PropOp38
 70
     1
102
RTVSPost2010Prop39
140
1.0
102
RTVSPost2010PropOp39
 70
     1
102
RTVSPost2010Prop40
 90
        0
102
RTVSPost2010PropOp40
 70
     1
102
RTVSPost2010Prop41ColorIndex
 90
       18
102
RTVSPost2010Prop41ColorRGB
 90
        0
102
RTVSPost2010PropOp41
 70
     1
102
RTVSPost2010Prop42
 90
       50
102
RTVSPost2010PropOp42
 70
     1
102
RTVSPost2010Prop43
 90
        3
102
RTVSPost2010PropOp43
 70
     1
102
RTVSPost2010Prop44ColorIndex
 90
        5
102
RTVSPost2010Prop44ColorRGB
 90
      255
102
RTVSPost2010PropOp44
 70
     1
102
RTVSPost2010Prop45
280
     0
102
RTVSPost2010PropOp45
 70
     1
102
RTVSPost2010Prop46
 90
       50
102
RTVSPost2010PropOp46
 70
     1
102
RTVSPost2010Prop47
 90
       50
102
RTVSPost2010PropOp47
 70
     1
102
RTVSPost2010Prop48
 90
       50
102
RTVSPost2010PropOp48
 70
     1
102
RTVSPost2010Prop49
280
     0
102
RTVSPost2010PropOp49
 70
     1
102
RTVSPost2010Prop50
 90
       50
102
RTVSPost2010PropOp50
 70
     1
102
RTVSPost2010Prop51ColorIndex
 90
      256
102
RTVSPost2010Prop51ColorRGB
 90
-16777216
102
RTVSPost2010PropOp51
 70
     0
102
RTVSPost2010Prop52
140
1.0
102
RTVSPost2010PropOp52
 70
     0
102
RTVSPost2010Prop53
 90
        2
102
RTVSPost2010PropOp53
 70
     1
102
RTVSPost2010Prop54
  1
strokes_ogs.tif
102
RTVSPost2010PropOp54
 70
     1
102
RTVSPost2010Prop55
280
     0
102
RTVSPost2010PropOp55
 70
     1
102
RTVSPost2010Prop56
140
1.0
102
RTVSPost2010PropOp56
 70
     1
102
RTVSPost2010Prop57
140
1.0
102
RTVSPost2010PropOp57
 70
     1
102
RTVSPropertyOp0
 70
     1
102
RTVSPropertyOp1
 70
     1
102
RTVSPropertyOp2
 70
     1
102
RTVSPropertyOp3
 70
     1
102
RTVSPropertyOp4
 70
     1
102
RTVSPropertyOp5
 70
     1
102
RTVSPropertyOp6
 70
     1
102
RTVSPropertyOp7
 70
     1
102
RTVSPropertyOp8
 70
     1
102
RTVSPropertyOp9
 70
     1
102
RTVSPropertyOp10
 70
     1
102
RTVSPropertyOp11
 70
     1
102
RTVSPropertyOp12
 70
     1
102
RTVSPropertyOp13
 70
     1
102
RTVSPropertyOp14
 70
     1
102
RTVSPropertyOp15
 70
     1
102
RTVSPropertyOp16
 70
     1
102
RTVSPropertyOp17
 70
     1
102
RTVSPropertyOp18
 70
     1
102
RTVSPropertyOp19
 70
     1
102
RTVSPropertyOp20
 70
     1
102
RTVSPropertyOp21
 70
     1
102
RTVSPropertyOp22
 70
     1
102
RTVSPropertyOp23
 70
     1
102
RTVSPropertyOp24
 70
     1
102
RTVSPropertyOp25
 70
     1
102
RTVSPropertyOp26
 70
     1
102
RTVSPropertyOp27
 70
     1
102
RTVSPropertyOp28
 70
     1
102
RTVSPropertyOp29
 70
     1
102
RTVSPropertyOp30
 70
     1
102
RTVSPropertyOp31
 70
     1
102
RTVSPropertyOp32
 70
     1
102
RTVSPropertyOp33
 70
     1
102
RTVSPropertyOp34
 70
     1
102
RTVSPropertyOp35
 70
     1
102
RTVSPropertyOp36
 70
     1
102
RTVSPropertyOp37
 70
     1
102
RTVSPropertyOp38
 70
     1
102
RTVSPropertyOp39
 70
     1
102
RTVSPropertyOp40
 70
     1
102
RTVSPropertyOp41
 70
     1
102
RTVSPropertyOp42
 70
     1
102
RTVSPropertyOp43
 70
     1
102
RTVSPropertyOp44
 70
     1
102
RTVSPropertyOp45
 70
     1
102
RTVSPropertyOp46
 70
     1
102
RTVSPropertyOp47
 70
     1
102
RTVSPropertyOp48
 70
     1
102
RTVSPropertyOp49
 70
     1
102
RTVSPropertyOp50
 70
     1
102
RTVSPropertyOp51
 70
     0
102
RTVSPropertyOp52
 70
     0
102
RTVSPropertyOp53
 70
     1
102
RTVSPropertyOp54
 70
     1
102
RTVSPropertyOp55
 70
     1
102
RTVSPropertyOp56
 70
     1
102
RTVSPropertyOp57
 70
     1
102
RTVSPropertyOp58
 70
     1
102
RTVSPropertyOp59
 70
     1
102
RTVSPropertyOp60
 70
     1
102
RTVSPropertyOp61
 70
     1
102
RTVSPropertyOp62
 70
     1
  0
XRECORD
  5
E3C4
102
{ACAD_REACTORS
330
E3C3
102
}
330
E3C3
100
AcDbXrecord
280
     1
102
RTVSPost2010Prop28
280
     0
102
RTVSPost2010PropOp28
 70
     1
102
RTVSPost2010Prop29
280
     1
102
RTVSPost2010PropOp29
 70
     1
102
RTVSPost2010Prop30
280
     1
102
RTVSPost2010PropOp30
 70
     1
102
RTVSPost2010Prop31
280
     0
102
RTVSPost2010PropOp31
 70
     1
102
RTVSPost2010Prop32
280
     0
102
RTVSPost2010PropOp32
 70
     1
102
RTVSPost2010Prop33
280
     0
102
RTVSPost2010PropOp33
 70
     1
102
RTVSPost2010Prop34
280
     0
102
RTVSPost2010PropOp34
 70
     1
102
RTVSPost2010Prop35
280
     0
102
RTVSPost2010PropOp35
 70
     1
102
RTVSPost2010Prop36
280
     0
102
RTVSPost2010PropOp36
 70
     1
102
RTVSPost2010Prop37
 90
       50
102
RTVSPost2010PropOp37
 70
     1
102
RTVSPost2010Prop38
140
0.0
102
RTVSPost2010PropOp38
 70
     1
102
RTVSPost2010Prop39
140
1.0
102
RTVSPost2010PropOp39
 70
     1
102
RTVSPost2010Prop40
 90
        0
102
RTVSPost2010PropOp40
 70
     1
102
RTVSPost2010Prop41ColorIndex
 90
       18
102
RTVSPost2010Prop41ColorRGB
 90
        0
102
RTVSPost2010PropOp41
 70
     1
102
RTVSPost2010Prop42
 90
       50
102
RTVSPost2010PropOp42
 70
     1
102
RTVSPost2010Prop43
 90
        3
102
RTVSPost2010PropOp43
 70
     1
102
RTVSPost2010Prop44ColorIndex
 90
        5
102
RTVSPost2010Prop44ColorRGB
 90
      255
102
RTVSPost2010PropOp44
 70
     1
102
RTVSPost2010Prop45
280
     0
102
RTVSPost2010PropOp45
 70
     1
102
RTVSPost2010Prop46
 90
       50
102
RTVSPost2010PropOp46
 70
     1
102
RTVSPost2010Prop47
 90
       50
102
RTVSPost2010PropOp47
 70
     1
102
RTVSPost2010Prop48
 90
       50
102
RTVSPost2010PropOp48
 70
     1
102
RTVSPost2010Prop49
280
     0
102
RTVSPost2010PropOp49
 70
     1
102
RTVSPost2010Prop50
 90
       50
102
RTVSPost2010PropOp50
 70
     1
102
RTVSPost2010Prop51ColorIndex
 90
      256
102
RTVSPost2010Prop51ColorRGB
 90
-16777216
102
RTVSPost2010PropOp51
 70
     0
102
RTVSPost2010Prop52
140
1.0
102
RTVSPost2010PropOp52
 70
     0
102
RTVSPost2010Prop53
 90
        2
102
RTVSPost2010PropOp53
 70
     1
102
RTVSPost2010Prop54
  1
strokes_ogs.tif
102
RTVSPost2010PropOp54
 70
     1
102
RTVSPost2010Prop55
280
     0
102
RTVSPost2010PropOp55
 70
     1
102
RTVSPost2010Prop56
140
1.0
102
RTVSPost2010PropOp56
 70
     1
102
RTVSPost2010Prop57
140
1.0
102
RTVSPost2010PropOp57
 70
     1
102
RTVSPropertyOp0
 70
     1
102
RTVSPropertyOp1
 70
     1
102
RTVSPropertyOp2
 70
     1
102
RTVSPropertyOp3
 70
     1
102
RTVSPropertyOp4
 70
     1
102
RTVSPropertyOp5
 70
     1
102
RTVSPropertyOp6
 70
     1
102
RTVSPropertyOp7
 70
     1
102
RTVSPropertyOp8
 70
     1
102
RTVSPropertyOp9
 70
     1
102
RTVSPropertyOp10
 70
     1
102
RTVSPropertyOp11
 70
     1
102
RTVSPropertyOp12
 70
     1
102
RTVSPropertyOp13
 70
     1
102
RTVSPropertyOp14
 70
     1
102
RTVSPropertyOp15
 70
     1
102
RTVSPropertyOp16
 70
     1
102
RTVSPropertyOp17
 70
     1
102
RTVSPropertyOp18
 70
     1
102
RTVSPropertyOp19
 70
     1
102
RTVSPropertyOp20
 70
     1
102
RTVSPropertyOp21
 70
     1
102
RTVSPropertyOp22
 70
     1
102
RTVSPropertyOp23
 70
     1
102
RTVSPropertyOp24
 70
     1
102
RTVSPropertyOp25
 70
     1
102
RTVSPropertyOp26
 70
     1
102
RTVSPropertyOp27
 70
     1
102
RTVSPropertyOp28
 70
     1
102
RTVSPropertyOp29
 70
     1
102
RTVSPropertyOp30
 70
     1
102
RTVSPropertyOp31
 70
     1
102
RTVSPropertyOp32
 70
     1
102
RTVSPropertyOp33
 70
     1
102
RTVSPropertyOp34
 70
     1
102
RTVSPropertyOp35
 70
     1
102
RTVSPropertyOp36
 70
     1
102
RTVSPropertyOp37
 70
     1
102
RTVSPropertyOp38
 70
     1
102
RTVSPropertyOp39
 70
     1
102
RTVSPropertyOp40
 70
     1
102
RTVSPropertyOp41
 70
     1
102
RTVSPropertyOp42
 70
     1
102
RTVSPropertyOp43
 70
     1
102
RTVSPropertyOp44
 70
     1
102
RTVSPropertyOp45
 70
     1
102
RTVSPropertyOp46
 70
     1
102
RTVSPropertyOp47
 70
     1
102
RTVSPropertyOp48
 70
     1
102
RTVSPropertyOp49
 70
     1
102
RTVSPropertyOp50
 70
     1
102
RTVSPropertyOp51
 70
     0
102
RTVSPropertyOp52
 70
     0
102
RTVSPropertyOp53
 70
     1
102
RTVSPropertyOp54
 70
     1
102
RTVSPropertyOp55
 70
     1
102
RTVSPropertyOp56
 70
     1
102
RTVSPropertyOp57
 70
     1
102
RTVSPropertyOp58
 70
     1
102
RTVSPropertyOp59
 70
     1
102
RTVSPropertyOp60
 70
     1
102
RTVSPropertyOp61
 70
     1
102
RTVSPropertyOp62
 70
     1
  0
XRECORD
  5
E3CC
102
{ACAD_REACTORS
330
E3CB
102
}
330
E3CB
100
AcDbXrecord
280
     1
102
RTVSPost2010Prop28
280
     0
102
RTVSPost2010PropOp28
 70
     1
102
RTVSPost2010Prop29
280
     1
102
RTVSPost2010PropOp29
 70
     1
102
RTVSPost2010Prop30
280
     1
102
RTVSPost2010PropOp30
 70
     1
102
RTVSPost2010Prop31
280
     0
102
RTVSPost2010PropOp31
 70
     1
102
RTVSPost2010Prop32
280
     0
102
RTVSPost2010PropOp32
 70
     1
102
RTVSPost2010Prop33
280
     0
102
RTVSPost2010PropOp33
 70
     1
102
RTVSPost2010Prop34
280
     0
102
RTVSPost2010PropOp34
 70
     1
102
RTVSPost2010Prop35
280
     0
102
RTVSPost2010PropOp35
 70
     1
102
RTVSPost2010Prop36
280
     0
102
RTVSPost2010PropOp36
 70
     1
102
RTVSPost2010Prop37
 90
       50
102
RTVSPost2010PropOp37
 70
     1
102
RTVSPost2010Prop38
140
0.0
102
RTVSPost2010PropOp38
 70
     1
102
RTVSPost2010Prop39
140
1.0
102
RTVSPost2010PropOp39
 70
     1
102
RTVSPost2010Prop40
 90
        0
102
RTVSPost2010PropOp40
 70
     1
102
RTVSPost2010Prop41ColorIndex
 90
       18
102
RTVSPost2010Prop41ColorRGB
 90
        0
102
RTVSPost2010PropOp41
 70
     1
102
RTVSPost2010Prop42
 90
       50
102
RTVSPost2010PropOp42
 70
     1
102
RTVSPost2010Prop43
 90
        3
102
RTVSPost2010PropOp43
 70
     1
102
RTVSPost2010Prop44ColorIndex
 90
        5
102
RTVSPost2010Prop44ColorRGB
 90
      255
102
RTVSPost2010PropOp44
 70
     1
102
RTVSPost2010Prop45
280
     0
102
RTVSPost2010PropOp45
 70
     1
102
RTVSPost2010Prop46
 90
       50
102
RTVSPost2010PropOp46
 70
     1
102
RTVSPost2010Prop47
 90
       50
102
RTVSPost2010PropOp47
 70
     1
102
RTVSPost2010Prop48
 90
       50
102
RTVSPost2010PropOp48
 70
     1
102
RTVSPost2010Prop49
280
     0
102
RTVSPost2010PropOp49
 70
     1
102
RTVSPost2010Prop50
 90
       50
102
RTVSPost2010PropOp50
 70
     1
102
RTVSPost2010Prop51ColorIndex
 90
      256
102
RTVSPost2010Prop51ColorRGB
 90
-16777216
102
RTVSPost2010PropOp51
 70
     0
102
RTVSPost2010Prop52
140
1.0
102
RTVSPost2010PropOp52
 70
     0
102
RTVSPost2010Prop53
 90
        2
102
RTVSPost2010PropOp53
 70
     1
102
RTVSPost2010Prop54
  1
strokes_ogs.tif
102
RTVSPost2010PropOp54
 70
     1
102
RTVSPost2010Prop55
280
     0
102
RTVSPost2010PropOp55
 70
     1
102
RTVSPost2010Prop56
140
1.0
102
RTVSPost2010PropOp56
 70
     1
102
RTVSPost2010Prop57
140
1.0
102
RTVSPost2010PropOp57
 70
     1
102
RTVSPropertyOp0
 70
     1
102
RTVSPropertyOp1
 70
     1
102
RTVSPropertyOp2
 70
     1
102
RTVSPropertyOp3
 70
     1
102
RTVSPropertyOp4
 70
     1
102
RTVSPropertyOp5
 70
     1
102
RTVSPropertyOp6
 70
     1
102
RTVSPropertyOp7
 70
     1
102
RTVSPropertyOp8
 70
     1
102
RTVSPropertyOp9
 70
     1
102
RTVSPropertyOp10
 70
     1
102
RTVSPropertyOp11
 70
     1
102
RTVSPropertyOp12
 70
     1
102
RTVSPropertyOp13
 70
     1
102
RTVSPropertyOp14
 70
     1
102
RTVSPropertyOp15
 70
     1
102
RTVSPropertyOp16
 70
     1
102
RTVSPropertyOp17
 70
     1
102
RTVSPropertyOp18
 70
     1
102
RTVSPropertyOp19
 70
     1
102
RTVSPropertyOp20
 70
     1
102
RTVSPropertyOp21
 70
     1
102
RTVSPropertyOp22
 70
     1
102
RTVSPropertyOp23
 70
     1
102
RTVSPropertyOp24
 70
     1
102
RTVSPropertyOp25
 70
     1
102
RTVSPropertyOp26
 70
     1
102
RTVSPropertyOp27
 70
     1
102
RTVSPropertyOp28
 70
     1
102
RTVSPropertyOp29
 70
     1
102
RTVSPropertyOp30
 70
     1
102
RTVSPropertyOp31
 70
     1
102
RTVSPropertyOp32
 70
     1
102
RTVSPropertyOp33
 70
     1
102
RTVSPropertyOp34
 70
     1
102
RTVSPropertyOp35
 70
     1
102
RTVSPropertyOp36
 70
     1
102
RTVSPropertyOp37
 70
     1
102
RTVSPropertyOp38
 70
     1
102
RTVSPropertyOp39
 70
     1
102
RTVSPropertyOp40
 70
     1
102
RTVSPropertyOp41
 70
     1
102
RTVSPropertyOp42
 70
     1
102
RTVSPropertyOp43
 70
     1
102
RTVSPropertyOp44
 70
     1
102
RTVSPropertyOp45
 70
     1
102
RTVSPropertyOp46
 70
     1
102
RTVSPropertyOp47
 70
     1
102
RTVSPropertyOp48
 70
     1
102
RTVSPropertyOp49
 70
     1
102
RTVSPropertyOp50
 70
     1
102
RTVSPropertyOp51
 70
     0
102
RTVSPropertyOp52
 70
     0
102
RTVSPropertyOp53
 70
     1
102
RTVSPropertyOp54
 70
     1
102
RTVSPropertyOp55
 70
     1
102
RTVSPropertyOp56
 70
     1
102
RTVSPropertyOp57
 70
     1
102
RTVSPropertyOp58
 70
     1
102
RTVSPropertyOp59
 70
     1
102
RTVSPropertyOp60
 70
     1
102
RTVSPropertyOp61
 70
     1
102
RTVSPropertyOp62
 70
     1
  0
XRECORD
  5
E3BE
102
{ACAD_REACTORS
330
E3BD
102
}
330
E3BD
100
AcDbXrecord
280
     1
102
RTVSPost2010Prop28
280
     0
102
RTVSPost2010PropOp28
 70
     1
102
RTVSPost2010Prop29
280
     1
102
RTVSPost2010PropOp29
 70
     1
102
RTVSPost2010Prop30
280
     1
102
RTVSPost2010PropOp30
 70
     1
102
RTVSPost2010Prop31
280
     0
102
RTVSPost2010PropOp31
 70
     1
102
RTVSPost2010Prop32
280
     0
102
RTVSPost2010PropOp32
 70
     1
102
RTVSPost2010Prop33
280
     0
102
RTVSPost2010PropOp33
 70
     1
102
RTVSPost2010Prop34
280
     0
102
RTVSPost2010PropOp34
 70
     1
102
RTVSPost2010Prop35
280
     0
102
RTVSPost2010PropOp35
 70
     1
102
RTVSPost2010Prop36
280
     0
102
RTVSPost2010PropOp36
 70
     1
102
RTVSPost2010Prop37
 90
       50
102
RTVSPost2010PropOp37
 70
     1
102
RTVSPost2010Prop38
140
0.0
102
RTVSPost2010PropOp38
 70
     1
102
RTVSPost2010Prop39
140
1.0
102
RTVSPost2010PropOp39
 70
     1
102
RTVSPost2010Prop40
 90
        0
102
RTVSPost2010PropOp40
 70
     1
102
RTVSPost2010Prop41ColorIndex
 90
       18
102
RTVSPost2010Prop41ColorRGB
 90
        0
102
RTVSPost2010PropOp41
 70
     1
102
RTVSPost2010Prop42
 90
       50
102
RTVSPost2010PropOp42
 70
     1
102
RTVSPost2010Prop43
 90
        3
102
RTVSPost2010PropOp43
 70
     1
102
RTVSPost2010Prop44ColorIndex
 90
        5
102
RTVSPost2010Prop44ColorRGB
 90
      255
102
RTVSPost2010PropOp44
 70
     1
102
RTVSPost2010Prop45
280
     0
102
RTVSPost2010PropOp45
 70
     1
102
RTVSPost2010Prop46
 90
       50
102
RTVSPost2010PropOp46
 70
     1
102
RTVSPost2010Prop47
 90
       50
102
RTVSPost2010PropOp47
 70
     1
102
RTVSPost2010Prop48
 90
       50
102
RTVSPost2010PropOp48
 70
     1
102
RTVSPost2010Prop49
280
     0
102
RTVSPost2010PropOp49
 70
     1
102
RTVSPost2010Prop50
 90
       50
102
RTVSPost2010PropOp50
 70
     1
102
RTVSPost2010Prop51ColorIndex
 90
      256
102
RTVSPost2010Prop51ColorRGB
 90
-16777216
102
RTVSPost2010PropOp51
 70
     0
102
RTVSPost2010Prop52
140
1.0
102
RTVSPost2010PropOp52
 70
     0
102
RTVSPost2010Prop53
 90
        2
102
RTVSPost2010PropOp53
 70
     1
102
RTVSPost2010Prop54
  1
strokes_ogs.tif
102
RTVSPost2010PropOp54
 70
     1
102
RTVSPost2010Prop55
280
     0
102
RTVSPost2010PropOp55
 70
     1
102
RTVSPost2010Prop56
140
1.0
102
RTVSPost2010PropOp56
 70
     1
102
RTVSPost2010Prop57
140
1.0
102
RTVSPost2010PropOp57
 70
     1
102
RTVSPropertyOp0
 70
     1
102
RTVSPropertyOp1
 70
     1
102
RTVSPropertyOp2
 70
     1
102
RTVSPropertyOp3
 70
     1
102
RTVSPropertyOp4
 70
     1
102
RTVSPropertyOp5
 70
     1
102
RTVSPropertyOp6
 70
     1
102
RTVSPropertyOp7
 70
     1
102
RTVSPropertyOp8
 70
     1
102
RTVSPropertyOp9
 70
     1
102
RTVSPropertyOp10
 70
     1
102
RTVSPropertyOp11
 70
     1
102
RTVSPropertyOp12
 70
     1
102
RTVSPropertyOp13
 70
     1
102
RTVSPropertyOp14
 70
     1
102
RTVSPropertyOp15
 70
     1
102
RTVSPropertyOp16
 70
     1
102
RTVSPropertyOp17
 70
     1
102
RTVSPropertyOp18
 70
     1
102
RTVSPropertyOp19
 70
     1
102
RTVSPropertyOp20
 70
     1
102
RTVSPropertyOp21
 70
     1
102
RTVSPropertyOp22
 70
     1
102
RTVSPropertyOp23
 70
     1
102
RTVSPropertyOp24
 70
     1
102
RTVSPropertyOp25
 70
     1
102
RTVSPropertyOp26
 70
     1
102
RTVSPropertyOp27
 70
     1
102
RTVSPropertyOp28
 70
     1
102
RTVSPropertyOp29
 70
     1
102
RTVSPropertyOp30
 70
     1
102
RTVSPropertyOp31
 70
     1
102
RTVSPropertyOp32
 70
     1
102
RTVSPropertyOp33
 70
     1
102
RTVSPropertyOp34
 70
     1
102
RTVSPropertyOp35
 70
     1
102
RTVSPropertyOp36
 70
     1
102
RTVSPropertyOp37
 70
     1
102
RTVSPropertyOp38
 70
     1
102
RTVSPropertyOp39
 70
     1
102
RTVSPropertyOp40
 70
     1
102
RTVSPropertyOp41
 70
     1
102
RTVSPropertyOp42
 70
     1
102
RTVSPropertyOp43
 70
     1
102
RTVSPropertyOp44
 70
     1
102
RTVSPropertyOp45
 70
     1
102
RTVSPropertyOp46
 70
     1
102
RTVSPropertyOp47
 70
     1
102
RTVSPropertyOp48
 70
     1
102
RTVSPropertyOp49
 70
     1
102
RTVSPropertyOp50
 70
     1
102
RTVSPropertyOp51
 70
     0
102
RTVSPropertyOp52
 70
     0
102
RTVSPropertyOp53
 70
     1
102
RTVSPropertyOp54
 70
     1
102
RTVSPropertyOp55
 70
     1
102
RTVSPropertyOp56
 70
     1
102
RTVSPropertyOp57
 70
     1
102
RTVSPropertyOp58
 70
     1
102
RTVSPropertyOp59
 70
     1
102
RTVSPropertyOp60
 70
     1
102
RTVSPropertyOp61
 70
     1
102
RTVSPropertyOp62
 70
     1
  0
XRECORD
  5
E3C2
102
{ACAD_REACTORS
330
E3C1
102
}
330
E3C1
100
AcDbXrecord
280
     1
102
RTVSPost2010Prop28
280
     0
102
RTVSPost2010PropOp28
 70
     1
102
RTVSPost2010Prop29
280
     1
102
RTVSPost2010PropOp29
 70
     1
102
RTVSPost2010Prop30
280
     1
102
RTVSPost2010PropOp30
 70
     1
102
RTVSPost2010Prop31
280
     0
102
RTVSPost2010PropOp31
 70
     1
102
RTVSPost2010Prop32
280
     0
102
RTVSPost2010PropOp32
 70
     1
102
RTVSPost2010Prop33
280
     0
102
RTVSPost2010PropOp33
 70
     1
102
RTVSPost2010Prop34
280
     0
102
RTVSPost2010PropOp34
 70
     1
102
RTVSPost2010Prop35
280
     0
102
RTVSPost2010PropOp35
 70
     1
102
RTVSPost2010Prop36
280
     0
102
RTVSPost2010PropOp36
 70
     1
102
RTVSPost2010Prop37
 90
       50
102
RTVSPost2010PropOp37
 70
     1
102
RTVSPost2010Prop38
140
0.0
102
RTVSPost2010PropOp38
 70
     1
102
RTVSPost2010Prop39
140
1.0
102
RTVSPost2010PropOp39
 70
     1
102
RTVSPost2010Prop40
 90
        0
102
RTVSPost2010PropOp40
 70
     1
102
RTVSPost2010Prop41ColorIndex
 90
       18
102
RTVSPost2010Prop41ColorRGB
 90
        0
102
RTVSPost2010PropOp41
 70
     1
102
RTVSPost2010Prop42
 90
       50
102
RTVSPost2010PropOp42
 70
     1
102
RTVSPost2010Prop43
 90
        3
102
RTVSPost2010PropOp43
 70
     1
102
RTVSPost2010Prop44ColorIndex
 90
        5
102
RTVSPost2010Prop44ColorRGB
 90
      255
102
RTVSPost2010PropOp44
 70
     1
102
RTVSPost2010Prop45
280
     0
102
RTVSPost2010PropOp45
 70
     1
102
RTVSPost2010Prop46
 90
       50
102
RTVSPost2010PropOp46
 70
     1
102
RTVSPost2010Prop47
 90
       50
102
RTVSPost2010PropOp47
 70
     1
102
RTVSPost2010Prop48
 90
       50
102
RTVSPost2010PropOp48
 70
     1
102
RTVSPost2010Prop49
280
     0
102
RTVSPost2010PropOp49
 70
     1
102
RTVSPost2010Prop50
 90
       50
102
RTVSPost2010PropOp50
 70
     1
102
RTVSPost2010Prop51ColorIndex
 90
      256
102
RTVSPost2010Prop51ColorRGB
 90
-16777216
102
RTVSPost2010PropOp51
 70
     0
102
RTVSPost2010Prop52
140
1.0
102
RTVSPost2010PropOp52
 70
     0
102
RTVSPost2010Prop53
 90
        2
102
RTVSPost2010PropOp53
 70
     1
102
RTVSPost2010Prop54
  1
strokes_ogs.tif
102
RTVSPost2010PropOp54
 70
     1
102
RTVSPost2010Prop55
280
     0
102
RTVSPost2010PropOp55
 70
     1
102
RTVSPost2010Prop56
140
1.0
102
RTVSPost2010PropOp56
 70
     1
102
RTVSPost2010Prop57
140
1.0
102
RTVSPost2010PropOp57
 70
     1
102
RTVSPropertyOp0
 70
     1
102
RTVSPropertyOp1
 70
     1
102
RTVSPropertyOp2
 70
     1
102
RTVSPropertyOp3
 70
     1
102
RTVSPropertyOp4
 70
     1
102
RTVSPropertyOp5
 70
     1
102
RTVSPropertyOp6
 70
     1
102
RTVSPropertyOp7
 70
     1
102
RTVSPropertyOp8
 70
     1
102
RTVSPropertyOp9
 70
     1
102
RTVSPropertyOp10
 70
     1
102
RTVSPropertyOp11
 70
     1
102
RTVSPropertyOp12
 70
     1
102
RTVSPropertyOp13
 70
     1
102
RTVSPropertyOp14
 70
     1
102
RTVSPropertyOp15
 70
     1
102
RTVSPropertyOp16
 70
     1
102
RTVSPropertyOp17
 70
     1
102
RTVSPropertyOp18
 70
     1
102
RTVSPropertyOp19
 70
     1
102
RTVSPropertyOp20
 70
     1
102
RTVSPropertyOp21
 70
     1
102
RTVSPropertyOp22
 70
     1
102
RTVSPropertyOp23
 70
     1
102
RTVSPropertyOp24
 70
     1
102
RTVSPropertyOp25
 70
     1
102
RTVSPropertyOp26
 70
     1
102
RTVSPropertyOp27
 70
     1
102
RTVSPropertyOp28
 70
     1
102
RTVSPropertyOp29
 70
     1
102
RTVSPropertyOp30
 70
     1
102
RTVSPropertyOp31
 70
     1
102
RTVSPropertyOp32
 70
     1
102
RTVSPropertyOp33
 70
     1
102
RTVSPropertyOp34
 70
     1
102
RTVSPropertyOp35
 70
     1
102
RTVSPropertyOp36
 70
     1
102
RTVSPropertyOp37
 70
     1
102
RTVSPropertyOp38
 70
     1
102
RTVSPropertyOp39
 70
     1
102
RTVSPropertyOp40
 70
     1
102
RTVSPropertyOp41
 70
     1
102
RTVSPropertyOp42
 70
     1
102
RTVSPropertyOp43
 70
     1
102
RTVSPropertyOp44
 70
     1
102
RTVSPropertyOp45
 70
     1
102
RTVSPropertyOp46
 70
     1
102
RTVSPropertyOp47
 70
     1
102
RTVSPropertyOp48
 70
     1
102
RTVSPropertyOp49
 70
     1
102
RTVSPropertyOp50
 70
     1
102
RTVSPropertyOp51
 70
     0
102
RTVSPropertyOp52
 70
     0
102
RTVSPropertyOp53
 70
     1
102
RTVSPropertyOp54
 70
     1
102
RTVSPropertyOp55
 70
     1
102
RTVSPropertyOp56
 70
     1
102
RTVSPropertyOp57
 70
     1
102
RTVSPropertyOp58
 70
     1
102
RTVSPropertyOp59
 70
     1
102
RTVSPropertyOp60
 70
     1
102
RTVSPropertyOp61
 70
     1
102
RTVSPropertyOp62
 70
     1
  0
XRECORD
  5
E3D4
102
{ACAD_REACTORS
330
E3D3
102
}
330
E3D3
100
AcDbXrecord
280
     1
102
RTVSPost2010Prop28
280
     0
102
RTVSPost2010PropOp28
 70
     1
102
RTVSPost2010Prop29
280
     1
102
RTVSPost2010PropOp29
 70
     1
102
RTVSPost2010Prop30
280
     1
102
RTVSPost2010PropOp30
 70
     1
102
RTVSPost2010Prop31
280
     0
102
RTVSPost2010PropOp31
 70
     1
102
RTVSPost2010Prop32
280
     0
102
RTVSPost2010PropOp32
 70
     1
102
RTVSPost2010Prop33
280
     0
102
RTVSPost2010PropOp33
 70
     1
102
RTVSPost2010Prop34
280
     0
102
RTVSPost2010PropOp34
 70
     1
102
RTVSPost2010Prop35
280
     0
102
RTVSPost2010PropOp35
 70
     1
102
RTVSPost2010Prop36
280
     0
102
RTVSPost2010PropOp36
 70
     1
102
RTVSPost2010Prop37
 90
       50
102
RTVSPost2010PropOp37
 70
     1
102
RTVSPost2010Prop38
140
0.0
102
RTVSPost2010PropOp38
 70
     1
102
RTVSPost2010Prop39
140
1.0
102
RTVSPost2010PropOp39
 70
     1
102
RTVSPost2010Prop40
 90
        0
102
RTVSPost2010PropOp40
 70
     1
102
RTVSPost2010Prop41ColorIndex
 90
       18
102
RTVSPost2010Prop41ColorRGB
 90
        0
102
RTVSPost2010PropOp41
 70
     1
102
RTVSPost2010Prop42
 90
       50
102
RTVSPost2010PropOp42
 70
     1
102
RTVSPost2010Prop43
 90
        3
102
RTVSPost2010PropOp43
 70
     1
102
RTVSPost2010Prop44ColorIndex
 90
        5
102
RTVSPost2010Prop44ColorRGB
 90
      255
102
RTVSPost2010PropOp44
 70
     1
102
RTVSPost2010Prop45
280
     0
102
RTVSPost2010PropOp45
 70
     1
102
RTVSPost2010Prop46
 90
       50
102
RTVSPost2010PropOp46
 70
     1
102
RTVSPost2010Prop47
 90
       50
102
RTVSPost2010PropOp47
 70
     1
102
RTVSPost2010Prop48
 90
       50
102
RTVSPost2010PropOp48
 70
     1
102
RTVSPost2010Prop49
280
     0
102
RTVSPost2010PropOp49
 70
     1
102
RTVSPost2010Prop50
 90
       50
102
RTVSPost2010PropOp50
 70
     1
102
RTVSPost2010Prop51ColorIndex
 90
      256
102
RTVSPost2010Prop51ColorRGB
 90
-16777216
102
RTVSPost2010PropOp51
 70
     0
102
RTVSPost2010Prop52
140
1.0
102
RTVSPost2010PropOp52
 70
     0
102
RTVSPost2010Prop53
 90
        2
102
RTVSPost2010PropOp53
 70
     1
102
RTVSPost2010Prop54
  1
strokes_ogs.tif
102
RTVSPost2010PropOp54
 70
     1
102
RTVSPost2010Prop55
280
     0
102
RTVSPost2010PropOp55
 70
     1
102
RTVSPost2010Prop56
140
1.0
102
RTVSPost2010PropOp56
 70
     1
102
RTVSPost2010Prop57
140
1.0
102
RTVSPost2010PropOp57
 70
     1
102
RTVSPropertyOp0
 70
     0
102
RTVSPropertyOp1
 70
     0
102
RTVSPropertyOp2
 70
     0
102
RTVSPropertyOp3
 70
     0
102
RTVSPropertyOp4
 70
     0
102
RTVSPropertyOp5
 70
     0
102
RTVSPropertyOp6
 70
     0
102
RTVSPropertyOp7
 70
     0
102
RTVSPropertyOp8
 70
     0
102
RTVSPropertyOp9
 70
     0
102
RTVSPropertyOp10
 70
     0
102
RTVSPropertyOp11
 70
     0
102
RTVSPropertyOp12
 70
     0
102
RTVSPropertyOp13
 70
     0
102
RTVSPropertyOp14
 70
     2
102
RTVSPropertyOp15
 70
     0
102
RTVSPropertyOp16
 70
     0
102
RTVSPropertyOp17
 70
     0
102
RTVSPropertyOp18
 70
     0
102
RTVSPropertyOp19
 70
     0
102
RTVSPropertyOp20
 70
     0
102
RTVSPropertyOp21
 70
     0
102
RTVSPropertyOp22
 70
     0
102
RTVSPropertyOp23
 70
     0
102
RTVSPropertyOp24
 70
     0
102
RTVSPropertyOp25
 70
     0
102
RTVSPropertyOp26
 70
     0
102
RTVSPropertyOp27
 70
     0
102
RTVSPropertyOp28
 70
     1
102
RTVSPropertyOp29
 70
     1
102
RTVSPropertyOp30
 70
     1
102
RTVSPropertyOp31
 70
     1
102
RTVSPropertyOp32
 70
     1
102
RTVSPropertyOp33
 70
     1
102
RTVSPropertyOp34
 70
     1
102
RTVSPropertyOp35
 70
     1
102
RTVSPropertyOp36
 70
     1
102
RTVSPropertyOp37
 70
     1
102
RTVSPropertyOp38
 70
     1
102
RTVSPropertyOp39
 70
     1
102
RTVSPropertyOp40
 70
     1
102
RTVSPropertyOp41
 70
     1
102
RTVSPropertyOp42
 70
     1
102
RTVSPropertyOp43
 70
     1
102
RTVSPropertyOp44
 70
     1
102
RTVSPropertyOp45
 70
     1
102
RTVSPropertyOp46
 70
     1
102
RTVSPropertyOp47
 70
     1
102
RTVSPropertyOp48
 70
     1
102
RTVSPropertyOp49
 70
     1
102
RTVSPropertyOp50
 70
     1
102
RTVSPropertyOp51
 70
     0
102
RTVSPropertyOp52
 70
     0
102
RTVSPropertyOp53
 70
     1
102
RTVSPropertyOp54
 70
     1
102
RTVSPropertyOp55
 70
     1
102
RTVSPropertyOp56
 70
     1
102
RTVSPropertyOp57
 70
     1
102
RTVSPropertyOp58
 70
     1
102
RTVSPropertyOp59
 70
     1
102
RTVSPropertyOp60
 70
     1
102
RTVSPropertyOp61
 70
     1
102
RTVSPropertyOp62
 70
     1
  0
XRECORD
  5
E3CA
102
{ACAD_REACTORS
330
E3C9
102
}
330
E3C9
100
AcDbXrecord
280
     1
102
RTVSPost2010Prop28
280
     0
102
RTVSPost2010PropOp28
 70
     1
102
RTVSPost2010Prop29
280
     1
102
RTVSPost2010PropOp29
 70
     1
102
RTVSPost2010Prop30
280
     1
102
RTVSPost2010PropOp30
 70
     1
102
RTVSPost2010Prop31
280
     0
102
RTVSPost2010PropOp31
 70
     1
102
RTVSPost2010Prop32
280
     0
102
RTVSPost2010PropOp32
 70
     1
102
RTVSPost2010Prop33
280
     0
102
RTVSPost2010PropOp33
 70
     1
102
RTVSPost2010Prop34
280
     0
102
RTVSPost2010PropOp34
 70
     1
102
RTVSPost2010Prop35
280
     0
102
RTVSPost2010PropOp35
 70
     1
102
RTVSPost2010Prop36
280
     0
102
RTVSPost2010PropOp36
 70
     1
102
RTVSPost2010Prop37
 90
       50
102
RTVSPost2010PropOp37
 70
     1
102
RTVSPost2010Prop38
140
0.0
102
RTVSPost2010PropOp38
 70
     1
102
RTVSPost2010Prop39
140
1.0
102
RTVSPost2010PropOp39
 70
     1
102
RTVSPost2010Prop40
 90
        0
102
RTVSPost2010PropOp40
 70
     1
102
RTVSPost2010Prop41ColorIndex
 90
       18
102
RTVSPost2010Prop41ColorRGB
 90
        0
102
RTVSPost2010PropOp41
 70
     1
102
RTVSPost2010Prop42
 90
       50
102
RTVSPost2010PropOp42
 70
     1
102
RTVSPost2010Prop43
 90
        3
102
RTVSPost2010PropOp43
 70
     1
102
RTVSPost2010Prop44ColorIndex
 90
        5
102
RTVSPost2010Prop44ColorRGB
 90
      255
102
RTVSPost2010PropOp44
 70
     1
102
RTVSPost2010Prop45
280
     0
102
RTVSPost2010PropOp45
 70
     1
102
RTVSPost2010Prop46
 90
       50
102
RTVSPost2010PropOp46
 70
     1
102
RTVSPost2010Prop47
 90
       50
102
RTVSPost2010PropOp47
 70
     1
102
RTVSPost2010Prop48
 90
       50
102
RTVSPost2010PropOp48
 70
     1
102
RTVSPost2010Prop49
280
     0
102
RTVSPost2010PropOp49
 70
     1
102
RTVSPost2010Prop50
 90
       50
102
RTVSPost2010PropOp50
 70
     1
102
RTVSPost2010Prop51ColorIndex
 90
      256
102
RTVSPost2010Prop51ColorRGB
 90
-16777216
102
RTVSPost2010PropOp51
 70
     0
102
RTVSPost2010Prop52
140
1.0
102
RTVSPost2010PropOp52
 70
     0
102
RTVSPost2010Prop53
 90
        2
102
RTVSPost2010PropOp53
 70
     1
102
RTVSPost2010Prop54
  1
strokes_ogs.tif
102
RTVSPost2010PropOp54
 70
     1
102
RTVSPost2010Prop55
280
     0
102
RTVSPost2010PropOp55
 70
     1
102
RTVSPost2010Prop56
140
1.0
102
RTVSPost2010PropOp56
 70
     1
102
RTVSPost2010Prop57
140
1.0
102
RTVSPost2010PropOp57
 70
     1
102
RTVSPropertyOp0
 70
     1
102
RTVSPropertyOp1
 70
     1
102
RTVSPropertyOp2
 70
     1
102
RTVSPropertyOp3
 70
     1
102
RTVSPropertyOp4
 70
     1
102
RTVSPropertyOp5
 70
     1
102
RTVSPropertyOp6
 70
     1
102
RTVSPropertyOp7
 70
     1
102
RTVSPropertyOp8
 70
     1
102
RTVSPropertyOp9
 70
     1
102
RTVSPropertyOp10
 70
     1
102
RTVSPropertyOp11
 70
     1
102
RTVSPropertyOp12
 70
     1
102
RTVSPropertyOp13
 70
     1
102
RTVSPropertyOp14
 70
     1
102
RTVSPropertyOp15
 70
     1
102
RTVSPropertyOp16
 70
     1
102
RTVSPropertyOp17
 70
     1
102
RTVSPropertyOp18
 70
     1
102
RTVSPropertyOp19
 70
     1
102
RTVSPropertyOp20
 70
     1
102
RTVSPropertyOp21
 70
     1
102
RTVSPropertyOp22
 70
     1
102
RTVSPropertyOp23
 70
     1
102
RTVSPropertyOp24
 70
     1
102
RTVSPropertyOp25
 70
     1
102
RTVSPropertyOp26
 70
     1
102
RTVSPropertyOp27
 70
     1
102
RTVSPropertyOp28
 70
     1
102
RTVSPropertyOp29
 70
     1
102
RTVSPropertyOp30
 70
     1
102
RTVSPropertyOp31
 70
     1
102
RTVSPropertyOp32
 70
     1
102
RTVSPropertyOp33
 70
     1
102
RTVSPropertyOp34
 70
     1
102
RTVSPropertyOp35
 70
     1
102
RTVSPropertyOp36
 70
     1
102
RTVSPropertyOp37
 70
     1
102
RTVSPropertyOp38
 70
     1
102
RTVSPropertyOp39
 70
     1
102
RTVSPropertyOp40
 70
     1
102
RTVSPropertyOp41
 70
     1
102
RTVSPropertyOp42
 70
     1
102
RTVSPropertyOp43
 70
     1
102
RTVSPropertyOp44
 70
     1
102
RTVSPropertyOp45
 70
     1
102
RTVSPropertyOp46
 70
     1
102
RTVSPropertyOp47
 70
     1
102
RTVSPropertyOp48
 70
     1
102
RTVSPropertyOp49
 70
     1
102
RTVSPropertyOp50
 70
     1
102
RTVSPropertyOp51
 70
     0
102
RTVSPropertyOp52
 70
     0
102
RTVSPropertyOp53
 70
     1
102
RTVSPropertyOp54
 70
     1
102
RTVSPropertyOp55
 70
     1
102
RTVSPropertyOp56
 70
     1
102
RTVSPropertyOp57
 70
     1
102
RTVSPropertyOp58
 70
     1
102
RTVSPropertyOp59
 70
     1
102
RTVSPropertyOp60
 70
     1
102
RTVSPropertyOp61
 70
     1
102
RTVSPropertyOp62
 70
     1
  0
XRECORD
  5
E3AE
102
{ACAD_REACTORS
330
E3AD
102
}
330
E3AD
100
AcDbXrecord
280
     1
102
RTVSPost2010Prop28
280
     0
102
RTVSPost2010PropOp28
 70
     1
102
RTVSPost2010Prop29
280
     1
102
RTVSPost2010PropOp29
 70
     1
102
RTVSPost2010Prop30
280
     1
102
RTVSPost2010PropOp30
 70
     1
102
RTVSPost2010Prop31
280
     0
102
RTVSPost2010PropOp31
 70
     1
102
RTVSPost2010Prop32
280
     0
102
RTVSPost2010PropOp32
 70
     1
102
RTVSPost2010Prop33
280
     0
102
RTVSPost2010PropOp33
 70
     1
102
RTVSPost2010Prop34
280
     0
102
RTVSPost2010PropOp34
 70
     1
102
RTVSPost2010Prop35
280
     0
102
RTVSPost2010PropOp35
 70
     1
102
RTVSPost2010Prop36
280
     0
102
RTVSPost2010PropOp36
 70
     1
102
RTVSPost2010Prop37
 90
       50
102
RTVSPost2010PropOp37
 70
     1
102
RTVSPost2010Prop38
140
0.0
102
RTVSPost2010PropOp38
 70
     1
102
RTVSPost2010Prop39
140
1.0
102
RTVSPost2010PropOp39
 70
     1
102
RTVSPost2010Prop40
 90
        0
102
RTVSPost2010PropOp40
 70
     1
102
RTVSPost2010Prop41ColorIndex
 90
       18
102
RTVSPost2010Prop41ColorRGB
 90
        0
102
RTVSPost2010PropOp41
 70
     1
102
RTVSPost2010Prop42
 90
       50
102
RTVSPost2010PropOp42
 70
     1
102
RTVSPost2010Prop43
 90
        3
102
RTVSPost2010PropOp43
 70
     1
102
RTVSPost2010Prop44ColorIndex
 90
        5
102
RTVSPost2010Prop44ColorRGB
 90
      255
102
RTVSPost2010PropOp44
 70
     1
102
RTVSPost2010Prop45
280
     0
102
RTVSPost2010PropOp45
 70
     1
102
RTVSPost2010Prop46
 90
       50
102
RTVSPost2010PropOp46
 70
     1
102
RTVSPost2010Prop47
 90
       50
102
RTVSPost2010PropOp47
 70
     1
102
RTVSPost2010Prop48
 90
       50
102
RTVSPost2010PropOp48
 70
     1
102
RTVSPost2010Prop49
280
     0
102
RTVSPost2010PropOp49
 70
     1
102
RTVSPost2010Prop50
 90
       50
102
RTVSPost2010PropOp50
 70
     1
102
RTVSPost2010Prop51ColorIndex
 90
      256
102
RTVSPost2010Prop51ColorRGB
 90
-16777216
102
RTVSPost2010PropOp51
 70
     0
102
RTVSPost2010Prop52
140
1.0
102
RTVSPost2010PropOp52
 70
     0
102
RTVSPost2010Prop53
 90
        2
102
RTVSPost2010PropOp53
 70
     1
102
RTVSPost2010Prop54
  1
strokes_ogs.tif
102
RTVSPost2010PropOp54
 70
     1
102
RTVSPost2010Prop55
280
     0
102
RTVSPost2010PropOp55
 70
     1
102
RTVSPost2010Prop56
140
1.0
102
RTVSPost2010PropOp56
 70
     1
102
RTVSPost2010Prop57
140
1.0
102
RTVSPost2010PropOp57
 70
     1
102
RTVSPropertyOp0
 70
     1
102
RTVSPropertyOp1
 70
     1
102
RTVSPropertyOp2
 70
     1
102
RTVSPropertyOp3
 70
     1
102
RTVSPropertyOp4
 70
     1
102
RTVSPropertyOp5
 70
     1
102
RTVSPropertyOp6
 70
     1
102
RTVSPropertyOp7
 70
     1
102
RTVSPropertyOp8
 70
     1
102
RTVSPropertyOp9
 70
     1
102
RTVSPropertyOp10
 70
     1
102
RTVSPropertyOp11
 70
     1
102
RTVSPropertyOp12
 70
     1
102
RTVSPropertyOp13
 70
     1
102
RTVSPropertyOp14
 70
     1
102
RTVSPropertyOp15
 70
     1
102
RTVSPropertyOp16
 70
     1
102
RTVSPropertyOp17
 70
     1
102
RTVSPropertyOp18
 70
     1
102
RTVSPropertyOp19
 70
     1
102
RTVSPropertyOp20
 70
     1
102
RTVSPropertyOp21
 70
     1
102
RTVSPropertyOp22
 70
     1
102
RTVSPropertyOp23
 70
     1
102
RTVSPropertyOp24
 70
     1
102
RTVSPropertyOp25
 70
     1
102
RTVSPropertyOp26
 70
     1
102
RTVSPropertyOp27
 70
     1
102
RTVSPropertyOp28
 70
     1
102
RTVSPropertyOp29
 70
     1
102
RTVSPropertyOp30
 70
     1
102
RTVSPropertyOp31
 70
     1
102
RTVSPropertyOp32
 70
     1
102
RTVSPropertyOp33
 70
     1
102
RTVSPropertyOp34
 70
     1
102
RTVSPropertyOp35
 70
     1
102
RTVSPropertyOp36
 70
     1
102
RTVSPropertyOp37
 70
     1
102
RTVSPropertyOp38
 70
     1
102
RTVSPropertyOp39
 70
     1
102
RTVSPropertyOp40
 70
     1
102
RTVSPropertyOp41
 70
     1
102
RTVSPropertyOp42
 70
     1
102
RTVSPropertyOp43
 70
     1
102
RTVSPropertyOp44
 70
     1
102
RTVSPropertyOp45
 70
     1
102
RTVSPropertyOp46
 70
     1
102
RTVSPropertyOp47
 70
     1
102
RTVSPropertyOp48
 70
     1
102
RTVSPropertyOp49
 70
     1
102
RTVSPropertyOp50
 70
     1
102
RTVSPropertyOp51
 70
     0
102
RTVSPropertyOp52
 70
     0
102
RTVSPropertyOp53
 70
     1
102
RTVSPropertyOp54
 70
     1
102
RTVSPropertyOp55
 70
     1
102
RTVSPropertyOp56
 70
     1
102
RTVSPropertyOp57
 70
     1
102
RTVSPropertyOp58
 70
     1
102
RTVSPropertyOp59
 70
     1
102
RTVSPropertyOp60
 70
     1
102
RTVSPropertyOp61
 70
     1
102
RTVSPropertyOp62
 70
     1
  0
XRECORD
  5
E3B0
102
{ACAD_REACTORS
330
E3AF
102
}
330
E3AF
100
AcDbXrecord
280
     1
102
RTVSPost2010Prop28
280
     0
102
RTVSPost2010PropOp28
 70
     1
102
RTVSPost2010Prop29
280
     1
102
RTVSPost2010PropOp29
 70
     1
102
RTVSPost2010Prop30
280
     1
102
RTVSPost2010PropOp30
 70
     1
102
RTVSPost2010Prop31
280
     0
102
RTVSPost2010PropOp31
 70
     1
102
RTVSPost2010Prop32
280
     0
102
RTVSPost2010PropOp32
 70
     1
102
RTVSPost2010Prop33
280
     0
102
RTVSPost2010PropOp33
 70
     1
102
RTVSPost2010Prop34
280
     0
102
RTVSPost2010PropOp34
 70
     1
102
RTVSPost2010Prop35
280
     0
102
RTVSPost2010PropOp35
 70
     1
102
RTVSPost2010Prop36
280
     0
102
RTVSPost2010PropOp36
 70
     1
102
RTVSPost2010Prop37
 90
       50
102
RTVSPost2010PropOp37
 70
     1
102
RTVSPost2010Prop38
140
0.0
102
RTVSPost2010PropOp38
 70
     1
102
RTVSPost2010Prop39
140
1.0
102
RTVSPost2010PropOp39
 70
     1
102
RTVSPost2010Prop40
 90
        0
102
RTVSPost2010PropOp40
 70
     1
102
RTVSPost2010Prop41ColorIndex
 90
       18
102
RTVSPost2010Prop41ColorRGB
 90
        0
102
RTVSPost2010PropOp41
 70
     1
102
RTVSPost2010Prop42
 90
       50
102
RTVSPost2010PropOp42
 70
     1
102
RTVSPost2010Prop43
 90
        3
102
RTVSPost2010PropOp43
 70
     1
102
RTVSPost2010Prop44ColorIndex
 90
        5
102
RTVSPost2010Prop44ColorRGB
 90
      255
102
RTVSPost2010PropOp44
 70
     1
102
RTVSPost2010Prop45
280
     0
102
RTVSPost2010PropOp45
 70
     1
102
RTVSPost2010Prop46
 90
       50
102
RTVSPost2010PropOp46
 70
     1
102
RTVSPost2010Prop47
 90
       50
102
RTVSPost2010PropOp47
 70
     1
102
RTVSPost2010Prop48
 90
       50
102
RTVSPost2010PropOp48
 70
     1
102
RTVSPost2010Prop49
280
     0
102
RTVSPost2010PropOp49
 70
     1
102
RTVSPost2010Prop50
 90
       50
102
RTVSPost2010PropOp50
 70
     1
102
RTVSPost2010Prop51ColorIndex
 90
      256
102
RTVSPost2010Prop51ColorRGB
 90
-16777216
102
RTVSPost2010PropOp51
 70
     0
102
RTVSPost2010Prop52
140
1.0
102
RTVSPost2010PropOp52
 70
     0
102
RTVSPost2010Prop53
 90
        2
102
RTVSPost2010PropOp53
 70
     1
102
RTVSPost2010Prop54
  1
strokes_ogs.tif
102
RTVSPost2010PropOp54
 70
     1
102
RTVSPost2010Prop55
280
     0
102
RTVSPost2010PropOp55
 70
     1
102
RTVSPost2010Prop56
140
1.0
102
RTVSPost2010PropOp56
 70
     1
102
RTVSPost2010Prop57
140
1.0
102
RTVSPost2010PropOp57
 70
     1
102
RTVSPropertyOp0
 70
     1
102
RTVSPropertyOp1
 70
     1
102
RTVSPropertyOp2
 70
     1
102
RTVSPropertyOp3
 70
     1
102
RTVSPropertyOp4
 70
     1
102
RTVSPropertyOp5
 70
     1
102
RTVSPropertyOp6
 70
     1
102
RTVSPropertyOp7
 70
     1
102
RTVSPropertyOp8
 70
     1
102
RTVSPropertyOp9
 70
     1
102
RTVSPropertyOp10
 70
     1
102
RTVSPropertyOp11
 70
     1
102
RTVSPropertyOp12
 70
     1
102
RTVSPropertyOp13
 70
     1
102
RTVSPropertyOp14
 70
     1
102
RTVSPropertyOp15
 70
     1
102
RTVSPropertyOp16
 70
     1
102
RTVSPropertyOp17
 70
     1
102
RTVSPropertyOp18
 70
     1
102
RTVSPropertyOp19
 70
     1
102
RTVSPropertyOp20
 70
     1
102
RTVSPropertyOp21
 70
     1
102
RTVSPropertyOp22
 70
     1
102
RTVSPropertyOp23
 70
     1
102
RTVSPropertyOp24
 70
     1
102
RTVSPropertyOp25
 70
     1
102
RTVSPropertyOp26
 70
     1
102
RTVSPropertyOp27
 70
     1
102
RTVSPropertyOp28
 70
     1
102
RTVSPropertyOp29
 70
     1
102
RTVSPropertyOp30
 70
     1
102
RTVSPropertyOp31
 70
     1
102
RTVSPropertyOp32
 70
     1
102
RTVSPropertyOp33
 70
     1
102
RTVSPropertyOp34
 70
     1
102
RTVSPropertyOp35
 70
     1
102
RTVSPropertyOp36
 70
     1
102
RTVSPropertyOp37
 70
     1
102
RTVSPropertyOp38
 70
     1
102
RTVSPropertyOp39
 70
     1
102
RTVSPropertyOp40
 70
     1
102
RTVSPropertyOp41
 70
     1
102
RTVSPropertyOp42
 70
     1
102
RTVSPropertyOp43
 70
     1
102
RTVSPropertyOp44
 70
     1
102
RTVSPropertyOp45
 70
     1
102
RTVSPropertyOp46
 70
     1
102
RTVSPropertyOp47
 70
     1
102
RTVSPropertyOp48
 70
     1
102
RTVSPropertyOp49
 70
     1
102
RTVSPropertyOp50
 70
     1
102
RTVSPropertyOp51
 70
     0
102
RTVSPropertyOp52
 70
     0
102
RTVSPropertyOp53
 70
     1
102
RTVSPropertyOp54
 70
     1
102
RTVSPropertyOp55
 70
     1
102
RTVSPropertyOp56
 70
     1
102
RTVSPropertyOp57
 70
     1
102
RTVSPropertyOp58
 70
     1
102
RTVSPropertyOp59
 70
     1
102
RTVSPropertyOp60
 70
     1
102
RTVSPropertyOp61
 70
     1
102
RTVSPropertyOp62
 70
     1
  0
XRECORD
  5
E3B2
102
{ACAD_REACTORS
330
E3B1
102
}
330
E3B1
100
AcDbXrecord
280
     1
102
RTVSPost2010Prop28
280
     0
102
RTVSPost2010PropOp28
 70
     1
102
RTVSPost2010Prop29
280
     1
102
RTVSPost2010PropOp29
 70
     1
102
RTVSPost2010Prop30
280
     1
102
RTVSPost2010PropOp30
 70
     1
102
RTVSPost2010Prop31
280
     0
102
RTVSPost2010PropOp31
 70
     1
102
RTVSPost2010Prop32
280
     0
102
RTVSPost2010PropOp32
 70
     1
102
RTVSPost2010Prop33
280
     0
102
RTVSPost2010PropOp33
 70
     1
102
RTVSPost2010Prop34
280
     0
102
RTVSPost2010PropOp34
 70
     1
102
RTVSPost2010Prop35
280
     0
102
RTVSPost2010PropOp35
 70
     1
102
RTVSPost2010Prop36
280
     0
102
RTVSPost2010PropOp36
 70
     1
102
RTVSPost2010Prop37
 90
       50
102
RTVSPost2010PropOp37
 70
     1
102
RTVSPost2010Prop38
140
0.0
102
RTVSPost2010PropOp38
 70
     1
102
RTVSPost2010Prop39
140
1.0
102
RTVSPost2010PropOp39
 70
     1
102
RTVSPost2010Prop40
 90
        0
102
RTVSPost2010PropOp40
 70
     1
102
RTVSPost2010Prop41ColorIndex
 90
       18
102
RTVSPost2010Prop41ColorRGB
 90
        0
102
RTVSPost2010PropOp41
 70
     1
102
RTVSPost2010Prop42
 90
       50
102
RTVSPost2010PropOp42
 70
     1
102
RTVSPost2010Prop43
 90
        3
102
RTVSPost2010PropOp43
 70
     1
102
RTVSPost2010Prop44ColorIndex
 90
        5
102
RTVSPost2010Prop44ColorRGB
 90
      255
102
RTVSPost2010PropOp44
 70
     1
102
RTVSPost2010Prop45
280
     0
102
RTVSPost2010PropOp45
 70
     1
102
RTVSPost2010Prop46
 90
       50
102
RTVSPost2010PropOp46
 70
     1
102
RTVSPost2010Prop47
 90
       50
102
RTVSPost2010PropOp47
 70
     1
102
RTVSPost2010Prop48
 90
       50
102
RTVSPost2010PropOp48
 70
     1
102
RTVSPost2010Prop49
280
     0
102
RTVSPost2010PropOp49
 70
     1
102
RTVSPost2010Prop50
 90
       50
102
RTVSPost2010PropOp50
 70
     1
102
RTVSPost2010Prop51ColorIndex
 90
      256
102
RTVSPost2010Prop51ColorRGB
 90
-16777216
102
RTVSPost2010PropOp51
 70
     0
102
RTVSPost2010Prop52
140
1.0
102
RTVSPost2010PropOp52
 70
     0
102
RTVSPost2010Prop53
 90
        2
102
RTVSPost2010PropOp53
 70
     1
102
RTVSPost2010Prop54
  1
strokes_ogs.tif
102
RTVSPost2010PropOp54
 70
     1
102
RTVSPost2010Prop55
280
     0
102
RTVSPost2010PropOp55
 70
     1
102
RTVSPost2010Prop56
140
1.0
102
RTVSPost2010PropOp56
 70
     1
102
RTVSPost2010Prop57
140
1.0
102
RTVSPost2010PropOp57
 70
     1
102
RTVSPropertyOp0
 70
     1
102
RTVSPropertyOp1
 70
     1
102
RTVSPropertyOp2
 70
     1
102
RTVSPropertyOp3
 70
     1
102
RTVSPropertyOp4
 70
     1
102
RTVSPropertyOp5
 70
     1
102
RTVSPropertyOp6
 70
     1
102
RTVSPropertyOp7
 70
     1
102
RTVSPropertyOp8
 70
     1
102
RTVSPropertyOp9
 70
     1
102
RTVSPropertyOp10
 70
     1
102
RTVSPropertyOp11
 70
     1
102
RTVSPropertyOp12
 70
     1
102
RTVSPropertyOp13
 70
     1
102
RTVSPropertyOp14
 70
     1
102
RTVSPropertyOp15
 70
     1
102
RTVSPropertyOp16
 70
     1
102
RTVSPropertyOp17
 70
     1
102
RTVSPropertyOp18
 70
     1
102
RTVSPropertyOp19
 70
     1
102
RTVSPropertyOp20
 70
     1
102
RTVSPropertyOp21
 70
     1
102
RTVSPropertyOp22
 70
     1
102
RTVSPropertyOp23
 70
     1
102
RTVSPropertyOp24
 70
     1
102
RTVSPropertyOp25
 70
     1
102
RTVSPropertyOp26
 70
     1
102
RTVSPropertyOp27
 70
     1
102
RTVSPropertyOp28
 70
     1
102
RTVSPropertyOp29
 70
     1
102
RTVSPropertyOp30
 70
     1
102
RTVSPropertyOp31
 70
     1
102
RTVSPropertyOp32
 70
     1
102
RTVSPropertyOp33
 70
     1
102
RTVSPropertyOp34
 70
     1
102
RTVSPropertyOp35
 70
     1
102
RTVSPropertyOp36
 70
     1
102
RTVSPropertyOp37
 70
     1
102
RTVSPropertyOp38
 70
     1
102
RTVSPropertyOp39
 70
     1
102
RTVSPropertyOp40
 70
     1
102
RTVSPropertyOp41
 70
     1
102
RTVSPropertyOp42
 70
     1
102
RTVSPropertyOp43
 70
     1
102
RTVSPropertyOp44
 70
     1
102
RTVSPropertyOp45
 70
     1
102
RTVSPropertyOp46
 70
     1
102
RTVSPropertyOp47
 70
     1
102
RTVSPropertyOp48
 70
     1
102
RTVSPropertyOp49
 70
     1
102
RTVSPropertyOp50
 70
     1
102
RTVSPropertyOp51
 70
     0
102
RTVSPropertyOp52
 70
     0
102
RTVSPropertyOp53
 70
     1
102
RTVSPropertyOp54
 70
     1
102
RTVSPropertyOp55
 70
     1
102
RTVSPropertyOp56
 70
     1
102
RTVSPropertyOp57
 70
     1
102
RTVSPropertyOp58
 70
     1
102
RTVSPropertyOp59
 70
     1
102
RTVSPropertyOp60
 70
     1
102
RTVSPropertyOp61
 70
     1
102
RTVSPropertyOp62
 70
     1
  0
XRECORD
  5
E3B4
102
{ACAD_REACTORS
330
E3B3
102
}
330
E3B3
100
AcDbXrecord
280
     1
102
RTVSPost2010Prop28
280
     0
102
RTVSPost2010PropOp28
 70
     1
102
RTVSPost2010Prop29
280
     1
102
RTVSPost2010PropOp29
 70
     1
102
RTVSPost2010Prop30
280
     1
102
RTVSPost2010PropOp30
 70
     1
102
RTVSPost2010Prop31
280
     0
102
RTVSPost2010PropOp31
 70
     1
102
RTVSPost2010Prop32
280
     0
102
RTVSPost2010PropOp32
 70
     1
102
RTVSPost2010Prop33
280
     0
102
RTVSPost2010PropOp33
 70
     1
102
RTVSPost2010Prop34
280
     0
102
RTVSPost2010PropOp34
 70
     1
102
RTVSPost2010Prop35
280
     0
102
RTVSPost2010PropOp35
 70
     1
102
RTVSPost2010Prop36
280
     0
102
RTVSPost2010PropOp36
 70
     1
102
RTVSPost2010Prop37
 90
       50
102
RTVSPost2010PropOp37
 70
     1
102
RTVSPost2010Prop38
140
0.0
102
RTVSPost2010PropOp38
 70
     1
102
RTVSPost2010Prop39
140
1.0
102
RTVSPost2010PropOp39
 70
     1
102
RTVSPost2010Prop40
 90
        0
102
RTVSPost2010PropOp40
 70
     1
102
RTVSPost2010Prop41ColorIndex
 90
       18
102
RTVSPost2010Prop41ColorRGB
 90
        0
102
RTVSPost2010PropOp41
 70
     1
102
RTVSPost2010Prop42
 90
       50
102
RTVSPost2010PropOp42
 70
     1
102
RTVSPost2010Prop43
 90
        3
102
RTVSPost2010PropOp43
 70
     1
102
RTVSPost2010Prop44ColorIndex
 90
        5
102
RTVSPost2010Prop44ColorRGB
 90
      255
102
RTVSPost2010PropOp44
 70
     1
102
RTVSPost2010Prop45
280
     0
102
RTVSPost2010PropOp45
 70
     1
102
RTVSPost2010Prop46
 90
       50
102
RTVSPost2010PropOp46
 70
     1
102
RTVSPost2010Prop47
 90
       50
102
RTVSPost2010PropOp47
 70
     1
102
RTVSPost2010Prop48
 90
       50
102
RTVSPost2010PropOp48
 70
     1
102
RTVSPost2010Prop49
280
     0
102
RTVSPost2010PropOp49
 70
     1
102
RTVSPost2010Prop50
 90
       50
102
RTVSPost2010PropOp50
 70
     1
102
RTVSPost2010Prop51ColorIndex
 90
      256
102
RTVSPost2010Prop51ColorRGB
 90
-16777216
102
RTVSPost2010PropOp51
 70
     0
102
RTVSPost2010Prop52
140
1.0
102
RTVSPost2010PropOp52
 70
     0
102
RTVSPost2010Prop53
 90
        2
102
RTVSPost2010PropOp53
 70
     1
102
RTVSPost2010Prop54
  1
strokes_ogs.tif
102
RTVSPost2010PropOp54
 70
     1
102
RTVSPost2010Prop55
280
     0
102
RTVSPost2010PropOp55
 70
     1
102
RTVSPost2010Prop56
140
1.0
102
RTVSPost2010PropOp56
 70
     1
102
RTVSPost2010Prop57
140
1.0
102
RTVSPost2010PropOp57
 70
     1
102
RTVSPropertyOp0
 70
     1
102
RTVSPropertyOp1
 70
     1
102
RTVSPropertyOp2
 70
     1
102
RTVSPropertyOp3
 70
     1
102
RTVSPropertyOp4
 70
     1
102
RTVSPropertyOp5
 70
     1
102
RTVSPropertyOp6
 70
     1
102
RTVSPropertyOp7
 70
     1
102
RTVSPropertyOp8
 70
     1
102
RTVSPropertyOp9
 70
     1
102
RTVSPropertyOp10
 70
     1
102
RTVSPropertyOp11
 70
     1
102
RTVSPropertyOp12
 70
     1
102
RTVSPropertyOp13
 70
     1
102
RTVSPropertyOp14
 70
     1
102
RTVSPropertyOp15
 70
     1
102
RTVSPropertyOp16
 70
     1
102
RTVSPropertyOp17
 70
     1
102
RTVSPropertyOp18
 70
     1
102
RTVSPropertyOp19
 70
     1
102
RTVSPropertyOp20
 70
     1
102
RTVSPropertyOp21
 70
     1
102
RTVSPropertyOp22
 70
     1
102
RTVSPropertyOp23
 70
     1
102
RTVSPropertyOp24
 70
     1
102
RTVSPropertyOp25
 70
     1
102
RTVSPropertyOp26
 70
     1
102
RTVSPropertyOp27
 70
     1
102
RTVSPropertyOp28
 70
     1
102
RTVSPropertyOp29
 70
     1
102
RTVSPropertyOp30
 70
     1
102
RTVSPropertyOp31
 70
     1
102
RTVSPropertyOp32
 70
     1
102
RTVSPropertyOp33
 70
     1
102
RTVSPropertyOp34
 70
     1
102
RTVSPropertyOp35
 70
     1
102
RTVSPropertyOp36
 70
     1
102
RTVSPropertyOp37
 70
     1
102
RTVSPropertyOp38
 70
     1
102
RTVSPropertyOp39
 70
     1
102
RTVSPropertyOp40
 70
     1
102
RTVSPropertyOp41
 70
     1
102
RTVSPropertyOp42
 70
     1
102
RTVSPropertyOp43
 70
     1
102
RTVSPropertyOp44
 70
     1
102
RTVSPropertyOp45
 70
     1
102
RTVSPropertyOp46
 70
     1
102
RTVSPropertyOp47
 70
     1
102
RTVSPropertyOp48
 70
     1
102
RTVSPropertyOp49
 70
     1
102
RTVSPropertyOp50
 70
     1
102
RTVSPropertyOp51
 70
     0
102
RTVSPropertyOp52
 70
     0
102
RTVSPropertyOp53
 70
     1
102
RTVSPropertyOp54
 70
     1
102
RTVSPropertyOp55
 70
     1
102
RTVSPropertyOp56
 70
     1
102
RTVSPropertyOp57
 70
     1
102
RTVSPropertyOp58
 70
     1
102
RTVSPropertyOp59
 70
     1
102
RTVSPropertyOp60
 70
     1
102
RTVSPropertyOp61
 70
     1
102
RTVSPropertyOp62
 70
     1
  0
XRECORD
  5
E3BC
102
{ACAD_REACTORS
330
E3BB
102
}
330
E3BB
100
AcDbXrecord
280
     1
102
RTVSPost2010Prop28
280
     0
102
RTVSPost2010PropOp28
 70
     1
102
RTVSPost2010Prop29
280
     1
102
RTVSPost2010PropOp29
 70
     1
102
RTVSPost2010Prop30
280
     1
102
RTVSPost2010PropOp30
 70
     1
102
RTVSPost2010Prop31
280
     0
102
RTVSPost2010PropOp31
 70
     1
102
RTVSPost2010Prop32
280
     0
102
RTVSPost2010PropOp32
 70
     1
102
RTVSPost2010Prop33
280
     0
102
RTVSPost2010PropOp33
 70
     1
102
RTVSPost2010Prop34
280
     0
102
RTVSPost2010PropOp34
 70
     1
102
RTVSPost2010Prop35
280
     0
102
RTVSPost2010PropOp35
 70
     1
102
RTVSPost2010Prop36
280
     0
102
RTVSPost2010PropOp36
 70
     1
102
RTVSPost2010Prop37
 90
       50
102
RTVSPost2010PropOp37
 70
     1
102
RTVSPost2010Prop38
140
0.0
102
RTVSPost2010PropOp38
 70
     1
102
RTVSPost2010Prop39
140
1.0
102
RTVSPost2010PropOp39
 70
     1
102
RTVSPost2010Prop40
 90
        0
102
RTVSPost2010PropOp40
 70
     1
102
RTVSPost2010Prop41ColorIndex
 90
       18
102
RTVSPost2010Prop41ColorRGB
 90
        0
102
RTVSPost2010PropOp41
 70
     1
102
RTVSPost2010Prop42
 90
       50
102
RTVSPost2010PropOp42
 70
     1
102
RTVSPost2010Prop43
 90
        3
102
RTVSPost2010PropOp43
 70
     1
102
RTVSPost2010Prop44ColorIndex
 90
        5
102
RTVSPost2010Prop44ColorRGB
 90
      255
102
RTVSPost2010PropOp44
 70
     1
102
RTVSPost2010Prop45
280
     0
102
RTVSPost2010PropOp45
 70
     1
102
RTVSPost2010Prop46
 90
       50
102
RTVSPost2010PropOp46
 70
     1
102
RTVSPost2010Prop47
 90
       50
102
RTVSPost2010PropOp47
 70
     1
102
RTVSPost2010Prop48
 90
       50
102
RTVSPost2010PropOp48
 70
     1
102
RTVSPost2010Prop49
280
     0
102
RTVSPost2010PropOp49
 70
     1
102
RTVSPost2010Prop50
 90
       50
102
RTVSPost2010PropOp50
 70
     1
102
RTVSPost2010Prop51ColorIndex
 90
      256
102
RTVSPost2010Prop51ColorRGB
 90
-16777216
102
RTVSPost2010PropOp51
 70
     0
102
RTVSPost2010Prop52
140
1.0
102
RTVSPost2010PropOp52
 70
     0
102
RTVSPost2010Prop53
 90
        2
102
RTVSPost2010PropOp53
 70
     1
102
RTVSPost2010Prop54
  1
strokes_ogs.tif
102
RTVSPost2010PropOp54
 70
     1
102
RTVSPost2010Prop55
280
     0
102
RTVSPost2010PropOp55
 70
     1
102
RTVSPost2010Prop56
140
1.0
102
RTVSPost2010PropOp56
 70
     1
102
RTVSPost2010Prop57
140
1.0
102
RTVSPost2010PropOp57
 70
     1
102
RTVSPropertyOp0
 70
     1
102
RTVSPropertyOp1
 70
     1
102
RTVSPropertyOp2
 70
     1
102
RTVSPropertyOp3
 70
     1
102
RTVSPropertyOp4
 70
     1
102
RTVSPropertyOp5
 70
     1
102
RTVSPropertyOp6
 70
     1
102
RTVSPropertyOp7
 70
     1
102
RTVSPropertyOp8
 70
     1
102
RTVSPropertyOp9
 70
     1
102
RTVSPropertyOp10
 70
     1
102
RTVSPropertyOp11
 70
     1
102
RTVSPropertyOp12
 70
     1
102
RTVSPropertyOp13
 70
     1
102
RTVSPropertyOp14
 70
     1
102
RTVSPropertyOp15
 70
     1
102
RTVSPropertyOp16
 70
     1
102
RTVSPropertyOp17
 70
     1
102
RTVSPropertyOp18
 70
     1
102
RTVSPropertyOp19
 70
     1
102
RTVSPropertyOp20
 70
     1
102
RTVSPropertyOp21
 70
     1
102
RTVSPropertyOp22
 70
     1
102
RTVSPropertyOp23
 70
     1
102
RTVSPropertyOp24
 70
     1
102
RTVSPropertyOp25
 70
     1
102
RTVSPropertyOp26
 70
     1
102
RTVSPropertyOp27
 70
     1
102
RTVSPropertyOp28
 70
     1
102
RTVSPropertyOp29
 70
     1
102
RTVSPropertyOp30
 70
     1
102
RTVSPropertyOp31
 70
     1
102
RTVSPropertyOp32
 70
     1
102
RTVSPropertyOp33
 70
     1
102
RTVSPropertyOp34
 70
     1
102
RTVSPropertyOp35
 70
     1
102
RTVSPropertyOp36
 70
     1
102
RTVSPropertyOp37
 70
     1
102
RTVSPropertyOp38
 70
     1
102
RTVSPropertyOp39
 70
     1
102
RTVSPropertyOp40
 70
     1
102
RTVSPropertyOp41
 70
     1
102
RTVSPropertyOp42
 70
     1
102
RTVSPropertyOp43
 70
     1
102
RTVSPropertyOp44
 70
     1
102
RTVSPropertyOp45
 70
     1
102
RTVSPropertyOp46
 70
     1
102
RTVSPropertyOp47
 70
     1
102
RTVSPropertyOp48
 70
     1
102
RTVSPropertyOp49
 70
     1
102
RTVSPropertyOp50
 70
     1
102
RTVSPropertyOp51
 70
     0
102
RTVSPropertyOp52
 70
     0
102
RTVSPropertyOp53
 70
     1
102
RTVSPropertyOp54
 70
     1
102
RTVSPropertyOp55
 70
     1
102
RTVSPropertyOp56
 70
     1
102
RTVSPropertyOp57
 70
     1
102
RTVSPropertyOp58
 70
     1
102
RTVSPropertyOp59
 70
     1
102
RTVSPropertyOp60
 70
     1
102
RTVSPropertyOp61
 70
     1
102
RTVSPropertyOp62
 70
     1
  0
XRECORD
  5
E3D0
102
{ACAD_REACTORS
330
E3CF
102
}
330
E3CF
100
AcDbXrecord
280
     1
102
RTVSPost2010Prop28
280
     0
102
RTVSPost2010PropOp28
 70
     1
102
RTVSPost2010Prop29
280
     1
102
RTVSPost2010PropOp29
 70
     1
102
RTVSPost2010Prop30
280
     1
102
RTVSPost2010PropOp30
 70
     1
102
RTVSPost2010Prop31
280
     0
102
RTVSPost2010PropOp31
 70
     1
102
RTVSPost2010Prop32
280
     0
102
RTVSPost2010PropOp32
 70
     1
102
RTVSPost2010Prop33
280
     0
102
RTVSPost2010PropOp33
 70
     1
102
RTVSPost2010Prop34
280
     0
102
RTVSPost2010PropOp34
 70
     1
102
RTVSPost2010Prop35
280
     0
102
RTVSPost2010PropOp35
 70
     1
102
RTVSPost2010Prop36
280
     0
102
RTVSPost2010PropOp36
 70
     1
102
RTVSPost2010Prop37
 90
       50
102
RTVSPost2010PropOp37
 70
     1
102
RTVSPost2010Prop38
140
0.0
102
RTVSPost2010PropOp38
 70
     1
102
RTVSPost2010Prop39
140
1.0
102
RTVSPost2010PropOp39
 70
     1
102
RTVSPost2010Prop40
 90
        0
102
RTVSPost2010PropOp40
 70
     1
102
RTVSPost2010Prop41ColorIndex
 90
       18
102
RTVSPost2010Prop41ColorRGB
 90
        0
102
RTVSPost2010PropOp41
 70
     1
102
RTVSPost2010Prop42
 90
       50
102
RTVSPost2010PropOp42
 70
     1
102
RTVSPost2010Prop43
 90
        3
102
RTVSPost2010PropOp43
 70
     1
102
RTVSPost2010Prop44ColorIndex
 90
        5
102
RTVSPost2010Prop44ColorRGB
 90
      255
102
RTVSPost2010PropOp44
 70
     1
102
RTVSPost2010Prop45
280
     0
102
RTVSPost2010PropOp45
 70
     1
102
RTVSPost2010Prop46
 90
       50
102
RTVSPost2010PropOp46
 70
     1
102
RTVSPost2010Prop47
 90
       50
102
RTVSPost2010PropOp47
 70
     1
102
RTVSPost2010Prop48
 90
       50
102
RTVSPost2010PropOp48
 70
     1
102
RTVSPost2010Prop49
280
     0
102
RTVSPost2010PropOp49
 70
     1
102
RTVSPost2010Prop50
 90
       50
102
RTVSPost2010PropOp50
 70
     1
102
RTVSPost2010Prop51ColorIndex
 90
      256
102
RTVSPost2010Prop51ColorRGB
 90
-16777216
102
RTVSPost2010PropOp51
 70
     0
102
RTVSPost2010Prop52
140
1.0
102
RTVSPost2010PropOp52
 70
     0
102
RTVSPost2010Prop53
 90
        2
102
RTVSPost2010PropOp53
 70
     1
102
RTVSPost2010Prop54
  1
strokes_ogs.tif
102
RTVSPost2010PropOp54
 70
     1
102
RTVSPost2010Prop55
280
     0
102
RTVSPost2010PropOp55
 70
     1
102
RTVSPost2010Prop56
140
1.0
102
RTVSPost2010PropOp56
 70
     1
102
RTVSPost2010Prop57
140
1.0
102
RTVSPost2010PropOp57
 70
     1
102
RTVSPropertyOp0
 70
     0
102
RTVSPropertyOp1
 70
     0
102
RTVSPropertyOp2
 70
     0
102
RTVSPropertyOp3
 70
     0
102
RTVSPropertyOp4
 70
     0
102
RTVSPropertyOp5
 70
     0
102
RTVSPropertyOp6
 70
     0
102
RTVSPropertyOp7
 70
     0
102
RTVSPropertyOp8
 70
     0
102
RTVSPropertyOp9
 70
     0
102
RTVSPropertyOp10
 70
     0
102
RTVSPropertyOp11
 70
     0
102
RTVSPropertyOp12
 70
     0
102
RTVSPropertyOp13
 70
     0
102
RTVSPropertyOp14
 70
     2
102
RTVSPropertyOp15
 70
     0
102
RTVSPropertyOp16
 70
     0
102
RTVSPropertyOp17
 70
     0
102
RTVSPropertyOp18
 70
     0
102
RTVSPropertyOp19
 70
     0
102
RTVSPropertyOp20
 70
     0
102
RTVSPropertyOp21
 70
     0
102
RTVSPropertyOp22
 70
     0
102
RTVSPropertyOp23
 70
     0
102
RTVSPropertyOp24
 70
     0
102
RTVSPropertyOp25
 70
     0
102
RTVSPropertyOp26
 70
     0
102
RTVSPropertyOp27
 70
     0
102
RTVSPropertyOp28
 70
     1
102
RTVSPropertyOp29
 70
     1
102
RTVSPropertyOp30
 70
     1
102
RTVSPropertyOp31
 70
     1
102
RTVSPropertyOp32
 70
     1
102
RTVSPropertyOp33
 70
     1
102
RTVSPropertyOp34
 70
     1
102
RTVSPropertyOp35
 70
     1
102
RTVSPropertyOp36
 70
     1
102
RTVSPropertyOp37
 70
     1
102
RTVSPropertyOp38
 70
     1
102
RTVSPropertyOp39
 70
     1
102
RTVSPropertyOp40
 70
     1
102
RTVSPropertyOp41
 70
     1
102
RTVSPropertyOp42
 70
     1
102
RTVSPropertyOp43
 70
     1
102
RTVSPropertyOp44
 70
     1
102
RTVSPropertyOp45
 70
     1
102
RTVSPropertyOp46
 70
     1
102
RTVSPropertyOp47
 70
     1
102
RTVSPropertyOp48
 70
     1
102
RTVSPropertyOp49
 70
     1
102
RTVSPropertyOp50
 70
     1
102
RTVSPropertyOp51
 70
     0
102
RTVSPropertyOp52
 70
     0
102
RTVSPropertyOp53
 70
     1
102
RTVSPropertyOp54
 70
     1
102
RTVSPropertyOp55
 70
     1
102
RTVSPropertyOp56
 70
     1
102
RTVSPropertyOp57
 70
     1
102
RTVSPropertyOp58
 70
     1
102
RTVSPropertyOp59
 70
     1
102
RTVSPropertyOp60
 70
     1
102
RTVSPropertyOp61
 70
     1
102
RTVSPropertyOp62
 70
     1
  0
XRECORD
  5
E3C8
102
{ACAD_REACTORS
330
E3C7
102
}
330
E3C7
100
AcDbXrecord
280
     1
102
RTVSPost2010Prop28
280
     0
102
RTVSPost2010PropOp28
 70
     1
102
RTVSPost2010Prop29
280
     1
102
RTVSPost2010PropOp29
 70
     1
102
RTVSPost2010Prop30
280
     1
102
RTVSPost2010PropOp30
 70
     1
102
RTVSPost2010Prop31
280
     0
102
RTVSPost2010PropOp31
 70
     1
102
RTVSPost2010Prop32
280
     0
102
RTVSPost2010PropOp32
 70
     1
102
RTVSPost2010Prop33
280
     0
102
RTVSPost2010PropOp33
 70
     1
102
RTVSPost2010Prop34
280
     0
102
RTVSPost2010PropOp34
 70
     1
102
RTVSPost2010Prop35
280
     0
102
RTVSPost2010PropOp35
 70
     1
102
RTVSPost2010Prop36
280
     0
102
RTVSPost2010PropOp36
 70
     1
102
RTVSPost2010Prop37
 90
       50
102
RTVSPost2010PropOp37
 70
     1
102
RTVSPost2010Prop38
140
0.0
102
RTVSPost2010PropOp38
 70
     1
102
RTVSPost2010Prop39
140
1.0
102
RTVSPost2010PropOp39
 70
     1
102
RTVSPost2010Prop40
 90
        0
102
RTVSPost2010PropOp40
 70
     1
102
RTVSPost2010Prop41ColorIndex
 90
       18
102
RTVSPost2010Prop41ColorRGB
 90
        0
102
RTVSPost2010PropOp41
 70
     1
102
RTVSPost2010Prop42
 90
       50
102
RTVSPost2010PropOp42
 70
     1
102
RTVSPost2010Prop43
 90
        3
102
RTVSPost2010PropOp43
 70
     1
102
RTVSPost2010Prop44ColorIndex
 90
        5
102
RTVSPost2010Prop44ColorRGB
 90
      255
102
RTVSPost2010PropOp44
 70
     1
102
RTVSPost2010Prop45
280
     0
102
RTVSPost2010PropOp45
 70
     1
102
RTVSPost2010Prop46
 90
       50
102
RTVSPost2010PropOp46
 70
     1
102
RTVSPost2010Prop47
 90
       50
102
RTVSPost2010PropOp47
 70
     1
102
RTVSPost2010Prop48
 90
       50
102
RTVSPost2010PropOp48
 70
     1
102
RTVSPost2010Prop49
280
     0
102
RTVSPost2010PropOp49
 70
     1
102
RTVSPost2010Prop50
 90
       50
102
RTVSPost2010PropOp50
 70
     1
102
RTVSPost2010Prop51ColorIndex
 90
      256
102
RTVSPost2010Prop51ColorRGB
 90
-16777216
102
RTVSPost2010PropOp51
 70
     0
102
RTVSPost2010Prop52
140
1.0
102
RTVSPost2010PropOp52
 70
     0
102
RTVSPost2010Prop53
 90
        2
102
RTVSPost2010PropOp53
 70
     1
102
RTVSPost2010Prop54
  1
strokes_ogs.tif
102
RTVSPost2010PropOp54
 70
     1
102
RTVSPost2010Prop55
280
     0
102
RTVSPost2010PropOp55
 70
     1
102
RTVSPost2010Prop56
140
1.0
102
RTVSPost2010PropOp56
 70
     1
102
RTVSPost2010Prop57
140
1.0
102
RTVSPost2010PropOp57
 70
     1
102
RTVSPropertyOp0
 70
     1
102
RTVSPropertyOp1
 70
     1
102
RTVSPropertyOp2
 70
     1
102
RTVSPropertyOp3
 70
     1
102
RTVSPropertyOp4
 70
     1
102
RTVSPropertyOp5
 70
     1
102
RTVSPropertyOp6
 70
     1
102
RTVSPropertyOp7
 70
     1
102
RTVSPropertyOp8
 70
     1
102
RTVSPropertyOp9
 70
     1
102
RTVSPropertyOp10
 70
     1
102
RTVSPropertyOp11
 70
     1
102
RTVSPropertyOp12
 70
     1
102
RTVSPropertyOp13
 70
     1
102
RTVSPropertyOp14
 70
     1
102
RTVSPropertyOp15
 70
     1
102
RTVSPropertyOp16
 70
     1
102
RTVSPropertyOp17
 70
     1
102
RTVSPropertyOp18
 70
     1
102
RTVSPropertyOp19
 70
     1
102
RTVSPropertyOp20
 70
     1
102
RTVSPropertyOp21
 70
     1
102
RTVSPropertyOp22
 70
     1
102
RTVSPropertyOp23
 70
     1
102
RTVSPropertyOp24
 70
     1
102
RTVSPropertyOp25
 70
     1
102
RTVSPropertyOp26
 70
     1
102
RTVSPropertyOp27
 70
     1
102
RTVSPropertyOp28
 70
     1
102
RTVSPropertyOp29
 70
     1
102
RTVSPropertyOp30
 70
     1
102
RTVSPropertyOp31
 70
     1
102
RTVSPropertyOp32
 70
     1
102
RTVSPropertyOp33
 70
     1
102
RTVSPropertyOp34
 70
     1
102
RTVSPropertyOp35
 70
     1
102
RTVSPropertyOp36
 70
     1
102
RTVSPropertyOp37
 70
     1
102
RTVSPropertyOp38
 70
     1
102
RTVSPropertyOp39
 70
     1
102
RTVSPropertyOp40
 70
     1
102
RTVSPropertyOp41
 70
     1
102
RTVSPropertyOp42
 70
     1
102
RTVSPropertyOp43
 70
     1
102
RTVSPropertyOp44
 70
     1
102
RTVSPropertyOp45
 70
     1
102
RTVSPropertyOp46
 70
     1
102
RTVSPropertyOp47
 70
     1
102
RTVSPropertyOp48
 70
     1
102
RTVSPropertyOp49
 70
     1
102
RTVSPropertyOp50
 70
     1
102
RTVSPropertyOp51
 70
     0
102
RTVSPropertyOp52
 70
     0
102
RTVSPropertyOp53
 70
     1
102
RTVSPropertyOp54
 70
     1
102
RTVSPropertyOp55
 70
     1
102
RTVSPropertyOp56
 70
     1
102
RTVSPropertyOp57
 70
     1
102
RTVSPropertyOp58
 70
     1
102
RTVSPropertyOp59
 70
     1
102
RTVSPropertyOp60
 70
     1
102
RTVSPropertyOp61
 70
     1
102
RTVSPropertyOp62
 70
     1
  0
XRECORD
  5
E3D2
102
{ACAD_REACTORS
330
E3D1
102
}
330
E3D1
100
AcDbXrecord
280
     1
102
RTVSPost2010Prop28
280
     0
102
RTVSPost2010PropOp28
 70
     1
102
RTVSPost2010Prop29
280
     1
102
RTVSPost2010PropOp29
 70
     1
102
RTVSPost2010Prop30
280
     1
102
RTVSPost2010PropOp30
 70
     1
102
RTVSPost2010Prop31
280
     0
102
RTVSPost2010PropOp31
 70
     1
102
RTVSPost2010Prop32
280
     0
102
RTVSPost2010PropOp32
 70
     1
102
RTVSPost2010Prop33
280
     0
102
RTVSPost2010PropOp33
 70
     1
102
RTVSPost2010Prop34
280
     0
102
RTVSPost2010PropOp34
 70
     1
102
RTVSPost2010Prop35
280
     0
102
RTVSPost2010PropOp35
 70
     1
102
RTVSPost2010Prop36
280
     0
102
RTVSPost2010PropOp36
 70
     1
102
RTVSPost2010Prop37
 90
       50
102
RTVSPost2010PropOp37
 70
     1
102
RTVSPost2010Prop38
140
0.0
102
RTVSPost2010PropOp38
 70
     1
102
RTVSPost2010Prop39
140
1.0
102
RTVSPost2010PropOp39
 70
     1
102
RTVSPost2010Prop40
 90
        0
102
RTVSPost2010PropOp40
 70
     1
102
RTVSPost2010Prop41ColorIndex
 90
       18
102
RTVSPost2010Prop41ColorRGB
 90
        0
102
RTVSPost2010PropOp41
 70
     1
102
RTVSPost2010Prop42
 90
       50
102
RTVSPost2010PropOp42
 70
     1
102
RTVSPost2010Prop43
 90
        3
102
RTVSPost2010PropOp43
 70
     1
102
RTVSPost2010Prop44ColorIndex
 90
        5
102
RTVSPost2010Prop44ColorRGB
 90
      255
102
RTVSPost2010PropOp44
 70
     1
102
RTVSPost2010Prop45
280
     0
102
RTVSPost2010PropOp45
 70
     1
102
RTVSPost2010Prop46
 90
       50
102
RTVSPost2010PropOp46
 70
     1
102
RTVSPost2010Prop47
 90
       50
102
RTVSPost2010PropOp47
 70
     1
102
RTVSPost2010Prop48
 90
       50
102
RTVSPost2010PropOp48
 70
     1
102
RTVSPost2010Prop49
280
     0
102
RTVSPost2010PropOp49
 70
     1
102
RTVSPost2010Prop50
 90
       50
102
RTVSPost2010PropOp50
 70
     1
102
RTVSPost2010Prop51ColorIndex
 90
      256
102
RTVSPost2010Prop51ColorRGB
 90
-16777216
102
RTVSPost2010PropOp51
 70
     0
102
RTVSPost2010Prop52
140
1.0
102
RTVSPost2010PropOp52
 70
     0
102
RTVSPost2010Prop53
 90
        2
102
RTVSPost2010PropOp53
 70
     1
102
RTVSPost2010Prop54
  1
strokes_ogs.tif
102
RTVSPost2010PropOp54
 70
     1
102
RTVSPost2010Prop55
280
     0
102
RTVSPost2010PropOp55
 70
     1
102
RTVSPost2010Prop56
140
1.0
102
RTVSPost2010PropOp56
 70
     1
102
RTVSPost2010Prop57
140
1.0
102
RTVSPost2010PropOp57
 70
     1
102
RTVSPropertyOp0
 70
     0
102
RTVSPropertyOp1
 70
     0
102
RTVSPropertyOp2
 70
     0
102
RTVSPropertyOp3
 70
     0
102
RTVSPropertyOp4
 70
     0
102
RTVSPropertyOp5
 70
     0
102
RTVSPropertyOp6
 70
     0
102
RTVSPropertyOp7
 70
     0
102
RTVSPropertyOp8
 70
     0
102
RTVSPropertyOp9
 70
     0
102
RTVSPropertyOp10
 70
     0
102
RTVSPropertyOp11
 70
     0
102
RTVSPropertyOp12
 70
     0
102
RTVSPropertyOp13
 70
     0
102
RTVSPropertyOp14
 70
     2
102
RTVSPropertyOp15
 70
     0
102
RTVSPropertyOp16
 70
     0
102
RTVSPropertyOp17
 70
     0
102
RTVSPropertyOp18
 70
     0
102
RTVSPropertyOp19
 70
     0
102
RTVSPropertyOp20
 70
     0
102
RTVSPropertyOp21
 70
     0
102
RTVSPropertyOp22
 70
     0
102
RTVSPropertyOp23
 70
     0
102
RTVSPropertyOp24
 70
     0
102
RTVSPropertyOp25
 70
     0
102
RTVSPropertyOp26
 70
     0
102
RTVSPropertyOp27
 70
     0
102
RTVSPropertyOp28
 70
     1
102
RTVSPropertyOp29
 70
     1
102
RTVSPropertyOp30
 70
     1
102
RTVSPropertyOp31
 70
     1
102
RTVSPropertyOp32
 70
     1
102
RTVSPropertyOp33
 70
     1
102
RTVSPropertyOp34
 70
     1
102
RTVSPropertyOp35
 70
     1
102
RTVSPropertyOp36
 70
     1
102
RTVSPropertyOp37
 70
     1
102
RTVSPropertyOp38
 70
     1
102
RTVSPropertyOp39
 70
     1
102
RTVSPropertyOp40
 70
     1
102
RTVSPropertyOp41
 70
     1
102
RTVSPropertyOp42
 70
     1
102
RTVSPropertyOp43
 70
     1
102
RTVSPropertyOp44
 70
     1
102
RTVSPropertyOp45
 70
     1
102
RTVSPropertyOp46
 70
     1
102
RTVSPropertyOp47
 70
     1
102
RTVSPropertyOp48
 70
     1
102
RTVSPropertyOp49
 70
     1
102
RTVSPropertyOp50
 70
     1
102
RTVSPropertyOp51
 70
     0
102
RTVSPropertyOp52
 70
     0
102
RTVSPropertyOp53
 70
     1
102
RTVSPropertyOp54
 70
     1
102
RTVSPropertyOp55
 70
     1
102
RTVSPropertyOp56
 70
     1
102
RTVSPropertyOp57
 70
     1
102
RTVSPropertyOp58
 70
     1
102
RTVSPropertyOp59
 70
     1
102
RTVSPropertyOp60
 70
     1
102
RTVSPropertyOp61
 70
     1
102
RTVSPropertyOp62
 70
     1
  0
XRECORD
  5
E3C0
102
{ACAD_REACTORS
330
E3BF
102
}
330
E3BF
100
AcDbXrecord
280
     1
102
RTVSPost2010Prop28
280
     0
102
RTVSPost2010PropOp28
 70
     1
102
RTVSPost2010Prop29
280
     1
102
RTVSPost2010PropOp29
 70
     1
102
RTVSPost2010Prop30
280
     1
102
RTVSPost2010PropOp30
 70
     1
102
RTVSPost2010Prop31
280
     0
102
RTVSPost2010PropOp31
 70
     1
102
RTVSPost2010Prop32
280
     0
102
RTVSPost2010PropOp32
 70
     1
102
RTVSPost2010Prop33
280
     0
102
RTVSPost2010PropOp33
 70
     1
102
RTVSPost2010Prop34
280
     0
102
RTVSPost2010PropOp34
 70
     1
102
RTVSPost2010Prop35
280
     0
102
RTVSPost2010PropOp35
 70
     1
102
RTVSPost2010Prop36
280
     0
102
RTVSPost2010PropOp36
 70
     1
102
RTVSPost2010Prop37
 90
       50
102
RTVSPost2010PropOp37
 70
     1
102
RTVSPost2010Prop38
140
0.0
102
RTVSPost2010PropOp38
 70
     1
102
RTVSPost2010Prop39
140
1.0
102
RTVSPost2010PropOp39
 70
     1
102
RTVSPost2010Prop40
 90
        0
102
RTVSPost2010PropOp40
 70
     1
102
RTVSPost2010Prop41ColorIndex
 90
       18
102
RTVSPost2010Prop41ColorRGB
 90
        0
102
RTVSPost2010PropOp41
 70
     1
102
RTVSPost2010Prop42
 90
       50
102
RTVSPost2010PropOp42
 70
     1
102
RTVSPost2010Prop43
 90
        3
102
RTVSPost2010PropOp43
 70
     1
102
RTVSPost2010Prop44ColorIndex
 90
        5
102
RTVSPost2010Prop44ColorRGB
 90
      255
102
RTVSPost2010PropOp44
 70
     1
102
RTVSPost2010Prop45
280
     0
102
RTVSPost2010PropOp45
 70
     1
102
RTVSPost2010Prop46
 90
       50
102
RTVSPost2010PropOp46
 70
     1
102
RTVSPost2010Prop47
 90
       50
102
RTVSPost2010PropOp47
 70
     1
102
RTVSPost2010Prop48
 90
       50
102
RTVSPost2010PropOp48
 70
     1
102
RTVSPost2010Prop49
280
     0
102
RTVSPost2010PropOp49
 70
     1
102
RTVSPost2010Prop50
 90
       50
102
RTVSPost2010PropOp50
 70
     1
102
RTVSPost2010Prop51ColorIndex
 90
      256
102
RTVSPost2010Prop51ColorRGB
 90
-16777216
102
RTVSPost2010PropOp51
 70
     0
102
RTVSPost2010Prop52
140
1.0
102
RTVSPost2010PropOp52
 70
     0
102
RTVSPost2010Prop53
 90
        2
102
RTVSPost2010PropOp53
 70
     1
102
RTVSPost2010Prop54
  1
strokes_ogs.tif
102
RTVSPost2010PropOp54
 70
     1
102
RTVSPost2010Prop55
280
     0
102
RTVSPost2010PropOp55
 70
     1
102
RTVSPost2010Prop56
140
1.0
102
RTVSPost2010PropOp56
 70
     1
102
RTVSPost2010Prop57
140
1.0
102
RTVSPost2010PropOp57
 70
     1
102
RTVSPropertyOp0
 70
     1
102
RTVSPropertyOp1
 70
     1
102
RTVSPropertyOp2
 70
     1
102
RTVSPropertyOp3
 70
     1
102
RTVSPropertyOp4
 70
     1
102
RTVSPropertyOp5
 70
     1
102
RTVSPropertyOp6
 70
     1
102
RTVSPropertyOp7
 70
     1
102
RTVSPropertyOp8
 70
     1
102
RTVSPropertyOp9
 70
     1
102
RTVSPropertyOp10
 70
     1
102
RTVSPropertyOp11
 70
     1
102
RTVSPropertyOp12
 70
     1
102
RTVSPropertyOp13
 70
     1
102
RTVSPropertyOp14
 70
     1
102
RTVSPropertyOp15
 70
     1
102
RTVSPropertyOp16
 70
     1
102
RTVSPropertyOp17
 70
     1
102
RTVSPropertyOp18
 70
     1
102
RTVSPropertyOp19
 70
     1
102
RTVSPropertyOp20
 70
     1
102
RTVSPropertyOp21
 70
     1
102
RTVSPropertyOp22
 70
     1
102
RTVSPropertyOp23
 70
     1
102
RTVSPropertyOp24
 70
     1
102
RTVSPropertyOp25
 70
     1
102
RTVSPropertyOp26
 70
     1
102
RTVSPropertyOp27
 70
     1
102
RTVSPropertyOp28
 70
     1
102
RTVSPropertyOp29
 70
     1
102
RTVSPropertyOp30
 70
     1
102
RTVSPropertyOp31
 70
     1
102
RTVSPropertyOp32
 70
     1
102
RTVSPropertyOp33
 70
     1
102
RTVSPropertyOp34
 70
     1
102
RTVSPropertyOp35
 70
     1
102
RTVSPropertyOp36
 70
     1
102
RTVSPropertyOp37
 70
     1
102
RTVSPropertyOp38
 70
     1
102
RTVSPropertyOp39
 70
     1
102
RTVSPropertyOp40
 70
     1
102
RTVSPropertyOp41
 70
     1
102
RTVSPropertyOp42
 70
     1
102
RTVSPropertyOp43
 70
     1
102
RTVSPropertyOp44
 70
     1
102
RTVSPropertyOp45
 70
     1
102
RTVSPropertyOp46
 70
     1
102
RTVSPropertyOp47
 70
     1
102
RTVSPropertyOp48
 70
     1
102
RTVSPropertyOp49
 70
     1
102
RTVSPropertyOp50
 70
     1
102
RTVSPropertyOp51
 70
     0
102
RTVSPropertyOp52
 70
     0
102
RTVSPropertyOp53
 70
     1
102
RTVSPropertyOp54
 70
     1
102
RTVSPropertyOp55
 70
     1
102
RTVSPropertyOp56
 70
     1
102
RTVSPropertyOp57
 70
     1
102
RTVSPropertyOp58
 70
     1
102
RTVSPropertyOp59
 70
     1
102
RTVSPropertyOp60
 70
     1
102
RTVSPropertyOp61
 70
     1
102
RTVSPropertyOp62
 70
     1
  0
XRECORD
  5
E3DE
102
{ACAD_REACTORS
330
E3DD
102
}
330
E3DD
100
AcDbXrecord
280
     1
102
RTVSPost2010Prop28
280
     0
102
RTVSPost2010PropOp28
 70
     1
102
RTVSPost2010Prop29
280
     1
102
RTVSPost2010PropOp29
 70
     1
102
RTVSPost2010Prop30
280
     1
102
RTVSPost2010PropOp30
 70
     1
102
RTVSPost2010Prop31
280
     0
102
RTVSPost2010PropOp31
 70
     1
102
RTVSPost2010Prop32
280
     0
102
RTVSPost2010PropOp32
 70
     1
102
RTVSPost2010Prop33
280
     0
102
RTVSPost2010PropOp33
 70
     1
102
RTVSPost2010Prop34
280
     0
102
RTVSPost2010PropOp34
 70
     1
102
RTVSPost2010Prop35
280
     0
102
RTVSPost2010PropOp35
 70
     1
102
RTVSPost2010Prop36
280
     0
102
RTVSPost2010PropOp36
 70
     1
102
RTVSPost2010Prop37
 90
       50
102
RTVSPost2010PropOp37
 70
     1
102
RTVSPost2010Prop38
140
0.0
102
RTVSPost2010PropOp38
 70
     1
102
RTVSPost2010Prop39
140
1.0
102
RTVSPost2010PropOp39
 70
     1
102
RTVSPost2010Prop40
 90
        0
102
RTVSPost2010PropOp40
 70
     1
102
RTVSPost2010Prop41ColorIndex
 90
       18
102
RTVSPost2010Prop41ColorRGB
 90
        0
102
RTVSPost2010PropOp41
 70
     1
102
RTVSPost2010Prop42
 90
       50
102
RTVSPost2010PropOp42
 70
     1
102
RTVSPost2010Prop43
 90
        3
102
RTVSPost2010PropOp43
 70
     1
102
RTVSPost2010Prop44ColorIndex
 90
        5
102
RTVSPost2010Prop44ColorRGB
 90
      255
102
RTVSPost2010PropOp44
 70
     1
102
RTVSPost2010Prop45
280
     0
102
RTVSPost2010PropOp45
 70
     1
102
RTVSPost2010Prop46
 90
       50
102
RTVSPost2010PropOp46
 70
     1
102
RTVSPost2010Prop47
 90
       50
102
RTVSPost2010PropOp47
 70
     1
102
RTVSPost2010Prop48
 90
       50
102
RTVSPost2010PropOp48
 70
     1
102
RTVSPost2010Prop49
280
     0
102
RTVSPost2010PropOp49
 70
     1
102
RTVSPost2010Prop50
 90
       50
102
RTVSPost2010PropOp50
 70
     1
102
RTVSPost2010Prop51ColorIndex
 90
      256
102
RTVSPost2010Prop51ColorRGB
 90
-16777216
102
RTVSPost2010PropOp51
 70
     0
102
RTVSPost2010Prop52
140
1.0
102
RTVSPost2010PropOp52
 70
     0
102
RTVSPost2010Prop53
 90
        2
102
RTVSPost2010PropOp53
 70
     1
102
RTVSPost2010Prop54
  1
strokes_ogs.tif
102
RTVSPost2010PropOp54
 70
     1
102
RTVSPost2010Prop55
280
     0
102
RTVSPost2010PropOp55
 70
     1
102
RTVSPost2010Prop56
140
1.0
102
RTVSPost2010PropOp56
 70
     1
102
RTVSPost2010Prop57
140
1.0
102
RTVSPost2010PropOp57
 70
     1
102
RTVSPropertyOp0
 70
     1
102
RTVSPropertyOp1
 70
     1
102
RTVSPropertyOp2
 70
     1
102
RTVSPropertyOp3
 70
     1
102
RTVSPropertyOp4
 70
     1
102
RTVSPropertyOp5
 70
     1
102
RTVSPropertyOp6
 70
     1
102
RTVSPropertyOp7
 70
     1
102
RTVSPropertyOp8
 70
     1
102
RTVSPropertyOp9
 70
     1
102
RTVSPropertyOp10
 70
     1
102
RTVSPropertyOp11
 70
     1
102
RTVSPropertyOp12
 70
     1
102
RTVSPropertyOp13
 70
     1
102
RTVSPropertyOp14
 70
     1
102
RTVSPropertyOp15
 70
     1
102
RTVSPropertyOp16
 70
     1
102
RTVSPropertyOp17
 70
     1
102
RTVSPropertyOp18
 70
     1
102
RTVSPropertyOp19
 70
     1
102
RTVSPropertyOp20
 70
     1
102
RTVSPropertyOp21
 70
     1
102
RTVSPropertyOp22
 70
     1
102
RTVSPropertyOp23
 70
     1
102
RTVSPropertyOp24
 70
     1
102
RTVSPropertyOp25
 70
     1
102
RTVSPropertyOp26
 70
     1
102
RTVSPropertyOp27
 70
     1
102
RTVSPropertyOp28
 70
     1
102
RTVSPropertyOp29
 70
     1
102
RTVSPropertyOp30
 70
     1
102
RTVSPropertyOp31
 70
     1
102
RTVSPropertyOp32
 70
     1
102
RTVSPropertyOp33
 70
     1
102
RTVSPropertyOp34
 70
     1
102
RTVSPropertyOp35
 70
     1
102
RTVSPropertyOp36
 70
     1
102
RTVSPropertyOp37
 70
     1
102
RTVSPropertyOp38
 70
     1
102
RTVSPropertyOp39
 70
     1
102
RTVSPropertyOp40
 70
     1
102
RTVSPropertyOp41
 70
     1
102
RTVSPropertyOp42
 70
     1
102
RTVSPropertyOp43
 70
     1
102
RTVSPropertyOp44
 70
     1
102
RTVSPropertyOp45
 70
     1
102
RTVSPropertyOp46
 70
     1
102
RTVSPropertyOp47
 70
     1
102
RTVSPropertyOp48
 70
     1
102
RTVSPropertyOp49
 70
     1
102
RTVSPropertyOp50
 70
     1
102
RTVSPropertyOp51
 70
     0
102
RTVSPropertyOp52
 70
     0
102
RTVSPropertyOp53
 70
     1
102
RTVSPropertyOp54
 70
     1
102
RTVSPropertyOp55
 70
     1
102
RTVSPropertyOp56
 70
     1
102
RTVSPropertyOp57
 70
     1
102
RTVSPropertyOp58
 70
     1
102
RTVSPropertyOp59
 70
     1
102
RTVSPropertyOp60
 70
     1
102
RTVSPropertyOp61
 70
     1
102
RTVSPropertyOp62
 70
     1
  0
XRECORD
  5
E3DC
102
{ACAD_REACTORS
330
E3DB
102
}
330
E3DB
100
AcDbXrecord
280
     1
102
RTVSPost2010Prop28
280
     0
102
RTVSPost2010PropOp28
 70
     1
102
RTVSPost2010Prop29
280
     1
102
RTVSPost2010PropOp29
 70
     1
102
RTVSPost2010Prop30
280
     1
102
RTVSPost2010PropOp30
 70
     1
102
RTVSPost2010Prop31
280
     0
102
RTVSPost2010PropOp31
 70
     1
102
RTVSPost2010Prop32
280
     0
102
RTVSPost2010PropOp32
 70
     1
102
RTVSPost2010Prop33
280
     0
102
RTVSPost2010PropOp33
 70
     1
102
RTVSPost2010Prop34
280
     0
102
RTVSPost2010PropOp34
 70
     1
102
RTVSPost2010Prop35
280
     0
102
RTVSPost2010PropOp35
 70
     1
102
RTVSPost2010Prop36
280
     0
102
RTVSPost2010PropOp36
 70
     1
102
RTVSPost2010Prop37
 90
       50
102
RTVSPost2010PropOp37
 70
     1
102
RTVSPost2010Prop38
140
0.0
102
RTVSPost2010PropOp38
 70
     1
102
RTVSPost2010Prop39
140
1.0
102
RTVSPost2010PropOp39
 70
     1
102
RTVSPost2010Prop40
 90
        0
102
RTVSPost2010PropOp40
 70
     1
102
RTVSPost2010Prop41ColorIndex
 90
       18
102
RTVSPost2010Prop41ColorRGB
 90
        0
102
RTVSPost2010PropOp41
 70
     1
102
RTVSPost2010Prop42
 90
       50
102
RTVSPost2010PropOp42
 70
     1
102
RTVSPost2010Prop43
 90
        3
102
RTVSPost2010PropOp43
 70
     1
102
RTVSPost2010Prop44ColorIndex
 90
        5
102
RTVSPost2010Prop44ColorRGB
 90
      255
102
RTVSPost2010PropOp44
 70
     1
102
RTVSPost2010Prop45
280
     0
102
RTVSPost2010PropOp45
 70
     1
102
RTVSPost2010Prop46
 90
       50
102
RTVSPost2010PropOp46
 70
     1
102
RTVSPost2010Prop47
 90
       50
102
RTVSPost2010PropOp47
 70
     1
102
RTVSPost2010Prop48
 90
       50
102
RTVSPost2010PropOp48
 70
     1
102
RTVSPost2010Prop49
280
     0
102
RTVSPost2010PropOp49
 70
     1
102
RTVSPost2010Prop50
 90
       50
102
RTVSPost2010PropOp50
 70
     1
102
RTVSPost2010Prop51ColorIndex
 90
      256
102
RTVSPost2010Prop51ColorRGB
 90
-16777216
102
RTVSPost2010PropOp51
 70
     0
102
RTVSPost2010Prop52
140
1.0
102
RTVSPost2010PropOp52
 70
     0
102
RTVSPost2010Prop53
 90
        2
102
RTVSPost2010PropOp53
 70
     1
102
RTVSPost2010Prop54
  1
strokes_ogs.tif
102
RTVSPost2010PropOp54
 70
     1
102
RTVSPost2010Prop55
280
     0
102
RTVSPost2010PropOp55
 70
     1
102
RTVSPost2010Prop56
140
1.0
102
RTVSPost2010PropOp56
 70
     1
102
RTVSPost2010Prop57
140
1.0
102
RTVSPost2010PropOp57
 70
     1
102
RTVSPropertyOp0
 70
     1
102
RTVSPropertyOp1
 70
     1
102
RTVSPropertyOp2
 70
     1
102
RTVSPropertyOp3
 70
     1
102
RTVSPropertyOp4
 70
     1
102
RTVSPropertyOp5
 70
     1
102
RTVSPropertyOp6
 70
     1
102
RTVSPropertyOp7
 70
     1
102
RTVSPropertyOp8
 70
     1
102
RTVSPropertyOp9
 70
     1
102
RTVSPropertyOp10
 70
     1
102
RTVSPropertyOp11
 70
     1
102
RTVSPropertyOp12
 70
     1
102
RTVSPropertyOp13
 70
     1
102
RTVSPropertyOp14
 70
     1
102
RTVSPropertyOp15
 70
     1
102
RTVSPropertyOp16
 70
     1
102
RTVSPropertyOp17
 70
     1
102
RTVSPropertyOp18
 70
     1
102
RTVSPropertyOp19
 70
     1
102
RTVSPropertyOp20
 70
     1
102
RTVSPropertyOp21
 70
     1
102
RTVSPropertyOp22
 70
     1
102
RTVSPropertyOp23
 70
     1
102
RTVSPropertyOp24
 70
     1
102
RTVSPropertyOp25
 70
     1
102
RTVSPropertyOp26
 70
     1
102
RTVSPropertyOp27
 70
     1
102
RTVSPropertyOp28
 70
     1
102
RTVSPropertyOp29
 70
     1
102
RTVSPropertyOp30
 70
     1
102
RTVSPropertyOp31
 70
     1
102
RTVSPropertyOp32
 70
     1
102
RTVSPropertyOp33
 70
     1
102
RTVSPropertyOp34
 70
     1
102
RTVSPropertyOp35
 70
     1
102
RTVSPropertyOp36
 70
     1
102
RTVSPropertyOp37
 70
     1
102
RTVSPropertyOp38
 70
     1
102
RTVSPropertyOp39
 70
     1
102
RTVSPropertyOp40
 70
     1
102
RTVSPropertyOp41
 70
     1
102
RTVSPropertyOp42
 70
     1
102
RTVSPropertyOp43
 70
     1
102
RTVSPropertyOp44
 70
     1
102
RTVSPropertyOp45
 70
     1
102
RTVSPropertyOp46
 70
     1
102
RTVSPropertyOp47
 70
     1
102
RTVSPropertyOp48
 70
     1
102
RTVSPropertyOp49
 70
     1
102
RTVSPropertyOp50
 70
     1
102
RTVSPropertyOp51
 70
     0
102
RTVSPropertyOp52
 70
     0
102
RTVSPropertyOp53
 70
     1
102
RTVSPropertyOp54
 70
     1
102
RTVSPropertyOp55
 70
     1
102
RTVSPropertyOp56
 70
     1
102
RTVSPropertyOp57
 70
     1
102
RTVSPropertyOp58
 70
     1
102
RTVSPropertyOp59
 70
     1
102
RTVSPropertyOp60
 70
     1
102
RTVSPropertyOp61
 70
     1
102
RTVSPropertyOp62
 70
     1
  0
XRECORD
  5
E3D6
102
{ACAD_REACTORS
330
E3D5
102
}
330
E3D5
100
AcDbXrecord
280
     1
102
RTVSPost2010Prop28
280
     0
102
RTVSPost2010PropOp28
 70
     1
102
RTVSPost2010Prop29
280
     1
102
RTVSPost2010PropOp29
 70
     1
102
RTVSPost2010Prop30
280
     1
102
RTVSPost2010PropOp30
 70
     1
102
RTVSPost2010Prop31
280
     0
102
RTVSPost2010PropOp31
 70
     1
102
RTVSPost2010Prop32
280
     0
102
RTVSPost2010PropOp32
 70
     1
102
RTVSPost2010Prop33
280
     0
102
RTVSPost2010PropOp33
 70
     1
102
RTVSPost2010Prop34
280
     0
102
RTVSPost2010PropOp34
 70
     1
102
RTVSPost2010Prop35
280
     0
102
RTVSPost2010PropOp35
 70
     1
102
RTVSPost2010Prop36
280
     0
102
RTVSPost2010PropOp36
 70
     1
102
RTVSPost2010Prop37
 90
       50
102
RTVSPost2010PropOp37
 70
     1
102
RTVSPost2010Prop38
140
0.0
102
RTVSPost2010PropOp38
 70
     1
102
RTVSPost2010Prop39
140
1.0
102
RTVSPost2010PropOp39
 70
     1
102
RTVSPost2010Prop40
 90
        0
102
RTVSPost2010PropOp40
 70
     1
102
RTVSPost2010Prop41ColorIndex
 90
       18
102
RTVSPost2010Prop41ColorRGB
 90
        0
102
RTVSPost2010PropOp41
 70
     1
102
RTVSPost2010Prop42
 90
       50
102
RTVSPost2010PropOp42
 70
     1
102
RTVSPost2010Prop43
 90
        3
102
RTVSPost2010PropOp43
 70
     1
102
RTVSPost2010Prop44ColorIndex
 90
        5
102
RTVSPost2010Prop44ColorRGB
 90
      255
102
RTVSPost2010PropOp44
 70
     1
102
RTVSPost2010Prop45
280
     0
102
RTVSPost2010PropOp45
 70
     1
102
RTVSPost2010Prop46
 90
       50
102
RTVSPost2010PropOp46
 70
     1
102
RTVSPost2010Prop47
 90
       50
102
RTVSPost2010PropOp47
 70
     1
102
RTVSPost2010Prop48
 90
       50
102
RTVSPost2010PropOp48
 70
     1
102
RTVSPost2010Prop49
280
     0
102
RTVSPost2010PropOp49
 70
     1
102
RTVSPost2010Prop50
 90
       50
102
RTVSPost2010PropOp50
 70
     1
102
RTVSPost2010Prop51ColorIndex
 90
      256
102
RTVSPost2010Prop51ColorRGB
 90
-16777216
102
RTVSPost2010PropOp51
 70
     0
102
RTVSPost2010Prop52
140
1.0
102
RTVSPost2010PropOp52
 70
     0
102
RTVSPost2010Prop53
 90
        2
102
RTVSPost2010PropOp53
 70
     1
102
RTVSPost2010Prop54
  1
strokes_ogs.tif
102
RTVSPost2010PropOp54
 70
     1
102
RTVSPost2010Prop55
280
     0
102
RTVSPost2010PropOp55
 70
     1
102
RTVSPost2010Prop56
140
1.0
102
RTVSPost2010PropOp56
 70
     1
102
RTVSPost2010Prop57
140
1.0
102
RTVSPost2010PropOp57
 70
     1
102
RTVSPropertyOp0
 70
     1
102
RTVSPropertyOp1
 70
     1
102
RTVSPropertyOp2
 70
     1
102
RTVSPropertyOp3
 70
     1
102
RTVSPropertyOp4
 70
     1
102
RTVSPropertyOp5
 70
     1
102
RTVSPropertyOp6
 70
     1
102
RTVSPropertyOp7
 70
     1
102
RTVSPropertyOp8
 70
     1
102
RTVSPropertyOp9
 70
     1
102
RTVSPropertyOp10
 70
     1
102
RTVSPropertyOp11
 70
     1
102
RTVSPropertyOp12
 70
     1
102
RTVSPropertyOp13
 70
     1
102
RTVSPropertyOp14
 70
     1
102
RTVSPropertyOp15
 70
     1
102
RTVSPropertyOp16
 70
     1
102
RTVSPropertyOp17
 70
     1
102
RTVSPropertyOp18
 70
     1
102
RTVSPropertyOp19
 70
     1
102
RTVSPropertyOp20
 70
     1
102
RTVSPropertyOp21
 70
     1
102
RTVSPropertyOp22
 70
     1
102
RTVSPropertyOp23
 70
     1
102
RTVSPropertyOp24
 70
     1
102
RTVSPropertyOp25
 70
     1
102
RTVSPropertyOp26
 70
     1
102
RTVSPropertyOp27
 70
     1
102
RTVSPropertyOp28
 70
     1
102
RTVSPropertyOp29
 70
     1
102
RTVSPropertyOp30
 70
     1
102
RTVSPropertyOp31
 70
     1
102
RTVSPropertyOp32
 70
     1
102
RTVSPropertyOp33
 70
     1
102
RTVSPropertyOp34
 70
     1
102
RTVSPropertyOp35
 70
     1
102
RTVSPropertyOp36
 70
     1
102
RTVSPropertyOp37
 70
     1
102
RTVSPropertyOp38
 70
     1
102
RTVSPropertyOp39
 70
     1
102
RTVSPropertyOp40
 70
     1
102
RTVSPropertyOp41
 70
     1
102
RTVSPropertyOp42
 70
     1
102
RTVSPropertyOp43
 70
     1
102
RTVSPropertyOp44
 70
     1
102
RTVSPropertyOp45
 70
     1
102
RTVSPropertyOp46
 70
     1
102
RTVSPropertyOp47
 70
     1
102
RTVSPropertyOp48
 70
     1
102
RTVSPropertyOp49
 70
     1
102
RTVSPropertyOp50
 70
     1
102
RTVSPropertyOp51
 70
     0
102
RTVSPropertyOp52
 70
     0
102
RTVSPropertyOp53
 70
     1
102
RTVSPropertyOp54
 70
     1
102
RTVSPropertyOp55
 70
     1
102
RTVSPropertyOp56
 70
     1
102
RTVSPropertyOp57
 70
     1
102
RTVSPropertyOp58
 70
     1
102
RTVSPropertyOp59
 70
     1
102
RTVSPropertyOp60
 70
     1
102
RTVSPropertyOp61
 70
     1
102
RTVSPropertyOp62
 70
     1
  0
XRECORD
  5
E3D8
102
{ACAD_REACTORS
330
E3D7
102
}
330
E3D7
100
AcDbXrecord
280
     1
102
RTVSPost2010Prop28
280
     0
102
RTVSPost2010PropOp28
 70
     1
102
RTVSPost2010Prop29
280
     1
102
RTVSPost2010PropOp29
 70
     1
102
RTVSPost2010Prop30
280
     1
102
RTVSPost2010PropOp30
 70
     1
102
RTVSPost2010Prop31
280
     0
102
RTVSPost2010PropOp31
 70
     1
102
RTVSPost2010Prop32
280
     0
102
RTVSPost2010PropOp32
 70
     1
102
RTVSPost2010Prop33
280
     0
102
RTVSPost2010PropOp33
 70
     1
102
RTVSPost2010Prop34
280
     0
102
RTVSPost2010PropOp34
 70
     1
102
RTVSPost2010Prop35
280
     0
102
RTVSPost2010PropOp35
 70
     1
102
RTVSPost2010Prop36
280
     0
102
RTVSPost2010PropOp36
 70
     1
102
RTVSPost2010Prop37
 90
       50
102
RTVSPost2010PropOp37
 70
     1
102
RTVSPost2010Prop38
140
0.0
102
RTVSPost2010PropOp38
 70
     1
102
RTVSPost2010Prop39
140
1.0
102
RTVSPost2010PropOp39
 70
     1
102
RTVSPost2010Prop40
 90
        0
102
RTVSPost2010PropOp40
 70
     1
102
RTVSPost2010Prop41ColorIndex
 90
       18
102
RTVSPost2010Prop41ColorRGB
 90
        0
102
RTVSPost2010PropOp41
 70
     1
102
RTVSPost2010Prop42
 90
       50
102
RTVSPost2010PropOp42
 70
     1
102
RTVSPost2010Prop43
 90
        3
102
RTVSPost2010PropOp43
 70
     1
102
RTVSPost2010Prop44ColorIndex
 90
        5
102
RTVSPost2010Prop44ColorRGB
 90
      255
102
RTVSPost2010PropOp44
 70
     1
102
RTVSPost2010Prop45
280
     0
102
RTVSPost2010PropOp45
 70
     1
102
RTVSPost2010Prop46
 90
       50
102
RTVSPost2010PropOp46
 70
     1
102
RTVSPost2010Prop47
 90
       50
102
RTVSPost2010PropOp47
 70
     1
102
RTVSPost2010Prop48
 90
       50
102
RTVSPost2010PropOp48
 70
     1
102
RTVSPost2010Prop49
280
     0
102
RTVSPost2010PropOp49
 70
     1
102
RTVSPost2010Prop50
 90
       50
102
RTVSPost2010PropOp50
 70
     1
102
RTVSPost2010Prop51ColorIndex
 90
      256
102
RTVSPost2010Prop51ColorRGB
 90
-16777216
102
RTVSPost2010PropOp51
 70
     0
102
RTVSPost2010Prop52
140
1.0
102
RTVSPost2010PropOp52
 70
     0
102
RTVSPost2010Prop53
 90
        2
102
RTVSPost2010PropOp53
 70
     1
102
RTVSPost2010Prop54
  1
strokes_ogs.tif
102
RTVSPost2010PropOp54
 70
     1
102
RTVSPost2010Prop55
280
     0
102
RTVSPost2010PropOp55
 70
     1
102
RTVSPost2010Prop56
140
1.0
102
RTVSPost2010PropOp56
 70
     1
102
RTVSPost2010Prop57
140
1.0
102
RTVSPost2010PropOp57
 70
     1
102
RTVSPropertyOp0
 70
     1
102
RTVSPropertyOp1
 70
     1
102
RTVSPropertyOp2
 70
     1
102
RTVSPropertyOp3
 70
     1
102
RTVSPropertyOp4
 70
     1
102
RTVSPropertyOp5
 70
     1
102
RTVSPropertyOp6
 70
     1
102
RTVSPropertyOp7
 70
     1
102
RTVSPropertyOp8
 70
     1
102
RTVSPropertyOp9
 70
     1
102
RTVSPropertyOp10
 70
     1
102
RTVSPropertyOp11
 70
     1
102
RTVSPropertyOp12
 70
     1
102
RTVSPropertyOp13
 70
     1
102
RTVSPropertyOp14
 70
     1
102
RTVSPropertyOp15
 70
     1
102
RTVSPropertyOp16
 70
     1
102
RTVSPropertyOp17
 70
     1
102
RTVSPropertyOp18
 70
     1
102
RTVSPropertyOp19
 70
     1
102
RTVSPropertyOp20
 70
     1
102
RTVSPropertyOp21
 70
     1
102
RTVSPropertyOp22
 70
     1
102
RTVSPropertyOp23
 70
     1
102
RTVSPropertyOp24
 70
     1
102
RTVSPropertyOp25
 70
     1
102
RTVSPropertyOp26
 70
     1
102
RTVSPropertyOp27
 70
     1
102
RTVSPropertyOp28
 70
     1
102
RTVSPropertyOp29
 70
     1
102
RTVSPropertyOp30
 70
     1
102
RTVSPropertyOp31
 70
     1
102
RTVSPropertyOp32
 70
     1
102
RTVSPropertyOp33
 70
     1
102
RTVSPropertyOp34
 70
     1
102
RTVSPropertyOp35
 70
     1
102
RTVSPropertyOp36
 70
     1
102
RTVSPropertyOp37
 70
     1
102
RTVSPropertyOp38
 70
     1
102
RTVSPropertyOp39
 70
     1
102
RTVSPropertyOp40
 70
     1
102
RTVSPropertyOp41
 70
     1
102
RTVSPropertyOp42
 70
     1
102
RTVSPropertyOp43
 70
     1
102
RTVSPropertyOp44
 70
     1
102
RTVSPropertyOp45
 70
     1
102
RTVSPropertyOp46
 70
     1
102
RTVSPropertyOp47
 70
     1
102
RTVSPropertyOp48
 70
     1
102
RTVSPropertyOp49
 70
     1
102
RTVSPropertyOp50
 70
     1
102
RTVSPropertyOp51
 70
     0
102
RTVSPropertyOp52
 70
     0
102
RTVSPropertyOp53
 70
     1
102
RTVSPropertyOp54
 70
     1
102
RTVSPropertyOp55
 70
     1
102
RTVSPropertyOp56
 70
     1
102
RTVSPropertyOp57
 70
     1
102
RTVSPropertyOp58
 70
     1
102
RTVSPropertyOp59
 70
     1
102
RTVSPropertyOp60
 70
     1
102
RTVSPropertyOp61
 70
     1
102
RTVSPropertyOp62
 70
     1
  0
XRECORD
  5
E3C6
102
{ACAD_REACTORS
330
E3C5
102
}
330
E3C5
100
AcDbXrecord
280
     1
102
RTVSPost2010Prop28
280
     0
102
RTVSPost2010PropOp28
 70
     1
102
RTVSPost2010Prop29
280
     1
102
RTVSPost2010PropOp29
 70
     1
102
RTVSPost2010Prop30
280
     1
102
RTVSPost2010PropOp30
 70
     1
102
RTVSPost2010Prop31
280
     0
102
RTVSPost2010PropOp31
 70
     1
102
RTVSPost2010Prop32
280
     0
102
RTVSPost2010PropOp32
 70
     1
102
RTVSPost2010Prop33
280
     0
102
RTVSPost2010PropOp33
 70
     1
102
RTVSPost2010Prop34
280
     0
102
RTVSPost2010PropOp34
 70
     1
102
RTVSPost2010Prop35
280
     0
102
RTVSPost2010PropOp35
 70
     1
102
RTVSPost2010Prop36
280
     0
102
RTVSPost2010PropOp36
 70
     1
102
RTVSPost2010Prop37
 90
       50
102
RTVSPost2010PropOp37
 70
     1
102
RTVSPost2010Prop38
140
0.0
102
RTVSPost2010PropOp38
 70
     1
102
RTVSPost2010Prop39
140
1.0
102
RTVSPost2010PropOp39
 70
     1
102
RTVSPost2010Prop40
 90
        0
102
RTVSPost2010PropOp40
 70
     1
102
RTVSPost2010Prop41ColorIndex
 90
       18
102
RTVSPost2010Prop41ColorRGB
 90
        0
102
RTVSPost2010PropOp41
 70
     1
102
RTVSPost2010Prop42
 90
       50
102
RTVSPost2010PropOp42
 70
     1
102
RTVSPost2010Prop43
 90
        3
102
RTVSPost2010PropOp43
 70
     1
102
RTVSPost2010Prop44ColorIndex
 90
        5
102
RTVSPost2010Prop44ColorRGB
 90
      255
102
RTVSPost2010PropOp44
 70
     1
102
RTVSPost2010Prop45
280
     0
102
RTVSPost2010PropOp45
 70
     1
102
RTVSPost2010Prop46
 90
       50
102
RTVSPost2010PropOp46
 70
     1
102
RTVSPost2010Prop47
 90
       50
102
RTVSPost2010PropOp47
 70
     1
102
RTVSPost2010Prop48
 90
       50
102
RTVSPost2010PropOp48
 70
     1
102
RTVSPost2010Prop49
280
     0
102
RTVSPost2010PropOp49
 70
     1
102
RTVSPost2010Prop50
 90
       50
102
RTVSPost2010PropOp50
 70
     1
102
RTVSPost2010Prop51ColorIndex
 90
      256
102
RTVSPost2010Prop51ColorRGB
 90
-16777216
102
RTVSPost2010PropOp51
 70
     0
102
RTVSPost2010Prop52
140
1.0
102
RTVSPost2010PropOp52
 70
     0
102
RTVSPost2010Prop53
 90
        2
102
RTVSPost2010PropOp53
 70
     1
102
RTVSPost2010Prop54
  1
strokes_ogs.tif
102
RTVSPost2010PropOp54
 70
     1
102
RTVSPost2010Prop55
280
     0
102
RTVSPost2010PropOp55
 70
     1
102
RTVSPost2010Prop56
140
1.0
102
RTVSPost2010PropOp56
 70
     1
102
RTVSPost2010Prop57
140
1.0
102
RTVSPost2010PropOp57
 70
     1
102
RTVSPropertyOp0
 70
     1
102
RTVSPropertyOp1
 70
     1
102
RTVSPropertyOp2
 70
     1
102
RTVSPropertyOp3
 70
     1
102
RTVSPropertyOp4
 70
     1
102
RTVSPropertyOp5
 70
     1
102
RTVSPropertyOp6
 70
     1
102
RTVSPropertyOp7
 70
     1
102
RTVSPropertyOp8
 70
     1
102
RTVSPropertyOp9
 70
     1
102
RTVSPropertyOp10
 70
     1
102
RTVSPropertyOp11
 70
     1
102
RTVSPropertyOp12
 70
     1
102
RTVSPropertyOp13
 70
     1
102
RTVSPropertyOp14
 70
     1
102
RTVSPropertyOp15
 70
     1
102
RTVSPropertyOp16
 70
     1
102
RTVSPropertyOp17
 70
     1
102
RTVSPropertyOp18
 70
     1
102
RTVSPropertyOp19
 70
     1
102
RTVSPropertyOp20
 70
     1
102
RTVSPropertyOp21
 70
     1
102
RTVSPropertyOp22
 70
     1
102
RTVSPropertyOp23
 70
     1
102
RTVSPropertyOp24
 70
     1
102
RTVSPropertyOp25
 70
     1
102
RTVSPropertyOp26
 70
     1
102
RTVSPropertyOp27
 70
     1
102
RTVSPropertyOp28
 70
     1
102
RTVSPropertyOp29
 70
     1
102
RTVSPropertyOp30
 70
     1
102
RTVSPropertyOp31
 70
     1
102
RTVSPropertyOp32
 70
     1
102
RTVSPropertyOp33
 70
     1
102
RTVSPropertyOp34
 70
     1
102
RTVSPropertyOp35
 70
     1
102
RTVSPropertyOp36
 70
     1
102
RTVSPropertyOp37
 70
     1
102
RTVSPropertyOp38
 70
     1
102
RTVSPropertyOp39
 70
     1
102
RTVSPropertyOp40
 70
     1
102
RTVSPropertyOp41
 70
     1
102
RTVSPropertyOp42
 70
     1
102
RTVSPropertyOp43
 70
     1
102
RTVSPropertyOp44
 70
     1
102
RTVSPropertyOp45
 70
     1
102
RTVSPropertyOp46
 70
     1
102
RTVSPropertyOp47
 70
     1
102
RTVSPropertyOp48
 70
     1
102
RTVSPropertyOp49
 70
     1
102
RTVSPropertyOp50
 70
     1
102
RTVSPropertyOp51
 70
     0
102
RTVSPropertyOp52
 70
     0
102
RTVSPropertyOp53
 70
     1
102
RTVSPropertyOp54
 70
     1
102
RTVSPropertyOp55
 70
     1
102
RTVSPropertyOp56
 70
     1
102
RTVSPropertyOp57
 70
     1
102
RTVSPropertyOp58
 70
     1
102
RTVSPropertyOp59
 70
     1
102
RTVSPropertyOp60
 70
     1
102
RTVSPropertyOp61
 70
     1
102
RTVSPropertyOp62
 70
     1
  0
XRECORD
  5
E3BA
102
{ACAD_REACTORS
330
E3B9
102
}
330
E3B9
100
AcDbXrecord
280
     1
102
RTVSPost2010Prop28
280
     0
102
RTVSPost2010PropOp28
 70
     1
102
RTVSPost2010Prop29
280
     1
102
RTVSPost2010PropOp29
 70
     1
102
RTVSPost2010Prop30
280
     1
102
RTVSPost2010PropOp30
 70
     1
102
RTVSPost2010Prop31
280
     0
102
RTVSPost2010PropOp31
 70
     1
102
RTVSPost2010Prop32
280
     0
102
RTVSPost2010PropOp32
 70
     1
102
RTVSPost2010Prop33
280
     0
102
RTVSPost2010PropOp33
 70
     1
102
RTVSPost2010Prop34
280
     0
102
RTVSPost2010PropOp34
 70
     1
102
RTVSPost2010Prop35
280
     0
102
RTVSPost2010PropOp35
 70
     1
102
RTVSPost2010Prop36
280
     0
102
RTVSPost2010PropOp36
 70
     1
102
RTVSPost2010Prop37
 90
       50
102
RTVSPost2010PropOp37
 70
     1
102
RTVSPost2010Prop38
140
0.0
102
RTVSPost2010PropOp38
 70
     1
102
RTVSPost2010Prop39
140
1.0
102
RTVSPost2010PropOp39
 70
     1
102
RTVSPost2010Prop40
 90
        0
102
RTVSPost2010PropOp40
 70
     1
102
RTVSPost2010Prop41ColorIndex
 90
       18
102
RTVSPost2010Prop41ColorRGB
 90
        0
102
RTVSPost2010PropOp41
 70
     1
102
RTVSPost2010Prop42
 90
       50
102
RTVSPost2010PropOp42
 70
     1
102
RTVSPost2010Prop43
 90
        3
102
RTVSPost2010PropOp43
 70
     1
102
RTVSPost2010Prop44ColorIndex
 90
        5
102
RTVSPost2010Prop44ColorRGB
 90
      255
102
RTVSPost2010PropOp44
 70
     1
102
RTVSPost2010Prop45
280
     0
102
RTVSPost2010PropOp45
 70
     1
102
RTVSPost2010Prop46
 90
       50
102
RTVSPost2010PropOp46
 70
     1
102
RTVSPost2010Prop47
 90
       50
102
RTVSPost2010PropOp47
 70
     1
102
RTVSPost2010Prop48
 90
       50
102
RTVSPost2010PropOp48
 70
     1
102
RTVSPost2010Prop49
280
     0
102
RTVSPost2010PropOp49
 70
     1
102
RTVSPost2010Prop50
 90
       50
102
RTVSPost2010PropOp50
 70
     1
102
RTVSPost2010Prop51ColorIndex
 90
      256
102
RTVSPost2010Prop51ColorRGB
 90
-16777216
102
RTVSPost2010PropOp51
 70
     0
102
RTVSPost2010Prop52
140
1.0
102
RTVSPost2010PropOp52
 70
     0
102
RTVSPost2010Prop53
 90
        2
102
RTVSPost2010PropOp53
 70
     1
102
RTVSPost2010Prop54
  1
strokes_ogs.tif
102
RTVSPost2010PropOp54
 70
     1
102
RTVSPost2010Prop55
280
     0
102
RTVSPost2010PropOp55
 70
     1
102
RTVSPost2010Prop56
140
1.0
102
RTVSPost2010PropOp56
 70
     1
102
RTVSPost2010Prop57
140
1.0
102
RTVSPost2010PropOp57
 70
     1
102
RTVSPropertyOp0
 70
     1
102
RTVSPropertyOp1
 70
     1
102
RTVSPropertyOp2
 70
     1
102
RTVSPropertyOp3
 70
     1
102
RTVSPropertyOp4
 70
     1
102
RTVSPropertyOp5
 70
     1
102
RTVSPropertyOp6
 70
     1
102
RTVSPropertyOp7
 70
     1
102
RTVSPropertyOp8
 70
     1
102
RTVSPropertyOp9
 70
     1
102
RTVSPropertyOp10
 70
     1
102
RTVSPropertyOp11
 70
     1
102
RTVSPropertyOp12
 70
     1
102
RTVSPropertyOp13
 70
     1
102
RTVSPropertyOp14
 70
     1
102
RTVSPropertyOp15
 70
     1
102
RTVSPropertyOp16
 70
     1
102
RTVSPropertyOp17
 70
     1
102
RTVSPropertyOp18
 70
     1
102
RTVSPropertyOp19
 70
     1
102
RTVSPropertyOp20
 70
     1
102
RTVSPropertyOp21
 70
     1
102
RTVSPropertyOp22
 70
     1
102
RTVSPropertyOp23
 70
     1
102
RTVSPropertyOp24
 70
     1
102
RTVSPropertyOp25
 70
     1
102
RTVSPropertyOp26
 70
     1
102
RTVSPropertyOp27
 70
     1
102
RTVSPropertyOp28
 70
     1
102
RTVSPropertyOp29
 70
     1
102
RTVSPropertyOp30
 70
     1
102
RTVSPropertyOp31
 70
     1
102
RTVSPropertyOp32
 70
     1
102
RTVSPropertyOp33
 70
     1
102
RTVSPropertyOp34
 70
     1
102
RTVSPropertyOp35
 70
     1
102
RTVSPropertyOp36
 70
     1
102
RTVSPropertyOp37
 70
     1
102
RTVSPropertyOp38
 70
     1
102
RTVSPropertyOp39
 70
     1
102
RTVSPropertyOp40
 70
     1
102
RTVSPropertyOp41
 70
     1
102
RTVSPropertyOp42
 70
     1
102
RTVSPropertyOp43
 70
     1
102
RTVSPropertyOp44
 70
     1
102
RTVSPropertyOp45
 70
     1
102
RTVSPropertyOp46
 70
     1
102
RTVSPropertyOp47
 70
     1
102
RTVSPropertyOp48
 70
     1
102
RTVSPropertyOp49
 70
     1
102
RTVSPropertyOp50
 70
     1
102
RTVSPropertyOp51
 70
     0
102
RTVSPropertyOp52
 70
     0
102
RTVSPropertyOp53
 70
     1
102
RTVSPropertyOp54
 70
     1
102
RTVSPropertyOp55
 70
     1
102
RTVSPropertyOp56
 70
     1
102
RTVSPropertyOp57
 70
     1
102
RTVSPropertyOp58
 70
     1
102
RTVSPropertyOp59
 70
     1
102
RTVSPropertyOp60
 70
     1
102
RTVSPropertyOp61
 70
     1
102
RTVSPropertyOp62
 70
     1
  0
XRECORD
  5
E3DA
102
{ACAD_REACTORS
330
E3D9
102
}
330
E3D9
100
AcDbXrecord
280
     1
102
RTVSPost2010Prop28
280
     0
102
RTVSPost2010PropOp28
 70
     1
102
RTVSPost2010Prop29
280
     1
102
RTVSPost2010PropOp29
 70
     1
102
RTVSPost2010Prop30
280
     1
102
RTVSPost2010PropOp30
 70
     1
102
RTVSPost2010Prop31
280
     0
102
RTVSPost2010PropOp31
 70
     1
102
RTVSPost2010Prop32
280
     0
102
RTVSPost2010PropOp32
 70
     1
102
RTVSPost2010Prop33
280
     0
102
RTVSPost2010PropOp33
 70
     1
102
RTVSPost2010Prop34
280
     0
102
RTVSPost2010PropOp34
 70
     1
102
RTVSPost2010Prop35
280
     0
102
RTVSPost2010PropOp35
 70
     1
102
RTVSPost2010Prop36
280
     0
102
RTVSPost2010PropOp36
 70
     1
102
RTVSPost2010Prop37
 90
       50
102
RTVSPost2010PropOp37
 70
     1
102
RTVSPost2010Prop38
140
0.0
102
RTVSPost2010PropOp38
 70
     1
102
RTVSPost2010Prop39
140
1.0
102
RTVSPost2010PropOp39
 70
     1
102
RTVSPost2010Prop40
 90
        0
102
RTVSPost2010PropOp40
 70
     1
102
RTVSPost2010Prop41ColorIndex
 90
       18
102
RTVSPost2010Prop41ColorRGB
 90
        0
102
RTVSPost2010PropOp41
 70
     1
102
RTVSPost2010Prop42
 90
       50
102
RTVSPost2010PropOp42
 70
     1
102
RTVSPost2010Prop43
 90
        3
102
RTVSPost2010PropOp43
 70
     1
102
RTVSPost2010Prop44ColorIndex
 90
        5
102
RTVSPost2010Prop44ColorRGB
 90
      255
102
RTVSPost2010PropOp44
 70
     1
102
RTVSPost2010Prop45
280
     0
102
RTVSPost2010PropOp45
 70
     1
102
RTVSPost2010Prop46
 90
       50
102
RTVSPost2010PropOp46
 70
     1
102
RTVSPost2010Prop47
 90
       50
102
RTVSPost2010PropOp47
 70
     1
102
RTVSPost2010Prop48
 90
       50
102
RTVSPost2010PropOp48
 70
     1
102
RTVSPost2010Prop49
280
     0
102
RTVSPost2010PropOp49
 70
     1
102
RTVSPost2010Prop50
 90
       50
102
RTVSPost2010PropOp50
 70
     1
102
RTVSPost2010Prop51ColorIndex
 90
      256
102
RTVSPost2010Prop51ColorRGB
 90
-16777216
102
RTVSPost2010PropOp51
 70
     0
102
RTVSPost2010Prop52
140
1.0
102
RTVSPost2010PropOp52
 70
     0
102
RTVSPost2010Prop53
 90
        2
102
RTVSPost2010PropOp53
 70
     1
102
RTVSPost2010Prop54
  1
strokes_ogs.tif
102
RTVSPost2010PropOp54
 70
     1
102
RTVSPost2010Prop55
280
     0
102
RTVSPost2010PropOp55
 70
     1
102
RTVSPost2010Prop56
140
1.0
102
RTVSPost2010PropOp56
 70
     1
102
RTVSPost2010Prop57
140
1.0
102
RTVSPost2010PropOp57
 70
     1
102
RTVSPropertyOp0
 70
     1
102
RTVSPropertyOp1
 70
     1
102
RTVSPropertyOp2
 70
     1
102
RTVSPropertyOp3
 70
     1
102
RTVSPropertyOp4
 70
     1
102
RTVSPropertyOp5
 70
     1
102
RTVSPropertyOp6
 70
     1
102
RTVSPropertyOp7
 70
     1
102
RTVSPropertyOp8
 70
     1
102
RTVSPropertyOp9
 70
     1
102
RTVSPropertyOp10
 70
     1
102
RTVSPropertyOp11
 70
     1
102
RTVSPropertyOp12
 70
     1
102
RTVSPropertyOp13
 70
     1
102
RTVSPropertyOp14
 70
     1
102
RTVSPropertyOp15
 70
     1
102
RTVSPropertyOp16
 70
     1
102
RTVSPropertyOp17
 70
     1
102
RTVSPropertyOp18
 70
     1
102
RTVSPropertyOp19
 70
     1
102
RTVSPropertyOp20
 70
     1
102
RTVSPropertyOp21
 70
     1
102
RTVSPropertyOp22
 70
     1
102
RTVSPropertyOp23
 70
     1
102
RTVSPropertyOp24
 70
     1
102
RTVSPropertyOp25
 70
     1
102
RTVSPropertyOp26
 70
     1
102
RTVSPropertyOp27
 70
     1
102
RTVSPropertyOp28
 70
     1
102
RTVSPropertyOp29
 70
     1
102
RTVSPropertyOp30
 70
     1
102
RTVSPropertyOp31
 70
     1
102
RTVSPropertyOp32
 70
     1
102
RTVSPropertyOp33
 70
     1
102
RTVSPropertyOp34
 70
     1
102
RTVSPropertyOp35
 70
     1
102
RTVSPropertyOp36
 70
     1
102
RTVSPropertyOp37
 70
     1
102
RTVSPropertyOp38
 70
     1
102
RTVSPropertyOp39
 70
     1
102
RTVSPropertyOp40
 70
     1
102
RTVSPropertyOp41
 70
     1
102
RTVSPropertyOp42
 70
     1
102
RTVSPropertyOp43
 70
     1
102
RTVSPropertyOp44
 70
     1
102
RTVSPropertyOp45
 70
     1
102
RTVSPropertyOp46
 70
     1
102
RTVSPropertyOp47
 70
     1
102
RTVSPropertyOp48
 70
     1
102
RTVSPropertyOp49
 70
     1
102
RTVSPropertyOp50
 70
     1
102
RTVSPropertyOp51
 70
     0
102
RTVSPropertyOp52
 70
     0
102
RTVSPropertyOp53
 70
     1
102
RTVSPropertyOp54
 70
     1
102
RTVSPropertyOp55
 70
     1
102
RTVSPropertyOp56
 70
     1
102
RTVSPropertyOp57
 70
     1
102
RTVSPropertyOp58
 70
     1
102
RTVSPropertyOp59
 70
     1
102
RTVSPropertyOp60
 70
     1
102
RTVSPropertyOp61
 70
     1
102
RTVSPropertyOp62
 70
     1
  0
ENDSEC
  0
EOF
