  0
SECTION
  2
HEADER
  9
$ACADVER
  1
AC1015
  9
$ACADMAINTVER
 70
    18
  9
$DWGCODEPAGE
  3
ANSI_1252
  9
$INSBASE
 10
0.0
 20
0.0
 30
0.0
  9
$EXTMIN
 10
-243.4469597547396
 20
-433.6627805750616
 30
-0.0015258207003583
  9
$EXTMAX
 10
292.9925545409701
 20
411.5744942330924
 30
0.0000000349246037
  9
$LIMMIN
 10
0.0
 20
0.0
  9
$LIMMAX
 10
420.0
 20
297.0
  9
$ORTHOMODE
 70
     0
  9
$REGENMODE
 70
     1
  9
$FILLMODE
 70
     1
  9
$QTEXTMODE
 70
     0
  9
$MIRRTEXT
 70
     0
  9
$LTSCALE
 40
1.0
  9
$ATTMODE
 70
     1
  9
$TEXTSIZE
 40
2.5
  9
$TRACEWID
 40
1.0
  9
$TEXTSTYLE
  7
Standard
  9
$CLAYER
  8
0
  9
$CELTYPE
  6
ByLayer
  9
$CECOLOR
 62
   256
  9
$CELTSCALE
 40
1.0
  9
$DISPSILH
 70
     0
  9
$DIMSCALE
 40
1.0
  9
$DIMASZ
 40
2.5
  9
$DIMEXO
 40
0.625
  9
$DIMDLI
 40
3.75
  9
$DIMRND
 40
0.0
  9
$DIMDLE
 40
0.0
  9
$DIMEXE
 40
1.25
  9
$DIMTP
 40
0.0
  9
$DIMTM
 40
0.0
  9
$DIMTXT
 40
2.5
  9
$DIMCEN
 40
2.5
  9
$DIMTSZ
 40
0.0
  9
$DIMTOL
 70
     0
  9
$DIMLIM
 70
     0
  9
$DIMTIH
 70
     0
  9
$DIMTOH
 70
     0
  9
$DIMSE1
 70
     0
  9
$DIMSE2
 70
     0
  9
$DIMTAD
 70
     1
  9
$DIMZIN
 70
     8
  9
$DIMBLK
  1

  9
$DIMASO
 70
     1
  9
$DIMSHO
 70
     1
  9
$DIMPOST
  1

  9
$DIMAPOST
  1

  9
$DIMALT
 70
     0
  9
$DIMALTD
 70
     3
  9
$DIMALTF
 40
0.03937007874016
  9
$DIMLFAC
 40
1.0
  9
$DIMTOFL
 70
     1
  9
$DIMTVP
 40
0.0
  9
$DIMTIX
 70
     0
  9
$DIMSOXD
 70
     0
  9
$DIMSAH
 70
     0
  9
$DIMBLK1
  1

  9
$DIMBLK2
  1

  9
$DIMSTYLE
  2
ISO-25
  9
$DIMCLRD
 70
     0
  9
$DIMCLRE
 70
     0
  9
$DIMCLRT
 70
     0
  9
$DIMTFAC
 40
1.0
  9
$DIMGAP
 40
0.625
  9
$DIMJUST
 70
     0
  9
$DIMSD1
 70
     0
  9
$DIMSD2
 70
     0
  9
$DIMTOLJ
 70
     0
  9
$DIMTZIN
 70
     8
  9
$DIMALTZ
 70
     0
  9
$DIMALTTZ
 70
     0
  9
$DIMUPT
 70
     0
  9
$DIMDEC
 70
     2
  9
$DIMTDEC
 70
     2
  9
$DIMALTU
 70
     2
  9
$DIMALTTD
 70
     3
  9
$DIMTXSTY
  7
Standard
  9
$DIMAUNIT
 70
     0
  9
$DIMADEC
 70
     0
  9
$DIMALTRND
 40
0.0
  9
$DIMAZIN
 70
     0
  9
$DIMDSEP
 70
    44
  9
$DIMATFIT
 70
     3
  9
$DIMFRAC
 70
     0
  9
$DIMLDRBLK
  1

  9
$DIMLUNIT
 70
     2
  9
$DIMLWD
 70
    -2
  9
$DIMLWE
 70
    -2
  9
$DIMTMOVE
 70
     0
  9
$LUNITS
 70
     2
  9
$LUPREC
 70
     4
  9
$SKETCHINC
 40
1.0
  9
$FILLETRAD
 40
0.0
  9
$AUNITS
 70
     0
  9
$AUPREC
 70
     0
  9
$MENU
  1
.
  9
$ELEVATION
 40
0.0
  9
$PELEVATION
 40
0.0
  9
$THICKNESS
 40
0.0
  9
$LIMCHECK
 70
     0
  9
$CHAMFERA
 40
0.0
  9
$CHAMFERB
 40
0.0
  9
$CHAMFERC
 40
0.0
  9
$CHAMFERD
 40
0.0
  9
$SKPOLY
 70
     0
  9
$TDCREATE
 40
2460719.406504630
  9
$TDUCREATE
 40
2460719.114837963
  9
$TDUPDATE
 40
2460719.414247685
  9
$TDUUPDATE
 40
2460719.122581019
  9
$TDINDWG
 40
0.0024652778
  9
$TDUSRTIMER
 40
0.0024652778
  9
$USRTIMER
 70
     1
  9
$ANGBASE
 50
0.0
  9
$ANGDIR
 70
     0
  9
$PDMODE
 70
     0
  9
$PDSIZE
 40
0.0
  9
$PLINEWID
 40
0.0
  9
$SPLFRAME
 70
     0
  9
$SPLINETYPE
 70
     6
  9
$SPLINESEGS
 70
     8
  9
$HANDSEED
  5
D048
  9
$SURFTAB1
 70
     6
  9
$SURFTAB2
 70
     6
  9
$SURFTYPE
 70
     6
  9
$SURFU
 70
     6
  9
$SURFV
 70
     6
  9
$UCSBASE
  2

  9
$UCSNAME
  2

  9
$UCSORG
 10
0.0
 20
0.0
 30
0.0
  9
$UCSXDIR
 10
1.0
 20
0.0
 30
0.0
  9
$UCSYDIR
 10
0.0
 20
1.0
 30
0.0
  9
$UCSORTHOREF
  2

  9
$UCSORTHOVIEW
 70
     0
  9
$UCSORGTOP
 10
0.0
 20
0.0
 30
0.0
  9
$UCSORGBOTTOM
 10
0.0
 20
0.0
 30
0.0
  9
$UCSORGLEFT
 10
0.0
 20
0.0
 30
0.0
  9
$UCSORGRIGHT
 10
0.0
 20
0.0
 30
0.0
  9
$UCSORGFRONT
 10
0.0
 20
0.0
 30
0.0
  9
$UCSORGBACK
 10
0.0
 20
0.0
 30
0.0
  9
$PUCSBASE
  2

  9
$PUCSNAME
  2

  9
$PUCSORG
 10
0.0
 20
0.0
 30
0.0
  9
$PUCSXDIR
 10
1.0
 20
0.0
 30
0.0
  9
$PUCSYDIR
 10
0.0
 20
1.0
 30
0.0
  9
$PUCSORTHOREF
  2

  9
$PUCSORTHOVIEW
 70
     0
  9
$PUCSORGTOP
 10
0.0
 20
0.0
 30
0.0
  9
$PUCSORGBOTTOM
 10
0.0
 20
0.0
 30
0.0
  9
$PUCSORGLEFT
 10
0.0
 20
0.0
 30
0.0
  9
$PUCSORGRIGHT
 10
0.0
 20
0.0
 30
0.0
  9
$PUCSORGFRONT
 10
0.0
 20
0.0
 30
0.0
  9
$PUCSORGBACK
 10
0.0
 20
0.0
 30
0.0
  9
$USERI1
 70
     0
  9
$USERI2
 70
     0
  9
$USERI3
 70
     0
  9
$USERI4
 70
     0
  9
$USERI5
 70
     0
  9
$USERR1
 40
0.0
  9
$USERR2
 40
0.0
  9
$USERR3
 40
0.0
  9
$USERR4
 40
0.0
  9
$USERR5
 40
0.0
  9
$WORLDVIEW
 70
     1
  9
$SHADEDGE
 70
     3
  9
$SHADEDIF
 70
    70
  9
$TILEMODE
 70
     1
  9
$MAXACTVP
 70
    48
  9
$PINSBASE
 10
0.0
 20
0.0
 30
0.0
  9
$PLIMCHECK
 70
     0
  9
$PEXTMIN
 10
0.0
 20
0.0
 30
0.0
  9
$PEXTMAX
 10
0.0
 20
0.0
 30
0.0
  9
$PLIMMIN
 10
0.0
 20
0.0
  9
$PLIMMAX
 10
12.0
 20
9.0
  9
$UNITMODE
 70
     0
  9
$VISRETAIN
 70
     1
  9
$PLINEGEN
 70
     0
  9
$PSLTSCALE
 70
     1
  9
$TREEDEPTH
 70
  3020
  9
$CMLSTYLE
  2
Standard
  9
$CMLJUST
 70
     0
  9
$CMLSCALE
 40
20.0
  9
$PROXYGRAPHICS
 70
     1
  9
$MEASUREMENT
 70
     1
  9
$CELWEIGHT
370
    -1
  9
$ENDCAPS
280
     0
  9
$JOINSTYLE
280
     0
  9
$LWDISPLAY
290
     0
  9
$INSUNITS
 70
     4
  9
$HYPERLINKBASE
  1

  9
$STYLESHEET
  1

  9
$XEDIT
290
     1
  9
$CEPSNTYPE
380
     0
  9
$PSTYLEMODE
290
     1
  9
$FINGERPRINTGUID
  2
{375C693C-302E-BC42-B92A-19F6C371B7B0}
  9
$VERSIONGUID
  2
{B463B391-EAD4-DB43-AC2B-B8059782E743}
  9
$EXTNAMES
290
     1
  9
$PSVPSCALE
 40
0.0
  9
$OLESTARTUP
290
     0
  0
ENDSEC
  0
SECTION
  2
CLASSES
  0
CLASS
  1
ACDBDICTIONARYWDFLT
  2
AcDbDictionaryWithDefault
  3
ObjectDBX Classes
 90
        0
280
     0
281
     0
  0
CLASS
  1
ACDBPLACEHOLDER
  2
AcDbPlaceHolder
  3
ObjectDBX Classes
 90
        0
280
     0
281
     0
  0
CLASS
  1
LAYOUT
  2
AcDbLayout
  3
ObjectDBX Classes
 90
        0
280
     0
281
     0
  0
CLASS
  1
DICTIONARYVAR
  2
AcDbDictionaryVar
  3
ObjectDBX Classes
 90
        0
280
     0
281
     0
  0
CLASS
  1
TABLESTYLE
  2
AcDbTableStyle
  3
ObjectDBX Classes
 90
     4095
280
     0
281
     0
  0
CLASS
  1
MATERIAL
  2
AcDbMaterial
  3
ObjectDBX Classes
 90
     1153
280
     0
281
     0
  0
CLASS
  1
VISUALSTYLE
  2
AcDbVisualStyle
  3
ObjectDBX Classes
 90
     4095
280
     0
281
     0
  0
CLASS
  1
SCALE
  2
AcDbScale
  3
ObjectDBX Classes
 90
     1153
280
     0
281
     0
  0
CLASS
  1
MLEADERSTYLE
  2
AcDbMLeaderStyle
  3
ACDB_MLEADERSTYLE_CLASS
 90
     4095
280
     0
281
     0
  0
CLASS
  1
CELLSTYLEMAP
  2
AcDbCellStyleMap
  3
ObjectDBX Classes
 90
     1152
280
     0
281
     0
  0
CLASS
  1
EXACXREFPANELOBJECT
  2
ExAcXREFPanelObject
  3
EXAC_ESW
 90
    33793
280
     0
281
     0
  0
CLASS
  1
NPOCOLLECTION
  2
AcDbImpNonPersistentObjectsCollection
  3
ObjectDBX Classes
 90
    33921
280
     0
281
     0
  0
CLASS
  1
LAYER_INDEX
  2
AcDbLayerIndex
  3
ObjectDBX Classes
 90
    32768
280
     0
281
     0
  0
CLASS
  1
SPATIAL_INDEX
  2
AcDbSpatialIndex
  3
ObjectDBX Classes
 90
    32768
280
     0
281
     0
  0
CLASS
  1
IDBUFFER
  2
AcDbIdBuffer
  3
ObjectDBX Classes
 90
    32768
280
     0
281
     0
  0
CLASS
  1
ACDBSECTIONVIEWSTYLE
  2
AcDbSectionViewStyle
  3
ObjectDBX Classes
 90
     1025
280
     0
281
     0
  0
CLASS
  1
ACDBDETAILVIEWSTYLE
  2
AcDbDetailViewStyle
  3
ObjectDBX Classes
 90
     1025
280
     0
281
     0
  0
CLASS
  1
XRECORD
  2
AcDbXrecord
  3
ObjectDBX Classes
 90
        0
280
     0
281
     0
  0
ENDSEC
  0
SECTION
  2
TABLES
  0
TABLE
  2
VPORT
  5
8
102
{ACAD_XDICTIONARY
360
CF56
102
}
330
0
100
AcDbSymbolTable
 70
     1
  0
VPORT
  5
EA
330
8
100
AcDbSymbolTableRecord
100
AcDbViewportTableRecord
  2
*Active
 70
     0
 10
0.0
 20
0.0
 11
1.0
 21
1.0
 12
24.77279739311527
 22
-11.04414317098462
 13
0.0
 23
0.0
 14
10.0
 24
10.0
 15
10.0
 25
10.0
 16
0.0
 26
0.0
 36
1.0
 17
0.0
 27
0.0
 37
0.0
 40
898.8332435538481
 41
0.9846153846153846
 42
50.0
 43
0.0
 44
0.0
 50
0.0
 51
0.0
 71
     0
 72
  1000
 73
     1
 74
     3
 75
     0
 76
     1
 77
     0
 78
     0
281
     0
 65
     1
110
0.0
120
0.0
130
0.0
111
1.0
121
0.0
131
0.0
112
0.0
122
1.0
132
0.0
 79
     0
146
0.0
1001
ACAD_NAV_VCDISPLAY
1070
     3
  0
ENDTAB
  0
TABLE
  2
LTYPE
  5
5
330
0
100
AcDbSymbolTable
 70
     1
  0
LTYPE
  5
14
330
5
100
AcDbSymbolTableRecord
100
AcDbLinetypeTableRecord
  2
ByBlock
 70
     0
  3

 72
    65
 73
     0
 40
0.0
  0
LTYPE
  5
15
330
5
100
AcDbSymbolTableRecord
100
AcDbLinetypeTableRecord
  2
ByLayer
 70
     0
  3

 72
    65
 73
     0
 40
0.0
  0
LTYPE
  5
16
330
5
100
AcDbSymbolTableRecord
100
AcDbLinetypeTableRecord
  2
Continuous
 70
     0
  3
Solid line
 72
    65
 73
     0
 40
0.0
  0
ENDTAB
  0
TABLE
  2
LAYER
  5
2
102
{ACAD_XDICTIONARY
360
1FF
102
}
330
0
100
AcDbSymbolTable
 70
     1
  0
LAYER
  5
10
102
{ACAD_XDICTIONARY
360
13C
102
}
330
2
100
AcDbSymbolTableRecord
100
AcDbLayerTableRecord
  2
0
 70
     0
 62
     7
  6
Continuous
370
    -3
390
F
  0
ENDTAB
  0
TABLE
  2
STYLE
  5
3
330
0
100
AcDbSymbolTable
 70
     1
  0
STYLE
  5
11
330
3
100
AcDbSymbolTableRecord
100
AcDbTextStyleTableRecord
  2
Standard
 70
     0
 40
0.0
 41
1.0
 50
0.0
 71
     0
 42
2.5
  3
arial.ttf
  4

1001
ACAD
1000
Arial
1071
       34
  0
ENDTAB
  0
TABLE
  2
VIEW
  5
6
330
0
100
AcDbSymbolTable
 70
     0
  0
ENDTAB
  0
TABLE
  2
UCS
  5
7
330
0
100
AcDbSymbolTable
 70
     0
  0
ENDTAB
  0
TABLE
  2
APPID
  5
9
330
0
100
AcDbSymbolTable
 70
     8
  0
APPID
  5
12
330
9
100
AcDbSymbolTableRecord
100
AcDbRegAppTableRecord
  2
ACAD
 70
     0
  0
APPID
  5
9E
330
9
100
AcDbSymbolTableRecord
100
AcDbRegAppTableRecord
  2
ACAD_PSEXT
 70
     0
  0
APPID
  5
133
330
9
100
AcDbSymbolTableRecord
100
AcDbRegAppTableRecord
  2
AcadAnnoPO
 70
     0
  0
APPID
  5
134
330
9
100
AcDbSymbolTableRecord
100
AcDbRegAppTableRecord
  2
AcadAnnotative
 70
     0
  0
APPID
  5
135
330
9
100
AcDbSymbolTableRecord
100
AcDbRegAppTableRecord
  2
ACAD_DSTYLE_DIMJAG
 70
     0
  0
APPID
  5
136
330
9
100
AcDbSymbolTableRecord
100
AcDbRegAppTableRecord
  2
ACAD_DSTYLE_DIMTALN
 70
     0
  0
APPID
  5
165
330
9
100
AcDbSymbolTableRecord
100
AcDbRegAppTableRecord
  2
ACAD_MLEADERVER
 70
     0
  0
APPID
  5
217
330
9
100
AcDbSymbolTableRecord
100
AcDbRegAppTableRecord
  2
ACAD_NAV_VCDISPLAY
 70
     0
  0
ENDTAB
  0
TABLE
  2
DIMSTYLE
  5
A
330
0
100
AcDbSymbolTable
 70
     1
100
AcDbDimStyleTable
 71
     0
  0
DIMSTYLE
105
27
330
A
100
AcDbSymbolTableRecord
100
AcDbDimStyleTableRecord
  2
ISO-25
 70
     0
 41
2.5
 42
0.625
 43
3.75
 44
1.25
 73
     0
 74
     0
 77
     1
 78
     8
140
2.5
141
2.5
143
0.03937007874016
147
0.625
171
     3
172
     1
271
     2
272
     2
274
     3
278
    44
283
     0
284
     8
340
11
  0
ENDTAB
  0
TABLE
  2
BLOCK_RECORD
  5
1
330
0
100
AcDbSymbolTable
 70
     7
  0
BLOCK_RECORD
  5
1F
102
{ACAD_XDICTIONARY
360
1CE
102
}
330
1
100
AcDbSymbolTableRecord
100
AcDbBlockTableRecord
  2
*Model_Space
340
22
  0
BLOCK_RECORD
  5
D2
102
{ACAD_XDICTIONARY
360
CF09
102
}
330
1
100
AcDbSymbolTableRecord
100
AcDbBlockTableRecord
  2
*Paper_Space
340
D3
  0
BLOCK_RECORD
  5
D6
102
{ACAD_XDICTIONARY
360
CF0B
102
}
330
1
100
AcDbSymbolTableRecord
100
AcDbBlockTableRecord
  2
*Paper_Space0
340
D7
  0
BLOCK_RECORD
  5
CC94
330
1
100
AcDbSymbolTableRecord
100
AcDbBlockTableRecord
  2
SPR60_240-Front
340
0
102
{BLKREFS
331
CEFF
102
}
  0
BLOCK_RECORD
  5
CD08
330
1
100
AcDbSymbolTableRecord
100
AcDbBlockTableRecord
  2
SPR60_240-Left
340
0
102
{BLKREFS
331
CF00
102
}
  0
BLOCK_RECORD
  5
CD46
330
1
100
AcDbSymbolTableRecord
100
AcDbBlockTableRecord
  2
SPR60_240-Right
340
0
102
{BLKREFS
331
CF01
102
}
  0
BLOCK_RECORD
  5
CD86
330
1
100
AcDbSymbolTableRecord
100
AcDbBlockTableRecord
  2
SPR60_240-Top
340
0
102
{BLKREFS
331
CF02
102
}
  0
BLOCK_RECORD
  5
CDD6
330
1
100
AcDbSymbolTableRecord
100
AcDbBlockTableRecord
  2
SPR60_240-Bottom
340
0
102
{BLKREFS
331
CF03
102
}
  0
BLOCK_RECORD
  5
CE16
330
1
100
AcDbSymbolTableRecord
100
AcDbBlockTableRecord
  2
SPR60_240-ISO
340
0
102
{BLKREFS
331
CF04
102
}
  0
ENDTAB
  0
ENDSEC
  0
SECTION
  2
BLOCKS
  0
BLOCK
  5
20
330
1F
100
AcDbEntity
  8
0
100
AcDbBlockBegin
  2
*Model_Space
 70
     0
 10
0.0
 20
0.0
 30
0.0
  3
*Model_Space
  1

  0
ENDBLK
  5
21
330
1F
100
AcDbEntity
  8
0
100
AcDbBlockEnd
  0
BLOCK
  5
D4
330
D2
100
AcDbEntity
 67
     1
  8
0
100
AcDbBlockBegin
  2
*Paper_Space
 70
     0
 10
0.0
 20
0.0
 30
0.0
  3
*Paper_Space
  1

  0
ENDBLK
  5
D5
330
D2
100
AcDbEntity
 67
     1
  8
0
100
AcDbBlockEnd
  0
BLOCK
  5
D8
330
D6
100
AcDbEntity
 67
     1
  8
0
100
AcDbBlockBegin
  2
*Paper_Space0
 70
     0
 10
0.0
 20
0.0
 30
0.0
  3
*Paper_Space0
  1

  0
ENDBLK
  5
D9
330
D6
100
AcDbEntity
 67
     1
  8
0
100
AcDbBlockEnd
  0
BLOCK
  5
CC95
330
CC94
100
AcDbEntity
  8
0
100
AcDbBlockBegin
  2
SPR60_240-Front
 70
     0
 10
0.0
 20
0.0
 30
0.0
  3
SPR60_240-Front
  1

  0
LINE
  5
CC97
330
CC94
100
AcDbEntity
  8
0
100
AcDbLine
 10
72.52709056099998
 20
6.269999999999996
 30
0.0
 11
67.52709056099998
 21
1.269999999999996
 31
0.0
  0
LINE
  5
CC98
330
CC94
100
AcDbEntity
  8
0
100
AcDbLine
 10
-67.52709056099999
 20
1.269999999999996
 30
0.0
 11
-72.52709056099999
 21
6.269999999999996
 31
0.0
  0
LINE
  5
CC99
330
CC94
100
AcDbEntity
  8
0
100
AcDbLine
 10
-72.52709056100001
 20
72.27
 30
0.0
 11
-67.52709056100001
 21
77.27
 31
0.0
  0
LINE
  5
CC9A
330
CC94
100
AcDbEntity
  8
0
100
AcDbLine
 10
67.52709056099999
 20
77.27000000000001
 30
0.0
 11
72.52709056099999
 21
72.27000000000001
 31
0.0
  0
LINE
  5
CC9B
330
CC94
100
AcDbEntity
  8
0
100
AcDbLine
 10
72.52709056099999
 20
72.27000000000001
 30
0.0
 11
72.52709056099998
 21
6.269999999999997
 31
0.0
  0
LINE
  5
CC9C
330
CC94
100
AcDbEntity
  8
0
100
AcDbLine
 10
-72.52709056099999
 20
6.269999999999996
 30
0.0
 11
-72.52709056100001
 21
72.27
 31
0.0
  0
LINE
  5
CC9D
330
CC94
100
AcDbEntity
  8
0
100
AcDbLine
 10
26.49999999999999
 20
77.27000000000001
 30
0.0
 11
67.52709056099999
 21
77.27000000000001
 31
0.0
  0
LINE
  5
CC9E
330
CC94
100
AcDbEntity
  8
0
100
AcDbLine
 10
-26.50000000000001
 20
1.269999999999987
 30
0.0
 11
-67.52709056099999
 21
1.269999999999996
 31
0.0
  0
LINE
  5
CC9F
330
CC94
100
AcDbEntity
  8
0
100
AcDbLine
 10
67.52709056099998
 20
1.269999999999996
 30
0.0
 11
26.49999999999999
 21
1.269999999999987
 31
0.0
  0
ARC
  5
CCA0
330
CC94
100
AcDbEntity
  8
0
100
AcDbCircle
 10
26.49999999999999
 20
78.77000000000001
 30
0.0
 40
1.5
100
AcDbArc
 50
90.00000000000033
 51
269.9999999999997
  0
LINE
  5
CCA1
330
CC94
100
AcDbEntity
  8
0
100
AcDbLine
 10
-67.52709056100001
 20
77.27
 30
0.0
 11
-26.5
 21
77.27
 31
0.0
  0
ARC
  5
CCA2
330
CC94
100
AcDbEntity
  8
0
100
AcDbCircle
 10
-26.5
 20
78.76999999999999
 30
0.0
 40
1.5
100
AcDbArc
 50
270.0
 51
90.0
  0
LINE
  5
CCA3
330
CC94
100
AcDbEntity
  8
0
100
AcDbLine
 10
31.49999999999995
 20
80.27000000000001
 30
0.0
 11
31.49999999999993
 21
85.27000000000001
 31
0.0
  0
LINE
  5
CCA4
330
CC94
100
AcDbEntity
  8
0
100
AcDbLine
 10
31.49999999999993
 20
85.27000000000001
 30
0.0
 11
29.99999999999993
 21
85.27000000000001
 31
0.0
  0
LINE
  5
CCA5
330
CC94
100
AcDbEntity
  8
0
100
AcDbLine
 10
29.99999999999993
 20
85.27000000000001
 30
0.0
 11
29.99999999999995
 21
80.27000000000001
 31
0.0
  0
LINE
  5
CCA6
330
CC94
100
AcDbEntity
  8
0
100
AcDbLine
 10
29.99999999999995
 20
80.27000000000001
 30
0.0
 11
31.49999999999995
 21
80.27000000000001
 31
0.0
  0
LINE
  5
CCA7
330
CC94
100
AcDbEntity
  8
0
100
AcDbLine
 10
29.99999999999993
 20
235.67
 30
0.0
 11
31.49999999999993
 21
235.67
 31
0.0
  0
LINE
  5
CCA8
330
CC94
100
AcDbEntity
  8
0
100
AcDbLine
 10
31.49999999999993
 20
235.67
 30
0.0
 11
31.49999999999995
 21
240.67
 31
0.0
  0
LINE
  5
CCA9
330
CC94
100
AcDbEntity
  8
0
100
AcDbLine
 10
-31.5
 20
85.27000000000001
 30
0.0
 11
-31.5
 21
80.27000000000001
 31
0.0
  0
LINE
  5
CCAA
330
CC94
100
AcDbEntity
  8
0
100
AcDbLine
 10
-31.5
 20
80.27000000000001
 30
0.0
 11
-30.0
 21
80.27000000000001
 31
0.0
  0
LINE
  5
CCAB
330
CC94
100
AcDbEntity
  8
0
100
AcDbLine
 10
-30.0
 20
80.27000000000001
 30
0.0
 11
-30.0
 21
85.27000000000001
 31
0.0
  0
LINE
  5
CCAC
330
CC94
100
AcDbEntity
  8
0
100
AcDbLine
 10
-30.0
 20
85.27000000000001
 30
0.0
 11
-31.5
 21
85.27000000000001
 31
0.0
  0
LINE
  5
CCAD
330
CC94
100
AcDbEntity
  8
0
100
AcDbLine
 10
-31.5
 20
240.67
 30
0.0
 11
-31.5
 21
235.67
 31
0.0
  0
LINE
  5
CCAE
330
CC94
100
AcDbEntity
  8
0
100
AcDbLine
 10
-31.5
 20
235.67
 30
0.0
 11
-30.0
 21
235.67
 31
0.0
  0
LINE
  5
CCAF
330
CC94
100
AcDbEntity
  8
0
100
AcDbLine
 10
31.49999999999995
 20
240.67
 30
0.0
 11
29.99999999999995
 21
240.67
 31
0.0
  0
LINE
  5
CCB0
330
CC94
100
AcDbEntity
  8
0
100
AcDbLine
 10
29.99999999999995
 20
240.67
 30
0.0
 11
29.99999999999993
 21
235.67
 31
0.0
  0
LINE
  5
CCB1
330
CC94
100
AcDbEntity
  8
0
100
AcDbLine
 10
-30.0
 20
235.67
 30
0.0
 11
-30.0
 21
240.67
 31
0.0
  0
LINE
  5
CCB2
330
CC94
100
AcDbEntity
  8
0
100
AcDbLine
 10
-30.0
 20
240.67
 30
0.0
 11
-31.5
 21
240.67
 31
0.0
  0
LINE
  5
CCB3
330
CC94
100
AcDbEntity
  8
0
100
AcDbLine
 10
31.49999999999997
 20
-28.42608254450011
 30
0.0
 11
31.5
 21
-21.3550147326346
 31
0.0
  0
LINE
  5
CCB4
330
CC94
100
AcDbEntity
  8
0
100
AcDbLine
 10
31.5
 20
-21.3550147326346
 30
0.0
 11
30.0
 21
-21.35501473263461
 31
0.0
  0
LINE
  5
CCB5
330
CC94
100
AcDbEntity
  8
0
100
AcDbLine
 10
30.0
 20
-21.35501473263461
 30
0.0
 11
30.0
 21
-28.42608254450011
 31
0.0
  0
LINE
  5
CCB6
330
CC94
100
AcDbEntity
  8
0
100
AcDbLine
 10
30.0
 20
-28.42608254450011
 30
0.0
 11
31.49999999999997
 21
-28.42608254450011
 31
0.0
  0
LINE
  5
CCB7
330
CC94
100
AcDbEntity
  8
0
100
AcDbLine
 10
-31.49999999999999
 20
-21.35501473263462
 30
0.0
 11
-31.49999999999995
 21
-28.42608254450011
 31
0.0
  0
LINE
  5
CCB8
330
CC94
100
AcDbEntity
  8
0
100
AcDbLine
 10
-31.49999999999995
 20
-28.42608254450011
 30
0.0
 11
-29.99999999999998
 21
-28.42608254450011
 31
0.0
  0
LINE
  5
CCB9
330
CC94
100
AcDbEntity
  8
0
100
AcDbLine
 10
-29.99999999999998
 20
-28.42608254450011
 30
0.0
 11
-29.99999999999998
 21
-21.35501473263463
 31
0.0
  0
LINE
  5
CCBA
330
CC94
100
AcDbEntity
  8
0
100
AcDbLine
 10
-29.99999999999998
 20
-21.35501473263463
 30
0.0
 11
-31.49999999999999
 21
-21.35501473263462
 31
0.0
  0
LINE
  5
CCBB
330
CC94
100
AcDbEntity
  8
0
100
AcDbLine
 10
31.49999999999993
 20
85.27000000000001
 30
0.0
 11
31.49999999999993
 21
235.67
 31
0.0
  0
LINE
  5
CCBC
330
CC94
100
AcDbEntity
  8
0
100
AcDbLine
 10
29.99999999999993
 20
235.67
 30
0.0
 11
29.99999999999993
 21
85.27000000000001
 31
0.0
  0
LINE
  5
CCBD
330
CC94
100
AcDbEntity
  8
0
100
AcDbLine
 10
-31.5
 20
235.67
 30
0.0
 11
-31.5
 21
85.27000000000001
 31
0.0
  0
LINE
  5
CCBE
330
CC94
100
AcDbEntity
  8
0
100
AcDbLine
 10
-30.0
 20
235.67
 30
0.0
 11
-30.0
 21
85.27000000000001
 31
0.0
  0
LINE
  5
CCBF
330
CC94
100
AcDbEntity
  8
0
100
AcDbLine
 10
26.49999999999999
 20
80.27000000000001
 30
0.0
 11
29.40000000000001
 21
80.27000000000001
 31
0.0
  0
LINE
  5
CCC0
330
CC94
100
AcDbEntity
  8
0
100
AcDbLine
 10
-29.40000000000001
 20
80.27000000000001
 30
0.0
 11
-26.5
 21
80.26999999999999
 31
0.0
  0
LINE
  5
CCC1
330
CC94
100
AcDbEntity
  8
0
100
AcDbLine
 10
-29.40000000000001
 20
240.67
 30
0.0
 11
29.40000000000001
 21
240.67
 31
0.0
  0
LINE
  5
CCC2
330
CC94
100
AcDbEntity
  8
0
100
AcDbLine
 10
31.50000000000132
 20
-2.26313164225673
 30
0.0
 11
31.5
 21
-21.3550147326346
 31
0.0
  0
LINE
  5
CCC3
330
CC94
100
AcDbEntity
  8
0
100
AcDbLine
 10
30.00000000000105
 20
-2.26313164225673
 30
0.0
 11
30.0
 21
-21.35501473263461
 31
0.0
  0
ELLIPSE
  5
CCC4
330
CC94
100
AcDbEntity
  8
0
100
AcDbEllipse
 10
29.39999999999999
 20
-54.16476937947049
 30
0.0
 11
0.6000000000000087
 21
0.0000000000000282
 31
0.0
210
0.0
220
0.0
230
1.0
 40
0.7071067811866661
 41
4.712388980384648
 42
6.283185307179515
  0
ELLIPSE
  5
CCC5
330
CC94
100
AcDbEntity
  8
0
100
AcDbEllipse
 10
29.39999999999999
 20
-54.16476937947049
 30
0.0
 11
2.100000000000031
 21
0.0000000000000533
 31
0.0
210
0.0
220
0.0
230
1.0
 40
0.7071067811865487
 41
4.712388980384741
 42
6.283185307179718
  0
LINE
  5
CCC6
330
CC94
100
AcDbEntity
  8
0
100
AcDbLine
 10
31.50000000000132
 20
-2.26313164225673
 30
0.0
 11
30.00000000000105
 21
-2.26313164225673
 31
0.0
  0
ELLIPSE
  5
CCC7
330
CC94
100
AcDbEntity
  8
0
100
AcDbEllipse
 10
-26.50000000000001
 20
0.0236058844764062
 30
0.0
 11
-1.5
 21
0.0000000000001098
 31
0.0
210
0.0
220
0.0
230
1.0
 40
0.7071067811865479
 41
1.570796326795026
 42
2.705254581962131
  0
LINE
  5
CCC8
330
CC94
100
AcDbEntity
  8
0
100
AcDbLine
 10
-26.50000000000001
 20
-1.037054287303415
 30
0.0
 11
-28.79315533855962
 21
-1.03705428730339
 31
0.0
  0
LINE
  5
CCC9
330
CC94
100
AcDbEntity
  8
0
100
AcDbLine
 10
-28.79315533855962
 20
-1.03705428730339
 30
0.0
 11
-29.40000000000001
 21
-1.466158262545952
 31
0.0
  0
LINE
  5
CCCA
330
CC94
100
AcDbEntity
  8
0
100
AcDbLine
 10
29.39999999999999
 20
-1.466158262545949
 30
0.0
 11
28.7931553385596
 21
-1.037054287303387
 31
0.0
  0
LINE
  5
CCCB
330
CC94
100
AcDbEntity
  8
0
100
AcDbLine
 10
28.7931553385596
 20
-1.037054287303387
 30
0.0
 11
26.49999999999999
 21
-1.037054287303412
 31
0.0
  0
ELLIPSE
  5
CCCC
330
CC94
100
AcDbEntity
  8
0
100
AcDbEllipse
 10
26.49999999999999
 20
0.0236058844764062
 30
0.0
 11
-1.5
 21
0.0
 31
0.0
210
0.0
220
0.0
230
1.0
 40
0.7071067811865479
 41
0.4363380716279082
 42
1.570796326794896
  0
SPLINE
  5
CCCD
330
CC94
100
AcDbEntity
  8
0
100
AcDbSpline
210
0.0
220
0.0
230
1.0
 70
     8
 71
     3
 72
     8
 73
     4
 74
     0
 42
0.000000001
 43
0.0000000001
 40
-1.0
 40
-1.0
 40
-1.0
 40
-1.0
 40
0.0
 40
0.0
 40
0.0
 40
0.0
 10
-25.01767776087199
 20
-0.0003899405809504
 30
0.0
 10
-24.9725199207395
 20
-0.1594792109354338
 30
0.0
 10
-25.01586474390232
 20
-0.3214850446752977
 30
0.0
 10
-25.14054197002045
 20
-0.4246540092928796
 30
0.0
  0
SPLINE
  5
CCCE
330
CC94
100
AcDbEntity
  8
0
100
AcDbSpline
210
0.0
220
0.0
230
1.0
 70
     8
 71
     3
 72
     8
 73
     4
 74
     0
 42
0.000000001
 43
0.0000000001
 40
-1.0
 40
-1.0
 40
-1.0
 40
-1.0
 40
0.0
 40
0.0
 40
0.0
 40
0.0
 10
25.14054197002045
 20
-0.4246540092928796
 30
0.0
 10
25.01586474390226
 20
-0.3214850446753102
 30
0.0
 10
24.97251992074071
 20
-0.1594792109354343
 30
0.0
 10
25.01767776087195
 20
-0.0003899405809506
 30
0.0
  0
LINE
  5
CCCF
330
CC94
100
AcDbEntity
  8
0
100
AcDbLine
 10
-30.00000000000083
 20
-2.263131642256721
 30
0.0
 11
-31.50000000000107
 21
-2.263131642256721
 31
0.0
  0
SPLINE
  5
CCD0
330
CC94
100
AcDbEntity
  8
0
100
AcDbSpline
210
0.0
220
0.0
230
1.0
 70
     8
 71
     3
 72
     8
 73
     4
 74
     0
 42
0.000000001
 43
0.0000000001
 40
-1.0
 40
-1.0
 40
-1.0
 40
-1.0
 40
0.0
 40
0.0
 40
0.0
 40
0.0
 10
-29.40000000000001
 20
-1.466158262545926
 30
0.0
 10
-29.714159265359
 20
-1.873237411765361
 30
0.0
 10
-30.00000000000002
 20
-2.078196639180851
 30
0.0
 10
-30.00000000000003
 20
-2.263131641492168
 30
0.0
  0
ARC
  5
CCD1
330
CC94
100
AcDbEntity
  8
0
100
AcDbCircle
 10
-26.50000000000001
 20
-0.2299999999999986
 30
0.0
 40
1.5
100
AcDbArc
 50
8.805075259701395
 51
90.0
  0
SPLINE
  5
CCD2
330
CC94
100
AcDbEntity
  8
0
100
AcDbSpline
210
0.0
220
0.0
230
1.0
 70
     8
 71
     3
 72
     8
 73
     4
 74
     0
 42
0.000000001
 43
0.0000000001
 40
-1.0
 40
-1.0
 40
-1.0
 40
-1.0
 40
0.0
 40
0.0
 40
0.0
 40
0.0
 10
30.00000000000001
 20
-2.263131641492181
 30
0.0
 10
30.0
 20
-2.078196639180864
 30
0.0
 10
29.71415926535895
 20
-1.873237411765138
 30
0.0
 10
29.39999999999999
 20
-1.466158262545975
 30
0.0
  0
ARC
  5
CCD3
330
CC94
100
AcDbEntity
  8
0
100
AcDbCircle
 10
26.49999999999999
 20
-0.2299999999999986
 30
0.0
 40
1.5
100
AcDbArc
 50
90.0
 51
171.1949247402986
  0
SPLINE
  5
CCD4
330
CC94
100
AcDbEntity
  8
0
100
AcDbSpline
210
0.0
220
0.0
230
1.0
 70
     8
 71
     3
 72
    16
 73
    12
 74
     0
 42
0.000000001
 43
0.0000000001
 40
0.0
 40
0.0
 40
0.0
 40
0.0
 40
0.0356537247227685
 40
0.0356537247227685
 40
0.0703704956431203
 40
0.0703704956431203
 40
0.1051345640093921
 40
0.1051345640093921
 40
0.1398962718662708
 40
0.1398962718662708
 40
0.1538885733138603
 40
0.1538885733138603
 40
0.1538885733138603
 40
0.1538885733138603
 10
-30.49949999999962
 20
-2.263131641492173
 30
0.0
 10
-30.4995000000002
 20
-2.263131641490621
 30
0.0
 10
-30.4795586754034
 20
-2.263059951015004
 30
0.0
 10
-30.40583172170311
 20
-2.25083645121377
 30
0.0
 10
-30.35213458028511
 20
-2.238741830464952
 30
0.0
 10
-30.22293730430464
 20
-2.194102190388982
 30
0.0
 10
-30.1459198543518
 20
-2.160888677230936
 30
0.0
 10
-29.98574064091909
 20
-2.069479202587195
 30
0.0
 10
-29.90073655259386
 20
-2.010107098254229
 30
0.0
 10
-29.78901418348902
 20
-1.909831885149966
 30
0.0
 10
-29.75758437992207
 20
-1.878943669873301
 30
0.0
 10
-29.72742155524379
 20
-1.846191951394175
 30
0.0
  0
SPLINE
  5
CCD5
330
CC94
100
AcDbEntity
  8
0
100
AcDbSpline
210
0.0
220
0.0
230
1.0
 70
     8
 71
     3
 72
    16
 73
    12
 74
     0
 42
0.000000001
 43
0.0000000001
 40
0.0
 40
0.0
 40
0.0
 40
0.0
 40
0.0356266149291601
 40
0.0356266149291601
 40
0.0703447701765907
 40
0.0703447701765907
 40
0.1051087694955047
 40
0.1051087694955047
 40
0.1398704808008128
 40
0.1398704808008128
 40
0.1538888647030676
 40
0.1538888647030676
 40
0.1538888647030676
 40
0.1538888647030676
 10
29.72742155524386
 20
-1.846191951394247
 30
0.0
 10
29.80422088264642
 20
-1.929583012321156
 30
0.0
 10
29.88999615128225
 20
-2.001172959716933
 30
0.0
 10
30.05564046639446
 20
-2.113266523249359
 30
0.0
 10
30.13750261646903
 20
-2.155953002265774
 30
0.0
 10
30.28182181888869
 20
-2.217016702983559
 30
0.0
 10
30.3459130508741
 20
-2.236189491805957
 30
0.0
 10
30.44238223264118
 20
-2.258395304184888
 30
0.0
 10
30.47587215056179
 20
-2.261811174866366
 30
0.0
 10
30.49650501536183
 20
-2.263130971916397
 30
0.0
 10
30.49949999999992
 20
-2.263131641491584
 30
0.0
 10
30.4994999999996
 20
-2.263131641492194
 30
0.0
  0
LINE
  5
CCD6
330
CC94
100
AcDbEntity
  8
0
100
AcDbLine
 10
31.49999999999999
 20
-54.16476937947052
 30
0.0
 11
31.49999999999997
 21
-28.42608254450011
 31
0.0
  0
LINE
  5
CCD7
330
CC94
100
AcDbEntity
  8
0
100
AcDbLine
 10
-31.49999999999995
 20
-28.42608254450011
 30
0.0
 11
-31.49999999999999
 21
-54.16476937947052
 31
0.0
  0
LINE
  5
CCD8
330
CC94
100
AcDbEntity
  8
0
100
AcDbLine
 10
-29.99999999999998
 20
-28.42608254450011
 30
0.0
 11
-29.99999999999999
 21
-54.16476937947052
 31
0.0
  0
LINE
  5
CCD9
330
CC94
100
AcDbEntity
  8
0
100
AcDbLine
 10
-29.39999999999999
 20
-54.58903344818243
 30
0.0
 11
29.39999999999999
 21
-54.58903344818243
 31
0.0
  0
LINE
  5
CCDA
330
CC94
100
AcDbEntity
  8
0
100
AcDbLine
 10
30.0
 20
-54.16476937947052
 30
0.0
 11
30.0
 21
-28.42608254450011
 31
0.0
  0
LINE
  5
CCDB
330
CC94
100
AcDbEntity
  8
0
100
AcDbLine
 10
-29.39999999999999
 20
-55.64969361996226
 30
0.0
 11
29.39999999999999
 21
-55.64969361996226
 31
0.0
  0
LINE
  5
CCDC
330
CC94
100
AcDbEntity
  8
0
100
AcDbLine
 10
-31.50000000000107
 20
-2.263131642256721
 30
0.0
 11
-31.49999999999999
 21
-21.35501473263462
 31
0.0
  0
LINE
  5
CCDD
330
CC94
100
AcDbEntity
  8
0
100
AcDbLine
 10
-30.00000000000083
 20
-2.263131642256721
 30
0.0
 11
-29.99999999999998
 21
-21.35501473263463
 31
0.0
  0
CIRCLE
  5
CCDE
330
CC94
100
AcDbEntity
  8
0
100
AcDbCircle
 10
19.99999999999998
 20
229.77
 30
0.0
 40
2.5
  0
CIRCLE
  5
CCDF
330
CC94
100
AcDbEntity
  8
0
100
AcDbCircle
 10
19.99999999999998
 20
189.77
 30
0.0
 40
2.5
  0
CIRCLE
  5
CCE0
330
CC94
100
AcDbEntity
  8
0
100
AcDbCircle
 10
19.99999999999998
 20
149.77
 30
0.0
 40
2.5
  0
CIRCLE
  5
CCE1
330
CC94
100
AcDbEntity
  8
0
100
AcDbCircle
 10
19.99999999999998
 20
109.77
 30
0.0
 40
2.5
  0
CIRCLE
  5
CCE2
330
CC94
100
AcDbEntity
  8
0
100
AcDbCircle
 10
19.99999999999998
 20
69.76999999999998
 30
0.0
 40
2.5
  0
CIRCLE
  5
CCE3
330
CC94
100
AcDbEntity
  8
0
100
AcDbCircle
 10
19.99999999999998
 20
29.76999999999998
 30
0.0
 40
2.5
  0
CIRCLE
  5
CCE4
330
CC94
100
AcDbEntity
  8
0
100
AcDbCircle
 10
9.999999999999984
 20
209.77
 30
0.0
 40
2.5
  0
CIRCLE
  5
CCE5
330
CC94
100
AcDbEntity
  8
0
100
AcDbCircle
 10
9.999999999999984
 20
169.77
 30
0.0
 40
2.5
  0
CIRCLE
  5
CCE6
330
CC94
100
AcDbEntity
  8
0
100
AcDbCircle
 10
9.999999999999984
 20
129.77
 30
0.0
 40
2.5
  0
CIRCLE
  5
CCE7
330
CC94
100
AcDbEntity
  8
0
100
AcDbCircle
 10
9.999999999999984
 20
89.76999999999996
 30
0.0
 40
2.5
  0
CIRCLE
  5
CCE8
330
CC94
100
AcDbEntity
  8
0
100
AcDbCircle
 10
9.999999999999984
 20
49.76999999999997
 30
0.0
 40
2.5
  0
CIRCLE
  5
CCE9
330
CC94
100
AcDbEntity
  8
0
100
AcDbCircle
 10
9.999999999999984
 20
9.769999999999974
 30
0.0
 40
2.5
  0
CIRCLE
  5
CCEA
330
CC94
100
AcDbEntity
  8
0
100
AcDbCircle
 10
-10.00000000000001
 20
229.77
 30
0.0
 40
2.5
  0
CIRCLE
  5
CCEB
330
CC94
100
AcDbEntity
  8
0
100
AcDbCircle
 10
-10.00000000000001
 20
189.77
 30
0.0
 40
2.5
  0
CIRCLE
  5
CCEC
330
CC94
100
AcDbEntity
  8
0
100
AcDbCircle
 10
-10.00000000000001
 20
149.77
 30
0.0
 40
2.5
  0
CIRCLE
  5
CCED
330
CC94
100
AcDbEntity
  8
0
100
AcDbCircle
 10
-10.00000000000001
 20
109.77
 30
0.0
 40
2.5
  0
CIRCLE
  5
CCEE
330
CC94
100
AcDbEntity
  8
0
100
AcDbCircle
 10
-10.00000000000001
 20
69.76999999999998
 30
0.0
 40
2.5
  0
CIRCLE
  5
CCEF
330
CC94
100
AcDbEntity
  8
0
100
AcDbCircle
 10
-10.00000000000001
 20
29.76999999999998
 30
0.0
 40
2.5
  0
CIRCLE
  5
CCF0
330
CC94
100
AcDbEntity
  8
0
100
AcDbCircle
 10
-20.00000000000002
 20
209.77
 30
0.0
 40
2.5
  0
CIRCLE
  5
CCF1
330
CC94
100
AcDbEntity
  8
0
100
AcDbCircle
 10
-20.00000000000002
 20
169.77
 30
0.0
 40
2.5
  0
CIRCLE
  5
CCF2
330
CC94
100
AcDbEntity
  8
0
100
AcDbCircle
 10
-20.00000000000002
 20
129.77
 30
0.0
 40
2.5
  0
CIRCLE
  5
CCF3
330
CC94
100
AcDbEntity
  8
0
100
AcDbCircle
 10
-20.00000000000002
 20
89.76999999999998
 30
0.0
 40
2.5
  0
CIRCLE
  5
CCF4
330
CC94
100
AcDbEntity
  8
0
100
AcDbCircle
 10
-20.00000000000002
 20
49.76999999999998
 30
0.0
 40
2.5
  0
CIRCLE
  5
CCF5
330
CC94
100
AcDbEntity
  8
0
100
AcDbCircle
 10
-20.00000000000002
 20
9.769999999999983
 30
0.0
 40
2.5
  0
CIRCLE
  5
CCF6
330
CC94
100
AcDbEntity
  8
0
100
AcDbCircle
 10
-43.027090561
 20
69.76999999999998
 30
0.0
 40
2.5
  0
CIRCLE
  5
CCF7
330
CC94
100
AcDbEntity
  8
0
100
AcDbCircle
 10
37.02709056099999
 20
69.76999999999998
 30
0.0
 40
2.5
  0
CIRCLE
  5
CCF8
330
CC94
100
AcDbEntity
  8
0
100
AcDbCircle
 10
-37.027090561
 20
29.76999999999999
 30
0.0
 40
2.5
  0
CIRCLE
  5
CCF9
330
CC94
100
AcDbEntity
  8
0
100
AcDbCircle
 10
43.02709056099999
 20
29.76999999999998
 30
0.0
 40
2.5
  0
ELLIPSE
  5
CCFA
330
CC94
100
AcDbEntity
  8
0
100
AcDbEllipse
 10
-2.500000000000008
 20
0.0236058830622177
 30
0.0
 11
-2.5
 21
0.0000000000000004
 31
0.0
210
0.0
220
0.0
230
1.0
 40
0.7071067811865479
 41
0.2563733261914329
 42
1.570796326794896
  0
LINE
  5
CCFB
330
CC94
100
AcDbEntity
  8
0
100
AcDbLine
 10
2.499999999999991
 20
-1.744161069904185
 30
0.0
 11
-2.500000000000008
 21
-1.744161069904185
 31
0.0
  0
ELLIPSE
  5
CCFC
330
CC94
100
AcDbEntity
  8
0
100
AcDbEllipse
 10
2.49999999999999
 20
0.0236058830622177
 30
0.0
 11
2.5
 21
-0.0000000000000005
 31
0.0
210
0.0
220
0.0
230
1.0
 40
0.7071067811865479
 41
4.712388980384689
 42
6.026811980988153
  0
SPLINE
  5
CCFD
330
CC94
100
AcDbEntity
  8
0
100
AcDbSpline
210
0.0
220
0.0
230
1.0
 70
     8
 71
     3
 72
     8
 73
     4
 74
     0
 42
0.000000001
 43
0.0000000001
 40
-1.0
 40
-1.0
 40
-1.0
 40
-1.0
 40
0.0
 40
0.0
 40
0.0
 40
0.0
 10
-4.918289920131918
 20
-0.4246540092928796
 30
0.0
 10
-4.991899723307136
 20
-0.3163012038163435
 30
0.0
 10
-5.016094836485417
 20
-0.1581319339514867
 30
0.0
 10
-4.98943351381297
 20
-0.00038994058095
 30
0.0
  0
SPLINE
  5
CCFE
330
CC94
100
AcDbEntity
  8
0
100
AcDbSpline
210
0.0
220
0.0
230
1.0
 70
     8
 71
     3
 72
     8
 73
     4
 74
     0
 42
0.000000001
 43
0.0000000001
 40
-1.0
 40
-1.0
 40
-1.0
 40
-1.0
 40
0.0
 40
0.0
 40
0.0
 40
0.0
 10
4.989433513812953
 20
-0.0003899405809504
 30
0.0
 10
5.016094836485414
 20
-0.1581319339514953
 30
0.0
 10
4.991899723307441
 20
-0.3163012038163528
 30
0.0
 10
4.918289920131893
 20
-0.4246540092928796
 30
0.0
  0
ARC
  5
CCFF
330
CC94
100
AcDbEntity
  8
0
100
AcDbCircle
 10
2.499999999999991
 20
-0.2300000019999632
 30
0.0
 40
2.5
100
AcDbArc
 50
5.269701372194908
 51
90.0
  0
LINE
  5
CD00
330
CC94
100
AcDbEntity
  8
0
100
AcDbLine
 10
-2.500000000000008
 20
2.269999998000072
 30
0.0
 11
2.499999999999991
 21
2.269999998000072
 31
0.0
  0
ARC
  5
CD01
330
CC94
100
AcDbEntity
  8
0
100
AcDbCircle
 10
-2.500000000000008
 20
-0.2300000019999632
 30
0.0
 40
2.5
100
AcDbArc
 50
90.0
 51
174.7302986278051
  0
ELLIPSE
  5
CD02
330
CC94
100
AcDbEntity
  8
0
100
AcDbEllipse
 10
-29.39999999999999
 20
-54.1647693794705
 30
0.0
 11
-2.100000000000031
 21
0.0000000000000032
 31
0.0
210
0.0
220
0.0
230
1.0
 40
0.7071067811864883
 41
0.0
 42
1.570796326794897
  0
ELLIPSE
  5
CD03
330
CC94
100
AcDbEntity
  8
0
100
AcDbEllipse
 10
-29.39999999999999
 20
-54.1647693794705
 30
0.0
 11
-0.6000000000000087
 21
0.0000000000000178
 31
0.0
210
0.0
220
0.0
230
1.0
 40
0.7071067811865698
 41
0.0000000000000422
 42
1.570796326794939
  0
LINE
  5
CD04
330
CC94
100
AcDbEntity
  8
0
100
AcDbLine
 10
29.40000000000001
 20
240.67
 30
0.0
 11
30.0
 21
240.67
 31
0.0
  0
LINE
  5
CD05
330
CC94
100
AcDbEntity
  8
0
100
AcDbLine
 10
29.40000000000001
 20
80.27000000000001
 30
0.0
 11
30.0
 21
80.27000000000001
 31
0.0
  0
LINE
  5
CD06
330
CC94
100
AcDbEntity
  8
0
100
AcDbLine
 10
-30.00000000000001
 20
240.67
 30
0.0
 11
-29.40000000000001
 21
240.67
 31
0.0
  0
LINE
  5
CD07
330
CC94
100
AcDbEntity
  8
0
100
AcDbLine
 10
-30.00000000000001
 20
80.27000000000001
 30
0.0
 11
-29.40000000000001
 21
80.27000000000001
 31
0.0
  0
ENDBLK
  5
CC96
330
CC94
100
AcDbEntity
  8
0
100
AcDbBlockEnd
  0
BLOCK
  5
CD09
330
CD08
100
AcDbEntity
  8
0
100
AcDbBlockBegin
  2
SPR60_240-Left
 70
     0
 10
0.0
 20
0.0
 30
0.0
  3
SPR60_240-Left
  1

  0
LINE
  5
CD0B
330
CD08
100
AcDbEntity
  8
0
100
AcDbLine
 10
0.0
 20
-0.0003899405809503
 30
0.0
 11
0.0
 21
1.270000000000001
 31
0.0
  0
LINE
  5
CD0C
330
CD08
100
AcDbEntity
  8
0
100
AcDbLine
 10
62.91118318265866
 20
-2.263131642256721
 30
0.0
 11
4.362741700911234
 21
-2.263131641492199
 31
0.0
  0
SPLINE
  5
CD0D
330
CD08
100
AcDbEntity
  8
0
100
AcDbSpline
210
0.0
220
0.0
230
1.0
 70
     8
 71
     3
 72
     8
 73
     4
 74
     0
 42
0.000000001
 43
0.0000000001
 40
0.0
 40
0.0
 40
0.0
 40
0.0
 40
1.0
 40
1.0
 40
1.0
 40
1.0
 10
0.6150757595082677
 20
-1.485314181072701
 30
0.0
 10
0.2539843833467315
 20
-1.124222804911164
 30
0.0
 10
0.0000000000000174
 20
-0.557202386821642
 30
0.0
 10
0.0000000000000175
 20
-0.0003899405809502
 30
0.0
  0
LINE
  5
CD0E
330
CD08
100
AcDbEntity
  8
0
100
AcDbLine
 10
1.67573593128809
 20
-0.4246540092928809
 30
0.0
 11
2.288136209298625
 21
-1.037054287303415
 31
0.0
  0
LINE
  5
CD0F
330
CD08
100
AcDbEntity
  8
0
100
AcDbLine
 10
2.28813620929858
 20
-1.03705428730339
 30
0.0
 11
2.717240184541143
 21
-1.466158262545952
 31
0.0
  0
SPLINE
  5
CD10
330
CD08
100
AcDbEntity
  8
0
100
AcDbSpline
210
0.0
220
0.0
230
1.0
 70
     8
 71
     3
 72
     8
 73
     4
 74
     0
 42
0.000000001
 43
0.0000000001
 40
-1.0
 40
-1.0
 40
-1.0
 40
-1.0
 40
0.0
 40
0.0
 40
0.0
 40
0.0
 10
1.500000000000017
 20
-0.0003899405809504
 30
0.0
 10
1.500000000000017
 20
-0.1594792109354338
 30
0.0
 10
1.572566966670507
 20
-0.3214850446752977
 30
0.0
 10
1.675735931288089
 20
-0.4246540092928796
 30
0.0
  0
SPLINE
  5
CD11
330
CD08
100
AcDbEntity
  8
0
100
AcDbSpline
210
0.0
220
0.0
230
1.0
 70
     8
 71
     3
 72
     8
 73
     4
 74
     0
 42
0.000000001
 43
0.0000000001
 40
-1.0
 40
-1.0
 40
-1.0
 40
-1.0
 40
0.0
 40
0.0
 40
0.0
 40
0.0
 10
2.717240184541143
 20
-1.466158262545926
 30
0.0
 10
3.124319333760578
 20
-1.873237411765361
 30
0.0
 10
3.733518404784104
 20
-2.078196639180851
 30
0.0
 10
4.36274170091125
 20
-2.263131641492168
 30
0.0
  0
LINE
  5
CD12
330
CD08
100
AcDbEntity
  8
0
100
AcDbLine
 10
2.717240184541143
 20
-1.466158262545952
 30
0.0
 11
2.364040347338413
 21
-1.819358099748682
 31
0.0
  0
LINE
  5
CD13
330
CD08
100
AcDbEntity
  8
0
100
AcDbLine
 10
2.364040347338413
 20
-1.819358099748682
 30
0.0
 11
1.656580012761321
 21
-2.526818434325774
 31
0.0
  0
SPLINE
  5
CD14
330
CD08
100
AcDbEntity
  8
0
100
AcDbSpline
210
0.0
220
0.0
230
1.0
 70
     8
 71
     3
 72
     8
 73
     4
 74
     0
 42
0.000000001
 43
0.0000000001
 40
0.0
 40
0.0
 40
0.0
 40
0.0
 40
1.0
 40
1.0
 40
1.0
 40
1.0
 10
4.362741700911231
 20
-2.263131641492188
 30
0.0
 10
3.178158037514314
 20
-2.633557006450642
 30
0.0
 10
2.063659161980757
 20
-2.933897583545181
 30
0.0
 10
1.656580012761321
 20
-2.526818434325747
 30
0.0
  0
LINE
  5
CD15
330
CD08
100
AcDbEntity
  8
0
100
AcDbLine
 10
1.656580012761321
 20
-2.526818434325774
 30
0.0
 11
1.227476037518762
 21
-2.097714459083207
 31
0.0
  0
LINE
  5
CD16
330
CD08
100
AcDbEntity
  8
0
100
AcDbLine
 10
2.28813620929858
 20
-1.03705428730339
 30
0.0
 11
1.227476037518762
 21
-2.097714459083207
 31
0.0
  0
LINE
  5
CD17
330
CD08
100
AcDbEntity
  8
0
100
AcDbLine
 10
1.227476037518815
 20
-2.097714459083224
 30
0.0
 11
0.6150757595082811
 21
-1.48531418107269
 31
0.0
  0
LINE
  5
CD18
330
CD08
100
AcDbEntity
  8
0
100
AcDbLine
 10
1.675735931288089
 20
-0.4246540092928796
 30
0.0
 11
1.322536092810539
 21
-0.7778538477704289
 31
0.0
  0
LINE
  5
CD19
330
CD08
100
AcDbEntity
  8
0
100
AcDbLine
 10
1.322536092810539
 20
-0.7778538477704289
 30
0.0
 11
0.6150757595082678
 21
-1.485314181072701
 31
0.0
  0
LINE
  5
CD1A
330
CD08
100
AcDbEntity
  8
0
100
AcDbLine
 10
1.500000000000002
 20
-0.0003899405809504
 30
0.0
 11
1.000499995425472
 21
-0.0003899405809504
 31
0.0
  0
LINE
  5
CD1B
330
CD08
100
AcDbEntity
  8
0
100
AcDbLine
 10
1.000499995425472
 20
-0.0003899405809504
 30
0.0
 11
0.0
 21
-0.0003899405809504
 31
0.0
  0
LINE
  5
CD1C
330
CD08
100
AcDbEntity
  8
0
100
AcDbLine
 10
1.500000000000004
 20
1.270000000000001
 30
0.0
 11
1.500000000000004
 21
-0.0003899405809504
 31
0.0
  0
LINE
  5
CD1D
330
CD08
100
AcDbEntity
  8
0
100
AcDbLine
 10
0.0
 20
6.269999999999996
 30
0.0
 11
0.0
 21
1.269999999999996
 31
0.0
  0
LINE
  5
CD1E
330
CD08
100
AcDbEntity
  8
0
100
AcDbLine
 10
0.0
 20
77.27
 30
0.0
 11
0.0
 21
72.27
 31
0.0
  0
LINE
  5
CD1F
330
CD08
100
AcDbEntity
  8
0
100
AcDbLine
 10
1.50000000000001
 20
1.269999999999996
 30
0.0
 11
1.500000000000011
 21
6.269999999999996
 31
0.0
  0
LINE
  5
CD20
330
CD08
100
AcDbEntity
  8
0
100
AcDbLine
 10
1.500000000000011
 20
6.269999999999996
 30
0.0
 11
0.0
 21
6.269999999999996
 31
0.0
  0
LINE
  5
CD21
330
CD08
100
AcDbEntity
  8
0
100
AcDbLine
 10
0.0
 20
1.269999999999996
 30
0.0
 11
1.50000000000001
 21
1.269999999999996
 31
0.0
  0
LINE
  5
CD22
330
CD08
100
AcDbEntity
  8
0
100
AcDbLine
 10
0.0
 20
72.27
 30
0.0
 11
1.500000000000011
 21
72.27
 31
0.0
  0
LINE
  5
CD23
330
CD08
100
AcDbEntity
  8
0
100
AcDbLine
 10
1.500000000000011
 20
72.27
 30
0.0
 11
1.50000000000001
 21
77.27
 31
0.0
  0
LINE
  5
CD24
330
CD08
100
AcDbEntity
  8
0
100
AcDbLine
 10
1.50000000000001
 20
77.27
 30
0.0
 11
0.0
 21
77.27
 31
0.0
  0
LINE
  5
CD25
330
CD08
100
AcDbEntity
  8
0
100
AcDbLine
 10
0.0
 20
6.269999999999996
 30
0.0
 11
0.0
 21
72.27
 31
0.0
  0
LINE
  5
CD26
330
CD08
100
AcDbEntity
  8
0
100
AcDbLine
 10
0.0
 20
77.27
 30
0.0
 11
0.0
 21
80.26999999999999
 31
0.0
  0
LINE
  5
CD27
330
CD08
100
AcDbEntity
  8
0
100
AcDbLine
 10
1.500000000000011
 20
6.269999999999996
 30
0.0
 11
1.500000000000011
 21
72.27
 31
0.0
  0
LINE
  5
CD28
330
CD08
100
AcDbEntity
  8
0
100
AcDbLine
 10
1.500000000000004
 20
77.27
 30
0.0
 11
1.500000000000004
 21
80.26999999999999
 31
0.0
  0
LINE
  5
CD29
330
CD08
100
AcDbEntity
  8
0
100
AcDbLine
 10
0.0
 20
80.27000000000001
 30
0.0
 11
0.0
 21
240.67
 31
0.0
  0
LINE
  5
CD2A
330
CD08
100
AcDbEntity
  8
0
100
AcDbLine
 10
2.100000000000006
 20
240.67
 30
0.0
 11
0.0
 21
240.67
 31
0.0
  0
LINE
  5
CD2B
330
CD08
100
AcDbEntity
  8
0
100
AcDbLine
 10
0.0
 20
80.27000000000001
 30
0.0
 11
2.100000000000006
 21
80.27000000000001
 31
0.0
  0
LINE
  5
CD2C
330
CD08
100
AcDbEntity
  8
0
100
AcDbLine
 10
43.50000000000001
 20
85.27000000000001
 30
0.0
 11
38.50000000000001
 21
80.27000000000001
 31
0.0
  0
LINE
  5
CD2D
330
CD08
100
AcDbEntity
  8
0
100
AcDbLine
 10
38.50000000000001
 20
240.67
 30
0.0
 11
43.50000000000001
 21
235.67
 31
0.0
  0
LINE
  5
CD2E
330
CD08
100
AcDbEntity
  8
0
100
AcDbLine
 10
82.00306627385996
 20
-21.35501473263462
 30
0.0
 11
82.00306627385996
 21
-28.42608254450011
 31
0.0
  0
CIRCLE
  5
CD2F
330
CD08
100
AcDbEntity
  8
0
100
AcDbCircle
 10
35.50000000000002
 20
227.77
 30
0.0
 40
2.5
  0
CIRCLE
  5
CD30
330
CD08
100
AcDbEntity
  8
0
100
AcDbCircle
 10
35.50000000000002
 20
207.77
 30
0.0
 40
2.5
  0
CIRCLE
  5
CD31
330
CD08
100
AcDbEntity
  8
0
100
AcDbCircle
 10
35.50000000000002
 20
187.77
 30
0.0
 40
2.5
  0
CIRCLE
  5
CD32
330
CD08
100
AcDbEntity
  8
0
100
AcDbCircle
 10
35.50000000000002
 20
167.7699999999999
 30
0.0
 40
2.5
  0
CIRCLE
  5
CD33
330
CD08
100
AcDbEntity
  8
0
100
AcDbCircle
 10
35.50000000000002
 20
147.77
 30
0.0
 40
2.5
  0
CIRCLE
  5
CD34
330
CD08
100
AcDbEntity
  8
0
100
AcDbCircle
 10
35.50000000000002
 20
127.77
 30
0.0
 40
2.5
  0
CIRCLE
  5
CD35
330
CD08
100
AcDbEntity
  8
0
100
AcDbCircle
 10
35.50000000000002
 20
107.77
 30
0.0
 40
2.5
  0
CIRCLE
  5
CD36
330
CD08
100
AcDbEntity
  8
0
100
AcDbCircle
 10
35.50000000000002
 20
87.76999999999999
 30
0.0
 40
2.5
  0
LINE
  5
CD37
330
CD08
100
AcDbEntity
  8
0
100
AcDbLine
 10
43.50000000000001
 20
235.67
 30
0.0
 11
43.50000000000001
 21
85.27000000000001
 31
0.0
  0
LINE
  5
CD38
330
CD08
100
AcDbEntity
  8
0
100
AcDbLine
 10
2.100000000000006
 20
240.67
 30
0.0
 11
38.50000000000001
 21
240.67
 31
0.0
  0
LINE
  5
CD39
330
CD08
100
AcDbEntity
  8
0
100
AcDbLine
 10
38.50000000000001
 20
80.27000000000001
 30
0.0
 11
2.100000000000008
 21
80.27000000000001
 31
0.0
  0
LINE
  5
CD3A
330
CD08
100
AcDbEntity
  8
0
100
AcDbLine
 10
82.00306627385996
 20
-28.42608254450011
 30
0.0
 11
56.26437943888955
 21
-54.16476937947052
 31
0.0
  0
LINE
  5
CD3B
330
CD08
100
AcDbEntity
  8
0
100
AcDbLine
 10
62.91118318265866
 20
-2.263131642256721
 30
0.0
 11
82.00306627385996
 21
-21.35501473263462
 31
0.0
  0
CIRCLE
  5
CD3C
330
CD08
100
AcDbEntity
  8
0
100
AcDbCircle
 10
74.57844507130477
 20
-25.24410202925711
 30
0.0
 40
2.5
  0
ARC
  5
CD3D
330
CD08
100
AcDbEntity
  8
0
100
AcDbCircle
 10
59.31559010709463
 20
-13.990452698916
 30
0.0
 40
0.8000000000000012
100
AcDbArc
 50
315.000000001042
 51
75.00000000104186
  0
LINE
  5
CD3E
330
CD08
100
AcDbEntity
  8
0
100
AcDbLine
 10
59.88127553205416
 20
-14.55613812385494
 30
0.0
 11
56.81941335363088
 21
-17.61800030238964
 31
0.0
  0
ARC
  5
CD3F
330
CD08
100
AcDbEntity
  8
0
100
AcDbCircle
 10
56.25372792867135
 20
-17.0523148774507
 30
0.0
 40
0.8
100
AcDbArc
 50
195.0000000010428
 51
315.0000000010428
  0
LINE
  5
CD40
330
CD08
100
AcDbEntity
  8
0
100
AcDbLine
 10
55.48098726764387
 20
-17.25937011354677
 30
0.0
 11
54.36026792735771
 21
-13.07678859487811
 31
0.0
  0
ARC
  5
CD41
330
CD08
100
AcDbEntity
  8
0
100
AcDbCircle
 10
55.13300858838519
 20
-12.86973335878203
 30
0.0
 40
0.8000000000000014
100
AcDbArc
 50
75.00000000104188
 51
195.0000000010427
  0
LINE
  5
CD42
330
CD08
100
AcDbEntity
  8
0
100
AcDbLine
 10
55.34006382445316
 20
-12.096992697747
 30
0.0
 11
59.5226453431626
 21
-13.21771203788096
 31
0.0
  0
LINE
  5
CD43
330
CD08
100
AcDbEntity
  8
0
100
AcDbLine
 10
55.28251771018369
 20
-12.08382813389861
 30
0.0
 11
54.3471033635072
 21
-13.01924248060914
 31
0.0
  0
LINE
  5
CD44
330
CD08
100
AcDbEntity
  8
0
100
AcDbLine
 10
54.77945519839778
 20
-55.64969361996226
 30
0.0
 11
1.656580012761326
 21
-2.52681843432577
 31
0.0
  0
LINE
  5
CD45
330
CD08
100
AcDbEntity
  8
0
100
AcDbLine
 10
56.26437943888958
 20
-54.16476937947047
 30
0.0
 11
54.77945519839765
 21
-55.64969361996215
 31
0.0
  0
ENDBLK
  5
CD0A
330
CD08
100
AcDbEntity
  8
0
100
AcDbBlockEnd
  0
BLOCK
  5
CD47
330
CD46
100
AcDbEntity
  8
0
100
AcDbBlockBegin
  2
SPR60_240-Right
 70
     0
 10
0.0
 20
0.0
 30
0.0
  3
SPR60_240-Right
  1

  0
LINE
  5
CD49
330
CD46
100
AcDbEntity
  8
0
100
AcDbLine
 10
-1.499999999999989
 20
6.269999999999996
 30
0.0
 11
-1.49999999999999
 21
1.269999999999996
 31
0.0
  0
LINE
  5
CD4A
330
CD46
100
AcDbEntity
  8
0
100
AcDbLine
 10
-1.49999999999999
 20
1.269999999999996
 30
0.0
 11
0.0
 21
1.269999999999987
 31
0.0
  0
LINE
  5
CD4B
330
CD46
100
AcDbEntity
  8
0
100
AcDbLine
 10
0.0
 20
1.269999999999987
 30
0.0
 11
0.0
 21
6.269999999999996
 31
0.0
  0
LINE
  5
CD4C
330
CD46
100
AcDbEntity
  8
0
100
AcDbLine
 10
0.0
 20
6.269999999999996
 30
0.0
 11
-1.499999999999989
 21
6.269999999999996
 31
0.0
  0
LINE
  5
CD4D
330
CD46
100
AcDbEntity
  8
0
100
AcDbLine
 10
-1.499999999999989
 20
72.27000000000001
 30
0.0
 11
0.0
 21
72.27000000000001
 31
0.0
  0
LINE
  5
CD4E
330
CD46
100
AcDbEntity
  8
0
100
AcDbLine
 10
0.0
 20
72.27000000000001
 30
0.0
 11
0.0
 21
77.27000000000001
 31
0.0
  0
LINE
  5
CD4F
330
CD46
100
AcDbEntity
  8
0
100
AcDbLine
 10
-1.49999999999999
 20
77.27000000000001
 30
0.0
 11
-1.499999999999989
 21
72.27000000000001
 31
0.0
  0
LINE
  5
CD50
330
CD46
100
AcDbEntity
  8
0
100
AcDbLine
 10
0.0
 20
77.27000000000001
 30
0.0
 11
-1.49999999999999
 21
77.27000000000001
 31
0.0
  0
LINE
  5
CD51
330
CD46
100
AcDbEntity
  8
0
100
AcDbLine
 10
0.0
 20
72.27000000000001
 30
0.0
 11
0.0
 21
6.269999999999997
 31
0.0
  0
LINE
  5
CD52
330
CD46
100
AcDbEntity
  8
0
100
AcDbLine
 10
-1.499999999999989
 20
72.27000000000001
 30
0.0
 11
-1.499999999999989
 21
6.269999999999997
 31
0.0
  0
LINE
  5
CD53
330
CD46
100
AcDbEntity
  8
0
100
AcDbLine
 10
0.0
 20
80.27000000000001
 30
0.0
 11
0.0
 21
77.27000000000001
 31
0.0
  0
LINE
  5
CD54
330
CD46
100
AcDbEntity
  8
0
100
AcDbLine
 10
-1.499999999999996
 20
80.27000000000001
 30
0.0
 11
-1.499999999999996
 21
77.27000000000001
 31
0.0
  0
LINE
  5
CD55
330
CD46
100
AcDbEntity
  8
0
100
AcDbLine
 10
0.0
 20
1.270000000000001
 30
0.0
 11
0.0
 21
-0.0003899405809504
 31
0.0
  0
LINE
  5
CD56
330
CD46
100
AcDbEntity
  8
0
100
AcDbLine
 10
-4.362741700911223
 20
-2.263131641492212
 30
0.0
 11
-62.91118318265863
 21
-2.26313164225673
 31
0.0
  0
LINE
  5
CD57
330
CD46
100
AcDbEntity
  8
0
100
AcDbLine
 10
-2.717240184541132
 20
-1.466158262545949
 30
0.0
 11
-2.28813620929857
 21
-1.037054287303387
 31
0.0
  0
LINE
  5
CD58
330
CD46
100
AcDbEntity
  8
0
100
AcDbLine
 10
-2.288136209298613
 20
-1.037054287303415
 30
0.0
 11
-1.675735931288074
 21
-0.4246540092928762
 31
0.0
  0
SPLINE
  5
CD59
330
CD46
100
AcDbEntity
  8
0
100
AcDbSpline
210
0.0
220
0.0
230
1.0
 70
     8
 71
     3
 72
     8
 73
     4
 74
     0
 42
0.000000001
 43
0.0000000001
 40
-1.0
 40
-1.0
 40
-1.0
 40
-1.0
 40
0.0
 40
0.0
 40
0.0
 40
0.0
 10
-1.675735931288078
 20
-0.4246540092928796
 30
0.0
 10
-1.572566966670508
 20
-0.3214850446753102
 30
0.0
 10
-1.500000000000006
 20
-0.1594792109354343
 30
0.0
 10
-1.500000000000006
 20
-0.0003899405809506
 30
0.0
  0
LINE
  5
CD5A
330
CD46
100
AcDbEntity
  8
0
100
AcDbLine
 10
-2.717240184541132
 20
-1.466158262545949
 30
0.0
 11
-2.364040347338823
 21
-1.819358099748258
 31
0.0
  0
SPLINE
  5
CD5B
330
CD46
100
AcDbEntity
  8
0
100
AcDbSpline
210
0.0
220
0.0
230
1.0
 70
     8
 71
     3
 72
     8
 73
     4
 74
     0
 42
0.000000001
 43
0.0000000001
 40
-1.0
 40
-1.0
 40
-1.0
 40
-1.0
 40
0.0
 40
0.0
 40
0.0
 40
0.0
 10
-4.362741700911236
 20
-2.263131641492181
 30
0.0
 10
-3.73351840478409
 20
-2.078196639180864
 30
0.0
 10
-3.124319333760329
 20
-1.873237411765138
 30
0.0
 10
-2.717240184541165
 20
-1.466158262545975
 30
0.0
  0
SPLINE
  5
CD5C
330
CD46
100
AcDbEntity
  8
0
100
AcDbSpline
210
0.0
220
0.0
230
1.0
 70
     8
 71
     3
 72
     8
 73
     4
 74
     0
 42
0.000000001
 43
0.0000000001
 40
0.0
 40
0.0
 40
0.0
 40
0.0
 40
1.0
 40
1.0
 40
1.0
 40
1.0
 10
-1.656580012761343
 20
-2.526818434325796
 30
0.0
 10
-2.063659161980507
 20
-2.933897583544959
 30
0.0
 10
-3.178158037514294
 20
-2.633557006450659
 30
0.0
 10
-4.362741700911213
 20
-2.263131641492204
 30
0.0
  0
LINE
  5
CD5D
330
CD46
100
AcDbEntity
  8
0
100
AcDbLine
 10
-2.364040347338823
 20
-1.819358099748258
 30
0.0
 11
-1.65658001276131
 21
-2.52681843432577
 31
0.0
  0
LINE
  5
CD5E
330
CD46
100
AcDbEntity
  8
0
100
AcDbLine
 10
-0.6150757595082639
 20
-1.485314181072685
 30
0.0
 11
-1.227476037518803
 21
-2.097714459083225
 31
0.0
  0
LINE
  5
CD5F
330
CD46
100
AcDbEntity
  8
0
100
AcDbLine
 10
-0.6150757595082564
 20
-1.4853141810727
 30
0.0
 11
-1.322536092810032
 21
-0.7778538477709251
 31
0.0
  0
LINE
  5
CD60
330
CD46
100
AcDbEntity
  8
0
100
AcDbLine
 10
-1.322536092810032
 20
-0.7778538477709251
 30
0.0
 11
-1.675735931288078
 21
-0.4246540092928793
 31
0.0
  0
LINE
  5
CD61
330
CD46
100
AcDbEntity
  8
0
100
AcDbLine
 10
-2.28813620929857
 20
-1.037054287303387
 30
0.0
 11
-1.227476037518751
 21
-2.097714459083206
 31
0.0
  0
LINE
  5
CD62
330
CD46
100
AcDbEntity
  8
0
100
AcDbLine
 10
-1.227476037518751
 20
-2.097714459083206
 30
0.0
 11
-1.65658001276131
 21
-2.52681843432577
 31
0.0
  0
LINE
  5
CD63
330
CD46
100
AcDbEntity
  8
0
100
AcDbLine
 10
-1.499999999999995
 20
-0.0003899405809504
 30
0.0
 11
-1.000499995455809
 21
-0.0003899405809504
 31
0.0
  0
SPLINE
  5
CD64
330
CD46
100
AcDbEntity
  8
0
100
AcDbSpline
210
0.0
220
0.0
230
1.0
 70
     8
 71
     3
 72
     8
 73
     4
 74
     0
 42
0.000000001
 43
0.0000000001
 40
0.0
 40
0.0
 40
0.0
 40
0.0
 40
1.0
 40
1.0
 40
1.0
 40
1.0
 10
-0.0000000000000064
 20
-0.0003899405809506
 30
0.0
 10
-0.0000000000000064
 20
-0.5572023868216434
 30
0.0
 10
-0.2539843833467641
 20
-1.124222804911208
 30
0.0
 10
-0.6150757595082565
 20
-1.485314181072701
 30
0.0
  0
LINE
  5
CD65
330
CD46
100
AcDbEntity
  8
0
100
AcDbLine
 10
-1.000499995455809
 20
-0.0003899405809504
 30
0.0
 11
0.0
 21
-0.0003899405809504
 31
0.0
  0
LINE
  5
CD66
330
CD46
100
AcDbEntity
  8
0
100
AcDbLine
 10
-1.499999999999993
 20
-0.0003899405809503
 30
0.0
 11
-1.499999999999993
 21
1.270000000000001
 31
0.0
  0
LINE
  5
CD67
330
CD46
100
AcDbEntity
  8
0
100
AcDbLine
 10
0.0
 20
80.27000000000001
 30
0.0
 11
0.0
 21
240.67
 31
0.0
  0
LINE
  5
CD68
330
CD46
100
AcDbEntity
  8
0
100
AcDbLine
 10
0.0
 20
240.67
 30
0.0
 11
-2.099999999999992
 21
240.67
 31
0.0
  0
LINE
  5
CD69
330
CD46
100
AcDbEntity
  8
0
100
AcDbLine
 10
-2.100000000000001
 20
80.27000000000001
 30
0.0
 11
0.0
 21
80.27000000000001
 31
0.0
  0
LINE
  5
CD6A
330
CD46
100
AcDbEntity
  8
0
100
AcDbLine
 10
-38.50000000000001
 20
80.27000000000001
 30
0.0
 11
-43.5
 21
85.27000000000001
 31
0.0
  0
LINE
  5
CD6B
330
CD46
100
AcDbEntity
  8
0
100
AcDbLine
 10
-43.5
 20
235.67
 30
0.0
 11
-38.50000000000001
 21
240.67
 31
0.0
  0
LINE
  5
CD6C
330
CD46
100
AcDbEntity
  8
0
100
AcDbLine
 10
-82.00306627385996
 20
-28.42608254450011
 30
0.0
 11
-82.00306627385996
 21
-21.3550147326346
 31
0.0
  0
LINE
  5
CD6D
330
CD46
100
AcDbEntity
  8
0
100
AcDbLine
 10
-43.5
 20
85.27000000000001
 30
0.0
 11
-43.5
 21
235.67
 31
0.0
  0
LINE
  5
CD6E
330
CD46
100
AcDbEntity
  8
0
100
AcDbLine
 10
-2.100000000000001
 20
80.27000000000001
 30
0.0
 11
-38.50000000000001
 21
80.27000000000001
 31
0.0
  0
LINE
  5
CD6F
330
CD46
100
AcDbEntity
  8
0
100
AcDbLine
 10
-38.50000000000001
 20
240.67
 30
0.0
 11
-2.09999999999999
 21
240.67
 31
0.0
  0
CIRCLE
  5
CD70
330
CD46
100
AcDbEntity
  8
0
100
AcDbCircle
 10
-35.5
 20
232.77
 30
0.0
 40
2.5
  0
CIRCLE
  5
CD71
330
CD46
100
AcDbEntity
  8
0
100
AcDbCircle
 10
-35.5
 20
212.77
 30
0.0
 40
2.5
  0
CIRCLE
  5
CD72
330
CD46
100
AcDbEntity
  8
0
100
AcDbCircle
 10
-35.5
 20
192.77
 30
0.0
 40
2.5
  0
CIRCLE
  5
CD73
330
CD46
100
AcDbEntity
  8
0
100
AcDbCircle
 10
-35.5
 20
172.77
 30
0.0
 40
2.5
  0
CIRCLE
  5
CD74
330
CD46
100
AcDbEntity
  8
0
100
AcDbCircle
 10
-35.5
 20
152.77
 30
0.0
 40
2.5
  0
CIRCLE
  5
CD75
330
CD46
100
AcDbEntity
  8
0
100
AcDbCircle
 10
-35.5
 20
132.77
 30
0.0
 40
2.5
  0
CIRCLE
  5
CD76
330
CD46
100
AcDbEntity
  8
0
100
AcDbCircle
 10
-35.5
 20
112.77
 30
0.0
 40
2.5
  0
CIRCLE
  5
CD77
330
CD46
100
AcDbEntity
  8
0
100
AcDbCircle
 10
-35.5
 20
92.76999999999999
 30
0.0
 40
2.5
  0
LINE
  5
CD78
330
CD46
100
AcDbEntity
  8
0
100
AcDbLine
 10
-62.91118318265863
 20
-2.26313164225673
 30
0.0
 11
-82.00306627385996
 21
-21.3550147326346
 31
0.0
  0
LINE
  5
CD79
330
CD46
100
AcDbEntity
  8
0
100
AcDbLine
 10
-1.65658001276131
 20
-2.52681843432577
 30
0.0
 11
-54.77945519839777
 21
-55.64969361996226
 31
0.0
  0
LINE
  5
CD7A
330
CD46
100
AcDbEntity
  8
0
100
AcDbLine
 10
-54.77945519839774
 20
-55.64969361996226
 30
0.0
 11
-56.26437943888942
 21
-54.16476937947044
 31
0.0
  0
LINE
  5
CD7B
330
CD46
100
AcDbEntity
  8
0
100
AcDbLine
 10
-56.26437943888952
 20
-54.16476937947052
 30
0.0
 11
-82.00306627385996
 21
-28.42608254450011
 31
0.0
  0
CIRCLE
  5
CD7C
330
CD46
100
AcDbEntity
  8
0
100
AcDbCircle
 10
-71.04291116530767
 20
-21.70856812338872
 30
0.0
 40
2.5
  0
ARC
  5
CD7D
330
CD46
100
AcDbEntity
  8
0
100
AcDbCircle
 10
-51.59747468238809
 20
-9.33419945291363
 30
0.0
 40
0.8000000000000015
100
AcDbArc
 50
344.9999999989572
 51
355.4526675359234
  0
LINE
  5
CD7E
330
CD46
100
AcDbEntity
  8
0
100
AcDbLine
 10
-50.82473402136063
 20
-9.541254689009706
 30
0.0
 11
-51.94545336164679
 21
-13.72383620767836
 31
0.0
  0
ARC
  5
CD7F
330
CD46
100
AcDbEntity
  8
0
100
AcDbCircle
 10
-52.71819402267426
 20
-13.51678097158229
 30
0.0
 40
0.8
100
AcDbArc
 50
224.9999999989572
 51
344.9999999989576
  0
LINE
  5
CD80
330
CD46
100
AcDbEntity
  8
0
100
AcDbLine
 10
-53.28387944763379
 20
-14.08246639652124
 30
0.0
 11
-56.34574162605708
 21
-11.02060421798654
 31
0.0
  0
ARC
  5
CD81
330
CD46
100
AcDbEntity
  8
0
100
AcDbCircle
 10
-55.78005620109753
 20
-10.45491879304759
 30
0.0
 40
0.8000000000000014
100
AcDbArc
 50
104.9999999989575
 51
224.9999999989572
  0
LINE
  5
CD82
330
CD46
100
AcDbEntity
  8
0
100
AcDbLine
 10
-55.9871114371655
 20
-9.682178132012559
 30
0.0
 11
-51.80452991845606
 21
-8.561458791878598
 31
0.0
  0
ARC
  5
CD83
330
CD46
100
AcDbEntity
  8
0
100
AcDbCircle
 10
-51.59747468238809
 20
-9.33419945291363
 30
0.0
 40
0.8000000000000014
100
AcDbArc
 50
49.59733246198601
 51
104.9999999989581
  0
LINE
  5
CD84
330
CD46
100
AcDbEntity
  8
0
100
AcDbLine
 10
-51.07895039795263
 20
-8.724992947325674
 30
0.0
 11
-50.79999294004348
 21
-9.397625556585486
 31
0.0
  0
ARC
  5
CD85
330
CD46
100
AcDbEntity
  8
0
100
AcDbCircle
 10
-55.13300858838519
 20
-12.86973335878203
 30
0.0
 40
0.8000000000000015
100
AcDbArc
 50
349.2288663267692
 51
100.7711336711455
  0
ENDBLK
  5
CD48
330
CD46
100
AcDbEntity
  8
0
100
AcDbBlockEnd
  0
BLOCK
  5
CD87
330
CD86
100
AcDbEntity
  8
0
100
AcDbBlockBegin
  2
SPR60_240-Top
 70
     0
 10
0.0
 20
0.0
 30
0.0
  3
SPR60_240-Top
  1

  0
LINE
  5
CD89
330
CD86
100
AcDbEntity
  8
0
100
AcDbLine
 10
72.52709056099999
 20
-1.499999999999989
 30
0.0
 11
72.52709056099999
 21
0.0
 31
0.0
  0
LINE
  5
CD8A
330
CD86
100
AcDbEntity
  8
0
100
AcDbLine
 10
-67.52709056100001
 20
0.0
 30
0.0
 11
-72.52709056100001
 21
0.0
 31
0.0
  0
LINE
  5
CD8B
330
CD86
100
AcDbEntity
  8
0
100
AcDbLine
 10
72.52709056099999
 20
0.0
 30
0.0
 11
67.52709056099999
 21
0.0
 31
0.0
  0
LINE
  5
CD8C
330
CD86
100
AcDbEntity
  8
0
100
AcDbLine
 10
-72.52709056100001
 20
0.0
 30
0.0
 11
-72.52709056100001
 21
-1.500000000000011
 31
0.0
  0
LINE
  5
CD8D
330
CD86
100
AcDbEntity
  8
0
100
AcDbLine
 10
-72.52709056100001
 20
-1.500000000000011
 30
0.0
 11
-67.52709056100001
 21
-1.50000000000001
 31
0.0
  0
LINE
  5
CD8E
330
CD86
100
AcDbEntity
  8
0
100
AcDbLine
 10
-67.52709056100001
 20
-1.50000000000001
 30
0.0
 11
-67.52709056100001
 21
0.0
 31
0.0
  0
LINE
  5
CD8F
330
CD86
100
AcDbEntity
  8
0
100
AcDbLine
 10
67.52709056099999
 20
-1.49999999999999
 30
0.0
 11
72.52709056099999
 21
-1.499999999999989
 31
0.0
  0
LINE
  5
CD90
330
CD86
100
AcDbEntity
  8
0
100
AcDbLine
 10
67.52709056099999
 20
0.0
 30
0.0
 11
67.52709056099999
 21
-1.49999999999999
 31
0.0
  0
LINE
  5
CD91
330
CD86
100
AcDbEntity
  8
0
100
AcDbLine
 10
-67.52709056100001
 20
0.0
 30
0.0
 11
-29.40000000000001
 21
0.0
 31
0.0
  0
LINE
  5
CD92
330
CD86
100
AcDbEntity
  8
0
100
AcDbLine
 10
29.40000000000001
 20
0.0
 30
0.0
 11
67.52709056099999
 21
0.0
 31
0.0
  0
LINE
  5
CD93
330
CD86
100
AcDbEntity
  8
0
100
AcDbLine
 10
31.41246117974981
 20
-1.499999999999995
 30
0.0
 11
67.52709056099999
 21
-1.49999999999999
 31
0.0
  0
LINE
  5
CD94
330
CD86
100
AcDbEntity
  8
0
100
AcDbLine
 10
-67.52709056100001
 20
-1.50000000000001
 30
0.0
 11
-31.41246117974981
 21
-1.500000000000005
 31
0.0
  0
LINE
  5
CD95
330
CD86
100
AcDbEntity
  8
0
100
AcDbLine
 10
29.40000000000001
 20
0.0
 30
0.0
 11
-29.40000000000001
 21
0.0
 31
0.0
  0
LINE
  5
CD96
330
CD86
100
AcDbEntity
  8
0
100
AcDbLine
 10
31.49999999999995
 20
-38.50000000000001
 30
0.0
 11
31.5
 21
-2.09999999999999
 31
0.0
  0
LINE
  5
CD97
330
CD86
100
AcDbEntity
  8
0
100
AcDbLine
 10
-31.50000000000001
 20
-2.100000000000006
 30
0.0
 11
-31.5
 21
-38.50000000000001
 31
0.0
  0
LINE
  5
CD98
330
CD86
100
AcDbEntity
  8
0
100
AcDbLine
 10
30.0
 20
-2.099999999999992
 30
0.0
 11
29.99999999999995
 21
-38.50000000000001
 31
0.0
  0
LINE
  5
CD99
330
CD86
100
AcDbEntity
  8
0
100
AcDbLine
 10
-29.40000000000001
 20
-1.500000000000005
 30
0.0
 11
29.40000000000001
 21
-1.499999999999992
 31
0.0
  0
LINE
  5
CD9A
330
CD86
100
AcDbEntity
  8
0
100
AcDbLine
 10
-30.0
 20
-38.50000000000001
 30
0.0
 11
-30.00000000000001
 21
-2.100000000000004
 31
0.0
  0
LINE
  5
CD9B
330
CD86
100
AcDbEntity
  8
0
100
AcDbLine
 10
29.99999999999993
 20
-43.5
 30
0.0
 11
31.49999999999993
 21
-43.5
 31
0.0
  0
LINE
  5
CD9C
330
CD86
100
AcDbEntity
  8
0
100
AcDbLine
 10
31.49999999999993
 20
-43.5
 30
0.0
 11
31.49999999999995
 21
-38.50000000000001
 31
0.0
  0
LINE
  5
CD9D
330
CD86
100
AcDbEntity
  8
0
100
AcDbLine
 10
-31.5
 20
-38.50000000000001
 30
0.0
 11
-31.5
 21
-43.50000000000001
 31
0.0
  0
LINE
  5
CD9E
330
CD86
100
AcDbEntity
  8
0
100
AcDbLine
 10
-31.5
 20
-43.50000000000001
 30
0.0
 11
-30.0
 21
-43.50000000000001
 31
0.0
  0
LINE
  5
CD9F
330
CD86
100
AcDbEntity
  8
0
100
AcDbLine
 10
31.49999999999995
 20
-38.50000000000001
 30
0.0
 11
29.99999999999995
 21
-38.50000000000001
 31
0.0
  0
LINE
  5
CDA0
330
CD86
100
AcDbEntity
  8
0
100
AcDbLine
 10
29.99999999999995
 20
-38.50000000000001
 30
0.0
 11
29.99999999999993
 21
-43.5
 31
0.0
  0
LINE
  5
CDA1
330
CD86
100
AcDbEntity
  8
0
100
AcDbLine
 10
-30.0
 20
-43.50000000000001
 30
0.0
 11
-30.0
 21
-38.50000000000001
 31
0.0
  0
LINE
  5
CDA2
330
CD86
100
AcDbEntity
  8
0
100
AcDbLine
 10
-30.0
 20
-38.50000000000001
 30
0.0
 11
-31.5
 21
-38.50000000000001
 31
0.0
  0
LINE
  5
CDA3
330
CD86
100
AcDbEntity
  8
0
100
AcDbLine
 10
31.5
 20
-82.00306627385996
 30
0.0
 11
30.0
 21
-82.00306627385996
 31
0.0
  0
LINE
  5
CDA4
330
CD86
100
AcDbEntity
  8
0
100
AcDbLine
 10
-29.99999999999998
 20
-82.00306627385996
 30
0.0
 11
-31.49999999999999
 21
-82.00306627385996
 31
0.0
  0
LINE
  5
CDA5
330
CD86
100
AcDbEntity
  8
0
100
AcDbLine
 10
31.50000000000132
 20
-62.91118318265863
 30
0.0
 11
31.5
 21
-82.00306627385996
 31
0.0
  0
LINE
  5
CDA6
330
CD86
100
AcDbEntity
  8
0
100
AcDbLine
 10
30.00000000000105
 20
-62.91118318265863
 30
0.0
 11
30.0
 21
-82.00306627385996
 31
0.0
  0
ELLIPSE
  5
CDA7
330
CD86
100
AcDbEntity
  8
0
100
AcDbEllipse
 10
29.39999999999999
 20
-56.26437943888952
 30
0.0
 11
0.6000000000000087
 21
0.0000000000000158
 31
0.0
210
0.0
220
0.0
230
1.0
 40
0.7071067811864291
 41
0.0
 42
1.570796326794826
  0
LINE
  5
CDA8
330
CD86
100
AcDbEntity
  8
0
100
AcDbLine
 10
31.50000000000132
 20
-62.91118318265863
 30
0.0
 11
30.00000000000105
 21
-62.91118318265863
 31
0.0
  0
LINE
  5
CDA9
330
CD86
100
AcDbEntity
  8
0
100
AcDbLine
 10
31.5
 20
-43.5
 30
0.0
 11
31.50000000000132
 21
-62.91118318265863
 31
0.0
  0
LINE
  5
CDAA
330
CD86
100
AcDbEntity
  8
0
100
AcDbLine
 10
-31.50000000000107
 20
-62.91118318265866
 30
0.0
 11
-31.50000000000108
 21
-43.50000000000001
 31
0.0
  0
ELLIPSE
  5
CDAB
330
CD86
100
AcDbEntity
  8
0
100
AcDbEllipse
 10
-26.50000000000001
 20
-1.227476037518804
 30
0.0
 11
-1.5
 21
0.0000000000001092
 31
0.0
210
0.0
220
0.0
230
1.0
 40
0.7071067811865474
 41
1.570796326795026
 42
2.705254581962131
  0
LINE
  5
CDAC
330
CD86
100
AcDbEntity
  8
0
100
AcDbLine
 10
-26.50000000000001
 20
-2.288136209298604
 30
0.0
 11
-28.79315533855962
 21
-2.28813620929858
 31
0.0
  0
LINE
  5
CDAD
330
CD86
100
AcDbEntity
  8
0
100
AcDbLine
 10
-28.79315533855962
 20
-2.28813620929858
 30
0.0
 11
-29.40000000000001
 21
-2.717240184541143
 31
0.0
  0
LINE
  5
CDAE
330
CD86
100
AcDbEntity
  8
0
100
AcDbLine
 10
29.39999999999999
 20
-2.717240184541132
 30
0.0
 11
28.7931553385596
 21
-2.28813620929857
 31
0.0
  0
LINE
  5
CDAF
330
CD86
100
AcDbEntity
  8
0
100
AcDbLine
 10
28.7931553385596
 20
-2.28813620929857
 30
0.0
 11
26.49999999999999
 21
-2.288136209298595
 31
0.0
  0
ELLIPSE
  5
CDB0
330
CD86
100
AcDbEntity
  8
0
100
AcDbEllipse
 10
26.49999999999999
 20
-1.227476037518792
 30
0.0
 11
-1.5
 21
-0.0000000000000003
 31
0.0
210
0.0
220
0.0
230
1.0
 40
0.7071067811865474
 41
0.43633807162791
 42
1.570796326794896
  0
SPLINE
  5
CDB1
330
CD86
100
AcDbEntity
  8
0
100
AcDbSpline
210
0.0
220
0.0
230
1.0
 70
     8
 71
     3
 72
     8
 73
     4
 74
     0
 42
0.000000001
 43
0.0000000001
 40
-1.0
 40
-1.0
 40
-1.0
 40
-1.0
 40
0.0
 40
0.0
 40
0.0
 40
0.0
 10
-25.01767776087199
 20
-1.500000000000017
 30
0.0
 10
-24.9725199207395
 20
-1.500000000000017
 30
0.0
 10
-25.01586474390232
 20
-1.572566966670507
 30
0.0
 10
-25.14054197002045
 20
-1.675735931288089
 30
0.0
  0
SPLINE
  5
CDB2
330
CD86
100
AcDbEntity
  8
0
100
AcDbSpline
210
0.0
220
0.0
230
1.0
 70
     8
 71
     3
 72
     8
 73
     4
 74
     0
 42
0.000000001
 43
0.0000000001
 40
-1.0
 40
-1.0
 40
-1.0
 40
-1.0
 40
0.0
 40
0.0
 40
0.0
 40
0.0
 10
25.14054197002045
 20
-1.675735931288078
 30
0.0
 10
25.01586474390226
 20
-1.572566966670508
 30
0.0
 10
24.97251992074071
 20
-1.500000000000006
 30
0.0
 10
25.01767776087195
 20
-1.500000000000006
 30
0.0
  0
LINE
  5
CDB3
330
CD86
100
AcDbEntity
  8
0
100
AcDbLine
 10
-30.00000000000083
 20
-62.91118318265866
 30
0.0
 11
-31.50000000000107
 21
-62.91118318265866
 31
0.0
  0
LINE
  5
CDB4
330
CD86
100
AcDbEntity
  8
0
100
AcDbLine
 10
-30.00000000000001
 20
-43.50000000000001
 30
0.0
 11
-30.00000000000083
 21
-62.91118318265866
 31
0.0
  0
SPLINE
  5
CDB5
330
CD86
100
AcDbEntity
  8
0
100
AcDbSpline
210
0.0
220
0.0
230
1.0
 70
     8
 71
     3
 72
     8
 73
     4
 74
     0
 42
0.000000001
 43
0.0000000001
 40
-1.0
 40
-1.0
 40
-1.0
 40
-1.0
 40
0.0
 40
0.0
 40
0.0
 40
0.0
 10
-29.40000000000001
 20
-2.717240184541143
 30
0.0
 10
-29.714159265359
 20
-3.124319333760578
 30
0.0
 10
-30.00000000000002
 20
-3.733518404784104
 30
0.0
 10
-30.00000000000003
 20
-4.36274170091125
 30
0.0
  0
LINE
  5
CDB6
330
CD86
100
AcDbEntity
  8
0
100
AcDbLine
 10
-29.40000000000001
 20
-2.717240184541143
 30
0.0
 11
-29.40000000000001
 21
-2.364040347338413
 31
0.0
  0
LINE
  5
CDB7
330
CD86
100
AcDbEntity
  8
0
100
AcDbLine
 10
-29.40000000000001
 20
-2.364040347338413
 30
0.0
 11
-29.40000000000001
 21
-1.656580012761321
 31
0.0
  0
SPLINE
  5
CDB8
330
CD86
100
AcDbEntity
  8
0
100
AcDbSpline
210
0.0
220
0.0
230
1.0
 70
     8
 71
     3
 72
     8
 73
     4
 74
     0
 42
0.000000001
 43
0.0000000001
 40
0.8233926083861708
 40
0.8233926083861708
 40
0.8233926083861708
 40
0.8233926083861708
 40
1.0
 40
1.0
 40
1.0
 40
1.0
 10
-29.9683307934395
 20
-1.934942494001972
 30
0.0
 10
-29.78528852951265
 20
-1.822430928281035
 30
0.0
 10
-29.59418996942229
 20
-1.728473199485342
 30
0.0
 10
-29.40000000000001
 20
-1.656580012761321
 30
0.0
  0
LINE
  5
CDB9
330
CD86
100
AcDbEntity
  8
0
100
AcDbLine
 10
-29.40000000000001
 20
-1.656580012761321
 30
0.0
 11
-29.17856242236216
 21
-1.49999999999999
 31
0.0
  0
LINE
  5
CDBA
330
CD86
100
AcDbEntity
  8
0
100
AcDbLine
 10
-28.79315533855962
 20
-2.28813620929858
 30
0.0
 11
-28.79315533855962
 21
-1.500000000000005
 31
0.0
  0
LINE
  5
CDBB
330
CD86
100
AcDbEntity
  8
0
100
AcDbLine
 10
-25.14054197002046
 20
-1.675735931288089
 30
0.0
 11
-25.14054197002046
 21
-1.500000000000004
 31
0.0
  0
LINE
  5
CDBC
330
CD86
100
AcDbEntity
  8
0
100
AcDbLine
 10
30.00000000000105
 20
-62.91118318265863
 30
0.0
 11
30.00000000000105
 21
-43.5
 31
0.0
  0
LINE
  5
CDBD
330
CD86
100
AcDbEntity
  8
0
100
AcDbLine
 10
29.39999999999999
 20
-2.717240184541132
 30
0.0
 11
29.39999999999999
 21
-2.364040347338823
 31
0.0
  0
SPLINE
  5
CDBE
330
CD86
100
AcDbEntity
  8
0
100
AcDbSpline
210
0.0
220
0.0
230
1.0
 70
     8
 71
     3
 72
     8
 73
     4
 74
     0
 42
0.000000001
 43
0.0000000001
 40
-1.0
 40
-1.0
 40
-1.0
 40
-1.0
 40
0.0
 40
0.0
 40
0.0
 40
0.0
 10
30.00000000000001
 20
-4.362741700911236
 30
0.0
 10
30.0
 20
-3.73351840478409
 30
0.0
 10
29.71415926535895
 20
-3.124319333760329
 30
0.0
 10
29.39999999999999
 20
-2.717240184541165
 30
0.0
  0
SPLINE
  5
CDBF
330
CD86
100
AcDbEntity
  8
0
100
AcDbSpline
210
0.0
220
0.0
230
1.0
 70
     8
 71
     3
 72
     8
 73
     4
 74
     0
 42
0.000000001
 43
0.0000000001
 40
0.0
 40
0.0
 40
0.0
 40
0.0
 40
0.1766073916138313
 40
0.1766073916138313
 40
0.1766073916138313
 40
0.1766073916138313
 10
29.39999999999999
 20
-1.656580012761343
 30
0.0
 10
29.59418996942226
 20
-1.728473199485317
 30
0.0
 10
29.7852885295126
 20
-1.82243092828098
 30
0.0
 10
29.96833079343944
 20
-1.934942494001898
 30
0.0
  0
LINE
  5
CDC0
330
CD86
100
AcDbEntity
  8
0
100
AcDbLine
 10
29.39999999999999
 20
-2.364040347338823
 30
0.0
 11
29.39999999999999
 21
-1.65658001276131
 31
0.0
  0
LINE
  5
CDC1
330
CD86
100
AcDbEntity
  8
0
100
AcDbLine
 10
25.14054197002045
 20
-1.499999999999996
 30
0.0
 11
25.14054197002043
 21
-1.675735931288078
 31
0.0
  0
LINE
  5
CDC2
330
CD86
100
AcDbEntity
  8
0
100
AcDbLine
 10
28.7931553385596
 20
-2.28813620929857
 30
0.0
 11
28.7931553385596
 21
-1.499999999999995
 31
0.0
  0
LINE
  5
CDC3
330
CD86
100
AcDbEntity
  8
0
100
AcDbLine
 10
29.17856242236215
 20
-1.499999999999988
 30
0.0
 11
29.39999999999999
 21
-1.65658001276131
 31
0.0
  0
LINE
  5
CDC4
330
CD86
100
AcDbEntity
  8
0
100
AcDbLine
 10
-31.50000000000107
 20
-62.91118318265866
 30
0.0
 11
-31.49999999999999
 21
-82.00306627385996
 31
0.0
  0
LINE
  5
CDC5
330
CD86
100
AcDbEntity
  8
0
100
AcDbLine
 10
-30.00000000000083
 20
-62.91118318265866
 30
0.0
 11
-29.99999999999998
 21
-82.00306627385996
 31
0.0
  0
ELLIPSE
  5
CDC6
330
CD86
100
AcDbEntity
  8
0
100
AcDbEllipse
 10
-2.500000000000008
 20
-0.1668158671531851
 30
0.0
 11
2.5
 21
0.000000000000183
 31
0.0
210
0.0
220
0.0
230
1.0
 40
0.7071067811865474
 41
3.995971004506731
 42
4.712388980384622
  0
LINE
  5
CDC7
330
CD86
100
AcDbEntity
  8
0
100
AcDbLine
 10
-4.918289920131918
 20
-1.5
 30
0.0
 11
-4.918289920131918
 21
-1.675735931288084
 31
0.0
  0
ELLIPSE
  5
CDC8
330
CD86
100
AcDbEntity
  8
0
100
AcDbEllipse
 10
-2.500000000000008
 20
-1.227476038932987
 30
0.0
 11
-2.5
 21
-0.0000000000000002
 31
0.0
210
0.0
220
0.0
230
1.0
 40
0.7071067811865472
 41
0.2563733261914329
 42
1.570796326794896
  0
LINE
  5
CDC9
330
CD86
100
AcDbEntity
  8
0
100
AcDbLine
 10
-2.500000000000008
 20
-1.934582820119549
 30
0.0
 11
2.499999999999991
 21
-1.934582820119548
 31
0.0
  0
LINE
  5
CDCA
330
CD86
100
AcDbEntity
  8
0
100
AcDbLine
 10
2.499999999999991
 20
-2.995242991899371
 30
0.0
 11
-2.500000000000008
 21
-2.995242991899371
 31
0.0
  0
ELLIPSE
  5
CDCB
330
CD86
100
AcDbEntity
  8
0
100
AcDbEllipse
 10
2.49999999999999
 20
-0.1668158671531843
 30
0.0
 11
2.5
 21
0.0000000000000006
 31
0.0
210
0.0
220
0.0
230
1.0
 40
0.7071067811865472
 41
4.712388980384689
 42
5.428806956262512
  0
ELLIPSE
  5
CDCC
330
CD86
100
AcDbEntity
  8
0
100
AcDbEllipse
 10
2.49999999999999
 20
-1.227476038932986
 30
0.0
 11
2.5
 21
0.0000000000000008
 31
0.0
210
0.0
220
0.0
230
1.0
 40
0.7071067811865472
 41
4.712388980384689
 42
6.026811980988152
  0
LINE
  5
CDCD
330
CD86
100
AcDbEntity
  8
0
100
AcDbLine
 10
4.918289920131896
 20
-1.675735931288082
 30
0.0
 11
4.918289920131896
 21
-1.499999999999998
 31
0.0
  0
SPLINE
  5
CDCE
330
CD86
100
AcDbEntity
  8
0
100
AcDbSpline
210
0.0
220
0.0
230
1.0
 70
     8
 71
     3
 72
     8
 73
     4
 74
     0
 42
0.000000001
 43
0.0000000001
 40
-1.0
 40
-1.0
 40
-1.0
 40
-1.0
 40
0.0
 40
0.0
 40
0.0
 40
0.0
 10
-4.918289920131918
 20
-1.675735931288084
 30
0.0
 10
-4.991899723307136
 20
-1.567383125811548
 30
0.0
 10
-5.016094836485417
 20
-1.500000000000012
 30
0.0
 10
-4.98943351381297
 20
-1.500000000000013
 30
0.0
  0
SPLINE
  5
CDCF
330
CD86
100
AcDbEntity
  8
0
100
AcDbSpline
210
0.0
220
0.0
230
1.0
 70
     8
 71
     3
 72
     8
 73
     4
 74
     0
 42
0.000000001
 43
0.0000000001
 40
-1.0
 40
-1.0
 40
-1.0
 40
-1.0
 40
0.0
 40
0.0
 40
0.0
 40
0.0
 10
4.989433513812953
 20
-1.500000000000011
 30
0.0
 10
5.016094836485414
 20
-1.500000000000011
 30
0.0
 10
4.991899723307441
 20
-1.567383125811555
 30
0.0
 10
4.918289920131893
 20
-1.675735931288082
 30
0.0
  0
LINE
  5
CDD0
330
CD86
100
AcDbEntity
  8
0
100
AcDbLine
 10
-29.39999999999999
 20
-55.8401153701776
 30
0.0
 11
29.39999999999999
 21
-55.84011537017758
 31
0.0
  0
ELLIPSE
  5
CDD1
330
CD86
100
AcDbEntity
  8
0
100
AcDbEllipse
 10
-29.39999999999999
 20
-56.26437943888955
 30
0.0
 11
-0.6000000000000087
 21
-0.000000000000009
 31
0.0
210
0.0
220
0.0
230
1.0
 40
0.7071067811865252
 41
4.712388980384634
 42
6.283185307179501
  0
ARC
  5
CDD2
330
CD86
100
AcDbEntity
  8
0
100
AcDbCircle
 10
29.39999999999999
 20
-2.099999999999997
 30
0.0
 40
0.600000000000005
100
AcDbArc
 50
0.0
 51
89.99999999999916
  0
ARC
  5
CDD3
330
CD86
100
AcDbEntity
  8
0
100
AcDbCircle
 10
29.39999999999999
 20
-2.099999999999997
 30
0.0
 40
2.100000000000004
100
AcDbArc
 50
0.0
 51
89.99999999999976
  0
ARC
  5
CDD4
330
CD86
100
AcDbEntity
  8
0
100
AcDbCircle
 10
-29.40000000000001
 20
-2.100000000000006
 30
0.0
 40
0.6000000000000006
100
AcDbArc
 50
89.99999999999957
 51
180.0
  0
ARC
  5
CDD5
330
CD86
100
AcDbEntity
  8
0
100
AcDbCircle
 10
-29.40000000000001
 20
-2.100000000000006
 30
0.0
 40
2.099999999999999
100
AcDbArc
 50
89.99999999999989
 51
180.0
  0
ENDBLK
  5
CD88
330
CD86
100
AcDbEntity
  8
0
100
AcDbBlockEnd
  0
BLOCK
  5
CDD7
330
CDD6
100
AcDbEntity
  8
0
100
AcDbBlockBegin
  2
SPR60_240-Bottom
 70
     0
 10
0.0
 20
0.0
 30
0.0
  3
SPR60_240-Bottom
  1

  0
LINE
  5
CDD9
330
CDD6
100
AcDbEntity
  8
0
100
AcDbLine
 10
72.52709056099998
 20
1.499999999999989
 30
0.0
 11
67.52709056099998
 21
1.49999999999999
 31
0.0
  0
LINE
  5
CDDA
330
CDD6
100
AcDbEntity
  8
0
100
AcDbLine
 10
67.52709056099998
 20
1.49999999999999
 30
0.0
 11
67.52709056099998
 21
0.0
 31
0.0
  0
LINE
  5
CDDB
330
CDD6
100
AcDbEntity
  8
0
100
AcDbLine
 10
67.52709056099998
 20
0.0
 30
0.0
 11
72.52709056099998
 21
0.0
 31
0.0
  0
LINE
  5
CDDC
330
CDD6
100
AcDbEntity
  8
0
100
AcDbLine
 10
72.52709056099998
 20
0.0
 30
0.0
 11
72.52709056099998
 21
1.499999999999989
 31
0.0
  0
LINE
  5
CDDD
330
CDD6
100
AcDbEntity
  8
0
100
AcDbLine
 10
-72.52709056099999
 20
0.0
 30
0.0
 11
-67.52709056099999
 21
0.0
 31
0.0
  0
LINE
  5
CDDE
330
CDD6
100
AcDbEntity
  8
0
100
AcDbLine
 10
-67.52709056099999
 20
1.50000000000001
 30
0.0
 11
-72.52709056099999
 21
1.500000000000011
 31
0.0
  0
LINE
  5
CDDF
330
CDD6
100
AcDbEntity
  8
0
100
AcDbLine
 10
-72.52709056099999
 20
1.500000000000011
 30
0.0
 11
-72.52709056099999
 21
0.0
 31
0.0
  0
LINE
  5
CDE0
330
CDD6
100
AcDbEntity
  8
0
100
AcDbLine
 10
-67.52709056099999
 20
0.0
 30
0.0
 11
-67.52709056099999
 21
1.50000000000001
 31
0.0
  0
LINE
  5
CDE1
330
CDD6
100
AcDbEntity
  8
0
100
AcDbLine
 10
67.52709056099998
 20
0.0
 30
0.0
 11
26.49999999999999
 21
0.0
 31
0.0
  0
LINE
  5
CDE2
330
CDD6
100
AcDbEntity
  8
0
100
AcDbLine
 10
-26.50000000000001
 20
0.0
 30
0.0
 11
-67.52709056099999
 21
0.0
 31
0.0
  0
LINE
  5
CDE3
330
CDD6
100
AcDbEntity
  8
0
100
AcDbLine
 10
-29.17856242236219
 20
1.500000000000003
 30
0.0
 11
-67.52709056099999
 21
1.50000000000001
 31
0.0
  0
LINE
  5
CDE4
330
CDD6
100
AcDbEntity
  8
0
100
AcDbLine
 10
67.52709056099998
 20
1.49999999999999
 30
0.0
 11
29.17856242236216
 21
1.499999999999996
 31
0.0
  0
LINE
  5
CDE5
330
CDD6
100
AcDbEntity
  8
0
100
AcDbLine
 10
26.49999999999999
 20
0.0
 30
0.0
 11
25.01767776087195
 21
0.0
 31
0.0
  0
LINE
  5
CDE6
330
CDD6
100
AcDbEntity
  8
0
100
AcDbLine
 10
-25.01767776087196
 20
0.0
 30
0.0
 11
-26.50000000000001
 21
0.0
 31
0.0
  0
SPLINE
  5
CDE7
330
CDD6
100
AcDbEntity
  8
0
100
AcDbSpline
210
0.0
220
0.0
230
1.0
 70
     8
 71
     3
 72
     8
 73
     4
 74
     0
 42
0.000000001
 43
0.0000000001
 40
0.0
 40
0.0
 40
0.0
 40
0.0
 40
1.0
 40
1.0
 40
1.0
 40
1.0
 10
-25.14054197002045
 20
0.6150757595082677
 30
0.0
 10
-25.01586474390232
 20
0.2539843833467315
 30
0.0
 10
-24.9725199207395
 20
0.0000000000000174
 30
0.0
 10
-25.01767776087199
 20
0.0000000000000175
 30
0.0
  0
SPLINE
  5
CDE8
330
CDD6
100
AcDbEntity
  8
0
100
AcDbSpline
210
0.0
220
0.0
230
1.0
 70
     8
 71
     3
 72
     8
 73
     4
 74
     0
 42
0.000000001
 43
0.0000000001
 40
0.0
 40
0.0
 40
0.0
 40
0.0
 40
1.0
 40
1.0
 40
1.0
 40
1.0
 10
-31.50000000000003
 20
4.362741700911231
 30
0.0
 10
-31.5
 20
3.178158037514314
 30
0.0
 10
-30.49955742875646
 20
2.063659161980757
 30
0.0
 10
-29.40000000000001
 20
1.656580012761321
 30
0.0
  0
LINE
  5
CDE9
330
CDD6
100
AcDbEntity
  8
0
100
AcDbLine
 10
-29.40000000000001
 20
1.656580012761321
 30
0.0
 11
-28.79315533855962
 21
1.227476037518762
 31
0.0
  0
LINE
  5
CDEA
330
CDD6
100
AcDbEntity
  8
0
100
AcDbLine
 10
-28.79315533855962
 20
1.227476037518762
 30
0.0
 11
-26.50000000000001
 21
1.227476037518782
 31
0.0
  0
ELLIPSE
  5
CDEB
330
CDD6
100
AcDbEntity
  8
0
100
AcDbEllipse
 10
-26.50000000000001
 20
0.1668158657389943
 30
0.0
 11
1.5
 21
-0.0000000000000003
 31
0.0
210
0.0
220
0.0
230
1.0
 40
0.7071067811865474
 41
0.4363380716279153
 42
1.570796326794896
  0
LINE
  5
CDEC
330
CDD6
100
AcDbEntity
  8
0
100
AcDbLine
 10
-25.01767776087196
 20
0.1805170265383266
 30
0.0
 11
-25.01767776087196
 21
0.0
 31
0.0
  0
SPLINE
  5
CDED
330
CDD6
100
AcDbEntity
  8
0
100
AcDbSpline
210
0.0
220
0.0
230
1.0
 70
     8
 71
     3
 72
     8
 73
     4
 74
     0
 42
0.000000001
 43
0.0000000001
 40
0.0
 40
0.0
 40
0.0
 40
0.0
 40
1.0
 40
1.0
 40
1.0
 40
1.0
 10
29.39999999999999
 20
1.656580012761343
 30
0.0
 10
30.49955742875632
 20
2.063659161980507
 30
0.0
 10
31.49999999999999
 20
3.178158037514294
 30
0.0
 10
31.50000000000001
 20
4.362741700911213
 30
0.0
  0
ELLIPSE
  5
CDEE
330
CDD6
100
AcDbEntity
  8
0
100
AcDbEllipse
 10
26.49999999999999
 20
0.1668158657389821
 30
0.0
 11
1.5
 21
-0.0000000000001098
 31
0.0
210
0.0
220
0.0
230
1.0
 40
0.7071067811865475
 41
1.570796326795026
 42
2.705254581962137
  0
LINE
  5
CDEF
330
CDD6
100
AcDbEntity
  8
0
100
AcDbLine
 10
26.49999999999999
 20
1.227476037518774
 30
0.0
 11
28.7931553385596
 21
1.227476037518751
 31
0.0
  0
LINE
  5
CDF0
330
CDD6
100
AcDbEntity
  8
0
100
AcDbLine
 10
28.7931553385596
 20
1.227476037518751
 30
0.0
 11
29.39999999999999
 21
1.65658001276131
 31
0.0
  0
SPLINE
  5
CDF1
330
CDD6
100
AcDbEntity
  8
0
100
AcDbSpline
210
0.0
220
0.0
230
1.0
 70
     8
 71
     3
 72
     8
 73
     4
 74
     0
 42
0.000000001
 43
0.0000000001
 40
0.0
 40
0.0
 40
0.0
 40
0.0
 40
1.0
 40
1.0
 40
1.0
 40
1.0
 10
25.01767776087195
 20
0.0000000000000064
 30
0.0
 10
24.97251992074071
 20
0.0000000000000064
 30
0.0
 10
25.01586474390226
 20
0.2539843833467641
 30
0.0
 10
25.14054197002045
 20
0.6150757595082565
 30
0.0
  0
LINE
  5
CDF2
330
CDD6
100
AcDbEntity
  8
0
100
AcDbLine
 10
25.01767776087195
 20
0.1805170265382047
 30
0.0
 11
25.01767776087195
 21
0.0
 31
0.0
  0
LINE
  5
CDF3
330
CDD6
100
AcDbEntity
  8
0
100
AcDbLine
 10
4.989433513812953
 20
0.0
 30
0.0
 11
25.01767776087195
 21
0.0
 31
0.0
  0
LINE
  5
CDF4
330
CDD6
100
AcDbEntity
  8
0
100
AcDbLine
 10
-25.01767776087196
 20
0.0
 30
0.0
 11
-4.98943351381297
 21
0.0
 31
0.0
  0
LINE
  5
CDF5
330
CDD6
100
AcDbEntity
  8
0
100
AcDbLine
 10
31.49999999999999
 20
56.26437943888952
 30
0.0
 11
31.49999999999997
 21
82.00306627385996
 31
0.0
  0
LINE
  5
CDF6
330
CDD6
100
AcDbEntity
  8
0
100
AcDbLine
 10
-31.49999999999995
 20
82.00306627385996
 30
0.0
 11
-31.49999999999999
 21
56.26437943888955
 31
0.0
  0
LINE
  5
CDF7
330
CDD6
100
AcDbEntity
  8
0
100
AcDbLine
 10
-29.99999999999998
 20
82.00306627385996
 30
0.0
 11
-29.99999999999999
 21
56.26437943888955
 31
0.0
  0
LINE
  5
CDF8
330
CDD6
100
AcDbEntity
  8
0
100
AcDbLine
 10
-29.39999999999999
 20
55.8401153701776
 30
0.0
 11
29.39999999999999
 21
55.84011537017758
 31
0.0
  0
LINE
  5
CDF9
330
CDD6
100
AcDbEntity
  8
0
100
AcDbLine
 10
30.0
 20
56.26437943888952
 30
0.0
 11
30.0
 21
82.00306627385996
 31
0.0
  0
LINE
  5
CDFA
330
CDD6
100
AcDbEntity
  8
0
100
AcDbLine
 10
-29.39999999999999
 20
54.77945519839778
 30
0.0
 11
29.39999999999999
 21
54.77945519839777
 31
0.0
  0
LINE
  5
CDFB
330
CDD6
100
AcDbEntity
  8
0
100
AcDbLine
 10
4.989433513812953
 20
0.0
 30
0.0
 11
2.49999999999999
 21
0.0
 31
0.0
  0
LINE
  5
CDFC
330
CDD6
100
AcDbEntity
  8
0
100
AcDbLine
 10
2.49999999999999
 20
0.0
 30
0.0
 11
-2.500000000000008
 21
0.0
 31
0.0
  0
LINE
  5
CDFD
330
CDD6
100
AcDbEntity
  8
0
100
AcDbLine
 10
-2.500000000000008
 20
0.0
 30
0.0
 11
-4.989433513812971
 21
0.0
 31
0.0
  0
ELLIPSE
  5
CDFE
330
CDD6
100
AcDbEntity
  8
0
100
AcDbEllipse
 10
-2.500000000000008
 20
0.1668158671531851
 30
0.0
 11
-2.5
 21
0.0000000000000003
 31
0.0
210
0.0
220
0.0
230
1.0
 40
0.7071067811865475
 41
4.712388980384689
 42
6.026811980988153
  0
LINE
  5
CDFF
330
CDD6
100
AcDbEntity
  8
0
100
AcDbLine
 10
-2.500000000000008
 20
1.934582820119549
 30
0.0
 11
2.499999999999991
 21
1.934582820119548
 31
0.0
  0
ELLIPSE
  5
CE00
330
CDD6
100
AcDbEntity
  8
0
100
AcDbEllipse
 10
2.49999999999999
 20
0.1668158671531843
 30
0.0
 11
2.5
 21
-0.0000000000000006
 31
0.0
210
0.0
220
0.0
230
1.0
 40
0.7071067811865472
 41
0.2563733261914329
 42
1.570796326794896
  0
SPLINE
  5
CE01
330
CDD6
100
AcDbEntity
  8
0
100
AcDbSpline
210
0.0
220
0.0
230
1.0
 70
     8
 71
     3
 72
     8
 73
     4
 74
     0
 42
0.000000001
 43
0.0000000001
 40
0.0
 40
0.0
 40
0.0
 40
0.0
 40
1.0
 40
1.0
 40
1.0
 40
1.0
 10
-4.989433513812971
 20
0.000000000000013
 30
0.0
 10
-5.016094836485417
 20
0.0000000000000125
 30
0.0
 10
-4.991899723307136
 20
0.2358409403403871
 30
0.0
 10
-4.918289920131919
 20
0.6150757595082633
 30
0.0
  0
LINE
  5
CE02
330
CDD6
100
AcDbEntity
  8
0
100
AcDbLine
 10
-4.989433513812971
 20
0.1805170296371322
 30
0.0
 11
-4.989433513812971
 21
0.0
 31
0.0
  0
LINE
  5
CE03
330
CDD6
100
AcDbEntity
  8
0
100
AcDbLine
 10
4.989433513812953
 20
0.1805170296370778
 30
0.0
 11
4.989433513812953
 21
0.0
 31
0.0
  0
SPLINE
  5
CE04
330
CDD6
100
AcDbEntity
  8
0
100
AcDbSpline
210
0.0
220
0.0
230
1.0
 70
     8
 71
     3
 72
     8
 73
     4
 74
     0
 42
0.000000001
 43
0.0000000001
 40
0.0
 40
0.0
 40
0.0
 40
0.0
 40
1.0
 40
1.0
 40
1.0
 40
1.0
 10
4.918289920131893
 20
0.615075759508261
 30
0.0
 10
4.991899723307441
 20
0.2358409403404177
 30
0.0
 10
5.016094836485414
 20
0.0000000000000107
 30
0.0
 10
4.989433513812953
 20
0.0000000000000108
 30
0.0
  0
LINE
  5
CE05
330
CDD6
100
AcDbEntity
  8
0
100
AcDbLine
 10
2.499999999999992
 20
1.499999999999998
 30
0.0
 11
4.14171865307395
 21
1.499999999999998
 31
0.0
  0
LINE
  5
CE06
330
CDD6
100
AcDbEntity
  8
0
100
AcDbLine
 10
-2.500000000000008
 20
1.499999999999999
 30
0.0
 11
2.499999999999991
 21
1.499999999999998
 31
0.0
  0
LINE
  5
CE07
330
CDD6
100
AcDbEntity
  8
0
100
AcDbLine
 10
-4.141718653073967
 20
1.5
 30
0.0
 11
-2.500000000000008
 21
1.499999999999999
 31
0.0
  0
LINE
  5
CE08
330
CDD6
100
AcDbEntity
  8
0
100
AcDbLine
 10
31.5
 20
2.100000000000001
 30
0.0
 11
31.49999999999999
 21
4.362741700911223
 31
0.0
  0
LINE
  5
CE09
330
CDD6
100
AcDbEntity
  8
0
100
AcDbLine
 10
-31.5
 20
4.362741700911232
 30
0.0
 11
-31.5
 21
2.100000000000006
 31
0.0
  0
LINE
  5
CE0A
330
CDD6
100
AcDbEntity
  8
0
100
AcDbLine
 10
30.0
 20
82.00306627385996
 30
0.0
 11
31.49999999999997
 21
82.00306627385996
 31
0.0
  0
LINE
  5
CE0B
330
CDD6
100
AcDbEntity
  8
0
100
AcDbLine
 10
-31.49999999999995
 20
82.00306627385996
 30
0.0
 11
-29.99999999999998
 21
82.00306627385996
 31
0.0
  0
LINE
  5
CE0C
330
CDD6
100
AcDbEntity
  8
0
100
AcDbLine
 10
31.49999999999999
 20
56.26437943888952
 30
0.0
 11
31.50000000000001
 21
4.362741700911216
 31
0.0
  0
ELLIPSE
  5
CE0D
330
CDD6
100
AcDbEntity
  8
0
100
AcDbEllipse
 10
29.39999999999999
 20
56.26437943888952
 30
0.0
 11
0.6000000000000087
 21
-0.0000000000000158
 31
0.0
210
0.0
220
0.0
230
1.0
 40
0.7071067811864291
 41
4.712388980384759
 42
6.283185307179473
  0
ELLIPSE
  5
CE0E
330
CDD6
100
AcDbEntity
  8
0
100
AcDbEllipse
 10
29.39999999999999
 20
56.26437943888952
 30
0.0
 11
2.100000000000031
 21
-0.0000000000000982
 31
0.0
210
0.0
220
0.0
230
1.0
 40
0.7071067811865465
 41
4.712388980384691
 42
6.283185307179515
  0
LINE
  5
CE0F
330
CDD6
100
AcDbEntity
  8
0
100
AcDbLine
 10
-31.50000000000003
 20
4.362741700911232
 30
0.0
 11
-31.49999999999999
 21
56.26437943888955
 31
0.0
  0
ELLIPSE
  5
CE10
330
CDD6
100
AcDbEntity
  8
0
100
AcDbEllipse
 10
-29.39999999999999
 20
56.26437943888955
 30
0.0
 11
-2.100000000000031
 21
-0.0000000000000027
 31
0.0
210
0.0
220
0.0
230
1.0
 40
0.7071067811866067
 41
0.0
 42
1.570796326794895
  0
ELLIPSE
  5
CE11
330
CDD6
100
AcDbEntity
  8
0
100
AcDbEllipse
 10
-29.39999999999999
 20
56.26437943888955
 30
0.0
 11
-0.6000000000000087
 21
0.000000000000009
 31
0.0
210
0.0
220
0.0
230
1.0
 40
0.7071067811865252
 41
0.0000000000000841
 42
1.570796326794951
  0
ARC
  5
CE12
330
CDD6
100
AcDbEntity
  8
0
100
AcDbCircle
 10
29.39999999999999
 20
2.099999999999997
 30
0.0
 40
0.600000000000005
100
AcDbArc
 50
270.0000000000008
 51
343.4444348564531
  0
ARC
  5
CE13
330
CDD6
100
AcDbEntity
  8
0
100
AcDbCircle
 10
29.39999999999999
 20
2.099999999999997
 30
0.0
 40
2.099999999999999
100
AcDbArc
 50
343.3984504009798
 51
0.0
  0
ARC
  5
CE14
330
CDD6
100
AcDbEntity
  8
0
100
AcDbCircle
 10
-29.40000000000001
 20
2.100000000000006
 30
0.0
 40
0.6000000000000006
100
AcDbArc
 50
196.5555651435471
 51
270.0000000000004
  0
ARC
  5
CE15
330
CDD6
100
AcDbEntity
  8
0
100
AcDbCircle
 10
-29.40000000000001
 20
2.100000000000006
 30
0.0
 40
2.099999999999995
100
AcDbArc
 50
180.0
 51
196.6015495990202
  0
ENDBLK
  5
CDD8
330
CDD6
100
AcDbEntity
  8
0
100
AcDbBlockEnd
  0
BLOCK
  5
CE17
330
CE16
100
AcDbEntity
  8
0
100
AcDbBlockBegin
  2
SPR60_240-ISO
 70
     0
 10
0.0
 20
0.0
 30
0.0
  3
SPR60_240-ISO
  1

  0
LINE
  5
CE19
330
CE16
100
AcDbEntity
  8
0
100
AcDbLine
 10
79.21380805819246
 20
-83.89879828009291
 30
0.0
 11
75.67827415225973
 21
-85.94003973241223
 31
0.0
  0
LINE
  5
CE1A
330
CE16
100
AcDbEntity
  8
0
100
AcDbLine
 10
80.27446822997232
 20
-83.28642584439712
 30
0.0
 11
79.21380805819246
 21
-83.89879828009291
 31
0.0
  0
LINE
  5
CE1B
330
CE16
100
AcDbEntity
  8
0
100
AcDbLine
 10
79.21380805819248
 20
-30.01002393886299
 30
0.0
 11
80.27446822997232
 21
-29.39765150316719
 31
0.0
  0
LINE
  5
CE1C
330
CE16
100
AcDbEntity
  8
0
100
AcDbLine
 10
80.27446822997232
 20
-29.39765150316719
 30
0.0
 11
76.73893432403956
 21
-23.27392714620924
 31
0.0
  0
LINE
  5
CE1D
330
CE16
100
AcDbEntity
  8
0
100
AcDbLine
 10
-19.81945314670268
 20
-30.80440116935881
 30
0.0
 11
-23.35498705263542
 21
-24.68067681240087
 31
0.0
  0
LINE
  5
CE1E
330
CE16
100
AcDbEntity
  8
0
100
AcDbLine
 10
75.67827415225974
 20
-23.88629958190504
 30
0.0
 11
79.21380805819248
 21
-30.01002393886299
 31
0.0
  0
LINE
  5
CE1F
330
CE16
100
AcDbEntity
  8
0
100
AcDbLine
 10
76.73893432403956
 20
-23.27392714620924
 30
0.0
 11
75.67827415225974
 21
-23.88629958190504
 31
0.0
  0
LINE
  5
CE20
330
CE16
100
AcDbEntity
  8
0
100
AcDbLine
 10
80.27446822997232
 20
-29.39765150316719
 30
0.0
 11
80.27446822997232
 21
-83.28642584439712
 31
0.0
  0
LINE
  5
CE21
330
CE16
100
AcDbEntity
  8
0
100
AcDbLine
 10
79.21380805819248
 20
-30.01002393886299
 30
0.0
 11
79.21380805819246
 21
-83.89879828009291
 31
0.0
  0
LINE
  5
CE22
330
CE16
100
AcDbEntity
  8
0
100
AcDbLine
 10
5.655546895402259
 20
17.76608572062496
 30
0.0
 11
10.25174097311484
 21
15.11247183260983
 31
0.0
  0
LINE
  5
CE23
330
CE16
100
AcDbEntity
  8
0
100
AcDbLine
 10
49.14261393837496
 20
-7.34118414290263
 30
0.0
 11
76.73893432403956
 21
-23.27392714620924
 31
0.0
  0
LINE
  5
CE24
330
CE16
100
AcDbEntity
  8
0
100
AcDbLine
 10
-23.35498705263542
 20
-24.68067681240087
 30
0.0
 11
-23.35498705263542
 21
5.529696681924987
 31
0.0
  0
LINE
  5
CE25
330
CE16
100
AcDbEntity
  8
0
100
AcDbLine
 10
48.08195376659513
 20
-7.953556578598419
 30
0.0
 11
75.67827415225974
 21
-23.88629958190504
 31
0.0
  0
LINE
  5
CE26
330
CE16
100
AcDbEntity
  8
0
100
AcDbLine
 10
9.191080801335015
 20
-47.55364075359316
 30
0.0
 11
-19.81945314670268
 21
-30.80440116935881
 31
0.0
  0
LINE
  5
CE27
330
CE16
100
AcDbEntity
  8
0
100
AcDbLine
 10
75.67827415225973
 20
-85.94003973241223
 30
0.0
 11
46.66774020422204
 21
-69.19080014817791
 31
0.0
  0
LINE
  5
CE28
330
CE16
100
AcDbEntity
  8
0
100
AcDbLine
 10
4.594886723622439
 20
17.15371328492917
 30
0.0
 11
9.191080801335022
 21
14.50009939691404
 31
0.0
  0
LINE
  5
CE29
330
CE16
100
AcDbEntity
  8
0
100
AcDbLine
 10
10.25174097311484
 20
15.11247183260983
 30
0.0
 11
9.191080801335022
 21
14.50009939691404
 31
0.0
  0
ELLIPSE
  5
CE2A
330
CE16
100
AcDbEntity
  8
0
100
AcDbEllipse
 10
9.191080801335022
 20
15.72484426830563
 30
0.0
 11
0.7500000000000004
 21
-1.299038105676658
 31
0.0
210
0.0
220
0.0
230
0.9999999999999998
 40
0.5773502691896259
 41
5.497787143782137
 42
8.63937979737193
  0
ELLIPSE
  5
CE2B
330
CE16
100
AcDbEntity
  8
0
100
AcDbEllipse
 10
43.13220629828932
 20
120.6446549175184
 30
0.0
 11
1.250000000000129
 21
-2.165063509461022
 31
0.0
210
0.0
220
0.0
230
1.0
 40
0.5773502691896259
 41
3.579741684173546
 42
4.454997905016198
  0
ELLIPSE
  5
CE2C
330
CE16
100
AcDbEntity
  8
0
100
AcDbEllipse
 10
43.1322062982893
 20
-9.994798030917753
 30
0.0
 11
1.25
 21
-2.165063509461097
 31
0.0
210
0.0
220
0.0
230
1.0
 40
0.5773502691896259
 41
4.999145532596229
 42
5.845036276595418
  0
ELLIPSE
  5
CE2D
330
CE16
100
AcDbEntity
  8
0
100
AcDbEllipse
 10
42.07154612650949
 20
120.0322824818226
 30
0.0
 11
-1.25
 21
2.165063509461097
 31
0.0
210
0.0
220
0.0
230
1.0
 40
0.5773502691896259
 41
4.969780055752966
 42
7.596590558606199
  0
ELLIPSE
  5
CE2E
330
CE16
100
AcDbEntity
  8
0
100
AcDbEllipse
 10
42.07154612650947
 20
-10.60717046661354
 30
0.0
 11
1.25
 21
-2.165063509461097
 31
0.0
210
0.0
220
0.0
230
1.0
 40
0.5773502691896259
 41
4.999145532596229
 42
7.56722508176294
  0
ELLIPSE
  5
CE2F
330
CE16
100
AcDbEntity
  8
0
100
AcDbEllipse
 10
43.13220629828929
 20
-42.6546612680268
 30
0.0
 11
1.250000000000129
 21
-2.165063509461022
 31
0.0
210
0.0
220
0.0
230
1.0
 40
0.5773502691896259
 41
3.579741684173546
 42
5.845036276594998
  0
ELLIPSE
  5
CE30
330
CE16
100
AcDbEntity
  8
0
100
AcDbEllipse
 10
42.07154612650947
 20
-43.2670337037226
 30
0.0
 11
1.25
 21
-2.165063509461097
 31
0.0
210
0.0
220
0.0
230
1.0
 40
0.5773502691896259
 41
0.0
 42
6.283185307179586
  0
ELLIPSE
  5
CE31
330
CE16
100
AcDbEntity
  8
0
100
AcDbEllipse
 10
36.06113848642382
 20
-22.24224674483365
 30
0.0
 11
1.250000000000129
 21
-2.165063509461022
 31
0.0
210
0.0
220
0.0
230
1.0
 40
0.5773502691896259
 41
3.579741684173544
 42
5.845036276594996
  0
ELLIPSE
  5
CE32
330
CE16
100
AcDbEntity
  8
0
100
AcDbEllipse
 10
35.00047831464401
 20
-22.85461918052945
 30
0.0
 11
1.25
 21
-2.165063509461097
 31
0.0
210
0.0
220
0.0
230
1.0
 40
0.5773502691896259
 41
0.0
 42
6.283185307179586
  0
ELLIPSE
  5
CE33
330
CE16
100
AcDbEntity
  8
0
100
AcDbEllipse
 10
36.06113848642382
 20
-54.9021099819427
 30
0.0
 11
1.25000000000013
 21
-2.165063509461022
 31
0.0
210
0.0
220
0.0
230
1.0
 40
0.5773502691896259
 41
3.579741684173544
 42
5.845036276594997
  0
ELLIPSE
  5
CE34
330
CE16
100
AcDbEntity
  8
0
100
AcDbEllipse
 10
35.000478314644
 20
-55.5144824176385
 30
0.0
 11
1.25
 21
-2.165063509461097
 31
0.0
210
0.0
220
0.0
230
1.0
 40
0.5773502691896259
 41
0.0
 42
6.283185307179586
  0
ELLIPSE
  5
CE35
330
CE16
100
AcDbEntity
  8
0
100
AcDbEllipse
 10
21.91900286269288
 20
132.8921036314343
 30
0.0
 11
1.250000000000129
 21
-2.165063509461022
 31
0.0
210
0.0
220
0.0
230
1.0
 40
0.5773502691896259
 41
3.579741684173546
 42
5.845036276595004
  0
ELLIPSE
  5
CE36
330
CE16
100
AcDbEntity
  8
0
100
AcDbEllipse
 10
20.85834269091306
 20
132.2797311957385
 30
0.0
 11
1.25
 21
-2.165063509461097
 31
0.0
210
0.0
220
0.0
230
1.0
 40
0.5773502691896259
 41
0.0
 42
6.283185307179586
  0
ELLIPSE
  5
CE37
330
CE16
100
AcDbEntity
  8
0
100
AcDbEllipse
 10
20.85834269091306
 20
99.61986795862948
 30
0.0
 11
-1.249999999999999
 21
2.165063509461097
 31
0.0
210
0.0
220
0.0
230
0.9999999999999998
 40
0.5773502691896259
 41
0.1418970546042111
 42
1.428899272190691
  0
ELLIPSE
  5
CE38
330
CE16
100
AcDbEntity
  8
0
100
AcDbEllipse
 10
20.85834269091305
 20
66.96000472152045
 30
0.0
 11
-1.249999999999999
 21
2.165063509461097
 31
0.0
210
0.0
220
0.0
230
0.9999999999999998
 40
0.5773502691896259
 41
0.1418970546042075
 42
1.428899272190691
  0
ELLIPSE
  5
CE39
330
CE16
100
AcDbEntity
  8
0
100
AcDbEllipse
 10
20.85834269091305
 20
34.3001414844114
 30
0.0
 11
-1.249999999999999
 21
2.165063509461097
 31
0.0
210
0.0
220
0.0
230
0.9999999999999998
 40
0.5773502691896259
 41
0.1418970546042058
 42
1.428899272190689
  0
ELLIPSE
  5
CE3A
330
CE16
100
AcDbEntity
  8
0
100
AcDbEllipse
 10
20.85834269091305
 20
1.640278247302351
 30
0.0
 11
-1.25
 21
2.165063509461097
 31
0.0
210
0.0
220
0.0
230
1.0
 40
0.5773502691896259
 41
0.1418970546042031
 42
1.428899272190694
  0
ELLIPSE
  5
CE3B
330
CE16
100
AcDbEntity
  8
0
100
AcDbEllipse
 10
21.91900286269287
 20
-30.40721255411091
 30
0.0
 11
1.250000000000129
 21
-2.165063509461022
 31
0.0
210
0.0
220
0.0
230
1.0
 40
0.5773502691896259
 41
3.579741684173544
 42
5.845036276594998
  0
ELLIPSE
  5
CE3C
330
CE16
100
AcDbEntity
  8
0
100
AcDbEllipse
 10
20.85834269091305
 20
-31.0195849898067
 30
0.0
 11
1.25
 21
-2.165063509461097
 31
0.0
210
0.0
220
0.0
230
1.0
 40
0.5773502691896259
 41
0.0
 42
6.283185307179586
  0
ELLIPSE
  5
CE3D
330
CE16
100
AcDbEntity
  8
0
100
AcDbEllipse
 10
14.8479350508274
 20
120.6446549175184
 30
0.0
 11
1.250000000000129
 21
-2.165063509461022
 31
0.0
210
0.0
220
0.0
230
1.0
 40
0.5773502691896259
 41
3.579741684173546
 42
5.845036276595004
  0
ELLIPSE
  5
CE3E
330
CE16
100
AcDbEntity
  8
0
100
AcDbEllipse
 10
14.8479350508274
 20
87.98479168040939
 30
0.0
 11
1.250000000000129
 21
-2.165063509461022
 31
0.0
210
0.0
220
0.0
230
1.0
 40
0.5773502691896259
 41
3.579741684173546
 42
5.845036276595004
  0
ELLIPSE
  5
CE3F
330
CE16
100
AcDbEntity
  8
0
100
AcDbEllipse
 10
14.84793505082739
 20
55.32492844330035
 30
0.0
 11
1.250000000000129
 21
-2.165063509461022
 31
0.0
210
0.0
220
0.0
230
1.0
 40
0.5773502691896259
 41
3.579741684173546
 42
5.845036276595001
  0
ELLIPSE
  5
CE40
330
CE16
100
AcDbEntity
  8
0
100
AcDbEllipse
 10
14.84793505082739
 20
22.6650652061913
 30
0.0
 11
1.250000000000129
 21
-2.165063509461022
 31
0.0
210
0.0
220
0.0
230
1.0
 40
0.5773502691896259
 41
3.579741684173546
 42
5.845036276595
  0
ELLIPSE
  5
CE41
330
CE16
100
AcDbEntity
  8
0
100
AcDbEllipse
 10
14.84793505082739
 20
-9.994798030917753
 30
0.0
 11
1.250000000000129
 21
-2.165063509461022
 31
0.0
210
0.0
220
0.0
230
1.0
 40
0.5773502691896259
 41
3.579741684173544
 42
5.845036276594997
  0
ELLIPSE
  5
CE42
330
CE16
100
AcDbEntity
  8
0
100
AcDbEllipse
 10
13.78727487904758
 20
120.0322824818226
 30
0.0
 11
1.25
 21
-2.165063509461097
 31
0.0
210
0.0
220
0.0
230
1.0
 40
0.5773502691896259
 41
0.0
 42
6.283185307179586
  0
ELLIPSE
  5
CE43
330
CE16
100
AcDbEntity
  8
0
100
AcDbEllipse
 10
13.78727487904757
 20
87.3724192447136
 30
0.0
 11
1.25
 21
-2.165063509461097
 31
0.0
210
0.0
220
0.0
230
1.0
 40
0.5773502691896259
 41
0.0
 42
6.283185307179586
  0
ELLIPSE
  5
CE44
330
CE16
100
AcDbEntity
  8
0
100
AcDbEllipse
 10
13.78727487904757
 20
54.71255600760456
 30
0.0
 11
1.25
 21
-2.165063509461097
 31
0.0
210
0.0
220
0.0
230
1.0
 40
0.5773502691896259
 41
0.0
 42
6.283185307179586
  0
ELLIPSE
  5
CE45
330
CE16
100
AcDbEntity
  8
0
100
AcDbEllipse
 10
13.78727487904757
 20
22.05269277049551
 30
0.0
 11
1.25
 21
-2.165063509461097
 31
0.0
210
0.0
220
0.0
230
1.0
 40
0.5773502691896259
 41
0.0
 42
6.283185307179586
  0
ELLIPSE
  5
CE46
330
CE16
100
AcDbEntity
  8
0
100
AcDbEllipse
 10
13.78727487904757
 20
-10.60717046661354
 30
0.0
 11
1.25
 21
-2.165063509461097
 31
0.0
210
0.0
220
0.0
230
1.0
 40
0.5773502691896259
 41
0.0
 42
6.283185307179586
  0
ELLIPSE
  5
CE47
330
CE16
100
AcDbEntity
  8
0
100
AcDbEllipse
 10
14.84793505082739
 20
-42.6546612680268
 30
0.0
 11
1.25000000000013
 21
-2.165063509461022
 31
0.0
210
0.0
220
0.0
230
1.0
 40
0.5773502691896259
 41
3.579741684173544
 42
5.845036276594999
  0
ELLIPSE
  5
CE48
330
CE16
100
AcDbEntity
  8
0
100
AcDbEllipse
 10
13.78727487904756
 20
-43.26703370372259
 30
0.0
 11
1.25
 21
-2.165063509461097
 31
0.0
210
0.0
220
0.0
230
1.0
 40
0.5773502691896259
 41
0.0
 42
6.283185307179586
  0
ELLIPSE
  5
CE49
330
CE16
100
AcDbEntity
  8
0
100
AcDbEllipse
 10
-1.434676835852441
 20
15.73590394352157
 30
0.0
 11
1.25
 21
-2.165063509461097
 31
0.0
210
0.0
220
0.0
230
0.9999999999999998
 40
0.577350269189626
 41
5.50868294239599
 42
5.845036276595414
  0
ELLIPSE
  5
CE4A
330
CE16
100
AcDbEntity
  8
0
100
AcDbEllipse
 10
55.17217749784986
 20
-16.94607864401938
 30
0.0
 11
1.250000000000129
 21
-2.165063509461022
 31
0.0
210
0.0
220
0.0
230
1.0
 40
0.5773502691896259
 41
3.579741684173546
 42
5.845036276594998
  0
ELLIPSE
  5
CE4B
330
CE16
100
AcDbEntity
  8
0
100
AcDbEllipse
 10
-2.495337007632261
 20
15.12353150782578
 30
0.0
 11
1.25
 21
-2.165063509461097
 31
0.0
210
0.0
220
0.0
230
0.9999999999999998
 40
0.5773502691896259
 41
5.50868294239599
 42
7.05768767196318
  0
ELLIPSE
  5
CE4C
330
CE16
100
AcDbEntity
  8
0
100
AcDbEllipse
 10
54.11151732607004
 20
-17.55845107971517
 30
0.0
 11
1.25
 21
-2.165063509461097
 31
0.0
210
0.0
220
0.0
230
1.0
 40
0.5773502691896259
 41
0.0
 42
6.283185307179586
  0
ELLIPSE
  5
CE4D
330
CE16
100
AcDbEntity
  8
0
100
AcDbEllipse
 10
2.807963851266843
 20
-19.37344903637065
 30
0.0
 11
1.250000000000129
 21
-2.165063509461022
 31
0.0
210
0.0
220
0.0
230
1.0
 40
0.5773502691896259
 41
3.579741684173544
 42
5.845036276595001
  0
ELLIPSE
  5
CE4E
330
CE16
100
AcDbEntity
  8
0
100
AcDbEllipse
 10
59.41481818496914
 20
-52.05543162391162
 30
0.0
 11
1.250000000000129
 21
-2.165063509461022
 31
0.0
210
0.0
220
0.0
230
0.9999999999999998
 40
0.577350269189626
 41
3.579741684173541
 42
5.845036276594997
  0
ELLIPSE
  5
CE4F
330
CE16
100
AcDbEntity
  8
0
100
AcDbEllipse
 10
1.747303679487024
 20
-19.98582147206644
 30
0.0
 11
1.25
 21
-2.165063509461097
 31
0.0
210
0.0
220
0.0
230
1.0
 40
0.5773502691896259
 41
0.0
 42
6.283185307179586
  0
ELLIPSE
  5
CE50
330
CE16
100
AcDbEntity
  8
0
100
AcDbEllipse
 10
58.35415801318932
 20
-52.66780405960741
 30
0.0
 11
1.25
 21
-2.165063509461097
 31
0.0
210
0.0
220
0.0
230
1.0
 40
0.5773502691896259
 41
0.0
 42
6.283185307179586
  0
ELLIPSE
  5
CE51
330
CE16
100
AcDbEntity
  8
0
100
AcDbEllipse
 10
27.22230372159198
 20
-57.96397216205463
 30
0.0
 11
1.250000000000129
 21
-2.165063509461022
 31
0.0
210
0.0
220
0.0
230
1.0
 40
0.5773502691896259
 41
3.579741684173546
 42
3.835017177445219
  0
ELLIPSE
  5
CE52
330
CE16
100
AcDbEntity
  8
0
100
AcDbEllipse
 10
27.10434709071845
 20
-58.69103152037016
 30
0.0
 11
-1.249999999999999
 21
-2.165063509461097
 31
0.0
210
0.0
220
0.0
230
1.0
 40
0.8164965809277264
 41
4.968762306576117
 42
6.283185307179585
  0
LINE
  5
CE53
330
CE16
100
AcDbEntity
  8
0
100
AcDbLine
 10
25.07739027969987
 20
-58.25277279884277
 30
0.0
 11
24.57714027979975
 21
-57.96395332673832
 31
0.0
  0
LINE
  5
CE54
330
CE16
100
AcDbEntity
  8
0
100
AcDbLine
 10
24.57714027979975
 20
-57.96395332673832
 30
0.0
 11
24.32739027969987
 21
-57.81976009695056
 31
0.0
  0
ELLIPSE
  5
CE55
330
CE16
100
AcDbEntity
  8
0
100
AcDbEllipse
 10
26.35434709071847
 20
-58.25801881847795
 30
0.0
 11
-1.25
 21
-2.165063509461097
 31
0.0
210
0.0
220
0.0
230
1.0
 40
0.816496580927726
 41
4.968762306576119
 42
6.283185307179585
  0
LINE
  5
CE56
330
CE16
100
AcDbEntity
  8
0
100
AcDbLine
 10
28.63988099665119
 20
-62.4643237802584
 30
0.0
 11
25.10434709071845
 21
-60.42308232793907
 31
0.0
  0
ELLIPSE
  5
CE57
330
CE16
100
AcDbEntity
  8
0
100
AcDbEllipse
 10
29.8898809966512
 20
-60.29926027079726
 30
0.0
 11
-1.249999999999998
 21
-2.165063509461099
 31
0.0
210
0.0
220
0.0
230
1.0
 40
0.8164965809277259
 41
0.0
 42
1.314423000603463
  0
LINE
  5
CE58
330
CE16
100
AcDbEntity
  8
0
100
AcDbLine
 10
24.40134823088196
 20
-57.37256179141759
 30
0.0
 11
24.75454806846791
 21
-57.16864177010961
 31
0.0
  0
SPLINE
  5
CE59
330
CE16
100
AcDbEntity
  8
0
100
AcDbSpline
210
0.0
220
0.0
230
1.0
 70
     8
 71
     3
 72
     8
 73
     4
 74
     0
 42
0.000000001
 43
0.0000000001
 40
-1.0
 40
-1.0
 40
-1.0
 40
-1.0
 40
0.0
 40
0.0
 40
0.0
 40
0.0
 10
24.32739027969987
 20
-57.81976009695056
 30
0.0
 10
24.35195729222592
 20
-57.6570044778346
 30
0.0
 10
24.38249582882486
 20
-57.49047315027084
 30
0.0
 10
24.40134823088195
 20
-57.3725617914176
 30
0.0
  0
SPLINE
  5
CE5A
330
CE16
100
AcDbEntity
  8
0
100
AcDbSpline
210
0.0
220
0.0
230
1.0
 70
     8
 71
     3
 72
     8
 73
     4
 74
     0
 42
0.000000001
 43
0.0000000001
 40
0.0
 40
0.0
 40
0.0
 40
0.0
 40
1.0
 40
1.0
 40
1.0
 40
1.0
 10
25.46200840266177
 20
-56.7601893557218
 30
0.0
 10
25.44315600060468
 20
-57.20009021021446
 30
0.0
 10
25.29349980100853
 20
-57.75825582270613
 30
0.0
 10
25.07739027969987
 20
-58.25277279884277
 30
0.0
  0
LINE
  5
CE5B
330
CE16
100
AcDbEntity
  8
0
100
AcDbLine
 10
24.75454806846791
 20
-57.16864177010961
 30
0.0
 11
25.46200840266178
 21
-56.7601893557218
 31
0.0
  0
SPLINE
  5
CE5C
330
CE16
100
AcDbEntity
  8
0
100
AcDbSpline
210
0.0
220
0.0
230
1.0
 70
     8
 71
     3
 72
     8
 73
     4
 74
     0
 42
0.000000001
 43
0.0000000001
 40
-1.0
 40
-1.0
 40
-1.0
 40
-1.0
 40
0.0
 40
0.0
 40
0.0
 40
0.0
 10
31.45747277467509
 20
-61.44641719621209
 30
0.0
 10
31.47632517673219
 20
-61.58609743387041
 30
0.0
 10
31.41156958293358
 20
-61.73287353424908
 30
0.0
 10
31.28290258843331
 20
-61.83552700074955
 30
0.0
  0
ELLIPSE
  5
CE5D
330
CE16
100
AcDbEntity
  8
0
100
AcDbEllipse
 10
29.6971774557449
 20
-60.61758605006972
 30
0.0
 11
1.249999999999871
 21
-2.165063509461171
 31
0.0
210
0.0
220
0.0
230
1.0
 40
0.5773502691896259
 41
0.8773718029393293
 42
2.356194490192585
  0
LINE
  5
CE5E
330
CE16
100
AcDbEntity
  8
0
100
AcDbLine
 10
26.16164354981216
 20
-56.53510314543106
 30
0.0
 11
29.6971774557449
 21
-58.57634459775038
 31
0.0
  0
ELLIPSE
  5
CE5F
330
CE16
100
AcDbEntity
  8
0
100
AcDbEllipse
 10
26.16164354981216
 20
-58.57634459775042
 30
0.0
 11
-1.25
 21
2.165063509461098
 31
0.0
210
0.0
220
0.0
230
0.9999999999999998
 40
0.5773502691896258
 41
5.49778714378214
 42
6.976609831035372
  0
LINE
  5
CE60
330
CE16
100
AcDbEntity
  8
0
100
AcDbLine
 10
49.77901004144287
 20
125.7069337192703
 30
0.0
 11
8.201131307673863
 21
149.7119331985455
 31
0.0
  0
LINE
  5
CE61
330
CE16
100
AcDbEntity
  8
0
100
AcDbLine
 10
20.50478930031973
 20
-19.79275700205042
 30
0.0
 11
20.50478930031975
 21
103.0083287694796
 31
0.0
  0
LINE
  5
CE62
330
CE16
100
AcDbEntity
  8
0
100
AcDbLine
 10
19.44412912853992
 20
103.6207012051753
 30
0.0
 11
19.44412912853991
 21
-19.18038456635463
 31
0.0
  0
LINE
  5
CE63
330
CE16
100
AcDbEntity
  8
0
100
AcDbLine
 10
49.77901004144285
 20
-6.973760681485146
 30
0.0
 11
24.04032320625248
 21
-21.83399845436974
 31
0.0
  0
LINE
  5
CE64
330
CE16
100
AcDbEntity
  8
0
100
AcDbLine
 10
24.04032320625248
 20
109.1320531264375
 30
0.0
 11
49.77901004144287
 21
123.9922908993221
 31
0.0
  0
LINE
  5
CE65
330
CE16
100
AcDbEntity
  8
0
100
AcDbLine
 10
-24.04293791443272
 20
128.7279710687029
 30
0.0
 11
-24.04293791443272
 21
5.92688529717293
 31
0.0
  0
LINE
  5
CE66
330
CE16
100
AcDbEntity
  8
0
100
AcDbLine
 10
5.231282826690359
 20
149.7119331985455
 30
0.0
 11
-20.50740400849997
 21
134.8516954256608
 31
0.0
  0
LINE
  5
CE67
330
CE16
100
AcDbEntity
  8
0
100
AcDbLine
 10
-22.98227774265289
 20
128.1155986330071
 30
0.0
 11
-22.98227774265289
 21
5.31451286147714
 31
0.0
  0
LINE
  5
CE68
330
CE16
100
AcDbEntity
  8
0
100
AcDbLine
 10
49.77901004144287
 20
123.9922908993221
 30
0.0
 11
48.71834986966305
 21
124.6046633350179
 31
0.0
  0
LINE
  5
CE69
330
CE16
100
AcDbEntity
  8
0
100
AcDbLine
 10
48.71834986966305
 20
124.6046633350179
 30
0.0
 11
22.97966303447267
 21
109.7444255621333
 31
0.0
  0
LINE
  5
CE6A
330
CE16
100
AcDbEntity
  8
0
100
AcDbLine
 10
7.140471135894035
 20
18.13350918204244
 30
0.0
 11
9.191080801335022
 21
16.94958913969722
 31
0.0
  0
LINE
  5
CE6B
330
CE16
100
AcDbEntity
  8
0
100
AcDbLine
 10
49.77901004144287
 20
125.7069337192703
 30
0.0
 11
48.71834986966305
 21
125.0945612835745
 31
0.0
  0
LINE
  5
CE6C
330
CE16
100
AcDbEntity
  8
0
100
AcDbLine
 10
8.201131307673863
 20
149.7119331985455
 30
0.0
 11
7.140471135894044
 21
149.0995607628497
 31
0.0
  0
LINE
  5
CE6D
330
CE16
100
AcDbEntity
  8
0
100
AcDbLine
 10
5.231282826690359
 20
149.7119331985455
 30
0.0
 11
6.291942998470183
 21
149.0995607628497
 31
0.0
  0
LINE
  5
CE6E
330
CE16
100
AcDbEntity
  8
0
100
AcDbLine
 10
7.140471135894044
 20
149.0995607628497
 30
0.0
 11
48.71834986966305
 21
125.0945612835745
 31
0.0
  0
LINE
  5
CE6F
330
CE16
100
AcDbEntity
  8
0
100
AcDbLine
 10
-19.44674383672016
 20
3.273271409157825
 30
0.0
 11
6.291942998470174
 21
18.13350918204244
 31
0.0
  0
LINE
  5
CE70
330
CE16
100
AcDbEntity
  8
0
100
AcDbLine
 10
-19.44674383672015
 20
134.2393229899651
 30
0.0
 11
6.291942998470183
 21
149.0995607628497
 31
0.0
  0
LINE
  5
CE71
330
CE16
100
AcDbEntity
  8
0
100
AcDbLine
 10
24.04032320625248
 20
-21.83399845436974
 30
0.0
 11
20.50478930031973
 21
-19.79275700205042
 31
0.0
  0
LINE
  5
CE72
330
CE16
100
AcDbEntity
  8
0
100
AcDbLine
 10
20.50478930031973
 20
-19.79275700205042
 30
0.0
 11
19.44412912853991
 21
-19.18038456635463
 31
0.0
  0
LINE
  5
CE73
330
CE16
100
AcDbEntity
  8
0
100
AcDbLine
 10
19.44412912853992
 20
103.6207012051753
 30
0.0
 11
20.50478930031975
 21
103.0083287694796
 31
0.0
  0
LINE
  5
CE74
330
CE16
100
AcDbEntity
  8
0
100
AcDbLine
 10
20.50478930031975
 20
103.0083287694796
 30
0.0
 11
24.04032320625248
 21
109.1320531264375
 31
0.0
  0
LINE
  5
CE75
330
CE16
100
AcDbEntity
  8
0
100
AcDbLine
 10
-19.44674383672016
 20
3.273271409157825
 30
0.0
 11
-22.98227774265289
 21
5.314512861477131
 31
0.0
  0
LINE
  5
CE76
330
CE16
100
AcDbEntity
  8
0
100
AcDbLine
 10
-22.98227774265289
 20
5.314512861477131
 30
0.0
 11
-24.04293791443272
 21
5.92688529717293
 31
0.0
  0
LINE
  5
CE77
330
CE16
100
AcDbEntity
  8
0
100
AcDbLine
 10
-20.50740400849997
 20
134.8516954256608
 30
0.0
 11
-24.04293791443272
 21
128.7279710687029
 31
0.0
  0
LINE
  5
CE78
330
CE16
100
AcDbEntity
  8
0
100
AcDbLine
 10
-24.04293791443272
 20
128.7279710687029
 30
0.0
 11
-22.98227774265289
 21
128.1155986330071
 31
0.0
  0
LINE
  5
CE79
330
CE16
100
AcDbEntity
  8
0
100
AcDbLine
 10
24.04032320625248
 20
109.1320531264375
 30
0.0
 11
22.97966303447267
 21
109.7444255621333
 31
0.0
  0
LINE
  5
CE7A
330
CE16
100
AcDbEntity
  8
0
100
AcDbLine
 10
22.97966303447267
 20
109.7444255621333
 30
0.0
 11
19.44412912853992
 21
103.6207012051753
 31
0.0
  0
LINE
  5
CE7B
330
CE16
100
AcDbEntity
  8
0
100
AcDbLine
 10
-22.98227774265289
 20
128.1155986330071
 30
0.0
 11
-19.44674383672015
 21
134.2393229899651
 31
0.0
  0
LINE
  5
CE7C
330
CE16
100
AcDbEntity
  8
0
100
AcDbLine
 10
-19.44674383672015
 20
134.2393229899651
 30
0.0
 11
-20.50740400849997
 21
134.8516954256608
 31
0.0
  0
LINE
  5
CE7D
330
CE16
100
AcDbEntity
  8
0
100
AcDbLine
 10
-6.720989958401673
 20
-128.3440306484314
 30
0.0
 11
-6.720989958401655
 21
-122.5705279565352
 31
0.0
  0
LINE
  5
CE7E
330
CE16
100
AcDbEntity
  8
0
100
AcDbLine
 10
-6.720989958401655
 20
-122.5705279565352
 30
0.0
 11
-7.781650130181465
 21
-121.9581555208394
 31
0.0
  0
LINE
  5
CE7F
330
CE16
100
AcDbEntity
  8
0
100
AcDbLine
 10
-7.781650130181465
 20
-121.9581555208394
 30
0.0
 11
-7.781650130181474
 21
-127.7316582127357
 31
0.0
  0
LINE
  5
CE80
330
CE16
100
AcDbEntity
  8
0
100
AcDbLine
 10
-7.781650130181474
 20
-127.7316582127357
 30
0.0
 11
-6.720989958401673
 21
-128.3440306484314
 31
0.0
  0
LINE
  5
CE81
330
CE16
100
AcDbEntity
  8
0
100
AcDbLine
 10
-51.26871717315414
 20
-96.85088565731184
 30
0.0
 11
-51.26871717315413
 21
-102.6243883492081
 31
0.0
  0
LINE
  5
CE82
330
CE16
100
AcDbEntity
  8
0
100
AcDbLine
 10
-51.26871717315413
 20
-102.6243883492081
 30
0.0
 11
-50.20805700137433
 21
-103.2367607849039
 31
0.0
  0
LINE
  5
CE83
330
CE16
100
AcDbEntity
  8
0
100
AcDbLine
 10
-50.20805700137433
 20
-103.2367607849039
 30
0.0
 11
-50.20805700137433
 21
-97.46325809300765
 31
0.0
  0
LINE
  5
CE84
330
CE16
100
AcDbEntity
  8
0
100
AcDbLine
 10
-50.20805700137433
 20
-97.46325809300765
 30
0.0
 11
-51.26871717315414
 21
-96.85088565731184
 31
0.0
  0
ELLIPSE
  5
CE85
330
CE16
100
AcDbEntity
  8
0
100
AcDbEllipse
 10
26.16164354981222
 20
103.9064750085
 30
0.0
 11
1.250000000000128
 21
2.165063509461022
 31
0.0
210
0.0
220
0.0
230
1.0
 40
0.5773502691896258
 41
0.0
 42
6.283185307179586
  0
ELLIPSE
  5
CE86
330
CE16
100
AcDbEntity
  8
0
100
AcDbEllipse
 10
26.16164354981222
 20
87.5765433899455
 30
0.0
 11
1.250000000000128
 21
2.165063509461022
 31
0.0
210
0.0
220
0.0
230
1.0
 40
0.5773502691896258
 41
0.0
 42
6.283185307179586
  0
ELLIPSE
  5
CE87
330
CE16
100
AcDbEntity
  8
0
100
AcDbEllipse
 10
26.16164354981221
 20
71.24661177139097
 30
0.0
 11
1.250000000000128
 21
2.165063509461022
 31
0.0
210
0.0
220
0.0
230
1.0
 40
0.5773502691896258
 41
0.0
 42
6.283185307179586
  0
ELLIPSE
  5
CE88
330
CE16
100
AcDbEntity
  8
0
100
AcDbEllipse
 10
26.16164354981221
 20
54.91668015283645
 30
0.0
 11
1.250000000000128
 21
2.165063509461022
 31
0.0
210
0.0
220
0.0
230
1.0
 40
0.5773502691896258
 41
0.0
 42
6.283185307179586
  0
ELLIPSE
  5
CE89
330
CE16
100
AcDbEntity
  8
0
100
AcDbEllipse
 10
26.16164354981221
 20
38.58674853428193
 30
0.0
 11
1.250000000000128
 21
2.165063509461022
 31
0.0
210
0.0
220
0.0
230
1.0
 40
0.5773502691896258
 41
0.0
 42
6.283185307179586
  0
ELLIPSE
  5
CE8A
330
CE16
100
AcDbEntity
  8
0
100
AcDbEllipse
 10
26.16164354981221
 20
22.2568169157274
 30
0.0
 11
1.250000000000128
 21
2.165063509461022
 31
0.0
210
0.0
220
0.0
230
1.0
 40
0.5773502691896258
 41
0.0
 42
6.283185307179586
  0
ELLIPSE
  5
CE8B
330
CE16
100
AcDbEntity
  8
0
100
AcDbEllipse
 10
26.16164354981221
 20
5.926885297172876
 30
0.0
 11
1.250000000000128
 21
2.165063509461022
 31
0.0
210
0.0
220
0.0
230
1.0
 40
0.5773502691896258
 41
0.0
 42
6.283185307179586
  0
ELLIPSE
  5
CE8C
330
CE16
100
AcDbEntity
  8
0
100
AcDbEllipse
 10
25.1009833780324
 20
104.5188474441958
 30
0.0
 11
1.249999999999872
 21
2.16506350946117
 31
0.0
210
0.0
220
0.0
230
1.0
 40
0.5773502691896269
 41
3.579741684173541
 42
5.845036276595005
  0
ELLIPSE
  5
CE8D
330
CE16
100
AcDbEntity
  8
0
100
AcDbEllipse
 10
25.1009833780324
 20
88.18891582564132
 30
0.0
 11
1.249999999999872
 21
2.16506350946117
 31
0.0
210
0.0
220
0.0
230
1.0
 40
0.5773502691896269
 41
3.579741684173541
 42
5.845036276595005
  0
ELLIPSE
  5
CE8E
330
CE16
100
AcDbEntity
  8
0
100
AcDbEllipse
 10
25.10098337803239
 20
71.85898420708679
 30
0.0
 11
1.249999999999872
 21
2.16506350946117
 31
0.0
210
0.0
220
0.0
230
1.0
 40
0.5773502691896269
 41
3.579741684173541
 42
5.845036276594997
  0
ELLIPSE
  5
CE8F
330
CE16
100
AcDbEntity
  8
0
100
AcDbEllipse
 10
25.10098337803239
 20
55.52905258853225
 30
0.0
 11
1.249999999999872
 21
2.16506350946117
 31
0.0
210
0.0
220
0.0
230
1.0
 40
0.5773502691896269
 41
3.579741684173541
 42
5.845036276594997
  0
ELLIPSE
  5
CE90
330
CE16
100
AcDbEntity
  8
0
100
AcDbEllipse
 10
25.10098337803239
 20
39.19912096997773
 30
0.0
 11
1.249999999999872
 21
2.16506350946117
 31
0.0
210
0.0
220
0.0
230
1.0
 40
0.577350269189627
 41
3.579741684173544
 42
5.845036276594997
  0
ELLIPSE
  5
CE91
330
CE16
100
AcDbEntity
  8
0
100
AcDbEllipse
 10
25.10098337803239
 20
22.86918935142321
 30
0.0
 11
1.249999999999872
 21
2.16506350946117
 31
0.0
210
0.0
220
0.0
230
1.0
 40
0.577350269189627
 41
3.579741684173544
 42
5.845036276594997
  0
ELLIPSE
  5
CE92
330
CE16
100
AcDbEntity
  8
0
100
AcDbEllipse
 10
25.10098337803239
 20
6.539257732868675
 30
0.0
 11
1.249999999999872
 21
2.16506350946117
 31
0.0
210
0.0
220
0.0
230
1.0
 40
0.577350269189627
 41
3.579741684173542
 42
5.845036276594995
  0
ELLIPSE
  5
CE93
330
CE16
100
AcDbEntity
  8
0
100
AcDbEllipse
 10
26.16164354981221
 20
-10.40304632138165
 30
0.0
 11
1.250000000000128
 21
2.165063509461022
 31
0.0
210
0.0
220
0.0
230
1.0
 40
0.5773502691896258
 41
0.0
 42
6.283185307179586
  0
ELLIPSE
  5
CE94
330
CE16
100
AcDbEntity
  8
0
100
AcDbEllipse
 10
25.10098337803239
 20
-9.790673885685849
 30
0.0
 11
1.249999999999872
 21
2.16506350946117
 31
0.0
210
0.0
220
0.0
230
1.0
 40
0.577350269189627
 41
3.579741684173544
 42
5.845036276594997
  0
LINE
  5
CE95
330
CE16
100
AcDbEntity
  8
0
100
AcDbLine
 10
49.77901004144285
 20
-6.973760681485146
 30
0.0
 11
49.77901004144287
 21
123.9922908993221
 31
0.0
  0
ELLIPSE
  5
CE96
330
CE16
100
AcDbEntity
  8
0
100
AcDbEllipse
 10
48.29408580095112
 20
124.8496123092962
 30
0.0
 11
0.6000000000000049
 21
0.0
 31
0.0
210
0.0
220
0.0
230
1.0
 40
0.5773502691896259
 41
5.497787143782181
 42
7.068583470577037
  0
LINE
  5
CE97
330
CE16
100
AcDbEntity
  8
0
100
AcDbLine
 10
48.71834986966305
 20
125.0945612835745
 30
0.0
 11
48.71834986966305
 21
124.6046633350179
 31
0.0
  0
ELLIPSE
  5
CE98
330
CE16
100
AcDbEntity
  8
0
100
AcDbEllipse
 10
48.29408580095112
 20
124.8496123092962
 30
0.0
 11
2.100000000000004
 21
0.0000000000000002
 31
0.0
210
0.0
220
0.0
230
1.0
 40
0.5773502691896259
 41
5.497787143782139
 42
7.06858347057703
  0
ELLIPSE
  5
CE99
330
CE16
100
AcDbEntity
  8
0
100
AcDbEllipse
 10
48.29408580095111
 20
-6.116439271511033
 30
0.0
 11
2.099999999999999
 21
0.0000000000000001
 31
0.0
210
0.0
220
0.0
230
1.0
 40
0.5773502691896259
 41
5.497787143782135
 42
6.283185307179586
  0
LINE
  5
CE9A
330
CE16
100
AcDbEntity
  8
0
100
AcDbLine
 10
7.140471135894044
 20
149.0995607628497
 30
0.0
 11
7.140471135894035
 21
18.13350918204243
 31
0.0
  0
ELLIPSE
  5
CE9B
330
CE16
100
AcDbEntity
  8
0
100
AcDbEllipse
 10
6.716207067182109
 20
148.8546117885714
 30
0.0
 11
0.6000000000000006
 21
-0.0000000000000358
 31
0.0
210
0.0
220
0.0
230
1.0
 40
0.577350269189626
 41
0.7853981633976935
 42
2.35619449019261
  0
LINE
  5
CE9C
330
CE16
100
AcDbEntity
  8
0
100
AcDbLine
 10
6.291942998470183
 20
149.0995607628497
 30
0.0
 11
6.291942998470174
 21
18.13350918204243
 31
0.0
  0
ELLIPSE
  5
CE9D
330
CE16
100
AcDbEntity
  8
0
100
AcDbEllipse
 10
6.7162070671821
 20
17.88856020776411
 30
0.0
 11
0.6000000000000006
 21
-0.0000000000000358
 31
0.0
210
0.0
220
0.0
230
1.0
 40
0.577350269189626
 41
0.7853981633976837
 42
2.356194490192587
  0
ELLIPSE
  5
CE9E
330
CE16
100
AcDbEntity
  8
0
100
AcDbEllipse
 10
6.716207067182109
 20
148.8546117885714
 30
0.0
 11
-2.099999999999999
 21
-0.0000000000001249
 31
0.0
210
0.0
220
0.0
230
1.0
 40
0.5773502691896259
 41
3.926990816987004
 42
5.4977871437819
  0
LINE
  5
CE9F
330
CE16
100
AcDbEntity
  8
0
100
AcDbLine
 10
50.39408580095112
 20
124.8496123092962
 30
0.0
 11
50.39408580095112
 21
-6.116439271511033
 31
0.0
  0
ELLIPSE
  5
CEA0
330
CE16
100
AcDbEntity
  8
0
100
AcDbEllipse
 10
-18.38608366494034
 20
125.5436344030848
 30
0.0
 11
1.24999999999987
 21
2.165063509461171
 31
0.0
210
0.0
220
0.0
230
1.0
 40
0.5773502691896259
 41
3.579741684173541
 42
5.845036276595004
  0
ELLIPSE
  5
CEA1
330
CE16
100
AcDbEntity
  8
0
100
AcDbEllipse
 10
-18.38608366494034
 20
109.2137027845302
 30
0.0
 11
1.24999999999987
 21
2.165063509461171
 31
0.0
210
0.0
220
0.0
230
1.0
 40
0.5773502691896259
 41
3.579741684173541
 42
5.845036276595004
  0
ELLIPSE
  5
CEA2
330
CE16
100
AcDbEntity
  8
0
100
AcDbEllipse
 10
-18.38608366494034
 20
92.88377116597574
 30
0.0
 11
1.24999999999987
 21
2.165063509461171
 31
0.0
210
0.0
220
0.0
230
1.0
 40
0.5773502691896259
 41
3.579741684173541
 42
5.845036276595004
  0
ELLIPSE
  5
CEA3
330
CE16
100
AcDbEntity
  8
0
100
AcDbEllipse
 10
-18.38608366494034
 20
76.55383954742122
 30
0.0
 11
1.24999999999987
 21
2.165063509461171
 31
0.0
210
0.0
220
0.0
230
1.0
 40
0.5773502691896259
 41
3.579741684173539
 42
5.845036276594996
  0
ELLIPSE
  5
CEA4
330
CE16
100
AcDbEntity
  8
0
100
AcDbEllipse
 10
-18.38608366494034
 20
60.22390792886669
 30
0.0
 11
1.24999999999987
 21
2.165063509461172
 31
0.0
210
0.0
220
0.0
230
1.0
 40
0.5773502691896257
 41
3.579741684173542
 42
5.845036276594995
  0
ELLIPSE
  5
CEA5
330
CE16
100
AcDbEntity
  8
0
100
AcDbEllipse
 10
-18.38608366494034
 20
43.89397631031217
 30
0.0
 11
1.24999999999987
 21
2.165063509461172
 31
0.0
210
0.0
220
0.0
230
1.0
 40
0.5773502691896257
 41
3.579741684173542
 42
5.845036276594995
  0
ELLIPSE
  5
CEA6
330
CE16
100
AcDbEntity
  8
0
100
AcDbEllipse
 10
-18.38608366494034
 20
27.56404469175765
 30
0.0
 11
1.24999999999987
 21
2.165063509461172
 31
0.0
210
0.0
220
0.0
230
1.0
 40
0.5773502691896257
 41
3.579741684173544
 42
5.845036276594995
  0
ELLIPSE
  5
CEA7
330
CE16
100
AcDbEntity
  8
0
100
AcDbEllipse
 10
-17.32542349316051
 20
124.931261967389
 30
0.0
 11
1.250000000000128
 21
2.165063509461022
 31
0.0
210
0.0
220
0.0
230
1.0
 40
0.5773502691896258
 41
0.0
 42
6.283185307179586
  0
ELLIPSE
  5
CEA8
330
CE16
100
AcDbEntity
  8
0
100
AcDbEllipse
 10
-17.32542349316051
 20
108.6013303488345
 30
0.0
 11
1.250000000000128
 21
2.165063509461022
 31
0.0
210
0.0
220
0.0
230
1.0
 40
0.5773502691896258
 41
0.0
 42
6.283185307179586
  0
ELLIPSE
  5
CEA9
330
CE16
100
AcDbEntity
  8
0
100
AcDbEllipse
 10
-17.32542349316051
 20
92.27139873027995
 30
0.0
 11
1.250000000000128
 21
2.165063509461022
 31
0.0
210
0.0
220
0.0
230
1.0
 40
0.5773502691896258
 41
0.0
 42
6.283185307179586
  0
ELLIPSE
  5
CEAA
330
CE16
100
AcDbEntity
  8
0
100
AcDbEllipse
 10
-17.32542349316051
 20
75.94146711172543
 30
0.0
 11
1.250000000000128
 21
2.165063509461022
 31
0.0
210
0.0
220
0.0
230
1.0
 40
0.5773502691896258
 41
0.0
 42
6.283185307179586
  0
ELLIPSE
  5
CEAB
330
CE16
100
AcDbEntity
  8
0
100
AcDbEllipse
 10
-17.32542349316051
 20
59.6115354931709
 30
0.0
 11
1.250000000000128
 21
2.165063509461022
 31
0.0
210
0.0
220
0.0
230
1.0
 40
0.5773502691896258
 41
0.0
 42
6.283185307179586
  0
ELLIPSE
  5
CEAC
330
CE16
100
AcDbEntity
  8
0
100
AcDbEllipse
 10
-17.32542349316051
 20
43.28160387461638
 30
0.0
 11
1.250000000000128
 21
2.165063509461022
 31
0.0
210
0.0
220
0.0
230
1.0
 40
0.5773502691896258
 41
0.0
 42
6.283185307179586
  0
ELLIPSE
  5
CEAD
330
CE16
100
AcDbEntity
  8
0
100
AcDbEllipse
 10
-17.32542349316051
 20
26.95167225606186
 30
0.0
 11
1.250000000000128
 21
2.165063509461022
 31
0.0
210
0.0
220
0.0
230
1.0
 40
0.5773502691896258
 41
0.0
 42
6.283185307179586
  0
ELLIPSE
  5
CEAE
330
CE16
100
AcDbEntity
  8
0
100
AcDbEllipse
 10
-18.38608366494034
 20
11.23411307320312
 30
0.0
 11
1.24999999999987
 21
2.165063509461172
 31
0.0
210
0.0
220
0.0
230
1.0
 40
0.5773502691896257
 41
3.579741684173544
 42
5.845036276594997
  0
ELLIPSE
  5
CEAF
330
CE16
100
AcDbEntity
  8
0
100
AcDbEllipse
 10
-17.32542349316051
 20
10.62174063750732
 30
0.0
 11
1.250000000000128
 21
2.165063509461022
 31
0.0
210
0.0
220
0.0
230
1.0
 40
0.5773502691896258
 41
0.0
 42
6.283185307179586
  0
LINE
  5
CEB0
330
CE16
100
AcDbEntity
  8
0
100
AcDbLine
 10
6.779010041008515
 20
-99.18784205605147
 30
0.0
 11
-6.720989958401655
 21
-122.5705279565352
 31
0.0
  0
LINE
  5
CEB1
330
CE16
100
AcDbEntity
  8
0
100
AcDbLine
 10
5.718349869228505
 20
-98.57546962035556
 30
0.0
 11
-7.781650130181465
 21
-121.9581555208394
 31
0.0
  0
LINE
  5
CEB2
330
CE16
100
AcDbEntity
  8
0
100
AcDbLine
 10
11.47901004144284
 20
-138.8518055475929
 30
0.0
 11
48.17901004065496
 21
-75.28554091117979
 31
0.0
  0
LINE
  5
CEB3
330
CE16
100
AcDbEntity
  8
0
100
AcDbLine
 10
46.86982173144798
 20
-74.81665626253249
 30
0.0
 11
47.85763108084122
 21
-73.10572028119185
 31
0.0
  0
LINE
  5
CEB4
330
CE16
100
AcDbEntity
  8
0
100
AcDbLine
 10
11.81273914889849
 20
-139.0444841376186
 30
0.0
 11
11.47901004144294
 21
-138.8518055475928
 31
0.0
  0
LINE
  5
CEB5
330
CE16
100
AcDbEntity
  8
0
100
AcDbLine
 10
48.85109911796089
 20
-74.89216284217734
 30
0.0
 11
11.8127391488985
 21
-139.0444841376187
 31
0.0
  0
LINE
  5
CEB6
330
CE16
100
AcDbEntity
  8
0
100
AcDbLine
 10
6.779010041008515
 20
-99.18784205605147
 30
0.0
 11
5.718349869228505
 21
-98.57546962035556
 31
0.0
  0
LINE
  5
CEB7
330
CE16
100
AcDbEntity
  8
0
100
AcDbLine
 10
48.17901004065496
 20
-75.28554091117979
 30
0.0
 11
6.779010041008515
 21
-99.18784205605147
 31
0.0
  0
LINE
  5
CEB8
330
CE16
100
AcDbEntity
  8
0
100
AcDbLine
 10
-37.76871717374568
 20
-73.4681997568271
 30
0.0
 11
3.631282825902424
 21
-49.56589861195639
 31
0.0
  0
ELLIPSE
  5
CEB9
330
CE16
100
AcDbEntity
  8
0
100
AcDbEllipse
 10
9.383784343241302
 20
-48.46005984561322
 30
0.0
 11
-0.749999999999999
 21
-1.299038105676659
 31
0.0
210
0.0
220
0.0
230
1.0
 40
0.8164965809277259
 41
0.0
 42
1.134458255166979
  0
LINE
  5
CEBA
330
CE16
100
AcDbEntity
  8
0
100
AcDbLine
 10
8.633784343241313
 20
-49.75909795128986
 30
0.0
 11
7.012278653031698
 21
-48.82292120455479
 31
0.0
  0
LINE
  5
CEBB
330
CE16
100
AcDbEntity
  8
0
100
AcDbLine
 10
7.012278653031698
 20
-48.82292120455479
 30
0.0
 11
6.279752347072222
 21
-49.10072080191669
 31
0.0
  0
LINE
  5
CEBC
330
CE16
100
AcDbEntity
  8
0
100
AcDbLine
 10
47.85763108084122
 20
-73.10572028119185
 30
0.0
 11
47.73194943633798
 21
-72.33243409260961
 31
0.0
  0
LINE
  5
CEBD
330
CE16
100
AcDbEntity
  8
0
100
AcDbLine
 10
47.73194943633798
 20
-72.33243409260961
 30
0.0
 11
46.11044374612834
 21
-71.3962573458746
 31
0.0
  0
ELLIPSE
  5
CEBE
330
CE16
100
AcDbEntity
  8
0
100
AcDbEllipse
 10
46.86044374612833
 20
-70.09721924019796
 30
0.0
 11
-0.7500000000000001
 21
-1.299038105676659
 31
0.0
210
0.0
220
0.0
230
1.0
 40
0.8164965809277259
 41
5.148727052012596
 42
6.283185307179585
  0
SPLINE
  5
CEBF
330
CE16
100
AcDbEntity
  8
0
100
AcDbSpline
210
0.0
220
0.0
230
1.0
 70
     8
 71
     3
 72
     8
 73
     4
 74
     0
 42
0.000000001
 43
0.0000000001
 40
-1.0
 40
-1.0
 40
-1.0
 40
-1.0
 40
0.0
 40
0.0
 40
0.0
 40
0.0
 10
10.23924090852606
 20
-49.19606531656306
 30
0.0
 10
10.27117232350747
 20
-49.34439677290491
 30
0.0
 10
10.18921031089687
 20
-49.48860387237456
 30
0.0
 10
10.02809872436013
 20
-49.56406026825421
 30
0.0
  0
SPLINE
  5
CEC0
330
CE16
100
AcDbEntity
  8
0
100
AcDbSpline
210
0.0
220
0.0
230
1.0
 70
     8
 71
     3
 72
     8
 73
     4
 74
     0
 42
0.000000001
 43
0.0000000001
 40
-1.0
 40
-1.0
 40
-1.0
 40
-1.0
 40
0.0
 40
0.0
 40
0.0
 40
0.0
 10
45.58219414377306
 20
-70.09122682944592
 30
0.0
 10
45.56698550621444
 20
-69.91397190472122
 30
0.0
 10
45.58764868205043
 20
-69.73437390533874
 30
0.0
 10
45.61958009703096
 20
-69.62291367106662
 30
0.0
  0
LINE
  5
CEC1
330
CE16
100
AcDbEntity
  8
0
100
AcDbLine
 10
-36.70805700196569
 20
-74.08057219252299
 30
0.0
 11
-37.76871717374568
 21
-73.4681997568271
 31
0.0
  0
LINE
  5
CEC2
330
CE16
100
AcDbEntity
  8
0
100
AcDbLine
 10
4.69194299768223
 20
-50.17827104765217
 30
0.0
 11
-36.70805700196569
 21
-74.08057219252299
 31
0.0
  0
LINE
  5
CEC3
330
CE16
100
AcDbEntity
  8
0
100
AcDbLine
 10
4.69194299768223
 20
-50.17827104765217
 30
0.0
 11
4.338743160479845
 21
-49.97435102656563
 31
0.0
  0
LINE
  5
CEC4
330
CE16
100
AcDbEntity
  8
0
100
AcDbLine
 10
4.338743160479845
 20
-49.97435102656563
 30
0.0
 11
3.631282825902424
 21
-49.56589861195639
 31
0.0
  0
SPLINE
  5
CEC5
330
CE16
100
AcDbEntity
  8
0
100
AcDbSpline
210
0.0
220
0.0
230
1.0
 70
     8
 71
     3
 72
     8
 73
     4
 74
     0
 42
0.000000001
 43
0.0000000001
 40
-1.0
 40
-1.0
 40
-1.0
 40
-1.0
 40
0.0
 40
0.0
 40
0.0
 40
0.0
 10
6.279752347072222
 20
-49.10072080191667
 30
0.0
 10
5.769759773271583
 20
-49.47103391915745
 30
0.0
 10
5.136871057254293
 20
-49.77039291560718
 30
0.0
 10
4.691942997682234
 20
-50.17827104765217
 30
0.0
  0
SPLINE
  5
CEC6
330
CE16
100
AcDbEntity
  8
0
100
AcDbSpline
210
0.0
220
0.0
230
1.0
 70
     8
 71
     3
 72
     8
 73
     4
 74
     0
 42
0.000000001
 43
0.0000000001
 40
0.0
 40
0.0
 40
0.0
 40
0.0
 40
0.6081734479693865
 40
0.6081734479693865
 40
0.6081734479693865
 40
0.6081734479693865
 10
3.631282825902424
 20
-49.56589861195638
 30
0.0
 10
4.140705412521814
 20
-49.45572603869814
 30
0.0
 10
4.893454778830514
 20
-49.4860382471944
 30
0.0
 10
5.644787642033239
 20
-49.51553263724107
 30
0.0
  0
ELLIPSE
  5
CEC7
330
CE16
100
AcDbEntity
  8
0
100
AcDbEllipse
 10
9.191080801335013
 20
-48.77838562498474
 30
0.0
 11
0.7499999999999226
 21
-1.299038105676702
 31
0.0
210
0.0
220
0.0
230
0.9999999999999998
 40
0.577350269189626
 41
0.9390757175653252
 42
2.356194490192585
  0
LINE
  5
CEC8
330
CE16
100
AcDbEntity
  8
0
100
AcDbLine
 10
48.17901004065496
 20
-75.28554091117979
 30
0.0
 11
47.47154970607751
 21
-74.87708849657052
 31
0.0
  0
LINE
  5
CEC9
330
CE16
100
AcDbEntity
  8
0
100
AcDbLine
 10
47.47154970607751
 20
-74.87708849657052
 30
0.0
 11
47.1183498688751
 21
-74.67316847548399
 31
0.0
  0
LINE
  5
CECA
330
CE16
100
AcDbEntity
  8
0
100
AcDbLine
 10
5.718349869228505
 20
-98.57546962035556
 30
0.0
 11
47.1183498688751
 21
-74.67316847548399
 31
0.0
  0
LINE
  5
CECB
330
CE16
100
AcDbEntity
  8
0
100
AcDbLine
 10
47.85763108084122
 20
-73.10572028119185
 30
0.0
 11
48.10738108084096
 21
-73.2499135109218
 31
0.0
  0
SPLINE
  5
CECC
330
CE16
100
AcDbEntity
  8
0
100
AcDbSpline
210
0.0
220
0.0
230
1.0
 70
     8
 71
     3
 72
     8
 73
     4
 74
     0
 42
0.000000001
 43
0.0000000001
 40
-1.0
 40
-1.0
 40
-1.0
 40
-1.0
 40
0.0
 40
0.0
 40
0.0
 40
0.0
 10
47.11834986887511
 20
-74.67316847548397
 30
0.0
 10
47.56327792844716
 20
-74.26529034343897
 30
0.0
 10
47.79192680085659
 20
-73.73254336446468
 30
0.0
 10
47.8576310808412
 20
-73.10572028119188
 30
0.0
  0
SPLINE
  5
CECD
330
CE16
100
AcDbEntity
  8
0
100
AcDbSpline
210
0.0
220
0.0
230
1.0
 70
     8
 71
     3
 72
     8
 73
     4
 74
     0
 42
0.000000001
 43
0.0000000001
 40
0.0
 40
0.0
 40
0.0
 40
0.0
 40
1.0
 40
1.0
 40
1.0
 40
1.0
 10
48.6076310808412
 20
-73.5387329830841
 30
0.0
 10
49.09728716812633
 20
-74.48619352389733
 30
0.0
 10
49.01663718192569
 20
-75.10438769966405
 30
0.0
 10
48.17901004065496
 20
-75.28554091117979
 30
0.0
  0
LINE
  5
CECE
330
CE16
100
AcDbEntity
  8
0
100
AcDbLine
 10
48.10738108084096
 20
-73.2499135109218
 30
0.0
 11
48.60763108084122
 21
-73.53873298308406
 31
0.0
  0
ELLIPSE
  5
CECF
330
CE16
100
AcDbEntity
  8
0
100
AcDbEllipse
 10
47.61044374612832
 20
-70.53023194209017
 30
0.0
 11
-0.749999999999999
 21
-1.299038105676659
 31
0.0
210
0.0
220
0.0
230
1.0
 40
0.8164965809277259
 41
5.148727052012596
 42
6.283185307179584
  0
LINE
  5
CED0
330
CE16
100
AcDbEntity
  8
0
100
AcDbLine
 10
46.33219414377304
 20
-70.52423953133812
 30
0.0
 11
45.83194414467488
 21
-70.23542005969668
 31
0.0
  0
LINE
  5
CED1
330
CE16
100
AcDbEntity
  8
0
100
AcDbLine
 10
45.83194414467488
 20
-70.23542005969668
 30
0.0
 11
45.58219414377305
 21
-70.0912268294459
 31
0.0
  0
LINE
  5
CED2
330
CE16
100
AcDbEntity
  8
0
100
AcDbLine
 10
47.73194943633798
 20
-72.33243409260961
 30
0.0
 11
48.48194943633798
 21
-72.76544679450182
 31
0.0
  0
LINE
  5
CED3
330
CE16
100
AcDbEntity
  8
0
100
AcDbLine
 10
48.48194943633798
 20
-72.76544679450182
 30
0.0
 11
48.60763108084122
 21
-73.53873298308406
 31
0.0
  0
LINE
  5
CED4
330
CE16
100
AcDbEntity
  8
0
100
AcDbLine
 10
45.61958009703097
 20
-69.62291367106662
 30
0.0
 11
45.97277993744689
 21
-69.41899364812477
 31
0.0
  0
SPLINE
  5
CED5
330
CE16
100
AcDbEntity
  8
0
100
AcDbSpline
210
0.0
220
0.0
230
1.0
 70
     8
 71
     3
 72
     8
 73
     4
 74
     0
 42
0.000000001
 43
0.0000000001
 40
0.130246360654268
 40
0.130246360654268
 40
0.130246360654268
 40
0.130246360654268
 40
1.0
 40
1.0
 40
1.0
 40
1.0
 10
46.66202661189244
 20
-69.18799261436447
 30
0.0
 10
46.60920067610376
 20
-69.59741384180109
 30
0.0
 10
46.47759090198824
 20
-70.09532567696756
 30
0.0
 10
46.33219414377307
 20
-70.52423953133812
 30
0.0
  0
LINE
  5
CED6
330
CE16
100
AcDbEntity
  8
0
100
AcDbLine
 10
45.97277993744689
 20
-69.41899364812477
 30
0.0
 11
46.50538137417818
 21
-69.11149606525717
 31
0.0
  0
ELLIPSE
  5
CED7
330
CE16
100
AcDbEntity
  8
0
100
AcDbEllipse
 10
46.66774020422204
 20
-70.41554501956948
 30
0.0
 11
-0.7500000000000002
 21
1.299038105676658
 31
0.0
210
0.0
220
0.0
230
1.0
 40
0.5773502691896258
 41
5.497787143782137
 42
6.914905916409349
  0
LINE
  5
CED8
330
CE16
100
AcDbEntity
  8
0
100
AcDbLine
 10
11.47901004144284
 20
-138.8518055475929
 30
0.0
 11
-6.720989958401673
 21
-128.3440306484314
 31
0.0
  0
LINE
  5
CED9
330
CE16
100
AcDbEntity
  8
0
100
AcDbLine
 10
-50.20805700137433
 20
-103.2367607849039
 30
0.0
 11
-32.00805700152983
 21
-113.7445356840653
 31
0.0
  0
LINE
  5
CEDA
330
CE16
100
AcDbEntity
  8
0
100
AcDbLine
 10
24.32739027969987
 20
-57.81976009695056
 30
0.0
 11
10.02809872436012
 21
-49.56406026825421
 31
0.0
  0
LINE
  5
CEDB
330
CE16
100
AcDbEntity
  8
0
100
AcDbLine
 10
-31.28379293281788
 20
-114.1626897391005
 30
0.0
 11
-7.781650130181474
 21
-127.7316582127356
 31
0.0
  0
LINE
  5
CEDC
330
CE16
100
AcDbEntity
  8
0
100
AcDbLine
 10
45.58219414377305
 20
-70.0912268294459
 30
0.0
 11
31.28290258843331
 21
-61.83552700074955
 31
0.0
  0
LINE
  5
CEDD
330
CE16
100
AcDbEntity
  8
0
100
AcDbLine
 10
10.23924090852608
 20
-49.19606531656306
 30
0.0
 11
24.40134823088196
 21
-57.37256179141759
 31
0.0
  0
LINE
  5
CEDE
330
CE16
100
AcDbEntity
  8
0
100
AcDbLine
 10
31.4574727746751
 20
-61.44641719621208
 30
0.0
 11
45.61958009703097
 21
-69.62291367106662
 31
0.0
  0
ELLIPSE
  5
CEDF
330
CE16
100
AcDbEntity
  8
0
100
AcDbEllipse
 10
1.029010041712026
 20
-118.3847385049761
 30
0.0
 11
1.250000000000129
 21
2.165063509461022
 31
0.0
210
0.0
220
0.0
230
1.0
 40
0.5773502691896254
 41
0.0
 42
6.283185307179586
  0
ELLIPSE
  5
CEE0
330
CE16
100
AcDbEntity
  8
0
100
AcDbEllipse
 10
14.77901004191674
 20
-100.3425425929184
 30
0.0
 11
-0.4000000000000425
 21
-0.6928203230275289
 31
0.0
210
0.0
220
0.0
230
1.0
 40
0.5773502691896252
 41
2.094395102375155
 42
2.27682856651157
  0
LINE
  5
CEE1
330
CE16
100
AcDbEntity
  8
0
100
AcDbLine
 10
15.32542020342786
 20
-100.1961324314177
 30
0.0
 11
14.53295195810459
 21
-104.0687276956237
 31
0.0
  0
ELLIPSE
  5
CEE2
330
CE16
100
AcDbEntity
  8
0
100
AcDbEllipse
 10
13.98654179659348
 20
-104.2151378571245
 30
0.0
 11
-0.4000000000000416
 21
-0.6928203230275272
 31
0.0
210
0.0
220
0.0
230
0.9999999999999998
 40
0.5773502691896255
 41
0.0
 42
2.094395102375109
  0
LINE
  5
CEE3
330
CE16
100
AcDbEntity
  8
0
100
AcDbLine
 10
13.58654179658621
 20
-104.9079581801479
 30
0.0
 11
11.4214782871645
 21
-103.6579581800796
 31
0.0
  0
ELLIPSE
  5
CEE4
330
CE16
100
AcDbEntity
  8
0
100
AcDbEllipse
 10
11.82147828717177
 20
-102.9651378570562
 30
0.0
 11
-0.4000000000072804
 21
-0.6928203230233495
 31
0.0
210
0.0
220
0.0
230
1.0
 40
0.5773502691896257
 41
4.18879020482279
 42
6.283185307252368
  0
LINE
  5
CEE5
330
CE16
100
AcDbEntity
  8
0
100
AcDbLine
 10
11.67506812566794
 20
-102.4187276955337
 30
0.0
 11
14.63259988041292
 21
-99.79613243139585
 31
0.0
  0
ELLIPSE
  5
CEE6
330
CE16
100
AcDbEntity
  8
0
100
AcDbEllipse
 10
14.77901004191674
 20
-100.3425425929184
 30
0.0
 11
0.4000000000000011
 21
0.6928203230275525
 31
0.0
210
0.0
220
0.0
230
1.0
 40
0.5773502691896259
 41
0.0802385882704782
 42
1.047197551178416
  0
LINE
  5
CEE7
330
CE16
100
AcDbEntity
  8
0
100
AcDbLine
 10
15.14566207965098
 20
-99.63344091134217
 30
0.0
 11
15.3429147898011
 21
-100.0687592317197
 31
0.0
  0
ELLIPSE
  5
CEE8
330
CE16
100
AcDbEntity
  8
0
100
AcDbEllipse
 10
12.92588162481369
 20
-103.6027654214287
 30
0.0
 11
-0.4000000000072798
 21
-0.6928203230233483
 31
0.0
210
0.0
220
0.0
230
1.0
 40
0.5773502691896258
 41
0.0000000000727912
 42
2.094395102429602
  0
LINE
  5
CEE9
330
CE16
100
AcDbEntity
  8
0
100
AcDbLine
 10
13.47229178632478
 20
-103.456355259928
 30
0.0
 11
14.53295195810459
 21
-104.0687276956237
 31
0.0
  0
LINE
  5
CEEA
330
CE16
100
AcDbEntity
  8
0
100
AcDbLine
 10
13.47229178632478
 20
-103.456355259928
 30
0.0
 11
14.13012130247542
 21
-100.2417059866807
 31
0.0
  0
LINE
  5
CEEB
330
CE16
100
AcDbEntity
  8
0
100
AcDbLine
 10
14.63259988040029
 20
-99.7961324314177
 30
0.0
 11
15.32542020342786
 21
-100.1961324314177
 31
0.0
  0
LINE
  5
CEEC
330
CE16
100
AcDbEntity
  8
0
100
AcDbLine
 10
14.73416101390612
 20
-99.71729507533659
 30
0.0
 11
15.3429147898011
 21
-100.0687592317197
 31
0.0
  0
ELLIPSE
  5
CEED
330
CE16
100
AcDbEntity
  8
0
100
AcDbEllipse
 10
-0.0316501300677707
 20
-117.7723660692803
 30
0.0
 11
1.24999999999987
 21
2.165063509461171
 31
0.0
210
0.0
220
0.0
230
1.0
 40
0.5773502691896258
 41
3.579741684173535
 42
5.845036276595007
  0
LINE
  5
CEEE
330
CE16
100
AcDbEntity
  8
0
100
AcDbLine
 10
-37.76871717374568
 20
-73.4681997568271
 30
0.0
 11
-51.26871717315414
 21
-96.85088565731184
 31
0.0
  0
LINE
  5
CEEF
330
CE16
100
AcDbEntity
  8
0
100
AcDbLine
 10
-36.70805700196569
 20
-74.08057219252299
 30
0.0
 11
-50.20805700137433
 21
-97.46325809300765
 31
0.0
  0
ELLIPSE
  5
CEF0
330
CE16
100
AcDbEntity
  8
0
100
AcDbEllipse
 10
-46.01871717308591
 20
-96.99522322464865
 30
0.0
 11
1.24999999999987
 21
2.165063509461172
 31
0.0
210
0.0
220
0.0
230
0.9999999999999998
 40
0.5773502691896254
 41
3.579741684173528
 42
5.845036276595009
  0
ELLIPSE
  5
CEF1
330
CE16
100
AcDbEntity
  8
0
100
AcDbEllipse
 10
-33.06118541820446
 20
-82.82562257679712
 30
0.0
 11
-0.4000000000072798
 21
-0.6928203230233483
 31
0.0
210
0.0
220
0.0
230
1.0
 40
0.5773502691896258
 41
0.000000000072787
 42
2.094395102429601
  0
LINE
  5
CEF2
330
CE16
100
AcDbEntity
  8
0
100
AcDbLine
 10
-32.51477525669336
 20
-82.67921241529634
 30
0.0
 11
-31.85694574054271
 21
-79.46456314204908
 31
0.0
  0
LINE
  5
CEF3
330
CE16
100
AcDbEntity
  8
0
100
AcDbLine
 10
-31.45411508491355
 20
-83.29158485099213
 30
0.0
 11
-32.51477525669336
 21
-82.67921241529634
 31
0.0
  0
LINE
  5
CEF4
330
CE16
100
AcDbEntity
  8
0
100
AcDbLine
 10
-30.6616468395903
 20
-79.41898958678606
 30
0.0
 11
-31.45411508491355
 21
-83.29158485099213
 31
0.0
  0
LINE
  5
CEF5
330
CE16
100
AcDbEntity
  8
0
100
AcDbLine
 10
-30.6616468395903
 20
-79.41898958678606
 30
0.0
 11
-31.35446716262511
 21
-79.01898958678187
 31
0.0
  0
ELLIPSE
  5
CEF6
330
CE16
100
AcDbEntity
  8
0
100
AcDbEllipse
 10
-31.2080570011014
 20
-79.56539974828681
 30
0.0
 11
0.4000000000000004
 21
0.6928203230275526
 31
0.0
210
0.0
220
0.0
230
1.0
 40
0.5773502691896255
 41
5.235987755964797
 42
7.330382858357999
  0
LINE
  5
CEF7
330
CE16
100
AcDbEntity
  8
0
100
AcDbLine
 10
-34.3119989173502
 20
-81.64158485090204
 30
0.0
 11
-31.35446716260524
 21
-79.01898958676422
 31
0.0
  0
ELLIPSE
  5
CEF8
330
CE16
100
AcDbEntity
  8
0
100
AcDbEllipse
 10
-34.16558875584637
 20
-82.18799501242465
 30
0.0
 11
-0.4000000000072797
 21
-0.6928203230233497
 31
0.0
210
0.0
220
0.0
230
1.0
 40
0.5773502691896255
 41
4.188790204822792
 42
6.283185307252367
  0
LINE
  5
CEF9
330
CE16
100
AcDbEntity
  8
0
100
AcDbLine
 10
-32.40052524643193
 20
-84.13081533551624
 30
0.0
 11
-34.56558875585365
 21
-82.88081533544801
 31
0.0
  0
ELLIPSE
  5
CEFA
330
CE16
100
AcDbEntity
  8
0
100
AcDbEllipse
 10
-32.00052524642467
 20
-83.43799501249291
 30
0.0
 11
-0.4000000000000412
 21
-0.6928203230275275
 31
0.0
210
0.0
220
0.0
230
0.9999999999999998
 40
0.5773502691896258
 41
0.0
 42
2.094395102375107
  0
ELLIPSE
  5
CEFB
330
CE16
100
AcDbEntity
  8
0
100
AcDbEllipse
 10
-44.95805700130611
 20
-97.60759566034444
 30
0.0
 11
1.250000000000128
 21
2.165063509461023
 31
0.0
210
0.0
220
0.0
230
1.0
 40
0.5773502691896258
 41
0.0
 42
6.283185307179586
  0
LINE
  5
CEFC
330
CE16
100
AcDbEntity
  8
0
100
AcDbLine
 10
6.279752347072222
 20
-49.10072080191669
 30
0.0
 11
-31.28379293281788
 21
-114.1626897391005
 31
0.0
  0
LINE
  5
CEFD
330
CE16
100
AcDbEntity
  8
0
100
AcDbLine
 10
-32.00805700152983
 20
-113.7445356840653
 30
0.0
 11
-31.2837929328179
 21
-114.1626897391005
 31
0.0
  0
LINE
  5
CEFE
330
CE16
100
AcDbEntity
  8
0
100
AcDbLine
 10
-32.00805700152983
 20
-113.7445356840653
 30
0.0
 11
4.691942997682234
 21
-50.17827104765217
 31
0.0
  0
ENDBLK
  5
CE18
330
CE16
100
AcDbEntity
  8
0
100
AcDbBlockEnd
  0
ENDSEC
  0
SECTION
  2
ENTITIES
  0
INSERT
  5
CEFF
330
1F
100
AcDbEntity
  8
0
100
AcDbBlockReference
  2
SPR60_240-Front
 10
0.0
 20
0.0
 30
0.0
  0
INSERT
  5
CF00
330
1F
100
AcDbEntity
  8
0
100
AcDbBlockReference
  2
SPR60_240-Left
 10
161.4229986469887
 20
0.0
 30
0.0
  0
INSERT
  5
CF01
330
1F
100
AcDbEntity
  8
0
100
AcDbBlockReference
  2
SPR60_240-Right
 10
-161.4229986469887
 20
0.0
 30
0.0
  0
INSERT
  5
CF02
330
1F
100
AcDbEntity
  8
0
100
AcDbBlockReference
  2
SPR60_240-Top
 10
0.0
 20
-144.5456017059509
 30
0.0
  0
INSERT
  5
CF03
330
1F
100
AcDbEntity
  8
0
100
AcDbBlockReference
  2
SPR60_240-Bottom
 10
0.0
 20
329.5659080859887
 30
0.0
  0
INSERT
  5
CF04
330
1F
100
AcDbEntity
  8
0
100
AcDbBlockReference
  2
SPR60_240-ISO
 10
212.6917158201429
 20
-294.6126490598206
 30
0.0
  0
MTEXT
  5
CF05
330
1F
100
AcDbEntity
  8
0
100
AcDbMText
 10
0.0
 20
-315.4445760657996
 30
0.0
 40
24.8343074841521
 41
0.0
 71
     5
 72
     5
  1
SPR60/240
 73
     1
 44
1.0
1001
ACAD
1000
MTEXTBEGIN
1070
    73
1070
     1
1070
    44
1040
1.0
1070
    74
1070
     0
1000
MTEXTEND
  0
ENDSEC
  0
SECTION
  2
OBJECTS
  0
DICTIONARY
  5
C
330
0
100
AcDbDictionary
281
     1
  3
ACAD_CIP_PREVIOUS_PRODUCT_INFO
350
216
  3
ACAD_COLOR
350
6B
  3
ACAD_DETAILVIEWSTYLE
350
21B
  3
ACAD_GROUP
350
D
  3
ACAD_LAYOUT
350
1A
  3
ACAD_MATERIAL
350
6A
  3
ACAD_MLEADERSTYLE
350
12D
  3
ACAD_MLINESTYLE
350
17
  3
ACAD_PLOTSETTINGS
350
19
  3
ACAD_PLOTSTYLENAME
350
E
  3
ACAD_SCALELIST
350
10C
  3
ACAD_SECTIONVIEWSTYLE
350
219
  3
ACAD_TABLESTYLE
350
7E
  3
ACAD_VISUALSTYLE
350
EF
  3
ACDB_RECOMPOSE_DATA
350
D006
  3
AcDbVariableDictionary
350
5E
  3
DWGPROPS
350
D007
  0
DICTIONARY
  5
CF56
330
8
100
AcDbDictionary
280
     1
281
     1
  0
DICTIONARY
  5
1FF
330
2
100
AcDbDictionary
280
     1
281
     1
  3
ACAD_LAYERSTATES
360
200
  0
DICTIONARY
  5
13C
330
10
100
AcDbDictionary
280
     1
281
     1
  0
DICTIONARY
  5
1CE
330
1F
100
AcDbDictionary
280
     1
281
     1
  3
ACAD_LAYOUTSELFREF
360
CF5E
  0
DICTIONARY
  5
CF09
330
D2
100
AcDbDictionary
280
     1
281
     1
  3
ACAD_LAYOUTSELFREF
360
CF67
  0
DICTIONARY
  5
CF0B
330
D6
100
AcDbDictionary
280
     1
281
     1
  3
ACAD_LAYOUTSELFREF
360
CF6A
  0
XRECORD
  5
216
102
{ACAD_REACTORS
330
C
102
}
330
C
100
AcDbXrecord
280
     1
300
ACD
300
2021
300
87393ACD_2021_0F
  0
DICTIONARY
  5
6B
102
{ACAD_REACTORS
330
C
102
}
330
C
100
AcDbDictionary
281
     1
  0
DICTIONARY
  5
21B
102
{ACAD_REACTORS
330
C
102
}
330
C
100
AcDbDictionary
281
     1
  3
Metric50
350
21C
  0
DICTIONARY
  5
D
102
{ACAD_REACTORS
330
C
102
}
330
C
100
AcDbDictionary
281
     1
  0
DICTIONARY
  5
1A
102
{ACAD_REACTORS
330
C
102
}
330
C
100
AcDbDictionary
281
     1
  3
Layout1
350
D3
  3
Layout2
350
D7
  3
Model
350
22
  0
DICTIONARY
  5
6A
102
{ACAD_REACTORS
330
C
102
}
330
C
100
AcDbDictionary
281
     1
  3
ByBlock
350
ED
  3
ByLayer
350
EC
  3
Global
350
EE
  0
DICTIONARY
  5
12D
102
{ACAD_REACTORS
330
C
102
}
330
C
100
AcDbDictionary
281
     1
  3
Standard
350
12E
  0
DICTIONARY
  5
17
102
{ACAD_REACTORS
330
C
102
}
330
C
100
AcDbDictionary
281
     1
  3
Standard
350
18
  0
DICTIONARY
  5
19
102
{ACAD_REACTORS
330
C
102
}
330
C
100
AcDbDictionary
281
     1
  0
ACDBDICTIONARYWDFLT
  5
E
102
{ACAD_REACTORS
330
C
102
}
330
C
100
AcDbDictionary
281
     1
  3
Normal
350
F
100
AcDbDictionaryWithDefault
340
F
  0
DICTIONARY
  5
10C
102
{ACAD_REACTORS
330
C
102
}
330
C
100
AcDbDictionary
281
     1
  3
A0
350
10D
  3
A1
350
1BE
  3
A2
350
1BF
  3
A3
350
1C0
  3
A4
350
1C1
  3
A5
350
1C2
  3
A6
350
1C3
  3
A7
350
1C4
  3
A8
350
1C5
  3
A9
350
1C6
  3
B0
350
1C7
  3
B1
350
1C8
  3
B2
350
1C9
  3
B3
350
1CA
  3
B4
350
1CB
  3
B5
350
1CC
  3
B6
350
1CD
  0
DICTIONARY
  5
219
102
{ACAD_REACTORS
330
C
102
}
330
C
100
AcDbDictionary
281
     1
  3
Metric50
350
21A
  0
DICTIONARY
  5
7E
102
{ACAD_REACTORS
330
C
102
}
330
C
100
AcDbDictionary
281
     1
  3
Standard
350
7F
  0
DICTIONARY
  5
EF
102
{ACAD_REACTORS
330
C
102
}
330
C
100
AcDbDictionary
281
     1
  3
2dWireframe
350
F5
  3
Basic
350
F4
  3
Brighten
350
FB
  3
ColorChange
350
FF
  3
Conceptual
350
F8
  3
Dim
350
FA
  3
EdgeColorOff
350
1E6
  3
Facepattern
350
FE
  3
Flat
350
F0
  3
FlatWithEdges
350
F1
  3
Gouraud
350
F2
  3
GouraudWithEdges
350
F3
  3
Hidden
350
F7
  3
JitterOff
350
1E4
  3
Linepattern
350
FD
  3
OverhangOff
350
1E5
  3
Realistic
350
F9
  3
Shaded
350
1F3
  3
Shaded with edges
350
1F2
  3
Shades of Gray
350
1EF
  3
Sketchy
350
1F0
  3
Thicken
350
FC
  3
Wireframe
350
F6
  3
X-Ray
350
1F1
  0
XRECORD
  5
D006
102
{ACAD_REACTORS
330
C
102
}
330
C
100
AcDbXrecord
280
     1
 90
        1
330
7F
  0
DICTIONARY
  5
5E
102
{ACAD_REACTORS
330
C
102
}
330
C
100
AcDbDictionary
281
     1
  3
CANNOSCALE
350
146
  3
CENTEREXE
350
259
  3
CENTERLTYPEFILE
350
25A
  3
CMLEADERSTYLE
350
145
  3
CTABLESTYLE
350
84
  3
CVIEWDETAILSTYLE
350
227
  3
CVIEWSECTIONSTYLE
350
228
  3
DIMASSOC
350
5F
  3
HIDETEXT
350
63
  3
INDEXCTL
350
CFB3
  3
LAYEREVAL
350
1AE
  3
LAYERNOTIFY
350
1AF
  3
LIGHTINGUNITS
350
CFB1
  3
MSLTSCALE
350
CFB0
  3
PSOLHEIGHT
350
D003
  3
PSOLWIDTH
350
D002
  3
SORTENTS
350
CFB2
  3
XCLIPFRAME
350
D004
  0
XRECORD
  5
D007
102
{ACAD_REACTORS
330
C
102
}
330
C
100
AcDbXrecord
280
     1
  1
DWGPROPS COOKIE
  2

  3

  4

  6

  7

  8
truole
  9

300
=
301
=
302
=
303
=
304
=
305
=
306
=
307
=
308
=
309
=
 40
0.0024652777777778
 41
2460719.40650463
 42
2460719.414247685
  1

 90
        0
  0
DICTIONARY
  5
200
102
{ACAD_REACTORS
330
1FF
102
}
330
1FF
100
AcDbDictionary
281
     1
  0
XRECORD
  5
CF5E
102
{ACAD_REACTORS
330
1CE
102
}
330
1CE
100
AcDbXrecord
280
     1
340
1F
  0
XRECORD
  5
CF67
102
{ACAD_REACTORS
330
CF09
102
}
330
CF09
100
AcDbXrecord
280
     1
340
D2
  0
XRECORD
  5
CF6A
102
{ACAD_REACTORS
330
CF0B
102
}
330
CF0B
100
AcDbXrecord
280
     1
340
D6
  0
ACDBDETAILVIEWSTYLE
  5
21C
102
{ACAD_XDICTIONARY
360
D046
102
}
102
{ACAD_REACTORS
330
21B
102
}
330
21B
100
AcDbModelDocViewStyle
 70
     0
  3
Metric50
290
     0
100
AcDbDetailViewStyle
 70
     0
 71
     0
 90
        3
 71
     1
340
11
 40
5.0
340
0
 40
5.0
300

 40
0.0
280
     1
 71
     2
340
16
 90
       25
 71
     3
340
11
 40
5.0
 90
        0
 40
15.0
 90
        1
300
%<\AcVar ViewDetailId>% (%<\AcVar ViewScale \f "%sn">%)
 71
     4
340
16
 90
       25
340
16
 90
       25
280
     0
  0
LAYOUT
  5
D3
102
{ACAD_XDICTIONARY
360
D00B
102
}
102
{ACAD_REACTORS
330
1A
102
}
330
1A
100
AcDbPlotSettings
  1

  2
C:\Documents and Settings\basas\Application Data\Autodesk\AutoCAD 2005\R16.1\enu\plotters\Default Windows System Printer.pc3
  4

  6

 40
0.0
 41
0.0
 42
0.0
 43
0.0
 44
0.0
 45
0.0
 46
0.0
 47
0.0
 48
0.0
 49
0.0
140
0.0
141
0.0
142
1.0
143
1.0
 70
   688
 72
     0
 73
     0
 74
     5
  7

 75
    16
147
1.0
148
0.0
149
0.0
100
AcDbLayout
  1
Layout1
 70
     1
 71
     1
 10
0.0
 20
0.0
 11
12.0
 21
9.0
 12
0.0
 22
0.0
 32
0.0
 14
0.0
 24
0.0
 34
0.0
 15
0.0
 25
0.0
 35
0.0
146
0.0
 13
0.0
 23
0.0
 33
0.0
 16
1.0
 26
0.0
 36
0.0
 17
0.0
 27
1.0
 37
0.0
 76
     0
330
D2
  0
LAYOUT
  5
D7
102
{ACAD_XDICTIONARY
360
D00D
102
}
102
{ACAD_REACTORS
330
1A
102
}
330
1A
100
AcDbPlotSettings
  1

  2
C:\Documents and Settings\basas\Application Data\Autodesk\AutoCAD 2005\R16.1\enu\plotters\Default Windows System Printer.pc3
  4

  6

 40
0.0
 41
0.0
 42
0.0
 43
0.0
 44
0.0
 45
0.0
 46
0.0
 47
0.0
 48
0.0
 49
0.0
140
0.0
141
0.0
142
1.0
143
1.0
 70
   688
 72
     0
 73
     0
 74
     5
  7

 75
    16
147
1.0
148
0.0
149
0.0
100
AcDbLayout
  1
Layout2
 70
     1
 71
     2
 10
0.0
 20
0.0
 11
12.0
 21
9.0
 12
0.0
 22
0.0
 32
0.0
 14
0.0
 24
0.0
 34
0.0
 15
0.0
 25
0.0
 35
0.0
146
0.0
 13
0.0
 23
0.0
 33
0.0
 16
1.0
 26
0.0
 36
0.0
 17
0.0
 27
1.0
 37
0.0
 76
     0
330
D6
  0
LAYOUT
  5
22
102
{ACAD_XDICTIONARY
360
D008
102
}
102
{ACAD_REACTORS
330
1A
102
}
330
1A
100
AcDbPlotSettings
  1

  2
none_device
  4
ISO_A4_(210.00_x_297.00_MM)
  6

 40
7.5
 41
20.0
 42
7.5
 43
20.0
 44
210.0
 45
297.0
 46
11.54999923706054
 47
-13.65000009536743
 48
0.0
 49
0.0
140
0.0
141
0.0
142
1.0
143
8.704084754739808
 70
 11952
 72
     1
 73
     0
 74
     0
  7

 75
     0
147
0.1148885871608098
148
0.0
149
0.0
100
AcDbLayout
  1
Model
 70
     1
 71
     0
 10
0.0
 20
0.0
 11
12.0
 21
9.0
 12
0.0
 22
0.0
 32
0.0
 14
0.0
 24
0.0
 34
0.0
 15
0.0
 25
0.0
 35
0.0
146
0.0
 13
0.0
 23
0.0
 33
0.0
 16
1.0
 26
0.0
 36
0.0
 17
0.0
 27
1.0
 37
0.0
 76
     0
330
1F
331
EA
1001
ACAD_PSEXT
1000
None
1000
None
1000
Not applicable
1000
The layout will not be plotted unless a new plotter configuration name is selected.
1070
     0
  0
MATERIAL
  5
ED
102
{ACAD_XDICTIONARY
360
1F9
102
}
102
{ACAD_REACTORS
330
6A
102
}
330
6A
100
AcDbMaterial
  1
ByBlock
  0
MATERIAL
  5
EC
102
{ACAD_XDICTIONARY
360
1F7
102
}
102
{ACAD_REACTORS
330
6A
102
}
330
6A
100
AcDbMaterial
  1
ByLayer
  0
MATERIAL
  5
EE
102
{ACAD_XDICTIONARY
360
173
102
}
102
{ACAD_REACTORS
330
6A
102
}
330
6A
100
AcDbMaterial
  1
Global
 43
0.0007999999797903
 43
0.0
 43
0.0
 43
0.0
 43
0.0
 43
0.0007999999797903
 43
0.0
 43
0.0
 43
0.0
 43
0.0
 43
1.0
 43
0.0
 43
0.0
 43
0.0
 43
0.0
 43
1.0
 49
0.0007999999797903
 49
0.0
 49
0.0
 49
0.0
 49
0.0
 49
0.0007999999797903
 49
0.0
 49
0.0
 49
0.0
 49
0.0
 49
1.0
 49
0.0
 49
0.0
 49
0.0
 49
0.0
 49
1.0
142
0.0007999999797903
142
0.0
142
0.0
142
0.0
142
0.0
142
0.0007999999797903
142
0.0
142
0.0
142
0.0
142
0.0
142
1.0
142
0.0
142
0.0
142
0.0
142
0.0
142
1.0
144
0.0007999999797903
144
0.0
144
0.0
144
0.0
144
0.0
144
0.0007999999797903
144
0.0
144
0.0
144
0.0
144
0.0
144
1.0
144
0.0
144
0.0
144
0.0
144
0.0
144
1.0
1001
ACAD
1070
    -1
1070
     3
1070
     0
1000

1071
        0
1070
     0
  0
MLEADERSTYLE
  5
12E
102
{ACAD_XDICTIONARY
360
D032
102
}
102
{ACAD_REACTORS
330
12D
102
}
330
12D
100
AcDbMLeaderStyle
170
     2
171
     1
172
     0
 90
        2
 40
0.0
 41
0.0
173
     1
 91
-1056964608
340
14
 92
       -2
290
     1
 42
2.0
291
     1
 43
8.0
  3
Standard
 44
4.0
300

342
11
174
     1
178
     1
175
     1
176
     0
 93
-1056964608
 45
4.0
292
     0
297
     0
 46
4.0
 94
-1056964608
 47
1.0
 49
1.0
140
1.0
293
     1
141
0.0
294
     1
177
     0
142
1.0
295
     0
296
     0
143
3.75
1001
ACAD_MLEADERVER
1070
     2
  0
MLINESTYLE
  5
18
102
{ACAD_REACTORS
330
17
102
}
330
17
100
AcDbMlineStyle
  2
STANDARD
 70
     0
  3

 62
   256
 51
90.0
 52
90.0
 71
     2
 49
0.5
 62
   256
  6
BYLAYER
 49
-0.5
 62
   256
  6
BYLAYER
  0
ACDBPLACEHOLDER
  5
F
102
{ACAD_REACTORS
330
E
102
}
330
E
  0
SCALE
  5
10D
102
{ACAD_REACTORS
330
10C
102
}
330
10C
100
AcDbScale
 70
     0
300
1:1
140
1.0
141
1.0
290
     1
  0
SCALE
  5
1BE
102
{ACAD_REACTORS
330
10C
102
}
330
10C
100
AcDbScale
 70
     0
300
1:2
140
1.0
141
2.0
290
     0
  0
SCALE
  5
1BF
102
{ACAD_REACTORS
330
10C
102
}
330
10C
100
AcDbScale
 70
     0
300
1:4
140
1.0
141
4.0
290
     0
  0
SCALE
  5
1C0
102
{ACAD_REACTORS
330
10C
102
}
330
10C
100
AcDbScale
 70
     0
300
1:5
140
1.0
141
5.0
290
     0
  0
SCALE
  5
1C1
102
{ACAD_REACTORS
330
10C
102
}
330
10C
100
AcDbScale
 70
     0
300
1:8
140
1.0
141
8.0
290
     0
  0
SCALE
  5
1C2
102
{ACAD_REACTORS
330
10C
102
}
330
10C
100
AcDbScale
 70
     0
300
1:10
140
1.0
141
10.0
290
     0
  0
SCALE
  5
1C3
102
{ACAD_REACTORS
330
10C
102
}
330
10C
100
AcDbScale
 70
     0
300
1:16
140
1.0
141
16.0
290
     0
  0
SCALE
  5
1C4
102
{ACAD_REACTORS
330
10C
102
}
330
10C
100
AcDbScale
 70
     0
300
1:20
140
1.0
141
20.0
290
     0
  0
SCALE
  5
1C5
102
{ACAD_REACTORS
330
10C
102
}
330
10C
100
AcDbScale
 70
     0
300
1:30
140
1.0
141
30.0
290
     0
  0
SCALE
  5
1C6
102
{ACAD_REACTORS
330
10C
102
}
330
10C
100
AcDbScale
 70
     0
300
1:40
140
1.0
141
40.0
290
     0
  0
SCALE
  5
1C7
102
{ACAD_REACTORS
330
10C
102
}
330
10C
100
AcDbScale
 70
     0
300
1:50
140
1.0
141
50.0
290
     0
  0
SCALE
  5
1C8
102
{ACAD_REACTORS
330
10C
102
}
330
10C
100
AcDbScale
 70
     0
300
1:100
140
1.0
141
100.0
290
     0
  0
SCALE
  5
1C9
102
{ACAD_REACTORS
330
10C
102
}
330
10C
100
AcDbScale
 70
     0
300
2:1
140
2.0
141
1.0
290
     0
  0
SCALE
  5
1CA
102
{ACAD_REACTORS
330
10C
102
}
330
10C
100
AcDbScale
 70
     0
300
4:1
140
4.0
141
1.0
290
     0
  0
SCALE
  5
1CB
102
{ACAD_REACTORS
330
10C
102
}
330
10C
100
AcDbScale
 70
     0
300
8:1
140
8.0
141
1.0
290
     0
  0
SCALE
  5
1CC
102
{ACAD_REACTORS
330
10C
102
}
330
10C
100
AcDbScale
 70
     0
300
10:1
140
10.0
141
1.0
290
     0
  0
SCALE
  5
1CD
102
{ACAD_REACTORS
330
10C
102
}
330
10C
100
AcDbScale
 70
     0
300
100:1
140
100.0
141
1.0
290
     0
  0
ACDBSECTIONVIEWSTYLE
  5
21A
102
{ACAD_XDICTIONARY
360
D044
102
}
102
{ACAD_REACTORS
330
219
102
}
330
219
100
AcDbModelDocViewStyle
 70
     0
  3
Metric50
290
     0
100
AcDbSectionViewStyle
 70
     0
 71
     0
 90
      102
 71
     1
340
11
 40
5.0
340
0
340
0
 40
5.0
300
I, O, Q, S, X, Z
 40
10.0
 90
        0
 40
2.5
 90
        0
 71
     2
340
16
 90
       25
340
16
 90
       50
 40
5.0
 40
2.5
 40
5.0
 71
     3
340
11
 40
5.0
 90
        0
 40
15.0
 90
        1
300
%<\AcVar ViewSectionStartId>%-%<\AcVar ViewSectionEndId>% (%<\AcVar ViewScale \f "%sn">%)
 71
     4
300
ANSI31
 40
1.0
 90
        0
290
     0
290
     0
 90
        6
 40
0.0
 40
1.570796326794896
 40
0.2617993877991494
 40
1.308996938995747
 40
-0.2617993877991494
 40
1.832595714594046
  0
TABLESTYLE
  5
7F
102
{ACAD_XDICTIONARY
360
162
102
}
102
{ACAD_REACTORS
330
7E
102
}
330
7E
100
AcDbTableStyle
  3
Standard
 70
     0
 71
     0
 40
1.5
 41
1.5
280
     0
281
     0
  7
Standard
140
4.5
170
     2
 62
     0
 63
     7
283
     0
274
    -2
284
     1
 64
     0
275
    -2
285
     1
 65
     0
276
    -2
286
     1
 66
     0
277
    -2
287
     1
 67
     0
278
    -2
288
     1
 68
     0
279
    -2
289
     1
 69
     0
  7
Standard
140
6.0
170
     5
 62
     0
 63
     7
283
     0
274
    -2
284
     1
 64
     0
275
    -2
285
     1
 65
     0
276
    -2
286
     1
 66
     0
277
    -2
287
     1
 67
     0
278
    -2
288
     1
 68
     0
279
    -2
289
     1
 69
     0
  7
Standard
140
4.5
170
     5
 62
     0
 63
     7
283
     0
274
    -2
284
     1
 64
     0
275
    -2
285
     1
 65
     0
276
    -2
286
     1
 66
     0
277
    -2
287
     1
 67
     0
278
    -2
288
     1
 68
     0
279
    -2
289
     1
 69
     0
  0
VISUALSTYLE
  5
F5
102
{ACAD_XDICTIONARY
360
D01C
102
}
102
{ACAD_REACTORS
330
EF
102
}
330
EF
100
AcDbVisualStyle
  2
2dWireframe
 70
     4
 71
     0
 72
     2
 73
     1
 90
        0
 40
-0.6
 41
-30.0
 62
     5
 63
     7
 74
     1
 91
        4
 64
     7
 65
   257
 75
     1
175
     1
 42
1.0
 92
        0
 66
   257
 43
1.0
 76
     1
 77
     6
 78
     2
 67
     7
 79
     5
170
     0
171
     0
290
     0
174
     0
 93
        1
 44
0.0
173
     0
291
     0
 45
0.0
1001
ACAD
1000
AcDbSavedByObjectVersion
1070
     0
  0
VISUALSTYLE
  5
F4
102
{ACAD_XDICTIONARY
360
D01A
102
}
102
{ACAD_REACTORS
330
EF
102
}
330
EF
100
AcDbVisualStyle
  2
Basic
 70
     7
 71
     1
 72
     0
 73
     1
 90
        0
 40
-0.6
 41
-30.0
 62
     5
 63
     7
 74
     0
 91
        4
 64
     7
 65
   257
 75
     1
175
     1
 42
1.0
 92
        8
 66
     7
 43
1.0
 76
     1
 77
     6
 78
     2
 67
     7
 79
     5
170
     0
171
     0
290
     0
174
     0
 93
        1
 44
0.0
173
     0
291
     1
 45
0.0
1001
ACAD
1000
AcDbSavedByObjectVersion
1070
     0
  0
VISUALSTYLE
  5
FB
102
{ACAD_XDICTIONARY
360
D028
102
}
102
{ACAD_REACTORS
330
EF
102
}
330
EF
100
AcDbVisualStyle
  2
Brighten
 70
    12
 71
     2
 72
     2
 73
     1
 90
        0
 40
-0.6
 41
-30.0
 62
     5
 63
     7
 74
     1
 91
        4
 64
     7
 65
   257
 75
     1
175
     1
 42
1.0
 92
        8
 66
     7
 43
1.0
 76
     1
 77
     6
 78
     2
 67
     7
 79
     5
170
     0
171
     0
290
     0
174
     0
 93
        1
 44
50.0
173
     0
291
     1
 45
0.0
1001
ACAD
1000
AcDbSavedByObjectVersion
1070
     0
  0
VISUALSTYLE
  5
FF
102
{ACAD_XDICTIONARY
360
D030
102
}
102
{ACAD_REACTORS
330
EF
102
}
330
EF
100
AcDbVisualStyle
  2
ColorChange
 70
    16
 71
     2
 72
     2
 73
     3
 90
        0
 40
-0.6
 41
-30.0
 62
     5
 63
     8
 74
     1
 91
        4
 64
     7
 65
   257
 75
     1
175
     1
 42
1.0
 92
        8
 66
     8
 43
1.0
 76
     1
 77
     6
 78
     2
 67
     7
 79
     5
170
     0
171
     0
290
     0
174
     0
 93
        1
 44
0.0
173
     0
291
     1
 45
0.0
1001
ACAD
1000
AcDbSavedByObjectVersion
1070
     0
  0
VISUALSTYLE
  5
F8
102
{ACAD_XDICTIONARY
360
D022
102
}
102
{ACAD_REACTORS
330
EF
102
}
330
EF
100
AcDbVisualStyle
  2
Conceptual
 70
     9
 71
     3
 72
     2
 73
     1
 90
        0
 40
-0.6
 41
-30.0
 62
     5
 63
     7
 74
     2
 91
        2
 64
     7
 65
   257
 75
     1
175
     1
 42
40.0
 92
        8
 66
     7
 43
1.0
 76
     1
 77
     6
 78
     2
 67
     7
 79
     3
170
     0
171
     0
290
     0
174
     0
 93
        1
 44
0.0
173
     0
291
     0
 45
0.0
1001
ACAD
1000
AcDbSavedByObjectVersion
1070
     0
  0
VISUALSTYLE
  5
FA
102
{ACAD_XDICTIONARY
360
D026
102
}
102
{ACAD_REACTORS
330
EF
102
}
330
EF
100
AcDbVisualStyle
  2
Dim
 70
    11
 71
     2
 72
     2
 73
     1
 90
        0
 40
-0.6
 41
-30.0
 62
     5
 63
     7
 74
     1
 91
        4
 64
     7
 65
   257
 75
     1
175
     1
 42
1.0
 92
        8
 66
     7
 43
1.0
 76
     1
 77
     6
 78
     2
 67
     7
 79
     5
170
     0
171
     0
290
     0
174
     0
 93
        1
 44
-50.0
173
     0
291
     1
 45
0.0
1001
ACAD
1000
AcDbSavedByObjectVersion
1070
     0
  0
VISUALSTYLE
  5
1E6
102
{ACAD_XDICTIONARY
360
D038
102
}
102
{ACAD_REACTORS
330
EF
102
}
330
EF
100
AcDbVisualStyle
  2
EdgeColorOff
 70
    22
 71
     2
 72
     2
 73
     0
 90
        0
 40
-0.6
 41
-30.0
 62
     5
 63
     7
 74
     1
 91
        4
 64
     7
 65
   257
 75
     1
175
     1
 42
1.0
 92
        8
 66
     7
 43
1.0
 76
     1
 77
     6
 78
     2
 67
     7
 79
     5
170
     0
171
     0
290
     0
174
     0
 93
        1
 44
0.0
173
     0
291
     1
 45
0.0
1001
ACAD
1000
AcDbSavedByObjectVersion
1070
     0
  0
VISUALSTYLE
  5
FE
102
{ACAD_XDICTIONARY
360
D02E
102
}
102
{ACAD_REACTORS
330
EF
102
}
330
EF
100
AcDbVisualStyle
  2
Facepattern
 70
    15
 71
     2
 72
     2
 73
     1
 90
        0
 40
-0.6
 41
-30.0
 62
     5
 63
     7
 74
     1
 91
        4
 64
     7
 65
   257
 75
     1
175
     1
 42
1.0
 92
        8
 66
     7
 43
1.0
 76
     1
 77
     6
 78
     2
 67
     7
 79
     5
170
     0
171
     0
290
     0
174
     0
 93
        1
 44
0.0
173
     0
291
     1
 45
0.0
1001
ACAD
1000
AcDbSavedByObjectVersion
1070
     0
  0
VISUALSTYLE
  5
F0
102
{ACAD_XDICTIONARY
360
D012
102
}
102
{ACAD_REACTORS
330
EF
102
}
330
EF
100
AcDbVisualStyle
  2
Flat
 70
     0
 71
     2
 72
     1
 73
     1
 90
        2
 40
-0.6
 41
30.0
 62
     5
 63
     7
 74
     0
 91
        0
 64
     7
 65
   257
 75
     1
175
     1
 42
1.0
 92
        8
 66
     7
 43
1.0
 76
     1
 77
     6
 78
     2
 67
     7
 79
     5
170
     0
171
     0
290
     0
174
     0
 93
       13
 44
0.0
173
     0
291
     1
 45
0.0
1001
ACAD
1000
AcDbSavedByObjectVersion
1070
     0
  0
VISUALSTYLE
  5
F1
102
{ACAD_XDICTIONARY
360
D014
102
}
102
{ACAD_REACTORS
330
EF
102
}
330
EF
100
AcDbVisualStyle
  2
FlatWithEdges
 70
     1
 71
     2
 72
     1
 73
     1
 90
        2
 40
-0.6
 41
30.0
 62
     5
 63
     7
 74
     1
 91
        0
 64
     7
 65
   257
 75
     1
175
     1
 42
1.0
 92
        0
 66
   257
 43
1.0
 76
     1
 77
     6
 78
     2
 67
     7
 79
     5
170
     0
171
     0
290
     0
174
     0
 93
       13
 44
0.0
173
     0
291
     1
 45
0.0
1001
ACAD
1000
AcDbSavedByObjectVersion
1070
     0
  0
VISUALSTYLE
  5
F2
102
{ACAD_XDICTIONARY
360
D016
102
}
102
{ACAD_REACTORS
330
EF
102
}
330
EF
100
AcDbVisualStyle
  2
Gouraud
 70
     2
 71
     2
 72
     2
 73
     1
 90
        2
 40
-0.6
 41
30.0
 62
     5
 63
     7
 74
     0
 91
        0
 64
     7
 65
   257
 75
     1
175
     1
 42
1.0
 92
        0
 66
     7
 43
1.0
 76
     1
 77
     6
 78
     2
 67
     7
 79
     5
170
     0
171
     0
290
     0
174
     0
 93
       13
 44
0.0
173
     0
291
     1
 45
0.0
1001
ACAD
1000
AcDbSavedByObjectVersion
1070
     0
  0
VISUALSTYLE
  5
F3
102
{ACAD_XDICTIONARY
360
D018
102
}
102
{ACAD_REACTORS
330
EF
102
}
330
EF
100
AcDbVisualStyle
  2
GouraudWithEdges
 70
     3
 71
     2
 72
     2
 73
     1
 90
        2
 40
-0.6
 41
30.0
 62
     5
 63
     7
 74
     1
 91
        0
 64
     7
 65
   257
 75
     1
175
     1
 42
1.0
 92
        0
 66
   257
 43
1.0
 76
     1
 77
     6
 78
     2
 67
     7
 79
     5
170
     0
171
     0
290
     0
174
     0
 93
       13
 44
0.0
173
     0
291
     1
 45
0.0
1001
ACAD
1000
AcDbSavedByObjectVersion
1070
     0
  0
VISUALSTYLE
  5
F7
102
{ACAD_XDICTIONARY
360
D020
102
}
102
{ACAD_REACTORS
330
EF
102
}
330
EF
100
AcDbVisualStyle
  2
Hidden
 70
     6
 71
     1
 72
     2
 73
     2
 90
        0
 40
-0.6
 41
-30.0
 62
     5
 63
     7
 74
     2
 91
        2
 64
     7
 65
   257
 75
     2
175
     1
 42
40.0
 92
        0
 66
   257
 43
1.0
 76
     1
 77
     6
 78
     2
 67
     7
 79
     3
170
     0
171
     0
290
     0
174
     0
 93
        1
 44
0.0
173
     0
291
     0
 45
0.0
1001
ACAD
1000
AcDbSavedByObjectVersion
1070
     0
  0
VISUALSTYLE
  5
1E4
102
{ACAD_XDICTIONARY
360
D034
102
}
102
{ACAD_REACTORS
330
EF
102
}
330
EF
100
AcDbVisualStyle
  2
JitterOff
 70
    20
 71
     2
 72
     2
 73
     0
 90
        0
 40
-0.6
 41
-30.0
 62
     5
 63
     7
 74
     1
 91
        4
 64
     7
 65
   257
 75
     1
175
     1
 42
1.0
 92
       10
 66
     7
 43
1.0
 76
     1
 77
     6
 78
     2
 67
     7
 79
     5
170
     0
171
     0
290
     0
174
     0
 93
        1
 44
0.0
173
     0
291
     1
 45
0.0
1001
ACAD
1000
AcDbSavedByObjectVersion
1070
     0
  0
VISUALSTYLE
  5
FD
102
{ACAD_XDICTIONARY
360
D02C
102
}
102
{ACAD_REACTORS
330
EF
102
}
330
EF
100
AcDbVisualStyle
  2
Linepattern
 70
    14
 71
     2
 72
     2
 73
     1
 90
        0
 40
-0.6
 41
-30.0
 62
     5
 63
     7
 74
     1
 91
        4
 64
     7
 65
   257
 75
     7
175
     7
 42
1.0
 92
        8
 66
     7
 43
1.0
 76
     1
 77
     6
 78
     2
 67
     7
 79
     5
170
     0
171
     0
290
     0
174
     0
 93
        1
 44
0.0
173
     0
291
     1
 45
0.0
1001
ACAD
1000
AcDbSavedByObjectVersion
1070
     0
  0
VISUALSTYLE
  5
1E5
102
{ACAD_XDICTIONARY
360
D036
102
}
102
{ACAD_REACTORS
330
EF
102
}
330
EF
100
AcDbVisualStyle
  2
OverhangOff
 70
    21
 71
     2
 72
     2
 73
     0
 90
        0
 40
-0.6
 41
-30.0
 62
     5
 63
     7
 74
     1
 91
        4
 64
     7
 65
   257
 75
     1
175
     1
 42
1.0
 92
        9
 66
     7
 43
1.0
 76
     1
 77
     6
 78
     2
 67
     7
 79
     5
170
     0
171
     0
290
     0
174
     0
 93
        1
 44
0.0
173
     0
291
     1
 45
0.0
1001
ACAD
1000
AcDbSavedByObjectVersion
1070
     0
  0
VISUALSTYLE
  5
F9
102
{ACAD_XDICTIONARY
360
D024
102
}
102
{ACAD_REACTORS
330
EF
102
}
330
EF
100
AcDbVisualStyle
  2
Realistic
 70
     8
 71
     2
 72
     2
 73
     0
 90
        2
 40
-0.6
 41
30.0
 62
     5
 63
     7
 74
     0
 91
        0
 64
     7
 65
   257
 75
     1
175
     1
 42
1.0
 92
        8
 66
   257
 43
1.0
 76
     1
 77
     6
 78
     2
 67
     7
 79
     3
170
     0
171
     0
290
     0
174
     0
 93
       13
 44
0.0
173
     0
291
     0
 45
0.0
1001
ACAD
1000
AcDbSavedByObjectVersion
1070
     0
  0
VISUALSTYLE
  5
1F3
102
{ACAD_XDICTIONARY
360
D042
102
}
102
{ACAD_REACTORS
330
EF
102
}
330
EF
100
AcDbVisualStyle
  2
Shaded
 70
    27
 71
     2
 72
     2
 73
     1
 90
        2
 40
-0.6
 41
30.0
 62
     5
 63
     7
 74
     0
 91
        4
 64
     7
 65
   257
 75
     1
175
     1
 42
1.0
 92
        8
 66
   257
 43
1.0
 76
     1
 77
     6
 78
     2
 67
     8
 79
     3
170
     0
171
     0
290
     0
174
     0
 93
        5
 44
0.0
173
     0
291
     0
 45
0.0
1001
ACAD
1000
AcDbSavedByObjectVersion
1070
     0
  0
VISUALSTYLE
  5
1F2
102
{ACAD_XDICTIONARY
360
D040
102
}
102
{ACAD_REACTORS
330
EF
102
}
330
EF
100
AcDbVisualStyle
  2
Shaded with edges
 70
    26
 71
     2
 72
     2
 73
     1
 90
        2
 40
-0.6
 41
30.0
 62
     5
 63
     7
 74
     1
 91
        2
 64
     7
 65
   257
 75
     2
175
     1
 42
1.0
 92
        8
 66
   257
 43
1.0
 76
     1
 77
     6
 78
     2
 67
     7
 79
     3
170
     0
171
     0
290
     0
174
     0
 93
        5
 44
0.0
173
     0
291
     0
 45
0.0
1001
ACAD
1000
AcDbSavedByObjectVersion
1070
     0
  0
VISUALSTYLE
  5
1EF
102
{ACAD_XDICTIONARY
360
D03A
102
}
102
{ACAD_REACTORS
330
EF
102
}
330
EF
100
AcDbVisualStyle
  2
Shades of Gray
 70
    23
 71
     2
 72
     2
 73
     3
 90
        0
 40
-0.6
 41
-30.0
 62
     5
 63
     7
 74
     2
 91
        2
 64
     7
 65
     7
 75
     1
175
     1
 42
40.0
 92
        8
 66
     7
 43
1.0
 76
     1
 77
     6
 78
     2
 67
     7
 79
     3
170
     0
171
     0
290
     0
174
     0
 93
        1
 44
0.0
173
     0
291
     0
 45
0.0
1001
ACAD
1000
AcDbSavedByObjectVersion
1070
     0
  0
VISUALSTYLE
  5
1F0
102
{ACAD_XDICTIONARY
360
D03C
102
}
102
{ACAD_REACTORS
330
EF
102
}
330
EF
100
AcDbVisualStyle
  2
Sketchy
 70
    24
 71
     1
 72
     2
 73
     2
 90
        0
 40
-0.6
 41
-30.0
 62
     5
 63
     7
 74
     2
 91
        2
 64
     7
 65
     7
 75
     1
175
     1
 42
40.0
 92
       11
 66
     7
 43
1.0
 76
     1
 77
     6
 78
     2
 67
     7
 79
     6
170
     0
171
     0
290
     0
174
     0
 93
        1
 44
0.0
173
     0
291
     0
 45
0.0
1001
ACAD
1000
AcDbSavedByObjectVersion
1070
     0
  0
VISUALSTYLE
  5
FC
102
{ACAD_XDICTIONARY
360
D02A
102
}
102
{ACAD_REACTORS
330
EF
102
}
330
EF
100
AcDbVisualStyle
  2
Thicken
 70
    13
 71
     2
 72
     2
 73
     1
 90
        0
 40
-0.6
 41
-30.0
 62
     5
 63
     7
 74
     1
 91
        4
 64
     7
 65
   257
 75
     1
175
     1
 42
1.0
 92
       12
 66
     7
 43
1.0
 76
     1
 77
     6
 78
     2
 67
     7
 79
     5
170
     0
171
     0
290
     0
174
     0
 93
        1
 44
0.0
173
     0
291
     1
 45
0.0
1001
ACAD
1000
AcDbSavedByObjectVersion
1070
     0
  0
VISUALSTYLE
  5
F6
102
{ACAD_XDICTIONARY
360
D01E
102
}
102
{ACAD_REACTORS
330
EF
102
}
330
EF
100
AcDbVisualStyle
  2
Wireframe
 70
     5
 71
     0
 72
     2
 73
     0
 90
        0
 40
-0.6
 41
-30.0
 62
     5
 63
     7
 74
     1
 91
        4
 64
     7
 65
   257
 75
     1
175
     1
 42
1.0
 92
        0
 66
   257
 43
1.0
 76
     1
 77
     6
 78
     2
 67
     7
 79
     3
170
     0
171
     0
290
     0
174
     0
 93
        1
 44
0.0
173
     0
291
     0
 45
0.0
1001
ACAD
1000
AcDbSavedByObjectVersion
1070
     0
  0
VISUALSTYLE
  5
1F1
102
{ACAD_XDICTIONARY
360
D03E
102
}
102
{ACAD_REACTORS
330
EF
102
}
330
EF
100
AcDbVisualStyle
  2
X-Ray
 70
    25
 71
     2
 72
     2
 73
     1
 90
        1
 40
0.5
 41
-30.0
 62
     5
 63
     7
 74
     1
 91
        0
 64
     7
 65
   257
 75
     1
175
     1
 42
1.0
 92
        8
 66
     7
 43
1.0
 76
     1
 77
     6
 78
     2
 67
     7
 79
     3
170
     0
171
     0
290
     0
174
     0
 93
       13
 44
0.0
173
     0
291
     0
 45
0.0
1001
ACAD
1000
AcDbSavedByObjectVersion
1070
     0
  0
DICTIONARYVAR
  5
146
102
{ACAD_REACTORS
330
5E
102
}
330
5E
100
DictionaryVariables
280
     0
  1
1:1
  0
DICTIONARYVAR
  5
259
102
{ACAD_REACTORS
330
5E
102
}
330
5E
100
DictionaryVariables
280
     0
  1
3.500000
  0
DICTIONARYVAR
  5
25A
102
{ACAD_REACTORS
330
5E
102
}
330
5E
100
DictionaryVariables
280
     0
  1
acadiso.lin
  0
DICTIONARYVAR
  5
145
102
{ACAD_REACTORS
330
5E
102
}
330
5E
100
DictionaryVariables
280
     0
  1
STANDARD
  0
DICTIONARYVAR
  5
84
102
{ACAD_REACTORS
330
5E
102
}
330
5E
100
DictionaryVariables
280
     0
  1
STANDARD
  0
DICTIONARYVAR
  5
227
102
{ACAD_REACTORS
330
5E
102
}
330
5E
100
DictionaryVariables
280
     0
  1
Metric50
  0
DICTIONARYVAR
  5
228
102
{ACAD_REACTORS
330
5E
102
}
330
5E
100
DictionaryVariables
280
     0
  1
Metric50
  0
DICTIONARYVAR
  5
5F
102
{ACAD_REACTORS
330
5E
102
}
330
5E
100
DictionaryVariables
280
     0
  1
2
  0
DICTIONARYVAR
  5
63
102
{ACAD_REACTORS
330
5E
102
}
330
5E
100
DictionaryVariables
280
     0
  1
1
  0
DICTIONARYVAR
  5
CFB3
102
{ACAD_REACTORS
330
5E
102
}
330
5E
100
DictionaryVariables
280
     0
  1
0
  0
DICTIONARYVAR
  5
1AE
102
{ACAD_REACTORS
330
5E
102
}
330
5E
100
DictionaryVariables
280
     0
  1
0
  0
DICTIONARYVAR
  5
1AF
102
{ACAD_REACTORS
330
5E
102
}
330
5E
100
DictionaryVariables
280
     0
  1
0
  0
DICTIONARYVAR
  5
CFB1
102
{ACAD_REACTORS
330
5E
102
}
330
5E
100
DictionaryVariables
280
     0
  1
2
  0
DICTIONARYVAR
  5
CFB0
102
{ACAD_REACTORS
330
5E
102
}
330
5E
100
DictionaryVariables
280
     0
  1
1
  0
DICTIONARYVAR
  5
D003
102
{ACAD_REACTORS
330
5E
102
}
330
5E
100
DictionaryVariables
280
     0
  1
80.000000
  0
DICTIONARYVAR
  5
D002
102
{ACAD_REACTORS
330
5E
102
}
330
5E
100
DictionaryVariables
280
     0
  1
5.000000
  0
DICTIONARYVAR
  5
CFB2
102
{ACAD_REACTORS
330
5E
102
}
330
5E
100
DictionaryVariables
280
     0
  1
127
  0
DICTIONARYVAR
  5
D004
102
{ACAD_REACTORS
330
5E
102
}
330
5E
100
DictionaryVariables
280
     0
  1
2
  0
DICTIONARY
  5
D046
330
21C
100
AcDbDictionary
280
     1
281
     1
  3
ACAD_XREC_ROUNDTRIP
360
D047
  0
DICTIONARY
  5
D00B
330
D3
100
AcDbDictionary
280
     1
281
     1
  3
ACAD_XREC_ROUNDTRIP
360
D00C
  0
DICTIONARY
  5
D00D
330
D7
100
AcDbDictionary
280
     1
281
     1
  3
ACAD_XREC_ROUNDTRIP
360
D00E
  0
DICTIONARY
  5
D008
330
22
100
AcDbDictionary
280
     1
281
     1
  3
ACAD_XREC_ROUNDTRIP
360
D009
  0
DICTIONARY
  5
1F9
330
ED
100
AcDbDictionary
280
     1
281
     1
  3
ACAD_XREC_ROUNDTRIP
360
D010
  3
FBXASSET
360
1FA
  0
DICTIONARY
  5
1F7
330
EC
100
AcDbDictionary
280
     1
281
     1
  3
ACAD_XREC_ROUNDTRIP
360
D00F
  3
FBXASSET
360
1F8
  0
DICTIONARY
  5
173
330
EE
100
AcDbDictionary
280
     1
281
     1
  3
ACAD_XREC_ROUNDTRIP
360
D011
  3
BUMPTILE
360
175
  3
DIFFUSETILE
360
174
  3
FBXASSET
360
1FB
  3
OPACITYTILE
360
176
  3
REFLECTIONTILE
360
177
  0
DICTIONARY
  5
D032
330
12E
100
AcDbDictionary
280
     1
281
     1
  3
ACAD_XREC_ROUNDTRIP
360
D033
  0
DICTIONARY
  5
D044
330
21A
100
AcDbDictionary
280
     1
281
     1
  3
ACAD_XREC_ROUNDTRIP
360
D045
  0
DICTIONARY
  5
162
330
7F
100
AcDbDictionary
280
     1
281
     1
  3
ACAD_ROUNDTRIP_2008_TABLESTYLE_CELLSTYLEMAP
360
D005
  3
ACAD_XREC_ROUNDTRIP
360
D00A
  0
DICTIONARY
  5
D01C
330
F5
100
AcDbDictionary
280
     1
281
     1
  3
ACAD_XREC_ROUNDTRIP
360
D01D
  0
DICTIONARY
  5
D01A
330
F4
100
AcDbDictionary
280
     1
281
     1
  3
ACAD_XREC_ROUNDTRIP
360
D01B
  0
DICTIONARY
  5
D028
330
FB
100
AcDbDictionary
280
     1
281
     1
  3
ACAD_XREC_ROUNDTRIP
360
D029
  0
DICTIONARY
  5
D030
330
FF
100
AcDbDictionary
280
     1
281
     1
  3
ACAD_XREC_ROUNDTRIP
360
D031
  0
DICTIONARY
  5
D022
330
F8
100
AcDbDictionary
280
     1
281
     1
  3
ACAD_XREC_ROUNDTRIP
360
D023
  0
DICTIONARY
  5
D026
330
FA
100
AcDbDictionary
280
     1
281
     1
  3
ACAD_XREC_ROUNDTRIP
360
D027
  0
DICTIONARY
  5
D038
330
1E6
100
AcDbDictionary
280
     1
281
     1
  3
ACAD_XREC_ROUNDTRIP
360
D039
  0
DICTIONARY
  5
D02E
330
FE
100
AcDbDictionary
280
     1
281
     1
  3
ACAD_XREC_ROUNDTRIP
360
D02F
  0
DICTIONARY
  5
D012
330
F0
100
AcDbDictionary
280
     1
281
     1
  3
ACAD_XREC_ROUNDTRIP
360
D013
  0
DICTIONARY
  5
D014
330
F1
100
AcDbDictionary
280
     1
281
     1
  3
ACAD_XREC_ROUNDTRIP
360
D015
  0
DICTIONARY
  5
D016
330
F2
100
AcDbDictionary
280
     1
281
     1
  3
ACAD_XREC_ROUNDTRIP
360
D017
  0
DICTIONARY
  5
D018
330
F3
100
AcDbDictionary
280
     1
281
     1
  3
ACAD_XREC_ROUNDTRIP
360
D019
  0
DICTIONARY
  5
D020
330
F7
100
AcDbDictionary
280
     1
281
     1
  3
ACAD_XREC_ROUNDTRIP
360
D021
  0
DICTIONARY
  5
D034
330
1E4
100
AcDbDictionary
280
     1
281
     1
  3
ACAD_XREC_ROUNDTRIP
360
D035
  0
DICTIONARY
  5
D02C
330
FD
100
AcDbDictionary
280
     1
281
     1
  3
ACAD_XREC_ROUNDTRIP
360
D02D
  0
DICTIONARY
  5
D036
330
1E5
100
AcDbDictionary
280
     1
281
     1
  3
ACAD_XREC_ROUNDTRIP
360
D037
  0
DICTIONARY
  5
D024
330
F9
100
AcDbDictionary
280
     1
281
     1
  3
ACAD_XREC_ROUNDTRIP
360
D025
  0
DICTIONARY
  5
D042
330
1F3
100
AcDbDictionary
280
     1
281
     1
  3
ACAD_XREC_ROUNDTRIP
360
D043
  0
DICTIONARY
  5
D040
330
1F2
100
AcDbDictionary
280
     1
281
     1
  3
ACAD_XREC_ROUNDTRIP
360
D041
  0
DICTIONARY
  5
D03A
330
1EF
100
AcDbDictionary
280
     1
281
     1
  3
ACAD_XREC_ROUNDTRIP
360
D03B
  0
DICTIONARY
  5
D03C
330
1F0
100
AcDbDictionary
280
     1
281
     1
  3
ACAD_XREC_ROUNDTRIP
360
D03D
  0
DICTIONARY
  5
D02A
330
FC
100
AcDbDictionary
280
     1
281
     1
  3
ACAD_XREC_ROUNDTRIP
360
D02B
  0
DICTIONARY
  5
D01E
330
F6
100
AcDbDictionary
280
     1
281
     1
  3
ACAD_XREC_ROUNDTRIP
360
D01F
  0
DICTIONARY
  5
D03E
330
1F1
100
AcDbDictionary
280
     1
281
     1
  3
ACAD_XREC_ROUNDTRIP
360
D03F
  0
XRECORD
  5
D047
102
{ACAD_REACTORS
330
D046
102
}
330
D046
100
AcDbXrecord
280
     1
102
DISPLAYNAME
  1
Metric50
102
FLAGS
 90
        0
  0
XRECORD
  5
D00C
102
{ACAD_REACTORS
330
D00B
102
}
330
D00B
100
AcDbXrecord
280
     1
102
SHADEPLOT
 70
     0
102
SHADEPLOTRESLEVEL
 70
     2
102
SHADEPLOTCUSTOMDPI
 70
   300
  0
XRECORD
  5
D00E
102
{ACAD_REACTORS
330
D00D
102
}
330
D00D
100
AcDbXrecord
280
     1
102
SHADEPLOT
 70
     0
102
SHADEPLOTRESLEVEL
 70
     2
102
SHADEPLOTCUSTOMDPI
 70
   300
  0
XRECORD
  5
D009
102
{ACAD_REACTORS
330
D008
102
}
330
D008
100
AcDbXrecord
280
     1
102
SHADEPLOT
 70
     0
102
SHADEPLOTRESLEVEL
 70
     2
102
SHADEPLOTCUSTOMDPI
 70
   300
  0
XRECORD
  5
D010
102
{ACAD_REACTORS
330
1F9
102
}
330
1F9
100
AcDbXrecord
280
     1
102
MATERIAL
148
0.0
149
0.0
149
0.0
 93
        0
 94
       63
282
     0
 72
     1
 77
     1
171
     1
175
     1
179
     1
273
     0
  0
XRECORD
  5
1FA
102
{ACAD_REACTORS
330
1F9
102
}
330
1F9
100
AcDbXrecord
280
     1
 70
     1
 90
429727718
  1
D62C5603-E3A1-4AEA-B7FB-FE5D8D0755AF
310
504B03040A0000080000CC70623B3DEE336E79000000790000001B0000006175746F6465736B2D64657369676E2D7061636B6167652E786D6C3C3F786D6C2076657273696F6E3D22312E302220656E636F64696E673D227574662D3822203F3E3C666F726D6174733E3C666F726D61743E687474703A2F2F736368656D612E
310
6175746F6465736B2E636F6D2F64657369676E2D7061636B6167652F323030393C2F666F726D61743E3C2F666F726D6174733E504B0304140006080800CC70623BD486FD9CA0000000F4000000130000005B436F6E74656E745F54797065735D2E786D6C7D8EC10E82300C865F65E91D8A1E8C310C0EEA1BF002731658846E
310
D98AC1B77784ABF1D8FE5FBFBF75BBCE937A534CCEB38643598122B6FEE978D0B0485F9C41B54DDD7D022595594E1A469170414C76A4D9A4D207E29CF43ECE46F218070CC6BECC4078ACAA135ACF422C856C0E68EA1BF5669944DDD7BCDE7B1F8E415D77AECB980613C2E4AC91FC167A2B244592486606FC29C8FD7F045B9A
310
EF7053A7E60B504B0304140006080800CC70623B853B8169EB0000007C01000008000000636F72652E786D6C8D90416EC3201045AF62CDB6C206821CC7C244919D9CA01740401C94182C03558F5F9C3852BBEB6A467FFE9B197D7EFC9E1EC5975982F5AE035262288C535E5B377690E21535501C055FBC8FBF6C503839990E
310
5619041F179FE64D52DE45E362569DD7661365082642A11EB9E920A89B99642953CC8E702F67A9EE7234257977194EC9EAE275C4EABCCF5EAD5940D4AC6F0E35A568B8F43562CD7046CD199FD07E60174276A7BE677B5EADB0E0D14EEFFB6A31321A0D82627C4084204C3F096B71DD52F6819B16635EADF63F509AF53FA164
310
5DDCD1EDDD17164090FCC8732078B56691CB33A85CD7DCC40F504B0304140006080800CC70623B55019EA25F0000007C00000007000000636E782E786D6C4DCB3B0E80201045D1AD90E915ED2CF8AC45050C11660C8261F98AB1B07AC9C97D42D718D865D3E909258CFD00CCE24AC6E326A164D74DC0B4128928FF32603847
310
2BA13128B1252AC747C6BAB984FC68F0B87FE8960A5C09FE86CFB69FBA01504B0304140006080800CC70623BDBABAAF470010000D40300000C0000006662782F636F72652E786D6CC553D16E823014FD95A6AF4B694182CC941A83FA05FB810A9511A125A5257EFE2E82712ECEB8A7F100CD39F7F69E734AF9FADC366850B6
310
AF8DCE7018308C942E4C59EB2AC3DE1D498AD15A706B8CFB56869196ADCAF00863C12B6B7C374385D14E6907A836A59A41D9F7CA615434B0C8705F7CAA5606D23BA8E84F41278B93AC54100640439DE0BDB320004D43C63716C7C399D30917DCFBBA9CD9BA8469F5B156168B24CED3F7248AC8769F27244EB73B92EED8862C
310
B7F13E0C179B3C8F979C8ECD82BBBABDAA2BAC924E9558448CBD9330242CFA08E3154B5651FCC6D215639C8EE5774DBE2B5F6CF2B5768B68963BB5F5588420E442FC700B1139D4CB01F450C1E918227C2E09DF070D8140C84E1E9AAB8F1340832A9CB13130A5F1376A908D57309505ECF2A0DF179C4E9D30F5B239B87E3823
310
7A79C6F31DE1A8A5AEC08474B03C7837EAE4938639B44E5932B833D2C6B6B279CDC613877FA26EE21F4A2A4C63EC7F29A2F301D1F9F7A0E37D145F504B0304140006080800CC70623B9C113CC27E0000009D0000000B0000006662782F636E782E786D6C4DCCDF0A83201C86E15B91DFB94BFB330DD428C8FB886521330DA7
310
6397BF1A1DECE883878F57749FCDA1B7892F1BBC047A23808C7F84D9FA55424E0BE6803A256208E9EF06C84F9B91703228B1C690F78B66B34CD9A5439DF5CF0BFBF65E35BCA1B8D6A5C6F540381E886698B5741C695F9503EBA150A2F8958E3DC3EA0B504B0304140006080800CC70623B7DF2F77C2A010000120200003100
310
00006662782F41393633353835312D344632462D344230382D423046372D3739314545314133324237412F636F72652E786D6C8D51DB8EC22014FC15C2939B0D2DB4B45643319AE817EC0F6041255A68B86CFCFC856D4D76DF7CE190393373060EDB3DC707F856CE6B6B7A480A0C81328395DA5C7B18C3057510EC3873D686
310
3F34088C18550F330C39BB3A1BA7051AAC09CA84841A2BD5020AEF55806078A44B0FFD7053A328440C89E1EFC52486BBB8AA8214A99D789CF9E05200300FC927E4FB4D5B375D43103D5527440FB843077C5AA3F5861C8F645F5787F59E95B390B318B55CE45AA638FAA2957BD7248B390B7A7CC51F9C124149C82B8C378810
310
84AB2F42B7B8DD56F413775B8C5999E9FF4471926F8AA236A1AE96B8B3CC434E5839373893369E1FAF30EA395917409EB7F26AF8801C171837A4A6AC9C89E9F9C9B1A58BA30FD6A5EF5DDDCF894B9AD9B6A59C957943A9FCAE2FD5BC4DFE03504B0304140006080800CC70623BAD7543B64E01000033030000300000006662
310
782F41393633353835312D344632462D344230382D423046372D3739314545314133324237412F636E782E786D6CD593CD6EC32010845F0571AD6CE3D48AD20813A9873E410FBD12D82434182C7EAAE6EDBB2424CD25871E7B41D6EC30B3FA84F9E67BB2E40B4234DE8DB46F1925E094D7C6ED479AD3AE5951B2113C789FEE
310
6C943839C1488B4C05DF079FE72A69D8C96C13AAD6B8631503449F83828872B949AC57D26200B826A308D316B4064D6E46FCDA41C05550DC9E483A00797BFD207EFB092A45DE9514C1BBD22178396BD39D891265658C238DEA00936C654E5E433CB65A26D9F6EDB5EBC14EBF49A45CB856E66048291F6939A9A81BB5C89177
310
38143CA680F4AA299D66A042CEB3354A2684DC9D8D178FE0D9B8B41CAAD720F880EE7EF93C0C18769E099ECC04D5A102C8049A8A05632F4DDF376CF1DE0F6BB65C2F8627B65A33C6BB62177CEBBDAD973006829F89F22E814B54F4BC2BE347F8AA8F681390B50FA73F804400B5F542E796F19FF974E7F78DB802FE05E20750
310
4B0304140006080800CC70623BE75B7789680500003C100000340000006662782F41393633353835312D344632462D344230382D423046372D3739314545314133324237412F6F626A656374732E786D6CAD575B8F9B3818FD2B887D06C22499CB8AA1CA655245D5B455A356FB305264C061D8018C6C3393D95FBFC7600890
310
A4CD5EF210B0B1BFEBF98E3F7B1FF6596ABC522E1296DF9BAE3D320D9A872C4AF2F8DE2CE5CEBA358D0FBEC719939D65A691938CDE9B6ADAF4BD98B3B2D05311DD91329583D9D5FC0F438434A7A611A644887B5384CF34233629258BA878B12322891DEFF6B66BD70BFB62634E8AE781D082709A4B588AF91C528CDA28B73F
310
1C998EEF39EABBEFA97FBD6A7C7E9553F9D3D79FE442923C3C523610337627CB87ABE99D359D4CC6D6E4FACAB5E6ABF9D2726FC6A3C5F56271377BB88362213924694B38DD99FE47C48627A1E7D49F5A8BB5E1A74C0A599ED3B0F21F1E56366B89112D681E218F0915D0D6F17AD41FBA2A369DCF6335D62ABBD39779D5DDD1
310
11D4D8DE3CBB96B2E04FB8202E41051754A1AA8E8F76B4C6DFE810B580B1547F4B84911149794252234D024EF8BBE963A95AE27B3D310A9D5C215C7960FAEE415ED75694C6AFB17BCACA5D99A60A9AA65F217B0BFC53292ACB92BF283FAD0D3621576592CB5BED907C2FA8E9DF794E35E97BEA31BED21FEB401ABB94C44839
310
DCACBF0E1C5DA8DA5B2F4DFFD32AD86F543D9E565E7056502E157C00AD2671CD534549AB752FCA9CDA00677A313F04E51B22FF19E57B300579E3C97EB29F682D92935CEC18CF901B7B54FD8C51F362B56FC72FE0B3C1EAE335EDCCBF5AEC39ADB17DC238973F804BA5E6F6BFE7AF1FB32E523BE9F3BD571418E3631DCA4D48
310
5250CF639223210A9446CA30052EDF057BD35F8329C1ECD84552BF0DC8D18BE7BCE23BFE6BD960AB4A7DE79923A103BEBD80F911CBAA2C60DB19B01CF164A5583B772EE6D3FFA56666CBCDA74DC97724A48F9A58967497E489C4D979006FD7A05E227A1EBDD0F737C623387A9C844D3709995625106D157315F8B8392CD4E0
310
A0B9A720C4BE9829CEF37EA1E13111214D53925356365ADA634861B52519DD27A00AEB808EAF0628E6F435519D446F45CF2C9CF5214F0A15B2F6D06B79DA3EE3CBF7F56780D2F4E7EF73A0F5E5B02A38D07DC852C6B7C1FBB6664213E0C39E3EBA7FF4E1AD23EA2829407C85E586727488B751B2DB9502BC7B228A3FD68B6E
310
A65A22397E690AA8D158D7E404EC8CDA235CC3B7D1898680131CEC2CDF2638C65196279577750F15884AEE19F94199155B92B13297978469D4F8D358DF0AEF7631E28DC8F0D9F437D5D39A83B2231A1D52D543813A824EF8D44BCFF2FA6A31BD1E8DAD87F1CCB526B3879935BF59CDADD5C37479BB1CDD4CA7B3556B516589
310
EF352754B706114D9C885EC9131DE6EFEB43D99AFE2391C2F958179413D7CFEF6B1B6DB1E7600F00DE6E5C67454A339A4BA2E0FBA85ED26F045D454F463DBFCE484C2F90F2E5E3666003662ED8F755951A7D1BECD5B30B550B2785C8E7320B7292A4838DDA71BBC863ED7613CAF659337A3354231D4FF4A182A54904C2898C
310
98B28C4AD0CE056CCF332A80986E571EE9DBC305BB5FEB7E509220A58D25CF042D712A806AC0AD0C657FDEF80D2D9CEAA2EE4D1C76F60BFE74219A06527D6F82DF6412526107381E55E353090704D085B52408A8913C4ED159D79BDA71BB4BC506F4831350EB6F975CD22D69BF7AC49B91A2C0A9DDA3D5CA36AD20FC478E37
310
E61844E2352865EBCB61A275A65283CAAA9DD27703B4102F5AF51EF5F573B75CBB5AD38BC845F7A49F82A0966A49C2E3EA5EA0ECD326CD965F1DB402C6FA8B51A4658C5C5E2EC9E214602E55810345408596591009A82E7E7FFACA19EEA299B14A0081A705CB3296EBC14CDF658DCD336EA6D1136881AAEB87B81AB9EE53D5
310
F5EB8BC8362082DA24122F98680A4E7930C01A0079749CEA14382A0783E5EBA5A10F8C098456A03D6A4AEB6BB881E2513747552A5DB22C7EDAF83BD5528081A365F7FF06504B0304140006080000CC70623B000000000000000000000000350000006662782F41393633353835312D344632462D344230382D423046372D37
310
39314545314133324237412F76657274696365732E62696E504B0304140006080800CC70623BF270F1330600000004000000360000006662782F41393633353835312D344632462D344230382D423046372D3739314545314133324237412F747269616E676C65732E62696E636660600000504B0304140006080000CC7062
310
3B000000000000000000000000370000006662782F41393633353835312D344632462D344230382D423046372D3739314545314133324237412F617474726962757465732E62696E504B0304140006080800CC70623B08DA0BD19000000041010000360000006662782F41393633353835312D344632462D344230382D4230
310
46372D3739314545314133324237412F6469726563746F72792E786D6C858F410AC3201045AF22B36F53E9A60B35CBEEBAE80D244E44489C6234F4F835464A48035D0DF398FF9F8AF63D0E6CC63039F212F8F9020C7D47C6792B21C5FE7403D62A1188E2E60C98D7234A5830286103A55745067B9D86B8A3CF9C7F90C11DE6
310
07FB144396D7B6A82D282E9A152AD114D5EF2CB866EEE831B8EEA07A7BB5A8D7D61A2BAAEB7FD5F70921FF497D00504B0304140006080800CC70623BEDD1DC58FD000000A00100003B0000006662782F41393633353835312D344632462D344230382D423046372D3739314545314133324237412F7265736F75726365732F
310
636F72652E786D6C8D504B6E833010BD0A9A6D65B00922041947112427E8052C33A156828DFCA97AFC9A40A576D7CDCCE87D344F8F9FBFE667F689CE6B6B3A6039850C8DB2A336530731DC4903D95970676DF82583CCC8193B5861107C72362E3BA4AC096842428D1D7107A5F7182053CF7474E0D507CE32973124857FE48B
310
540F3961CEF244279DE03EB81420DB9EAC1384436FA353E879B1B182C7A8C75DA3C7F453DF353A1075D537A7BA6464B8F535A99AE14A9A2BBD90E350DD183B5CFABE3AF262350B1EF4FC9351399401471025A527C218A1E53BAB5A5AB765F5469B96525EACF23FA6B88CFF34456DC2A1DCE36E360F82A5202F42F062ED2BAD
310
579969AFDD8A6F504B010214000A0000080000CC70623B3DEE336E79000000790000001B00000000000000000000000000000000006175746F6465736B2D64657369676E2D7061636B6167652E786D6C504B01021400140006080800CC70623BD486FD9CA0000000F40000001300000000000000000000000000B20000005B
310
436F6E74656E745F54797065735D2E786D6C504B01021400140006080800CC70623B853B8169EB0000007C010000080000000000000000000000000083010000636F72652E786D6C504B01021400140006080800CC70623B55019EA25F0000007C000000070000000000000000000000000094020000636E782E786D6C504B
310
01021400140006080800CC70623BDBABAAF470010000D40300000C00000000000000000000000000180300006662782F636F72652E786D6C504B01021400140006080800CC70623B9C113CC27E0000009D0000000B00000000000000000000000000B20400006662782F636E782E786D6C504B01021400140006080800CC70
310
623B7DF2F77C2A010000120200003100000000000000000000000000590500006662782F41393633353835312D344632462D344230382D423046372D3739314545314133324237412F636F72652E786D6C504B01021400140006080800CC70623BAD7543B64E010000330300003000000000000000000000000000D2060000
310
6662782F41393633353835312D344632462D344230382D423046372D3739314545314133324237412F636E782E786D6C504B01021400140006080800CC70623BE75B7789680500003C10000034000000000000000000000000006E0800006662782F41393633353835312D344632462D344230382D423046372D3739314545
310
314133324237412F6F626A656374732E786D6C504B01021400140006080000CC70623B0000000000000000000000003500000000000000000000000000280E00006662782F41393633353835312D344632462D344230382D423046372D3739314545314133324237412F76657274696365732E62696E504B01021400140006
310
080800CC70623BF270F133060000000400000036000000000000000000000000007B0E00006662782F41393633353835312D344632462D344230382D423046372D3739314545314133324237412F747269616E676C65732E62696E504B01021400140006080000CC70623B0000000000000000000000003700000000000000
310
000000000000D50E00006662782F41393633353835312D344632462D344230382D423046372D3739314545314133324237412F617474726962757465732E62696E504B01021400140006080800CC70623B08DA0BD1900000004101000036000000000000000000000000002A0F00006662782F41393633353835312D344632
310
462D344230382D423046372D3739314545314133324237412F6469726563746F72792E786D6C504B01021400140006080800CC70623BEDD1DC58FD000000A00100003B000000000000000000000000000E1000006662782F41393633353835312D344632462D344230382D423046372D3739314545314133324237412F7265
310
736F75726365732F636F72652E786D6C504B0506000000000E000E0080040000641100000000
  0
XRECORD
  5
D00F
102
{ACAD_REACTORS
330
1F7
102
}
330
1F7
100
AcDbXrecord
280
     1
102
MATERIAL
148
0.0
149
0.0
149
0.0
 93
        0
 94
       63
282
     0
 72
     1
 77
     1
171
     1
175
     1
179
     1
273
     0
  0
XRECORD
  5
1F8
102
{ACAD_REACTORS
330
1F7
102
}
330
1F7
100
AcDbXrecord
280
     1
 70
     1
 90
429727718
  1
30362254-06B7-45E0-A893-8CFA70E3D6BC
310
504B03040A0000080000CC70623B3DEE336E79000000790000001B0000006175746F6465736B2D64657369676E2D7061636B6167652E786D6C3C3F786D6C2076657273696F6E3D22312E302220656E636F64696E673D227574662D3822203F3E3C666F726D6174733E3C666F726D61743E687474703A2F2F736368656D612E
310
6175746F6465736B2E636F6D2F64657369676E2D7061636B6167652F323030393C2F666F726D61743E3C2F666F726D6174733E504B0304140006080800CC70623BD486FD9CA0000000F4000000130000005B436F6E74656E745F54797065735D2E786D6C7D8EC10E82300C865F65E91D8A1E8C310C0EEA1BF002731658846E
310
D98AC1B77784ABF1D8FE5FBFBF75BBCE937A534CCEB38643598122B6FEE978D0B0485F9C41B54DDD7D022595594E1A469170414C76A4D9A4D207E29CF43ECE46F218070CC6BECC4078ACAA135ACF422C856C0E68EA1BF5669944DDD7BCDE7B1F8E415D77AECB980613C2E4AC91FC167A2B244592486606FC29C8FD7F045B9A
310
EF7053A7E60B504B0304140006080800CC70623B1EC5D7A3EB0000007C01000008000000636F72652E786D6C8D90416EC3201045AF82665B6103C6756C6122AB4D4ED00B204C5C94182C03558F5F9C3852BBEB6A467FFE9B197D71FC9E6FE8CBACC17AD7032D0820E3B41FAD9B7A48F1820F808E52ACDEC75F36404ECDA687
310
4D0629A6D5A76597B477D1B89855E747B38B2A041301E95B6E7A08FAD3CCAA50296647B8168BD2573599823EBB0CA76447F43862C7BCCF5EAC59410E4DDD9C7973C2755553CCCFA4C603E3040F1565ED3B1FDE4E432BCA0D9622DAF9795FAF464533826484B498524CD807E51D79ED187F21878E10516EF63F505AC67F42C9
310
BA58B1FDDD071640D2FCC87D2045B96591CB3DA85CB7DCE40F504B0304140006080800CC70623B55019EA25F0000007C00000007000000636E782E786D6C4DCB3B0E80201045D1AD90E915ED2CF8AC45050C11660C8261F98AB1B07AC9C97D42D718D865D3E909258CFD00CCE24AC6E326A164D74DC0B4128928FF32603847
310
2BA13128B1252AC747C6BAB984FC68F0B87FE8960A5C09FE86CFB69FBA01504B0304140006080800CC70623B8C9102E971010000D40300000C0000006662782F636F72652E786D6CC5535B6E833010BC8AE5DF0A6C08340F1947A84D4ED00B38C6A128602363A31CBFCB234A53A551FA553EC09AD9F5CE8C31DB9E9B1AF5CA
310
7695D1198E428A91D2D214952E33ECDD315861B4E5CC1AE3BE9561A445A3323CC098B3D21ADFCE9034DA29ED00D5A6503328BA4E398C640D8B0C77F253352214DE4145770A5B214FA2546114020D759C75CE8200340D19DE981F0F6746269C33EFAB6266AB02A655C74A59CCF365BADC27CB5D902ED22848F6340DF238A141
310
BE88E2F57B92BFEDF23523433367AE6A2EEAA455C2A902F398D2751045018D3FA264435F3771F242571B4A1919CA6F9A7C5B3CD9E42BED16F12C776AEB308F40C848FC700B1139D4891EF410CEC810227CC6846F8386402064270EF5C5C709A05E49676C024C61FC95EA45ED154CA5211D1FF4FB8291A913A68E9B83EBBB33
310
E2A7673CDE118E5AE8124C0807CB8377834E366998436B950D7A7746DAD846D4CFD978E0F04FD455FC5D49D2D4C6FE9722321F10997F0F32DC47FE05504B0304140006080800CC70623BFFEA85907E0000009D0000000B0000006662782F636E782E786D6C4DCCD10A83201886E15B91FFDC95D95A811AB6F23E625948A6C3
310
E9D8E5AF46073BFAE0E1E365ED67B3E8ADC3CB78C7815C7240DA3DFC64DCC221C519D7805AC182F7F1EF06C88D9BE6703008B6049F9E274D7A1E938DBB5AE3D6131B2589BA0D3D965551E0B2EA732C9B9A624AAEB41E3A557677029960D9AFB4EF11165F504B0304140006080800CC70623B4FEEA4082C0100001202000031
310
0000006662782F39464131463745442D413632322D343644302D413938332D3331353338454246344243312F636F72652E786D6C8D515B6EC32010BC0AE2AB55850DD871ED0813254D72825EC00192A2C460F1A872FC42ED48ED5F7E00CDCECCCEB26C731F6FE05B39AFADE921293004CA082BB5B9F43086336A21D870E6AC
310
0D7F68109861543DCC30E4ECE26C9C164858139409093556AA051CBC570102714B8F1E7AF1A5C6A11862480C7F2DA6415C878B2A4891CA89C7990F2E050073937C42DE1DB7E4F87ED8A36D4329AA9B3D46DBAEAD504556557BD81DEBDD0761E52CE42C462D17B996298E3E6BE59E35C962CE821E1FF18553435012728A7187
310
0841987E927A8D9B35ADDF70BBC6989599FE4F1427F9A4286A132ABAC49D651EF234CD5CE04CDA78BA3DC2A8FB645D00B9DF8B57E215725C60BCA2A463E54C4CE327C7A65E1C7DB02E7DEFCBF594B864C5CA6CDBD49C957943E9FA5D5FBAF336F90F504B0304140006080800CC70623BAD7543B64E01000033030000300000
310
006662782F39464131463745442D413632322D343644302D413938332D3331353338454246344243312F636E782E786D6CD593CD6EC32010845F0571AD6CE3D48AD20813A9873E410FBD12D82434182C7EAAE6EDBB2424CD25871E7B41D6EC30B3FA84F9E67BB2E40B4234DE8DB46F1925E094D7C6ED479AD3AE5951B2113C
310
789FEE6C943839C1488B4C05DF079FE72A69D8C96C13AAD6B8631503449F83828872B949AC57D26200B826A308D316B4064D6E46FCDA41C05550DC9E483A00797BFD207EFB092A45DE9514C1BBD22178396BD39D891265658C238DEA00936C654E5E433CB65A26D9F6EDB5EBC14EBF49A45CB856E66048291F6939A9A81BB5
310
C8917738143CA680F4AA299D66A042CEB3354A2684DC9D8D178FE0D9B8B41CAAD720F880EE7EF93C0C18769E099ECC04D5A102C8049A8A05632F4DDF376CF1DE0F6BB65C2F8627B65A33C6BB62177CEBBDAD973006829F89F22E814B54F4BC2BE347F8AA8F681390B50FA73F804400B5F542E796F19FF974E7F78DB802FE05
310
E207504B0304140006080800CC70623B16AB87BA640500003C100000340000006662782F39464131463745442D413632322D343644302D413938332D3331353338454246344243312F6F626A656374732E786D6CAD575B6FA33818FD2B887DE6924B3BED8A326A92B68A663B534DD4D13E548A0C38942D60649B369D5FBFC7
310
600890A493BDE42160637FD7F31D7FF63E6FB3D478A55C242CBF3247B66B1A340F5994E4F19559CA8D75611A9F7D8F33263BCB4C232719BD32D5B4E97B316765A1A722BA21652A07B3B7B33F0D11D29C9A46981221AE4C113ED38CD8A4942CA2E2C58E882476BCD9DA23BB5ED8171B73523C0F841684D35CC252CCE79062D4
310
468DFA43D7747CCF51DF7D4FFDEB5593E3AB9CCA9FBEFE241792E4E19EB28198C968BAB8199F5D5A67D3E9C49A9E8F47D6EC76B6B0469F26EEFC7C3EBFBCBEB98462213924694B38DD98FE1D62C393D073EA4FADC5DAF04326852CCF6958F90F0F2B9BB5C48816348F90C7840A68EB78EDF68723159BCEE7891A6B95DDE9D3
310
BCEAEEE8086A6C6F9E5D4B59F0175C10A7A0820BAA5055C7473B5AE3CFDD452D602CD5DF12616444529E90D448938013FE6EFA58AA96F85E4F8C42275708571E98FE6827AF6B2B4AE3D7D83D64E5A64C53054DD3AF90BD06FEA9149565C94FCA0F6B834DC85599E4F2423B24DF0B6AFA979E534DFA9E7A4CC6FA631D486393
310
921829879BF5D781A373557BCB85E97FB90DB62B558F8795179C15944B051F40AB495CF35451D26A4727654E6D8033BD98EF82F21D91FF8AF2DD9982BCF1643BDD4EB516C9492E368C67C88DED563FC36D5EACF66DFF057C3658BDBFA69DF9578B3DA735B64F18C7F20770A9D45CFCF7FCF563D6456A277DBEF78A02637CA2
310
43B90A490AEAB94F72244481D24819A6C0E59B606BFA4B3025981DBB48EAB701D97BF19C577CC77F2D1B6C55A9EF3C732474C0B727303F625995056C3B02963D9EAC146BE78EC5FCEC7FA999EBC5EACBAAE41B12D27B4D2C0BBA49F244E2ECDC81B76B502F113D8F5EE8FB1BE3111CDD4FC2AA9B844CAB1288B68AB90A7CDC
310
1C166AB0D3DC5310625FCC14E779BFD0709F8890A629C9292B1B2DED31A4B0DA928CEE135085754027E3018A397D4D5427D15BD1330B677DC8934285AC3DF45A9EB68FF8F2B8FC0A509AFEECFD0FF2DE25CC6047F7214B195F07EFEB9A094D800F7BFAE8FED187B78EA8A3A400F115961BCAD1215E47C966530AF0EE8128FE
310
58CEBB996A8964FFA529A046635D9353B0336A8F700DDF46271A024E70B0B37C9DE01847591E54DED53D54202AB947E4076556AC49C6CA5C9E1226B7F1A7B1BE15DEED62C41B91E1B3E9AFAAA735036547343A925075041DF0A9979E893B391F8FCFA6967B3EFB644DCF6E5CEBFAE272625DCC6FAF3FB93793C5F90CE1EF57
310
407342756B10D1C489E8953CD1617E5CEECAD6F4EF8914CE5D5D504E5C3F1F9736DA62CFC11E00BCDDB8CC8A9466349744C1F75EBDA4DF09BA8A9E8C7A7E9991989E20E5DBDD6A6003664ED8F7A04A8DBE0DF6EAD9B9AA858342E47399053949D2C146EDB85DE4B176BB0965FBAC19BD19AA918E27FA50C1D22402E144464C
310
59462568E704B6E71915404CB72B8FF4EDE184DDAF753F284990D2C6926782963815403548A70C657FDEF80D2D9CEAA2AE4C1C76F60BFE74219A06527D6582DF6412526107381E55E353090704D085B52408D0933C4ED159D79BDA71BB4BC506F4831350EB6F979CD22D69BF7AC49B91A2C0A9DDA3D5CA36AD20FC478E37E6
310
1844E2352865EBCB6EA275A652E3836BE04EFB400BF1A2556F515F1FBB35B2AB35BD889C744FFA1004B5544B121E57F70215746DD2F5E2C1412B602CBF19455AC6C8E5E9922C4E01E65215385004546899059180EAFCF7A707CE7017CD8CDB0410789AB32C63B91E5CEBBBACB17AC6CD347A022D5075FD106377347AAABA7E
310
7D11590744509B44E205134DC1290F06580320F78E537D3D73540E06CB970B431F185308AD40BBD794D6D77003C5A36E8EAA54BA64597CD8F83BD552A080A365F7FF06504B0304140006080000CC70623B000000000000000000000000350000006662782F39464131463745442D413632322D343644302D413938332D3331
310
353338454246344243312F76657274696365732E62696E504B0304140006080800CC70623BF270F1330600000004000000360000006662782F39464131463745442D413632322D343644302D413938332D3331353338454246344243312F747269616E676C65732E62696E636660600000504B0304140006080000CC70623B
310
000000000000000000000000370000006662782F39464131463745442D413632322D343644302D413938332D3331353338454246344243312F617474726962757465732E62696E504B0304140006080800CC70623B08DA0BD19000000041010000360000006662782F39464131463745442D413632322D343644302D413938
310
332D3331353338454246344243312F6469726563746F72792E786D6C858F410AC3201045AF22B36F53E9A60B35CBEEBAE80D244E44489C6234F4F835464A48035D0DF398FF9F8AF63D0E6CC63039F212F8F9020C7D47C6792B21C5FE7403D62A1188E2E60C98D7234A5830286103A55745067B9D86B8A3CF9C7F90C11DE607
310
FB144396D7B6A82D282E9A152AD114D5EF2CB866EEE831B8EEA07A7BB5A8D7D61A2BAAEB7FD5F70921FF497D00504B0304140006080800CC70623B0D6EF93BFE000000A00100003B0000006662782F39464131463745442D413632322D343644302D413938332D3331353338454246344243312F7265736F75726365732F63
310
6F72652E786D6C8D50596E833010BD0A9ADFCA60B334011947A8694ED00B586642AC041B79A97AFC9A40A5F6AF3F33A3B7689E1E3F7DCD8FEC139DD7D6F4C0720A191A65476DA61E62B892236427C19DB5E1970C322367EC618541F0C9D9B8EC90B226A009093576C41D94DE63804C3DD2D18357379C652E63480A7FCF17A9
310
EE72C29CE5894E3AC17D702940B63D59270887DE46A7D0F36263058F518FBB468FE9A7BE6A7420864373B8D4873369AA8691FA421B3294352543C5CAF65C0F6FEF43CB8BD52C78D0F34F46E550061C419494B6843142CB0F5677F4B52BEB177AEC28E5C52AFF638ACBF84F53D42654E51E77B379102C05791282176B5F693D
310
CB4C7BED567C03504B010214000A0000080000CC70623B3DEE336E79000000790000001B00000000000000000000000000000000006175746F6465736B2D64657369676E2D7061636B6167652E786D6C504B01021400140006080800CC70623BD486FD9CA0000000F40000001300000000000000000000000000B20000005B
310
436F6E74656E745F54797065735D2E786D6C504B01021400140006080800CC70623B1EC5D7A3EB0000007C010000080000000000000000000000000083010000636F72652E786D6C504B01021400140006080800CC70623B55019EA25F0000007C000000070000000000000000000000000094020000636E782E786D6C504B
310
01021400140006080800CC70623B8C9102E971010000D40300000C00000000000000000000000000180300006662782F636F72652E786D6C504B01021400140006080800CC70623BFFEA85907E0000009D0000000B00000000000000000000000000B30400006662782F636E782E786D6C504B01021400140006080800CC70
310
623B4FEEA4082C0100001202000031000000000000000000000000005A0500006662782F39464131463745442D413632322D343644302D413938332D3331353338454246344243312F636F72652E786D6C504B01021400140006080800CC70623BAD7543B64E010000330300003000000000000000000000000000D5060000
310
6662782F39464131463745442D413632322D343644302D413938332D3331353338454246344243312F636E782E786D6C504B01021400140006080800CC70623B16AB87BA640500003C1000003400000000000000000000000000710800006662782F39464131463745442D413632322D343644302D413938332D3331353338
310
454246344243312F6F626A656374732E786D6C504B01021400140006080000CC70623B0000000000000000000000003500000000000000000000000000270E00006662782F39464131463745442D413632322D343644302D413938332D3331353338454246344243312F76657274696365732E62696E504B01021400140006
310
080800CC70623BF270F133060000000400000036000000000000000000000000007A0E00006662782F39464131463745442D413632322D343644302D413938332D3331353338454246344243312F747269616E676C65732E62696E504B01021400140006080000CC70623B0000000000000000000000003700000000000000
310
000000000000D40E00006662782F39464131463745442D413632322D343644302D413938332D3331353338454246344243312F617474726962757465732E62696E504B01021400140006080800CC70623B08DA0BD190000000410100003600000000000000000000000000290F00006662782F39464131463745442D413632
310
322D343644302D413938332D3331353338454246344243312F6469726563746F72792E786D6C504B01021400140006080800CC70623B0D6EF93BFE000000A00100003B000000000000000000000000000D1000006662782F39464131463745442D413632322D343644302D413938332D3331353338454246344243312F7265
310
736F75726365732F636F72652E786D6C504B0506000000000E000E0080040000641100000000
  0
XRECORD
  5
D011
102
{ACAD_REACTORS
330
173
102
}
330
173
100
AcDbXrecord
280
     1
102
MATERIAL
148
0.0
149
0.0
149
0.0
 93
        0
 94
       63
282
     0
 72
     1
 77
     1
171
     1
175
     1
179
     1
273
     0
  0
XRECORD
  5
175
102
{ACAD_REACTORS
330
173
102
}
330
173
100
AcDbXrecord
280
     1
270
     1
271
     1
  0
XRECORD
  5
174
102
{ACAD_REACTORS
330
173
102
}
330
173
100
AcDbXrecord
280
     1
270
     1
271
     1
  0
XRECORD
  5
1FB
102
{ACAD_REACTORS
330
173
102
}
330
173
100
AcDbXrecord
280
     1
 70
     0
 90
1673772943
  1
ECE7A1D2-D628-4531-984C-D00F80459256
310
504B03040A0000080000CC70623B3DEE336E79000000790000001B0000006175746F6465736B2D64657369676E2D7061636B6167652E786D6C3C3F786D6C2076657273696F6E3D22312E302220656E636F64696E673D227574662D3822203F3E3C666F726D6174733E3C666F726D61743E687474703A2F2F736368656D612E
310
6175746F6465736B2E636F6D2F64657369676E2D7061636B6167652F323030393C2F666F726D61743E3C2F666F726D6174733E504B0304140006080800CC70623BD486FD9CA0000000F4000000130000005B436F6E74656E745F54797065735D2E786D6C7D8EC10E82300C865F65E91D8A1E8C310C0EEA1BF002731658846E
310
D98AC1B77784ABF1D8FE5FBFBF75BBCE937A534CCEB38643598122B6FEE978D0B0485F9C41B54DDD7D022595594E1A469170414C76A4D9A4D207E29CF43ECE46F218070CC6BECC4078ACAA135ACF422C856C0E68EA1BF5669944DDD7BCDE7B1F8E415D77AECB980613C2E4AC91FC167A2B244592486606FC29C8FD7F045B9A
310
EF7053A7E60B504B0304140006080800CC70623BD9DDAED0EC0000007C01000008000000636F72652E786D6C8D90416EC3201045AF82665B61836D9CD8C2444DD39CA01740405C94182C03558F5F9C3852BBEB6A467FFE9B197D7EF89E6EE8CB2CC17A37002D0820E394D7D68D03A478C17B4007C117EFE32F1B20272733C0
310
2A83E0E3E2D3BC49CABB685CCCAAF3DA6CA20CC14440EA969B0182FA34932C648AD911AEC52CD5558EA6A0CF2EC329598D1E47ACCEFBECC59A050463A7EA5833865FEBDD0E37353BE3EE8DBDE3F6786A48D375FBF6CC78B9C282473B3DEFABC5C86834888A900E538A49F5419B9EB47DD5BC907D4F082F57FB1F28CDFA9F50
310
B22ED6D5F6EE030B20687EE43E10BC5CB3C8E51E54AE6B6EE207504B0304140006080800CC70623B55019EA25F0000007C00000007000000636E782E786D6C4DCB3B0E80201045D1AD90E915ED2CF8AC45050C11660C8261F98AB1B07AC9C97D42D718D865D3E909258CFD00CCE24AC6E326A164D74DC0B4128928FF326038
310
472BA13128B1252AC747C6BAB984FC68F0B87FE8960A5C09FE86CFB69FBA01504B0304140006080800CC70623BA24EB22D72010000D40300000C0000006662782F636F72652E786D6CC5535B6E833010BC8AE5DF0A6C5E49888CA3A6694ED00B38E05014B091B1518EDFE511A5A9D228FD2A1F60CDEC7A67C6986DCE4D8D7A
310
69BA4AAB0C073EC548AA5C17952A33ECECD15B61B4E1CC686DBF9561A44423333CC098B3D268D7CE50AE9595CA02AA74216750749DB418E5352C32DCE59FB211BE70162ABA93DF8AFC244AE9073ED050C759670D0840D390E18DF9F1706664C23973AE2A66B62A605A75ACA4C13C4976E1364A12EF355A2EBD384AF65EFA96
310
BC7B8BED2EA6719AAE16FB8491A199335B351775B991C2CA02F390D2D40B028F861F41BCA68B7518BFD0D59A524686F29B26D7164F36B94AD9289CE54E6D1DE6010819891F6E21228B3AD1831EC219194284CF98F06DD01008846CC5A1BEF83801D4CBDC6A1303536877A57A513B0953A94FC707FDBE6064EA84A9E3E6E0FA
310
EE8CF0E9198F7784A316AA0413C2C2F2E0ECA0934D1AE6D05A69BCDE9E91D2A611F573361E38FC1375157F5752AE6B6DFE4B11990F88CCBF0719EE23FF02504B0304140006080800CC70623B408A7D3B7C0000009D0000000B0000006662782F636E782E786D6C4DCCD10A83201886E15B91FFDC552A92A0064DBC8F581632
310
D3703A76F9ABD1C18E3E78F878E5F0D9027ABBFCF2292AE86E2D20171F69F6715550CB827B40839639A5F2770314A7CD293819B45C73AAFB45B35BA61ACAA1C1C7E7855C58C15BC331339661262CC762340413D68D77DA5B42298546CBE6573AF60CEB2F504B0304140006080800CC70623B449FB9BD290100001202000031
310
0000006662782F36394639363044362D344446342D343946362D394244322D3234314243333846323333332F636F72652E786D6C8D515B6EC32010BC0AE22B55850D98B871848994463E412FE002495162B07854397EA176A4F62F3F2C9A9D991D587EB84F37F0AD7D30CEF6905418026DA553C65E7A98E219ED203808EE9D
310
8B7F6810D871D23D2C3014FCE25D9A57483A1BB58D19B54EE9151C43D0110279CB971E06F9A5A7B11A53CC8C70ADE6515EC78BAE4895DB992778883E0700CB907242D17643D7E2538BD869608875438BBAE38922CAC8F1BDD90DB4691A5E2F42C153326A951B95E398B3D1FE599322163C9AE9115F7A3D46ADA0A018778810
310
84E907617BDCEE297BC5BB3DC6BC2EF47FA234AB2745C9D8D8D035EE220B50105E2F0DC1954B9FB747187D9F9D8FA0CCDB042D5FA0C015C65B42DF78BD10F3F3B363CB56C7109DCFDFBBB97E662ED92EB62D13BC2E1BCAE5777DB9966D8A1F504B0304140006080800CC70623BAD7543B64E01000033030000300000006662
310
782F36394639363044362D344446342D343946362D394244322D3234314243333846323333332F636E782E786D6CD593CD6EC32010845F0571AD6CE3D48AD20813A9873E410FBD12D82434182C7EAAE6EDBB2424CD25871E7B41D6EC30B3FA84F9E67BB2E40B4234DE8DB46F1925E094D7C6ED479AD3AE5951B2113C789FEE
310
6C943839C1488B4C05DF079FE72A69D8C96C13AAD6B8631503449F83828872B949AC57D26200B826A308D316B4064D6E46FCDA41C05550DC9E483A00797BFD207EFB092A45DE9514C1BBD22178396BD39D891265658C238DEA00936C654E5E433CB65A26D9F6EDB5EBC14EBF49A45CB856E66048291F6939A9A81BB5C89177
310
38143CA680F4AA299D66A042CEB3354A2684DC9D8D178FE0D9B8B41CAAD720F880EE7EF93C0C18769E099ECC04D5A102C8049A8A05632F4DDF376CF1DE0F6BB65C2F8627B65A33C6BB62177CEBBDAD973006829F89F22E814B54F4BC2BE347F8AA8F681390B50FA73F804400B5F542E796F19FF974E7F78DB802FE05E20750
310
4B0304140006080800CC70623B8D05915C650500003B100000340000006662782F36394639363044362D344446342D343946362D394244322D3234314243333846323333332F6F626A656374732E786D6CAD575B6FA33814FE2B887D06429276DA1565D4266D158D3A339A6846FB502932E050B66023DB74D2FDF5FB190C01
310
9276B2973C046C8ECFF53B17071F77456EBD502133CEAE6CDF9DD81665314F32965ED995DA3A17B6F5310C04E7AA47665B8C14F4CAD6DB7618A48257A5D94AE89654B91AEDDEDDFC61C998326A5B714EA4BCB265FC440BE2924AF184CA6737218AB8E976E7FA6E4338649B0A523E8D98964450A6A029F619B8588D52FE7039
310
B1BD30F0F4F730D0FF866AF6369557DB33949F31A9088B0F848DD8CCFCF9F2767A76E99CCDE733677E3EF59D9BBB9BA5E37F984D16E78BC5E5F5ED25044B25C0C96822E8D60EEFE11B91C581D77CEA34368A1F5329E68CD1B8B61F16D63A1B8E092D294B10C78C4A48EB593D192E7DED9BDEE7995E1B91FDEDD3ACEA9FE831
310
6A756F9F7D4D79F4274C90A7A04248AA51D5F8C718DAE06FB2F75AC4796EBE65D22A88A22223B995679120E2D50E41AA49C260C046A35368846B0BECD0DFF3EBEB8AD4F835768F69B9ADF25C43D30E6B646F807FAA64AD59F61715C7A54127C4AACA98BA3006A9D792DAE165E0D59B61A01FB3A9F9D838D2DAE62445C86166
310
F37564E842E7DE6A69879FEEA2DD5AE7E371E1A5E025154AC307D06A03D73EB5978C58FFA4C8E9033066E0F3BD53BEC1F39F91BE7B55103791EDE6BBB991A2046172CB4581D8B893FA674DDA17A77B3B7C413D1B511FD2743BFF8A38F03A658705E3ADF8015C3A3417FF3D7E439FF591DA0B5F18BC20C1B8981957AE6392A3
310
F43C640C01D1A0B4728E2DD4F26DB4B3C3152A252A3B4E913CEC1C72F012782FF88EFF8637AA552DBEF76408E8A8DE9E50F9E1CB3A2DA0DB1B6039A893B56063DC5B3E3FFB5F72E67AB9FEB4AEC496C4F4C1149625DD662C53E89D7BF0F6151A046260D1337DFDC94502430F83B0EE07A130A224BCAD7DAE1D9FB6CD422FF6
310
920702629C4BB9AE79C12F243C6432A6794E18E5552BA56B431AAB5D91317302B2B071E86C3A42B1A02F999E24061403B5D0EB639195DA655DD3EBEAB4FB862DDF579F014AD0E73C22F99E28DA57FB98E75C6CA2D74D53086D600F4786E0FE3144B771A8A7B900F03594DB8A633CBC49B2EDB69228BB479CF863B5E807AAAB
310
23872F6DFEB4129B949CA33823F58830E86D65621E10047D9DB34D862E8EAC3C2ABC2F7B2C40D67CDFE01F5545B92105AF983AC54D93D69E56FB8E797F88913F898A9FEC705D3F9D1B54EC8426FB500D40A03BD0119B06E1B95DDC7EB8F6975367793EBD70E66733DFB9BC982F9CE564727731999F5D4ECFCE3B8D6A4DC2A0
310
6D50FD148437D110834A64C6CDDF57FBACB5C307A2A477DFE4939736CFEF2B175371E0E10CF0DD1D5C15654E0BCA14D1E87DD02FF93782A162C0A3D95F1524A52770F972BF1EE9809D13CE7DD599467F8ECE9ADD85CE85A34CD45355448C64F9E8A031DC2D596ACC6E5DD93D9B82DE2EF5CAF81363A8E47996A0DE24564A79
310
4115AACE09C55E14540231FDA13C319787134EBF34E3A022514E5B4D9E0826E25C02D5805B15ABE1BEF51B26383D445DD9E875EE33FE4C22DA16427D65A3BCA92CA6D28DD01DF5DC53330704308475351050232CCD31583787BA75774AFB06E5070DD0C8EF484E19968C5D83BA5B90B244D31E54D55A372320FE4786B7EA58
310
44E135AA5467CB7EA333A61683CC6A8C3257034C10CF46F40EF9F5BE59BE5BD30C3C72D235E95D10345C1D45445A5F0BB47E46A5EBE5570F9380B5FA629579952296A773720405982B9DE04011506178964401AA8BDF1FBF0A8EAB6861DD6580C0E38217056766716DAEB2D6FA0917D3E4116581EADB879C4E7CFFB11EFACD
310
3D641311495D92C8676CB409A72D18610D803CE8A626049E8EC1887CB5B44CC39883690DDA8399B4B9855B481E7D71D4A9D22F96E5BB73BF5793020C02137BF837504B0304140006080000CC70623B000000000000000000000000350000006662782F36394639363044362D344446342D343946362D394244322D32343142
310
43333846323333332F76657274696365732E62696E504B0304140006080800CC70623BF270F1330600000004000000360000006662782F36394639363044362D344446342D343946362D394244322D3234314243333846323333332F747269616E676C65732E62696E636660600000504B0304140006080000CC70623B0000
310
00000000000000000000370000006662782F36394639363044362D344446342D343946362D394244322D3234314243333846323333332F617474726962757465732E62696E504B0304140006080800CC70623B08DA0BD19000000041010000360000006662782F36394639363044362D344446342D343946362D394244322D
310
3234314243333846323333332F6469726563746F72792E786D6C858F410AC3201045AF22B36F53E9A60B35CBEEBAE80D244E44489C6234F4F835464A48035D0DF398FF9F8AF63D0E6CC63039F212F8F9020C7D47C6792B21C5FE7403D62A1188E2E60C98D7234A5830286103A55745067B9D86B8A3CF9C7F90C11DE607FB14
310
4396D7B6A82D282E9A152AD114D5EF2CB866EEE831B8EEA07A7BB5A8D7D61A2BAAEB7FD5F70921FF497D00504B0304140006080800CC70623BCA768048FE000000A00100003B0000006662782F36394639363044362D344446342D343946362D394244322D3234314243333846323333332F7265736F75726365732F636F72
310
652E786D6C8D50596E833010BD0A9ADFCA60D600328E9AA639412F609909B1126CE4A5EAF16B0295DABFFECC8CDEA2797AECF8353F924FB44E193D409E5248504B332A3D0D10FC95B4901C39B3C6F85F3248B49871801506CE266BC2B243D2688FDA47549B11775038871E12F988C7004EDE7016A9083E2ADC3D5D84BC8B09
310
D33C8D74D471E6BC8D0192EDC93A815B742658898E651BCB59086ADC356A8C3FD555A1055ED7E7E254D615792D0F075295F585746FF53B694EE78A565DD736979A65AB9933AFE69F8CD2A2F038022F28ED489E135A7CE4554F9BBEA85E68DB53CAB255FEC71496F19FA6A0B42F8B3DEE6673C0F318E4497096AD7DC5F52C33
310
EEB55BFE0D504B010214000A0000080000CC70623B3DEE336E79000000790000001B00000000000000000000000000000000006175746F6465736B2D64657369676E2D7061636B6167652E786D6C504B01021400140006080800CC70623BD486FD9CA0000000F40000001300000000000000000000000000B20000005B436F
310
6E74656E745F54797065735D2E786D6C504B01021400140006080800CC70623BD9DDAED0EC0000007C010000080000000000000000000000000083010000636F72652E786D6C504B01021400140006080800CC70623B55019EA25F0000007C000000070000000000000000000000000095020000636E782E786D6C504B0102
310
1400140006080800CC70623BA24EB22D72010000D40300000C00000000000000000000000000190300006662782F636F72652E786D6C504B01021400140006080800CC70623B408A7D3B7C0000009D0000000B00000000000000000000000000B50400006662782F636E782E786D6C504B01021400140006080800CC70623B
310
449FB9BD290100001202000031000000000000000000000000005A0500006662782F36394639363044362D344446342D343946362D394244322D3234314243333846323333332F636F72652E786D6C504B01021400140006080800CC70623BAD7543B64E010000330300003000000000000000000000000000D20600006662
310
782F36394639363044362D344446342D343946362D394244322D3234314243333846323333332F636E782E786D6C504B01021400140006080800CC70623B8D05915C650500003B10000034000000000000000000000000006E0800006662782F36394639363044362D344446342D343946362D394244322D32343142433338
310
46323333332F6F626A656374732E786D6C504B01021400140006080000CC70623B0000000000000000000000003500000000000000000000000000250E00006662782F36394639363044362D344446342D343946362D394244322D3234314243333846323333332F76657274696365732E62696E504B010214001400060808
310
00CC70623BF270F13306000000040000003600000000000000000000000000780E00006662782F36394639363044362D344446342D343946362D394244322D3234314243333846323333332F747269616E676C65732E62696E504B01021400140006080000CC70623B00000000000000000000000037000000000000000000
310
00000000D20E00006662782F36394639363044362D344446342D343946362D394244322D3234314243333846323333332F617474726962757465732E62696E504B01021400140006080800CC70623B08DA0BD190000000410100003600000000000000000000000000270F00006662782F36394639363044362D344446342D
310
343946362D394244322D3234314243333846323333332F6469726563746F72792E786D6C504B01021400140006080800CC70623BCA768048FE000000A00100003B000000000000000000000000000B1000006662782F36394639363044362D344446342D343946362D394244322D3234314243333846323333332F7265736F
310
75726365732F636F72652E786D6C504B0506000000000E000E0080040000621100000000
  0
XRECORD
  5
176
102
{ACAD_REACTORS
330
173
102
}
330
173
100
AcDbXrecord
280
     1
270
     1
271
     1
  0
XRECORD
  5
177
102
{ACAD_REACTORS
330
173
102
}
330
173
100
AcDbXrecord
280
     1
270
     1
271
     1
  0
XRECORD
  5
D033
102
{ACAD_REACTORS
330
D032
102
}
330
D032
100
AcDbXrecord
280
     1
102
ACAD_ROUNDTRIP_2012_MLEADER_STYLE
298
     1
  0
XRECORD
  5
D045
102
{ACAD_REACTORS
330
D044
102
}
330
D044
100
AcDbXrecord
280
     1
102
DISPLAYNAME
  1
Metric50
102
FLAGS
 90
        0
  0
CELLSTYLEMAP
  5
D005
102
{ACAD_REACTORS
330
162
102
}
330
162
100
AcDbCellStyleMap
 90
        3
300
CELLSTYLE
  1
TABLEFORMAT_BEGIN
 90
        5
170
     1
 91
        0
 92
    32768
 62
   257
 93
        1
300
CONTENTFORMAT
  1
CONTENTFORMAT_BEGIN
 90
        0
 91
        0
 92
      512
 93
        0
300

 40
0.0
140
1.0
 94
        5
 62
     0
340
11
144
6.0
309
CONTENTFORMAT_END
171
     1
301
MARGIN
  1
CELLMARGIN_BEGIN
 40
1.5
 40
1.5
 40
1.5
 40
1.5
 40
4.5
 40
4.5
309
CELLMARGIN_END
 94
        6
 95
        1
302
GRIDFORMAT
  1
GRIDFORMAT_BEGIN
 90
        0
 91
        1
 62
     0
 92
       -2
340
14
 93
        0
 40
1.125
309
GRIDFORMAT_END
 95
        2
302
GRIDFORMAT
  1
GRIDFORMAT_BEGIN
 90
        0
 91
        1
 62
     0
 92
       -2
340
14
 93
        0
 40
1.125
309
GRIDFORMAT_END
 95
        4
302
GRIDFORMAT
  1
GRIDFORMAT_BEGIN
 90
        0
 91
        1
 62
     0
 92
       -2
340
14
 93
        0
 40
1.125
309
GRIDFORMAT_END
 95
        8
302
GRIDFORMAT
  1
GRIDFORMAT_BEGIN
 90
        0
 91
        1
 62
     0
 92
       -2
340
14
 93
        0
 40
1.125
309
GRIDFORMAT_END
 95
       16
302
GRIDFORMAT
  1
GRIDFORMAT_BEGIN
 90
        0
 91
        1
 62
     0
 92
       -2
340
14
 93
        0
 40
1.125
309
GRIDFORMAT_END
 95
       32
302
GRIDFORMAT
  1
GRIDFORMAT_BEGIN
 90
        0
 91
        1
 62
     0
 92
       -2
340
14
 93
        0
 40
1.125
309
GRIDFORMAT_END
309
TABLEFORMAT_END
  1
CELLSTYLE_BEGIN
 90
        1
 91
        1
300
_TITLE
309
CELLSTYLE_END
300
CELLSTYLE
  1
TABLEFORMAT_BEGIN
 90
        5
170
     1
 91
        0
 92
        0
 62
   257
 93
        1
300
CONTENTFORMAT
  1
CONTENTFORMAT_BEGIN
 90
        0
 91
        0
 92
      512
 93
        0
300

 40
0.0
140
1.0
 94
        5
 62
     0
340
11
144
4.5
309
CONTENTFORMAT_END
171
     1
301
MARGIN
  1
CELLMARGIN_BEGIN
 40
1.5
 40
1.5
 40
1.5
 40
1.5
 40
4.5
 40
4.5
309
CELLMARGIN_END
 94
        6
 95
        1
302
GRIDFORMAT
  1
GRIDFORMAT_BEGIN
 90
        0
 91
        1
 62
     0
 92
       -2
340
14
 93
        0
 40
1.125
309
GRIDFORMAT_END
 95
        2
302
GRIDFORMAT
  1
GRIDFORMAT_BEGIN
 90
        0
 91
        1
 62
     0
 92
       -2
340
14
 93
        0
 40
1.125
309
GRIDFORMAT_END
 95
        4
302
GRIDFORMAT
  1
GRIDFORMAT_BEGIN
 90
        0
 91
        1
 62
     0
 92
       -2
340
14
 93
        0
 40
1.125
309
GRIDFORMAT_END
 95
        8
302
GRIDFORMAT
  1
GRIDFORMAT_BEGIN
 90
        0
 91
        1
 62
     0
 92
       -2
340
14
 93
        0
 40
1.125
309
GRIDFORMAT_END
 95
       16
302
GRIDFORMAT
  1
GRIDFORMAT_BEGIN
 90
        0
 91
        1
 62
     0
 92
       -2
340
14
 93
        0
 40
1.125
309
GRIDFORMAT_END
 95
       32
302
GRIDFORMAT
  1
GRIDFORMAT_BEGIN
 90
        0
 91
        1
 62
     0
 92
       -2
340
14
 93
        0
 40
1.125
309
GRIDFORMAT_END
309
TABLEFORMAT_END
  1
CELLSTYLE_BEGIN
 90
        2
 91
        1
300
_HEADER
309
CELLSTYLE_END
300
CELLSTYLE
  1
TABLEFORMAT_BEGIN
 90
        5
170
     1
 91
        0
 92
        0
 62
   257
 93
        1
300
CONTENTFORMAT
  1
CONTENTFORMAT_BEGIN
 90
        0
 91
        0
 92
      512
 93
        0
300

 40
0.0
140
1.0
 94
        2
 62
     0
340
11
144
4.5
309
CONTENTFORMAT_END
171
     1
301
MARGIN
  1
CELLMARGIN_BEGIN
 40
1.5
 40
1.5
 40
1.5
 40
1.5
 40
4.5
 40
4.5
309
CELLMARGIN_END
 94
        6
 95
        1
302
GRIDFORMAT
  1
GRIDFORMAT_BEGIN
 90
        0
 91
        1
 62
     0
 92
       -2
340
14
 93
        0
 40
1.125
309
GRIDFORMAT_END
 95
        2
302
GRIDFORMAT
  1
GRIDFORMAT_BEGIN
 90
        0
 91
        1
 62
     0
 92
       -2
340
14
 93
        0
 40
1.125
309
GRIDFORMAT_END
 95
        4
302
GRIDFORMAT
  1
GRIDFORMAT_BEGIN
 90
        0
 91
        1
 62
     0
 92
       -2
340
14
 93
        0
 40
1.125
309
GRIDFORMAT_END
 95
        8
302
GRIDFORMAT
  1
GRIDFORMAT_BEGIN
 90
        0
 91
        1
 62
     0
 92
       -2
340
14
 93
        0
 40
1.125
309
GRIDFORMAT_END
 95
       16
302
GRIDFORMAT
  1
GRIDFORMAT_BEGIN
 90
        0
 91
        1
 62
     0
 92
       -2
340
14
 93
        0
 40
1.125
309
GRIDFORMAT_END
 95
       32
302
GRIDFORMAT
  1
GRIDFORMAT_BEGIN
 90
        0
 91
        1
 62
     0
 92
       -2
340
14
 93
        0
 40
1.125
309
GRIDFORMAT_END
309
TABLEFORMAT_END
  1
CELLSTYLE_BEGIN
 90
        3
 91
        2
300
_DATA
309
CELLSTYLE_END
  0
XRECORD
  5
D00A
102
{ACAD_REACTORS
330
162
102
}
330
162
100
AcDbXrecord
280
     1
102
ACAD_ROUNDTRIP_PRE2007_TABLESTYLE
 90
      512
 91
        0
  1

 92
      512
 93
        0
  2

 94
      512
 95
        0
  3

  0
XRECORD
  5
D01D
102
{ACAD_REACTORS
330
D01C
102
}
330
D01C
100
AcDbXrecord
280
     1
102
RTVSPost2010Prop28
280
     1
102
RTVSPost2010PropOp28
 70
     1
102
RTVSPost2010Prop29
280
     1
102
RTVSPost2010PropOp29
 70
     1
102
RTVSPost2010Prop30
280
     0
102
RTVSPost2010PropOp30
 70
     1
102
RTVSPost2010Prop31
280
     0
102
RTVSPost2010PropOp31
 70
     1
102
RTVSPost2010Prop32
280
     0
102
RTVSPost2010PropOp32
 70
     1
102
RTVSPost2010Prop33
280
     0
102
RTVSPost2010PropOp33
 70
     1
102
RTVSPost2010Prop34
280
     0
102
RTVSPost2010PropOp34
 70
     1
102
RTVSPost2010Prop35
280
     0
102
RTVSPost2010PropOp35
 70
     1
102
RTVSPost2010Prop36
280
     0
102
RTVSPost2010PropOp36
 70
     1
102
RTVSPost2010Prop37
 90
       50
102
RTVSPost2010PropOp37
 70
     1
102
RTVSPost2010Prop38
140
0.0
102
RTVSPost2010PropOp38
 70
     1
102
RTVSPost2010Prop39
140
1.0
102
RTVSPost2010PropOp39
 70
     1
102
RTVSPost2010Prop40
 90
        0
102
RTVSPost2010PropOp40
 70
     1
102
RTVSPost2010Prop41ColorIndex
 90
       18
102
RTVSPost2010Prop41ColorRGB
 90
        0
102
RTVSPost2010PropOp41
 70
     1
102
RTVSPost2010Prop42
 90
       50
102
RTVSPost2010PropOp42
 70
     1
102
RTVSPost2010Prop43
 90
        3
102
RTVSPost2010PropOp43
 70
     1
102
RTVSPost2010Prop44ColorIndex
 90
        5
102
RTVSPost2010Prop44ColorRGB
 90
      255
102
RTVSPost2010PropOp44
 70
     1
102
RTVSPost2010Prop45
280
     0
102
RTVSPost2010PropOp45
 70
     1
102
RTVSPost2010Prop46
 90
       50
102
RTVSPost2010PropOp46
 70
     1
102
RTVSPost2010Prop47
 90
       50
102
RTVSPost2010PropOp47
 70
     1
102
RTVSPost2010Prop48
 90
       50
102
RTVSPost2010PropOp48
 70
     1
102
RTVSPost2010Prop49
280
     0
102
RTVSPost2010PropOp49
 70
     1
102
RTVSPost2010Prop50
 90
       50
102
RTVSPost2010PropOp50
 70
     1
102
RTVSPost2010Prop51ColorIndex
 90
      256
102
RTVSPost2010Prop51ColorRGB
 90
-16777216
102
RTVSPost2010PropOp51
 70
     0
102
RTVSPost2010Prop52
140
1.0
102
RTVSPost2010PropOp52
 70
     0
102
RTVSPost2010Prop53
 90
        2
102
RTVSPost2010PropOp53
 70
     1
102
RTVSPost2010Prop54
  1
strokes_ogs.tif
102
RTVSPost2010PropOp54
 70
     1
102
RTVSPost2010Prop55
280
     0
102
RTVSPost2010PropOp55
 70
     1
102
RTVSPost2010Prop56
140
1.0
102
RTVSPost2010PropOp56
 70
     1
102
RTVSPost2010Prop57
140
1.0
102
RTVSPost2010PropOp57
 70
     1
102
RTVSPropertyOp0
 70
     1
102
RTVSPropertyOp1
 70
     1
102
RTVSPropertyOp2
 70
     1
102
RTVSPropertyOp3
 70
     1
102
RTVSPropertyOp4
 70
     1
102
RTVSPropertyOp5
 70
     1
102
RTVSPropertyOp6
 70
     1
102
RTVSPropertyOp7
 70
     1
102
RTVSPropertyOp8
 70
     1
102
RTVSPropertyOp9
 70
     1
102
RTVSPropertyOp10
 70
     1
102
RTVSPropertyOp11
 70
     1
102
RTVSPropertyOp12
 70
     1
102
RTVSPropertyOp13
 70
     1
102
RTVSPropertyOp14
 70
     1
102
RTVSPropertyOp15
 70
     1
102
RTVSPropertyOp16
 70
     1
102
RTVSPropertyOp17
 70
     1
102
RTVSPropertyOp18
 70
     1
102
RTVSPropertyOp19
 70
     1
102
RTVSPropertyOp20
 70
     1
102
RTVSPropertyOp21
 70
     1
102
RTVSPropertyOp22
 70
     1
102
RTVSPropertyOp23
 70
     1
102
RTVSPropertyOp24
 70
     1
102
RTVSPropertyOp25
 70
     1
102
RTVSPropertyOp26
 70
     1
102
RTVSPropertyOp27
 70
     1
102
RTVSPropertyOp28
 70
     1
102
RTVSPropertyOp29
 70
     1
102
RTVSPropertyOp30
 70
     1
102
RTVSPropertyOp31
 70
     1
102
RTVSPropertyOp32
 70
     1
102
RTVSPropertyOp33
 70
     1
102
RTVSPropertyOp34
 70
     1
102
RTVSPropertyOp35
 70
     1
102
RTVSPropertyOp36
 70
     1
102
RTVSPropertyOp37
 70
     1
102
RTVSPropertyOp38
 70
     1
102
RTVSPropertyOp39
 70
     1
102
RTVSPropertyOp40
 70
     1
102
RTVSPropertyOp41
 70
     1
102
RTVSPropertyOp42
 70
     1
102
RTVSPropertyOp43
 70
     1
102
RTVSPropertyOp44
 70
     1
102
RTVSPropertyOp45
 70
     1
102
RTVSPropertyOp46
 70
     1
102
RTVSPropertyOp47
 70
     1
102
RTVSPropertyOp48
 70
     1
102
RTVSPropertyOp49
 70
     1
102
RTVSPropertyOp50
 70
     1
102
RTVSPropertyOp51
 70
     0
102
RTVSPropertyOp52
 70
     0
102
RTVSPropertyOp53
 70
     1
102
RTVSPropertyOp54
 70
     1
102
RTVSPropertyOp55
 70
     1
102
RTVSPropertyOp56
 70
     1
102
RTVSPropertyOp57
 70
     1
102
RTVSPropertyOp58
 70
     1
102
RTVSPropertyOp59
 70
     1
102
RTVSPropertyOp60
 70
     1
102
RTVSPropertyOp61
 70
     1
102
RTVSPropertyOp62
 70
     1
  0
XRECORD
  5
D01B
102
{ACAD_REACTORS
330
D01A
102
}
330
D01A
100
AcDbXrecord
280
     1
102
RTVSPost2010Prop28
280
     0
102
RTVSPost2010PropOp28
 70
     1
102
RTVSPost2010Prop29
280
     1
102
RTVSPost2010PropOp29
 70
     1
102
RTVSPost2010Prop30
280
     1
102
RTVSPost2010PropOp30
 70
     1
102
RTVSPost2010Prop31
280
     0
102
RTVSPost2010PropOp31
 70
     1
102
RTVSPost2010Prop32
280
     0
102
RTVSPost2010PropOp32
 70
     1
102
RTVSPost2010Prop33
280
     0
102
RTVSPost2010PropOp33
 70
     1
102
RTVSPost2010Prop34
280
     0
102
RTVSPost2010PropOp34
 70
     1
102
RTVSPost2010Prop35
280
     0
102
RTVSPost2010PropOp35
 70
     1
102
RTVSPost2010Prop36
280
     0
102
RTVSPost2010PropOp36
 70
     1
102
RTVSPost2010Prop37
 90
       50
102
RTVSPost2010PropOp37
 70
     1
102
RTVSPost2010Prop38
140
0.0
102
RTVSPost2010PropOp38
 70
     1
102
RTVSPost2010Prop39
140
1.0
102
RTVSPost2010PropOp39
 70
     1
102
RTVSPost2010Prop40
 90
        0
102
RTVSPost2010PropOp40
 70
     1
102
RTVSPost2010Prop41ColorIndex
 90
       18
102
RTVSPost2010Prop41ColorRGB
 90
        0
102
RTVSPost2010PropOp41
 70
     1
102
RTVSPost2010Prop42
 90
       50
102
RTVSPost2010PropOp42
 70
     1
102
RTVSPost2010Prop43
 90
        3
102
RTVSPost2010PropOp43
 70
     1
102
RTVSPost2010Prop44ColorIndex
 90
        5
102
RTVSPost2010Prop44ColorRGB
 90
      255
102
RTVSPost2010PropOp44
 70
     1
102
RTVSPost2010Prop45
280
     0
102
RTVSPost2010PropOp45
 70
     1
102
RTVSPost2010Prop46
 90
       50
102
RTVSPost2010PropOp46
 70
     1
102
RTVSPost2010Prop47
 90
       50
102
RTVSPost2010PropOp47
 70
     1
102
RTVSPost2010Prop48
 90
       50
102
RTVSPost2010PropOp48
 70
     1
102
RTVSPost2010Prop49
280
     0
102
RTVSPost2010PropOp49
 70
     1
102
RTVSPost2010Prop50
 90
       50
102
RTVSPost2010PropOp50
 70
     1
102
RTVSPost2010Prop51ColorIndex
 90
      256
102
RTVSPost2010Prop51ColorRGB
 90
-16777216
102
RTVSPost2010PropOp51
 70
     0
102
RTVSPost2010Prop52
140
1.0
102
RTVSPost2010PropOp52
 70
     0
102
RTVSPost2010Prop53
 90
        2
102
RTVSPost2010PropOp53
 70
     1
102
RTVSPost2010Prop54
  1
strokes_ogs.tif
102
RTVSPost2010PropOp54
 70
     1
102
RTVSPost2010Prop55
280
     0
102
RTVSPost2010PropOp55
 70
     1
102
RTVSPost2010Prop56
140
1.0
102
RTVSPost2010PropOp56
 70
     1
102
RTVSPost2010Prop57
140
1.0
102
RTVSPost2010PropOp57
 70
     1
102
RTVSPropertyOp0
 70
     1
102
RTVSPropertyOp1
 70
     1
102
RTVSPropertyOp2
 70
     1
102
RTVSPropertyOp3
 70
     1
102
RTVSPropertyOp4
 70
     1
102
RTVSPropertyOp5
 70
     1
102
RTVSPropertyOp6
 70
     1
102
RTVSPropertyOp7
 70
     1
102
RTVSPropertyOp8
 70
     1
102
RTVSPropertyOp9
 70
     1
102
RTVSPropertyOp10
 70
     1
102
RTVSPropertyOp11
 70
     1
102
RTVSPropertyOp12
 70
     1
102
RTVSPropertyOp13
 70
     1
102
RTVSPropertyOp14
 70
     1
102
RTVSPropertyOp15
 70
     1
102
RTVSPropertyOp16
 70
     1
102
RTVSPropertyOp17
 70
     1
102
RTVSPropertyOp18
 70
     1
102
RTVSPropertyOp19
 70
     1
102
RTVSPropertyOp20
 70
     1
102
RTVSPropertyOp21
 70
     1
102
RTVSPropertyOp22
 70
     1
102
RTVSPropertyOp23
 70
     1
102
RTVSPropertyOp24
 70
     1
102
RTVSPropertyOp25
 70
     1
102
RTVSPropertyOp26
 70
     1
102
RTVSPropertyOp27
 70
     1
102
RTVSPropertyOp28
 70
     1
102
RTVSPropertyOp29
 70
     1
102
RTVSPropertyOp30
 70
     1
102
RTVSPropertyOp31
 70
     1
102
RTVSPropertyOp32
 70
     1
102
RTVSPropertyOp33
 70
     1
102
RTVSPropertyOp34
 70
     1
102
RTVSPropertyOp35
 70
     1
102
RTVSPropertyOp36
 70
     1
102
RTVSPropertyOp37
 70
     1
102
RTVSPropertyOp38
 70
     1
102
RTVSPropertyOp39
 70
     1
102
RTVSPropertyOp40
 70
     1
102
RTVSPropertyOp41
 70
     1
102
RTVSPropertyOp42
 70
     1
102
RTVSPropertyOp43
 70
     1
102
RTVSPropertyOp44
 70
     1
102
RTVSPropertyOp45
 70
     1
102
RTVSPropertyOp46
 70
     1
102
RTVSPropertyOp47
 70
     1
102
RTVSPropertyOp48
 70
     1
102
RTVSPropertyOp49
 70
     1
102
RTVSPropertyOp50
 70
     1
102
RTVSPropertyOp51
 70
     0
102
RTVSPropertyOp52
 70
     0
102
RTVSPropertyOp53
 70
     1
102
RTVSPropertyOp54
 70
     1
102
RTVSPropertyOp55
 70
     1
102
RTVSPropertyOp56
 70
     1
102
RTVSPropertyOp57
 70
     1
102
RTVSPropertyOp58
 70
     1
102
RTVSPropertyOp59
 70
     1
102
RTVSPropertyOp60
 70
     1
102
RTVSPropertyOp61
 70
     1
102
RTVSPropertyOp62
 70
     1
  0
XRECORD
  5
D029
102
{ACAD_REACTORS
330
D028
102
}
330
D028
100
AcDbXrecord
280
     1
102
RTVSPost2010Prop28
280
     0
102
RTVSPost2010PropOp28
 70
     1
102
RTVSPost2010Prop29
280
     1
102
RTVSPost2010PropOp29
 70
     1
102
RTVSPost2010Prop30
280
     1
102
RTVSPost2010PropOp30
 70
     1
102
RTVSPost2010Prop31
280
     0
102
RTVSPost2010PropOp31
 70
     1
102
RTVSPost2010Prop32
280
     0
102
RTVSPost2010PropOp32
 70
     1
102
RTVSPost2010Prop33
280
     0
102
RTVSPost2010PropOp33
 70
     1
102
RTVSPost2010Prop34
280
     0
102
RTVSPost2010PropOp34
 70
     1
102
RTVSPost2010Prop35
280
     0
102
RTVSPost2010PropOp35
 70
     1
102
RTVSPost2010Prop36
280
     0
102
RTVSPost2010PropOp36
 70
     1
102
RTVSPost2010Prop37
 90
       50
102
RTVSPost2010PropOp37
 70
     1
102
RTVSPost2010Prop38
140
0.0
102
RTVSPost2010PropOp38
 70
     1
102
RTVSPost2010Prop39
140
1.0
102
RTVSPost2010PropOp39
 70
     1
102
RTVSPost2010Prop40
 90
        0
102
RTVSPost2010PropOp40
 70
     1
102
RTVSPost2010Prop41ColorIndex
 90
       18
102
RTVSPost2010Prop41ColorRGB
 90
        0
102
RTVSPost2010PropOp41
 70
     1
102
RTVSPost2010Prop42
 90
       50
102
RTVSPost2010PropOp42
 70
     1
102
RTVSPost2010Prop43
 90
        3
102
RTVSPost2010PropOp43
 70
     1
102
RTVSPost2010Prop44ColorIndex
 90
        5
102
RTVSPost2010Prop44ColorRGB
 90
      255
102
RTVSPost2010PropOp44
 70
     1
102
RTVSPost2010Prop45
280
     0
102
RTVSPost2010PropOp45
 70
     1
102
RTVSPost2010Prop46
 90
       50
102
RTVSPost2010PropOp46
 70
     1
102
RTVSPost2010Prop47
 90
       50
102
RTVSPost2010PropOp47
 70
     1
102
RTVSPost2010Prop48
 90
       50
102
RTVSPost2010PropOp48
 70
     1
102
RTVSPost2010Prop49
280
     0
102
RTVSPost2010PropOp49
 70
     1
102
RTVSPost2010Prop50
 90
       50
102
RTVSPost2010PropOp50
 70
     1
102
RTVSPost2010Prop51ColorIndex
 90
      256
102
RTVSPost2010Prop51ColorRGB
 90
-16777216
102
RTVSPost2010PropOp51
 70
     0
102
RTVSPost2010Prop52
140
1.0
102
RTVSPost2010PropOp52
 70
     0
102
RTVSPost2010Prop53
 90
        2
102
RTVSPost2010PropOp53
 70
     1
102
RTVSPost2010Prop54
  1
strokes_ogs.tif
102
RTVSPost2010PropOp54
 70
     1
102
RTVSPost2010Prop55
280
     0
102
RTVSPost2010PropOp55
 70
     1
102
RTVSPost2010Prop56
140
1.0
102
RTVSPost2010PropOp56
 70
     1
102
RTVSPost2010Prop57
140
1.0
102
RTVSPost2010PropOp57
 70
     1
102
RTVSPropertyOp0
 70
     1
102
RTVSPropertyOp1
 70
     1
102
RTVSPropertyOp2
 70
     1
102
RTVSPropertyOp3
 70
     1
102
RTVSPropertyOp4
 70
     1
102
RTVSPropertyOp5
 70
     1
102
RTVSPropertyOp6
 70
     1
102
RTVSPropertyOp7
 70
     1
102
RTVSPropertyOp8
 70
     1
102
RTVSPropertyOp9
 70
     1
102
RTVSPropertyOp10
 70
     1
102
RTVSPropertyOp11
 70
     1
102
RTVSPropertyOp12
 70
     1
102
RTVSPropertyOp13
 70
     1
102
RTVSPropertyOp14
 70
     1
102
RTVSPropertyOp15
 70
     1
102
RTVSPropertyOp16
 70
     1
102
RTVSPropertyOp17
 70
     1
102
RTVSPropertyOp18
 70
     1
102
RTVSPropertyOp19
 70
     1
102
RTVSPropertyOp20
 70
     1
102
RTVSPropertyOp21
 70
     1
102
RTVSPropertyOp22
 70
     1
102
RTVSPropertyOp23
 70
     1
102
RTVSPropertyOp24
 70
     1
102
RTVSPropertyOp25
 70
     1
102
RTVSPropertyOp26
 70
     1
102
RTVSPropertyOp27
 70
     1
102
RTVSPropertyOp28
 70
     1
102
RTVSPropertyOp29
 70
     1
102
RTVSPropertyOp30
 70
     1
102
RTVSPropertyOp31
 70
     1
102
RTVSPropertyOp32
 70
     1
102
RTVSPropertyOp33
 70
     1
102
RTVSPropertyOp34
 70
     1
102
RTVSPropertyOp35
 70
     1
102
RTVSPropertyOp36
 70
     1
102
RTVSPropertyOp37
 70
     1
102
RTVSPropertyOp38
 70
     1
102
RTVSPropertyOp39
 70
     1
102
RTVSPropertyOp40
 70
     1
102
RTVSPropertyOp41
 70
     1
102
RTVSPropertyOp42
 70
     1
102
RTVSPropertyOp43
 70
     1
102
RTVSPropertyOp44
 70
     1
102
RTVSPropertyOp45
 70
     1
102
RTVSPropertyOp46
 70
     1
102
RTVSPropertyOp47
 70
     1
102
RTVSPropertyOp48
 70
     1
102
RTVSPropertyOp49
 70
     1
102
RTVSPropertyOp50
 70
     1
102
RTVSPropertyOp51
 70
     0
102
RTVSPropertyOp52
 70
     0
102
RTVSPropertyOp53
 70
     1
102
RTVSPropertyOp54
 70
     1
102
RTVSPropertyOp55
 70
     1
102
RTVSPropertyOp56
 70
     1
102
RTVSPropertyOp57
 70
     1
102
RTVSPropertyOp58
 70
     1
102
RTVSPropertyOp59
 70
     1
102
RTVSPropertyOp60
 70
     1
102
RTVSPropertyOp61
 70
     1
102
RTVSPropertyOp62
 70
     1
  0
XRECORD
  5
D031
102
{ACAD_REACTORS
330
D030
102
}
330
D030
100
AcDbXrecord
280
     1
102
RTVSPost2010Prop28
280
     0
102
RTVSPost2010PropOp28
 70
     1
102
RTVSPost2010Prop29
280
     1
102
RTVSPost2010PropOp29
 70
     1
102
RTVSPost2010Prop30
280
     1
102
RTVSPost2010PropOp30
 70
     1
102
RTVSPost2010Prop31
280
     0
102
RTVSPost2010PropOp31
 70
     1
102
RTVSPost2010Prop32
280
     0
102
RTVSPost2010PropOp32
 70
     1
102
RTVSPost2010Prop33
280
     0
102
RTVSPost2010PropOp33
 70
     1
102
RTVSPost2010Prop34
280
     0
102
RTVSPost2010PropOp34
 70
     1
102
RTVSPost2010Prop35
280
     0
102
RTVSPost2010PropOp35
 70
     1
102
RTVSPost2010Prop36
280
     0
102
RTVSPost2010PropOp36
 70
     1
102
RTVSPost2010Prop37
 90
       50
102
RTVSPost2010PropOp37
 70
     1
102
RTVSPost2010Prop38
140
0.0
102
RTVSPost2010PropOp38
 70
     1
102
RTVSPost2010Prop39
140
1.0
102
RTVSPost2010PropOp39
 70
     1
102
RTVSPost2010Prop40
 90
        0
102
RTVSPost2010PropOp40
 70
     1
102
RTVSPost2010Prop41ColorIndex
 90
       18
102
RTVSPost2010Prop41ColorRGB
 90
        0
102
RTVSPost2010PropOp41
 70
     1
102
RTVSPost2010Prop42
 90
       50
102
RTVSPost2010PropOp42
 70
     1
102
RTVSPost2010Prop43
 90
        3
102
RTVSPost2010PropOp43
 70
     1
102
RTVSPost2010Prop44ColorIndex
 90
        5
102
RTVSPost2010Prop44ColorRGB
 90
      255
102
RTVSPost2010PropOp44
 70
     1
102
RTVSPost2010Prop45
280
     0
102
RTVSPost2010PropOp45
 70
     1
102
RTVSPost2010Prop46
 90
       50
102
RTVSPost2010PropOp46
 70
     1
102
RTVSPost2010Prop47
 90
       50
102
RTVSPost2010PropOp47
 70
     1
102
RTVSPost2010Prop48
 90
       50
102
RTVSPost2010PropOp48
 70
     1
102
RTVSPost2010Prop49
280
     0
102
RTVSPost2010PropOp49
 70
     1
102
RTVSPost2010Prop50
 90
       50
102
RTVSPost2010PropOp50
 70
     1
102
RTVSPost2010Prop51ColorIndex
 90
      256
102
RTVSPost2010Prop51ColorRGB
 90
-16777216
102
RTVSPost2010PropOp51
 70
     0
102
RTVSPost2010Prop52
140
1.0
102
RTVSPost2010PropOp52
 70
     0
102
RTVSPost2010Prop53
 90
        2
102
RTVSPost2010PropOp53
 70
     1
102
RTVSPost2010Prop54
  1
strokes_ogs.tif
102
RTVSPost2010PropOp54
 70
     1
102
RTVSPost2010Prop55
280
     0
102
RTVSPost2010PropOp55
 70
     1
102
RTVSPost2010Prop56
140
1.0
102
RTVSPost2010PropOp56
 70
     1
102
RTVSPost2010Prop57
140
1.0
102
RTVSPost2010PropOp57
 70
     1
102
RTVSPropertyOp0
 70
     1
102
RTVSPropertyOp1
 70
     1
102
RTVSPropertyOp2
 70
     1
102
RTVSPropertyOp3
 70
     1
102
RTVSPropertyOp4
 70
     1
102
RTVSPropertyOp5
 70
     1
102
RTVSPropertyOp6
 70
     1
102
RTVSPropertyOp7
 70
     1
102
RTVSPropertyOp8
 70
     1
102
RTVSPropertyOp9
 70
     1
102
RTVSPropertyOp10
 70
     1
102
RTVSPropertyOp11
 70
     1
102
RTVSPropertyOp12
 70
     1
102
RTVSPropertyOp13
 70
     1
102
RTVSPropertyOp14
 70
     1
102
RTVSPropertyOp15
 70
     1
102
RTVSPropertyOp16
 70
     1
102
RTVSPropertyOp17
 70
     1
102
RTVSPropertyOp18
 70
     1
102
RTVSPropertyOp19
 70
     1
102
RTVSPropertyOp20
 70
     1
102
RTVSPropertyOp21
 70
     1
102
RTVSPropertyOp22
 70
     1
102
RTVSPropertyOp23
 70
     1
102
RTVSPropertyOp24
 70
     1
102
RTVSPropertyOp25
 70
     1
102
RTVSPropertyOp26
 70
     1
102
RTVSPropertyOp27
 70
     1
102
RTVSPropertyOp28
 70
     1
102
RTVSPropertyOp29
 70
     1
102
RTVSPropertyOp30
 70
     1
102
RTVSPropertyOp31
 70
     1
102
RTVSPropertyOp32
 70
     1
102
RTVSPropertyOp33
 70
     1
102
RTVSPropertyOp34
 70
     1
102
RTVSPropertyOp35
 70
     1
102
RTVSPropertyOp36
 70
     1
102
RTVSPropertyOp37
 70
     1
102
RTVSPropertyOp38
 70
     1
102
RTVSPropertyOp39
 70
     1
102
RTVSPropertyOp40
 70
     1
102
RTVSPropertyOp41
 70
     1
102
RTVSPropertyOp42
 70
     1
102
RTVSPropertyOp43
 70
     1
102
RTVSPropertyOp44
 70
     1
102
RTVSPropertyOp45
 70
     1
102
RTVSPropertyOp46
 70
     1
102
RTVSPropertyOp47
 70
     1
102
RTVSPropertyOp48
 70
     1
102
RTVSPropertyOp49
 70
     1
102
RTVSPropertyOp50
 70
     1
102
RTVSPropertyOp51
 70
     0
102
RTVSPropertyOp52
 70
     0
102
RTVSPropertyOp53
 70
     1
102
RTVSPropertyOp54
 70
     1
102
RTVSPropertyOp55
 70
     1
102
RTVSPropertyOp56
 70
     1
102
RTVSPropertyOp57
 70
     1
102
RTVSPropertyOp58
 70
     1
102
RTVSPropertyOp59
 70
     1
102
RTVSPropertyOp60
 70
     1
102
RTVSPropertyOp61
 70
     1
102
RTVSPropertyOp62
 70
     1
  0
XRECORD
  5
D023
102
{ACAD_REACTORS
330
D022
102
}
330
D022
100
AcDbXrecord
280
     1
102
RTVSPost2010Prop28
280
     0
102
RTVSPost2010PropOp28
 70
     1
102
RTVSPost2010Prop29
280
     1
102
RTVSPost2010PropOp29
 70
     1
102
RTVSPost2010Prop30
280
     1
102
RTVSPost2010PropOp30
 70
     1
102
RTVSPost2010Prop31
280
     0
102
RTVSPost2010PropOp31
 70
     1
102
RTVSPost2010Prop32
280
     0
102
RTVSPost2010PropOp32
 70
     1
102
RTVSPost2010Prop33
280
     0
102
RTVSPost2010PropOp33
 70
     1
102
RTVSPost2010Prop34
280
     0
102
RTVSPost2010PropOp34
 70
     1
102
RTVSPost2010Prop35
280
     0
102
RTVSPost2010PropOp35
 70
     1
102
RTVSPost2010Prop36
280
     0
102
RTVSPost2010PropOp36
 70
     1
102
RTVSPost2010Prop37
 90
       50
102
RTVSPost2010PropOp37
 70
     1
102
RTVSPost2010Prop38
140
0.0
102
RTVSPost2010PropOp38
 70
     1
102
RTVSPost2010Prop39
140
1.0
102
RTVSPost2010PropOp39
 70
     1
102
RTVSPost2010Prop40
 90
        0
102
RTVSPost2010PropOp40
 70
     1
102
RTVSPost2010Prop41ColorIndex
 90
       18
102
RTVSPost2010Prop41ColorRGB
 90
        0
102
RTVSPost2010PropOp41
 70
     1
102
RTVSPost2010Prop42
 90
       50
102
RTVSPost2010PropOp42
 70
     1
102
RTVSPost2010Prop43
 90
        3
102
RTVSPost2010PropOp43
 70
     1
102
RTVSPost2010Prop44ColorIndex
 90
        5
102
RTVSPost2010Prop44ColorRGB
 90
      255
102
RTVSPost2010PropOp44
 70
     1
102
RTVSPost2010Prop45
280
     0
102
RTVSPost2010PropOp45
 70
     1
102
RTVSPost2010Prop46
 90
       50
102
RTVSPost2010PropOp46
 70
     1
102
RTVSPost2010Prop47
 90
       50
102
RTVSPost2010PropOp47
 70
     1
102
RTVSPost2010Prop48
 90
       50
102
RTVSPost2010PropOp48
 70
     1
102
RTVSPost2010Prop49
280
     0
102
RTVSPost2010PropOp49
 70
     1
102
RTVSPost2010Prop50
 90
       50
102
RTVSPost2010PropOp50
 70
     1
102
RTVSPost2010Prop51ColorIndex
 90
      256
102
RTVSPost2010Prop51ColorRGB
 90
-16777216
102
RTVSPost2010PropOp51
 70
     0
102
RTVSPost2010Prop52
140
1.0
102
RTVSPost2010PropOp52
 70
     0
102
RTVSPost2010Prop53
 90
        2
102
RTVSPost2010PropOp53
 70
     1
102
RTVSPost2010Prop54
  1
strokes_ogs.tif
102
RTVSPost2010PropOp54
 70
     1
102
RTVSPost2010Prop55
280
     0
102
RTVSPost2010PropOp55
 70
     1
102
RTVSPost2010Prop56
140
1.0
102
RTVSPost2010PropOp56
 70
     1
102
RTVSPost2010Prop57
140
1.0
102
RTVSPost2010PropOp57
 70
     1
102
RTVSPropertyOp0
 70
     1
102
RTVSPropertyOp1
 70
     1
102
RTVSPropertyOp2
 70
     1
102
RTVSPropertyOp3
 70
     1
102
RTVSPropertyOp4
 70
     1
102
RTVSPropertyOp5
 70
     1
102
RTVSPropertyOp6
 70
     1
102
RTVSPropertyOp7
 70
     1
102
RTVSPropertyOp8
 70
     1
102
RTVSPropertyOp9
 70
     1
102
RTVSPropertyOp10
 70
     1
102
RTVSPropertyOp11
 70
     1
102
RTVSPropertyOp12
 70
     1
102
RTVSPropertyOp13
 70
     1
102
RTVSPropertyOp14
 70
     1
102
RTVSPropertyOp15
 70
     1
102
RTVSPropertyOp16
 70
     1
102
RTVSPropertyOp17
 70
     1
102
RTVSPropertyOp18
 70
     1
102
RTVSPropertyOp19
 70
     1
102
RTVSPropertyOp20
 70
     1
102
RTVSPropertyOp21
 70
     1
102
RTVSPropertyOp22
 70
     1
102
RTVSPropertyOp23
 70
     1
102
RTVSPropertyOp24
 70
     1
102
RTVSPropertyOp25
 70
     1
102
RTVSPropertyOp26
 70
     1
102
RTVSPropertyOp27
 70
     1
102
RTVSPropertyOp28
 70
     1
102
RTVSPropertyOp29
 70
     1
102
RTVSPropertyOp30
 70
     1
102
RTVSPropertyOp31
 70
     1
102
RTVSPropertyOp32
 70
     1
102
RTVSPropertyOp33
 70
     1
102
RTVSPropertyOp34
 70
     1
102
RTVSPropertyOp35
 70
     1
102
RTVSPropertyOp36
 70
     1
102
RTVSPropertyOp37
 70
     1
102
RTVSPropertyOp38
 70
     1
102
RTVSPropertyOp39
 70
     1
102
RTVSPropertyOp40
 70
     1
102
RTVSPropertyOp41
 70
     1
102
RTVSPropertyOp42
 70
     1
102
RTVSPropertyOp43
 70
     1
102
RTVSPropertyOp44
 70
     1
102
RTVSPropertyOp45
 70
     1
102
RTVSPropertyOp46
 70
     1
102
RTVSPropertyOp47
 70
     1
102
RTVSPropertyOp48
 70
     1
102
RTVSPropertyOp49
 70
     1
102
RTVSPropertyOp50
 70
     1
102
RTVSPropertyOp51
 70
     0
102
RTVSPropertyOp52
 70
     0
102
RTVSPropertyOp53
 70
     1
102
RTVSPropertyOp54
 70
     1
102
RTVSPropertyOp55
 70
     1
102
RTVSPropertyOp56
 70
     1
102
RTVSPropertyOp57
 70
     1
102
RTVSPropertyOp58
 70
     1
102
RTVSPropertyOp59
 70
     1
102
RTVSPropertyOp60
 70
     1
102
RTVSPropertyOp61
 70
     1
102
RTVSPropertyOp62
 70
     1
  0
XRECORD
  5
D027
102
{ACAD_REACTORS
330
D026
102
}
330
D026
100
AcDbXrecord
280
     1
102
RTVSPost2010Prop28
280
     0
102
RTVSPost2010PropOp28
 70
     1
102
RTVSPost2010Prop29
280
     1
102
RTVSPost2010PropOp29
 70
     1
102
RTVSPost2010Prop30
280
     1
102
RTVSPost2010PropOp30
 70
     1
102
RTVSPost2010Prop31
280
     0
102
RTVSPost2010PropOp31
 70
     1
102
RTVSPost2010Prop32
280
     0
102
RTVSPost2010PropOp32
 70
     1
102
RTVSPost2010Prop33
280
     0
102
RTVSPost2010PropOp33
 70
     1
102
RTVSPost2010Prop34
280
     0
102
RTVSPost2010PropOp34
 70
     1
102
RTVSPost2010Prop35
280
     0
102
RTVSPost2010PropOp35
 70
     1
102
RTVSPost2010Prop36
280
     0
102
RTVSPost2010PropOp36
 70
     1
102
RTVSPost2010Prop37
 90
       50
102
RTVSPost2010PropOp37
 70
     1
102
RTVSPost2010Prop38
140
0.0
102
RTVSPost2010PropOp38
 70
     1
102
RTVSPost2010Prop39
140
1.0
102
RTVSPost2010PropOp39
 70
     1
102
RTVSPost2010Prop40
 90
        0
102
RTVSPost2010PropOp40
 70
     1
102
RTVSPost2010Prop41ColorIndex
 90
       18
102
RTVSPost2010Prop41ColorRGB
 90
        0
102
RTVSPost2010PropOp41
 70
     1
102
RTVSPost2010Prop42
 90
       50
102
RTVSPost2010PropOp42
 70
     1
102
RTVSPost2010Prop43
 90
        3
102
RTVSPost2010PropOp43
 70
     1
102
RTVSPost2010Prop44ColorIndex
 90
        5
102
RTVSPost2010Prop44ColorRGB
 90
      255
102
RTVSPost2010PropOp44
 70
     1
102
RTVSPost2010Prop45
280
     0
102
RTVSPost2010PropOp45
 70
     1
102
RTVSPost2010Prop46
 90
       50
102
RTVSPost2010PropOp46
 70
     1
102
RTVSPost2010Prop47
 90
       50
102
RTVSPost2010PropOp47
 70
     1
102
RTVSPost2010Prop48
 90
       50
102
RTVSPost2010PropOp48
 70
     1
102
RTVSPost2010Prop49
280
     0
102
RTVSPost2010PropOp49
 70
     1
102
RTVSPost2010Prop50
 90
       50
102
RTVSPost2010PropOp50
 70
     1
102
RTVSPost2010Prop51ColorIndex
 90
      256
102
RTVSPost2010Prop51ColorRGB
 90
-16777216
102
RTVSPost2010PropOp51
 70
     0
102
RTVSPost2010Prop52
140
1.0
102
RTVSPost2010PropOp52
 70
     0
102
RTVSPost2010Prop53
 90
        2
102
RTVSPost2010PropOp53
 70
     1
102
RTVSPost2010Prop54
  1
strokes_ogs.tif
102
RTVSPost2010PropOp54
 70
     1
102
RTVSPost2010Prop55
280
     0
102
RTVSPost2010PropOp55
 70
     1
102
RTVSPost2010Prop56
140
1.0
102
RTVSPost2010PropOp56
 70
     1
102
RTVSPost2010Prop57
140
1.0
102
RTVSPost2010PropOp57
 70
     1
102
RTVSPropertyOp0
 70
     1
102
RTVSPropertyOp1
 70
     1
102
RTVSPropertyOp2
 70
     1
102
RTVSPropertyOp3
 70
     1
102
RTVSPropertyOp4
 70
     1
102
RTVSPropertyOp5
 70
     1
102
RTVSPropertyOp6
 70
     1
102
RTVSPropertyOp7
 70
     1
102
RTVSPropertyOp8
 70
     1
102
RTVSPropertyOp9
 70
     1
102
RTVSPropertyOp10
 70
     1
102
RTVSPropertyOp11
 70
     1
102
RTVSPropertyOp12
 70
     1
102
RTVSPropertyOp13
 70
     1
102
RTVSPropertyOp14
 70
     1
102
RTVSPropertyOp15
 70
     1
102
RTVSPropertyOp16
 70
     1
102
RTVSPropertyOp17
 70
     1
102
RTVSPropertyOp18
 70
     1
102
RTVSPropertyOp19
 70
     1
102
RTVSPropertyOp20
 70
     1
102
RTVSPropertyOp21
 70
     1
102
RTVSPropertyOp22
 70
     1
102
RTVSPropertyOp23
 70
     1
102
RTVSPropertyOp24
 70
     1
102
RTVSPropertyOp25
 70
     1
102
RTVSPropertyOp26
 70
     1
102
RTVSPropertyOp27
 70
     1
102
RTVSPropertyOp28
 70
     1
102
RTVSPropertyOp29
 70
     1
102
RTVSPropertyOp30
 70
     1
102
RTVSPropertyOp31
 70
     1
102
RTVSPropertyOp32
 70
     1
102
RTVSPropertyOp33
 70
     1
102
RTVSPropertyOp34
 70
     1
102
RTVSPropertyOp35
 70
     1
102
RTVSPropertyOp36
 70
     1
102
RTVSPropertyOp37
 70
     1
102
RTVSPropertyOp38
 70
     1
102
RTVSPropertyOp39
 70
     1
102
RTVSPropertyOp40
 70
     1
102
RTVSPropertyOp41
 70
     1
102
RTVSPropertyOp42
 70
     1
102
RTVSPropertyOp43
 70
     1
102
RTVSPropertyOp44
 70
     1
102
RTVSPropertyOp45
 70
     1
102
RTVSPropertyOp46
 70
     1
102
RTVSPropertyOp47
 70
     1
102
RTVSPropertyOp48
 70
     1
102
RTVSPropertyOp49
 70
     1
102
RTVSPropertyOp50
 70
     1
102
RTVSPropertyOp51
 70
     0
102
RTVSPropertyOp52
 70
     0
102
RTVSPropertyOp53
 70
     1
102
RTVSPropertyOp54
 70
     1
102
RTVSPropertyOp55
 70
     1
102
RTVSPropertyOp56
 70
     1
102
RTVSPropertyOp57
 70
     1
102
RTVSPropertyOp58
 70
     1
102
RTVSPropertyOp59
 70
     1
102
RTVSPropertyOp60
 70
     1
102
RTVSPropertyOp61
 70
     1
102
RTVSPropertyOp62
 70
     1
  0
XRECORD
  5
D039
102
{ACAD_REACTORS
330
D038
102
}
330
D038
100
AcDbXrecord
280
     1
102
RTVSPost2010Prop28
280
     0
102
RTVSPost2010PropOp28
 70
     1
102
RTVSPost2010Prop29
280
     1
102
RTVSPost2010PropOp29
 70
     1
102
RTVSPost2010Prop30
280
     1
102
RTVSPost2010PropOp30
 70
     1
102
RTVSPost2010Prop31
280
     0
102
RTVSPost2010PropOp31
 70
     1
102
RTVSPost2010Prop32
280
     0
102
RTVSPost2010PropOp32
 70
     1
102
RTVSPost2010Prop33
280
     0
102
RTVSPost2010PropOp33
 70
     1
102
RTVSPost2010Prop34
280
     0
102
RTVSPost2010PropOp34
 70
     1
102
RTVSPost2010Prop35
280
     0
102
RTVSPost2010PropOp35
 70
     1
102
RTVSPost2010Prop36
280
     0
102
RTVSPost2010PropOp36
 70
     1
102
RTVSPost2010Prop37
 90
       50
102
RTVSPost2010PropOp37
 70
     1
102
RTVSPost2010Prop38
140
0.0
102
RTVSPost2010PropOp38
 70
     1
102
RTVSPost2010Prop39
140
1.0
102
RTVSPost2010PropOp39
 70
     1
102
RTVSPost2010Prop40
 90
        0
102
RTVSPost2010PropOp40
 70
     1
102
RTVSPost2010Prop41ColorIndex
 90
       18
102
RTVSPost2010Prop41ColorRGB
 90
        0
102
RTVSPost2010PropOp41
 70
     1
102
RTVSPost2010Prop42
 90
       50
102
RTVSPost2010PropOp42
 70
     1
102
RTVSPost2010Prop43
 90
        3
102
RTVSPost2010PropOp43
 70
     1
102
RTVSPost2010Prop44ColorIndex
 90
        5
102
RTVSPost2010Prop44ColorRGB
 90
      255
102
RTVSPost2010PropOp44
 70
     1
102
RTVSPost2010Prop45
280
     0
102
RTVSPost2010PropOp45
 70
     1
102
RTVSPost2010Prop46
 90
       50
102
RTVSPost2010PropOp46
 70
     1
102
RTVSPost2010Prop47
 90
       50
102
RTVSPost2010PropOp47
 70
     1
102
RTVSPost2010Prop48
 90
       50
102
RTVSPost2010PropOp48
 70
     1
102
RTVSPost2010Prop49
280
     0
102
RTVSPost2010PropOp49
 70
     1
102
RTVSPost2010Prop50
 90
       50
102
RTVSPost2010PropOp50
 70
     1
102
RTVSPost2010Prop51ColorIndex
 90
      256
102
RTVSPost2010Prop51ColorRGB
 90
-16777216
102
RTVSPost2010PropOp51
 70
     0
102
RTVSPost2010Prop52
140
1.0
102
RTVSPost2010PropOp52
 70
     0
102
RTVSPost2010Prop53
 90
        2
102
RTVSPost2010PropOp53
 70
     1
102
RTVSPost2010Prop54
  1
strokes_ogs.tif
102
RTVSPost2010PropOp54
 70
     1
102
RTVSPost2010Prop55
280
     0
102
RTVSPost2010PropOp55
 70
     1
102
RTVSPost2010Prop56
140
1.0
102
RTVSPost2010PropOp56
 70
     1
102
RTVSPost2010Prop57
140
1.0
102
RTVSPost2010PropOp57
 70
     1
102
RTVSPropertyOp0
 70
     0
102
RTVSPropertyOp1
 70
     0
102
RTVSPropertyOp2
 70
     0
102
RTVSPropertyOp3
 70
     0
102
RTVSPropertyOp4
 70
     0
102
RTVSPropertyOp5
 70
     0
102
RTVSPropertyOp6
 70
     0
102
RTVSPropertyOp7
 70
     0
102
RTVSPropertyOp8
 70
     0
102
RTVSPropertyOp9
 70
     0
102
RTVSPropertyOp10
 70
     0
102
RTVSPropertyOp11
 70
     0
102
RTVSPropertyOp12
 70
     0
102
RTVSPropertyOp13
 70
     0
102
RTVSPropertyOp14
 70
     2
102
RTVSPropertyOp15
 70
     0
102
RTVSPropertyOp16
 70
     0
102
RTVSPropertyOp17
 70
     0
102
RTVSPropertyOp18
 70
     0
102
RTVSPropertyOp19
 70
     0
102
RTVSPropertyOp20
 70
     0
102
RTVSPropertyOp21
 70
     0
102
RTVSPropertyOp22
 70
     0
102
RTVSPropertyOp23
 70
     0
102
RTVSPropertyOp24
 70
     0
102
RTVSPropertyOp25
 70
     0
102
RTVSPropertyOp26
 70
     0
102
RTVSPropertyOp27
 70
     0
102
RTVSPropertyOp28
 70
     1
102
RTVSPropertyOp29
 70
     1
102
RTVSPropertyOp30
 70
     1
102
RTVSPropertyOp31
 70
     1
102
RTVSPropertyOp32
 70
     1
102
RTVSPropertyOp33
 70
     1
102
RTVSPropertyOp34
 70
     1
102
RTVSPropertyOp35
 70
     1
102
RTVSPropertyOp36
 70
     1
102
RTVSPropertyOp37
 70
     1
102
RTVSPropertyOp38
 70
     1
102
RTVSPropertyOp39
 70
     1
102
RTVSPropertyOp40
 70
     1
102
RTVSPropertyOp41
 70
     1
102
RTVSPropertyOp42
 70
     1
102
RTVSPropertyOp43
 70
     1
102
RTVSPropertyOp44
 70
     1
102
RTVSPropertyOp45
 70
     1
102
RTVSPropertyOp46
 70
     1
102
RTVSPropertyOp47
 70
     1
102
RTVSPropertyOp48
 70
     1
102
RTVSPropertyOp49
 70
     1
102
RTVSPropertyOp50
 70
     1
102
RTVSPropertyOp51
 70
     0
102
RTVSPropertyOp52
 70
     0
102
RTVSPropertyOp53
 70
     1
102
RTVSPropertyOp54
 70
     1
102
RTVSPropertyOp55
 70
     1
102
RTVSPropertyOp56
 70
     1
102
RTVSPropertyOp57
 70
     1
102
RTVSPropertyOp58
 70
     1
102
RTVSPropertyOp59
 70
     1
102
RTVSPropertyOp60
 70
     1
102
RTVSPropertyOp61
 70
     1
102
RTVSPropertyOp62
 70
     1
  0
XRECORD
  5
D02F
102
{ACAD_REACTORS
330
D02E
102
}
330
D02E
100
AcDbXrecord
280
     1
102
RTVSPost2010Prop28
280
     0
102
RTVSPost2010PropOp28
 70
     1
102
RTVSPost2010Prop29
280
     1
102
RTVSPost2010PropOp29
 70
     1
102
RTVSPost2010Prop30
280
     1
102
RTVSPost2010PropOp30
 70
     1
102
RTVSPost2010Prop31
280
     0
102
RTVSPost2010PropOp31
 70
     1
102
RTVSPost2010Prop32
280
     0
102
RTVSPost2010PropOp32
 70
     1
102
RTVSPost2010Prop33
280
     0
102
RTVSPost2010PropOp33
 70
     1
102
RTVSPost2010Prop34
280
     0
102
RTVSPost2010PropOp34
 70
     1
102
RTVSPost2010Prop35
280
     0
102
RTVSPost2010PropOp35
 70
     1
102
RTVSPost2010Prop36
280
     0
102
RTVSPost2010PropOp36
 70
     1
102
RTVSPost2010Prop37
 90
       50
102
RTVSPost2010PropOp37
 70
     1
102
RTVSPost2010Prop38
140
0.0
102
RTVSPost2010PropOp38
 70
     1
102
RTVSPost2010Prop39
140
1.0
102
RTVSPost2010PropOp39
 70
     1
102
RTVSPost2010Prop40
 90
        0
102
RTVSPost2010PropOp40
 70
     1
102
RTVSPost2010Prop41ColorIndex
 90
       18
102
RTVSPost2010Prop41ColorRGB
 90
        0
102
RTVSPost2010PropOp41
 70
     1
102
RTVSPost2010Prop42
 90
       50
102
RTVSPost2010PropOp42
 70
     1
102
RTVSPost2010Prop43
 90
        3
102
RTVSPost2010PropOp43
 70
     1
102
RTVSPost2010Prop44ColorIndex
 90
        5
102
RTVSPost2010Prop44ColorRGB
 90
      255
102
RTVSPost2010PropOp44
 70
     1
102
RTVSPost2010Prop45
280
     0
102
RTVSPost2010PropOp45
 70
     1
102
RTVSPost2010Prop46
 90
       50
102
RTVSPost2010PropOp46
 70
     1
102
RTVSPost2010Prop47
 90
       50
102
RTVSPost2010PropOp47
 70
     1
102
RTVSPost2010Prop48
 90
       50
102
RTVSPost2010PropOp48
 70
     1
102
RTVSPost2010Prop49
280
     0
102
RTVSPost2010PropOp49
 70
     1
102
RTVSPost2010Prop50
 90
       50
102
RTVSPost2010PropOp50
 70
     1
102
RTVSPost2010Prop51ColorIndex
 90
      256
102
RTVSPost2010Prop51ColorRGB
 90
-16777216
102
RTVSPost2010PropOp51
 70
     0
102
RTVSPost2010Prop52
140
1.0
102
RTVSPost2010PropOp52
 70
     0
102
RTVSPost2010Prop53
 90
        2
102
RTVSPost2010PropOp53
 70
     1
102
RTVSPost2010Prop54
  1
strokes_ogs.tif
102
RTVSPost2010PropOp54
 70
     1
102
RTVSPost2010Prop55
280
     0
102
RTVSPost2010PropOp55
 70
     1
102
RTVSPost2010Prop56
140
1.0
102
RTVSPost2010PropOp56
 70
     1
102
RTVSPost2010Prop57
140
1.0
102
RTVSPost2010PropOp57
 70
     1
102
RTVSPropertyOp0
 70
     1
102
RTVSPropertyOp1
 70
     1
102
RTVSPropertyOp2
 70
     1
102
RTVSPropertyOp3
 70
     1
102
RTVSPropertyOp4
 70
     1
102
RTVSPropertyOp5
 70
     1
102
RTVSPropertyOp6
 70
     1
102
RTVSPropertyOp7
 70
     1
102
RTVSPropertyOp8
 70
     1
102
RTVSPropertyOp9
 70
     1
102
RTVSPropertyOp10
 70
     1
102
RTVSPropertyOp11
 70
     1
102
RTVSPropertyOp12
 70
     1
102
RTVSPropertyOp13
 70
     1
102
RTVSPropertyOp14
 70
     1
102
RTVSPropertyOp15
 70
     1
102
RTVSPropertyOp16
 70
     1
102
RTVSPropertyOp17
 70
     1
102
RTVSPropertyOp18
 70
     1
102
RTVSPropertyOp19
 70
     1
102
RTVSPropertyOp20
 70
     1
102
RTVSPropertyOp21
 70
     1
102
RTVSPropertyOp22
 70
     1
102
RTVSPropertyOp23
 70
     1
102
RTVSPropertyOp24
 70
     1
102
RTVSPropertyOp25
 70
     1
102
RTVSPropertyOp26
 70
     1
102
RTVSPropertyOp27
 70
     1
102
RTVSPropertyOp28
 70
     1
102
RTVSPropertyOp29
 70
     1
102
RTVSPropertyOp30
 70
     1
102
RTVSPropertyOp31
 70
     1
102
RTVSPropertyOp32
 70
     1
102
RTVSPropertyOp33
 70
     1
102
RTVSPropertyOp34
 70
     1
102
RTVSPropertyOp35
 70
     1
102
RTVSPropertyOp36
 70
     1
102
RTVSPropertyOp37
 70
     1
102
RTVSPropertyOp38
 70
     1
102
RTVSPropertyOp39
 70
     1
102
RTVSPropertyOp40
 70
     1
102
RTVSPropertyOp41
 70
     1
102
RTVSPropertyOp42
 70
     1
102
RTVSPropertyOp43
 70
     1
102
RTVSPropertyOp44
 70
     1
102
RTVSPropertyOp45
 70
     1
102
RTVSPropertyOp46
 70
     1
102
RTVSPropertyOp47
 70
     1
102
RTVSPropertyOp48
 70
     1
102
RTVSPropertyOp49
 70
     1
102
RTVSPropertyOp50
 70
     1
102
RTVSPropertyOp51
 70
     0
102
RTVSPropertyOp52
 70
     0
102
RTVSPropertyOp53
 70
     1
102
RTVSPropertyOp54
 70
     1
102
RTVSPropertyOp55
 70
     1
102
RTVSPropertyOp56
 70
     1
102
RTVSPropertyOp57
 70
     1
102
RTVSPropertyOp58
 70
     1
102
RTVSPropertyOp59
 70
     1
102
RTVSPropertyOp60
 70
     1
102
RTVSPropertyOp61
 70
     1
102
RTVSPropertyOp62
 70
     1
  0
XRECORD
  5
D013
102
{ACAD_REACTORS
330
D012
102
}
330
D012
100
AcDbXrecord
280
     1
102
RTVSPost2010Prop28
280
     0
102
RTVSPost2010PropOp28
 70
     1
102
RTVSPost2010Prop29
280
     1
102
RTVSPost2010PropOp29
 70
     1
102
RTVSPost2010Prop30
280
     1
102
RTVSPost2010PropOp30
 70
     1
102
RTVSPost2010Prop31
280
     0
102
RTVSPost2010PropOp31
 70
     1
102
RTVSPost2010Prop32
280
     0
102
RTVSPost2010PropOp32
 70
     1
102
RTVSPost2010Prop33
280
     0
102
RTVSPost2010PropOp33
 70
     1
102
RTVSPost2010Prop34
280
     0
102
RTVSPost2010PropOp34
 70
     1
102
RTVSPost2010Prop35
280
     0
102
RTVSPost2010PropOp35
 70
     1
102
RTVSPost2010Prop36
280
     0
102
RTVSPost2010PropOp36
 70
     1
102
RTVSPost2010Prop37
 90
       50
102
RTVSPost2010PropOp37
 70
     1
102
RTVSPost2010Prop38
140
0.0
102
RTVSPost2010PropOp38
 70
     1
102
RTVSPost2010Prop39
140
1.0
102
RTVSPost2010PropOp39
 70
     1
102
RTVSPost2010Prop40
 90
        0
102
RTVSPost2010PropOp40
 70
     1
102
RTVSPost2010Prop41ColorIndex
 90
       18
102
RTVSPost2010Prop41ColorRGB
 90
        0
102
RTVSPost2010PropOp41
 70
     1
102
RTVSPost2010Prop42
 90
       50
102
RTVSPost2010PropOp42
 70
     1
102
RTVSPost2010Prop43
 90
        3
102
RTVSPost2010PropOp43
 70
     1
102
RTVSPost2010Prop44ColorIndex
 90
        5
102
RTVSPost2010Prop44ColorRGB
 90
      255
102
RTVSPost2010PropOp44
 70
     1
102
RTVSPost2010Prop45
280
     0
102
RTVSPost2010PropOp45
 70
     1
102
RTVSPost2010Prop46
 90
       50
102
RTVSPost2010PropOp46
 70
     1
102
RTVSPost2010Prop47
 90
       50
102
RTVSPost2010PropOp47
 70
     1
102
RTVSPost2010Prop48
 90
       50
102
RTVSPost2010PropOp48
 70
     1
102
RTVSPost2010Prop49
280
     0
102
RTVSPost2010PropOp49
 70
     1
102
RTVSPost2010Prop50
 90
       50
102
RTVSPost2010PropOp50
 70
     1
102
RTVSPost2010Prop51ColorIndex
 90
      256
102
RTVSPost2010Prop51ColorRGB
 90
-16777216
102
RTVSPost2010PropOp51
 70
     0
102
RTVSPost2010Prop52
140
1.0
102
RTVSPost2010PropOp52
 70
     0
102
RTVSPost2010Prop53
 90
        2
102
RTVSPost2010PropOp53
 70
     1
102
RTVSPost2010Prop54
  1
strokes_ogs.tif
102
RTVSPost2010PropOp54
 70
     1
102
RTVSPost2010Prop55
280
     0
102
RTVSPost2010PropOp55
 70
     1
102
RTVSPost2010Prop56
140
1.0
102
RTVSPost2010PropOp56
 70
     1
102
RTVSPost2010Prop57
140
1.0
102
RTVSPost2010PropOp57
 70
     1
102
RTVSPropertyOp0
 70
     1
102
RTVSPropertyOp1
 70
     1
102
RTVSPropertyOp2
 70
     1
102
RTVSPropertyOp3
 70
     1
102
RTVSPropertyOp4
 70
     1
102
RTVSPropertyOp5
 70
     1
102
RTVSPropertyOp6
 70
     1
102
RTVSPropertyOp7
 70
     1
102
RTVSPropertyOp8
 70
     1
102
RTVSPropertyOp9
 70
     1
102
RTVSPropertyOp10
 70
     1
102
RTVSPropertyOp11
 70
     1
102
RTVSPropertyOp12
 70
     1
102
RTVSPropertyOp13
 70
     1
102
RTVSPropertyOp14
 70
     1
102
RTVSPropertyOp15
 70
     1
102
RTVSPropertyOp16
 70
     1
102
RTVSPropertyOp17
 70
     1
102
RTVSPropertyOp18
 70
     1
102
RTVSPropertyOp19
 70
     1
102
RTVSPropertyOp20
 70
     1
102
RTVSPropertyOp21
 70
     1
102
RTVSPropertyOp22
 70
     1
102
RTVSPropertyOp23
 70
     1
102
RTVSPropertyOp24
 70
     1
102
RTVSPropertyOp25
 70
     1
102
RTVSPropertyOp26
 70
     1
102
RTVSPropertyOp27
 70
     1
102
RTVSPropertyOp28
 70
     1
102
RTVSPropertyOp29
 70
     1
102
RTVSPropertyOp30
 70
     1
102
RTVSPropertyOp31
 70
     1
102
RTVSPropertyOp32
 70
     1
102
RTVSPropertyOp33
 70
     1
102
RTVSPropertyOp34
 70
     1
102
RTVSPropertyOp35
 70
     1
102
RTVSPropertyOp36
 70
     1
102
RTVSPropertyOp37
 70
     1
102
RTVSPropertyOp38
 70
     1
102
RTVSPropertyOp39
 70
     1
102
RTVSPropertyOp40
 70
     1
102
RTVSPropertyOp41
 70
     1
102
RTVSPropertyOp42
 70
     1
102
RTVSPropertyOp43
 70
     1
102
RTVSPropertyOp44
 70
     1
102
RTVSPropertyOp45
 70
     1
102
RTVSPropertyOp46
 70
     1
102
RTVSPropertyOp47
 70
     1
102
RTVSPropertyOp48
 70
     1
102
RTVSPropertyOp49
 70
     1
102
RTVSPropertyOp50
 70
     1
102
RTVSPropertyOp51
 70
     0
102
RTVSPropertyOp52
 70
     0
102
RTVSPropertyOp53
 70
     1
102
RTVSPropertyOp54
 70
     1
102
RTVSPropertyOp55
 70
     1
102
RTVSPropertyOp56
 70
     1
102
RTVSPropertyOp57
 70
     1
102
RTVSPropertyOp58
 70
     1
102
RTVSPropertyOp59
 70
     1
102
RTVSPropertyOp60
 70
     1
102
RTVSPropertyOp61
 70
     1
102
RTVSPropertyOp62
 70
     1
  0
XRECORD
  5
D015
102
{ACAD_REACTORS
330
D014
102
}
330
D014
100
AcDbXrecord
280
     1
102
RTVSPost2010Prop28
280
     0
102
RTVSPost2010PropOp28
 70
     1
102
RTVSPost2010Prop29
280
     1
102
RTVSPost2010PropOp29
 70
     1
102
RTVSPost2010Prop30
280
     1
102
RTVSPost2010PropOp30
 70
     1
102
RTVSPost2010Prop31
280
     0
102
RTVSPost2010PropOp31
 70
     1
102
RTVSPost2010Prop32
280
     0
102
RTVSPost2010PropOp32
 70
     1
102
RTVSPost2010Prop33
280
     0
102
RTVSPost2010PropOp33
 70
     1
102
RTVSPost2010Prop34
280
     0
102
RTVSPost2010PropOp34
 70
     1
102
RTVSPost2010Prop35
280
     0
102
RTVSPost2010PropOp35
 70
     1
102
RTVSPost2010Prop36
280
     0
102
RTVSPost2010PropOp36
 70
     1
102
RTVSPost2010Prop37
 90
       50
102
RTVSPost2010PropOp37
 70
     1
102
RTVSPost2010Prop38
140
0.0
102
RTVSPost2010PropOp38
 70
     1
102
RTVSPost2010Prop39
140
1.0
102
RTVSPost2010PropOp39
 70
     1
102
RTVSPost2010Prop40
 90
        0
102
RTVSPost2010PropOp40
 70
     1
102
RTVSPost2010Prop41ColorIndex
 90
       18
102
RTVSPost2010Prop41ColorRGB
 90
        0
102
RTVSPost2010PropOp41
 70
     1
102
RTVSPost2010Prop42
 90
       50
102
RTVSPost2010PropOp42
 70
     1
102
RTVSPost2010Prop43
 90
        3
102
RTVSPost2010PropOp43
 70
     1
102
RTVSPost2010Prop44ColorIndex
 90
        5
102
RTVSPost2010Prop44ColorRGB
 90
      255
102
RTVSPost2010PropOp44
 70
     1
102
RTVSPost2010Prop45
280
     0
102
RTVSPost2010PropOp45
 70
     1
102
RTVSPost2010Prop46
 90
       50
102
RTVSPost2010PropOp46
 70
     1
102
RTVSPost2010Prop47
 90
       50
102
RTVSPost2010PropOp47
 70
     1
102
RTVSPost2010Prop48
 90
       50
102
RTVSPost2010PropOp48
 70
     1
102
RTVSPost2010Prop49
280
     0
102
RTVSPost2010PropOp49
 70
     1
102
RTVSPost2010Prop50
 90
       50
102
RTVSPost2010PropOp50
 70
     1
102
RTVSPost2010Prop51ColorIndex
 90
      256
102
RTVSPost2010Prop51ColorRGB
 90
-16777216
102
RTVSPost2010PropOp51
 70
     0
102
RTVSPost2010Prop52
140
1.0
102
RTVSPost2010PropOp52
 70
     0
102
RTVSPost2010Prop53
 90
        2
102
RTVSPost2010PropOp53
 70
     1
102
RTVSPost2010Prop54
  1
strokes_ogs.tif
102
RTVSPost2010PropOp54
 70
     1
102
RTVSPost2010Prop55
280
     0
102
RTVSPost2010PropOp55
 70
     1
102
RTVSPost2010Prop56
140
1.0
102
RTVSPost2010PropOp56
 70
     1
102
RTVSPost2010Prop57
140
1.0
102
RTVSPost2010PropOp57
 70
     1
102
RTVSPropertyOp0
 70
     1
102
RTVSPropertyOp1
 70
     1
102
RTVSPropertyOp2
 70
     1
102
RTVSPropertyOp3
 70
     1
102
RTVSPropertyOp4
 70
     1
102
RTVSPropertyOp5
 70
     1
102
RTVSPropertyOp6
 70
     1
102
RTVSPropertyOp7
 70
     1
102
RTVSPropertyOp8
 70
     1
102
RTVSPropertyOp9
 70
     1
102
RTVSPropertyOp10
 70
     1
102
RTVSPropertyOp11
 70
     1
102
RTVSPropertyOp12
 70
     1
102
RTVSPropertyOp13
 70
     1
102
RTVSPropertyOp14
 70
     1
102
RTVSPropertyOp15
 70
     1
102
RTVSPropertyOp16
 70
     1
102
RTVSPropertyOp17
 70
     1
102
RTVSPropertyOp18
 70
     1
102
RTVSPropertyOp19
 70
     1
102
RTVSPropertyOp20
 70
     1
102
RTVSPropertyOp21
 70
     1
102
RTVSPropertyOp22
 70
     1
102
RTVSPropertyOp23
 70
     1
102
RTVSPropertyOp24
 70
     1
102
RTVSPropertyOp25
 70
     1
102
RTVSPropertyOp26
 70
     1
102
RTVSPropertyOp27
 70
     1
102
RTVSPropertyOp28
 70
     1
102
RTVSPropertyOp29
 70
     1
102
RTVSPropertyOp30
 70
     1
102
RTVSPropertyOp31
 70
     1
102
RTVSPropertyOp32
 70
     1
102
RTVSPropertyOp33
 70
     1
102
RTVSPropertyOp34
 70
     1
102
RTVSPropertyOp35
 70
     1
102
RTVSPropertyOp36
 70
     1
102
RTVSPropertyOp37
 70
     1
102
RTVSPropertyOp38
 70
     1
102
RTVSPropertyOp39
 70
     1
102
RTVSPropertyOp40
 70
     1
102
RTVSPropertyOp41
 70
     1
102
RTVSPropertyOp42
 70
     1
102
RTVSPropertyOp43
 70
     1
102
RTVSPropertyOp44
 70
     1
102
RTVSPropertyOp45
 70
     1
102
RTVSPropertyOp46
 70
     1
102
RTVSPropertyOp47
 70
     1
102
RTVSPropertyOp48
 70
     1
102
RTVSPropertyOp49
 70
     1
102
RTVSPropertyOp50
 70
     1
102
RTVSPropertyOp51
 70
     0
102
RTVSPropertyOp52
 70
     0
102
RTVSPropertyOp53
 70
     1
102
RTVSPropertyOp54
 70
     1
102
RTVSPropertyOp55
 70
     1
102
RTVSPropertyOp56
 70
     1
102
RTVSPropertyOp57
 70
     1
102
RTVSPropertyOp58
 70
     1
102
RTVSPropertyOp59
 70
     1
102
RTVSPropertyOp60
 70
     1
102
RTVSPropertyOp61
 70
     1
102
RTVSPropertyOp62
 70
     1
  0
XRECORD
  5
D017
102
{ACAD_REACTORS
330
D016
102
}
330
D016
100
AcDbXrecord
280
     1
102
RTVSPost2010Prop28
280
     0
102
RTVSPost2010PropOp28
 70
     1
102
RTVSPost2010Prop29
280
     1
102
RTVSPost2010PropOp29
 70
     1
102
RTVSPost2010Prop30
280
     1
102
RTVSPost2010PropOp30
 70
     1
102
RTVSPost2010Prop31
280
     0
102
RTVSPost2010PropOp31
 70
     1
102
RTVSPost2010Prop32
280
     0
102
RTVSPost2010PropOp32
 70
     1
102
RTVSPost2010Prop33
280
     0
102
RTVSPost2010PropOp33
 70
     1
102
RTVSPost2010Prop34
280
     0
102
RTVSPost2010PropOp34
 70
     1
102
RTVSPost2010Prop35
280
     0
102
RTVSPost2010PropOp35
 70
     1
102
RTVSPost2010Prop36
280
     0
102
RTVSPost2010PropOp36
 70
     1
102
RTVSPost2010Prop37
 90
       50
102
RTVSPost2010PropOp37
 70
     1
102
RTVSPost2010Prop38
140
0.0
102
RTVSPost2010PropOp38
 70
     1
102
RTVSPost2010Prop39
140
1.0
102
RTVSPost2010PropOp39
 70
     1
102
RTVSPost2010Prop40
 90
        0
102
RTVSPost2010PropOp40
 70
     1
102
RTVSPost2010Prop41ColorIndex
 90
       18
102
RTVSPost2010Prop41ColorRGB
 90
        0
102
RTVSPost2010PropOp41
 70
     1
102
RTVSPost2010Prop42
 90
       50
102
RTVSPost2010PropOp42
 70
     1
102
RTVSPost2010Prop43
 90
        3
102
RTVSPost2010PropOp43
 70
     1
102
RTVSPost2010Prop44ColorIndex
 90
        5
102
RTVSPost2010Prop44ColorRGB
 90
      255
102
RTVSPost2010PropOp44
 70
     1
102
RTVSPost2010Prop45
280
     0
102
RTVSPost2010PropOp45
 70
     1
102
RTVSPost2010Prop46
 90
       50
102
RTVSPost2010PropOp46
 70
     1
102
RTVSPost2010Prop47
 90
       50
102
RTVSPost2010PropOp47
 70
     1
102
RTVSPost2010Prop48
 90
       50
102
RTVSPost2010PropOp48
 70
     1
102
RTVSPost2010Prop49
280
     0
102
RTVSPost2010PropOp49
 70
     1
102
RTVSPost2010Prop50
 90
       50
102
RTVSPost2010PropOp50
 70
     1
102
RTVSPost2010Prop51ColorIndex
 90
      256
102
RTVSPost2010Prop51ColorRGB
 90
-16777216
102
RTVSPost2010PropOp51
 70
     0
102
RTVSPost2010Prop52
140
1.0
102
RTVSPost2010PropOp52
 70
     0
102
RTVSPost2010Prop53
 90
        2
102
RTVSPost2010PropOp53
 70
     1
102
RTVSPost2010Prop54
  1
strokes_ogs.tif
102
RTVSPost2010PropOp54
 70
     1
102
RTVSPost2010Prop55
280
     0
102
RTVSPost2010PropOp55
 70
     1
102
RTVSPost2010Prop56
140
1.0
102
RTVSPost2010PropOp56
 70
     1
102
RTVSPost2010Prop57
140
1.0
102
RTVSPost2010PropOp57
 70
     1
102
RTVSPropertyOp0
 70
     1
102
RTVSPropertyOp1
 70
     1
102
RTVSPropertyOp2
 70
     1
102
RTVSPropertyOp3
 70
     1
102
RTVSPropertyOp4
 70
     1
102
RTVSPropertyOp5
 70
     1
102
RTVSPropertyOp6
 70
     1
102
RTVSPropertyOp7
 70
     1
102
RTVSPropertyOp8
 70
     1
102
RTVSPropertyOp9
 70
     1
102
RTVSPropertyOp10
 70
     1
102
RTVSPropertyOp11
 70
     1
102
RTVSPropertyOp12
 70
     1
102
RTVSPropertyOp13
 70
     1
102
RTVSPropertyOp14
 70
     1
102
RTVSPropertyOp15
 70
     1
102
RTVSPropertyOp16
 70
     1
102
RTVSPropertyOp17
 70
     1
102
RTVSPropertyOp18
 70
     1
102
RTVSPropertyOp19
 70
     1
102
RTVSPropertyOp20
 70
     1
102
RTVSPropertyOp21
 70
     1
102
RTVSPropertyOp22
 70
     1
102
RTVSPropertyOp23
 70
     1
102
RTVSPropertyOp24
 70
     1
102
RTVSPropertyOp25
 70
     1
102
RTVSPropertyOp26
 70
     1
102
RTVSPropertyOp27
 70
     1
102
RTVSPropertyOp28
 70
     1
102
RTVSPropertyOp29
 70
     1
102
RTVSPropertyOp30
 70
     1
102
RTVSPropertyOp31
 70
     1
102
RTVSPropertyOp32
 70
     1
102
RTVSPropertyOp33
 70
     1
102
RTVSPropertyOp34
 70
     1
102
RTVSPropertyOp35
 70
     1
102
RTVSPropertyOp36
 70
     1
102
RTVSPropertyOp37
 70
     1
102
RTVSPropertyOp38
 70
     1
102
RTVSPropertyOp39
 70
     1
102
RTVSPropertyOp40
 70
     1
102
RTVSPropertyOp41
 70
     1
102
RTVSPropertyOp42
 70
     1
102
RTVSPropertyOp43
 70
     1
102
RTVSPropertyOp44
 70
     1
102
RTVSPropertyOp45
 70
     1
102
RTVSPropertyOp46
 70
     1
102
RTVSPropertyOp47
 70
     1
102
RTVSPropertyOp48
 70
     1
102
RTVSPropertyOp49
 70
     1
102
RTVSPropertyOp50
 70
     1
102
RTVSPropertyOp51
 70
     0
102
RTVSPropertyOp52
 70
     0
102
RTVSPropertyOp53
 70
     1
102
RTVSPropertyOp54
 70
     1
102
RTVSPropertyOp55
 70
     1
102
RTVSPropertyOp56
 70
     1
102
RTVSPropertyOp57
 70
     1
102
RTVSPropertyOp58
 70
     1
102
RTVSPropertyOp59
 70
     1
102
RTVSPropertyOp60
 70
     1
102
RTVSPropertyOp61
 70
     1
102
RTVSPropertyOp62
 70
     1
  0
XRECORD
  5
D019
102
{ACAD_REACTORS
330
D018
102
}
330
D018
100
AcDbXrecord
280
     1
102
RTVSPost2010Prop28
280
     0
102
RTVSPost2010PropOp28
 70
     1
102
RTVSPost2010Prop29
280
     1
102
RTVSPost2010PropOp29
 70
     1
102
RTVSPost2010Prop30
280
     1
102
RTVSPost2010PropOp30
 70
     1
102
RTVSPost2010Prop31
280
     0
102
RTVSPost2010PropOp31
 70
     1
102
RTVSPost2010Prop32
280
     0
102
RTVSPost2010PropOp32
 70
     1
102
RTVSPost2010Prop33
280
     0
102
RTVSPost2010PropOp33
 70
     1
102
RTVSPost2010Prop34
280
     0
102
RTVSPost2010PropOp34
 70
     1
102
RTVSPost2010Prop35
280
     0
102
RTVSPost2010PropOp35
 70
     1
102
RTVSPost2010Prop36
280
     0
102
RTVSPost2010PropOp36
 70
     1
102
RTVSPost2010Prop37
 90
       50
102
RTVSPost2010PropOp37
 70
     1
102
RTVSPost2010Prop38
140
0.0
102
RTVSPost2010PropOp38
 70
     1
102
RTVSPost2010Prop39
140
1.0
102
RTVSPost2010PropOp39
 70
     1
102
RTVSPost2010Prop40
 90
        0
102
RTVSPost2010PropOp40
 70
     1
102
RTVSPost2010Prop41ColorIndex
 90
       18
102
RTVSPost2010Prop41ColorRGB
 90
        0
102
RTVSPost2010PropOp41
 70
     1
102
RTVSPost2010Prop42
 90
       50
102
RTVSPost2010PropOp42
 70
     1
102
RTVSPost2010Prop43
 90
        3
102
RTVSPost2010PropOp43
 70
     1
102
RTVSPost2010Prop44ColorIndex
 90
        5
102
RTVSPost2010Prop44ColorRGB
 90
      255
102
RTVSPost2010PropOp44
 70
     1
102
RTVSPost2010Prop45
280
     0
102
RTVSPost2010PropOp45
 70
     1
102
RTVSPost2010Prop46
 90
       50
102
RTVSPost2010PropOp46
 70
     1
102
RTVSPost2010Prop47
 90
       50
102
RTVSPost2010PropOp47
 70
     1
102
RTVSPost2010Prop48
 90
       50
102
RTVSPost2010PropOp48
 70
     1
102
RTVSPost2010Prop49
280
     0
102
RTVSPost2010PropOp49
 70
     1
102
RTVSPost2010Prop50
 90
       50
102
RTVSPost2010PropOp50
 70
     1
102
RTVSPost2010Prop51ColorIndex
 90
      256
102
RTVSPost2010Prop51ColorRGB
 90
-16777216
102
RTVSPost2010PropOp51
 70
     0
102
RTVSPost2010Prop52
140
1.0
102
RTVSPost2010PropOp52
 70
     0
102
RTVSPost2010Prop53
 90
        2
102
RTVSPost2010PropOp53
 70
     1
102
RTVSPost2010Prop54
  1
strokes_ogs.tif
102
RTVSPost2010PropOp54
 70
     1
102
RTVSPost2010Prop55
280
     0
102
RTVSPost2010PropOp55
 70
     1
102
RTVSPost2010Prop56
140
1.0
102
RTVSPost2010PropOp56
 70
     1
102
RTVSPost2010Prop57
140
1.0
102
RTVSPost2010PropOp57
 70
     1
102
RTVSPropertyOp0
 70
     1
102
RTVSPropertyOp1
 70
     1
102
RTVSPropertyOp2
 70
     1
102
RTVSPropertyOp3
 70
     1
102
RTVSPropertyOp4
 70
     1
102
RTVSPropertyOp5
 70
     1
102
RTVSPropertyOp6
 70
     1
102
RTVSPropertyOp7
 70
     1
102
RTVSPropertyOp8
 70
     1
102
RTVSPropertyOp9
 70
     1
102
RTVSPropertyOp10
 70
     1
102
RTVSPropertyOp11
 70
     1
102
RTVSPropertyOp12
 70
     1
102
RTVSPropertyOp13
 70
     1
102
RTVSPropertyOp14
 70
     1
102
RTVSPropertyOp15
 70
     1
102
RTVSPropertyOp16
 70
     1
102
RTVSPropertyOp17
 70
     1
102
RTVSPropertyOp18
 70
     1
102
RTVSPropertyOp19
 70
     1
102
RTVSPropertyOp20
 70
     1
102
RTVSPropertyOp21
 70
     1
102
RTVSPropertyOp22
 70
     1
102
RTVSPropertyOp23
 70
     1
102
RTVSPropertyOp24
 70
     1
102
RTVSPropertyOp25
 70
     1
102
RTVSPropertyOp26
 70
     1
102
RTVSPropertyOp27
 70
     1
102
RTVSPropertyOp28
 70
     1
102
RTVSPropertyOp29
 70
     1
102
RTVSPropertyOp30
 70
     1
102
RTVSPropertyOp31
 70
     1
102
RTVSPropertyOp32
 70
     1
102
RTVSPropertyOp33
 70
     1
102
RTVSPropertyOp34
 70
     1
102
RTVSPropertyOp35
 70
     1
102
RTVSPropertyOp36
 70
     1
102
RTVSPropertyOp37
 70
     1
102
RTVSPropertyOp38
 70
     1
102
RTVSPropertyOp39
 70
     1
102
RTVSPropertyOp40
 70
     1
102
RTVSPropertyOp41
 70
     1
102
RTVSPropertyOp42
 70
     1
102
RTVSPropertyOp43
 70
     1
102
RTVSPropertyOp44
 70
     1
102
RTVSPropertyOp45
 70
     1
102
RTVSPropertyOp46
 70
     1
102
RTVSPropertyOp47
 70
     1
102
RTVSPropertyOp48
 70
     1
102
RTVSPropertyOp49
 70
     1
102
RTVSPropertyOp50
 70
     1
102
RTVSPropertyOp51
 70
     0
102
RTVSPropertyOp52
 70
     0
102
RTVSPropertyOp53
 70
     1
102
RTVSPropertyOp54
 70
     1
102
RTVSPropertyOp55
 70
     1
102
RTVSPropertyOp56
 70
     1
102
RTVSPropertyOp57
 70
     1
102
RTVSPropertyOp58
 70
     1
102
RTVSPropertyOp59
 70
     1
102
RTVSPropertyOp60
 70
     1
102
RTVSPropertyOp61
 70
     1
102
RTVSPropertyOp62
 70
     1
  0
XRECORD
  5
D021
102
{ACAD_REACTORS
330
D020
102
}
330
D020
100
AcDbXrecord
280
     1
102
RTVSPost2010Prop28
280
     0
102
RTVSPost2010PropOp28
 70
     1
102
RTVSPost2010Prop29
280
     1
102
RTVSPost2010PropOp29
 70
     1
102
RTVSPost2010Prop30
280
     1
102
RTVSPost2010PropOp30
 70
     1
102
RTVSPost2010Prop31
280
     0
102
RTVSPost2010PropOp31
 70
     1
102
RTVSPost2010Prop32
280
     0
102
RTVSPost2010PropOp32
 70
     1
102
RTVSPost2010Prop33
280
     0
102
RTVSPost2010PropOp33
 70
     1
102
RTVSPost2010Prop34
280
     0
102
RTVSPost2010PropOp34
 70
     1
102
RTVSPost2010Prop35
280
     0
102
RTVSPost2010PropOp35
 70
     1
102
RTVSPost2010Prop36
280
     0
102
RTVSPost2010PropOp36
 70
     1
102
RTVSPost2010Prop37
 90
       50
102
RTVSPost2010PropOp37
 70
     1
102
RTVSPost2010Prop38
140
0.0
102
RTVSPost2010PropOp38
 70
     1
102
RTVSPost2010Prop39
140
1.0
102
RTVSPost2010PropOp39
 70
     1
102
RTVSPost2010Prop40
 90
        0
102
RTVSPost2010PropOp40
 70
     1
102
RTVSPost2010Prop41ColorIndex
 90
       18
102
RTVSPost2010Prop41ColorRGB
 90
        0
102
RTVSPost2010PropOp41
 70
     1
102
RTVSPost2010Prop42
 90
       50
102
RTVSPost2010PropOp42
 70
     1
102
RTVSPost2010Prop43
 90
        3
102
RTVSPost2010PropOp43
 70
     1
102
RTVSPost2010Prop44ColorIndex
 90
        5
102
RTVSPost2010Prop44ColorRGB
 90
      255
102
RTVSPost2010PropOp44
 70
     1
102
RTVSPost2010Prop45
280
     0
102
RTVSPost2010PropOp45
 70
     1
102
RTVSPost2010Prop46
 90
       50
102
RTVSPost2010PropOp46
 70
     1
102
RTVSPost2010Prop47
 90
       50
102
RTVSPost2010PropOp47
 70
     1
102
RTVSPost2010Prop48
 90
       50
102
RTVSPost2010PropOp48
 70
     1
102
RTVSPost2010Prop49
280
     0
102
RTVSPost2010PropOp49
 70
     1
102
RTVSPost2010Prop50
 90
       50
102
RTVSPost2010PropOp50
 70
     1
102
RTVSPost2010Prop51ColorIndex
 90
      256
102
RTVSPost2010Prop51ColorRGB
 90
-16777216
102
RTVSPost2010PropOp51
 70
     0
102
RTVSPost2010Prop52
140
1.0
102
RTVSPost2010PropOp52
 70
     0
102
RTVSPost2010Prop53
 90
        2
102
RTVSPost2010PropOp53
 70
     1
102
RTVSPost2010Prop54
  1
strokes_ogs.tif
102
RTVSPost2010PropOp54
 70
     1
102
RTVSPost2010Prop55
280
     0
102
RTVSPost2010PropOp55
 70
     1
102
RTVSPost2010Prop56
140
1.0
102
RTVSPost2010PropOp56
 70
     1
102
RTVSPost2010Prop57
140
1.0
102
RTVSPost2010PropOp57
 70
     1
102
RTVSPropertyOp0
 70
     1
102
RTVSPropertyOp1
 70
     1
102
RTVSPropertyOp2
 70
     1
102
RTVSPropertyOp3
 70
     1
102
RTVSPropertyOp4
 70
     1
102
RTVSPropertyOp5
 70
     1
102
RTVSPropertyOp6
 70
     1
102
RTVSPropertyOp7
 70
     1
102
RTVSPropertyOp8
 70
     1
102
RTVSPropertyOp9
 70
     1
102
RTVSPropertyOp10
 70
     1
102
RTVSPropertyOp11
 70
     1
102
RTVSPropertyOp12
 70
     1
102
RTVSPropertyOp13
 70
     1
102
RTVSPropertyOp14
 70
     1
102
RTVSPropertyOp15
 70
     1
102
RTVSPropertyOp16
 70
     1
102
RTVSPropertyOp17
 70
     1
102
RTVSPropertyOp18
 70
     1
102
RTVSPropertyOp19
 70
     1
102
RTVSPropertyOp20
 70
     1
102
RTVSPropertyOp21
 70
     1
102
RTVSPropertyOp22
 70
     1
102
RTVSPropertyOp23
 70
     1
102
RTVSPropertyOp24
 70
     1
102
RTVSPropertyOp25
 70
     1
102
RTVSPropertyOp26
 70
     1
102
RTVSPropertyOp27
 70
     1
102
RTVSPropertyOp28
 70
     1
102
RTVSPropertyOp29
 70
     1
102
RTVSPropertyOp30
 70
     1
102
RTVSPropertyOp31
 70
     1
102
RTVSPropertyOp32
 70
     1
102
RTVSPropertyOp33
 70
     1
102
RTVSPropertyOp34
 70
     1
102
RTVSPropertyOp35
 70
     1
102
RTVSPropertyOp36
 70
     1
102
RTVSPropertyOp37
 70
     1
102
RTVSPropertyOp38
 70
     1
102
RTVSPropertyOp39
 70
     1
102
RTVSPropertyOp40
 70
     1
102
RTVSPropertyOp41
 70
     1
102
RTVSPropertyOp42
 70
     1
102
RTVSPropertyOp43
 70
     1
102
RTVSPropertyOp44
 70
     1
102
RTVSPropertyOp45
 70
     1
102
RTVSPropertyOp46
 70
     1
102
RTVSPropertyOp47
 70
     1
102
RTVSPropertyOp48
 70
     1
102
RTVSPropertyOp49
 70
     1
102
RTVSPropertyOp50
 70
     1
102
RTVSPropertyOp51
 70
     0
102
RTVSPropertyOp52
 70
     0
102
RTVSPropertyOp53
 70
     1
102
RTVSPropertyOp54
 70
     1
102
RTVSPropertyOp55
 70
     1
102
RTVSPropertyOp56
 70
     1
102
RTVSPropertyOp57
 70
     1
102
RTVSPropertyOp58
 70
     1
102
RTVSPropertyOp59
 70
     1
102
RTVSPropertyOp60
 70
     1
102
RTVSPropertyOp61
 70
     1
102
RTVSPropertyOp62
 70
     1
  0
XRECORD
  5
D035
102
{ACAD_REACTORS
330
D034
102
}
330
D034
100
AcDbXrecord
280
     1
102
RTVSPost2010Prop28
280
     0
102
RTVSPost2010PropOp28
 70
     1
102
RTVSPost2010Prop29
280
     1
102
RTVSPost2010PropOp29
 70
     1
102
RTVSPost2010Prop30
280
     1
102
RTVSPost2010PropOp30
 70
     1
102
RTVSPost2010Prop31
280
     0
102
RTVSPost2010PropOp31
 70
     1
102
RTVSPost2010Prop32
280
     0
102
RTVSPost2010PropOp32
 70
     1
102
RTVSPost2010Prop33
280
     0
102
RTVSPost2010PropOp33
 70
     1
102
RTVSPost2010Prop34
280
     0
102
RTVSPost2010PropOp34
 70
     1
102
RTVSPost2010Prop35
280
     0
102
RTVSPost2010PropOp35
 70
     1
102
RTVSPost2010Prop36
280
     0
102
RTVSPost2010PropOp36
 70
     1
102
RTVSPost2010Prop37
 90
       50
102
RTVSPost2010PropOp37
 70
     1
102
RTVSPost2010Prop38
140
0.0
102
RTVSPost2010PropOp38
 70
     1
102
RTVSPost2010Prop39
140
1.0
102
RTVSPost2010PropOp39
 70
     1
102
RTVSPost2010Prop40
 90
        0
102
RTVSPost2010PropOp40
 70
     1
102
RTVSPost2010Prop41ColorIndex
 90
       18
102
RTVSPost2010Prop41ColorRGB
 90
        0
102
RTVSPost2010PropOp41
 70
     1
102
RTVSPost2010Prop42
 90
       50
102
RTVSPost2010PropOp42
 70
     1
102
RTVSPost2010Prop43
 90
        3
102
RTVSPost2010PropOp43
 70
     1
102
RTVSPost2010Prop44ColorIndex
 90
        5
102
RTVSPost2010Prop44ColorRGB
 90
      255
102
RTVSPost2010PropOp44
 70
     1
102
RTVSPost2010Prop45
280
     0
102
RTVSPost2010PropOp45
 70
     1
102
RTVSPost2010Prop46
 90
       50
102
RTVSPost2010PropOp46
 70
     1
102
RTVSPost2010Prop47
 90
       50
102
RTVSPost2010PropOp47
 70
     1
102
RTVSPost2010Prop48
 90
       50
102
RTVSPost2010PropOp48
 70
     1
102
RTVSPost2010Prop49
280
     0
102
RTVSPost2010PropOp49
 70
     1
102
RTVSPost2010Prop50
 90
       50
102
RTVSPost2010PropOp50
 70
     1
102
RTVSPost2010Prop51ColorIndex
 90
      256
102
RTVSPost2010Prop51ColorRGB
 90
-16777216
102
RTVSPost2010PropOp51
 70
     0
102
RTVSPost2010Prop52
140
1.0
102
RTVSPost2010PropOp52
 70
     0
102
RTVSPost2010Prop53
 90
        2
102
RTVSPost2010PropOp53
 70
     1
102
RTVSPost2010Prop54
  1
strokes_ogs.tif
102
RTVSPost2010PropOp54
 70
     1
102
RTVSPost2010Prop55
280
     0
102
RTVSPost2010PropOp55
 70
     1
102
RTVSPost2010Prop56
140
1.0
102
RTVSPost2010PropOp56
 70
     1
102
RTVSPost2010Prop57
140
1.0
102
RTVSPost2010PropOp57
 70
     1
102
RTVSPropertyOp0
 70
     0
102
RTVSPropertyOp1
 70
     0
102
RTVSPropertyOp2
 70
     0
102
RTVSPropertyOp3
 70
     0
102
RTVSPropertyOp4
 70
     0
102
RTVSPropertyOp5
 70
     0
102
RTVSPropertyOp6
 70
     0
102
RTVSPropertyOp7
 70
     0
102
RTVSPropertyOp8
 70
     0
102
RTVSPropertyOp9
 70
     0
102
RTVSPropertyOp10
 70
     0
102
RTVSPropertyOp11
 70
     0
102
RTVSPropertyOp12
 70
     0
102
RTVSPropertyOp13
 70
     0
102
RTVSPropertyOp14
 70
     2
102
RTVSPropertyOp15
 70
     0
102
RTVSPropertyOp16
 70
     0
102
RTVSPropertyOp17
 70
     0
102
RTVSPropertyOp18
 70
     0
102
RTVSPropertyOp19
 70
     0
102
RTVSPropertyOp20
 70
     0
102
RTVSPropertyOp21
 70
     0
102
RTVSPropertyOp22
 70
     0
102
RTVSPropertyOp23
 70
     0
102
RTVSPropertyOp24
 70
     0
102
RTVSPropertyOp25
 70
     0
102
RTVSPropertyOp26
 70
     0
102
RTVSPropertyOp27
 70
     0
102
RTVSPropertyOp28
 70
     1
102
RTVSPropertyOp29
 70
     1
102
RTVSPropertyOp30
 70
     1
102
RTVSPropertyOp31
 70
     1
102
RTVSPropertyOp32
 70
     1
102
RTVSPropertyOp33
 70
     1
102
RTVSPropertyOp34
 70
     1
102
RTVSPropertyOp35
 70
     1
102
RTVSPropertyOp36
 70
     1
102
RTVSPropertyOp37
 70
     1
102
RTVSPropertyOp38
 70
     1
102
RTVSPropertyOp39
 70
     1
102
RTVSPropertyOp40
 70
     1
102
RTVSPropertyOp41
 70
     1
102
RTVSPropertyOp42
 70
     1
102
RTVSPropertyOp43
 70
     1
102
RTVSPropertyOp44
 70
     1
102
RTVSPropertyOp45
 70
     1
102
RTVSPropertyOp46
 70
     1
102
RTVSPropertyOp47
 70
     1
102
RTVSPropertyOp48
 70
     1
102
RTVSPropertyOp49
 70
     1
102
RTVSPropertyOp50
 70
     1
102
RTVSPropertyOp51
 70
     0
102
RTVSPropertyOp52
 70
     0
102
RTVSPropertyOp53
 70
     1
102
RTVSPropertyOp54
 70
     1
102
RTVSPropertyOp55
 70
     1
102
RTVSPropertyOp56
 70
     1
102
RTVSPropertyOp57
 70
     1
102
RTVSPropertyOp58
 70
     1
102
RTVSPropertyOp59
 70
     1
102
RTVSPropertyOp60
 70
     1
102
RTVSPropertyOp61
 70
     1
102
RTVSPropertyOp62
 70
     1
  0
XRECORD
  5
D02D
102
{ACAD_REACTORS
330
D02C
102
}
330
D02C
100
AcDbXrecord
280
     1
102
RTVSPost2010Prop28
280
     0
102
RTVSPost2010PropOp28
 70
     1
102
RTVSPost2010Prop29
280
     1
102
RTVSPost2010PropOp29
 70
     1
102
RTVSPost2010Prop30
280
     1
102
RTVSPost2010PropOp30
 70
     1
102
RTVSPost2010Prop31
280
     0
102
RTVSPost2010PropOp31
 70
     1
102
RTVSPost2010Prop32
280
     0
102
RTVSPost2010PropOp32
 70
     1
102
RTVSPost2010Prop33
280
     0
102
RTVSPost2010PropOp33
 70
     1
102
RTVSPost2010Prop34
280
     0
102
RTVSPost2010PropOp34
 70
     1
102
RTVSPost2010Prop35
280
     0
102
RTVSPost2010PropOp35
 70
     1
102
RTVSPost2010Prop36
280
     0
102
RTVSPost2010PropOp36
 70
     1
102
RTVSPost2010Prop37
 90
       50
102
RTVSPost2010PropOp37
 70
     1
102
RTVSPost2010Prop38
140
0.0
102
RTVSPost2010PropOp38
 70
     1
102
RTVSPost2010Prop39
140
1.0
102
RTVSPost2010PropOp39
 70
     1
102
RTVSPost2010Prop40
 90
        0
102
RTVSPost2010PropOp40
 70
     1
102
RTVSPost2010Prop41ColorIndex
 90
       18
102
RTVSPost2010Prop41ColorRGB
 90
        0
102
RTVSPost2010PropOp41
 70
     1
102
RTVSPost2010Prop42
 90
       50
102
RTVSPost2010PropOp42
 70
     1
102
RTVSPost2010Prop43
 90
        3
102
RTVSPost2010PropOp43
 70
     1
102
RTVSPost2010Prop44ColorIndex
 90
        5
102
RTVSPost2010Prop44ColorRGB
 90
      255
102
RTVSPost2010PropOp44
 70
     1
102
RTVSPost2010Prop45
280
     0
102
RTVSPost2010PropOp45
 70
     1
102
RTVSPost2010Prop46
 90
       50
102
RTVSPost2010PropOp46
 70
     1
102
RTVSPost2010Prop47
 90
       50
102
RTVSPost2010PropOp47
 70
     1
102
RTVSPost2010Prop48
 90
       50
102
RTVSPost2010PropOp48
 70
     1
102
RTVSPost2010Prop49
280
     0
102
RTVSPost2010PropOp49
 70
     1
102
RTVSPost2010Prop50
 90
       50
102
RTVSPost2010PropOp50
 70
     1
102
RTVSPost2010Prop51ColorIndex
 90
      256
102
RTVSPost2010Prop51ColorRGB
 90
-16777216
102
RTVSPost2010PropOp51
 70
     0
102
RTVSPost2010Prop52
140
1.0
102
RTVSPost2010PropOp52
 70
     0
102
RTVSPost2010Prop53
 90
        2
102
RTVSPost2010PropOp53
 70
     1
102
RTVSPost2010Prop54
  1
strokes_ogs.tif
102
RTVSPost2010PropOp54
 70
     1
102
RTVSPost2010Prop55
280
     0
102
RTVSPost2010PropOp55
 70
     1
102
RTVSPost2010Prop56
140
1.0
102
RTVSPost2010PropOp56
 70
     1
102
RTVSPost2010Prop57
140
1.0
102
RTVSPost2010PropOp57
 70
     1
102
RTVSPropertyOp0
 70
     1
102
RTVSPropertyOp1
 70
     1
102
RTVSPropertyOp2
 70
     1
102
RTVSPropertyOp3
 70
     1
102
RTVSPropertyOp4
 70
     1
102
RTVSPropertyOp5
 70
     1
102
RTVSPropertyOp6
 70
     1
102
RTVSPropertyOp7
 70
     1
102
RTVSPropertyOp8
 70
     1
102
RTVSPropertyOp9
 70
     1
102
RTVSPropertyOp10
 70
     1
102
RTVSPropertyOp11
 70
     1
102
RTVSPropertyOp12
 70
     1
102
RTVSPropertyOp13
 70
     1
102
RTVSPropertyOp14
 70
     1
102
RTVSPropertyOp15
 70
     1
102
RTVSPropertyOp16
 70
     1
102
RTVSPropertyOp17
 70
     1
102
RTVSPropertyOp18
 70
     1
102
RTVSPropertyOp19
 70
     1
102
RTVSPropertyOp20
 70
     1
102
RTVSPropertyOp21
 70
     1
102
RTVSPropertyOp22
 70
     1
102
RTVSPropertyOp23
 70
     1
102
RTVSPropertyOp24
 70
     1
102
RTVSPropertyOp25
 70
     1
102
RTVSPropertyOp26
 70
     1
102
RTVSPropertyOp27
 70
     1
102
RTVSPropertyOp28
 70
     1
102
RTVSPropertyOp29
 70
     1
102
RTVSPropertyOp30
 70
     1
102
RTVSPropertyOp31
 70
     1
102
RTVSPropertyOp32
 70
     1
102
RTVSPropertyOp33
 70
     1
102
RTVSPropertyOp34
 70
     1
102
RTVSPropertyOp35
 70
     1
102
RTVSPropertyOp36
 70
     1
102
RTVSPropertyOp37
 70
     1
102
RTVSPropertyOp38
 70
     1
102
RTVSPropertyOp39
 70
     1
102
RTVSPropertyOp40
 70
     1
102
RTVSPropertyOp41
 70
     1
102
RTVSPropertyOp42
 70
     1
102
RTVSPropertyOp43
 70
     1
102
RTVSPropertyOp44
 70
     1
102
RTVSPropertyOp45
 70
     1
102
RTVSPropertyOp46
 70
     1
102
RTVSPropertyOp47
 70
     1
102
RTVSPropertyOp48
 70
     1
102
RTVSPropertyOp49
 70
     1
102
RTVSPropertyOp50
 70
     1
102
RTVSPropertyOp51
 70
     0
102
RTVSPropertyOp52
 70
     0
102
RTVSPropertyOp53
 70
     1
102
RTVSPropertyOp54
 70
     1
102
RTVSPropertyOp55
 70
     1
102
RTVSPropertyOp56
 70
     1
102
RTVSPropertyOp57
 70
     1
102
RTVSPropertyOp58
 70
     1
102
RTVSPropertyOp59
 70
     1
102
RTVSPropertyOp60
 70
     1
102
RTVSPropertyOp61
 70
     1
102
RTVSPropertyOp62
 70
     1
  0
XRECORD
  5
D037
102
{ACAD_REACTORS
330
D036
102
}
330
D036
100
AcDbXrecord
280
     1
102
RTVSPost2010Prop28
280
     0
102
RTVSPost2010PropOp28
 70
     1
102
RTVSPost2010Prop29
280
     1
102
RTVSPost2010PropOp29
 70
     1
102
RTVSPost2010Prop30
280
     1
102
RTVSPost2010PropOp30
 70
     1
102
RTVSPost2010Prop31
280
     0
102
RTVSPost2010PropOp31
 70
     1
102
RTVSPost2010Prop32
280
     0
102
RTVSPost2010PropOp32
 70
     1
102
RTVSPost2010Prop33
280
     0
102
RTVSPost2010PropOp33
 70
     1
102
RTVSPost2010Prop34
280
     0
102
RTVSPost2010PropOp34
 70
     1
102
RTVSPost2010Prop35
280
     0
102
RTVSPost2010PropOp35
 70
     1
102
RTVSPost2010Prop36
280
     0
102
RTVSPost2010PropOp36
 70
     1
102
RTVSPost2010Prop37
 90
       50
102
RTVSPost2010PropOp37
 70
     1
102
RTVSPost2010Prop38
140
0.0
102
RTVSPost2010PropOp38
 70
     1
102
RTVSPost2010Prop39
140
1.0
102
RTVSPost2010PropOp39
 70
     1
102
RTVSPost2010Prop40
 90
        0
102
RTVSPost2010PropOp40
 70
     1
102
RTVSPost2010Prop41ColorIndex
 90
       18
102
RTVSPost2010Prop41ColorRGB
 90
        0
102
RTVSPost2010PropOp41
 70
     1
102
RTVSPost2010Prop42
 90
       50
102
RTVSPost2010PropOp42
 70
     1
102
RTVSPost2010Prop43
 90
        3
102
RTVSPost2010PropOp43
 70
     1
102
RTVSPost2010Prop44ColorIndex
 90
        5
102
RTVSPost2010Prop44ColorRGB
 90
      255
102
RTVSPost2010PropOp44
 70
     1
102
RTVSPost2010Prop45
280
     0
102
RTVSPost2010PropOp45
 70
     1
102
RTVSPost2010Prop46
 90
       50
102
RTVSPost2010PropOp46
 70
     1
102
RTVSPost2010Prop47
 90
       50
102
RTVSPost2010PropOp47
 70
     1
102
RTVSPost2010Prop48
 90
       50
102
RTVSPost2010PropOp48
 70
     1
102
RTVSPost2010Prop49
280
     0
102
RTVSPost2010PropOp49
 70
     1
102
RTVSPost2010Prop50
 90
       50
102
RTVSPost2010PropOp50
 70
     1
102
RTVSPost2010Prop51ColorIndex
 90
      256
102
RTVSPost2010Prop51ColorRGB
 90
-16777216
102
RTVSPost2010PropOp51
 70
     0
102
RTVSPost2010Prop52
140
1.0
102
RTVSPost2010PropOp52
 70
     0
102
RTVSPost2010Prop53
 90
        2
102
RTVSPost2010PropOp53
 70
     1
102
RTVSPost2010Prop54
  1
strokes_ogs.tif
102
RTVSPost2010PropOp54
 70
     1
102
RTVSPost2010Prop55
280
     0
102
RTVSPost2010PropOp55
 70
     1
102
RTVSPost2010Prop56
140
1.0
102
RTVSPost2010PropOp56
 70
     1
102
RTVSPost2010Prop57
140
1.0
102
RTVSPost2010PropOp57
 70
     1
102
RTVSPropertyOp0
 70
     0
102
RTVSPropertyOp1
 70
     0
102
RTVSPropertyOp2
 70
     0
102
RTVSPropertyOp3
 70
     0
102
RTVSPropertyOp4
 70
     0
102
RTVSPropertyOp5
 70
     0
102
RTVSPropertyOp6
 70
     0
102
RTVSPropertyOp7
 70
     0
102
RTVSPropertyOp8
 70
     0
102
RTVSPropertyOp9
 70
     0
102
RTVSPropertyOp10
 70
     0
102
RTVSPropertyOp11
 70
     0
102
RTVSPropertyOp12
 70
     0
102
RTVSPropertyOp13
 70
     0
102
RTVSPropertyOp14
 70
     2
102
RTVSPropertyOp15
 70
     0
102
RTVSPropertyOp16
 70
     0
102
RTVSPropertyOp17
 70
     0
102
RTVSPropertyOp18
 70
     0
102
RTVSPropertyOp19
 70
     0
102
RTVSPropertyOp20
 70
     0
102
RTVSPropertyOp21
 70
     0
102
RTVSPropertyOp22
 70
     0
102
RTVSPropertyOp23
 70
     0
102
RTVSPropertyOp24
 70
     0
102
RTVSPropertyOp25
 70
     0
102
RTVSPropertyOp26
 70
     0
102
RTVSPropertyOp27
 70
     0
102
RTVSPropertyOp28
 70
     1
102
RTVSPropertyOp29
 70
     1
102
RTVSPropertyOp30
 70
     1
102
RTVSPropertyOp31
 70
     1
102
RTVSPropertyOp32
 70
     1
102
RTVSPropertyOp33
 70
     1
102
RTVSPropertyOp34
 70
     1
102
RTVSPropertyOp35
 70
     1
102
RTVSPropertyOp36
 70
     1
102
RTVSPropertyOp37
 70
     1
102
RTVSPropertyOp38
 70
     1
102
RTVSPropertyOp39
 70
     1
102
RTVSPropertyOp40
 70
     1
102
RTVSPropertyOp41
 70
     1
102
RTVSPropertyOp42
 70
     1
102
RTVSPropertyOp43
 70
     1
102
RTVSPropertyOp44
 70
     1
102
RTVSPropertyOp45
 70
     1
102
RTVSPropertyOp46
 70
     1
102
RTVSPropertyOp47
 70
     1
102
RTVSPropertyOp48
 70
     1
102
RTVSPropertyOp49
 70
     1
102
RTVSPropertyOp50
 70
     1
102
RTVSPropertyOp51
 70
     0
102
RTVSPropertyOp52
 70
     0
102
RTVSPropertyOp53
 70
     1
102
RTVSPropertyOp54
 70
     1
102
RTVSPropertyOp55
 70
     1
102
RTVSPropertyOp56
 70
     1
102
RTVSPropertyOp57
 70
     1
102
RTVSPropertyOp58
 70
     1
102
RTVSPropertyOp59
 70
     1
102
RTVSPropertyOp60
 70
     1
102
RTVSPropertyOp61
 70
     1
102
RTVSPropertyOp62
 70
     1
  0
XRECORD
  5
D025
102
{ACAD_REACTORS
330
D024
102
}
330
D024
100
AcDbXrecord
280
     1
102
RTVSPost2010Prop28
280
     0
102
RTVSPost2010PropOp28
 70
     1
102
RTVSPost2010Prop29
280
     1
102
RTVSPost2010PropOp29
 70
     1
102
RTVSPost2010Prop30
280
     1
102
RTVSPost2010PropOp30
 70
     1
102
RTVSPost2010Prop31
280
     0
102
RTVSPost2010PropOp31
 70
     1
102
RTVSPost2010Prop32
280
     0
102
RTVSPost2010PropOp32
 70
     1
102
RTVSPost2010Prop33
280
     0
102
RTVSPost2010PropOp33
 70
     1
102
RTVSPost2010Prop34
280
     0
102
RTVSPost2010PropOp34
 70
     1
102
RTVSPost2010Prop35
280
     0
102
RTVSPost2010PropOp35
 70
     1
102
RTVSPost2010Prop36
280
     0
102
RTVSPost2010PropOp36
 70
     1
102
RTVSPost2010Prop37
 90
       50
102
RTVSPost2010PropOp37
 70
     1
102
RTVSPost2010Prop38
140
0.0
102
RTVSPost2010PropOp38
 70
     1
102
RTVSPost2010Prop39
140
1.0
102
RTVSPost2010PropOp39
 70
     1
102
RTVSPost2010Prop40
 90
        0
102
RTVSPost2010PropOp40
 70
     1
102
RTVSPost2010Prop41ColorIndex
 90
       18
102
RTVSPost2010Prop41ColorRGB
 90
        0
102
RTVSPost2010PropOp41
 70
     1
102
RTVSPost2010Prop42
 90
       50
102
RTVSPost2010PropOp42
 70
     1
102
RTVSPost2010Prop43
 90
        3
102
RTVSPost2010PropOp43
 70
     1
102
RTVSPost2010Prop44ColorIndex
 90
        5
102
RTVSPost2010Prop44ColorRGB
 90
      255
102
RTVSPost2010PropOp44
 70
     1
102
RTVSPost2010Prop45
280
     0
102
RTVSPost2010PropOp45
 70
     1
102
RTVSPost2010Prop46
 90
       50
102
RTVSPost2010PropOp46
 70
     1
102
RTVSPost2010Prop47
 90
       50
102
RTVSPost2010PropOp47
 70
     1
102
RTVSPost2010Prop48
 90
       50
102
RTVSPost2010PropOp48
 70
     1
102
RTVSPost2010Prop49
280
     0
102
RTVSPost2010PropOp49
 70
     1
102
RTVSPost2010Prop50
 90
       50
102
RTVSPost2010PropOp50
 70
     1
102
RTVSPost2010Prop51ColorIndex
 90
      256
102
RTVSPost2010Prop51ColorRGB
 90
-16777216
102
RTVSPost2010PropOp51
 70
     0
102
RTVSPost2010Prop52
140
1.0
102
RTVSPost2010PropOp52
 70
     0
102
RTVSPost2010Prop53
 90
        2
102
RTVSPost2010PropOp53
 70
     1
102
RTVSPost2010Prop54
  1
strokes_ogs.tif
102
RTVSPost2010PropOp54
 70
     1
102
RTVSPost2010Prop55
280
     0
102
RTVSPost2010PropOp55
 70
     1
102
RTVSPost2010Prop56
140
1.0
102
RTVSPost2010PropOp56
 70
     1
102
RTVSPost2010Prop57
140
1.0
102
RTVSPost2010PropOp57
 70
     1
102
RTVSPropertyOp0
 70
     1
102
RTVSPropertyOp1
 70
     1
102
RTVSPropertyOp2
 70
     1
102
RTVSPropertyOp3
 70
     1
102
RTVSPropertyOp4
 70
     1
102
RTVSPropertyOp5
 70
     1
102
RTVSPropertyOp6
 70
     1
102
RTVSPropertyOp7
 70
     1
102
RTVSPropertyOp8
 70
     1
102
RTVSPropertyOp9
 70
     1
102
RTVSPropertyOp10
 70
     1
102
RTVSPropertyOp11
 70
     1
102
RTVSPropertyOp12
 70
     1
102
RTVSPropertyOp13
 70
     1
102
RTVSPropertyOp14
 70
     1
102
RTVSPropertyOp15
 70
     1
102
RTVSPropertyOp16
 70
     1
102
RTVSPropertyOp17
 70
     1
102
RTVSPropertyOp18
 70
     1
102
RTVSPropertyOp19
 70
     1
102
RTVSPropertyOp20
 70
     1
102
RTVSPropertyOp21
 70
     1
102
RTVSPropertyOp22
 70
     1
102
RTVSPropertyOp23
 70
     1
102
RTVSPropertyOp24
 70
     1
102
RTVSPropertyOp25
 70
     1
102
RTVSPropertyOp26
 70
     1
102
RTVSPropertyOp27
 70
     1
102
RTVSPropertyOp28
 70
     1
102
RTVSPropertyOp29
 70
     1
102
RTVSPropertyOp30
 70
     1
102
RTVSPropertyOp31
 70
     1
102
RTVSPropertyOp32
 70
     1
102
RTVSPropertyOp33
 70
     1
102
RTVSPropertyOp34
 70
     1
102
RTVSPropertyOp35
 70
     1
102
RTVSPropertyOp36
 70
     1
102
RTVSPropertyOp37
 70
     1
102
RTVSPropertyOp38
 70
     1
102
RTVSPropertyOp39
 70
     1
102
RTVSPropertyOp40
 70
     1
102
RTVSPropertyOp41
 70
     1
102
RTVSPropertyOp42
 70
     1
102
RTVSPropertyOp43
 70
     1
102
RTVSPropertyOp44
 70
     1
102
RTVSPropertyOp45
 70
     1
102
RTVSPropertyOp46
 70
     1
102
RTVSPropertyOp47
 70
     1
102
RTVSPropertyOp48
 70
     1
102
RTVSPropertyOp49
 70
     1
102
RTVSPropertyOp50
 70
     1
102
RTVSPropertyOp51
 70
     0
102
RTVSPropertyOp52
 70
     0
102
RTVSPropertyOp53
 70
     1
102
RTVSPropertyOp54
 70
     1
102
RTVSPropertyOp55
 70
     1
102
RTVSPropertyOp56
 70
     1
102
RTVSPropertyOp57
 70
     1
102
RTVSPropertyOp58
 70
     1
102
RTVSPropertyOp59
 70
     1
102
RTVSPropertyOp60
 70
     1
102
RTVSPropertyOp61
 70
     1
102
RTVSPropertyOp62
 70
     1
  0
XRECORD
  5
D043
102
{ACAD_REACTORS
330
D042
102
}
330
D042
100
AcDbXrecord
280
     1
102
RTVSPost2010Prop28
280
     0
102
RTVSPost2010PropOp28
 70
     1
102
RTVSPost2010Prop29
280
     1
102
RTVSPost2010PropOp29
 70
     1
102
RTVSPost2010Prop30
280
     1
102
RTVSPost2010PropOp30
 70
     1
102
RTVSPost2010Prop31
280
     0
102
RTVSPost2010PropOp31
 70
     1
102
RTVSPost2010Prop32
280
     0
102
RTVSPost2010PropOp32
 70
     1
102
RTVSPost2010Prop33
280
     0
102
RTVSPost2010PropOp33
 70
     1
102
RTVSPost2010Prop34
280
     0
102
RTVSPost2010PropOp34
 70
     1
102
RTVSPost2010Prop35
280
     0
102
RTVSPost2010PropOp35
 70
     1
102
RTVSPost2010Prop36
280
     0
102
RTVSPost2010PropOp36
 70
     1
102
RTVSPost2010Prop37
 90
       50
102
RTVSPost2010PropOp37
 70
     1
102
RTVSPost2010Prop38
140
0.0
102
RTVSPost2010PropOp38
 70
     1
102
RTVSPost2010Prop39
140
1.0
102
RTVSPost2010PropOp39
 70
     1
102
RTVSPost2010Prop40
 90
        0
102
RTVSPost2010PropOp40
 70
     1
102
RTVSPost2010Prop41ColorIndex
 90
       18
102
RTVSPost2010Prop41ColorRGB
 90
        0
102
RTVSPost2010PropOp41
 70
     1
102
RTVSPost2010Prop42
 90
       50
102
RTVSPost2010PropOp42
 70
     1
102
RTVSPost2010Prop43
 90
        3
102
RTVSPost2010PropOp43
 70
     1
102
RTVSPost2010Prop44ColorIndex
 90
        5
102
RTVSPost2010Prop44ColorRGB
 90
      255
102
RTVSPost2010PropOp44
 70
     1
102
RTVSPost2010Prop45
280
     0
102
RTVSPost2010PropOp45
 70
     1
102
RTVSPost2010Prop46
 90
       50
102
RTVSPost2010PropOp46
 70
     1
102
RTVSPost2010Prop47
 90
       50
102
RTVSPost2010PropOp47
 70
     1
102
RTVSPost2010Prop48
 90
       50
102
RTVSPost2010PropOp48
 70
     1
102
RTVSPost2010Prop49
280
     0
102
RTVSPost2010PropOp49
 70
     1
102
RTVSPost2010Prop50
 90
       50
102
RTVSPost2010PropOp50
 70
     1
102
RTVSPost2010Prop51ColorIndex
 90
      256
102
RTVSPost2010Prop51ColorRGB
 90
-16777216
102
RTVSPost2010PropOp51
 70
     0
102
RTVSPost2010Prop52
140
1.0
102
RTVSPost2010PropOp52
 70
     0
102
RTVSPost2010Prop53
 90
        2
102
RTVSPost2010PropOp53
 70
     1
102
RTVSPost2010Prop54
  1
strokes_ogs.tif
102
RTVSPost2010PropOp54
 70
     1
102
RTVSPost2010Prop55
280
     0
102
RTVSPost2010PropOp55
 70
     1
102
RTVSPost2010Prop56
140
1.0
102
RTVSPost2010PropOp56
 70
     1
102
RTVSPost2010Prop57
140
1.0
102
RTVSPost2010PropOp57
 70
     1
102
RTVSPropertyOp0
 70
     1
102
RTVSPropertyOp1
 70
     1
102
RTVSPropertyOp2
 70
     1
102
RTVSPropertyOp3
 70
     1
102
RTVSPropertyOp4
 70
     1
102
RTVSPropertyOp5
 70
     1
102
RTVSPropertyOp6
 70
     1
102
RTVSPropertyOp7
 70
     1
102
RTVSPropertyOp8
 70
     1
102
RTVSPropertyOp9
 70
     1
102
RTVSPropertyOp10
 70
     1
102
RTVSPropertyOp11
 70
     1
102
RTVSPropertyOp12
 70
     1
102
RTVSPropertyOp13
 70
     1
102
RTVSPropertyOp14
 70
     1
102
RTVSPropertyOp15
 70
     1
102
RTVSPropertyOp16
 70
     1
102
RTVSPropertyOp17
 70
     1
102
RTVSPropertyOp18
 70
     1
102
RTVSPropertyOp19
 70
     1
102
RTVSPropertyOp20
 70
     1
102
RTVSPropertyOp21
 70
     1
102
RTVSPropertyOp22
 70
     1
102
RTVSPropertyOp23
 70
     1
102
RTVSPropertyOp24
 70
     1
102
RTVSPropertyOp25
 70
     1
102
RTVSPropertyOp26
 70
     1
102
RTVSPropertyOp27
 70
     1
102
RTVSPropertyOp28
 70
     1
102
RTVSPropertyOp29
 70
     1
102
RTVSPropertyOp30
 70
     1
102
RTVSPropertyOp31
 70
     1
102
RTVSPropertyOp32
 70
     1
102
RTVSPropertyOp33
 70
     1
102
RTVSPropertyOp34
 70
     1
102
RTVSPropertyOp35
 70
     1
102
RTVSPropertyOp36
 70
     1
102
RTVSPropertyOp37
 70
     1
102
RTVSPropertyOp38
 70
     1
102
RTVSPropertyOp39
 70
     1
102
RTVSPropertyOp40
 70
     1
102
RTVSPropertyOp41
 70
     1
102
RTVSPropertyOp42
 70
     1
102
RTVSPropertyOp43
 70
     1
102
RTVSPropertyOp44
 70
     1
102
RTVSPropertyOp45
 70
     1
102
RTVSPropertyOp46
 70
     1
102
RTVSPropertyOp47
 70
     1
102
RTVSPropertyOp48
 70
     1
102
RTVSPropertyOp49
 70
     1
102
RTVSPropertyOp50
 70
     1
102
RTVSPropertyOp51
 70
     0
102
RTVSPropertyOp52
 70
     0
102
RTVSPropertyOp53
 70
     1
102
RTVSPropertyOp54
 70
     1
102
RTVSPropertyOp55
 70
     1
102
RTVSPropertyOp56
 70
     1
102
RTVSPropertyOp57
 70
     1
102
RTVSPropertyOp58
 70
     1
102
RTVSPropertyOp59
 70
     1
102
RTVSPropertyOp60
 70
     1
102
RTVSPropertyOp61
 70
     1
102
RTVSPropertyOp62
 70
     1
  0
XRECORD
  5
D041
102
{ACAD_REACTORS
330
D040
102
}
330
D040
100
AcDbXrecord
280
     1
102
RTVSPost2010Prop28
280
     0
102
RTVSPost2010PropOp28
 70
     1
102
RTVSPost2010Prop29
280
     1
102
RTVSPost2010PropOp29
 70
     1
102
RTVSPost2010Prop30
280
     1
102
RTVSPost2010PropOp30
 70
     1
102
RTVSPost2010Prop31
280
     0
102
RTVSPost2010PropOp31
 70
     1
102
RTVSPost2010Prop32
280
     0
102
RTVSPost2010PropOp32
 70
     1
102
RTVSPost2010Prop33
280
     0
102
RTVSPost2010PropOp33
 70
     1
102
RTVSPost2010Prop34
280
     0
102
RTVSPost2010PropOp34
 70
     1
102
RTVSPost2010Prop35
280
     0
102
RTVSPost2010PropOp35
 70
     1
102
RTVSPost2010Prop36
280
     0
102
RTVSPost2010PropOp36
 70
     1
102
RTVSPost2010Prop37
 90
       50
102
RTVSPost2010PropOp37
 70
     1
102
RTVSPost2010Prop38
140
0.0
102
RTVSPost2010PropOp38
 70
     1
102
RTVSPost2010Prop39
140
1.0
102
RTVSPost2010PropOp39
 70
     1
102
RTVSPost2010Prop40
 90
        0
102
RTVSPost2010PropOp40
 70
     1
102
RTVSPost2010Prop41ColorIndex
 90
       18
102
RTVSPost2010Prop41ColorRGB
 90
        0
102
RTVSPost2010PropOp41
 70
     1
102
RTVSPost2010Prop42
 90
       50
102
RTVSPost2010PropOp42
 70
     1
102
RTVSPost2010Prop43
 90
        3
102
RTVSPost2010PropOp43
 70
     1
102
RTVSPost2010Prop44ColorIndex
 90
        5
102
RTVSPost2010Prop44ColorRGB
 90
      255
102
RTVSPost2010PropOp44
 70
     1
102
RTVSPost2010Prop45
280
     0
102
RTVSPost2010PropOp45
 70
     1
102
RTVSPost2010Prop46
 90
       50
102
RTVSPost2010PropOp46
 70
     1
102
RTVSPost2010Prop47
 90
       50
102
RTVSPost2010PropOp47
 70
     1
102
RTVSPost2010Prop48
 90
       50
102
RTVSPost2010PropOp48
 70
     1
102
RTVSPost2010Prop49
280
     0
102
RTVSPost2010PropOp49
 70
     1
102
RTVSPost2010Prop50
 90
       50
102
RTVSPost2010PropOp50
 70
     1
102
RTVSPost2010Prop51ColorIndex
 90
      256
102
RTVSPost2010Prop51ColorRGB
 90
-16777216
102
RTVSPost2010PropOp51
 70
     0
102
RTVSPost2010Prop52
140
1.0
102
RTVSPost2010PropOp52
 70
     0
102
RTVSPost2010Prop53
 90
        2
102
RTVSPost2010PropOp53
 70
     1
102
RTVSPost2010Prop54
  1
strokes_ogs.tif
102
RTVSPost2010PropOp54
 70
     1
102
RTVSPost2010Prop55
280
     0
102
RTVSPost2010PropOp55
 70
     1
102
RTVSPost2010Prop56
140
1.0
102
RTVSPost2010PropOp56
 70
     1
102
RTVSPost2010Prop57
140
1.0
102
RTVSPost2010PropOp57
 70
     1
102
RTVSPropertyOp0
 70
     1
102
RTVSPropertyOp1
 70
     1
102
RTVSPropertyOp2
 70
     1
102
RTVSPropertyOp3
 70
     1
102
RTVSPropertyOp4
 70
     1
102
RTVSPropertyOp5
 70
     1
102
RTVSPropertyOp6
 70
     1
102
RTVSPropertyOp7
 70
     1
102
RTVSPropertyOp8
 70
     1
102
RTVSPropertyOp9
 70
     1
102
RTVSPropertyOp10
 70
     1
102
RTVSPropertyOp11
 70
     1
102
RTVSPropertyOp12
 70
     1
102
RTVSPropertyOp13
 70
     1
102
RTVSPropertyOp14
 70
     1
102
RTVSPropertyOp15
 70
     1
102
RTVSPropertyOp16
 70
     1
102
RTVSPropertyOp17
 70
     1
102
RTVSPropertyOp18
 70
     1
102
RTVSPropertyOp19
 70
     1
102
RTVSPropertyOp20
 70
     1
102
RTVSPropertyOp21
 70
     1
102
RTVSPropertyOp22
 70
     1
102
RTVSPropertyOp23
 70
     1
102
RTVSPropertyOp24
 70
     1
102
RTVSPropertyOp25
 70
     1
102
RTVSPropertyOp26
 70
     1
102
RTVSPropertyOp27
 70
     1
102
RTVSPropertyOp28
 70
     1
102
RTVSPropertyOp29
 70
     1
102
RTVSPropertyOp30
 70
     1
102
RTVSPropertyOp31
 70
     1
102
RTVSPropertyOp32
 70
     1
102
RTVSPropertyOp33
 70
     1
102
RTVSPropertyOp34
 70
     1
102
RTVSPropertyOp35
 70
     1
102
RTVSPropertyOp36
 70
     1
102
RTVSPropertyOp37
 70
     1
102
RTVSPropertyOp38
 70
     1
102
RTVSPropertyOp39
 70
     1
102
RTVSPropertyOp40
 70
     1
102
RTVSPropertyOp41
 70
     1
102
RTVSPropertyOp42
 70
     1
102
RTVSPropertyOp43
 70
     1
102
RTVSPropertyOp44
 70
     1
102
RTVSPropertyOp45
 70
     1
102
RTVSPropertyOp46
 70
     1
102
RTVSPropertyOp47
 70
     1
102
RTVSPropertyOp48
 70
     1
102
RTVSPropertyOp49
 70
     1
102
RTVSPropertyOp50
 70
     1
102
RTVSPropertyOp51
 70
     0
102
RTVSPropertyOp52
 70
     0
102
RTVSPropertyOp53
 70
     1
102
RTVSPropertyOp54
 70
     1
102
RTVSPropertyOp55
 70
     1
102
RTVSPropertyOp56
 70
     1
102
RTVSPropertyOp57
 70
     1
102
RTVSPropertyOp58
 70
     1
102
RTVSPropertyOp59
 70
     1
102
RTVSPropertyOp60
 70
     1
102
RTVSPropertyOp61
 70
     1
102
RTVSPropertyOp62
 70
     1
  0
XRECORD
  5
D03B
102
{ACAD_REACTORS
330
D03A
102
}
330
D03A
100
AcDbXrecord
280
     1
102
RTVSPost2010Prop28
280
     0
102
RTVSPost2010PropOp28
 70
     1
102
RTVSPost2010Prop29
280
     1
102
RTVSPost2010PropOp29
 70
     1
102
RTVSPost2010Prop30
280
     1
102
RTVSPost2010PropOp30
 70
     1
102
RTVSPost2010Prop31
280
     0
102
RTVSPost2010PropOp31
 70
     1
102
RTVSPost2010Prop32
280
     0
102
RTVSPost2010PropOp32
 70
     1
102
RTVSPost2010Prop33
280
     0
102
RTVSPost2010PropOp33
 70
     1
102
RTVSPost2010Prop34
280
     0
102
RTVSPost2010PropOp34
 70
     1
102
RTVSPost2010Prop35
280
     0
102
RTVSPost2010PropOp35
 70
     1
102
RTVSPost2010Prop36
280
     0
102
RTVSPost2010PropOp36
 70
     1
102
RTVSPost2010Prop37
 90
       50
102
RTVSPost2010PropOp37
 70
     1
102
RTVSPost2010Prop38
140
0.0
102
RTVSPost2010PropOp38
 70
     1
102
RTVSPost2010Prop39
140
1.0
102
RTVSPost2010PropOp39
 70
     1
102
RTVSPost2010Prop40
 90
        0
102
RTVSPost2010PropOp40
 70
     1
102
RTVSPost2010Prop41ColorIndex
 90
       18
102
RTVSPost2010Prop41ColorRGB
 90
        0
102
RTVSPost2010PropOp41
 70
     1
102
RTVSPost2010Prop42
 90
       50
102
RTVSPost2010PropOp42
 70
     1
102
RTVSPost2010Prop43
 90
        3
102
RTVSPost2010PropOp43
 70
     1
102
RTVSPost2010Prop44ColorIndex
 90
        5
102
RTVSPost2010Prop44ColorRGB
 90
      255
102
RTVSPost2010PropOp44
 70
     1
102
RTVSPost2010Prop45
280
     0
102
RTVSPost2010PropOp45
 70
     1
102
RTVSPost2010Prop46
 90
       50
102
RTVSPost2010PropOp46
 70
     1
102
RTVSPost2010Prop47
 90
       50
102
RTVSPost2010PropOp47
 70
     1
102
RTVSPost2010Prop48
 90
       50
102
RTVSPost2010PropOp48
 70
     1
102
RTVSPost2010Prop49
280
     0
102
RTVSPost2010PropOp49
 70
     1
102
RTVSPost2010Prop50
 90
       50
102
RTVSPost2010PropOp50
 70
     1
102
RTVSPost2010Prop51ColorIndex
 90
      256
102
RTVSPost2010Prop51ColorRGB
 90
-16777216
102
RTVSPost2010PropOp51
 70
     0
102
RTVSPost2010Prop52
140
1.0
102
RTVSPost2010PropOp52
 70
     0
102
RTVSPost2010Prop53
 90
        2
102
RTVSPost2010PropOp53
 70
     1
102
RTVSPost2010Prop54
  1
strokes_ogs.tif
102
RTVSPost2010PropOp54
 70
     1
102
RTVSPost2010Prop55
280
     0
102
RTVSPost2010PropOp55
 70
     1
102
RTVSPost2010Prop56
140
1.0
102
RTVSPost2010PropOp56
 70
     1
102
RTVSPost2010Prop57
140
1.0
102
RTVSPost2010PropOp57
 70
     1
102
RTVSPropertyOp0
 70
     1
102
RTVSPropertyOp1
 70
     1
102
RTVSPropertyOp2
 70
     1
102
RTVSPropertyOp3
 70
     1
102
RTVSPropertyOp4
 70
     1
102
RTVSPropertyOp5
 70
     1
102
RTVSPropertyOp6
 70
     1
102
RTVSPropertyOp7
 70
     1
102
RTVSPropertyOp8
 70
     1
102
RTVSPropertyOp9
 70
     1
102
RTVSPropertyOp10
 70
     1
102
RTVSPropertyOp11
 70
     1
102
RTVSPropertyOp12
 70
     1
102
RTVSPropertyOp13
 70
     1
102
RTVSPropertyOp14
 70
     1
102
RTVSPropertyOp15
 70
     1
102
RTVSPropertyOp16
 70
     1
102
RTVSPropertyOp17
 70
     1
102
RTVSPropertyOp18
 70
     1
102
RTVSPropertyOp19
 70
     1
102
RTVSPropertyOp20
 70
     1
102
RTVSPropertyOp21
 70
     1
102
RTVSPropertyOp22
 70
     1
102
RTVSPropertyOp23
 70
     1
102
RTVSPropertyOp24
 70
     1
102
RTVSPropertyOp25
 70
     1
102
RTVSPropertyOp26
 70
     1
102
RTVSPropertyOp27
 70
     1
102
RTVSPropertyOp28
 70
     1
102
RTVSPropertyOp29
 70
     1
102
RTVSPropertyOp30
 70
     1
102
RTVSPropertyOp31
 70
     1
102
RTVSPropertyOp32
 70
     1
102
RTVSPropertyOp33
 70
     1
102
RTVSPropertyOp34
 70
     1
102
RTVSPropertyOp35
 70
     1
102
RTVSPropertyOp36
 70
     1
102
RTVSPropertyOp37
 70
     1
102
RTVSPropertyOp38
 70
     1
102
RTVSPropertyOp39
 70
     1
102
RTVSPropertyOp40
 70
     1
102
RTVSPropertyOp41
 70
     1
102
RTVSPropertyOp42
 70
     1
102
RTVSPropertyOp43
 70
     1
102
RTVSPropertyOp44
 70
     1
102
RTVSPropertyOp45
 70
     1
102
RTVSPropertyOp46
 70
     1
102
RTVSPropertyOp47
 70
     1
102
RTVSPropertyOp48
 70
     1
102
RTVSPropertyOp49
 70
     1
102
RTVSPropertyOp50
 70
     1
102
RTVSPropertyOp51
 70
     0
102
RTVSPropertyOp52
 70
     0
102
RTVSPropertyOp53
 70
     1
102
RTVSPropertyOp54
 70
     1
102
RTVSPropertyOp55
 70
     1
102
RTVSPropertyOp56
 70
     1
102
RTVSPropertyOp57
 70
     1
102
RTVSPropertyOp58
 70
     1
102
RTVSPropertyOp59
 70
     1
102
RTVSPropertyOp60
 70
     1
102
RTVSPropertyOp61
 70
     1
102
RTVSPropertyOp62
 70
     1
  0
XRECORD
  5
D03D
102
{ACAD_REACTORS
330
D03C
102
}
330
D03C
100
AcDbXrecord
280
     1
102
RTVSPost2010Prop28
280
     0
102
RTVSPost2010PropOp28
 70
     1
102
RTVSPost2010Prop29
280
     1
102
RTVSPost2010PropOp29
 70
     1
102
RTVSPost2010Prop30
280
     1
102
RTVSPost2010PropOp30
 70
     1
102
RTVSPost2010Prop31
280
     0
102
RTVSPost2010PropOp31
 70
     1
102
RTVSPost2010Prop32
280
     0
102
RTVSPost2010PropOp32
 70
     1
102
RTVSPost2010Prop33
280
     0
102
RTVSPost2010PropOp33
 70
     1
102
RTVSPost2010Prop34
280
     0
102
RTVSPost2010PropOp34
 70
     1
102
RTVSPost2010Prop35
280
     0
102
RTVSPost2010PropOp35
 70
     1
102
RTVSPost2010Prop36
280
     0
102
RTVSPost2010PropOp36
 70
     1
102
RTVSPost2010Prop37
 90
       50
102
RTVSPost2010PropOp37
 70
     1
102
RTVSPost2010Prop38
140
0.0
102
RTVSPost2010PropOp38
 70
     1
102
RTVSPost2010Prop39
140
1.0
102
RTVSPost2010PropOp39
 70
     1
102
RTVSPost2010Prop40
 90
        0
102
RTVSPost2010PropOp40
 70
     1
102
RTVSPost2010Prop41ColorIndex
 90
       18
102
RTVSPost2010Prop41ColorRGB
 90
        0
102
RTVSPost2010PropOp41
 70
     1
102
RTVSPost2010Prop42
 90
       50
102
RTVSPost2010PropOp42
 70
     1
102
RTVSPost2010Prop43
 90
        3
102
RTVSPost2010PropOp43
 70
     1
102
RTVSPost2010Prop44ColorIndex
 90
        5
102
RTVSPost2010Prop44ColorRGB
 90
      255
102
RTVSPost2010PropOp44
 70
     1
102
RTVSPost2010Prop45
280
     0
102
RTVSPost2010PropOp45
 70
     1
102
RTVSPost2010Prop46
 90
       50
102
RTVSPost2010PropOp46
 70
     1
102
RTVSPost2010Prop47
 90
       50
102
RTVSPost2010PropOp47
 70
     1
102
RTVSPost2010Prop48
 90
       50
102
RTVSPost2010PropOp48
 70
     1
102
RTVSPost2010Prop49
280
     0
102
RTVSPost2010PropOp49
 70
     1
102
RTVSPost2010Prop50
 90
       50
102
RTVSPost2010PropOp50
 70
     1
102
RTVSPost2010Prop51ColorIndex
 90
      256
102
RTVSPost2010Prop51ColorRGB
 90
-16777216
102
RTVSPost2010PropOp51
 70
     0
102
RTVSPost2010Prop52
140
1.0
102
RTVSPost2010PropOp52
 70
     0
102
RTVSPost2010Prop53
 90
        2
102
RTVSPost2010PropOp53
 70
     1
102
RTVSPost2010Prop54
  1
strokes_ogs.tif
102
RTVSPost2010PropOp54
 70
     1
102
RTVSPost2010Prop55
280
     0
102
RTVSPost2010PropOp55
 70
     1
102
RTVSPost2010Prop56
140
1.0
102
RTVSPost2010PropOp56
 70
     1
102
RTVSPost2010Prop57
140
1.0
102
RTVSPost2010PropOp57
 70
     1
102
RTVSPropertyOp0
 70
     1
102
RTVSPropertyOp1
 70
     1
102
RTVSPropertyOp2
 70
     1
102
RTVSPropertyOp3
 70
     1
102
RTVSPropertyOp4
 70
     1
102
RTVSPropertyOp5
 70
     1
102
RTVSPropertyOp6
 70
     1
102
RTVSPropertyOp7
 70
     1
102
RTVSPropertyOp8
 70
     1
102
RTVSPropertyOp9
 70
     1
102
RTVSPropertyOp10
 70
     1
102
RTVSPropertyOp11
 70
     1
102
RTVSPropertyOp12
 70
     1
102
RTVSPropertyOp13
 70
     1
102
RTVSPropertyOp14
 70
     1
102
RTVSPropertyOp15
 70
     1
102
RTVSPropertyOp16
 70
     1
102
RTVSPropertyOp17
 70
     1
102
RTVSPropertyOp18
 70
     1
102
RTVSPropertyOp19
 70
     1
102
RTVSPropertyOp20
 70
     1
102
RTVSPropertyOp21
 70
     1
102
RTVSPropertyOp22
 70
     1
102
RTVSPropertyOp23
 70
     1
102
RTVSPropertyOp24
 70
     1
102
RTVSPropertyOp25
 70
     1
102
RTVSPropertyOp26
 70
     1
102
RTVSPropertyOp27
 70
     1
102
RTVSPropertyOp28
 70
     1
102
RTVSPropertyOp29
 70
     1
102
RTVSPropertyOp30
 70
     1
102
RTVSPropertyOp31
 70
     1
102
RTVSPropertyOp32
 70
     1
102
RTVSPropertyOp33
 70
     1
102
RTVSPropertyOp34
 70
     1
102
RTVSPropertyOp35
 70
     1
102
RTVSPropertyOp36
 70
     1
102
RTVSPropertyOp37
 70
     1
102
RTVSPropertyOp38
 70
     1
102
RTVSPropertyOp39
 70
     1
102
RTVSPropertyOp40
 70
     1
102
RTVSPropertyOp41
 70
     1
102
RTVSPropertyOp42
 70
     1
102
RTVSPropertyOp43
 70
     1
102
RTVSPropertyOp44
 70
     1
102
RTVSPropertyOp45
 70
     1
102
RTVSPropertyOp46
 70
     1
102
RTVSPropertyOp47
 70
     1
102
RTVSPropertyOp48
 70
     1
102
RTVSPropertyOp49
 70
     1
102
RTVSPropertyOp50
 70
     1
102
RTVSPropertyOp51
 70
     0
102
RTVSPropertyOp52
 70
     0
102
RTVSPropertyOp53
 70
     1
102
RTVSPropertyOp54
 70
     1
102
RTVSPropertyOp55
 70
     1
102
RTVSPropertyOp56
 70
     1
102
RTVSPropertyOp57
 70
     1
102
RTVSPropertyOp58
 70
     1
102
RTVSPropertyOp59
 70
     1
102
RTVSPropertyOp60
 70
     1
102
RTVSPropertyOp61
 70
     1
102
RTVSPropertyOp62
 70
     1
  0
XRECORD
  5
D02B
102
{ACAD_REACTORS
330
D02A
102
}
330
D02A
100
AcDbXrecord
280
     1
102
RTVSPost2010Prop28
280
     0
102
RTVSPost2010PropOp28
 70
     1
102
RTVSPost2010Prop29
280
     1
102
RTVSPost2010PropOp29
 70
     1
102
RTVSPost2010Prop30
280
     1
102
RTVSPost2010PropOp30
 70
     1
102
RTVSPost2010Prop31
280
     0
102
RTVSPost2010PropOp31
 70
     1
102
RTVSPost2010Prop32
280
     0
102
RTVSPost2010PropOp32
 70
     1
102
RTVSPost2010Prop33
280
     0
102
RTVSPost2010PropOp33
 70
     1
102
RTVSPost2010Prop34
280
     0
102
RTVSPost2010PropOp34
 70
     1
102
RTVSPost2010Prop35
280
     0
102
RTVSPost2010PropOp35
 70
     1
102
RTVSPost2010Prop36
280
     0
102
RTVSPost2010PropOp36
 70
     1
102
RTVSPost2010Prop37
 90
       50
102
RTVSPost2010PropOp37
 70
     1
102
RTVSPost2010Prop38
140
0.0
102
RTVSPost2010PropOp38
 70
     1
102
RTVSPost2010Prop39
140
1.0
102
RTVSPost2010PropOp39
 70
     1
102
RTVSPost2010Prop40
 90
        0
102
RTVSPost2010PropOp40
 70
     1
102
RTVSPost2010Prop41ColorIndex
 90
       18
102
RTVSPost2010Prop41ColorRGB
 90
        0
102
RTVSPost2010PropOp41
 70
     1
102
RTVSPost2010Prop42
 90
       50
102
RTVSPost2010PropOp42
 70
     1
102
RTVSPost2010Prop43
 90
        3
102
RTVSPost2010PropOp43
 70
     1
102
RTVSPost2010Prop44ColorIndex
 90
        5
102
RTVSPost2010Prop44ColorRGB
 90
      255
102
RTVSPost2010PropOp44
 70
     1
102
RTVSPost2010Prop45
280
     0
102
RTVSPost2010PropOp45
 70
     1
102
RTVSPost2010Prop46
 90
       50
102
RTVSPost2010PropOp46
 70
     1
102
RTVSPost2010Prop47
 90
       50
102
RTVSPost2010PropOp47
 70
     1
102
RTVSPost2010Prop48
 90
       50
102
RTVSPost2010PropOp48
 70
     1
102
RTVSPost2010Prop49
280
     0
102
RTVSPost2010PropOp49
 70
     1
102
RTVSPost2010Prop50
 90
       50
102
RTVSPost2010PropOp50
 70
     1
102
RTVSPost2010Prop51ColorIndex
 90
      256
102
RTVSPost2010Prop51ColorRGB
 90
-16777216
102
RTVSPost2010PropOp51
 70
     0
102
RTVSPost2010Prop52
140
1.0
102
RTVSPost2010PropOp52
 70
     0
102
RTVSPost2010Prop53
 90
        2
102
RTVSPost2010PropOp53
 70
     1
102
RTVSPost2010Prop54
  1
strokes_ogs.tif
102
RTVSPost2010PropOp54
 70
     1
102
RTVSPost2010Prop55
280
     0
102
RTVSPost2010PropOp55
 70
     1
102
RTVSPost2010Prop56
140
1.0
102
RTVSPost2010PropOp56
 70
     1
102
RTVSPost2010Prop57
140
1.0
102
RTVSPost2010PropOp57
 70
     1
102
RTVSPropertyOp0
 70
     1
102
RTVSPropertyOp1
 70
     1
102
RTVSPropertyOp2
 70
     1
102
RTVSPropertyOp3
 70
     1
102
RTVSPropertyOp4
 70
     1
102
RTVSPropertyOp5
 70
     1
102
RTVSPropertyOp6
 70
     1
102
RTVSPropertyOp7
 70
     1
102
RTVSPropertyOp8
 70
     1
102
RTVSPropertyOp9
 70
     1
102
RTVSPropertyOp10
 70
     1
102
RTVSPropertyOp11
 70
     1
102
RTVSPropertyOp12
 70
     1
102
RTVSPropertyOp13
 70
     1
102
RTVSPropertyOp14
 70
     1
102
RTVSPropertyOp15
 70
     1
102
RTVSPropertyOp16
 70
     1
102
RTVSPropertyOp17
 70
     1
102
RTVSPropertyOp18
 70
     1
102
RTVSPropertyOp19
 70
     1
102
RTVSPropertyOp20
 70
     1
102
RTVSPropertyOp21
 70
     1
102
RTVSPropertyOp22
 70
     1
102
RTVSPropertyOp23
 70
     1
102
RTVSPropertyOp24
 70
     1
102
RTVSPropertyOp25
 70
     1
102
RTVSPropertyOp26
 70
     1
102
RTVSPropertyOp27
 70
     1
102
RTVSPropertyOp28
 70
     1
102
RTVSPropertyOp29
 70
     1
102
RTVSPropertyOp30
 70
     1
102
RTVSPropertyOp31
 70
     1
102
RTVSPropertyOp32
 70
     1
102
RTVSPropertyOp33
 70
     1
102
RTVSPropertyOp34
 70
     1
102
RTVSPropertyOp35
 70
     1
102
RTVSPropertyOp36
 70
     1
102
RTVSPropertyOp37
 70
     1
102
RTVSPropertyOp38
 70
     1
102
RTVSPropertyOp39
 70
     1
102
RTVSPropertyOp40
 70
     1
102
RTVSPropertyOp41
 70
     1
102
RTVSPropertyOp42
 70
     1
102
RTVSPropertyOp43
 70
     1
102
RTVSPropertyOp44
 70
     1
102
RTVSPropertyOp45
 70
     1
102
RTVSPropertyOp46
 70
     1
102
RTVSPropertyOp47
 70
     1
102
RTVSPropertyOp48
 70
     1
102
RTVSPropertyOp49
 70
     1
102
RTVSPropertyOp50
 70
     1
102
RTVSPropertyOp51
 70
     0
102
RTVSPropertyOp52
 70
     0
102
RTVSPropertyOp53
 70
     1
102
RTVSPropertyOp54
 70
     1
102
RTVSPropertyOp55
 70
     1
102
RTVSPropertyOp56
 70
     1
102
RTVSPropertyOp57
 70
     1
102
RTVSPropertyOp58
 70
     1
102
RTVSPropertyOp59
 70
     1
102
RTVSPropertyOp60
 70
     1
102
RTVSPropertyOp61
 70
     1
102
RTVSPropertyOp62
 70
     1
  0
XRECORD
  5
D01F
102
{ACAD_REACTORS
330
D01E
102
}
330
D01E
100
AcDbXrecord
280
     1
102
RTVSPost2010Prop28
280
     0
102
RTVSPost2010PropOp28
 70
     1
102
RTVSPost2010Prop29
280
     1
102
RTVSPost2010PropOp29
 70
     1
102
RTVSPost2010Prop30
280
     1
102
RTVSPost2010PropOp30
 70
     1
102
RTVSPost2010Prop31
280
     0
102
RTVSPost2010PropOp31
 70
     1
102
RTVSPost2010Prop32
280
     0
102
RTVSPost2010PropOp32
 70
     1
102
RTVSPost2010Prop33
280
     0
102
RTVSPost2010PropOp33
 70
     1
102
RTVSPost2010Prop34
280
     0
102
RTVSPost2010PropOp34
 70
     1
102
RTVSPost2010Prop35
280
     0
102
RTVSPost2010PropOp35
 70
     1
102
RTVSPost2010Prop36
280
     0
102
RTVSPost2010PropOp36
 70
     1
102
RTVSPost2010Prop37
 90
       50
102
RTVSPost2010PropOp37
 70
     1
102
RTVSPost2010Prop38
140
0.0
102
RTVSPost2010PropOp38
 70
     1
102
RTVSPost2010Prop39
140
1.0
102
RTVSPost2010PropOp39
 70
     1
102
RTVSPost2010Prop40
 90
        0
102
RTVSPost2010PropOp40
 70
     1
102
RTVSPost2010Prop41ColorIndex
 90
       18
102
RTVSPost2010Prop41ColorRGB
 90
        0
102
RTVSPost2010PropOp41
 70
     1
102
RTVSPost2010Prop42
 90
       50
102
RTVSPost2010PropOp42
 70
     1
102
RTVSPost2010Prop43
 90
        3
102
RTVSPost2010PropOp43
 70
     1
102
RTVSPost2010Prop44ColorIndex
 90
        5
102
RTVSPost2010Prop44ColorRGB
 90
      255
102
RTVSPost2010PropOp44
 70
     1
102
RTVSPost2010Prop45
280
     0
102
RTVSPost2010PropOp45
 70
     1
102
RTVSPost2010Prop46
 90
       50
102
RTVSPost2010PropOp46
 70
     1
102
RTVSPost2010Prop47
 90
       50
102
RTVSPost2010PropOp47
 70
     1
102
RTVSPost2010Prop48
 90
       50
102
RTVSPost2010PropOp48
 70
     1
102
RTVSPost2010Prop49
280
     0
102
RTVSPost2010PropOp49
 70
     1
102
RTVSPost2010Prop50
 90
       50
102
RTVSPost2010PropOp50
 70
     1
102
RTVSPost2010Prop51ColorIndex
 90
      256
102
RTVSPost2010Prop51ColorRGB
 90
-16777216
102
RTVSPost2010PropOp51
 70
     0
102
RTVSPost2010Prop52
140
1.0
102
RTVSPost2010PropOp52
 70
     0
102
RTVSPost2010Prop53
 90
        2
102
RTVSPost2010PropOp53
 70
     1
102
RTVSPost2010Prop54
  1
strokes_ogs.tif
102
RTVSPost2010PropOp54
 70
     1
102
RTVSPost2010Prop55
280
     0
102
RTVSPost2010PropOp55
 70
     1
102
RTVSPost2010Prop56
140
1.0
102
RTVSPost2010PropOp56
 70
     1
102
RTVSPost2010Prop57
140
1.0
102
RTVSPost2010PropOp57
 70
     1
102
RTVSPropertyOp0
 70
     1
102
RTVSPropertyOp1
 70
     1
102
RTVSPropertyOp2
 70
     1
102
RTVSPropertyOp3
 70
     1
102
RTVSPropertyOp4
 70
     1
102
RTVSPropertyOp5
 70
     1
102
RTVSPropertyOp6
 70
     1
102
RTVSPropertyOp7
 70
     1
102
RTVSPropertyOp8
 70
     1
102
RTVSPropertyOp9
 70
     1
102
RTVSPropertyOp10
 70
     1
102
RTVSPropertyOp11
 70
     1
102
RTVSPropertyOp12
 70
     1
102
RTVSPropertyOp13
 70
     1
102
RTVSPropertyOp14
 70
     1
102
RTVSPropertyOp15
 70
     1
102
RTVSPropertyOp16
 70
     1
102
RTVSPropertyOp17
 70
     1
102
RTVSPropertyOp18
 70
     1
102
RTVSPropertyOp19
 70
     1
102
RTVSPropertyOp20
 70
     1
102
RTVSPropertyOp21
 70
     1
102
RTVSPropertyOp22
 70
     1
102
RTVSPropertyOp23
 70
     1
102
RTVSPropertyOp24
 70
     1
102
RTVSPropertyOp25
 70
     1
102
RTVSPropertyOp26
 70
     1
102
RTVSPropertyOp27
 70
     1
102
RTVSPropertyOp28
 70
     1
102
RTVSPropertyOp29
 70
     1
102
RTVSPropertyOp30
 70
     1
102
RTVSPropertyOp31
 70
     1
102
RTVSPropertyOp32
 70
     1
102
RTVSPropertyOp33
 70
     1
102
RTVSPropertyOp34
 70
     1
102
RTVSPropertyOp35
 70
     1
102
RTVSPropertyOp36
 70
     1
102
RTVSPropertyOp37
 70
     1
102
RTVSPropertyOp38
 70
     1
102
RTVSPropertyOp39
 70
     1
102
RTVSPropertyOp40
 70
     1
102
RTVSPropertyOp41
 70
     1
102
RTVSPropertyOp42
 70
     1
102
RTVSPropertyOp43
 70
     1
102
RTVSPropertyOp44
 70
     1
102
RTVSPropertyOp45
 70
     1
102
RTVSPropertyOp46
 70
     1
102
RTVSPropertyOp47
 70
     1
102
RTVSPropertyOp48
 70
     1
102
RTVSPropertyOp49
 70
     1
102
RTVSPropertyOp50
 70
     1
102
RTVSPropertyOp51
 70
     0
102
RTVSPropertyOp52
 70
     0
102
RTVSPropertyOp53
 70
     1
102
RTVSPropertyOp54
 70
     1
102
RTVSPropertyOp55
 70
     1
102
RTVSPropertyOp56
 70
     1
102
RTVSPropertyOp57
 70
     1
102
RTVSPropertyOp58
 70
     1
102
RTVSPropertyOp59
 70
     1
102
RTVSPropertyOp60
 70
     1
102
RTVSPropertyOp61
 70
     1
102
RTVSPropertyOp62
 70
     1
  0
XRECORD
  5
D03F
102
{ACAD_REACTORS
330
D03E
102
}
330
D03E
100
AcDbXrecord
280
     1
102
RTVSPost2010Prop28
280
     0
102
RTVSPost2010PropOp28
 70
     1
102
RTVSPost2010Prop29
280
     1
102
RTVSPost2010PropOp29
 70
     1
102
RTVSPost2010Prop30
280
     1
102
RTVSPost2010PropOp30
 70
     1
102
RTVSPost2010Prop31
280
     0
102
RTVSPost2010PropOp31
 70
     1
102
RTVSPost2010Prop32
280
     0
102
RTVSPost2010PropOp32
 70
     1
102
RTVSPost2010Prop33
280
     0
102
RTVSPost2010PropOp33
 70
     1
102
RTVSPost2010Prop34
280
     0
102
RTVSPost2010PropOp34
 70
     1
102
RTVSPost2010Prop35
280
     0
102
RTVSPost2010PropOp35
 70
     1
102
RTVSPost2010Prop36
280
     0
102
RTVSPost2010PropOp36
 70
     1
102
RTVSPost2010Prop37
 90
       50
102
RTVSPost2010PropOp37
 70
     1
102
RTVSPost2010Prop38
140
0.0
102
RTVSPost2010PropOp38
 70
     1
102
RTVSPost2010Prop39
140
1.0
102
RTVSPost2010PropOp39
 70
     1
102
RTVSPost2010Prop40
 90
        0
102
RTVSPost2010PropOp40
 70
     1
102
RTVSPost2010Prop41ColorIndex
 90
       18
102
RTVSPost2010Prop41ColorRGB
 90
        0
102
RTVSPost2010PropOp41
 70
     1
102
RTVSPost2010Prop42
 90
       50
102
RTVSPost2010PropOp42
 70
     1
102
RTVSPost2010Prop43
 90
        3
102
RTVSPost2010PropOp43
 70
     1
102
RTVSPost2010Prop44ColorIndex
 90
        5
102
RTVSPost2010Prop44ColorRGB
 90
      255
102
RTVSPost2010PropOp44
 70
     1
102
RTVSPost2010Prop45
280
     0
102
RTVSPost2010PropOp45
 70
     1
102
RTVSPost2010Prop46
 90
       50
102
RTVSPost2010PropOp46
 70
     1
102
RTVSPost2010Prop47
 90
       50
102
RTVSPost2010PropOp47
 70
     1
102
RTVSPost2010Prop48
 90
       50
102
RTVSPost2010PropOp48
 70
     1
102
RTVSPost2010Prop49
280
     0
102
RTVSPost2010PropOp49
 70
     1
102
RTVSPost2010Prop50
 90
       50
102
RTVSPost2010PropOp50
 70
     1
102
RTVSPost2010Prop51ColorIndex
 90
      256
102
RTVSPost2010Prop51ColorRGB
 90
-16777216
102
RTVSPost2010PropOp51
 70
     0
102
RTVSPost2010Prop52
140
1.0
102
RTVSPost2010PropOp52
 70
     0
102
RTVSPost2010Prop53
 90
        2
102
RTVSPost2010PropOp53
 70
     1
102
RTVSPost2010Prop54
  1
strokes_ogs.tif
102
RTVSPost2010PropOp54
 70
     1
102
RTVSPost2010Prop55
280
     0
102
RTVSPost2010PropOp55
 70
     1
102
RTVSPost2010Prop56
140
1.0
102
RTVSPost2010PropOp56
 70
     1
102
RTVSPost2010Prop57
140
1.0
102
RTVSPost2010PropOp57
 70
     1
102
RTVSPropertyOp0
 70
     1
102
RTVSPropertyOp1
 70
     1
102
RTVSPropertyOp2
 70
     1
102
RTVSPropertyOp3
 70
     1
102
RTVSPropertyOp4
 70
     1
102
RTVSPropertyOp5
 70
     1
102
RTVSPropertyOp6
 70
     1
102
RTVSPropertyOp7
 70
     1
102
RTVSPropertyOp8
 70
     1
102
RTVSPropertyOp9
 70
     1
102
RTVSPropertyOp10
 70
     1
102
RTVSPropertyOp11
 70
     1
102
RTVSPropertyOp12
 70
     1
102
RTVSPropertyOp13
 70
     1
102
RTVSPropertyOp14
 70
     1
102
RTVSPropertyOp15
 70
     1
102
RTVSPropertyOp16
 70
     1
102
RTVSPropertyOp17
 70
     1
102
RTVSPropertyOp18
 70
     1
102
RTVSPropertyOp19
 70
     1
102
RTVSPropertyOp20
 70
     1
102
RTVSPropertyOp21
 70
     1
102
RTVSPropertyOp22
 70
     1
102
RTVSPropertyOp23
 70
     1
102
RTVSPropertyOp24
 70
     1
102
RTVSPropertyOp25
 70
     1
102
RTVSPropertyOp26
 70
     1
102
RTVSPropertyOp27
 70
     1
102
RTVSPropertyOp28
 70
     1
102
RTVSPropertyOp29
 70
     1
102
RTVSPropertyOp30
 70
     1
102
RTVSPropertyOp31
 70
     1
102
RTVSPropertyOp32
 70
     1
102
RTVSPropertyOp33
 70
     1
102
RTVSPropertyOp34
 70
     1
102
RTVSPropertyOp35
 70
     1
102
RTVSPropertyOp36
 70
     1
102
RTVSPropertyOp37
 70
     1
102
RTVSPropertyOp38
 70
     1
102
RTVSPropertyOp39
 70
     1
102
RTVSPropertyOp40
 70
     1
102
RTVSPropertyOp41
 70
     1
102
RTVSPropertyOp42
 70
     1
102
RTVSPropertyOp43
 70
     1
102
RTVSPropertyOp44
 70
     1
102
RTVSPropertyOp45
 70
     1
102
RTVSPropertyOp46
 70
     1
102
RTVSPropertyOp47
 70
     1
102
RTVSPropertyOp48
 70
     1
102
RTVSPropertyOp49
 70
     1
102
RTVSPropertyOp50
 70
     1
102
RTVSPropertyOp51
 70
     0
102
RTVSPropertyOp52
 70
     0
102
RTVSPropertyOp53
 70
     1
102
RTVSPropertyOp54
 70
     1
102
RTVSPropertyOp55
 70
     1
102
RTVSPropertyOp56
 70
     1
102
RTVSPropertyOp57
 70
     1
102
RTVSPropertyOp58
 70
     1
102
RTVSPropertyOp59
 70
     1
102
RTVSPropertyOp60
 70
     1
102
RTVSPropertyOp61
 70
     1
102
RTVSPropertyOp62
 70
     1
  0
ENDSEC
  0
EOF
