  0
SECTION
  2
HEADER
  9
$ACADVER
  1
AC1015
  9
$ACADMAINTVER
 70
    18
  9
$DWGCODEPAGE
  3
ANSI_1252
  9
$INSBASE
 10
0.0
 20
0.0
 30
0.0
  9
$EXTMIN
 10
-224.9578850261841
 20
-383.6990201409196
 30
-0.0015258207003583
  9
$EXTMAX
 10
265.2749641766714
 20
359.5713966383731
 30
0.0000000349246037
  9
$LIMMIN
 10
0.0
 20
0.0
  9
$LIMMAX
 10
420.0
 20
297.0
  9
$ORTHOMODE
 70
     0
  9
$REGENMODE
 70
     1
  9
$FILLMODE
 70
     1
  9
$QTEXTMODE
 70
     0
  9
$MIRRTEXT
 70
     0
  9
$LTSCALE
 40
1.0
  9
$ATTMODE
 70
     1
  9
$TEXTSIZE
 40
2.5
  9
$TRACEWID
 40
1.0
  9
$TEXTSTYLE
  7
Standard
  9
$CLAYER
  8
0
  9
$CELTYPE
  6
ByLayer
  9
$CECOLOR
 62
   256
  9
$CELTSCALE
 40
1.0
  9
$DISPSILH
 70
     0
  9
$DIMSCALE
 40
1.0
  9
$DIMASZ
 40
2.5
  9
$DIMEXO
 40
0.625
  9
$DIMDLI
 40
3.75
  9
$DIMRND
 40
0.0
  9
$DIMDLE
 40
0.0
  9
$DIMEXE
 40
1.25
  9
$DIMTP
 40
0.0
  9
$DIMTM
 40
0.0
  9
$DIMTXT
 40
2.5
  9
$DIMCEN
 40
2.5
  9
$DIMTSZ
 40
0.0
  9
$DIMTOL
 70
     0
  9
$DIMLIM
 70
     0
  9
$DIMTIH
 70
     0
  9
$DIMTOH
 70
     0
  9
$DIMSE1
 70
     0
  9
$DIMSE2
 70
     0
  9
$DIMTAD
 70
     1
  9
$DIMZIN
 70
     8
  9
$DIMBLK
  1

  9
$DIMASO
 70
     1
  9
$DIMSHO
 70
     1
  9
$DIMPOST
  1

  9
$DIMAPOST
  1

  9
$DIMALT
 70
     0
  9
$DIMALTD
 70
     3
  9
$DIMALTF
 40
0.03937007874016
  9
$DIMLFAC
 40
1.0
  9
$DIMTOFL
 70
     1
  9
$DIMTVP
 40
0.0
  9
$DIMTIX
 70
     0
  9
$DIMSOXD
 70
     0
  9
$DIMSAH
 70
     0
  9
$DIMBLK1
  1

  9
$DIMBLK2
  1

  9
$DIMSTYLE
  2
ISO-25
  9
$DIMCLRD
 70
     0
  9
$DIMCLRE
 70
     0
  9
$DIMCLRT
 70
     0
  9
$DIMTFAC
 40
1.0
  9
$DIMGAP
 40
0.625
  9
$DIMJUST
 70
     0
  9
$DIMSD1
 70
     0
  9
$DIMSD2
 70
     0
  9
$DIMTOLJ
 70
     0
  9
$DIMTZIN
 70
     8
  9
$DIMALTZ
 70
     0
  9
$DIMALTTZ
 70
     0
  9
$DIMUPT
 70
     0
  9
$DIMDEC
 70
     2
  9
$DIMTDEC
 70
     2
  9
$DIMALTU
 70
     2
  9
$DIMALTTD
 70
     3
  9
$DIMTXSTY
  7
Standard
  9
$DIMAUNIT
 70
     0
  9
$DIMADEC
 70
     0
  9
$DIMALTRND
 40
0.0
  9
$DIMAZIN
 70
     0
  9
$DIMDSEP
 70
    44
  9
$DIMATFIT
 70
     3
  9
$DIMFRAC
 70
     0
  9
$DIMLDRBLK
  1

  9
$DIMLUNIT
 70
     2
  9
$DIMLWD
 70
    -2
  9
$DIMLWE
 70
    -2
  9
$DIMTMOVE
 70
     0
  9
$LUNITS
 70
     2
  9
$LUPREC
 70
     4
  9
$SKETCHINC
 40
1.0
  9
$FILLETRAD
 40
0.0
  9
$AUNITS
 70
     0
  9
$AUPREC
 70
     0
  9
$MENU
  1
.
  9
$ELEVATION
 40
0.0
  9
$PELEVATION
 40
0.0
  9
$THICKNESS
 40
0.0
  9
$LIMCHECK
 70
     0
  9
$CHAMFERA
 40
0.0
  9
$CHAMFERB
 40
0.0
  9
$CHAMFERC
 40
0.0
  9
$CHAMFERD
 40
0.0
  9
$SKPOLY
 70
     0
  9
$TDCREATE
 40
2460719.406504630
  9
$TDUCREATE
 40
2460719.114837963
  9
$TDUPDATE
 40
2460719.413587963
  9
$TDUUPDATE
 40
2460719.121921297
  9
$TDINDWG
 40
0.0023726852
  9
$TDUSRTIMER
 40
0.0023726852
  9
$USRTIMER
 70
     1
  9
$ANGBASE
 50
0.0
  9
$ANGDIR
 70
     0
  9
$PDMODE
 70
     0
  9
$PDSIZE
 40
0.0
  9
$PLINEWID
 40
0.0
  9
$SPLFRAME
 70
     0
  9
$SPLINETYPE
 70
     6
  9
$SPLINESEGS
 70
     8
  9
$HANDSEED
  5
B553
  9
$SURFTAB1
 70
     6
  9
$SURFTAB2
 70
     6
  9
$SURFTYPE
 70
     6
  9
$SURFU
 70
     6
  9
$SURFV
 70
     6
  9
$UCSBASE
  2

  9
$UCSNAME
  2

  9
$UCSORG
 10
0.0
 20
0.0
 30
0.0
  9
$UCSXDIR
 10
1.0
 20
0.0
 30
0.0
  9
$UCSYDIR
 10
0.0
 20
1.0
 30
0.0
  9
$UCSORTHOREF
  2

  9
$UCSORTHOVIEW
 70
     0
  9
$UCSORGTOP
 10
0.0
 20
0.0
 30
0.0
  9
$UCSORGBOTTOM
 10
0.0
 20
0.0
 30
0.0
  9
$UCSORGLEFT
 10
0.0
 20
0.0
 30
0.0
  9
$UCSORGRIGHT
 10
0.0
 20
0.0
 30
0.0
  9
$UCSORGFRONT
 10
0.0
 20
0.0
 30
0.0
  9
$UCSORGBACK
 10
0.0
 20
0.0
 30
0.0
  9
$PUCSBASE
  2

  9
$PUCSNAME
  2

  9
$PUCSORG
 10
0.0
 20
0.0
 30
0.0
  9
$PUCSXDIR
 10
1.0
 20
0.0
 30
0.0
  9
$PUCSYDIR
 10
0.0
 20
1.0
 30
0.0
  9
$PUCSORTHOREF
  2

  9
$PUCSORTHOVIEW
 70
     0
  9
$PUCSORGTOP
 10
0.0
 20
0.0
 30
0.0
  9
$PUCSORGBOTTOM
 10
0.0
 20
0.0
 30
0.0
  9
$PUCSORGLEFT
 10
0.0
 20
0.0
 30
0.0
  9
$PUCSORGRIGHT
 10
0.0
 20
0.0
 30
0.0
  9
$PUCSORGFRONT
 10
0.0
 20
0.0
 30
0.0
  9
$PUCSORGBACK
 10
0.0
 20
0.0
 30
0.0
  9
$USERI1
 70
     0
  9
$USERI2
 70
     0
  9
$USERI3
 70
     0
  9
$USERI4
 70
     0
  9
$USERI5
 70
     0
  9
$USERR1
 40
0.0
  9
$USERR2
 40
0.0
  9
$USERR3
 40
0.0
  9
$USERR4
 40
0.0
  9
$USERR5
 40
0.0
  9
$WORLDVIEW
 70
     1
  9
$SHADEDGE
 70
     3
  9
$SHADEDIF
 70
    70
  9
$TILEMODE
 70
     1
  9
$MAXACTVP
 70
    48
  9
$PINSBASE
 10
0.0
 20
0.0
 30
0.0
  9
$PLIMCHECK
 70
     0
  9
$PEXTMIN
 10
0.0
 20
0.0
 30
0.0
  9
$PEXTMAX
 10
0.0
 20
0.0
 30
0.0
  9
$PLIMMIN
 10
0.0
 20
0.0
  9
$PLIMMAX
 10
12.0
 20
9.0
  9
$UNITMODE
 70
     0
  9
$VISRETAIN
 70
     1
  9
$PLINEGEN
 70
     0
  9
$PSLTSCALE
 70
     1
  9
$TREEDEPTH
 70
  3020
  9
$CMLSTYLE
  2
Standard
  9
$CMLJUST
 70
     0
  9
$CMLSCALE
 40
20.0
  9
$PROXYGRAPHICS
 70
     1
  9
$MEASUREMENT
 70
     1
  9
$CELWEIGHT
370
    -1
  9
$ENDCAPS
280
     0
  9
$JOINSTYLE
280
     0
  9
$LWDISPLAY
290
     0
  9
$INSUNITS
 70
     4
  9
$HYPERLINKBASE
  1

  9
$STYLESHEET
  1

  9
$XEDIT
290
     1
  9
$CEPSNTYPE
380
     0
  9
$PSTYLEMODE
290
     1
  9
$FINGERPRINTGUID
  2
{375C693C-302E-BC42-B92A-19F6C371B7B0}
  9
$VERSIONGUID
  2
{D593993E-D4ED-D949-A418-E71414EA792B}
  9
$EXTNAMES
290
     1
  9
$PSVPSCALE
 40
0.0
  9
$OLESTARTUP
290
     0
  0
ENDSEC
  0
SECTION
  2
CLASSES
  0
CLASS
  1
ACDBDICTIONARYWDFLT
  2
AcDbDictionaryWithDefault
  3
ObjectDBX Classes
 90
        0
280
     0
281
     0
  0
CLASS
  1
ACDBPLACEHOLDER
  2
AcDbPlaceHolder
  3
ObjectDBX Classes
 90
        0
280
     0
281
     0
  0
CLASS
  1
LAYOUT
  2
AcDbLayout
  3
ObjectDBX Classes
 90
        0
280
     0
281
     0
  0
CLASS
  1
DICTIONARYVAR
  2
AcDbDictionaryVar
  3
ObjectDBX Classes
 90
        0
280
     0
281
     0
  0
CLASS
  1
TABLESTYLE
  2
AcDbTableStyle
  3
ObjectDBX Classes
 90
     4095
280
     0
281
     0
  0
CLASS
  1
MATERIAL
  2
AcDbMaterial
  3
ObjectDBX Classes
 90
     1153
280
     0
281
     0
  0
CLASS
  1
VISUALSTYLE
  2
AcDbVisualStyle
  3
ObjectDBX Classes
 90
     4095
280
     0
281
     0
  0
CLASS
  1
SCALE
  2
AcDbScale
  3
ObjectDBX Classes
 90
     1153
280
     0
281
     0
  0
CLASS
  1
MLEADERSTYLE
  2
AcDbMLeaderStyle
  3
ACDB_MLEADERSTYLE_CLASS
 90
     4095
280
     0
281
     0
  0
CLASS
  1
CELLSTYLEMAP
  2
AcDbCellStyleMap
  3
ObjectDBX Classes
 90
     1152
280
     0
281
     0
  0
CLASS
  1
EXACXREFPANELOBJECT
  2
ExAcXREFPanelObject
  3
EXAC_ESW
 90
    33793
280
     0
281
     0
  0
CLASS
  1
NPOCOLLECTION
  2
AcDbImpNonPersistentObjectsCollection
  3
ObjectDBX Classes
 90
    33921
280
     0
281
     0
  0
CLASS
  1
LAYER_INDEX
  2
AcDbLayerIndex
  3
ObjectDBX Classes
 90
    32768
280
     0
281
     0
  0
CLASS
  1
SPATIAL_INDEX
  2
AcDbSpatialIndex
  3
ObjectDBX Classes
 90
    32768
280
     0
281
     0
  0
CLASS
  1
IDBUFFER
  2
AcDbIdBuffer
  3
ObjectDBX Classes
 90
    32768
280
     0
281
     0
  0
CLASS
  1
ACDBSECTIONVIEWSTYLE
  2
AcDbSectionViewStyle
  3
ObjectDBX Classes
 90
     1025
280
     0
281
     0
  0
CLASS
  1
ACDBDETAILVIEWSTYLE
  2
AcDbDetailViewStyle
  3
ObjectDBX Classes
 90
     1025
280
     0
281
     0
  0
CLASS
  1
XRECORD
  2
AcDbXrecord
  3
ObjectDBX Classes
 90
        0
280
     0
281
     0
  0
ENDSEC
  0
SECTION
  2
TABLES
  0
TABLE
  2
VPORT
  5
8
102
{ACAD_XDICTIONARY
360
B461
102
}
330
0
100
AcDbSymbolTable
 70
     1
  0
VPORT
  5
EA
330
8
100
AcDbSymbolTableRecord
100
AcDbViewportTableRecord
  2
*Active
 70
     0
 10
0.0
 20
0.0
 11
1.0
 21
1.0
 12
20.15853957524361
 22
-12.06381175127325
 13
0.0
 23
0.0
 14
10.0
 24
10.0
 15
10.0
 25
10.0
 16
0.0
 26
0.0
 36
1.0
 17
0.0
 27
0.0
 37
0.0
 40
790.4007306149476
 41
0.9846153846153846
 42
50.0
 43
0.0
 44
0.0
 50
0.0
 51
0.0
 71
     0
 72
  1000
 73
     1
 74
     3
 75
     0
 76
     1
 77
     0
 78
     0
281
     0
 65
     1
110
0.0
120
0.0
130
0.0
111
1.0
121
0.0
131
0.0
112
0.0
122
1.0
132
0.0
 79
     0
146
0.0
1001
ACAD_NAV_VCDISPLAY
1070
     3
  0
ENDTAB
  0
TABLE
  2
LTYPE
  5
5
330
0
100
AcDbSymbolTable
 70
     1
  0
LTYPE
  5
14
330
5
100
AcDbSymbolTableRecord
100
AcDbLinetypeTableRecord
  2
ByBlock
 70
     0
  3

 72
    65
 73
     0
 40
0.0
  0
LTYPE
  5
15
330
5
100
AcDbSymbolTableRecord
100
AcDbLinetypeTableRecord
  2
ByLayer
 70
     0
  3

 72
    65
 73
     0
 40
0.0
  0
LTYPE
  5
16
330
5
100
AcDbSymbolTableRecord
100
AcDbLinetypeTableRecord
  2
Continuous
 70
     0
  3
Solid line
 72
    65
 73
     0
 40
0.0
  0
ENDTAB
  0
TABLE
  2
LAYER
  5
2
102
{ACAD_XDICTIONARY
360
1FF
102
}
330
0
100
AcDbSymbolTable
 70
     1
  0
LAYER
  5
10
102
{ACAD_XDICTIONARY
360
13C
102
}
330
2
100
AcDbSymbolTableRecord
100
AcDbLayerTableRecord
  2
0
 70
     0
 62
     7
  6
Continuous
370
    -3
390
F
  0
ENDTAB
  0
TABLE
  2
STYLE
  5
3
330
0
100
AcDbSymbolTable
 70
     1
  0
STYLE
  5
11
330
3
100
AcDbSymbolTableRecord
100
AcDbTextStyleTableRecord
  2
Standard
 70
     0
 40
0.0
 41
1.0
 50
0.0
 71
     0
 42
2.5
  3
arial.ttf
  4

1001
ACAD
1000
Arial
1071
       34
  0
ENDTAB
  0
TABLE
  2
VIEW
  5
6
330
0
100
AcDbSymbolTable
 70
     0
  0
ENDTAB
  0
TABLE
  2
UCS
  5
7
330
0
100
AcDbSymbolTable
 70
     0
  0
ENDTAB
  0
TABLE
  2
APPID
  5
9
330
0
100
AcDbSymbolTable
 70
     8
  0
APPID
  5
12
330
9
100
AcDbSymbolTableRecord
100
AcDbRegAppTableRecord
  2
ACAD
 70
     0
  0
APPID
  5
9E
330
9
100
AcDbSymbolTableRecord
100
AcDbRegAppTableRecord
  2
ACAD_PSEXT
 70
     0
  0
APPID
  5
133
330
9
100
AcDbSymbolTableRecord
100
AcDbRegAppTableRecord
  2
AcadAnnoPO
 70
     0
  0
APPID
  5
134
330
9
100
AcDbSymbolTableRecord
100
AcDbRegAppTableRecord
  2
AcadAnnotative
 70
     0
  0
APPID
  5
135
330
9
100
AcDbSymbolTableRecord
100
AcDbRegAppTableRecord
  2
ACAD_DSTYLE_DIMJAG
 70
     0
  0
APPID
  5
136
330
9
100
AcDbSymbolTableRecord
100
AcDbRegAppTableRecord
  2
ACAD_DSTYLE_DIMTALN
 70
     0
  0
APPID
  5
165
330
9
100
AcDbSymbolTableRecord
100
AcDbRegAppTableRecord
  2
ACAD_MLEADERVER
 70
     0
  0
APPID
  5
217
330
9
100
AcDbSymbolTableRecord
100
AcDbRegAppTableRecord
  2
ACAD_NAV_VCDISPLAY
 70
     0
  0
ENDTAB
  0
TABLE
  2
DIMSTYLE
  5
A
330
0
100
AcDbSymbolTable
 70
     1
100
AcDbDimStyleTable
 71
     0
  0
DIMSTYLE
105
27
330
A
100
AcDbSymbolTableRecord
100
AcDbDimStyleTableRecord
  2
ISO-25
 70
     0
 41
2.5
 42
0.625
 43
3.75
 44
1.25
 73
     0
 74
     0
 77
     1
 78
     8
140
2.5
141
2.5
143
0.03937007874016
147
0.625
171
     3
172
     1
271
     2
272
     2
274
     3
278
    44
283
     0
284
     8
340
11
  0
ENDTAB
  0
TABLE
  2
BLOCK_RECORD
  5
1
330
0
100
AcDbSymbolTable
 70
     7
  0
BLOCK_RECORD
  5
1F
102
{ACAD_XDICTIONARY
360
1CE
102
}
330
1
100
AcDbSymbolTableRecord
100
AcDbBlockTableRecord
  2
*Model_Space
340
22
  0
BLOCK_RECORD
  5
D2
102
{ACAD_XDICTIONARY
360
B414
102
}
330
1
100
AcDbSymbolTableRecord
100
AcDbBlockTableRecord
  2
*Paper_Space
340
D3
  0
BLOCK_RECORD
  5
D6
102
{ACAD_XDICTIONARY
360
B416
102
}
330
1
100
AcDbSymbolTableRecord
100
AcDbBlockTableRecord
  2
*Paper_Space0
340
D7
  0
BLOCK_RECORD
  5
B1DE
330
1
100
AcDbSymbolTableRecord
100
AcDbBlockTableRecord
  2
SPR47_200-Front
340
0
102
{BLKREFS
331
B40A
102
}
  0
BLOCK_RECORD
  5
B243
330
1
100
AcDbSymbolTableRecord
100
AcDbBlockTableRecord
  2
SPR47_200-Left
340
0
102
{BLKREFS
331
B40B
102
}
  0
BLOCK_RECORD
  5
B27F
330
1
100
AcDbSymbolTableRecord
100
AcDbBlockTableRecord
  2
SPR47_200-Right
340
0
102
{BLKREFS
331
B40C
102
}
  0
BLOCK_RECORD
  5
B2BD
330
1
100
AcDbSymbolTableRecord
100
AcDbBlockTableRecord
  2
SPR47_200-Top
340
0
102
{BLKREFS
331
B40D
102
}
  0
BLOCK_RECORD
  5
B309
330
1
100
AcDbSymbolTableRecord
100
AcDbBlockTableRecord
  2
SPR47_200-Bottom
340
0
102
{BLKREFS
331
B40E
102
}
  0
BLOCK_RECORD
  5
B343
330
1
100
AcDbSymbolTableRecord
100
AcDbBlockTableRecord
  2
SPR47_200-ISO
340
0
102
{BLKREFS
331
B40F
102
}
  0
ENDTAB
  0
ENDSEC
  0
SECTION
  2
BLOCKS
  0
BLOCK
  5
20
330
1F
100
AcDbEntity
  8
0
100
AcDbBlockBegin
  2
*Model_Space
 70
     0
 10
0.0
 20
0.0
 30
0.0
  3
*Model_Space
  1

  0
ENDBLK
  5
21
330
1F
100
AcDbEntity
  8
0
100
AcDbBlockEnd
  0
BLOCK
  5
D4
330
D2
100
AcDbEntity
 67
     1
  8
0
100
AcDbBlockBegin
  2
*Paper_Space
 70
     0
 10
0.0
 20
0.0
 30
0.0
  3
*Paper_Space
  1

  0
ENDBLK
  5
D5
330
D2
100
AcDbEntity
 67
     1
  8
0
100
AcDbBlockEnd
  0
BLOCK
  5
D8
330
D6
100
AcDbEntity
 67
     1
  8
0
100
AcDbBlockBegin
  2
*Paper_Space0
 70
     0
 10
0.0
 20
0.0
 30
0.0
  3
*Paper_Space0
  1

  0
ENDBLK
  5
D9
330
D6
100
AcDbEntity
 67
     1
  8
0
100
AcDbBlockEnd
  0
BLOCK
  5
B1DF
330
B1DE
100
AcDbEntity
  8
0
100
AcDbBlockBegin
  2
SPR47_200-Front
 70
     0
 10
0.0
 20
0.0
 30
0.0
  3
SPR47_200-Front
  1

  0
LINE
  5
B1E1
330
B1DE
100
AcDbEntity
  8
0
100
AcDbLine
 10
66.027090561
 20
6.269999999999996
 30
0.0
 11
61.027090561
 21
1.269999999999996
 31
0.0
  0
LINE
  5
B1E2
330
B1DE
100
AcDbEntity
  8
0
100
AcDbLine
 10
-61.02709056100002
 20
1.269999999999996
 30
0.0
 11
-66.02709056100002
 21
6.269999999999997
 31
0.0
  0
LINE
  5
B1E3
330
B1DE
100
AcDbEntity
  8
0
100
AcDbLine
 10
-66.02709056100001
 20
72.27000000000001
 30
0.0
 11
-61.02709056100001
 21
77.27000000000001
 31
0.0
  0
LINE
  5
B1E4
330
B1DE
100
AcDbEntity
  8
0
100
AcDbLine
 10
61.027090561
 20
77.27000000000001
 30
0.0
 11
66.02709056099998
 21
72.27000000000001
 31
0.0
  0
LINE
  5
B1E5
330
B1DE
100
AcDbEntity
  8
0
100
AcDbLine
 10
66.02709056099998
 20
72.27000000000001
 30
0.0
 11
66.027090561
 21
6.269999999999997
 31
0.0
  0
LINE
  5
B1E6
330
B1DE
100
AcDbEntity
  8
0
100
AcDbLine
 10
-66.02709056100002
 20
6.269999999999997
 30
0.0
 11
-66.02709056100001
 21
72.27000000000001
 31
0.0
  0
LINE
  5
B1E7
330
B1DE
100
AcDbEntity
  8
0
100
AcDbLine
 10
19.99999999999999
 20
77.27000000000001
 30
0.0
 11
61.027090561
 21
77.27000000000001
 31
0.0
  0
LINE
  5
B1E8
330
B1DE
100
AcDbEntity
  8
0
100
AcDbLine
 10
-20.00000000000001
 20
1.269999999999987
 30
0.0
 11
-61.02709056100002
 21
1.269999999999996
 31
0.0
  0
LINE
  5
B1E9
330
B1DE
100
AcDbEntity
  8
0
100
AcDbLine
 10
61.027090561
 20
1.269999999999996
 30
0.0
 11
19.99999999999999
 21
1.269999999999987
 31
0.0
  0
ARC
  5
B1EA
330
B1DE
100
AcDbEntity
  8
0
100
AcDbCircle
 10
19.99999999999999
 20
78.77000000000004
 30
0.0
 40
1.5
100
AcDbArc
 50
90.0
 51
270.0
  0
LINE
  5
B1EB
330
B1DE
100
AcDbEntity
  8
0
100
AcDbLine
 10
-61.02709056100001
 20
77.27000000000001
 30
0.0
 11
-20.00000000000001
 21
77.27000000000001
 31
0.0
  0
ARC
  5
B1EC
330
B1DE
100
AcDbEntity
  8
0
100
AcDbCircle
 10
-20.00000000000001
 20
78.77000000000001
 30
0.0
 40
1.5
100
AcDbArc
 50
270.0
 51
90.0
  0
LINE
  5
B1ED
330
B1DE
100
AcDbEntity
  8
0
100
AcDbLine
 10
24.99999999999996
 20
80.27000000000002
 30
0.0
 11
24.99999999999995
 21
85.27000000000002
 31
0.0
  0
LINE
  5
B1EE
330
B1DE
100
AcDbEntity
  8
0
100
AcDbLine
 10
24.99999999999995
 20
85.27000000000002
 30
0.0
 11
23.49999999999995
 21
85.27000000000002
 31
0.0
  0
LINE
  5
B1EF
330
B1DE
100
AcDbEntity
  8
0
100
AcDbLine
 10
23.49999999999995
 20
85.27000000000002
 30
0.0
 11
23.49999999999996
 21
80.27000000000002
 31
0.0
  0
LINE
  5
B1F0
330
B1DE
100
AcDbEntity
  8
0
100
AcDbLine
 10
23.49999999999996
 20
80.27000000000002
 30
0.0
 11
24.99999999999996
 21
80.27000000000002
 31
0.0
  0
LINE
  5
B1F1
330
B1DE
100
AcDbEntity
  8
0
100
AcDbLine
 10
23.49999999999995
 20
195.67
 30
0.0
 11
24.99999999999995
 21
195.67
 31
0.0
  0
LINE
  5
B1F2
330
B1DE
100
AcDbEntity
  8
0
100
AcDbLine
 10
24.99999999999995
 20
195.67
 30
0.0
 11
24.99999999999996
 21
200.67
 31
0.0
  0
LINE
  5
B1F3
330
B1DE
100
AcDbEntity
  8
0
100
AcDbLine
 10
-25.0
 20
85.27000000000001
 30
0.0
 11
-25.0
 21
80.27000000000002
 31
0.0
  0
LINE
  5
B1F4
330
B1DE
100
AcDbEntity
  8
0
100
AcDbLine
 10
-25.0
 20
80.27000000000002
 30
0.0
 11
-23.50000000000001
 21
80.27000000000002
 31
0.0
  0
LINE
  5
B1F5
330
B1DE
100
AcDbEntity
  8
0
100
AcDbLine
 10
-23.50000000000001
 20
80.27000000000002
 30
0.0
 11
-23.50000000000001
 21
85.27000000000001
 31
0.0
  0
LINE
  5
B1F6
330
B1DE
100
AcDbEntity
  8
0
100
AcDbLine
 10
-23.50000000000001
 20
85.27000000000001
 30
0.0
 11
-25.0
 21
85.27000000000001
 31
0.0
  0
LINE
  5
B1F7
330
B1DE
100
AcDbEntity
  8
0
100
AcDbLine
 10
-25.0
 20
200.67
 30
0.0
 11
-25.0
 21
195.67
 31
0.0
  0
LINE
  5
B1F8
330
B1DE
100
AcDbEntity
  8
0
100
AcDbLine
 10
-25.0
 20
195.67
 30
0.0
 11
-23.50000000000001
 21
195.67
 31
0.0
  0
LINE
  5
B1F9
330
B1DE
100
AcDbEntity
  8
0
100
AcDbLine
 10
24.99999999999996
 20
200.67
 30
0.0
 11
23.49999999999996
 21
200.67
 31
0.0
  0
LINE
  5
B1FA
330
B1DE
100
AcDbEntity
  8
0
100
AcDbLine
 10
23.49999999999996
 20
200.67
 30
0.0
 11
23.49999999999995
 21
195.67
 31
0.0
  0
LINE
  5
B1FB
330
B1DE
100
AcDbEntity
  8
0
100
AcDbLine
 10
-23.50000000000001
 20
195.67
 30
0.0
 11
-23.50000000000001
 21
200.67
 31
0.0
  0
LINE
  5
B1FC
330
B1DE
100
AcDbEntity
  8
0
100
AcDbLine
 10
-23.50000000000001
 20
200.67
 30
0.0
 11
-25.0
 21
200.67
 31
0.0
  0
LINE
  5
B1FD
330
B1DE
100
AcDbEntity
  8
0
100
AcDbLine
 10
24.99999999999997
 20
-28.42608254450006
 30
0.0
 11
25.0
 21
-21.3550147326346
 31
0.0
  0
LINE
  5
B1FE
330
B1DE
100
AcDbEntity
  8
0
100
AcDbLine
 10
25.0
 20
-21.3550147326346
 30
0.0
 11
23.5
 21
-21.35501473263461
 31
0.0
  0
LINE
  5
B1FF
330
B1DE
100
AcDbEntity
  8
0
100
AcDbLine
 10
23.5
 20
-21.35501473263461
 30
0.0
 11
23.5
 21
-28.42608254450006
 31
0.0
  0
LINE
  5
B200
330
B1DE
100
AcDbEntity
  8
0
100
AcDbLine
 10
23.5
 20
-28.42608254450006
 30
0.0
 11
24.99999999999997
 21
-28.42608254450006
 31
0.0
  0
LINE
  5
B201
330
B1DE
100
AcDbEntity
  8
0
100
AcDbLine
 10
-24.99999999999998
 20
-21.35501473263461
 30
0.0
 11
-24.99999999999996
 21
-28.42608254450007
 31
0.0
  0
LINE
  5
B202
330
B1DE
100
AcDbEntity
  8
0
100
AcDbLine
 10
-24.99999999999996
 20
-28.42608254450007
 30
0.0
 11
-23.49999999999998
 21
-28.42608254450007
 31
0.0
  0
LINE
  5
B203
330
B1DE
100
AcDbEntity
  8
0
100
AcDbLine
 10
-23.49999999999998
 20
-28.42608254450007
 30
0.0
 11
-23.49999999999998
 21
-21.35501473263462
 31
0.0
  0
LINE
  5
B204
330
B1DE
100
AcDbEntity
  8
0
100
AcDbLine
 10
-23.49999999999998
 20
-21.35501473263462
 30
0.0
 11
-24.99999999999998
 21
-21.35501473263461
 31
0.0
  0
LINE
  5
B205
330
B1DE
100
AcDbEntity
  8
0
100
AcDbLine
 10
24.99999999999995
 20
85.27000000000002
 30
0.0
 11
24.99999999999995
 21
195.67
 31
0.0
  0
LINE
  5
B206
330
B1DE
100
AcDbEntity
  8
0
100
AcDbLine
 10
23.49999999999995
 20
195.67
 30
0.0
 11
23.49999999999995
 21
85.27000000000002
 31
0.0
  0
LINE
  5
B207
330
B1DE
100
AcDbEntity
  8
0
100
AcDbLine
 10
-25.0
 20
195.67
 30
0.0
 11
-25.0
 21
85.27000000000001
 31
0.0
  0
LINE
  5
B208
330
B1DE
100
AcDbEntity
  8
0
100
AcDbLine
 10
-23.50000000000001
 20
195.67
 30
0.0
 11
-23.50000000000001
 21
85.27000000000001
 31
0.0
  0
LINE
  5
B209
330
B1DE
100
AcDbEntity
  8
0
100
AcDbLine
 10
19.99999999999999
 20
80.27000000000002
 30
0.0
 11
22.9
 21
80.27000000000002
 31
0.0
  0
LINE
  5
B20A
330
B1DE
100
AcDbEntity
  8
0
100
AcDbLine
 10
-22.90000000000001
 20
80.27000000000002
 30
0.0
 11
-20.00000000000001
 21
80.27000000000001
 31
0.0
  0
LINE
  5
B20B
330
B1DE
100
AcDbEntity
  8
0
100
AcDbLine
 10
-22.90000000000001
 20
200.67
 30
0.0
 11
22.89999999999999
 21
200.67
 31
0.0
  0
LINE
  5
B20C
330
B1DE
100
AcDbEntity
  8
0
100
AcDbLine
 10
25.00000000000137
 20
-2.263131642256723
 30
0.0
 11
25.0
 21
-21.3550147326346
 31
0.0
  0
LINE
  5
B20D
330
B1DE
100
AcDbEntity
  8
0
100
AcDbLine
 10
23.50000000000109
 20
-2.263131642256723
 30
0.0
 11
23.5
 21
-21.35501473263461
 31
0.0
  0
ELLIPSE
  5
B20E
330
B1DE
100
AcDbEntity
  8
0
100
AcDbEllipse
 10
22.9
 20
-54.16476937947049
 30
0.0
 11
0.6000000000000089
 21
0.0000000000000633
 31
0.0
210
0.0
220
0.0
230
1.0
 40
0.7071067811865475
 41
4.712388980384556
 42
6.28318530717955
  0
ELLIPSE
  5
B20F
330
B1DE
100
AcDbEntity
  8
0
100
AcDbEllipse
 10
22.9
 20
-54.16476937947049
 30
0.0
 11
2.100000000000031
 21
0.0000000000001776
 31
0.0
210
0.0
220
0.0
230
1.0
 40
0.7071067811865487
 41
4.712388980384798
 42
6.283185307179921
  0
LINE
  5
B210
330
B1DE
100
AcDbEntity
  8
0
100
AcDbLine
 10
25.00000000000137
 20
-2.263131642256723
 30
0.0
 11
23.50000000000109
 21
-2.263131642256723
 31
0.0
  0
SPLINE
  5
B211
330
B1DE
100
AcDbEntity
  8
0
100
AcDbSpline
210
0.0
220
0.0
230
1.0
 70
     8
 71
     3
 72
     8
 73
     4
 74
     0
 42
0.000000001
 43
0.0000000001
 40
-1.0
 40
-1.0
 40
-1.0
 40
-1.0
 40
0.0
 40
0.0
 40
0.0
 40
0.0
 10
-18.51767776087197
 20
-0.0003899405809507
 30
0.0
 10
-18.47251992073929
 20
-0.1594792109354212
 30
0.0
 10
-18.51586474390302
 20
-0.3214850446753226
 30
0.0
 10
-18.64054197002046
 20
-0.4246540092928796
 30
0.0
  0
SPLINE
  5
B212
330
B1DE
100
AcDbEntity
  8
0
100
AcDbSpline
210
0.0
220
0.0
230
1.0
 70
     8
 71
     3
 72
     8
 73
     4
 74
     0
 42
0.000000001
 43
0.0000000001
 40
-1.0
 40
-1.0
 40
-1.0
 40
-1.0
 40
0.0
 40
0.0
 40
0.0
 40
0.0
 10
18.64054197002043
 20
-0.4246540092928796
 30
0.0
 10
18.51586474390248
 20
-0.321485044675317
 30
0.0
 10
18.472519920741
 20
-0.1594792109354448
 30
0.0
 10
18.51767776087193
 20
-0.0003899405809503
 30
0.0
  0
LINE
  5
B213
330
B1DE
100
AcDbEntity
  8
0
100
AcDbLine
 10
-23.50000000000082
 20
-2.263131642256723
 30
0.0
 11
-25.00000000000105
 21
-2.263131642256723
 31
0.0
  0
SPLINE
  5
B214
330
B1DE
100
AcDbEntity
  8
0
100
AcDbSpline
210
0.0
220
0.0
230
1.0
 70
     8
 71
     3
 72
     8
 73
     4
 74
     0
 42
0.000000001
 43
0.0000000001
 40
-1.0
 40
-1.0
 40
-1.0
 40
-1.0
 40
0.0
 40
0.0
 40
0.0
 40
0.0
 10
-22.90000000000001
 20
-1.466158262545961
 30
0.0
 10
-23.214159265359
 20
-1.873237411765349
 30
0.0
 10
-23.50000000000002
 20
-2.078196639180356
 30
0.0
 10
-23.50000000000003
 20
-2.263131641492208
 30
0.0
  0
LINE
  5
B215
330
B1DE
100
AcDbEntity
  8
0
100
AcDbLine
 10
-22.29315533855961
 20
-1.037054287303417
 30
0.0
 11
-22.90000000000001
 21
-1.466158262545978
 31
0.0
  0
LINE
  5
B216
330
B1DE
100
AcDbEntity
  8
0
100
AcDbLine
 10
-20.00000000000001
 20
-1.037054287303418
 30
0.0
 11
-22.29315533855961
 21
-1.037054287303417
 31
0.0
  0
ELLIPSE
  5
B217
330
B1DE
100
AcDbEntity
  8
0
100
AcDbEllipse
 10
-20.00000000000001
 20
0.0236058844764062
 30
0.0
 11
-1.5
 21
0.0000000000001095
 31
0.0
210
0.0
220
0.0
230
1.0
 40
0.7071067811865479
 41
1.570796326795022
 42
2.705254581962135
  0
ARC
  5
B218
330
B1DE
100
AcDbEntity
  8
0
100
AcDbCircle
 10
-20.00000000000001
 20
-0.2299999999999986
 30
0.0
 40
1.5
100
AcDbArc
 50
8.805075259701395
 51
90.0
  0
SPLINE
  5
B219
330
B1DE
100
AcDbEntity
  8
0
100
AcDbSpline
210
0.0
220
0.0
230
1.0
 70
     8
 71
     3
 72
     8
 73
     4
 74
     0
 42
0.000000001
 43
0.0000000001
 40
-1.0
 40
-1.0
 40
-1.0
 40
-1.0
 40
0.0
 40
0.0
 40
0.0
 40
0.0
 10
23.50000000000001
 20
-2.263131641492226
 30
0.0
 10
23.5
 20
-2.078196639180565
 30
0.0
 10
23.21415926535896
 20
-1.873237411765211
 30
0.0
 10
22.89999999999999
 20
-1.466158262546001
 30
0.0
  0
ELLIPSE
  5
B21A
330
B1DE
100
AcDbEntity
  8
0
100
AcDbEllipse
 10
19.99999999999999
 20
0.0236058844764062
 30
0.0
 11
-1.5
 21
0.0
 31
0.0
210
0.0
220
0.0
230
1.0
 40
0.7071067811865479
 41
0.4363380716279126
 42
1.570796326794896
  0
LINE
  5
B21B
330
B1DE
100
AcDbEntity
  8
0
100
AcDbLine
 10
22.2931553385596
 20
-1.037054287303429
 30
0.0
 11
19.99999999999999
 21
-1.037054287303429
 31
0.0
  0
LINE
  5
B21C
330
B1DE
100
AcDbEntity
  8
0
100
AcDbLine
 10
22.89999999999999
 20
-1.466158262545995
 30
0.0
 11
22.2931553385596
 21
-1.037054287303429
 31
0.0
  0
ARC
  5
B21D
330
B1DE
100
AcDbEntity
  8
0
100
AcDbCircle
 10
19.99999999999999
 20
-0.2299999999999986
 30
0.0
 40
1.5
100
AcDbArc
 50
90.0
 51
171.1949247402986
  0
SPLINE
  5
B21E
330
B1DE
100
AcDbEntity
  8
0
100
AcDbSpline
210
0.0
220
0.0
230
1.0
 70
     8
 71
     3
 72
    16
 73
    12
 74
     0
 42
0.000000001
 43
0.0000000001
 40
0.0
 40
0.0
 40
0.0
 40
0.0
 40
0.0356537247263639
 40
0.0356537247263639
 40
0.0703704956494384
 40
0.0703704956494384
 40
0.1051345640159356
 40
0.1051345640159356
 40
0.1398962718723298
 40
0.1398962718723298
 40
0.1538885733138071
 40
0.1538885733138071
 40
0.1538885733138071
 40
0.1538885733138071
 10
-23.99950000000106
 20
-2.263131641492217
 30
0.0
 10
-23.99949999999908
 20
-2.263131641490664
 30
0.0
 10
-23.97955867539903
 20
-2.263059951014958
 30
0.0
 10
-23.90583172168597
 20
-2.250836451210329
 30
0.0
 10
-23.85213458025768
 20
-2.238741830457856
 30
0.0
 10
-23.72293730426493
 20
-2.194102190372979
 30
0.0
 10
-23.64591985430803
 20
-2.160888677209959
 30
0.0
 10
-23.4857406408736
 20
-2.069479202557272
 30
0.0
 10
-23.40073655254915
 20
-2.010107098219907
 30
0.0
 10
-23.28901418346163
 20
-1.909831885123077
 30
0.0
 10
-23.25758437990897
 20
-1.878943669859081
 30
0.0
 10
-23.22742155524386
 20
-1.846191951394264
 30
0.0
  0
SPLINE
  5
B21F
330
B1DE
100
AcDbEntity
  8
0
100
AcDbSpline
210
0.0
220
0.0
230
1.0
 70
     8
 71
     3
 72
    16
 73
    12
 74
     0
 42
0.000000001
 43
0.0000000001
 40
0.0
 40
0.0
 40
0.0
 40
0.0
 40
0.0356266149295353
 40
0.0356266149295353
 40
0.07034477017785
 40
0.07034477017785
 40
0.1051087694958005
 40
0.1051087694958005
 40
0.13987048079993
 40
0.13987048079993
 40
0.1538888647031146
 40
0.1538888647031146
 40
0.1538888647031146
 40
0.1538888647031146
 10
23.22742155524371
 20
-1.846191951394158
 30
0.0
 10
23.30422088264704
 20
-1.92958301232193
 30
0.0
 10
23.38999615128358
 20
-2.001172959718084
 30
0.0
 10
23.55564046639942
 20
-2.113266523252467
 30
0.0
 10
23.63750261647581
 20
-2.155953002269238
 30
0.0
 10
23.78182181889362
 20
-2.217016702985131
 30
0.0
 10
23.84591305087795
 20
-2.236189491806941
 30
0.0
 10
23.94238223263917
 20
-2.258395304184385
 30
0.0
 10
23.97587215056008
 20
-2.261811174866239
 30
0.0
 10
23.99650501536168
 20
-2.263130971916434
 30
0.0
 10
23.99950000000014
 20
-2.263131641491625
 30
0.0
 10
23.9995000000005
 20
-2.263131641492235
 30
0.0
  0
LINE
  5
B220
330
B1DE
100
AcDbEntity
  8
0
100
AcDbLine
 10
25.0
 20
-54.16476937947052
 30
0.0
 11
24.99999999999997
 21
-28.42608254450006
 31
0.0
  0
LINE
  5
B221
330
B1DE
100
AcDbEntity
  8
0
100
AcDbLine
 10
-24.99999999999996
 20
-28.42608254450007
 30
0.0
 11
-24.99999999999999
 21
-54.16476937947052
 31
0.0
  0
LINE
  5
B222
330
B1DE
100
AcDbEntity
  8
0
100
AcDbLine
 10
-23.49999999999998
 20
-28.42608254450007
 30
0.0
 11
-23.49999999999999
 21
-54.16476937947052
 31
0.0
  0
LINE
  5
B223
330
B1DE
100
AcDbEntity
  8
0
100
AcDbLine
 10
23.5
 20
-54.16476937947052
 30
0.0
 11
23.5
 21
-28.42608254450006
 31
0.0
  0
LINE
  5
B224
330
B1DE
100
AcDbEntity
  8
0
100
AcDbLine
 10
-22.89999999999999
 20
-55.64969361996226
 30
0.0
 11
22.9
 21
-55.64969361996226
 31
0.0
  0
LINE
  5
B225
330
B1DE
100
AcDbEntity
  8
0
100
AcDbLine
 10
-22.89999999999999
 20
-54.58903344818243
 30
0.0
 11
22.9
 21
-54.58903344818243
 31
0.0
  0
LINE
  5
B226
330
B1DE
100
AcDbEntity
  8
0
100
AcDbLine
 10
-25.00000000000105
 20
-2.263131642256723
 30
0.0
 11
-24.99999999999998
 21
-21.35501473263461
 31
0.0
  0
LINE
  5
B227
330
B1DE
100
AcDbEntity
  8
0
100
AcDbLine
 10
-23.50000000000082
 20
-2.263131642256723
 30
0.0
 11
-23.49999999999998
 21
-21.35501473263462
 31
0.0
  0
CIRCLE
  5
B228
330
B1DE
100
AcDbEntity
  8
0
100
AcDbCircle
 10
13.49999999999999
 20
172.27
 30
0.0
 40
2.5
  0
CIRCLE
  5
B229
330
B1DE
100
AcDbEntity
  8
0
100
AcDbCircle
 10
13.49999999999999
 20
132.2699999999999
 30
0.0
 40
2.5
  0
CIRCLE
  5
B22A
330
B1DE
100
AcDbEntity
  8
0
100
AcDbCircle
 10
13.49999999999999
 20
92.26999999999998
 30
0.0
 40
2.5
  0
CIRCLE
  5
B22B
330
B1DE
100
AcDbEntity
  8
0
100
AcDbCircle
 10
13.49999999999999
 20
52.26999999999998
 30
0.0
 40
2.5
  0
CIRCLE
  5
B22C
330
B1DE
100
AcDbEntity
  8
0
100
AcDbCircle
 10
3.499999999999988
 20
189.77
 30
0.0
 40
2.5
  0
CIRCLE
  5
B22D
330
B1DE
100
AcDbEntity
  8
0
100
AcDbCircle
 10
3.499999999999988
 20
109.77
 30
0.0
 40
2.5
  0
CIRCLE
  5
B22E
330
B1DE
100
AcDbEntity
  8
0
100
AcDbCircle
 10
3.499999999999988
 20
29.76999999999998
 30
0.0
 40
2.5
  0
CIRCLE
  5
B22F
330
B1DE
100
AcDbEntity
  8
0
100
AcDbCircle
 10
-3.500000000000008
 20
149.77
 30
0.0
 40
2.5
  0
CIRCLE
  5
B230
330
B1DE
100
AcDbEntity
  8
0
100
AcDbCircle
 10
-3.500000000000008
 20
69.77
 30
0.0
 40
2.5
  0
CIRCLE
  5
B231
330
B1DE
100
AcDbEntity
  8
0
100
AcDbCircle
 10
-13.50000000000001
 20
166.27
 30
0.0
 40
2.5
  0
CIRCLE
  5
B232
330
B1DE
100
AcDbEntity
  8
0
100
AcDbCircle
 10
-13.50000000000001
 20
126.27
 30
0.0
 40
2.5
  0
CIRCLE
  5
B233
330
B1DE
100
AcDbEntity
  8
0
100
AcDbCircle
 10
-13.50000000000001
 20
86.26999999999998
 30
0.0
 40
2.5
  0
CIRCLE
  5
B234
330
B1DE
100
AcDbEntity
  8
0
100
AcDbCircle
 10
-13.50000000000001
 20
46.26999999999998
 30
0.0
 40
2.5
  0
CIRCLE
  5
B235
330
B1DE
100
AcDbEntity
  8
0
100
AcDbCircle
 10
-36.52709056100003
 20
69.76999999999998
 30
0.0
 40
2.5
  0
CIRCLE
  5
B236
330
B1DE
100
AcDbEntity
  8
0
100
AcDbCircle
 10
30.52709056099998
 20
69.76999999999998
 30
0.0
 40
2.5
  0
CIRCLE
  5
B237
330
B1DE
100
AcDbEntity
  8
0
100
AcDbCircle
 10
-30.52709056100002
 20
29.76999999999999
 30
0.0
 40
2.5
  0
CIRCLE
  5
B238
330
B1DE
100
AcDbEntity
  8
0
100
AcDbCircle
 10
36.52709056099998
 20
29.76999999999998
 30
0.0
 40
2.5
  0
ELLIPSE
  5
B239
330
B1DE
100
AcDbEntity
  8
0
100
AcDbEllipse
 10
-0.0000000000000088
 20
0.0236058830621924
 30
0.0
 11
2.5
 21
-0.0000000000000007
 31
0.0
210
0.0
220
0.0
230
1.0
 40
0.7071067811865479
 41
3.397965979781211
 42
6.026811980988168
  0
SPLINE
  5
B23A
330
B1DE
100
AcDbEntity
  8
0
100
AcDbSpline
210
0.0
220
0.0
230
1.0
 70
     8
 71
     3
 72
     8
 73
     4
 74
     0
 42
0.000000001
 43
0.0000000001
 40
-1.0
 40
-1.0
 40
-1.0
 40
-1.0
 40
0.0
 40
0.0
 40
0.0
 40
0.0
 10
-2.418289920131925
 20
-0.4246540092928794
 30
0.0
 10
-2.491899723307357
 20
-0.3163012038163562
 30
0.0
 10
-2.516094836485431
 20
-0.1581319339514783
 30
0.0
 10
-2.489433513812969
 20
-0.0003899405809506
 30
0.0
  0
SPLINE
  5
B23B
330
B1DE
100
AcDbEntity
  8
0
100
AcDbSpline
210
0.0
220
0.0
230
1.0
 70
     8
 71
     3
 72
     8
 73
     4
 74
     0
 42
0.000000001
 43
0.0000000001
 40
-1.0
 40
-1.0
 40
-1.0
 40
-1.0
 40
0.0
 40
0.0
 40
0.0
 40
0.0
 10
2.489433513812951
 20
-0.00038994058095
 30
0.0
 10
2.516094836485347
 20
-0.1581319339515037
 30
0.0
 10
2.491899723307332
 20
-0.3163012038163635
 30
0.0
 10
2.418289920131908
 20
-0.4246540092928798
 30
0.0
  0
ARC
  5
B23C
330
B1DE
100
AcDbEntity
  8
0
100
AcDbCircle
 10
-0.0000000000000088
 20
-0.2300000019999987
 30
0.0
 40
2.5
100
AcDbArc
 50
5.269701372195739
 51
174.7302986278042
  0
ELLIPSE
  5
B23D
330
B1DE
100
AcDbEntity
  8
0
100
AcDbEllipse
 10
-22.89999999999999
 20
-54.16476937947046
 30
0.0
 11
-2.100000000000081
 21
0.0000000000000042
 31
0.0
210
0.0
220
0.0
230
1.0
 40
0.7071067811865476
 41
0.0
 42
1.5707963267949
  0
ELLIPSE
  5
B23E
330
B1DE
100
AcDbEntity
  8
0
100
AcDbEllipse
 10
-22.89999999999999
 20
-54.1647693794705
 30
0.0
 11
-0.6000000000000089
 21
0.0000000000000178
 31
0.0
210
0.0
220
0.0
230
1.0
 40
0.7071067811865541
 41
0.0000000000000422
 42
1.570796326794939
  0
LINE
  5
B23F
330
B1DE
100
AcDbEntity
  8
0
100
AcDbLine
 10
22.9
 20
200.67
 30
0.0
 11
23.5
 21
200.67
 31
0.0
  0
LINE
  5
B240
330
B1DE
100
AcDbEntity
  8
0
100
AcDbLine
 10
22.9
 20
80.27000000000002
 30
0.0
 11
23.5
 21
80.27000000000002
 31
0.0
  0
LINE
  5
B241
330
B1DE
100
AcDbEntity
  8
0
100
AcDbLine
 10
-23.50000000000001
 20
200.67
 30
0.0
 11
-22.90000000000001
 21
200.67
 31
0.0
  0
LINE
  5
B242
330
B1DE
100
AcDbEntity
  8
0
100
AcDbLine
 10
-23.50000000000001
 20
80.27000000000002
 30
0.0
 11
-22.90000000000001
 21
80.27000000000002
 31
0.0
  0
ENDBLK
  5
B1E0
330
B1DE
100
AcDbEntity
  8
0
100
AcDbBlockEnd
  0
BLOCK
  5
B244
330
B243
100
AcDbEntity
  8
0
100
AcDbBlockBegin
  2
SPR47_200-Left
 70
     0
 10
0.0
 20
0.0
 30
0.0
  3
SPR47_200-Left
  1

  0
LINE
  5
B246
330
B243
100
AcDbEntity
  8
0
100
AcDbLine
 10
0.0
 20
-0.0003899405809503
 30
0.0
 11
0.0
 21
1.270000000000001
 31
0.0
  0
LINE
  5
B247
330
B243
100
AcDbEntity
  8
0
100
AcDbLine
 10
62.91118318265866
 20
-2.263131642256723
 30
0.0
 11
4.362741700911252
 21
-2.263131641492261
 31
0.0
  0
SPLINE
  5
B248
330
B243
100
AcDbEntity
  8
0
100
AcDbSpline
210
0.0
220
0.0
230
1.0
 70
     8
 71
     3
 72
     8
 73
     4
 74
     0
 42
0.000000001
 43
0.0000000001
 40
0.0
 40
0.0
 40
0.0
 40
0.0
 40
1.0
 40
1.0
 40
1.0
 40
1.0
 10
0.6150757595082662
 20
-1.485314181072701
 30
0.0
 10
0.253984383346817
 20
-1.124222804911251
 30
0.0
 10
0.0000000000000162
 20
-0.5572023868215977
 30
0.0
 10
0.000000000000016
 20
-0.000389940580951
 30
0.0
  0
SPLINE
  5
B249
330
B243
100
AcDbEntity
  8
0
100
AcDbSpline
210
0.0
220
0.0
230
1.0
 70
     8
 71
     3
 72
     8
 73
     4
 74
     0
 42
0.000000001
 43
0.0000000001
 40
-1.0
 40
-1.0
 40
-1.0
 40
-1.0
 40
0.0
 40
0.0
 40
0.0
 40
0.0
 10
1.500000000000016
 20
-0.0003899405809507
 30
0.0
 10
1.500000000000016
 20
-0.1594792109354212
 30
0.0
 10
1.57256696667053
 20
-0.3214850446753226
 30
0.0
 10
1.675735931288087
 20
-0.4246540092928796
 30
0.0
  0
SPLINE
  5
B24A
330
B243
100
AcDbEntity
  8
0
100
AcDbSpline
210
0.0
220
0.0
230
1.0
 70
     8
 71
     3
 72
     8
 73
     4
 74
     0
 42
0.000000001
 43
0.0000000001
 40
-1.0
 40
-1.0
 40
-1.0
 40
-1.0
 40
0.0
 40
0.0
 40
0.0
 40
0.0
 10
2.717240184541176
 20
-1.466158262545961
 30
0.0
 10
3.124319333760565
 20
-1.873237411765349
 30
0.0
 10
3.733518404783584
 20
-2.078196639180356
 30
0.0
 10
4.362741700911275
 20
-2.263131641492208
 30
0.0
  0
LINE
  5
B24B
330
B243
100
AcDbEntity
  8
0
100
AcDbLine
 10
2.717240184541164
 20
-1.466158262545978
 30
0.0
 11
2.364040347338522
 21
-1.819358099748621
 31
0.0
  0
LINE
  5
B24C
330
B243
100
AcDbEntity
  8
0
100
AcDbLine
 10
2.364040347338522
 20
-1.819358099748621
 30
0.0
 11
1.656580012761342
 21
-2.526818434325799
 31
0.0
  0
SPLINE
  5
B24D
330
B243
100
AcDbEntity
  8
0
100
AcDbSpline
210
0.0
220
0.0
230
1.0
 70
     8
 71
     3
 72
     8
 73
     4
 74
     0
 42
0.000000001
 43
0.0000000001
 40
0.0
 40
0.0
 40
0.0
 40
0.0
 40
1.0
 40
1.0
 40
1.0
 40
1.0
 10
4.362741700911244
 20
-2.263131641492239
 30
0.0
 10
3.178158037513771
 20
-2.633557006450169
 30
0.0
 10
2.063659161980744
 20
-2.93389758354517
 30
0.0
 10
1.656580012761355
 20
-2.526818434325782
 30
0.0
  0
LINE
  5
B24E
330
B243
100
AcDbEntity
  8
0
100
AcDbLine
 10
1.656580012761342
 20
-2.526818434325799
 30
0.0
 11
1.227476037518785
 21
-2.097714459083233
 31
0.0
  0
LINE
  5
B24F
330
B243
100
AcDbEntity
  8
0
100
AcDbLine
 10
2.288136209298602
 20
-1.037054287303417
 30
0.0
 11
2.717240184541164
 21
-1.466158262545978
 31
0.0
  0
LINE
  5
B250
330
B243
100
AcDbEntity
  8
0
100
AcDbLine
 10
2.288136209298602
 20
-1.037054287303417
 30
0.0
 11
1.227476037518785
 21
-2.097714459083233
 31
0.0
  0
LINE
  5
B251
330
B243
100
AcDbEntity
  8
0
100
AcDbLine
 10
1.227476037518818
 20
-2.097714459083221
 30
0.0
 11
0.6150757595082825
 21
-1.485314181072685
 31
0.0
  0
LINE
  5
B252
330
B243
100
AcDbEntity
  8
0
100
AcDbLine
 10
1.675735931288088
 20
-0.4246540092928799
 30
0.0
 11
2.288136209298623
 21
-1.037054287303415
 31
0.0
  0
LINE
  5
B253
330
B243
100
AcDbEntity
  8
0
100
AcDbLine
 10
1.675735931288087
 20
-0.4246540092928796
 30
0.0
 11
1.322536092814676
 21
-0.7778538477662912
 31
0.0
  0
LINE
  5
B254
330
B243
100
AcDbEntity
  8
0
100
AcDbLine
 10
1.322536092814676
 20
-0.7778538477662912
 30
0.0
 11
0.6150757595082663
 21
-1.485314181072701
 31
0.0
  0
LINE
  5
B255
330
B243
100
AcDbEntity
  8
0
100
AcDbLine
 10
1.499999999999997
 20
-0.0003899405809504
 30
0.0
 11
1.000499995421189
 21
-0.0003899405809504
 31
0.0
  0
LINE
  5
B256
330
B243
100
AcDbEntity
  8
0
100
AcDbLine
 10
1.000499995421189
 20
-0.0003899405809504
 30
0.0
 11
0.0
 21
-0.0003899405809504
 31
0.0
  0
LINE
  5
B257
330
B243
100
AcDbEntity
  8
0
100
AcDbLine
 10
1.49999999999999
 20
1.270000000000001
 30
0.0
 11
1.499999999999989
 21
-0.0003899405809504
 31
0.0
  0
LINE
  5
B258
330
B243
100
AcDbEntity
  8
0
100
AcDbLine
 10
0.0
 20
6.269999999999997
 30
0.0
 11
0.0
 21
1.269999999999995
 31
0.0
  0
LINE
  5
B259
330
B243
100
AcDbEntity
  8
0
100
AcDbLine
 10
0.0
 20
77.27000000000001
 30
0.0
 11
0.0
 21
72.27000000000001
 31
0.0
  0
LINE
  5
B25A
330
B243
100
AcDbEntity
  8
0
100
AcDbLine
 10
1.500000000000025
 20
1.269999999999996
 30
0.0
 11
1.500000000000028
 21
6.269999999999997
 31
0.0
  0
LINE
  5
B25B
330
B243
100
AcDbEntity
  8
0
100
AcDbLine
 10
1.500000000000028
 20
6.269999999999997
 30
0.0
 11
0.0
 21
6.269999999999997
 31
0.0
  0
LINE
  5
B25C
330
B243
100
AcDbEntity
  8
0
100
AcDbLine
 10
0.0
 20
1.269999999999996
 30
0.0
 11
1.500000000000025
 21
1.269999999999996
 31
0.0
  0
LINE
  5
B25D
330
B243
100
AcDbEntity
  8
0
100
AcDbLine
 10
0.0
 20
72.27000000000001
 30
0.0
 11
1.500000000000028
 21
72.27000000000001
 31
0.0
  0
LINE
  5
B25E
330
B243
100
AcDbEntity
  8
0
100
AcDbLine
 10
1.500000000000028
 20
72.27000000000001
 30
0.0
 11
1.500000000000025
 21
77.27000000000001
 31
0.0
  0
LINE
  5
B25F
330
B243
100
AcDbEntity
  8
0
100
AcDbLine
 10
1.500000000000025
 20
77.27000000000001
 30
0.0
 11
0.0
 21
77.27000000000001
 31
0.0
  0
LINE
  5
B260
330
B243
100
AcDbEntity
  8
0
100
AcDbLine
 10
0.0
 20
6.269999999999997
 30
0.0
 11
0.0
 21
72.27000000000001
 31
0.0
  0
LINE
  5
B261
330
B243
100
AcDbEntity
  8
0
100
AcDbLine
 10
0.0
 20
77.27000000000001
 30
0.0
 11
0.0
 21
80.27000000000001
 31
0.0
  0
LINE
  5
B262
330
B243
100
AcDbEntity
  8
0
100
AcDbLine
 10
1.500000000000028
 20
6.269999999999997
 30
0.0
 11
1.500000000000028
 21
72.27000000000001
 31
0.0
  0
LINE
  5
B263
330
B243
100
AcDbEntity
  8
0
100
AcDbLine
 10
1.499999999999999
 20
77.27000000000001
 30
0.0
 11
1.499999999999999
 21
80.27000000000001
 31
0.0
  0
LINE
  5
B264
330
B243
100
AcDbEntity
  8
0
100
AcDbLine
 10
0.0
 20
80.27000000000002
 30
0.0
 11
0.0
 21
200.67
 31
0.0
  0
LINE
  5
B265
330
B243
100
AcDbEntity
  8
0
100
AcDbLine
 10
2.100000000000004
 20
200.67
 30
0.0
 11
0.0
 21
200.67
 31
0.0
  0
LINE
  5
B266
330
B243
100
AcDbEntity
  8
0
100
AcDbLine
 10
0.0
 20
80.27000000000002
 30
0.0
 11
2.100000000000004
 21
80.27000000000002
 31
0.0
  0
LINE
  5
B267
330
B243
100
AcDbEntity
  8
0
100
AcDbLine
 10
43.50000000000001
 20
85.27000000000001
 30
0.0
 11
38.50000000000001
 21
80.27000000000002
 31
0.0
  0
LINE
  5
B268
330
B243
100
AcDbEntity
  8
0
100
AcDbLine
 10
38.50000000000001
 20
200.67
 30
0.0
 11
43.50000000000001
 21
195.67
 31
0.0
  0
LINE
  5
B269
330
B243
100
AcDbEntity
  8
0
100
AcDbLine
 10
82.00306627386
 20
-21.35501473263461
 30
0.0
 11
82.00306627385998
 21
-28.42608254450007
 31
0.0
  0
CIRCLE
  5
B26A
330
B243
100
AcDbEntity
  8
0
100
AcDbCircle
 10
35.50000000000002
 20
187.77
 30
0.0
 40
2.5
  0
CIRCLE
  5
B26B
330
B243
100
AcDbEntity
  8
0
100
AcDbCircle
 10
35.50000000000002
 20
167.7699999999999
 30
0.0
 40
2.5
  0
CIRCLE
  5
B26C
330
B243
100
AcDbEntity
  8
0
100
AcDbCircle
 10
35.50000000000002
 20
147.77
 30
0.0
 40
2.5
  0
CIRCLE
  5
B26D
330
B243
100
AcDbEntity
  8
0
100
AcDbCircle
 10
35.50000000000002
 20
127.77
 30
0.0
 40
2.5
  0
CIRCLE
  5
B26E
330
B243
100
AcDbEntity
  8
0
100
AcDbCircle
 10
35.50000000000002
 20
107.77
 30
0.0
 40
2.5
  0
CIRCLE
  5
B26F
330
B243
100
AcDbEntity
  8
0
100
AcDbCircle
 10
35.50000000000002
 20
87.76999999999999
 30
0.0
 40
2.5
  0
LINE
  5
B270
330
B243
100
AcDbEntity
  8
0
100
AcDbLine
 10
43.50000000000001
 20
195.67
 30
0.0
 11
43.50000000000001
 21
85.27000000000001
 31
0.0
  0
LINE
  5
B271
330
B243
100
AcDbEntity
  8
0
100
AcDbLine
 10
2.100000000000004
 20
200.67
 30
0.0
 11
38.50000000000001
 21
200.67
 31
0.0
  0
LINE
  5
B272
330
B243
100
AcDbEntity
  8
0
100
AcDbLine
 10
38.50000000000001
 20
80.27000000000002
 30
0.0
 11
2.100000000000004
 21
80.27000000000002
 31
0.0
  0
LINE
  5
B273
330
B243
100
AcDbEntity
  8
0
100
AcDbLine
 10
82.00306627385998
 20
-28.42608254450007
 30
0.0
 11
56.26437943888955
 21
-54.16476937947052
 31
0.0
  0
LINE
  5
B274
330
B243
100
AcDbEntity
  8
0
100
AcDbLine
 10
62.91118318265866
 20
-2.263131642256723
 30
0.0
 11
82.00306627386
 21
-21.35501473263461
 31
0.0
  0
CIRCLE
  5
B275
330
B243
100
AcDbEntity
  8
0
100
AcDbCircle
 10
74.57844507130477
 20
-25.24410202925711
 30
0.0
 40
2.5
  0
ARC
  5
B276
330
B243
100
AcDbEntity
  8
0
100
AcDbCircle
 10
59.31559010709463
 20
-13.990452698916
 30
0.0
 40
0.8000000000000012
100
AcDbArc
 50
315.000000001042
 51
75.00000000104186
  0
LINE
  5
B277
330
B243
100
AcDbEntity
  8
0
100
AcDbLine
 10
59.88127553205416
 20
-14.55613812385494
 30
0.0
 11
56.81941335363088
 21
-17.61800030238964
 31
0.0
  0
ARC
  5
B278
330
B243
100
AcDbEntity
  8
0
100
AcDbCircle
 10
56.25372792867135
 20
-17.0523148774507
 30
0.0
 40
0.8
100
AcDbArc
 50
195.0000000010428
 51
315.0000000010428
  0
LINE
  5
B279
330
B243
100
AcDbEntity
  8
0
100
AcDbLine
 10
55.48098726764387
 20
-17.25937011354677
 30
0.0
 11
54.36026792735771
 21
-13.07678859487811
 31
0.0
  0
ARC
  5
B27A
330
B243
100
AcDbEntity
  8
0
100
AcDbCircle
 10
55.13300858838519
 20
-12.86973335878203
 30
0.0
 40
0.8000000000000014
100
AcDbArc
 50
75.00000000104188
 51
195.0000000010427
  0
LINE
  5
B27B
330
B243
100
AcDbEntity
  8
0
100
AcDbLine
 10
55.34006382445316
 20
-12.096992697747
 30
0.0
 11
59.5226453431626
 21
-13.21771203788096
 31
0.0
  0
LINE
  5
B27C
330
B243
100
AcDbEntity
  8
0
100
AcDbLine
 10
55.28251771018368
 20
-12.08382813389861
 30
0.0
 11
54.3471033635072
 21
-13.01924248060914
 31
0.0
  0
LINE
  5
B27D
330
B243
100
AcDbEntity
  8
0
100
AcDbLine
 10
54.77945519839778
 20
-55.64969361996226
 30
0.0
 11
1.656580012761343
 21
-2.526818434325797
 31
0.0
  0
LINE
  5
B27E
330
B243
100
AcDbEntity
  8
0
100
AcDbLine
 10
56.26437943888958
 20
-54.16476937947047
 30
0.0
 11
54.77945519839778
 21
-55.64969361996227
 31
0.0
  0
ENDBLK
  5
B245
330
B243
100
AcDbEntity
  8
0
100
AcDbBlockEnd
  0
BLOCK
  5
B280
330
B27F
100
AcDbEntity
  8
0
100
AcDbBlockBegin
  2
SPR47_200-Right
 70
     0
 10
0.0
 20
0.0
 30
0.0
  3
SPR47_200-Right
  1

  0
LINE
  5
B282
330
B27F
100
AcDbEntity
  8
0
100
AcDbLine
 10
-1.499999999999945
 20
6.269999999999996
 30
0.0
 11
-1.499999999999948
 21
1.269999999999996
 31
0.0
  0
LINE
  5
B283
330
B27F
100
AcDbEntity
  8
0
100
AcDbLine
 10
-1.499999999999948
 20
1.269999999999996
 30
0.0
 11
0.0
 21
1.269999999999987
 31
0.0
  0
LINE
  5
B284
330
B27F
100
AcDbEntity
  8
0
100
AcDbLine
 10
0.0
 20
1.269999999999987
 30
0.0
 11
0.0
 21
6.269999999999996
 31
0.0
  0
LINE
  5
B285
330
B27F
100
AcDbEntity
  8
0
100
AcDbLine
 10
0.0
 20
6.269999999999996
 30
0.0
 11
-1.499999999999945
 21
6.269999999999996
 31
0.0
  0
LINE
  5
B286
330
B27F
100
AcDbEntity
  8
0
100
AcDbLine
 10
-1.499999999999945
 20
72.27000000000001
 30
0.0
 11
0.0
 21
72.27000000000001
 31
0.0
  0
LINE
  5
B287
330
B27F
100
AcDbEntity
  8
0
100
AcDbLine
 10
0.0
 20
72.27000000000001
 30
0.0
 11
0.0
 21
77.27000000000001
 31
0.0
  0
LINE
  5
B288
330
B27F
100
AcDbEntity
  8
0
100
AcDbLine
 10
-1.499999999999948
 20
77.27000000000001
 30
0.0
 11
-1.499999999999945
 21
72.27000000000001
 31
0.0
  0
LINE
  5
B289
330
B27F
100
AcDbEntity
  8
0
100
AcDbLine
 10
0.0
 20
77.27000000000001
 30
0.0
 11
-1.499999999999948
 21
77.27000000000001
 31
0.0
  0
LINE
  5
B28A
330
B27F
100
AcDbEntity
  8
0
100
AcDbLine
 10
0.0
 20
72.27000000000001
 30
0.0
 11
0.0
 21
6.269999999999997
 31
0.0
  0
LINE
  5
B28B
330
B27F
100
AcDbEntity
  8
0
100
AcDbLine
 10
-1.499999999999945
 20
72.27000000000001
 30
0.0
 11
-1.499999999999945
 21
6.269999999999997
 31
0.0
  0
LINE
  5
B28C
330
B27F
100
AcDbEntity
  8
0
100
AcDbLine
 10
0.0
 20
80.27000000000002
 30
0.0
 11
0.0
 21
77.27000000000002
 31
0.0
  0
LINE
  5
B28D
330
B27F
100
AcDbEntity
  8
0
100
AcDbLine
 10
-1.499999999999974
 20
80.27000000000002
 30
0.0
 11
-1.499999999999974
 21
77.27000000000002
 31
0.0
  0
LINE
  5
B28E
330
B27F
100
AcDbEntity
  8
0
100
AcDbLine
 10
0.0
 20
1.270000000000001
 30
0.0
 11
0.0
 21
-0.0003899405809504
 31
0.0
  0
LINE
  5
B28F
330
B27F
100
AcDbEntity
  8
0
100
AcDbLine
 10
-4.362741700911231
 20
-2.263131641492261
 30
0.0
 11
-62.91118318265866
 21
-2.263131642256723
 31
0.0
  0
SPLINE
  5
B290
330
B27F
100
AcDbEntity
  8
0
100
AcDbSpline
210
0.0
220
0.0
230
1.0
 70
     8
 71
     3
 72
     8
 73
     4
 74
     0
 42
0.000000001
 43
0.0000000001
 40
0.0
 40
0.0
 40
0.0
 40
0.0
 40
1.0
 40
1.0
 40
1.0
 40
1.0
 10
-0.0000000000000078
 20
-0.0003899405809496
 30
0.0
 10
-0.0000000000000076
 20
-0.5572023868216805
 30
0.0
 10
-0.2539843833467894
 20
-1.124222804911232
 30
0.0
 10
-0.615075759508258
 20
-1.485314181072701
 30
0.0
  0
SPLINE
  5
B291
330
B27F
100
AcDbEntity
  8
0
100
AcDbSpline
210
0.0
220
0.0
230
1.0
 70
     8
 71
     3
 72
     8
 73
     4
 74
     0
 42
0.000000001
 43
0.0000000001
 40
-1.0
 40
-1.0
 40
-1.0
 40
-1.0
 40
0.0
 40
0.0
 40
0.0
 40
0.0
 10
-1.675735931288079
 20
-0.4246540092928796
 30
0.0
 10
-1.572566966670516
 20
-0.321485044675317
 30
0.0
 10
-1.500000000000007
 20
-0.1594792109354448
 30
0.0
 10
-1.500000000000007
 20
-0.0003899405809503
 30
0.0
  0
LINE
  5
B292
330
B27F
100
AcDbEntity
  8
0
100
AcDbLine
 10
-2.717240184541144
 20
-1.466158262545995
 30
0.0
 11
-2.3640403473388
 21
-1.819358099748338
 31
0.0
  0
SPLINE
  5
B293
330
B27F
100
AcDbEntity
  8
0
100
AcDbSpline
210
0.0
220
0.0
230
1.0
 70
     8
 71
     3
 72
     8
 73
     4
 74
     0
 42
0.000000001
 43
0.0000000001
 40
-1.0
 40
-1.0
 40
-1.0
 40
-1.0
 40
0.0
 40
0.0
 40
0.0
 40
0.0
 10
-4.362741700911273
 20
-2.263131641492226
 30
0.0
 10
-3.733518404783749
 20
-2.078196639180565
 30
0.0
 10
-3.124319333760402
 20
-1.873237411765211
 30
0.0
 10
-2.717240184541193
 20
-1.466158262546001
 30
0.0
  0
SPLINE
  5
B294
330
B27F
100
AcDbEntity
  8
0
100
AcDbSpline
210
0.0
220
0.0
230
1.0
 70
     8
 71
     3
 72
     8
 73
     4
 74
     0
 42
0.000000001
 43
0.0000000001
 40
0.0
 40
0.0
 40
0.0
 40
0.0
 40
1.0
 40
1.0
 40
1.0
 40
1.0
 10
-1.656580012761371
 20
-2.526818434325822
 30
0.0
 10
-2.06365916198058
 20
-2.933897583545031
 30
0.0
 10
-3.178158037513898
 20
-2.633557006450415
 30
0.0
 10
-4.362741700911238
 20
-2.263131641492261
 30
0.0
  0
LINE
  5
B295
330
B27F
100
AcDbEntity
  8
0
100
AcDbLine
 10
-2.3640403473388
 20
-1.819358099748338
 30
0.0
 11
-1.656580012761325
 21
-2.526818434325813
 31
0.0
  0
LINE
  5
B296
330
B27F
100
AcDbEntity
  8
0
100
AcDbLine
 10
-0.615075759508268
 20
-1.485314181072689
 30
0.0
 11
-1.227476037518804
 21
-2.097714459083225
 31
0.0
  0
LINE
  5
B297
330
B27F
100
AcDbEntity
  8
0
100
AcDbLine
 10
-0.615075759508258
 20
-1.4853141810727
 30
0.0
 11
-1.322536092811468
 21
-0.7778538477694906
 31
0.0
  0
LINE
  5
B298
330
B27F
100
AcDbEntity
  8
0
100
AcDbLine
 10
-1.322536092811468
 20
-0.7778538477694906
 30
0.0
 11
-1.675735931288079
 21
-0.4246540092928794
 31
0.0
  0
LINE
  5
B299
330
B27F
100
AcDbEntity
  8
0
100
AcDbLine
 10
-2.288136209298615
 20
-1.037054287303415
 30
0.0
 11
-1.675735931288078
 21
-0.4246540092928786
 31
0.0
  0
LINE
  5
B29A
330
B27F
100
AcDbEntity
  8
0
100
AcDbLine
 10
-2.288136209298579
 20
-1.037054287303429
 30
0.0
 11
-1.227476037518768
 21
-2.09771445908324
 31
0.0
  0
LINE
  5
B29B
330
B27F
100
AcDbEntity
  8
0
100
AcDbLine
 10
-1.227476037518768
 20
-2.09771445908324
 30
0.0
 11
-1.656580012761325
 21
-2.526818434325813
 31
0.0
  0
LINE
  5
B29C
330
B27F
100
AcDbEntity
  8
0
100
AcDbLine
 10
-2.717240184541144
 20
-1.466158262545995
 30
0.0
 11
-2.288136209298579
 21
-1.037054287303429
 31
0.0
  0
LINE
  5
B29D
330
B27F
100
AcDbEntity
  8
0
100
AcDbLine
 10
-1.499999999999974
 20
-0.0003899405809504
 30
0.0
 11
-1.000499995463311
 21
-0.0003899405809504
 31
0.0
  0
LINE
  5
B29E
330
B27F
100
AcDbEntity
  8
0
100
AcDbLine
 10
-1.000499995463311
 20
-0.0003899405809504
 30
0.0
 11
0.0
 21
-0.0003899405809504
 31
0.0
  0
LINE
  5
B29F
330
B27F
100
AcDbEntity
  8
0
100
AcDbLine
 10
-1.499999999999982
 20
-0.0003899405809503
 30
0.0
 11
-1.499999999999981
 21
1.270000000000001
 31
0.0
  0
LINE
  5
B2A0
330
B27F
100
AcDbEntity
  8
0
100
AcDbLine
 10
0.0
 20
80.27000000000002
 30
0.0
 11
0.0
 21
200.67
 31
0.0
  0
LINE
  5
B2A1
330
B27F
100
AcDbEntity
  8
0
100
AcDbLine
 10
0.0
 20
200.67
 30
0.0
 11
-2.099999999999967
 21
200.67
 31
0.0
  0
LINE
  5
B2A2
330
B27F
100
AcDbEntity
  8
0
100
AcDbLine
 10
-2.099999999999967
 20
80.27000000000002
 30
0.0
 11
0.0
 21
80.27000000000002
 31
0.0
  0
LINE
  5
B2A3
330
B27F
100
AcDbEntity
  8
0
100
AcDbLine
 10
-38.5
 20
80.27000000000002
 30
0.0
 11
-43.49999999999998
 21
85.27000000000002
 31
0.0
  0
LINE
  5
B2A4
330
B27F
100
AcDbEntity
  8
0
100
AcDbLine
 10
-43.49999999999998
 20
195.67
 30
0.0
 11
-38.5
 21
200.67
 31
0.0
  0
LINE
  5
B2A5
330
B27F
100
AcDbEntity
  8
0
100
AcDbLine
 10
-82.00306627386
 20
-28.42608254450006
 30
0.0
 11
-82.00306627385998
 21
-21.3550147326346
 31
0.0
  0
LINE
  5
B2A6
330
B27F
100
AcDbEntity
  8
0
100
AcDbLine
 10
-43.49999999999998
 20
85.27000000000002
 30
0.0
 11
-43.49999999999998
 21
195.67
 31
0.0
  0
LINE
  5
B2A7
330
B27F
100
AcDbEntity
  8
0
100
AcDbLine
 10
-2.099999999999967
 20
80.27000000000002
 30
0.0
 11
-38.5
 21
80.27000000000002
 31
0.0
  0
LINE
  5
B2A8
330
B27F
100
AcDbEntity
  8
0
100
AcDbLine
 10
-38.5
 20
200.67
 30
0.0
 11
-2.099999999999968
 21
200.67
 31
0.0
  0
CIRCLE
  5
B2A9
330
B27F
100
AcDbEntity
  8
0
100
AcDbCircle
 10
-35.5
 20
192.77
 30
0.0
 40
2.5
  0
CIRCLE
  5
B2AA
330
B27F
100
AcDbEntity
  8
0
100
AcDbCircle
 10
-35.5
 20
172.77
 30
0.0
 40
2.5
  0
CIRCLE
  5
B2AB
330
B27F
100
AcDbEntity
  8
0
100
AcDbCircle
 10
-35.5
 20
152.77
 30
0.0
 40
2.5
  0
CIRCLE
  5
B2AC
330
B27F
100
AcDbEntity
  8
0
100
AcDbCircle
 10
-35.5
 20
132.77
 30
0.0
 40
2.5
  0
CIRCLE
  5
B2AD
330
B27F
100
AcDbEntity
  8
0
100
AcDbCircle
 10
-35.5
 20
112.77
 30
0.0
 40
2.5
  0
CIRCLE
  5
B2AE
330
B27F
100
AcDbEntity
  8
0
100
AcDbCircle
 10
-35.5
 20
92.76999999999999
 30
0.0
 40
2.5
  0
LINE
  5
B2AF
330
B27F
100
AcDbEntity
  8
0
100
AcDbLine
 10
-62.91118318265866
 20
-2.263131642256723
 30
0.0
 11
-82.00306627385998
 21
-21.3550147326346
 31
0.0
  0
LINE
  5
B2B0
330
B27F
100
AcDbEntity
  8
0
100
AcDbLine
 10
-1.656580012761325
 20
-2.526818434325813
 30
0.0
 11
-54.77945519839777
 21
-55.64969361996226
 31
0.0
  0
LINE
  5
B2B1
330
B27F
100
AcDbEntity
  8
0
100
AcDbLine
 10
-54.77945519839775
 20
-55.64969361996226
 30
0.0
 11
-56.26437943888928
 21
-54.16476937947031
 31
0.0
  0
LINE
  5
B2B2
330
B27F
100
AcDbEntity
  8
0
100
AcDbLine
 10
-56.26437943888952
 20
-54.16476937947052
 30
0.0
 11
-82.00306627386
 21
-28.42608254450006
 31
0.0
  0
CIRCLE
  5
B2B3
330
B27F
100
AcDbEntity
  8
0
100
AcDbCircle
 10
-71.04291116530767
 20
-21.70856812338872
 30
0.0
 40
2.5
  0
ARC
  5
B2B4
330
B27F
100
AcDbEntity
  8
0
100
AcDbCircle
 10
-51.59747468238809
 20
-9.33419945291363
 30
0.0
 40
0.8000000000000015
100
AcDbArc
 50
344.9999999989572
 51
355.4526675359234
  0
LINE
  5
B2B5
330
B27F
100
AcDbEntity
  8
0
100
AcDbLine
 10
-50.82473402136063
 20
-9.541254689009706
 30
0.0
 11
-51.94545336164679
 21
-13.72383620767836
 31
0.0
  0
ARC
  5
B2B6
330
B27F
100
AcDbEntity
  8
0
100
AcDbCircle
 10
-52.71819402267426
 20
-13.51678097158229
 30
0.0
 40
0.8
100
AcDbArc
 50
224.9999999989572
 51
344.9999999989576
  0
LINE
  5
B2B7
330
B27F
100
AcDbEntity
  8
0
100
AcDbLine
 10
-53.28387944763379
 20
-14.08246639652124
 30
0.0
 11
-56.34574162605708
 21
-11.02060421798654
 31
0.0
  0
ARC
  5
B2B8
330
B27F
100
AcDbEntity
  8
0
100
AcDbCircle
 10
-55.78005620109753
 20
-10.45491879304759
 30
0.0
 40
0.8000000000000014
100
AcDbArc
 50
104.9999999989575
 51
224.9999999989572
  0
LINE
  5
B2B9
330
B27F
100
AcDbEntity
  8
0
100
AcDbLine
 10
-55.9871114371655
 20
-9.682178132012559
 30
0.0
 11
-51.80452991845606
 21
-8.561458791878598
 31
0.0
  0
ARC
  5
B2BA
330
B27F
100
AcDbEntity
  8
0
100
AcDbCircle
 10
-51.59747468238809
 20
-9.33419945291363
 30
0.0
 40
0.8000000000000014
100
AcDbArc
 50
49.59733246198601
 51
104.9999999989581
  0
LINE
  5
B2BB
330
B27F
100
AcDbEntity
  8
0
100
AcDbLine
 10
-51.07895039795263
 20
-8.724992947325674
 30
0.0
 11
-50.79999294004348
 21
-9.397625556585486
 31
0.0
  0
ARC
  5
B2BC
330
B27F
100
AcDbEntity
  8
0
100
AcDbCircle
 10
-55.13300858838519
 20
-12.86973335878203
 30
0.0
 40
0.8000000000000015
100
AcDbArc
 50
349.2288663267696
 51
100.7711336711455
  0
ENDBLK
  5
B281
330
B27F
100
AcDbEntity
  8
0
100
AcDbBlockEnd
  0
BLOCK
  5
B2BE
330
B2BD
100
AcDbEntity
  8
0
100
AcDbBlockBegin
  2
SPR47_200-Top
 70
     0
 10
0.0
 20
0.0
 30
0.0
  3
SPR47_200-Top
  1

  0
LINE
  5
B2C0
330
B2BD
100
AcDbEntity
  8
0
100
AcDbLine
 10
66.02709056099998
 20
-1.499999999999945
 30
0.0
 11
66.02709056099998
 21
0.0
 31
0.0
  0
LINE
  5
B2C1
330
B2BD
100
AcDbEntity
  8
0
100
AcDbLine
 10
-61.02709056100001
 20
0.0
 30
0.0
 11
-66.02709056100001
 21
0.0
 31
0.0
  0
LINE
  5
B2C2
330
B2BD
100
AcDbEntity
  8
0
100
AcDbLine
 10
66.02709056099998
 20
0.0
 30
0.0
 11
61.027090561
 21
0.0
 31
0.0
  0
LINE
  5
B2C3
330
B2BD
100
AcDbEntity
  8
0
100
AcDbLine
 10
-66.02709056100001
 20
0.0
 30
0.0
 11
-66.02709056100001
 21
-1.500000000000028
 31
0.0
  0
LINE
  5
B2C4
330
B2BD
100
AcDbEntity
  8
0
100
AcDbLine
 10
-66.02709056100001
 20
-1.500000000000028
 30
0.0
 11
-61.02709056100001
 21
-1.500000000000025
 31
0.0
  0
LINE
  5
B2C5
330
B2BD
100
AcDbEntity
  8
0
100
AcDbLine
 10
-61.02709056100001
 20
-1.500000000000025
 30
0.0
 11
-61.02709056100001
 21
0.0
 31
0.0
  0
LINE
  5
B2C6
330
B2BD
100
AcDbEntity
  8
0
100
AcDbLine
 10
61.027090561
 20
-1.499999999999948
 30
0.0
 11
66.02709056099998
 21
-1.499999999999945
 31
0.0
  0
LINE
  5
B2C7
330
B2BD
100
AcDbEntity
  8
0
100
AcDbLine
 10
61.027090561
 20
0.0
 30
0.0
 11
61.027090561
 21
-1.499999999999948
 31
0.0
  0
LINE
  5
B2C8
330
B2BD
100
AcDbEntity
  8
0
100
AcDbLine
 10
-61.02709056100001
 20
0.0
 30
0.0
 11
-22.90000000000001
 21
0.0
 31
0.0
  0
LINE
  5
B2C9
330
B2BD
100
AcDbEntity
  8
0
100
AcDbLine
 10
22.9
 20
0.0
 30
0.0
 11
61.027090561
 21
0.0
 31
0.0
  0
LINE
  5
B2CA
330
B2BD
100
AcDbEntity
  8
0
100
AcDbLine
 10
24.91246117974981
 20
-1.499999999999971
 30
0.0
 11
61.027090561
 21
-1.499999999999948
 31
0.0
  0
LINE
  5
B2CB
330
B2BD
100
AcDbEntity
  8
0
100
AcDbLine
 10
-61.02709056100001
 20
-1.500000000000025
 30
0.0
 11
-24.91246117974982
 21
-1.500000000000002
 31
0.0
  0
LINE
  5
B2CC
330
B2BD
100
AcDbEntity
  8
0
100
AcDbLine
 10
22.9
 20
0.0
 30
0.0
 11
-22.9
 21
0.0
 31
0.0
  0
LINE
  5
B2CD
330
B2BD
100
AcDbEntity
  8
0
100
AcDbLine
 10
24.99999999999996
 20
-38.5
 30
0.0
 11
25.0
 21
-2.099999999999968
 31
0.0
  0
LINE
  5
B2CE
330
B2BD
100
AcDbEntity
  8
0
100
AcDbLine
 10
-25.00000000000001
 20
-2.100000000000004
 30
0.0
 11
-25.0
 21
-38.50000000000001
 31
0.0
  0
LINE
  5
B2CF
330
B2BD
100
AcDbEntity
  8
0
100
AcDbLine
 10
23.5
 20
-2.099999999999967
 30
0.0
 11
23.49999999999996
 21
-38.5
 31
0.0
  0
LINE
  5
B2D0
330
B2BD
100
AcDbEntity
  8
0
100
AcDbLine
 10
-22.90000000000001
 20
-1.500000000000003
 30
0.0
 11
22.89999999999999
 21
-1.499999999999976
 31
0.0
  0
LINE
  5
B2D1
330
B2BD
100
AcDbEntity
  8
0
100
AcDbLine
 10
-23.50000000000001
 20
-38.50000000000001
 30
0.0
 11
-23.50000000000001
 21
-2.100000000000004
 31
0.0
  0
LINE
  5
B2D2
330
B2BD
100
AcDbEntity
  8
0
100
AcDbLine
 10
23.49999999999995
 20
-43.49999999999998
 30
0.0
 11
24.99999999999995
 21
-43.49999999999998
 31
0.0
  0
LINE
  5
B2D3
330
B2BD
100
AcDbEntity
  8
0
100
AcDbLine
 10
24.99999999999995
 20
-43.49999999999998
 30
0.0
 11
24.99999999999996
 21
-38.5
 31
0.0
  0
LINE
  5
B2D4
330
B2BD
100
AcDbEntity
  8
0
100
AcDbLine
 10
-25.0
 20
-38.50000000000001
 30
0.0
 11
-25.0
 21
-43.50000000000001
 31
0.0
  0
LINE
  5
B2D5
330
B2BD
100
AcDbEntity
  8
0
100
AcDbLine
 10
-25.0
 20
-43.50000000000001
 30
0.0
 11
-23.50000000000001
 21
-43.50000000000001
 31
0.0
  0
LINE
  5
B2D6
330
B2BD
100
AcDbEntity
  8
0
100
AcDbLine
 10
24.99999999999996
 20
-38.5
 30
0.0
 11
23.49999999999996
 21
-38.5
 31
0.0
  0
LINE
  5
B2D7
330
B2BD
100
AcDbEntity
  8
0
100
AcDbLine
 10
23.49999999999996
 20
-38.5
 30
0.0
 11
23.49999999999995
 21
-43.49999999999998
 31
0.0
  0
LINE
  5
B2D8
330
B2BD
100
AcDbEntity
  8
0
100
AcDbLine
 10
-23.50000000000001
 20
-43.50000000000001
 30
0.0
 11
-23.50000000000001
 21
-38.50000000000001
 31
0.0
  0
LINE
  5
B2D9
330
B2BD
100
AcDbEntity
  8
0
100
AcDbLine
 10
-23.50000000000001
 20
-38.50000000000001
 30
0.0
 11
-25.0
 21
-38.50000000000001
 31
0.0
  0
LINE
  5
B2DA
330
B2BD
100
AcDbEntity
  8
0
100
AcDbLine
 10
25.0
 20
-82.00306627385998
 30
0.0
 11
23.5
 21
-82.00306627385998
 31
0.0
  0
LINE
  5
B2DB
330
B2BD
100
AcDbEntity
  8
0
100
AcDbLine
 10
-23.49999999999998
 20
-82.00306627386
 30
0.0
 11
-24.99999999999998
 21
-82.00306627386
 31
0.0
  0
LINE
  5
B2DC
330
B2BD
100
AcDbEntity
  8
0
100
AcDbLine
 10
25.00000000000137
 20
-62.91118318265866
 30
0.0
 11
25.0
 21
-82.00306627385998
 31
0.0
  0
LINE
  5
B2DD
330
B2BD
100
AcDbEntity
  8
0
100
AcDbLine
 10
23.50000000000109
 20
-62.91118318265866
 30
0.0
 11
23.5
 21
-82.00306627385998
 31
0.0
  0
ELLIPSE
  5
B2DE
330
B2BD
100
AcDbEntity
  8
0
100
AcDbEllipse
 10
22.9
 20
-56.26437943888952
 30
0.0
 11
0.6000000000000089
 21
0.0000000000000571
 31
0.0
210
0.0
220
0.0
230
1.0
 40
0.7071067811865475
 41
0.0
 42
1.570796326794747
  0
LINE
  5
B2DF
330
B2BD
100
AcDbEntity
  8
0
100
AcDbLine
 10
25.00000000000137
 20
-62.91118318265866
 30
0.0
 11
23.50000000000109
 21
-62.91118318265866
 31
0.0
  0
LINE
  5
B2E0
330
B2BD
100
AcDbEntity
  8
0
100
AcDbLine
 10
25.0
 20
-43.49999999999998
 30
0.0
 11
25.00000000000137
 21
-62.91118318265866
 31
0.0
  0
LINE
  5
B2E1
330
B2BD
100
AcDbEntity
  8
0
100
AcDbLine
 10
-25.00000000000105
 20
-62.91118318265866
 30
0.0
 11
-25.00000000000106
 21
-43.50000000000001
 31
0.0
  0
SPLINE
  5
B2E2
330
B2BD
100
AcDbEntity
  8
0
100
AcDbSpline
210
0.0
220
0.0
230
1.0
 70
     8
 71
     3
 72
     8
 73
     4
 74
     0
 42
0.000000001
 43
0.0000000001
 40
-1.0
 40
-1.0
 40
-1.0
 40
-1.0
 40
0.0
 40
0.0
 40
0.0
 40
0.0
 10
-18.51767776087197
 20
-1.500000000000016
 30
0.0
 10
-18.47251992073929
 20
-1.500000000000016
 30
0.0
 10
-18.51586474390302
 20
-1.57256696667053
 30
0.0
 10
-18.64054197002046
 20
-1.675735931288087
 30
0.0
  0
SPLINE
  5
B2E3
330
B2BD
100
AcDbEntity
  8
0
100
AcDbSpline
210
0.0
220
0.0
230
1.0
 70
     8
 71
     3
 72
     8
 73
     4
 74
     0
 42
0.000000001
 43
0.0000000001
 40
-1.0
 40
-1.0
 40
-1.0
 40
-1.0
 40
0.0
 40
0.0
 40
0.0
 40
0.0
 10
18.64054197002043
 20
-1.675735931288079
 30
0.0
 10
18.51586474390248
 20
-1.572566966670516
 30
0.0
 10
18.472519920741
 20
-1.500000000000007
 30
0.0
 10
18.51767776087193
 20
-1.500000000000007
 30
0.0
  0
LINE
  5
B2E4
330
B2BD
100
AcDbEntity
  8
0
100
AcDbLine
 10
-23.50000000000082
 20
-62.91118318265866
 30
0.0
 11
-25.00000000000105
 21
-62.91118318265866
 31
0.0
  0
LINE
  5
B2E5
330
B2BD
100
AcDbEntity
  8
0
100
AcDbLine
 10
-23.50000000000001
 20
-43.50000000000001
 30
0.0
 11
-23.50000000000082
 21
-62.91118318265866
 31
0.0
  0
SPLINE
  5
B2E6
330
B2BD
100
AcDbEntity
  8
0
100
AcDbSpline
210
0.0
220
0.0
230
1.0
 70
     8
 71
     3
 72
     8
 73
     4
 74
     0
 42
0.000000001
 43
0.0000000001
 40
-1.0
 40
-1.0
 40
-1.0
 40
-1.0
 40
0.0
 40
0.0
 40
0.0
 40
0.0
 10
-22.90000000000001
 20
-2.717240184541176
 30
0.0
 10
-23.214159265359
 20
-3.124319333760565
 30
0.0
 10
-23.50000000000002
 20
-3.733518404783584
 30
0.0
 10
-23.50000000000003
 20
-4.362741700911275
 30
0.0
  0
LINE
  5
B2E7
330
B2BD
100
AcDbEntity
  8
0
100
AcDbLine
 10
-22.90000000000001
 20
-2.717240184541164
 30
0.0
 11
-22.90000000000001
 21
-2.364040347338522
 31
0.0
  0
LINE
  5
B2E8
330
B2BD
100
AcDbEntity
  8
0
100
AcDbLine
 10
-22.90000000000001
 20
-2.364040347338522
 30
0.0
 11
-22.90000000000001
 21
-1.656580012761342
 31
0.0
  0
SPLINE
  5
B2E9
330
B2BD
100
AcDbEntity
  8
0
100
AcDbSpline
210
0.0
220
0.0
230
1.0
 70
     8
 71
     3
 72
     8
 73
     4
 74
     0
 42
0.000000001
 43
0.0000000001
 40
0.8233926083861696
 40
0.8233926083861696
 40
0.8233926083861696
 40
0.8233926083861696
 40
1.0
 40
1.0
 40
1.0
 40
1.0
 10
-23.4683307934395
 20
-1.934942494001947
 30
0.0
 10
-23.28528852951265
 20
-1.822430928281039
 30
0.0
 10
-23.0941899694223
 20
-1.728473199485368
 30
0.0
 10
-22.90000000000001
 20
-1.656580012761355
 30
0.0
  0
LINE
  5
B2EA
330
B2BD
100
AcDbEntity
  8
0
100
AcDbLine
 10
-22.90000000000001
 20
-1.656580012761342
 30
0.0
 11
-22.67856242236213
 21
-1.49999999999999
 31
0.0
  0
LINE
  5
B2EB
330
B2BD
100
AcDbEntity
  8
0
100
AcDbLine
 10
-22.29315533855961
 20
-2.288136209298602
 30
0.0
 11
-22.90000000000001
 21
-2.717240184541164
 31
0.0
  0
LINE
  5
B2EC
330
B2BD
100
AcDbEntity
  8
0
100
AcDbLine
 10
-22.29315533855961
 20
-2.288136209298602
 30
0.0
 11
-22.29315533855961
 21
-1.500000000000003
 31
0.0
  0
LINE
  5
B2ED
330
B2BD
100
AcDbEntity
  8
0
100
AcDbLine
 10
-20.00000000000001
 20
-2.288136209298601
 30
0.0
 11
-22.29315533855961
 21
-2.288136209298602
 31
0.0
  0
ELLIPSE
  5
B2EE
330
B2BD
100
AcDbEntity
  8
0
100
AcDbEllipse
 10
-20.00000000000001
 20
-1.227476037518802
 30
0.0
 11
-1.5
 21
0.0000000000001091
 31
0.0
210
0.0
220
0.0
230
1.0
 40
0.7071067811865474
 41
1.570796326795022
 42
2.705254581962135
  0
LINE
  5
B2EF
330
B2BD
100
AcDbEntity
  8
0
100
AcDbLine
 10
-18.64054197002045
 20
-1.675735931288087
 30
0.0
 11
-18.64054197002045
 21
-1.500000000000001
 31
0.0
  0
LINE
  5
B2F0
330
B2BD
100
AcDbEntity
  8
0
100
AcDbLine
 10
23.50000000000109
 20
-62.91118318265866
 30
0.0
 11
23.50000000000109
 21
-43.49999999999998
 31
0.0
  0
LINE
  5
B2F1
330
B2BD
100
AcDbEntity
  8
0
100
AcDbLine
 10
22.89999999999999
 20
-2.717240184541144
 30
0.0
 11
22.89999999999999
 21
-2.3640403473388
 31
0.0
  0
SPLINE
  5
B2F2
330
B2BD
100
AcDbEntity
  8
0
100
AcDbSpline
210
0.0
220
0.0
230
1.0
 70
     8
 71
     3
 72
     8
 73
     4
 74
     0
 42
0.000000001
 43
0.0000000001
 40
-1.0
 40
-1.0
 40
-1.0
 40
-1.0
 40
0.0
 40
0.0
 40
0.0
 40
0.0
 10
23.50000000000001
 20
-4.362741700911273
 30
0.0
 10
23.5
 20
-3.733518404783749
 30
0.0
 10
23.21415926535896
 20
-3.124319333760402
 30
0.0
 10
22.89999999999999
 20
-2.717240184541193
 30
0.0
  0
SPLINE
  5
B2F3
330
B2BD
100
AcDbEntity
  8
0
100
AcDbSpline
210
0.0
220
0.0
230
1.0
 70
     8
 71
     3
 72
     8
 73
     4
 74
     0
 42
0.000000001
 43
0.0000000001
 40
0.0
 40
0.0
 40
0.0
 40
0.0
 40
0.1766073916138378
 40
0.1766073916138378
 40
0.1766073916138378
 40
0.1766073916138378
 10
22.89999999999999
 20
-1.656580012761371
 30
0.0
 10
23.09418996942227
 20
-1.728473199485356
 30
0.0
 10
23.28528852951262
 20
-1.822430928281014
 30
0.0
 10
23.46833079343948
 20
-1.934942494001921
 30
0.0
  0
LINE
  5
B2F4
330
B2BD
100
AcDbEntity
  8
0
100
AcDbLine
 10
22.89999999999999
 20
-2.3640403473388
 30
0.0
 11
22.89999999999999
 21
-1.656580012761325
 31
0.0
  0
LINE
  5
B2F5
330
B2BD
100
AcDbEntity
  8
0
100
AcDbLine
 10
18.64054197002043
 20
-1.499999999999978
 30
0.0
 11
18.64054197002043
 21
-1.675735931288079
 31
0.0
  0
ELLIPSE
  5
B2F6
330
B2BD
100
AcDbEntity
  8
0
100
AcDbEllipse
 10
19.99999999999999
 20
-1.227476037518794
 30
0.0
 11
-1.5
 21
-0.0000000000000003
 31
0.0
210
0.0
220
0.0
230
1.0
 40
0.7071067811865474
 41
0.4363380716279126
 42
1.570796326794896
  0
LINE
  5
B2F7
330
B2BD
100
AcDbEntity
  8
0
100
AcDbLine
 10
22.2931553385596
 20
-2.288136209298579
 30
0.0
 11
19.99999999999999
 21
-2.28813620929858
 31
0.0
  0
LINE
  5
B2F8
330
B2BD
100
AcDbEntity
  8
0
100
AcDbLine
 10
22.2931553385596
 20
-2.288136209298579
 30
0.0
 11
22.2931553385596
 21
-1.499999999999976
 31
0.0
  0
LINE
  5
B2F9
330
B2BD
100
AcDbEntity
  8
0
100
AcDbLine
 10
22.67856242236209
 20
-1.499999999999964
 30
0.0
 11
22.89999999999999
 21
-1.656580012761325
 31
0.0
  0
LINE
  5
B2FA
330
B2BD
100
AcDbEntity
  8
0
100
AcDbLine
 10
22.89999999999999
 20
-2.717240184541144
 30
0.0
 11
22.2931553385596
 21
-2.288136209298579
 31
0.0
  0
LINE
  5
B2FB
330
B2BD
100
AcDbEntity
  8
0
100
AcDbLine
 10
-25.00000000000105
 20
-62.91118318265866
 30
0.0
 11
-24.99999999999998
 21
-82.00306627386
 31
0.0
  0
LINE
  5
B2FC
330
B2BD
100
AcDbEntity
  8
0
100
AcDbLine
 10
-23.50000000000082
 20
-62.91118318265866
 30
0.0
 11
-23.49999999999998
 21
-82.00306627386
 31
0.0
  0
ELLIPSE
  5
B2FD
330
B2BD
100
AcDbEntity
  8
0
100
AcDbEllipse
 10
-0.0000000000000091
 20
-0.1668158671532069
 30
0.0
 11
2.499999999999999
 21
0.0000000000001829
 31
0.0
210
0.0
220
0.0
230
1.0
 40
0.7071067811865474
 41
3.995971004506703
 42
5.428806956262403
  0
LINE
  5
B2FE
330
B2BD
100
AcDbEntity
  8
0
100
AcDbLine
 10
-2.418289920131925
 20
-1.499999999999992
 30
0.0
 11
-2.418289920131927
 21
-1.675735931288084
 31
0.0
  0
ELLIPSE
  5
B2FF
330
B2BD
100
AcDbEntity
  8
0
100
AcDbEllipse
 10
-0.0000000000000088
 20
-1.227476038933012
 30
0.0
 11
2.5
 21
0.0000000000000007
 31
0.0
210
0.0
220
0.0
230
1.0
 40
0.7071067811865471
 41
3.397965979781211
 42
6.026811980988167
  0
LINE
  5
B300
330
B2BD
100
AcDbEntity
  8
0
100
AcDbLine
 10
2.418289920131909
 20
-1.675735931288083
 30
0.0
 11
2.418289920131909
 21
-1.499999999999988
 31
0.0
  0
SPLINE
  5
B301
330
B2BD
100
AcDbEntity
  8
0
100
AcDbSpline
210
0.0
220
0.0
230
1.0
 70
     8
 71
     3
 72
     8
 73
     4
 74
     0
 42
0.000000001
 43
0.0000000001
 40
-1.0
 40
-1.0
 40
-1.0
 40
-1.0
 40
0.0
 40
0.0
 40
0.0
 40
0.0
 10
-2.418289920131925
 20
-1.675735931288084
 30
0.0
 10
-2.491899723307357
 20
-1.567383125811561
 30
0.0
 10
-2.516094836485431
 20
-1.500000000000012
 30
0.0
 10
-2.489433513812969
 20
-1.500000000000012
 30
0.0
  0
SPLINE
  5
B302
330
B2BD
100
AcDbEntity
  8
0
100
AcDbSpline
210
0.0
220
0.0
230
1.0
 70
     8
 71
     3
 72
     8
 73
     4
 74
     0
 42
0.000000001
 43
0.0000000001
 40
-1.0
 40
-1.0
 40
-1.0
 40
-1.0
 40
0.0
 40
0.0
 40
0.0
 40
0.0
 10
2.489433513812951
 20
-1.500000000000011
 30
0.0
 10
2.516094836485347
 20
-1.500000000000011
 30
0.0
 10
2.491899723307332
 20
-1.567383125811567
 30
0.0
 10
2.418289920131908
 20
-1.675735931288083
 30
0.0
  0
LINE
  5
B303
330
B2BD
100
AcDbEntity
  8
0
100
AcDbLine
 10
-22.89999999999999
 20
-55.8401153701776
 30
0.0
 11
22.9
 21
-55.84011537017758
 31
0.0
  0
ELLIPSE
  5
B304
330
B2BD
100
AcDbEntity
  8
0
100
AcDbEllipse
 10
-22.89999999999999
 20
-56.26437943888955
 30
0.0
 11
-0.6000000000000089
 21
-0.000000000000009
 31
0.0
210
0.0
220
0.0
230
1.0
 40
0.7071067811865409
 41
4.712388980384634
 42
6.283185307179501
  0
ARC
  5
B305
330
B2BD
100
AcDbEntity
  8
0
100
AcDbCircle
 10
22.9
 20
-2.099999999999976
 30
0.0
 40
0.6000000000000006
100
AcDbArc
 50
0.0
 51
90.0
  0
ARC
  5
B306
330
B2BD
100
AcDbEntity
  8
0
100
AcDbCircle
 10
22.9
 20
-2.099999999999976
 30
0.0
 40
2.099999999999999
100
AcDbArc
 50
0.0
 51
90.0
  0
ARC
  5
B307
330
B2BD
100
AcDbEntity
  8
0
100
AcDbCircle
 10
-22.90000000000001
 20
-2.100000000000004
 30
0.0
 40
0.6000000000000006
100
AcDbArc
 50
90.0
 51
180.0
  0
ARC
  5
B308
330
B2BD
100
AcDbEntity
  8
0
100
AcDbCircle
 10
-22.90000000000001
 20
-2.100000000000004
 30
0.0
 40
2.099999999999999
100
AcDbArc
 50
90.0
 51
180.0
  0
ENDBLK
  5
B2BF
330
B2BD
100
AcDbEntity
  8
0
100
AcDbBlockEnd
  0
BLOCK
  5
B30A
330
B309
100
AcDbEntity
  8
0
100
AcDbBlockBegin
  2
SPR47_200-Bottom
 70
     0
 10
0.0
 20
0.0
 30
0.0
  3
SPR47_200-Bottom
  1

  0
LINE
  5
B30C
330
B309
100
AcDbEntity
  8
0
100
AcDbLine
 10
66.027090561
 20
1.499999999999945
 30
0.0
 11
61.027090561
 21
1.499999999999948
 31
0.0
  0
LINE
  5
B30D
330
B309
100
AcDbEntity
  8
0
100
AcDbLine
 10
61.027090561
 20
1.499999999999948
 30
0.0
 11
61.027090561
 21
0.0
 31
0.0
  0
LINE
  5
B30E
330
B309
100
AcDbEntity
  8
0
100
AcDbLine
 10
61.027090561
 20
0.0
 30
0.0
 11
66.027090561
 21
0.0
 31
0.0
  0
LINE
  5
B30F
330
B309
100
AcDbEntity
  8
0
100
AcDbLine
 10
66.027090561
 20
0.0
 30
0.0
 11
66.027090561
 21
1.499999999999945
 31
0.0
  0
LINE
  5
B310
330
B309
100
AcDbEntity
  8
0
100
AcDbLine
 10
-66.02709056100002
 20
0.0
 30
0.0
 11
-61.02709056100002
 21
0.0
 31
0.0
  0
LINE
  5
B311
330
B309
100
AcDbEntity
  8
0
100
AcDbLine
 10
-61.02709056100002
 20
1.500000000000025
 30
0.0
 11
-66.02709056100002
 21
1.500000000000028
 31
0.0
  0
LINE
  5
B312
330
B309
100
AcDbEntity
  8
0
100
AcDbLine
 10
-66.02709056100002
 20
1.500000000000028
 30
0.0
 11
-66.02709056100002
 21
0.0
 31
0.0
  0
LINE
  5
B313
330
B309
100
AcDbEntity
  8
0
100
AcDbLine
 10
-61.02709056100002
 20
0.0
 30
0.0
 11
-61.02709056100002
 21
1.500000000000025
 31
0.0
  0
LINE
  5
B314
330
B309
100
AcDbEntity
  8
0
100
AcDbLine
 10
61.027090561
 20
0.0
 30
0.0
 11
19.99999999999999
 21
0.0
 31
0.0
  0
LINE
  5
B315
330
B309
100
AcDbEntity
  8
0
100
AcDbLine
 10
-20.00000000000001
 20
0.0
 30
0.0
 11
-61.02709056100002
 21
0.0
 31
0.0
  0
LINE
  5
B316
330
B309
100
AcDbEntity
  8
0
100
AcDbLine
 10
-22.67856242236215
 20
1.5
 30
0.0
 11
-61.02709056100002
 21
1.500000000000025
 31
0.0
  0
LINE
  5
B317
330
B309
100
AcDbEntity
  8
0
100
AcDbLine
 10
61.027090561
 20
1.499999999999948
 30
0.0
 11
22.67856242236212
 21
1.499999999999972
 31
0.0
  0
LINE
  5
B318
330
B309
100
AcDbEntity
  8
0
100
AcDbLine
 10
19.99999999999999
 20
0.0
 30
0.0
 11
18.51767776087195
 21
0.0
 31
0.0
  0
LINE
  5
B319
330
B309
100
AcDbEntity
  8
0
100
AcDbLine
 10
-18.51767776087196
 20
0.0
 30
0.0
 11
-20.00000000000001
 21
0.0
 31
0.0
  0
SPLINE
  5
B31A
330
B309
100
AcDbEntity
  8
0
100
AcDbSpline
210
0.0
220
0.0
230
1.0
 70
     8
 71
     3
 72
     8
 73
     4
 74
     0
 42
0.000000001
 43
0.0000000001
 40
0.0
 40
0.0
 40
0.0
 40
0.0
 40
1.0
 40
1.0
 40
1.0
 40
1.0
 10
18.51767776087193
 20
0.0000000000000078
 30
0.0
 10
18.472519920741
 20
0.0000000000000076
 30
0.0
 10
18.51586474390248
 20
0.2539843833467894
 30
0.0
 10
18.64054197002043
 20
0.615075759508258
 30
0.0
  0
SPLINE
  5
B31B
330
B309
100
AcDbEntity
  8
0
100
AcDbSpline
210
0.0
220
0.0
230
1.0
 70
     8
 71
     3
 72
     8
 73
     4
 74
     0
 42
0.000000001
 43
0.0000000001
 40
0.0
 40
0.0
 40
0.0
 40
0.0
 40
1.0
 40
1.0
 40
1.0
 40
1.0
 10
-18.64054197002046
 20
0.6150757595082662
 30
0.0
 10
-18.51586474390302
 20
0.253984383346817
 30
0.0
 10
-18.47251992073929
 20
0.0000000000000162
 30
0.0
 10
-18.51767776087197
 20
0.000000000000016
 30
0.0
  0
SPLINE
  5
B31C
330
B309
100
AcDbEntity
  8
0
100
AcDbSpline
210
0.0
220
0.0
230
1.0
 70
     8
 71
     3
 72
     8
 73
     4
 74
     0
 42
0.000000001
 43
0.0000000001
 40
0.0
 40
0.0
 40
0.0
 40
0.0
 40
1.0
 40
1.0
 40
1.0
 40
1.0
 10
-25.00000000000003
 20
4.362741700911244
 30
0.0
 10
-25.0
 20
3.178158037513771
 30
0.0
 10
-23.99955742875646
 20
2.063659161980744
 30
0.0
 10
-22.90000000000001
 20
1.656580012761355
 30
0.0
  0
LINE
  5
B31D
330
B309
100
AcDbEntity
  8
0
100
AcDbLine
 10
-22.90000000000001
 20
1.656580012761342
 30
0.0
 11
-22.29315533855961
 21
1.227476037518785
 31
0.0
  0
LINE
  5
B31E
330
B309
100
AcDbEntity
  8
0
100
AcDbLine
 10
-22.29315533855961
 20
1.227476037518785
 30
0.0
 11
-20.00000000000001
 21
1.227476037518779
 31
0.0
  0
ELLIPSE
  5
B31F
330
B309
100
AcDbEntity
  8
0
100
AcDbEllipse
 10
-20.00000000000001
 20
0.1668158657389969
 30
0.0
 11
1.5
 21
-0.0000000000000003
 31
0.0
210
0.0
220
0.0
230
1.0
 40
0.7071067811865474
 41
0.4363380716279135
 42
1.570796326794896
  0
LINE
  5
B320
330
B309
100
AcDbEntity
  8
0
100
AcDbLine
 10
-18.51767776087196
 20
0.1805170265382574
 30
0.0
 11
-18.51767776087196
 21
0.0
 31
0.0
  0
SPLINE
  5
B321
330
B309
100
AcDbEntity
  8
0
100
AcDbSpline
210
0.0
220
0.0
230
1.0
 70
     8
 71
     3
 72
     8
 73
     4
 74
     0
 42
0.000000001
 43
0.0000000001
 40
0.0
 40
0.0
 40
0.0
 40
0.0
 40
1.0
 40
1.0
 40
1.0
 40
1.0
 10
22.89999999999999
 20
1.656580012761371
 30
0.0
 10
23.99955742875637
 20
2.06365916198058
 30
0.0
 10
24.99999999999997
 20
3.178158037513898
 30
0.0
 10
25.00000000000001
 20
4.362741700911238
 30
0.0
  0
ELLIPSE
  5
B322
330
B309
100
AcDbEntity
  8
0
100
AcDbEllipse
 10
19.99999999999999
 20
0.1668158657389829
 30
0.0
 11
1.5
 21
-0.0000000000001098
 31
0.0
210
0.0
220
0.0
230
1.0
 40
0.7071067811865475
 41
1.570796326795022
 42
2.705254581962135
  0
LINE
  5
B323
330
B309
100
AcDbEntity
  8
0
100
AcDbLine
 10
19.99999999999999
 20
1.227476037518758
 30
0.0
 11
22.2931553385596
 21
1.227476037518768
 31
0.0
  0
LINE
  5
B324
330
B309
100
AcDbEntity
  8
0
100
AcDbLine
 10
22.2931553385596
 20
1.227476037518768
 30
0.0
 11
22.89999999999999
 21
1.656580012761325
 31
0.0
  0
LINE
  5
B325
330
B309
100
AcDbEntity
  8
0
100
AcDbLine
 10
18.51767776087195
 20
0.1805170265382478
 30
0.0
 11
18.51767776087195
 21
0.0
 31
0.0
  0
LINE
  5
B326
330
B309
100
AcDbEntity
  8
0
100
AcDbLine
 10
2.48943351381295
 20
0.0
 30
0.0
 11
18.51767776087195
 21
0.0
 31
0.0
  0
LINE
  5
B327
330
B309
100
AcDbEntity
  8
0
100
AcDbLine
 10
-18.51767776087196
 20
0.0
 30
0.0
 11
-2.489433513812968
 21
0.0
 31
0.0
  0
LINE
  5
B328
330
B309
100
AcDbEntity
  8
0
100
AcDbLine
 10
25.0
 20
56.26437943888952
 30
0.0
 11
24.99999999999997
 21
82.00306627386
 31
0.0
  0
LINE
  5
B329
330
B309
100
AcDbEntity
  8
0
100
AcDbLine
 10
-24.99999999999996
 20
82.00306627385998
 30
0.0
 11
-24.99999999999999
 21
56.26437943888955
 31
0.0
  0
LINE
  5
B32A
330
B309
100
AcDbEntity
  8
0
100
AcDbLine
 10
-23.49999999999998
 20
82.00306627385998
 30
0.0
 11
-23.49999999999999
 21
56.26437943888955
 31
0.0
  0
LINE
  5
B32B
330
B309
100
AcDbEntity
  8
0
100
AcDbLine
 10
23.5
 20
56.26437943888952
 30
0.0
 11
23.5
 21
82.00306627386
 31
0.0
  0
LINE
  5
B32C
330
B309
100
AcDbEntity
  8
0
100
AcDbLine
 10
-22.89999999999999
 20
54.77945519839778
 30
0.0
 11
22.9
 21
54.77945519839777
 31
0.0
  0
LINE
  5
B32D
330
B309
100
AcDbEntity
  8
0
100
AcDbLine
 10
-22.89999999999999
 20
55.8401153701776
 30
0.0
 11
22.9
 21
55.84011537017758
 31
0.0
  0
LINE
  5
B32E
330
B309
100
AcDbEntity
  8
0
100
AcDbLine
 10
2.48943351381295
 20
0.0
 30
0.0
 11
-2.489433513812969
 21
0.0
 31
0.0
  0
ELLIPSE
  5
B32F
330
B309
100
AcDbEntity
  8
0
100
AcDbEllipse
 10
-0.0000000000000091
 20
0.1668158671532069
 30
0.0
 11
-2.5
 21
0.0000000000000004
 31
0.0
210
0.0
220
0.0
230
1.0
 40
0.7071067811865472
 41
3.397965979781211
 42
6.026811980988167
  0
SPLINE
  5
B330
330
B309
100
AcDbEntity
  8
0
100
AcDbSpline
210
0.0
220
0.0
230
1.0
 70
     8
 71
     3
 72
     8
 73
     4
 74
     0
 42
0.000000001
 43
0.0000000001
 40
0.0
 40
0.0
 40
0.0
 40
0.0
 40
1.0
 40
1.0
 40
1.0
 40
1.0
 10
-2.489433513812969
 20
0.0000000000000125
 30
0.0
 10
-2.516094836485431
 20
0.0000000000000125
 30
0.0
 10
-2.491899723307357
 20
0.2358409403404322
 30
0.0
 10
-2.418289920131925
 20
0.6150757595082626
 30
0.0
  0
LINE
  5
B331
330
B309
100
AcDbEntity
  8
0
100
AcDbLine
 10
-2.489433513812969
 20
0.1805170296371622
 30
0.0
 11
-2.489433513812969
 21
0.0
 31
0.0
  0
LINE
  5
B332
330
B309
100
AcDbEntity
  8
0
100
AcDbLine
 10
2.48943351381295
 20
0.1805170296371705
 30
0.0
 11
2.48943351381295
 21
0.0
 31
0.0
  0
SPLINE
  5
B333
330
B309
100
AcDbEntity
  8
0
100
AcDbSpline
210
0.0
220
0.0
230
1.0
 70
     8
 71
     3
 72
     8
 73
     4
 74
     0
 42
0.000000001
 43
0.0000000001
 40
0.0
 40
0.0
 40
0.0
 40
0.0
 40
1.0
 40
1.0
 40
1.0
 40
1.0
 10
2.418289920131907
 20
0.6150757595082636
 30
0.0
 10
2.491899723307331
 20
0.2358409403404559
 30
0.0
 10
2.516094836485347
 20
0.0000000000000109
 30
0.0
 10
2.48943351381295
 20
0.0000000000000114
 30
0.0
  0
LINE
  5
B334
330
B309
100
AcDbEntity
  8
0
100
AcDbLine
 10
-1.641718653074024
 20
1.499999999999986
 30
0.0
 11
1.641718653074009
 21
1.499999999999984
 31
0.0
  0
LINE
  5
B335
330
B309
100
AcDbEntity
  8
0
100
AcDbLine
 10
25.0
 20
2.099999999999967
 30
0.0
 11
25.0
 21
4.362741700911231
 31
0.0
  0
LINE
  5
B336
330
B309
100
AcDbEntity
  8
0
100
AcDbLine
 10
-25.00000000000001
 20
4.362741700911248
 30
0.0
 11
-25.00000000000001
 21
2.100000000000004
 31
0.0
  0
LINE
  5
B337
330
B309
100
AcDbEntity
  8
0
100
AcDbLine
 10
23.5
 20
82.00306627386
 30
0.0
 11
24.99999999999997
 21
82.00306627386
 31
0.0
  0
LINE
  5
B338
330
B309
100
AcDbEntity
  8
0
100
AcDbLine
 10
-24.99999999999996
 20
82.00306627385998
 30
0.0
 11
-23.49999999999998
 21
82.00306627385998
 31
0.0
  0
LINE
  5
B339
330
B309
100
AcDbEntity
  8
0
100
AcDbLine
 10
25.0
 20
56.26437943888952
 30
0.0
 11
25.00000000000001
 21
4.362741700911225
 31
0.0
  0
ELLIPSE
  5
B33A
330
B309
100
AcDbEntity
  8
0
100
AcDbEllipse
 10
22.9
 20
56.26437943888952
 30
0.0
 11
0.6000000000000089
 21
-0.0000000000000571
 31
0.0
210
0.0
220
0.0
230
1.0
 40
0.7071067811865475
 41
4.712388980384838
 42
6.283185307179425
  0
ELLIPSE
  5
B33B
330
B309
100
AcDbEntity
  8
0
100
AcDbEllipse
 10
22.9
 20
56.26437943888952
 30
0.0
 11
2.100000000000031
 21
-0.0000000000002492
 31
0.0
210
0.0
220
0.0
230
1.0
 40
0.7071067811865466
 41
4.712388980384657
 42
6.283185307179347
  0
LINE
  5
B33C
330
B309
100
AcDbEntity
  8
0
100
AcDbLine
 10
-25.00000000000003
 20
4.362741700911251
 30
0.0
 11
-24.99999999999999
 21
56.26437943888955
 31
0.0
  0
ELLIPSE
  5
B33D
330
B309
100
AcDbEntity
  8
0
100
AcDbEllipse
 10
-22.89999999999999
 20
56.26437943888959
 30
0.0
 11
-2.100000000000081
 21
-0.0000000000000037
 31
0.0
210
0.0
220
0.0
230
1.0
 40
0.7071067811865476
 41
0.0
 42
1.570796326794895
  0
ELLIPSE
  5
B33E
330
B309
100
AcDbEntity
  8
0
100
AcDbEllipse
 10
-22.89999999999999
 20
56.26437943888955
 30
0.0
 11
-0.6000000000000089
 21
0.000000000000009
 31
0.0
210
0.0
220
0.0
230
1.0
 40
0.7071067811865409
 41
0.0000000000000841
 42
1.570796326794951
  0
ARC
  5
B33F
330
B309
100
AcDbEntity
  8
0
100
AcDbCircle
 10
22.9
 20
2.099999999999976
 30
0.0
 40
0.6000000000000006
100
AcDbArc
 50
270.0
 51
343.4444348564593
  0
ARC
  5
B340
330
B309
100
AcDbEntity
  8
0
100
AcDbCircle
 10
22.9
 20
2.099999999999976
 30
0.0
 40
2.1
100
AcDbArc
 50
343.3984504009795
 51
0.0
  0
ARC
  5
B341
330
B309
100
AcDbEntity
  8
0
100
AcDbCircle
 10
-22.90000000000001
 20
2.100000000000004
 30
0.0
 40
0.6000000000000007
100
AcDbArc
 50
196.5555651435449
 51
270.0
  0
ARC
  5
B342
330
B309
100
AcDbEntity
  8
0
100
AcDbCircle
 10
-22.90000000000001
 20
2.100000000000004
 30
0.0
 40
2.099999999999999
100
AcDbArc
 50
180.0
 51
196.6015495990202
  0
ENDBLK
  5
B30B
330
B309
100
AcDbEntity
  8
0
100
AcDbBlockEnd
  0
BLOCK
  5
B344
330
B343
100
AcDbEntity
  8
0
100
AcDbBlockBegin
  2
SPR47_200-ISO
 70
     0
 10
0.0
 20
0.0
 30
0.0
  3
SPR47_200-ISO
  1

  0
LINE
  5
B346
330
B343
100
AcDbEntity
  8
0
100
AcDbLine
 10
74.61761398048003
 20
-64.91525277352334
 30
0.0
 11
71.08208007454729
 21
-66.95649422584264
 31
0.0
  0
LINE
  5
B347
330
B343
100
AcDbEntity
  8
0
100
AcDbLine
 10
75.67827415225984
 20
-64.30288033782753
 30
0.0
 11
74.61761398048003
 21
-64.91525277352334
 31
0.0
  0
LINE
  5
B348
330
B343
100
AcDbEntity
  8
0
100
AcDbLine
 10
74.61761398048001
 20
-11.02647843229339
 30
0.0
 11
75.67827415225983
 21
-10.41410599659759
 31
0.0
  0
LINE
  5
B349
330
B343
100
AcDbEntity
  8
0
100
AcDbLine
 10
75.67827415225983
 20
-10.41410599659759
 30
0.0
 11
72.14274024632709
 21
-4.290381639639653
 31
0.0
  0
LINE
  5
B34A
330
B343
100
AcDbEntity
  8
0
100
AcDbLine
 10
-15.22325906899008
 20
-17.12808343881944
 30
0.0
 11
-18.75879297492282
 21
-11.0043590818615
 31
0.0
  0
LINE
  5
B34B
330
B343
100
AcDbEntity
  8
0
100
AcDbLine
 10
71.08208007454727
 20
-4.902754075335447
 30
0.0
 11
74.61761398048001
 21
-11.02647843229339
 31
0.0
  0
LINE
  5
B34C
330
B343
100
AcDbEntity
  8
0
100
AcDbLine
 10
72.14274024632709
 20
-4.290381639639653
 30
0.0
 11
71.08208007454727
 21
-4.902754075335447
 31
0.0
  0
LINE
  5
B34D
330
B343
100
AcDbEntity
  8
0
100
AcDbLine
 10
75.67827415225983
 20
-10.41410599659759
 30
0.0
 11
75.67827415225984
 21
-64.30288033782753
 31
0.0
  0
LINE
  5
B34E
330
B343
100
AcDbEntity
  8
0
100
AcDbLine
 10
74.61761398048001
 20
-11.02647843229339
 30
0.0
 11
74.61761398048003
 21
-64.91525277352332
 31
0.0
  0
LINE
  5
B34F
330
B343
100
AcDbEntity
  8
0
100
AcDbLine
 10
10.25174097311488
 20
31.44240345116433
 30
0.0
 11
14.84793505082746
 21
28.78878956314921
 31
0.0
  0
LINE
  5
B350
330
B343
100
AcDbEntity
  8
0
100
AcDbLine
 10
44.54641986066246
 20
11.64236136366696
 30
0.0
 11
72.14274024632709
 21
-4.290381639639653
 31
0.0
  0
LINE
  5
B351
330
B343
100
AcDbEntity
  8
0
100
AcDbLine
 10
-18.75879297492282
 20
-11.0043590818615
 30
0.0
 11
-18.75879297492282
 21
19.20601441246436
 31
0.0
  0
LINE
  5
B352
330
B343
100
AcDbEntity
  8
0
100
AcDbLine
 10
43.48575968888264
 20
11.02998892797117
 30
0.0
 11
71.08208007454727
 21
-4.902754075335447
 31
0.0
  0
LINE
  5
B353
330
B343
100
AcDbEntity
  8
0
100
AcDbLine
 10
13.78727487904763
 20
-33.8773230230538
 30
0.0
 11
-15.22325906899008
 21
-17.12808343881944
 31
0.0
  0
LINE
  5
B354
330
B343
100
AcDbEntity
  8
0
100
AcDbLine
 10
71.08208007454729
 20
-66.95649422584264
 30
0.0
 11
42.07154612650955
 21
-50.20725464160832
 31
0.0
  0
LINE
  5
B355
330
B343
100
AcDbEntity
  8
0
100
AcDbLine
 10
9.191080801335061
 20
30.83003101546854
 30
0.0
 11
13.78727487904764
 21
28.17641712745342
 31
0.0
  0
LINE
  5
B356
330
B343
100
AcDbEntity
  8
0
100
AcDbLine
 10
14.84793505082746
 20
28.78878956314921
 30
0.0
 11
13.78727487904764
 21
28.17641712745342
 31
0.0
  0
ELLIPSE
  5
B357
330
B343
100
AcDbEntity
  8
0
100
AcDbEllipse
 10
13.78727487904764
 20
29.401161998845
 30
0.0
 11
0.7500000000000016
 21
-1.299038105676658
 31
0.0
210
0.0
220
0.0
230
1.0
 40
0.577350269189626
 41
5.497787143782137
 42
8.63937979737193
  0
ELLIPSE
  5
B358
330
B343
100
AcDbEntity
  8
0
100
AcDbEllipse
 10
38.53601222057682
 20
-5.299942690583381
 30
0.0
 11
1.250000000000129
 21
-2.165063509461022
 31
0.0
210
0.0
220
0.0
230
1.0
 40
0.5773502691896261
 41
3.579741684173548
 42
5.845036276594996
  0
ELLIPSE
  5
B359
330
B343
100
AcDbEntity
  8
0
100
AcDbEllipse
 10
37.47535204879699
 20
-5.912315126279175
 30
0.0
 11
1.250000000000001
 21
-2.165063509461096
 31
0.0
210
0.0
220
0.0
230
0.9999999999999998
 40
0.5773502691896259
 41
0.0
 42
6.283185307179586
  0
ELLIPSE
  5
B35A
330
B343
100
AcDbEntity
  8
0
100
AcDbEllipse
 10
31.46494440871134
 20
111.0508200916176
 30
0.0
 11
1.250000000000129
 21
-2.165063509461022
 31
0.0
210
0.0
220
0.0
230
0.9999999999999998
 40
0.577350269189626
 41
3.579741684173546
 42
5.845036276595005
  0
ELLIPSE
  5
B35B
330
B343
100
AcDbEntity
  8
0
100
AcDbEllipse
 10
30.40428423693152
 20
110.4384476559218
 30
0.0
 11
1.250000000000001
 21
-2.165063509461096
 31
0.0
210
0.0
220
0.0
230
0.9999999999999998
 40
0.5773502691896259
 41
0.0
 42
6.283185307179586
  0
ELLIPSE
  5
B35C
330
B343
100
AcDbEntity
  8
0
100
AcDbEllipse
 10
31.46494440871134
 20
-19.58863285681858
 30
0.0
 11
1.25000000000013
 21
-2.165063509461022
 31
0.0
210
0.0
220
0.0
230
1.0
 40
0.577350269189626
 41
3.579741684173544
 42
5.845036276594998
  0
ELLIPSE
  5
B35D
330
B343
100
AcDbEntity
  8
0
100
AcDbEllipse
 10
30.40428423693152
 20
-20.20100529251438
 30
0.0
 11
1.250000000000001
 21
-2.165063509461096
 31
0.0
210
0.0
220
0.0
230
0.9999999999999998
 40
0.5773502691896259
 41
0.0
 42
6.283185307179586
  0
ELLIPSE
  5
B35E
330
B343
100
AcDbEntity
  8
0
100
AcDbEllipse
 10
19.44412912854003
 20
98.80337137770171
 30
0.0
 11
1.250000000000129
 21
-2.165063509461022
 31
0.0
210
0.0
220
0.0
230
1.0
 40
0.5773502691896261
 41
3.579741684173548
 42
5.538632558199393
  0
ELLIPSE
  5
B35F
330
B343
100
AcDbEntity
  8
0
100
AcDbEllipse
 10
18.38346895676021
 20
98.19099894200592
 30
0.0
 11
-1.249999999999872
 21
2.165063509461171
 31
0.0
210
0.0
220
0.0
230
1.0
 40
0.577350269189626
 41
3.886145402569905
 42
8.680225211789789
  0
ELLIPSE
  5
B360
330
B343
100
AcDbEntity
  8
0
100
AcDbEllipse
 10
3.161517241860165
 20
29.41222167406094
 30
0.0
 11
1.250000000000001
 21
-2.165063509461096
 31
0.0
210
0.0
220
0.0
230
0.9999999999999998
 40
0.5773502691896262
 41
5.508682942395992
 42
5.845036276595417
  0
ELLIPSE
  5
B361
330
B343
100
AcDbEntity
  8
0
100
AcDbEllipse
 10
50.57598342013736
 20
2.037466862550196
 30
0.0
 11
1.250000000000129
 21
-2.165063509461022
 31
0.0
210
0.0
220
0.0
230
1.0
 40
0.5773502691896261
 41
3.579741684173548
 42
5.845036276594998
  0
ELLIPSE
  5
B362
330
B343
100
AcDbEntity
  8
0
100
AcDbEllipse
 10
2.100857070080346
 20
28.79984923836515
 30
0.0
 11
1.250000000000001
 21
-2.165063509461096
 31
0.0
210
0.0
220
0.0
230
0.9999999999999998
 40
0.5773502691896259
 41
5.508682942395992
 42
7.057687671963181
  0
ELLIPSE
  5
B363
330
B343
100
AcDbEntity
  8
0
100
AcDbEllipse
 10
49.51532324835755
 20
1.425094426854407
 30
0.0
 11
1.250000000000001
 21
-2.165063509461096
 31
0.0
210
0.0
220
0.0
230
0.9999999999999998
 40
0.5773502691896259
 41
0.0
 42
6.283185307179586
  0
ELLIPSE
  5
B364
330
B343
100
AcDbEntity
  8
0
100
AcDbEllipse
 10
7.404157928979455
 20
-5.697131305831275
 30
0.0
 11
1.25000000000013
 21
-2.165063509461022
 31
0.0
210
0.0
220
0.0
230
1.0
 40
0.577350269189626
 41
3.579741684173542
 42
5.845036276594998
  0
ELLIPSE
  5
B365
330
B343
100
AcDbEntity
  8
0
100
AcDbEllipse
 10
54.81862410725665
 20
-33.07188611734203
 30
0.0
 11
1.25000000000013
 21
-2.165063509461022
 31
0.0
210
0.0
220
0.0
230
1.0
 40
0.577350269189626
 41
3.579741684173544
 42
5.845036276594997
  0
ELLIPSE
  5
B366
330
B343
100
AcDbEntity
  8
0
100
AcDbEllipse
 10
6.343497757199636
 20
-6.309503741527073
 30
0.0
 11
1.250000000000001
 21
-2.165063509461096
 31
0.0
210
0.0
220
0.0
230
0.9999999999999998
 40
0.5773502691896259
 41
0.0
 42
6.283185307179586
  0
ELLIPSE
  5
B367
330
B343
100
AcDbEntity
  8
0
100
AcDbEllipse
 10
53.75796393547684
 20
-33.68425855303782
 30
0.0
 11
1.250000000000001
 21
-2.165063509461096
 31
0.0
210
0.0
220
0.0
230
0.9999999999999998
 40
0.5773502691896259
 41
0.0
 42
6.283185307179586
  0
ELLIPSE
  5
B368
330
B343
100
AcDbEntity
  8
0
100
AcDbEllipse
 10
28.99007067455842
 20
-42.65466126965982
 30
0.0
 11
1.25000000000013
 21
-2.165063509461022
 31
0.0
210
0.0
220
0.0
230
1.0
 40
0.5773502691896262
 41
3.579741684173548
 42
3.835017177445206
  0
ELLIPSE
  5
B369
330
B343
100
AcDbEntity
  8
0
100
AcDbEllipse
 10
28.87211404368486
 20
-43.38172062797537
 30
0.0
 11
-1.249999999999999
 21
-2.165063509461097
 31
0.0
210
0.0
220
0.0
230
1.0
 40
0.8164965809277262
 41
4.968762306576106
 42
6.069429174707152
  0
LINE
  5
B36A
330
B343
100
AcDbEntity
  8
0
100
AcDbLine
 10
26.8451572326663
 20
-42.94346190644795
 30
0.0
 11
26.34490723276788
 21
-42.6546424343445
 31
0.0
  0
LINE
  5
B36B
330
B343
100
AcDbEntity
  8
0
100
AcDbLine
 10
26.34490723276788
 20
-42.6546424343445
 30
0.0
 11
26.0951572326663
 21
-42.51044920455573
 31
0.0
  0
ELLIPSE
  5
B36C
330
B343
100
AcDbEntity
  8
0
100
AcDbEllipse
 10
28.12211404368488
 20
-42.94870792608316
 30
0.0
 11
-1.249999999999998
 21
-2.165063509461097
 31
0.0
210
0.0
220
0.0
230
1.0
 40
0.8164965809277264
 41
4.968762306576106
 42
7.597608307783065
  0
LINE
  5
B36D
330
B343
100
AcDbEntity
  8
0
100
AcDbLine
 10
26.1691151838484
 20
-42.06325089902278
 30
0.0
 11
26.52231502143473
 21
-41.85933087771458
 31
0.0
  0
SPLINE
  5
B36E
330
B343
100
AcDbEntity
  8
0
100
AcDbSpline
210
0.0
220
0.0
230
1.0
 70
     8
 71
     3
 72
     8
 73
     4
 74
     0
 42
0.000000001
 43
0.0000000001
 40
-1.0
 40
-1.0
 40
-1.0
 40
-1.0
 40
0.0
 40
0.0
 40
0.0
 40
0.0
 10
26.0951572326663
 20
-42.51044920455573
 30
0.0
 10
26.11972424519218
 20
-42.34769358543972
 30
0.0
 10
26.15026278179128
 20
-42.18116225787601
 30
0.0
 10
26.16911518384839
 20
-42.06325089902279
 30
0.0
  0
SPLINE
  5
B36F
330
B343
100
AcDbEntity
  8
0
100
AcDbSpline
210
0.0
220
0.0
230
1.0
 70
     8
 71
     3
 72
     8
 73
     4
 74
     0
 42
0.000000001
 43
0.0000000001
 40
0.0
 40
0.0
 40
0.0
 40
0.0
 40
1.0
 40
1.0
 40
1.0
 40
1.0
 10
27.2297753556282
 20
-41.45087846332699
 30
0.0
 10
27.2109229535711
 20
-41.89077931781961
 30
0.0
 10
27.06126675397477
 20
-42.44894493031128
 30
0.0
 10
26.8451572326663
 20
-42.94346190644795
 30
0.0
  0
LINE
  5
B370
330
B343
100
AcDbEntity
  8
0
100
AcDbLine
 10
26.52231502143473
 20
-41.85933087771458
 30
0.0
 11
27.22977535562822
 21
-41.45087846332699
 31
0.0
  0
SPLINE
  5
B371
330
B343
100
AcDbEntity
  8
0
100
AcDbSpline
210
0.0
220
0.0
230
1.0
 70
     8
 71
     3
 72
     8
 73
     4
 74
     0
 42
0.000000001
 43
0.0000000001
 40
-1.0
 40
-1.0
 40
-1.0
 40
-1.0
 40
0.0
 40
0.0
 40
0.0
 40
0.0
 10
29.68970582170878
 20
-44.09586485149796
 30
0.0
 10
29.70855822376583
 20
-44.23554508915625
 30
0.0
 10
29.64380262996718
 20
-44.38232118953492
 30
0.0
 10
29.51513563546701
 20
-44.48497465603543
 30
0.0
  0
ELLIPSE
  5
B372
330
B343
100
AcDbEntity
  8
0
100
AcDbEllipse
 10
27.9294105027786
 20
-43.26703370535562
 30
0.0
 11
-1.250000000000001
 21
2.165063509461096
 31
0.0
210
0.0
220
0.0
230
1.0
 40
0.5773502691896261
 41
4.018964456528921
 42
6.976609831035356
  0
LINE
  5
B373
330
B343
100
AcDbEntity
  8
0
100
AcDbLine
 10
45.18281596373038
 20
112.0306159887309
 30
0.0
 11
12.79732538538647
 21
130.7283876919758
 31
0.0
  0
LINE
  5
B374
330
B343
100
AcDbEntity
  8
0
100
AcDbLine
 10
15.90859522260725
 20
-0.8092114954808415
 30
0.0
 11
15.90859522260725
 21
89.33201103894012
 31
0.0
  0
LINE
  5
B375
330
B343
100
AcDbEntity
  8
0
100
AcDbLine
 10
14.84793505082743
 20
89.9443834746359
 30
0.0
 11
14.84793505082743
 21
-0.1968390597850522
 31
0.0
  0
LINE
  5
B376
330
B343
100
AcDbEntity
  8
0
100
AcDbLine
 10
45.18281596373038
 20
12.00978482508445
 30
0.0
 11
19.44412912854
 21
-2.850452947800157
 31
0.0
  0
LINE
  5
B377
330
B343
100
AcDbEntity
  8
0
100
AcDbLine
 10
19.44412912854
 20
95.45573539589804
 30
0.0
 11
45.18281596373038
 21
110.3159731687826
 31
0.0
  0
LINE
  5
B378
330
B343
100
AcDbEntity
  8
0
100
AcDbLine
 10
-19.44674383672009
 20
109.7444255621332
 30
0.0
 11
-19.4467438367201
 21
19.60320302771228
 31
0.0
  0
LINE
  5
B379
330
B343
100
AcDbEntity
  8
0
100
AcDbLine
 10
9.827476904402971
 20
130.7283876919758
 30
0.0
 11
-15.91120993078736
 21
115.8681499190912
 31
0.0
  0
LINE
  5
B37A
330
B343
100
AcDbEntity
  8
0
100
AcDbLine
 10
-18.38608366494028
 20
109.1320531264374
 30
0.0
 11
-18.38608366494028
 21
18.99083059201649
 31
0.0
  0
LINE
  5
B37B
330
B343
100
AcDbEntity
  8
0
100
AcDbLine
 10
45.18281596373038
 20
110.3159731687826
 30
0.0
 11
44.12215579195056
 21
110.9283456044784
 31
0.0
  0
LINE
  5
B37C
330
B343
100
AcDbEntity
  8
0
100
AcDbLine
 10
44.12215579195056
 20
110.9283456044784
 30
0.0
 11
18.38346895676018
 21
96.06810783159383
 31
0.0
  0
LINE
  5
B37D
330
B343
100
AcDbEntity
  8
0
100
AcDbLine
 10
11.73666521360664
 20
31.8098269125818
 30
0.0
 11
13.78727487904764
 21
30.62590687023659
 31
0.0
  0
LINE
  5
B37E
330
B343
100
AcDbEntity
  8
0
100
AcDbLine
 10
45.18281596373038
 20
112.0306159887309
 30
0.0
 11
44.12215579195056
 21
111.4182435530351
 31
0.0
  0
LINE
  5
B37F
330
B343
100
AcDbEntity
  8
0
100
AcDbLine
 10
12.79732538538647
 20
130.7283876919758
 30
0.0
 11
11.73666521360665
 21
130.11601525628
 31
0.0
  0
LINE
  5
B380
330
B343
100
AcDbEntity
  8
0
100
AcDbLine
 10
9.827476904402971
 20
130.7283876919758
 30
0.0
 11
10.88813707618279
 21
130.11601525628
 31
0.0
  0
LINE
  5
B381
330
B343
100
AcDbEntity
  8
0
100
AcDbLine
 10
11.73666521360665
 20
130.11601525628
 30
0.0
 11
44.12215579195055
 21
111.4182435530351
 31
0.0
  0
LINE
  5
B382
330
B343
100
AcDbEntity
  8
0
100
AcDbLine
 10
-14.85054975900754
 20
16.94958913969717
 30
0.0
 11
10.88813707618278
 21
31.8098269125818
 31
0.0
  0
LINE
  5
B383
330
B343
100
AcDbEntity
  8
0
100
AcDbLine
 10
-14.85054975900754
 20
115.2557774833954
 30
0.0
 11
10.88813707618279
 21
130.11601525628
 31
0.0
  0
LINE
  5
B384
330
B343
100
AcDbEntity
  8
0
100
AcDbLine
 10
19.44412912854
 20
-2.850452947800157
 30
0.0
 11
15.90859522260725
 21
-0.8092114954808415
 31
0.0
  0
LINE
  5
B385
330
B343
100
AcDbEntity
  8
0
100
AcDbLine
 10
15.90859522260725
 20
-0.8092114954808415
 30
0.0
 11
14.84793505082743
 21
-0.1968390597850522
 31
0.0
  0
LINE
  5
B386
330
B343
100
AcDbEntity
  8
0
100
AcDbLine
 10
14.84793505082743
 20
89.9443834746359
 30
0.0
 11
15.90859522260725
 21
89.33201103894012
 31
0.0
  0
LINE
  5
B387
330
B343
100
AcDbEntity
  8
0
100
AcDbLine
 10
15.90859522260725
 20
89.33201103894012
 30
0.0
 11
19.44412912854
 21
95.45573539589804
 31
0.0
  0
LINE
  5
B388
330
B343
100
AcDbEntity
  8
0
100
AcDbLine
 10
-14.85054975900754
 20
16.94958913969717
 30
0.0
 11
-18.38608366494028
 21
18.99083059201649
 31
0.0
  0
LINE
  5
B389
330
B343
100
AcDbEntity
  8
0
100
AcDbLine
 10
-18.38608366494028
 20
18.99083059201649
 30
0.0
 11
-19.4467438367201
 21
19.60320302771228
 31
0.0
  0
LINE
  5
B38A
330
B343
100
AcDbEntity
  8
0
100
AcDbLine
 10
-15.91120993078736
 20
115.8681499190912
 30
0.0
 11
-19.44674383672009
 21
109.7444255621332
 31
0.0
  0
LINE
  5
B38B
330
B343
100
AcDbEntity
  8
0
100
AcDbLine
 10
-19.44674383672009
 20
109.7444255621332
 30
0.0
 11
-18.38608366494028
 21
109.1320531264374
 31
0.0
  0
LINE
  5
B38C
330
B343
100
AcDbEntity
  8
0
100
AcDbLine
 10
19.44412912854
 20
95.45573539589804
 30
0.0
 11
18.38346895676018
 21
96.06810783159383
 31
0.0
  0
LINE
  5
B38D
330
B343
100
AcDbEntity
  8
0
100
AcDbLine
 10
18.38346895676018
 20
96.06810783159383
 30
0.0
 11
14.84793505082743
 21
89.9443834746359
 31
0.0
  0
LINE
  5
B38E
330
B343
100
AcDbEntity
  8
0
100
AcDbLine
 10
-18.38608366494028
 20
109.1320531264374
 30
0.0
 11
-14.85054975900754
 21
115.2557774833954
 31
0.0
  0
LINE
  5
B38F
330
B343
100
AcDbEntity
  8
0
100
AcDbLine
 10
-14.85054975900754
 20
115.2557774833954
 30
0.0
 11
-15.91120993078736
 21
115.8681499190912
 31
0.0
  0
LINE
  5
B390
330
B343
100
AcDbEntity
  8
0
100
AcDbLine
 10
-11.3171840361142
 20
-109.3604851418618
 30
0.0
 11
-11.31718403611417
 21
-103.5869824499656
 31
0.0
  0
LINE
  5
B391
330
B343
100
AcDbEntity
  8
0
100
AcDbLine
 10
-11.31718403611417
 20
-103.5869824499656
 30
0.0
 11
-12.37784420789399
 21
-102.9746100142698
 31
0.0
  0
LINE
  5
B392
330
B343
100
AcDbEntity
  8
0
100
AcDbLine
 10
-12.37784420789399
 20
-102.9746100142698
 30
0.0
 11
-12.377844207894
 21
-108.748112706166
 31
0.0
  0
LINE
  5
B393
330
B343
100
AcDbEntity
  8
0
100
AcDbLine
 10
-12.377844207894
 20
-108.748112706166
 30
0.0
 11
-11.3171840361142
 21
-109.3604851418618
 31
0.0
  0
LINE
  5
B394
330
B343
100
AcDbEntity
  8
0
100
AcDbLine
 10
-46.67252309544156
 20
-83.17456792677248
 30
0.0
 11
-46.67252309544153
 21
-88.94807061866874
 31
0.0
  0
LINE
  5
B395
330
B343
100
AcDbEntity
  8
0
100
AcDbLine
 10
-46.67252309544153
 20
-88.94807061866874
 30
0.0
 11
-45.61186292366173
 21
-89.56044305436453
 31
0.0
  0
LINE
  5
B396
330
B343
100
AcDbEntity
  8
0
100
AcDbLine
 10
-45.61186292366173
 20
-89.56044305436453
 30
0.0
 11
-45.61186292366174
 21
-83.78694036246828
 31
0.0
  0
LINE
  5
B397
330
B343
100
AcDbEntity
  8
0
100
AcDbLine
 10
-45.61186292366174
 20
-83.78694036246828
 30
0.0
 11
-46.67252309544156
 21
-83.17456792677248
 31
0.0
  0
ELLIPSE
  5
B398
330
B343
100
AcDbEntity
  8
0
100
AcDbEllipse
 10
21.56544947209969
 20
90.23015727796055
 30
0.0
 11
1.250000000000129
 21
2.165063509461022
 31
0.0
210
0.0
220
0.0
230
0.9999999999999998
 40
0.5773502691896259
 41
0.0
 42
6.283185307179586
  0
ELLIPSE
  5
B399
330
B343
100
AcDbEntity
  8
0
100
AcDbEllipse
 10
21.56544947209969
 20
73.90022565940603
 30
0.0
 11
1.250000000000129
 21
2.165063509461022
 31
0.0
210
0.0
220
0.0
230
0.9999999999999998
 40
0.5773502691896259
 41
0.0
 42
6.283185307179586
  0
ELLIPSE
  5
B39A
330
B343
100
AcDbEntity
  8
0
100
AcDbEllipse
 10
21.56544947209969
 20
57.57029404085151
 30
0.0
 11
1.250000000000129
 21
2.165063509461022
 31
0.0
210
0.0
220
0.0
230
0.9999999999999998
 40
0.5773502691896259
 41
0.0
 42
6.283185307179586
  0
ELLIPSE
  5
B39B
330
B343
100
AcDbEntity
  8
0
100
AcDbEllipse
 10
21.56544947209969
 20
41.24036242229698
 30
0.0
 11
1.250000000000129
 21
2.165063509461022
 31
0.0
210
0.0
220
0.0
230
0.9999999999999998
 40
0.5773502691896259
 41
0.0
 42
6.283185307179586
  0
ELLIPSE
  5
B39C
330
B343
100
AcDbEntity
  8
0
100
AcDbEllipse
 10
21.56544947209969
 20
24.91043080374245
 30
0.0
 11
1.250000000000129
 21
2.165063509461022
 31
0.0
210
0.0
220
0.0
230
0.9999999999999998
 40
0.5773502691896259
 41
0.0
 42
6.283185307179586
  0
ELLIPSE
  5
B39D
330
B343
100
AcDbEntity
  8
0
100
AcDbEllipse
 10
20.50478930031987
 20
90.84252971365634
 30
0.0
 11
1.249999999999872
 21
2.165063509461171
 31
0.0
210
0.0
220
0.0
230
1.0
 40
0.5773502691896266
 41
3.579741684173541
 42
5.845036276595005
  0
ELLIPSE
  5
B39E
330
B343
100
AcDbEntity
  8
0
100
AcDbEllipse
 10
20.50478930031987
 20
74.51259809510182
 30
0.0
 11
1.249999999999872
 21
2.165063509461171
 31
0.0
210
0.0
220
0.0
230
1.0
 40
0.5773502691896266
 41
3.579741684173537
 42
5.845036276594997
  0
ELLIPSE
  5
B39F
330
B343
100
AcDbEntity
  8
0
100
AcDbEllipse
 10
20.50478930031987
 20
58.1826664765473
 30
0.0
 11
1.249999999999872
 21
2.16506350946117
 31
0.0
210
0.0
220
0.0
230
0.9999999999999998
 40
0.5773502691896267
 41
3.579741684173541
 42
5.845036276594995
  0
ELLIPSE
  5
B3A0
330
B343
100
AcDbEntity
  8
0
100
AcDbEllipse
 10
20.50478930031987
 20
41.85273485799277
 30
0.0
 11
1.249999999999872
 21
2.16506350946117
 31
0.0
210
0.0
220
0.0
230
0.9999999999999998
 40
0.5773502691896267
 41
3.579741684173542
 42
5.845036276594995
  0
ELLIPSE
  5
B3A1
330
B343
100
AcDbEntity
  8
0
100
AcDbEllipse
 10
20.50478930031987
 20
25.52280323943824
 30
0.0
 11
1.249999999999872
 21
2.16506350946117
 31
0.0
210
0.0
220
0.0
230
0.9999999999999998
 40
0.5773502691896267
 41
3.579741684173542
 42
5.845036276594995
  0
ELLIPSE
  5
B3A2
330
B343
100
AcDbEntity
  8
0
100
AcDbEllipse
 10
21.56544947209969
 20
8.580499185187928
 30
0.0
 11
1.250000000000129
 21
2.165063509461022
 31
0.0
210
0.0
220
0.0
230
0.9999999999999998
 40
0.5773502691896259
 41
0.0
 42
6.283185307179586
  0
ELLIPSE
  5
B3A3
330
B343
100
AcDbEntity
  8
0
100
AcDbEllipse
 10
20.50478930031987
 20
9.192871620883718
 30
0.0
 11
1.249999999999872
 21
2.16506350946117
 31
0.0
210
0.0
220
0.0
230
0.9999999999999998
 40
0.5773502691896267
 41
3.579741684173541
 42
5.845036276594995
  0
LINE
  5
B3A4
330
B343
100
AcDbEntity
  8
0
100
AcDbLine
 10
45.18281596373038
 20
12.00978482508445
 30
0.0
 11
45.18281596373038
 21
110.3159731687826
 31
0.0
  0
ELLIPSE
  5
B3A5
330
B343
100
AcDbEntity
  8
0
100
AcDbEllipse
 10
43.69789172323862
 20
111.1732945787567
 30
0.0
 11
0.6000000000000006
 21
0.0
 31
0.0
210
0.0
220
0.0
230
1.0
 40
0.5773502691896259
 41
5.497787143782181
 42
7.068583470577047
  0
LINE
  5
B3A6
330
B343
100
AcDbEntity
  8
0
100
AcDbLine
 10
44.12215579195056
 20
111.4182435530351
 30
0.0
 11
44.12215579195056
 21
110.9283456044784
 31
0.0
  0
ELLIPSE
  5
B3A7
330
B343
100
AcDbEntity
  8
0
100
AcDbEllipse
 10
43.69789172323862
 20
111.1732945787567
 30
0.0
 11
2.1
 21
-0.0000000000000002
 31
0.0
210
0.0
220
0.0
230
1.0
 40
0.5773502691896258
 41
5.497787143782139
 42
7.068583470577033
  0
ELLIPSE
  5
B3A8
330
B343
100
AcDbEntity
  8
0
100
AcDbEllipse
 10
43.69789172323862
 20
12.86710623505856
 30
0.0
 11
2.1
 21
0.0000000000000002
 31
0.0
210
0.0
220
0.0
230
1.0
 40
0.5773502691896257
 41
5.49778714378214
 42
6.283185307179586
  0
LINE
  5
B3A9
330
B343
100
AcDbEntity
  8
0
100
AcDbLine
 10
11.73666521360665
 20
130.11601525628
 30
0.0
 11
11.73666521360664
 21
31.8098269125818
 31
0.0
  0
ELLIPSE
  5
B3AA
330
B343
100
AcDbEntity
  8
0
100
AcDbEllipse
 10
11.31240114489472
 20
129.8710662820017
 30
0.0
 11
0.6000000000000006
 21
-0.0000000000000359
 31
0.0
210
0.0
220
0.0
230
1.0
 40
0.5773502691896259
 41
0.785398163397697
 42
2.356194490192608
  0
LINE
  5
B3AB
330
B343
100
AcDbEntity
  8
0
100
AcDbLine
 10
10.88813707618279
 20
130.11601525628
 30
0.0
 11
10.88813707618279
 21
31.8098269125818
 31
0.0
  0
ELLIPSE
  5
B3AC
330
B343
100
AcDbEntity
  8
0
100
AcDbEllipse
 10
11.31240114489472
 20
31.56487793830348
 30
0.0
 11
0.6000000000000006
 21
-0.0000000000000359
 31
0.0
210
0.0
220
0.0
230
1.0
 40
0.5773502691896259
 41
0.785398163397681
 42
2.356194490192585
  0
ELLIPSE
  5
B3AD
330
B343
100
AcDbEntity
  8
0
100
AcDbEllipse
 10
11.31240114489472
 20
129.8710662820017
 30
0.0
 11
-2.1
 21
-0.0000000000001249
 31
0.0
210
0.0
220
0.0
230
1.0
 40
0.5773502691896258
 41
3.926990816987004
 42
5.4977871437819
  0
LINE
  5
B3AE
330
B343
100
AcDbEntity
  8
0
100
AcDbLine
 10
45.79789172323863
 20
111.1732945787567
 30
0.0
 11
45.79789172323862
 21
12.86710623505858
 31
0.0
  0
ELLIPSE
  5
B3AF
330
B343
100
AcDbEntity
  8
0
100
AcDbEllipse
 10
-13.78988958722772
 20
106.5600888965151
 30
0.0
 11
1.249999999999871
 21
2.165063509461171
 31
0.0
210
0.0
220
0.0
230
0.9999999999999998
 40
0.5773502691896259
 41
3.579741684173537
 42
5.845036276594986
  0
ELLIPSE
  5
B3B0
330
B343
100
AcDbEntity
  8
0
100
AcDbEllipse
 10
-13.78988958722772
 20
90.23015727796055
 30
0.0
 11
1.249999999999871
 21
2.165063509461171
 31
0.0
210
0.0
220
0.0
230
0.9999999999999998
 40
0.5773502691896259
 41
3.579741684173537
 42
5.845036276594986
  0
ELLIPSE
  5
B3B1
330
B343
100
AcDbEntity
  8
0
100
AcDbEllipse
 10
-13.78988958722773
 20
73.90022565940603
 30
0.0
 11
1.24999999999987
 21
2.165063509461171
 31
0.0
210
0.0
220
0.0
230
1.0
 40
0.5773502691896257
 41
3.579741684173544
 42
5.845036276594996
  0
ELLIPSE
  5
B3B2
330
B343
100
AcDbEntity
  8
0
100
AcDbEllipse
 10
-13.78988958722773
 20
57.57029404085151
 30
0.0
 11
1.24999999999987
 21
2.165063509461171
 31
0.0
210
0.0
220
0.0
230
1.0
 40
0.5773502691896257
 41
3.579741684173544
 42
5.845036276594996
  0
ELLIPSE
  5
B3B3
330
B343
100
AcDbEntity
  8
0
100
AcDbEllipse
 10
-13.78988958722773
 20
41.24036242229698
 30
0.0
 11
1.24999999999987
 21
2.165063509461171
 31
0.0
210
0.0
220
0.0
230
1.0
 40
0.5773502691896257
 41
3.579741684173544
 42
5.845036276594996
  0
ELLIPSE
  5
B3B4
330
B343
100
AcDbEntity
  8
0
100
AcDbEllipse
 10
-12.7292294154479
 20
105.9477164608193
 30
0.0
 11
1.250000000000129
 21
2.165063509461022
 31
0.0
210
0.0
220
0.0
230
0.9999999999999998
 40
0.5773502691896259
 41
0.0
 42
6.283185307179586
  0
ELLIPSE
  5
B3B5
330
B343
100
AcDbEntity
  8
0
100
AcDbEllipse
 10
-12.7292294154479
 20
89.61778484226476
 30
0.0
 11
1.250000000000129
 21
2.165063509461022
 31
0.0
210
0.0
220
0.0
230
0.9999999999999998
 40
0.5773502691896259
 41
0.0
 42
6.283185307179586
  0
ELLIPSE
  5
B3B6
330
B343
100
AcDbEntity
  8
0
100
AcDbEllipse
 10
-12.72922941544791
 20
73.28785322371024
 30
0.0
 11
1.250000000000129
 21
2.165063509461022
 31
0.0
210
0.0
220
0.0
230
0.9999999999999998
 40
0.5773502691896259
 41
0.0
 42
6.283185307179586
  0
ELLIPSE
  5
B3B7
330
B343
100
AcDbEntity
  8
0
100
AcDbEllipse
 10
-12.72922941544791
 20
56.95792160515572
 30
0.0
 11
1.250000000000129
 21
2.165063509461022
 31
0.0
210
0.0
220
0.0
230
0.9999999999999998
 40
0.5773502691896259
 41
0.0
 42
6.283185307179586
  0
ELLIPSE
  5
B3B8
330
B343
100
AcDbEntity
  8
0
100
AcDbEllipse
 10
-12.72922941544791
 20
40.62798998660119
 30
0.0
 11
1.250000000000129
 21
2.165063509461022
 31
0.0
210
0.0
220
0.0
230
0.9999999999999998
 40
0.5773502691896259
 41
0.0
 42
6.283185307179586
  0
ELLIPSE
  5
B3B9
330
B343
100
AcDbEntity
  8
0
100
AcDbEllipse
 10
-13.78988958722773
 20
24.91043080374247
 30
0.0
 11
1.24999999999987
 21
2.165063509461171
 31
0.0
210
0.0
220
0.0
230
1.0
 40
0.5773502691896257
 41
3.579741684173544
 42
5.845036276594997
  0
ELLIPSE
  5
B3BA
330
B343
100
AcDbEntity
  8
0
100
AcDbEllipse
 10
-12.72922941544791
 20
24.29805836804666
 30
0.0
 11
1.250000000000129
 21
2.165063509461022
 31
0.0
210
0.0
220
0.0
230
0.9999999999999998
 40
0.5773502691896259
 41
0.0
 42
6.283185307179586
  0
LINE
  5
B3BB
330
B343
100
AcDbEntity
  8
0
100
AcDbLine
 10
2.18281596329604
 20
-80.20429654948191
 30
0.0
 11
-11.31718403611417
 21
-103.5869824499656
 31
0.0
  0
LINE
  5
B3BC
330
B343
100
AcDbEntity
  8
0
100
AcDbLine
 10
1.122155791516021
 20
-79.59192411378598
 30
0.0
 11
-12.37784420789399
 21
-102.9746100142698
 31
0.0
  0
LINE
  5
B3BD
330
B343
100
AcDbEntity
  8
0
100
AcDbLine
 10
6.882815963730348
 20
-119.8682600410233
 30
0.0
 11
43.58281596294244
 21
-56.30199540461025
 31
0.0
  0
LINE
  5
B3BE
330
B343
100
AcDbEntity
  8
0
100
AcDbLine
 10
42.27362765373547
 20
-55.83311075596293
 30
0.0
 11
43.26143700312872
 21
-54.12217477462231
 31
0.0
  0
LINE
  5
B3BF
330
B343
100
AcDbEntity
  8
0
100
AcDbLine
 10
7.216545071186071
 20
-120.0609386310489
 30
0.0
 11
6.882815963730547
 21
-119.868260041023
 31
0.0
  0
LINE
  5
B3C0
330
B343
100
AcDbEntity
  8
0
100
AcDbLine
 10
44.25490504024836
 20
-55.90861733560782
 30
0.0
 11
7.216545071186062
 21
-120.0609386310489
 31
0.0
  0
LINE
  5
B3C1
330
B343
100
AcDbEntity
  8
0
100
AcDbLine
 10
2.18281596329604
 20
-80.20429654948191
 30
0.0
 11
1.122155791516021
 21
-79.59192411378598
 31
0.0
  0
LINE
  5
B3C2
330
B343
100
AcDbEntity
  8
0
100
AcDbLine
 10
43.58281596294244
 20
-56.30199540461025
 30
0.0
 11
2.182815963296045
 21
-80.20429654948191
 31
0.0
  0
LINE
  5
B3C3
330
B343
100
AcDbEntity
  8
0
100
AcDbLine
 10
-33.17252309603305
 20
-59.79188202628776
 30
0.0
 11
8.227476903615027
 21
-35.88958088141709
 31
0.0
  0
SPLINE
  5
B3C4
330
B343
100
AcDbEntity
  8
0
100
AcDbSpline
210
0.0
220
0.0
230
1.0
 70
     8
 71
     3
 72
     8
 73
     4
 74
     0
 42
0.000000001
 43
0.0000000001
 40
0.1302463606542609
 40
0.1302463606542609
 40
0.1302463606542609
 40
0.1302463606542609
 40
1.0
 40
1.0
 40
1.0
 40
1.0
 10
42.06583253418002
 20
-50.20444710779493
 30
0.0
 10
42.01300659839147
 20
-50.61386833523163
 30
0.0
 10
41.88139682427586
 20
-51.11178017039808
 30
0.0
 10
41.73600006606055
 20
-51.54069402476853
 30
0.0
  0
SPLINE
  5
B3C5
330
B343
100
AcDbEntity
  8
0
100
AcDbSpline
210
0.0
220
0.0
230
1.0
 70
     8
 71
     3
 72
     8
 73
     4
 74
     0
 42
0.000000001
 43
0.0000000001
 40
-1.0
 40
-1.0
 40
-1.0
 40
-1.0
 40
0.0
 40
0.0
 40
0.0
 40
0.0
 10
14.83543498623868
 20
-35.51974758602371
 30
0.0
 10
14.86736640122024
 20
-35.66807904236562
 30
0.0
 10
14.78540438860898
 20
-35.81228614183493
 30
0.0
 10
14.62429280207274
 20
-35.88774253771485
 30
0.0
  0
SPLINE
  5
B3C6
330
B343
100
AcDbEntity
  8
0
100
AcDbSpline
210
0.0
220
0.0
230
1.0
 70
     8
 71
     3
 72
     8
 73
     4
 74
     0
 42
0.000000001
 43
0.0000000001
 40
-1.0
 40
-1.0
 40
-1.0
 40
-1.0
 40
0.0
 40
0.0
 40
0.0
 40
0.0
 10
40.98600006606055
 20
-51.10768132287631
 30
0.0
 10
40.97079142850209
 20
-50.93042639815174
 30
0.0
 10
40.99145460433813
 20
-50.75082839876928
 30
0.0
 10
41.02338601931847
 20
-50.63936816449704
 30
0.0
  0
LINE
  5
B3C7
330
B343
100
AcDbEntity
  8
0
100
AcDbLine
 10
-32.11186292425307
 20
-60.40425446198364
 30
0.0
 11
-33.17252309603305
 21
-59.79188202628776
 31
0.0
  0
LINE
  5
B3C8
330
B343
100
AcDbEntity
  8
0
100
AcDbLine
 10
9.288137075394825
 20
-36.50195331711286
 30
0.0
 11
-32.11186292425308
 21
-60.40425446198364
 31
0.0
  0
LINE
  5
B3C9
330
B343
100
AcDbEntity
  8
0
100
AcDbLine
 10
9.288137075394825
 20
-36.50195331711286
 30
0.0
 11
8.93493723819143
 21
-36.29803329602574
 31
0.0
  0
LINE
  5
B3CA
330
B343
100
AcDbEntity
  8
0
100
AcDbLine
 10
8.93493723819143
 20
-36.29803329602574
 30
0.0
 11
8.227476903615027
 21
-35.88958088141709
 31
0.0
  0
SPLINE
  5
B3CB
330
B343
100
AcDbEntity
  8
0
100
AcDbSpline
210
0.0
220
0.0
230
1.0
 70
     8
 71
     3
 72
     8
 73
     4
 74
     0
 42
0.000000001
 43
0.0000000001
 40
-1.0
 40
-1.0
 40
-1.0
 40
-1.0
 40
0.0
 40
0.0
 40
0.0
 40
0.0
 10
10.87594642478482
 20
-35.42440307137736
 30
0.0
 10
10.36595385098421
 20
-35.79471618861807
 30
0.0
 10
9.733065134967278
 20
-36.0940751850672
 30
0.0
 10
9.28813707539483
 20
-36.50195331711285
 30
0.0
  0
SPLINE
  5
B3CC
330
B343
100
AcDbEntity
  8
0
100
AcDbSpline
210
0.0
220
0.0
230
1.0
 70
     8
 71
     3
 72
     8
 73
     4
 74
     0
 42
0.000000001
 43
0.0000000001
 40
0.0
 40
0.0
 40
0.0
 40
0.0
 40
0.6081734479693842
 40
0.6081734479693842
 40
0.6081734479693842
 40
0.6081734479693842
 10
8.227476903615036
 20
-35.88958088141707
 30
0.0
 10
8.736899490234662
 20
-35.77940830815843
 30
0.0
 10
9.489648856543318
 20
-35.80972051665475
 30
0.0
 10
10.24098171974596
 20
-35.83921490670156
 30
0.0
  0
LINE
  5
B3CD
330
B343
100
AcDbEntity
  8
0
100
AcDbLine
 10
11.6084727307443
 20
-35.14660347401546
 30
0.0
 11
10.87594642478482
 21
-35.42440307137737
 31
0.0
  0
LINE
  5
B3CE
330
B343
100
AcDbEntity
  8
0
100
AcDbLine
 10
13.22997842095393
 20
-36.0827802207505
 30
0.0
 11
11.6084727307443
 21
-35.14660347401546
 31
0.0
  0
ELLIPSE
  5
B3CF
330
B343
100
AcDbEntity
  8
0
100
AcDbEllipse
 10
13.97997842095392
 20
-34.78374211507385
 30
0.0
 11
-0.7499999999999997
 21
-1.299038105676659
 31
0.0
210
0.0
220
0.0
230
1.0
 40
0.8164965809277259
 41
0.0
 42
1.134458255166983
  0
ELLIPSE
  5
B3D0
330
B343
100
AcDbEntity
  8
0
100
AcDbEllipse
 10
13.78727487904764
 20
-35.10206789444537
 30
0.0
 11
0.7499999999999238
 21
-1.299038105676702
 31
0.0
210
0.0
220
0.0
230
1.0
 40
0.5773502691896262
 41
0.9390757175653323
 42
2.356194490192585
  0
LINE
  5
B3D1
330
B343
100
AcDbEntity
  8
0
100
AcDbLine
 10
43.58281596294244
 20
-56.30199540461025
 30
0.0
 11
42.87535562836563
 21
-55.89354299000135
 31
0.0
  0
LINE
  5
B3D2
330
B343
100
AcDbEntity
  8
0
100
AcDbLine
 10
42.87535562836563
 20
-55.89354299000135
 30
0.0
 11
42.5221557911626
 21
-55.68962296891443
 31
0.0
  0
LINE
  5
B3D3
330
B343
100
AcDbEntity
  8
0
100
AcDbLine
 10
1.122155791516021
 20
-79.59192411378598
 30
0.0
 11
42.5221557911626
 21
-55.68962296891443
 31
0.0
  0
LINE
  5
B3D4
330
B343
100
AcDbEntity
  8
0
100
AcDbLine
 10
43.26143700312872
 20
-54.12217477462231
 30
0.0
 11
43.51118700312848
 21
-54.26636800435227
 31
0.0
  0
SPLINE
  5
B3D5
330
B343
100
AcDbEntity
  8
0
100
AcDbSpline
210
0.0
220
0.0
230
1.0
 70
     8
 71
     3
 72
     8
 73
     4
 74
     0
 42
0.000000001
 43
0.0000000001
 40
-1.0
 40
-1.0
 40
-1.0
 40
-1.0
 40
0.0
 40
0.0
 40
0.0
 40
0.0
 10
42.5221557911626
 20
-55.68962296891445
 30
0.0
 10
42.96708385073492
 20
-55.28174483686901
 30
0.0
 10
43.19573272314404
 20
-54.74899785789519
 30
0.0
 10
43.26143700312869
 20
-54.12217477462234
 30
0.0
  0
SPLINE
  5
B3D6
330
B343
100
AcDbEntity
  8
0
100
AcDbSpline
210
0.0
220
0.0
230
1.0
 70
     8
 71
     3
 72
     8
 73
     4
 74
     0
 42
0.000000001
 43
0.0000000001
 40
0.0
 40
0.0
 40
0.0
 40
0.0
 40
1.0
 40
1.0
 40
1.0
 40
1.0
 10
44.01143700312868
 20
-54.55518747651455
 30
0.0
 10
44.50109309041381
 20
-55.50264801732787
 30
0.0
 10
44.42044310421348
 20
-56.12084219309409
 30
0.0
 10
43.58281596294244
 20
-56.30199540461025
 30
0.0
  0
LINE
  5
B3D7
330
B343
100
AcDbEntity
  8
0
100
AcDbLine
 10
43.51118700312848
 20
-54.26636800435227
 30
0.0
 11
44.01143700312871
 21
-54.55518747651453
 31
0.0
  0
ELLIPSE
  5
B3D8
330
B343
100
AcDbEntity
  8
0
100
AcDbEllipse
 10
43.01424966841581
 20
-51.54668643552058
 30
0.0
 11
-0.7500000000000007
 21
-1.299038105676658
 31
0.0
210
0.0
220
0.0
230
0.9999999999999998
 40
0.816496580927726
 41
5.148727052012604
 42
6.283185307179586
  0
LINE
  5
B3D9
330
B343
100
AcDbEntity
  8
0
100
AcDbLine
 10
41.73600006606055
 20
-51.54069402476853
 30
0.0
 11
41.23575006696135
 21
-51.25187455312651
 31
0.0
  0
LINE
  5
B3DA
330
B343
100
AcDbEntity
  8
0
100
AcDbLine
 10
41.23575006696135
 20
-51.25187455312651
 30
0.0
 11
40.98600006606055
 21
-51.10768132287631
 31
0.0
  0
ELLIPSE
  5
B3DB
330
B343
100
AcDbEntity
  8
0
100
AcDbEllipse
 10
42.26424966841583
 20
-51.11367373362837
 30
0.0
 11
-0.7500000000000001
 21
-1.299038105676659
 31
0.0
210
0.0
220
0.0
230
1.0
 40
0.8164965809277259
 41
5.148727052012596
 42
6.283185307179585
  0
LINE
  5
B3DC
330
B343
100
AcDbEntity
  8
0
100
AcDbLine
 10
43.13575535862548
 20
-53.34888858604006
 30
0.0
 11
41.51424966841585
 21
-52.41271183930503
 31
0.0
  0
LINE
  5
B3DD
330
B343
100
AcDbEntity
  8
0
100
AcDbLine
 10
43.13575535862548
 20
-53.34888858604006
 30
0.0
 11
43.88575535862547
 21
-53.78190128793228
 31
0.0
  0
LINE
  5
B3DE
330
B343
100
AcDbEntity
  8
0
100
AcDbLine
 10
43.88575535862547
 20
-53.78190128793228
 30
0.0
 11
44.01143700312871
 21
-54.55518747651453
 31
0.0
  0
LINE
  5
B3DF
330
B343
100
AcDbEntity
  8
0
100
AcDbLine
 10
43.26143700312872
 20
-54.12217477462231
 30
0.0
 11
43.13575535862548
 21
-53.34888858604006
 31
0.0
  0
LINE
  5
B3E0
330
B343
100
AcDbEntity
  8
0
100
AcDbLine
 10
41.02338601931849
 20
-50.63936816449704
 30
0.0
 11
41.37658585972907
 21
-50.43544814155826
 31
0.0
  0
LINE
  5
B3E1
330
B343
100
AcDbEntity
  8
0
100
AcDbLine
 10
41.37658585972907
 20
-50.43544814155826
 30
0.0
 11
41.90918729646569
 21
-50.12795055868758
 31
0.0
  0
ELLIPSE
  5
B3E2
330
B343
100
AcDbEntity
  8
0
100
AcDbEllipse
 10
42.07154612650955
 20
-51.43199951299989
 30
0.0
 11
-0.7500000000000011
 21
1.299038105676658
 31
0.0
210
0.0
220
0.0
230
1.0
 40
0.5773502691896259
 41
5.497787143782137
 42
6.914905916409348
  0
LINE
  5
B3E3
330
B343
100
AcDbEntity
  8
0
100
AcDbLine
 10
6.882815963730348
 20
-119.8682600410233
 30
0.0
 11
-11.3171840361142
 21
-109.3604851418618
 31
0.0
  0
LINE
  5
B3E4
330
B343
100
AcDbEntity
  8
0
100
AcDbLine
 10
-45.61186292366173
 20
-89.56044305436453
 30
0.0
 11
-27.4118629238172
 21
-100.0682179535259
 31
0.0
  0
LINE
  5
B3E5
330
B343
100
AcDbEntity
  8
0
100
AcDbLine
 10
14.8354349862387
 20
-35.5197475860237
 30
0.0
 11
26.1691151838484
 21
-42.06325089902278
 31
0.0
  0
LINE
  5
B3E6
330
B343
100
AcDbEntity
  8
0
100
AcDbLine
 10
26.0951572326663
 20
-42.51044920455573
 30
0.0
 11
14.62429280207274
 21
-35.88774253771485
 31
0.0
  0
LINE
  5
B3E7
330
B343
100
AcDbEntity
  8
0
100
AcDbLine
 10
40.98600006606055
 20
-51.10768132287631
 30
0.0
 11
29.51513563546701
 21
-44.48497465603543
 31
0.0
  0
LINE
  5
B3E8
330
B343
100
AcDbEntity
  8
0
100
AcDbLine
 10
29.6897058217088
 20
-44.09586485149795
 30
0.0
 11
41.02338601931849
 21
-50.63936816449704
 31
0.0
  0
LINE
  5
B3E9
330
B343
100
AcDbEntity
  8
0
100
AcDbLine
 10
-26.68759885510527
 20
-100.4863720085611
 30
0.0
 11
-12.377844207894
 21
-108.748112706166
 31
0.0
  0
ELLIPSE
  5
B3EA
330
B343
100
AcDbEntity
  8
0
100
AcDbEllipse
 10
-3.567184036000474
 20
-99.40119299840649
 30
0.0
 11
1.25000000000013
 21
2.165063509461022
 31
0.0
210
0.0
220
0.0
230
1.0
 40
0.5773502691896254
 41
0.0
 42
6.283185307179586
  0
ELLIPSE
  5
B3EB
330
B343
100
AcDbEntity
  8
0
100
AcDbEllipse
 10
10.18281596420424
 20
-81.35899708634886
 30
0.0
 11
-0.4000000000000426
 21
-0.6928203230275286
 31
0.0
210
0.0
220
0.0
230
1.0
 40
0.5773502691896255
 41
2.094395102375157
 42
2.276828566511568
  0
LINE
  5
B3EC
330
B343
100
AcDbEntity
  8
0
100
AcDbLine
 10
10.72922612571536
 20
-81.21258692484813
 30
0.0
 11
9.936757880392097
 21
-85.0851821890542
 31
0.0
  0
ELLIPSE
  5
B3ED
330
B343
100
AcDbEntity
  8
0
100
AcDbEllipse
 10
9.390347718880985
 20
-85.23159235055494
 30
0.0
 11
-0.400000000000042
 21
-0.6928203230275269
 31
0.0
210
0.0
220
0.0
230
0.9999999999999998
 40
0.5773502691896255
 41
0.0
 42
2.094395102375107
  0
LINE
  5
B3EE
330
B343
100
AcDbEntity
  8
0
100
AcDbLine
 10
8.990347718873714
 20
-85.9244126735783
 30
0.0
 11
6.825284209452
 21
-84.67441267351006
 31
0.0
  0
ELLIPSE
  5
B3EF
330
B343
100
AcDbEntity
  8
0
100
AcDbEllipse
 10
7.225284209459266
 20
-83.9815923504867
 30
0.0
 11
-0.4000000000072804
 21
-0.6928203230233495
 31
0.0
210
0.0
220
0.0
230
1.0
 40
0.5773502691896257
 41
4.18879020482279
 42
6.28318530725237
  0
LINE
  5
B3F0
330
B343
100
AcDbEntity
  8
0
100
AcDbLine
 10
7.078874047955441
 20
-83.43518218896411
 30
0.0
 11
10.03640580270042
 21
-80.81258692482627
 31
0.0
  0
ELLIPSE
  5
B3F1
330
B343
100
AcDbEntity
  8
0
100
AcDbEllipse
 10
10.18281596420424
 20
-81.35899708634886
 30
0.0
 11
0.4000000000000011
 21
0.6928203230275523
 31
0.0
210
0.0
220
0.0
230
1.0
 40
0.5773502691896258
 41
0.080238588270479
 42
1.047197551178416
  0
LINE
  5
B3F2
330
B343
100
AcDbEntity
  8
0
100
AcDbLine
 10
10.54946800193847
 20
-80.6498954047726
 30
0.0
 11
10.7467207120886
 21
-81.08521372515017
 31
0.0
  0
ELLIPSE
  5
B3F3
330
B343
100
AcDbEntity
  8
0
100
AcDbEllipse
 10
8.32968754710119
 20
-84.61921991485915
 30
0.0
 11
-0.4000000000072798
 21
-0.6928203230233483
 31
0.0
210
0.0
220
0.0
230
1.0
 40
0.5773502691896258
 41
0.0000000000727844
 42
2.094395102429602
  0
LINE
  5
B3F4
330
B343
100
AcDbEntity
  8
0
100
AcDbLine
 10
8.876097708612281
 20
-84.47280975335841
 30
0.0
 11
9.936757880392097
 21
-85.0851821890542
 31
0.0
  0
LINE
  5
B3F5
330
B343
100
AcDbEntity
  8
0
100
AcDbLine
 10
8.876097708612281
 20
-84.47280975335841
 30
0.0
 11
9.533927224762926
 21
-81.25816048011115
 31
0.0
  0
LINE
  5
B3F6
330
B343
100
AcDbEntity
  8
0
100
AcDbLine
 10
10.0364058026878
 20
-80.81258692484812
 30
0.0
 11
10.72922612571536
 21
-81.21258692484813
 31
0.0
  0
LINE
  5
B3F7
330
B343
100
AcDbEntity
  8
0
100
AcDbLine
 10
10.13796693619362
 20
-80.73374956876703
 30
0.0
 11
10.7467207120886
 21
-81.08521372515017
 31
0.0
  0
ELLIPSE
  5
B3F8
330
B343
100
AcDbEntity
  8
0
100
AcDbEllipse
 10
-4.627844207780271
 20
-98.78882056271073
 30
0.0
 11
1.249999999999871
 21
2.165063509461171
 31
0.0
210
0.0
220
0.0
230
0.9999999999999998
 40
0.5773502691896258
 41
3.579741684173535
 42
5.845036276595007
  0
LINE
  5
B3F9
330
B343
100
AcDbEntity
  8
0
100
AcDbLine
 10
-33.17252309603305
 20
-59.79188202628776
 30
0.0
 11
-46.67252309544156
 21
-83.17456792677248
 31
0.0
  0
LINE
  5
B3FA
330
B343
100
AcDbEntity
  8
0
100
AcDbLine
 10
-32.11186292425307
 20
-60.40425446198364
 30
0.0
 11
-45.61186292366174
 21
-83.78694036246828
 31
0.0
  0
ELLIPSE
  5
B3FB
330
B343
100
AcDbEntity
  8
0
100
AcDbEllipse
 10
-41.4225230953733
 20
-83.3189054941093
 30
0.0
 11
1.24999999999987
 21
2.165063509461171
 31
0.0
210
0.0
220
0.0
230
1.0
 40
0.5773502691896255
 41
3.579741684173528
 42
5.845036276595007
  0
ELLIPSE
  5
B3FC
330
B343
100
AcDbEntity
  8
0
100
AcDbEllipse
 10
-28.46499134049185
 20
-69.14930484625775
 30
0.0
 11
-0.4000000000072798
 21
-0.6928203230233483
 31
0.0
210
0.0
220
0.0
230
1.0
 40
0.5773502691896258
 41
0.0000000000727865
 42
2.094395102429588
  0
LINE
  5
B3FD
330
B343
100
AcDbEntity
  8
0
100
AcDbLine
 10
-27.91858117898076
 20
-69.00289468475698
 30
0.0
 11
-27.26075166283011
 21
-65.78824541150973
 31
0.0
  0
LINE
  5
B3FE
330
B343
100
AcDbEntity
  8
0
100
AcDbLine
 10
-26.85792100720093
 20
-69.61526712045278
 30
0.0
 11
-27.91858117898076
 21
-69.00289468475698
 31
0.0
  0
LINE
  5
B3FF
330
B343
100
AcDbEntity
  8
0
100
AcDbLine
 10
-26.06545276187768
 20
-65.7426718562467
 30
0.0
 11
-26.85792100720093
 21
-69.61526712045278
 31
0.0
  0
LINE
  5
B400
330
B343
100
AcDbEntity
  8
0
100
AcDbLine
 10
-26.06545276187768
 20
-65.7426718562467
 30
0.0
 11
-26.7582730849125
 21
-65.3426718562425
 31
0.0
  0
ELLIPSE
  5
B401
330
B343
100
AcDbEntity
  8
0
100
AcDbEllipse
 10
-26.61186292338879
 20
-65.88908201774746
 30
0.0
 11
0.4000000000000006
 21
0.6928203230275526
 31
0.0
210
0.0
220
0.0
230
1.0
 40
0.5773502691896257
 41
5.235987755964797
 42
7.330382858357998
  0
LINE
  5
B402
330
B343
100
AcDbEntity
  8
0
100
AcDbLine
 10
-29.71580483963759
 20
-67.9652671203627
 30
0.0
 11
-26.75827308489262
 21
-65.34267185622486
 31
0.0
  0
ELLIPSE
  5
B403
330
B343
100
AcDbEntity
  8
0
100
AcDbEllipse
 10
-29.56939467813376
 20
-68.51167728188528
 30
0.0
 11
-0.4000000000072796
 21
-0.6928203230233496
 31
0.0
210
0.0
220
0.0
230
1.0
 40
0.5773502691896259
 41
4.188790204822796
 42
6.283185307252384
  0
LINE
  5
B404
330
B343
100
AcDbEntity
  8
0
100
AcDbLine
 10
-27.80433116871932
 20
-70.45449760497688
 30
0.0
 11
-29.96939467814103
 21
-69.20449760490865
 31
0.0
  0
ELLIPSE
  5
B405
330
B343
100
AcDbEntity
  8
0
100
AcDbEllipse
 10
-27.40433116871205
 20
-69.76167728195353
 30
0.0
 11
-0.4000000000000413
 21
-0.6928203230275273
 31
0.0
210
0.0
220
0.0
230
1.0
 40
0.5773502691896258
 41
0.0
 42
2.094395102375107
  0
ELLIPSE
  5
B406
330
B343
100
AcDbEntity
  8
0
100
AcDbEllipse
 10
-40.36186292359352
 20
-83.93127792980507
 30
0.0
 11
1.250000000000129
 21
2.165063509461022
 31
0.0
210
0.0
220
0.0
230
1.0
 40
0.5773502691896259
 41
0.0
 42
6.283185307179586
  0
LINE
  5
B407
330
B343
100
AcDbEntity
  8
0
100
AcDbLine
 10
10.87594642478482
 20
-35.42440307137737
 30
0.0
 11
-26.68759885510527
 21
-100.4863720085611
 31
0.0
  0
LINE
  5
B408
330
B343
100
AcDbEntity
  8
0
100
AcDbLine
 10
-27.41186292381722
 20
-100.0682179535259
 30
0.0
 11
-26.68759885510528
 21
-100.4863720085611
 31
0.0
  0
LINE
  5
B409
330
B343
100
AcDbEntity
  8
0
100
AcDbLine
 10
-27.4118629238172
 20
-100.0682179535259
 30
0.0
 11
9.288137075394825
 21
-36.50195331711286
 31
0.0
  0
ENDBLK
  5
B345
330
B343
100
AcDbEntity
  8
0
100
AcDbBlockEnd
  0
ENDSEC
  0
SECTION
  2
ENTITIES
  0
INSERT
  5
B40A
330
1F
100
AcDbEntity
  8
0
100
AcDbBlockReference
  2
SPR47_200-Front
 10
0.0
 20
0.0
 30
0.0
  0
INSERT
  5
B40B
330
1F
100
AcDbEntity
  8
0
100
AcDbBlockReference
  2
SPR47_200-Left
 10
142.9229986469886
 20
0.0
 30
0.0
  0
INSERT
  5
B40C
330
1F
100
AcDbEntity
  8
0
100
AcDbBlockReference
  2
SPR47_200-Right
 10
-142.9229986469887
 20
0.0
 30
0.0
  0
INSERT
  5
B40D
330
1F
100
AcDbEntity
  8
0
100
AcDbBlockReference
  2
SPR47_200-Top
 10
0.0
 20
-132.545601705951
 30
0.0
  0
INSERT
  5
B40E
330
1F
100
AcDbEntity
  8
0
100
AcDbBlockReference
  2
SPR47_200-Bottom
 10
0.0
 20
277.5659080859887
 30
0.0
  0
INSERT
  5
B40F
330
1F
100
AcDbEntity
  8
0
100
AcDbBlockReference
  2
SPR47_200-ISO
 10
189.5955217424302
 20
-263.6291035532509
 30
0.0
  0
MTEXT
  5
B410
330
1F
100
AcDbEntity
  8
0
100
AcDbMText
 10
0.0
 20
-291.4445760657997
 30
0.0
 40
21.98815363799826
 41
0.0
 71
     5
 72
     5
  1
SPR47/200
 73
     1
 44
1.0
1001
ACAD
1000
MTEXTBEGIN
1070
    73
1070
     1
1070
    44
1040
1.0
1070
    74
1070
     0
1000
MTEXTEND
  0
ENDSEC
  0
SECTION
  2
OBJECTS
  0
DICTIONARY
  5
C
330
0
100
AcDbDictionary
281
     1
  3
ACAD_CIP_PREVIOUS_PRODUCT_INFO
350
216
  3
ACAD_COLOR
350
6B
  3
ACAD_DETAILVIEWSTYLE
350
21B
  3
ACAD_GROUP
350
D
  3
ACAD_LAYOUT
350
1A
  3
ACAD_MATERIAL
350
6A
  3
ACAD_MLEADERSTYLE
350
12D
  3
ACAD_MLINESTYLE
350
17
  3
ACAD_PLOTSETTINGS
350
19
  3
ACAD_PLOTSTYLENAME
350
E
  3
ACAD_SCALELIST
350
10C
  3
ACAD_SECTIONVIEWSTYLE
350
219
  3
ACAD_TABLESTYLE
350
7E
  3
ACAD_VISUALSTYLE
350
EF
  3
ACDB_RECOMPOSE_DATA
350
B511
  3
AcDbVariableDictionary
350
5E
  3
DWGPROPS
350
B512
  0
DICTIONARY
  5
B461
330
8
100
AcDbDictionary
280
     1
281
     1
  0
DICTIONARY
  5
1FF
330
2
100
AcDbDictionary
280
     1
281
     1
  3
ACAD_LAYERSTATES
360
200
  0
DICTIONARY
  5
13C
330
10
100
AcDbDictionary
280
     1
281
     1
  0
DICTIONARY
  5
1CE
330
1F
100
AcDbDictionary
280
     1
281
     1
  3
ACAD_LAYOUTSELFREF
360
B469
  0
DICTIONARY
  5
B414
330
D2
100
AcDbDictionary
280
     1
281
     1
  3
ACAD_LAYOUTSELFREF
360
B472
  0
DICTIONARY
  5
B416
330
D6
100
AcDbDictionary
280
     1
281
     1
  3
ACAD_LAYOUTSELFREF
360
B475
  0
XRECORD
  5
216
102
{ACAD_REACTORS
330
C
102
}
330
C
100
AcDbXrecord
280
     1
300
ACD
300
2021
300
87393ACD_2021_0F
  0
DICTIONARY
  5
6B
102
{ACAD_REACTORS
330
C
102
}
330
C
100
AcDbDictionary
281
     1
  0
DICTIONARY
  5
21B
102
{ACAD_REACTORS
330
C
102
}
330
C
100
AcDbDictionary
281
     1
  3
Metric50
350
21C
  0
DICTIONARY
  5
D
102
{ACAD_REACTORS
330
C
102
}
330
C
100
AcDbDictionary
281
     1
  0
DICTIONARY
  5
1A
102
{ACAD_REACTORS
330
C
102
}
330
C
100
AcDbDictionary
281
     1
  3
Layout1
350
D3
  3
Layout2
350
D7
  3
Model
350
22
  0
DICTIONARY
  5
6A
102
{ACAD_REACTORS
330
C
102
}
330
C
100
AcDbDictionary
281
     1
  3
ByBlock
350
ED
  3
ByLayer
350
EC
  3
Global
350
EE
  0
DICTIONARY
  5
12D
102
{ACAD_REACTORS
330
C
102
}
330
C
100
AcDbDictionary
281
     1
  3
Standard
350
12E
  0
DICTIONARY
  5
17
102
{ACAD_REACTORS
330
C
102
}
330
C
100
AcDbDictionary
281
     1
  3
Standard
350
18
  0
DICTIONARY
  5
19
102
{ACAD_REACTORS
330
C
102
}
330
C
100
AcDbDictionary
281
     1
  0
ACDBDICTIONARYWDFLT
  5
E
102
{ACAD_REACTORS
330
C
102
}
330
C
100
AcDbDictionary
281
     1
  3
Normal
350
F
100
AcDbDictionaryWithDefault
340
F
  0
DICTIONARY
  5
10C
102
{ACAD_REACTORS
330
C
102
}
330
C
100
AcDbDictionary
281
     1
  3
A0
350
10D
  3
A1
350
1BE
  3
A2
350
1BF
  3
A3
350
1C0
  3
A4
350
1C1
  3
A5
350
1C2
  3
A6
350
1C3
  3
A7
350
1C4
  3
A8
350
1C5
  3
A9
350
1C6
  3
B0
350
1C7
  3
B1
350
1C8
  3
B2
350
1C9
  3
B3
350
1CA
  3
B4
350
1CB
  3
B5
350
1CC
  3
B6
350
1CD
  0
DICTIONARY
  5
219
102
{ACAD_REACTORS
330
C
102
}
330
C
100
AcDbDictionary
281
     1
  3
Metric50
350
21A
  0
DICTIONARY
  5
7E
102
{ACAD_REACTORS
330
C
102
}
330
C
100
AcDbDictionary
281
     1
  3
Standard
350
7F
  0
DICTIONARY
  5
EF
102
{ACAD_REACTORS
330
C
102
}
330
C
100
AcDbDictionary
281
     1
  3
2dWireframe
350
F5
  3
Basic
350
F4
  3
Brighten
350
FB
  3
ColorChange
350
FF
  3
Conceptual
350
F8
  3
Dim
350
FA
  3
EdgeColorOff
350
1E6
  3
Facepattern
350
FE
  3
Flat
350
F0
  3
FlatWithEdges
350
F1
  3
Gouraud
350
F2
  3
GouraudWithEdges
350
F3
  3
Hidden
350
F7
  3
JitterOff
350
1E4
  3
Linepattern
350
FD
  3
OverhangOff
350
1E5
  3
Realistic
350
F9
  3
Shaded
350
1F3
  3
Shaded with edges
350
1F2
  3
Shades of Gray
350
1EF
  3
Sketchy
350
1F0
  3
Thicken
350
FC
  3
Wireframe
350
F6
  3
X-Ray
350
1F1
  0
XRECORD
  5
B511
102
{ACAD_REACTORS
330
C
102
}
330
C
100
AcDbXrecord
280
     1
 90
        1
330
7F
  0
DICTIONARY
  5
5E
102
{ACAD_REACTORS
330
C
102
}
330
C
100
AcDbDictionary
281
     1
  3
CANNOSCALE
350
146
  3
CENTEREXE
350
259
  3
CENTERLTYPEFILE
350
25A
  3
CMLEADERSTYLE
350
145
  3
CTABLESTYLE
350
84
  3
CVIEWDETAILSTYLE
350
227
  3
CVIEWSECTIONSTYLE
350
228
  3
DIMASSOC
350
5F
  3
HIDETEXT
350
63
  3
INDEXCTL
350
B4BE
  3
LAYEREVAL
350
1AE
  3
LAYERNOTIFY
350
1AF
  3
LIGHTINGUNITS
350
B4BC
  3
MSLTSCALE
350
B4BB
  3
PSOLHEIGHT
350
B50E
  3
PSOLWIDTH
350
B50D
  3
SORTENTS
350
B4BD
  3
XCLIPFRAME
350
B50F
  0
XRECORD
  5
B512
102
{ACAD_REACTORS
330
C
102
}
330
C
100
AcDbXrecord
280
     1
  1
DWGPROPS COOKIE
  2

  3

  4

  6

  7

  8
truole
  9

300
=
301
=
302
=
303
=
304
=
305
=
306
=
307
=
308
=
309
=
 40
0.0023726851851852
 41
2460719.40650463
 42
2460719.413587963
  1

 90
        0
  0
DICTIONARY
  5
200
102
{ACAD_REACTORS
330
1FF
102
}
330
1FF
100
AcDbDictionary
281
     1
  0
XRECORD
  5
B469
102
{ACAD_REACTORS
330
1CE
102
}
330
1CE
100
AcDbXrecord
280
     1
340
1F
  0
XRECORD
  5
B472
102
{ACAD_REACTORS
330
B414
102
}
330
B414
100
AcDbXrecord
280
     1
340
D2
  0
XRECORD
  5
B475
102
{ACAD_REACTORS
330
B416
102
}
330
B416
100
AcDbXrecord
280
     1
340
D6
  0
ACDBDETAILVIEWSTYLE
  5
21C
102
{ACAD_XDICTIONARY
360
B551
102
}
102
{ACAD_REACTORS
330
21B
102
}
330
21B
100
AcDbModelDocViewStyle
 70
     0
  3
Metric50
290
     0
100
AcDbDetailViewStyle
 70
     0
 71
     0
 90
        3
 71
     1
340
11
 40
5.0
340
0
 40
5.0
300

 40
0.0
280
     1
 71
     2
340
16
 90
       25
 71
     3
340
11
 40
5.0
 90
        0
 40
15.0
 90
        1
300
%<\AcVar ViewDetailId>% (%<\AcVar ViewScale \f "%sn">%)
 71
     4
340
16
 90
       25
340
16
 90
       25
280
     0
  0
LAYOUT
  5
D3
102
{ACAD_XDICTIONARY
360
B516
102
}
102
{ACAD_REACTORS
330
1A
102
}
330
1A
100
AcDbPlotSettings
  1

  2
C:\Documents and Settings\basas\Application Data\Autodesk\AutoCAD 2005\R16.1\enu\plotters\Default Windows System Printer.pc3
  4

  6

 40
0.0
 41
0.0
 42
0.0
 43
0.0
 44
0.0
 45
0.0
 46
0.0
 47
0.0
 48
0.0
 49
0.0
140
0.0
141
0.0
142
1.0
143
1.0
 70
   688
 72
     0
 73
     0
 74
     5
  7

 75
    16
147
1.0
148
0.0
149
0.0
100
AcDbLayout
  1
Layout1
 70
     1
 71
     1
 10
0.0
 20
0.0
 11
12.0
 21
9.0
 12
0.0
 22
0.0
 32
0.0
 14
0.0
 24
0.0
 34
0.0
 15
0.0
 25
0.0
 35
0.0
146
0.0
 13
0.0
 23
0.0
 33
0.0
 16
1.0
 26
0.0
 36
0.0
 17
0.0
 27
1.0
 37
0.0
 76
     0
330
D2
  0
LAYOUT
  5
D7
102
{ACAD_XDICTIONARY
360
B518
102
}
102
{ACAD_REACTORS
330
1A
102
}
330
1A
100
AcDbPlotSettings
  1

  2
C:\Documents and Settings\basas\Application Data\Autodesk\AutoCAD 2005\R16.1\enu\plotters\Default Windows System Printer.pc3
  4

  6

 40
0.0
 41
0.0
 42
0.0
 43
0.0
 44
0.0
 45
0.0
 46
0.0
 47
0.0
 48
0.0
 49
0.0
140
0.0
141
0.0
142
1.0
143
1.0
 70
   688
 72
     0
 73
     0
 74
     5
  7

 75
    16
147
1.0
148
0.0
149
0.0
100
AcDbLayout
  1
Layout2
 70
     1
 71
     2
 10
0.0
 20
0.0
 11
12.0
 21
9.0
 12
0.0
 22
0.0
 32
0.0
 14
0.0
 24
0.0
 34
0.0
 15
0.0
 25
0.0
 35
0.0
146
0.0
 13
0.0
 23
0.0
 33
0.0
 16
1.0
 26
0.0
 36
0.0
 17
0.0
 27
1.0
 37
0.0
 76
     0
330
D6
  0
LAYOUT
  5
22
102
{ACAD_XDICTIONARY
360
B513
102
}
102
{ACAD_REACTORS
330
1A
102
}
330
1A
100
AcDbPlotSettings
  1

  2
none_device
  4
ISO_A4_(210.00_x_297.00_MM)
  6

 40
7.5
 41
20.0
 42
7.5
 43
20.0
 44
210.0
 45
297.0
 46
11.54999923706054
 47
-13.65000009536743
 48
0.0
 49
0.0
140
0.0
141
0.0
142
1.0
143
8.704084754739808
 70
 11952
 72
     1
 73
     0
 74
     0
  7

 75
     0
147
0.1148885871608098
148
0.0
149
0.0
100
AcDbLayout
  1
Model
 70
     1
 71
     0
 10
0.0
 20
0.0
 11
12.0
 21
9.0
 12
0.0
 22
0.0
 32
0.0
 14
0.0
 24
0.0
 34
0.0
 15
0.0
 25
0.0
 35
0.0
146
0.0
 13
0.0
 23
0.0
 33
0.0
 16
1.0
 26
0.0
 36
0.0
 17
0.0
 27
1.0
 37
0.0
 76
     0
330
1F
331
EA
1001
ACAD_PSEXT
1000
None
1000
None
1000
Not applicable
1000
The layout will not be plotted unless a new plotter configuration name is selected.
1070
     0
  0
MATERIAL
  5
ED
102
{ACAD_XDICTIONARY
360
1F9
102
}
102
{ACAD_REACTORS
330
6A
102
}
330
6A
100
AcDbMaterial
  1
ByBlock
  0
MATERIAL
  5
EC
102
{ACAD_XDICTIONARY
360
1F7
102
}
102
{ACAD_REACTORS
330
6A
102
}
330
6A
100
AcDbMaterial
  1
ByLayer
  0
MATERIAL
  5
EE
102
{ACAD_XDICTIONARY
360
173
102
}
102
{ACAD_REACTORS
330
6A
102
}
330
6A
100
AcDbMaterial
  1
Global
 43
0.0007999999797903
 43
0.0
 43
0.0
 43
0.0
 43
0.0
 43
0.0007999999797903
 43
0.0
 43
0.0
 43
0.0
 43
0.0
 43
1.0
 43
0.0
 43
0.0
 43
0.0
 43
0.0
 43
1.0
 49
0.0007999999797903
 49
0.0
 49
0.0
 49
0.0
 49
0.0
 49
0.0007999999797903
 49
0.0
 49
0.0
 49
0.0
 49
0.0
 49
1.0
 49
0.0
 49
0.0
 49
0.0
 49
0.0
 49
1.0
142
0.0007999999797903
142
0.0
142
0.0
142
0.0
142
0.0
142
0.0007999999797903
142
0.0
142
0.0
142
0.0
142
0.0
142
1.0
142
0.0
142
0.0
142
0.0
142
0.0
142
1.0
144
0.0007999999797903
144
0.0
144
0.0
144
0.0
144
0.0
144
0.0007999999797903
144
0.0
144
0.0
144
0.0
144
0.0
144
1.0
144
0.0
144
0.0
144
0.0
144
0.0
144
1.0
1001
ACAD
1070
    -1
1070
     3
1070
     0
1000

1071
        0
1070
     0
  0
MLEADERSTYLE
  5
12E
102
{ACAD_XDICTIONARY
360
B53D
102
}
102
{ACAD_REACTORS
330
12D
102
}
330
12D
100
AcDbMLeaderStyle
170
     2
171
     1
172
     0
 90
        2
 40
0.0
 41
0.0
173
     1
 91
-1056964608
340
14
 92
       -2
290
     1
 42
2.0
291
     1
 43
8.0
  3
Standard
 44
4.0
300

342
11
174
     1
178
     1
175
     1
176
     0
 93
-1056964608
 45
4.0
292
     0
297
     0
 46
4.0
 94
-1056964608
 47
1.0
 49
1.0
140
1.0
293
     1
141
0.0
294
     1
177
     0
142
1.0
295
     0
296
     0
143
3.75
1001
ACAD_MLEADERVER
1070
     2
  0
MLINESTYLE
  5
18
102
{ACAD_REACTORS
330
17
102
}
330
17
100
AcDbMlineStyle
  2
STANDARD
 70
     0
  3

 62
   256
 51
90.0
 52
90.0
 71
     2
 49
0.5
 62
   256
  6
BYLAYER
 49
-0.5
 62
   256
  6
BYLAYER
  0
ACDBPLACEHOLDER
  5
F
102
{ACAD_REACTORS
330
E
102
}
330
E
  0
SCALE
  5
10D
102
{ACAD_REACTORS
330
10C
102
}
330
10C
100
AcDbScale
 70
     0
300
1:1
140
1.0
141
1.0
290
     1
  0
SCALE
  5
1BE
102
{ACAD_REACTORS
330
10C
102
}
330
10C
100
AcDbScale
 70
     0
300
1:2
140
1.0
141
2.0
290
     0
  0
SCALE
  5
1BF
102
{ACAD_REACTORS
330
10C
102
}
330
10C
100
AcDbScale
 70
     0
300
1:4
140
1.0
141
4.0
290
     0
  0
SCALE
  5
1C0
102
{ACAD_REACTORS
330
10C
102
}
330
10C
100
AcDbScale
 70
     0
300
1:5
140
1.0
141
5.0
290
     0
  0
SCALE
  5
1C1
102
{ACAD_REACTORS
330
10C
102
}
330
10C
100
AcDbScale
 70
     0
300
1:8
140
1.0
141
8.0
290
     0
  0
SCALE
  5
1C2
102
{ACAD_REACTORS
330
10C
102
}
330
10C
100
AcDbScale
 70
     0
300
1:10
140
1.0
141
10.0
290
     0
  0
SCALE
  5
1C3
102
{ACAD_REACTORS
330
10C
102
}
330
10C
100
AcDbScale
 70
     0
300
1:16
140
1.0
141
16.0
290
     0
  0
SCALE
  5
1C4
102
{ACAD_REACTORS
330
10C
102
}
330
10C
100
AcDbScale
 70
     0
300
1:20
140
1.0
141
20.0
290
     0
  0
SCALE
  5
1C5
102
{ACAD_REACTORS
330
10C
102
}
330
10C
100
AcDbScale
 70
     0
300
1:30
140
1.0
141
30.0
290
     0
  0
SCALE
  5
1C6
102
{ACAD_REACTORS
330
10C
102
}
330
10C
100
AcDbScale
 70
     0
300
1:40
140
1.0
141
40.0
290
     0
  0
SCALE
  5
1C7
102
{ACAD_REACTORS
330
10C
102
}
330
10C
100
AcDbScale
 70
     0
300
1:50
140
1.0
141
50.0
290
     0
  0
SCALE
  5
1C8
102
{ACAD_REACTORS
330
10C
102
}
330
10C
100
AcDbScale
 70
     0
300
1:100
140
1.0
141
100.0
290
     0
  0
SCALE
  5
1C9
102
{ACAD_REACTORS
330
10C
102
}
330
10C
100
AcDbScale
 70
     0
300
2:1
140
2.0
141
1.0
290
     0
  0
SCALE
  5
1CA
102
{ACAD_REACTORS
330
10C
102
}
330
10C
100
AcDbScale
 70
     0
300
4:1
140
4.0
141
1.0
290
     0
  0
SCALE
  5
1CB
102
{ACAD_REACTORS
330
10C
102
}
330
10C
100
AcDbScale
 70
     0
300
8:1
140
8.0
141
1.0
290
     0
  0
SCALE
  5
1CC
102
{ACAD_REACTORS
330
10C
102
}
330
10C
100
AcDbScale
 70
     0
300
10:1
140
10.0
141
1.0
290
     0
  0
SCALE
  5
1CD
102
{ACAD_REACTORS
330
10C
102
}
330
10C
100
AcDbScale
 70
     0
300
100:1
140
100.0
141
1.0
290
     0
  0
ACDBSECTIONVIEWSTYLE
  5
21A
102
{ACAD_XDICTIONARY
360
B54F
102
}
102
{ACAD_REACTORS
330
219
102
}
330
219
100
AcDbModelDocViewStyle
 70
     0
  3
Metric50
290
     0
100
AcDbSectionViewStyle
 70
     0
 71
     0
 90
      102
 71
     1
340
11
 40
5.0
340
0
340
0
 40
5.0
300
I, O, Q, S, X, Z
 40
10.0
 90
        0
 40
2.5
 90
        0
 71
     2
340
16
 90
       25
340
16
 90
       50
 40
5.0
 40
2.5
 40
5.0
 71
     3
340
11
 40
5.0
 90
        0
 40
15.0
 90
        1
300
%<\AcVar ViewSectionStartId>%-%<\AcVar ViewSectionEndId>% (%<\AcVar ViewScale \f "%sn">%)
 71
     4
300
ANSI31
 40
1.0
 90
        0
290
     0
290
     0
 90
        6
 40
0.0
 40
1.570796326794896
 40
0.2617993877991494
 40
1.308996938995747
 40
-0.2617993877991494
 40
1.832595714594046
  0
TABLESTYLE
  5
7F
102
{ACAD_XDICTIONARY
360
162
102
}
102
{ACAD_REACTORS
330
7E
102
}
330
7E
100
AcDbTableStyle
  3
Standard
 70
     0
 71
     0
 40
1.5
 41
1.5
280
     0
281
     0
  7
Standard
140
4.5
170
     2
 62
     0
 63
     7
283
     0
274
    -2
284
     1
 64
     0
275
    -2
285
     1
 65
     0
276
    -2
286
     1
 66
     0
277
    -2
287
     1
 67
     0
278
    -2
288
     1
 68
     0
279
    -2
289
     1
 69
     0
  7
Standard
140
6.0
170
     5
 62
     0
 63
     7
283
     0
274
    -2
284
     1
 64
     0
275
    -2
285
     1
 65
     0
276
    -2
286
     1
 66
     0
277
    -2
287
     1
 67
     0
278
    -2
288
     1
 68
     0
279
    -2
289
     1
 69
     0
  7
Standard
140
4.5
170
     5
 62
     0
 63
     7
283
     0
274
    -2
284
     1
 64
     0
275
    -2
285
     1
 65
     0
276
    -2
286
     1
 66
     0
277
    -2
287
     1
 67
     0
278
    -2
288
     1
 68
     0
279
    -2
289
     1
 69
     0
  0
VISUALSTYLE
  5
F5
102
{ACAD_XDICTIONARY
360
B527
102
}
102
{ACAD_REACTORS
330
EF
102
}
330
EF
100
AcDbVisualStyle
  2
2dWireframe
 70
     4
 71
     0
 72
     2
 73
     1
 90
        0
 40
-0.6
 41
-30.0
 62
     5
 63
     7
 74
     1
 91
        4
 64
     7
 65
   257
 75
     1
175
     1
 42
1.0
 92
        0
 66
   257
 43
1.0
 76
     1
 77
     6
 78
     2
 67
     7
 79
     5
170
     0
171
     0
290
     0
174
     0
 93
        1
 44
0.0
173
     0
291
     0
 45
0.0
1001
ACAD
1000
AcDbSavedByObjectVersion
1070
     0
  0
VISUALSTYLE
  5
F4
102
{ACAD_XDICTIONARY
360
B525
102
}
102
{ACAD_REACTORS
330
EF
102
}
330
EF
100
AcDbVisualStyle
  2
Basic
 70
     7
 71
     1
 72
     0
 73
     1
 90
        0
 40
-0.6
 41
-30.0
 62
     5
 63
     7
 74
     0
 91
        4
 64
     7
 65
   257
 75
     1
175
     1
 42
1.0
 92
        8
 66
     7
 43
1.0
 76
     1
 77
     6
 78
     2
 67
     7
 79
     5
170
     0
171
     0
290
     0
174
     0
 93
        1
 44
0.0
173
     0
291
     1
 45
0.0
1001
ACAD
1000
AcDbSavedByObjectVersion
1070
     0
  0
VISUALSTYLE
  5
FB
102
{ACAD_XDICTIONARY
360
B533
102
}
102
{ACAD_REACTORS
330
EF
102
}
330
EF
100
AcDbVisualStyle
  2
Brighten
 70
    12
 71
     2
 72
     2
 73
     1
 90
        0
 40
-0.6
 41
-30.0
 62
     5
 63
     7
 74
     1
 91
        4
 64
     7
 65
   257
 75
     1
175
     1
 42
1.0
 92
        8
 66
     7
 43
1.0
 76
     1
 77
     6
 78
     2
 67
     7
 79
     5
170
     0
171
     0
290
     0
174
     0
 93
        1
 44
50.0
173
     0
291
     1
 45
0.0
1001
ACAD
1000
AcDbSavedByObjectVersion
1070
     0
  0
VISUALSTYLE
  5
FF
102
{ACAD_XDICTIONARY
360
B53B
102
}
102
{ACAD_REACTORS
330
EF
102
}
330
EF
100
AcDbVisualStyle
  2
ColorChange
 70
    16
 71
     2
 72
     2
 73
     3
 90
        0
 40
-0.6
 41
-30.0
 62
     5
 63
     8
 74
     1
 91
        4
 64
     7
 65
   257
 75
     1
175
     1
 42
1.0
 92
        8
 66
     8
 43
1.0
 76
     1
 77
     6
 78
     2
 67
     7
 79
     5
170
     0
171
     0
290
     0
174
     0
 93
        1
 44
0.0
173
     0
291
     1
 45
0.0
1001
ACAD
1000
AcDbSavedByObjectVersion
1070
     0
  0
VISUALSTYLE
  5
F8
102
{ACAD_XDICTIONARY
360
B52D
102
}
102
{ACAD_REACTORS
330
EF
102
}
330
EF
100
AcDbVisualStyle
  2
Conceptual
 70
     9
 71
     3
 72
     2
 73
     1
 90
        0
 40
-0.6
 41
-30.0
 62
     5
 63
     7
 74
     2
 91
        2
 64
     7
 65
   257
 75
     1
175
     1
 42
40.0
 92
        8
 66
     7
 43
1.0
 76
     1
 77
     6
 78
     2
 67
     7
 79
     3
170
     0
171
     0
290
     0
174
     0
 93
        1
 44
0.0
173
     0
291
     0
 45
0.0
1001
ACAD
1000
AcDbSavedByObjectVersion
1070
     0
  0
VISUALSTYLE
  5
FA
102
{ACAD_XDICTIONARY
360
B531
102
}
102
{ACAD_REACTORS
330
EF
102
}
330
EF
100
AcDbVisualStyle
  2
Dim
 70
    11
 71
     2
 72
     2
 73
     1
 90
        0
 40
-0.6
 41
-30.0
 62
     5
 63
     7
 74
     1
 91
        4
 64
     7
 65
   257
 75
     1
175
     1
 42
1.0
 92
        8
 66
     7
 43
1.0
 76
     1
 77
     6
 78
     2
 67
     7
 79
     5
170
     0
171
     0
290
     0
174
     0
 93
        1
 44
-50.0
173
     0
291
     1
 45
0.0
1001
ACAD
1000
AcDbSavedByObjectVersion
1070
     0
  0
VISUALSTYLE
  5
1E6
102
{ACAD_XDICTIONARY
360
B543
102
}
102
{ACAD_REACTORS
330
EF
102
}
330
EF
100
AcDbVisualStyle
  2
EdgeColorOff
 70
    22
 71
     2
 72
     2
 73
     0
 90
        0
 40
-0.6
 41
-30.0
 62
     5
 63
     7
 74
     1
 91
        4
 64
     7
 65
   257
 75
     1
175
     1
 42
1.0
 92
        8
 66
     7
 43
1.0
 76
     1
 77
     6
 78
     2
 67
     7
 79
     5
170
     0
171
     0
290
     0
174
     0
 93
        1
 44
0.0
173
     0
291
     1
 45
0.0
1001
ACAD
1000
AcDbSavedByObjectVersion
1070
     0
  0
VISUALSTYLE
  5
FE
102
{ACAD_XDICTIONARY
360
B539
102
}
102
{ACAD_REACTORS
330
EF
102
}
330
EF
100
AcDbVisualStyle
  2
Facepattern
 70
    15
 71
     2
 72
     2
 73
     1
 90
        0
 40
-0.6
 41
-30.0
 62
     5
 63
     7
 74
     1
 91
        4
 64
     7
 65
   257
 75
     1
175
     1
 42
1.0
 92
        8
 66
     7
 43
1.0
 76
     1
 77
     6
 78
     2
 67
     7
 79
     5
170
     0
171
     0
290
     0
174
     0
 93
        1
 44
0.0
173
     0
291
     1
 45
0.0
1001
ACAD
1000
AcDbSavedByObjectVersion
1070
     0
  0
VISUALSTYLE
  5
F0
102
{ACAD_XDICTIONARY
360
B51D
102
}
102
{ACAD_REACTORS
330
EF
102
}
330
EF
100
AcDbVisualStyle
  2
Flat
 70
     0
 71
     2
 72
     1
 73
     1
 90
        2
 40
-0.6
 41
30.0
 62
     5
 63
     7
 74
     0
 91
        0
 64
     7
 65
   257
 75
     1
175
     1
 42
1.0
 92
        8
 66
     7
 43
1.0
 76
     1
 77
     6
 78
     2
 67
     7
 79
     5
170
     0
171
     0
290
     0
174
     0
 93
       13
 44
0.0
173
     0
291
     1
 45
0.0
1001
ACAD
1000
AcDbSavedByObjectVersion
1070
     0
  0
VISUALSTYLE
  5
F1
102
{ACAD_XDICTIONARY
360
B51F
102
}
102
{ACAD_REACTORS
330
EF
102
}
330
EF
100
AcDbVisualStyle
  2
FlatWithEdges
 70
     1
 71
     2
 72
     1
 73
     1
 90
        2
 40
-0.6
 41
30.0
 62
     5
 63
     7
 74
     1
 91
        0
 64
     7
 65
   257
 75
     1
175
     1
 42
1.0
 92
        0
 66
   257
 43
1.0
 76
     1
 77
     6
 78
     2
 67
     7
 79
     5
170
     0
171
     0
290
     0
174
     0
 93
       13
 44
0.0
173
     0
291
     1
 45
0.0
1001
ACAD
1000
AcDbSavedByObjectVersion
1070
     0
  0
VISUALSTYLE
  5
F2
102
{ACAD_XDICTIONARY
360
B521
102
}
102
{ACAD_REACTORS
330
EF
102
}
330
EF
100
AcDbVisualStyle
  2
Gouraud
 70
     2
 71
     2
 72
     2
 73
     1
 90
        2
 40
-0.6
 41
30.0
 62
     5
 63
     7
 74
     0
 91
        0
 64
     7
 65
   257
 75
     1
175
     1
 42
1.0
 92
        0
 66
     7
 43
1.0
 76
     1
 77
     6
 78
     2
 67
     7
 79
     5
170
     0
171
     0
290
     0
174
     0
 93
       13
 44
0.0
173
     0
291
     1
 45
0.0
1001
ACAD
1000
AcDbSavedByObjectVersion
1070
     0
  0
VISUALSTYLE
  5
F3
102
{ACAD_XDICTIONARY
360
B523
102
}
102
{ACAD_REACTORS
330
EF
102
}
330
EF
100
AcDbVisualStyle
  2
GouraudWithEdges
 70
     3
 71
     2
 72
     2
 73
     1
 90
        2
 40
-0.6
 41
30.0
 62
     5
 63
     7
 74
     1
 91
        0
 64
     7
 65
   257
 75
     1
175
     1
 42
1.0
 92
        0
 66
   257
 43
1.0
 76
     1
 77
     6
 78
     2
 67
     7
 79
     5
170
     0
171
     0
290
     0
174
     0
 93
       13
 44
0.0
173
     0
291
     1
 45
0.0
1001
ACAD
1000
AcDbSavedByObjectVersion
1070
     0
  0
VISUALSTYLE
  5
F7
102
{ACAD_XDICTIONARY
360
B52B
102
}
102
{ACAD_REACTORS
330
EF
102
}
330
EF
100
AcDbVisualStyle
  2
Hidden
 70
     6
 71
     1
 72
     2
 73
     2
 90
        0
 40
-0.6
 41
-30.0
 62
     5
 63
     7
 74
     2
 91
        2
 64
     7
 65
   257
 75
     2
175
     1
 42
40.0
 92
        0
 66
   257
 43
1.0
 76
     1
 77
     6
 78
     2
 67
     7
 79
     3
170
     0
171
     0
290
     0
174
     0
 93
        1
 44
0.0
173
     0
291
     0
 45
0.0
1001
ACAD
1000
AcDbSavedByObjectVersion
1070
     0
  0
VISUALSTYLE
  5
1E4
102
{ACAD_XDICTIONARY
360
B53F
102
}
102
{ACAD_REACTORS
330
EF
102
}
330
EF
100
AcDbVisualStyle
  2
JitterOff
 70
    20
 71
     2
 72
     2
 73
     0
 90
        0
 40
-0.6
 41
-30.0
 62
     5
 63
     7
 74
     1
 91
        4
 64
     7
 65
   257
 75
     1
175
     1
 42
1.0
 92
       10
 66
     7
 43
1.0
 76
     1
 77
     6
 78
     2
 67
     7
 79
     5
170
     0
171
     0
290
     0
174
     0
 93
        1
 44
0.0
173
     0
291
     1
 45
0.0
1001
ACAD
1000
AcDbSavedByObjectVersion
1070
     0
  0
VISUALSTYLE
  5
FD
102
{ACAD_XDICTIONARY
360
B537
102
}
102
{ACAD_REACTORS
330
EF
102
}
330
EF
100
AcDbVisualStyle
  2
Linepattern
 70
    14
 71
     2
 72
     2
 73
     1
 90
        0
 40
-0.6
 41
-30.0
 62
     5
 63
     7
 74
     1
 91
        4
 64
     7
 65
   257
 75
     7
175
     7
 42
1.0
 92
        8
 66
     7
 43
1.0
 76
     1
 77
     6
 78
     2
 67
     7
 79
     5
170
     0
171
     0
290
     0
174
     0
 93
        1
 44
0.0
173
     0
291
     1
 45
0.0
1001
ACAD
1000
AcDbSavedByObjectVersion
1070
     0
  0
VISUALSTYLE
  5
1E5
102
{ACAD_XDICTIONARY
360
B541
102
}
102
{ACAD_REACTORS
330
EF
102
}
330
EF
100
AcDbVisualStyle
  2
OverhangOff
 70
    21
 71
     2
 72
     2
 73
     0
 90
        0
 40
-0.6
 41
-30.0
 62
     5
 63
     7
 74
     1
 91
        4
 64
     7
 65
   257
 75
     1
175
     1
 42
1.0
 92
        9
 66
     7
 43
1.0
 76
     1
 77
     6
 78
     2
 67
     7
 79
     5
170
     0
171
     0
290
     0
174
     0
 93
        1
 44
0.0
173
     0
291
     1
 45
0.0
1001
ACAD
1000
AcDbSavedByObjectVersion
1070
     0
  0
VISUALSTYLE
  5
F9
102
{ACAD_XDICTIONARY
360
B52F
102
}
102
{ACAD_REACTORS
330
EF
102
}
330
EF
100
AcDbVisualStyle
  2
Realistic
 70
     8
 71
     2
 72
     2
 73
     0
 90
        2
 40
-0.6
 41
30.0
 62
     5
 63
     7
 74
     0
 91
        0
 64
     7
 65
   257
 75
     1
175
     1
 42
1.0
 92
        8
 66
   257
 43
1.0
 76
     1
 77
     6
 78
     2
 67
     7
 79
     3
170
     0
171
     0
290
     0
174
     0
 93
       13
 44
0.0
173
     0
291
     0
 45
0.0
1001
ACAD
1000
AcDbSavedByObjectVersion
1070
     0
  0
VISUALSTYLE
  5
1F3
102
{ACAD_XDICTIONARY
360
B54D
102
}
102
{ACAD_REACTORS
330
EF
102
}
330
EF
100
AcDbVisualStyle
  2
Shaded
 70
    27
 71
     2
 72
     2
 73
     1
 90
        2
 40
-0.6
 41
30.0
 62
     5
 63
     7
 74
     0
 91
        4
 64
     7
 65
   257
 75
     1
175
     1
 42
1.0
 92
        8
 66
   257
 43
1.0
 76
     1
 77
     6
 78
     2
 67
     8
 79
     3
170
     0
171
     0
290
     0
174
     0
 93
        5
 44
0.0
173
     0
291
     0
 45
0.0
1001
ACAD
1000
AcDbSavedByObjectVersion
1070
     0
  0
VISUALSTYLE
  5
1F2
102
{ACAD_XDICTIONARY
360
B54B
102
}
102
{ACAD_REACTORS
330
EF
102
}
330
EF
100
AcDbVisualStyle
  2
Shaded with edges
 70
    26
 71
     2
 72
     2
 73
     1
 90
        2
 40
-0.6
 41
30.0
 62
     5
 63
     7
 74
     1
 91
        2
 64
     7
 65
   257
 75
     2
175
     1
 42
1.0
 92
        8
 66
   257
 43
1.0
 76
     1
 77
     6
 78
     2
 67
     7
 79
     3
170
     0
171
     0
290
     0
174
     0
 93
        5
 44
0.0
173
     0
291
     0
 45
0.0
1001
ACAD
1000
AcDbSavedByObjectVersion
1070
     0
  0
VISUALSTYLE
  5
1EF
102
{ACAD_XDICTIONARY
360
B545
102
}
102
{ACAD_REACTORS
330
EF
102
}
330
EF
100
AcDbVisualStyle
  2
Shades of Gray
 70
    23
 71
     2
 72
     2
 73
     3
 90
        0
 40
-0.6
 41
-30.0
 62
     5
 63
     7
 74
     2
 91
        2
 64
     7
 65
     7
 75
     1
175
     1
 42
40.0
 92
        8
 66
     7
 43
1.0
 76
     1
 77
     6
 78
     2
 67
     7
 79
     3
170
     0
171
     0
290
     0
174
     0
 93
        1
 44
0.0
173
     0
291
     0
 45
0.0
1001
ACAD
1000
AcDbSavedByObjectVersion
1070
     0
  0
VISUALSTYLE
  5
1F0
102
{ACAD_XDICTIONARY
360
B547
102
}
102
{ACAD_REACTORS
330
EF
102
}
330
EF
100
AcDbVisualStyle
  2
Sketchy
 70
    24
 71
     1
 72
     2
 73
     2
 90
        0
 40
-0.6
 41
-30.0
 62
     5
 63
     7
 74
     2
 91
        2
 64
     7
 65
     7
 75
     1
175
     1
 42
40.0
 92
       11
 66
     7
 43
1.0
 76
     1
 77
     6
 78
     2
 67
     7
 79
     6
170
     0
171
     0
290
     0
174
     0
 93
        1
 44
0.0
173
     0
291
     0
 45
0.0
1001
ACAD
1000
AcDbSavedByObjectVersion
1070
     0
  0
VISUALSTYLE
  5
FC
102
{ACAD_XDICTIONARY
360
B535
102
}
102
{ACAD_REACTORS
330
EF
102
}
330
EF
100
AcDbVisualStyle
  2
Thicken
 70
    13
 71
     2
 72
     2
 73
     1
 90
        0
 40
-0.6
 41
-30.0
 62
     5
 63
     7
 74
     1
 91
        4
 64
     7
 65
   257
 75
     1
175
     1
 42
1.0
 92
       12
 66
     7
 43
1.0
 76
     1
 77
     6
 78
     2
 67
     7
 79
     5
170
     0
171
     0
290
     0
174
     0
 93
        1
 44
0.0
173
     0
291
     1
 45
0.0
1001
ACAD
1000
AcDbSavedByObjectVersion
1070
     0
  0
VISUALSTYLE
  5
F6
102
{ACAD_XDICTIONARY
360
B529
102
}
102
{ACAD_REACTORS
330
EF
102
}
330
EF
100
AcDbVisualStyle
  2
Wireframe
 70
     5
 71
     0
 72
     2
 73
     0
 90
        0
 40
-0.6
 41
-30.0
 62
     5
 63
     7
 74
     1
 91
        4
 64
     7
 65
   257
 75
     1
175
     1
 42
1.0
 92
        0
 66
   257
 43
1.0
 76
     1
 77
     6
 78
     2
 67
     7
 79
     3
170
     0
171
     0
290
     0
174
     0
 93
        1
 44
0.0
173
     0
291
     0
 45
0.0
1001
ACAD
1000
AcDbSavedByObjectVersion
1070
     0
  0
VISUALSTYLE
  5
1F1
102
{ACAD_XDICTIONARY
360
B549
102
}
102
{ACAD_REACTORS
330
EF
102
}
330
EF
100
AcDbVisualStyle
  2
X-Ray
 70
    25
 71
     2
 72
     2
 73
     1
 90
        1
 40
0.5
 41
-30.0
 62
     5
 63
     7
 74
     1
 91
        0
 64
     7
 65
   257
 75
     1
175
     1
 42
1.0
 92
        8
 66
     7
 43
1.0
 76
     1
 77
     6
 78
     2
 67
     7
 79
     3
170
     0
171
     0
290
     0
174
     0
 93
       13
 44
0.0
173
     0
291
     0
 45
0.0
1001
ACAD
1000
AcDbSavedByObjectVersion
1070
     0
  0
DICTIONARYVAR
  5
146
102
{ACAD_REACTORS
330
5E
102
}
330
5E
100
DictionaryVariables
280
     0
  1
1:1
  0
DICTIONARYVAR
  5
259
102
{ACAD_REACTORS
330
5E
102
}
330
5E
100
DictionaryVariables
280
     0
  1
3.500000
  0
DICTIONARYVAR
  5
25A
102
{ACAD_REACTORS
330
5E
102
}
330
5E
100
DictionaryVariables
280
     0
  1
acadiso.lin
  0
DICTIONARYVAR
  5
145
102
{ACAD_REACTORS
330
5E
102
}
330
5E
100
DictionaryVariables
280
     0
  1
STANDARD
  0
DICTIONARYVAR
  5
84
102
{ACAD_REACTORS
330
5E
102
}
330
5E
100
DictionaryVariables
280
     0
  1
STANDARD
  0
DICTIONARYVAR
  5
227
102
{ACAD_REACTORS
330
5E
102
}
330
5E
100
DictionaryVariables
280
     0
  1
Metric50
  0
DICTIONARYVAR
  5
228
102
{ACAD_REACTORS
330
5E
102
}
330
5E
100
DictionaryVariables
280
     0
  1
Metric50
  0
DICTIONARYVAR
  5
5F
102
{ACAD_REACTORS
330
5E
102
}
330
5E
100
DictionaryVariables
280
     0
  1
2
  0
DICTIONARYVAR
  5
63
102
{ACAD_REACTORS
330
5E
102
}
330
5E
100
DictionaryVariables
280
     0
  1
1
  0
DICTIONARYVAR
  5
B4BE
102
{ACAD_REACTORS
330
5E
102
}
330
5E
100
DictionaryVariables
280
     0
  1
0
  0
DICTIONARYVAR
  5
1AE
102
{ACAD_REACTORS
330
5E
102
}
330
5E
100
DictionaryVariables
280
     0
  1
0
  0
DICTIONARYVAR
  5
1AF
102
{ACAD_REACTORS
330
5E
102
}
330
5E
100
DictionaryVariables
280
     0
  1
0
  0
DICTIONARYVAR
  5
B4BC
102
{ACAD_REACTORS
330
5E
102
}
330
5E
100
DictionaryVariables
280
     0
  1
2
  0
DICTIONARYVAR
  5
B4BB
102
{ACAD_REACTORS
330
5E
102
}
330
5E
100
DictionaryVariables
280
     0
  1
1
  0
DICTIONARYVAR
  5
B50E
102
{ACAD_REACTORS
330
5E
102
}
330
5E
100
DictionaryVariables
280
     0
  1
80.000000
  0
DICTIONARYVAR
  5
B50D
102
{ACAD_REACTORS
330
5E
102
}
330
5E
100
DictionaryVariables
280
     0
  1
5.000000
  0
DICTIONARYVAR
  5
B4BD
102
{ACAD_REACTORS
330
5E
102
}
330
5E
100
DictionaryVariables
280
     0
  1
127
  0
DICTIONARYVAR
  5
B50F
102
{ACAD_REACTORS
330
5E
102
}
330
5E
100
DictionaryVariables
280
     0
  1
2
  0
DICTIONARY
  5
B551
330
21C
100
AcDbDictionary
280
     1
281
     1
  3
ACAD_XREC_ROUNDTRIP
360
B552
  0
DICTIONARY
  5
B516
330
D3
100
AcDbDictionary
280
     1
281
     1
  3
ACAD_XREC_ROUNDTRIP
360
B517
  0
DICTIONARY
  5
B518
330
D7
100
AcDbDictionary
280
     1
281
     1
  3
ACAD_XREC_ROUNDTRIP
360
B519
  0
DICTIONARY
  5
B513
330
22
100
AcDbDictionary
280
     1
281
     1
  3
ACAD_XREC_ROUNDTRIP
360
B514
  0
DICTIONARY
  5
1F9
330
ED
100
AcDbDictionary
280
     1
281
     1
  3
ACAD_XREC_ROUNDTRIP
360
B51B
  3
FBXASSET
360
1FA
  0
DICTIONARY
  5
1F7
330
EC
100
AcDbDictionary
280
     1
281
     1
  3
ACAD_XREC_ROUNDTRIP
360
B51A
  3
FBXASSET
360
1F8
  0
DICTIONARY
  5
173
330
EE
100
AcDbDictionary
280
     1
281
     1
  3
ACAD_XREC_ROUNDTRIP
360
B51C
  3
BUMPTILE
360
175
  3
DIFFUSETILE
360
174
  3
FBXASSET
360
1FB
  3
OPACITYTILE
360
176
  3
REFLECTIONTILE
360
177
  0
DICTIONARY
  5
B53D
330
12E
100
AcDbDictionary
280
     1
281
     1
  3
ACAD_XREC_ROUNDTRIP
360
B53E
  0
DICTIONARY
  5
B54F
330
21A
100
AcDbDictionary
280
     1
281
     1
  3
ACAD_XREC_ROUNDTRIP
360
B550
  0
DICTIONARY
  5
162
330
7F
100
AcDbDictionary
280
     1
281
     1
  3
ACAD_ROUNDTRIP_2008_TABLESTYLE_CELLSTYLEMAP
360
B510
  3
ACAD_XREC_ROUNDTRIP
360
B515
  0
DICTIONARY
  5
B527
330
F5
100
AcDbDictionary
280
     1
281
     1
  3
ACAD_XREC_ROUNDTRIP
360
B528
  0
DICTIONARY
  5
B525
330
F4
100
AcDbDictionary
280
     1
281
     1
  3
ACAD_XREC_ROUNDTRIP
360
B526
  0
DICTIONARY
  5
B533
330
FB
100
AcDbDictionary
280
     1
281
     1
  3
ACAD_XREC_ROUNDTRIP
360
B534
  0
DICTIONARY
  5
B53B
330
FF
100
AcDbDictionary
280
     1
281
     1
  3
ACAD_XREC_ROUNDTRIP
360
B53C
  0
DICTIONARY
  5
B52D
330
F8
100
AcDbDictionary
280
     1
281
     1
  3
ACAD_XREC_ROUNDTRIP
360
B52E
  0
DICTIONARY
  5
B531
330
FA
100
AcDbDictionary
280
     1
281
     1
  3
ACAD_XREC_ROUNDTRIP
360
B532
  0
DICTIONARY
  5
B543
330
1E6
100
AcDbDictionary
280
     1
281
     1
  3
ACAD_XREC_ROUNDTRIP
360
B544
  0
DICTIONARY
  5
B539
330
FE
100
AcDbDictionary
280
     1
281
     1
  3
ACAD_XREC_ROUNDTRIP
360
B53A
  0
DICTIONARY
  5
B51D
330
F0
100
AcDbDictionary
280
     1
281
     1
  3
ACAD_XREC_ROUNDTRIP
360
B51E
  0
DICTIONARY
  5
B51F
330
F1
100
AcDbDictionary
280
     1
281
     1
  3
ACAD_XREC_ROUNDTRIP
360
B520
  0
DICTIONARY
  5
B521
330
F2
100
AcDbDictionary
280
     1
281
     1
  3
ACAD_XREC_ROUNDTRIP
360
B522
  0
DICTIONARY
  5
B523
330
F3
100
AcDbDictionary
280
     1
281
     1
  3
ACAD_XREC_ROUNDTRIP
360
B524
  0
DICTIONARY
  5
B52B
330
F7
100
AcDbDictionary
280
     1
281
     1
  3
ACAD_XREC_ROUNDTRIP
360
B52C
  0
DICTIONARY
  5
B53F
330
1E4
100
AcDbDictionary
280
     1
281
     1
  3
ACAD_XREC_ROUNDTRIP
360
B540
  0
DICTIONARY
  5
B537
330
FD
100
AcDbDictionary
280
     1
281
     1
  3
ACAD_XREC_ROUNDTRIP
360
B538
  0
DICTIONARY
  5
B541
330
1E5
100
AcDbDictionary
280
     1
281
     1
  3
ACAD_XREC_ROUNDTRIP
360
B542
  0
DICTIONARY
  5
B52F
330
F9
100
AcDbDictionary
280
     1
281
     1
  3
ACAD_XREC_ROUNDTRIP
360
B530
  0
DICTIONARY
  5
B54D
330
1F3
100
AcDbDictionary
280
     1
281
     1
  3
ACAD_XREC_ROUNDTRIP
360
B54E
  0
DICTIONARY
  5
B54B
330
1F2
100
AcDbDictionary
280
     1
281
     1
  3
ACAD_XREC_ROUNDTRIP
360
B54C
  0
DICTIONARY
  5
B545
330
1EF
100
AcDbDictionary
280
     1
281
     1
  3
ACAD_XREC_ROUNDTRIP
360
B546
  0
DICTIONARY
  5
B547
330
1F0
100
AcDbDictionary
280
     1
281
     1
  3
ACAD_XREC_ROUNDTRIP
360
B548
  0
DICTIONARY
  5
B535
330
FC
100
AcDbDictionary
280
     1
281
     1
  3
ACAD_XREC_ROUNDTRIP
360
B536
  0
DICTIONARY
  5
B529
330
F6
100
AcDbDictionary
280
     1
281
     1
  3
ACAD_XREC_ROUNDTRIP
360
B52A
  0
DICTIONARY
  5
B549
330
1F1
100
AcDbDictionary
280
     1
281
     1
  3
ACAD_XREC_ROUNDTRIP
360
B54A
  0
XRECORD
  5
B552
102
{ACAD_REACTORS
330
B551
102
}
330
B551
100
AcDbXrecord
280
     1
102
DISPLAYNAME
  1
Metric50
102
FLAGS
 90
        0
  0
XRECORD
  5
B517
102
{ACAD_REACTORS
330
B516
102
}
330
B516
100
AcDbXrecord
280
     1
102
SHADEPLOT
 70
     0
102
SHADEPLOTRESLEVEL
 70
     2
102
SHADEPLOTCUSTOMDPI
 70
   300
  0
XRECORD
  5
B519
102
{ACAD_REACTORS
330
B518
102
}
330
B518
100
AcDbXrecord
280
     1
102
SHADEPLOT
 70
     0
102
SHADEPLOTRESLEVEL
 70
     2
102
SHADEPLOTCUSTOMDPI
 70
   300
  0
XRECORD
  5
B514
102
{ACAD_REACTORS
330
B513
102
}
330
B513
100
AcDbXrecord
280
     1
102
SHADEPLOT
 70
     0
102
SHADEPLOTRESLEVEL
 70
     2
102
SHADEPLOTCUSTOMDPI
 70
   300
  0
XRECORD
  5
B51B
102
{ACAD_REACTORS
330
1F9
102
}
330
1F9
100
AcDbXrecord
280
     1
102
MATERIAL
148
0.0
149
0.0
149
0.0
 93
        0
 94
       63
282
     0
 72
     1
 77
     1
171
     1
175
     1
179
     1
273
     0
  0
XRECORD
  5
1FA
102
{ACAD_REACTORS
330
1F9
102
}
330
1F9
100
AcDbXrecord
280
     1
 70
     1
 90
429727718
  1
D62C5603-E3A1-4AEA-B7FB-FE5D8D0755AF
310
504B03040A0000080000CC70623B3DEE336E79000000790000001B0000006175746F6465736B2D64657369676E2D7061636B6167652E786D6C3C3F786D6C2076657273696F6E3D22312E302220656E636F64696E673D227574662D3822203F3E3C666F726D6174733E3C666F726D61743E687474703A2F2F736368656D612E
310
6175746F6465736B2E636F6D2F64657369676E2D7061636B6167652F323030393C2F666F726D61743E3C2F666F726D6174733E504B0304140006080800CC70623BD486FD9CA0000000F4000000130000005B436F6E74656E745F54797065735D2E786D6C7D8EC10E82300C865F65E91D8A1E8C310C0EEA1BF002731658846E
310
D98AC1B77784ABF1D8FE5FBFBF75BBCE937A534CCEB38643598122B6FEE978D0B0485F9C41B54DDD7D022595594E1A469170414C76A4D9A4D207E29CF43ECE46F218070CC6BECC4078ACAA135ACF422C856C0E68EA1BF5669944DDD7BCDE7B1F8E415D77AECB980613C2E4AC91FC167A2B244592486606FC29C8FD7F045B9A
310
EF7053A7E60B504B0304140006080800CC70623B853B8169EB0000007C01000008000000636F72652E786D6C8D90416EC3201045AF62CDB6C206821CC7C244919D9CA01740401C94182C03558F5F9C3852BBEB6A467FFE9B197D7EFC9E1EC5975982F5AE035262288C535E5B377690E21535501C055FBC8FBF6C503839990E
310
5619041F179FE64D52DE45E362569DD7661365082642A11EB9E920A89B99642953CC8E702F67A9EE7234257977194EC9EAE275C4EABCCF5EAD5940D4AC6F0E35A568B8F43562CD7046CD199FD07E60174276A7BE677B5EADB0E0D14EEFFB6A31321A0D82627C4084204C3F096B71DD52F6819B16635EADF63F509AF53FA164
310
5DDCD1EDDD17164090FCC8732078B56691CB33A85CD7DCC40F504B0304140006080800CC70623B55019EA25F0000007C00000007000000636E782E786D6C4DCB3B0E80201045D1AD90E915ED2CF8AC45050C11660C8261F98AB1B07AC9C97D42D718D865D3E909258CFD00CCE24AC6E326A164D74DC0B4128928FF32603847
310
2BA13128B1252AC747C6BAB984FC68F0B87FE8960A5C09FE86CFB69FBA01504B0304140006080800CC70623BDBABAAF470010000D40300000C0000006662782F636F72652E786D6CC553D16E823014FD95A6AF4B694182CC941A83FA05FB810A9511A125A5257EFE2E82712ECEB8A7F100CD39F7F69E734AF9FADC366850B6
310
AF8DCE7018308C942E4C59EB2AC3DE1D498AD15A706B8CFB56869196ADCAF00863C12B6B7C374385D14E6907A836A59A41D9F7CA615434B0C8705F7CAA5606D23BA8E84F41278B93AC54100640439DE0BDB320004D43C63716C7C399D30917DCFBBA9CD9BA8469F5B156168B24CED3F7248AC8769F27244EB73B92EED8862C
310
B7F13E0C179B3C8F979C8ECD82BBBABDAA2BAC924E9558448CBD9330242CFA08E3154B5651FCC6D215639C8EE5774DBE2B5F6CF2B5768B68963BB5F5588420E442FC700B1139D4CB01F450C1E918227C2E09DF070D8140C84E1E9AAB8F1340832A9CB13130A5F1376A908D57309505ECF2A0DF179C4E9D30F5B239B87E3823
310
7A79C6F31DE1A8A5AEC08474B03C7837EAE4938639B44E5932B833D2C6B6B279CDC613877FA26EE21F4A2A4C63EC7F29A2F301D1F9F7A0E37D145F504B0304140006080800CC70623B9C113CC27E0000009D0000000B0000006662782F636E782E786D6C4DCCDF0A83201C86E15B91DFB94BFB330DD428C8FB886521330DA7
310
6397BF1A1DECE883878F57749FCDA1B7892F1BBC047A23808C7F84D9FA55424E0BE6803A256208E9EF06C84F9B91703228B1C690F78B66B34CD9A5439DF5CF0BFBF65E35BCA1B8D6A5C6F540381E886698B5741C695F9503EBA150A2F8958E3DC3EA0B504B0304140006080800CC70623B7DF2F77C2A010000120200003100
310
00006662782F41393633353835312D344632462D344230382D423046372D3739314545314133324237412F636F72652E786D6C8D51DB8EC22014FC15C2939B0D2DB4B45643319AE817EC0F6041255A68B86CFCFC856D4D76DF7CE190393373060EDB3DC707F856CE6B6B7A480A0C81328395DA5C7B18C3057510EC3873D686
310
3F34088C18550F330C39BB3A1BA7051AAC09CA84841A2BD5020AEF55806078A44B0FFD7053A328440C89E1EFC52486BBB8AA8214A99D789CF9E05200300FC927E4FB4D5B375D43103D5527440FB843077C5AA3F5861C8F645F5787F59E95B390B318B55CE45AA638FAA2957BD7248B390B7A7CC51F9C124149C82B8C378810
310
84AB2F42B7B8DD56F413775B8C5999E9FF4471926F8AA236A1AE96B8B3CC434E5839373893369E1FAF30EA395917409EB7F26AF8801C171837A4A6AC9C89E9F9C9B1A58BA30FD6A5EF5DDDCF894B9AD9B6A59C957943A9FCAE2FD5BC4DFE03504B0304140006080800CC70623BAD7543B64E01000033030000300000006662
310
782F41393633353835312D344632462D344230382D423046372D3739314545314133324237412F636E782E786D6CD593CD6EC32010845F0571AD6CE3D48AD20813A9873E410FBD12D82434182C7EAAE6EDBB2424CD25871E7B41D6EC30B3FA84F9E67BB2E40B4234DE8DB46F1925E094D7C6ED479AD3AE5951B2113C789FEE
310
6C943839C1488B4C05DF079FE72A69D8C96C13AAD6B8631503449F83828872B949AC57D26200B826A308D316B4064D6E46FCDA41C05550DC9E483A00797BFD207EFB092A45DE9514C1BBD22178396BD39D891265658C238DEA00936C654E5E433CB65A26D9F6EDB5EBC14EBF49A45CB856E66048291F6939A9A81BB5C89177
310
38143CA680F4AA299D66A042CEB3354A2684DC9D8D178FE0D9B8B41CAAD720F880EE7EF93C0C18769E099ECC04D5A102C8049A8A05632F4DDF376CF1DE0F6BB65C2F8627B65A33C6BB62177CEBBDAD973006829F89F22E814B54F4BC2BE347F8AA8F681390B50FA73F804400B5F542E796F19FF974E7F78DB802FE05E20750
310
4B0304140006080800CC70623BE75B7789680500003C100000340000006662782F41393633353835312D344632462D344230382D423046372D3739314545314133324237412F6F626A656374732E786D6CAD575B8F9B3818FD2B887D06C22499CB8AA1CA655245D5B455A356FB305264C061D8018C6C3393D95FBFC7600890
310
A4CD5EF210B0B1BFEBF98E3F7B1FF6596ABC522E1296DF9BAE3D320D9A872C4AF2F8DE2CE5CEBA358D0FBEC719939D65A691938CDE9B6ADAF4BD98B3B2D05311DD91329583D9D5FC0F438434A7A611A644887B5384CF34233629258BA878B12322891DEFF6B66BD70BFB62634E8AE781D082709A4B588AF91C528CDA28B73F
310
1C998EEF39EABBEFA97FBD6A7C7E9553F9D3D79FE442923C3C523610337627CB87ABE99D359D4CC6D6E4FACAB5E6ABF9D2726FC6A3C5F56271377BB88362213924694B38DD99FE47C48627A1E7D49F5A8BB5E1A74C0A599ED3B0F21F1E56366B89112D681E218F0915D0D6F17AD41FBA2A369DCF6335D62ABBD39779D5DDD1
310
11D4D8DE3CBB96B2E04FB8202E41051754A1AA8E8F76B4C6DFE810B580B1547F4B84911149794252234D024EF8BBE963A95AE27B3D310A9D5C215C7960FAEE415ED75694C6AFB17BCACA5D99A60A9AA65F217B0BFC53292ACB92BF283FAD0D3621576592CB5BED907C2FA8E9DF794E35E97BEA31BED21FEB401ABB94C44839
310
DCACBF0E1C5DA8DA5B2F4DFFD32AD86F543D9E565E7056502E157C00AD2671CD534549AB752FCA9CDA00677A313F04E51B22FF19E57B300579E3C97EB29F682D92935CEC18CF901B7B54FD8C51F362B56FC72FE0B3C1EAE335EDCCBF5AEC39ADB17DC238973F804BA5E6F6BFE7AF1FB32E523BE9F3BD571418E3631DCA4D48
310
5250CF639223210A9446CA30052EDF057BD35F8329C1ECD84552BF0DC8D18BE7BCE23BFE6BD960AB4A7DE79923A103BEBD80F911CBAA2C60DB19B01CF164A5583B772EE6D3FFA56666CBCDA74DC97724A48F9A58967497E489C4D979006FD7A05E227A1EBDD0F737C623387A9C844D3709995625106D157315F8B8392CD4E0
310
A0B9A720C4BE9829CEF37EA1E13111214D53925356365ADA634861B52519DD27A00AEB808EAF0628E6F435519D446F45CF2C9CF5214F0A15B2F6D06B79DA3EE3CBF7F56780D2F4E7EF73A0F5E5B02A38D07DC852C6B7C1FBB6664213E0C39E3EBA7FF4E1AD23EA2829407C85E586727488B751B2DB9502BC7B228A3FD68B6E
310
A65A22397E690AA8D158D7E404EC8CDA235CC3B7D1898680131CEC2CDF2638C65196279577750F15884AEE19F94199155B92B13297978469D4F8D358DF0AEF7631E28DC8F0D9F437D5D39A83B2231A1D52D543813A824EF8D44BCFF2FA6A31BD1E8DAD87F1CCB526B3879935BF59CDADD5C37479BB1CDD4CA7B3556B516589
310
EF352754B706114D9C885EC9131DE6EFEB43D99AFE2391C2F958179413D7CFEF6B1B6DB1E7600F00DE6E5C67454A339A4BA2E0FBA85ED26F045D454F463DBFCE484C2F90F2E5E3666003662ED8F755951A7D1BECD5B30B550B2785C8E7320B7292A4838DDA71BBC863ED7613CAF659337A3354231D4FF4A182A54904C2898C
310
98B28C4AD0CE056CCF332A80986E571EE9DBC305BB5FEB7E509220A58D25CF042D712A806AC0AD0C657FDEF80D2D9CEAA2EE4D1C76F60BFE74219A06527D6F82DF6412526107381E55E353090704D085B52408A8913C4ED159D79BDA71BB4BC506F4831350EB6F975CD22D69BF7AC49B91A2C0A9DDA3D5CA36AD20FC478E37
310
E61844E2352865EBCB61A275A65283CAAA9DD27703B4102F5AF51EF5F573B75CBB5AD38BC845F7A49F82A0966A49C2E3EA5EA0ECD326CD965F1DB402C6FA8B51A4658C5C5E2EC9E214602E55810345408596591009A82E7E7FFACA19EEA299B14A0081A705CB3296EBC14CDF658DCD336EA6D1136881AAEB87B81AB9EE53D5
310
F5EB8BC8362082DA24122F98680A4E7930C01A0079749CEA14382A0783E5EBA5A10F8C098456A03D6A4AEB6BB881E2513747552A5DB22C7EDAF83BD5528081A365F7FF06504B0304140006080000CC70623B000000000000000000000000350000006662782F41393633353835312D344632462D344230382D423046372D37
310
39314545314133324237412F76657274696365732E62696E504B0304140006080800CC70623BF270F1330600000004000000360000006662782F41393633353835312D344632462D344230382D423046372D3739314545314133324237412F747269616E676C65732E62696E636660600000504B0304140006080000CC7062
310
3B000000000000000000000000370000006662782F41393633353835312D344632462D344230382D423046372D3739314545314133324237412F617474726962757465732E62696E504B0304140006080800CC70623B08DA0BD19000000041010000360000006662782F41393633353835312D344632462D344230382D4230
310
46372D3739314545314133324237412F6469726563746F72792E786D6C858F410AC3201045AF22B36F53E9A60B35CBEEBAE80D244E44489C6234F4F835464A48035D0DF398FF9F8AF63D0E6CC63039F212F8F9020C7D47C6792B21C5FE7403D62A1188E2E60C98D7234A5830286103A55745067B9D86B8A3CF9C7F90C11DE6
310
07FB144396D7B6A82D282E9A152AD114D5EF2CB866EEE831B8EEA07A7BB5A8D7D61A2BAAEB7FD5F70921FF497D00504B0304140006080800CC70623BEDD1DC58FD000000A00100003B0000006662782F41393633353835312D344632462D344230382D423046372D3739314545314133324237412F7265736F75726365732F
310
636F72652E786D6C8D504B6E833010BD0A9A6D65B00922041947112427E8052C33A156828DFCA97AFC9A40A576D7CDCCE87D344F8F9FBFE667F689CE6B6B3A6039850C8DB2A336530731DC4903D95970676DF82583CCC8193B5861107C72362E3BA4AC096842428D1D7107A5F7182053CF7474E0D507CE32973124857FE48B
310
540F3961CEF244279DE03EB81420DB9EAC1384436FA353E879B1B182C7A8C75DA3C7F453DF353A1075D537A7BA6464B8F535A99AE14A9A2BBD90E350DD183B5CFABE3AF262350B1EF4FC9351399401471025A527C218A1E53BAB5A5AB765F5469B96525EACF23FA6B88CFF34456DC2A1DCE36E360F82A5202F42F062ED2BAD
310
579969AFDD8A6F504B010214000A0000080000CC70623B3DEE336E79000000790000001B00000000000000000000000000000000006175746F6465736B2D64657369676E2D7061636B6167652E786D6C504B01021400140006080800CC70623BD486FD9CA0000000F40000001300000000000000000000000000B20000005B
310
436F6E74656E745F54797065735D2E786D6C504B01021400140006080800CC70623B853B8169EB0000007C010000080000000000000000000000000083010000636F72652E786D6C504B01021400140006080800CC70623B55019EA25F0000007C000000070000000000000000000000000094020000636E782E786D6C504B
310
01021400140006080800CC70623BDBABAAF470010000D40300000C00000000000000000000000000180300006662782F636F72652E786D6C504B01021400140006080800CC70623B9C113CC27E0000009D0000000B00000000000000000000000000B20400006662782F636E782E786D6C504B01021400140006080800CC70
310
623B7DF2F77C2A010000120200003100000000000000000000000000590500006662782F41393633353835312D344632462D344230382D423046372D3739314545314133324237412F636F72652E786D6C504B01021400140006080800CC70623BAD7543B64E010000330300003000000000000000000000000000D2060000
310
6662782F41393633353835312D344632462D344230382D423046372D3739314545314133324237412F636E782E786D6C504B01021400140006080800CC70623BE75B7789680500003C10000034000000000000000000000000006E0800006662782F41393633353835312D344632462D344230382D423046372D3739314545
310
314133324237412F6F626A656374732E786D6C504B01021400140006080000CC70623B0000000000000000000000003500000000000000000000000000280E00006662782F41393633353835312D344632462D344230382D423046372D3739314545314133324237412F76657274696365732E62696E504B01021400140006
310
080800CC70623BF270F133060000000400000036000000000000000000000000007B0E00006662782F41393633353835312D344632462D344230382D423046372D3739314545314133324237412F747269616E676C65732E62696E504B01021400140006080000CC70623B0000000000000000000000003700000000000000
310
000000000000D50E00006662782F41393633353835312D344632462D344230382D423046372D3739314545314133324237412F617474726962757465732E62696E504B01021400140006080800CC70623B08DA0BD1900000004101000036000000000000000000000000002A0F00006662782F41393633353835312D344632
310
462D344230382D423046372D3739314545314133324237412F6469726563746F72792E786D6C504B01021400140006080800CC70623BEDD1DC58FD000000A00100003B000000000000000000000000000E1000006662782F41393633353835312D344632462D344230382D423046372D3739314545314133324237412F7265
310
736F75726365732F636F72652E786D6C504B0506000000000E000E0080040000641100000000
  0
XRECORD
  5
B51A
102
{ACAD_REACTORS
330
1F7
102
}
330
1F7
100
AcDbXrecord
280
     1
102
MATERIAL
148
0.0
149
0.0
149
0.0
 93
        0
 94
       63
282
     0
 72
     1
 77
     1
171
     1
175
     1
179
     1
273
     0
  0
XRECORD
  5
1F8
102
{ACAD_REACTORS
330
1F7
102
}
330
1F7
100
AcDbXrecord
280
     1
 70
     1
 90
429727718
  1
30362254-06B7-45E0-A893-8CFA70E3D6BC
310
504B03040A0000080000CC70623B3DEE336E79000000790000001B0000006175746F6465736B2D64657369676E2D7061636B6167652E786D6C3C3F786D6C2076657273696F6E3D22312E302220656E636F64696E673D227574662D3822203F3E3C666F726D6174733E3C666F726D61743E687474703A2F2F736368656D612E
310
6175746F6465736B2E636F6D2F64657369676E2D7061636B6167652F323030393C2F666F726D61743E3C2F666F726D6174733E504B0304140006080800CC70623BD486FD9CA0000000F4000000130000005B436F6E74656E745F54797065735D2E786D6C7D8EC10E82300C865F65E91D8A1E8C310C0EEA1BF002731658846E
310
D98AC1B77784ABF1D8FE5FBFBF75BBCE937A534CCEB38643598122B6FEE978D0B0485F9C41B54DDD7D022595594E1A469170414C76A4D9A4D207E29CF43ECE46F218070CC6BECC4078ACAA135ACF422C856C0E68EA1BF5669944DDD7BCDE7B1F8E415D77AECB980613C2E4AC91FC167A2B244592486606FC29C8FD7F045B9A
310
EF7053A7E60B504B0304140006080800CC70623B1EC5D7A3EB0000007C01000008000000636F72652E786D6C8D90416EC3201045AF82665B6103C6756C6122AB4D4ED00B204C5C94182C03558F5F9C3852BBEB6A467FFE9B197D71FC9E6FE8CBACC17AD7032D0820E3B41FAD9B7A48F1820F808E52ACDEC75F36404ECDA687
310
4D0629A6D5A76597B477D1B89855E747B38B2A041301E95B6E7A08FAD3CCAA50296647B8168BD2573599823EBB0CA76447F43862C7BCCF5EAC59410E4DDD9C7973C2755553CCCFA4C603E3040F1565ED3B1FDE4E432BCA0D9622DAF9795FAF464533826484B498524CD807E51D79ED187F21878E10516EF63F505AC67F42C9
310
BA58B1FDDD071640D2FCC87D2045B96591CB3DA85CB7DCE40F504B0304140006080800CC70623B55019EA25F0000007C00000007000000636E782E786D6C4DCB3B0E80201045D1AD90E915ED2CF8AC45050C11660C8261F98AB1B07AC9C97D42D718D865D3E909258CFD00CCE24AC6E326A164D74DC0B4128928FF32603847
310
2BA13128B1252AC747C6BAB984FC68F0B87FE8960A5C09FE86CFB69FBA01504B0304140006080800CC70623B8C9102E971010000D40300000C0000006662782F636F72652E786D6CC5535B6E833010BC8AE5DF0A6C08340F1947A84D4ED00B38C6A128602363A31CBFCB234A53A551FA553EC09AD9F5CE8C31DB9E9B1AF5CA
310
7695D1198E428A91D2D214952E33ECDD315861B4E5CC1AE3BE9561A445A3323CC098B3D21ADFCE9034DA29ED00D5A6503328BA4E398C640D8B0C77F253352214DE4145770A5B214FA2546114020D759C75CE8200340D19DE981F0F6746269C33EFAB6266AB02A655C74A59CCF365BADC27CB5D902ED22848F6340DF238A141
310
BE88E2F57B92BFEDF23523433367AE6A2EEAA455C2A902F398D2751045018D3FA264435F3771F242571B4A1919CA6F9A7C5B3CD9E42BED16F12C776AEB308F40C848FC700B1139D4891EF410CEC810227CC6846F8386402064270EF5C5C709A05E49676C024C61FC95EA45ED154CA5211D1FF4FB8291A913A68E9B83EBBB33
310
E2A7673CDE118E5AE8124C0807CB8377834E366998436B950D7A7746DAD846D4CFD978E0F04FD455FC5D49D2D4C6FE9722321F10997F0F32DC47FE05504B0304140006080800CC70623BFFEA85907E0000009D0000000B0000006662782F636E782E786D6C4DCCD10A83201886E15B91FFDC95D95A811AB6F23E625948A6C3
310
E9D8E5AF46073BFAE0E1E365ED67B3E8ADC3CB78C7815C7240DA3DFC64DCC221C519D7805AC182F7F1EF06C88D9BE6703008B6049F9E274D7A1E938DBB5AE3D6131B2589BA0D3D965551E0B2EA732C9B9A624AAEB41E3A557677029960D9AFB4EF11165F504B0304140006080800CC70623B4FEEA4082C0100001202000031
310
0000006662782F39464131463745442D413632322D343644302D413938332D3331353338454246344243312F636F72652E786D6C8D515B6EC32010BC0AE2AB55850DD871ED0813254D72825EC00192A2C460F1A872FC42ED48ED5F7E00CDCECCCEB26C731F6FE05B39AFADE921293004CA082BB5B9F43086336A21D870E6AC
310
0D7F68109861543DCC30E4ECE26C9C164858139409093556AA051CBC570102714B8F1E7AF1A5C6A11862480C7F2DA6415C878B2A4891CA89C7990F2E050073937C42DE1DB7E4F87ED8A36D4329AA9B3D46DBAEAD504556557BD81DEBDD0761E52CE42C462D17B996298E3E6BE59E35C962CE821E1FF18553435012728A7187
310
0841987E927A8D9B35ADDF70BBC6989599FE4F1427F9A4286A132ABAC49D651EF234CD5CE04CDA78BA3DC2A8FB645D00B9DF8B57E215725C60BCA2A463E54C4CE327C7A65E1C7DB02E7DEFCBF594B864C5CA6CDBD49C957943E9FA5D5FBAF336F90F504B0304140006080800CC70623BAD7543B64E01000033030000300000
310
006662782F39464131463745442D413632322D343644302D413938332D3331353338454246344243312F636E782E786D6CD593CD6EC32010845F0571AD6CE3D48AD20813A9873E410FBD12D82434182C7EAAE6EDBB2424CD25871E7B41D6EC30B3FA84F9E67BB2E40B4234DE8DB46F1925E094D7C6ED479AD3AE5951B2113C
310
789FEE6C943839C1488B4C05DF079FE72A69D8C96C13AAD6B8631503449F83828872B949AC57D26200B826A308D316B4064D6E46FCDA41C05550DC9E483A00797BFD207EFB092A45DE9514C1BBD22178396BD39D891265658C238DEA00936C654E5E433CB65A26D9F6EDB5EBC14EBF49A45CB856E66048291F6939A9A81BB5
310
C8917738143CA680F4AA299D66A042CEB3354A2684DC9D8D178FE0D9B8B41CAAD720F880EE7EF93C0C18769E099ECC04D5A102C8049A8A05632F4DDF376CF1DE0F6BB65C2F8627B65A33C6BB62177CEBBDAD973006829F89F22E814B54F4BC2BE347F8AA8F681390B50FA73F804400B5F542E796F19FF974E7F78DB802FE05
310
E207504B0304140006080800CC70623B16AB87BA640500003C100000340000006662782F39464131463745442D413632322D343644302D413938332D3331353338454246344243312F6F626A656374732E786D6CAD575B6FA33818FD2B887DE6924B3BED8A326A92B68A663B534DD4D13E548A0C38942D60649B369D5FBFC7
310
600890A493BDE42160637FD7F31D7FF63E6FB3D478A55C242CBF3247B66B1A340F5994E4F19559CA8D75611A9F7D8F33263BCB4C232719BD32D5B4E97B316765A1A722BA21652A07B3B7B33F0D11D29C9A46981221AE4C113ED38CD8A4942CA2E2C58E882476BCD9DA23BB5ED8171B73523C0F841684D35CC252CCE79062D4
310
468DFA43D7747CCF51DF7D4FFDEB5593E3AB9CCA9FBEFE241792E4E19EB28198C968BAB8199F5D5A67D3E9C49A9E8F47D6EC76B6B0469F26EEFC7C3EBFBCBEB98462213924694B38DD98FE1D62C393D073EA4FADC5DAF04326852CCF6958F90F0F2B9BB5C48816348F90C7840A68EB78EDF68723159BCEE7891A6B95DDE9D3
310
BCEAEEE8086A6C6F9E5D4B59F0175C10A7A0820BAA5055C7473B5AE3CFDD452D602CD5DF12616444529E90D448938013FE6EFA58AA96F85E4F8C42275708571E98FE6827AF6B2B4AE3D7D83D64E5A64C53054DD3AF90BD06FEA9149565C94FCA0F6B834DC85599E4F2423B24DF0B6AFA979E534DFA9E7A4CC6FA631D486393
310
921829879BF5D781A373557BCB85E97FB90DB62B558F8795179C15944B051F40AB495CF35451D26A4727654E6D8033BD98EF82F21D91FF8AF2DD9982BCF1643BDD4EB516C9492E368C67C88DED563FC36D5EACF66DFF057C3658BDBFA69DF9578B3DA735B64F18C7F20770A9D45CFCF7FCF563D6456A277DBEF78A02637CA2
310
43B90A490AEAB94F72244481D24819A6C0E59B606BFA4B3025981DBB48EAB701D97BF19C577CC77F2D1B6C55A9EF3C732474C0B727303F625995056C3B02963D9EAC146BE78EC5FCEC7FA999EBC5EACBAAE41B12D27B4D2C0BBA49F244E2ECDC81B76B502F113D8F5EE8FB1BE3111CDD4FC2AA9B844CAB1288B68AB90A7CDC
310
1C166AB0D3DC5310625FCC14E779BFD0709F8890A629C9292B1B2DED31A4B0DA928CEE135085754027E3018A397D4D5427D15BD1330B677DC8934285AC3DF45A9EB68FF8F2B8FC0A509AFEECFD0FF2DE25CC6047F7214B195F07EFEB9A094D800F7BFAE8FED187B78EA8A3A400F115961BCAD1215E47C966530AF0EE8128FE
310
58CEBB996A8964FFA529A046635D9353B0336A8F700DDF46271A024E70B0B37C9DE01847591E54DED53D54202AB947E4076556AC49C6CA5C9E1226B7F1A7B1BE15DEED62C41B91E1B3E9AFAAA735036547343A925075041DF0A9979E893B391F8FCFA6967B3EFB644DCF6E5CEBFAE272625DCC6FAF3FB93793C5F90CE1EF57
310
407342756B10D1C489E8953CD1617E5CEECAD6F4EF8914CE5D5D504E5C3F1F9736DA62CFC11E00BCDDB8CC8A9466349744C1F75EBDA4DF09BA8A9E8C7A7E9991989E20E5DBDD6A6003664ED8F7A04A8DBE0DF6EAD9B9AA858342E47399053949D2C146EDB85DE4B176BB0965FBAC19BD19AA918E27FA50C1D22402E144464C
310
59462568E704B6E71915404CB72B8FF4EDE184DDAF753F284990D2C6926782963815403548A70C657FDEF80D2D9CEAA2AE4C1C76F60BFE74219A06527D6582DF6412526107381E55E353090704D085B52408D0933C4ED159D79BDA71BB4BC506F4831350EB6F979CD22D69BF7AC49B91A2C0A9DDA3D5CA36AD20FC478E37E6
310
1844E2352865EBCB6EA275A652E3836BE04EFB400BF1A2556F515F1FBB35B2AB35BD889C744FFA1004B5544B121E57F70215746DD2F5E2C1412B602CBF19455AC6C8E5E9922C4E01E65215385004546899059180EAFCF7A707CE7017CD8CDB0410789AB32C63B91E5CEBBBACB17AC6CD347A022D5075FD106377347AAABA7E
310
7D11590744509B44E205134DC1290F06580320F78E537D3D73540E06CB970B431F185308AD40BBD794D6D77003C5A36E8EAA54BA64597CD8F83BD552A080A365F7FF06504B0304140006080000CC70623B000000000000000000000000350000006662782F39464131463745442D413632322D343644302D413938332D3331
310
353338454246344243312F76657274696365732E62696E504B0304140006080800CC70623BF270F1330600000004000000360000006662782F39464131463745442D413632322D343644302D413938332D3331353338454246344243312F747269616E676C65732E62696E636660600000504B0304140006080000CC70623B
310
000000000000000000000000370000006662782F39464131463745442D413632322D343644302D413938332D3331353338454246344243312F617474726962757465732E62696E504B0304140006080800CC70623B08DA0BD19000000041010000360000006662782F39464131463745442D413632322D343644302D413938
310
332D3331353338454246344243312F6469726563746F72792E786D6C858F410AC3201045AF22B36F53E9A60B35CBEEBAE80D244E44489C6234F4F835464A48035D0DF398FF9F8AF63D0E6CC63039F212F8F9020C7D47C6792B21C5FE7403D62A1188E2E60C98D7234A5830286103A55745067B9D86B8A3CF9C7F90C11DE607
310
FB144396D7B6A82D282E9A152AD114D5EF2CB866EEE831B8EEA07A7BB5A8D7D61A2BAAEB7FD5F70921FF497D00504B0304140006080800CC70623B0D6EF93BFE000000A00100003B0000006662782F39464131463745442D413632322D343644302D413938332D3331353338454246344243312F7265736F75726365732F63
310
6F72652E786D6C8D50596E833010BD0A9ADFCA60B334011947A8694ED00B586642AC041B79A97AFC9A40A5F6AF3F33A3B7689E1E3F7DCD8FEC139DD7D6F4C0720A191A65476DA61E62B892236427C19DB5E1970C322367EC618541F0C9D9B8EC90B226A009093576C41D94DE63804C3DD2D18357379C652E63480A7FCF17A9
310
EE72C29CE5894E3AC17D702940B63D59270887DE46A7D0F36263058F518FBB468FE9A7BE6A7420864373B8D4873369AA8691FA421B3294352543C5CAF65C0F6FEF43CB8BD52C78D0F34F46E550061C419494B6843142CB0F5677F4B52BEB177AEC28E5C52AFF638ACBF84F53D42654E51E77B379102C05791282176B5F693D
310
CB4C7BED567C03504B010214000A0000080000CC70623B3DEE336E79000000790000001B00000000000000000000000000000000006175746F6465736B2D64657369676E2D7061636B6167652E786D6C504B01021400140006080800CC70623BD486FD9CA0000000F40000001300000000000000000000000000B20000005B
310
436F6E74656E745F54797065735D2E786D6C504B01021400140006080800CC70623B1EC5D7A3EB0000007C010000080000000000000000000000000083010000636F72652E786D6C504B01021400140006080800CC70623B55019EA25F0000007C000000070000000000000000000000000094020000636E782E786D6C504B
310
01021400140006080800CC70623B8C9102E971010000D40300000C00000000000000000000000000180300006662782F636F72652E786D6C504B01021400140006080800CC70623BFFEA85907E0000009D0000000B00000000000000000000000000B30400006662782F636E782E786D6C504B01021400140006080800CC70
310
623B4FEEA4082C0100001202000031000000000000000000000000005A0500006662782F39464131463745442D413632322D343644302D413938332D3331353338454246344243312F636F72652E786D6C504B01021400140006080800CC70623BAD7543B64E010000330300003000000000000000000000000000D5060000
310
6662782F39464131463745442D413632322D343644302D413938332D3331353338454246344243312F636E782E786D6C504B01021400140006080800CC70623B16AB87BA640500003C1000003400000000000000000000000000710800006662782F39464131463745442D413632322D343644302D413938332D3331353338
310
454246344243312F6F626A656374732E786D6C504B01021400140006080000CC70623B0000000000000000000000003500000000000000000000000000270E00006662782F39464131463745442D413632322D343644302D413938332D3331353338454246344243312F76657274696365732E62696E504B01021400140006
310
080800CC70623BF270F133060000000400000036000000000000000000000000007A0E00006662782F39464131463745442D413632322D343644302D413938332D3331353338454246344243312F747269616E676C65732E62696E504B01021400140006080000CC70623B0000000000000000000000003700000000000000
310
000000000000D40E00006662782F39464131463745442D413632322D343644302D413938332D3331353338454246344243312F617474726962757465732E62696E504B01021400140006080800CC70623B08DA0BD190000000410100003600000000000000000000000000290F00006662782F39464131463745442D413632
310
322D343644302D413938332D3331353338454246344243312F6469726563746F72792E786D6C504B01021400140006080800CC70623B0D6EF93BFE000000A00100003B000000000000000000000000000D1000006662782F39464131463745442D413632322D343644302D413938332D3331353338454246344243312F7265
310
736F75726365732F636F72652E786D6C504B0506000000000E000E0080040000641100000000
  0
XRECORD
  5
B51C
102
{ACAD_REACTORS
330
173
102
}
330
173
100
AcDbXrecord
280
     1
102
MATERIAL
148
0.0
149
0.0
149
0.0
 93
        0
 94
       63
282
     0
 72
     1
 77
     1
171
     1
175
     1
179
     1
273
     0
  0
XRECORD
  5
175
102
{ACAD_REACTORS
330
173
102
}
330
173
100
AcDbXrecord
280
     1
270
     1
271
     1
  0
XRECORD
  5
174
102
{ACAD_REACTORS
330
173
102
}
330
173
100
AcDbXrecord
280
     1
270
     1
271
     1
  0
XRECORD
  5
1FB
102
{ACAD_REACTORS
330
173
102
}
330
173
100
AcDbXrecord
280
     1
 70
     0
 90
1673772943
  1
ECE7A1D2-D628-4531-984C-D00F80459256
310
504B03040A0000080000CC70623B3DEE336E79000000790000001B0000006175746F6465736B2D64657369676E2D7061636B6167652E786D6C3C3F786D6C2076657273696F6E3D22312E302220656E636F64696E673D227574662D3822203F3E3C666F726D6174733E3C666F726D61743E687474703A2F2F736368656D612E
310
6175746F6465736B2E636F6D2F64657369676E2D7061636B6167652F323030393C2F666F726D61743E3C2F666F726D6174733E504B0304140006080800CC70623BD486FD9CA0000000F4000000130000005B436F6E74656E745F54797065735D2E786D6C7D8EC10E82300C865F65E91D8A1E8C310C0EEA1BF002731658846E
310
D98AC1B77784ABF1D8FE5FBFBF75BBCE937A534CCEB38643598122B6FEE978D0B0485F9C41B54DDD7D022595594E1A469170414C76A4D9A4D207E29CF43ECE46F218070CC6BECC4078ACAA135ACF422C856C0E68EA1BF5669944DDD7BCDE7B1F8E415D77AECB980613C2E4AC91FC167A2B244592486606FC29C8FD7F045B9A
310
EF7053A7E60B504B0304140006080800CC70623BD9DDAED0EC0000007C01000008000000636F72652E786D6C8D90416EC3201045AF82665B61836D9CD8C2444DD39CA01740405C94182C03558F5F9C3852BBEB6A467FFE9B197D7EF89E6EE8CB2CC17A37002D0820E394D7D68D03A478C17B4007C117EFE32F1B20272733C0
310
2A83E0E3E2D3BC49CABB685CCCAAF3DA6CA20CC14440EA969B0182FA34932C648AD911AEC52CD5558EA6A0CF2EC329598D1E47ACCEFBECC59A050463A7EA5833865FEBDD0E37353BE3EE8DBDE3F6786A48D375FBF6CC78B9C282473B3DEFABC5C86834888A900E538A49F5419B9EB47DD5BC907D4F082F57FB1F28CDFA9F50
310
B22ED6D5F6EE030B20687EE43E10BC5CB3C8E51E54AE6B6EE207504B0304140006080800CC70623B55019EA25F0000007C00000007000000636E782E786D6C4DCB3B0E80201045D1AD90E915ED2CF8AC45050C11660C8261F98AB1B07AC9C97D42D718D865D3E909258CFD00CCE24AC6E326A164D74DC0B4128928FF326038
310
472BA13128B1252AC747C6BAB984FC68F0B87FE8960A5C09FE86CFB69FBA01504B0304140006080800CC70623BA24EB22D72010000D40300000C0000006662782F636F72652E786D6CC5535B6E833010BC8AE5DF0A6C5E49888CA3A6694ED00B38E05014B091B1518EDFE511A5A9D228FD2A1F60CDEC7A67C6986DCE4D8D7A
310
69BA4AAB0C073EC548AA5C17952A33ECECD15B61B4E1CC686DBF9561A44423333CC098B3D268D7CE50AE9595CA02AA74216750749DB418E5352C32DCE59FB211BE70162ABA93DF8AFC244AE9073ED050C759670D0840D390E18DF9F1706664C23973AE2A66B62A605A75ACA4C13C4976E1364A12EF355A2EBD384AF65EFA96
310
BC7B8BED2EA6719AAE16FB8491A199335B351775B991C2CA02F390D2D40B028F861F41BCA68B7518BFD0D59A524686F29B26D7164F36B94AD9289CE54E6D1DE6010819891F6E21228B3AD1831EC219194284CF98F06DD01008846CC5A1BEF83801D4CBDC6A1303536877A57A513B0953A94FC707FDBE6064EA84A9E3E6E0FA
310
EE8CF0E9198F7784A316AA0413C2C2F2E0ECA0934D1AE6D05A69BCDE9E91D2A611F573361E38FC1375157F5752AE6B6DFE4B11990F88CCBF0719EE23FF02504B0304140006080800CC70623B408A7D3B7C0000009D0000000B0000006662782F636E782E786D6C4DCCD10A83201886E15B91FFDC552A92A0064DBC8F581632
310
D3703A76F9ABD1C18E3E78F878E5F0D9027ABBFCF2292AE86E2D20171F69F6715550CB827B40839639A5F2770314A7CD293819B45C73AAFB45B35BA61ACAA1C1C7E7855C58C15BC331339661262CC762340413D68D77DA5B42298546CBE6573AF60CEB2F504B0304140006080800CC70623B449FB9BD290100001202000031
310
0000006662782F36394639363044362D344446342D343946362D394244322D3234314243333846323333332F636F72652E786D6C8D515B6EC32010BC0AE22B55850D98B871848994463E412FE002495162B07854397EA176A4F62F3F2C9A9D991D587EB84F37F0AD7D30CEF6905418026DA553C65E7A98E219ED203808EE9D
310
8B7F6810D871D23D2C3014FCE25D9A57483A1BB58D19B54EE9151C43D0110279CB971E06F9A5A7B11A53CC8C70ADE6515EC78BAE4895DB992778883E0700CB907242D17643D7E2538BD869608875438BBAE38922CAC8F1BDD90DB4691A5E2F42C153326A951B95E398B3D1FE599322163C9AE9115F7A3D46ADA0A018778810
310
84E907617BDCEE297BC5BB3DC6BC2EF47FA234AB2745C9D8D8D035EE220B50105E2F0DC1954B9FB747187D9F9D8FA0CCDB042D5FA0C015C65B42DF78BD10F3F3B363CB56C7109DCFDFBBB97E662ED92EB62D13BC2E1BCAE5777DB9966D8A1F504B0304140006080800CC70623BAD7543B64E01000033030000300000006662
310
782F36394639363044362D344446342D343946362D394244322D3234314243333846323333332F636E782E786D6CD593CD6EC32010845F0571AD6CE3D48AD20813A9873E410FBD12D82434182C7EAAE6EDBB2424CD25871E7B41D6EC30B3FA84F9E67BB2E40B4234DE8DB46F1925E094D7C6ED479AD3AE5951B2113C789FEE
310
6C943839C1488B4C05DF079FE72A69D8C96C13AAD6B8631503449F83828872B949AC57D26200B826A308D316B4064D6E46FCDA41C05550DC9E483A00797BFD207EFB092A45DE9514C1BBD22178396BD39D891265658C238DEA00936C654E5E433CB65A26D9F6EDB5EBC14EBF49A45CB856E66048291F6939A9A81BB5C89177
310
38143CA680F4AA299D66A042CEB3354A2684DC9D8D178FE0D9B8B41CAAD720F880EE7EF93C0C18769E099ECC04D5A102C8049A8A05632F4DDF376CF1DE0F6BB65C2F8627B65A33C6BB62177CEBBDAD973006829F89F22E814B54F4BC2BE347F8AA8F681390B50FA73F804400B5F542E796F19FF974E7F78DB802FE05E20750
310
4B0304140006080800CC70623B8D05915C650500003B100000340000006662782F36394639363044362D344446342D343946362D394244322D3234314243333846323333332F6F626A656374732E786D6CAD575B6FA33814FE2B887D06429276DA1565D4266D158D3A339A6846FB502932E050B66023DB74D2FDF5FB190C01
310
9276B2973C046C8ECFF53B17071F77456EBD502133CEAE6CDF9DD81665314F32965ED995DA3A17B6F5310C04E7AA47665B8C14F4CAD6DB7618A48257A5D94AE89654B91AEDDEDDFC61C998326A5B714EA4BCB265FC440BE2924AF184CA6737218AB8E976E7FA6E4338649B0A523E8D98964450A6A029F619B8588D52FE7039
310
B1BD30F0F4F730D0FF866AF6369557DB33949F31A9088B0F848DD8CCFCF9F2767A76E99CCDE733677E3EF59D9BBB9BA5E37F984D16E78BC5E5F5ED25044B25C0C96822E8D60EEFE11B91C581D77CEA34368A1F5329E68CD1B8B61F16D63A1B8E092D294B10C78C4A48EB593D192E7DED9BDEE7995E1B91FDEDD3ACEA9FE831
310
6A756F9F7D4D79F4274C90A7A04248AA51D5F8C718DAE06FB2F75AC4796EBE65D22A88A22223B995679120E2D50E41AA49C260C046A35368846B0BECD0DFF3EBEB8AD4F835768F69B9ADF25C43D30E6B646F807FAA64AD59F61715C7A54127C4AACA98BA3006A9D792DAE165E0D59B61A01FB3A9F9D838D2DAE62445C86166
310
F37564E842E7DE6A69879FEEA2DD5AE7E371E1A5E025154AC307D06A03D73EB5978C58FFA4C8E9033066E0F3BD53BEC1F39F91BE7B55103791EDE6BBB991A2046172CB4581D8B893FA674DDA17A77B3B7C413D1B511FD2743BFF8A38F03A658705E3ADF8015C3A3417FF3D7E439FF591DA0B5F18BC20C1B8981957AE6392A3
310
F43C640C01D1A0B4728E2DD4F26DB4B3C3152A252A3B4E913CEC1C72F012782FF88EFF8637AA552DBEF76408E8A8DE9E50F9E1CB3A2DA0DB1B6039A893B56063DC5B3E3FFB5F72E67AB9FEB4AEC496C4F4C1149625DD662C53E89D7BF0F6151A046260D1337DFDC94502430F83B0EE07A130A224BCAD7DAE1D9FB6CD422FF6
310
920702629C4BB9AE79C12F243C6432A6794E18E5552BA56B431AAB5D91317302B2B071E86C3A42B1A02F999E24061403B5D0EB639195DA655DD3EBEAB4FB862DDF579F014AD0E73C22F99E28DA57FB98E75C6CA2D74D53086D600F4786E0FE3144B771A8A7B900F03594DB8A633CBC49B2EDB69228BB479CF863B5E807AAAB
310
23872F6DFEB4129B949CA33823F58830E86D65621E10047D9DB34D862E8EAC3C2ABC2F7B2C40D67CDFE01F5545B92105AF983AC54D93D69E56FB8E797F88913F898A9FEC705D3F9D1B54EC8426FB500D40A03BD0119B06E1B95DDC7EB8F6975367793EBD70E66733DFB9BC982F9CE564727731999F5D4ECFCE3B8D6A4DC2A0
310
6D50FD148437D110834A64C6CDDF57FBACB5C307A2A477DFE4939736CFEF2B175371E0E10CF0DD1D5C15654E0BCA14D1E87DD02FF93782A162C0A3D95F1524A52770F972BF1EE9809D13CE7DD599467F8ECE9ADD85CE85A34CD45355448C64F9E8A031DC2D596ACC6E5DD93D9B82DE2EF5CAF81363A8E47996A0DE24564A79
310
4115AACE09C55E14540231FDA13C319787134EBF34E3A022514E5B4D9E0826E25C02D5805B15ABE1BEF51B26383D445DD9E875EE33FE4C22DA16427D65A3BCA92CA6D28DD01DF5DC53330704308475351050232CCD31583787BA75774AFB06E5070DD0C8EF484E19968C5D83BA5B90B244D31E54D55A372320FE4786B7EA58
310
44E135AA5467CB7EA333A61683CC6A8C3257034C10CF46F40EF9F5BE59BE5BD30C3C72D235E95D10345C1D45445A5F0BB47E46A5EBE5570F9380B5FA629579952296A773720405982B9DE04011506178964401AA8BDF1FBF0A8EAB6861DD6580C0E38217056766716DAEB2D6FA0917D3E4116581EADB879C4E7CFFB11EFACD
310
3D641311495D92C8676CB409A72D18610D803CE8A626049E8EC1887CB5B44CC39883690DDA8399B4B9855B481E7D71D4A9D22F96E5BB73BF5793020C02137BF837504B0304140006080000CC70623B000000000000000000000000350000006662782F36394639363044362D344446342D343946362D394244322D32343142
310
43333846323333332F76657274696365732E62696E504B0304140006080800CC70623BF270F1330600000004000000360000006662782F36394639363044362D344446342D343946362D394244322D3234314243333846323333332F747269616E676C65732E62696E636660600000504B0304140006080000CC70623B0000
310
00000000000000000000370000006662782F36394639363044362D344446342D343946362D394244322D3234314243333846323333332F617474726962757465732E62696E504B0304140006080800CC70623B08DA0BD19000000041010000360000006662782F36394639363044362D344446342D343946362D394244322D
310
3234314243333846323333332F6469726563746F72792E786D6C858F410AC3201045AF22B36F53E9A60B35CBEEBAE80D244E44489C6234F4F835464A48035D0DF398FF9F8AF63D0E6CC63039F212F8F9020C7D47C6792B21C5FE7403D62A1188E2E60C98D7234A5830286103A55745067B9D86B8A3CF9C7F90C11DE607FB14
310
4396D7B6A82D282E9A152AD114D5EF2CB866EEE831B8EEA07A7BB5A8D7D61A2BAAEB7FD5F70921FF497D00504B0304140006080800CC70623BCA768048FE000000A00100003B0000006662782F36394639363044362D344446342D343946362D394244322D3234314243333846323333332F7265736F75726365732F636F72
310
652E786D6C8D50596E833010BD0A9ADFCA60D600328E9AA639412F609909B1126CE4A5EAF16B0295DABFFECC8CDEA2797AECF8353F924FB44E193D409E5248504B332A3D0D10FC95B4901C39B3C6F85F3248B49871801506CE266BC2B243D2688FDA47549B11775038871E12F988C7004EDE7016A9083E2ADC3D5D84BC8B09
310
D33C8D74D471E6BC8D0192EDC93A815B742658898E651BCB59086ADC356A8C3FD555A1055ED7E7E254D615792D0F075295F585746FF53B694EE78A565DD736979A65AB9933AFE69F8CD2A2F038022F28ED489E135A7CE4554F9BBEA85E68DB53CAB255FEC71496F19FA6A0B42F8B3DEE6673C0F318E4497096AD7DC5F52C33
310
EEB55BFE0D504B010214000A0000080000CC70623B3DEE336E79000000790000001B00000000000000000000000000000000006175746F6465736B2D64657369676E2D7061636B6167652E786D6C504B01021400140006080800CC70623BD486FD9CA0000000F40000001300000000000000000000000000B20000005B436F
310
6E74656E745F54797065735D2E786D6C504B01021400140006080800CC70623BD9DDAED0EC0000007C010000080000000000000000000000000083010000636F72652E786D6C504B01021400140006080800CC70623B55019EA25F0000007C000000070000000000000000000000000095020000636E782E786D6C504B0102
310
1400140006080800CC70623BA24EB22D72010000D40300000C00000000000000000000000000190300006662782F636F72652E786D6C504B01021400140006080800CC70623B408A7D3B7C0000009D0000000B00000000000000000000000000B50400006662782F636E782E786D6C504B01021400140006080800CC70623B
310
449FB9BD290100001202000031000000000000000000000000005A0500006662782F36394639363044362D344446342D343946362D394244322D3234314243333846323333332F636F72652E786D6C504B01021400140006080800CC70623BAD7543B64E010000330300003000000000000000000000000000D20600006662
310
782F36394639363044362D344446342D343946362D394244322D3234314243333846323333332F636E782E786D6C504B01021400140006080800CC70623B8D05915C650500003B10000034000000000000000000000000006E0800006662782F36394639363044362D344446342D343946362D394244322D32343142433338
310
46323333332F6F626A656374732E786D6C504B01021400140006080000CC70623B0000000000000000000000003500000000000000000000000000250E00006662782F36394639363044362D344446342D343946362D394244322D3234314243333846323333332F76657274696365732E62696E504B010214001400060808
310
00CC70623BF270F13306000000040000003600000000000000000000000000780E00006662782F36394639363044362D344446342D343946362D394244322D3234314243333846323333332F747269616E676C65732E62696E504B01021400140006080000CC70623B00000000000000000000000037000000000000000000
310
00000000D20E00006662782F36394639363044362D344446342D343946362D394244322D3234314243333846323333332F617474726962757465732E62696E504B01021400140006080800CC70623B08DA0BD190000000410100003600000000000000000000000000270F00006662782F36394639363044362D344446342D
310
343946362D394244322D3234314243333846323333332F6469726563746F72792E786D6C504B01021400140006080800CC70623BCA768048FE000000A00100003B000000000000000000000000000B1000006662782F36394639363044362D344446342D343946362D394244322D3234314243333846323333332F7265736F
310
75726365732F636F72652E786D6C504B0506000000000E000E0080040000621100000000
  0
XRECORD
  5
176
102
{ACAD_REACTORS
330
173
102
}
330
173
100
AcDbXrecord
280
     1
270
     1
271
     1
  0
XRECORD
  5
177
102
{ACAD_REACTORS
330
173
102
}
330
173
100
AcDbXrecord
280
     1
270
     1
271
     1
  0
XRECORD
  5
B53E
102
{ACAD_REACTORS
330
B53D
102
}
330
B53D
100
AcDbXrecord
280
     1
102
ACAD_ROUNDTRIP_2012_MLEADER_STYLE
298
     1
  0
XRECORD
  5
B550
102
{ACAD_REACTORS
330
B54F
102
}
330
B54F
100
AcDbXrecord
280
     1
102
DISPLAYNAME
  1
Metric50
102
FLAGS
 90
        0
  0
CELLSTYLEMAP
  5
B510
102
{ACAD_REACTORS
330
162
102
}
330
162
100
AcDbCellStyleMap
 90
        3
300
CELLSTYLE
  1
TABLEFORMAT_BEGIN
 90
        5
170
     1
 91
        0
 92
    32768
 62
   257
 93
        1
300
CONTENTFORMAT
  1
CONTENTFORMAT_BEGIN
 90
        0
 91
        0
 92
      512
 93
        0
300

 40
0.0
140
1.0
 94
        5
 62
     0
340
11
144
6.0
309
CONTENTFORMAT_END
171
     1
301
MARGIN
  1
CELLMARGIN_BEGIN
 40
1.5
 40
1.5
 40
1.5
 40
1.5
 40
4.5
 40
4.5
309
CELLMARGIN_END
 94
        6
 95
        1
302
GRIDFORMAT
  1
GRIDFORMAT_BEGIN
 90
        0
 91
        1
 62
     0
 92
       -2
340
14
 93
        0
 40
1.125
309
GRIDFORMAT_END
 95
        2
302
GRIDFORMAT
  1
GRIDFORMAT_BEGIN
 90
        0
 91
        1
 62
     0
 92
       -2
340
14
 93
        0
 40
1.125
309
GRIDFORMAT_END
 95
        4
302
GRIDFORMAT
  1
GRIDFORMAT_BEGIN
 90
        0
 91
        1
 62
     0
 92
       -2
340
14
 93
        0
 40
1.125
309
GRIDFORMAT_END
 95
        8
302
GRIDFORMAT
  1
GRIDFORMAT_BEGIN
 90
        0
 91
        1
 62
     0
 92
       -2
340
14
 93
        0
 40
1.125
309
GRIDFORMAT_END
 95
       16
302
GRIDFORMAT
  1
GRIDFORMAT_BEGIN
 90
        0
 91
        1
 62
     0
 92
       -2
340
14
 93
        0
 40
1.125
309
GRIDFORMAT_END
 95
       32
302
GRIDFORMAT
  1
GRIDFORMAT_BEGIN
 90
        0
 91
        1
 62
     0
 92
       -2
340
14
 93
        0
 40
1.125
309
GRIDFORMAT_END
309
TABLEFORMAT_END
  1
CELLSTYLE_BEGIN
 90
        1
 91
        1
300
_TITLE
309
CELLSTYLE_END
300
CELLSTYLE
  1
TABLEFORMAT_BEGIN
 90
        5
170
     1
 91
        0
 92
        0
 62
   257
 93
        1
300
CONTENTFORMAT
  1
CONTENTFORMAT_BEGIN
 90
        0
 91
        0
 92
      512
 93
        0
300

 40
0.0
140
1.0
 94
        5
 62
     0
340
11
144
4.5
309
CONTENTFORMAT_END
171
     1
301
MARGIN
  1
CELLMARGIN_BEGIN
 40
1.5
 40
1.5
 40
1.5
 40
1.5
 40
4.5
 40
4.5
309
CELLMARGIN_END
 94
        6
 95
        1
302
GRIDFORMAT
  1
GRIDFORMAT_BEGIN
 90
        0
 91
        1
 62
     0
 92
       -2
340
14
 93
        0
 40
1.125
309
GRIDFORMAT_END
 95
        2
302
GRIDFORMAT
  1
GRIDFORMAT_BEGIN
 90
        0
 91
        1
 62
     0
 92
       -2
340
14
 93
        0
 40
1.125
309
GRIDFORMAT_END
 95
        4
302
GRIDFORMAT
  1
GRIDFORMAT_BEGIN
 90
        0
 91
        1
 62
     0
 92
       -2
340
14
 93
        0
 40
1.125
309
GRIDFORMAT_END
 95
        8
302
GRIDFORMAT
  1
GRIDFORMAT_BEGIN
 90
        0
 91
        1
 62
     0
 92
       -2
340
14
 93
        0
 40
1.125
309
GRIDFORMAT_END
 95
       16
302
GRIDFORMAT
  1
GRIDFORMAT_BEGIN
 90
        0
 91
        1
 62
     0
 92
       -2
340
14
 93
        0
 40
1.125
309
GRIDFORMAT_END
 95
       32
302
GRIDFORMAT
  1
GRIDFORMAT_BEGIN
 90
        0
 91
        1
 62
     0
 92
       -2
340
14
 93
        0
 40
1.125
309
GRIDFORMAT_END
309
TABLEFORMAT_END
  1
CELLSTYLE_BEGIN
 90
        2
 91
        1
300
_HEADER
309
CELLSTYLE_END
300
CELLSTYLE
  1
TABLEFORMAT_BEGIN
 90
        5
170
     1
 91
        0
 92
        0
 62
   257
 93
        1
300
CONTENTFORMAT
  1
CONTENTFORMAT_BEGIN
 90
        0
 91
        0
 92
      512
 93
        0
300

 40
0.0
140
1.0
 94
        2
 62
     0
340
11
144
4.5
309
CONTENTFORMAT_END
171
     1
301
MARGIN
  1
CELLMARGIN_BEGIN
 40
1.5
 40
1.5
 40
1.5
 40
1.5
 40
4.5
 40
4.5
309
CELLMARGIN_END
 94
        6
 95
        1
302
GRIDFORMAT
  1
GRIDFORMAT_BEGIN
 90
        0
 91
        1
 62
     0
 92
       -2
340
14
 93
        0
 40
1.125
309
GRIDFORMAT_END
 95
        2
302
GRIDFORMAT
  1
GRIDFORMAT_BEGIN
 90
        0
 91
        1
 62
     0
 92
       -2
340
14
 93
        0
 40
1.125
309
GRIDFORMAT_END
 95
        4
302
GRIDFORMAT
  1
GRIDFORMAT_BEGIN
 90
        0
 91
        1
 62
     0
 92
       -2
340
14
 93
        0
 40
1.125
309
GRIDFORMAT_END
 95
        8
302
GRIDFORMAT
  1
GRIDFORMAT_BEGIN
 90
        0
 91
        1
 62
     0
 92
       -2
340
14
 93
        0
 40
1.125
309
GRIDFORMAT_END
 95
       16
302
GRIDFORMAT
  1
GRIDFORMAT_BEGIN
 90
        0
 91
        1
 62
     0
 92
       -2
340
14
 93
        0
 40
1.125
309
GRIDFORMAT_END
 95
       32
302
GRIDFORMAT
  1
GRIDFORMAT_BEGIN
 90
        0
 91
        1
 62
     0
 92
       -2
340
14
 93
        0
 40
1.125
309
GRIDFORMAT_END
309
TABLEFORMAT_END
  1
CELLSTYLE_BEGIN
 90
        3
 91
        2
300
_DATA
309
CELLSTYLE_END
  0
XRECORD
  5
B515
102
{ACAD_REACTORS
330
162
102
}
330
162
100
AcDbXrecord
280
     1
102
ACAD_ROUNDTRIP_PRE2007_TABLESTYLE
 90
      512
 91
        0
  1

 92
      512
 93
        0
  2

 94
      512
 95
        0
  3

  0
XRECORD
  5
B528
102
{ACAD_REACTORS
330
B527
102
}
330
B527
100
AcDbXrecord
280
     1
102
RTVSPost2010Prop28
280
     1
102
RTVSPost2010PropOp28
 70
     1
102
RTVSPost2010Prop29
280
     1
102
RTVSPost2010PropOp29
 70
     1
102
RTVSPost2010Prop30
280
     0
102
RTVSPost2010PropOp30
 70
     1
102
RTVSPost2010Prop31
280
     0
102
RTVSPost2010PropOp31
 70
     1
102
RTVSPost2010Prop32
280
     0
102
RTVSPost2010PropOp32
 70
     1
102
RTVSPost2010Prop33
280
     0
102
RTVSPost2010PropOp33
 70
     1
102
RTVSPost2010Prop34
280
     0
102
RTVSPost2010PropOp34
 70
     1
102
RTVSPost2010Prop35
280
     0
102
RTVSPost2010PropOp35
 70
     1
102
RTVSPost2010Prop36
280
     0
102
RTVSPost2010PropOp36
 70
     1
102
RTVSPost2010Prop37
 90
       50
102
RTVSPost2010PropOp37
 70
     1
102
RTVSPost2010Prop38
140
0.0
102
RTVSPost2010PropOp38
 70
     1
102
RTVSPost2010Prop39
140
1.0
102
RTVSPost2010PropOp39
 70
     1
102
RTVSPost2010Prop40
 90
        0
102
RTVSPost2010PropOp40
 70
     1
102
RTVSPost2010Prop41ColorIndex
 90
       18
102
RTVSPost2010Prop41ColorRGB
 90
        0
102
RTVSPost2010PropOp41
 70
     1
102
RTVSPost2010Prop42
 90
       50
102
RTVSPost2010PropOp42
 70
     1
102
RTVSPost2010Prop43
 90
        3
102
RTVSPost2010PropOp43
 70
     1
102
RTVSPost2010Prop44ColorIndex
 90
        5
102
RTVSPost2010Prop44ColorRGB
 90
      255
102
RTVSPost2010PropOp44
 70
     1
102
RTVSPost2010Prop45
280
     0
102
RTVSPost2010PropOp45
 70
     1
102
RTVSPost2010Prop46
 90
       50
102
RTVSPost2010PropOp46
 70
     1
102
RTVSPost2010Prop47
 90
       50
102
RTVSPost2010PropOp47
 70
     1
102
RTVSPost2010Prop48
 90
       50
102
RTVSPost2010PropOp48
 70
     1
102
RTVSPost2010Prop49
280
     0
102
RTVSPost2010PropOp49
 70
     1
102
RTVSPost2010Prop50
 90
       50
102
RTVSPost2010PropOp50
 70
     1
102
RTVSPost2010Prop51ColorIndex
 90
      256
102
RTVSPost2010Prop51ColorRGB
 90
-16777216
102
RTVSPost2010PropOp51
 70
     0
102
RTVSPost2010Prop52
140
1.0
102
RTVSPost2010PropOp52
 70
     0
102
RTVSPost2010Prop53
 90
        2
102
RTVSPost2010PropOp53
 70
     1
102
RTVSPost2010Prop54
  1
strokes_ogs.tif
102
RTVSPost2010PropOp54
 70
     1
102
RTVSPost2010Prop55
280
     0
102
RTVSPost2010PropOp55
 70
     1
102
RTVSPost2010Prop56
140
1.0
102
RTVSPost2010PropOp56
 70
     1
102
RTVSPost2010Prop57
140
1.0
102
RTVSPost2010PropOp57
 70
     1
102
RTVSPropertyOp0
 70
     1
102
RTVSPropertyOp1
 70
     1
102
RTVSPropertyOp2
 70
     1
102
RTVSPropertyOp3
 70
     1
102
RTVSPropertyOp4
 70
     1
102
RTVSPropertyOp5
 70
     1
102
RTVSPropertyOp6
 70
     1
102
RTVSPropertyOp7
 70
     1
102
RTVSPropertyOp8
 70
     1
102
RTVSPropertyOp9
 70
     1
102
RTVSPropertyOp10
 70
     1
102
RTVSPropertyOp11
 70
     1
102
RTVSPropertyOp12
 70
     1
102
RTVSPropertyOp13
 70
     1
102
RTVSPropertyOp14
 70
     1
102
RTVSPropertyOp15
 70
     1
102
RTVSPropertyOp16
 70
     1
102
RTVSPropertyOp17
 70
     1
102
RTVSPropertyOp18
 70
     1
102
RTVSPropertyOp19
 70
     1
102
RTVSPropertyOp20
 70
     1
102
RTVSPropertyOp21
 70
     1
102
RTVSPropertyOp22
 70
     1
102
RTVSPropertyOp23
 70
     1
102
RTVSPropertyOp24
 70
     1
102
RTVSPropertyOp25
 70
     1
102
RTVSPropertyOp26
 70
     1
102
RTVSPropertyOp27
 70
     1
102
RTVSPropertyOp28
 70
     1
102
RTVSPropertyOp29
 70
     1
102
RTVSPropertyOp30
 70
     1
102
RTVSPropertyOp31
 70
     1
102
RTVSPropertyOp32
 70
     1
102
RTVSPropertyOp33
 70
     1
102
RTVSPropertyOp34
 70
     1
102
RTVSPropertyOp35
 70
     1
102
RTVSPropertyOp36
 70
     1
102
RTVSPropertyOp37
 70
     1
102
RTVSPropertyOp38
 70
     1
102
RTVSPropertyOp39
 70
     1
102
RTVSPropertyOp40
 70
     1
102
RTVSPropertyOp41
 70
     1
102
RTVSPropertyOp42
 70
     1
102
RTVSPropertyOp43
 70
     1
102
RTVSPropertyOp44
 70
     1
102
RTVSPropertyOp45
 70
     1
102
RTVSPropertyOp46
 70
     1
102
RTVSPropertyOp47
 70
     1
102
RTVSPropertyOp48
 70
     1
102
RTVSPropertyOp49
 70
     1
102
RTVSPropertyOp50
 70
     1
102
RTVSPropertyOp51
 70
     0
102
RTVSPropertyOp52
 70
     0
102
RTVSPropertyOp53
 70
     1
102
RTVSPropertyOp54
 70
     1
102
RTVSPropertyOp55
 70
     1
102
RTVSPropertyOp56
 70
     1
102
RTVSPropertyOp57
 70
     1
102
RTVSPropertyOp58
 70
     1
102
RTVSPropertyOp59
 70
     1
102
RTVSPropertyOp60
 70
     1
102
RTVSPropertyOp61
 70
     1
102
RTVSPropertyOp62
 70
     1
  0
XRECORD
  5
B526
102
{ACAD_REACTORS
330
B525
102
}
330
B525
100
AcDbXrecord
280
     1
102
RTVSPost2010Prop28
280
     0
102
RTVSPost2010PropOp28
 70
     1
102
RTVSPost2010Prop29
280
     1
102
RTVSPost2010PropOp29
 70
     1
102
RTVSPost2010Prop30
280
     1
102
RTVSPost2010PropOp30
 70
     1
102
RTVSPost2010Prop31
280
     0
102
RTVSPost2010PropOp31
 70
     1
102
RTVSPost2010Prop32
280
     0
102
RTVSPost2010PropOp32
 70
     1
102
RTVSPost2010Prop33
280
     0
102
RTVSPost2010PropOp33
 70
     1
102
RTVSPost2010Prop34
280
     0
102
RTVSPost2010PropOp34
 70
     1
102
RTVSPost2010Prop35
280
     0
102
RTVSPost2010PropOp35
 70
     1
102
RTVSPost2010Prop36
280
     0
102
RTVSPost2010PropOp36
 70
     1
102
RTVSPost2010Prop37
 90
       50
102
RTVSPost2010PropOp37
 70
     1
102
RTVSPost2010Prop38
140
0.0
102
RTVSPost2010PropOp38
 70
     1
102
RTVSPost2010Prop39
140
1.0
102
RTVSPost2010PropOp39
 70
     1
102
RTVSPost2010Prop40
 90
        0
102
RTVSPost2010PropOp40
 70
     1
102
RTVSPost2010Prop41ColorIndex
 90
       18
102
RTVSPost2010Prop41ColorRGB
 90
        0
102
RTVSPost2010PropOp41
 70
     1
102
RTVSPost2010Prop42
 90
       50
102
RTVSPost2010PropOp42
 70
     1
102
RTVSPost2010Prop43
 90
        3
102
RTVSPost2010PropOp43
 70
     1
102
RTVSPost2010Prop44ColorIndex
 90
        5
102
RTVSPost2010Prop44ColorRGB
 90
      255
102
RTVSPost2010PropOp44
 70
     1
102
RTVSPost2010Prop45
280
     0
102
RTVSPost2010PropOp45
 70
     1
102
RTVSPost2010Prop46
 90
       50
102
RTVSPost2010PropOp46
 70
     1
102
RTVSPost2010Prop47
 90
       50
102
RTVSPost2010PropOp47
 70
     1
102
RTVSPost2010Prop48
 90
       50
102
RTVSPost2010PropOp48
 70
     1
102
RTVSPost2010Prop49
280
     0
102
RTVSPost2010PropOp49
 70
     1
102
RTVSPost2010Prop50
 90
       50
102
RTVSPost2010PropOp50
 70
     1
102
RTVSPost2010Prop51ColorIndex
 90
      256
102
RTVSPost2010Prop51ColorRGB
 90
-16777216
102
RTVSPost2010PropOp51
 70
     0
102
RTVSPost2010Prop52
140
1.0
102
RTVSPost2010PropOp52
 70
     0
102
RTVSPost2010Prop53
 90
        2
102
RTVSPost2010PropOp53
 70
     1
102
RTVSPost2010Prop54
  1
strokes_ogs.tif
102
RTVSPost2010PropOp54
 70
     1
102
RTVSPost2010Prop55
280
     0
102
RTVSPost2010PropOp55
 70
     1
102
RTVSPost2010Prop56
140
1.0
102
RTVSPost2010PropOp56
 70
     1
102
RTVSPost2010Prop57
140
1.0
102
RTVSPost2010PropOp57
 70
     1
102
RTVSPropertyOp0
 70
     1
102
RTVSPropertyOp1
 70
     1
102
RTVSPropertyOp2
 70
     1
102
RTVSPropertyOp3
 70
     1
102
RTVSPropertyOp4
 70
     1
102
RTVSPropertyOp5
 70
     1
102
RTVSPropertyOp6
 70
     1
102
RTVSPropertyOp7
 70
     1
102
RTVSPropertyOp8
 70
     1
102
RTVSPropertyOp9
 70
     1
102
RTVSPropertyOp10
 70
     1
102
RTVSPropertyOp11
 70
     1
102
RTVSPropertyOp12
 70
     1
102
RTVSPropertyOp13
 70
     1
102
RTVSPropertyOp14
 70
     1
102
RTVSPropertyOp15
 70
     1
102
RTVSPropertyOp16
 70
     1
102
RTVSPropertyOp17
 70
     1
102
RTVSPropertyOp18
 70
     1
102
RTVSPropertyOp19
 70
     1
102
RTVSPropertyOp20
 70
     1
102
RTVSPropertyOp21
 70
     1
102
RTVSPropertyOp22
 70
     1
102
RTVSPropertyOp23
 70
     1
102
RTVSPropertyOp24
 70
     1
102
RTVSPropertyOp25
 70
     1
102
RTVSPropertyOp26
 70
     1
102
RTVSPropertyOp27
 70
     1
102
RTVSPropertyOp28
 70
     1
102
RTVSPropertyOp29
 70
     1
102
RTVSPropertyOp30
 70
     1
102
RTVSPropertyOp31
 70
     1
102
RTVSPropertyOp32
 70
     1
102
RTVSPropertyOp33
 70
     1
102
RTVSPropertyOp34
 70
     1
102
RTVSPropertyOp35
 70
     1
102
RTVSPropertyOp36
 70
     1
102
RTVSPropertyOp37
 70
     1
102
RTVSPropertyOp38
 70
     1
102
RTVSPropertyOp39
 70
     1
102
RTVSPropertyOp40
 70
     1
102
RTVSPropertyOp41
 70
     1
102
RTVSPropertyOp42
 70
     1
102
RTVSPropertyOp43
 70
     1
102
RTVSPropertyOp44
 70
     1
102
RTVSPropertyOp45
 70
     1
102
RTVSPropertyOp46
 70
     1
102
RTVSPropertyOp47
 70
     1
102
RTVSPropertyOp48
 70
     1
102
RTVSPropertyOp49
 70
     1
102
RTVSPropertyOp50
 70
     1
102
RTVSPropertyOp51
 70
     0
102
RTVSPropertyOp52
 70
     0
102
RTVSPropertyOp53
 70
     1
102
RTVSPropertyOp54
 70
     1
102
RTVSPropertyOp55
 70
     1
102
RTVSPropertyOp56
 70
     1
102
RTVSPropertyOp57
 70
     1
102
RTVSPropertyOp58
 70
     1
102
RTVSPropertyOp59
 70
     1
102
RTVSPropertyOp60
 70
     1
102
RTVSPropertyOp61
 70
     1
102
RTVSPropertyOp62
 70
     1
  0
XRECORD
  5
B534
102
{ACAD_REACTORS
330
B533
102
}
330
B533
100
AcDbXrecord
280
     1
102
RTVSPost2010Prop28
280
     0
102
RTVSPost2010PropOp28
 70
     1
102
RTVSPost2010Prop29
280
     1
102
RTVSPost2010PropOp29
 70
     1
102
RTVSPost2010Prop30
280
     1
102
RTVSPost2010PropOp30
 70
     1
102
RTVSPost2010Prop31
280
     0
102
RTVSPost2010PropOp31
 70
     1
102
RTVSPost2010Prop32
280
     0
102
RTVSPost2010PropOp32
 70
     1
102
RTVSPost2010Prop33
280
     0
102
RTVSPost2010PropOp33
 70
     1
102
RTVSPost2010Prop34
280
     0
102
RTVSPost2010PropOp34
 70
     1
102
RTVSPost2010Prop35
280
     0
102
RTVSPost2010PropOp35
 70
     1
102
RTVSPost2010Prop36
280
     0
102
RTVSPost2010PropOp36
 70
     1
102
RTVSPost2010Prop37
 90
       50
102
RTVSPost2010PropOp37
 70
     1
102
RTVSPost2010Prop38
140
0.0
102
RTVSPost2010PropOp38
 70
     1
102
RTVSPost2010Prop39
140
1.0
102
RTVSPost2010PropOp39
 70
     1
102
RTVSPost2010Prop40
 90
        0
102
RTVSPost2010PropOp40
 70
     1
102
RTVSPost2010Prop41ColorIndex
 90
       18
102
RTVSPost2010Prop41ColorRGB
 90
        0
102
RTVSPost2010PropOp41
 70
     1
102
RTVSPost2010Prop42
 90
       50
102
RTVSPost2010PropOp42
 70
     1
102
RTVSPost2010Prop43
 90
        3
102
RTVSPost2010PropOp43
 70
     1
102
RTVSPost2010Prop44ColorIndex
 90
        5
102
RTVSPost2010Prop44ColorRGB
 90
      255
102
RTVSPost2010PropOp44
 70
     1
102
RTVSPost2010Prop45
280
     0
102
RTVSPost2010PropOp45
 70
     1
102
RTVSPost2010Prop46
 90
       50
102
RTVSPost2010PropOp46
 70
     1
102
RTVSPost2010Prop47
 90
       50
102
RTVSPost2010PropOp47
 70
     1
102
RTVSPost2010Prop48
 90
       50
102
RTVSPost2010PropOp48
 70
     1
102
RTVSPost2010Prop49
280
     0
102
RTVSPost2010PropOp49
 70
     1
102
RTVSPost2010Prop50
 90
       50
102
RTVSPost2010PropOp50
 70
     1
102
RTVSPost2010Prop51ColorIndex
 90
      256
102
RTVSPost2010Prop51ColorRGB
 90
-16777216
102
RTVSPost2010PropOp51
 70
     0
102
RTVSPost2010Prop52
140
1.0
102
RTVSPost2010PropOp52
 70
     0
102
RTVSPost2010Prop53
 90
        2
102
RTVSPost2010PropOp53
 70
     1
102
RTVSPost2010Prop54
  1
strokes_ogs.tif
102
RTVSPost2010PropOp54
 70
     1
102
RTVSPost2010Prop55
280
     0
102
RTVSPost2010PropOp55
 70
     1
102
RTVSPost2010Prop56
140
1.0
102
RTVSPost2010PropOp56
 70
     1
102
RTVSPost2010Prop57
140
1.0
102
RTVSPost2010PropOp57
 70
     1
102
RTVSPropertyOp0
 70
     1
102
RTVSPropertyOp1
 70
     1
102
RTVSPropertyOp2
 70
     1
102
RTVSPropertyOp3
 70
     1
102
RTVSPropertyOp4
 70
     1
102
RTVSPropertyOp5
 70
     1
102
RTVSPropertyOp6
 70
     1
102
RTVSPropertyOp7
 70
     1
102
RTVSPropertyOp8
 70
     1
102
RTVSPropertyOp9
 70
     1
102
RTVSPropertyOp10
 70
     1
102
RTVSPropertyOp11
 70
     1
102
RTVSPropertyOp12
 70
     1
102
RTVSPropertyOp13
 70
     1
102
RTVSPropertyOp14
 70
     1
102
RTVSPropertyOp15
 70
     1
102
RTVSPropertyOp16
 70
     1
102
RTVSPropertyOp17
 70
     1
102
RTVSPropertyOp18
 70
     1
102
RTVSPropertyOp19
 70
     1
102
RTVSPropertyOp20
 70
     1
102
RTVSPropertyOp21
 70
     1
102
RTVSPropertyOp22
 70
     1
102
RTVSPropertyOp23
 70
     1
102
RTVSPropertyOp24
 70
     1
102
RTVSPropertyOp25
 70
     1
102
RTVSPropertyOp26
 70
     1
102
RTVSPropertyOp27
 70
     1
102
RTVSPropertyOp28
 70
     1
102
RTVSPropertyOp29
 70
     1
102
RTVSPropertyOp30
 70
     1
102
RTVSPropertyOp31
 70
     1
102
RTVSPropertyOp32
 70
     1
102
RTVSPropertyOp33
 70
     1
102
RTVSPropertyOp34
 70
     1
102
RTVSPropertyOp35
 70
     1
102
RTVSPropertyOp36
 70
     1
102
RTVSPropertyOp37
 70
     1
102
RTVSPropertyOp38
 70
     1
102
RTVSPropertyOp39
 70
     1
102
RTVSPropertyOp40
 70
     1
102
RTVSPropertyOp41
 70
     1
102
RTVSPropertyOp42
 70
     1
102
RTVSPropertyOp43
 70
     1
102
RTVSPropertyOp44
 70
     1
102
RTVSPropertyOp45
 70
     1
102
RTVSPropertyOp46
 70
     1
102
RTVSPropertyOp47
 70
     1
102
RTVSPropertyOp48
 70
     1
102
RTVSPropertyOp49
 70
     1
102
RTVSPropertyOp50
 70
     1
102
RTVSPropertyOp51
 70
     0
102
RTVSPropertyOp52
 70
     0
102
RTVSPropertyOp53
 70
     1
102
RTVSPropertyOp54
 70
     1
102
RTVSPropertyOp55
 70
     1
102
RTVSPropertyOp56
 70
     1
102
RTVSPropertyOp57
 70
     1
102
RTVSPropertyOp58
 70
     1
102
RTVSPropertyOp59
 70
     1
102
RTVSPropertyOp60
 70
     1
102
RTVSPropertyOp61
 70
     1
102
RTVSPropertyOp62
 70
     1
  0
XRECORD
  5
B53C
102
{ACAD_REACTORS
330
B53B
102
}
330
B53B
100
AcDbXrecord
280
     1
102
RTVSPost2010Prop28
280
     0
102
RTVSPost2010PropOp28
 70
     1
102
RTVSPost2010Prop29
280
     1
102
RTVSPost2010PropOp29
 70
     1
102
RTVSPost2010Prop30
280
     1
102
RTVSPost2010PropOp30
 70
     1
102
RTVSPost2010Prop31
280
     0
102
RTVSPost2010PropOp31
 70
     1
102
RTVSPost2010Prop32
280
     0
102
RTVSPost2010PropOp32
 70
     1
102
RTVSPost2010Prop33
280
     0
102
RTVSPost2010PropOp33
 70
     1
102
RTVSPost2010Prop34
280
     0
102
RTVSPost2010PropOp34
 70
     1
102
RTVSPost2010Prop35
280
     0
102
RTVSPost2010PropOp35
 70
     1
102
RTVSPost2010Prop36
280
     0
102
RTVSPost2010PropOp36
 70
     1
102
RTVSPost2010Prop37
 90
       50
102
RTVSPost2010PropOp37
 70
     1
102
RTVSPost2010Prop38
140
0.0
102
RTVSPost2010PropOp38
 70
     1
102
RTVSPost2010Prop39
140
1.0
102
RTVSPost2010PropOp39
 70
     1
102
RTVSPost2010Prop40
 90
        0
102
RTVSPost2010PropOp40
 70
     1
102
RTVSPost2010Prop41ColorIndex
 90
       18
102
RTVSPost2010Prop41ColorRGB
 90
        0
102
RTVSPost2010PropOp41
 70
     1
102
RTVSPost2010Prop42
 90
       50
102
RTVSPost2010PropOp42
 70
     1
102
RTVSPost2010Prop43
 90
        3
102
RTVSPost2010PropOp43
 70
     1
102
RTVSPost2010Prop44ColorIndex
 90
        5
102
RTVSPost2010Prop44ColorRGB
 90
      255
102
RTVSPost2010PropOp44
 70
     1
102
RTVSPost2010Prop45
280
     0
102
RTVSPost2010PropOp45
 70
     1
102
RTVSPost2010Prop46
 90
       50
102
RTVSPost2010PropOp46
 70
     1
102
RTVSPost2010Prop47
 90
       50
102
RTVSPost2010PropOp47
 70
     1
102
RTVSPost2010Prop48
 90
       50
102
RTVSPost2010PropOp48
 70
     1
102
RTVSPost2010Prop49
280
     0
102
RTVSPost2010PropOp49
 70
     1
102
RTVSPost2010Prop50
 90
       50
102
RTVSPost2010PropOp50
 70
     1
102
RTVSPost2010Prop51ColorIndex
 90
      256
102
RTVSPost2010Prop51ColorRGB
 90
-16777216
102
RTVSPost2010PropOp51
 70
     0
102
RTVSPost2010Prop52
140
1.0
102
RTVSPost2010PropOp52
 70
     0
102
RTVSPost2010Prop53
 90
        2
102
RTVSPost2010PropOp53
 70
     1
102
RTVSPost2010Prop54
  1
strokes_ogs.tif
102
RTVSPost2010PropOp54
 70
     1
102
RTVSPost2010Prop55
280
     0
102
RTVSPost2010PropOp55
 70
     1
102
RTVSPost2010Prop56
140
1.0
102
RTVSPost2010PropOp56
 70
     1
102
RTVSPost2010Prop57
140
1.0
102
RTVSPost2010PropOp57
 70
     1
102
RTVSPropertyOp0
 70
     1
102
RTVSPropertyOp1
 70
     1
102
RTVSPropertyOp2
 70
     1
102
RTVSPropertyOp3
 70
     1
102
RTVSPropertyOp4
 70
     1
102
RTVSPropertyOp5
 70
     1
102
RTVSPropertyOp6
 70
     1
102
RTVSPropertyOp7
 70
     1
102
RTVSPropertyOp8
 70
     1
102
RTVSPropertyOp9
 70
     1
102
RTVSPropertyOp10
 70
     1
102
RTVSPropertyOp11
 70
     1
102
RTVSPropertyOp12
 70
     1
102
RTVSPropertyOp13
 70
     1
102
RTVSPropertyOp14
 70
     1
102
RTVSPropertyOp15
 70
     1
102
RTVSPropertyOp16
 70
     1
102
RTVSPropertyOp17
 70
     1
102
RTVSPropertyOp18
 70
     1
102
RTVSPropertyOp19
 70
     1
102
RTVSPropertyOp20
 70
     1
102
RTVSPropertyOp21
 70
     1
102
RTVSPropertyOp22
 70
     1
102
RTVSPropertyOp23
 70
     1
102
RTVSPropertyOp24
 70
     1
102
RTVSPropertyOp25
 70
     1
102
RTVSPropertyOp26
 70
     1
102
RTVSPropertyOp27
 70
     1
102
RTVSPropertyOp28
 70
     1
102
RTVSPropertyOp29
 70
     1
102
RTVSPropertyOp30
 70
     1
102
RTVSPropertyOp31
 70
     1
102
RTVSPropertyOp32
 70
     1
102
RTVSPropertyOp33
 70
     1
102
RTVSPropertyOp34
 70
     1
102
RTVSPropertyOp35
 70
     1
102
RTVSPropertyOp36
 70
     1
102
RTVSPropertyOp37
 70
     1
102
RTVSPropertyOp38
 70
     1
102
RTVSPropertyOp39
 70
     1
102
RTVSPropertyOp40
 70
     1
102
RTVSPropertyOp41
 70
     1
102
RTVSPropertyOp42
 70
     1
102
RTVSPropertyOp43
 70
     1
102
RTVSPropertyOp44
 70
     1
102
RTVSPropertyOp45
 70
     1
102
RTVSPropertyOp46
 70
     1
102
RTVSPropertyOp47
 70
     1
102
RTVSPropertyOp48
 70
     1
102
RTVSPropertyOp49
 70
     1
102
RTVSPropertyOp50
 70
     1
102
RTVSPropertyOp51
 70
     0
102
RTVSPropertyOp52
 70
     0
102
RTVSPropertyOp53
 70
     1
102
RTVSPropertyOp54
 70
     1
102
RTVSPropertyOp55
 70
     1
102
RTVSPropertyOp56
 70
     1
102
RTVSPropertyOp57
 70
     1
102
RTVSPropertyOp58
 70
     1
102
RTVSPropertyOp59
 70
     1
102
RTVSPropertyOp60
 70
     1
102
RTVSPropertyOp61
 70
     1
102
RTVSPropertyOp62
 70
     1
  0
XRECORD
  5
B52E
102
{ACAD_REACTORS
330
B52D
102
}
330
B52D
100
AcDbXrecord
280
     1
102
RTVSPost2010Prop28
280
     0
102
RTVSPost2010PropOp28
 70
     1
102
RTVSPost2010Prop29
280
     1
102
RTVSPost2010PropOp29
 70
     1
102
RTVSPost2010Prop30
280
     1
102
RTVSPost2010PropOp30
 70
     1
102
RTVSPost2010Prop31
280
     0
102
RTVSPost2010PropOp31
 70
     1
102
RTVSPost2010Prop32
280
     0
102
RTVSPost2010PropOp32
 70
     1
102
RTVSPost2010Prop33
280
     0
102
RTVSPost2010PropOp33
 70
     1
102
RTVSPost2010Prop34
280
     0
102
RTVSPost2010PropOp34
 70
     1
102
RTVSPost2010Prop35
280
     0
102
RTVSPost2010PropOp35
 70
     1
102
RTVSPost2010Prop36
280
     0
102
RTVSPost2010PropOp36
 70
     1
102
RTVSPost2010Prop37
 90
       50
102
RTVSPost2010PropOp37
 70
     1
102
RTVSPost2010Prop38
140
0.0
102
RTVSPost2010PropOp38
 70
     1
102
RTVSPost2010Prop39
140
1.0
102
RTVSPost2010PropOp39
 70
     1
102
RTVSPost2010Prop40
 90
        0
102
RTVSPost2010PropOp40
 70
     1
102
RTVSPost2010Prop41ColorIndex
 90
       18
102
RTVSPost2010Prop41ColorRGB
 90
        0
102
RTVSPost2010PropOp41
 70
     1
102
RTVSPost2010Prop42
 90
       50
102
RTVSPost2010PropOp42
 70
     1
102
RTVSPost2010Prop43
 90
        3
102
RTVSPost2010PropOp43
 70
     1
102
RTVSPost2010Prop44ColorIndex
 90
        5
102
RTVSPost2010Prop44ColorRGB
 90
      255
102
RTVSPost2010PropOp44
 70
     1
102
RTVSPost2010Prop45
280
     0
102
RTVSPost2010PropOp45
 70
     1
102
RTVSPost2010Prop46
 90
       50
102
RTVSPost2010PropOp46
 70
     1
102
RTVSPost2010Prop47
 90
       50
102
RTVSPost2010PropOp47
 70
     1
102
RTVSPost2010Prop48
 90
       50
102
RTVSPost2010PropOp48
 70
     1
102
RTVSPost2010Prop49
280
     0
102
RTVSPost2010PropOp49
 70
     1
102
RTVSPost2010Prop50
 90
       50
102
RTVSPost2010PropOp50
 70
     1
102
RTVSPost2010Prop51ColorIndex
 90
      256
102
RTVSPost2010Prop51ColorRGB
 90
-16777216
102
RTVSPost2010PropOp51
 70
     0
102
RTVSPost2010Prop52
140
1.0
102
RTVSPost2010PropOp52
 70
     0
102
RTVSPost2010Prop53
 90
        2
102
RTVSPost2010PropOp53
 70
     1
102
RTVSPost2010Prop54
  1
strokes_ogs.tif
102
RTVSPost2010PropOp54
 70
     1
102
RTVSPost2010Prop55
280
     0
102
RTVSPost2010PropOp55
 70
     1
102
RTVSPost2010Prop56
140
1.0
102
RTVSPost2010PropOp56
 70
     1
102
RTVSPost2010Prop57
140
1.0
102
RTVSPost2010PropOp57
 70
     1
102
RTVSPropertyOp0
 70
     1
102
RTVSPropertyOp1
 70
     1
102
RTVSPropertyOp2
 70
     1
102
RTVSPropertyOp3
 70
     1
102
RTVSPropertyOp4
 70
     1
102
RTVSPropertyOp5
 70
     1
102
RTVSPropertyOp6
 70
     1
102
RTVSPropertyOp7
 70
     1
102
RTVSPropertyOp8
 70
     1
102
RTVSPropertyOp9
 70
     1
102
RTVSPropertyOp10
 70
     1
102
RTVSPropertyOp11
 70
     1
102
RTVSPropertyOp12
 70
     1
102
RTVSPropertyOp13
 70
     1
102
RTVSPropertyOp14
 70
     1
102
RTVSPropertyOp15
 70
     1
102
RTVSPropertyOp16
 70
     1
102
RTVSPropertyOp17
 70
     1
102
RTVSPropertyOp18
 70
     1
102
RTVSPropertyOp19
 70
     1
102
RTVSPropertyOp20
 70
     1
102
RTVSPropertyOp21
 70
     1
102
RTVSPropertyOp22
 70
     1
102
RTVSPropertyOp23
 70
     1
102
RTVSPropertyOp24
 70
     1
102
RTVSPropertyOp25
 70
     1
102
RTVSPropertyOp26
 70
     1
102
RTVSPropertyOp27
 70
     1
102
RTVSPropertyOp28
 70
     1
102
RTVSPropertyOp29
 70
     1
102
RTVSPropertyOp30
 70
     1
102
RTVSPropertyOp31
 70
     1
102
RTVSPropertyOp32
 70
     1
102
RTVSPropertyOp33
 70
     1
102
RTVSPropertyOp34
 70
     1
102
RTVSPropertyOp35
 70
     1
102
RTVSPropertyOp36
 70
     1
102
RTVSPropertyOp37
 70
     1
102
RTVSPropertyOp38
 70
     1
102
RTVSPropertyOp39
 70
     1
102
RTVSPropertyOp40
 70
     1
102
RTVSPropertyOp41
 70
     1
102
RTVSPropertyOp42
 70
     1
102
RTVSPropertyOp43
 70
     1
102
RTVSPropertyOp44
 70
     1
102
RTVSPropertyOp45
 70
     1
102
RTVSPropertyOp46
 70
     1
102
RTVSPropertyOp47
 70
     1
102
RTVSPropertyOp48
 70
     1
102
RTVSPropertyOp49
 70
     1
102
RTVSPropertyOp50
 70
     1
102
RTVSPropertyOp51
 70
     0
102
RTVSPropertyOp52
 70
     0
102
RTVSPropertyOp53
 70
     1
102
RTVSPropertyOp54
 70
     1
102
RTVSPropertyOp55
 70
     1
102
RTVSPropertyOp56
 70
     1
102
RTVSPropertyOp57
 70
     1
102
RTVSPropertyOp58
 70
     1
102
RTVSPropertyOp59
 70
     1
102
RTVSPropertyOp60
 70
     1
102
RTVSPropertyOp61
 70
     1
102
RTVSPropertyOp62
 70
     1
  0
XRECORD
  5
B532
102
{ACAD_REACTORS
330
B531
102
}
330
B531
100
AcDbXrecord
280
     1
102
RTVSPost2010Prop28
280
     0
102
RTVSPost2010PropOp28
 70
     1
102
RTVSPost2010Prop29
280
     1
102
RTVSPost2010PropOp29
 70
     1
102
RTVSPost2010Prop30
280
     1
102
RTVSPost2010PropOp30
 70
     1
102
RTVSPost2010Prop31
280
     0
102
RTVSPost2010PropOp31
 70
     1
102
RTVSPost2010Prop32
280
     0
102
RTVSPost2010PropOp32
 70
     1
102
RTVSPost2010Prop33
280
     0
102
RTVSPost2010PropOp33
 70
     1
102
RTVSPost2010Prop34
280
     0
102
RTVSPost2010PropOp34
 70
     1
102
RTVSPost2010Prop35
280
     0
102
RTVSPost2010PropOp35
 70
     1
102
RTVSPost2010Prop36
280
     0
102
RTVSPost2010PropOp36
 70
     1
102
RTVSPost2010Prop37
 90
       50
102
RTVSPost2010PropOp37
 70
     1
102
RTVSPost2010Prop38
140
0.0
102
RTVSPost2010PropOp38
 70
     1
102
RTVSPost2010Prop39
140
1.0
102
RTVSPost2010PropOp39
 70
     1
102
RTVSPost2010Prop40
 90
        0
102
RTVSPost2010PropOp40
 70
     1
102
RTVSPost2010Prop41ColorIndex
 90
       18
102
RTVSPost2010Prop41ColorRGB
 90
        0
102
RTVSPost2010PropOp41
 70
     1
102
RTVSPost2010Prop42
 90
       50
102
RTVSPost2010PropOp42
 70
     1
102
RTVSPost2010Prop43
 90
        3
102
RTVSPost2010PropOp43
 70
     1
102
RTVSPost2010Prop44ColorIndex
 90
        5
102
RTVSPost2010Prop44ColorRGB
 90
      255
102
RTVSPost2010PropOp44
 70
     1
102
RTVSPost2010Prop45
280
     0
102
RTVSPost2010PropOp45
 70
     1
102
RTVSPost2010Prop46
 90
       50
102
RTVSPost2010PropOp46
 70
     1
102
RTVSPost2010Prop47
 90
       50
102
RTVSPost2010PropOp47
 70
     1
102
RTVSPost2010Prop48
 90
       50
102
RTVSPost2010PropOp48
 70
     1
102
RTVSPost2010Prop49
280
     0
102
RTVSPost2010PropOp49
 70
     1
102
RTVSPost2010Prop50
 90
       50
102
RTVSPost2010PropOp50
 70
     1
102
RTVSPost2010Prop51ColorIndex
 90
      256
102
RTVSPost2010Prop51ColorRGB
 90
-16777216
102
RTVSPost2010PropOp51
 70
     0
102
RTVSPost2010Prop52
140
1.0
102
RTVSPost2010PropOp52
 70
     0
102
RTVSPost2010Prop53
 90
        2
102
RTVSPost2010PropOp53
 70
     1
102
RTVSPost2010Prop54
  1
strokes_ogs.tif
102
RTVSPost2010PropOp54
 70
     1
102
RTVSPost2010Prop55
280
     0
102
RTVSPost2010PropOp55
 70
     1
102
RTVSPost2010Prop56
140
1.0
102
RTVSPost2010PropOp56
 70
     1
102
RTVSPost2010Prop57
140
1.0
102
RTVSPost2010PropOp57
 70
     1
102
RTVSPropertyOp0
 70
     1
102
RTVSPropertyOp1
 70
     1
102
RTVSPropertyOp2
 70
     1
102
RTVSPropertyOp3
 70
     1
102
RTVSPropertyOp4
 70
     1
102
RTVSPropertyOp5
 70
     1
102
RTVSPropertyOp6
 70
     1
102
RTVSPropertyOp7
 70
     1
102
RTVSPropertyOp8
 70
     1
102
RTVSPropertyOp9
 70
     1
102
RTVSPropertyOp10
 70
     1
102
RTVSPropertyOp11
 70
     1
102
RTVSPropertyOp12
 70
     1
102
RTVSPropertyOp13
 70
     1
102
RTVSPropertyOp14
 70
     1
102
RTVSPropertyOp15
 70
     1
102
RTVSPropertyOp16
 70
     1
102
RTVSPropertyOp17
 70
     1
102
RTVSPropertyOp18
 70
     1
102
RTVSPropertyOp19
 70
     1
102
RTVSPropertyOp20
 70
     1
102
RTVSPropertyOp21
 70
     1
102
RTVSPropertyOp22
 70
     1
102
RTVSPropertyOp23
 70
     1
102
RTVSPropertyOp24
 70
     1
102
RTVSPropertyOp25
 70
     1
102
RTVSPropertyOp26
 70
     1
102
RTVSPropertyOp27
 70
     1
102
RTVSPropertyOp28
 70
     1
102
RTVSPropertyOp29
 70
     1
102
RTVSPropertyOp30
 70
     1
102
RTVSPropertyOp31
 70
     1
102
RTVSPropertyOp32
 70
     1
102
RTVSPropertyOp33
 70
     1
102
RTVSPropertyOp34
 70
     1
102
RTVSPropertyOp35
 70
     1
102
RTVSPropertyOp36
 70
     1
102
RTVSPropertyOp37
 70
     1
102
RTVSPropertyOp38
 70
     1
102
RTVSPropertyOp39
 70
     1
102
RTVSPropertyOp40
 70
     1
102
RTVSPropertyOp41
 70
     1
102
RTVSPropertyOp42
 70
     1
102
RTVSPropertyOp43
 70
     1
102
RTVSPropertyOp44
 70
     1
102
RTVSPropertyOp45
 70
     1
102
RTVSPropertyOp46
 70
     1
102
RTVSPropertyOp47
 70
     1
102
RTVSPropertyOp48
 70
     1
102
RTVSPropertyOp49
 70
     1
102
RTVSPropertyOp50
 70
     1
102
RTVSPropertyOp51
 70
     0
102
RTVSPropertyOp52
 70
     0
102
RTVSPropertyOp53
 70
     1
102
RTVSPropertyOp54
 70
     1
102
RTVSPropertyOp55
 70
     1
102
RTVSPropertyOp56
 70
     1
102
RTVSPropertyOp57
 70
     1
102
RTVSPropertyOp58
 70
     1
102
RTVSPropertyOp59
 70
     1
102
RTVSPropertyOp60
 70
     1
102
RTVSPropertyOp61
 70
     1
102
RTVSPropertyOp62
 70
     1
  0
XRECORD
  5
B544
102
{ACAD_REACTORS
330
B543
102
}
330
B543
100
AcDbXrecord
280
     1
102
RTVSPost2010Prop28
280
     0
102
RTVSPost2010PropOp28
 70
     1
102
RTVSPost2010Prop29
280
     1
102
RTVSPost2010PropOp29
 70
     1
102
RTVSPost2010Prop30
280
     1
102
RTVSPost2010PropOp30
 70
     1
102
RTVSPost2010Prop31
280
     0
102
RTVSPost2010PropOp31
 70
     1
102
RTVSPost2010Prop32
280
     0
102
RTVSPost2010PropOp32
 70
     1
102
RTVSPost2010Prop33
280
     0
102
RTVSPost2010PropOp33
 70
     1
102
RTVSPost2010Prop34
280
     0
102
RTVSPost2010PropOp34
 70
     1
102
RTVSPost2010Prop35
280
     0
102
RTVSPost2010PropOp35
 70
     1
102
RTVSPost2010Prop36
280
     0
102
RTVSPost2010PropOp36
 70
     1
102
RTVSPost2010Prop37
 90
       50
102
RTVSPost2010PropOp37
 70
     1
102
RTVSPost2010Prop38
140
0.0
102
RTVSPost2010PropOp38
 70
     1
102
RTVSPost2010Prop39
140
1.0
102
RTVSPost2010PropOp39
 70
     1
102
RTVSPost2010Prop40
 90
        0
102
RTVSPost2010PropOp40
 70
     1
102
RTVSPost2010Prop41ColorIndex
 90
       18
102
RTVSPost2010Prop41ColorRGB
 90
        0
102
RTVSPost2010PropOp41
 70
     1
102
RTVSPost2010Prop42
 90
       50
102
RTVSPost2010PropOp42
 70
     1
102
RTVSPost2010Prop43
 90
        3
102
RTVSPost2010PropOp43
 70
     1
102
RTVSPost2010Prop44ColorIndex
 90
        5
102
RTVSPost2010Prop44ColorRGB
 90
      255
102
RTVSPost2010PropOp44
 70
     1
102
RTVSPost2010Prop45
280
     0
102
RTVSPost2010PropOp45
 70
     1
102
RTVSPost2010Prop46
 90
       50
102
RTVSPost2010PropOp46
 70
     1
102
RTVSPost2010Prop47
 90
       50
102
RTVSPost2010PropOp47
 70
     1
102
RTVSPost2010Prop48
 90
       50
102
RTVSPost2010PropOp48
 70
     1
102
RTVSPost2010Prop49
280
     0
102
RTVSPost2010PropOp49
 70
     1
102
RTVSPost2010Prop50
 90
       50
102
RTVSPost2010PropOp50
 70
     1
102
RTVSPost2010Prop51ColorIndex
 90
      256
102
RTVSPost2010Prop51ColorRGB
 90
-16777216
102
RTVSPost2010PropOp51
 70
     0
102
RTVSPost2010Prop52
140
1.0
102
RTVSPost2010PropOp52
 70
     0
102
RTVSPost2010Prop53
 90
        2
102
RTVSPost2010PropOp53
 70
     1
102
RTVSPost2010Prop54
  1
strokes_ogs.tif
102
RTVSPost2010PropOp54
 70
     1
102
RTVSPost2010Prop55
280
     0
102
RTVSPost2010PropOp55
 70
     1
102
RTVSPost2010Prop56
140
1.0
102
RTVSPost2010PropOp56
 70
     1
102
RTVSPost2010Prop57
140
1.0
102
RTVSPost2010PropOp57
 70
     1
102
RTVSPropertyOp0
 70
     0
102
RTVSPropertyOp1
 70
     0
102
RTVSPropertyOp2
 70
     0
102
RTVSPropertyOp3
 70
     0
102
RTVSPropertyOp4
 70
     0
102
RTVSPropertyOp5
 70
     0
102
RTVSPropertyOp6
 70
     0
102
RTVSPropertyOp7
 70
     0
102
RTVSPropertyOp8
 70
     0
102
RTVSPropertyOp9
 70
     0
102
RTVSPropertyOp10
 70
     0
102
RTVSPropertyOp11
 70
     0
102
RTVSPropertyOp12
 70
     0
102
RTVSPropertyOp13
 70
     0
102
RTVSPropertyOp14
 70
     2
102
RTVSPropertyOp15
 70
     0
102
RTVSPropertyOp16
 70
     0
102
RTVSPropertyOp17
 70
     0
102
RTVSPropertyOp18
 70
     0
102
RTVSPropertyOp19
 70
     0
102
RTVSPropertyOp20
 70
     0
102
RTVSPropertyOp21
 70
     0
102
RTVSPropertyOp22
 70
     0
102
RTVSPropertyOp23
 70
     0
102
RTVSPropertyOp24
 70
     0
102
RTVSPropertyOp25
 70
     0
102
RTVSPropertyOp26
 70
     0
102
RTVSPropertyOp27
 70
     0
102
RTVSPropertyOp28
 70
     1
102
RTVSPropertyOp29
 70
     1
102
RTVSPropertyOp30
 70
     1
102
RTVSPropertyOp31
 70
     1
102
RTVSPropertyOp32
 70
     1
102
RTVSPropertyOp33
 70
     1
102
RTVSPropertyOp34
 70
     1
102
RTVSPropertyOp35
 70
     1
102
RTVSPropertyOp36
 70
     1
102
RTVSPropertyOp37
 70
     1
102
RTVSPropertyOp38
 70
     1
102
RTVSPropertyOp39
 70
     1
102
RTVSPropertyOp40
 70
     1
102
RTVSPropertyOp41
 70
     1
102
RTVSPropertyOp42
 70
     1
102
RTVSPropertyOp43
 70
     1
102
RTVSPropertyOp44
 70
     1
102
RTVSPropertyOp45
 70
     1
102
RTVSPropertyOp46
 70
     1
102
RTVSPropertyOp47
 70
     1
102
RTVSPropertyOp48
 70
     1
102
RTVSPropertyOp49
 70
     1
102
RTVSPropertyOp50
 70
     1
102
RTVSPropertyOp51
 70
     0
102
RTVSPropertyOp52
 70
     0
102
RTVSPropertyOp53
 70
     1
102
RTVSPropertyOp54
 70
     1
102
RTVSPropertyOp55
 70
     1
102
RTVSPropertyOp56
 70
     1
102
RTVSPropertyOp57
 70
     1
102
RTVSPropertyOp58
 70
     1
102
RTVSPropertyOp59
 70
     1
102
RTVSPropertyOp60
 70
     1
102
RTVSPropertyOp61
 70
     1
102
RTVSPropertyOp62
 70
     1
  0
XRECORD
  5
B53A
102
{ACAD_REACTORS
330
B539
102
}
330
B539
100
AcDbXrecord
280
     1
102
RTVSPost2010Prop28
280
     0
102
RTVSPost2010PropOp28
 70
     1
102
RTVSPost2010Prop29
280
     1
102
RTVSPost2010PropOp29
 70
     1
102
RTVSPost2010Prop30
280
     1
102
RTVSPost2010PropOp30
 70
     1
102
RTVSPost2010Prop31
280
     0
102
RTVSPost2010PropOp31
 70
     1
102
RTVSPost2010Prop32
280
     0
102
RTVSPost2010PropOp32
 70
     1
102
RTVSPost2010Prop33
280
     0
102
RTVSPost2010PropOp33
 70
     1
102
RTVSPost2010Prop34
280
     0
102
RTVSPost2010PropOp34
 70
     1
102
RTVSPost2010Prop35
280
     0
102
RTVSPost2010PropOp35
 70
     1
102
RTVSPost2010Prop36
280
     0
102
RTVSPost2010PropOp36
 70
     1
102
RTVSPost2010Prop37
 90
       50
102
RTVSPost2010PropOp37
 70
     1
102
RTVSPost2010Prop38
140
0.0
102
RTVSPost2010PropOp38
 70
     1
102
RTVSPost2010Prop39
140
1.0
102
RTVSPost2010PropOp39
 70
     1
102
RTVSPost2010Prop40
 90
        0
102
RTVSPost2010PropOp40
 70
     1
102
RTVSPost2010Prop41ColorIndex
 90
       18
102
RTVSPost2010Prop41ColorRGB
 90
        0
102
RTVSPost2010PropOp41
 70
     1
102
RTVSPost2010Prop42
 90
       50
102
RTVSPost2010PropOp42
 70
     1
102
RTVSPost2010Prop43
 90
        3
102
RTVSPost2010PropOp43
 70
     1
102
RTVSPost2010Prop44ColorIndex
 90
        5
102
RTVSPost2010Prop44ColorRGB
 90
      255
102
RTVSPost2010PropOp44
 70
     1
102
RTVSPost2010Prop45
280
     0
102
RTVSPost2010PropOp45
 70
     1
102
RTVSPost2010Prop46
 90
       50
102
RTVSPost2010PropOp46
 70
     1
102
RTVSPost2010Prop47
 90
       50
102
RTVSPost2010PropOp47
 70
     1
102
RTVSPost2010Prop48
 90
       50
102
RTVSPost2010PropOp48
 70
     1
102
RTVSPost2010Prop49
280
     0
102
RTVSPost2010PropOp49
 70
     1
102
RTVSPost2010Prop50
 90
       50
102
RTVSPost2010PropOp50
 70
     1
102
RTVSPost2010Prop51ColorIndex
 90
      256
102
RTVSPost2010Prop51ColorRGB
 90
-16777216
102
RTVSPost2010PropOp51
 70
     0
102
RTVSPost2010Prop52
140
1.0
102
RTVSPost2010PropOp52
 70
     0
102
RTVSPost2010Prop53
 90
        2
102
RTVSPost2010PropOp53
 70
     1
102
RTVSPost2010Prop54
  1
strokes_ogs.tif
102
RTVSPost2010PropOp54
 70
     1
102
RTVSPost2010Prop55
280
     0
102
RTVSPost2010PropOp55
 70
     1
102
RTVSPost2010Prop56
140
1.0
102
RTVSPost2010PropOp56
 70
     1
102
RTVSPost2010Prop57
140
1.0
102
RTVSPost2010PropOp57
 70
     1
102
RTVSPropertyOp0
 70
     1
102
RTVSPropertyOp1
 70
     1
102
RTVSPropertyOp2
 70
     1
102
RTVSPropertyOp3
 70
     1
102
RTVSPropertyOp4
 70
     1
102
RTVSPropertyOp5
 70
     1
102
RTVSPropertyOp6
 70
     1
102
RTVSPropertyOp7
 70
     1
102
RTVSPropertyOp8
 70
     1
102
RTVSPropertyOp9
 70
     1
102
RTVSPropertyOp10
 70
     1
102
RTVSPropertyOp11
 70
     1
102
RTVSPropertyOp12
 70
     1
102
RTVSPropertyOp13
 70
     1
102
RTVSPropertyOp14
 70
     1
102
RTVSPropertyOp15
 70
     1
102
RTVSPropertyOp16
 70
     1
102
RTVSPropertyOp17
 70
     1
102
RTVSPropertyOp18
 70
     1
102
RTVSPropertyOp19
 70
     1
102
RTVSPropertyOp20
 70
     1
102
RTVSPropertyOp21
 70
     1
102
RTVSPropertyOp22
 70
     1
102
RTVSPropertyOp23
 70
     1
102
RTVSPropertyOp24
 70
     1
102
RTVSPropertyOp25
 70
     1
102
RTVSPropertyOp26
 70
     1
102
RTVSPropertyOp27
 70
     1
102
RTVSPropertyOp28
 70
     1
102
RTVSPropertyOp29
 70
     1
102
RTVSPropertyOp30
 70
     1
102
RTVSPropertyOp31
 70
     1
102
RTVSPropertyOp32
 70
     1
102
RTVSPropertyOp33
 70
     1
102
RTVSPropertyOp34
 70
     1
102
RTVSPropertyOp35
 70
     1
102
RTVSPropertyOp36
 70
     1
102
RTVSPropertyOp37
 70
     1
102
RTVSPropertyOp38
 70
     1
102
RTVSPropertyOp39
 70
     1
102
RTVSPropertyOp40
 70
     1
102
RTVSPropertyOp41
 70
     1
102
RTVSPropertyOp42
 70
     1
102
RTVSPropertyOp43
 70
     1
102
RTVSPropertyOp44
 70
     1
102
RTVSPropertyOp45
 70
     1
102
RTVSPropertyOp46
 70
     1
102
RTVSPropertyOp47
 70
     1
102
RTVSPropertyOp48
 70
     1
102
RTVSPropertyOp49
 70
     1
102
RTVSPropertyOp50
 70
     1
102
RTVSPropertyOp51
 70
     0
102
RTVSPropertyOp52
 70
     0
102
RTVSPropertyOp53
 70
     1
102
RTVSPropertyOp54
 70
     1
102
RTVSPropertyOp55
 70
     1
102
RTVSPropertyOp56
 70
     1
102
RTVSPropertyOp57
 70
     1
102
RTVSPropertyOp58
 70
     1
102
RTVSPropertyOp59
 70
     1
102
RTVSPropertyOp60
 70
     1
102
RTVSPropertyOp61
 70
     1
102
RTVSPropertyOp62
 70
     1
  0
XRECORD
  5
B51E
102
{ACAD_REACTORS
330
B51D
102
}
330
B51D
100
AcDbXrecord
280
     1
102
RTVSPost2010Prop28
280
     0
102
RTVSPost2010PropOp28
 70
     1
102
RTVSPost2010Prop29
280
     1
102
RTVSPost2010PropOp29
 70
     1
102
RTVSPost2010Prop30
280
     1
102
RTVSPost2010PropOp30
 70
     1
102
RTVSPost2010Prop31
280
     0
102
RTVSPost2010PropOp31
 70
     1
102
RTVSPost2010Prop32
280
     0
102
RTVSPost2010PropOp32
 70
     1
102
RTVSPost2010Prop33
280
     0
102
RTVSPost2010PropOp33
 70
     1
102
RTVSPost2010Prop34
280
     0
102
RTVSPost2010PropOp34
 70
     1
102
RTVSPost2010Prop35
280
     0
102
RTVSPost2010PropOp35
 70
     1
102
RTVSPost2010Prop36
280
     0
102
RTVSPost2010PropOp36
 70
     1
102
RTVSPost2010Prop37
 90
       50
102
RTVSPost2010PropOp37
 70
     1
102
RTVSPost2010Prop38
140
0.0
102
RTVSPost2010PropOp38
 70
     1
102
RTVSPost2010Prop39
140
1.0
102
RTVSPost2010PropOp39
 70
     1
102
RTVSPost2010Prop40
 90
        0
102
RTVSPost2010PropOp40
 70
     1
102
RTVSPost2010Prop41ColorIndex
 90
       18
102
RTVSPost2010Prop41ColorRGB
 90
        0
102
RTVSPost2010PropOp41
 70
     1
102
RTVSPost2010Prop42
 90
       50
102
RTVSPost2010PropOp42
 70
     1
102
RTVSPost2010Prop43
 90
        3
102
RTVSPost2010PropOp43
 70
     1
102
RTVSPost2010Prop44ColorIndex
 90
        5
102
RTVSPost2010Prop44ColorRGB
 90
      255
102
RTVSPost2010PropOp44
 70
     1
102
RTVSPost2010Prop45
280
     0
102
RTVSPost2010PropOp45
 70
     1
102
RTVSPost2010Prop46
 90
       50
102
RTVSPost2010PropOp46
 70
     1
102
RTVSPost2010Prop47
 90
       50
102
RTVSPost2010PropOp47
 70
     1
102
RTVSPost2010Prop48
 90
       50
102
RTVSPost2010PropOp48
 70
     1
102
RTVSPost2010Prop49
280
     0
102
RTVSPost2010PropOp49
 70
     1
102
RTVSPost2010Prop50
 90
       50
102
RTVSPost2010PropOp50
 70
     1
102
RTVSPost2010Prop51ColorIndex
 90
      256
102
RTVSPost2010Prop51ColorRGB
 90
-16777216
102
RTVSPost2010PropOp51
 70
     0
102
RTVSPost2010Prop52
140
1.0
102
RTVSPost2010PropOp52
 70
     0
102
RTVSPost2010Prop53
 90
        2
102
RTVSPost2010PropOp53
 70
     1
102
RTVSPost2010Prop54
  1
strokes_ogs.tif
102
RTVSPost2010PropOp54
 70
     1
102
RTVSPost2010Prop55
280
     0
102
RTVSPost2010PropOp55
 70
     1
102
RTVSPost2010Prop56
140
1.0
102
RTVSPost2010PropOp56
 70
     1
102
RTVSPost2010Prop57
140
1.0
102
RTVSPost2010PropOp57
 70
     1
102
RTVSPropertyOp0
 70
     1
102
RTVSPropertyOp1
 70
     1
102
RTVSPropertyOp2
 70
     1
102
RTVSPropertyOp3
 70
     1
102
RTVSPropertyOp4
 70
     1
102
RTVSPropertyOp5
 70
     1
102
RTVSPropertyOp6
 70
     1
102
RTVSPropertyOp7
 70
     1
102
RTVSPropertyOp8
 70
     1
102
RTVSPropertyOp9
 70
     1
102
RTVSPropertyOp10
 70
     1
102
RTVSPropertyOp11
 70
     1
102
RTVSPropertyOp12
 70
     1
102
RTVSPropertyOp13
 70
     1
102
RTVSPropertyOp14
 70
     1
102
RTVSPropertyOp15
 70
     1
102
RTVSPropertyOp16
 70
     1
102
RTVSPropertyOp17
 70
     1
102
RTVSPropertyOp18
 70
     1
102
RTVSPropertyOp19
 70
     1
102
RTVSPropertyOp20
 70
     1
102
RTVSPropertyOp21
 70
     1
102
RTVSPropertyOp22
 70
     1
102
RTVSPropertyOp23
 70
     1
102
RTVSPropertyOp24
 70
     1
102
RTVSPropertyOp25
 70
     1
102
RTVSPropertyOp26
 70
     1
102
RTVSPropertyOp27
 70
     1
102
RTVSPropertyOp28
 70
     1
102
RTVSPropertyOp29
 70
     1
102
RTVSPropertyOp30
 70
     1
102
RTVSPropertyOp31
 70
     1
102
RTVSPropertyOp32
 70
     1
102
RTVSPropertyOp33
 70
     1
102
RTVSPropertyOp34
 70
     1
102
RTVSPropertyOp35
 70
     1
102
RTVSPropertyOp36
 70
     1
102
RTVSPropertyOp37
 70
     1
102
RTVSPropertyOp38
 70
     1
102
RTVSPropertyOp39
 70
     1
102
RTVSPropertyOp40
 70
     1
102
RTVSPropertyOp41
 70
     1
102
RTVSPropertyOp42
 70
     1
102
RTVSPropertyOp43
 70
     1
102
RTVSPropertyOp44
 70
     1
102
RTVSPropertyOp45
 70
     1
102
RTVSPropertyOp46
 70
     1
102
RTVSPropertyOp47
 70
     1
102
RTVSPropertyOp48
 70
     1
102
RTVSPropertyOp49
 70
     1
102
RTVSPropertyOp50
 70
     1
102
RTVSPropertyOp51
 70
     0
102
RTVSPropertyOp52
 70
     0
102
RTVSPropertyOp53
 70
     1
102
RTVSPropertyOp54
 70
     1
102
RTVSPropertyOp55
 70
     1
102
RTVSPropertyOp56
 70
     1
102
RTVSPropertyOp57
 70
     1
102
RTVSPropertyOp58
 70
     1
102
RTVSPropertyOp59
 70
     1
102
RTVSPropertyOp60
 70
     1
102
RTVSPropertyOp61
 70
     1
102
RTVSPropertyOp62
 70
     1
  0
XRECORD
  5
B520
102
{ACAD_REACTORS
330
B51F
102
}
330
B51F
100
AcDbXrecord
280
     1
102
RTVSPost2010Prop28
280
     0
102
RTVSPost2010PropOp28
 70
     1
102
RTVSPost2010Prop29
280
     1
102
RTVSPost2010PropOp29
 70
     1
102
RTVSPost2010Prop30
280
     1
102
RTVSPost2010PropOp30
 70
     1
102
RTVSPost2010Prop31
280
     0
102
RTVSPost2010PropOp31
 70
     1
102
RTVSPost2010Prop32
280
     0
102
RTVSPost2010PropOp32
 70
     1
102
RTVSPost2010Prop33
280
     0
102
RTVSPost2010PropOp33
 70
     1
102
RTVSPost2010Prop34
280
     0
102
RTVSPost2010PropOp34
 70
     1
102
RTVSPost2010Prop35
280
     0
102
RTVSPost2010PropOp35
 70
     1
102
RTVSPost2010Prop36
280
     0
102
RTVSPost2010PropOp36
 70
     1
102
RTVSPost2010Prop37
 90
       50
102
RTVSPost2010PropOp37
 70
     1
102
RTVSPost2010Prop38
140
0.0
102
RTVSPost2010PropOp38
 70
     1
102
RTVSPost2010Prop39
140
1.0
102
RTVSPost2010PropOp39
 70
     1
102
RTVSPost2010Prop40
 90
        0
102
RTVSPost2010PropOp40
 70
     1
102
RTVSPost2010Prop41ColorIndex
 90
       18
102
RTVSPost2010Prop41ColorRGB
 90
        0
102
RTVSPost2010PropOp41
 70
     1
102
RTVSPost2010Prop42
 90
       50
102
RTVSPost2010PropOp42
 70
     1
102
RTVSPost2010Prop43
 90
        3
102
RTVSPost2010PropOp43
 70
     1
102
RTVSPost2010Prop44ColorIndex
 90
        5
102
RTVSPost2010Prop44ColorRGB
 90
      255
102
RTVSPost2010PropOp44
 70
     1
102
RTVSPost2010Prop45
280
     0
102
RTVSPost2010PropOp45
 70
     1
102
RTVSPost2010Prop46
 90
       50
102
RTVSPost2010PropOp46
 70
     1
102
RTVSPost2010Prop47
 90
       50
102
RTVSPost2010PropOp47
 70
     1
102
RTVSPost2010Prop48
 90
       50
102
RTVSPost2010PropOp48
 70
     1
102
RTVSPost2010Prop49
280
     0
102
RTVSPost2010PropOp49
 70
     1
102
RTVSPost2010Prop50
 90
       50
102
RTVSPost2010PropOp50
 70
     1
102
RTVSPost2010Prop51ColorIndex
 90
      256
102
RTVSPost2010Prop51ColorRGB
 90
-16777216
102
RTVSPost2010PropOp51
 70
     0
102
RTVSPost2010Prop52
140
1.0
102
RTVSPost2010PropOp52
 70
     0
102
RTVSPost2010Prop53
 90
        2
102
RTVSPost2010PropOp53
 70
     1
102
RTVSPost2010Prop54
  1
strokes_ogs.tif
102
RTVSPost2010PropOp54
 70
     1
102
RTVSPost2010Prop55
280
     0
102
RTVSPost2010PropOp55
 70
     1
102
RTVSPost2010Prop56
140
1.0
102
RTVSPost2010PropOp56
 70
     1
102
RTVSPost2010Prop57
140
1.0
102
RTVSPost2010PropOp57
 70
     1
102
RTVSPropertyOp0
 70
     1
102
RTVSPropertyOp1
 70
     1
102
RTVSPropertyOp2
 70
     1
102
RTVSPropertyOp3
 70
     1
102
RTVSPropertyOp4
 70
     1
102
RTVSPropertyOp5
 70
     1
102
RTVSPropertyOp6
 70
     1
102
RTVSPropertyOp7
 70
     1
102
RTVSPropertyOp8
 70
     1
102
RTVSPropertyOp9
 70
     1
102
RTVSPropertyOp10
 70
     1
102
RTVSPropertyOp11
 70
     1
102
RTVSPropertyOp12
 70
     1
102
RTVSPropertyOp13
 70
     1
102
RTVSPropertyOp14
 70
     1
102
RTVSPropertyOp15
 70
     1
102
RTVSPropertyOp16
 70
     1
102
RTVSPropertyOp17
 70
     1
102
RTVSPropertyOp18
 70
     1
102
RTVSPropertyOp19
 70
     1
102
RTVSPropertyOp20
 70
     1
102
RTVSPropertyOp21
 70
     1
102
RTVSPropertyOp22
 70
     1
102
RTVSPropertyOp23
 70
     1
102
RTVSPropertyOp24
 70
     1
102
RTVSPropertyOp25
 70
     1
102
RTVSPropertyOp26
 70
     1
102
RTVSPropertyOp27
 70
     1
102
RTVSPropertyOp28
 70
     1
102
RTVSPropertyOp29
 70
     1
102
RTVSPropertyOp30
 70
     1
102
RTVSPropertyOp31
 70
     1
102
RTVSPropertyOp32
 70
     1
102
RTVSPropertyOp33
 70
     1
102
RTVSPropertyOp34
 70
     1
102
RTVSPropertyOp35
 70
     1
102
RTVSPropertyOp36
 70
     1
102
RTVSPropertyOp37
 70
     1
102
RTVSPropertyOp38
 70
     1
102
RTVSPropertyOp39
 70
     1
102
RTVSPropertyOp40
 70
     1
102
RTVSPropertyOp41
 70
     1
102
RTVSPropertyOp42
 70
     1
102
RTVSPropertyOp43
 70
     1
102
RTVSPropertyOp44
 70
     1
102
RTVSPropertyOp45
 70
     1
102
RTVSPropertyOp46
 70
     1
102
RTVSPropertyOp47
 70
     1
102
RTVSPropertyOp48
 70
     1
102
RTVSPropertyOp49
 70
     1
102
RTVSPropertyOp50
 70
     1
102
RTVSPropertyOp51
 70
     0
102
RTVSPropertyOp52
 70
     0
102
RTVSPropertyOp53
 70
     1
102
RTVSPropertyOp54
 70
     1
102
RTVSPropertyOp55
 70
     1
102
RTVSPropertyOp56
 70
     1
102
RTVSPropertyOp57
 70
     1
102
RTVSPropertyOp58
 70
     1
102
RTVSPropertyOp59
 70
     1
102
RTVSPropertyOp60
 70
     1
102
RTVSPropertyOp61
 70
     1
102
RTVSPropertyOp62
 70
     1
  0
XRECORD
  5
B522
102
{ACAD_REACTORS
330
B521
102
}
330
B521
100
AcDbXrecord
280
     1
102
RTVSPost2010Prop28
280
     0
102
RTVSPost2010PropOp28
 70
     1
102
RTVSPost2010Prop29
280
     1
102
RTVSPost2010PropOp29
 70
     1
102
RTVSPost2010Prop30
280
     1
102
RTVSPost2010PropOp30
 70
     1
102
RTVSPost2010Prop31
280
     0
102
RTVSPost2010PropOp31
 70
     1
102
RTVSPost2010Prop32
280
     0
102
RTVSPost2010PropOp32
 70
     1
102
RTVSPost2010Prop33
280
     0
102
RTVSPost2010PropOp33
 70
     1
102
RTVSPost2010Prop34
280
     0
102
RTVSPost2010PropOp34
 70
     1
102
RTVSPost2010Prop35
280
     0
102
RTVSPost2010PropOp35
 70
     1
102
RTVSPost2010Prop36
280
     0
102
RTVSPost2010PropOp36
 70
     1
102
RTVSPost2010Prop37
 90
       50
102
RTVSPost2010PropOp37
 70
     1
102
RTVSPost2010Prop38
140
0.0
102
RTVSPost2010PropOp38
 70
     1
102
RTVSPost2010Prop39
140
1.0
102
RTVSPost2010PropOp39
 70
     1
102
RTVSPost2010Prop40
 90
        0
102
RTVSPost2010PropOp40
 70
     1
102
RTVSPost2010Prop41ColorIndex
 90
       18
102
RTVSPost2010Prop41ColorRGB
 90
        0
102
RTVSPost2010PropOp41
 70
     1
102
RTVSPost2010Prop42
 90
       50
102
RTVSPost2010PropOp42
 70
     1
102
RTVSPost2010Prop43
 90
        3
102
RTVSPost2010PropOp43
 70
     1
102
RTVSPost2010Prop44ColorIndex
 90
        5
102
RTVSPost2010Prop44ColorRGB
 90
      255
102
RTVSPost2010PropOp44
 70
     1
102
RTVSPost2010Prop45
280
     0
102
RTVSPost2010PropOp45
 70
     1
102
RTVSPost2010Prop46
 90
       50
102
RTVSPost2010PropOp46
 70
     1
102
RTVSPost2010Prop47
 90
       50
102
RTVSPost2010PropOp47
 70
     1
102
RTVSPost2010Prop48
 90
       50
102
RTVSPost2010PropOp48
 70
     1
102
RTVSPost2010Prop49
280
     0
102
RTVSPost2010PropOp49
 70
     1
102
RTVSPost2010Prop50
 90
       50
102
RTVSPost2010PropOp50
 70
     1
102
RTVSPost2010Prop51ColorIndex
 90
      256
102
RTVSPost2010Prop51ColorRGB
 90
-16777216
102
RTVSPost2010PropOp51
 70
     0
102
RTVSPost2010Prop52
140
1.0
102
RTVSPost2010PropOp52
 70
     0
102
RTVSPost2010Prop53
 90
        2
102
RTVSPost2010PropOp53
 70
     1
102
RTVSPost2010Prop54
  1
strokes_ogs.tif
102
RTVSPost2010PropOp54
 70
     1
102
RTVSPost2010Prop55
280
     0
102
RTVSPost2010PropOp55
 70
     1
102
RTVSPost2010Prop56
140
1.0
102
RTVSPost2010PropOp56
 70
     1
102
RTVSPost2010Prop57
140
1.0
102
RTVSPost2010PropOp57
 70
     1
102
RTVSPropertyOp0
 70
     1
102
RTVSPropertyOp1
 70
     1
102
RTVSPropertyOp2
 70
     1
102
RTVSPropertyOp3
 70
     1
102
RTVSPropertyOp4
 70
     1
102
RTVSPropertyOp5
 70
     1
102
RTVSPropertyOp6
 70
     1
102
RTVSPropertyOp7
 70
     1
102
RTVSPropertyOp8
 70
     1
102
RTVSPropertyOp9
 70
     1
102
RTVSPropertyOp10
 70
     1
102
RTVSPropertyOp11
 70
     1
102
RTVSPropertyOp12
 70
     1
102
RTVSPropertyOp13
 70
     1
102
RTVSPropertyOp14
 70
     1
102
RTVSPropertyOp15
 70
     1
102
RTVSPropertyOp16
 70
     1
102
RTVSPropertyOp17
 70
     1
102
RTVSPropertyOp18
 70
     1
102
RTVSPropertyOp19
 70
     1
102
RTVSPropertyOp20
 70
     1
102
RTVSPropertyOp21
 70
     1
102
RTVSPropertyOp22
 70
     1
102
RTVSPropertyOp23
 70
     1
102
RTVSPropertyOp24
 70
     1
102
RTVSPropertyOp25
 70
     1
102
RTVSPropertyOp26
 70
     1
102
RTVSPropertyOp27
 70
     1
102
RTVSPropertyOp28
 70
     1
102
RTVSPropertyOp29
 70
     1
102
RTVSPropertyOp30
 70
     1
102
RTVSPropertyOp31
 70
     1
102
RTVSPropertyOp32
 70
     1
102
RTVSPropertyOp33
 70
     1
102
RTVSPropertyOp34
 70
     1
102
RTVSPropertyOp35
 70
     1
102
RTVSPropertyOp36
 70
     1
102
RTVSPropertyOp37
 70
     1
102
RTVSPropertyOp38
 70
     1
102
RTVSPropertyOp39
 70
     1
102
RTVSPropertyOp40
 70
     1
102
RTVSPropertyOp41
 70
     1
102
RTVSPropertyOp42
 70
     1
102
RTVSPropertyOp43
 70
     1
102
RTVSPropertyOp44
 70
     1
102
RTVSPropertyOp45
 70
     1
102
RTVSPropertyOp46
 70
     1
102
RTVSPropertyOp47
 70
     1
102
RTVSPropertyOp48
 70
     1
102
RTVSPropertyOp49
 70
     1
102
RTVSPropertyOp50
 70
     1
102
RTVSPropertyOp51
 70
     0
102
RTVSPropertyOp52
 70
     0
102
RTVSPropertyOp53
 70
     1
102
RTVSPropertyOp54
 70
     1
102
RTVSPropertyOp55
 70
     1
102
RTVSPropertyOp56
 70
     1
102
RTVSPropertyOp57
 70
     1
102
RTVSPropertyOp58
 70
     1
102
RTVSPropertyOp59
 70
     1
102
RTVSPropertyOp60
 70
     1
102
RTVSPropertyOp61
 70
     1
102
RTVSPropertyOp62
 70
     1
  0
XRECORD
  5
B524
102
{ACAD_REACTORS
330
B523
102
}
330
B523
100
AcDbXrecord
280
     1
102
RTVSPost2010Prop28
280
     0
102
RTVSPost2010PropOp28
 70
     1
102
RTVSPost2010Prop29
280
     1
102
RTVSPost2010PropOp29
 70
     1
102
RTVSPost2010Prop30
280
     1
102
RTVSPost2010PropOp30
 70
     1
102
RTVSPost2010Prop31
280
     0
102
RTVSPost2010PropOp31
 70
     1
102
RTVSPost2010Prop32
280
     0
102
RTVSPost2010PropOp32
 70
     1
102
RTVSPost2010Prop33
280
     0
102
RTVSPost2010PropOp33
 70
     1
102
RTVSPost2010Prop34
280
     0
102
RTVSPost2010PropOp34
 70
     1
102
RTVSPost2010Prop35
280
     0
102
RTVSPost2010PropOp35
 70
     1
102
RTVSPost2010Prop36
280
     0
102
RTVSPost2010PropOp36
 70
     1
102
RTVSPost2010Prop37
 90
       50
102
RTVSPost2010PropOp37
 70
     1
102
RTVSPost2010Prop38
140
0.0
102
RTVSPost2010PropOp38
 70
     1
102
RTVSPost2010Prop39
140
1.0
102
RTVSPost2010PropOp39
 70
     1
102
RTVSPost2010Prop40
 90
        0
102
RTVSPost2010PropOp40
 70
     1
102
RTVSPost2010Prop41ColorIndex
 90
       18
102
RTVSPost2010Prop41ColorRGB
 90
        0
102
RTVSPost2010PropOp41
 70
     1
102
RTVSPost2010Prop42
 90
       50
102
RTVSPost2010PropOp42
 70
     1
102
RTVSPost2010Prop43
 90
        3
102
RTVSPost2010PropOp43
 70
     1
102
RTVSPost2010Prop44ColorIndex
 90
        5
102
RTVSPost2010Prop44ColorRGB
 90
      255
102
RTVSPost2010PropOp44
 70
     1
102
RTVSPost2010Prop45
280
     0
102
RTVSPost2010PropOp45
 70
     1
102
RTVSPost2010Prop46
 90
       50
102
RTVSPost2010PropOp46
 70
     1
102
RTVSPost2010Prop47
 90
       50
102
RTVSPost2010PropOp47
 70
     1
102
RTVSPost2010Prop48
 90
       50
102
RTVSPost2010PropOp48
 70
     1
102
RTVSPost2010Prop49
280
     0
102
RTVSPost2010PropOp49
 70
     1
102
RTVSPost2010Prop50
 90
       50
102
RTVSPost2010PropOp50
 70
     1
102
RTVSPost2010Prop51ColorIndex
 90
      256
102
RTVSPost2010Prop51ColorRGB
 90
-16777216
102
RTVSPost2010PropOp51
 70
     0
102
RTVSPost2010Prop52
140
1.0
102
RTVSPost2010PropOp52
 70
     0
102
RTVSPost2010Prop53
 90
        2
102
RTVSPost2010PropOp53
 70
     1
102
RTVSPost2010Prop54
  1
strokes_ogs.tif
102
RTVSPost2010PropOp54
 70
     1
102
RTVSPost2010Prop55
280
     0
102
RTVSPost2010PropOp55
 70
     1
102
RTVSPost2010Prop56
140
1.0
102
RTVSPost2010PropOp56
 70
     1
102
RTVSPost2010Prop57
140
1.0
102
RTVSPost2010PropOp57
 70
     1
102
RTVSPropertyOp0
 70
     1
102
RTVSPropertyOp1
 70
     1
102
RTVSPropertyOp2
 70
     1
102
RTVSPropertyOp3
 70
     1
102
RTVSPropertyOp4
 70
     1
102
RTVSPropertyOp5
 70
     1
102
RTVSPropertyOp6
 70
     1
102
RTVSPropertyOp7
 70
     1
102
RTVSPropertyOp8
 70
     1
102
RTVSPropertyOp9
 70
     1
102
RTVSPropertyOp10
 70
     1
102
RTVSPropertyOp11
 70
     1
102
RTVSPropertyOp12
 70
     1
102
RTVSPropertyOp13
 70
     1
102
RTVSPropertyOp14
 70
     1
102
RTVSPropertyOp15
 70
     1
102
RTVSPropertyOp16
 70
     1
102
RTVSPropertyOp17
 70
     1
102
RTVSPropertyOp18
 70
     1
102
RTVSPropertyOp19
 70
     1
102
RTVSPropertyOp20
 70
     1
102
RTVSPropertyOp21
 70
     1
102
RTVSPropertyOp22
 70
     1
102
RTVSPropertyOp23
 70
     1
102
RTVSPropertyOp24
 70
     1
102
RTVSPropertyOp25
 70
     1
102
RTVSPropertyOp26
 70
     1
102
RTVSPropertyOp27
 70
     1
102
RTVSPropertyOp28
 70
     1
102
RTVSPropertyOp29
 70
     1
102
RTVSPropertyOp30
 70
     1
102
RTVSPropertyOp31
 70
     1
102
RTVSPropertyOp32
 70
     1
102
RTVSPropertyOp33
 70
     1
102
RTVSPropertyOp34
 70
     1
102
RTVSPropertyOp35
 70
     1
102
RTVSPropertyOp36
 70
     1
102
RTVSPropertyOp37
 70
     1
102
RTVSPropertyOp38
 70
     1
102
RTVSPropertyOp39
 70
     1
102
RTVSPropertyOp40
 70
     1
102
RTVSPropertyOp41
 70
     1
102
RTVSPropertyOp42
 70
     1
102
RTVSPropertyOp43
 70
     1
102
RTVSPropertyOp44
 70
     1
102
RTVSPropertyOp45
 70
     1
102
RTVSPropertyOp46
 70
     1
102
RTVSPropertyOp47
 70
     1
102
RTVSPropertyOp48
 70
     1
102
RTVSPropertyOp49
 70
     1
102
RTVSPropertyOp50
 70
     1
102
RTVSPropertyOp51
 70
     0
102
RTVSPropertyOp52
 70
     0
102
RTVSPropertyOp53
 70
     1
102
RTVSPropertyOp54
 70
     1
102
RTVSPropertyOp55
 70
     1
102
RTVSPropertyOp56
 70
     1
102
RTVSPropertyOp57
 70
     1
102
RTVSPropertyOp58
 70
     1
102
RTVSPropertyOp59
 70
     1
102
RTVSPropertyOp60
 70
     1
102
RTVSPropertyOp61
 70
     1
102
RTVSPropertyOp62
 70
     1
  0
XRECORD
  5
B52C
102
{ACAD_REACTORS
330
B52B
102
}
330
B52B
100
AcDbXrecord
280
     1
102
RTVSPost2010Prop28
280
     0
102
RTVSPost2010PropOp28
 70
     1
102
RTVSPost2010Prop29
280
     1
102
RTVSPost2010PropOp29
 70
     1
102
RTVSPost2010Prop30
280
     1
102
RTVSPost2010PropOp30
 70
     1
102
RTVSPost2010Prop31
280
     0
102
RTVSPost2010PropOp31
 70
     1
102
RTVSPost2010Prop32
280
     0
102
RTVSPost2010PropOp32
 70
     1
102
RTVSPost2010Prop33
280
     0
102
RTVSPost2010PropOp33
 70
     1
102
RTVSPost2010Prop34
280
     0
102
RTVSPost2010PropOp34
 70
     1
102
RTVSPost2010Prop35
280
     0
102
RTVSPost2010PropOp35
 70
     1
102
RTVSPost2010Prop36
280
     0
102
RTVSPost2010PropOp36
 70
     1
102
RTVSPost2010Prop37
 90
       50
102
RTVSPost2010PropOp37
 70
     1
102
RTVSPost2010Prop38
140
0.0
102
RTVSPost2010PropOp38
 70
     1
102
RTVSPost2010Prop39
140
1.0
102
RTVSPost2010PropOp39
 70
     1
102
RTVSPost2010Prop40
 90
        0
102
RTVSPost2010PropOp40
 70
     1
102
RTVSPost2010Prop41ColorIndex
 90
       18
102
RTVSPost2010Prop41ColorRGB
 90
        0
102
RTVSPost2010PropOp41
 70
     1
102
RTVSPost2010Prop42
 90
       50
102
RTVSPost2010PropOp42
 70
     1
102
RTVSPost2010Prop43
 90
        3
102
RTVSPost2010PropOp43
 70
     1
102
RTVSPost2010Prop44ColorIndex
 90
        5
102
RTVSPost2010Prop44ColorRGB
 90
      255
102
RTVSPost2010PropOp44
 70
     1
102
RTVSPost2010Prop45
280
     0
102
RTVSPost2010PropOp45
 70
     1
102
RTVSPost2010Prop46
 90
       50
102
RTVSPost2010PropOp46
 70
     1
102
RTVSPost2010Prop47
 90
       50
102
RTVSPost2010PropOp47
 70
     1
102
RTVSPost2010Prop48
 90
       50
102
RTVSPost2010PropOp48
 70
     1
102
RTVSPost2010Prop49
280
     0
102
RTVSPost2010PropOp49
 70
     1
102
RTVSPost2010Prop50
 90
       50
102
RTVSPost2010PropOp50
 70
     1
102
RTVSPost2010Prop51ColorIndex
 90
      256
102
RTVSPost2010Prop51ColorRGB
 90
-16777216
102
RTVSPost2010PropOp51
 70
     0
102
RTVSPost2010Prop52
140
1.0
102
RTVSPost2010PropOp52
 70
     0
102
RTVSPost2010Prop53
 90
        2
102
RTVSPost2010PropOp53
 70
     1
102
RTVSPost2010Prop54
  1
strokes_ogs.tif
102
RTVSPost2010PropOp54
 70
     1
102
RTVSPost2010Prop55
280
     0
102
RTVSPost2010PropOp55
 70
     1
102
RTVSPost2010Prop56
140
1.0
102
RTVSPost2010PropOp56
 70
     1
102
RTVSPost2010Prop57
140
1.0
102
RTVSPost2010PropOp57
 70
     1
102
RTVSPropertyOp0
 70
     1
102
RTVSPropertyOp1
 70
     1
102
RTVSPropertyOp2
 70
     1
102
RTVSPropertyOp3
 70
     1
102
RTVSPropertyOp4
 70
     1
102
RTVSPropertyOp5
 70
     1
102
RTVSPropertyOp6
 70
     1
102
RTVSPropertyOp7
 70
     1
102
RTVSPropertyOp8
 70
     1
102
RTVSPropertyOp9
 70
     1
102
RTVSPropertyOp10
 70
     1
102
RTVSPropertyOp11
 70
     1
102
RTVSPropertyOp12
 70
     1
102
RTVSPropertyOp13
 70
     1
102
RTVSPropertyOp14
 70
     1
102
RTVSPropertyOp15
 70
     1
102
RTVSPropertyOp16
 70
     1
102
RTVSPropertyOp17
 70
     1
102
RTVSPropertyOp18
 70
     1
102
RTVSPropertyOp19
 70
     1
102
RTVSPropertyOp20
 70
     1
102
RTVSPropertyOp21
 70
     1
102
RTVSPropertyOp22
 70
     1
102
RTVSPropertyOp23
 70
     1
102
RTVSPropertyOp24
 70
     1
102
RTVSPropertyOp25
 70
     1
102
RTVSPropertyOp26
 70
     1
102
RTVSPropertyOp27
 70
     1
102
RTVSPropertyOp28
 70
     1
102
RTVSPropertyOp29
 70
     1
102
RTVSPropertyOp30
 70
     1
102
RTVSPropertyOp31
 70
     1
102
RTVSPropertyOp32
 70
     1
102
RTVSPropertyOp33
 70
     1
102
RTVSPropertyOp34
 70
     1
102
RTVSPropertyOp35
 70
     1
102
RTVSPropertyOp36
 70
     1
102
RTVSPropertyOp37
 70
     1
102
RTVSPropertyOp38
 70
     1
102
RTVSPropertyOp39
 70
     1
102
RTVSPropertyOp40
 70
     1
102
RTVSPropertyOp41
 70
     1
102
RTVSPropertyOp42
 70
     1
102
RTVSPropertyOp43
 70
     1
102
RTVSPropertyOp44
 70
     1
102
RTVSPropertyOp45
 70
     1
102
RTVSPropertyOp46
 70
     1
102
RTVSPropertyOp47
 70
     1
102
RTVSPropertyOp48
 70
     1
102
RTVSPropertyOp49
 70
     1
102
RTVSPropertyOp50
 70
     1
102
RTVSPropertyOp51
 70
     0
102
RTVSPropertyOp52
 70
     0
102
RTVSPropertyOp53
 70
     1
102
RTVSPropertyOp54
 70
     1
102
RTVSPropertyOp55
 70
     1
102
RTVSPropertyOp56
 70
     1
102
RTVSPropertyOp57
 70
     1
102
RTVSPropertyOp58
 70
     1
102
RTVSPropertyOp59
 70
     1
102
RTVSPropertyOp60
 70
     1
102
RTVSPropertyOp61
 70
     1
102
RTVSPropertyOp62
 70
     1
  0
XRECORD
  5
B540
102
{ACAD_REACTORS
330
B53F
102
}
330
B53F
100
AcDbXrecord
280
     1
102
RTVSPost2010Prop28
280
     0
102
RTVSPost2010PropOp28
 70
     1
102
RTVSPost2010Prop29
280
     1
102
RTVSPost2010PropOp29
 70
     1
102
RTVSPost2010Prop30
280
     1
102
RTVSPost2010PropOp30
 70
     1
102
RTVSPost2010Prop31
280
     0
102
RTVSPost2010PropOp31
 70
     1
102
RTVSPost2010Prop32
280
     0
102
RTVSPost2010PropOp32
 70
     1
102
RTVSPost2010Prop33
280
     0
102
RTVSPost2010PropOp33
 70
     1
102
RTVSPost2010Prop34
280
     0
102
RTVSPost2010PropOp34
 70
     1
102
RTVSPost2010Prop35
280
     0
102
RTVSPost2010PropOp35
 70
     1
102
RTVSPost2010Prop36
280
     0
102
RTVSPost2010PropOp36
 70
     1
102
RTVSPost2010Prop37
 90
       50
102
RTVSPost2010PropOp37
 70
     1
102
RTVSPost2010Prop38
140
0.0
102
RTVSPost2010PropOp38
 70
     1
102
RTVSPost2010Prop39
140
1.0
102
RTVSPost2010PropOp39
 70
     1
102
RTVSPost2010Prop40
 90
        0
102
RTVSPost2010PropOp40
 70
     1
102
RTVSPost2010Prop41ColorIndex
 90
       18
102
RTVSPost2010Prop41ColorRGB
 90
        0
102
RTVSPost2010PropOp41
 70
     1
102
RTVSPost2010Prop42
 90
       50
102
RTVSPost2010PropOp42
 70
     1
102
RTVSPost2010Prop43
 90
        3
102
RTVSPost2010PropOp43
 70
     1
102
RTVSPost2010Prop44ColorIndex
 90
        5
102
RTVSPost2010Prop44ColorRGB
 90
      255
102
RTVSPost2010PropOp44
 70
     1
102
RTVSPost2010Prop45
280
     0
102
RTVSPost2010PropOp45
 70
     1
102
RTVSPost2010Prop46
 90
       50
102
RTVSPost2010PropOp46
 70
     1
102
RTVSPost2010Prop47
 90
       50
102
RTVSPost2010PropOp47
 70
     1
102
RTVSPost2010Prop48
 90
       50
102
RTVSPost2010PropOp48
 70
     1
102
RTVSPost2010Prop49
280
     0
102
RTVSPost2010PropOp49
 70
     1
102
RTVSPost2010Prop50
 90
       50
102
RTVSPost2010PropOp50
 70
     1
102
RTVSPost2010Prop51ColorIndex
 90
      256
102
RTVSPost2010Prop51ColorRGB
 90
-16777216
102
RTVSPost2010PropOp51
 70
     0
102
RTVSPost2010Prop52
140
1.0
102
RTVSPost2010PropOp52
 70
     0
102
RTVSPost2010Prop53
 90
        2
102
RTVSPost2010PropOp53
 70
     1
102
RTVSPost2010Prop54
  1
strokes_ogs.tif
102
RTVSPost2010PropOp54
 70
     1
102
RTVSPost2010Prop55
280
     0
102
RTVSPost2010PropOp55
 70
     1
102
RTVSPost2010Prop56
140
1.0
102
RTVSPost2010PropOp56
 70
     1
102
RTVSPost2010Prop57
140
1.0
102
RTVSPost2010PropOp57
 70
     1
102
RTVSPropertyOp0
 70
     0
102
RTVSPropertyOp1
 70
     0
102
RTVSPropertyOp2
 70
     0
102
RTVSPropertyOp3
 70
     0
102
RTVSPropertyOp4
 70
     0
102
RTVSPropertyOp5
 70
     0
102
RTVSPropertyOp6
 70
     0
102
RTVSPropertyOp7
 70
     0
102
RTVSPropertyOp8
 70
     0
102
RTVSPropertyOp9
 70
     0
102
RTVSPropertyOp10
 70
     0
102
RTVSPropertyOp11
 70
     0
102
RTVSPropertyOp12
 70
     0
102
RTVSPropertyOp13
 70
     0
102
RTVSPropertyOp14
 70
     2
102
RTVSPropertyOp15
 70
     0
102
RTVSPropertyOp16
 70
     0
102
RTVSPropertyOp17
 70
     0
102
RTVSPropertyOp18
 70
     0
102
RTVSPropertyOp19
 70
     0
102
RTVSPropertyOp20
 70
     0
102
RTVSPropertyOp21
 70
     0
102
RTVSPropertyOp22
 70
     0
102
RTVSPropertyOp23
 70
     0
102
RTVSPropertyOp24
 70
     0
102
RTVSPropertyOp25
 70
     0
102
RTVSPropertyOp26
 70
     0
102
RTVSPropertyOp27
 70
     0
102
RTVSPropertyOp28
 70
     1
102
RTVSPropertyOp29
 70
     1
102
RTVSPropertyOp30
 70
     1
102
RTVSPropertyOp31
 70
     1
102
RTVSPropertyOp32
 70
     1
102
RTVSPropertyOp33
 70
     1
102
RTVSPropertyOp34
 70
     1
102
RTVSPropertyOp35
 70
     1
102
RTVSPropertyOp36
 70
     1
102
RTVSPropertyOp37
 70
     1
102
RTVSPropertyOp38
 70
     1
102
RTVSPropertyOp39
 70
     1
102
RTVSPropertyOp40
 70
     1
102
RTVSPropertyOp41
 70
     1
102
RTVSPropertyOp42
 70
     1
102
RTVSPropertyOp43
 70
     1
102
RTVSPropertyOp44
 70
     1
102
RTVSPropertyOp45
 70
     1
102
RTVSPropertyOp46
 70
     1
102
RTVSPropertyOp47
 70
     1
102
RTVSPropertyOp48
 70
     1
102
RTVSPropertyOp49
 70
     1
102
RTVSPropertyOp50
 70
     1
102
RTVSPropertyOp51
 70
     0
102
RTVSPropertyOp52
 70
     0
102
RTVSPropertyOp53
 70
     1
102
RTVSPropertyOp54
 70
     1
102
RTVSPropertyOp55
 70
     1
102
RTVSPropertyOp56
 70
     1
102
RTVSPropertyOp57
 70
     1
102
RTVSPropertyOp58
 70
     1
102
RTVSPropertyOp59
 70
     1
102
RTVSPropertyOp60
 70
     1
102
RTVSPropertyOp61
 70
     1
102
RTVSPropertyOp62
 70
     1
  0
XRECORD
  5
B538
102
{ACAD_REACTORS
330
B537
102
}
330
B537
100
AcDbXrecord
280
     1
102
RTVSPost2010Prop28
280
     0
102
RTVSPost2010PropOp28
 70
     1
102
RTVSPost2010Prop29
280
     1
102
RTVSPost2010PropOp29
 70
     1
102
RTVSPost2010Prop30
280
     1
102
RTVSPost2010PropOp30
 70
     1
102
RTVSPost2010Prop31
280
     0
102
RTVSPost2010PropOp31
 70
     1
102
RTVSPost2010Prop32
280
     0
102
RTVSPost2010PropOp32
 70
     1
102
RTVSPost2010Prop33
280
     0
102
RTVSPost2010PropOp33
 70
     1
102
RTVSPost2010Prop34
280
     0
102
RTVSPost2010PropOp34
 70
     1
102
RTVSPost2010Prop35
280
     0
102
RTVSPost2010PropOp35
 70
     1
102
RTVSPost2010Prop36
280
     0
102
RTVSPost2010PropOp36
 70
     1
102
RTVSPost2010Prop37
 90
       50
102
RTVSPost2010PropOp37
 70
     1
102
RTVSPost2010Prop38
140
0.0
102
RTVSPost2010PropOp38
 70
     1
102
RTVSPost2010Prop39
140
1.0
102
RTVSPost2010PropOp39
 70
     1
102
RTVSPost2010Prop40
 90
        0
102
RTVSPost2010PropOp40
 70
     1
102
RTVSPost2010Prop41ColorIndex
 90
       18
102
RTVSPost2010Prop41ColorRGB
 90
        0
102
RTVSPost2010PropOp41
 70
     1
102
RTVSPost2010Prop42
 90
       50
102
RTVSPost2010PropOp42
 70
     1
102
RTVSPost2010Prop43
 90
        3
102
RTVSPost2010PropOp43
 70
     1
102
RTVSPost2010Prop44ColorIndex
 90
        5
102
RTVSPost2010Prop44ColorRGB
 90
      255
102
RTVSPost2010PropOp44
 70
     1
102
RTVSPost2010Prop45
280
     0
102
RTVSPost2010PropOp45
 70
     1
102
RTVSPost2010Prop46
 90
       50
102
RTVSPost2010PropOp46
 70
     1
102
RTVSPost2010Prop47
 90
       50
102
RTVSPost2010PropOp47
 70
     1
102
RTVSPost2010Prop48
 90
       50
102
RTVSPost2010PropOp48
 70
     1
102
RTVSPost2010Prop49
280
     0
102
RTVSPost2010PropOp49
 70
     1
102
RTVSPost2010Prop50
 90
       50
102
RTVSPost2010PropOp50
 70
     1
102
RTVSPost2010Prop51ColorIndex
 90
      256
102
RTVSPost2010Prop51ColorRGB
 90
-16777216
102
RTVSPost2010PropOp51
 70
     0
102
RTVSPost2010Prop52
140
1.0
102
RTVSPost2010PropOp52
 70
     0
102
RTVSPost2010Prop53
 90
        2
102
RTVSPost2010PropOp53
 70
     1
102
RTVSPost2010Prop54
  1
strokes_ogs.tif
102
RTVSPost2010PropOp54
 70
     1
102
RTVSPost2010Prop55
280
     0
102
RTVSPost2010PropOp55
 70
     1
102
RTVSPost2010Prop56
140
1.0
102
RTVSPost2010PropOp56
 70
     1
102
RTVSPost2010Prop57
140
1.0
102
RTVSPost2010PropOp57
 70
     1
102
RTVSPropertyOp0
 70
     1
102
RTVSPropertyOp1
 70
     1
102
RTVSPropertyOp2
 70
     1
102
RTVSPropertyOp3
 70
     1
102
RTVSPropertyOp4
 70
     1
102
RTVSPropertyOp5
 70
     1
102
RTVSPropertyOp6
 70
     1
102
RTVSPropertyOp7
 70
     1
102
RTVSPropertyOp8
 70
     1
102
RTVSPropertyOp9
 70
     1
102
RTVSPropertyOp10
 70
     1
102
RTVSPropertyOp11
 70
     1
102
RTVSPropertyOp12
 70
     1
102
RTVSPropertyOp13
 70
     1
102
RTVSPropertyOp14
 70
     1
102
RTVSPropertyOp15
 70
     1
102
RTVSPropertyOp16
 70
     1
102
RTVSPropertyOp17
 70
     1
102
RTVSPropertyOp18
 70
     1
102
RTVSPropertyOp19
 70
     1
102
RTVSPropertyOp20
 70
     1
102
RTVSPropertyOp21
 70
     1
102
RTVSPropertyOp22
 70
     1
102
RTVSPropertyOp23
 70
     1
102
RTVSPropertyOp24
 70
     1
102
RTVSPropertyOp25
 70
     1
102
RTVSPropertyOp26
 70
     1
102
RTVSPropertyOp27
 70
     1
102
RTVSPropertyOp28
 70
     1
102
RTVSPropertyOp29
 70
     1
102
RTVSPropertyOp30
 70
     1
102
RTVSPropertyOp31
 70
     1
102
RTVSPropertyOp32
 70
     1
102
RTVSPropertyOp33
 70
     1
102
RTVSPropertyOp34
 70
     1
102
RTVSPropertyOp35
 70
     1
102
RTVSPropertyOp36
 70
     1
102
RTVSPropertyOp37
 70
     1
102
RTVSPropertyOp38
 70
     1
102
RTVSPropertyOp39
 70
     1
102
RTVSPropertyOp40
 70
     1
102
RTVSPropertyOp41
 70
     1
102
RTVSPropertyOp42
 70
     1
102
RTVSPropertyOp43
 70
     1
102
RTVSPropertyOp44
 70
     1
102
RTVSPropertyOp45
 70
     1
102
RTVSPropertyOp46
 70
     1
102
RTVSPropertyOp47
 70
     1
102
RTVSPropertyOp48
 70
     1
102
RTVSPropertyOp49
 70
     1
102
RTVSPropertyOp50
 70
     1
102
RTVSPropertyOp51
 70
     0
102
RTVSPropertyOp52
 70
     0
102
RTVSPropertyOp53
 70
     1
102
RTVSPropertyOp54
 70
     1
102
RTVSPropertyOp55
 70
     1
102
RTVSPropertyOp56
 70
     1
102
RTVSPropertyOp57
 70
     1
102
RTVSPropertyOp58
 70
     1
102
RTVSPropertyOp59
 70
     1
102
RTVSPropertyOp60
 70
     1
102
RTVSPropertyOp61
 70
     1
102
RTVSPropertyOp62
 70
     1
  0
XRECORD
  5
B542
102
{ACAD_REACTORS
330
B541
102
}
330
B541
100
AcDbXrecord
280
     1
102
RTVSPost2010Prop28
280
     0
102
RTVSPost2010PropOp28
 70
     1
102
RTVSPost2010Prop29
280
     1
102
RTVSPost2010PropOp29
 70
     1
102
RTVSPost2010Prop30
280
     1
102
RTVSPost2010PropOp30
 70
     1
102
RTVSPost2010Prop31
280
     0
102
RTVSPost2010PropOp31
 70
     1
102
RTVSPost2010Prop32
280
     0
102
RTVSPost2010PropOp32
 70
     1
102
RTVSPost2010Prop33
280
     0
102
RTVSPost2010PropOp33
 70
     1
102
RTVSPost2010Prop34
280
     0
102
RTVSPost2010PropOp34
 70
     1
102
RTVSPost2010Prop35
280
     0
102
RTVSPost2010PropOp35
 70
     1
102
RTVSPost2010Prop36
280
     0
102
RTVSPost2010PropOp36
 70
     1
102
RTVSPost2010Prop37
 90
       50
102
RTVSPost2010PropOp37
 70
     1
102
RTVSPost2010Prop38
140
0.0
102
RTVSPost2010PropOp38
 70
     1
102
RTVSPost2010Prop39
140
1.0
102
RTVSPost2010PropOp39
 70
     1
102
RTVSPost2010Prop40
 90
        0
102
RTVSPost2010PropOp40
 70
     1
102
RTVSPost2010Prop41ColorIndex
 90
       18
102
RTVSPost2010Prop41ColorRGB
 90
        0
102
RTVSPost2010PropOp41
 70
     1
102
RTVSPost2010Prop42
 90
       50
102
RTVSPost2010PropOp42
 70
     1
102
RTVSPost2010Prop43
 90
        3
102
RTVSPost2010PropOp43
 70
     1
102
RTVSPost2010Prop44ColorIndex
 90
        5
102
RTVSPost2010Prop44ColorRGB
 90
      255
102
RTVSPost2010PropOp44
 70
     1
102
RTVSPost2010Prop45
280
     0
102
RTVSPost2010PropOp45
 70
     1
102
RTVSPost2010Prop46
 90
       50
102
RTVSPost2010PropOp46
 70
     1
102
RTVSPost2010Prop47
 90
       50
102
RTVSPost2010PropOp47
 70
     1
102
RTVSPost2010Prop48
 90
       50
102
RTVSPost2010PropOp48
 70
     1
102
RTVSPost2010Prop49
280
     0
102
RTVSPost2010PropOp49
 70
     1
102
RTVSPost2010Prop50
 90
       50
102
RTVSPost2010PropOp50
 70
     1
102
RTVSPost2010Prop51ColorIndex
 90
      256
102
RTVSPost2010Prop51ColorRGB
 90
-16777216
102
RTVSPost2010PropOp51
 70
     0
102
RTVSPost2010Prop52
140
1.0
102
RTVSPost2010PropOp52
 70
     0
102
RTVSPost2010Prop53
 90
        2
102
RTVSPost2010PropOp53
 70
     1
102
RTVSPost2010Prop54
  1
strokes_ogs.tif
102
RTVSPost2010PropOp54
 70
     1
102
RTVSPost2010Prop55
280
     0
102
RTVSPost2010PropOp55
 70
     1
102
RTVSPost2010Prop56
140
1.0
102
RTVSPost2010PropOp56
 70
     1
102
RTVSPost2010Prop57
140
1.0
102
RTVSPost2010PropOp57
 70
     1
102
RTVSPropertyOp0
 70
     0
102
RTVSPropertyOp1
 70
     0
102
RTVSPropertyOp2
 70
     0
102
RTVSPropertyOp3
 70
     0
102
RTVSPropertyOp4
 70
     0
102
RTVSPropertyOp5
 70
     0
102
RTVSPropertyOp6
 70
     0
102
RTVSPropertyOp7
 70
     0
102
RTVSPropertyOp8
 70
     0
102
RTVSPropertyOp9
 70
     0
102
RTVSPropertyOp10
 70
     0
102
RTVSPropertyOp11
 70
     0
102
RTVSPropertyOp12
 70
     0
102
RTVSPropertyOp13
 70
     0
102
RTVSPropertyOp14
 70
     2
102
RTVSPropertyOp15
 70
     0
102
RTVSPropertyOp16
 70
     0
102
RTVSPropertyOp17
 70
     0
102
RTVSPropertyOp18
 70
     0
102
RTVSPropertyOp19
 70
     0
102
RTVSPropertyOp20
 70
     0
102
RTVSPropertyOp21
 70
     0
102
RTVSPropertyOp22
 70
     0
102
RTVSPropertyOp23
 70
     0
102
RTVSPropertyOp24
 70
     0
102
RTVSPropertyOp25
 70
     0
102
RTVSPropertyOp26
 70
     0
102
RTVSPropertyOp27
 70
     0
102
RTVSPropertyOp28
 70
     1
102
RTVSPropertyOp29
 70
     1
102
RTVSPropertyOp30
 70
     1
102
RTVSPropertyOp31
 70
     1
102
RTVSPropertyOp32
 70
     1
102
RTVSPropertyOp33
 70
     1
102
RTVSPropertyOp34
 70
     1
102
RTVSPropertyOp35
 70
     1
102
RTVSPropertyOp36
 70
     1
102
RTVSPropertyOp37
 70
     1
102
RTVSPropertyOp38
 70
     1
102
RTVSPropertyOp39
 70
     1
102
RTVSPropertyOp40
 70
     1
102
RTVSPropertyOp41
 70
     1
102
RTVSPropertyOp42
 70
     1
102
RTVSPropertyOp43
 70
     1
102
RTVSPropertyOp44
 70
     1
102
RTVSPropertyOp45
 70
     1
102
RTVSPropertyOp46
 70
     1
102
RTVSPropertyOp47
 70
     1
102
RTVSPropertyOp48
 70
     1
102
RTVSPropertyOp49
 70
     1
102
RTVSPropertyOp50
 70
     1
102
RTVSPropertyOp51
 70
     0
102
RTVSPropertyOp52
 70
     0
102
RTVSPropertyOp53
 70
     1
102
RTVSPropertyOp54
 70
     1
102
RTVSPropertyOp55
 70
     1
102
RTVSPropertyOp56
 70
     1
102
RTVSPropertyOp57
 70
     1
102
RTVSPropertyOp58
 70
     1
102
RTVSPropertyOp59
 70
     1
102
RTVSPropertyOp60
 70
     1
102
RTVSPropertyOp61
 70
     1
102
RTVSPropertyOp62
 70
     1
  0
XRECORD
  5
B530
102
{ACAD_REACTORS
330
B52F
102
}
330
B52F
100
AcDbXrecord
280
     1
102
RTVSPost2010Prop28
280
     0
102
RTVSPost2010PropOp28
 70
     1
102
RTVSPost2010Prop29
280
     1
102
RTVSPost2010PropOp29
 70
     1
102
RTVSPost2010Prop30
280
     1
102
RTVSPost2010PropOp30
 70
     1
102
RTVSPost2010Prop31
280
     0
102
RTVSPost2010PropOp31
 70
     1
102
RTVSPost2010Prop32
280
     0
102
RTVSPost2010PropOp32
 70
     1
102
RTVSPost2010Prop33
280
     0
102
RTVSPost2010PropOp33
 70
     1
102
RTVSPost2010Prop34
280
     0
102
RTVSPost2010PropOp34
 70
     1
102
RTVSPost2010Prop35
280
     0
102
RTVSPost2010PropOp35
 70
     1
102
RTVSPost2010Prop36
280
     0
102
RTVSPost2010PropOp36
 70
     1
102
RTVSPost2010Prop37
 90
       50
102
RTVSPost2010PropOp37
 70
     1
102
RTVSPost2010Prop38
140
0.0
102
RTVSPost2010PropOp38
 70
     1
102
RTVSPost2010Prop39
140
1.0
102
RTVSPost2010PropOp39
 70
     1
102
RTVSPost2010Prop40
 90
        0
102
RTVSPost2010PropOp40
 70
     1
102
RTVSPost2010Prop41ColorIndex
 90
       18
102
RTVSPost2010Prop41ColorRGB
 90
        0
102
RTVSPost2010PropOp41
 70
     1
102
RTVSPost2010Prop42
 90
       50
102
RTVSPost2010PropOp42
 70
     1
102
RTVSPost2010Prop43
 90
        3
102
RTVSPost2010PropOp43
 70
     1
102
RTVSPost2010Prop44ColorIndex
 90
        5
102
RTVSPost2010Prop44ColorRGB
 90
      255
102
RTVSPost2010PropOp44
 70
     1
102
RTVSPost2010Prop45
280
     0
102
RTVSPost2010PropOp45
 70
     1
102
RTVSPost2010Prop46
 90
       50
102
RTVSPost2010PropOp46
 70
     1
102
RTVSPost2010Prop47
 90
       50
102
RTVSPost2010PropOp47
 70
     1
102
RTVSPost2010Prop48
 90
       50
102
RTVSPost2010PropOp48
 70
     1
102
RTVSPost2010Prop49
280
     0
102
RTVSPost2010PropOp49
 70
     1
102
RTVSPost2010Prop50
 90
       50
102
RTVSPost2010PropOp50
 70
     1
102
RTVSPost2010Prop51ColorIndex
 90
      256
102
RTVSPost2010Prop51ColorRGB
 90
-16777216
102
RTVSPost2010PropOp51
 70
     0
102
RTVSPost2010Prop52
140
1.0
102
RTVSPost2010PropOp52
 70
     0
102
RTVSPost2010Prop53
 90
        2
102
RTVSPost2010PropOp53
 70
     1
102
RTVSPost2010Prop54
  1
strokes_ogs.tif
102
RTVSPost2010PropOp54
 70
     1
102
RTVSPost2010Prop55
280
     0
102
RTVSPost2010PropOp55
 70
     1
102
RTVSPost2010Prop56
140
1.0
102
RTVSPost2010PropOp56
 70
     1
102
RTVSPost2010Prop57
140
1.0
102
RTVSPost2010PropOp57
 70
     1
102
RTVSPropertyOp0
 70
     1
102
RTVSPropertyOp1
 70
     1
102
RTVSPropertyOp2
 70
     1
102
RTVSPropertyOp3
 70
     1
102
RTVSPropertyOp4
 70
     1
102
RTVSPropertyOp5
 70
     1
102
RTVSPropertyOp6
 70
     1
102
RTVSPropertyOp7
 70
     1
102
RTVSPropertyOp8
 70
     1
102
RTVSPropertyOp9
 70
     1
102
RTVSPropertyOp10
 70
     1
102
RTVSPropertyOp11
 70
     1
102
RTVSPropertyOp12
 70
     1
102
RTVSPropertyOp13
 70
     1
102
RTVSPropertyOp14
 70
     1
102
RTVSPropertyOp15
 70
     1
102
RTVSPropertyOp16
 70
     1
102
RTVSPropertyOp17
 70
     1
102
RTVSPropertyOp18
 70
     1
102
RTVSPropertyOp19
 70
     1
102
RTVSPropertyOp20
 70
     1
102
RTVSPropertyOp21
 70
     1
102
RTVSPropertyOp22
 70
     1
102
RTVSPropertyOp23
 70
     1
102
RTVSPropertyOp24
 70
     1
102
RTVSPropertyOp25
 70
     1
102
RTVSPropertyOp26
 70
     1
102
RTVSPropertyOp27
 70
     1
102
RTVSPropertyOp28
 70
     1
102
RTVSPropertyOp29
 70
     1
102
RTVSPropertyOp30
 70
     1
102
RTVSPropertyOp31
 70
     1
102
RTVSPropertyOp32
 70
     1
102
RTVSPropertyOp33
 70
     1
102
RTVSPropertyOp34
 70
     1
102
RTVSPropertyOp35
 70
     1
102
RTVSPropertyOp36
 70
     1
102
RTVSPropertyOp37
 70
     1
102
RTVSPropertyOp38
 70
     1
102
RTVSPropertyOp39
 70
     1
102
RTVSPropertyOp40
 70
     1
102
RTVSPropertyOp41
 70
     1
102
RTVSPropertyOp42
 70
     1
102
RTVSPropertyOp43
 70
     1
102
RTVSPropertyOp44
 70
     1
102
RTVSPropertyOp45
 70
     1
102
RTVSPropertyOp46
 70
     1
102
RTVSPropertyOp47
 70
     1
102
RTVSPropertyOp48
 70
     1
102
RTVSPropertyOp49
 70
     1
102
RTVSPropertyOp50
 70
     1
102
RTVSPropertyOp51
 70
     0
102
RTVSPropertyOp52
 70
     0
102
RTVSPropertyOp53
 70
     1
102
RTVSPropertyOp54
 70
     1
102
RTVSPropertyOp55
 70
     1
102
RTVSPropertyOp56
 70
     1
102
RTVSPropertyOp57
 70
     1
102
RTVSPropertyOp58
 70
     1
102
RTVSPropertyOp59
 70
     1
102
RTVSPropertyOp60
 70
     1
102
RTVSPropertyOp61
 70
     1
102
RTVSPropertyOp62
 70
     1
  0
XRECORD
  5
B54E
102
{ACAD_REACTORS
330
B54D
102
}
330
B54D
100
AcDbXrecord
280
     1
102
RTVSPost2010Prop28
280
     0
102
RTVSPost2010PropOp28
 70
     1
102
RTVSPost2010Prop29
280
     1
102
RTVSPost2010PropOp29
 70
     1
102
RTVSPost2010Prop30
280
     1
102
RTVSPost2010PropOp30
 70
     1
102
RTVSPost2010Prop31
280
     0
102
RTVSPost2010PropOp31
 70
     1
102
RTVSPost2010Prop32
280
     0
102
RTVSPost2010PropOp32
 70
     1
102
RTVSPost2010Prop33
280
     0
102
RTVSPost2010PropOp33
 70
     1
102
RTVSPost2010Prop34
280
     0
102
RTVSPost2010PropOp34
 70
     1
102
RTVSPost2010Prop35
280
     0
102
RTVSPost2010PropOp35
 70
     1
102
RTVSPost2010Prop36
280
     0
102
RTVSPost2010PropOp36
 70
     1
102
RTVSPost2010Prop37
 90
       50
102
RTVSPost2010PropOp37
 70
     1
102
RTVSPost2010Prop38
140
0.0
102
RTVSPost2010PropOp38
 70
     1
102
RTVSPost2010Prop39
140
1.0
102
RTVSPost2010PropOp39
 70
     1
102
RTVSPost2010Prop40
 90
        0
102
RTVSPost2010PropOp40
 70
     1
102
RTVSPost2010Prop41ColorIndex
 90
       18
102
RTVSPost2010Prop41ColorRGB
 90
        0
102
RTVSPost2010PropOp41
 70
     1
102
RTVSPost2010Prop42
 90
       50
102
RTVSPost2010PropOp42
 70
     1
102
RTVSPost2010Prop43
 90
        3
102
RTVSPost2010PropOp43
 70
     1
102
RTVSPost2010Prop44ColorIndex
 90
        5
102
RTVSPost2010Prop44ColorRGB
 90
      255
102
RTVSPost2010PropOp44
 70
     1
102
RTVSPost2010Prop45
280
     0
102
RTVSPost2010PropOp45
 70
     1
102
RTVSPost2010Prop46
 90
       50
102
RTVSPost2010PropOp46
 70
     1
102
RTVSPost2010Prop47
 90
       50
102
RTVSPost2010PropOp47
 70
     1
102
RTVSPost2010Prop48
 90
       50
102
RTVSPost2010PropOp48
 70
     1
102
RTVSPost2010Prop49
280
     0
102
RTVSPost2010PropOp49
 70
     1
102
RTVSPost2010Prop50
 90
       50
102
RTVSPost2010PropOp50
 70
     1
102
RTVSPost2010Prop51ColorIndex
 90
      256
102
RTVSPost2010Prop51ColorRGB
 90
-16777216
102
RTVSPost2010PropOp51
 70
     0
102
RTVSPost2010Prop52
140
1.0
102
RTVSPost2010PropOp52
 70
     0
102
RTVSPost2010Prop53
 90
        2
102
RTVSPost2010PropOp53
 70
     1
102
RTVSPost2010Prop54
  1
strokes_ogs.tif
102
RTVSPost2010PropOp54
 70
     1
102
RTVSPost2010Prop55
280
     0
102
RTVSPost2010PropOp55
 70
     1
102
RTVSPost2010Prop56
140
1.0
102
RTVSPost2010PropOp56
 70
     1
102
RTVSPost2010Prop57
140
1.0
102
RTVSPost2010PropOp57
 70
     1
102
RTVSPropertyOp0
 70
     1
102
RTVSPropertyOp1
 70
     1
102
RTVSPropertyOp2
 70
     1
102
RTVSPropertyOp3
 70
     1
102
RTVSPropertyOp4
 70
     1
102
RTVSPropertyOp5
 70
     1
102
RTVSPropertyOp6
 70
     1
102
RTVSPropertyOp7
 70
     1
102
RTVSPropertyOp8
 70
     1
102
RTVSPropertyOp9
 70
     1
102
RTVSPropertyOp10
 70
     1
102
RTVSPropertyOp11
 70
     1
102
RTVSPropertyOp12
 70
     1
102
RTVSPropertyOp13
 70
     1
102
RTVSPropertyOp14
 70
     1
102
RTVSPropertyOp15
 70
     1
102
RTVSPropertyOp16
 70
     1
102
RTVSPropertyOp17
 70
     1
102
RTVSPropertyOp18
 70
     1
102
RTVSPropertyOp19
 70
     1
102
RTVSPropertyOp20
 70
     1
102
RTVSPropertyOp21
 70
     1
102
RTVSPropertyOp22
 70
     1
102
RTVSPropertyOp23
 70
     1
102
RTVSPropertyOp24
 70
     1
102
RTVSPropertyOp25
 70
     1
102
RTVSPropertyOp26
 70
     1
102
RTVSPropertyOp27
 70
     1
102
RTVSPropertyOp28
 70
     1
102
RTVSPropertyOp29
 70
     1
102
RTVSPropertyOp30
 70
     1
102
RTVSPropertyOp31
 70
     1
102
RTVSPropertyOp32
 70
     1
102
RTVSPropertyOp33
 70
     1
102
RTVSPropertyOp34
 70
     1
102
RTVSPropertyOp35
 70
     1
102
RTVSPropertyOp36
 70
     1
102
RTVSPropertyOp37
 70
     1
102
RTVSPropertyOp38
 70
     1
102
RTVSPropertyOp39
 70
     1
102
RTVSPropertyOp40
 70
     1
102
RTVSPropertyOp41
 70
     1
102
RTVSPropertyOp42
 70
     1
102
RTVSPropertyOp43
 70
     1
102
RTVSPropertyOp44
 70
     1
102
RTVSPropertyOp45
 70
     1
102
RTVSPropertyOp46
 70
     1
102
RTVSPropertyOp47
 70
     1
102
RTVSPropertyOp48
 70
     1
102
RTVSPropertyOp49
 70
     1
102
RTVSPropertyOp50
 70
     1
102
RTVSPropertyOp51
 70
     0
102
RTVSPropertyOp52
 70
     0
102
RTVSPropertyOp53
 70
     1
102
RTVSPropertyOp54
 70
     1
102
RTVSPropertyOp55
 70
     1
102
RTVSPropertyOp56
 70
     1
102
RTVSPropertyOp57
 70
     1
102
RTVSPropertyOp58
 70
     1
102
RTVSPropertyOp59
 70
     1
102
RTVSPropertyOp60
 70
     1
102
RTVSPropertyOp61
 70
     1
102
RTVSPropertyOp62
 70
     1
  0
XRECORD
  5
B54C
102
{ACAD_REACTORS
330
B54B
102
}
330
B54B
100
AcDbXrecord
280
     1
102
RTVSPost2010Prop28
280
     0
102
RTVSPost2010PropOp28
 70
     1
102
RTVSPost2010Prop29
280
     1
102
RTVSPost2010PropOp29
 70
     1
102
RTVSPost2010Prop30
280
     1
102
RTVSPost2010PropOp30
 70
     1
102
RTVSPost2010Prop31
280
     0
102
RTVSPost2010PropOp31
 70
     1
102
RTVSPost2010Prop32
280
     0
102
RTVSPost2010PropOp32
 70
     1
102
RTVSPost2010Prop33
280
     0
102
RTVSPost2010PropOp33
 70
     1
102
RTVSPost2010Prop34
280
     0
102
RTVSPost2010PropOp34
 70
     1
102
RTVSPost2010Prop35
280
     0
102
RTVSPost2010PropOp35
 70
     1
102
RTVSPost2010Prop36
280
     0
102
RTVSPost2010PropOp36
 70
     1
102
RTVSPost2010Prop37
 90
       50
102
RTVSPost2010PropOp37
 70
     1
102
RTVSPost2010Prop38
140
0.0
102
RTVSPost2010PropOp38
 70
     1
102
RTVSPost2010Prop39
140
1.0
102
RTVSPost2010PropOp39
 70
     1
102
RTVSPost2010Prop40
 90
        0
102
RTVSPost2010PropOp40
 70
     1
102
RTVSPost2010Prop41ColorIndex
 90
       18
102
RTVSPost2010Prop41ColorRGB
 90
        0
102
RTVSPost2010PropOp41
 70
     1
102
RTVSPost2010Prop42
 90
       50
102
RTVSPost2010PropOp42
 70
     1
102
RTVSPost2010Prop43
 90
        3
102
RTVSPost2010PropOp43
 70
     1
102
RTVSPost2010Prop44ColorIndex
 90
        5
102
RTVSPost2010Prop44ColorRGB
 90
      255
102
RTVSPost2010PropOp44
 70
     1
102
RTVSPost2010Prop45
280
     0
102
RTVSPost2010PropOp45
 70
     1
102
RTVSPost2010Prop46
 90
       50
102
RTVSPost2010PropOp46
 70
     1
102
RTVSPost2010Prop47
 90
       50
102
RTVSPost2010PropOp47
 70
     1
102
RTVSPost2010Prop48
 90
       50
102
RTVSPost2010PropOp48
 70
     1
102
RTVSPost2010Prop49
280
     0
102
RTVSPost2010PropOp49
 70
     1
102
RTVSPost2010Prop50
 90
       50
102
RTVSPost2010PropOp50
 70
     1
102
RTVSPost2010Prop51ColorIndex
 90
      256
102
RTVSPost2010Prop51ColorRGB
 90
-16777216
102
RTVSPost2010PropOp51
 70
     0
102
RTVSPost2010Prop52
140
1.0
102
RTVSPost2010PropOp52
 70
     0
102
RTVSPost2010Prop53
 90
        2
102
RTVSPost2010PropOp53
 70
     1
102
RTVSPost2010Prop54
  1
strokes_ogs.tif
102
RTVSPost2010PropOp54
 70
     1
102
RTVSPost2010Prop55
280
     0
102
RTVSPost2010PropOp55
 70
     1
102
RTVSPost2010Prop56
140
1.0
102
RTVSPost2010PropOp56
 70
     1
102
RTVSPost2010Prop57
140
1.0
102
RTVSPost2010PropOp57
 70
     1
102
RTVSPropertyOp0
 70
     1
102
RTVSPropertyOp1
 70
     1
102
RTVSPropertyOp2
 70
     1
102
RTVSPropertyOp3
 70
     1
102
RTVSPropertyOp4
 70
     1
102
RTVSPropertyOp5
 70
     1
102
RTVSPropertyOp6
 70
     1
102
RTVSPropertyOp7
 70
     1
102
RTVSPropertyOp8
 70
     1
102
RTVSPropertyOp9
 70
     1
102
RTVSPropertyOp10
 70
     1
102
RTVSPropertyOp11
 70
     1
102
RTVSPropertyOp12
 70
     1
102
RTVSPropertyOp13
 70
     1
102
RTVSPropertyOp14
 70
     1
102
RTVSPropertyOp15
 70
     1
102
RTVSPropertyOp16
 70
     1
102
RTVSPropertyOp17
 70
     1
102
RTVSPropertyOp18
 70
     1
102
RTVSPropertyOp19
 70
     1
102
RTVSPropertyOp20
 70
     1
102
RTVSPropertyOp21
 70
     1
102
RTVSPropertyOp22
 70
     1
102
RTVSPropertyOp23
 70
     1
102
RTVSPropertyOp24
 70
     1
102
RTVSPropertyOp25
 70
     1
102
RTVSPropertyOp26
 70
     1
102
RTVSPropertyOp27
 70
     1
102
RTVSPropertyOp28
 70
     1
102
RTVSPropertyOp29
 70
     1
102
RTVSPropertyOp30
 70
     1
102
RTVSPropertyOp31
 70
     1
102
RTVSPropertyOp32
 70
     1
102
RTVSPropertyOp33
 70
     1
102
RTVSPropertyOp34
 70
     1
102
RTVSPropertyOp35
 70
     1
102
RTVSPropertyOp36
 70
     1
102
RTVSPropertyOp37
 70
     1
102
RTVSPropertyOp38
 70
     1
102
RTVSPropertyOp39
 70
     1
102
RTVSPropertyOp40
 70
     1
102
RTVSPropertyOp41
 70
     1
102
RTVSPropertyOp42
 70
     1
102
RTVSPropertyOp43
 70
     1
102
RTVSPropertyOp44
 70
     1
102
RTVSPropertyOp45
 70
     1
102
RTVSPropertyOp46
 70
     1
102
RTVSPropertyOp47
 70
     1
102
RTVSPropertyOp48
 70
     1
102
RTVSPropertyOp49
 70
     1
102
RTVSPropertyOp50
 70
     1
102
RTVSPropertyOp51
 70
     0
102
RTVSPropertyOp52
 70
     0
102
RTVSPropertyOp53
 70
     1
102
RTVSPropertyOp54
 70
     1
102
RTVSPropertyOp55
 70
     1
102
RTVSPropertyOp56
 70
     1
102
RTVSPropertyOp57
 70
     1
102
RTVSPropertyOp58
 70
     1
102
RTVSPropertyOp59
 70
     1
102
RTVSPropertyOp60
 70
     1
102
RTVSPropertyOp61
 70
     1
102
RTVSPropertyOp62
 70
     1
  0
XRECORD
  5
B546
102
{ACAD_REACTORS
330
B545
102
}
330
B545
100
AcDbXrecord
280
     1
102
RTVSPost2010Prop28
280
     0
102
RTVSPost2010PropOp28
 70
     1
102
RTVSPost2010Prop29
280
     1
102
RTVSPost2010PropOp29
 70
     1
102
RTVSPost2010Prop30
280
     1
102
RTVSPost2010PropOp30
 70
     1
102
RTVSPost2010Prop31
280
     0
102
RTVSPost2010PropOp31
 70
     1
102
RTVSPost2010Prop32
280
     0
102
RTVSPost2010PropOp32
 70
     1
102
RTVSPost2010Prop33
280
     0
102
RTVSPost2010PropOp33
 70
     1
102
RTVSPost2010Prop34
280
     0
102
RTVSPost2010PropOp34
 70
     1
102
RTVSPost2010Prop35
280
     0
102
RTVSPost2010PropOp35
 70
     1
102
RTVSPost2010Prop36
280
     0
102
RTVSPost2010PropOp36
 70
     1
102
RTVSPost2010Prop37
 90
       50
102
RTVSPost2010PropOp37
 70
     1
102
RTVSPost2010Prop38
140
0.0
102
RTVSPost2010PropOp38
 70
     1
102
RTVSPost2010Prop39
140
1.0
102
RTVSPost2010PropOp39
 70
     1
102
RTVSPost2010Prop40
 90
        0
102
RTVSPost2010PropOp40
 70
     1
102
RTVSPost2010Prop41ColorIndex
 90
       18
102
RTVSPost2010Prop41ColorRGB
 90
        0
102
RTVSPost2010PropOp41
 70
     1
102
RTVSPost2010Prop42
 90
       50
102
RTVSPost2010PropOp42
 70
     1
102
RTVSPost2010Prop43
 90
        3
102
RTVSPost2010PropOp43
 70
     1
102
RTVSPost2010Prop44ColorIndex
 90
        5
102
RTVSPost2010Prop44ColorRGB
 90
      255
102
RTVSPost2010PropOp44
 70
     1
102
RTVSPost2010Prop45
280
     0
102
RTVSPost2010PropOp45
 70
     1
102
RTVSPost2010Prop46
 90
       50
102
RTVSPost2010PropOp46
 70
     1
102
RTVSPost2010Prop47
 90
       50
102
RTVSPost2010PropOp47
 70
     1
102
RTVSPost2010Prop48
 90
       50
102
RTVSPost2010PropOp48
 70
     1
102
RTVSPost2010Prop49
280
     0
102
RTVSPost2010PropOp49
 70
     1
102
RTVSPost2010Prop50
 90
       50
102
RTVSPost2010PropOp50
 70
     1
102
RTVSPost2010Prop51ColorIndex
 90
      256
102
RTVSPost2010Prop51ColorRGB
 90
-16777216
102
RTVSPost2010PropOp51
 70
     0
102
RTVSPost2010Prop52
140
1.0
102
RTVSPost2010PropOp52
 70
     0
102
RTVSPost2010Prop53
 90
        2
102
RTVSPost2010PropOp53
 70
     1
102
RTVSPost2010Prop54
  1
strokes_ogs.tif
102
RTVSPost2010PropOp54
 70
     1
102
RTVSPost2010Prop55
280
     0
102
RTVSPost2010PropOp55
 70
     1
102
RTVSPost2010Prop56
140
1.0
102
RTVSPost2010PropOp56
 70
     1
102
RTVSPost2010Prop57
140
1.0
102
RTVSPost2010PropOp57
 70
     1
102
RTVSPropertyOp0
 70
     1
102
RTVSPropertyOp1
 70
     1
102
RTVSPropertyOp2
 70
     1
102
RTVSPropertyOp3
 70
     1
102
RTVSPropertyOp4
 70
     1
102
RTVSPropertyOp5
 70
     1
102
RTVSPropertyOp6
 70
     1
102
RTVSPropertyOp7
 70
     1
102
RTVSPropertyOp8
 70
     1
102
RTVSPropertyOp9
 70
     1
102
RTVSPropertyOp10
 70
     1
102
RTVSPropertyOp11
 70
     1
102
RTVSPropertyOp12
 70
     1
102
RTVSPropertyOp13
 70
     1
102
RTVSPropertyOp14
 70
     1
102
RTVSPropertyOp15
 70
     1
102
RTVSPropertyOp16
 70
     1
102
RTVSPropertyOp17
 70
     1
102
RTVSPropertyOp18
 70
     1
102
RTVSPropertyOp19
 70
     1
102
RTVSPropertyOp20
 70
     1
102
RTVSPropertyOp21
 70
     1
102
RTVSPropertyOp22
 70
     1
102
RTVSPropertyOp23
 70
     1
102
RTVSPropertyOp24
 70
     1
102
RTVSPropertyOp25
 70
     1
102
RTVSPropertyOp26
 70
     1
102
RTVSPropertyOp27
 70
     1
102
RTVSPropertyOp28
 70
     1
102
RTVSPropertyOp29
 70
     1
102
RTVSPropertyOp30
 70
     1
102
RTVSPropertyOp31
 70
     1
102
RTVSPropertyOp32
 70
     1
102
RTVSPropertyOp33
 70
     1
102
RTVSPropertyOp34
 70
     1
102
RTVSPropertyOp35
 70
     1
102
RTVSPropertyOp36
 70
     1
102
RTVSPropertyOp37
 70
     1
102
RTVSPropertyOp38
 70
     1
102
RTVSPropertyOp39
 70
     1
102
RTVSPropertyOp40
 70
     1
102
RTVSPropertyOp41
 70
     1
102
RTVSPropertyOp42
 70
     1
102
RTVSPropertyOp43
 70
     1
102
RTVSPropertyOp44
 70
     1
102
RTVSPropertyOp45
 70
     1
102
RTVSPropertyOp46
 70
     1
102
RTVSPropertyOp47
 70
     1
102
RTVSPropertyOp48
 70
     1
102
RTVSPropertyOp49
 70
     1
102
RTVSPropertyOp50
 70
     1
102
RTVSPropertyOp51
 70
     0
102
RTVSPropertyOp52
 70
     0
102
RTVSPropertyOp53
 70
     1
102
RTVSPropertyOp54
 70
     1
102
RTVSPropertyOp55
 70
     1
102
RTVSPropertyOp56
 70
     1
102
RTVSPropertyOp57
 70
     1
102
RTVSPropertyOp58
 70
     1
102
RTVSPropertyOp59
 70
     1
102
RTVSPropertyOp60
 70
     1
102
RTVSPropertyOp61
 70
     1
102
RTVSPropertyOp62
 70
     1
  0
XRECORD
  5
B548
102
{ACAD_REACTORS
330
B547
102
}
330
B547
100
AcDbXrecord
280
     1
102
RTVSPost2010Prop28
280
     0
102
RTVSPost2010PropOp28
 70
     1
102
RTVSPost2010Prop29
280
     1
102
RTVSPost2010PropOp29
 70
     1
102
RTVSPost2010Prop30
280
     1
102
RTVSPost2010PropOp30
 70
     1
102
RTVSPost2010Prop31
280
     0
102
RTVSPost2010PropOp31
 70
     1
102
RTVSPost2010Prop32
280
     0
102
RTVSPost2010PropOp32
 70
     1
102
RTVSPost2010Prop33
280
     0
102
RTVSPost2010PropOp33
 70
     1
102
RTVSPost2010Prop34
280
     0
102
RTVSPost2010PropOp34
 70
     1
102
RTVSPost2010Prop35
280
     0
102
RTVSPost2010PropOp35
 70
     1
102
RTVSPost2010Prop36
280
     0
102
RTVSPost2010PropOp36
 70
     1
102
RTVSPost2010Prop37
 90
       50
102
RTVSPost2010PropOp37
 70
     1
102
RTVSPost2010Prop38
140
0.0
102
RTVSPost2010PropOp38
 70
     1
102
RTVSPost2010Prop39
140
1.0
102
RTVSPost2010PropOp39
 70
     1
102
RTVSPost2010Prop40
 90
        0
102
RTVSPost2010PropOp40
 70
     1
102
RTVSPost2010Prop41ColorIndex
 90
       18
102
RTVSPost2010Prop41ColorRGB
 90
        0
102
RTVSPost2010PropOp41
 70
     1
102
RTVSPost2010Prop42
 90
       50
102
RTVSPost2010PropOp42
 70
     1
102
RTVSPost2010Prop43
 90
        3
102
RTVSPost2010PropOp43
 70
     1
102
RTVSPost2010Prop44ColorIndex
 90
        5
102
RTVSPost2010Prop44ColorRGB
 90
      255
102
RTVSPost2010PropOp44
 70
     1
102
RTVSPost2010Prop45
280
     0
102
RTVSPost2010PropOp45
 70
     1
102
RTVSPost2010Prop46
 90
       50
102
RTVSPost2010PropOp46
 70
     1
102
RTVSPost2010Prop47
 90
       50
102
RTVSPost2010PropOp47
 70
     1
102
RTVSPost2010Prop48
 90
       50
102
RTVSPost2010PropOp48
 70
     1
102
RTVSPost2010Prop49
280
     0
102
RTVSPost2010PropOp49
 70
     1
102
RTVSPost2010Prop50
 90
       50
102
RTVSPost2010PropOp50
 70
     1
102
RTVSPost2010Prop51ColorIndex
 90
      256
102
RTVSPost2010Prop51ColorRGB
 90
-16777216
102
RTVSPost2010PropOp51
 70
     0
102
RTVSPost2010Prop52
140
1.0
102
RTVSPost2010PropOp52
 70
     0
102
RTVSPost2010Prop53
 90
        2
102
RTVSPost2010PropOp53
 70
     1
102
RTVSPost2010Prop54
  1
strokes_ogs.tif
102
RTVSPost2010PropOp54
 70
     1
102
RTVSPost2010Prop55
280
     0
102
RTVSPost2010PropOp55
 70
     1
102
RTVSPost2010Prop56
140
1.0
102
RTVSPost2010PropOp56
 70
     1
102
RTVSPost2010Prop57
140
1.0
102
RTVSPost2010PropOp57
 70
     1
102
RTVSPropertyOp0
 70
     1
102
RTVSPropertyOp1
 70
     1
102
RTVSPropertyOp2
 70
     1
102
RTVSPropertyOp3
 70
     1
102
RTVSPropertyOp4
 70
     1
102
RTVSPropertyOp5
 70
     1
102
RTVSPropertyOp6
 70
     1
102
RTVSPropertyOp7
 70
     1
102
RTVSPropertyOp8
 70
     1
102
RTVSPropertyOp9
 70
     1
102
RTVSPropertyOp10
 70
     1
102
RTVSPropertyOp11
 70
     1
102
RTVSPropertyOp12
 70
     1
102
RTVSPropertyOp13
 70
     1
102
RTVSPropertyOp14
 70
     1
102
RTVSPropertyOp15
 70
     1
102
RTVSPropertyOp16
 70
     1
102
RTVSPropertyOp17
 70
     1
102
RTVSPropertyOp18
 70
     1
102
RTVSPropertyOp19
 70
     1
102
RTVSPropertyOp20
 70
     1
102
RTVSPropertyOp21
 70
     1
102
RTVSPropertyOp22
 70
     1
102
RTVSPropertyOp23
 70
     1
102
RTVSPropertyOp24
 70
     1
102
RTVSPropertyOp25
 70
     1
102
RTVSPropertyOp26
 70
     1
102
RTVSPropertyOp27
 70
     1
102
RTVSPropertyOp28
 70
     1
102
RTVSPropertyOp29
 70
     1
102
RTVSPropertyOp30
 70
     1
102
RTVSPropertyOp31
 70
     1
102
RTVSPropertyOp32
 70
     1
102
RTVSPropertyOp33
 70
     1
102
RTVSPropertyOp34
 70
     1
102
RTVSPropertyOp35
 70
     1
102
RTVSPropertyOp36
 70
     1
102
RTVSPropertyOp37
 70
     1
102
RTVSPropertyOp38
 70
     1
102
RTVSPropertyOp39
 70
     1
102
RTVSPropertyOp40
 70
     1
102
RTVSPropertyOp41
 70
     1
102
RTVSPropertyOp42
 70
     1
102
RTVSPropertyOp43
 70
     1
102
RTVSPropertyOp44
 70
     1
102
RTVSPropertyOp45
 70
     1
102
RTVSPropertyOp46
 70
     1
102
RTVSPropertyOp47
 70
     1
102
RTVSPropertyOp48
 70
     1
102
RTVSPropertyOp49
 70
     1
102
RTVSPropertyOp50
 70
     1
102
RTVSPropertyOp51
 70
     0
102
RTVSPropertyOp52
 70
     0
102
RTVSPropertyOp53
 70
     1
102
RTVSPropertyOp54
 70
     1
102
RTVSPropertyOp55
 70
     1
102
RTVSPropertyOp56
 70
     1
102
RTVSPropertyOp57
 70
     1
102
RTVSPropertyOp58
 70
     1
102
RTVSPropertyOp59
 70
     1
102
RTVSPropertyOp60
 70
     1
102
RTVSPropertyOp61
 70
     1
102
RTVSPropertyOp62
 70
     1
  0
XRECORD
  5
B536
102
{ACAD_REACTORS
330
B535
102
}
330
B535
100
AcDbXrecord
280
     1
102
RTVSPost2010Prop28
280
     0
102
RTVSPost2010PropOp28
 70
     1
102
RTVSPost2010Prop29
280
     1
102
RTVSPost2010PropOp29
 70
     1
102
RTVSPost2010Prop30
280
     1
102
RTVSPost2010PropOp30
 70
     1
102
RTVSPost2010Prop31
280
     0
102
RTVSPost2010PropOp31
 70
     1
102
RTVSPost2010Prop32
280
     0
102
RTVSPost2010PropOp32
 70
     1
102
RTVSPost2010Prop33
280
     0
102
RTVSPost2010PropOp33
 70
     1
102
RTVSPost2010Prop34
280
     0
102
RTVSPost2010PropOp34
 70
     1
102
RTVSPost2010Prop35
280
     0
102
RTVSPost2010PropOp35
 70
     1
102
RTVSPost2010Prop36
280
     0
102
RTVSPost2010PropOp36
 70
     1
102
RTVSPost2010Prop37
 90
       50
102
RTVSPost2010PropOp37
 70
     1
102
RTVSPost2010Prop38
140
0.0
102
RTVSPost2010PropOp38
 70
     1
102
RTVSPost2010Prop39
140
1.0
102
RTVSPost2010PropOp39
 70
     1
102
RTVSPost2010Prop40
 90
        0
102
RTVSPost2010PropOp40
 70
     1
102
RTVSPost2010Prop41ColorIndex
 90
       18
102
RTVSPost2010Prop41ColorRGB
 90
        0
102
RTVSPost2010PropOp41
 70
     1
102
RTVSPost2010Prop42
 90
       50
102
RTVSPost2010PropOp42
 70
     1
102
RTVSPost2010Prop43
 90
        3
102
RTVSPost2010PropOp43
 70
     1
102
RTVSPost2010Prop44ColorIndex
 90
        5
102
RTVSPost2010Prop44ColorRGB
 90
      255
102
RTVSPost2010PropOp44
 70
     1
102
RTVSPost2010Prop45
280
     0
102
RTVSPost2010PropOp45
 70
     1
102
RTVSPost2010Prop46
 90
       50
102
RTVSPost2010PropOp46
 70
     1
102
RTVSPost2010Prop47
 90
       50
102
RTVSPost2010PropOp47
 70
     1
102
RTVSPost2010Prop48
 90
       50
102
RTVSPost2010PropOp48
 70
     1
102
RTVSPost2010Prop49
280
     0
102
RTVSPost2010PropOp49
 70
     1
102
RTVSPost2010Prop50
 90
       50
102
RTVSPost2010PropOp50
 70
     1
102
RTVSPost2010Prop51ColorIndex
 90
      256
102
RTVSPost2010Prop51ColorRGB
 90
-16777216
102
RTVSPost2010PropOp51
 70
     0
102
RTVSPost2010Prop52
140
1.0
102
RTVSPost2010PropOp52
 70
     0
102
RTVSPost2010Prop53
 90
        2
102
RTVSPost2010PropOp53
 70
     1
102
RTVSPost2010Prop54
  1
strokes_ogs.tif
102
RTVSPost2010PropOp54
 70
     1
102
RTVSPost2010Prop55
280
     0
102
RTVSPost2010PropOp55
 70
     1
102
RTVSPost2010Prop56
140
1.0
102
RTVSPost2010PropOp56
 70
     1
102
RTVSPost2010Prop57
140
1.0
102
RTVSPost2010PropOp57
 70
     1
102
RTVSPropertyOp0
 70
     1
102
RTVSPropertyOp1
 70
     1
102
RTVSPropertyOp2
 70
     1
102
RTVSPropertyOp3
 70
     1
102
RTVSPropertyOp4
 70
     1
102
RTVSPropertyOp5
 70
     1
102
RTVSPropertyOp6
 70
     1
102
RTVSPropertyOp7
 70
     1
102
RTVSPropertyOp8
 70
     1
102
RTVSPropertyOp9
 70
     1
102
RTVSPropertyOp10
 70
     1
102
RTVSPropertyOp11
 70
     1
102
RTVSPropertyOp12
 70
     1
102
RTVSPropertyOp13
 70
     1
102
RTVSPropertyOp14
 70
     1
102
RTVSPropertyOp15
 70
     1
102
RTVSPropertyOp16
 70
     1
102
RTVSPropertyOp17
 70
     1
102
RTVSPropertyOp18
 70
     1
102
RTVSPropertyOp19
 70
     1
102
RTVSPropertyOp20
 70
     1
102
RTVSPropertyOp21
 70
     1
102
RTVSPropertyOp22
 70
     1
102
RTVSPropertyOp23
 70
     1
102
RTVSPropertyOp24
 70
     1
102
RTVSPropertyOp25
 70
     1
102
RTVSPropertyOp26
 70
     1
102
RTVSPropertyOp27
 70
     1
102
RTVSPropertyOp28
 70
     1
102
RTVSPropertyOp29
 70
     1
102
RTVSPropertyOp30
 70
     1
102
RTVSPropertyOp31
 70
     1
102
RTVSPropertyOp32
 70
     1
102
RTVSPropertyOp33
 70
     1
102
RTVSPropertyOp34
 70
     1
102
RTVSPropertyOp35
 70
     1
102
RTVSPropertyOp36
 70
     1
102
RTVSPropertyOp37
 70
     1
102
RTVSPropertyOp38
 70
     1
102
RTVSPropertyOp39
 70
     1
102
RTVSPropertyOp40
 70
     1
102
RTVSPropertyOp41
 70
     1
102
RTVSPropertyOp42
 70
     1
102
RTVSPropertyOp43
 70
     1
102
RTVSPropertyOp44
 70
     1
102
RTVSPropertyOp45
 70
     1
102
RTVSPropertyOp46
 70
     1
102
RTVSPropertyOp47
 70
     1
102
RTVSPropertyOp48
 70
     1
102
RTVSPropertyOp49
 70
     1
102
RTVSPropertyOp50
 70
     1
102
RTVSPropertyOp51
 70
     0
102
RTVSPropertyOp52
 70
     0
102
RTVSPropertyOp53
 70
     1
102
RTVSPropertyOp54
 70
     1
102
RTVSPropertyOp55
 70
     1
102
RTVSPropertyOp56
 70
     1
102
RTVSPropertyOp57
 70
     1
102
RTVSPropertyOp58
 70
     1
102
RTVSPropertyOp59
 70
     1
102
RTVSPropertyOp60
 70
     1
102
RTVSPropertyOp61
 70
     1
102
RTVSPropertyOp62
 70
     1
  0
XRECORD
  5
B52A
102
{ACAD_REACTORS
330
B529
102
}
330
B529
100
AcDbXrecord
280
     1
102
RTVSPost2010Prop28
280
     0
102
RTVSPost2010PropOp28
 70
     1
102
RTVSPost2010Prop29
280
     1
102
RTVSPost2010PropOp29
 70
     1
102
RTVSPost2010Prop30
280
     1
102
RTVSPost2010PropOp30
 70
     1
102
RTVSPost2010Prop31
280
     0
102
RTVSPost2010PropOp31
 70
     1
102
RTVSPost2010Prop32
280
     0
102
RTVSPost2010PropOp32
 70
     1
102
RTVSPost2010Prop33
280
     0
102
RTVSPost2010PropOp33
 70
     1
102
RTVSPost2010Prop34
280
     0
102
RTVSPost2010PropOp34
 70
     1
102
RTVSPost2010Prop35
280
     0
102
RTVSPost2010PropOp35
 70
     1
102
RTVSPost2010Prop36
280
     0
102
RTVSPost2010PropOp36
 70
     1
102
RTVSPost2010Prop37
 90
       50
102
RTVSPost2010PropOp37
 70
     1
102
RTVSPost2010Prop38
140
0.0
102
RTVSPost2010PropOp38
 70
     1
102
RTVSPost2010Prop39
140
1.0
102
RTVSPost2010PropOp39
 70
     1
102
RTVSPost2010Prop40
 90
        0
102
RTVSPost2010PropOp40
 70
     1
102
RTVSPost2010Prop41ColorIndex
 90
       18
102
RTVSPost2010Prop41ColorRGB
 90
        0
102
RTVSPost2010PropOp41
 70
     1
102
RTVSPost2010Prop42
 90
       50
102
RTVSPost2010PropOp42
 70
     1
102
RTVSPost2010Prop43
 90
        3
102
RTVSPost2010PropOp43
 70
     1
102
RTVSPost2010Prop44ColorIndex
 90
        5
102
RTVSPost2010Prop44ColorRGB
 90
      255
102
RTVSPost2010PropOp44
 70
     1
102
RTVSPost2010Prop45
280
     0
102
RTVSPost2010PropOp45
 70
     1
102
RTVSPost2010Prop46
 90
       50
102
RTVSPost2010PropOp46
 70
     1
102
RTVSPost2010Prop47
 90
       50
102
RTVSPost2010PropOp47
 70
     1
102
RTVSPost2010Prop48
 90
       50
102
RTVSPost2010PropOp48
 70
     1
102
RTVSPost2010Prop49
280
     0
102
RTVSPost2010PropOp49
 70
     1
102
RTVSPost2010Prop50
 90
       50
102
RTVSPost2010PropOp50
 70
     1
102
RTVSPost2010Prop51ColorIndex
 90
      256
102
RTVSPost2010Prop51ColorRGB
 90
-16777216
102
RTVSPost2010PropOp51
 70
     0
102
RTVSPost2010Prop52
140
1.0
102
RTVSPost2010PropOp52
 70
     0
102
RTVSPost2010Prop53
 90
        2
102
RTVSPost2010PropOp53
 70
     1
102
RTVSPost2010Prop54
  1
strokes_ogs.tif
102
RTVSPost2010PropOp54
 70
     1
102
RTVSPost2010Prop55
280
     0
102
RTVSPost2010PropOp55
 70
     1
102
RTVSPost2010Prop56
140
1.0
102
RTVSPost2010PropOp56
 70
     1
102
RTVSPost2010Prop57
140
1.0
102
RTVSPost2010PropOp57
 70
     1
102
RTVSPropertyOp0
 70
     1
102
RTVSPropertyOp1
 70
     1
102
RTVSPropertyOp2
 70
     1
102
RTVSPropertyOp3
 70
     1
102
RTVSPropertyOp4
 70
     1
102
RTVSPropertyOp5
 70
     1
102
RTVSPropertyOp6
 70
     1
102
RTVSPropertyOp7
 70
     1
102
RTVSPropertyOp8
 70
     1
102
RTVSPropertyOp9
 70
     1
102
RTVSPropertyOp10
 70
     1
102
RTVSPropertyOp11
 70
     1
102
RTVSPropertyOp12
 70
     1
102
RTVSPropertyOp13
 70
     1
102
RTVSPropertyOp14
 70
     1
102
RTVSPropertyOp15
 70
     1
102
RTVSPropertyOp16
 70
     1
102
RTVSPropertyOp17
 70
     1
102
RTVSPropertyOp18
 70
     1
102
RTVSPropertyOp19
 70
     1
102
RTVSPropertyOp20
 70
     1
102
RTVSPropertyOp21
 70
     1
102
RTVSPropertyOp22
 70
     1
102
RTVSPropertyOp23
 70
     1
102
RTVSPropertyOp24
 70
     1
102
RTVSPropertyOp25
 70
     1
102
RTVSPropertyOp26
 70
     1
102
RTVSPropertyOp27
 70
     1
102
RTVSPropertyOp28
 70
     1
102
RTVSPropertyOp29
 70
     1
102
RTVSPropertyOp30
 70
     1
102
RTVSPropertyOp31
 70
     1
102
RTVSPropertyOp32
 70
     1
102
RTVSPropertyOp33
 70
     1
102
RTVSPropertyOp34
 70
     1
102
RTVSPropertyOp35
 70
     1
102
RTVSPropertyOp36
 70
     1
102
RTVSPropertyOp37
 70
     1
102
RTVSPropertyOp38
 70
     1
102
RTVSPropertyOp39
 70
     1
102
RTVSPropertyOp40
 70
     1
102
RTVSPropertyOp41
 70
     1
102
RTVSPropertyOp42
 70
     1
102
RTVSPropertyOp43
 70
     1
102
RTVSPropertyOp44
 70
     1
102
RTVSPropertyOp45
 70
     1
102
RTVSPropertyOp46
 70
     1
102
RTVSPropertyOp47
 70
     1
102
RTVSPropertyOp48
 70
     1
102
RTVSPropertyOp49
 70
     1
102
RTVSPropertyOp50
 70
     1
102
RTVSPropertyOp51
 70
     0
102
RTVSPropertyOp52
 70
     0
102
RTVSPropertyOp53
 70
     1
102
RTVSPropertyOp54
 70
     1
102
RTVSPropertyOp55
 70
     1
102
RTVSPropertyOp56
 70
     1
102
RTVSPropertyOp57
 70
     1
102
RTVSPropertyOp58
 70
     1
102
RTVSPropertyOp59
 70
     1
102
RTVSPropertyOp60
 70
     1
102
RTVSPropertyOp61
 70
     1
102
RTVSPropertyOp62
 70
     1
  0
XRECORD
  5
B54A
102
{ACAD_REACTORS
330
B549
102
}
330
B549
100
AcDbXrecord
280
     1
102
RTVSPost2010Prop28
280
     0
102
RTVSPost2010PropOp28
 70
     1
102
RTVSPost2010Prop29
280
     1
102
RTVSPost2010PropOp29
 70
     1
102
RTVSPost2010Prop30
280
     1
102
RTVSPost2010PropOp30
 70
     1
102
RTVSPost2010Prop31
280
     0
102
RTVSPost2010PropOp31
 70
     1
102
RTVSPost2010Prop32
280
     0
102
RTVSPost2010PropOp32
 70
     1
102
RTVSPost2010Prop33
280
     0
102
RTVSPost2010PropOp33
 70
     1
102
RTVSPost2010Prop34
280
     0
102
RTVSPost2010PropOp34
 70
     1
102
RTVSPost2010Prop35
280
     0
102
RTVSPost2010PropOp35
 70
     1
102
RTVSPost2010Prop36
280
     0
102
RTVSPost2010PropOp36
 70
     1
102
RTVSPost2010Prop37
 90
       50
102
RTVSPost2010PropOp37
 70
     1
102
RTVSPost2010Prop38
140
0.0
102
RTVSPost2010PropOp38
 70
     1
102
RTVSPost2010Prop39
140
1.0
102
RTVSPost2010PropOp39
 70
     1
102
RTVSPost2010Prop40
 90
        0
102
RTVSPost2010PropOp40
 70
     1
102
RTVSPost2010Prop41ColorIndex
 90
       18
102
RTVSPost2010Prop41ColorRGB
 90
        0
102
RTVSPost2010PropOp41
 70
     1
102
RTVSPost2010Prop42
 90
       50
102
RTVSPost2010PropOp42
 70
     1
102
RTVSPost2010Prop43
 90
        3
102
RTVSPost2010PropOp43
 70
     1
102
RTVSPost2010Prop44ColorIndex
 90
        5
102
RTVSPost2010Prop44ColorRGB
 90
      255
102
RTVSPost2010PropOp44
 70
     1
102
RTVSPost2010Prop45
280
     0
102
RTVSPost2010PropOp45
 70
     1
102
RTVSPost2010Prop46
 90
       50
102
RTVSPost2010PropOp46
 70
     1
102
RTVSPost2010Prop47
 90
       50
102
RTVSPost2010PropOp47
 70
     1
102
RTVSPost2010Prop48
 90
       50
102
RTVSPost2010PropOp48
 70
     1
102
RTVSPost2010Prop49
280
     0
102
RTVSPost2010PropOp49
 70
     1
102
RTVSPost2010Prop50
 90
       50
102
RTVSPost2010PropOp50
 70
     1
102
RTVSPost2010Prop51ColorIndex
 90
      256
102
RTVSPost2010Prop51ColorRGB
 90
-16777216
102
RTVSPost2010PropOp51
 70
     0
102
RTVSPost2010Prop52
140
1.0
102
RTVSPost2010PropOp52
 70
     0
102
RTVSPost2010Prop53
 90
        2
102
RTVSPost2010PropOp53
 70
     1
102
RTVSPost2010Prop54
  1
strokes_ogs.tif
102
RTVSPost2010PropOp54
 70
     1
102
RTVSPost2010Prop55
280
     0
102
RTVSPost2010PropOp55
 70
     1
102
RTVSPost2010Prop56
140
1.0
102
RTVSPost2010PropOp56
 70
     1
102
RTVSPost2010Prop57
140
1.0
102
RTVSPost2010PropOp57
 70
     1
102
RTVSPropertyOp0
 70
     1
102
RTVSPropertyOp1
 70
     1
102
RTVSPropertyOp2
 70
     1
102
RTVSPropertyOp3
 70
     1
102
RTVSPropertyOp4
 70
     1
102
RTVSPropertyOp5
 70
     1
102
RTVSPropertyOp6
 70
     1
102
RTVSPropertyOp7
 70
     1
102
RTVSPropertyOp8
 70
     1
102
RTVSPropertyOp9
 70
     1
102
RTVSPropertyOp10
 70
     1
102
RTVSPropertyOp11
 70
     1
102
RTVSPropertyOp12
 70
     1
102
RTVSPropertyOp13
 70
     1
102
RTVSPropertyOp14
 70
     1
102
RTVSPropertyOp15
 70
     1
102
RTVSPropertyOp16
 70
     1
102
RTVSPropertyOp17
 70
     1
102
RTVSPropertyOp18
 70
     1
102
RTVSPropertyOp19
 70
     1
102
RTVSPropertyOp20
 70
     1
102
RTVSPropertyOp21
 70
     1
102
RTVSPropertyOp22
 70
     1
102
RTVSPropertyOp23
 70
     1
102
RTVSPropertyOp24
 70
     1
102
RTVSPropertyOp25
 70
     1
102
RTVSPropertyOp26
 70
     1
102
RTVSPropertyOp27
 70
     1
102
RTVSPropertyOp28
 70
     1
102
RTVSPropertyOp29
 70
     1
102
RTVSPropertyOp30
 70
     1
102
RTVSPropertyOp31
 70
     1
102
RTVSPropertyOp32
 70
     1
102
RTVSPropertyOp33
 70
     1
102
RTVSPropertyOp34
 70
     1
102
RTVSPropertyOp35
 70
     1
102
RTVSPropertyOp36
 70
     1
102
RTVSPropertyOp37
 70
     1
102
RTVSPropertyOp38
 70
     1
102
RTVSPropertyOp39
 70
     1
102
RTVSPropertyOp40
 70
     1
102
RTVSPropertyOp41
 70
     1
102
RTVSPropertyOp42
 70
     1
102
RTVSPropertyOp43
 70
     1
102
RTVSPropertyOp44
 70
     1
102
RTVSPropertyOp45
 70
     1
102
RTVSPropertyOp46
 70
     1
102
RTVSPropertyOp47
 70
     1
102
RTVSPropertyOp48
 70
     1
102
RTVSPropertyOp49
 70
     1
102
RTVSPropertyOp50
 70
     1
102
RTVSPropertyOp51
 70
     0
102
RTVSPropertyOp52
 70
     0
102
RTVSPropertyOp53
 70
     1
102
RTVSPropertyOp54
 70
     1
102
RTVSPropertyOp55
 70
     1
102
RTVSPropertyOp56
 70
     1
102
RTVSPropertyOp57
 70
     1
102
RTVSPropertyOp58
 70
     1
102
RTVSPropertyOp59
 70
     1
102
RTVSPropertyOp60
 70
     1
102
RTVSPropertyOp61
 70
     1
102
RTVSPropertyOp62
 70
     1
  0
ENDSEC
  0
EOF
