  0
SECTION
  2
HEADER
  9
$ACADVER
  1
AC1015
  9
$ACADMAINTVER
 70
    18
  9
$DWGCODEPAGE
  3
ANSI_1252
  9
$INSBASE
 10
0.0
 20
0.0
 30
0.0
  9
$EXTMIN
 10
-261.4553826272667
 20
-413.4960019871313
 30
-0.0015258207003583
  9
$EXTMAX
 10
353.3944711151935
 20
359.5713966383731
 30
0.0000000349246037
  9
$LIMMIN
 10
0.0
 20
0.0
  9
$LIMMAX
 10
420.0
 20
297.0
  9
$ORTHOMODE
 70
     0
  9
$REGENMODE
 70
     1
  9
$FILLMODE
 70
     1
  9
$QTEXTMODE
 70
     0
  9
$MIRRTEXT
 70
     0
  9
$LTSCALE
 40
1.0
  9
$ATTMODE
 70
     1
  9
$TEXTSIZE
 40
2.5
  9
$TRACEWID
 40
1.0
  9
$TEXTSTYLE
  7
Standard
  9
$CLAYER
  8
0
  9
$CELTYPE
  6
ByLayer
  9
$CECOLOR
 62
   256
  9
$CELTSCALE
 40
1.0
  9
$DISPSILH
 70
     0
  9
$DIMSCALE
 40
1.0
  9
$DIMASZ
 40
2.5
  9
$DIMEXO
 40
0.625
  9
$DIMDLI
 40
3.75
  9
$DIMRND
 40
0.0
  9
$DIMDLE
 40
0.0
  9
$DIMEXE
 40
1.25
  9
$DIMTP
 40
0.0
  9
$DIMTM
 40
0.0
  9
$DIMTXT
 40
2.5
  9
$DIMCEN
 40
2.5
  9
$DIMTSZ
 40
0.0
  9
$DIMTOL
 70
     0
  9
$DIMLIM
 70
     0
  9
$DIMTIH
 70
     0
  9
$DIMTOH
 70
     0
  9
$DIMSE1
 70
     0
  9
$DIMSE2
 70
     0
  9
$DIMTAD
 70
     1
  9
$DIMZIN
 70
     8
  9
$DIMBLK
  1

  9
$DIMASO
 70
     1
  9
$DIMSHO
 70
     1
  9
$DIMPOST
  1

  9
$DIMAPOST
  1

  9
$DIMALT
 70
     0
  9
$DIMALTD
 70
     3
  9
$DIMALTF
 40
0.03937007874016
  9
$DIMLFAC
 40
1.0
  9
$DIMTOFL
 70
     1
  9
$DIMTVP
 40
0.0
  9
$DIMTIX
 70
     0
  9
$DIMSOXD
 70
     0
  9
$DIMSAH
 70
     0
  9
$DIMBLK1
  1

  9
$DIMBLK2
  1

  9
$DIMSTYLE
  2
ISO-25
  9
$DIMCLRD
 70
     0
  9
$DIMCLRE
 70
     0
  9
$DIMCLRT
 70
     0
  9
$DIMTFAC
 40
1.0
  9
$DIMGAP
 40
0.625
  9
$DIMJUST
 70
     0
  9
$DIMSD1
 70
     0
  9
$DIMSD2
 70
     0
  9
$DIMTOLJ
 70
     0
  9
$DIMTZIN
 70
     8
  9
$DIMALTZ
 70
     0
  9
$DIMALTTZ
 70
     0
  9
$DIMUPT
 70
     0
  9
$DIMDEC
 70
     2
  9
$DIMTDEC
 70
     2
  9
$DIMALTU
 70
     2
  9
$DIMALTTD
 70
     3
  9
$DIMTXSTY
  7
Standard
  9
$DIMAUNIT
 70
     0
  9
$DIMADEC
 70
     0
  9
$DIMALTRND
 40
0.0
  9
$DIMAZIN
 70
     0
  9
$DIMDSEP
 70
    44
  9
$DIMATFIT
 70
     3
  9
$DIMFRAC
 70
     0
  9
$DIMLDRBLK
  1

  9
$DIMLUNIT
 70
     2
  9
$DIMLWD
 70
    -2
  9
$DIMLWE
 70
    -2
  9
$DIMTMOVE
 70
     0
  9
$LUNITS
 70
     2
  9
$LUPREC
 70
     4
  9
$SKETCHINC
 40
1.0
  9
$FILLETRAD
 40
0.0
  9
$AUNITS
 70
     0
  9
$AUPREC
 70
     0
  9
$MENU
  1
.
  9
$ELEVATION
 40
0.0
  9
$PELEVATION
 40
0.0
  9
$THICKNESS
 40
0.0
  9
$LIMCHECK
 70
     0
  9
$CHAMFERA
 40
0.0
  9
$CHAMFERB
 40
0.0
  9
$CHAMFERC
 40
0.0
  9
$CHAMFERD
 40
0.0
  9
$SKPOLY
 70
     0
  9
$TDCREATE
 40
2460719.406504630
  9
$TDUCREATE
 40
2460719.114837963
  9
$TDUPDATE
 40
2460719.411458334
  9
$TDUUPDATE
 40
2460719.119791666
  9
$TDINDWG
 40
0.0020601852
  9
$TDUSRTIMER
 40
0.0020601852
  9
$USRTIMER
 70
     1
  9
$ANGBASE
 50
0.0
  9
$ANGDIR
 70
     0
  9
$PDMODE
 70
     0
  9
$PDSIZE
 40
0.0
  9
$PLINEWID
 40
0.0
  9
$SPLFRAME
 70
     0
  9
$SPLINETYPE
 70
     6
  9
$SPLINESEGS
 70
     8
  9
$HANDSEED
  5
480E
  9
$SURFTAB1
 70
     6
  9
$SURFTAB2
 70
     6
  9
$SURFTYPE
 70
     6
  9
$SURFU
 70
     6
  9
$SURFV
 70
     6
  9
$UCSBASE
  2

  9
$UCSNAME
  2

  9
$UCSORG
 10
0.0
 20
0.0
 30
0.0
  9
$UCSXDIR
 10
1.0
 20
0.0
 30
0.0
  9
$UCSYDIR
 10
0.0
 20
1.0
 30
0.0
  9
$UCSORTHOREF
  2

  9
$UCSORTHOVIEW
 70
     0
  9
$UCSORGTOP
 10
0.0
 20
0.0
 30
0.0
  9
$UCSORGBOTTOM
 10
0.0
 20
0.0
 30
0.0
  9
$UCSORGLEFT
 10
0.0
 20
0.0
 30
0.0
  9
$UCSORGRIGHT
 10
0.0
 20
0.0
 30
0.0
  9
$UCSORGFRONT
 10
0.0
 20
0.0
 30
0.0
  9
$UCSORGBACK
 10
0.0
 20
0.0
 30
0.0
  9
$PUCSBASE
  2

  9
$PUCSNAME
  2

  9
$PUCSORG
 10
0.0
 20
0.0
 30
0.0
  9
$PUCSXDIR
 10
1.0
 20
0.0
 30
0.0
  9
$PUCSYDIR
 10
0.0
 20
1.0
 30
0.0
  9
$PUCSORTHOREF
  2

  9
$PUCSORTHOVIEW
 70
     0
  9
$PUCSORGTOP
 10
0.0
 20
0.0
 30
0.0
  9
$PUCSORGBOTTOM
 10
0.0
 20
0.0
 30
0.0
  9
$PUCSORGLEFT
 10
0.0
 20
0.0
 30
0.0
  9
$PUCSORGRIGHT
 10
0.0
 20
0.0
 30
0.0
  9
$PUCSORGFRONT
 10
0.0
 20
0.0
 30
0.0
  9
$PUCSORGBACK
 10
0.0
 20
0.0
 30
0.0
  9
$USERI1
 70
     0
  9
$USERI2
 70
     0
  9
$USERI3
 70
     0
  9
$USERI4
 70
     0
  9
$USERI5
 70
     0
  9
$USERR1
 40
0.0
  9
$USERR2
 40
0.0
  9
$USERR3
 40
0.0
  9
$USERR4
 40
0.0
  9
$USERR5
 40
0.0
  9
$WORLDVIEW
 70
     1
  9
$SHADEDGE
 70
     3
  9
$SHADEDIF
 70
    70
  9
$TILEMODE
 70
     1
  9
$MAXACTVP
 70
    48
  9
$PINSBASE
 10
0.0
 20
0.0
 30
0.0
  9
$PLIMCHECK
 70
     0
  9
$PEXTMIN
 10
0.0
 20
0.0
 30
0.0
  9
$PEXTMAX
 10
0.0
 20
0.0
 30
0.0
  9
$PLIMMIN
 10
0.0
 20
0.0
  9
$PLIMMAX
 10
12.0
 20
9.0
  9
$UNITMODE
 70
     0
  9
$VISRETAIN
 70
     1
  9
$PLINEGEN
 70
     0
  9
$PSLTSCALE
 70
     1
  9
$TREEDEPTH
 70
  3020
  9
$CMLSTYLE
  2
Standard
  9
$CMLJUST
 70
     0
  9
$CMLSCALE
 40
20.0
  9
$PROXYGRAPHICS
 70
     1
  9
$MEASUREMENT
 70
     1
  9
$CELWEIGHT
370
    -1
  9
$ENDCAPS
280
     0
  9
$JOINSTYLE
280
     0
  9
$LWDISPLAY
290
     0
  9
$INSUNITS
 70
     4
  9
$HYPERLINKBASE
  1

  9
$STYLESHEET
  1

  9
$XEDIT
290
     1
  9
$CEPSNTYPE
380
     0
  9
$PSTYLEMODE
290
     1
  9
$FINGERPRINTGUID
  2
{375C693C-302E-BC42-B92A-19F6C371B7B0}
  9
$VERSIONGUID
  2
{F89FF256-44EC-6243-A2F4-B6FD48C9468A}
  9
$EXTNAMES
290
     1
  9
$PSVPSCALE
 40
0.0
  9
$OLESTARTUP
290
     0
  0
ENDSEC
  0
SECTION
  2
CLASSES
  0
CLASS
  1
ACDBDICTIONARYWDFLT
  2
AcDbDictionaryWithDefault
  3
ObjectDBX Classes
 90
        0
280
     0
281
     0
  0
CLASS
  1
ACDBPLACEHOLDER
  2
AcDbPlaceHolder
  3
ObjectDBX Classes
 90
        0
280
     0
281
     0
  0
CLASS
  1
LAYOUT
  2
AcDbLayout
  3
ObjectDBX Classes
 90
        0
280
     0
281
     0
  0
CLASS
  1
DICTIONARYVAR
  2
AcDbDictionaryVar
  3
ObjectDBX Classes
 90
        0
280
     0
281
     0
  0
CLASS
  1
TABLESTYLE
  2
AcDbTableStyle
  3
ObjectDBX Classes
 90
     4095
280
     0
281
     0
  0
CLASS
  1
MATERIAL
  2
AcDbMaterial
  3
ObjectDBX Classes
 90
     1153
280
     0
281
     0
  0
CLASS
  1
VISUALSTYLE
  2
AcDbVisualStyle
  3
ObjectDBX Classes
 90
     4095
280
     0
281
     0
  0
CLASS
  1
SCALE
  2
AcDbScale
  3
ObjectDBX Classes
 90
     1153
280
     0
281
     0
  0
CLASS
  1
MLEADERSTYLE
  2
AcDbMLeaderStyle
  3
ACDB_MLEADERSTYLE_CLASS
 90
     4095
280
     0
281
     0
  0
CLASS
  1
CELLSTYLEMAP
  2
AcDbCellStyleMap
  3
ObjectDBX Classes
 90
     1152
280
     0
281
     0
  0
CLASS
  1
EXACXREFPANELOBJECT
  2
ExAcXREFPanelObject
  3
EXAC_ESW
 90
    33793
280
     0
281
     0
  0
CLASS
  1
NPOCOLLECTION
  2
AcDbImpNonPersistentObjectsCollection
  3
ObjectDBX Classes
 90
    33921
280
     0
281
     0
  0
CLASS
  1
LAYER_INDEX
  2
AcDbLayerIndex
  3
ObjectDBX Classes
 90
    32768
280
     0
281
     0
  0
CLASS
  1
SPATIAL_INDEX
  2
AcDbSpatialIndex
  3
ObjectDBX Classes
 90
    32768
280
     0
281
     0
  0
CLASS
  1
IDBUFFER
  2
AcDbIdBuffer
  3
ObjectDBX Classes
 90
    32768
280
     0
281
     0
  0
CLASS
  1
ACDBSECTIONVIEWSTYLE
  2
AcDbSectionViewStyle
  3
ObjectDBX Classes
 90
     1025
280
     0
281
     0
  0
CLASS
  1
ACDBDETAILVIEWSTYLE
  2
AcDbDetailViewStyle
  3
ObjectDBX Classes
 90
     1025
280
     0
281
     0
  0
CLASS
  1
XRECORD
  2
AcDbXrecord
  3
ObjectDBX Classes
 90
        0
280
     0
281
     0
  0
ENDSEC
  0
SECTION
  2
TABLES
  0
TABLE
  2
VPORT
  5
8
102
{ACAD_XDICTIONARY
360
471C
102
}
330
0
100
AcDbSymbolTable
 70
     1
  0
VPORT
  5
EA
330
8
100
AcDbSymbolTableRecord
100
AcDbViewportTableRecord
  2
*Active
 70
     0
 10
0.0
 20
0.0
 11
1.0
 21
1.0
 12
45.96954424396339
 22
-26.96230267437909
 13
0.0
 23
0.0
 14
10.0
 24
10.0
 15
10.0
 25
10.0
 16
0.0
 26
0.0
 36
1.0
 17
0.0
 27
0.0
 37
0.0
 40
822.0871205070929
 41
0.9846153846153846
 42
50.0
 43
0.0
 44
0.0
 50
0.0
 51
0.0
 71
     0
 72
  1000
 73
     1
 74
     3
 75
     0
 76
     1
 77
     0
 78
     0
281
     0
 65
     1
110
0.0
120
0.0
130
0.0
111
1.0
121
0.0
131
0.0
112
0.0
122
1.0
132
0.0
 79
     0
146
0.0
1001
ACAD_NAV_VCDISPLAY
1070
     3
  0
ENDTAB
  0
TABLE
  2
LTYPE
  5
5
330
0
100
AcDbSymbolTable
 70
     1
  0
LTYPE
  5
14
330
5
100
AcDbSymbolTableRecord
100
AcDbLinetypeTableRecord
  2
ByBlock
 70
     0
  3

 72
    65
 73
     0
 40
0.0
  0
LTYPE
  5
15
330
5
100
AcDbSymbolTableRecord
100
AcDbLinetypeTableRecord
  2
ByLayer
 70
     0
  3

 72
    65
 73
     0
 40
0.0
  0
LTYPE
  5
16
330
5
100
AcDbSymbolTableRecord
100
AcDbLinetypeTableRecord
  2
Continuous
 70
     0
  3
Solid line
 72
    65
 73
     0
 40
0.0
  0
ENDTAB
  0
TABLE
  2
LAYER
  5
2
102
{ACAD_XDICTIONARY
360
1FF
102
}
330
0
100
AcDbSymbolTable
 70
     1
  0
LAYER
  5
10
102
{ACAD_XDICTIONARY
360
13C
102
}
330
2
100
AcDbSymbolTableRecord
100
AcDbLayerTableRecord
  2
0
 70
     0
 62
     7
  6
Continuous
370
    -3
390
F
  0
ENDTAB
  0
TABLE
  2
STYLE
  5
3
330
0
100
AcDbSymbolTable
 70
     1
  0
STYLE
  5
11
330
3
100
AcDbSymbolTableRecord
100
AcDbTextStyleTableRecord
  2
Standard
 70
     0
 40
0.0
 41
1.0
 50
0.0
 71
     0
 42
2.5
  3
arial.ttf
  4

1001
ACAD
1000
Arial
1071
       34
  0
ENDTAB
  0
TABLE
  2
VIEW
  5
6
330
0
100
AcDbSymbolTable
 70
     0
  0
ENDTAB
  0
TABLE
  2
UCS
  5
7
330
0
100
AcDbSymbolTable
 70
     0
  0
ENDTAB
  0
TABLE
  2
APPID
  5
9
330
0
100
AcDbSymbolTable
 70
     8
  0
APPID
  5
12
330
9
100
AcDbSymbolTableRecord
100
AcDbRegAppTableRecord
  2
ACAD
 70
     0
  0
APPID
  5
9E
330
9
100
AcDbSymbolTableRecord
100
AcDbRegAppTableRecord
  2
ACAD_PSEXT
 70
     0
  0
APPID
  5
133
330
9
100
AcDbSymbolTableRecord
100
AcDbRegAppTableRecord
  2
AcadAnnoPO
 70
     0
  0
APPID
  5
134
330
9
100
AcDbSymbolTableRecord
100
AcDbRegAppTableRecord
  2
AcadAnnotative
 70
     0
  0
APPID
  5
135
330
9
100
AcDbSymbolTableRecord
100
AcDbRegAppTableRecord
  2
ACAD_DSTYLE_DIMJAG
 70
     0
  0
APPID
  5
136
330
9
100
AcDbSymbolTableRecord
100
AcDbRegAppTableRecord
  2
ACAD_DSTYLE_DIMTALN
 70
     0
  0
APPID
  5
165
330
9
100
AcDbSymbolTableRecord
100
AcDbRegAppTableRecord
  2
ACAD_MLEADERVER
 70
     0
  0
APPID
  5
217
330
9
100
AcDbSymbolTableRecord
100
AcDbRegAppTableRecord
  2
ACAD_NAV_VCDISPLAY
 70
     0
  0
ENDTAB
  0
TABLE
  2
DIMSTYLE
  5
A
330
0
100
AcDbSymbolTable
 70
     1
100
AcDbDimStyleTable
 71
     0
  0
DIMSTYLE
105
27
330
A
100
AcDbSymbolTableRecord
100
AcDbDimStyleTableRecord
  2
ISO-25
 70
     0
 41
2.5
 42
0.625
 43
3.75
 44
1.25
 73
     0
 74
     0
 77
     1
 78
     8
140
2.5
141
2.5
143
0.03937007874016
147
0.625
171
     3
172
     1
271
     2
272
     2
274
     3
278
    44
283
     0
284
     8
340
11
  0
ENDTAB
  0
TABLE
  2
BLOCK_RECORD
  5
1
330
0
100
AcDbSymbolTable
 70
     7
  0
BLOCK_RECORD
  5
1F
102
{ACAD_XDICTIONARY
360
1CE
102
}
330
1
100
AcDbSymbolTableRecord
100
AcDbBlockTableRecord
  2
*Model_Space
340
22
  0
BLOCK_RECORD
  5
D2
102
{ACAD_XDICTIONARY
360
46CF
102
}
330
1
100
AcDbSymbolTableRecord
100
AcDbBlockTableRecord
  2
*Paper_Space
340
D3
  0
BLOCK_RECORD
  5
D6
102
{ACAD_XDICTIONARY
360
46D1
102
}
330
1
100
AcDbSymbolTableRecord
100
AcDbBlockTableRecord
  2
*Paper_Space0
340
D7
  0
BLOCK_RECORD
  5
43CA
330
1
100
AcDbSymbolTableRecord
100
AcDbBlockTableRecord
  2
SPR120_200-Front
340
0
102
{BLKREFS
331
46C5
102
}
  0
BLOCK_RECORD
  5
4452
330
1
100
AcDbSymbolTableRecord
100
AcDbBlockTableRecord
  2
SPR120_200-Left
340
0
102
{BLKREFS
331
46C6
102
}
  0
BLOCK_RECORD
  5
448E
330
1
100
AcDbSymbolTableRecord
100
AcDbBlockTableRecord
  2
SPR120_200-Right
340
0
102
{BLKREFS
331
46C7
102
}
  0
BLOCK_RECORD
  5
44CC
330
1
100
AcDbSymbolTableRecord
100
AcDbBlockTableRecord
  2
SPR120_200-Top
340
0
102
{BLKREFS
331
46C8
102
}
  0
BLOCK_RECORD
  5
453C
330
1
100
AcDbSymbolTableRecord
100
AcDbBlockTableRecord
  2
SPR120_200-Bottom
340
0
102
{BLKREFS
331
46C9
102
}
  0
BLOCK_RECORD
  5
45A8
330
1
100
AcDbSymbolTableRecord
100
AcDbBlockTableRecord
  2
SPR120_200-ISO
340
0
102
{BLKREFS
331
46CA
102
}
  0
ENDTAB
  0
ENDSEC
  0
SECTION
  2
BLOCKS
  0
BLOCK
  5
20
330
1F
100
AcDbEntity
  8
0
100
AcDbBlockBegin
  2
*Model_Space
 70
     0
 10
0.0
 20
0.0
 30
0.0
  3
*Model_Space
  1

  0
ENDBLK
  5
21
330
1F
100
AcDbEntity
  8
0
100
AcDbBlockEnd
  0
BLOCK
  5
D4
330
D2
100
AcDbEntity
 67
     1
  8
0
100
AcDbBlockBegin
  2
*Paper_Space
 70
     0
 10
0.0
 20
0.0
 30
0.0
  3
*Paper_Space
  1

  0
ENDBLK
  5
D5
330
D2
100
AcDbEntity
 67
     1
  8
0
100
AcDbBlockEnd
  0
BLOCK
  5
D8
330
D6
100
AcDbEntity
 67
     1
  8
0
100
AcDbBlockBegin
  2
*Paper_Space0
 70
     0
 10
0.0
 20
0.0
 30
0.0
  3
*Paper_Space0
  1

  0
ENDBLK
  5
D9
330
D6
100
AcDbEntity
 67
     1
  8
0
100
AcDbBlockEnd
  0
BLOCK
  5
43CB
330
43CA
100
AcDbEntity
  8
0
100
AcDbBlockBegin
  2
SPR120_200-Front
 70
     0
 10
0.0
 20
0.0
 30
0.0
  3
SPR120_200-Front
  1

  0
LINE
  5
43CD
330
43CA
100
AcDbEntity
  8
0
100
AcDbLine
 10
102.527090561
 20
6.269999999999996
 30
0.0
 11
97.52709056099996
 21
1.269999999999996
 31
0.0
  0
LINE
  5
43CE
330
43CA
100
AcDbEntity
  8
0
100
AcDbLine
 10
-97.52709056100002
 20
1.269999999999996
 30
0.0
 11
-102.527090561
 21
6.269999999999996
 31
0.0
  0
LINE
  5
43CF
330
43CA
100
AcDbEntity
  8
0
100
AcDbLine
 10
-102.527090561
 20
72.27000000000001
 30
0.0
 11
-97.52709056100002
 21
77.27000000000001
 31
0.0
  0
LINE
  5
43D0
330
43CA
100
AcDbEntity
  8
0
100
AcDbLine
 10
97.52709056099995
 20
77.27000000000001
 30
0.0
 11
102.5270905609999
 21
72.27000000000001
 31
0.0
  0
LINE
  5
43D1
330
43CA
100
AcDbEntity
  8
0
100
AcDbLine
 10
102.5270905609999
 20
72.27000000000001
 30
0.0
 11
102.527090561
 21
6.269999999999997
 31
0.0
  0
LINE
  5
43D2
330
43CA
100
AcDbEntity
  8
0
100
AcDbLine
 10
-102.527090561
 20
6.269999999999996
 30
0.0
 11
-102.527090561
 21
72.27000000000001
 31
0.0
  0
LINE
  5
43D3
330
43CA
100
AcDbEntity
  8
0
100
AcDbLine
 10
56.49999999999998
 20
77.27000000000001
 30
0.0
 11
97.52709056099995
 21
77.27000000000001
 31
0.0
  0
LINE
  5
43D4
330
43CA
100
AcDbEntity
  8
0
100
AcDbLine
 10
-56.50000000000002
 20
1.269999999999987
 30
0.0
 11
-97.52709056100002
 21
1.269999999999996
 31
0.0
  0
LINE
  5
43D5
330
43CA
100
AcDbEntity
  8
0
100
AcDbLine
 10
97.52709056099996
 20
1.269999999999996
 30
0.0
 11
56.49999999999998
 21
1.269999999999987
 31
0.0
  0
ARC
  5
43D6
330
43CA
100
AcDbEntity
  8
0
100
AcDbCircle
 10
56.49999999999998
 20
78.77000000000004
 30
0.0
 40
1.5
100
AcDbArc
 50
90.0
 51
270.0
  0
LINE
  5
43D7
330
43CA
100
AcDbEntity
  8
0
100
AcDbLine
 10
-97.52709056100002
 20
77.27000000000001
 30
0.0
 11
-56.50000000000002
 21
77.27000000000001
 31
0.0
  0
ARC
  5
43D8
330
43CA
100
AcDbEntity
  8
0
100
AcDbCircle
 10
-56.50000000000002
 20
78.77000000000001
 30
0.0
 40
1.5
100
AcDbArc
 50
270.0
 51
90.0
  0
LINE
  5
43D9
330
43CA
100
AcDbEntity
  8
0
100
AcDbLine
 10
61.5000000000002
 20
80.27000000000002
 30
0.0
 11
61.50000000000023
 21
85.27000000000002
 31
0.0
  0
LINE
  5
43DA
330
43CA
100
AcDbEntity
  8
0
100
AcDbLine
 10
61.50000000000023
 20
85.27000000000002
 30
0.0
 11
60.00000000000023
 21
85.27000000000002
 31
0.0
  0
LINE
  5
43DB
330
43CA
100
AcDbEntity
  8
0
100
AcDbLine
 10
60.00000000000023
 20
85.27000000000002
 30
0.0
 11
60.00000000000021
 21
80.27000000000002
 31
0.0
  0
LINE
  5
43DC
330
43CA
100
AcDbEntity
  8
0
100
AcDbLine
 10
60.00000000000021
 20
80.27000000000002
 30
0.0
 11
61.5000000000002
 21
80.27000000000002
 31
0.0
  0
LINE
  5
43DD
330
43CA
100
AcDbEntity
  8
0
100
AcDbLine
 10
60.00000000000023
 20
195.67
 30
0.0
 11
61.50000000000023
 21
195.67
 31
0.0
  0
LINE
  5
43DE
330
43CA
100
AcDbEntity
  8
0
100
AcDbLine
 10
61.50000000000023
 20
195.67
 30
0.0
 11
61.5000000000002
 21
200.67
 31
0.0
  0
LINE
  5
43DF
330
43CA
100
AcDbEntity
  8
0
100
AcDbLine
 10
-61.5
 20
85.27000000000001
 30
0.0
 11
-61.5
 21
80.27000000000002
 31
0.0
  0
LINE
  5
43E0
330
43CA
100
AcDbEntity
  8
0
100
AcDbLine
 10
-61.5
 20
80.27000000000002
 30
0.0
 11
-60.0
 21
80.27000000000002
 31
0.0
  0
LINE
  5
43E1
330
43CA
100
AcDbEntity
  8
0
100
AcDbLine
 10
-60.0
 20
80.27000000000002
 30
0.0
 11
-60.0
 21
85.27000000000001
 31
0.0
  0
LINE
  5
43E2
330
43CA
100
AcDbEntity
  8
0
100
AcDbLine
 10
-60.0
 20
85.27000000000001
 30
0.0
 11
-61.5
 21
85.27000000000001
 31
0.0
  0
LINE
  5
43E3
330
43CA
100
AcDbEntity
  8
0
100
AcDbLine
 10
-61.5
 20
200.67
 30
0.0
 11
-61.5
 21
195.67
 31
0.0
  0
LINE
  5
43E4
330
43CA
100
AcDbEntity
  8
0
100
AcDbLine
 10
-61.5
 20
195.67
 30
0.0
 11
-60.0
 21
195.67
 31
0.0
  0
LINE
  5
43E5
330
43CA
100
AcDbEntity
  8
0
100
AcDbLine
 10
61.5000000000002
 20
200.67
 30
0.0
 11
60.00000000000021
 21
200.67
 31
0.0
  0
LINE
  5
43E6
330
43CA
100
AcDbEntity
  8
0
100
AcDbLine
 10
60.00000000000021
 20
200.67
 30
0.0
 11
60.00000000000023
 21
195.67
 31
0.0
  0
LINE
  5
43E7
330
43CA
100
AcDbEntity
  8
0
100
AcDbLine
 10
-60.0
 20
195.67
 30
0.0
 11
-60.0
 21
200.67
 31
0.0
  0
LINE
  5
43E8
330
43CA
100
AcDbEntity
  8
0
100
AcDbLine
 10
-60.0
 20
200.67
 30
0.0
 11
-61.5
 21
200.67
 31
0.0
  0
LINE
  5
43E9
330
43CA
100
AcDbEntity
  8
0
100
AcDbLine
 10
61.49999999999995
 20
-28.42608254450008
 30
0.0
 11
61.49999999999998
 21
-21.35501473263463
 31
0.0
  0
LINE
  5
43EA
330
43CA
100
AcDbEntity
  8
0
100
AcDbLine
 10
61.49999999999998
 20
-21.35501473263463
 30
0.0
 11
59.99999999999997
 21
-21.35501473263463
 31
0.0
  0
LINE
  5
43EB
330
43CA
100
AcDbEntity
  8
0
100
AcDbLine
 10
59.99999999999997
 20
-21.35501473263463
 30
0.0
 11
59.99999999999997
 21
-28.42608254450008
 31
0.0
  0
LINE
  5
43EC
330
43CA
100
AcDbEntity
  8
0
100
AcDbLine
 10
59.99999999999997
 20
-28.42608254450008
 30
0.0
 11
61.49999999999995
 21
-28.42608254450008
 31
0.0
  0
LINE
  5
43ED
330
43CA
100
AcDbEntity
  8
0
100
AcDbLine
 10
-61.49999999999995
 20
-21.35501473263464
 30
0.0
 11
-61.49999999999993
 21
-28.42608254450009
 31
0.0
  0
LINE
  5
43EE
330
43CA
100
AcDbEntity
  8
0
100
AcDbLine
 10
-61.49999999999993
 20
-28.42608254450009
 30
0.0
 11
-59.99999999999996
 21
-28.42608254450009
 31
0.0
  0
LINE
  5
43EF
330
43CA
100
AcDbEntity
  8
0
100
AcDbLine
 10
-59.99999999999996
 20
-28.42608254450009
 30
0.0
 11
-59.99999999999996
 21
-21.35501473263464
 31
0.0
  0
LINE
  5
43F0
330
43CA
100
AcDbEntity
  8
0
100
AcDbLine
 10
-59.99999999999996
 20
-21.35501473263464
 30
0.0
 11
-61.49999999999995
 21
-21.35501473263464
 31
0.0
  0
LINE
  5
43F1
330
43CA
100
AcDbEntity
  8
0
100
AcDbLine
 10
61.50000000000023
 20
85.27000000000002
 30
0.0
 11
61.50000000000023
 21
195.67
 31
0.0
  0
LINE
  5
43F2
330
43CA
100
AcDbEntity
  8
0
100
AcDbLine
 10
60.00000000000023
 20
195.67
 30
0.0
 11
60.00000000000023
 21
85.27000000000002
 31
0.0
  0
LINE
  5
43F3
330
43CA
100
AcDbEntity
  8
0
100
AcDbLine
 10
-61.5
 20
195.67
 30
0.0
 11
-61.5
 21
85.27000000000001
 31
0.0
  0
LINE
  5
43F4
330
43CA
100
AcDbEntity
  8
0
100
AcDbLine
 10
-60.0
 20
195.67
 30
0.0
 11
-60.0
 21
85.27000000000001
 31
0.0
  0
LINE
  5
43F5
330
43CA
100
AcDbEntity
  8
0
100
AcDbLine
 10
56.49999999999998
 20
80.27000000000002
 30
0.0
 11
59.39999999999999
 21
80.27000000000002
 31
0.0
  0
LINE
  5
43F6
330
43CA
100
AcDbEntity
  8
0
100
AcDbLine
 10
-59.40000000000001
 20
80.27000000000002
 30
0.0
 11
-56.50000000000002
 21
80.27000000000001
 31
0.0
  0
LINE
  5
43F7
330
43CA
100
AcDbEntity
  8
0
100
AcDbLine
 10
-59.40000000000001
 20
200.67
 30
0.0
 11
59.39999999999999
 21
200.67
 31
0.0
  0
LINE
  5
43F8
330
43CA
100
AcDbEntity
  8
0
100
AcDbLine
 10
61.50000000000209
 20
-2.26313164225673
 30
0.0
 11
61.49999999999998
 21
-21.35501473263463
 31
0.0
  0
LINE
  5
43F9
330
43CA
100
AcDbEntity
  8
0
100
AcDbLine
 10
60.00000000000172
 20
-2.26313164225673
 30
0.0
 11
59.99999999999997
 21
-21.35501473263463
 31
0.0
  0
ELLIPSE
  5
43FA
330
43CA
100
AcDbEntity
  8
0
100
AcDbEllipse
 10
59.39999999999998
 20
-54.16476937947047
 30
0.0
 11
0.6000000000000087
 21
-0.0000000000000007
 31
0.0
210
0.0
220
0.0
230
1.0
 40
0.7071067811864884
 41
4.71238898038475
 42
6.283185307179506
  0
ELLIPSE
  5
43FB
330
43CA
100
AcDbEntity
  8
0
100
AcDbEllipse
 10
59.39999999999998
 20
-54.16476937947047
 30
0.0
 11
2.100000000000031
 21
-0.0000000000000622
 31
0.0
210
0.0
220
0.0
230
1.0
 40
0.7071067811865526
 41
4.712388980384693
 42
6.283185307179538
  0
LINE
  5
43FC
330
43CA
100
AcDbEntity
  8
0
100
AcDbLine
 10
61.50000000000209
 20
-2.26313164225673
 30
0.0
 11
60.00000000000172
 21
-2.26313164225673
 31
0.0
  0
ELLIPSE
  5
43FD
330
43CA
100
AcDbEntity
  8
0
100
AcDbEllipse
 10
-56.50000000000002
 20
0.0236058844764063
 30
0.0
 11
-1.5
 21
0.0000000000001095
 31
0.0
210
0.0
220
0.0
230
1.0
 40
0.7071067811865479
 41
1.570796326795026
 42
2.705254581962135
  0
LINE
  5
43FE
330
43CA
100
AcDbEntity
  8
0
100
AcDbLine
 10
-56.50000000000002
 20
-1.037054287303414
 30
0.0
 11
-58.79315533855962
 21
-1.037054287303414
 31
0.0
  0
LINE
  5
43FF
330
43CA
100
AcDbEntity
  8
0
100
AcDbLine
 10
-58.79315533855962
 20
-1.037054287303414
 30
0.0
 11
-59.40000000000001
 21
-1.466158262545973
 31
0.0
  0
LINE
  5
4400
330
43CA
100
AcDbEntity
  8
0
100
AcDbLine
 10
59.39999999999999
 20
-1.466158262545978
 30
0.0
 11
58.7931553385596
 21
-1.03705428730342
 31
0.0
  0
LINE
  5
4401
330
43CA
100
AcDbEntity
  8
0
100
AcDbLine
 10
58.7931553385596
 20
-1.03705428730342
 30
0.0
 11
56.49999999999998
 21
-1.03705428730342
 31
0.0
  0
ELLIPSE
  5
4402
330
43CA
100
AcDbEntity
  8
0
100
AcDbEllipse
 10
56.49999999999998
 20
0.0236058844764062
 30
0.0
 11
-1.5
 21
0.0
 31
0.0
210
0.0
220
0.0
230
1.0
 40
0.7071067811865479
 41
0.4363380716279047
 42
1.570796326794896
  0
SPLINE
  5
4403
330
43CA
100
AcDbEntity
  8
0
100
AcDbSpline
210
0.0
220
0.0
230
1.0
 70
     8
 71
     3
 72
     8
 73
     4
 74
     0
 42
0.000000001
 43
0.0000000001
 40
-1.0
 40
-1.0
 40
-1.0
 40
-1.0
 40
0.0
 40
0.0
 40
0.0
 40
0.0
 10
-55.01767776087199
 20
-0.0003899405809507
 30
0.0
 10
-54.97251992073981
 20
-0.1594792109354459
 30
0.0
 10
-55.01586474390123
 20
-0.3214850446752977
 30
0.0
 10
-55.14054197002048
 20
-0.4246540092928796
 30
0.0
  0
SPLINE
  5
4404
330
43CA
100
AcDbEntity
  8
0
100
AcDbSpline
210
0.0
220
0.0
230
1.0
 70
     8
 71
     3
 72
     8
 73
     4
 74
     0
 42
0.000000001
 43
0.0000000001
 40
-1.0
 40
-1.0
 40
-1.0
 40
-1.0
 40
0.0
 40
0.0
 40
0.0
 40
0.0
 10
55.14054197002042
 20
-0.4246540092928796
 30
0.0
 10
55.01586474390373
 20
-0.3214850446752982
 30
0.0
 10
54.97251992074176
 20
-0.1594792109354491
 30
0.0
 10
55.01767776087193
 20
-0.0003899405809508
 30
0.0
  0
LINE
  5
4405
330
43CA
100
AcDbEntity
  8
0
100
AcDbLine
 10
-60.00000000000125
 20
-2.263131642256734
 30
0.0
 11
-61.50000000000158
 21
-2.263131642256734
 31
0.0
  0
SPLINE
  5
4406
330
43CA
100
AcDbEntity
  8
0
100
AcDbSpline
210
0.0
220
0.0
230
1.0
 70
     8
 71
     3
 72
     8
 73
     4
 74
     0
 42
0.000000001
 43
0.0000000001
 40
-1.0
 40
-1.0
 40
-1.0
 40
-1.0
 40
0.0
 40
0.0
 40
0.0
 40
0.0
 10
-59.40000000000001
 20
-1.466158262545961
 30
0.0
 10
-59.71415926535899
 20
-1.873237411765444
 30
0.0
 10
-60.00000000000003
 20
-2.078196639180591
 30
0.0
 10
-60.00000000000003
 20
-2.263131641492208
 30
0.0
  0
ARC
  5
4407
330
43CA
100
AcDbEntity
  8
0
100
AcDbCircle
 10
-56.50000000000002
 20
-0.2299999999999986
 30
0.0
 40
1.5
100
AcDbArc
 50
8.805075259701309
 51
90.0
  0
SPLINE
  5
4408
330
43CA
100
AcDbEntity
  8
0
100
AcDbSpline
210
0.0
220
0.0
230
1.0
 70
     8
 71
     3
 72
     8
 73
     4
 74
     0
 42
0.000000001
 43
0.0000000001
 40
-1.0
 40
-1.0
 40
-1.0
 40
-1.0
 40
0.0
 40
0.0
 40
0.0
 40
0.0
 10
60.00000000000001
 20
-2.263131641492203
 30
0.0
 10
60.0
 20
-2.078196639180603
 30
0.0
 10
59.71415926535897
 20
-1.873237411765096
 30
0.0
 10
59.39999999999999
 20
-1.466158262545975
 30
0.0
  0
ARC
  5
4409
330
43CA
100
AcDbEntity
  8
0
100
AcDbCircle
 10
56.49999999999998
 20
-0.2299999999999986
 30
0.0
 40
1.5
100
AcDbArc
 50
90.0
 51
171.1949247402987
  0
SPLINE
  5
440A
330
43CA
100
AcDbEntity
  8
0
100
AcDbSpline
210
0.0
220
0.0
230
1.0
 70
     8
 71
     3
 72
    16
 73
    12
 74
     0
 42
0.000000001
 43
0.0000000001
 40
0.0
 40
0.0
 40
0.0
 40
0.0
 40
0.0356537247302027
 40
0.0356537247302027
 40
0.0703704956521966
 40
0.0703704956521966
 40
0.1051345640185415
 40
0.1051345640185415
 40
0.1398962718754684
 40
0.1398962718754684
 40
0.1538885733137564
 40
0.1538885733137564
 40
0.1538885733137564
 40
0.1538885733137564
 10
-60.49950000000045
 20
-2.263131641492219
 30
0.0
 10
-60.49949999999918
 20
-2.263131641490667
 30
0.0
 10
-60.47955867539492
 20
-2.26305995101499
 30
0.0
 10
-60.40583172167114
 20
-2.250836451207208
 30
0.0
 10
-60.35213458024255
 20
-2.238741830453629
 30
0.0
 10
-60.22293730424769
 20
-2.194102190366012
 30
0.0
 10
-60.14591985428977
 20
-2.160888677201125
 30
0.0
 10
-59.98574064085336
 20
-2.069479202544147
 30
0.0
 10
-59.90073655252783
 20
-2.010107098203772
 30
0.0
 10
-59.78901418344737
 20
-1.909831885109054
 30
0.0
 10
-59.75758437990215
 20
-1.878943669851656
 30
0.0
 10
-59.72742155524392
 20
-1.846191951394327
 30
0.0
  0
SPLINE
  5
440B
330
43CA
100
AcDbEntity
  8
0
100
AcDbSpline
210
0.0
220
0.0
230
1.0
 70
     8
 71
     3
 72
    16
 73
    12
 74
     0
 42
0.000000001
 43
0.0000000001
 40
0.0
 40
0.0
 40
0.0
 40
0.0
 40
0.0356266149323922
 40
0.0356266149323922
 40
0.0703447701800519
 40
0.0703447701800519
 40
0.1051087694983178
 40
0.1051087694983178
 40
0.1398704808033276
 40
0.1398704808033276
 40
0.1538888647030649
 40
0.1538888647030649
 40
0.1538888647030649
 40
0.1538888647030649
 10
59.72742155524373
 20
-1.846191951394153
 30
0.0
 10
59.80422088265329
 20
-1.929583012328678
 30
0.0
 10
59.88999615129758
 20
-2.001172959729674
 30
0.0
 10
60.05564046641802
 20
-2.113266523262978
 30
0.0
 10
60.13750261649218
 20
-2.155953002277163
 30
0.0
 10
60.28182181890712
 20
-2.217016702989831
 30
0.0
 10
60.34591305088973
 20
-2.236189491810281
 30
0.0
 10
60.44238223264972
 20
-2.258395304186212
 30
0.0
 10
60.47587215056723
 20
-2.261811174866893
 30
0.0
 10
60.49650501536267
 20
-2.263130971916398
 30
0.0
 10
60.49950000000009
 20
-2.263131641491607
 30
0.0
 10
60.49950000000041
 20
-2.263131641492218
 30
0.0
  0
LINE
  5
440C
330
43CA
100
AcDbEntity
  8
0
100
AcDbLine
 10
61.49999999999997
 20
-54.16476937947052
 30
0.0
 11
61.49999999999995
 21
-28.42608254450008
 31
0.0
  0
LINE
  5
440D
330
43CA
100
AcDbEntity
  8
0
100
AcDbLine
 10
-61.49999999999993
 20
-28.42608254450009
 30
0.0
 11
-61.49999999999997
 21
-54.16476937947052
 31
0.0
  0
LINE
  5
440E
330
43CA
100
AcDbEntity
  8
0
100
AcDbLine
 10
-59.99999999999996
 20
-28.42608254450009
 30
0.0
 11
-59.99999999999996
 21
-54.16476937947052
 31
0.0
  0
LINE
  5
440F
330
43CA
100
AcDbEntity
  8
0
100
AcDbLine
 10
-59.39999999999998
 20
-54.58903344818243
 30
0.0
 11
59.39999999999998
 21
-54.58903344818243
 31
0.0
  0
LINE
  5
4410
330
43CA
100
AcDbEntity
  8
0
100
AcDbLine
 10
59.99999999999996
 20
-54.16476937947052
 30
0.0
 11
59.99999999999997
 21
-28.42608254450008
 31
0.0
  0
LINE
  5
4411
330
43CA
100
AcDbEntity
  8
0
100
AcDbLine
 10
-59.39999999999998
 20
-55.64969361996226
 30
0.0
 11
59.39999999999998
 21
-55.64969361996226
 31
0.0
  0
LINE
  5
4412
330
43CA
100
AcDbEntity
  8
0
100
AcDbLine
 10
-61.50000000000158
 20
-2.263131642256734
 30
0.0
 11
-61.49999999999995
 21
-21.35501473263464
 31
0.0
  0
LINE
  5
4413
330
43CA
100
AcDbEntity
  8
0
100
AcDbLine
 10
-60.00000000000125
 20
-2.263131642256734
 30
0.0
 11
-59.99999999999996
 21
-21.35501473263464
 31
0.0
  0
CIRCLE
  5
4414
330
43CA
100
AcDbEntity
  8
0
100
AcDbCircle
 10
49.99999999999999
 20
189.77
 30
0.0
 40
2.5
  0
CIRCLE
  5
4415
330
43CA
100
AcDbEntity
  8
0
100
AcDbCircle
 10
49.99999999999999
 20
149.77
 30
0.0
 40
2.5
  0
CIRCLE
  5
4416
330
43CA
100
AcDbEntity
  8
0
100
AcDbCircle
 10
49.99999999999999
 20
109.7699999999999
 30
0.0
 40
2.5
  0
CIRCLE
  5
4417
330
43CA
100
AcDbEntity
  8
0
100
AcDbCircle
 10
49.99999999999999
 20
69.76999999999996
 30
0.0
 40
2.5
  0
CIRCLE
  5
4418
330
43CA
100
AcDbEntity
  8
0
100
AcDbCircle
 10
49.99999999999999
 20
29.76999999999997
 30
0.0
 40
2.5
  0
CIRCLE
  5
4419
330
43CA
100
AcDbEntity
  8
0
100
AcDbCircle
 10
39.99999999999999
 20
169.77
 30
0.0
 40
2.5
  0
CIRCLE
  5
441A
330
43CA
100
AcDbEntity
  8
0
100
AcDbCircle
 10
39.99999999999999
 20
129.77
 30
0.0
 40
2.5
  0
CIRCLE
  5
441B
330
43CA
100
AcDbEntity
  8
0
100
AcDbCircle
 10
39.99999999999999
 20
89.76999999999996
 30
0.0
 40
2.5
  0
CIRCLE
  5
441C
330
43CA
100
AcDbEntity
  8
0
100
AcDbCircle
 10
39.99999999999999
 20
49.76999999999996
 30
0.0
 40
2.5
  0
CIRCLE
  5
441D
330
43CA
100
AcDbEntity
  8
0
100
AcDbCircle
 10
39.99999999999999
 20
9.769999999999965
 30
0.0
 40
2.5
  0
CIRCLE
  5
441E
330
43CA
100
AcDbEntity
  8
0
100
AcDbCircle
 10
-40.0
 20
189.77
 30
0.0
 40
2.5
  0
CIRCLE
  5
441F
330
43CA
100
AcDbEntity
  8
0
100
AcDbCircle
 10
-40.0
 20
149.77
 30
0.0
 40
2.5
  0
CIRCLE
  5
4420
330
43CA
100
AcDbEntity
  8
0
100
AcDbCircle
 10
-40.0
 20
109.77
 30
0.0
 40
2.5
  0
CIRCLE
  5
4421
330
43CA
100
AcDbEntity
  8
0
100
AcDbCircle
 10
-40.0
 20
69.76999999999998
 30
0.0
 40
2.5
  0
CIRCLE
  5
4422
330
43CA
100
AcDbEntity
  8
0
100
AcDbCircle
 10
-40.0
 20
29.76999999999998
 30
0.0
 40
2.5
  0
CIRCLE
  5
4423
330
43CA
100
AcDbEntity
  8
0
100
AcDbCircle
 10
-50.00000000000001
 20
169.77
 30
0.0
 40
2.5
  0
CIRCLE
  5
4424
330
43CA
100
AcDbEntity
  8
0
100
AcDbCircle
 10
-50.00000000000001
 20
129.77
 30
0.0
 40
2.5
  0
CIRCLE
  5
4425
330
43CA
100
AcDbEntity
  8
0
100
AcDbCircle
 10
-50.00000000000001
 20
89.76999999999998
 30
0.0
 40
2.5
  0
CIRCLE
  5
4426
330
43CA
100
AcDbEntity
  8
0
100
AcDbCircle
 10
-50.00000000000001
 20
49.76999999999998
 30
0.0
 40
2.5
  0
CIRCLE
  5
4427
330
43CA
100
AcDbEntity
  8
0
100
AcDbCircle
 10
-50.00000000000001
 20
9.769999999999983
 30
0.0
 40
2.5
  0
CIRCLE
  5
4428
330
43CA
100
AcDbEntity
  8
0
100
AcDbCircle
 10
-73.02709056100001
 20
69.76999999999998
 30
0.0
 40
2.5
  0
CIRCLE
  5
4429
330
43CA
100
AcDbEntity
  8
0
100
AcDbCircle
 10
67.02709056099992
 20
69.76999999999996
 30
0.0
 40
2.5
  0
CIRCLE
  5
442A
330
43CA
100
AcDbEntity
  8
0
100
AcDbCircle
 10
-67.02709056099999
 20
29.76999999999999
 30
0.0
 40
2.5
  0
CIRCLE
  5
442B
330
43CA
100
AcDbEntity
  8
0
100
AcDbCircle
 10
73.02709056099994
 20
29.76999999999998
 30
0.0
 40
2.5
  0
ELLIPSE
  5
442C
330
43CA
100
AcDbEntity
  8
0
100
AcDbEllipse
 10
-22.50000000000004
 20
0.0236058844764062
 30
0.0
 11
-2.5
 21
0.0
 31
0.0
210
0.0
220
0.0
230
1.0
 40
0.7071067811865479
 41
0.2563733270184496
 42
1.570796326794896
  0
LINE
  5
442D
330
43CA
100
AcDbEntity
  8
0
100
AcDbLine
 10
-17.50000000000001
 20
-1.744161068490024
 30
0.0
 11
-22.50000000000004
 21
-1.744161068490024
 31
0.0
  0
ELLIPSE
  5
442E
330
43CA
100
AcDbEntity
  8
0
100
AcDbEllipse
 10
-17.50000000000001
 20
0.0236058844764062
 30
0.0
 11
2.499999999999999
 21
-0.0000000000000001
 31
0.0
210
0.0
220
0.0
230
1.0
 40
0.707106781186548
 41
4.712388980384689
 42
6.026811980161137
  0
SPLINE
  5
442F
330
43CA
100
AcDbEntity
  8
0
100
AcDbSpline
210
0.0
220
0.0
230
1.0
 70
     8
 71
     3
 72
     8
 73
     4
 74
     0
 42
0.000000001
 43
0.0000000001
 40
-1.0
 40
-1.0
 40
-1.0
 40
-1.0
 40
0.0
 40
0.0
 40
0.0
 40
0.0
 10
-24.91828991960768
 20
-0.4246540092928796
 30
0.0
 10
-24.99189972302032
 20
-0.3163012038324997
 30
0.0
 10
-25.01609483643946
 20
-0.1581319339738405
 30
0.0
 10
-24.98943351399747
 20
-0.0003899405809503
 30
0.0
  0
SPLINE
  5
4430
330
43CA
100
AcDbEntity
  8
0
100
AcDbSpline
210
0.0
220
0.0
230
1.0
 70
     8
 71
     3
 72
     8
 73
     4
 74
     0
 42
0.000000001
 43
0.0000000001
 40
-1.0
 40
-1.0
 40
-1.0
 40
-1.0
 40
0.0
 40
0.0
 40
0.0
 40
0.0
 10
-15.01056648600258
 20
-0.0003899405809504
 30
0.0
 10
-14.9839051635608
 20
-0.1581319339738713
 30
0.0
 10
-15.00810027697978
 20
-0.3163012038325279
 30
0.0
 10
-15.08171008039238
 20
-0.4246540092928794
 30
0.0
  0
ARC
  5
4431
330
43CA
100
AcDbEntity
  8
0
100
AcDbCircle
 10
-17.50000000000001
 20
-0.2299999999999986
 30
0.0
 40
2.5
100
AcDbArc
 50
5.269701326164559
 51
90.0
  0
LINE
  5
4432
330
43CA
100
AcDbEntity
  8
0
100
AcDbLine
 10
-22.50000000000004
 20
2.26999999999993
 30
0.0
 11
-17.50000000000001
 21
2.26999999999993
 31
0.0
  0
ARC
  5
4433
330
43CA
100
AcDbEntity
  8
0
100
AcDbCircle
 10
-22.50000000000004
 20
-0.2299999999999986
 30
0.0
 40
2.5
100
AcDbArc
 50
90.0
 51
174.7302986738354
  0
ELLIPSE
  5
4434
330
43CA
100
AcDbEntity
  8
0
100
AcDbEllipse
 10
17.49999999999999
 20
0.023605884476406
 30
0.0
 11
-2.5
 21
0.0
 31
0.0
210
0.0
220
0.0
230
1.0
 40
0.7071067811865479
 41
0.2563733270184487
 42
1.570796326794896
  0
LINE
  5
4435
330
43CA
100
AcDbEntity
  8
0
100
AcDbLine
 10
22.50000000000003
 20
-1.744161068490026
 30
0.0
 11
17.49999999999999
 21
-1.744161068490026
 31
0.0
  0
ELLIPSE
  5
4436
330
43CA
100
AcDbEntity
  8
0
100
AcDbEllipse
 10
22.50000000000003
 20
0.0236058844764063
 30
0.0
 11
2.5
 21
-0.0000000000000008
 31
0.0
210
0.0
220
0.0
230
1.0
 40
0.7071067811865479
 41
4.712388980384689
 42
6.026811980161137
  0
SPLINE
  5
4437
330
43CA
100
AcDbEntity
  8
0
100
AcDbSpline
210
0.0
220
0.0
230
1.0
 70
     8
 71
     3
 72
     8
 73
     4
 74
     0
 42
0.000000001
 43
0.0000000001
 40
-1.0
 40
-1.0
 40
-1.0
 40
-1.0
 40
0.0
 40
0.0
 40
0.0
 40
0.0
 10
15.08171008039235
 20
-0.4246540092928794
 30
0.0
 10
15.00810027697997
 20
-0.3163012038325243
 30
0.0
 10
14.98390516356048
 20
-0.1581319339738665
 30
0.0
 10
15.01056648600256
 20
-0.0003899405809504
 30
0.0
  0
SPLINE
  5
4438
330
43CA
100
AcDbEntity
  8
0
100
AcDbSpline
210
0.0
220
0.0
230
1.0
 70
     8
 71
     3
 72
     8
 73
     4
 74
     0
 42
0.000000001
 43
0.0000000001
 40
-1.0
 40
-1.0
 40
-1.0
 40
-1.0
 40
0.0
 40
0.0
 40
0.0
 40
0.0
 10
24.98943351399746
 20
-0.0003899405809504
 30
0.0
 10
25.0160948364395
 20
-0.1581319339738421
 30
0.0
 10
24.99189972302037
 20
-0.3163012038325015
 30
0.0
 10
24.91828991960767
 20
-0.4246540092928796
 30
0.0
  0
ARC
  5
4439
330
43CA
100
AcDbEntity
  8
0
100
AcDbCircle
 10
22.50000000000003
 20
-0.2299999999999986
 30
0.0
 40
2.5
100
AcDbArc
 50
5.269701326164559
 51
90.0
  0
LINE
  5
443A
330
43CA
100
AcDbEntity
  8
0
100
AcDbLine
 10
17.49999999999999
 20
2.26999999999993
 30
0.0
 11
22.50000000000003
 21
2.26999999999993
 31
0.0
  0
ARC
  5
443B
330
43CA
100
AcDbEntity
  8
0
100
AcDbCircle
 10
17.49999999999999
 20
-0.2299999999999986
 30
0.0
 40
2.5
100
AcDbArc
 50
90.0
 51
174.7302986738354
  0
SPLINE
  5
443C
330
43CA
100
AcDbEntity
  8
0
100
AcDbSpline
210
0.0
220
0.0
230
1.0
 70
     8
 71
     3
 72
     8
 73
     4
 74
     0
 42
0.000000001
 43
0.0000000001
 40
-1.0
 40
-1.0
 40
-1.0
 40
-1.0
 40
0.0
 40
0.0
 40
0.0
 40
0.0
 10
-40.01056648600259
 20
-0.0003899405809506
 30
0.0
 10
-39.98390516356046
 20
-0.1581319339738718
 30
0.0
 10
-40.00810027697968
 20
-0.3163012038324724
 30
0.0
 10
-40.08171008039237
 20
-0.4246540092928794
 30
0.0
  0
ELLIPSE
  5
443D
330
43CA
100
AcDbEntity
  8
0
100
AcDbEllipse
 10
-42.5
 20
0.0236058844764063
 30
0.0
 11
2.499999999999999
 21
-0.0000000000000004
 31
0.0
210
0.0
220
0.0
230
1.0
 40
0.7071067811865479
 41
3.39796598060824
 42
6.026811980161135
  0
ELLIPSE
  5
443E
330
43CA
100
AcDbEntity
  8
0
100
AcDbEllipse
 10
42.5
 20
0.0236058844764062
 30
0.0
 11
2.5
 21
-0.0000000000000005
 31
0.0
210
0.0
220
0.0
230
1.0
 40
0.7071067811865479
 41
3.397965980608241
 42
6.026811980161136
  0
SPLINE
  5
443F
330
43CA
100
AcDbEntity
  8
0
100
AcDbSpline
210
0.0
220
0.0
230
1.0
 70
     8
 71
     3
 72
     8
 73
     4
 74
     0
 42
0.000000001
 43
0.0000000001
 40
-1.0
 40
-1.0
 40
-1.0
 40
-1.0
 40
0.0
 40
0.0
 40
0.0
 40
0.0
 10
40.08171008039236
 20
-0.4246540092928802
 30
0.0
 10
40.00810027697983
 20
-0.3163012038324944
 30
0.0
 10
39.98390516356058
 20
-0.1581319339738693
 30
0.0
 10
40.01056648600257
 20
-0.0003899405809504
 30
0.0
  0
SPLINE
  5
4440
330
43CA
100
AcDbEntity
  8
0
100
AcDbSpline
210
0.0
220
0.0
230
1.0
 70
     8
 71
     3
 72
     8
 73
     4
 74
     0
 42
0.000000001
 43
0.0000000001
 40
-1.0
 40
-1.0
 40
-1.0
 40
-1.0
 40
0.0
 40
0.0
 40
0.0
 40
0.0
 10
-44.91828991960765
 20
-0.4246540092928802
 30
0.0
 10
-44.99189972302027
 20
-0.3163012038325028
 30
0.0
 10
-45.01609483643965
 20
-0.1581319339738779
 30
0.0
 10
-44.98943351399742
 20
-0.0003899405809503
 30
0.0
  0
ARC
  5
4441
330
43CA
100
AcDbEntity
  8
0
100
AcDbCircle
 10
-42.5
 20
-0.2299999999999986
 30
0.0
 40
2.499999999999999
100
AcDbArc
 50
5.269701326164559
 51
174.7302986738354
  0
SPLINE
  5
4442
330
43CA
100
AcDbEntity
  8
0
100
AcDbSpline
210
0.0
220
0.0
230
1.0
 70
     8
 71
     3
 72
     8
 73
     4
 74
     0
 42
0.000000001
 43
0.0000000001
 40
-1.0
 40
-1.0
 40
-1.0
 40
-1.0
 40
0.0
 40
0.0
 40
0.0
 40
0.0
 10
44.98943351399742
 20
-0.0003899405809506
 30
0.0
 10
45.01609483643922
 20
-0.1581319339738664
 30
0.0
 10
44.99189972302032
 20
-0.3163012038324644
 30
0.0
 10
44.91828991960763
 20
-0.4246540092928794
 30
0.0
  0
ARC
  5
4443
330
43CA
100
AcDbEntity
  8
0
100
AcDbCircle
 10
42.5
 20
-0.2299999999999986
 30
0.0
 40
2.5
100
AcDbArc
 50
5.269701326164559
 51
174.7302986738354
  0
SPLINE
  5
4444
330
43CA
100
AcDbEntity
  8
0
100
AcDbSpline
210
0.0
220
0.0
230
1.0
 70
     8
 71
     3
 72
     8
 73
     4
 74
     0
 42
0.000000001
 43
0.0000000001
 40
-1.0
 40
-1.0
 40
-1.0
 40
-1.0
 40
0.0
 40
0.0
 40
0.0
 40
0.0
 10
-4.918289920131913
 20
-0.4246540092928796
 30
0.0
 10
-4.99189972330713
 20
-0.3163012038163435
 30
0.0
 10
-5.016094836485379
 20
-0.1581319339514867
 30
0.0
 10
-4.989433513812965
 20
-0.00038994058095
 30
0.0
  0
ELLIPSE
  5
4445
330
43CA
100
AcDbEntity
  8
0
100
AcDbEllipse
 10
2.499999999999999
 20
0.0236058830622177
 30
0.0
 11
2.5
 21
-0.0000000000000007
 31
0.0
210
0.0
220
0.0
230
1.0
 40
0.7071067811865479
 41
4.712388980384682
 42
6.026811980988154
  0
LINE
  5
4446
330
43CA
100
AcDbEntity
  8
0
100
AcDbLine
 10
2.499999999999982
 20
-1.744161069904188
 30
0.0
 11
-2.500000000000008
 21
-1.744161069904188
 31
0.0
  0
ELLIPSE
  5
4447
330
43CA
100
AcDbEntity
  8
0
100
AcDbEllipse
 10
-2.500000000000008
 20
0.0236058830622177
 30
0.0
 11
-2.5
 21
0.0000000000000004
 31
0.0
210
0.0
220
0.0
230
1.0
 40
0.7071067811865479
 41
0.2563733261914329
 42
1.570796326794896
  0
SPLINE
  5
4448
330
43CA
100
AcDbEntity
  8
0
100
AcDbSpline
210
0.0
220
0.0
230
1.0
 70
     8
 71
     3
 72
     8
 73
     4
 74
     0
 42
0.000000001
 43
0.0000000001
 40
-1.0
 40
-1.0
 40
-1.0
 40
-1.0
 40
0.0
 40
0.0
 40
0.0
 40
0.0
 10
4.989433513812969
 20
-0.0003899405809502
 30
0.0
 10
5.01609483648548
 20
-0.1581319339515028
 30
0.0
 10
4.991899723307426
 20
-0.3163012038163498
 30
0.0
 10
4.918289920131911
 20
-0.4246540092928796
 30
0.0
  0
ARC
  5
4449
330
43CA
100
AcDbEntity
  8
0
100
AcDbCircle
 10
2.5
 20
-0.2300000019999632
 30
0.0
 40
2.5
100
AcDbArc
 50
5.269701372194978
 51
90.00000000000042
  0
LINE
  5
444A
330
43CA
100
AcDbEntity
  8
0
100
AcDbLine
 10
-2.500000000000008
 20
2.269999998000072
 30
0.0
 11
2.499999999999982
 21
2.269999998000072
 31
0.0
  0
ARC
  5
444B
330
43CA
100
AcDbEntity
  8
0
100
AcDbCircle
 10
-2.500000000000008
 20
-0.2300000019999632
 30
0.0
 40
2.5
100
AcDbArc
 50
90.0
 51
174.7302986278051
  0
ELLIPSE
  5
444C
330
43CA
100
AcDbEntity
  8
0
100
AcDbEllipse
 10
-59.39999999999998
 20
-54.16476937947047
 30
0.0
 11
-2.100000000000031
 21
-0.000000000000009
 31
0.0
210
0.0
220
0.0
230
1.0
 40
0.707106781186429
 41
0.0
 42
1.570796326794889
  0
ELLIPSE
  5
444D
330
43CA
100
AcDbEntity
  8
0
100
AcDbEllipse
 10
-59.39999999999998
 20
-54.16476937947047
 30
0.0
 11
-0.6000000000000087
 21
-0.0000000000000355
 31
0.0
210
0.0
220
0.0
230
1.0
 40
0.7071067811865719
 41
0.0
 42
1.570796326794795
  0
LINE
  5
444E
330
43CA
100
AcDbEntity
  8
0
100
AcDbLine
 10
59.39999999999999
 20
200.67
 30
0.0
 11
60.0
 21
200.67
 31
0.0
  0
LINE
  5
444F
330
43CA
100
AcDbEntity
  8
0
100
AcDbLine
 10
59.39999999999999
 20
80.27000000000002
 30
0.0
 11
60.0
 21
80.27000000000002
 31
0.0
  0
LINE
  5
4450
330
43CA
100
AcDbEntity
  8
0
100
AcDbLine
 10
-60.0
 20
200.67
 30
0.0
 11
-59.40000000000001
 21
200.67
 31
0.0
  0
LINE
  5
4451
330
43CA
100
AcDbEntity
  8
0
100
AcDbLine
 10
-60.0
 20
80.27000000000002
 30
0.0
 11
-59.40000000000001
 21
80.27000000000002
 31
0.0
  0
ENDBLK
  5
43CC
330
43CA
100
AcDbEntity
  8
0
100
AcDbBlockEnd
  0
BLOCK
  5
4453
330
4452
100
AcDbEntity
  8
0
100
AcDbBlockBegin
  2
SPR120_200-Left
 70
     0
 10
0.0
 20
0.0
 30
0.0
  3
SPR120_200-Left
  1

  0
LINE
  5
4455
330
4452
100
AcDbEntity
  8
0
100
AcDbLine
 10
0.0
 20
-0.0003899405809516
 30
0.0
 11
0.0
 21
1.270000000000001
 31
0.0
  0
LINE
  5
4456
330
4452
100
AcDbEntity
  8
0
100
AcDbLine
 10
62.91118318265866
 20
-2.263131642256734
 30
0.0
 11
4.362741700911234
 21
-2.26313164149227
 31
0.0
  0
LINE
  5
4457
330
4452
100
AcDbEntity
  8
0
100
AcDbLine
 10
1.675735931288096
 20
-0.4246540092928798
 30
0.0
 11
2.288136209298631
 21
-1.037054287303415
 31
0.0
  0
LINE
  5
4458
330
4452
100
AcDbEntity
  8
0
100
AcDbLine
 10
2.288136209298612
 20
-1.037054287303414
 30
0.0
 11
2.717240184541171
 21
-1.466158262545973
 31
0.0
  0
SPLINE
  5
4459
330
4452
100
AcDbEntity
  8
0
100
AcDbSpline
210
0.0
220
0.0
230
1.0
 70
     8
 71
     3
 72
     8
 73
     4
 74
     0
 42
0.000000001
 43
0.0000000001
 40
-1.0
 40
-1.0
 40
-1.0
 40
-1.0
 40
0.0
 40
0.0
 40
0.0
 40
0.0
 10
1.500000000000024
 20
-0.0003899405809507
 30
0.0
 10
1.500000000000024
 20
-0.1594792109354459
 30
0.0
 10
1.572566966670514
 20
-0.3214850446752977
 30
0.0
 10
1.675735931288095
 20
-0.4246540092928796
 30
0.0
  0
SPLINE
  5
445A
330
4452
100
AcDbEntity
  8
0
100
AcDbSpline
210
0.0
220
0.0
230
1.0
 70
     8
 71
     3
 72
     8
 73
     4
 74
     0
 42
0.000000001
 43
0.0000000001
 40
0.0
 40
0.0
 40
0.0
 40
0.0
 40
1.0
 40
1.0
 40
1.0
 40
1.0
 10
0.6150757595082743
 20
-1.485314181072701
 30
0.0
 10
0.2539843833467382
 20
-1.124222804911164
 30
0.0
 10
0.0000000000000243
 20
-0.5572023868216841
 30
0.0
 10
0.0000000000000242
 20
-0.000389940580951
 30
0.0
  0
SPLINE
  5
445B
330
4452
100
AcDbEntity
  8
0
100
AcDbSpline
210
0.0
220
0.0
230
1.0
 70
     8
 71
     3
 72
     8
 73
     4
 74
     0
 42
0.000000001
 43
0.0000000001
 40
-1.0
 40
-1.0
 40
-1.0
 40
-1.0
 40
0.0
 40
0.0
 40
0.0
 40
0.0
 10
2.717240184541163
 20
-1.466158262545961
 30
0.0
 10
3.124319333760646
 20
-1.873237411765444
 30
0.0
 10
3.733518404783824
 20
-2.078196639180591
 30
0.0
 10
4.362741700911261
 20
-2.263131641492208
 30
0.0
  0
LINE
  5
445C
330
4452
100
AcDbEntity
  8
0
100
AcDbLine
 10
2.717240184541171
 20
-1.466158262545973
 30
0.0
 11
2.364040347338284
 21
-1.81935809974886
 31
0.0
  0
LINE
  5
445D
330
4452
100
AcDbEntity
  8
0
100
AcDbLine
 10
2.364040347338284
 20
-1.81935809974886
 30
0.0
 11
1.656580012761349
 21
-2.526818434325794
 31
0.0
  0
SPLINE
  5
445E
330
4452
100
AcDbEntity
  8
0
100
AcDbSpline
210
0.0
220
0.0
230
1.0
 70
     8
 71
     3
 72
     8
 73
     4
 74
     0
 42
0.000000001
 43
0.0000000001
 40
0.0
 40
0.0
 40
0.0
 40
0.0
 40
1.0
 40
1.0
 40
1.0
 40
1.0
 10
4.362741700911222
 20
-2.263131641492247
 30
0.0
 10
3.178158037514031
 20
-2.633557006450384
 30
0.0
 10
2.063659161980825
 20
-2.933897583545265
 30
0.0
 10
1.656580012761341
 20
-2.526818434325782
 30
0.0
  0
LINE
  5
445F
330
4452
100
AcDbEntity
  8
0
100
AcDbLine
 10
1.656580012761349
 20
-2.526818434325794
 30
0.0
 11
1.227476037518795
 21
-2.097714459083231
 31
0.0
  0
LINE
  5
4460
330
4452
100
AcDbEntity
  8
0
100
AcDbLine
 10
2.288136209298612
 20
-1.037054287303414
 30
0.0
 11
1.227476037518795
 21
-2.097714459083231
 31
0.0
  0
LINE
  5
4461
330
4452
100
AcDbEntity
  8
0
100
AcDbLine
 10
1.227476037518822
 20
-2.097714459083224
 30
0.0
 11
0.6150757595082873
 21
-1.485314181072688
 31
0.0
  0
LINE
  5
4462
330
4452
100
AcDbEntity
  8
0
100
AcDbLine
 10
1.675735931288095
 20
-0.4246540092928796
 30
0.0
 11
1.32253609280357
 21
-0.7778538477774047
 31
0.0
  0
LINE
  5
4463
330
4452
100
AcDbEntity
  8
0
100
AcDbLine
 10
1.32253609280357
 20
-0.7778538477774047
 30
0.0
 11
0.6150757595082746
 21
-1.485314181072701
 31
0.0
  0
LINE
  5
4464
330
4452
100
AcDbEntity
  8
0
100
AcDbLine
 10
1.50000000000001
 20
-0.0003899405809504
 30
0.0
 11
1.00049999543961
 21
-0.0003899405809504
 31
0.0
  0
LINE
  5
4465
330
4452
100
AcDbEntity
  8
0
100
AcDbLine
 10
1.00049999543961
 20
-0.0003899405809504
 30
0.0
 11
0.0
 21
-0.0003899405809504
 31
0.0
  0
LINE
  5
4466
330
4452
100
AcDbEntity
  8
0
100
AcDbLine
 10
1.500000000000007
 20
1.270000000000001
 30
0.0
 11
1.500000000000006
 21
-0.000389940580951
 31
0.0
  0
LINE
  5
4467
330
4452
100
AcDbEntity
  8
0
100
AcDbLine
 10
0.0
 20
6.269999999999996
 30
0.0
 11
0.0
 21
1.269999999999996
 31
0.0
  0
LINE
  5
4468
330
4452
100
AcDbEntity
  8
0
100
AcDbLine
 10
0.0
 20
77.27000000000001
 30
0.0
 11
0.0
 21
72.27000000000001
 31
0.0
  0
LINE
  5
4469
330
4452
100
AcDbEntity
  8
0
100
AcDbLine
 10
1.500000000000018
 20
1.269999999999996
 30
0.0
 11
1.50000000000002
 21
6.269999999999996
 31
0.0
  0
LINE
  5
446A
330
4452
100
AcDbEntity
  8
0
100
AcDbLine
 10
1.50000000000002
 20
6.269999999999996
 30
0.0
 11
0.0
 21
6.269999999999996
 31
0.0
  0
LINE
  5
446B
330
4452
100
AcDbEntity
  8
0
100
AcDbLine
 10
0.0
 20
1.269999999999996
 30
0.0
 11
1.500000000000018
 21
1.269999999999996
 31
0.0
  0
LINE
  5
446C
330
4452
100
AcDbEntity
  8
0
100
AcDbLine
 10
0.0
 20
72.27000000000001
 30
0.0
 11
1.50000000000002
 21
72.27000000000001
 31
0.0
  0
LINE
  5
446D
330
4452
100
AcDbEntity
  8
0
100
AcDbLine
 10
1.50000000000002
 20
72.27000000000001
 30
0.0
 11
1.500000000000019
 21
77.27000000000001
 31
0.0
  0
LINE
  5
446E
330
4452
100
AcDbEntity
  8
0
100
AcDbLine
 10
1.500000000000019
 20
77.27000000000001
 30
0.0
 11
0.0
 21
77.27000000000001
 31
0.0
  0
LINE
  5
446F
330
4452
100
AcDbEntity
  8
0
100
AcDbLine
 10
0.0
 20
6.269999999999996
 30
0.0
 11
0.0
 21
72.27000000000001
 31
0.0
  0
LINE
  5
4470
330
4452
100
AcDbEntity
  8
0
100
AcDbLine
 10
0.0
 20
77.27000000000001
 30
0.0
 11
0.0
 21
80.27000000000001
 31
0.0
  0
LINE
  5
4471
330
4452
100
AcDbEntity
  8
0
100
AcDbLine
 10
1.50000000000002
 20
6.269999999999996
 30
0.0
 11
1.50000000000002
 21
72.27000000000001
 31
0.0
  0
LINE
  5
4472
330
4452
100
AcDbEntity
  8
0
100
AcDbLine
 10
1.500000000000007
 20
77.27000000000001
 30
0.0
 11
1.500000000000007
 21
80.27000000000001
 31
0.0
  0
LINE
  5
4473
330
4452
100
AcDbEntity
  8
0
100
AcDbLine
 10
0.0
 20
80.27000000000002
 30
0.0
 11
0.0
 21
200.67
 31
0.0
  0
LINE
  5
4474
330
4452
100
AcDbEntity
  8
0
100
AcDbLine
 10
2.100000000000013
 20
200.67
 30
0.0
 11
0.0
 21
200.67
 31
0.0
  0
LINE
  5
4475
330
4452
100
AcDbEntity
  8
0
100
AcDbLine
 10
0.0
 20
80.27000000000002
 30
0.0
 11
2.100000000000004
 21
80.27000000000002
 31
0.0
  0
LINE
  5
4476
330
4452
100
AcDbEntity
  8
0
100
AcDbLine
 10
43.50000000000002
 20
85.27000000000001
 30
0.0
 11
38.50000000000001
 21
80.27000000000002
 31
0.0
  0
LINE
  5
4477
330
4452
100
AcDbEntity
  8
0
100
AcDbLine
 10
38.50000000000002
 20
200.67
 30
0.0
 11
43.50000000000002
 21
195.67
 31
0.0
  0
LINE
  5
4478
330
4452
100
AcDbEntity
  8
0
100
AcDbLine
 10
82.00306627386
 20
-21.35501473263464
 30
0.0
 11
82.00306627386
 21
-28.42608254450009
 31
0.0
  0
CIRCLE
  5
4479
330
4452
100
AcDbEntity
  8
0
100
AcDbCircle
 10
35.50000000000002
 20
187.77
 30
0.0
 40
2.5
  0
CIRCLE
  5
447A
330
4452
100
AcDbEntity
  8
0
100
AcDbCircle
 10
35.50000000000002
 20
167.7699999999999
 30
0.0
 40
2.5
  0
CIRCLE
  5
447B
330
4452
100
AcDbEntity
  8
0
100
AcDbCircle
 10
35.50000000000002
 20
147.77
 30
0.0
 40
2.5
  0
CIRCLE
  5
447C
330
4452
100
AcDbEntity
  8
0
100
AcDbCircle
 10
35.50000000000002
 20
127.77
 30
0.0
 40
2.5
  0
CIRCLE
  5
447D
330
4452
100
AcDbEntity
  8
0
100
AcDbCircle
 10
35.50000000000002
 20
107.77
 30
0.0
 40
2.5
  0
CIRCLE
  5
447E
330
4452
100
AcDbEntity
  8
0
100
AcDbCircle
 10
35.50000000000002
 20
87.76999999999999
 30
0.0
 40
2.5
  0
LINE
  5
447F
330
4452
100
AcDbEntity
  8
0
100
AcDbLine
 10
43.50000000000002
 20
195.67
 30
0.0
 11
43.50000000000002
 21
85.27000000000001
 31
0.0
  0
LINE
  5
4480
330
4452
100
AcDbEntity
  8
0
100
AcDbLine
 10
2.100000000000013
 20
200.67
 30
0.0
 11
38.50000000000002
 21
200.67
 31
0.0
  0
LINE
  5
4481
330
4452
100
AcDbEntity
  8
0
100
AcDbLine
 10
38.50000000000001
 20
80.27000000000002
 30
0.0
 11
2.100000000000004
 21
80.27000000000002
 31
0.0
  0
LINE
  5
4482
330
4452
100
AcDbEntity
  8
0
100
AcDbLine
 10
82.00306627386
 20
-28.42608254450009
 30
0.0
 11
56.26437943888955
 21
-54.16476937947052
 31
0.0
  0
LINE
  5
4483
330
4452
100
AcDbEntity
  8
0
100
AcDbLine
 10
62.91118318265866
 20
-2.263131642256734
 30
0.0
 11
82.00306627386
 21
-21.35501473263464
 31
0.0
  0
CIRCLE
  5
4484
330
4452
100
AcDbEntity
  8
0
100
AcDbCircle
 10
74.57844507130477
 20
-25.24410202925711
 30
0.0
 40
2.5
  0
ARC
  5
4485
330
4452
100
AcDbEntity
  8
0
100
AcDbCircle
 10
59.31559010709463
 20
-13.990452698916
 30
0.0
 40
0.8000000000000012
100
AcDbArc
 50
315.000000001042
 51
75.00000000104186
  0
LINE
  5
4486
330
4452
100
AcDbEntity
  8
0
100
AcDbLine
 10
59.88127553205417
 20
-14.55613812385494
 30
0.0
 11
56.81941335363089
 21
-17.61800030238964
 31
0.0
  0
ARC
  5
4487
330
4452
100
AcDbEntity
  8
0
100
AcDbCircle
 10
56.25372792867135
 20
-17.0523148774507
 30
0.0
 40
0.8
100
AcDbArc
 50
195.0000000010428
 51
315.0000000010428
  0
LINE
  5
4488
330
4452
100
AcDbEntity
  8
0
100
AcDbLine
 10
55.48098726764388
 20
-17.25937011354677
 30
0.0
 11
54.36026792735773
 21
-13.07678859487811
 31
0.0
  0
ARC
  5
4489
330
4452
100
AcDbEntity
  8
0
100
AcDbCircle
 10
55.13300858838519
 20
-12.86973335878203
 30
0.0
 40
0.8000000000000014
100
AcDbArc
 50
75.00000000104188
 51
195.0000000010427
  0
LINE
  5
448A
330
4452
100
AcDbEntity
  8
0
100
AcDbLine
 10
55.34006382445316
 20
-12.096992697747
 30
0.0
 11
59.5226453431626
 21
-13.21771203788096
 31
0.0
  0
LINE
  5
448B
330
4452
100
AcDbEntity
  8
0
100
AcDbLine
 10
55.28251771018368
 20
-12.08382813389861
 30
0.0
 11
54.34710336350719
 21
-13.01924248060914
 31
0.0
  0
LINE
  5
448C
330
4452
100
AcDbEntity
  8
0
100
AcDbLine
 10
54.77945519839778
 20
-55.64969361996226
 30
0.0
 11
1.656580012761352
 21
-2.526818434325797
 31
0.0
  0
LINE
  5
448D
330
4452
100
AcDbEntity
  8
0
100
AcDbLine
 10
56.26437943888952
 20
-54.1647693794705
 30
0.0
 11
54.77945519839749
 21
-55.64969361996199
 31
0.0
  0
ENDBLK
  5
4454
330
4452
100
AcDbEntity
  8
0
100
AcDbBlockEnd
  0
BLOCK
  5
448F
330
448E
100
AcDbEntity
  8
0
100
AcDbBlockBegin
  2
SPR120_200-Right
 70
     0
 10
0.0
 20
0.0
 30
0.0
  3
SPR120_200-Right
  1

  0
LINE
  5
4491
330
448E
100
AcDbEntity
  8
0
100
AcDbLine
 10
-1.499999999999962
 20
6.269999999999996
 30
0.0
 11
-1.499999999999963
 21
1.269999999999996
 31
0.0
  0
LINE
  5
4492
330
448E
100
AcDbEntity
  8
0
100
AcDbLine
 10
-1.499999999999963
 20
1.269999999999996
 30
0.0
 11
0.0
 21
1.269999999999987
 31
0.0
  0
LINE
  5
4493
330
448E
100
AcDbEntity
  8
0
100
AcDbLine
 10
0.0
 20
1.269999999999987
 30
0.0
 11
0.0
 21
6.269999999999996
 31
0.0
  0
LINE
  5
4494
330
448E
100
AcDbEntity
  8
0
100
AcDbLine
 10
0.0
 20
6.269999999999996
 30
0.0
 11
-1.499999999999962
 21
6.269999999999996
 31
0.0
  0
LINE
  5
4495
330
448E
100
AcDbEntity
  8
0
100
AcDbLine
 10
-1.499999999999962
 20
72.27000000000001
 30
0.0
 11
0.0
 21
72.27000000000001
 31
0.0
  0
LINE
  5
4496
330
448E
100
AcDbEntity
  8
0
100
AcDbLine
 10
0.0
 20
72.27000000000001
 30
0.0
 11
0.0
 21
77.27000000000001
 31
0.0
  0
LINE
  5
4497
330
448E
100
AcDbEntity
  8
0
100
AcDbLine
 10
-1.499999999999963
 20
77.27000000000001
 30
0.0
 11
-1.499999999999962
 21
72.27000000000001
 31
0.0
  0
LINE
  5
4498
330
448E
100
AcDbEntity
  8
0
100
AcDbLine
 10
0.0
 20
77.27000000000001
 30
0.0
 11
-1.499999999999963
 21
77.27000000000001
 31
0.0
  0
LINE
  5
4499
330
448E
100
AcDbEntity
  8
0
100
AcDbLine
 10
0.0
 20
72.27000000000001
 30
0.0
 11
0.0
 21
6.269999999999997
 31
0.0
  0
LINE
  5
449A
330
448E
100
AcDbEntity
  8
0
100
AcDbLine
 10
-1.499999999999962
 20
72.27000000000001
 30
0.0
 11
-1.499999999999962
 21
6.269999999999997
 31
0.0
  0
LINE
  5
449B
330
448E
100
AcDbEntity
  8
0
100
AcDbLine
 10
0.0
 20
80.27000000000002
 30
0.0
 11
0.0
 21
77.27000000000002
 31
0.0
  0
LINE
  5
449C
330
448E
100
AcDbEntity
  8
0
100
AcDbLine
 10
-1.499999999999975
 20
80.27000000000002
 30
0.0
 11
-1.499999999999975
 21
77.27000000000002
 31
0.0
  0
LINE
  5
449D
330
448E
100
AcDbEntity
  8
0
100
AcDbLine
 10
0.0
 20
1.270000000000001
 30
0.0
 11
0.0
 21
-0.000389940580951
 31
0.0
  0
LINE
  5
449E
330
448E
100
AcDbEntity
  8
0
100
AcDbLine
 10
-4.362741700911207
 20
-2.263131641492265
 30
0.0
 11
-62.91118318265865
 21
-2.26313164225673
 31
0.0
  0
LINE
  5
449F
330
448E
100
AcDbEntity
  8
0
100
AcDbLine
 10
-2.71724018454114
 20
-1.466158262545978
 30
0.0
 11
-2.288136209298581
 21
-1.03705428730342
 31
0.0
  0
LINE
  5
44A0
330
448E
100
AcDbEntity
  8
0
100
AcDbLine
 10
-2.288136209298606
 20
-1.037054287303415
 30
0.0
 11
-1.675735931288064
 21
-0.4246540092928724
 31
0.0
  0
SPLINE
  5
44A1
330
448E
100
AcDbEntity
  8
0
100
AcDbSpline
210
0.0
220
0.0
230
1.0
 70
     8
 71
     3
 72
     8
 73
     4
 74
     0
 42
0.000000001
 43
0.0000000001
 40
-1.0
 40
-1.0
 40
-1.0
 40
-1.0
 40
0.0
 40
0.0
 40
0.0
 40
0.0
 10
-1.675735931288071
 20
-0.4246540092928796
 30
0.0
 10
-1.57256696667049
 20
-0.3214850446752982
 30
0.0
 10
-1.5
 20
-0.1594792109354491
 30
0.0
 10
-1.5
 20
-0.0003899405809508
 30
0.0
  0
SPLINE
  5
44A2
330
448E
100
AcDbEntity
  8
0
100
AcDbSpline
210
0.0
220
0.0
230
1.0
 70
     8
 71
     3
 72
     8
 73
     4
 74
     0
 42
0.000000001
 43
0.0000000001
 40
0.0
 40
0.0
 40
0.0
 40
0.0
 40
1.0
 40
1.0
 40
1.0
 40
1.0
 10
0.0000000000000003
 20
-0.0003899405809515
 30
0.0
 10
0.0000000000000001
 20
-0.5572023868216953
 30
0.0
 10
-0.2539843833467155
 20
-1.124222804911166
 30
0.0
 10
-0.6150757595082498
 20
-1.485314181072701
 30
0.0
  0
LINE
  5
44A3
330
448E
100
AcDbEntity
  8
0
100
AcDbLine
 10
-2.71724018454114
 20
-1.466158262545978
 30
0.0
 11
-2.364040347338938
 21
-1.819358099748179
 31
0.0
  0
SPLINE
  5
44A4
330
448E
100
AcDbEntity
  8
0
100
AcDbSpline
210
0.0
220
0.0
230
1.0
 70
     8
 71
     3
 72
     8
 73
     4
 74
     0
 42
0.000000001
 43
0.0000000001
 40
-1.0
 40
-1.0
 40
-1.0
 40
-1.0
 40
0.0
 40
0.0
 40
0.0
 40
0.0
 10
-4.362741700911234
 20
-2.263131641492203
 30
0.0
 10
-3.733518404783823
 20
-2.078196639180603
 30
0.0
 10
-3.124319333760276
 20
-1.873237411765096
 30
0.0
 10
-2.717240184541154
 20
-1.466158262545975
 30
0.0
  0
SPLINE
  5
44A5
330
448E
100
AcDbEntity
  8
0
100
AcDbSpline
210
0.0
220
0.0
230
1.0
 70
     8
 71
     3
 72
     8
 73
     4
 74
     0
 42
0.000000001
 43
0.0000000001
 40
0.0
 40
0.0
 40
0.0
 40
0.0
 40
1.0
 40
1.0
 40
1.0
 40
1.0
 10
-1.656580012761332
 20
-2.526818434325796
 30
0.0
 10
-2.063659161980453
 20
-2.933897583544917
 30
0.0
 10
-3.178158037514033
 20
-2.633557006450393
 30
0.0
 10
-4.362741700911187
 20
-2.26313164149225
 30
0.0
  0
LINE
  5
44A6
330
448E
100
AcDbEntity
  8
0
100
AcDbLine
 10
-2.364040347338938
 20
-1.819358099748179
 30
0.0
 11
-1.656580012761319
 21
-2.526818434325798
 31
0.0
  0
LINE
  5
44A7
330
448E
100
AcDbEntity
  8
0
100
AcDbLine
 10
-0.6150757595082553
 20
-1.485314181072678
 30
0.0
 11
-1.227476037518799
 21
-2.097714459083222
 31
0.0
  0
LINE
  5
44A8
330
448E
100
AcDbEntity
  8
0
100
AcDbLine
 10
-0.6150757595082497
 20
-1.4853141810727
 30
0.0
 11
-1.322536092819554
 21
-0.7778538477613967
 31
0.0
  0
LINE
  5
44A9
330
448E
100
AcDbEntity
  8
0
100
AcDbLine
 10
-1.322536092819554
 20
-0.7778538477613967
 30
0.0
 11
-1.675735931288071
 21
-0.4246540092928793
 31
0.0
  0
LINE
  5
44AA
330
448E
100
AcDbEntity
  8
0
100
AcDbLine
 10
-2.288136209298581
 20
-1.03705428730342
 30
0.0
 11
-1.227476037518765
 21
-2.097714459083234
 31
0.0
  0
LINE
  5
44AB
330
448E
100
AcDbEntity
  8
0
100
AcDbLine
 10
-1.227476037518765
 20
-2.097714459083234
 30
0.0
 11
-1.656580012761319
 21
-2.526818434325798
 31
0.0
  0
LINE
  5
44AC
330
448E
100
AcDbEntity
  8
0
100
AcDbLine
 10
-1.499999999999978
 20
-0.0003899405809504
 30
0.0
 11
-1.00049999548138
 21
-0.0003899405809504
 31
0.0
  0
LINE
  5
44AD
330
448E
100
AcDbEntity
  8
0
100
AcDbLine
 10
-1.00049999548138
 20
-0.0003899405809504
 30
0.0
 11
0.0
 21
-0.0003899405809504
 31
0.0
  0
LINE
  5
44AE
330
448E
100
AcDbEntity
  8
0
100
AcDbLine
 10
-1.499999999999982
 20
-0.0003899405809516
 30
0.0
 11
-1.499999999999982
 21
1.270000000000001
 31
0.0
  0
LINE
  5
44AF
330
448E
100
AcDbEntity
  8
0
100
AcDbLine
 10
0.0
 20
80.27000000000002
 30
0.0
 11
0.0
 21
200.67
 31
0.0
  0
LINE
  5
44B0
330
448E
100
AcDbEntity
  8
0
100
AcDbLine
 10
0.0
 20
200.67
 30
0.0
 11
-2.099999999999959
 21
200.67
 31
0.0
  0
LINE
  5
44B1
330
448E
100
AcDbEntity
  8
0
100
AcDbLine
 10
-2.099999999999976
 20
80.27000000000002
 30
0.0
 11
0.0
 21
80.27000000000002
 31
0.0
  0
LINE
  5
44B2
330
448E
100
AcDbEntity
  8
0
100
AcDbLine
 10
-38.49999999999997
 20
80.27000000000002
 30
0.0
 11
-43.49999999999997
 21
85.27000000000002
 31
0.0
  0
LINE
  5
44B3
330
448E
100
AcDbEntity
  8
0
100
AcDbLine
 10
-43.49999999999997
 20
195.67
 30
0.0
 11
-38.49999999999996
 21
200.67
 31
0.0
  0
LINE
  5
44B4
330
448E
100
AcDbEntity
  8
0
100
AcDbLine
 10
-82.00306627385996
 20
-28.42608254450008
 30
0.0
 11
-82.00306627385996
 21
-21.35501473263463
 31
0.0
  0
LINE
  5
44B5
330
448E
100
AcDbEntity
  8
0
100
AcDbLine
 10
-43.49999999999997
 20
85.27000000000002
 30
0.0
 11
-43.49999999999997
 21
195.67
 31
0.0
  0
LINE
  5
44B6
330
448E
100
AcDbEntity
  8
0
100
AcDbLine
 10
-2.099999999999976
 20
80.27000000000002
 30
0.0
 11
-38.49999999999997
 21
80.27000000000002
 31
0.0
  0
LINE
  5
44B7
330
448E
100
AcDbEntity
  8
0
100
AcDbLine
 10
-38.49999999999996
 20
200.67
 30
0.0
 11
-2.099999999999959
 21
200.67
 31
0.0
  0
CIRCLE
  5
44B8
330
448E
100
AcDbEntity
  8
0
100
AcDbCircle
 10
-35.49999999999999
 20
192.77
 30
0.0
 40
2.5
  0
CIRCLE
  5
44B9
330
448E
100
AcDbEntity
  8
0
100
AcDbCircle
 10
-35.49999999999999
 20
172.77
 30
0.0
 40
2.5
  0
CIRCLE
  5
44BA
330
448E
100
AcDbEntity
  8
0
100
AcDbCircle
 10
-35.49999999999999
 20
152.77
 30
0.0
 40
2.5
  0
CIRCLE
  5
44BB
330
448E
100
AcDbEntity
  8
0
100
AcDbCircle
 10
-35.49999999999999
 20
132.77
 30
0.0
 40
2.5
  0
CIRCLE
  5
44BC
330
448E
100
AcDbEntity
  8
0
100
AcDbCircle
 10
-35.49999999999999
 20
112.77
 30
0.0
 40
2.5
  0
CIRCLE
  5
44BD
330
448E
100
AcDbEntity
  8
0
100
AcDbCircle
 10
-35.49999999999999
 20
92.76999999999999
 30
0.0
 40
2.5
  0
LINE
  5
44BE
330
448E
100
AcDbEntity
  8
0
100
AcDbLine
 10
-62.91118318265865
 20
-2.26313164225673
 30
0.0
 11
-82.00306627385996
 21
-21.35501473263463
 31
0.0
  0
LINE
  5
44BF
330
448E
100
AcDbEntity
  8
0
100
AcDbLine
 10
-1.656580012761319
 20
-2.526818434325798
 30
0.0
 11
-54.77945519839777
 21
-55.64969361996226
 31
0.0
  0
LINE
  5
44C0
330
448E
100
AcDbEntity
  8
0
100
AcDbLine
 10
-54.77945519839774
 20
-55.64969361996226
 30
0.0
 11
-56.26437943888953
 21
-54.16476937947053
 31
0.0
  0
LINE
  5
44C1
330
448E
100
AcDbEntity
  8
0
100
AcDbLine
 10
-56.26437943888952
 20
-54.16476937947052
 30
0.0
 11
-82.00306627385996
 21
-28.42608254450008
 31
0.0
  0
CIRCLE
  5
44C2
330
448E
100
AcDbEntity
  8
0
100
AcDbCircle
 10
-71.04291116530766
 20
-21.70856812338872
 30
0.0
 40
2.5
  0
ARC
  5
44C3
330
448E
100
AcDbEntity
  8
0
100
AcDbCircle
 10
-51.59747468238808
 20
-9.33419945291363
 30
0.0
 40
0.8000000000000015
100
AcDbArc
 50
344.9999999989574
 51
355.4526675359234
  0
LINE
  5
44C4
330
448E
100
AcDbEntity
  8
0
100
AcDbLine
 10
-50.82473402136061
 20
-9.541254689009706
 30
0.0
 11
-51.94545336164678
 21
-13.72383620767836
 31
0.0
  0
ARC
  5
44C5
330
448E
100
AcDbEntity
  8
0
100
AcDbCircle
 10
-52.71819402267425
 20
-13.51678097158229
 30
0.0
 40
0.8
100
AcDbArc
 50
224.9999999989572
 51
344.9999999989576
  0
LINE
  5
44C6
330
448E
100
AcDbEntity
  8
0
100
AcDbLine
 10
-53.28387944763378
 20
-14.08246639652124
 30
0.0
 11
-56.34574162605706
 21
-11.02060421798654
 31
0.0
  0
ARC
  5
44C7
330
448E
100
AcDbEntity
  8
0
100
AcDbCircle
 10
-55.78005620109752
 20
-10.45491879304759
 30
0.0
 40
0.8000000000000014
100
AcDbArc
 50
104.9999999989575
 51
224.9999999989572
  0
LINE
  5
44C8
330
448E
100
AcDbEntity
  8
0
100
AcDbLine
 10
-55.98711143716549
 20
-9.682178132012559
 30
0.0
 11
-51.80452991845605
 21
-8.561458791878598
 31
0.0
  0
ARC
  5
44C9
330
448E
100
AcDbEntity
  8
0
100
AcDbCircle
 10
-51.59747468238808
 20
-9.33419945291363
 30
0.0
 40
0.8000000000000014
100
AcDbArc
 50
49.59733246198601
 51
104.9999999989581
  0
LINE
  5
44CA
330
448E
100
AcDbEntity
  8
0
100
AcDbLine
 10
-51.07895039795263
 20
-8.724992947325674
 30
0.0
 11
-50.79999294004347
 21
-9.397625556585486
 31
0.0
  0
ARC
  5
44CB
330
448E
100
AcDbEntity
  8
0
100
AcDbCircle
 10
-55.13300858838519
 20
-12.86973335878203
 30
0.0
 40
0.8000000000000015
100
AcDbArc
 50
349.2288663267691
 51
100.7711336711455
  0
ENDBLK
  5
4490
330
448E
100
AcDbEntity
  8
0
100
AcDbBlockEnd
  0
BLOCK
  5
44CD
330
44CC
100
AcDbEntity
  8
0
100
AcDbBlockBegin
  2
SPR120_200-Top
 70
     0
 10
0.0
 20
0.0
 30
0.0
  3
SPR120_200-Top
  1

  0
LINE
  5
44CF
330
44CC
100
AcDbEntity
  8
0
100
AcDbLine
 10
102.5270905609999
 20
-1.499999999999962
 30
0.0
 11
102.5270905609999
 21
0.0
 31
0.0
  0
LINE
  5
44D0
330
44CC
100
AcDbEntity
  8
0
100
AcDbLine
 10
-97.52709056100002
 20
0.0
 30
0.0
 11
-102.527090561
 21
0.0
 31
0.0
  0
LINE
  5
44D1
330
44CC
100
AcDbEntity
  8
0
100
AcDbLine
 10
102.5270905609999
 20
0.0
 30
0.0
 11
97.52709056099995
 21
0.0
 31
0.0
  0
LINE
  5
44D2
330
44CC
100
AcDbEntity
  8
0
100
AcDbLine
 10
-102.527090561
 20
0.0
 30
0.0
 11
-102.527090561
 21
-1.50000000000002
 31
0.0
  0
LINE
  5
44D3
330
44CC
100
AcDbEntity
  8
0
100
AcDbLine
 10
-102.527090561
 20
-1.50000000000002
 30
0.0
 11
-97.52709056100002
 21
-1.500000000000019
 31
0.0
  0
LINE
  5
44D4
330
44CC
100
AcDbEntity
  8
0
100
AcDbLine
 10
-97.52709056100002
 20
-1.500000000000019
 30
0.0
 11
-97.52709056100002
 21
0.0
 31
0.0
  0
LINE
  5
44D5
330
44CC
100
AcDbEntity
  8
0
100
AcDbLine
 10
97.52709056099995
 20
-1.499999999999963
 30
0.0
 11
102.5270905609999
 21
-1.499999999999962
 31
0.0
  0
LINE
  5
44D6
330
44CC
100
AcDbEntity
  8
0
100
AcDbLine
 10
97.52709056099995
 20
0.0
 30
0.0
 11
97.52709056099995
 21
-1.499999999999963
 31
0.0
  0
LINE
  5
44D7
330
44CC
100
AcDbEntity
  8
0
100
AcDbLine
 10
-97.52709056100002
 20
0.0
 30
0.0
 11
-59.40000000000001
 21
0.0
 31
0.0
  0
LINE
  5
44D8
330
44CC
100
AcDbEntity
  8
0
100
AcDbLine
 10
59.39999999999999
 20
0.0
 30
0.0
 11
97.52709056099995
 21
0.0
 31
0.0
  0
LINE
  5
44D9
330
44CC
100
AcDbEntity
  8
0
100
AcDbLine
 10
61.4124611797498
 20
-1.499999999999974
 30
0.0
 11
97.52709056099995
 21
-1.499999999999963
 31
0.0
  0
LINE
  5
44DA
330
44CC
100
AcDbEntity
  8
0
100
AcDbLine
 10
-97.52709056100002
 20
-1.500000000000019
 30
0.0
 11
-61.41246117974983
 21
-1.500000000000008
 31
0.0
  0
LINE
  5
44DB
330
44CC
100
AcDbEntity
  8
0
100
AcDbLine
 10
59.39999999999999
 20
0.0
 30
0.0
 11
-59.40000000000001
 21
0.0
 31
0.0
  0
LINE
  5
44DC
330
44CC
100
AcDbEntity
  8
0
100
AcDbLine
 10
61.5000000000002
 20
-38.49999999999996
 30
0.0
 11
61.5
 21
-2.099999999999959
 31
0.0
  0
LINE
  5
44DD
330
44CC
100
AcDbEntity
  8
0
100
AcDbLine
 10
-61.50000000000002
 20
-2.100000000000013
 30
0.0
 11
-61.5
 21
-38.50000000000002
 31
0.0
  0
LINE
  5
44DE
330
44CC
100
AcDbEntity
  8
0
100
AcDbLine
 10
60.0
 20
-2.099999999999977
 30
0.0
 11
60.00000000000021
 21
-38.5
 31
0.0
  0
LINE
  5
44DF
330
44CC
100
AcDbEntity
  8
0
100
AcDbLine
 10
-59.40000000000001
 20
-1.500000000000016
 30
0.0
 11
59.39999999999999
 21
-1.499999999999981
 31
0.0
  0
LINE
  5
44E0
330
44CC
100
AcDbEntity
  8
0
100
AcDbLine
 10
-60.0
 20
-38.50000000000002
 30
0.0
 11
-60.0
 21
-2.100000000000012
 31
0.0
  0
LINE
  5
44E1
330
44CC
100
AcDbEntity
  8
0
100
AcDbLine
 10
60.00000000000023
 20
-43.49999999999997
 30
0.0
 11
61.50000000000023
 21
-43.49999999999997
 31
0.0
  0
LINE
  5
44E2
330
44CC
100
AcDbEntity
  8
0
100
AcDbLine
 10
61.50000000000023
 20
-43.49999999999997
 30
0.0
 11
61.5000000000002
 21
-38.49999999999996
 31
0.0
  0
LINE
  5
44E3
330
44CC
100
AcDbEntity
  8
0
100
AcDbLine
 10
-61.5
 20
-38.50000000000002
 30
0.0
 11
-61.5
 21
-43.50000000000002
 31
0.0
  0
LINE
  5
44E4
330
44CC
100
AcDbEntity
  8
0
100
AcDbLine
 10
-61.5
 20
-43.50000000000002
 30
0.0
 11
-60.0
 21
-43.50000000000001
 31
0.0
  0
LINE
  5
44E5
330
44CC
100
AcDbEntity
  8
0
100
AcDbLine
 10
61.5000000000002
 20
-38.49999999999996
 30
0.0
 11
60.00000000000021
 21
-38.5
 31
0.0
  0
LINE
  5
44E6
330
44CC
100
AcDbEntity
  8
0
100
AcDbLine
 10
60.00000000000021
 20
-38.5
 30
0.0
 11
60.00000000000023
 21
-43.49999999999997
 31
0.0
  0
LINE
  5
44E7
330
44CC
100
AcDbEntity
  8
0
100
AcDbLine
 10
-60.0
 20
-43.50000000000001
 30
0.0
 11
-60.0
 21
-38.50000000000002
 31
0.0
  0
LINE
  5
44E8
330
44CC
100
AcDbEntity
  8
0
100
AcDbLine
 10
-60.0
 20
-38.50000000000002
 30
0.0
 11
-61.5
 21
-38.50000000000002
 31
0.0
  0
LINE
  5
44E9
330
44CC
100
AcDbEntity
  8
0
100
AcDbLine
 10
61.49999999999998
 20
-82.00306627385996
 30
0.0
 11
59.99999999999997
 21
-82.00306627385996
 31
0.0
  0
LINE
  5
44EA
330
44CC
100
AcDbEntity
  8
0
100
AcDbLine
 10
-59.99999999999996
 20
-82.00306627386
 30
0.0
 11
-61.49999999999995
 21
-82.00306627386
 31
0.0
  0
LINE
  5
44EB
330
44CC
100
AcDbEntity
  8
0
100
AcDbLine
 10
61.50000000000209
 20
-62.91118318265865
 30
0.0
 11
61.49999999999998
 21
-82.00306627385996
 31
0.0
  0
LINE
  5
44EC
330
44CC
100
AcDbEntity
  8
0
100
AcDbLine
 10
60.00000000000172
 20
-62.91118318265865
 30
0.0
 11
59.99999999999997
 21
-82.00306627385996
 31
0.0
  0
ELLIPSE
  5
44ED
330
44CC
100
AcDbEntity
  8
0
100
AcDbEllipse
 10
59.39999999999998
 20
-56.26437943888951
 30
0.0
 11
0.6000000000000087
 21
-0.0000000000000257
 31
0.0
210
0.0
220
0.0
230
1.0
 40
0.7071067811866067
 41
0.0
 42
1.570796326794897
  0
LINE
  5
44EE
330
44CC
100
AcDbEntity
  8
0
100
AcDbLine
 10
61.50000000000209
 20
-62.91118318265865
 30
0.0
 11
60.00000000000172
 21
-62.91118318265865
 31
0.0
  0
LINE
  5
44EF
330
44CC
100
AcDbEntity
  8
0
100
AcDbLine
 10
61.50000000000002
 20
-43.49999999999997
 30
0.0
 11
61.50000000000209
 21
-62.91118318265865
 31
0.0
  0
LINE
  5
44F0
330
44CC
100
AcDbEntity
  8
0
100
AcDbLine
 10
-61.50000000000158
 20
-62.91118318265866
 30
0.0
 11
-61.50000000000161
 21
-43.50000000000002
 31
0.0
  0
ELLIPSE
  5
44F1
330
44CC
100
AcDbEntity
  8
0
100
AcDbEllipse
 10
-56.50000000000002
 20
-1.22747603751881
 30
0.0
 11
-1.5
 21
0.0000000000001091
 31
0.0
210
0.0
220
0.0
230
1.0
 40
0.7071067811865474
 41
1.570796326795026
 42
2.705254581962137
  0
LINE
  5
44F2
330
44CC
100
AcDbEntity
  8
0
100
AcDbLine
 10
-56.50000000000002
 20
-2.288136209298611
 30
0.0
 11
-58.79315533855962
 21
-2.288136209298612
 31
0.0
  0
LINE
  5
44F3
330
44CC
100
AcDbEntity
  8
0
100
AcDbLine
 10
-58.79315533855962
 20
-2.288136209298612
 30
0.0
 11
-59.40000000000001
 21
-2.717240184541171
 31
0.0
  0
LINE
  5
44F4
330
44CC
100
AcDbEntity
  8
0
100
AcDbLine
 10
59.39999999999999
 20
-2.71724018454114
 30
0.0
 11
58.7931553385596
 21
-2.288136209298581
 31
0.0
  0
LINE
  5
44F5
330
44CC
100
AcDbEntity
  8
0
100
AcDbLine
 10
58.7931553385596
 20
-2.288136209298581
 30
0.0
 11
56.49999999999998
 21
-2.288136209298582
 31
0.0
  0
ELLIPSE
  5
44F6
330
44CC
100
AcDbEntity
  8
0
100
AcDbEllipse
 10
56.49999999999998
 20
-1.227476037518786
 30
0.0
 11
-1.5
 21
-0.0000000000000003
 31
0.0
210
0.0
220
0.0
230
1.0
 40
0.7071067811865474
 41
0.4363380716279047
 42
1.570796326794896
  0
SPLINE
  5
44F7
330
44CC
100
AcDbEntity
  8
0
100
AcDbSpline
210
0.0
220
0.0
230
1.0
 70
     8
 71
     3
 72
     8
 73
     4
 74
     0
 42
0.000000001
 43
0.0000000001
 40
-1.0
 40
-1.0
 40
-1.0
 40
-1.0
 40
0.0
 40
0.0
 40
0.0
 40
0.0
 10
-55.01767776087199
 20
-1.500000000000024
 30
0.0
 10
-54.97251992073981
 20
-1.500000000000024
 30
0.0
 10
-55.01586474390123
 20
-1.572566966670514
 30
0.0
 10
-55.14054197002048
 20
-1.675735931288095
 30
0.0
  0
SPLINE
  5
44F8
330
44CC
100
AcDbEntity
  8
0
100
AcDbSpline
210
0.0
220
0.0
230
1.0
 70
     8
 71
     3
 72
     8
 73
     4
 74
     0
 42
0.000000001
 43
0.0000000001
 40
-1.0
 40
-1.0
 40
-1.0
 40
-1.0
 40
0.0
 40
0.0
 40
0.0
 40
0.0
 10
55.14054197002042
 20
-1.675735931288071
 30
0.0
 10
55.01586474390373
 20
-1.57256696667049
 30
0.0
 10
54.97251992074176
 20
-1.5
 30
0.0
 10
55.01767776087193
 20
-1.5
 30
0.0
  0
LINE
  5
44F9
330
44CC
100
AcDbEntity
  8
0
100
AcDbLine
 10
-60.00000000000125
 20
-62.91118318265866
 30
0.0
 11
-61.50000000000158
 21
-62.91118318265866
 31
0.0
  0
LINE
  5
44FA
330
44CC
100
AcDbEntity
  8
0
100
AcDbLine
 10
-60.00000000000001
 20
-43.50000000000001
 30
0.0
 11
-60.00000000000125
 21
-62.91118318265866
 31
0.0
  0
SPLINE
  5
44FB
330
44CC
100
AcDbEntity
  8
0
100
AcDbSpline
210
0.0
220
0.0
230
1.0
 70
     8
 71
     3
 72
     8
 73
     4
 74
     0
 42
0.000000001
 43
0.0000000001
 40
-1.0
 40
-1.0
 40
-1.0
 40
-1.0
 40
0.0
 40
0.0
 40
0.0
 40
0.0
 10
-59.40000000000001
 20
-2.717240184541163
 30
0.0
 10
-59.71415926535899
 20
-3.124319333760646
 30
0.0
 10
-60.00000000000003
 20
-3.733518404783824
 30
0.0
 10
-60.00000000000003
 20
-4.362741700911261
 30
0.0
  0
LINE
  5
44FC
330
44CC
100
AcDbEntity
  8
0
100
AcDbLine
 10
-59.40000000000001
 20
-2.717240184541171
 30
0.0
 11
-59.40000000000001
 21
-2.364040347338284
 31
0.0
  0
LINE
  5
44FD
330
44CC
100
AcDbEntity
  8
0
100
AcDbLine
 10
-59.40000000000001
 20
-2.364040347338284
 30
0.0
 11
-59.40000000000001
 21
-1.656580012761349
 31
0.0
  0
SPLINE
  5
44FE
330
44CC
100
AcDbEntity
  8
0
100
AcDbSpline
210
0.0
220
0.0
230
1.0
 70
     8
 71
     3
 72
     8
 73
     4
 74
     0
 42
0.000000001
 43
0.0000000001
 40
0.8233926083861737
 40
0.8233926083861737
 40
0.8233926083861737
 40
0.8233926083861737
 40
1.0
 40
1.0
 40
1.0
 40
1.0
 10
-59.96833079343947
 20
-1.934942494001981
 30
0.0
 10
-59.78528852951264
 20
-1.822430928281057
 30
0.0
 10
-59.59418996942229
 20
-1.728473199485369
 30
0.0
 10
-59.40000000000001
 20
-1.656580012761341
 30
0.0
  0
LINE
  5
44FF
330
44CC
100
AcDbEntity
  8
0
100
AcDbLine
 10
-59.40000000000001
 20
-1.656580012761349
 30
0.0
 11
-59.17856242236215
 21
-1.500000000000008
 31
0.0
  0
LINE
  5
4500
330
44CC
100
AcDbEntity
  8
0
100
AcDbLine
 10
-58.79315533855962
 20
-2.288136209298612
 30
0.0
 11
-58.79315533855962
 21
-1.500000000000016
 31
0.0
  0
LINE
  5
4501
330
44CC
100
AcDbEntity
  8
0
100
AcDbLine
 10
-55.14054197002046
 20
-1.675735931288095
 30
0.0
 11
-55.14054197002046
 21
-1.500000000000015
 31
0.0
  0
LINE
  5
4502
330
44CC
100
AcDbEntity
  8
0
100
AcDbLine
 10
60.00000000000172
 20
-62.91118318265865
 30
0.0
 11
60.00000000000172
 21
-43.49999999999997
 31
0.0
  0
LINE
  5
4503
330
44CC
100
AcDbEntity
  8
0
100
AcDbLine
 10
59.39999999999999
 20
-2.71724018454114
 30
0.0
 11
59.39999999999999
 21
-2.364040347338938
 31
0.0
  0
SPLINE
  5
4504
330
44CC
100
AcDbEntity
  8
0
100
AcDbSpline
210
0.0
220
0.0
230
1.0
 70
     8
 71
     3
 72
     8
 73
     4
 74
     0
 42
0.000000001
 43
0.0000000001
 40
-1.0
 40
-1.0
 40
-1.0
 40
-1.0
 40
0.0
 40
0.0
 40
0.0
 40
0.0
 10
60.00000000000001
 20
-4.362741700911234
 30
0.0
 10
60.0
 20
-3.733518404783823
 30
0.0
 10
59.71415926535897
 20
-3.124319333760276
 30
0.0
 10
59.39999999999999
 20
-2.717240184541154
 30
0.0
  0
SPLINE
  5
4505
330
44CC
100
AcDbEntity
  8
0
100
AcDbSpline
210
0.0
220
0.0
230
1.0
 70
     8
 71
     3
 72
     8
 73
     4
 74
     0
 42
0.000000001
 43
0.0000000001
 40
0.0
 40
0.0
 40
0.0
 40
0.0
 40
0.1766073916138308
 40
0.1766073916138308
 40
0.1766073916138308
 40
0.1766073916138308
 10
59.39999999999999
 20
-1.656580012761332
 30
0.0
 10
59.59418996942226
 20
-1.728473199485298
 30
0.0
 10
59.7852885295126
 20
-1.822430928280948
 30
0.0
 10
59.96833079343944
 20
-1.934942494001851
 30
0.0
  0
LINE
  5
4506
330
44CC
100
AcDbEntity
  8
0
100
AcDbLine
 10
59.39999999999999
 20
-2.364040347338938
 30
0.0
 11
59.39999999999999
 21
-1.656580012761319
 31
0.0
  0
LINE
  5
4507
330
44CC
100
AcDbEntity
  8
0
100
AcDbLine
 10
55.14054197002042
 20
-1.499999999999982
 30
0.0
 11
55.1405419700204
 21
-1.675735931288071
 31
0.0
  0
LINE
  5
4508
330
44CC
100
AcDbEntity
  8
0
100
AcDbLine
 10
58.7931553385596
 20
-2.288136209298581
 30
0.0
 11
58.7931553385596
 21
-1.499999999999981
 31
0.0
  0
LINE
  5
4509
330
44CC
100
AcDbEntity
  8
0
100
AcDbLine
 10
59.17856242236212
 20
-1.499999999999975
 30
0.0
 11
59.39999999999999
 21
-1.656580012761319
 31
0.0
  0
LINE
  5
450A
330
44CC
100
AcDbEntity
  8
0
100
AcDbLine
 10
-61.50000000000158
 20
-62.91118318265866
 30
0.0
 11
-61.49999999999995
 21
-82.00306627386
 31
0.0
  0
LINE
  5
450B
330
44CC
100
AcDbEntity
  8
0
100
AcDbLine
 10
-60.00000000000125
 20
-62.91118318265866
 30
0.0
 11
-59.99999999999996
 21
-82.00306627386
 31
0.0
  0
ELLIPSE
  5
450C
330
44CC
100
AcDbEntity
  8
0
100
AcDbEllipse
 10
-22.50000000000004
 20
-0.1668158657389961
 30
0.0
 11
2.499999999999999
 21
0.0000000000001828
 31
0.0
210
0.0
220
0.0
230
1.0
 40
0.7071067811865474
 41
3.995971005724948
 42
4.712388980384622
  0
LINE
  5
450D
330
44CC
100
AcDbEntity
  8
0
100
AcDbLine
 10
-24.91828991960768
 20
-1.500000000000006
 30
0.0
 11
-24.91828991960768
 21
-1.675735931288089
 31
0.0
  0
ELLIPSE
  5
450E
330
44CC
100
AcDbEntity
  8
0
100
AcDbEllipse
 10
-22.50000000000004
 20
-1.227476037518803
 30
0.0
 11
-2.5
 21
-0.0000000000000006
 31
0.0
210
0.0
220
0.0
230
1.0
 40
0.7071067811865472
 41
0.2563733270184496
 42
1.570796326794896
  0
LINE
  5
450F
330
44CC
100
AcDbEntity
  8
0
100
AcDbLine
 10
-22.50000000000004
 20
-1.934582818705388
 30
0.0
 11
-17.50000000000001
 21
-1.934582818705387
 31
0.0
  0
LINE
  5
4510
330
44CC
100
AcDbEntity
  8
0
100
AcDbLine
 10
-17.50000000000001
 20
-2.995242990485209
 30
0.0
 11
-22.50000000000004
 21
-2.995242990485211
 31
0.0
  0
ELLIPSE
  5
4511
330
44CC
100
AcDbEntity
  8
0
100
AcDbEllipse
 10
-17.50000000000001
 20
-0.1668158657389947
 30
0.0
 11
2.5
 21
0.0000000000000006
 31
0.0
210
0.0
220
0.0
230
1.0
 40
0.7071067811865472
 41
4.712388980384689
 42
5.428806955044297
  0
ELLIPSE
  5
4512
330
44CC
100
AcDbEntity
  8
0
100
AcDbEllipse
 10
-17.50000000000001
 20
-1.227476037518802
 30
0.0
 11
2.5
 21
0.0000000000000009
 31
0.0
210
0.0
220
0.0
230
1.0
 40
0.7071067811865475
 41
4.712388980384689
 42
6.026811980161137
  0
LINE
  5
4513
330
44CC
100
AcDbEntity
  8
0
100
AcDbLine
 10
-15.08171008039237
 20
-1.675735931288087
 30
0.0
 11
-15.08171008039237
 21
-1.500000000000003
 31
0.0
  0
SPLINE
  5
4514
330
44CC
100
AcDbEntity
  8
0
100
AcDbSpline
210
0.0
220
0.0
230
1.0
 70
     8
 71
     3
 72
     8
 73
     4
 74
     0
 42
0.000000001
 43
0.0000000001
 40
-1.0
 40
-1.0
 40
-1.0
 40
-1.0
 40
0.0
 40
0.0
 40
0.0
 40
0.0
 10
-24.91828991960768
 20
-1.675735931288089
 30
0.0
 10
-24.99189972302032
 20
-1.567383125827709
 30
0.0
 10
-25.01609483643946
 20
-1.500000000000017
 30
0.0
 10
-24.98943351399747
 20
-1.500000000000017
 30
0.0
  0
SPLINE
  5
4515
330
44CC
100
AcDbEntity
  8
0
100
AcDbSpline
210
0.0
220
0.0
230
1.0
 70
     8
 71
     3
 72
     8
 73
     4
 74
     0
 42
0.000000001
 43
0.0000000001
 40
-1.0
 40
-1.0
 40
-1.0
 40
-1.0
 40
0.0
 40
0.0
 40
0.0
 40
0.0
 10
-15.01056648600258
 20
-1.500000000000015
 30
0.0
 10
-14.9839051635608
 20
-1.500000000000015
 30
0.0
 10
-15.00810027697978
 20
-1.567383125827735
 30
0.0
 10
-15.08171008039238
 20
-1.675735931288087
 30
0.0
  0
ELLIPSE
  5
4516
330
44CC
100
AcDbEntity
  8
0
100
AcDbEllipse
 10
17.49999999999999
 20
-0.1668158657389918
 30
0.0
 11
2.5
 21
0.0000000000001828
 31
0.0
210
0.0
220
0.0
230
1.0
 40
0.7071067811865474
 41
3.995971005724941
 42
4.712388980384622
  0
LINE
  5
4517
330
44CC
100
AcDbEntity
  8
0
100
AcDbLine
 10
15.08171008039235
 20
-1.499999999999994
 30
0.0
 11
15.08171008039236
 21
-1.67573593128808
 31
0.0
  0
ELLIPSE
  5
4518
330
44CC
100
AcDbEntity
  8
0
100
AcDbEllipse
 10
17.49999999999999
 20
-1.227476037518794
 30
0.0
 11
-2.5
 21
-0.0000000000000006
 31
0.0
210
0.0
220
0.0
230
1.0
 40
0.7071067811865472
 41
0.2563733270184487
 42
1.570796326794896
  0
LINE
  5
4519
330
44CC
100
AcDbEntity
  8
0
100
AcDbLine
 10
17.49999999999999
 20
-1.934582818705378
 30
0.0
 11
22.50000000000003
 21
-1.934582818705377
 31
0.0
  0
LINE
  5
451A
330
44CC
100
AcDbEntity
  8
0
100
AcDbLine
 10
22.50000000000003
 20
-2.995242990485199
 30
0.0
 11
17.49999999999999
 21
-2.9952429904852
 31
0.0
  0
ELLIPSE
  5
451B
330
44CC
100
AcDbEntity
  8
0
100
AcDbEllipse
 10
22.50000000000003
 20
-0.1668158657389901
 30
0.0
 11
2.5
 21
0.0000000000000006
 31
0.0
210
0.0
220
0.0
230
1.0
 40
0.7071067811865472
 41
4.712388980384689
 42
5.428806955044304
  0
ELLIPSE
  5
451C
330
44CC
100
AcDbEntity
  8
0
100
AcDbEllipse
 10
22.50000000000003
 20
-1.227476037518793
 30
0.0
 11
2.5
 21
0.0000000000000008
 31
0.0
210
0.0
220
0.0
230
1.0
 40
0.7071067811865476
 41
4.712388980384689
 42
6.026811980161135
  0
LINE
  5
451D
330
44CC
100
AcDbEntity
  8
0
100
AcDbLine
 10
24.91828991960767
 20
-1.675735931288078
 30
0.0
 11
24.91828991960767
 21
-1.499999999999992
 31
0.0
  0
SPLINE
  5
451E
330
44CC
100
AcDbEntity
  8
0
100
AcDbSpline
210
0.0
220
0.0
230
1.0
 70
     8
 71
     3
 72
     8
 73
     4
 74
     0
 42
0.000000001
 43
0.0000000001
 40
-1.0
 40
-1.0
 40
-1.0
 40
-1.0
 40
0.0
 40
0.0
 40
0.0
 40
0.0
 10
15.08171008039235
 20
-1.67573593128808
 30
0.0
 10
15.00810027697997
 20
-1.567383125827725
 30
0.0
 10
14.98390516356048
 20
-1.500000000000008
 30
0.0
 10
15.01056648600256
 20
-1.500000000000008
 30
0.0
  0
SPLINE
  5
451F
330
44CC
100
AcDbEntity
  8
0
100
AcDbSpline
210
0.0
220
0.0
230
1.0
 70
     8
 71
     3
 72
     8
 73
     4
 74
     0
 42
0.000000001
 43
0.0000000001
 40
-1.0
 40
-1.0
 40
-1.0
 40
-1.0
 40
0.0
 40
0.0
 40
0.0
 40
0.0
 10
24.98943351399746
 20
-1.500000000000006
 30
0.0
 10
25.0160948364395
 20
-1.500000000000006
 30
0.0
 10
24.99189972302037
 20
-1.5673831258277
 30
0.0
 10
24.91828991960767
 20
-1.675735931288078
 30
0.0
  0
SPLINE
  5
4520
330
44CC
100
AcDbEntity
  8
0
100
AcDbSpline
210
0.0
220
0.0
230
1.0
 70
     8
 71
     3
 72
     8
 73
     4
 74
     0
 42
0.000000001
 43
0.0000000001
 40
-1.0
 40
-1.0
 40
-1.0
 40
-1.0
 40
0.0
 40
0.0
 40
0.0
 40
0.0
 10
-40.01056648600259
 20
-1.500000000000021
 30
0.0
 10
-39.98390516356046
 20
-1.500000000000021
 30
0.0
 10
-40.00810027697968
 20
-1.567383125827685
 30
0.0
 10
-40.08171008039237
 20
-1.675735931288092
 30
0.0
  0
ELLIPSE
  5
4521
330
44CC
100
AcDbEntity
  8
0
100
AcDbEllipse
 10
-42.5
 20
-1.227476037518807
 30
0.0
 11
2.5
 21
0.0000000000000005
 31
0.0
210
0.0
220
0.0
230
1.0
 40
0.7071067811865475
 41
3.397965980608241
 42
6.026811980161135
  0
ELLIPSE
  5
4522
330
44CC
100
AcDbEntity
  8
0
100
AcDbEllipse
 10
42.5
 20
-1.227476037518788
 30
0.0
 11
2.5
 21
0.000000000000001
 31
0.0
210
0.0
220
0.0
230
1.0
 40
0.7071067811865475
 41
3.397965980608241
 42
6.026811980161136
  0
SPLINE
  5
4523
330
44CC
100
AcDbEntity
  8
0
100
AcDbSpline
210
0.0
220
0.0
230
1.0
 70
     8
 71
     3
 72
     8
 73
     4
 74
     0
 42
0.000000001
 43
0.0000000001
 40
-1.0
 40
-1.0
 40
-1.0
 40
-1.0
 40
0.0
 40
0.0
 40
0.0
 40
0.0
 10
40.08171008039236
 20
-1.675735931288075
 30
0.0
 10
40.00810027697983
 20
-1.567383125827689
 30
0.0
 10
39.98390516356058
 20
-1.500000000000003
 30
0.0
 10
40.01056648600257
 20
-1.500000000000003
 30
0.0
  0
ELLIPSE
  5
4524
330
44CC
100
AcDbEntity
  8
0
100
AcDbEllipse
 10
-42.5
 20
-0.1668158657390011
 30
0.0
 11
2.5
 21
0.0000000000001819
 31
0.0
210
0.0
220
0.0
230
1.0
 40
0.7071067811865472
 41
3.995971005724948
 42
5.428806955044164
  0
LINE
  5
4525
330
44CC
100
AcDbEntity
  8
0
100
AcDbLine
 10
-44.91828991960765
 20
-1.500000000000012
 30
0.0
 11
-44.91828991960765
 21
-1.675735931288093
 31
0.0
  0
LINE
  5
4526
330
44CC
100
AcDbEntity
  8
0
100
AcDbLine
 10
-40.08171008039237
 20
-1.675735931288092
 30
0.0
 11
-40.08171008039237
 21
-1.500000000000011
 31
0.0
  0
SPLINE
  5
4527
330
44CC
100
AcDbEntity
  8
0
100
AcDbSpline
210
0.0
220
0.0
230
1.0
 70
     8
 71
     3
 72
     8
 73
     4
 74
     0
 42
0.000000001
 43
0.0000000001
 40
-1.0
 40
-1.0
 40
-1.0
 40
-1.0
 40
0.0
 40
0.0
 40
0.0
 40
0.0
 10
-44.91828991960765
 20
-1.675735931288094
 30
0.0
 10
-44.99189972302027
 20
-1.567383125827716
 30
0.0
 10
-45.01609483643965
 20
-1.500000000000022
 30
0.0
 10
-44.98943351399742
 20
-1.500000000000022
 30
0.0
  0
ELLIPSE
  5
4528
330
44CC
100
AcDbEntity
  8
0
100
AcDbEllipse
 10
42.5
 20
-0.1668158657389851
 30
0.0
 11
2.5
 21
0.0000000000001836
 31
0.0
210
0.0
220
0.0
230
1.0
 40
0.7071067811865474
 41
3.995971005724943
 42
5.428806955044167
  0
LINE
  5
4529
330
44CC
100
AcDbEntity
  8
0
100
AcDbLine
 10
40.08171008039236
 20
-1.499999999999987
 30
0.0
 11
40.08171008039236
 21
-1.675735931288074
 31
0.0
  0
LINE
  5
452A
330
44CC
100
AcDbEntity
  8
0
100
AcDbLine
 10
44.91828991960763
 20
-1.675735931288073
 30
0.0
 11
44.91828991960763
 21
-1.499999999999985
 31
0.0
  0
SPLINE
  5
452B
330
44CC
100
AcDbEntity
  8
0
100
AcDbSpline
210
0.0
220
0.0
230
1.0
 70
     8
 71
     3
 72
     8
 73
     4
 74
     0
 42
0.000000001
 43
0.0000000001
 40
-1.0
 40
-1.0
 40
-1.0
 40
-1.0
 40
0.0
 40
0.0
 40
0.0
 40
0.0
 10
44.98943351399742
 20
-1.500000000000002
 30
0.0
 10
45.01609483643922
 20
-1.500000000000002
 30
0.0
 10
44.99189972302032
 20
-1.567383125827658
 30
0.0
 10
44.91828991960763
 20
-1.675735931288073
 30
0.0
  0
SPLINE
  5
452C
330
44CC
100
AcDbEntity
  8
0
100
AcDbSpline
210
0.0
220
0.0
230
1.0
 70
     8
 71
     3
 72
     8
 73
     4
 74
     0
 42
0.000000001
 43
0.0000000001
 40
-1.0
 40
-1.0
 40
-1.0
 40
-1.0
 40
0.0
 40
0.0
 40
0.0
 40
0.0
 10
-4.918289920131913
 20
-1.675735931288084
 30
0.0
 10
-4.99189972330713
 20
-1.567383125811548
 30
0.0
 10
-5.016094836485379
 20
-1.500000000000012
 30
0.0
 10
-4.989433513812965
 20
-1.500000000000013
 30
0.0
  0
ELLIPSE
  5
452D
330
44CC
100
AcDbEntity
  8
0
100
AcDbEllipse
 10
2.499999999999999
 20
-1.227476038932986
 30
0.0
 11
2.5
 21
0.0000000000000007
 31
0.0
210
0.0
220
0.0
230
1.0
 40
0.7071067811865476
 41
4.712388980384682
 42
6.026811980988153
  0
LINE
  5
452E
330
44CC
100
AcDbEntity
  8
0
100
AcDbLine
 10
2.499999999999982
 20
-2.995242991899367
 30
0.0
 11
-2.500000000000008
 21
-2.995242991899369
 31
0.0
  0
ELLIPSE
  5
452F
330
44CC
100
AcDbEntity
  8
0
100
AcDbEllipse
 10
-2.500000000000008
 20
-1.227476038932987
 30
0.0
 11
-2.5
 21
-0.0000000000000002
 31
0.0
210
0.0
220
0.0
230
1.0
 40
0.7071067811865472
 41
0.2563733261914329
 42
1.570796326794896
  0
SPLINE
  5
4530
330
44CC
100
AcDbEntity
  8
0
100
AcDbSpline
210
0.0
220
0.0
230
1.0
 70
     8
 71
     3
 72
     8
 73
     4
 74
     0
 42
0.000000001
 43
0.0000000001
 40
-1.0
 40
-1.0
 40
-1.0
 40
-1.0
 40
0.0
 40
0.0
 40
0.0
 40
0.0
 10
4.989433513812969
 20
-1.500000000000011
 30
0.0
 10
5.01609483648548
 20
-1.500000000000011
 30
0.0
 10
4.991899723307426
 20
-1.567383125811552
 30
0.0
 10
4.918289920131911
 20
-1.675735931288082
 30
0.0
  0
ELLIPSE
  5
4531
330
44CC
100
AcDbEntity
  8
0
100
AcDbEllipse
 10
-2.500000000000008
 20
-0.1668158671531823
 30
0.0
 11
2.5
 21
0.0000000000001835
 31
0.0
210
0.0
220
0.0
230
1.0
 40
0.7071067811865472
 41
3.995971004506731
 42
4.712388980384622
  0
LINE
  5
4532
330
44CC
100
AcDbEntity
  8
0
100
AcDbLine
 10
-4.918289920131913
 20
-1.5
 30
0.0
 11
-4.918289920131912
 21
-1.675735931288084
 31
0.0
  0
LINE
  5
4533
330
44CC
100
AcDbEntity
  8
0
100
AcDbLine
 10
-2.500000000000008
 20
-1.934582820119546
 30
0.0
 11
2.499999999999982
 21
-1.934582820119545
 31
0.0
  0
ELLIPSE
  5
4534
330
44CC
100
AcDbEntity
  8
0
100
AcDbEllipse
 10
2.499999999999999
 20
-0.1668158671531809
 30
0.0
 11
2.5
 21
-0.000000000000012
 31
0.0
210
0.0
220
0.0
230
1.0
 40
0.7071067811865472
 41
4.712388980384682
 42
5.428806956262519
  0
LINE
  5
4535
330
44CC
100
AcDbEntity
  8
0
100
AcDbLine
 10
4.918289920131911
 20
-1.675735931288082
 30
0.0
 11
4.918289920131911
 21
-1.499999999999997
 31
0.0
  0
LINE
  5
4536
330
44CC
100
AcDbEntity
  8
0
100
AcDbLine
 10
-59.39999999999998
 20
-55.8401153701776
 30
0.0
 11
59.39999999999998
 21
-55.84011537017758
 31
0.0
  0
ELLIPSE
  5
4537
330
44CC
100
AcDbEntity
  8
0
100
AcDbEllipse
 10
-59.39999999999998
 20
-56.26437943888952
 30
0.0
 11
-0.6000000000000087
 21
0.0000000000000265
 31
0.0
210
0.0
220
0.0
230
1.0
 40
0.7071067811865233
 41
4.712388980384808
 42
6.283185307179753
  0
ARC
  5
4538
330
44CC
100
AcDbEntity
  8
0
100
AcDbCircle
 10
59.39999999999999
 20
-2.099999999999986
 30
0.0
 40
0.600000000000005
100
AcDbArc
 50
0.0
 51
90.0
  0
ARC
  5
4539
330
44CC
100
AcDbEntity
  8
0
100
AcDbCircle
 10
59.39999999999999
 20
-2.099999999999986
 30
0.0
 40
2.100000000000008
100
AcDbArc
 50
0.0
 51
90.0
  0
ARC
  5
453A
330
44CC
100
AcDbEntity
  8
0
100
AcDbCircle
 10
-59.40000000000001
 20
-2.100000000000012
 30
0.0
 40
0.5999999999999961
100
AcDbArc
 50
90.0
 51
180.0
  0
ARC
  5
453B
330
44CC
100
AcDbEntity
  8
0
100
AcDbCircle
 10
-59.40000000000001
 20
-2.100000000000012
 30
0.0
 40
2.099999999999999
100
AcDbArc
 50
90.0
 51
180.0
  0
ENDBLK
  5
44CE
330
44CC
100
AcDbEntity
  8
0
100
AcDbBlockEnd
  0
BLOCK
  5
453D
330
453C
100
AcDbEntity
  8
0
100
AcDbBlockBegin
  2
SPR120_200-Bottom
 70
     0
 10
0.0
 20
0.0
 30
0.0
  3
SPR120_200-Bottom
  1

  0
LINE
  5
453F
330
453C
100
AcDbEntity
  8
0
100
AcDbLine
 10
102.527090561
 20
1.499999999999962
 30
0.0
 11
97.52709056099996
 21
1.499999999999963
 31
0.0
  0
LINE
  5
4540
330
453C
100
AcDbEntity
  8
0
100
AcDbLine
 10
97.52709056099996
 20
1.499999999999963
 30
0.0
 11
97.52709056099996
 21
0.0
 31
0.0
  0
LINE
  5
4541
330
453C
100
AcDbEntity
  8
0
100
AcDbLine
 10
97.52709056099996
 20
0.0
 30
0.0
 11
102.527090561
 21
0.0
 31
0.0
  0
LINE
  5
4542
330
453C
100
AcDbEntity
  8
0
100
AcDbLine
 10
102.527090561
 20
0.0
 30
0.0
 11
102.527090561
 21
1.499999999999962
 31
0.0
  0
LINE
  5
4543
330
453C
100
AcDbEntity
  8
0
100
AcDbLine
 10
-102.527090561
 20
0.0
 30
0.0
 11
-97.52709056100002
 21
0.0
 31
0.0
  0
LINE
  5
4544
330
453C
100
AcDbEntity
  8
0
100
AcDbLine
 10
-97.52709056100002
 20
1.500000000000018
 30
0.0
 11
-102.527090561
 21
1.50000000000002
 31
0.0
  0
LINE
  5
4545
330
453C
100
AcDbEntity
  8
0
100
AcDbLine
 10
-102.527090561
 20
1.50000000000002
 30
0.0
 11
-102.527090561
 21
0.0
 31
0.0
  0
LINE
  5
4546
330
453C
100
AcDbEntity
  8
0
100
AcDbLine
 10
-97.52709056100002
 20
0.0
 30
0.0
 11
-97.52709056100002
 21
1.500000000000018
 31
0.0
  0
LINE
  5
4547
330
453C
100
AcDbEntity
  8
0
100
AcDbLine
 10
97.52709056099996
 20
0.0
 30
0.0
 11
56.49999999999998
 21
0.0
 31
0.0
  0
LINE
  5
4548
330
453C
100
AcDbEntity
  8
0
100
AcDbLine
 10
-56.50000000000002
 20
0.0
 30
0.0
 11
-97.52709056100002
 21
0.0
 31
0.0
  0
LINE
  5
4549
330
453C
100
AcDbEntity
  8
0
100
AcDbLine
 10
-59.17856242236216
 20
1.500000000000011
 30
0.0
 11
-97.52709056100002
 21
1.500000000000018
 31
0.0
  0
LINE
  5
454A
330
453C
100
AcDbEntity
  8
0
100
AcDbLine
 10
97.52709056099996
 20
1.499999999999963
 30
0.0
 11
59.17856242236212
 21
1.499999999999974
 31
0.0
  0
LINE
  5
454B
330
453C
100
AcDbEntity
  8
0
100
AcDbLine
 10
56.49999999999998
 20
0.0
 30
0.0
 11
55.01767776087193
 21
0.0
 31
0.0
  0
LINE
  5
454C
330
453C
100
AcDbEntity
  8
0
100
AcDbLine
 10
-55.01767776087196
 20
0.0
 30
0.0
 11
-56.50000000000002
 21
0.0
 31
0.0
  0
SPLINE
  5
454D
330
453C
100
AcDbEntity
  8
0
100
AcDbSpline
210
0.0
220
0.0
230
1.0
 70
     8
 71
     3
 72
     8
 73
     4
 74
     0
 42
0.000000001
 43
0.0000000001
 40
0.0
 40
0.0
 40
0.0
 40
0.0
 40
1.0
 40
1.0
 40
1.0
 40
1.0
 10
-55.14054197002048
 20
0.6150757595082743
 30
0.0
 10
-55.01586474390123
 20
0.2539843833467381
 30
0.0
 10
-54.97251992073981
 20
0.0000000000000243
 30
0.0
 10
-55.01767776087199
 20
0.0000000000000242
 30
0.0
  0
SPLINE
  5
454E
330
453C
100
AcDbEntity
  8
0
100
AcDbSpline
210
0.0
220
0.0
230
1.0
 70
     8
 71
     3
 72
     8
 73
     4
 74
     0
 42
0.000000001
 43
0.0000000001
 40
0.0
 40
0.0
 40
0.0
 40
0.0
 40
1.0
 40
1.0
 40
1.0
 40
1.0
 10
55.01767776087193
 20
-0.0000000000000003
 30
0.0
 10
54.97251992074176
 20
0.0
 30
0.0
 10
55.01586474390373
 20
0.2539843833467156
 30
0.0
 10
55.14054197002042
 20
0.61507575950825
 30
0.0
  0
SPLINE
  5
454F
330
453C
100
AcDbEntity
  8
0
100
AcDbSpline
210
0.0
220
0.0
230
1.0
 70
     8
 71
     3
 72
     8
 73
     4
 74
     0
 42
0.000000001
 43
0.0000000001
 40
0.0
 40
0.0
 40
0.0
 40
0.0
 40
1.0
 40
1.0
 40
1.0
 40
1.0
 10
-61.50000000000004
 20
4.362741700911222
 30
0.0
 10
-61.49999999999999
 20
3.178158037514031
 30
0.0
 10
-60.49955742875638
 20
2.063659161980825
 30
0.0
 10
-59.40000000000001
 20
1.656580012761341
 30
0.0
  0
LINE
  5
4550
330
453C
100
AcDbEntity
  8
0
100
AcDbLine
 10
-59.40000000000001
 20
1.656580012761349
 30
0.0
 11
-58.79315533855962
 21
1.227476037518794
 31
0.0
  0
LINE
  5
4551
330
453C
100
AcDbEntity
  8
0
100
AcDbLine
 10
-58.79315533855962
 20
1.227476037518794
 30
0.0
 11
-56.50000000000002
 21
1.227476037518789
 31
0.0
  0
ELLIPSE
  5
4552
330
453C
100
AcDbEntity
  8
0
100
AcDbEllipse
 10
-56.50000000000002
 20
0.1668158657390015
 30
0.0
 11
1.5
 21
-0.0000000000000003
 31
0.0
210
0.0
220
0.0
230
1.0
 40
0.7071067811865474
 41
0.4363380716279135
 42
1.570796326794896
  0
LINE
  5
4553
330
453C
100
AcDbEntity
  8
0
100
AcDbLine
 10
-55.01767776087196
 20
0.1805170265382094
 30
0.0
 11
-55.01767776087196
 21
0.0
 31
0.0
  0
SPLINE
  5
4554
330
453C
100
AcDbEntity
  8
0
100
AcDbSpline
210
0.0
220
0.0
230
1.0
 70
     8
 71
     3
 72
     8
 73
     4
 74
     0
 42
0.000000001
 43
0.0000000001
 40
0.0
 40
0.0
 40
0.0
 40
0.0
 40
1.0
 40
1.0
 40
1.0
 40
1.0
 10
59.39999999999999
 20
1.656580012761332
 30
0.0
 10
60.49955742875635
 20
2.063659161980453
 30
0.0
 10
61.49999999999998
 20
3.178158037514033
 30
0.0
 10
61.50000000000002
 20
4.362741700911187
 30
0.0
  0
ELLIPSE
  5
4555
330
453C
100
AcDbEntity
  8
0
100
AcDbEllipse
 10
56.49999999999998
 20
0.1668158657389779
 30
0.0
 11
1.5
 21
-0.0000000000001098
 31
0.0
210
0.0
220
0.0
230
1.0
 40
0.7071067811865479
 41
1.570796326795031
 42
2.705254581962144
  0
LINE
  5
4556
330
453C
100
AcDbEntity
  8
0
100
AcDbLine
 10
56.49999999999998
 20
1.22747603751876
 30
0.0
 11
58.7931553385596
 21
1.227476037518766
 31
0.0
  0
LINE
  5
4557
330
453C
100
AcDbEntity
  8
0
100
AcDbLine
 10
58.7931553385596
 20
1.227476037518766
 30
0.0
 11
59.39999999999999
 21
1.656580012761319
 31
0.0
  0
LINE
  5
4558
330
453C
100
AcDbEntity
  8
0
100
AcDbLine
 10
55.01767776087193
 20
0.1805170265382869
 30
0.0
 11
55.01767776087193
 21
0.0
 31
0.0
  0
LINE
  5
4559
330
453C
100
AcDbEntity
  8
0
100
AcDbLine
 10
44.98943351399742
 20
0.0
 30
0.0
 11
55.01767776087193
 21
0.0
 31
0.0
  0
LINE
  5
455A
330
453C
100
AcDbEntity
  8
0
100
AcDbLine
 10
24.98943351399746
 20
0.0
 30
0.0
 11
40.01056648600257
 21
0.0
 31
0.0
  0
LINE
  5
455B
330
453C
100
AcDbEntity
  8
0
100
AcDbLine
 10
4.989433513812962
 20
0.0
 30
0.0
 11
15.01056648600256
 21
0.0
 31
0.0
  0
LINE
  5
455C
330
453C
100
AcDbEntity
  8
0
100
AcDbLine
 10
-15.01056648600258
 20
0.0
 30
0.0
 11
-4.98943351381297
 21
0.0
 31
0.0
  0
LINE
  5
455D
330
453C
100
AcDbEntity
  8
0
100
AcDbLine
 10
-40.01056648600258
 20
0.0
 30
0.0
 11
-24.98943351399747
 21
0.0
 31
0.0
  0
LINE
  5
455E
330
453C
100
AcDbEntity
  8
0
100
AcDbLine
 10
-55.01767776087196
 20
0.0
 30
0.0
 11
-44.98943351399744
 21
0.0
 31
0.0
  0
LINE
  5
455F
330
453C
100
AcDbEntity
  8
0
100
AcDbLine
 10
61.49999999999997
 20
56.26437943888952
 30
0.0
 11
61.49999999999995
 21
82.00306627385996
 31
0.0
  0
LINE
  5
4560
330
453C
100
AcDbEntity
  8
0
100
AcDbLine
 10
-61.49999999999993
 20
82.00306627386
 30
0.0
 11
-61.49999999999997
 21
56.26437943888955
 31
0.0
  0
LINE
  5
4561
330
453C
100
AcDbEntity
  8
0
100
AcDbLine
 10
-59.99999999999996
 20
82.00306627386
 30
0.0
 11
-59.99999999999996
 21
56.26437943888953
 31
0.0
  0
LINE
  5
4562
330
453C
100
AcDbEntity
  8
0
100
AcDbLine
 10
-59.39999999999998
 20
55.8401153701776
 30
0.0
 11
59.39999999999998
 21
55.84011537017758
 31
0.0
  0
LINE
  5
4563
330
453C
100
AcDbEntity
  8
0
100
AcDbLine
 10
59.99999999999996
 20
56.26437943888952
 30
0.0
 11
59.99999999999997
 21
82.00306627385996
 31
0.0
  0
LINE
  5
4564
330
453C
100
AcDbEntity
  8
0
100
AcDbLine
 10
-59.39999999999998
 20
54.77945519839778
 30
0.0
 11
59.39999999999998
 21
54.77945519839777
 31
0.0
  0
LINE
  5
4565
330
453C
100
AcDbEntity
  8
0
100
AcDbLine
 10
44.98943351399742
 20
0.0
 30
0.0
 11
40.01056648600257
 21
0.0
 31
0.0
  0
LINE
  5
4566
330
453C
100
AcDbEntity
  8
0
100
AcDbLine
 10
-40.01056648600258
 20
0.0
 30
0.0
 11
-44.98943351399744
 21
0.0
 31
0.0
  0
SPLINE
  5
4567
330
453C
100
AcDbEntity
  8
0
100
AcDbSpline
210
0.0
220
0.0
230
1.0
 70
     8
 71
     3
 72
     8
 73
     4
 74
     0
 42
0.000000001
 43
0.0000000001
 40
0.0
 40
0.0
 40
0.0
 40
0.0
 40
1.0
 40
1.0
 40
1.0
 40
1.0
 10
-40.08171008039237
 20
0.615075759508271
 30
0.0
 10
-40.00810027697968
 20
0.2358409403968468
 30
0.0
 10
-39.98390516356046
 20
0.0000000000000208
 30
0.0
 10
-40.01056648600259
 20
0.0000000000000208
 30
0.0
  0
ELLIPSE
  5
4568
330
453C
100
AcDbEntity
  8
0
100
AcDbEllipse
 10
-42.5
 20
0.1668158657390011
 30
0.0
 11
-2.5
 21
0.0000000000000002
 31
0.0
210
0.0
220
0.0
230
1.0
 40
0.7071067811865474
 41
3.397965980608241
 42
6.026811980161135
  0
SPLINE
  5
4569
330
453C
100
AcDbEntity
  8
0
100
AcDbSpline
210
0.0
220
0.0
230
1.0
 70
     8
 71
     3
 72
     8
 73
     4
 74
     0
 42
0.000000001
 43
0.0000000001
 40
0.0
 40
0.0
 40
0.0
 40
0.0
 40
1.0
 40
1.0
 40
1.0
 40
1.0
 10
-44.98943351399742
 20
0.0000000000000219
 30
0.0
 10
-45.01609483643965
 20
0.0000000000000217
 30
0.0
 10
-44.99189972302027
 20
0.2358409403969526
 30
0.0
 10
-44.91828991960765
 20
0.6150757595082748
 30
0.0
  0
LINE
  5
456A
330
453C
100
AcDbEntity
  8
0
100
AcDbLine
 10
-44.98943351399744
 20
0.1805170265382749
 30
0.0
 11
-44.98943351399744
 21
0.0
 31
0.0
  0
LINE
  5
456B
330
453C
100
AcDbEntity
  8
0
100
AcDbLine
 10
-40.01056648600258
 20
0.1805170265382203
 30
0.0
 11
-40.01056648600258
 21
0.0
 31
0.0
  0
LINE
  5
456C
330
453C
100
AcDbEntity
  8
0
100
AcDbLine
 10
-44.14171865077713
 20
1.500000000000004
 30
0.0
 11
-40.85828134922287
 21
1.500000000000003
 31
0.0
  0
ELLIPSE
  5
456D
330
453C
100
AcDbEntity
  8
0
100
AcDbEllipse
 10
42.5
 20
0.1668158657389851
 30
0.0
 11
-2.5
 21
0.0000000000000002
 31
0.0
210
0.0
220
0.0
230
1.0
 40
0.7071067811865474
 41
3.397965980608241
 42
6.026811980161135
  0
SPLINE
  5
456E
330
453C
100
AcDbEntity
  8
0
100
AcDbSpline
210
0.0
220
0.0
230
1.0
 70
     8
 71
     3
 72
     8
 73
     4
 74
     0
 42
0.000000001
 43
0.0000000001
 40
0.0
 40
0.0
 40
0.0
 40
0.0
 40
1.0
 40
1.0
 40
1.0
 40
1.0
 10
40.01056648600257
 20
0.0000000000000031
 30
0.0
 10
39.98390516356058
 20
0.0000000000000029
 30
0.0
 10
40.00810027697983
 20
0.2358409403969046
 30
0.0
 10
40.08171008039236
 20
0.6150757595082559
 30
0.0
  0
LINE
  5
456F
330
453C
100
AcDbEntity
  8
0
100
AcDbLine
 10
40.01056648600257
 20
0.1805170265383321
 30
0.0
 11
40.01056648600257
 21
0.0
 31
0.0
  0
LINE
  5
4570
330
453C
100
AcDbEntity
  8
0
100
AcDbLine
 10
44.98943351399742
 20
0.1805170265382189
 30
0.0
 11
44.98943351399742
 21
0.0
 31
0.0
  0
SPLINE
  5
4571
330
453C
100
AcDbEntity
  8
0
100
AcDbSpline
210
0.0
220
0.0
230
1.0
 70
     8
 71
     3
 72
     8
 73
     4
 74
     0
 42
0.000000001
 43
0.0000000001
 40
0.0
 40
0.0
 40
0.0
 40
0.0
 40
1.0
 40
1.0
 40
1.0
 40
1.0
 10
44.91828991960763
 20
0.6150757595082521
 30
0.0
 10
44.99189972302032
 20
0.2358409403967999
 30
0.0
 10
45.01609483643922
 20
0.0000000000000019
 30
0.0
 10
44.98943351399742
 20
0.0000000000000019
 30
0.0
  0
LINE
  5
4572
330
453C
100
AcDbEntity
  8
0
100
AcDbLine
 10
40.85828134922286
 20
1.499999999999985
 30
0.0
 11
44.14171865077713
 21
1.499999999999984
 31
0.0
  0
LINE
  5
4573
330
453C
100
AcDbEntity
  8
0
100
AcDbLine
 10
24.98943351399746
 20
0.0
 30
0.0
 11
22.50000000000003
 21
0.0
 31
0.0
  0
LINE
  5
4574
330
453C
100
AcDbEntity
  8
0
100
AcDbLine
 10
22.50000000000003
 20
0.0
 30
0.0
 11
17.49999999999999
 21
0.0
 31
0.0
  0
LINE
  5
4575
330
453C
100
AcDbEntity
  8
0
100
AcDbLine
 10
17.49999999999999
 20
0.0
 30
0.0
 11
15.01056648600256
 21
0.0
 31
0.0
  0
LINE
  5
4576
330
453C
100
AcDbEntity
  8
0
100
AcDbLine
 10
-15.01056648600258
 20
0.0
 30
0.0
 11
-17.50000000000001
 21
0.0
 31
0.0
  0
LINE
  5
4577
330
453C
100
AcDbEntity
  8
0
100
AcDbLine
 10
-17.50000000000001
 20
0.0
 30
0.0
 11
-22.50000000000004
 21
0.0
 31
0.0
  0
LINE
  5
4578
330
453C
100
AcDbEntity
  8
0
100
AcDbLine
 10
-22.50000000000004
 20
0.0
 30
0.0
 11
-24.98943351399747
 21
0.0
 31
0.0
  0
ELLIPSE
  5
4579
330
453C
100
AcDbEntity
  8
0
100
AcDbEllipse
 10
-22.50000000000004
 20
0.1668158657389961
 30
0.0
 11
-2.5
 21
0.0000000000000003
 31
0.0
210
0.0
220
0.0
230
1.0
 40
0.7071067811865474
 41
4.712388980384689
 42
6.026811980161136
  0
LINE
  5
457A
330
453C
100
AcDbEntity
  8
0
100
AcDbLine
 10
-22.50000000000004
 20
1.934582818705388
 30
0.0
 11
-17.50000000000001
 21
1.934582818705387
 31
0.0
  0
ELLIPSE
  5
457B
330
453C
100
AcDbEntity
  8
0
100
AcDbEllipse
 10
-17.50000000000001
 20
0.1668158657389947
 30
0.0
 11
2.5
 21
-0.0000000000000006
 31
0.0
210
0.0
220
0.0
230
1.0
 40
0.7071067811865472
 41
0.2563733270184496
 42
1.570796326794896
  0
SPLINE
  5
457C
330
453C
100
AcDbEntity
  8
0
100
AcDbSpline
210
0.0
220
0.0
230
1.0
 70
     8
 71
     3
 72
     8
 73
     4
 74
     0
 42
0.000000001
 43
0.0000000001
 40
0.0
 40
0.0
 40
0.0
 40
0.0
 40
1.0
 40
1.0
 40
1.0
 40
1.0
 10
-24.98943351399747
 20
0.0000000000000175
 30
0.0
 10
-25.01609483643946
 20
0.0000000000000173
 30
0.0
 10
-24.99189972302032
 20
0.2358409403969383
 30
0.0
 10
-24.91828991960768
 20
0.6150757595082677
 30
0.0
  0
LINE
  5
457D
330
453C
100
AcDbEntity
  8
0
100
AcDbLine
 10
-24.98943351399747
 20
0.1805170265382747
 30
0.0
 11
-24.98943351399747
 21
0.0
 31
0.0
  0
LINE
  5
457E
330
453C
100
AcDbEntity
  8
0
100
AcDbLine
 10
-15.01056648600258
 20
0.1805170265383149
 30
0.0
 11
-15.01056648600258
 21
0.0
 31
0.0
  0
SPLINE
  5
457F
330
453C
100
AcDbEntity
  8
0
100
AcDbSpline
210
0.0
220
0.0
230
1.0
 70
     8
 71
     3
 72
     8
 73
     4
 74
     0
 42
0.000000001
 43
0.0000000001
 40
0.0
 40
0.0
 40
0.0
 40
0.0
 40
1.0
 40
1.0
 40
1.0
 40
1.0
 10
-15.08171008039238
 20
0.6150757595082654
 30
0.0
 10
-15.00810027697978
 20
0.2358409403970357
 30
0.0
 10
-14.9839051635608
 20
0.0000000000000151
 30
0.0
 10
-15.01056648600258
 20
0.0000000000000153
 30
0.0
  0
LINE
  5
4580
330
453C
100
AcDbEntity
  8
0
100
AcDbLine
 10
-17.50000000000001
 20
1.499999999999998
 30
0.0
 11
-15.85828134922288
 21
1.499999999999998
 31
0.0
  0
LINE
  5
4581
330
453C
100
AcDbEntity
  8
0
100
AcDbLine
 10
-22.50000000000004
 20
1.500000000000001
 30
0.0
 11
-17.50000000000001
 21
1.499999999999999
 31
0.0
  0
LINE
  5
4582
330
453C
100
AcDbEntity
  8
0
100
AcDbLine
 10
-24.14171865077717
 20
1.5
 30
0.0
 11
-22.50000000000004
 21
1.499999999999999
 31
0.0
  0
ELLIPSE
  5
4583
330
453C
100
AcDbEntity
  8
0
100
AcDbEllipse
 10
17.49999999999999
 20
0.1668158657389918
 30
0.0
 11
-2.5
 21
0.0000000000000008
 31
0.0
210
0.0
220
0.0
230
1.0
 40
0.7071067811865474
 41
4.712388980384689
 42
6.026811980161137
  0
LINE
  5
4584
330
453C
100
AcDbEntity
  8
0
100
AcDbLine
 10
17.49999999999999
 20
1.934582818705378
 30
0.0
 11
22.50000000000003
 21
1.934582818705377
 31
0.0
  0
ELLIPSE
  5
4585
330
453C
100
AcDbEntity
  8
0
100
AcDbEllipse
 10
22.50000000000003
 20
0.1668158657389901
 30
0.0
 11
2.5
 21
-0.0000000000000006
 31
0.0
210
0.0
220
0.0
230
1.0
 40
0.7071067811865472
 41
0.2563733270184496
 42
1.570796326794896
  0
SPLINE
  5
4586
330
453C
100
AcDbEntity
  8
0
100
AcDbSpline
210
0.0
220
0.0
230
1.0
 70
     8
 71
     3
 72
     8
 73
     4
 74
     0
 42
0.000000001
 43
0.0000000001
 40
0.0
 40
0.0
 40
0.0
 40
0.0
 40
1.0
 40
1.0
 40
1.0
 40
1.0
 10
15.01056648600256
 20
0.0000000000000086
 30
0.0
 10
14.98390516356048
 20
0.0000000000000085
 30
0.0
 10
15.00810027697997
 20
0.235840940397016
 30
0.0
 10
15.08171008039235
 20
0.6150757595082589
 30
0.0
  0
LINE
  5
4587
330
453C
100
AcDbEntity
  8
0
100
AcDbLine
 10
15.01056648600256
 20
0.1805170265382674
 30
0.0
 11
15.01056648600256
 21
0.0
 31
0.0
  0
LINE
  5
4588
330
453C
100
AcDbEntity
  8
0
100
AcDbLine
 10
24.98943351399746
 20
0.1805170265382844
 30
0.0
 11
24.98943351399746
 21
0.0
 31
0.0
  0
SPLINE
  5
4589
330
453C
100
AcDbEntity
  8
0
100
AcDbSpline
210
0.0
220
0.0
230
1.0
 70
     8
 71
     3
 72
     8
 73
     4
 74
     0
 42
0.000000001
 43
0.0000000001
 40
0.0
 40
0.0
 40
0.0
 40
0.0
 40
1.0
 40
1.0
 40
1.0
 40
1.0
 10
24.91828991960767
 20
0.6150757595082565
 30
0.0
 10
24.99189972302037
 20
0.2358409403969337
 30
0.0
 10
25.0160948364395
 20
0.0000000000000063
 30
0.0
 10
24.98943351399746
 20
0.0000000000000064
 30
0.0
  0
LINE
  5
458A
330
453C
100
AcDbEntity
  8
0
100
AcDbLine
 10
22.50000000000003
 20
1.499999999999989
 30
0.0
 11
24.14171865077717
 21
1.499999999999989
 31
0.0
  0
LINE
  5
458B
330
453C
100
AcDbEntity
  8
0
100
AcDbLine
 10
17.49999999999999
 20
1.499999999999989
 30
0.0
 11
22.50000000000003
 21
1.499999999999988
 31
0.0
  0
LINE
  5
458C
330
453C
100
AcDbEntity
  8
0
100
AcDbLine
 10
15.85828134922286
 20
1.499999999999991
 30
0.0
 11
17.49999999999999
 21
1.49999999999999
 31
0.0
  0
LINE
  5
458D
330
453C
100
AcDbEntity
  8
0
100
AcDbLine
 10
4.989433513812962
 20
0.0
 30
0.0
 11
2.499999999999982
 21
0.0
 31
0.0
  0
LINE
  5
458E
330
453C
100
AcDbEntity
  8
0
100
AcDbLine
 10
2.499999999999981
 20
0.0
 30
0.0
 11
-2.500000000000008
 21
0.0
 31
0.0
  0
LINE
  5
458F
330
453C
100
AcDbEntity
  8
0
100
AcDbLine
 10
-2.500000000000008
 20
0.0
 30
0.0
 11
-4.989433513812971
 21
0.0
 31
0.0
  0
SPLINE
  5
4590
330
453C
100
AcDbEntity
  8
0
100
AcDbSpline
210
0.0
220
0.0
230
1.0
 70
     8
 71
     3
 72
     8
 73
     4
 74
     0
 42
0.000000001
 43
0.0000000001
 40
0.0
 40
0.0
 40
0.0
 40
0.0
 40
1.0
 40
1.0
 40
1.0
 40
1.0
 10
4.918289920131911
 20
0.615075759508261
 30
0.0
 10
4.991899723307426
 20
0.2358409403404074
 30
0.0
 10
5.01609483648548
 20
0.0000000000000104
 30
0.0
 10
4.989433513812969
 20
0.0000000000000108
 30
0.0
  0
SPLINE
  5
4591
330
453C
100
AcDbEntity
  8
0
100
AcDbSpline
210
0.0
220
0.0
230
1.0
 70
     8
 71
     3
 72
     8
 73
     4
 74
     0
 42
0.000000001
 43
0.0000000001
 40
0.0
 40
0.0
 40
0.0
 40
0.0
 40
1.0
 40
1.0
 40
1.0
 40
1.0
 10
-4.989433513812965
 20
0.000000000000013
 30
0.0
 10
-5.016094836485379
 20
0.0000000000000125
 30
0.0
 10
-4.99189972330713
 20
0.2358409403403871
 30
0.0
 10
-4.918289920131914
 20
0.6150757595082633
 30
0.0
  0
ELLIPSE
  5
4592
330
453C
100
AcDbEntity
  8
0
100
AcDbEllipse
 10
-2.500000000000008
 20
0.1668158671531823
 30
0.0
 11
-2.5
 21
0.0000000000000004
 31
0.0
210
0.0
220
0.0
230
1.0
 40
0.7071067811865474
 41
4.712388980384689
 42
6.026811980988152
  0
LINE
  5
4593
330
453C
100
AcDbEntity
  8
0
100
AcDbLine
 10
-2.500000000000008
 20
1.934582820119546
 30
0.0
 11
2.499999999999982
 21
1.934582820119545
 31
0.0
  0
ELLIPSE
  5
4594
330
453C
100
AcDbEntity
  8
0
100
AcDbEllipse
 10
2.499999999999999
 20
0.1668158671531809
 30
0.0
 11
2.5
 21
0.000000000000012
 31
0.0
210
0.0
220
0.0
230
1.0
 40
0.7071067811865472
 41
0.2563733261914223
 42
1.570796326794903
  0
LINE
  5
4595
330
453C
100
AcDbEntity
  8
0
100
AcDbLine
 10
-4.989433513812971
 20
0.1805170296370798
 30
0.0
 11
-4.989433513812971
 21
0.0
 31
0.0
  0
LINE
  5
4596
330
453C
100
AcDbEntity
  8
0
100
AcDbLine
 10
4.989433513812962
 20
0.1805170296371367
 30
0.0
 11
4.989433513812962
 21
0.0
 31
0.0
  0
LINE
  5
4597
330
453C
100
AcDbEntity
  8
0
100
AcDbLine
 10
2.499999999999983
 20
1.499999999999994
 30
0.0
 11
4.141718653073961
 21
1.499999999999993
 31
0.0
  0
LINE
  5
4598
330
453C
100
AcDbEntity
  8
0
100
AcDbLine
 10
-2.500000000000008
 20
1.499999999999995
 30
0.0
 11
2.499999999999982
 21
1.499999999999993
 31
0.0
  0
LINE
  5
4599
330
453C
100
AcDbEntity
  8
0
100
AcDbLine
 10
-4.14171865307397
 20
1.499999999999995
 30
0.0
 11
-2.500000000000008
 21
1.499999999999995
 31
0.0
  0
LINE
  5
459A
330
453C
100
AcDbEntity
  8
0
100
AcDbLine
 10
61.5
 20
2.099999999999976
 30
0.0
 11
61.50000000000002
 21
4.362741700911207
 31
0.0
  0
LINE
  5
459B
330
453C
100
AcDbEntity
  8
0
100
AcDbLine
 10
-61.50000000000002
 20
4.362741700911235
 30
0.0
 11
-61.50000000000002
 21
2.100000000000004
 31
0.0
  0
LINE
  5
459C
330
453C
100
AcDbEntity
  8
0
100
AcDbLine
 10
59.99999999999997
 20
82.00306627385996
 30
0.0
 11
61.49999999999995
 21
82.00306627385996
 31
0.0
  0
LINE
  5
459D
330
453C
100
AcDbEntity
  8
0
100
AcDbLine
 10
-61.49999999999993
 20
82.00306627386
 30
0.0
 11
-59.99999999999996
 21
82.00306627386
 31
0.0
  0
LINE
  5
459E
330
453C
100
AcDbEntity
  8
0
100
AcDbLine
 10
61.49999999999997
 20
56.26437943888952
 30
0.0
 11
61.50000000000002
 21
4.362741700911199
 31
0.0
  0
ELLIPSE
  5
459F
330
453C
100
AcDbEntity
  8
0
100
AcDbEllipse
 10
59.39999999999998
 20
56.26437943888951
 30
0.0
 11
0.6000000000000087
 21
0.0000000000000257
 31
0.0
210
0.0
220
0.0
230
1.0
 40
0.7071067811866067
 41
4.712388980384688
 42
6.283185307179548
  0
ELLIPSE
  5
45A0
330
453C
100
AcDbEntity
  8
0
100
AcDbEllipse
 10
59.39999999999998
 20
56.26437943888951
 30
0.0
 11
2.100000000000031
 21
0.0000000000000351
 31
0.0
210
0.0
220
0.0
230
1.0
 40
0.7071067811865426
 41
4.712388980384728
 42
6.28318530717967
  0
LINE
  5
45A1
330
453C
100
AcDbEntity
  8
0
100
AcDbLine
 10
-61.50000000000004
 20
4.362741700911231
 30
0.0
 11
-61.49999999999997
 21
56.26437943888955
 31
0.0
  0
ELLIPSE
  5
45A2
330
453C
100
AcDbEntity
  8
0
100
AcDbEllipse
 10
-59.39999999999998
 20
56.26437943888952
 30
0.0
 11
-2.100000000000031
 21
0.0000000000000095
 31
0.0
210
0.0
220
0.0
230
1.0
 40
0.707106781186666
 41
0.0
 42
1.570796326794903
  0
ELLIPSE
  5
45A3
330
453C
100
AcDbEntity
  8
0
100
AcDbEllipse
 10
-59.39999999999998
 20
56.26437943888952
 30
0.0
 11
-0.6000000000000087
 21
-0.0000000000000265
 31
0.0
210
0.0
220
0.0
230
1.0
 40
0.7071067811865233
 41
0.0
 42
1.570796326794776
  0
ARC
  5
45A4
330
453C
100
AcDbEntity
  8
0
100
AcDbCircle
 10
59.39999999999999
 20
2.099999999999986
 30
0.0
 40
0.600000000000005
100
AcDbArc
 50
270.0
 51
343.4444348564544
  0
ARC
  5
45A5
330
453C
100
AcDbEntity
  8
0
100
AcDbCircle
 10
59.39999999999999
 20
2.099999999999986
 30
0.0
 40
2.100000000000008
100
AcDbArc
 50
343.3984504009794
 51
0.0
  0
ARC
  5
45A6
330
453C
100
AcDbEntity
  8
0
100
AcDbCircle
 10
-59.40000000000001
 20
2.100000000000012
 30
0.0
 40
0.5999999999999962
100
AcDbArc
 50
196.5555651435469
 51
270.0
  0
ARC
  5
45A7
330
453C
100
AcDbEntity
  8
0
100
AcDbCircle
 10
-59.40000000000001
 20
2.100000000000012
 30
0.0
 40
2.099999999999999
100
AcDbArc
 50
180.0
 51
196.6015495990203
  0
ENDBLK
  5
453E
330
453C
100
AcDbEntity
  8
0
100
AcDbBlockEnd
  0
BLOCK
  5
45A9
330
45A8
100
AcDbEntity
  8
0
100
AcDbBlockBegin
  2
SPR120_200-ISO
 70
     0
 10
0.0
 20
0.0
 30
0.0
  3
SPR120_200-ISO
  1

  0
LINE
  5
45AB
330
45A8
100
AcDbEntity
  8
0
100
AcDbLine
 10
100.4270114937889
 20
-79.81631537545434
 30
0.0
 11
96.89147758785621
 21
-81.85755682777367
 31
0.0
  0
LINE
  5
45AC
330
45A8
100
AcDbEntity
  8
0
100
AcDbLine
 10
101.4876716655688
 20
-79.20394293975855
 30
0.0
 11
100.4270114937889
 21
-79.81631537545434
 31
0.0
  0
LINE
  5
45AD
330
45A8
100
AcDbEntity
  8
0
100
AcDbLine
 10
100.4270114937889
 20
-25.9275410342244
 30
0.0
 11
101.4876716655687
 21
-25.3151685985286
 31
0.0
  0
LINE
  5
45AE
330
45A8
100
AcDbEntity
  8
0
100
AcDbLine
 10
101.4876716655687
 20
-25.3151685985286
 30
0.0
 11
97.95213775963601
 21
-19.19144424157066
 31
0.0
  0
LINE
  5
45AF
330
45A8
100
AcDbEntity
  8
0
100
AcDbLine
 10
-41.03265658229908
 20
-2.227020836888478
 30
0.0
 11
-44.56819048823182
 21
3.896703520069468
 31
0.0
  0
LINE
  5
45B0
330
45A8
100
AcDbEntity
  8
0
100
AcDbLine
 10
96.89147758785617
 20
-19.80381667726645
 30
0.0
 11
100.4270114937889
 21
-25.9275410342244
 31
0.0
  0
LINE
  5
45B1
330
45A8
100
AcDbEntity
  8
0
100
AcDbLine
 10
97.95213775963601
 20
-19.19144424157066
 30
0.0
 11
96.89147758785617
 21
-19.80381667726645
 31
0.0
  0
LINE
  5
45B2
330
45A8
100
AcDbEntity
  8
0
100
AcDbLine
 10
101.4876716655687
 20
-25.3151685985286
 30
0.0
 11
101.4876716655688
 21
-79.20394293975853
 31
0.0
  0
LINE
  5
45B3
330
45A8
100
AcDbEntity
  8
0
100
AcDbLine
 10
100.4270114937889
 20
-25.9275410342244
 30
0.0
 11
100.4270114937889
 21
-79.81631537545434
 31
0.0
  0
LINE
  5
45B4
330
45A8
100
AcDbEntity
  8
0
100
AcDbLine
 10
-15.55765654019414
 20
46.3434660530953
 30
0.0
 11
-10.96146246248157
 21
43.68985216508017
 31
0.0
  0
LINE
  5
45B5
330
45A8
100
AcDbEntity
  8
0
100
AcDbLine
 10
70.35581737397142
 20
-3.258701238264065
 30
0.0
 11
97.95213775963601
 21
-19.19144424157066
 31
0.0
  0
LINE
  5
45B6
330
45A8
100
AcDbEntity
  8
0
100
AcDbLine
 10
-44.56819048823182
 20
3.896703520069468
 30
0.0
 11
-44.56819048823182
 21
34.10707701439531
 31
0.0
  0
LINE
  5
45B7
330
45A8
100
AcDbEntity
  8
0
100
AcDbLine
 10
69.29515720219161
 20
-3.871073673959868
 30
0.0
 11
96.89147758785617
 21
-19.80381667726645
 31
0.0
  0
LINE
  5
45B8
330
45A8
100
AcDbEntity
  8
0
100
AcDbLine
 10
-12.02212263426139
 20
-18.97626042112282
 30
0.0
 11
-41.03265658229908
 21
-2.227020836888478
 31
0.0
  0
LINE
  5
45B9
330
45A8
100
AcDbEntity
  8
0
100
AcDbLine
 10
96.89147758785621
 20
-81.85755682777367
 30
0.0
 11
67.8809436398185
 21
-65.10831724353933
 31
0.0
  0
LINE
  5
45BA
330
45A8
100
AcDbEntity
  8
0
100
AcDbLine
 10
-16.61831671197397
 20
45.73109361739951
 30
0.0
 11
-12.02212263426139
 21
43.07747972938438
 31
0.0
  0
LINE
  5
45BB
330
45A8
100
AcDbEntity
  8
0
100
AcDbLine
 10
-10.96146246248157
 20
43.68985216508017
 30
0.0
 11
-12.02212263426139
 21
43.07747972938438
 31
0.0
  0
ELLIPSE
  5
45BC
330
45A8
100
AcDbEntity
  8
0
100
AcDbEllipse
 10
-12.02212263426139
 20
44.30222460077597
 30
0.0
 11
0.7500000000000004
 21
-1.299038105676658
 31
0.0
210
0.0
220
0.0
230
0.9999999999999998
 40
0.5773502691896259
 41
5.497787143782135
 42
8.639379797371928
  0
ELLIPSE
  5
45BD
330
45A8
100
AcDbEntity
  8
0
100
AcDbEllipse
 10
64.34540973388576
 20
92.06727458504792
 30
0.0
 11
1.25000000000013
 21
-2.165063509461021
 31
0.0
210
0.0
220
0.0
230
1.0
 40
0.5773502691896259
 41
3.579741684173544
 42
4.454997905016229
  0
ELLIPSE
  5
45BE
330
45A8
100
AcDbEntity
  8
0
100
AcDbEllipse
 10
64.34540973388576
 20
-5.912315126279201
 30
0.0
 11
1.249999999999999
 21
-2.165063509461096
 31
0.0
210
0.0
220
0.0
230
1.0
 40
0.577350269189626
 41
4.999145532596241
 42
5.845036276595413
  0
ELLIPSE
  5
45BF
330
45A8
100
AcDbEntity
  8
0
100
AcDbEllipse
 10
63.28474956210593
 20
91.45490214935211
 30
0.0
 11
-1.25
 21
2.165063509461097
 31
0.0
210
0.0
220
0.0
230
1.0
 40
0.5773502691896259
 41
4.969780055752957
 42
7.59659055860623
  0
ELLIPSE
  5
45C0
330
45A8
100
AcDbEntity
  8
0
100
AcDbEllipse
 10
63.28474956210593
 20
-6.524687561974999
 30
0.0
 11
1.25
 21
-2.165063509461096
 31
0.0
210
0.0
220
0.0
230
0.9999999999999998
 40
0.577350269189626
 41
4.999145532596243
 42
7.567225081762932
  0
ELLIPSE
  5
45C1
330
45A8
100
AcDbEntity
  8
0
100
AcDbEllipse
 10
64.34540973388576
 20
-38.57217836338825
 30
0.0
 11
1.250000000000129
 21
-2.165063509461021
 31
0.0
210
0.0
220
0.0
230
1.0
 40
0.577350269189626
 41
3.579741684173548
 42
5.845036276594997
  0
ELLIPSE
  5
45C2
330
45A8
100
AcDbEntity
  8
0
100
AcDbEllipse
 10
63.28474956210593
 20
-39.18455079908405
 30
0.0
 11
1.25
 21
-2.165063509461096
 31
0.0
210
0.0
220
0.0
230
1.0
 40
0.5773502691896259
 41
0.0
 42
6.283185307179586
  0
ELLIPSE
  5
45C3
330
45A8
100
AcDbEntity
  8
0
100
AcDbEllipse
 10
57.27434192202029
 20
-18.1597638401951
 30
0.0
 11
1.250000000000129
 21
-2.165063509461022
 31
0.0
210
0.0
220
0.0
230
1.0
 40
0.5773502691896259
 41
3.579741684173548
 42
5.845036276594999
  0
ELLIPSE
  5
45C4
330
45A8
100
AcDbEntity
  8
0
100
AcDbEllipse
 10
56.21368175024045
 20
-18.77213627589089
 30
0.0
 11
1.25
 21
-2.165063509461096
 31
0.0
210
0.0
220
0.0
230
1.0
 40
0.5773502691896259
 41
0.0
 42
6.283185307179586
  0
ELLIPSE
  5
45C5
330
45A8
100
AcDbEntity
  8
0
100
AcDbEllipse
 10
57.27434192202029
 20
-50.81962707730413
 30
0.0
 11
1.250000000000129
 21
-2.165063509461021
 31
0.0
210
0.0
220
0.0
230
1.0
 40
0.577350269189626
 41
3.579741684173544
 42
5.845036276594997
  0
ELLIPSE
  5
45C6
330
45A8
100
AcDbEntity
  8
0
100
AcDbEllipse
 10
56.21368175024045
 20
-51.43199951299994
 30
0.0
 11
1.25
 21
-2.165063509461096
 31
0.0
210
0.0
220
0.0
230
1.0
 40
0.5773502691896259
 41
0.0
 42
6.283185307179586
  0
ELLIPSE
  5
45C7
330
45A8
100
AcDbEntity
  8
0
100
AcDbEllipse
 10
0.7057994270964718
 20
128.8096207267956
 30
0.0
 11
1.25000000000013
 21
-2.165063509461021
 31
0.0
210
0.0
220
0.0
230
1.0
 40
0.5773502691896259
 41
3.579741684173544
 42
5.845036276595002
  0
ELLIPSE
  5
45C8
330
45A8
100
AcDbEntity
  8
0
100
AcDbEllipse
 10
0.7057994270964718
 20
96.14975748968655
 30
0.0
 11
1.25000000000013
 21
-2.165063509461021
 31
0.0
210
0.0
220
0.0
230
1.0
 40
0.5773502691896259
 41
3.579741684173544
 42
5.845036276594998
  0
ELLIPSE
  5
45C9
330
45A8
100
AcDbEntity
  8
0
100
AcDbEllipse
 10
0.7057994270964718
 20
63.48989425257752
 30
0.0
 11
1.25000000000013
 21
-2.165063509461021
 31
0.0
210
0.0
220
0.0
230
1.0
 40
0.5773502691896259
 41
3.579741684173544
 42
5.845036276594998
  0
ELLIPSE
  5
45CA
330
45A8
100
AcDbEntity
  8
0
100
AcDbEllipse
 10
0.7057994270964718
 20
30.83003101546847
 30
0.0
 11
1.25000000000013
 21
-2.165063509461021
 31
0.0
210
0.0
220
0.0
230
1.0
 40
0.5773502691896259
 41
3.579741684173544
 42
5.845036276594996
  0
ELLIPSE
  5
45CB
330
45A8
100
AcDbEntity
  8
0
100
AcDbEllipse
 10
-0.3548607446833518
 20
128.1972482910998
 30
0.0
 11
1.25
 21
-2.165063509461096
 31
0.0
210
0.0
220
0.0
230
1.0
 40
0.5773502691896259
 41
0.0
 42
6.283185307179586
  0
ELLIPSE
  5
45CC
330
45A8
100
AcDbEntity
  8
0
100
AcDbEllipse
 10
-0.3548607446833518
 20
95.53738505399074
 30
0.0
 11
1.25
 21
-2.165063509461096
 31
0.0
210
0.0
220
0.0
230
1.0
 40
0.5773502691896259
 41
0.0
 42
6.283185307179586
  0
ELLIPSE
  5
45CD
330
45A8
100
AcDbEntity
  8
0
100
AcDbEllipse
 10
-0.3548607446833518
 20
62.87752181688173
 30
0.0
 11
1.25
 21
-2.165063509461096
 31
0.0
210
0.0
220
0.0
230
1.0
 40
0.5773502691896259
 41
0.0
 42
6.283185307179586
  0
ELLIPSE
  5
45CE
330
45A8
100
AcDbEntity
  8
0
100
AcDbEllipse
 10
-0.3548607446833518
 20
30.21765857977268
 30
0.0
 11
1.25
 21
-2.165063509461096
 31
0.0
210
0.0
220
0.0
230
1.0
 40
0.5773502691896259
 41
0.0
 42
6.283185307179586
  0
ELLIPSE
  5
45CF
330
45A8
100
AcDbEntity
  8
0
100
AcDbEllipse
 10
0.7057994270964718
 20
-1.82983222164057
 30
0.0
 11
1.250000000000129
 21
-2.165063509461021
 31
0.0
210
0.0
220
0.0
230
1.0
 40
0.577350269189626
 41
3.579741684173546
 42
5.845036276594997
  0
ELLIPSE
  5
45D0
330
45A8
100
AcDbEntity
  8
0
100
AcDbEllipse
 10
-0.3548607446833518
 20
-2.442204657336368
 30
0.0
 11
1.25
 21
-2.165063509461096
 31
0.0
210
0.0
220
0.0
230
1.0
 40
0.5773502691896259
 41
0.0
 42
6.283185307179586
  0
ELLIPSE
  5
45D1
330
45A8
100
AcDbEntity
  8
0
100
AcDbEllipse
 10
-6.365268384769011
 20
116.5621720128797
 30
0.0
 11
1.25000000000013
 21
-2.165063509461021
 31
0.0
210
0.0
220
0.0
230
1.0
 40
0.5773502691896259
 41
3.579741684173544
 42
5.845036276595004
  0
ELLIPSE
  5
45D2
330
45A8
100
AcDbEntity
  8
0
100
AcDbEllipse
 10
-6.365268384769011
 20
83.90230877577065
 30
0.0
 11
1.25000000000013
 21
-2.165063509461021
 31
0.0
210
0.0
220
0.0
230
1.0
 40
0.5773502691896259
 41
3.579741684173544
 42
5.845036276595
  0
ELLIPSE
  5
45D3
330
45A8
100
AcDbEntity
  8
0
100
AcDbEllipse
 10
-6.365268384769011
 20
51.24244553866162
 30
0.0
 11
1.25000000000013
 21
-2.165063509461021
 31
0.0
210
0.0
220
0.0
230
1.0
 40
0.5773502691896259
 41
3.579741684173544
 42
5.845036276595
  0
ELLIPSE
  5
45D4
330
45A8
100
AcDbEntity
  8
0
100
AcDbEllipse
 10
-6.365268384769011
 20
18.58258230155258
 30
0.0
 11
1.25000000000013
 21
-2.165063509461021
 31
0.0
210
0.0
220
0.0
230
1.0
 40
0.5773502691896259
 41
3.579741684173544
 42
5.845036276594997
  0
ELLIPSE
  5
45D5
330
45A8
100
AcDbEntity
  8
0
100
AcDbEllipse
 10
-7.425928556548835
 20
115.9497995771839
 30
0.0
 11
1.25
 21
-2.165063509461096
 31
0.0
210
0.0
220
0.0
230
1.0
 40
0.5773502691896259
 41
0.0
 42
6.283185307179586
  0
ELLIPSE
  5
45D6
330
45A8
100
AcDbEntity
  8
0
100
AcDbEllipse
 10
-7.425928556548835
 20
83.28993634007487
 30
0.0
 11
1.25
 21
-2.165063509461096
 31
0.0
210
0.0
220
0.0
230
1.0
 40
0.5773502691896259
 41
0.0
 42
6.283185307179586
  0
ELLIPSE
  5
45D7
330
45A8
100
AcDbEntity
  8
0
100
AcDbEllipse
 10
-7.425928556548835
 20
50.63007310296583
 30
0.0
 11
1.25
 21
-2.165063509461096
 31
0.0
210
0.0
220
0.0
230
1.0
 40
0.5773502691896259
 41
0.0
 42
6.283185307179586
  0
ELLIPSE
  5
45D8
330
45A8
100
AcDbEntity
  8
0
100
AcDbEllipse
 10
-7.425928556548835
 20
17.97020986585678
 30
0.0
 11
1.25
 21
-2.165063509461096
 31
0.0
210
0.0
220
0.0
230
1.0
 40
0.5773502691896259
 41
0.0
 42
6.283185307179586
  0
ELLIPSE
  5
45D9
330
45A8
100
AcDbEntity
  8
0
100
AcDbEllipse
 10
-6.365268384769011
 20
-14.07728093555645
 30
0.0
 11
1.250000000000129
 21
-2.165063509461021
 31
0.0
210
0.0
220
0.0
230
1.0
 40
0.5773502691896259
 41
3.579741684173546
 42
5.845036276594998
  0
ELLIPSE
  5
45DA
330
45A8
100
AcDbEntity
  8
0
100
AcDbEllipse
 10
-7.425928556548835
 20
-14.68965337125225
 30
0.0
 11
1.25
 21
-2.165063509461096
 31
0.0
210
0.0
220
0.0
230
1.0
 40
0.5773502691896259
 41
0.0
 42
6.283185307179586
  0
ELLIPSE
  5
45DB
330
45A8
100
AcDbEntity
  8
0
100
AcDbEllipse
 10
-22.64788027144884
 20
44.3132842759919
 30
0.0
 11
1.25
 21
-2.165063509461096
 31
0.0
210
0.0
220
0.0
230
1.0
 40
0.5773502691896259
 41
5.508682942395982
 42
5.845036276595414
  0
ELLIPSE
  5
45DC
330
45A8
100
AcDbEntity
  8
0
100
AcDbEllipse
 10
76.38538093344627
 20
-12.8635957393808
 30
0.0
 11
1.25000000000013
 21
-2.165063509461021
 31
0.0
210
0.0
220
0.0
230
1.0
 40
0.5773502691896259
 41
3.579741684173546
 42
5.845036276594997
  0
ELLIPSE
  5
45DD
330
45A8
100
AcDbEntity
  8
0
100
AcDbEllipse
 10
-23.70854044322867
 20
43.7009118402961
 30
0.0
 11
1.25
 21
-2.165063509461096
 31
0.0
210
0.0
220
0.0
230
1.0
 40
0.577350269189626
 41
5.508682942395981
 42
7.057687671963185
  0
ELLIPSE
  5
45DE
330
45A8
100
AcDbEntity
  8
0
100
AcDbEllipse
 10
75.32472076166644
 20
-13.4759681750766
 30
0.0
 11
1.25
 21
-2.165063509461096
 31
0.0
210
0.0
220
0.0
230
1.0
 40
0.5773502691896259
 41
0.0
 42
6.283185307179586
  0
ELLIPSE
  5
45DF
330
45A8
100
AcDbEntity
  8
0
100
AcDbEllipse
 10
-18.40523958432954
 20
9.203931296099678
 30
0.0
 11
1.250000000000129
 21
-2.165063509461021
 31
0.0
210
0.0
220
0.0
230
1.0
 40
0.577350269189626
 41
3.579741684173548
 42
5.845036276594999
  0
ELLIPSE
  5
45E0
330
45A8
100
AcDbEntity
  8
0
100
AcDbEllipse
 10
80.62802162056557
 20
-47.97294871927302
 30
0.0
 11
1.250000000000129
 21
-2.165063509461021
 31
0.0
210
0.0
220
0.0
230
1.0
 40
0.577350269189626
 41
3.579741684173544
 42
5.845036276594997
  0
ELLIPSE
  5
45E1
330
45A8
100
AcDbEntity
  8
0
100
AcDbEllipse
 10
-19.46589975610937
 20
8.591558860403889
 30
0.0
 11
1.25
 21
-2.165063509461096
 31
0.0
210
0.0
220
0.0
230
1.0
 40
0.5773502691896259
 41
0.0
 42
6.283185307179586
  0
ELLIPSE
  5
45E2
330
45A8
100
AcDbEntity
  8
0
100
AcDbEllipse
 10
79.56736144878575
 20
-48.58532115496881
 30
0.0
 11
1.25
 21
-2.165063509461096
 31
0.0
210
0.0
220
0.0
230
1.0
 40
0.5773502691896259
 41
0.0
 42
6.283185307179586
  0
ELLIPSE
  5
45E3
330
45A8
100
AcDbEntity
  8
0
100
AcDbEllipse
 10
59.04210887498665
 20
-60.00521361274103
 30
0.0
 11
1.250000000000129
 21
-2.165063509461021
 31
0.0
210
0.0
220
0.0
230
1.0
 40
0.577350269189626
 41
3.579741684173544
 42
3.835017178248603
  0
ELLIPSE
  5
45E4
330
45A8
100
AcDbEntity
  8
0
100
AcDbEllipse
 10
-1.061967525869897
 20
-25.30410892331268
 30
0.0
 11
1.250000000000129
 21
-2.165063509461021
 31
0.0
210
0.0
220
0.0
230
1.0
 40
0.5773502691896259
 41
3.579741684173548
 42
3.835017178248601
  0
SPLINE
  5
45E5
330
45A8
100
AcDbEntity
  8
0
100
AcDbSpline
210
0.0
220
0.0
230
1.0
 70
     8
 71
     3
 72
     8
 73
     4
 74
     0
 42
0.000000001
 43
0.0000000001
 40
-1.0
 40
-1.0
 40
-1.0
 40
-1.0
 40
0.0
 40
0.0
 40
0.0
 40
0.0
 10
-0.3623323785890964
 20
-26.74531250685911
 30
0.0
 10
-0.3434799766948693
 20
-26.88499274444166
 30
0.0
 10
-0.4082355706754726
 20
-27.03176884472332
 30
0.0
 10
-0.5369025653320314
 20
-27.13442231110723
 30
0.0
  0
ELLIPSE
  5
45E6
330
45A8
100
AcDbEntity
  8
0
100
AcDbEllipse
 10
-1.929924155743436
 20
-25.59815557963695
 30
0.0
 11
-1.249999999999999
 21
-2.165063509461097
 31
0.0
210
0.0
220
0.0
230
0.9999999999999998
 40
0.8164965809277262
 41
4.968762307403137
 42
7.597608306956032
  0
ELLIPSE
  5
45E7
330
45A8
100
AcDbEntity
  8
0
100
AcDbEllipse
 10
58.17415224511312
 20
-60.2992602690653
 30
0.0
 11
-1.249999999999999
 21
-2.165063509461097
 31
0.0
210
0.0
220
0.0
230
1.0
 40
0.8164965809277262
 41
4.968762307403141
 42
7.597608306956036
  0
SPLINE
  5
45E8
330
45A8
100
AcDbEntity
  8
0
100
AcDbSpline
210
0.0
220
0.0
230
1.0
 70
     8
 71
     3
 72
     8
 73
     4
 74
     0
 42
0.000000001
 43
0.0000000001
 40
-1.0
 40
-1.0
 40
-1.0
 40
-1.0
 40
0.0
 40
0.0
 40
0.0
 40
0.0
 10
56.14719543346527
 20
-59.86100154948397
 30
0.0
 10
56.17176244581209
 20
-59.69824593029092
 30
0.0
 10
56.20230098225206
 20
-59.53171460262726
 30
0.0
 10
56.22115338414619
 20
-59.41380324366168
 30
0.0
  0
ELLIPSE
  5
45E9
330
45A8
100
AcDbEntity
  8
0
100
AcDbEllipse
 10
-1.179924155743448
 20
-26.03116828152917
 30
0.0
 11
-1.249999999999999
 21
-2.165063509461097
 31
0.0
210
0.0
220
0.0
230
0.9999999999999998
 40
0.816496580927726
 41
4.968762307403139
 42
6.069429174707155
  0
LINE
  5
45EA
330
45A8
100
AcDbEntity
  8
0
100
AcDbLine
 10
-3.206880967391287
 20
-25.59290956194784
 30
0.0
 11
-3.707130967289891
 21
-25.30409008984427
 31
0.0
  0
LINE
  5
45EB
330
45A8
100
AcDbEntity
  8
0
100
AcDbLine
 10
-3.707130967289891
 20
-25.30409008984427
 30
0.0
 11
-3.956880967391285
 21
-25.15989686005562
 31
0.0
  0
LINE
  5
45EC
330
45A8
100
AcDbEntity
  8
0
100
AcDbLine
 10
-3.88292301671036
 20
-24.71269855423332
 30
0.0
 11
-3.529723179114894
 21
-24.50877853291984
 31
0.0
  0
SPLINE
  5
45ED
330
45A8
100
AcDbEntity
  8
0
100
AcDbSpline
210
0.0
220
0.0
230
1.0
 70
     8
 71
     3
 72
     8
 73
     4
 74
     0
 42
0.000000001
 43
0.0000000001
 40
-1.0
 40
-1.0
 40
-1.0
 40
-1.0
 40
0.0
 40
0.0
 40
0.0
 40
0.0
 10
-3.956880967391298
 20
-25.15989686005561
 30
0.0
 10
-3.932313955044555
 20
-24.99714124086254
 30
0.0
 10
-3.901775418604658
 20
-24.83060991319883
 30
0.0
 10
-3.88292301671036
 20
-24.71269855423333
 30
0.0
  0
SPLINE
  5
45EE
330
45A8
100
AcDbEntity
  8
0
100
AcDbSpline
210
0.0
220
0.0
230
1.0
 70
     8
 71
     3
 72
     8
 73
     4
 74
     0
 42
0.000000001
 43
0.0000000001
 40
0.0
 40
0.0
 40
0.0
 40
0.0
 40
1.0
 40
1.0
 40
1.0
 40
1.0
 10
-2.82226284493054
 20
-24.10032611853753
 30
0.0
 10
-2.841115246824839
 20
-24.54022697318816
 30
0.0
 10
-2.990771446290505
 20
-25.09839258578355
 30
0.0
 10
-3.206880967391296
 20
-25.59290956194784
 30
0.0
  0
LINE
  5
45EF
330
45A8
100
AcDbEntity
  8
0
100
AcDbLine
 10
-3.529723179114894
 20
-24.50877853291984
 30
0.0
 11
-2.82226284493054
 21
-24.10032611853752
 31
0.0
  0
ELLIPSE
  5
45F0
330
45A8
100
AcDbEntity
  8
0
100
AcDbEllipse
 10
-2.122627697649721
 20
-25.91648135900847
 30
0.0
 11
-1.25
 21
2.165063509461095
 31
0.0
210
0.0
220
0.0
230
1.0
 40
0.5773502691896259
 41
4.018964455725523
 42
6.976609831838752
  0
ELLIPSE
  5
45F1
330
45A8
100
AcDbEntity
  8
0
100
AcDbEllipse
 10
58.9241522451131
 20
-60.73227297095751
 30
0.0
 11
-1.249999999999999
 21
-2.165063509461097
 31
0.0
210
0.0
220
0.0
230
0.9999999999999998
 40
0.816496580927726
 41
4.968762307403135
 42
6.069429174707154
  0
LINE
  5
45F2
330
45A8
100
AcDbEntity
  8
0
100
AcDbLine
 10
56.89719543346527
 20
-60.2940142513762
 30
0.0
 11
56.39694543356589
 21
-60.00519477927217
 31
0.0
  0
LINE
  5
45F3
330
45A8
100
AcDbEntity
  8
0
100
AcDbLine
 10
56.39694543356589
 20
-60.00519477927217
 30
0.0
 11
56.14719543346527
 21
-59.86100154948397
 31
0.0
  0
LINE
  5
45F4
330
45A8
100
AcDbEntity
  8
0
100
AcDbLine
 10
56.22115338414619
 20
-59.41380324366166
 30
0.0
 11
56.57435322173113
 21
-59.20988322235429
 31
0.0
  0
SPLINE
  5
45F5
330
45A8
100
AcDbEntity
  8
0
100
AcDbSpline
210
0.0
220
0.0
230
1.0
 70
     8
 71
     3
 72
     8
 73
     4
 74
     0
 42
0.000000001
 43
0.0000000001
 40
0.0
 40
0.0
 40
0.0
 40
0.0
 40
1.0
 40
1.0
 40
1.0
 40
1.0
 10
57.281813555926
 20
-58.80143080796589
 30
0.0
 10
57.26296115403187
 20
-59.24133166261658
 30
0.0
 10
57.11330495456615
 20
-59.79949727521191
 30
0.0
 10
56.89719543346527
 20
-60.2940142513762
 30
0.0
  0
LINE
  5
45F6
330
45A8
100
AcDbEntity
  8
0
100
AcDbLine
 10
56.57435322173113
 20
-59.20988322235429
 30
0.0
 11
57.28181355592602
 21
-58.80143080796587
 31
0.0
  0
SPLINE
  5
45F7
330
45A8
100
AcDbEntity
  8
0
100
AcDbSpline
210
0.0
220
0.0
230
1.0
 70
     8
 71
     3
 72
     8
 73
     4
 74
     0
 42
0.000000001
 43
0.0000000001
 40
-1.0
 40
-1.0
 40
-1.0
 40
-1.0
 40
0.0
 40
0.0
 40
0.0
 40
0.0
 10
59.74174402226747
 20
-61.44641719628747
 30
0.0
 10
59.76059642416146
 20
-61.58609743386988
 30
0.0
 10
59.69584083018109
 20
-61.73287353415166
 30
0.0
 10
59.56717383552453
 20
-61.83552700053559
 30
0.0
  0
ELLIPSE
  5
45F8
330
45A8
100
AcDbEntity
  8
0
100
AcDbEllipse
 10
57.98144870320683
 20
-60.61758604843682
 30
0.0
 11
-1.25
 21
2.165063509461096
 31
0.0
210
0.0
220
0.0
230
1.0
 40
0.5773502691896259
 41
4.018964455725525
 42
6.97660983183875
  0
ELLIPSE
  5
45F9
330
45A8
100
AcDbEntity
  8
0
100
AcDbEllipse
 10
41.36443934532296
 20
-49.79900635114447
 30
0.0
 11
1.250000000000129
 21
-2.165063509461021
 31
0.0
210
0.0
220
0.0
230
1.0
 40
0.577350269189626
 41
3.579741684173544
 42
3.835017178248602
  0
ELLIPSE
  5
45FA
330
45A8
100
AcDbEntity
  8
0
100
AcDbEllipse
 10
13.08016809786103
 20
-33.46907473258993
 30
0.0
 11
1.250000000000129
 21
-2.165063509461021
 31
0.0
210
0.0
220
0.0
230
1.0
 40
0.577350269189626
 41
3.579741684173548
 42
3.835017178248603
  0
ELLIPSE
  5
45FB
330
45A8
100
AcDbEntity
  8
0
100
AcDbEllipse
 10
12.96221146798748
 20
-34.19613409080641
 30
0.0
 11
-1.249999999999999
 21
-2.165063509461097
 31
0.0
210
0.0
220
0.0
230
1.0
 40
0.816496580927726
 41
4.968762307403139
 42
6.283185307179586
  0
LINE
  5
45FC
330
45A8
100
AcDbEntity
  8
0
100
AcDbLine
 10
10.93525465633964
 20
-33.75787537122509
 30
0.0
 11
10.43500465644115
 21
-33.46905589912158
 31
0.0
  0
LINE
  5
45FD
330
45A8
100
AcDbEntity
  8
0
100
AcDbLine
 10
10.43500465644115
 20
-33.46905589912158
 30
0.0
 11
10.18525465633964
 21
-33.32486266933287
 31
0.0
  0
ELLIPSE
  5
45FE
330
45A8
100
AcDbEntity
  8
0
100
AcDbEllipse
 10
12.21221146798749
 20
-33.7631213889142
 30
0.0
 11
-1.249999999999999
 21
-2.165063509461097
 31
0.0
210
0.0
220
0.0
230
1.0
 40
0.816496580927726
 41
4.968762307403139
 42
6.283185307179586
  0
LINE
  5
45FF
330
45A8
100
AcDbEntity
  8
0
100
AcDbLine
 10
14.49774537392023
 20
-37.96942635069469
 30
0.0
 11
10.96221146798746
 21
-35.92818489837537
 31
0.0
  0
ELLIPSE
  5
4600
330
45A8
100
AcDbEntity
  8
0
100
AcDbEllipse
 10
15.74774537392025
 20
-35.80436284123353
 30
0.0
 11
-1.249999999999999
 21
-2.165063509461097
 31
0.0
210
0.0
220
0.0
230
1.0
 40
0.8164965809277262
 41
0.0
 42
1.314422999776447
  0
LINE
  5
4601
330
45A8
100
AcDbEntity
  8
0
100
AcDbLine
 10
10.25921260702057
 20
-32.87766436351056
 30
0.0
 11
10.61241244460494
 21
-32.67374434220349
 31
0.0
  0
SPLINE
  5
4602
330
45A8
100
AcDbEntity
  8
0
100
AcDbSpline
210
0.0
220
0.0
230
1.0
 70
     8
 71
     3
 72
     8
 73
     4
 74
     0
 42
0.000000001
 43
0.0000000001
 40
-1.0
 40
-1.0
 40
-1.0
 40
-1.0
 40
0.0
 40
0.0
 40
0.0
 40
0.0
 10
10.18525465633964
 20
-33.32486266933287
 30
0.0
 10
10.20982166868637
 20
-33.16210705013978
 30
0.0
 10
10.24036020512642
 20
-32.99557572247614
 30
0.0
 10
10.25921260702056
 20
-32.87766436351057
 30
0.0
  0
SPLINE
  5
4603
330
45A8
100
AcDbEntity
  8
0
100
AcDbSpline
210
0.0
220
0.0
230
1.0
 70
     8
 71
     3
 72
     8
 73
     4
 74
     0
 42
0.000000001
 43
0.0000000001
 40
0.0
 40
0.0
 40
0.0
 40
0.0
 40
1.0
 40
1.0
 40
1.0
 40
1.0
 10
11.31987277880038
 20
-32.26529192781477
 30
0.0
 10
11.30102037690624
 20
-32.70519278246539
 30
0.0
 10
11.15136417744042
 20
-33.26335839506077
 30
0.0
 10
10.93525465633964
 20
-33.75787537122509
 30
0.0
  0
LINE
  5
4604
330
45A8
100
AcDbEntity
  8
0
100
AcDbLine
 10
10.61241244460494
 20
-32.67374434220349
 30
0.0
 11
11.31987277880039
 21
-32.26529192781477
 31
0.0
  0
SPLINE
  5
4605
330
45A8
100
AcDbEntity
  8
0
100
AcDbSpline
210
0.0
220
0.0
230
1.0
 70
     8
 71
     3
 72
     8
 73
     4
 74
     0
 42
0.000000001
 43
0.0000000001
 40
-1.0
 40
-1.0
 40
-1.0
 40
-1.0
 40
0.0
 40
0.0
 40
0.0
 40
0.0
 10
17.3153371510746
 20
-36.95151976845569
 30
0.0
 10
17.33418955296858
 20
-37.09120000603809
 30
0.0
 10
17.26943395898811
 20
-37.23797610631992
 30
0.0
 10
17.14076696433165
 20
-37.3406295727038
 30
0.0
  0
ELLIPSE
  5
4606
330
45A8
100
AcDbEntity
  8
0
100
AcDbEllipse
 10
15.55504183201397
 20
-36.12268862060505
 30
0.0
 11
1.249999999999871
 21
-2.16506350946117
 31
0.0
210
0.0
220
0.0
230
1.0
 40
0.5773502691896259
 41
0.877371802135948
 42
2.356194490192583
  0
LINE
  5
4607
330
45A8
100
AcDbEntity
  8
0
100
AcDbLine
 10
12.0195079260812
 20
-32.04020571596647
 30
0.0
 11
15.55504183201397
 21
-34.0814471682858
 31
0.0
  0
ELLIPSE
  5
4608
330
45A8
100
AcDbEntity
  8
0
100
AcDbEllipse
 10
12.01950792608121
 20
-34.08144716828572
 30
0.0
 11
-1.25
 21
2.165063509461095
 31
0.0
210
0.0
220
0.0
230
1.0
 40
0.5773502691896261
 41
5.497787143782137
 42
6.976609831838752
  0
ELLIPSE
  5
4609
330
45A8
100
AcDbEntity
  8
0
100
AcDbEllipse
 10
41.2464827154494
 20
-50.52606570936093
 30
0.0
 11
-1.25
 21
-2.165063509461097
 31
0.0
210
0.0
220
0.0
230
1.0
 40
0.8164965809277259
 41
4.968762307403137
 42
6.283185307179585
  0
LINE
  5
460A
330
45A8
100
AcDbEntity
  8
0
100
AcDbLine
 10
39.21952590380158
 20
-50.08780698977961
 30
0.0
 11
38.71927590390127
 21
-49.79898751767507
 31
0.0
  0
LINE
  5
460B
330
45A8
100
AcDbEntity
  8
0
100
AcDbLine
 10
38.71927590390127
 20
-49.79898751767507
 30
0.0
 11
38.46952590380157
 21
-49.65479428788739
 31
0.0
  0
ELLIPSE
  5
460C
330
45A8
100
AcDbEntity
  8
0
100
AcDbEllipse
 10
40.49648271544942
 20
-50.09305300746873
 30
0.0
 11
-1.249999999999999
 21
-2.165063509461097
 31
0.0
210
0.0
220
0.0
230
1.0
 40
0.816496580927726
 41
4.968762307403135
 42
6.283185307179585
  0
LINE
  5
460D
330
45A8
100
AcDbEntity
  8
0
100
AcDbLine
 10
42.78201662138217
 20
-54.29935796924922
 30
0.0
 11
39.2464827154494
 21
-52.25811651692989
 31
0.0
  0
ELLIPSE
  5
460E
330
45A8
100
AcDbEntity
  8
0
100
AcDbEllipse
 10
44.03201662138219
 20
-52.13429445978807
 30
0.0
 11
-1.249999999999998
 21
-2.165063509461097
 31
0.0
210
0.0
220
0.0
230
1.0
 40
0.816496580927726
 41
0.0
 42
1.31442299977645
  0
LINE
  5
460F
330
45A8
100
AcDbEntity
  8
0
100
AcDbLine
 10
38.5434838544825
 20
-49.20759598206509
 30
0.0
 11
38.89668369206983
 21
-49.00367596075632
 31
0.0
  0
SPLINE
  5
4610
330
45A8
100
AcDbEntity
  8
0
100
AcDbSpline
210
0.0
220
0.0
230
1.0
 70
     8
 71
     3
 72
     8
 73
     4
 74
     0
 42
0.000000001
 43
0.0000000001
 40
-1.0
 40
-1.0
 40
-1.0
 40
-1.0
 40
0.0
 40
0.0
 40
0.0
 40
0.0
 10
38.46952590380157
 20
-49.65479428788739
 30
0.0
 10
38.49409291614847
 20
-49.49203866869445
 30
0.0
 10
38.5246314525883
 20
-49.32550734103066
 30
0.0
 10
38.54348385448249
 20
-49.20759598206509
 30
0.0
  0
SPLINE
  5
4611
330
45A8
100
AcDbEntity
  8
0
100
AcDbSpline
210
0.0
220
0.0
230
1.0
 70
     8
 71
     3
 72
     8
 73
     4
 74
     0
 42
0.000000001
 43
0.0000000001
 40
0.0
 40
0.0
 40
0.0
 40
0.0
 40
1.0
 40
1.0
 40
1.0
 40
1.0
 10
39.60414402626231
 20
-48.5952235463693
 30
0.0
 10
39.58529162436812
 20
-49.03512440101995
 30
0.0
 10
39.43563542490247
 20
-49.59329001361552
 30
0.0
 10
39.21952590380157
 20
-50.08780698977961
 30
0.0
  0
LINE
  5
4612
330
45A8
100
AcDbEntity
  8
0
100
AcDbLine
 10
38.89668369206983
 20
-49.00367596075632
 30
0.0
 11
39.60414402626233
 21
-48.59522354636929
 31
0.0
  0
SPLINE
  5
4613
330
45A8
100
AcDbEntity
  8
0
100
AcDbSpline
210
0.0
220
0.0
230
1.0
 70
     8
 71
     3
 72
     8
 73
     4
 74
     0
 42
0.000000001
 43
0.0000000001
 40
-1.0
 40
-1.0
 40
-1.0
 40
-1.0
 40
0.0
 40
0.0
 40
0.0
 40
0.0
 10
45.59960839853653
 20
-53.28145138701022
 30
0.0
 10
45.6184608004307
 20
-53.42113162459271
 30
0.0
 10
45.55370520645015
 20
-53.56790772487447
 30
0.0
 10
45.4250382117936
 20
-53.67056119125834
 30
0.0
  0
ELLIPSE
  5
4614
330
45A8
100
AcDbEntity
  8
0
100
AcDbEllipse
 10
43.83931307947591
 20
-52.45262023915959
 30
0.0
 11
1.249999999999871
 21
-2.16506350946117
 31
0.0
210
0.0
220
0.0
230
1.0
 40
0.5773502691896259
 41
0.8773718021359444
 42
2.356194490192587
  0
LINE
  5
4615
330
45A8
100
AcDbEntity
  8
0
100
AcDbLine
 10
40.30377917354313
 20
-48.37013733452099
 30
0.0
 11
43.83931307947591
 21
-50.41137878684033
 31
0.0
  0
ELLIPSE
  5
4616
330
45A8
100
AcDbEntity
  8
0
100
AcDbEllipse
 10
40.30377917354313
 20
-50.41137878684025
 30
0.0
 11
-1.25
 21
2.165063509461096
 31
0.0
210
0.0
220
0.0
230
0.9999999999999998
 40
0.577350269189626
 41
5.497787143782137
 42
6.976609831838749
  0
ELLIPSE
  5
4617
330
45A8
100
AcDbEntity
  8
0
100
AcDbEllipse
 10
27.22230372159201
 20
-41.63404054350016
 30
0.0
 11
1.25000000000013
 21
-2.165063509461022
 31
0.0
210
0.0
220
0.0
230
1.0
 40
0.5773502691896259
 41
3.579741684173544
 42
3.83501717744522
  0
SPLINE
  5
4618
330
45A8
100
AcDbEntity
  8
0
100
AcDbSpline
210
0.0
220
0.0
230
1.0
 70
     8
 71
     3
 72
     8
 73
     4
 74
     0
 42
0.000000001
 43
0.0000000001
 40
-1.0
 40
-1.0
 40
-1.0
 40
-1.0
 40
0.0
 40
0.0
 40
0.0
 40
0.0
 10
24.3273902796999
 20
-41.48982847839611
 30
0.0
 10
24.35195729222595
 20
-41.32707285928016
 30
0.0
 10
24.38249582882491
 20
-41.16054153171639
 30
0.0
 10
24.40134823088198
 20
-41.04263017286315
 30
0.0
  0
ELLIPSE
  5
4619
330
45A8
100
AcDbEntity
  8
0
100
AcDbEllipse
 10
29.88988099665123
 20
-43.96932865224281
 30
0.0
 11
-1.249999999999998
 21
-2.165063509461097
 31
0.0
210
0.0
220
0.0
230
1.0
 40
0.8164965809277262
 41
0.0
 42
1.314423000603463
  0
LINE
  5
461A
330
45A8
100
AcDbEntity
  8
0
100
AcDbLine
 10
28.63988099665121
 20
-46.13439216170393
 30
0.0
 11
25.10434709071848
 21
-44.09315070938462
 31
0.0
  0
ELLIPSE
  5
461B
330
45A8
100
AcDbEntity
  8
0
100
AcDbEllipse
 10
26.35434709071849
 20
-41.92808719992349
 30
0.0
 11
-1.249999999999999
 21
-2.165063509461097
 31
0.0
210
0.0
220
0.0
230
1.0
 40
0.816496580927726
 41
4.968762306576122
 42
6.283185307179585
  0
SPLINE
  5
461C
330
45A8
100
AcDbEntity
  8
0
100
AcDbSpline
210
0.0
220
0.0
230
1.0
 70
     8
 71
     3
 72
     8
 73
     4
 74
     0
 42
0.000000001
 43
0.0000000001
 40
-1.0
 40
-1.0
 40
-1.0
 40
-1.0
 40
0.0
 40
0.0
 40
0.0
 40
0.0
 10
31.45747277467513
 20
-45.11648557765764
 30
0.0
 10
31.47632517673227
 20
-45.25616581531598
 30
0.0
 10
31.4115695829336
 20
-45.40294191569461
 30
0.0
 10
31.28290258843334
 20
-45.5055953821951
 30
0.0
  0
SPLINE
  5
461D
330
45A8
100
AcDbEntity
  8
0
100
AcDbSpline
210
0.0
220
0.0
230
1.0
 70
     8
 71
     3
 72
     8
 73
     4
 74
     0
 42
0.000000001
 43
0.0000000001
 40
0.0
 40
0.0
 40
0.0
 40
0.0
 40
1.0
 40
1.0
 40
1.0
 40
1.0
 10
25.4620084026618
 20
-40.43025773716735
 30
0.0
 10
25.44315600060473
 20
-40.87015859166002
 30
0.0
 10
25.29349980100856
 20
-41.42832420415168
 30
0.0
 10
25.0773902796999
 20
-41.92284118028831
 30
0.0
  0
ELLIPSE
  5
461E
330
45A8
100
AcDbEntity
  8
0
100
AcDbEllipse
 10
27.10434709071848
 20
-42.3610999018157
 30
0.0
 11
-1.249999999999998
 21
-2.165063509461097
 31
0.0
210
0.0
220
0.0
230
1.0
 40
0.8164965809277262
 41
4.968762306576121
 42
6.283185307179582
  0
LINE
  5
461F
330
45A8
100
AcDbEntity
  8
0
100
AcDbLine
 10
25.0773902796999
 20
-41.92284118028831
 30
0.0
 11
24.57714027979978
 21
-41.63402170818387
 31
0.0
  0
LINE
  5
4620
330
45A8
100
AcDbEntity
  8
0
100
AcDbLine
 10
24.57714027979978
 20
-41.63402170818387
 30
0.0
 11
24.3273902796999
 21
-41.48982847839611
 31
0.0
  0
LINE
  5
4621
330
45A8
100
AcDbEntity
  8
0
100
AcDbLine
 10
24.40134823088199
 20
-41.04263017286314
 30
0.0
 11
24.75454806846697
 21
-40.83871015155572
 31
0.0
  0
LINE
  5
4622
330
45A8
100
AcDbEntity
  8
0
100
AcDbLine
 10
24.75454806846697
 20
-40.83871015155572
 30
0.0
 11
25.46200840266181
 21
-40.43025773716734
 31
0.0
  0
ELLIPSE
  5
4623
330
45A8
100
AcDbEntity
  8
0
100
AcDbEllipse
 10
29.69717745574494
 20
-44.28765443151528
 30
0.0
 11
1.249999999999871
 21
-2.16506350946117
 31
0.0
210
0.0
220
0.0
230
1.0
 40
0.577350269189626
 41
0.8773718029393293
 42
2.356194490192594
  0
LINE
  5
4624
330
45A8
100
AcDbEntity
  8
0
100
AcDbLine
 10
26.16164354981219
 20
-40.20517152687661
 30
0.0
 11
29.69717745574492
 21
-42.24641297919592
 31
0.0
  0
ELLIPSE
  5
4625
330
45A8
100
AcDbEntity
  8
0
100
AcDbEllipse
 10
26.16164354981219
 20
-42.24641297919595
 30
0.0
 11
-1.25
 21
2.165063509461096
 31
0.0
210
0.0
220
0.0
230
0.9999999999999998
 40
0.577350269189626
 41
5.497787143782137
 42
6.97660983103537
  0
LINE
  5
4626
330
45A8
100
AcDbEntity
  8
0
100
AcDbLine
 10
70.99221347703933
 20
97.12955338679982
 30
0.0
 11
-13.01207212792255
 21
145.6294502939067
 31
0.0
  0
LINE
  5
4627
330
45A8
100
AcDbEntity
  8
0
100
AcDbLine
 10
41.71799273591641
 20
-15.71027409741197
 30
0.0
 11
41.71799273591641
 21
74.43094843700899
 31
0.0
  0
LINE
  5
4628
330
45A8
100
AcDbEntity
  8
0
100
AcDbLine
 10
40.65733256413659
 20
75.04332087270476
 30
0.0
 11
40.65733256413659
 21
-15.09790166171617
 31
0.0
  0
LINE
  5
4629
330
45A8
100
AcDbEntity
  8
0
100
AcDbLine
 10
70.99221347703933
 20
-2.891277776846581
 30
0.0
 11
45.25352664184913
 21
-17.75151554973128
 31
0.0
  0
LINE
  5
462A
330
45A8
100
AcDbEntity
  8
0
100
AcDbLine
 10
45.25352664184914
 20
80.55467279396692
 30
0.0
 11
70.99221347703934
 21
95.4149105668516
 31
0.0
  0
LINE
  5
462B
330
45A8
100
AcDbEntity
  8
0
100
AcDbLine
 10
-45.25614135002912
 20
124.6454881640642
 30
0.0
 11
-45.25614135002912
 21
34.50426562964324
 31
0.0
  0
LINE
  5
462C
330
45A8
100
AcDbEntity
  8
0
100
AcDbLine
 10
-15.98192060890605
 20
145.6294502939067
 30
0.0
 11
-41.72060744409638
 21
130.7692125210221
 31
0.0
  0
LINE
  5
462D
330
45A8
100
AcDbEntity
  8
0
100
AcDbLine
 10
-44.1954811782493
 20
124.0331157283684
 30
0.0
 11
-44.1954811782493
 21
33.89189319394745
 31
0.0
  0
LINE
  5
462E
330
45A8
100
AcDbEntity
  8
0
100
AcDbLine
 10
70.99221347703934
 20
95.4149105668516
 30
0.0
 11
69.9315533052595
 21
96.02728300254739
 31
0.0
  0
LINE
  5
462F
330
45A8
100
AcDbEntity
  8
0
100
AcDbLine
 10
69.9315533052595
 20
96.02728300254739
 30
0.0
 11
44.19286647006929
 21
81.16704522966271
 31
0.0
  0
LINE
  5
4630
330
45A8
100
AcDbEntity
  8
0
100
AcDbLine
 10
-14.07273229970238
 20
46.71088951451276
 30
0.0
 11
-12.02212263426139
 21
45.52696947216755
 31
0.0
  0
LINE
  5
4631
330
45A8
100
AcDbEntity
  8
0
100
AcDbLine
 10
70.99221347703933
 20
97.12955338679982
 30
0.0
 11
69.9315533052595
 21
96.51718095110403
 31
0.0
  0
LINE
  5
4632
330
45A8
100
AcDbEntity
  8
0
100
AcDbLine
 10
-13.01207212792256
 20
145.6294502939067
 30
0.0
 11
-14.07273229970238
 21
145.0170778582109
 31
0.0
  0
LINE
  5
4633
330
45A8
100
AcDbEntity
  8
0
100
AcDbLine
 10
-15.98192060890605
 20
145.6294502939067
 30
0.0
 11
-14.92126043712622
 21
145.0170778582109
 31
0.0
  0
LINE
  5
4634
330
45A8
100
AcDbEntity
  8
0
100
AcDbLine
 10
-14.07273229970238
 20
145.0170778582109
 30
0.0
 11
69.9315533052595
 21
96.51718095110403
 31
0.0
  0
LINE
  5
4635
330
45A8
100
AcDbEntity
  8
0
100
AcDbLine
 10
-40.65994727231656
 20
31.85065174162815
 30
0.0
 11
-14.92126043712622
 21
46.71088951451277
 31
0.0
  0
LINE
  5
4636
330
45A8
100
AcDbEntity
  8
0
100
AcDbLine
 10
-40.65994727231656
 20
130.1568400853263
 30
0.0
 11
-14.92126043712622
 21
145.0170778582109
 31
0.0
  0
LINE
  5
4637
330
45A8
100
AcDbEntity
  8
0
100
AcDbLine
 10
45.25352664184913
 20
-17.75151554973128
 30
0.0
 11
41.71799273591641
 21
-15.71027409741197
 31
0.0
  0
LINE
  5
4638
330
45A8
100
AcDbEntity
  8
0
100
AcDbLine
 10
41.71799273591641
 20
-15.71027409741197
 30
0.0
 11
40.65733256413659
 21
-15.09790166171617
 31
0.0
  0
LINE
  5
4639
330
45A8
100
AcDbEntity
  8
0
100
AcDbLine
 10
40.65733256413659
 20
75.04332087270476
 30
0.0
 11
41.71799273591641
 21
74.43094843700897
 31
0.0
  0
LINE
  5
463A
330
45A8
100
AcDbEntity
  8
0
100
AcDbLine
 10
41.71799273591641
 20
74.43094843700897
 30
0.0
 11
45.25352664184914
 21
80.55467279396692
 31
0.0
  0
LINE
  5
463B
330
45A8
100
AcDbEntity
  8
0
100
AcDbLine
 10
-40.65994727231656
 20
31.85065174162815
 30
0.0
 11
-44.1954811782493
 21
33.89189319394746
 31
0.0
  0
LINE
  5
463C
330
45A8
100
AcDbEntity
  8
0
100
AcDbLine
 10
-44.1954811782493
 20
33.89189319394746
 30
0.0
 11
-45.25614135002912
 21
34.50426562964325
 31
0.0
  0
LINE
  5
463D
330
45A8
100
AcDbEntity
  8
0
100
AcDbLine
 10
-41.72060744409638
 20
130.7692125210221
 30
0.0
 11
-45.25614135002912
 21
124.6454881640642
 31
0.0
  0
LINE
  5
463E
330
45A8
100
AcDbEntity
  8
0
100
AcDbLine
 10
-45.25614135002912
 20
124.6454881640642
 30
0.0
 11
-44.1954811782493
 21
124.0331157283684
 31
0.0
  0
LINE
  5
463F
330
45A8
100
AcDbEntity
  8
0
100
AcDbLine
 10
45.25352664184914
 20
80.55467279396692
 30
0.0
 11
44.19286647006929
 21
81.16704522966271
 31
0.0
  0
LINE
  5
4640
330
45A8
100
AcDbEntity
  8
0
100
AcDbLine
 10
44.19286647006929
 20
81.16704522966271
 30
0.0
 11
40.65733256413659
 21
75.04332087270476
 31
0.0
  0
LINE
  5
4641
330
45A8
100
AcDbEntity
  8
0
100
AcDbLine
 10
-44.1954811782493
 20
124.0331157283684
 30
0.0
 11
-40.65994727231656
 21
130.1568400853263
 31
0.0
  0
LINE
  5
4642
330
45A8
100
AcDbEntity
  8
0
100
AcDbLine
 10
-40.65994727231656
 20
130.1568400853263
 30
0.0
 11
-41.72060744409638
 21
130.7692125210221
 31
0.0
  0
LINE
  5
4643
330
45A8
100
AcDbEntity
  8
0
100
AcDbLine
 10
14.49221347719476
 20
-124.2615477437928
 30
0.0
 11
14.49221347719477
 21
-118.4880450518966
 31
0.0
  0
LINE
  5
4644
330
45A8
100
AcDbEntity
  8
0
100
AcDbLine
 10
14.49221347719477
 20
-118.4880450518966
 30
0.0
 11
13.43155330541497
 21
-117.8756726162008
 31
0.0
  0
LINE
  5
4645
330
45A8
100
AcDbEntity
  8
0
100
AcDbLine
 10
13.43155330541497
 20
-117.8756726162008
 30
0.0
 11
13.43155330541496
 21
-123.649175308097
 31
0.0
  0
LINE
  5
4646
330
45A8
100
AcDbEntity
  8
0
100
AcDbLine
 10
13.43155330541496
 20
-123.649175308097
 30
0.0
 11
14.49221347719476
 21
-124.2615477437928
 31
0.0
  0
LINE
  5
4647
330
45A8
100
AcDbEntity
  8
0
100
AcDbLine
 10
-72.48192060875054
 20
-68.27350532484152
 30
0.0
 11
-72.48192060875052
 21
-74.04700801673778
 31
0.0
  0
LINE
  5
4648
330
45A8
100
AcDbEntity
  8
0
100
AcDbLine
 10
-72.48192060875052
 20
-74.04700801673778
 30
0.0
 11
-71.42126043697072
 21
-74.65938045243357
 31
0.0
  0
LINE
  5
4649
330
45A8
100
AcDbEntity
  8
0
100
AcDbLine
 10
-71.42126043697072
 20
-74.65938045243357
 30
0.0
 11
-71.42126043697072
 21
-68.88587776053732
 31
0.0
  0
LINE
  5
464A
330
45A8
100
AcDbEntity
  8
0
100
AcDbLine
 10
-71.42126043697072
 20
-68.88587776053732
 30
0.0
 11
-72.48192060875054
 21
-68.27350532484152
 31
0.0
  0
ELLIPSE
  5
464B
330
45A8
100
AcDbEntity
  8
0
100
AcDbEllipse
 10
47.37484698540839
 20
75.32909467602966
 30
0.0
 11
1.250000000000128
 21
2.165063509461021
 31
0.0
210
0.0
220
0.0
230
0.9999999999999998
 40
0.5773502691896258
 41
0.0
 42
6.283185307179586
  0
ELLIPSE
  5
464C
330
45A8
100
AcDbEntity
  8
0
100
AcDbEllipse
 10
47.37484698540839
 20
58.99916305747513
 30
0.0
 11
1.250000000000128
 21
2.165063509461021
 31
0.0
210
0.0
220
0.0
230
0.9999999999999998
 40
0.5773502691896258
 41
0.0
 42
6.283185307179586
  0
ELLIPSE
  5
464D
330
45A8
100
AcDbEntity
  8
0
100
AcDbEllipse
 10
47.37484698540839
 20
42.66923143892061
 30
0.0
 11
1.250000000000128
 21
2.165063509461021
 31
0.0
210
0.0
220
0.0
230
0.9999999999999998
 40
0.5773502691896258
 41
0.0
 42
6.283185307179586
  0
ELLIPSE
  5
464E
330
45A8
100
AcDbEntity
  8
0
100
AcDbEllipse
 10
47.37484698540839
 20
26.33929982036609
 30
0.0
 11
1.250000000000128
 21
2.165063509461021
 31
0.0
210
0.0
220
0.0
230
0.9999999999999998
 40
0.5773502691896258
 41
0.0
 42
6.283185307179586
  0
ELLIPSE
  5
464F
330
45A8
100
AcDbEntity
  8
0
100
AcDbEllipse
 10
47.37484698540839
 20
10.00936820181157
 30
0.0
 11
1.250000000000128
 21
2.165063509461021
 31
0.0
210
0.0
220
0.0
230
0.9999999999999998
 40
0.5773502691896258
 41
0.0
 42
6.283185307179586
  0
ELLIPSE
  5
4650
330
45A8
100
AcDbEntity
  8
0
100
AcDbEllipse
 10
46.31418681362858
 20
75.94146711172545
 30
0.0
 11
1.249999999999864
 21
2.165063509461174
 31
0.0
210
0.0
220
0.0
230
1.0
 40
0.5773502691896219
 41
3.579741684173537
 42
5.84503627659499
  0
ELLIPSE
  5
4651
330
45A8
100
AcDbEntity
  8
0
100
AcDbEllipse
 10
46.31418681362858
 20
59.61153549317095
 30
0.0
 11
1.249999999999864
 21
2.165063509461174
 31
0.0
210
0.0
220
0.0
230
1.0
 40
0.5773502691896219
 41
3.579741684173537
 42
5.84503627659499
  0
ELLIPSE
  5
4652
330
45A8
100
AcDbEntity
  8
0
100
AcDbEllipse
 10
46.31418681362858
 20
43.28160387461642
 30
0.0
 11
1.249999999999864
 21
2.165063509461175
 31
0.0
210
0.0
220
0.0
230
0.9999999999999998
 40
0.577350269189622
 41
3.579741684173548
 42
5.845036276594986
  0
ELLIPSE
  5
4653
330
45A8
100
AcDbEntity
  8
0
100
AcDbEllipse
 10
46.31418681362858
 20
26.95167225606189
 30
0.0
 11
1.249999999999864
 21
2.165063509461175
 31
0.0
210
0.0
220
0.0
230
0.9999999999999998
 40
0.577350269189622
 41
3.579741684173548
 42
5.845036276594983
  0
ELLIPSE
  5
4654
330
45A8
100
AcDbEntity
  8
0
100
AcDbEllipse
 10
46.31418681362858
 20
10.62174063750737
 30
0.0
 11
1.249999999999864
 21
2.165063509461175
 31
0.0
210
0.0
220
0.0
230
0.9999999999999998
 40
0.577350269189622
 41
3.579741684173548
 42
5.845036276594986
  0
ELLIPSE
  5
4655
330
45A8
100
AcDbEntity
  8
0
100
AcDbEllipse
 10
47.37484698540839
 20
-6.320563416742945
 30
0.0
 11
1.250000000000128
 21
2.165063509461021
 31
0.0
210
0.0
220
0.0
230
0.9999999999999998
 40
0.5773502691896258
 41
0.0
 42
6.283185307179586
  0
ELLIPSE
  5
4656
330
45A8
100
AcDbEntity
  8
0
100
AcDbEllipse
 10
46.31418681362858
 20
-5.708190981047147
 30
0.0
 11
1.249999999999864
 21
2.165063509461175
 31
0.0
210
0.0
220
0.0
230
0.9999999999999998
 40
0.577350269189622
 41
3.579741684173548
 42
5.845036276594986
  0
LINE
  5
4657
330
45A8
100
AcDbEntity
  8
0
100
AcDbLine
 10
70.99221347703933
 20
-2.891277776846581
 30
0.0
 11
70.99221347703934
 21
95.4149105668516
 31
0.0
  0
ELLIPSE
  5
4658
330
45A8
100
AcDbEntity
  8
0
100
AcDbEllipse
 10
69.50728923654756
 20
96.27223197682571
 30
0.0
 11
0.6000000000000049
 21
0.0
 31
0.0
210
0.0
220
0.0
230
1.0
 40
0.5773502691896258
 41
5.497787143782135
 42
7.068583470577037
  0
LINE
  5
4659
330
45A8
100
AcDbEntity
  8
0
100
AcDbLine
 10
69.9315533052595
 20
96.51718095110403
 30
0.0
 11
69.9315533052595
 21
96.02728300254739
 31
0.0
  0
ELLIPSE
  5
465A
330
45A8
100
AcDbEntity
  8
0
100
AcDbEllipse
 10
69.50728923654756
 20
96.27223197682571
 30
0.0
 11
2.100000000000008
 21
-0.0000000000000003
 31
0.0
210
0.0
220
0.0
230
1.0
 40
0.5773502691896259
 41
5.497787143782142
 42
7.06858347057703
  0
ELLIPSE
  5
465B
330
45A8
100
AcDbEntity
  8
0
100
AcDbEllipse
 10
69.50728923654756
 20
-2.033956366872473
 30
0.0
 11
2.100000000000008
 21
0.0000000000000014
 31
0.0
210
0.0
220
0.0
230
1.0
 40
0.5773502691896258
 41
5.497787143782137
 42
6.28318530717958
  0
LINE
  5
465C
330
45A8
100
AcDbEntity
  8
0
100
AcDbLine
 10
-14.07273229970238
 20
145.0170778582109
 30
0.0
 11
-14.07273229970238
 21
46.71088951451276
 31
0.0
  0
ELLIPSE
  5
465D
330
45A8
100
AcDbEntity
  8
0
100
AcDbEllipse
 10
-14.49699636841431
 20
144.7721288839326
 30
0.0
 11
0.5999999999999961
 21
-0.0000000000000359
 31
0.0
210
0.0
220
0.0
230
1.0
 40
0.5773502691896259
 41
0.785398163397697
 42
2.356194490192603
  0
LINE
  5
465E
330
45A8
100
AcDbEntity
  8
0
100
AcDbLine
 10
-14.92126043712622
 20
145.0170778582109
 30
0.0
 11
-14.92126043712622
 21
46.71088951451277
 31
0.0
  0
ELLIPSE
  5
465F
330
45A8
100
AcDbEntity
  8
0
100
AcDbEllipse
 10
-14.49699636841431
 20
46.46594054023445
 30
0.0
 11
0.5999999999999961
 21
-0.0000000000000359
 31
0.0
210
0.0
220
0.0
230
1.0
 40
0.5773502691896259
 41
0.785398163397689
 42
2.356194490192596
  0
ELLIPSE
  5
4660
330
45A8
100
AcDbEntity
  8
0
100
AcDbEllipse
 10
-14.49699636841431
 20
144.7721288839326
 30
0.0
 11
-2.099999999999999
 21
-0.000000000000125
 31
0.0
210
0.0
220
0.0
230
1.0
 40
0.5773502691896258
 41
3.926990816987004
 42
5.4977871437819
  0
LINE
  5
4661
330
45A8
100
AcDbEntity
  8
0
100
AcDbLine
 10
71.60728923654757
 20
96.27223197682571
 30
0.0
 11
71.60728923654757
 21
-2.033956366872455
 31
0.0
  0
ELLIPSE
  5
4662
330
45A8
100
AcDbEntity
  8
0
100
AcDbEllipse
 10
-39.59928710053676
 20
121.461151498446
 30
0.0
 11
1.24999999999987
 21
2.16506350946117
 31
0.0
210
0.0
220
0.0
230
1.0
 40
0.5773502691896258
 41
3.579741684173541
 42
5.845036276594988
  0
ELLIPSE
  5
4663
330
45A8
100
AcDbEntity
  8
0
100
AcDbEllipse
 10
-39.59928710053676
 20
105.1312198798915
 30
0.0
 11
1.24999999999987
 21
2.16506350946117
 31
0.0
210
0.0
220
0.0
230
1.0
 40
0.5773502691896258
 41
3.579741684173541
 42
5.845036276594988
  0
ELLIPSE
  5
4664
330
45A8
100
AcDbEntity
  8
0
100
AcDbEllipse
 10
-39.59928710053676
 20
88.80128826133701
 30
0.0
 11
1.24999999999987
 21
2.165063509461171
 31
0.0
210
0.0
220
0.0
230
0.9999999999999998
 40
0.5773502691896259
 41
3.579741684173544
 42
5.845036276594986
  0
ELLIPSE
  5
4665
330
45A8
100
AcDbEntity
  8
0
100
AcDbEllipse
 10
-39.59928710053676
 20
72.47135664278248
 30
0.0
 11
1.24999999999987
 21
2.165063509461171
 31
0.0
210
0.0
220
0.0
230
0.9999999999999998
 40
0.5773502691896259
 41
3.579741684173542
 42
5.84503627659499
  0
ELLIPSE
  5
4666
330
45A8
100
AcDbEntity
  8
0
100
AcDbEllipse
 10
-39.59928710053676
 20
56.14142502422795
 30
0.0
 11
1.24999999999987
 21
2.165063509461171
 31
0.0
210
0.0
220
0.0
230
0.9999999999999998
 40
0.5773502691896259
 41
3.579741684173542
 42
5.84503627659499
  0
ELLIPSE
  5
4667
330
45A8
100
AcDbEntity
  8
0
100
AcDbEllipse
 10
-38.53862692875693
 20
120.8487790627502
 30
0.0
 11
1.250000000000128
 21
2.165063509461021
 31
0.0
210
0.0
220
0.0
230
0.9999999999999998
 40
0.5773502691896258
 41
0.0
 42
6.283185307179586
  0
ELLIPSE
  5
4668
330
45A8
100
AcDbEntity
  8
0
100
AcDbEllipse
 10
-38.53862692875693
 20
104.5188474441957
 30
0.0
 11
1.250000000000128
 21
2.165063509461021
 31
0.0
210
0.0
220
0.0
230
0.9999999999999998
 40
0.5773502691896258
 41
0.0
 42
6.283185307179586
  0
ELLIPSE
  5
4669
330
45A8
100
AcDbEntity
  8
0
100
AcDbEllipse
 10
-38.53862692875693
 20
88.18891582564122
 30
0.0
 11
1.250000000000128
 21
2.165063509461021
 31
0.0
210
0.0
220
0.0
230
0.9999999999999998
 40
0.5773502691896258
 41
0.0
 42
6.283185307179586
  0
ELLIPSE
  5
466A
330
45A8
100
AcDbEntity
  8
0
100
AcDbEllipse
 10
-38.53862692875693
 20
71.85898420708669
 30
0.0
 11
1.250000000000128
 21
2.165063509461021
 31
0.0
210
0.0
220
0.0
230
0.9999999999999998
 40
0.5773502691896258
 41
0.0
 42
6.283185307179586
  0
ELLIPSE
  5
466B
330
45A8
100
AcDbEntity
  8
0
100
AcDbEllipse
 10
-38.53862692875693
 20
55.52905258853217
 30
0.0
 11
1.250000000000128
 21
2.165063509461021
 31
0.0
210
0.0
220
0.0
230
0.9999999999999998
 40
0.5773502691896258
 41
0.0
 42
6.283185307179586
  0
ELLIPSE
  5
466C
330
45A8
100
AcDbEntity
  8
0
100
AcDbEllipse
 10
-39.59928710053676
 20
39.81149340567343
 30
0.0
 11
1.24999999999987
 21
2.165063509461171
 31
0.0
210
0.0
220
0.0
230
0.9999999999999998
 40
0.5773502691896259
 41
3.579741684173544
 42
5.84503627659499
  0
ELLIPSE
  5
466D
330
45A8
100
AcDbEntity
  8
0
100
AcDbEllipse
 10
-38.53862692875693
 20
39.19912096997764
 30
0.0
 11
1.250000000000128
 21
2.165063509461021
 31
0.0
210
0.0
220
0.0
230
0.9999999999999998
 40
0.5773502691896258
 41
0.0
 42
6.283185307179586
  0
LINE
  5
466E
330
45A8
100
AcDbEntity
  8
0
100
AcDbLine
 10
27.99221347660552
 20
-95.10535915141321
 30
0.0
 11
14.49221347719477
 21
-118.4880450518966
 31
0.0
  0
LINE
  5
466F
330
45A8
100
AcDbEntity
  8
0
100
AcDbLine
 10
26.93155330482543
 20
-94.49298671571725
 30
0.0
 11
13.43155330541497
 21
-117.8756726162008
 31
0.0
  0
LINE
  5
4670
330
45A8
100
AcDbEntity
  8
0
100
AcDbLine
 10
32.6922134770393
 20
-134.7693226429543
 30
0.0
 11
69.39221347625142
 21
-71.20305800654127
 31
0.0
  0
LINE
  5
4671
330
45A8
100
AcDbEntity
  8
0
100
AcDbLine
 10
68.08302516704441
 20
-70.73417335789398
 30
0.0
 11
69.07083451643768
 21
-69.02323737655331
 31
0.0
  0
LINE
  5
4672
330
45A8
100
AcDbEntity
  8
0
100
AcDbLine
 10
33.02594258449489
 20
-134.9620012329802
 30
0.0
 11
32.69221347703933
 21
-134.7693226429543
 31
0.0
  0
LINE
  5
4673
330
45A8
100
AcDbEntity
  8
0
100
AcDbLine
 10
70.06430255355732
 20
-70.80967993753883
 30
0.0
 11
33.0259425844949
 21
-134.9620012329802
 31
0.0
  0
LINE
  5
4674
330
45A8
100
AcDbEntity
  8
0
100
AcDbLine
 10
27.99221347660552
 20
-95.10535915141321
 30
0.0
 11
26.93155330482543
 21
-94.49298671571725
 31
0.0
  0
LINE
  5
4675
330
45A8
100
AcDbEntity
  8
0
100
AcDbLine
 10
69.39221347625141
 20
-71.20305800654126
 30
0.0
 11
27.99221347660552
 21
-95.10535915141321
 31
0.0
  0
LINE
  5
4676
330
45A8
100
AcDbEntity
  8
0
100
AcDbLine
 10
-58.98192060934242
 20
-44.89081942435655
 30
0.0
 11
-17.58192060969397
 21
-20.9885182794861
 31
0.0
  0
ELLIPSE
  5
4677
330
45A8
100
AcDbEntity
  8
0
100
AcDbEllipse
 10
-11.8294190923551
 20
-19.88267951314287
 30
0.0
 11
-0.7499999999999996
 21
-1.299038105676658
 31
0.0
210
0.0
220
0.0
230
1.0
 40
0.816496580927726
 41
0.0
 42
1.134458255166983
  0
LINE
  5
4678
330
45A8
100
AcDbEntity
  8
0
100
AcDbLine
 10
-12.57941909235509
 20
-21.18171761881953
 30
0.0
 11
-14.20092478256472
 21
-20.24554087208448
 31
0.0
  0
LINE
  5
4679
330
45A8
100
AcDbEntity
  8
0
100
AcDbLine
 10
-14.20092478256472
 20
-20.24554087208448
 30
0.0
 11
-14.9334510885242
 21
-20.52334046944638
 31
0.0
  0
LINE
  5
467A
330
45A8
100
AcDbEntity
  8
0
100
AcDbLine
 10
69.07083451643768
 20
-69.02323737655331
 30
0.0
 11
68.94515287193444
 21
-68.24995118797108
 31
0.0
  0
LINE
  5
467B
330
45A8
100
AcDbEntity
  8
0
100
AcDbLine
 10
68.94515287193444
 20
-68.24995118797108
 30
0.0
 11
67.3236471817248
 21
-67.31377444123603
 31
0.0
  0
ELLIPSE
  5
467C
330
45A8
100
AcDbEntity
  8
0
100
AcDbEllipse
 10
68.07364718172478
 20
-66.01473633555939
 30
0.0
 11
-0.7499999999999996
 21
-1.299038105676658
 31
0.0
210
0.0
220
0.0
230
1.0
 40
0.816496580927726
 41
5.148727052012597
 42
6.283185307179585
  0
SPLINE
  5
467D
330
45A8
100
AcDbEntity
  8
0
100
AcDbSpline
210
0.0
220
0.0
230
1.0
 70
     8
 71
     3
 72
     8
 73
     4
 74
     0
 42
0.000000001
 43
0.0000000001
 40
-1.0
 40
-1.0
 40
-1.0
 40
-1.0
 40
0.0
 40
0.0
 40
0.0
 40
0.0
 10
-10.97396252707034
 20
-20.61868498409272
 30
0.0
 10
-10.94203111208915
 20
-20.76701644043445
 30
0.0
 10
-11.02399312469876
 20
-20.91122353990465
 30
0.0
 10
-11.18510471123629
 20
-20.98667993578386
 30
0.0
  0
SPLINE
  5
467E
330
45A8
100
AcDbEntity
  8
0
100
AcDbSpline
210
0.0
220
0.0
230
1.0
 70
     8
 71
     3
 72
     8
 73
     4
 74
     0
 42
0.000000001
 43
0.0000000001
 40
-1.0
 40
-1.0
 40
-1.0
 40
-1.0
 40
0.0
 40
0.0
 40
0.0
 40
0.0
 10
66.79539757936949
 20
-66.00874392480732
 30
0.0
 10
66.78018894181194
 20
-65.83148900008325
 30
0.0
 10
66.80085211764762
 20
-65.6518910007006
 30
0.0
 10
66.83278353262742
 20
-65.54043076642805
 30
0.0
  0
SPLINE
  5
467F
330
45A8
100
AcDbEntity
  8
0
100
AcDbSpline
210
0.0
220
0.0
230
1.0
 70
     8
 71
     3
 72
     8
 73
     4
 74
     0
 42
0.000000001
 43
0.0000000001
 40
0.1302463606542656
 40
0.1302463606542656
 40
0.1302463606542656
 40
0.1302463606542656
 40
1.0
 40
1.0
 40
1.0
 40
1.0
 10
67.87523004748917
 20
-65.10550970972608
 30
0.0
 10
67.82240411170104
 20
-65.514930937163
 30
0.0
 10
67.69079433758564
 20
-66.01284277232948
 30
0.0
 10
67.5453975793695
 20
-66.44175662669955
 30
0.0
  0
LINE
  5
4680
330
45A8
100
AcDbEntity
  8
0
100
AcDbLine
 10
-57.92126043756237
 20
-45.50319186005248
 30
0.0
 11
-58.98192060934242
 21
-44.89081942435655
 31
0.0
  0
LINE
  5
4681
330
45A8
100
AcDbEntity
  8
0
100
AcDbLine
 10
-16.52126043791419
 20
-21.60089071518188
 30
0.0
 11
-57.92126043756237
 21
-45.50319186005248
 31
0.0
  0
LINE
  5
4682
330
45A8
100
AcDbEntity
  8
0
100
AcDbLine
 10
-16.52126043791419
 20
-21.60089071518188
 30
0.0
 11
-16.87446027511715
 21
-21.39697069409499
 31
0.0
  0
LINE
  5
4683
330
45A8
100
AcDbEntity
  8
0
100
AcDbLine
 10
-16.87446027511715
 20
-21.39697069409499
 30
0.0
 11
-17.58192060969397
 21
-20.9885182794861
 31
0.0
  0
SPLINE
  5
4684
330
45A8
100
AcDbEntity
  8
0
100
AcDbSpline
210
0.0
220
0.0
230
1.0
 70
     8
 71
     3
 72
     8
 73
     4
 74
     0
 42
0.000000001
 43
0.0000000001
 40
-1.0
 40
-1.0
 40
-1.0
 40
-1.0
 40
0.0
 40
0.0
 40
0.0
 40
0.0
 10
-14.9334510885242
 20
-20.52334046944638
 30
0.0
 10
-15.44344366232486
 20
-20.8936535866872
 30
0.0
 10
-16.07633237834191
 20
-21.19301258313651
 30
0.0
 10
-16.52126043791418
 20
-21.60089071518186
 30
0.0
  0
SPLINE
  5
4685
330
45A8
100
AcDbEntity
  8
0
100
AcDbSpline
210
0.0
220
0.0
230
1.0
 70
     8
 71
     3
 72
     8
 73
     4
 74
     0
 42
0.000000001
 43
0.0000000001
 40
0.0
 40
0.0
 40
0.0
 40
0.0
 40
0.6081734479693881
 40
0.6081734479693881
 40
0.6081734479693881
 40
0.6081734479693881
 10
-17.58192060969397
 20
-20.98851827948608
 30
0.0
 10
-17.07249802307446
 20
-20.87834570622762
 30
0.0
 10
-16.31974865676578
 20
-20.90865791472396
 30
0.0
 10
-15.5684157935631
 20
-20.93815230477071
 30
0.0
  0
ELLIPSE
  5
4686
330
45A8
100
AcDbEntity
  8
0
100
AcDbEllipse
 10
-12.02212263426139
 20
-20.2010052925144
 30
0.0
 11
0.7499999999999233
 21
-1.299038105676702
 31
0.0
210
0.0
220
0.0
230
1.0
 40
0.5773502691896259
 41
0.9390757175653323
 42
2.356194490192585
  0
LINE
  5
4687
330
45A8
100
AcDbEntity
  8
0
100
AcDbLine
 10
69.39221347625141
 20
-71.20305800654126
 30
0.0
 11
68.68475314167454
 21
-70.79460559193229
 31
0.0
  0
LINE
  5
4688
330
45A8
100
AcDbEntity
  8
0
100
AcDbLine
 10
68.68475314167454
 20
-70.79460559193229
 30
0.0
 11
68.33155330447157
 21
-70.59068557084545
 31
0.0
  0
LINE
  5
4689
330
45A8
100
AcDbEntity
  8
0
100
AcDbLine
 10
26.93155330482543
 20
-94.49298671571725
 30
0.0
 11
68.33155330447157
 21
-70.59068557084545
 31
0.0
  0
LINE
  5
468A
330
45A8
100
AcDbEntity
  8
0
100
AcDbLine
 10
69.07083451643768
 20
-69.02323737655331
 30
0.0
 11
69.32058451643735
 21
-69.16743060628322
 31
0.0
  0
SPLINE
  5
468B
330
45A8
100
AcDbEntity
  8
0
100
AcDbSpline
210
0.0
220
0.0
230
1.0
 70
     8
 71
     3
 72
     8
 73
     4
 74
     0
 42
0.000000001
 43
0.0000000001
 40
-1.0
 40
-1.0
 40
-1.0
 40
-1.0
 40
0.0
 40
0.0
 40
0.0
 40
0.0
 10
68.33155330447159
 20
-70.59068557084543
 30
0.0
 10
68.77648136404381
 20
-70.18280743880009
 30
0.0
 10
69.00513023645308
 20
-69.65006045982606
 30
0.0
 10
69.07083451643767
 20
-69.02323737655331
 30
0.0
  0
SPLINE
  5
468C
330
45A8
100
AcDbEntity
  8
0
100
AcDbSpline
210
0.0
220
0.0
230
1.0
 70
     8
 71
     3
 72
     8
 73
     4
 74
     0
 42
0.000000001
 43
0.0000000001
 40
0.0
 40
0.0
 40
0.0
 40
0.0
 40
1.0
 40
1.0
 40
1.0
 40
1.0
 10
69.82083451643767
 20
-69.45625007844554
 30
0.0
 10
70.31049060372284
 20
-70.40371061925873
 30
0.0
 10
70.22984061752234
 20
-71.02190479502515
 30
0.0
 10
69.39221347625144
 20
-71.20305800654126
 30
0.0
  0
LINE
  5
468D
330
45A8
100
AcDbEntity
  8
0
100
AcDbLine
 10
69.32058451643735
 20
-69.16743060628322
 30
0.0
 11
69.82083451643768
 21
-69.45625007844552
 31
0.0
  0
ELLIPSE
  5
468E
330
45A8
100
AcDbEntity
  8
0
100
AcDbEllipse
 10
68.82364718172476
 20
-66.4477490374516
 30
0.0
 11
-0.7499999999999996
 21
-1.299038105676658
 31
0.0
210
0.0
220
0.0
230
1.0
 40
0.816496580927726
 41
5.148727052012596
 42
6.283185307179585
  0
LINE
  5
468F
330
45A8
100
AcDbEntity
  8
0
100
AcDbLine
 10
67.54539757936948
 20
-66.44175662669955
 30
0.0
 11
67.04514758026459
 21
-66.15293715505422
 31
0.0
  0
LINE
  5
4690
330
45A8
100
AcDbEntity
  8
0
100
AcDbLine
 10
67.04514758026459
 20
-66.15293715505422
 30
0.0
 11
66.79539757936949
 21
-66.00874392480732
 31
0.0
  0
LINE
  5
4691
330
45A8
100
AcDbEntity
  8
0
100
AcDbLine
 10
68.94515287193444
 20
-68.24995118797108
 30
0.0
 11
69.69515287193442
 21
-68.68296388986329
 31
0.0
  0
LINE
  5
4692
330
45A8
100
AcDbEntity
  8
0
100
AcDbLine
 10
69.69515287193442
 20
-68.68296388986329
 30
0.0
 11
69.82083451643768
 21
-69.45625007844552
 31
0.0
  0
LINE
  5
4693
330
45A8
100
AcDbEntity
  8
0
100
AcDbLine
 10
66.83278353262743
 20
-65.54043076642805
 30
0.0
 11
67.18598337302523
 21
-65.33651074349663
 31
0.0
  0
LINE
  5
4694
330
45A8
100
AcDbEntity
  8
0
100
AcDbLine
 10
67.18598337302523
 20
-65.33651074349663
 30
0.0
 11
67.71858480977464
 21
-65.02901316061858
 31
0.0
  0
ELLIPSE
  5
4695
330
45A8
100
AcDbEntity
  8
0
100
AcDbEllipse
 10
67.8809436398185
 20
-66.33306211493091
 30
0.0
 11
-0.7500000000000004
 21
1.299038105676658
 31
0.0
210
0.0
220
0.0
230
0.9999999999999998
 40
0.577350269189626
 41
5.497787143782137
 42
6.914905916409349
  0
LINE
  5
4696
330
45A8
100
AcDbEntity
  8
0
100
AcDbLine
 10
32.6922134770393
 20
-134.7693226429543
 30
0.0
 11
14.49221347719476
 21
-124.2615477437928
 31
0.0
  0
LINE
  5
4697
330
45A8
100
AcDbEntity
  8
0
100
AcDbLine
 10
-71.42126043697072
 20
-74.65938045243357
 30
0.0
 11
-53.2212604371262
 21
-85.16715535159498
 31
0.0
  0
LINE
  5
4698
330
45A8
100
AcDbEntity
  8
0
100
AcDbLine
 10
-0.3623323785890831
 20
-26.74531250685911
 30
0.0
 11
10.25921260702057
 21
-32.87766436351056
 31
0.0
  0
LINE
  5
4699
330
45A8
100
AcDbEntity
  8
0
100
AcDbLine
 10
10.18525465633964
 20
-33.32486266933287
 30
0.0
 11
-0.5369025653320314
 21
-27.13442231110723
 31
0.0
  0
LINE
  5
469A
330
45A8
100
AcDbEntity
  8
0
100
AcDbLine
 10
24.3273902796999
 20
-41.48982847839611
 30
0.0
 11
17.14076696433166
 21
-37.34062957270381
 31
0.0
  0
LINE
  5
469B
330
45A8
100
AcDbEntity
  8
0
100
AcDbLine
 10
17.31533715107461
 20
-36.95151976845568
 30
0.0
 11
24.40134823088199
 21
-41.04263017286314
 31
0.0
  0
LINE
  5
469C
330
45A8
100
AcDbEntity
  8
0
100
AcDbLine
 10
-3.956880967391285
 20
-25.15989686005562
 30
0.0
 11
-11.18510471123628
 21
-20.98667993578386
 31
0.0
  0
LINE
  5
469D
330
45A8
100
AcDbEntity
  8
0
100
AcDbLine
 10
-52.49699636841427
 20
-85.58530940663017
 30
0.0
 11
13.43155330541496
 21
-123.649175308097
 31
0.0
  0
LINE
  5
469E
330
45A8
100
AcDbEntity
  8
0
100
AcDbLine
 10
66.79539757936949
 20
-66.00874392480732
 30
0.0
 11
59.56717383552453
 21
-61.83552700053559
 31
0.0
  0
LINE
  5
469F
330
45A8
100
AcDbEntity
  8
0
100
AcDbLine
 10
56.14719543346527
 20
-59.86100154948397
 30
0.0
 11
45.4250382117936
 21
-53.67056119125834
 31
0.0
  0
LINE
  5
46A0
330
45A8
100
AcDbEntity
  8
0
100
AcDbLine
 10
38.46952590380157
 20
-49.65479428788739
 30
0.0
 11
31.28290258843334
 21
-45.5055953821951
 31
0.0
  0
LINE
  5
46A1
330
45A8
100
AcDbEntity
  8
0
100
AcDbLine
 10
31.45747277467514
 20
-45.11648557765763
 30
0.0
 11
38.5434838544825
 21
-49.20759598206509
 31
0.0
  0
LINE
  5
46A2
330
45A8
100
AcDbEntity
  8
0
100
AcDbLine
 10
45.59960839853655
 20
-53.28145138701021
 30
0.0
 11
56.22115338414619
 21
-59.41380324366166
 31
0.0
  0
LINE
  5
46A3
330
45A8
100
AcDbEntity
  8
0
100
AcDbLine
 10
-10.97396252707032
 20
-20.61868498409272
 30
0.0
 11
-3.88292301671036
 21
-24.71269855423332
 31
0.0
  0
LINE
  5
46A4
330
45A8
100
AcDbEntity
  8
0
100
AcDbLine
 10
59.74174402226747
 20
-61.44641719628745
 30
0.0
 11
66.83278353262743
 21
-65.54043076642805
 31
0.0
  0
ELLIPSE
  5
46A5
330
45A8
100
AcDbEntity
  8
0
100
AcDbEllipse
 10
22.24221347730848
 20
-114.3022556003375
 30
0.0
 11
1.25000000000013
 21
2.165063509461021
 31
0.0
210
0.0
220
0.0
230
1.0
 40
0.5773502691896254
 41
0.0
 42
6.283185307179586
  0
ELLIPSE
  5
46A6
330
45A8
100
AcDbEntity
  8
0
100
AcDbEllipse
 10
35.99221347751319
 20
-96.26005968827985
 30
0.0
 11
-0.4000000000000425
 21
-0.6928203230275284
 31
0.0
210
0.0
220
0.0
230
1.0
 40
0.5773502691896254
 41
2.094395102375157
 42
2.276828566511568
  0
LINE
  5
46A7
330
45A8
100
AcDbEntity
  8
0
100
AcDbLine
 10
36.53862363902431
 20
-96.11364952677911
 30
0.0
 11
35.74615539370106
 21
-99.98624479098518
 31
0.0
  0
ELLIPSE
  5
46A8
330
45A8
100
AcDbEntity
  8
0
100
AcDbEllipse
 10
35.19974523218993
 20
-100.1326549524859
 30
0.0
 11
-0.4000000000000416
 21
-0.6928203230275272
 31
0.0
210
0.0
220
0.0
230
1.0
 40
0.5773502691896254
 41
0.0
 42
2.094395102375107
  0
LINE
  5
46A9
330
45A8
100
AcDbEntity
  8
0
100
AcDbLine
 10
34.79974523218267
 20
-100.8254752755093
 30
0.0
 11
32.63468172276096
 21
-99.57547527544106
 31
0.0
  0
ELLIPSE
  5
46AA
330
45A8
100
AcDbEntity
  8
0
100
AcDbEllipse
 10
33.03468172276822
 20
-98.88265495241769
 30
0.0
 11
-0.4000000000072803
 21
-0.6928203230233491
 31
0.0
210
0.0
220
0.0
230
0.9999999999999998
 40
0.5773502691896257
 41
4.188790204822794
 42
6.283185307252372
  0
LINE
  5
46AB
330
45A8
100
AcDbEntity
  8
0
100
AcDbLine
 10
32.8882715612644
 20
-98.33624479089511
 30
0.0
 11
35.84580331600937
 21
-95.71364952675727
 31
0.0
  0
ELLIPSE
  5
46AC
330
45A8
100
AcDbEntity
  8
0
100
AcDbEllipse
 10
35.99221347751319
 20
-96.26005968827985
 30
0.0
 11
0.4000000000000012
 21
0.6928203230275522
 31
0.0
210
0.0
220
0.0
230
1.0
 40
0.5773502691896259
 41
0.0802385882704746
 42
1.047197551178412
  0
LINE
  5
46AD
330
45A8
100
AcDbEntity
  8
0
100
AcDbLine
 10
36.35886551524743
 20
-95.55095800670359
 30
0.0
 11
36.55611822539756
 21
-95.98627632708117
 31
0.0
  0
ELLIPSE
  5
46AE
330
45A8
100
AcDbEntity
  8
0
100
AcDbEllipse
 10
34.13908506041014
 20
-99.52028251679017
 30
0.0
 11
-0.4000000000072798
 21
-0.6928203230233483
 31
0.0
210
0.0
220
0.0
230
1.0
 40
0.5773502691896255
 41
0.0000000000727867
 42
2.094395102429601
  0
LINE
  5
46AF
330
45A8
100
AcDbEntity
  8
0
100
AcDbLine
 10
34.68549522192123
 20
-99.37387235528939
 30
0.0
 11
35.74615539370106
 21
-99.98624479098518
 31
0.0
  0
LINE
  5
46B0
330
45A8
100
AcDbEntity
  8
0
100
AcDbLine
 10
34.68549522192123
 20
-99.37387235528939
 30
0.0
 11
35.34332473807187
 21
-96.15922308204213
 31
0.0
  0
LINE
  5
46B1
330
45A8
100
AcDbEntity
  8
0
100
AcDbLine
 10
35.84580331599674
 20
-95.7136495267791
 30
0.0
 11
36.53862363902431
 21
-96.11364952677911
 31
0.0
  0
LINE
  5
46B2
330
45A8
100
AcDbEntity
  8
0
100
AcDbLine
 10
35.94736444950256
 20
-95.63481217069799
 30
0.0
 11
36.55611822539756
 21
-95.98627632708117
 31
0.0
  0
ELLIPSE
  5
46B3
330
45A8
100
AcDbEntity
  8
0
100
AcDbEllipse
 10
21.18155330552868
 20
-113.6898831646417
 30
0.0
 11
1.24999999999987
 21
2.165063509461171
 31
0.0
210
0.0
220
0.0
230
1.0
 40
0.5773502691896259
 41
3.579741684173537
 42
5.845036276595009
  0
LINE
  5
46B4
330
45A8
100
AcDbEntity
  8
0
100
AcDbLine
 10
-58.98192060934242
 20
-44.89081942435655
 30
0.0
 11
-72.48192060875054
 21
-68.27350532484152
 31
0.0
  0
LINE
  5
46B5
330
45A8
100
AcDbEntity
  8
0
100
AcDbLine
 10
-57.92126043756237
 20
-45.50319186005248
 30
0.0
 11
-71.42126043697072
 21
-68.88587776053732
 31
0.0
  0
ELLIPSE
  5
46B6
330
45A8
100
AcDbEntity
  8
0
100
AcDbEllipse
 10
-67.2319206086823
 20
-68.41784289217833
 30
0.0
 11
1.24999999999987
 21
2.165063509461171
 31
0.0
210
0.0
220
0.0
230
0.9999999999999998
 40
0.5773502691896255
 41
3.579741684173539
 42
5.845036276595009
  0
ELLIPSE
  5
46B7
330
45A8
100
AcDbEntity
  8
0
100
AcDbEllipse
 10
-54.27438885380084
 20
-54.24824224432676
 30
0.0
 11
-0.4000000000072798
 21
-0.6928203230233483
 31
0.0
210
0.0
220
0.0
230
1.0
 40
0.5773502691896255
 41
0.0000000000727783
 42
2.094395102429573
  0
LINE
  5
46B8
330
45A8
100
AcDbEntity
  8
0
100
AcDbLine
 10
-53.72797869228975
 20
-54.10183208282602
 30
0.0
 11
-53.07014917613911
 21
-50.88718280957873
 31
0.0
  0
LINE
  5
46B9
330
45A8
100
AcDbEntity
  8
0
100
AcDbLine
 10
-52.66731852050994
 20
-54.71420451852181
 30
0.0
 11
-53.72797869228975
 21
-54.10183208282602
 31
0.0
  0
LINE
  5
46BA
330
45A8
100
AcDbEntity
  8
0
100
AcDbLine
 10
-51.87485027518667
 20
-50.84160925431572
 30
0.0
 11
-52.66731852050994
 21
-54.71420451852181
 31
0.0
  0
LINE
  5
46BB
330
45A8
100
AcDbEntity
  8
0
100
AcDbLine
 10
-51.87485027518667
 20
-50.84160925431572
 30
0.0
 11
-52.56767059822148
 21
-50.44160925431153
 31
0.0
  0
ELLIPSE
  5
46BC
330
45A8
100
AcDbEntity
  8
0
100
AcDbEllipse
 10
-52.42126043669777
 20
-50.98801941581648
 30
0.0
 11
0.4000000000000002
 21
0.6928203230275524
 31
0.0
210
0.0
220
0.0
230
0.9999999999999998
 40
0.5773502691896255
 41
5.235987755964798
 42
7.330382858358005
  0
LINE
  5
46BD
330
45A8
100
AcDbEntity
  8
0
100
AcDbLine
 10
-55.52520235294657
 20
-53.06420451843172
 30
0.0
 11
-52.56767059820162
 21
-50.44160925429388
 31
0.0
  0
ELLIPSE
  5
46BE
330
45A8
100
AcDbEntity
  8
0
100
AcDbEllipse
 10
-55.37879219144276
 20
-53.6106146799543
 30
0.0
 11
-0.4000000000072796
 21
-0.6928203230233497
 31
0.0
210
0.0
220
0.0
230
0.9999999999999998
 40
0.5773502691896255
 41
4.18879020482279
 42
6.283185307252368
  0
LINE
  5
46BF
330
45A8
100
AcDbEntity
  8
0
100
AcDbLine
 10
-53.61372868202831
 20
-55.55343500304591
 30
0.0
 11
-55.77879219145003
 21
-54.30343500297767
 31
0.0
  0
ELLIPSE
  5
46C0
330
45A8
100
AcDbEntity
  8
0
100
AcDbEllipse
 10
-53.21372868202104
 20
-54.86061468002255
 30
0.0
 11
-0.4000000000000412
 21
-0.6928203230275272
 31
0.0
210
0.0
220
0.0
230
1.0
 40
0.5773502691896259
 41
0.0
 42
2.094395102375109
  0
ELLIPSE
  5
46C1
330
45A8
100
AcDbEntity
  8
0
100
AcDbEllipse
 10
-66.17126043690252
 20
-69.03021532787409
 30
0.0
 11
1.250000000000127
 21
2.165063509461022
 31
0.0
210
0.0
220
0.0
230
1.0
 40
0.577350269189626
 41
0.0
 42
6.283185307179586
  0
LINE
  5
46C2
330
45A8
100
AcDbEntity
  8
0
100
AcDbLine
 10
-14.9334510885242
 20
-20.52334046944638
 30
0.0
 11
-52.49699636841427
 21
-85.58530940663017
 31
0.0
  0
LINE
  5
46C3
330
45A8
100
AcDbEntity
  8
0
100
AcDbLine
 10
-53.22126043712618
 20
-85.16715535159493
 30
0.0
 11
-52.49699636841427
 21
-85.58530940663017
 31
0.0
  0
LINE
  5
46C4
330
45A8
100
AcDbEntity
  8
0
100
AcDbLine
 10
-53.2212604371262
 20
-85.16715535159498
 30
0.0
 11
-16.52126043791419
 21
-21.60089071518188
 31
0.0
  0
ENDBLK
  5
45AA
330
45A8
100
AcDbEntity
  8
0
100
AcDbBlockEnd
  0
ENDSEC
  0
SECTION
  2
ENTITIES
  0
INSERT
  5
46C5
330
1F
100
AcDbEntity
  8
0
100
AcDbBlockReference
  2
SPR120_200-Front
 10
0.0
 20
0.0
 30
0.0
  0
INSERT
  5
46C6
330
1F
100
AcDbEntity
  8
0
100
AcDbBlockReference
  2
SPR120_200-Left
 10
179.4229986469886
 20
0.0
 30
0.0
  0
INSERT
  5
46C7
330
1F
100
AcDbEntity
  8
0
100
AcDbBlockReference
  2
SPR120_200-Right
 10
-179.4229986469887
 20
0.0
 30
0.0
  0
INSERT
  5
46C8
330
1F
100
AcDbEntity
  8
0
100
AcDbBlockReference
  2
SPR120_200-Top
 10
0.0
 20
-132.5456017059509
 30
0.0
  0
INSERT
  5
46C9
330
1F
100
AcDbEntity
  8
0
100
AcDbBlockReference
  2
SPR120_200-Bottom
 10
0.0
 20
277.5659080859887
 30
0.0
  0
INSERT
  5
46CA
330
1F
100
AcDbEntity
  8
0
100
AcDbBlockReference
  2
SPR120_200-ISO
 10
251.9049192557393
 20
-278.5301661551818
 30
0.0
  0
MTEXT
  5
46CB
330
1F
100
AcDbEntity
  8
0
100
AcDbMText
 10
0.0
 20
-291.4445760657997
 30
0.0
 40
23.92306648626516
 41
0.0
 71
     5
 72
     5
  1
SPR120/200
 73
     1
 44
1.0
1001
ACAD
1000
MTEXTBEGIN
1070
    73
1070
     1
1070
    44
1040
1.0
1070
    74
1070
     0
1000
MTEXTEND
  0
ENDSEC
  0
SECTION
  2
OBJECTS
  0
DICTIONARY
  5
C
330
0
100
AcDbDictionary
281
     1
  3
ACAD_CIP_PREVIOUS_PRODUCT_INFO
350
216
  3
ACAD_COLOR
350
6B
  3
ACAD_DETAILVIEWSTYLE
350
21B
  3
ACAD_GROUP
350
D
  3
ACAD_LAYOUT
350
1A
  3
ACAD_MATERIAL
350
6A
  3
ACAD_MLEADERSTYLE
350
12D
  3
ACAD_MLINESTYLE
350
17
  3
ACAD_PLOTSETTINGS
350
19
  3
ACAD_PLOTSTYLENAME
350
E
  3
ACAD_SCALELIST
350
10C
  3
ACAD_SECTIONVIEWSTYLE
350
219
  3
ACAD_TABLESTYLE
350
7E
  3
ACAD_VISUALSTYLE
350
EF
  3
ACDB_RECOMPOSE_DATA
350
47CC
  3
AcDbVariableDictionary
350
5E
  3
DWGPROPS
350
47CD
  0
DICTIONARY
  5
471C
330
8
100
AcDbDictionary
280
     1
281
     1
  0
DICTIONARY
  5
1FF
330
2
100
AcDbDictionary
280
     1
281
     1
  3
ACAD_LAYERSTATES
360
200
  0
DICTIONARY
  5
13C
330
10
100
AcDbDictionary
280
     1
281
     1
  0
DICTIONARY
  5
1CE
330
1F
100
AcDbDictionary
280
     1
281
     1
  3
ACAD_LAYOUTSELFREF
360
4724
  0
DICTIONARY
  5
46CF
330
D2
100
AcDbDictionary
280
     1
281
     1
  3
ACAD_LAYOUTSELFREF
360
472D
  0
DICTIONARY
  5
46D1
330
D6
100
AcDbDictionary
280
     1
281
     1
  3
ACAD_LAYOUTSELFREF
360
4730
  0
XRECORD
  5
216
102
{ACAD_REACTORS
330
C
102
}
330
C
100
AcDbXrecord
280
     1
300
ACD
300
2021
300
87393ACD_2021_0F
  0
DICTIONARY
  5
6B
102
{ACAD_REACTORS
330
C
102
}
330
C
100
AcDbDictionary
281
     1
  0
DICTIONARY
  5
21B
102
{ACAD_REACTORS
330
C
102
}
330
C
100
AcDbDictionary
281
     1
  3
Metric50
350
21C
  0
DICTIONARY
  5
D
102
{ACAD_REACTORS
330
C
102
}
330
C
100
AcDbDictionary
281
     1
  0
DICTIONARY
  5
1A
102
{ACAD_REACTORS
330
C
102
}
330
C
100
AcDbDictionary
281
     1
  3
Layout1
350
D3
  3
Layout2
350
D7
  3
Model
350
22
  0
DICTIONARY
  5
6A
102
{ACAD_REACTORS
330
C
102
}
330
C
100
AcDbDictionary
281
     1
  3
ByBlock
350
ED
  3
ByLayer
350
EC
  3
Global
350
EE
  0
DICTIONARY
  5
12D
102
{ACAD_REACTORS
330
C
102
}
330
C
100
AcDbDictionary
281
     1
  3
Standard
350
12E
  0
DICTIONARY
  5
17
102
{ACAD_REACTORS
330
C
102
}
330
C
100
AcDbDictionary
281
     1
  3
Standard
350
18
  0
DICTIONARY
  5
19
102
{ACAD_REACTORS
330
C
102
}
330
C
100
AcDbDictionary
281
     1
  0
ACDBDICTIONARYWDFLT
  5
E
102
{ACAD_REACTORS
330
C
102
}
330
C
100
AcDbDictionary
281
     1
  3
Normal
350
F
100
AcDbDictionaryWithDefault
340
F
  0
DICTIONARY
  5
10C
102
{ACAD_REACTORS
330
C
102
}
330
C
100
AcDbDictionary
281
     1
  3
A0
350
10D
  3
A1
350
1BE
  3
A2
350
1BF
  3
A3
350
1C0
  3
A4
350
1C1
  3
A5
350
1C2
  3
A6
350
1C3
  3
A7
350
1C4
  3
A8
350
1C5
  3
A9
350
1C6
  3
B0
350
1C7
  3
B1
350
1C8
  3
B2
350
1C9
  3
B3
350
1CA
  3
B4
350
1CB
  3
B5
350
1CC
  3
B6
350
1CD
  0
DICTIONARY
  5
219
102
{ACAD_REACTORS
330
C
102
}
330
C
100
AcDbDictionary
281
     1
  3
Metric50
350
21A
  0
DICTIONARY
  5
7E
102
{ACAD_REACTORS
330
C
102
}
330
C
100
AcDbDictionary
281
     1
  3
Standard
350
7F
  0
DICTIONARY
  5
EF
102
{ACAD_REACTORS
330
C
102
}
330
C
100
AcDbDictionary
281
     1
  3
2dWireframe
350
F5
  3
Basic
350
F4
  3
Brighten
350
FB
  3
ColorChange
350
FF
  3
Conceptual
350
F8
  3
Dim
350
FA
  3
EdgeColorOff
350
1E6
  3
Facepattern
350
FE
  3
Flat
350
F0
  3
FlatWithEdges
350
F1
  3
Gouraud
350
F2
  3
GouraudWithEdges
350
F3
  3
Hidden
350
F7
  3
JitterOff
350
1E4
  3
Linepattern
350
FD
  3
OverhangOff
350
1E5
  3
Realistic
350
F9
  3
Shaded
350
1F3
  3
Shaded with edges
350
1F2
  3
Shades of Gray
350
1EF
  3
Sketchy
350
1F0
  3
Thicken
350
FC
  3
Wireframe
350
F6
  3
X-Ray
350
1F1
  0
XRECORD
  5
47CC
102
{ACAD_REACTORS
330
C
102
}
330
C
100
AcDbXrecord
280
     1
 90
        1
330
7F
  0
DICTIONARY
  5
5E
102
{ACAD_REACTORS
330
C
102
}
330
C
100
AcDbDictionary
281
     1
  3
CANNOSCALE
350
146
  3
CENTEREXE
350
259
  3
CENTERLTYPEFILE
350
25A
  3
CMLEADERSTYLE
350
145
  3
CTABLESTYLE
350
84
  3
CVIEWDETAILSTYLE
350
227
  3
CVIEWSECTIONSTYLE
350
228
  3
DIMASSOC
350
5F
  3
HIDETEXT
350
63
  3
INDEXCTL
350
4779
  3
LAYEREVAL
350
1AE
  3
LAYERNOTIFY
350
1AF
  3
LIGHTINGUNITS
350
4777
  3
MSLTSCALE
350
4776
  3
PSOLHEIGHT
350
47C9
  3
PSOLWIDTH
350
47C8
  3
SORTENTS
350
4778
  3
XCLIPFRAME
350
47CA
  0
XRECORD
  5
47CD
102
{ACAD_REACTORS
330
C
102
}
330
C
100
AcDbXrecord
280
     1
  1
DWGPROPS COOKIE
  2

  3

  4

  6

  7

  8
truole
  9

300
=
301
=
302
=
303
=
304
=
305
=
306
=
307
=
308
=
309
=
 40
0.0020601851851852
 41
2460719.40650463
 42
2460719.411458334
  1

 90
        0
  0
DICTIONARY
  5
200
102
{ACAD_REACTORS
330
1FF
102
}
330
1FF
100
AcDbDictionary
281
     1
  0
XRECORD
  5
4724
102
{ACAD_REACTORS
330
1CE
102
}
330
1CE
100
AcDbXrecord
280
     1
340
1F
  0
XRECORD
  5
472D
102
{ACAD_REACTORS
330
46CF
102
}
330
46CF
100
AcDbXrecord
280
     1
340
D2
  0
XRECORD
  5
4730
102
{ACAD_REACTORS
330
46D1
102
}
330
46D1
100
AcDbXrecord
280
     1
340
D6
  0
ACDBDETAILVIEWSTYLE
  5
21C
102
{ACAD_XDICTIONARY
360
480C
102
}
102
{ACAD_REACTORS
330
21B
102
}
330
21B
100
AcDbModelDocViewStyle
 70
     0
  3
Metric50
290
     0
100
AcDbDetailViewStyle
 70
     0
 71
     0
 90
        3
 71
     1
340
11
 40
5.0
340
0
 40
5.0
300

 40
0.0
280
     1
 71
     2
340
16
 90
       25
 71
     3
340
11
 40
5.0
 90
        0
 40
15.0
 90
        1
300
%<\AcVar ViewDetailId>% (%<\AcVar ViewScale \f "%sn">%)
 71
     4
340
16
 90
       25
340
16
 90
       25
280
     0
  0
LAYOUT
  5
D3
102
{ACAD_XDICTIONARY
360
47D1
102
}
102
{ACAD_REACTORS
330
1A
102
}
330
1A
100
AcDbPlotSettings
  1

  2
C:\Documents and Settings\basas\Application Data\Autodesk\AutoCAD 2005\R16.1\enu\plotters\Default Windows System Printer.pc3
  4

  6

 40
0.0
 41
0.0
 42
0.0
 43
0.0
 44
0.0
 45
0.0
 46
0.0
 47
0.0
 48
0.0
 49
0.0
140
0.0
141
0.0
142
1.0
143
1.0
 70
   688
 72
     0
 73
     0
 74
     5
  7

 75
    16
147
1.0
148
0.0
149
0.0
100
AcDbLayout
  1
Layout1
 70
     1
 71
     1
 10
0.0
 20
0.0
 11
12.0
 21
9.0
 12
0.0
 22
0.0
 32
0.0
 14
0.0
 24
0.0
 34
0.0
 15
0.0
 25
0.0
 35
0.0
146
0.0
 13
0.0
 23
0.0
 33
0.0
 16
1.0
 26
0.0
 36
0.0
 17
0.0
 27
1.0
 37
0.0
 76
     0
330
D2
  0
LAYOUT
  5
D7
102
{ACAD_XDICTIONARY
360
47D3
102
}
102
{ACAD_REACTORS
330
1A
102
}
330
1A
100
AcDbPlotSettings
  1

  2
C:\Documents and Settings\basas\Application Data\Autodesk\AutoCAD 2005\R16.1\enu\plotters\Default Windows System Printer.pc3
  4

  6

 40
0.0
 41
0.0
 42
0.0
 43
0.0
 44
0.0
 45
0.0
 46
0.0
 47
0.0
 48
0.0
 49
0.0
140
0.0
141
0.0
142
1.0
143
1.0
 70
   688
 72
     0
 73
     0
 74
     5
  7

 75
    16
147
1.0
148
0.0
149
0.0
100
AcDbLayout
  1
Layout2
 70
     1
 71
     2
 10
0.0
 20
0.0
 11
12.0
 21
9.0
 12
0.0
 22
0.0
 32
0.0
 14
0.0
 24
0.0
 34
0.0
 15
0.0
 25
0.0
 35
0.0
146
0.0
 13
0.0
 23
0.0
 33
0.0
 16
1.0
 26
0.0
 36
0.0
 17
0.0
 27
1.0
 37
0.0
 76
     0
330
D6
  0
LAYOUT
  5
22
102
{ACAD_XDICTIONARY
360
47CE
102
}
102
{ACAD_REACTORS
330
1A
102
}
330
1A
100
AcDbPlotSettings
  1

  2
none_device
  4
ISO_A4_(210.00_x_297.00_MM)
  6

 40
7.5
 41
20.0
 42
7.5
 43
20.0
 44
210.0
 45
297.0
 46
11.54999923706054
 47
-13.65000009536743
 48
0.0
 49
0.0
140
0.0
141
0.0
142
1.0
143
8.704084754739808
 70
 11952
 72
     1
 73
     0
 74
     0
  7

 75
     0
147
0.1148885871608098
148
0.0
149
0.0
100
AcDbLayout
  1
Model
 70
     1
 71
     0
 10
0.0
 20
0.0
 11
12.0
 21
9.0
 12
0.0
 22
0.0
 32
0.0
 14
0.0
 24
0.0
 34
0.0
 15
0.0
 25
0.0
 35
0.0
146
0.0
 13
0.0
 23
0.0
 33
0.0
 16
1.0
 26
0.0
 36
0.0
 17
0.0
 27
1.0
 37
0.0
 76
     0
330
1F
331
EA
1001
ACAD_PSEXT
1000
None
1000
None
1000
Not applicable
1000
The layout will not be plotted unless a new plotter configuration name is selected.
1070
     0
  0
MATERIAL
  5
ED
102
{ACAD_XDICTIONARY
360
1F9
102
}
102
{ACAD_REACTORS
330
6A
102
}
330
6A
100
AcDbMaterial
  1
ByBlock
  0
MATERIAL
  5
EC
102
{ACAD_XDICTIONARY
360
1F7
102
}
102
{ACAD_REACTORS
330
6A
102
}
330
6A
100
AcDbMaterial
  1
ByLayer
  0
MATERIAL
  5
EE
102
{ACAD_XDICTIONARY
360
173
102
}
102
{ACAD_REACTORS
330
6A
102
}
330
6A
100
AcDbMaterial
  1
Global
 43
0.0007999999797903
 43
0.0
 43
0.0
 43
0.0
 43
0.0
 43
0.0007999999797903
 43
0.0
 43
0.0
 43
0.0
 43
0.0
 43
1.0
 43
0.0
 43
0.0
 43
0.0
 43
0.0
 43
1.0
 49
0.0007999999797903
 49
0.0
 49
0.0
 49
0.0
 49
0.0
 49
0.0007999999797903
 49
0.0
 49
0.0
 49
0.0
 49
0.0
 49
1.0
 49
0.0
 49
0.0
 49
0.0
 49
0.0
 49
1.0
142
0.0007999999797903
142
0.0
142
0.0
142
0.0
142
0.0
142
0.0007999999797903
142
0.0
142
0.0
142
0.0
142
0.0
142
1.0
142
0.0
142
0.0
142
0.0
142
0.0
142
1.0
144
0.0007999999797903
144
0.0
144
0.0
144
0.0
144
0.0
144
0.0007999999797903
144
0.0
144
0.0
144
0.0
144
0.0
144
1.0
144
0.0
144
0.0
144
0.0
144
0.0
144
1.0
1001
ACAD
1070
    -1
1070
     3
1070
     0
1000

1071
        0
1070
     0
  0
MLEADERSTYLE
  5
12E
102
{ACAD_XDICTIONARY
360
47F8
102
}
102
{ACAD_REACTORS
330
12D
102
}
330
12D
100
AcDbMLeaderStyle
170
     2
171
     1
172
     0
 90
        2
 40
0.0
 41
0.0
173
     1
 91
-1056964608
340
14
 92
       -2
290
     1
 42
2.0
291
     1
 43
8.0
  3
Standard
 44
4.0
300

342
11
174
     1
178
     1
175
     1
176
     0
 93
-1056964608
 45
4.0
292
     0
297
     0
 46
4.0
 94
-1056964608
 47
1.0
 49
1.0
140
1.0
293
     1
141
0.0
294
     1
177
     0
142
1.0
295
     0
296
     0
143
3.75
1001
ACAD_MLEADERVER
1070
     2
  0
MLINESTYLE
  5
18
102
{ACAD_REACTORS
330
17
102
}
330
17
100
AcDbMlineStyle
  2
STANDARD
 70
     0
  3

 62
   256
 51
90.0
 52
90.0
 71
     2
 49
0.5
 62
   256
  6
BYLAYER
 49
-0.5
 62
   256
  6
BYLAYER
  0
ACDBPLACEHOLDER
  5
F
102
{ACAD_REACTORS
330
E
102
}
330
E
  0
SCALE
  5
10D
102
{ACAD_REACTORS
330
10C
102
}
330
10C
100
AcDbScale
 70
     0
300
1:1
140
1.0
141
1.0
290
     1
  0
SCALE
  5
1BE
102
{ACAD_REACTORS
330
10C
102
}
330
10C
100
AcDbScale
 70
     0
300
1:2
140
1.0
141
2.0
290
     0
  0
SCALE
  5
1BF
102
{ACAD_REACTORS
330
10C
102
}
330
10C
100
AcDbScale
 70
     0
300
1:4
140
1.0
141
4.0
290
     0
  0
SCALE
  5
1C0
102
{ACAD_REACTORS
330
10C
102
}
330
10C
100
AcDbScale
 70
     0
300
1:5
140
1.0
141
5.0
290
     0
  0
SCALE
  5
1C1
102
{ACAD_REACTORS
330
10C
102
}
330
10C
100
AcDbScale
 70
     0
300
1:8
140
1.0
141
8.0
290
     0
  0
SCALE
  5
1C2
102
{ACAD_REACTORS
330
10C
102
}
330
10C
100
AcDbScale
 70
     0
300
1:10
140
1.0
141
10.0
290
     0
  0
SCALE
  5
1C3
102
{ACAD_REACTORS
330
10C
102
}
330
10C
100
AcDbScale
 70
     0
300
1:16
140
1.0
141
16.0
290
     0
  0
SCALE
  5
1C4
102
{ACAD_REACTORS
330
10C
102
}
330
10C
100
AcDbScale
 70
     0
300
1:20
140
1.0
141
20.0
290
     0
  0
SCALE
  5
1C5
102
{ACAD_REACTORS
330
10C
102
}
330
10C
100
AcDbScale
 70
     0
300
1:30
140
1.0
141
30.0
290
     0
  0
SCALE
  5
1C6
102
{ACAD_REACTORS
330
10C
102
}
330
10C
100
AcDbScale
 70
     0
300
1:40
140
1.0
141
40.0
290
     0
  0
SCALE
  5
1C7
102
{ACAD_REACTORS
330
10C
102
}
330
10C
100
AcDbScale
 70
     0
300
1:50
140
1.0
141
50.0
290
     0
  0
SCALE
  5
1C8
102
{ACAD_REACTORS
330
10C
102
}
330
10C
100
AcDbScale
 70
     0
300
1:100
140
1.0
141
100.0
290
     0
  0
SCALE
  5
1C9
102
{ACAD_REACTORS
330
10C
102
}
330
10C
100
AcDbScale
 70
     0
300
2:1
140
2.0
141
1.0
290
     0
  0
SCALE
  5
1CA
102
{ACAD_REACTORS
330
10C
102
}
330
10C
100
AcDbScale
 70
     0
300
4:1
140
4.0
141
1.0
290
     0
  0
SCALE
  5
1CB
102
{ACAD_REACTORS
330
10C
102
}
330
10C
100
AcDbScale
 70
     0
300
8:1
140
8.0
141
1.0
290
     0
  0
SCALE
  5
1CC
102
{ACAD_REACTORS
330
10C
102
}
330
10C
100
AcDbScale
 70
     0
300
10:1
140
10.0
141
1.0
290
     0
  0
SCALE
  5
1CD
102
{ACAD_REACTORS
330
10C
102
}
330
10C
100
AcDbScale
 70
     0
300
100:1
140
100.0
141
1.0
290
     0
  0
ACDBSECTIONVIEWSTYLE
  5
21A
102
{ACAD_XDICTIONARY
360
480A
102
}
102
{ACAD_REACTORS
330
219
102
}
330
219
100
AcDbModelDocViewStyle
 70
     0
  3
Metric50
290
     0
100
AcDbSectionViewStyle
 70
     0
 71
     0
 90
      102
 71
     1
340
11
 40
5.0
340
0
340
0
 40
5.0
300
I, O, Q, S, X, Z
 40
10.0
 90
        0
 40
2.5
 90
        0
 71
     2
340
16
 90
       25
340
16
 90
       50
 40
5.0
 40
2.5
 40
5.0
 71
     3
340
11
 40
5.0
 90
        0
 40
15.0
 90
        1
300
%<\AcVar ViewSectionStartId>%-%<\AcVar ViewSectionEndId>% (%<\AcVar ViewScale \f "%sn">%)
 71
     4
300
ANSI31
 40
1.0
 90
        0
290
     0
290
     0
 90
        6
 40
0.0
 40
1.570796326794896
 40
0.2617993877991494
 40
1.308996938995747
 40
-0.2617993877991494
 40
1.832595714594046
  0
TABLESTYLE
  5
7F
102
{ACAD_XDICTIONARY
360
162
102
}
102
{ACAD_REACTORS
330
7E
102
}
330
7E
100
AcDbTableStyle
  3
Standard
 70
     0
 71
     0
 40
1.5
 41
1.5
280
     0
281
     0
  7
Standard
140
4.5
170
     2
 62
     0
 63
     7
283
     0
274
    -2
284
     1
 64
     0
275
    -2
285
     1
 65
     0
276
    -2
286
     1
 66
     0
277
    -2
287
     1
 67
     0
278
    -2
288
     1
 68
     0
279
    -2
289
     1
 69
     0
  7
Standard
140
6.0
170
     5
 62
     0
 63
     7
283
     0
274
    -2
284
     1
 64
     0
275
    -2
285
     1
 65
     0
276
    -2
286
     1
 66
     0
277
    -2
287
     1
 67
     0
278
    -2
288
     1
 68
     0
279
    -2
289
     1
 69
     0
  7
Standard
140
4.5
170
     5
 62
     0
 63
     7
283
     0
274
    -2
284
     1
 64
     0
275
    -2
285
     1
 65
     0
276
    -2
286
     1
 66
     0
277
    -2
287
     1
 67
     0
278
    -2
288
     1
 68
     0
279
    -2
289
     1
 69
     0
  0
VISUALSTYLE
  5
F5
102
{ACAD_XDICTIONARY
360
47E2
102
}
102
{ACAD_REACTORS
330
EF
102
}
330
EF
100
AcDbVisualStyle
  2
2dWireframe
 70
     4
 71
     0
 72
     2
 73
     1
 90
        0
 40
-0.6
 41
-30.0
 62
     5
 63
     7
 74
     1
 91
        4
 64
     7
 65
   257
 75
     1
175
     1
 42
1.0
 92
        0
 66
   257
 43
1.0
 76
     1
 77
     6
 78
     2
 67
     7
 79
     5
170
     0
171
     0
290
     0
174
     0
 93
        1
 44
0.0
173
     0
291
     0
 45
0.0
1001
ACAD
1000
AcDbSavedByObjectVersion
1070
     0
  0
VISUALSTYLE
  5
F4
102
{ACAD_XDICTIONARY
360
47E0
102
}
102
{ACAD_REACTORS
330
EF
102
}
330
EF
100
AcDbVisualStyle
  2
Basic
 70
     7
 71
     1
 72
     0
 73
     1
 90
        0
 40
-0.6
 41
-30.0
 62
     5
 63
     7
 74
     0
 91
        4
 64
     7
 65
   257
 75
     1
175
     1
 42
1.0
 92
        8
 66
     7
 43
1.0
 76
     1
 77
     6
 78
     2
 67
     7
 79
     5
170
     0
171
     0
290
     0
174
     0
 93
        1
 44
0.0
173
     0
291
     1
 45
0.0
1001
ACAD
1000
AcDbSavedByObjectVersion
1070
     0
  0
VISUALSTYLE
  5
FB
102
{ACAD_XDICTIONARY
360
47EE
102
}
102
{ACAD_REACTORS
330
EF
102
}
330
EF
100
AcDbVisualStyle
  2
Brighten
 70
    12
 71
     2
 72
     2
 73
     1
 90
        0
 40
-0.6
 41
-30.0
 62
     5
 63
     7
 74
     1
 91
        4
 64
     7
 65
   257
 75
     1
175
     1
 42
1.0
 92
        8
 66
     7
 43
1.0
 76
     1
 77
     6
 78
     2
 67
     7
 79
     5
170
     0
171
     0
290
     0
174
     0
 93
        1
 44
50.0
173
     0
291
     1
 45
0.0
1001
ACAD
1000
AcDbSavedByObjectVersion
1070
     0
  0
VISUALSTYLE
  5
FF
102
{ACAD_XDICTIONARY
360
47F6
102
}
102
{ACAD_REACTORS
330
EF
102
}
330
EF
100
AcDbVisualStyle
  2
ColorChange
 70
    16
 71
     2
 72
     2
 73
     3
 90
        0
 40
-0.6
 41
-30.0
 62
     5
 63
     8
 74
     1
 91
        4
 64
     7
 65
   257
 75
     1
175
     1
 42
1.0
 92
        8
 66
     8
 43
1.0
 76
     1
 77
     6
 78
     2
 67
     7
 79
     5
170
     0
171
     0
290
     0
174
     0
 93
        1
 44
0.0
173
     0
291
     1
 45
0.0
1001
ACAD
1000
AcDbSavedByObjectVersion
1070
     0
  0
VISUALSTYLE
  5
F8
102
{ACAD_XDICTIONARY
360
47E8
102
}
102
{ACAD_REACTORS
330
EF
102
}
330
EF
100
AcDbVisualStyle
  2
Conceptual
 70
     9
 71
     3
 72
     2
 73
     1
 90
        0
 40
-0.6
 41
-30.0
 62
     5
 63
     7
 74
     2
 91
        2
 64
     7
 65
   257
 75
     1
175
     1
 42
40.0
 92
        8
 66
     7
 43
1.0
 76
     1
 77
     6
 78
     2
 67
     7
 79
     3
170
     0
171
     0
290
     0
174
     0
 93
        1
 44
0.0
173
     0
291
     0
 45
0.0
1001
ACAD
1000
AcDbSavedByObjectVersion
1070
     0
  0
VISUALSTYLE
  5
FA
102
{ACAD_XDICTIONARY
360
47EC
102
}
102
{ACAD_REACTORS
330
EF
102
}
330
EF
100
AcDbVisualStyle
  2
Dim
 70
    11
 71
     2
 72
     2
 73
     1
 90
        0
 40
-0.6
 41
-30.0
 62
     5
 63
     7
 74
     1
 91
        4
 64
     7
 65
   257
 75
     1
175
     1
 42
1.0
 92
        8
 66
     7
 43
1.0
 76
     1
 77
     6
 78
     2
 67
     7
 79
     5
170
     0
171
     0
290
     0
174
     0
 93
        1
 44
-50.0
173
     0
291
     1
 45
0.0
1001
ACAD
1000
AcDbSavedByObjectVersion
1070
     0
  0
VISUALSTYLE
  5
1E6
102
{ACAD_XDICTIONARY
360
47FE
102
}
102
{ACAD_REACTORS
330
EF
102
}
330
EF
100
AcDbVisualStyle
  2
EdgeColorOff
 70
    22
 71
     2
 72
     2
 73
     0
 90
        0
 40
-0.6
 41
-30.0
 62
     5
 63
     7
 74
     1
 91
        4
 64
     7
 65
   257
 75
     1
175
     1
 42
1.0
 92
        8
 66
     7
 43
1.0
 76
     1
 77
     6
 78
     2
 67
     7
 79
     5
170
     0
171
     0
290
     0
174
     0
 93
        1
 44
0.0
173
     0
291
     1
 45
0.0
1001
ACAD
1000
AcDbSavedByObjectVersion
1070
     0
  0
VISUALSTYLE
  5
FE
102
{ACAD_XDICTIONARY
360
47F4
102
}
102
{ACAD_REACTORS
330
EF
102
}
330
EF
100
AcDbVisualStyle
  2
Facepattern
 70
    15
 71
     2
 72
     2
 73
     1
 90
        0
 40
-0.6
 41
-30.0
 62
     5
 63
     7
 74
     1
 91
        4
 64
     7
 65
   257
 75
     1
175
     1
 42
1.0
 92
        8
 66
     7
 43
1.0
 76
     1
 77
     6
 78
     2
 67
     7
 79
     5
170
     0
171
     0
290
     0
174
     0
 93
        1
 44
0.0
173
     0
291
     1
 45
0.0
1001
ACAD
1000
AcDbSavedByObjectVersion
1070
     0
  0
VISUALSTYLE
  5
F0
102
{ACAD_XDICTIONARY
360
47D8
102
}
102
{ACAD_REACTORS
330
EF
102
}
330
EF
100
AcDbVisualStyle
  2
Flat
 70
     0
 71
     2
 72
     1
 73
     1
 90
        2
 40
-0.6
 41
30.0
 62
     5
 63
     7
 74
     0
 91
        0
 64
     7
 65
   257
 75
     1
175
     1
 42
1.0
 92
        8
 66
     7
 43
1.0
 76
     1
 77
     6
 78
     2
 67
     7
 79
     5
170
     0
171
     0
290
     0
174
     0
 93
       13
 44
0.0
173
     0
291
     1
 45
0.0
1001
ACAD
1000
AcDbSavedByObjectVersion
1070
     0
  0
VISUALSTYLE
  5
F1
102
{ACAD_XDICTIONARY
360
47DA
102
}
102
{ACAD_REACTORS
330
EF
102
}
330
EF
100
AcDbVisualStyle
  2
FlatWithEdges
 70
     1
 71
     2
 72
     1
 73
     1
 90
        2
 40
-0.6
 41
30.0
 62
     5
 63
     7
 74
     1
 91
        0
 64
     7
 65
   257
 75
     1
175
     1
 42
1.0
 92
        0
 66
   257
 43
1.0
 76
     1
 77
     6
 78
     2
 67
     7
 79
     5
170
     0
171
     0
290
     0
174
     0
 93
       13
 44
0.0
173
     0
291
     1
 45
0.0
1001
ACAD
1000
AcDbSavedByObjectVersion
1070
     0
  0
VISUALSTYLE
  5
F2
102
{ACAD_XDICTIONARY
360
47DC
102
}
102
{ACAD_REACTORS
330
EF
102
}
330
EF
100
AcDbVisualStyle
  2
Gouraud
 70
     2
 71
     2
 72
     2
 73
     1
 90
        2
 40
-0.6
 41
30.0
 62
     5
 63
     7
 74
     0
 91
        0
 64
     7
 65
   257
 75
     1
175
     1
 42
1.0
 92
        0
 66
     7
 43
1.0
 76
     1
 77
     6
 78
     2
 67
     7
 79
     5
170
     0
171
     0
290
     0
174
     0
 93
       13
 44
0.0
173
     0
291
     1
 45
0.0
1001
ACAD
1000
AcDbSavedByObjectVersion
1070
     0
  0
VISUALSTYLE
  5
F3
102
{ACAD_XDICTIONARY
360
47DE
102
}
102
{ACAD_REACTORS
330
EF
102
}
330
EF
100
AcDbVisualStyle
  2
GouraudWithEdges
 70
     3
 71
     2
 72
     2
 73
     1
 90
        2
 40
-0.6
 41
30.0
 62
     5
 63
     7
 74
     1
 91
        0
 64
     7
 65
   257
 75
     1
175
     1
 42
1.0
 92
        0
 66
   257
 43
1.0
 76
     1
 77
     6
 78
     2
 67
     7
 79
     5
170
     0
171
     0
290
     0
174
     0
 93
       13
 44
0.0
173
     0
291
     1
 45
0.0
1001
ACAD
1000
AcDbSavedByObjectVersion
1070
     0
  0
VISUALSTYLE
  5
F7
102
{ACAD_XDICTIONARY
360
47E6
102
}
102
{ACAD_REACTORS
330
EF
102
}
330
EF
100
AcDbVisualStyle
  2
Hidden
 70
     6
 71
     1
 72
     2
 73
     2
 90
        0
 40
-0.6
 41
-30.0
 62
     5
 63
     7
 74
     2
 91
        2
 64
     7
 65
   257
 75
     2
175
     1
 42
40.0
 92
        0
 66
   257
 43
1.0
 76
     1
 77
     6
 78
     2
 67
     7
 79
     3
170
     0
171
     0
290
     0
174
     0
 93
        1
 44
0.0
173
     0
291
     0
 45
0.0
1001
ACAD
1000
AcDbSavedByObjectVersion
1070
     0
  0
VISUALSTYLE
  5
1E4
102
{ACAD_XDICTIONARY
360
47FA
102
}
102
{ACAD_REACTORS
330
EF
102
}
330
EF
100
AcDbVisualStyle
  2
JitterOff
 70
    20
 71
     2
 72
     2
 73
     0
 90
        0
 40
-0.6
 41
-30.0
 62
     5
 63
     7
 74
     1
 91
        4
 64
     7
 65
   257
 75
     1
175
     1
 42
1.0
 92
       10
 66
     7
 43
1.0
 76
     1
 77
     6
 78
     2
 67
     7
 79
     5
170
     0
171
     0
290
     0
174
     0
 93
        1
 44
0.0
173
     0
291
     1
 45
0.0
1001
ACAD
1000
AcDbSavedByObjectVersion
1070
     0
  0
VISUALSTYLE
  5
FD
102
{ACAD_XDICTIONARY
360
47F2
102
}
102
{ACAD_REACTORS
330
EF
102
}
330
EF
100
AcDbVisualStyle
  2
Linepattern
 70
    14
 71
     2
 72
     2
 73
     1
 90
        0
 40
-0.6
 41
-30.0
 62
     5
 63
     7
 74
     1
 91
        4
 64
     7
 65
   257
 75
     7
175
     7
 42
1.0
 92
        8
 66
     7
 43
1.0
 76
     1
 77
     6
 78
     2
 67
     7
 79
     5
170
     0
171
     0
290
     0
174
     0
 93
        1
 44
0.0
173
     0
291
     1
 45
0.0
1001
ACAD
1000
AcDbSavedByObjectVersion
1070
     0
  0
VISUALSTYLE
  5
1E5
102
{ACAD_XDICTIONARY
360
47FC
102
}
102
{ACAD_REACTORS
330
EF
102
}
330
EF
100
AcDbVisualStyle
  2
OverhangOff
 70
    21
 71
     2
 72
     2
 73
     0
 90
        0
 40
-0.6
 41
-30.0
 62
     5
 63
     7
 74
     1
 91
        4
 64
     7
 65
   257
 75
     1
175
     1
 42
1.0
 92
        9
 66
     7
 43
1.0
 76
     1
 77
     6
 78
     2
 67
     7
 79
     5
170
     0
171
     0
290
     0
174
     0
 93
        1
 44
0.0
173
     0
291
     1
 45
0.0
1001
ACAD
1000
AcDbSavedByObjectVersion
1070
     0
  0
VISUALSTYLE
  5
F9
102
{ACAD_XDICTIONARY
360
47EA
102
}
102
{ACAD_REACTORS
330
EF
102
}
330
EF
100
AcDbVisualStyle
  2
Realistic
 70
     8
 71
     2
 72
     2
 73
     0
 90
        2
 40
-0.6
 41
30.0
 62
     5
 63
     7
 74
     0
 91
        0
 64
     7
 65
   257
 75
     1
175
     1
 42
1.0
 92
        8
 66
   257
 43
1.0
 76
     1
 77
     6
 78
     2
 67
     7
 79
     3
170
     0
171
     0
290
     0
174
     0
 93
       13
 44
0.0
173
     0
291
     0
 45
0.0
1001
ACAD
1000
AcDbSavedByObjectVersion
1070
     0
  0
VISUALSTYLE
  5
1F3
102
{ACAD_XDICTIONARY
360
4808
102
}
102
{ACAD_REACTORS
330
EF
102
}
330
EF
100
AcDbVisualStyle
  2
Shaded
 70
    27
 71
     2
 72
     2
 73
     1
 90
        2
 40
-0.6
 41
30.0
 62
     5
 63
     7
 74
     0
 91
        4
 64
     7
 65
   257
 75
     1
175
     1
 42
1.0
 92
        8
 66
   257
 43
1.0
 76
     1
 77
     6
 78
     2
 67
     8
 79
     3
170
     0
171
     0
290
     0
174
     0
 93
        5
 44
0.0
173
     0
291
     0
 45
0.0
1001
ACAD
1000
AcDbSavedByObjectVersion
1070
     0
  0
VISUALSTYLE
  5
1F2
102
{ACAD_XDICTIONARY
360
4806
102
}
102
{ACAD_REACTORS
330
EF
102
}
330
EF
100
AcDbVisualStyle
  2
Shaded with edges
 70
    26
 71
     2
 72
     2
 73
     1
 90
        2
 40
-0.6
 41
30.0
 62
     5
 63
     7
 74
     1
 91
        2
 64
     7
 65
   257
 75
     2
175
     1
 42
1.0
 92
        8
 66
   257
 43
1.0
 76
     1
 77
     6
 78
     2
 67
     7
 79
     3
170
     0
171
     0
290
     0
174
     0
 93
        5
 44
0.0
173
     0
291
     0
 45
0.0
1001
ACAD
1000
AcDbSavedByObjectVersion
1070
     0
  0
VISUALSTYLE
  5
1EF
102
{ACAD_XDICTIONARY
360
4800
102
}
102
{ACAD_REACTORS
330
EF
102
}
330
EF
100
AcDbVisualStyle
  2
Shades of Gray
 70
    23
 71
     2
 72
     2
 73
     3
 90
        0
 40
-0.6
 41
-30.0
 62
     5
 63
     7
 74
     2
 91
        2
 64
     7
 65
     7
 75
     1
175
     1
 42
40.0
 92
        8
 66
     7
 43
1.0
 76
     1
 77
     6
 78
     2
 67
     7
 79
     3
170
     0
171
     0
290
     0
174
     0
 93
        1
 44
0.0
173
     0
291
     0
 45
0.0
1001
ACAD
1000
AcDbSavedByObjectVersion
1070
     0
  0
VISUALSTYLE
  5
1F0
102
{ACAD_XDICTIONARY
360
4802
102
}
102
{ACAD_REACTORS
330
EF
102
}
330
EF
100
AcDbVisualStyle
  2
Sketchy
 70
    24
 71
     1
 72
     2
 73
     2
 90
        0
 40
-0.6
 41
-30.0
 62
     5
 63
     7
 74
     2
 91
        2
 64
     7
 65
     7
 75
     1
175
     1
 42
40.0
 92
       11
 66
     7
 43
1.0
 76
     1
 77
     6
 78
     2
 67
     7
 79
     6
170
     0
171
     0
290
     0
174
     0
 93
        1
 44
0.0
173
     0
291
     0
 45
0.0
1001
ACAD
1000
AcDbSavedByObjectVersion
1070
     0
  0
VISUALSTYLE
  5
FC
102
{ACAD_XDICTIONARY
360
47F0
102
}
102
{ACAD_REACTORS
330
EF
102
}
330
EF
100
AcDbVisualStyle
  2
Thicken
 70
    13
 71
     2
 72
     2
 73
     1
 90
        0
 40
-0.6
 41
-30.0
 62
     5
 63
     7
 74
     1
 91
        4
 64
     7
 65
   257
 75
     1
175
     1
 42
1.0
 92
       12
 66
     7
 43
1.0
 76
     1
 77
     6
 78
     2
 67
     7
 79
     5
170
     0
171
     0
290
     0
174
     0
 93
        1
 44
0.0
173
     0
291
     1
 45
0.0
1001
ACAD
1000
AcDbSavedByObjectVersion
1070
     0
  0
VISUALSTYLE
  5
F6
102
{ACAD_XDICTIONARY
360
47E4
102
}
102
{ACAD_REACTORS
330
EF
102
}
330
EF
100
AcDbVisualStyle
  2
Wireframe
 70
     5
 71
     0
 72
     2
 73
     0
 90
        0
 40
-0.6
 41
-30.0
 62
     5
 63
     7
 74
     1
 91
        4
 64
     7
 65
   257
 75
     1
175
     1
 42
1.0
 92
        0
 66
   257
 43
1.0
 76
     1
 77
     6
 78
     2
 67
     7
 79
     3
170
     0
171
     0
290
     0
174
     0
 93
        1
 44
0.0
173
     0
291
     0
 45
0.0
1001
ACAD
1000
AcDbSavedByObjectVersion
1070
     0
  0
VISUALSTYLE
  5
1F1
102
{ACAD_XDICTIONARY
360
4804
102
}
102
{ACAD_REACTORS
330
EF
102
}
330
EF
100
AcDbVisualStyle
  2
X-Ray
 70
    25
 71
     2
 72
     2
 73
     1
 90
        1
 40
0.5
 41
-30.0
 62
     5
 63
     7
 74
     1
 91
        0
 64
     7
 65
   257
 75
     1
175
     1
 42
1.0
 92
        8
 66
     7
 43
1.0
 76
     1
 77
     6
 78
     2
 67
     7
 79
     3
170
     0
171
     0
290
     0
174
     0
 93
       13
 44
0.0
173
     0
291
     0
 45
0.0
1001
ACAD
1000
AcDbSavedByObjectVersion
1070
     0
  0
DICTIONARYVAR
  5
146
102
{ACAD_REACTORS
330
5E
102
}
330
5E
100
DictionaryVariables
280
     0
  1
1:1
  0
DICTIONARYVAR
  5
259
102
{ACAD_REACTORS
330
5E
102
}
330
5E
100
DictionaryVariables
280
     0
  1
3.500000
  0
DICTIONARYVAR
  5
25A
102
{ACAD_REACTORS
330
5E
102
}
330
5E
100
DictionaryVariables
280
     0
  1
acadiso.lin
  0
DICTIONARYVAR
  5
145
102
{ACAD_REACTORS
330
5E
102
}
330
5E
100
DictionaryVariables
280
     0
  1
STANDARD
  0
DICTIONARYVAR
  5
84
102
{ACAD_REACTORS
330
5E
102
}
330
5E
100
DictionaryVariables
280
     0
  1
STANDARD
  0
DICTIONARYVAR
  5
227
102
{ACAD_REACTORS
330
5E
102
}
330
5E
100
DictionaryVariables
280
     0
  1
Metric50
  0
DICTIONARYVAR
  5
228
102
{ACAD_REACTORS
330
5E
102
}
330
5E
100
DictionaryVariables
280
     0
  1
Metric50
  0
DICTIONARYVAR
  5
5F
102
{ACAD_REACTORS
330
5E
102
}
330
5E
100
DictionaryVariables
280
     0
  1
2
  0
DICTIONARYVAR
  5
63
102
{ACAD_REACTORS
330
5E
102
}
330
5E
100
DictionaryVariables
280
     0
  1
1
  0
DICTIONARYVAR
  5
4779
102
{ACAD_REACTORS
330
5E
102
}
330
5E
100
DictionaryVariables
280
     0
  1
0
  0
DICTIONARYVAR
  5
1AE
102
{ACAD_REACTORS
330
5E
102
}
330
5E
100
DictionaryVariables
280
     0
  1
0
  0
DICTIONARYVAR
  5
1AF
102
{ACAD_REACTORS
330
5E
102
}
330
5E
100
DictionaryVariables
280
     0
  1
0
  0
DICTIONARYVAR
  5
4777
102
{ACAD_REACTORS
330
5E
102
}
330
5E
100
DictionaryVariables
280
     0
  1
2
  0
DICTIONARYVAR
  5
4776
102
{ACAD_REACTORS
330
5E
102
}
330
5E
100
DictionaryVariables
280
     0
  1
1
  0
DICTIONARYVAR
  5
47C9
102
{ACAD_REACTORS
330
5E
102
}
330
5E
100
DictionaryVariables
280
     0
  1
80.000000
  0
DICTIONARYVAR
  5
47C8
102
{ACAD_REACTORS
330
5E
102
}
330
5E
100
DictionaryVariables
280
     0
  1
5.000000
  0
DICTIONARYVAR
  5
4778
102
{ACAD_REACTORS
330
5E
102
}
330
5E
100
DictionaryVariables
280
     0
  1
127
  0
DICTIONARYVAR
  5
47CA
102
{ACAD_REACTORS
330
5E
102
}
330
5E
100
DictionaryVariables
280
     0
  1
2
  0
DICTIONARY
  5
480C
330
21C
100
AcDbDictionary
280
     1
281
     1
  3
ACAD_XREC_ROUNDTRIP
360
480D
  0
DICTIONARY
  5
47D1
330
D3
100
AcDbDictionary
280
     1
281
     1
  3
ACAD_XREC_ROUNDTRIP
360
47D2
  0
DICTIONARY
  5
47D3
330
D7
100
AcDbDictionary
280
     1
281
     1
  3
ACAD_XREC_ROUNDTRIP
360
47D4
  0
DICTIONARY
  5
47CE
330
22
100
AcDbDictionary
280
     1
281
     1
  3
ACAD_XREC_ROUNDTRIP
360
47CF
  0
DICTIONARY
  5
1F9
330
ED
100
AcDbDictionary
280
     1
281
     1
  3
ACAD_XREC_ROUNDTRIP
360
47D6
  3
FBXASSET
360
1FA
  0
DICTIONARY
  5
1F7
330
EC
100
AcDbDictionary
280
     1
281
     1
  3
ACAD_XREC_ROUNDTRIP
360
47D5
  3
FBXASSET
360
1F8
  0
DICTIONARY
  5
173
330
EE
100
AcDbDictionary
280
     1
281
     1
  3
ACAD_XREC_ROUNDTRIP
360
47D7
  3
BUMPTILE
360
175
  3
DIFFUSETILE
360
174
  3
FBXASSET
360
1FB
  3
OPACITYTILE
360
176
  3
REFLECTIONTILE
360
177
  0
DICTIONARY
  5
47F8
330
12E
100
AcDbDictionary
280
     1
281
     1
  3
ACAD_XREC_ROUNDTRIP
360
47F9
  0
DICTIONARY
  5
480A
330
21A
100
AcDbDictionary
280
     1
281
     1
  3
ACAD_XREC_ROUNDTRIP
360
480B
  0
DICTIONARY
  5
162
330
7F
100
AcDbDictionary
280
     1
281
     1
  3
ACAD_ROUNDTRIP_2008_TABLESTYLE_CELLSTYLEMAP
360
47CB
  3
ACAD_XREC_ROUNDTRIP
360
47D0
  0
DICTIONARY
  5
47E2
330
F5
100
AcDbDictionary
280
     1
281
     1
  3
ACAD_XREC_ROUNDTRIP
360
47E3
  0
DICTIONARY
  5
47E0
330
F4
100
AcDbDictionary
280
     1
281
     1
  3
ACAD_XREC_ROUNDTRIP
360
47E1
  0
DICTIONARY
  5
47EE
330
FB
100
AcDbDictionary
280
     1
281
     1
  3
ACAD_XREC_ROUNDTRIP
360
47EF
  0
DICTIONARY
  5
47F6
330
FF
100
AcDbDictionary
280
     1
281
     1
  3
ACAD_XREC_ROUNDTRIP
360
47F7
  0
DICTIONARY
  5
47E8
330
F8
100
AcDbDictionary
280
     1
281
     1
  3
ACAD_XREC_ROUNDTRIP
360
47E9
  0
DICTIONARY
  5
47EC
330
FA
100
AcDbDictionary
280
     1
281
     1
  3
ACAD_XREC_ROUNDTRIP
360
47ED
  0
DICTIONARY
  5
47FE
330
1E6
100
AcDbDictionary
280
     1
281
     1
  3
ACAD_XREC_ROUNDTRIP
360
47FF
  0
DICTIONARY
  5
47F4
330
FE
100
AcDbDictionary
280
     1
281
     1
  3
ACAD_XREC_ROUNDTRIP
360
47F5
  0
DICTIONARY
  5
47D8
330
F0
100
AcDbDictionary
280
     1
281
     1
  3
ACAD_XREC_ROUNDTRIP
360
47D9
  0
DICTIONARY
  5
47DA
330
F1
100
AcDbDictionary
280
     1
281
     1
  3
ACAD_XREC_ROUNDTRIP
360
47DB
  0
DICTIONARY
  5
47DC
330
F2
100
AcDbDictionary
280
     1
281
     1
  3
ACAD_XREC_ROUNDTRIP
360
47DD
  0
DICTIONARY
  5
47DE
330
F3
100
AcDbDictionary
280
     1
281
     1
  3
ACAD_XREC_ROUNDTRIP
360
47DF
  0
DICTIONARY
  5
47E6
330
F7
100
AcDbDictionary
280
     1
281
     1
  3
ACAD_XREC_ROUNDTRIP
360
47E7
  0
DICTIONARY
  5
47FA
330
1E4
100
AcDbDictionary
280
     1
281
     1
  3
ACAD_XREC_ROUNDTRIP
360
47FB
  0
DICTIONARY
  5
47F2
330
FD
100
AcDbDictionary
280
     1
281
     1
  3
ACAD_XREC_ROUNDTRIP
360
47F3
  0
DICTIONARY
  5
47FC
330
1E5
100
AcDbDictionary
280
     1
281
     1
  3
ACAD_XREC_ROUNDTRIP
360
47FD
  0
DICTIONARY
  5
47EA
330
F9
100
AcDbDictionary
280
     1
281
     1
  3
ACAD_XREC_ROUNDTRIP
360
47EB
  0
DICTIONARY
  5
4808
330
1F3
100
AcDbDictionary
280
     1
281
     1
  3
ACAD_XREC_ROUNDTRIP
360
4809
  0
DICTIONARY
  5
4806
330
1F2
100
AcDbDictionary
280
     1
281
     1
  3
ACAD_XREC_ROUNDTRIP
360
4807
  0
DICTIONARY
  5
4800
330
1EF
100
AcDbDictionary
280
     1
281
     1
  3
ACAD_XREC_ROUNDTRIP
360
4801
  0
DICTIONARY
  5
4802
330
1F0
100
AcDbDictionary
280
     1
281
     1
  3
ACAD_XREC_ROUNDTRIP
360
4803
  0
DICTIONARY
  5
47F0
330
FC
100
AcDbDictionary
280
     1
281
     1
  3
ACAD_XREC_ROUNDTRIP
360
47F1
  0
DICTIONARY
  5
47E4
330
F6
100
AcDbDictionary
280
     1
281
     1
  3
ACAD_XREC_ROUNDTRIP
360
47E5
  0
DICTIONARY
  5
4804
330
1F1
100
AcDbDictionary
280
     1
281
     1
  3
ACAD_XREC_ROUNDTRIP
360
4805
  0
XRECORD
  5
480D
102
{ACAD_REACTORS
330
480C
102
}
330
480C
100
AcDbXrecord
280
     1
102
DISPLAYNAME
  1
Metric50
102
FLAGS
 90
        0
  0
XRECORD
  5
47D2
102
{ACAD_REACTORS
330
47D1
102
}
330
47D1
100
AcDbXrecord
280
     1
102
SHADEPLOT
 70
     0
102
SHADEPLOTRESLEVEL
 70
     2
102
SHADEPLOTCUSTOMDPI
 70
   300
  0
XRECORD
  5
47D4
102
{ACAD_REACTORS
330
47D3
102
}
330
47D3
100
AcDbXrecord
280
     1
102
SHADEPLOT
 70
     0
102
SHADEPLOTRESLEVEL
 70
     2
102
SHADEPLOTCUSTOMDPI
 70
   300
  0
XRECORD
  5
47CF
102
{ACAD_REACTORS
330
47CE
102
}
330
47CE
100
AcDbXrecord
280
     1
102
SHADEPLOT
 70
     0
102
SHADEPLOTRESLEVEL
 70
     2
102
SHADEPLOTCUSTOMDPI
 70
   300
  0
XRECORD
  5
47D6
102
{ACAD_REACTORS
330
1F9
102
}
330
1F9
100
AcDbXrecord
280
     1
102
MATERIAL
148
0.0
149
0.0
149
0.0
 93
        0
 94
       63
282
     0
 72
     1
 77
     1
171
     1
175
     1
179
     1
273
     0
  0
XRECORD
  5
1FA
102
{ACAD_REACTORS
330
1F9
102
}
330
1F9
100
AcDbXrecord
280
     1
 70
     1
 90
429727718
  1
D62C5603-E3A1-4AEA-B7FB-FE5D8D0755AF
310
504B03040A0000080000CC70623B3DEE336E79000000790000001B0000006175746F6465736B2D64657369676E2D7061636B6167652E786D6C3C3F786D6C2076657273696F6E3D22312E302220656E636F64696E673D227574662D3822203F3E3C666F726D6174733E3C666F726D61743E687474703A2F2F736368656D612E
310
6175746F6465736B2E636F6D2F64657369676E2D7061636B6167652F323030393C2F666F726D61743E3C2F666F726D6174733E504B0304140006080800CC70623BD486FD9CA0000000F4000000130000005B436F6E74656E745F54797065735D2E786D6C7D8EC10E82300C865F65E91D8A1E8C310C0EEA1BF002731658846E
310
D98AC1B77784ABF1D8FE5FBFBF75BBCE937A534CCEB38643598122B6FEE978D0B0485F9C41B54DDD7D022595594E1A469170414C76A4D9A4D207E29CF43ECE46F218070CC6BECC4078ACAA135ACF422C856C0E68EA1BF5669944DDD7BCDE7B1F8E415D77AECB980613C2E4AC91FC167A2B244592486606FC29C8FD7F045B9A
310
EF7053A7E60B504B0304140006080800CC70623B853B8169EB0000007C01000008000000636F72652E786D6C8D90416EC3201045AF62CDB6C206821CC7C244919D9CA01740401C94182C03558F5F9C3852BBEB6A467FFE9B197D7EFC9E1EC5975982F5AE035262288C535E5B377690E21535501C055FBC8FBF6C503839990E
310
5619041F179FE64D52DE45E362569DD7661365082642A11EB9E920A89B99642953CC8E702F67A9EE7234257977194EC9EAE275C4EABCCF5EAD5940D4AC6F0E35A568B8F43562CD7046CD199FD07E60174276A7BE677B5EADB0E0D14EEFFB6A31321A0D82627C4084204C3F096B71DD52F6819B16635EADF63F509AF53FA164
310
5DDCD1EDDD17164090FCC8732078B56691CB33A85CD7DCC40F504B0304140006080800CC70623B55019EA25F0000007C00000007000000636E782E786D6C4DCB3B0E80201045D1AD90E915ED2CF8AC45050C11660C8261F98AB1B07AC9C97D42D718D865D3E909258CFD00CCE24AC6E326A164D74DC0B4128928FF32603847
310
2BA13128B1252AC747C6BAB984FC68F0B87FE8960A5C09FE86CFB69FBA01504B0304140006080800CC70623BDBABAAF470010000D40300000C0000006662782F636F72652E786D6CC553D16E823014FD95A6AF4B694182CC941A83FA05FB810A9511A125A5257EFE2E82712ECEB8A7F100CD39F7F69E734AF9FADC366850B6
310
AF8DCE7018308C942E4C59EB2AC3DE1D498AD15A706B8CFB56869196ADCAF00863C12B6B7C374385D14E6907A836A59A41D9F7CA615434B0C8705F7CAA5606D23BA8E84F41278B93AC54100640439DE0BDB320004D43C63716C7C399D30917DCFBBA9CD9BA8469F5B156168B24CED3F7248AC8769F27244EB73B92EED8862C
310
B7F13E0C179B3C8F979C8ECD82BBBABDAA2BAC924E9558448CBD9330242CFA08E3154B5651FCC6D215639C8EE5774DBE2B5F6CF2B5768B68963BB5F5588420E442FC700B1139D4CB01F450C1E918227C2E09DF070D8140C84E1E9AAB8F1340832A9CB13130A5F1376A908D57309505ECF2A0DF179C4E9D30F5B239B87E3823
310
7A79C6F31DE1A8A5AEC08474B03C7837EAE4938639B44E5932B833D2C6B6B279CDC613877FA26EE21F4A2A4C63EC7F29A2F301D1F9F7A0E37D145F504B0304140006080800CC70623B9C113CC27E0000009D0000000B0000006662782F636E782E786D6C4DCCDF0A83201C86E15B91DFB94BFB330DD428C8FB886521330DA7
310
6397BF1A1DECE883878F57749FCDA1B7892F1BBC047A23808C7F84D9FA55424E0BE6803A256208E9EF06C84F9B91703228B1C690F78B66B34CD9A5439DF5CF0BFBF65E35BCA1B8D6A5C6F540381E886698B5741C695F9503EBA150A2F8958E3DC3EA0B504B0304140006080800CC70623B7DF2F77C2A010000120200003100
310
00006662782F41393633353835312D344632462D344230382D423046372D3739314545314133324237412F636F72652E786D6C8D51DB8EC22014FC15C2939B0D2DB4B45643319AE817EC0F6041255A68B86CFCFC856D4D76DF7CE190393373060EDB3DC707F856CE6B6B7A480A0C81328395DA5C7B18C3057510EC3873D686
310
3F34088C18550F330C39BB3A1BA7051AAC09CA84841A2BD5020AEF55806078A44B0FFD7053A328440C89E1EFC52486BBB8AA8214A99D789CF9E05200300FC927E4FB4D5B375D43103D5527440FB843077C5AA3F5861C8F645F5787F59E95B390B318B55CE45AA638FAA2957BD7248B390B7A7CC51F9C124149C82B8C378810
310
84AB2F42B7B8DD56F413775B8C5999E9FF4471926F8AA236A1AE96B8B3CC434E5839373893369E1FAF30EA395917409EB7F26AF8801C171837A4A6AC9C89E9F9C9B1A58BA30FD6A5EF5DDDCF894B9AD9B6A59C957943A9FCAE2FD5BC4DFE03504B0304140006080800CC70623BAD7543B64E01000033030000300000006662
310
782F41393633353835312D344632462D344230382D423046372D3739314545314133324237412F636E782E786D6CD593CD6EC32010845F0571AD6CE3D48AD20813A9873E410FBD12D82434182C7EAAE6EDBB2424CD25871E7B41D6EC30B3FA84F9E67BB2E40B4234DE8DB46F1925E094D7C6ED479AD3AE5951B2113C789FEE
310
6C943839C1488B4C05DF079FE72A69D8C96C13AAD6B8631503449F83828872B949AC57D26200B826A308D316B4064D6E46FCDA41C05550DC9E483A00797BFD207EFB092A45DE9514C1BBD22178396BD39D891265658C238DEA00936C654E5E433CB65A26D9F6EDB5EBC14EBF49A45CB856E66048291F6939A9A81BB5C89177
310
38143CA680F4AA299D66A042CEB3354A2684DC9D8D178FE0D9B8B41CAAD720F880EE7EF93C0C18769E099ECC04D5A102C8049A8A05632F4DDF376CF1DE0F6BB65C2F8627B65A33C6BB62177CEBBDAD973006829F89F22E814B54F4BC2BE347F8AA8F681390B50FA73F804400B5F542E796F19FF974E7F78DB802FE05E20750
310
4B0304140006080800CC70623BE75B7789680500003C100000340000006662782F41393633353835312D344632462D344230382D423046372D3739314545314133324237412F6F626A656374732E786D6CAD575B8F9B3818FD2B887D06C22499CB8AA1CA655245D5B455A356FB305264C061D8018C6C3393D95FBFC7600890
310
A4CD5EF210B0B1BFEBF98E3F7B1FF6596ABC522E1296DF9BAE3D320D9A872C4AF2F8DE2CE5CEBA358D0FBEC719939D65A691938CDE9B6ADAF4BD98B3B2D05311DD91329583D9D5FC0F438434A7A611A644887B5384CF34233629258BA878B12322891DEFF6B66BD70BFB62634E8AE781D082709A4B588AF91C528CDA28B73F
310
1C998EEF39EABBEFA97FBD6A7C7E9553F9D3D79FE442923C3C523610337627CB87ABE99D359D4CC6D6E4FACAB5E6ABF9D2726FC6A3C5F56271377BB88362213924694B38DD99FE47C48627A1E7D49F5A8BB5E1A74C0A599ED3B0F21F1E56366B89112D681E218F0915D0D6F17AD41FBA2A369DCF6335D62ABBD39779D5DDD1
310
11D4D8DE3CBB96B2E04FB8202E41051754A1AA8E8F76B4C6DFE810B580B1547F4B84911149794252234D024EF8BBE963A95AE27B3D310A9D5C215C7960FAEE415ED75694C6AFB17BCACA5D99A60A9AA65F217B0BFC53292ACB92BF283FAD0D3621576592CB5BED907C2FA8E9DF794E35E97BEA31BED21FEB401ABB94C44839
310
DCACBF0E1C5DA8DA5B2F4DFFD32AD86F543D9E565E7056502E157C00AD2671CD534549AB752FCA9CDA00677A313F04E51B22FF19E57B300579E3C97EB29F682D92935CEC18CF901B7B54FD8C51F362B56FC72FE0B3C1EAE335EDCCBF5AEC39ADB17DC238973F804BA5E6F6BFE7AF1FB32E523BE9F3BD571418E3631DCA4D48
310
5250CF639223210A9446CA30052EDF057BD35F8329C1ECD84552BF0DC8D18BE7BCE23BFE6BD960AB4A7DE79923A103BEBD80F911CBAA2C60DB19B01CF164A5583B772EE6D3FFA56666CBCDA74DC97724A48F9A58967497E489C4D979006FD7A05E227A1EBDD0F737C623387A9C844D3709995625106D157315F8B8392CD4E0
310
A0B9A720C4BE9829CEF37EA1E13111214D53925356365ADA634861B52519DD27A00AEB808EAF0628E6F435519D446F45CF2C9CF5214F0A15B2F6D06B79DA3EE3CBF7F56780D2F4E7EF73A0F5E5B02A38D07DC852C6B7C1FBB6664213E0C39E3EBA7FF4E1AD23EA2829407C85E586727488B751B2DB9502BC7B228A3FD68B6E
310
A65A22397E690AA8D158D7E404EC8CDA235CC3B7D1898680131CEC2CDF2638C65196279577750F15884AEE19F94199155B92B13297978469D4F8D358DF0AEF7631E28DC8F0D9F437D5D39A83B2231A1D52D543813A824EF8D44BCFF2FA6A31BD1E8DAD87F1CCB526B3879935BF59CDADD5C37479BB1CDD4CA7B3556B516589
310
EF352754B706114D9C885EC9131DE6EFEB43D99AFE2391C2F958179413D7CFEF6B1B6DB1E7600F00DE6E5C67454A339A4BA2E0FBA85ED26F045D454F463DBFCE484C2F90F2E5E3666003662ED8F755951A7D1BECD5B30B550B2785C8E7320B7292A4838DDA71BBC863ED7613CAF659337A3354231D4FF4A182A54904C2898C
310
98B28C4AD0CE056CCF332A80986E571EE9DBC305BB5FEB7E509220A58D25CF042D712A806AC0AD0C657FDEF80D2D9CEAA2EE4D1C76F60BFE74219A06527D6F82DF6412526107381E55E353090704D085B52408A8913C4ED159D79BDA71BB4BC506F4831350EB6F975CD22D69BF7AC49B91A2C0A9DDA3D5CA36AD20FC478E37
310
E61844E2352865EBCB61A275A65283CAAA9DD27703B4102F5AF51EF5F573B75CBB5AD38BC845F7A49F82A0966A49C2E3EA5EA0ECD326CD965F1DB402C6FA8B51A4658C5C5E2EC9E214602E55810345408596591009A82E7E7FFACA19EEA299B14A0081A705CB3296EBC14CDF658DCD336EA6D1136881AAEB87B81AB9EE53D5
310
F5EB8BC8362082DA24122F98680A4E7930C01A0079749CEA14382A0783E5EBA5A10F8C098456A03D6A4AEB6BB881E2513747552A5DB22C7EDAF83BD5528081A365F7FF06504B0304140006080000CC70623B000000000000000000000000350000006662782F41393633353835312D344632462D344230382D423046372D37
310
39314545314133324237412F76657274696365732E62696E504B0304140006080800CC70623BF270F1330600000004000000360000006662782F41393633353835312D344632462D344230382D423046372D3739314545314133324237412F747269616E676C65732E62696E636660600000504B0304140006080000CC7062
310
3B000000000000000000000000370000006662782F41393633353835312D344632462D344230382D423046372D3739314545314133324237412F617474726962757465732E62696E504B0304140006080800CC70623B08DA0BD19000000041010000360000006662782F41393633353835312D344632462D344230382D4230
310
46372D3739314545314133324237412F6469726563746F72792E786D6C858F410AC3201045AF22B36F53E9A60B35CBEEBAE80D244E44489C6234F4F835464A48035D0DF398FF9F8AF63D0E6CC63039F212F8F9020C7D47C6792B21C5FE7403D62A1188E2E60C98D7234A5830286103A55745067B9D86B8A3CF9C7F90C11DE6
310
07FB144396D7B6A82D282E9A152AD114D5EF2CB866EEE831B8EEA07A7BB5A8D7D61A2BAAEB7FD5F70921FF497D00504B0304140006080800CC70623BEDD1DC58FD000000A00100003B0000006662782F41393633353835312D344632462D344230382D423046372D3739314545314133324237412F7265736F75726365732F
310
636F72652E786D6C8D504B6E833010BD0A9A6D65B00922041947112427E8052C33A156828DFCA97AFC9A40A576D7CDCCE87D344F8F9FBFE667F689CE6B6B3A6039850C8DB2A336530731DC4903D95970676DF82583CCC8193B5861107C72362E3BA4AC096842428D1D7107A5F7182053CF7474E0D507CE32973124857FE48B
310
540F3961CEF244279DE03EB81420DB9EAC1384436FA353E879B1B182C7A8C75DA3C7F453DF353A1075D537A7BA6464B8F535A99AE14A9A2BBD90E350DD183B5CFABE3AF262350B1EF4FC9351399401471025A527C218A1E53BAB5A5AB765F5469B96525EACF23FA6B88CFF34456DC2A1DCE36E360F82A5202F42F062ED2BAD
310
579969AFDD8A6F504B010214000A0000080000CC70623B3DEE336E79000000790000001B00000000000000000000000000000000006175746F6465736B2D64657369676E2D7061636B6167652E786D6C504B01021400140006080800CC70623BD486FD9CA0000000F40000001300000000000000000000000000B20000005B
310
436F6E74656E745F54797065735D2E786D6C504B01021400140006080800CC70623B853B8169EB0000007C010000080000000000000000000000000083010000636F72652E786D6C504B01021400140006080800CC70623B55019EA25F0000007C000000070000000000000000000000000094020000636E782E786D6C504B
310
01021400140006080800CC70623BDBABAAF470010000D40300000C00000000000000000000000000180300006662782F636F72652E786D6C504B01021400140006080800CC70623B9C113CC27E0000009D0000000B00000000000000000000000000B20400006662782F636E782E786D6C504B01021400140006080800CC70
310
623B7DF2F77C2A010000120200003100000000000000000000000000590500006662782F41393633353835312D344632462D344230382D423046372D3739314545314133324237412F636F72652E786D6C504B01021400140006080800CC70623BAD7543B64E010000330300003000000000000000000000000000D2060000
310
6662782F41393633353835312D344632462D344230382D423046372D3739314545314133324237412F636E782E786D6C504B01021400140006080800CC70623BE75B7789680500003C10000034000000000000000000000000006E0800006662782F41393633353835312D344632462D344230382D423046372D3739314545
310
314133324237412F6F626A656374732E786D6C504B01021400140006080000CC70623B0000000000000000000000003500000000000000000000000000280E00006662782F41393633353835312D344632462D344230382D423046372D3739314545314133324237412F76657274696365732E62696E504B01021400140006
310
080800CC70623BF270F133060000000400000036000000000000000000000000007B0E00006662782F41393633353835312D344632462D344230382D423046372D3739314545314133324237412F747269616E676C65732E62696E504B01021400140006080000CC70623B0000000000000000000000003700000000000000
310
000000000000D50E00006662782F41393633353835312D344632462D344230382D423046372D3739314545314133324237412F617474726962757465732E62696E504B01021400140006080800CC70623B08DA0BD1900000004101000036000000000000000000000000002A0F00006662782F41393633353835312D344632
310
462D344230382D423046372D3739314545314133324237412F6469726563746F72792E786D6C504B01021400140006080800CC70623BEDD1DC58FD000000A00100003B000000000000000000000000000E1000006662782F41393633353835312D344632462D344230382D423046372D3739314545314133324237412F7265
310
736F75726365732F636F72652E786D6C504B0506000000000E000E0080040000641100000000
  0
XRECORD
  5
47D5
102
{ACAD_REACTORS
330
1F7
102
}
330
1F7
100
AcDbXrecord
280
     1
102
MATERIAL
148
0.0
149
0.0
149
0.0
 93
        0
 94
       63
282
     0
 72
     1
 77
     1
171
     1
175
     1
179
     1
273
     0
  0
XRECORD
  5
1F8
102
{ACAD_REACTORS
330
1F7
102
}
330
1F7
100
AcDbXrecord
280
     1
 70
     1
 90
429727718
  1
30362254-06B7-45E0-A893-8CFA70E3D6BC
310
504B03040A0000080000CC70623B3DEE336E79000000790000001B0000006175746F6465736B2D64657369676E2D7061636B6167652E786D6C3C3F786D6C2076657273696F6E3D22312E302220656E636F64696E673D227574662D3822203F3E3C666F726D6174733E3C666F726D61743E687474703A2F2F736368656D612E
310
6175746F6465736B2E636F6D2F64657369676E2D7061636B6167652F323030393C2F666F726D61743E3C2F666F726D6174733E504B0304140006080800CC70623BD486FD9CA0000000F4000000130000005B436F6E74656E745F54797065735D2E786D6C7D8EC10E82300C865F65E91D8A1E8C310C0EEA1BF002731658846E
310
D98AC1B77784ABF1D8FE5FBFBF75BBCE937A534CCEB38643598122B6FEE978D0B0485F9C41B54DDD7D022595594E1A469170414C76A4D9A4D207E29CF43ECE46F218070CC6BECC4078ACAA135ACF422C856C0E68EA1BF5669944DDD7BCDE7B1F8E415D77AECB980613C2E4AC91FC167A2B244592486606FC29C8FD7F045B9A
310
EF7053A7E60B504B0304140006080800CC70623B1EC5D7A3EB0000007C01000008000000636F72652E786D6C8D90416EC3201045AF82665B6103C6756C6122AB4D4ED00B204C5C94182C03558F5F9C3852BBEB6A467FFE9B197D71FC9E6FE8CBACC17AD7032D0820E3B41FAD9B7A48F1820F808E52ACDEC75F36404ECDA687
310
4D0629A6D5A76597B477D1B89855E747B38B2A041301E95B6E7A08FAD3CCAA50296647B8168BD2573599823EBB0CA76447F43862C7BCCF5EAC59410E4DDD9C7973C2755553CCCFA4C603E3040F1565ED3B1FDE4E432BCA0D9622DAF9795FAF464533826484B498524CD807E51D79ED187F21878E10516EF63F505AC67F42C9
310
BA58B1FDDD071640D2FCC87D2045B96591CB3DA85CB7DCE40F504B0304140006080800CC70623B55019EA25F0000007C00000007000000636E782E786D6C4DCB3B0E80201045D1AD90E915ED2CF8AC45050C11660C8261F98AB1B07AC9C97D42D718D865D3E909258CFD00CCE24AC6E326A164D74DC0B4128928FF32603847
310
2BA13128B1252AC747C6BAB984FC68F0B87FE8960A5C09FE86CFB69FBA01504B0304140006080800CC70623B8C9102E971010000D40300000C0000006662782F636F72652E786D6CC5535B6E833010BC8AE5DF0A6C08340F1947A84D4ED00B38C6A128602363A31CBFCB234A53A551FA553EC09AD9F5CE8C31DB9E9B1AF5CA
310
7695D1198E428A91D2D214952E33ECDD315861B4E5CC1AE3BE9561A445A3323CC098B3D21ADFCE9034DA29ED00D5A6503328BA4E398C640D8B0C77F253352214DE4145770A5B214FA2546114020D759C75CE8200340D19DE981F0F6746269C33EFAB6266AB02A655C74A59CCF365BADC27CB5D902ED22848F6340DF238A141
310
BE88E2F57B92BFEDF23523433367AE6A2EEAA455C2A902F398D2751045018D3FA264435F3771F242571B4A1919CA6F9A7C5B3CD9E42BED16F12C776AEB308F40C848FC700B1139D4891EF410CEC810227CC6846F8386402064270EF5C5C709A05E49676C024C61FC95EA45ED154CA5211D1FF4FB8291A913A68E9B83EBBB33
310
E2A7673CDE118E5AE8124C0807CB8377834E366998436B950D7A7746DAD846D4CFD978E0F04FD455FC5D49D2D4C6FE9722321F10997F0F32DC47FE05504B0304140006080800CC70623BFFEA85907E0000009D0000000B0000006662782F636E782E786D6C4DCCD10A83201886E15B91FFDC95D95A811AB6F23E625948A6C3
310
E9D8E5AF46073BFAE0E1E365ED67B3E8ADC3CB78C7815C7240DA3DFC64DCC221C519D7805AC182F7F1EF06C88D9BE6703008B6049F9E274D7A1E938DBB5AE3D6131B2589BA0D3D965551E0B2EA732C9B9A624AAEB41E3A557677029960D9AFB4EF11165F504B0304140006080800CC70623B4FEEA4082C0100001202000031
310
0000006662782F39464131463745442D413632322D343644302D413938332D3331353338454246344243312F636F72652E786D6C8D515B6EC32010BC0AE2AB55850DD871ED0813254D72825EC00192A2C460F1A872FC42ED48ED5F7E00CDCECCCEB26C731F6FE05B39AFADE921293004CA082BB5B9F43086336A21D870E6AC
310
0D7F68109861543DCC30E4ECE26C9C164858139409093556AA051CBC570102714B8F1E7AF1A5C6A11862480C7F2DA6415C878B2A4891CA89C7990F2E050073937C42DE1DB7E4F87ED8A36D4329AA9B3D46DBAEAD504556557BD81DEBDD0761E52CE42C462D17B996298E3E6BE59E35C962CE821E1FF18553435012728A7187
310
0841987E927A8D9B35ADDF70BBC6989599FE4F1427F9A4286A132ABAC49D651EF234CD5CE04CDA78BA3DC2A8FB645D00B9DF8B57E215725C60BCA2A463E54C4CE327C7A65E1C7DB02E7DEFCBF594B864C5CA6CDBD49C957943E9FA5D5FBAF336F90F504B0304140006080800CC70623BAD7543B64E01000033030000300000
310
006662782F39464131463745442D413632322D343644302D413938332D3331353338454246344243312F636E782E786D6CD593CD6EC32010845F0571AD6CE3D48AD20813A9873E410FBD12D82434182C7EAAE6EDBB2424CD25871E7B41D6EC30B3FA84F9E67BB2E40B4234DE8DB46F1925E094D7C6ED479AD3AE5951B2113C
310
789FEE6C943839C1488B4C05DF079FE72A69D8C96C13AAD6B8631503449F83828872B949AC57D26200B826A308D316B4064D6E46FCDA41C05550DC9E483A00797BFD207EFB092A45DE9514C1BBD22178396BD39D891265658C238DEA00936C654E5E433CB65A26D9F6EDB5EBC14EBF49A45CB856E66048291F6939A9A81BB5
310
C8917738143CA680F4AA299D66A042CEB3354A2684DC9D8D178FE0D9B8B41CAAD720F880EE7EF93C0C18769E099ECC04D5A102C8049A8A05632F4DDF376CF1DE0F6BB65C2F8627B65A33C6BB62177CEBBDAD973006829F89F22E814B54F4BC2BE347F8AA8F681390B50FA73F804400B5F542E796F19FF974E7F78DB802FE05
310
E207504B0304140006080800CC70623B16AB87BA640500003C100000340000006662782F39464131463745442D413632322D343644302D413938332D3331353338454246344243312F6F626A656374732E786D6CAD575B6FA33818FD2B887DE6924B3BED8A326A92B68A663B534DD4D13E548A0C38942D60649B369D5FBFC7
310
600890A493BDE42160637FD7F31D7FF63E6FB3D478A55C242CBF3247B66B1A340F5994E4F19559CA8D75611A9F7D8F33263BCB4C232719BD32D5B4E97B316765A1A722BA21652A07B3B7B33F0D11D29C9A46981221AE4C113ED38CD8A4942CA2E2C58E882476BCD9DA23BB5ED8171B73523C0F841684D35CC252CCE79062D4
310
468DFA43D7747CCF51DF7D4FFDEB5593E3AB9CCA9FBEFE241792E4E19EB28198C968BAB8199F5D5A67D3E9C49A9E8F47D6EC76B6B0469F26EEFC7C3EBFBCBEB98462213924694B38DD98FE1D62C393D073EA4FADC5DAF04326852CCF6958F90F0F2B9BB5C48816348F90C7840A68EB78EDF68723159BCEE7891A6B95DDE9D3
310
BCEAEEE8086A6C6F9E5D4B59F0175C10A7A0820BAA5055C7473B5AE3CFDD452D602CD5DF12616444529E90D448938013FE6EFA58AA96F85E4F8C42275708571E98FE6827AF6B2B4AE3D7D83D64E5A64C53054DD3AF90BD06FEA9149565C94FCA0F6B834DC85599E4F2423B24DF0B6AFA979E534DFA9E7A4CC6FA631D486393
310
921829879BF5D781A373557BCB85E97FB90DB62B558F8795179C15944B051F40AB495CF35451D26A4727654E6D8033BD98EF82F21D91FF8AF2DD9982BCF1643BDD4EB516C9492E368C67C88DED563FC36D5EACF66DFF057C3658BDBFA69DF9578B3DA735B64F18C7F20770A9D45CFCF7FCF563D6456A277DBEF78A02637CA2
310
43B90A490AEAB94F72244481D24819A6C0E59B606BFA4B3025981DBB48EAB701D97BF19C577CC77F2D1B6C55A9EF3C732474C0B727303F625995056C3B02963D9EAC146BE78EC5FCEC7FA999EBC5EACBAAE41B12D27B4D2C0BBA49F244E2ECDC81B76B502F113D8F5EE8FB1BE3111CDD4FC2AA9B844CAB1288B68AB90A7CDC
310
1C166AB0D3DC5310625FCC14E779BFD0709F8890A629C9292B1B2DED31A4B0DA928CEE135085754027E3018A397D4D5427D15BD1330B677DC8934285AC3DF45A9EB68FF8F2B8FC0A509AFEECFD0FF2DE25CC6047F7214B195F07EFEB9A094D800F7BFAE8FED187B78EA8A3A400F115961BCAD1215E47C966530AF0EE8128FE
310
58CEBB996A8964FFA529A046635D9353B0336A8F700DDF46271A024E70B0B37C9DE01847591E54DED53D54202AB947E4076556AC49C6CA5C9E1226B7F1A7B1BE15DEED62C41B91E1B3E9AFAAA735036547343A925075041DF0A9979E893B391F8FCFA6967B3EFB644DCF6E5CEBFAE272625DCC6FAF3FB93793C5F90CE1EF57
310
407342756B10D1C489E8953CD1617E5CEECAD6F4EF8914CE5D5D504E5C3F1F9736DA62CFC11E00BCDDB8CC8A9466349744C1F75EBDA4DF09BA8A9E8C7A7E9991989E20E5DBDD6A6003664ED8F7A04A8DBE0DF6EAD9B9AA858342E47399053949D2C146EDB85DE4B176BB0965FBAC19BD19AA918E27FA50C1D22402E144464C
310
59462568E704B6E71915404CB72B8FF4EDE184DDAF753F284990D2C6926782963815403548A70C657FDEF80D2D9CEAA2AE4C1C76F60BFE74219A06527D6582DF6412526107381E55E353090704D085B52408D0933C4ED159D79BDA71BB4BC506F4831350EB6F979CD22D69BF7AC49B91A2C0A9DDA3D5CA36AD20FC478E37E6
310
1844E2352865EBCB6EA275A652E3836BE04EFB400BF1A2556F515F1FBB35B2AB35BD889C744FFA1004B5544B121E57F70215746DD2F5E2C1412B602CBF19455AC6C8E5E9922C4E01E65215385004546899059180EAFCF7A707CE7017CD8CDB0410789AB32C63B91E5CEBBBACB17AC6CD347A022D5075FD106377347AAABA7E
310
7D11590744509B44E205134DC1290F06580320F78E537D3D73540E06CB970B431F185308AD40BBD794D6D77003C5A36E8EAA54BA64597CD8F83BD552A080A365F7FF06504B0304140006080000CC70623B000000000000000000000000350000006662782F39464131463745442D413632322D343644302D413938332D3331
310
353338454246344243312F76657274696365732E62696E504B0304140006080800CC70623BF270F1330600000004000000360000006662782F39464131463745442D413632322D343644302D413938332D3331353338454246344243312F747269616E676C65732E62696E636660600000504B0304140006080000CC70623B
310
000000000000000000000000370000006662782F39464131463745442D413632322D343644302D413938332D3331353338454246344243312F617474726962757465732E62696E504B0304140006080800CC70623B08DA0BD19000000041010000360000006662782F39464131463745442D413632322D343644302D413938
310
332D3331353338454246344243312F6469726563746F72792E786D6C858F410AC3201045AF22B36F53E9A60B35CBEEBAE80D244E44489C6234F4F835464A48035D0DF398FF9F8AF63D0E6CC63039F212F8F9020C7D47C6792B21C5FE7403D62A1188E2E60C98D7234A5830286103A55745067B9D86B8A3CF9C7F90C11DE607
310
FB144396D7B6A82D282E9A152AD114D5EF2CB866EEE831B8EEA07A7BB5A8D7D61A2BAAEB7FD5F70921FF497D00504B0304140006080800CC70623B0D6EF93BFE000000A00100003B0000006662782F39464131463745442D413632322D343644302D413938332D3331353338454246344243312F7265736F75726365732F63
310
6F72652E786D6C8D50596E833010BD0A9ADFCA60B334011947A8694ED00B586642AC041B79A97AFC9A40A5F6AF3F33A3B7689E1E3F7DCD8FEC139DD7D6F4C0720A191A65476DA61E62B892236427C19DB5E1970C322367EC618541F0C9D9B8EC90B226A009093576C41D94DE63804C3DD2D18357379C652E63480A7FCF17A9
310
EE72C29CE5894E3AC17D702940B63D59270887DE46A7D0F36263058F518FBB468FE9A7BE6A7420864373B8D4873369AA8691FA421B3294352543C5CAF65C0F6FEF43CB8BD52C78D0F34F46E550061C419494B6843142CB0F5677F4B52BEB177AEC28E5C52AFF638ACBF84F53D42654E51E77B379102C05791282176B5F693D
310
CB4C7BED567C03504B010214000A0000080000CC70623B3DEE336E79000000790000001B00000000000000000000000000000000006175746F6465736B2D64657369676E2D7061636B6167652E786D6C504B01021400140006080800CC70623BD486FD9CA0000000F40000001300000000000000000000000000B20000005B
310
436F6E74656E745F54797065735D2E786D6C504B01021400140006080800CC70623B1EC5D7A3EB0000007C010000080000000000000000000000000083010000636F72652E786D6C504B01021400140006080800CC70623B55019EA25F0000007C000000070000000000000000000000000094020000636E782E786D6C504B
310
01021400140006080800CC70623B8C9102E971010000D40300000C00000000000000000000000000180300006662782F636F72652E786D6C504B01021400140006080800CC70623BFFEA85907E0000009D0000000B00000000000000000000000000B30400006662782F636E782E786D6C504B01021400140006080800CC70
310
623B4FEEA4082C0100001202000031000000000000000000000000005A0500006662782F39464131463745442D413632322D343644302D413938332D3331353338454246344243312F636F72652E786D6C504B01021400140006080800CC70623BAD7543B64E010000330300003000000000000000000000000000D5060000
310
6662782F39464131463745442D413632322D343644302D413938332D3331353338454246344243312F636E782E786D6C504B01021400140006080800CC70623B16AB87BA640500003C1000003400000000000000000000000000710800006662782F39464131463745442D413632322D343644302D413938332D3331353338
310
454246344243312F6F626A656374732E786D6C504B01021400140006080000CC70623B0000000000000000000000003500000000000000000000000000270E00006662782F39464131463745442D413632322D343644302D413938332D3331353338454246344243312F76657274696365732E62696E504B01021400140006
310
080800CC70623BF270F133060000000400000036000000000000000000000000007A0E00006662782F39464131463745442D413632322D343644302D413938332D3331353338454246344243312F747269616E676C65732E62696E504B01021400140006080000CC70623B0000000000000000000000003700000000000000
310
000000000000D40E00006662782F39464131463745442D413632322D343644302D413938332D3331353338454246344243312F617474726962757465732E62696E504B01021400140006080800CC70623B08DA0BD190000000410100003600000000000000000000000000290F00006662782F39464131463745442D413632
310
322D343644302D413938332D3331353338454246344243312F6469726563746F72792E786D6C504B01021400140006080800CC70623B0D6EF93BFE000000A00100003B000000000000000000000000000D1000006662782F39464131463745442D413632322D343644302D413938332D3331353338454246344243312F7265
310
736F75726365732F636F72652E786D6C504B0506000000000E000E0080040000641100000000
  0
XRECORD
  5
47D7
102
{ACAD_REACTORS
330
173
102
}
330
173
100
AcDbXrecord
280
     1
102
MATERIAL
148
0.0
149
0.0
149
0.0
 93
        0
 94
       63
282
     0
 72
     1
 77
     1
171
     1
175
     1
179
     1
273
     0
  0
XRECORD
  5
175
102
{ACAD_REACTORS
330
173
102
}
330
173
100
AcDbXrecord
280
     1
270
     1
271
     1
  0
XRECORD
  5
174
102
{ACAD_REACTORS
330
173
102
}
330
173
100
AcDbXrecord
280
     1
270
     1
271
     1
  0
XRECORD
  5
1FB
102
{ACAD_REACTORS
330
173
102
}
330
173
100
AcDbXrecord
280
     1
 70
     0
 90
1673772943
  1
ECE7A1D2-D628-4531-984C-D00F80459256
310
504B03040A0000080000CC70623B3DEE336E79000000790000001B0000006175746F6465736B2D64657369676E2D7061636B6167652E786D6C3C3F786D6C2076657273696F6E3D22312E302220656E636F64696E673D227574662D3822203F3E3C666F726D6174733E3C666F726D61743E687474703A2F2F736368656D612E
310
6175746F6465736B2E636F6D2F64657369676E2D7061636B6167652F323030393C2F666F726D61743E3C2F666F726D6174733E504B0304140006080800CC70623BD486FD9CA0000000F4000000130000005B436F6E74656E745F54797065735D2E786D6C7D8EC10E82300C865F65E91D8A1E8C310C0EEA1BF002731658846E
310
D98AC1B77784ABF1D8FE5FBFBF75BBCE937A534CCEB38643598122B6FEE978D0B0485F9C41B54DDD7D022595594E1A469170414C76A4D9A4D207E29CF43ECE46F218070CC6BECC4078ACAA135ACF422C856C0E68EA1BF5669944DDD7BCDE7B1F8E415D77AECB980613C2E4AC91FC167A2B244592486606FC29C8FD7F045B9A
310
EF7053A7E60B504B0304140006080800CC70623BD9DDAED0EC0000007C01000008000000636F72652E786D6C8D90416EC3201045AF82665B61836D9CD8C2444DD39CA01740405C94182C03558F5F9C3852BBEB6A467FFE9B197D7EF89E6EE8CB2CC17A37002D0820E394D7D68D03A478C17B4007C117EFE32F1B20272733C0
310
2A83E0E3E2D3BC49CABB685CCCAAF3DA6CA20CC14440EA969B0182FA34932C648AD911AEC52CD5558EA6A0CF2EC329598D1E47ACCEFBECC59A050463A7EA5833865FEBDD0E37353BE3EE8DBDE3F6786A48D375FBF6CC78B9C282473B3DEFABC5C86834888A900E538A49F5419B9EB47DD5BC907D4F082F57FB1F28CDFA9F50
310
B22ED6D5F6EE030B20687EE43E10BC5CB3C8E51E54AE6B6EE207504B0304140006080800CC70623B55019EA25F0000007C00000007000000636E782E786D6C4DCB3B0E80201045D1AD90E915ED2CF8AC45050C11660C8261F98AB1B07AC9C97D42D718D865D3E909258CFD00CCE24AC6E326A164D74DC0B4128928FF326038
310
472BA13128B1252AC747C6BAB984FC68F0B87FE8960A5C09FE86CFB69FBA01504B0304140006080800CC70623BA24EB22D72010000D40300000C0000006662782F636F72652E786D6CC5535B6E833010BC8AE5DF0A6C5E49888CA3A6694ED00B38E05014B091B1518EDFE511A5A9D228FD2A1F60CDEC7A67C6986DCE4D8D7A
310
69BA4AAB0C073EC548AA5C17952A33ECECD15B61B4E1CC686DBF9561A44423333CC098B3D268D7CE50AE9595CA02AA74216750749DB418E5352C32DCE59FB211BE70162ABA93DF8AFC244AE9073ED050C759670D0840D390E18DF9F1706664C23973AE2A66B62A605A75ACA4C13C4976E1364A12EF355A2EBD384AF65EFA96
310
BC7B8BED2EA6719AAE16FB8491A199335B351775B991C2CA02F390D2D40B028F861F41BCA68B7518BFD0D59A524686F29B26D7164F36B94AD9289CE54E6D1DE6010819891F6E21228B3AD1831EC219194284CF98F06DD01008846CC5A1BEF83801D4CBDC6A1303536877A57A513B0953A94FC707FDBE6064EA84A9E3E6E0FA
310
EE8CF0E9198F7784A316AA0413C2C2F2E0ECA0934D1AE6D05A69BCDE9E91D2A611F573361E38FC1375157F5752AE6B6DFE4B11990F88CCBF0719EE23FF02504B0304140006080800CC70623B408A7D3B7C0000009D0000000B0000006662782F636E782E786D6C4DCCD10A83201886E15B91FFDC552A92A0064DBC8F581632
310
D3703A76F9ABD1C18E3E78F878E5F0D9027ABBFCF2292AE86E2D20171F69F6715550CB827B40839639A5F2770314A7CD293819B45C73AAFB45B35BA61ACAA1C1C7E7855C58C15BC331339661262CC762340413D68D77DA5B42298546CBE6573AF60CEB2F504B0304140006080800CC70623B449FB9BD290100001202000031
310
0000006662782F36394639363044362D344446342D343946362D394244322D3234314243333846323333332F636F72652E786D6C8D515B6EC32010BC0AE22B55850D98B871848994463E412FE002495162B07854397EA176A4F62F3F2C9A9D991D587EB84F37F0AD7D30CEF6905418026DA553C65E7A98E219ED203808EE9D
310
8B7F6810D871D23D2C3014FCE25D9A57483A1BB58D19B54EE9151C43D0110279CB971E06F9A5A7B11A53CC8C70ADE6515EC78BAE4895DB992778883E0700CB907242D17643D7E2538BD869608875438BBAE38922CAC8F1BDD90DB4691A5E2F42C153326A951B95E398B3D1FE599322163C9AE9115F7A3D46ADA0A018778810
310
84E907617BDCEE297BC5BB3DC6BC2EF47FA234AB2745C9D8D8D035EE220B50105E2F0DC1954B9FB747187D9F9D8FA0CCDB042D5FA0C015C65B42DF78BD10F3F3B363CB56C7109DCFDFBBB97E662ED92EB62D13BC2E1BCAE5777DB9966D8A1F504B0304140006080800CC70623BAD7543B64E01000033030000300000006662
310
782F36394639363044362D344446342D343946362D394244322D3234314243333846323333332F636E782E786D6CD593CD6EC32010845F0571AD6CE3D48AD20813A9873E410FBD12D82434182C7EAAE6EDBB2424CD25871E7B41D6EC30B3FA84F9E67BB2E40B4234DE8DB46F1925E094D7C6ED479AD3AE5951B2113C789FEE
310
6C943839C1488B4C05DF079FE72A69D8C96C13AAD6B8631503449F83828872B949AC57D26200B826A308D316B4064D6E46FCDA41C05550DC9E483A00797BFD207EFB092A45DE9514C1BBD22178396BD39D891265658C238DEA00936C654E5E433CB65A26D9F6EDB5EBC14EBF49A45CB856E66048291F6939A9A81BB5C89177
310
38143CA680F4AA299D66A042CEB3354A2684DC9D8D178FE0D9B8B41CAAD720F880EE7EF93C0C18769E099ECC04D5A102C8049A8A05632F4DDF376CF1DE0F6BB65C2F8627B65A33C6BB62177CEBBDAD973006829F89F22E814B54F4BC2BE347F8AA8F681390B50FA73F804400B5F542E796F19FF974E7F78DB802FE05E20750
310
4B0304140006080800CC70623B8D05915C650500003B100000340000006662782F36394639363044362D344446342D343946362D394244322D3234314243333846323333332F6F626A656374732E786D6CAD575B6FA33814FE2B887D06429276DA1565D4266D158D3A339A6846FB502932E050B66023DB74D2FDF5FB190C01
310
9276B2973C046C8ECFF53B17071F77456EBD502133CEAE6CDF9DD81665314F32965ED995DA3A17B6F5310C04E7AA47665B8C14F4CAD6DB7618A48257A5D94AE89654B91AEDDEDDFC61C998326A5B714EA4BCB265FC440BE2924AF184CA6737218AB8E976E7FA6E4338649B0A523E8D98964450A6A029F619B8588D52FE7039
310
B1BD30F0F4F730D0FF866AF6369557DB33949F31A9088B0F848DD8CCFCF9F2767A76E99CCDE733677E3EF59D9BBB9BA5E37F984D16E78BC5E5F5ED25044B25C0C96822E8D60EEFE11B91C581D77CEA34368A1F5329E68CD1B8B61F16D63A1B8E092D294B10C78C4A48EB593D192E7DED9BDEE7995E1B91FDEDD3ACEA9FE831
310
6A756F9F7D4D79F4274C90A7A04248AA51D5F8C718DAE06FB2F75AC4796EBE65D22A88A22223B995679120E2D50E41AA49C260C046A35368846B0BECD0DFF3EBEB8AD4F835768F69B9ADF25C43D30E6B646F807FAA64AD59F61715C7A54127C4AACA98BA3006A9D792DAE165E0D59B61A01FB3A9F9D838D2DAE62445C86166
310
F37564E842E7DE6A69879FEEA2DD5AE7E371E1A5E025154AC307D06A03D73EB5978C58FFA4C8E9033066E0F3BD53BEC1F39F91BE7B55103791EDE6BBB991A2046172CB4581D8B893FA674DDA17A77B3B7C413D1B511FD2743BFF8A38F03A658705E3ADF8015C3A3417FF3D7E439FF591DA0B5F18BC20C1B8981957AE6392A3
310
F43C640C01D1A0B4728E2DD4F26DB4B3C3152A252A3B4E913CEC1C72F012782FF88EFF8637AA552DBEF76408E8A8DE9E50F9E1CB3A2DA0DB1B6039A893B56063DC5B3E3FFB5F72E67AB9FEB4AEC496C4F4C1149625DD662C53E89D7BF0F6151A046260D1337DFDC94502430F83B0EE07A130A224BCAD7DAE1D9FB6CD422FF6
310
920702629C4BB9AE79C12F243C6432A6794E18E5552BA56B431AAB5D91317302B2B071E86C3A42B1A02F999E24061403B5D0EB639195DA655DD3EBEAB4FB862DDF579F014AD0E73C22F99E28DA57FB98E75C6CA2D74D53086D600F4786E0FE3144B771A8A7B900F03594DB8A633CBC49B2EDB69228BB479CF863B5E807AAAB
310
23872F6DFEB4129B949CA33823F58830E86D65621E10047D9DB34D862E8EAC3C2ABC2F7B2C40D67CDFE01F5545B92105AF983AC54D93D69E56FB8E797F88913F898A9FEC705D3F9D1B54EC8426FB500D40A03BD0119B06E1B95DDC7EB8F6975367793EBD70E66733DFB9BC982F9CE564727731999F5D4ECFCE3B8D6A4DC2A0
310
6D50FD148437D110834A64C6CDDF57FBACB5C307A2A477DFE4939736CFEF2B175371E0E10CF0DD1D5C15654E0BCA14D1E87DD02FF93782A162C0A3D95F1524A52770F972BF1EE9809D13CE7DD599467F8ECE9ADD85CE85A34CD45355448C64F9E8A031DC2D596ACC6E5DD93D9B82DE2EF5CAF81363A8E47996A0DE24564A79
310
4115AACE09C55E14540231FDA13C319787134EBF34E3A022514E5B4D9E0826E25C02D5805B15ABE1BEF51B26383D445DD9E875EE33FE4C22DA16427D65A3BCA92CA6D28DD01DF5DC53330704308475351050232CCD31583787BA75774AFB06E5070DD0C8EF484E19968C5D83BA5B90B244D31E54D55A372320FE4786B7EA58
310
44E135AA5467CB7EA333A61683CC6A8C3257034C10CF46F40EF9F5BE59BE5BD30C3C72D235E95D10345C1D45445A5F0BB47E46A5EBE5570F9380B5FA629579952296A773720405982B9DE04011506178964401AA8BDF1FBF0A8EAB6861DD6580C0E38217056766716DAEB2D6FA0917D3E4116581EADB879C4E7CFFB11EFACD
310
3D641311495D92C8676CB409A72D18610D803CE8A626049E8EC1887CB5B44CC39883690DDA8399B4B9855B481E7D71D4A9D22F96E5BB73BF5793020C02137BF837504B0304140006080000CC70623B000000000000000000000000350000006662782F36394639363044362D344446342D343946362D394244322D32343142
310
43333846323333332F76657274696365732E62696E504B0304140006080800CC70623BF270F1330600000004000000360000006662782F36394639363044362D344446342D343946362D394244322D3234314243333846323333332F747269616E676C65732E62696E636660600000504B0304140006080000CC70623B0000
310
00000000000000000000370000006662782F36394639363044362D344446342D343946362D394244322D3234314243333846323333332F617474726962757465732E62696E504B0304140006080800CC70623B08DA0BD19000000041010000360000006662782F36394639363044362D344446342D343946362D394244322D
310
3234314243333846323333332F6469726563746F72792E786D6C858F410AC3201045AF22B36F53E9A60B35CBEEBAE80D244E44489C6234F4F835464A48035D0DF398FF9F8AF63D0E6CC63039F212F8F9020C7D47C6792B21C5FE7403D62A1188E2E60C98D7234A5830286103A55745067B9D86B8A3CF9C7F90C11DE607FB14
310
4396D7B6A82D282E9A152AD114D5EF2CB866EEE831B8EEA07A7BB5A8D7D61A2BAAEB7FD5F70921FF497D00504B0304140006080800CC70623BCA768048FE000000A00100003B0000006662782F36394639363044362D344446342D343946362D394244322D3234314243333846323333332F7265736F75726365732F636F72
310
652E786D6C8D50596E833010BD0A9ADFCA60D600328E9AA639412F609909B1126CE4A5EAF16B0295DABFFECC8CDEA2797AECF8353F924FB44E193D409E5248504B332A3D0D10FC95B4901C39B3C6F85F3248B49871801506CE266BC2B243D2688FDA47549B11775038871E12F988C7004EDE7016A9083E2ADC3D5D84BC8B09
310
D33C8D74D471E6BC8D0192EDC93A815B742658898E651BCB59086ADC356A8C3FD555A1055ED7E7E254D615792D0F075295F585746FF53B694EE78A565DD736979A65AB9933AFE69F8CD2A2F038022F28ED489E135A7CE4554F9BBEA85E68DB53CAB255FEC71496F19FA6A0B42F8B3DEE6673C0F318E4497096AD7DC5F52C33
310
EEB55BFE0D504B010214000A0000080000CC70623B3DEE336E79000000790000001B00000000000000000000000000000000006175746F6465736B2D64657369676E2D7061636B6167652E786D6C504B01021400140006080800CC70623BD486FD9CA0000000F40000001300000000000000000000000000B20000005B436F
310
6E74656E745F54797065735D2E786D6C504B01021400140006080800CC70623BD9DDAED0EC0000007C010000080000000000000000000000000083010000636F72652E786D6C504B01021400140006080800CC70623B55019EA25F0000007C000000070000000000000000000000000095020000636E782E786D6C504B0102
310
1400140006080800CC70623BA24EB22D72010000D40300000C00000000000000000000000000190300006662782F636F72652E786D6C504B01021400140006080800CC70623B408A7D3B7C0000009D0000000B00000000000000000000000000B50400006662782F636E782E786D6C504B01021400140006080800CC70623B
310
449FB9BD290100001202000031000000000000000000000000005A0500006662782F36394639363044362D344446342D343946362D394244322D3234314243333846323333332F636F72652E786D6C504B01021400140006080800CC70623BAD7543B64E010000330300003000000000000000000000000000D20600006662
310
782F36394639363044362D344446342D343946362D394244322D3234314243333846323333332F636E782E786D6C504B01021400140006080800CC70623B8D05915C650500003B10000034000000000000000000000000006E0800006662782F36394639363044362D344446342D343946362D394244322D32343142433338
310
46323333332F6F626A656374732E786D6C504B01021400140006080000CC70623B0000000000000000000000003500000000000000000000000000250E00006662782F36394639363044362D344446342D343946362D394244322D3234314243333846323333332F76657274696365732E62696E504B010214001400060808
310
00CC70623BF270F13306000000040000003600000000000000000000000000780E00006662782F36394639363044362D344446342D343946362D394244322D3234314243333846323333332F747269616E676C65732E62696E504B01021400140006080000CC70623B00000000000000000000000037000000000000000000
310
00000000D20E00006662782F36394639363044362D344446342D343946362D394244322D3234314243333846323333332F617474726962757465732E62696E504B01021400140006080800CC70623B08DA0BD190000000410100003600000000000000000000000000270F00006662782F36394639363044362D344446342D
310
343946362D394244322D3234314243333846323333332F6469726563746F72792E786D6C504B01021400140006080800CC70623BCA768048FE000000A00100003B000000000000000000000000000B1000006662782F36394639363044362D344446342D343946362D394244322D3234314243333846323333332F7265736F
310
75726365732F636F72652E786D6C504B0506000000000E000E0080040000621100000000
  0
XRECORD
  5
176
102
{ACAD_REACTORS
330
173
102
}
330
173
100
AcDbXrecord
280
     1
270
     1
271
     1
  0
XRECORD
  5
177
102
{ACAD_REACTORS
330
173
102
}
330
173
100
AcDbXrecord
280
     1
270
     1
271
     1
  0
XRECORD
  5
47F9
102
{ACAD_REACTORS
330
47F8
102
}
330
47F8
100
AcDbXrecord
280
     1
102
ACAD_ROUNDTRIP_2012_MLEADER_STYLE
298
     1
  0
XRECORD
  5
480B
102
{ACAD_REACTORS
330
480A
102
}
330
480A
100
AcDbXrecord
280
     1
102
DISPLAYNAME
  1
Metric50
102
FLAGS
 90
        0
  0
CELLSTYLEMAP
  5
47CB
102
{ACAD_REACTORS
330
162
102
}
330
162
100
AcDbCellStyleMap
 90
        3
300
CELLSTYLE
  1
TABLEFORMAT_BEGIN
 90
        5
170
     1
 91
        0
 92
    32768
 62
   257
 93
        1
300
CONTENTFORMAT
  1
CONTENTFORMAT_BEGIN
 90
        0
 91
        0
 92
      512
 93
        0
300

 40
0.0
140
1.0
 94
        5
 62
     0
340
11
144
6.0
309
CONTENTFORMAT_END
171
     1
301
MARGIN
  1
CELLMARGIN_BEGIN
 40
1.5
 40
1.5
 40
1.5
 40
1.5
 40
4.5
 40
4.5
309
CELLMARGIN_END
 94
        6
 95
        1
302
GRIDFORMAT
  1
GRIDFORMAT_BEGIN
 90
        0
 91
        1
 62
     0
 92
       -2
340
14
 93
        0
 40
1.125
309
GRIDFORMAT_END
 95
        2
302
GRIDFORMAT
  1
GRIDFORMAT_BEGIN
 90
        0
 91
        1
 62
     0
 92
       -2
340
14
 93
        0
 40
1.125
309
GRIDFORMAT_END
 95
        4
302
GRIDFORMAT
  1
GRIDFORMAT_BEGIN
 90
        0
 91
        1
 62
     0
 92
       -2
340
14
 93
        0
 40
1.125
309
GRIDFORMAT_END
 95
        8
302
GRIDFORMAT
  1
GRIDFORMAT_BEGIN
 90
        0
 91
        1
 62
     0
 92
       -2
340
14
 93
        0
 40
1.125
309
GRIDFORMAT_END
 95
       16
302
GRIDFORMAT
  1
GRIDFORMAT_BEGIN
 90
        0
 91
        1
 62
     0
 92
       -2
340
14
 93
        0
 40
1.125
309
GRIDFORMAT_END
 95
       32
302
GRIDFORMAT
  1
GRIDFORMAT_BEGIN
 90
        0
 91
        1
 62
     0
 92
       -2
340
14
 93
        0
 40
1.125
309
GRIDFORMAT_END
309
TABLEFORMAT_END
  1
CELLSTYLE_BEGIN
 90
        1
 91
        1
300
_TITLE
309
CELLSTYLE_END
300
CELLSTYLE
  1
TABLEFORMAT_BEGIN
 90
        5
170
     1
 91
        0
 92
        0
 62
   257
 93
        1
300
CONTENTFORMAT
  1
CONTENTFORMAT_BEGIN
 90
        0
 91
        0
 92
      512
 93
        0
300

 40
0.0
140
1.0
 94
        5
 62
     0
340
11
144
4.5
309
CONTENTFORMAT_END
171
     1
301
MARGIN
  1
CELLMARGIN_BEGIN
 40
1.5
 40
1.5
 40
1.5
 40
1.5
 40
4.5
 40
4.5
309
CELLMARGIN_END
 94
        6
 95
        1
302
GRIDFORMAT
  1
GRIDFORMAT_BEGIN
 90
        0
 91
        1
 62
     0
 92
       -2
340
14
 93
        0
 40
1.125
309
GRIDFORMAT_END
 95
        2
302
GRIDFORMAT
  1
GRIDFORMAT_BEGIN
 90
        0
 91
        1
 62
     0
 92
       -2
340
14
 93
        0
 40
1.125
309
GRIDFORMAT_END
 95
        4
302
GRIDFORMAT
  1
GRIDFORMAT_BEGIN
 90
        0
 91
        1
 62
     0
 92
       -2
340
14
 93
        0
 40
1.125
309
GRIDFORMAT_END
 95
        8
302
GRIDFORMAT
  1
GRIDFORMAT_BEGIN
 90
        0
 91
        1
 62
     0
 92
       -2
340
14
 93
        0
 40
1.125
309
GRIDFORMAT_END
 95
       16
302
GRIDFORMAT
  1
GRIDFORMAT_BEGIN
 90
        0
 91
        1
 62
     0
 92
       -2
340
14
 93
        0
 40
1.125
309
GRIDFORMAT_END
 95
       32
302
GRIDFORMAT
  1
GRIDFORMAT_BEGIN
 90
        0
 91
        1
 62
     0
 92
       -2
340
14
 93
        0
 40
1.125
309
GRIDFORMAT_END
309
TABLEFORMAT_END
  1
CELLSTYLE_BEGIN
 90
        2
 91
        1
300
_HEADER
309
CELLSTYLE_END
300
CELLSTYLE
  1
TABLEFORMAT_BEGIN
 90
        5
170
     1
 91
        0
 92
        0
 62
   257
 93
        1
300
CONTENTFORMAT
  1
CONTENTFORMAT_BEGIN
 90
        0
 91
        0
 92
      512
 93
        0
300

 40
0.0
140
1.0
 94
        2
 62
     0
340
11
144
4.5
309
CONTENTFORMAT_END
171
     1
301
MARGIN
  1
CELLMARGIN_BEGIN
 40
1.5
 40
1.5
 40
1.5
 40
1.5
 40
4.5
 40
4.5
309
CELLMARGIN_END
 94
        6
 95
        1
302
GRIDFORMAT
  1
GRIDFORMAT_BEGIN
 90
        0
 91
        1
 62
     0
 92
       -2
340
14
 93
        0
 40
1.125
309
GRIDFORMAT_END
 95
        2
302
GRIDFORMAT
  1
GRIDFORMAT_BEGIN
 90
        0
 91
        1
 62
     0
 92
       -2
340
14
 93
        0
 40
1.125
309
GRIDFORMAT_END
 95
        4
302
GRIDFORMAT
  1
GRIDFORMAT_BEGIN
 90
        0
 91
        1
 62
     0
 92
       -2
340
14
 93
        0
 40
1.125
309
GRIDFORMAT_END
 95
        8
302
GRIDFORMAT
  1
GRIDFORMAT_BEGIN
 90
        0
 91
        1
 62
     0
 92
       -2
340
14
 93
        0
 40
1.125
309
GRIDFORMAT_END
 95
       16
302
GRIDFORMAT
  1
GRIDFORMAT_BEGIN
 90
        0
 91
        1
 62
     0
 92
       -2
340
14
 93
        0
 40
1.125
309
GRIDFORMAT_END
 95
       32
302
GRIDFORMAT
  1
GRIDFORMAT_BEGIN
 90
        0
 91
        1
 62
     0
 92
       -2
340
14
 93
        0
 40
1.125
309
GRIDFORMAT_END
309
TABLEFORMAT_END
  1
CELLSTYLE_BEGIN
 90
        3
 91
        2
300
_DATA
309
CELLSTYLE_END
  0
XRECORD
  5
47D0
102
{ACAD_REACTORS
330
162
102
}
330
162
100
AcDbXrecord
280
     1
102
ACAD_ROUNDTRIP_PRE2007_TABLESTYLE
 90
      512
 91
        0
  1

 92
      512
 93
        0
  2

 94
      512
 95
        0
  3

  0
XRECORD
  5
47E3
102
{ACAD_REACTORS
330
47E2
102
}
330
47E2
100
AcDbXrecord
280
     1
102
RTVSPost2010Prop28
280
     1
102
RTVSPost2010PropOp28
 70
     1
102
RTVSPost2010Prop29
280
     1
102
RTVSPost2010PropOp29
 70
     1
102
RTVSPost2010Prop30
280
     0
102
RTVSPost2010PropOp30
 70
     1
102
RTVSPost2010Prop31
280
     0
102
RTVSPost2010PropOp31
 70
     1
102
RTVSPost2010Prop32
280
     0
102
RTVSPost2010PropOp32
 70
     1
102
RTVSPost2010Prop33
280
     0
102
RTVSPost2010PropOp33
 70
     1
102
RTVSPost2010Prop34
280
     0
102
RTVSPost2010PropOp34
 70
     1
102
RTVSPost2010Prop35
280
     0
102
RTVSPost2010PropOp35
 70
     1
102
RTVSPost2010Prop36
280
     0
102
RTVSPost2010PropOp36
 70
     1
102
RTVSPost2010Prop37
 90
       50
102
RTVSPost2010PropOp37
 70
     1
102
RTVSPost2010Prop38
140
0.0
102
RTVSPost2010PropOp38
 70
     1
102
RTVSPost2010Prop39
140
1.0
102
RTVSPost2010PropOp39
 70
     1
102
RTVSPost2010Prop40
 90
        0
102
RTVSPost2010PropOp40
 70
     1
102
RTVSPost2010Prop41ColorIndex
 90
       18
102
RTVSPost2010Prop41ColorRGB
 90
        0
102
RTVSPost2010PropOp41
 70
     1
102
RTVSPost2010Prop42
 90
       50
102
RTVSPost2010PropOp42
 70
     1
102
RTVSPost2010Prop43
 90
        3
102
RTVSPost2010PropOp43
 70
     1
102
RTVSPost2010Prop44ColorIndex
 90
        5
102
RTVSPost2010Prop44ColorRGB
 90
      255
102
RTVSPost2010PropOp44
 70
     1
102
RTVSPost2010Prop45
280
     0
102
RTVSPost2010PropOp45
 70
     1
102
RTVSPost2010Prop46
 90
       50
102
RTVSPost2010PropOp46
 70
     1
102
RTVSPost2010Prop47
 90
       50
102
RTVSPost2010PropOp47
 70
     1
102
RTVSPost2010Prop48
 90
       50
102
RTVSPost2010PropOp48
 70
     1
102
RTVSPost2010Prop49
280
     0
102
RTVSPost2010PropOp49
 70
     1
102
RTVSPost2010Prop50
 90
       50
102
RTVSPost2010PropOp50
 70
     1
102
RTVSPost2010Prop51ColorIndex
 90
      256
102
RTVSPost2010Prop51ColorRGB
 90
-16777216
102
RTVSPost2010PropOp51
 70
     0
102
RTVSPost2010Prop52
140
1.0
102
RTVSPost2010PropOp52
 70
     0
102
RTVSPost2010Prop53
 90
        2
102
RTVSPost2010PropOp53
 70
     1
102
RTVSPost2010Prop54
  1
strokes_ogs.tif
102
RTVSPost2010PropOp54
 70
     1
102
RTVSPost2010Prop55
280
     0
102
RTVSPost2010PropOp55
 70
     1
102
RTVSPost2010Prop56
140
1.0
102
RTVSPost2010PropOp56
 70
     1
102
RTVSPost2010Prop57
140
1.0
102
RTVSPost2010PropOp57
 70
     1
102
RTVSPropertyOp0
 70
     1
102
RTVSPropertyOp1
 70
     1
102
RTVSPropertyOp2
 70
     1
102
RTVSPropertyOp3
 70
     1
102
RTVSPropertyOp4
 70
     1
102
RTVSPropertyOp5
 70
     1
102
RTVSPropertyOp6
 70
     1
102
RTVSPropertyOp7
 70
     1
102
RTVSPropertyOp8
 70
     1
102
RTVSPropertyOp9
 70
     1
102
RTVSPropertyOp10
 70
     1
102
RTVSPropertyOp11
 70
     1
102
RTVSPropertyOp12
 70
     1
102
RTVSPropertyOp13
 70
     1
102
RTVSPropertyOp14
 70
     1
102
RTVSPropertyOp15
 70
     1
102
RTVSPropertyOp16
 70
     1
102
RTVSPropertyOp17
 70
     1
102
RTVSPropertyOp18
 70
     1
102
RTVSPropertyOp19
 70
     1
102
RTVSPropertyOp20
 70
     1
102
RTVSPropertyOp21
 70
     1
102
RTVSPropertyOp22
 70
     1
102
RTVSPropertyOp23
 70
     1
102
RTVSPropertyOp24
 70
     1
102
RTVSPropertyOp25
 70
     1
102
RTVSPropertyOp26
 70
     1
102
RTVSPropertyOp27
 70
     1
102
RTVSPropertyOp28
 70
     1
102
RTVSPropertyOp29
 70
     1
102
RTVSPropertyOp30
 70
     1
102
RTVSPropertyOp31
 70
     1
102
RTVSPropertyOp32
 70
     1
102
RTVSPropertyOp33
 70
     1
102
RTVSPropertyOp34
 70
     1
102
RTVSPropertyOp35
 70
     1
102
RTVSPropertyOp36
 70
     1
102
RTVSPropertyOp37
 70
     1
102
RTVSPropertyOp38
 70
     1
102
RTVSPropertyOp39
 70
     1
102
RTVSPropertyOp40
 70
     1
102
RTVSPropertyOp41
 70
     1
102
RTVSPropertyOp42
 70
     1
102
RTVSPropertyOp43
 70
     1
102
RTVSPropertyOp44
 70
     1
102
RTVSPropertyOp45
 70
     1
102
RTVSPropertyOp46
 70
     1
102
RTVSPropertyOp47
 70
     1
102
RTVSPropertyOp48
 70
     1
102
RTVSPropertyOp49
 70
     1
102
RTVSPropertyOp50
 70
     1
102
RTVSPropertyOp51
 70
     0
102
RTVSPropertyOp52
 70
     0
102
RTVSPropertyOp53
 70
     1
102
RTVSPropertyOp54
 70
     1
102
RTVSPropertyOp55
 70
     1
102
RTVSPropertyOp56
 70
     1
102
RTVSPropertyOp57
 70
     1
102
RTVSPropertyOp58
 70
     1
102
RTVSPropertyOp59
 70
     1
102
RTVSPropertyOp60
 70
     1
102
RTVSPropertyOp61
 70
     1
102
RTVSPropertyOp62
 70
     1
  0
XRECORD
  5
47E1
102
{ACAD_REACTORS
330
47E0
102
}
330
47E0
100
AcDbXrecord
280
     1
102
RTVSPost2010Prop28
280
     0
102
RTVSPost2010PropOp28
 70
     1
102
RTVSPost2010Prop29
280
     1
102
RTVSPost2010PropOp29
 70
     1
102
RTVSPost2010Prop30
280
     1
102
RTVSPost2010PropOp30
 70
     1
102
RTVSPost2010Prop31
280
     0
102
RTVSPost2010PropOp31
 70
     1
102
RTVSPost2010Prop32
280
     0
102
RTVSPost2010PropOp32
 70
     1
102
RTVSPost2010Prop33
280
     0
102
RTVSPost2010PropOp33
 70
     1
102
RTVSPost2010Prop34
280
     0
102
RTVSPost2010PropOp34
 70
     1
102
RTVSPost2010Prop35
280
     0
102
RTVSPost2010PropOp35
 70
     1
102
RTVSPost2010Prop36
280
     0
102
RTVSPost2010PropOp36
 70
     1
102
RTVSPost2010Prop37
 90
       50
102
RTVSPost2010PropOp37
 70
     1
102
RTVSPost2010Prop38
140
0.0
102
RTVSPost2010PropOp38
 70
     1
102
RTVSPost2010Prop39
140
1.0
102
RTVSPost2010PropOp39
 70
     1
102
RTVSPost2010Prop40
 90
        0
102
RTVSPost2010PropOp40
 70
     1
102
RTVSPost2010Prop41ColorIndex
 90
       18
102
RTVSPost2010Prop41ColorRGB
 90
        0
102
RTVSPost2010PropOp41
 70
     1
102
RTVSPost2010Prop42
 90
       50
102
RTVSPost2010PropOp42
 70
     1
102
RTVSPost2010Prop43
 90
        3
102
RTVSPost2010PropOp43
 70
     1
102
RTVSPost2010Prop44ColorIndex
 90
        5
102
RTVSPost2010Prop44ColorRGB
 90
      255
102
RTVSPost2010PropOp44
 70
     1
102
RTVSPost2010Prop45
280
     0
102
RTVSPost2010PropOp45
 70
     1
102
RTVSPost2010Prop46
 90
       50
102
RTVSPost2010PropOp46
 70
     1
102
RTVSPost2010Prop47
 90
       50
102
RTVSPost2010PropOp47
 70
     1
102
RTVSPost2010Prop48
 90
       50
102
RTVSPost2010PropOp48
 70
     1
102
RTVSPost2010Prop49
280
     0
102
RTVSPost2010PropOp49
 70
     1
102
RTVSPost2010Prop50
 90
       50
102
RTVSPost2010PropOp50
 70
     1
102
RTVSPost2010Prop51ColorIndex
 90
      256
102
RTVSPost2010Prop51ColorRGB
 90
-16777216
102
RTVSPost2010PropOp51
 70
     0
102
RTVSPost2010Prop52
140
1.0
102
RTVSPost2010PropOp52
 70
     0
102
RTVSPost2010Prop53
 90
        2
102
RTVSPost2010PropOp53
 70
     1
102
RTVSPost2010Prop54
  1
strokes_ogs.tif
102
RTVSPost2010PropOp54
 70
     1
102
RTVSPost2010Prop55
280
     0
102
RTVSPost2010PropOp55
 70
     1
102
RTVSPost2010Prop56
140
1.0
102
RTVSPost2010PropOp56
 70
     1
102
RTVSPost2010Prop57
140
1.0
102
RTVSPost2010PropOp57
 70
     1
102
RTVSPropertyOp0
 70
     1
102
RTVSPropertyOp1
 70
     1
102
RTVSPropertyOp2
 70
     1
102
RTVSPropertyOp3
 70
     1
102
RTVSPropertyOp4
 70
     1
102
RTVSPropertyOp5
 70
     1
102
RTVSPropertyOp6
 70
     1
102
RTVSPropertyOp7
 70
     1
102
RTVSPropertyOp8
 70
     1
102
RTVSPropertyOp9
 70
     1
102
RTVSPropertyOp10
 70
     1
102
RTVSPropertyOp11
 70
     1
102
RTVSPropertyOp12
 70
     1
102
RTVSPropertyOp13
 70
     1
102
RTVSPropertyOp14
 70
     1
102
RTVSPropertyOp15
 70
     1
102
RTVSPropertyOp16
 70
     1
102
RTVSPropertyOp17
 70
     1
102
RTVSPropertyOp18
 70
     1
102
RTVSPropertyOp19
 70
     1
102
RTVSPropertyOp20
 70
     1
102
RTVSPropertyOp21
 70
     1
102
RTVSPropertyOp22
 70
     1
102
RTVSPropertyOp23
 70
     1
102
RTVSPropertyOp24
 70
     1
102
RTVSPropertyOp25
 70
     1
102
RTVSPropertyOp26
 70
     1
102
RTVSPropertyOp27
 70
     1
102
RTVSPropertyOp28
 70
     1
102
RTVSPropertyOp29
 70
     1
102
RTVSPropertyOp30
 70
     1
102
RTVSPropertyOp31
 70
     1
102
RTVSPropertyOp32
 70
     1
102
RTVSPropertyOp33
 70
     1
102
RTVSPropertyOp34
 70
     1
102
RTVSPropertyOp35
 70
     1
102
RTVSPropertyOp36
 70
     1
102
RTVSPropertyOp37
 70
     1
102
RTVSPropertyOp38
 70
     1
102
RTVSPropertyOp39
 70
     1
102
RTVSPropertyOp40
 70
     1
102
RTVSPropertyOp41
 70
     1
102
RTVSPropertyOp42
 70
     1
102
RTVSPropertyOp43
 70
     1
102
RTVSPropertyOp44
 70
     1
102
RTVSPropertyOp45
 70
     1
102
RTVSPropertyOp46
 70
     1
102
RTVSPropertyOp47
 70
     1
102
RTVSPropertyOp48
 70
     1
102
RTVSPropertyOp49
 70
     1
102
RTVSPropertyOp50
 70
     1
102
RTVSPropertyOp51
 70
     0
102
RTVSPropertyOp52
 70
     0
102
RTVSPropertyOp53
 70
     1
102
RTVSPropertyOp54
 70
     1
102
RTVSPropertyOp55
 70
     1
102
RTVSPropertyOp56
 70
     1
102
RTVSPropertyOp57
 70
     1
102
RTVSPropertyOp58
 70
     1
102
RTVSPropertyOp59
 70
     1
102
RTVSPropertyOp60
 70
     1
102
RTVSPropertyOp61
 70
     1
102
RTVSPropertyOp62
 70
     1
  0
XRECORD
  5
47EF
102
{ACAD_REACTORS
330
47EE
102
}
330
47EE
100
AcDbXrecord
280
     1
102
RTVSPost2010Prop28
280
     0
102
RTVSPost2010PropOp28
 70
     1
102
RTVSPost2010Prop29
280
     1
102
RTVSPost2010PropOp29
 70
     1
102
RTVSPost2010Prop30
280
     1
102
RTVSPost2010PropOp30
 70
     1
102
RTVSPost2010Prop31
280
     0
102
RTVSPost2010PropOp31
 70
     1
102
RTVSPost2010Prop32
280
     0
102
RTVSPost2010PropOp32
 70
     1
102
RTVSPost2010Prop33
280
     0
102
RTVSPost2010PropOp33
 70
     1
102
RTVSPost2010Prop34
280
     0
102
RTVSPost2010PropOp34
 70
     1
102
RTVSPost2010Prop35
280
     0
102
RTVSPost2010PropOp35
 70
     1
102
RTVSPost2010Prop36
280
     0
102
RTVSPost2010PropOp36
 70
     1
102
RTVSPost2010Prop37
 90
       50
102
RTVSPost2010PropOp37
 70
     1
102
RTVSPost2010Prop38
140
0.0
102
RTVSPost2010PropOp38
 70
     1
102
RTVSPost2010Prop39
140
1.0
102
RTVSPost2010PropOp39
 70
     1
102
RTVSPost2010Prop40
 90
        0
102
RTVSPost2010PropOp40
 70
     1
102
RTVSPost2010Prop41ColorIndex
 90
       18
102
RTVSPost2010Prop41ColorRGB
 90
        0
102
RTVSPost2010PropOp41
 70
     1
102
RTVSPost2010Prop42
 90
       50
102
RTVSPost2010PropOp42
 70
     1
102
RTVSPost2010Prop43
 90
        3
102
RTVSPost2010PropOp43
 70
     1
102
RTVSPost2010Prop44ColorIndex
 90
        5
102
RTVSPost2010Prop44ColorRGB
 90
      255
102
RTVSPost2010PropOp44
 70
     1
102
RTVSPost2010Prop45
280
     0
102
RTVSPost2010PropOp45
 70
     1
102
RTVSPost2010Prop46
 90
       50
102
RTVSPost2010PropOp46
 70
     1
102
RTVSPost2010Prop47
 90
       50
102
RTVSPost2010PropOp47
 70
     1
102
RTVSPost2010Prop48
 90
       50
102
RTVSPost2010PropOp48
 70
     1
102
RTVSPost2010Prop49
280
     0
102
RTVSPost2010PropOp49
 70
     1
102
RTVSPost2010Prop50
 90
       50
102
RTVSPost2010PropOp50
 70
     1
102
RTVSPost2010Prop51ColorIndex
 90
      256
102
RTVSPost2010Prop51ColorRGB
 90
-16777216
102
RTVSPost2010PropOp51
 70
     0
102
RTVSPost2010Prop52
140
1.0
102
RTVSPost2010PropOp52
 70
     0
102
RTVSPost2010Prop53
 90
        2
102
RTVSPost2010PropOp53
 70
     1
102
RTVSPost2010Prop54
  1
strokes_ogs.tif
102
RTVSPost2010PropOp54
 70
     1
102
RTVSPost2010Prop55
280
     0
102
RTVSPost2010PropOp55
 70
     1
102
RTVSPost2010Prop56
140
1.0
102
RTVSPost2010PropOp56
 70
     1
102
RTVSPost2010Prop57
140
1.0
102
RTVSPost2010PropOp57
 70
     1
102
RTVSPropertyOp0
 70
     1
102
RTVSPropertyOp1
 70
     1
102
RTVSPropertyOp2
 70
     1
102
RTVSPropertyOp3
 70
     1
102
RTVSPropertyOp4
 70
     1
102
RTVSPropertyOp5
 70
     1
102
RTVSPropertyOp6
 70
     1
102
RTVSPropertyOp7
 70
     1
102
RTVSPropertyOp8
 70
     1
102
RTVSPropertyOp9
 70
     1
102
RTVSPropertyOp10
 70
     1
102
RTVSPropertyOp11
 70
     1
102
RTVSPropertyOp12
 70
     1
102
RTVSPropertyOp13
 70
     1
102
RTVSPropertyOp14
 70
     1
102
RTVSPropertyOp15
 70
     1
102
RTVSPropertyOp16
 70
     1
102
RTVSPropertyOp17
 70
     1
102
RTVSPropertyOp18
 70
     1
102
RTVSPropertyOp19
 70
     1
102
RTVSPropertyOp20
 70
     1
102
RTVSPropertyOp21
 70
     1
102
RTVSPropertyOp22
 70
     1
102
RTVSPropertyOp23
 70
     1
102
RTVSPropertyOp24
 70
     1
102
RTVSPropertyOp25
 70
     1
102
RTVSPropertyOp26
 70
     1
102
RTVSPropertyOp27
 70
     1
102
RTVSPropertyOp28
 70
     1
102
RTVSPropertyOp29
 70
     1
102
RTVSPropertyOp30
 70
     1
102
RTVSPropertyOp31
 70
     1
102
RTVSPropertyOp32
 70
     1
102
RTVSPropertyOp33
 70
     1
102
RTVSPropertyOp34
 70
     1
102
RTVSPropertyOp35
 70
     1
102
RTVSPropertyOp36
 70
     1
102
RTVSPropertyOp37
 70
     1
102
RTVSPropertyOp38
 70
     1
102
RTVSPropertyOp39
 70
     1
102
RTVSPropertyOp40
 70
     1
102
RTVSPropertyOp41
 70
     1
102
RTVSPropertyOp42
 70
     1
102
RTVSPropertyOp43
 70
     1
102
RTVSPropertyOp44
 70
     1
102
RTVSPropertyOp45
 70
     1
102
RTVSPropertyOp46
 70
     1
102
RTVSPropertyOp47
 70
     1
102
RTVSPropertyOp48
 70
     1
102
RTVSPropertyOp49
 70
     1
102
RTVSPropertyOp50
 70
     1
102
RTVSPropertyOp51
 70
     0
102
RTVSPropertyOp52
 70
     0
102
RTVSPropertyOp53
 70
     1
102
RTVSPropertyOp54
 70
     1
102
RTVSPropertyOp55
 70
     1
102
RTVSPropertyOp56
 70
     1
102
RTVSPropertyOp57
 70
     1
102
RTVSPropertyOp58
 70
     1
102
RTVSPropertyOp59
 70
     1
102
RTVSPropertyOp60
 70
     1
102
RTVSPropertyOp61
 70
     1
102
RTVSPropertyOp62
 70
     1
  0
XRECORD
  5
47F7
102
{ACAD_REACTORS
330
47F6
102
}
330
47F6
100
AcDbXrecord
280
     1
102
RTVSPost2010Prop28
280
     0
102
RTVSPost2010PropOp28
 70
     1
102
RTVSPost2010Prop29
280
     1
102
RTVSPost2010PropOp29
 70
     1
102
RTVSPost2010Prop30
280
     1
102
RTVSPost2010PropOp30
 70
     1
102
RTVSPost2010Prop31
280
     0
102
RTVSPost2010PropOp31
 70
     1
102
RTVSPost2010Prop32
280
     0
102
RTVSPost2010PropOp32
 70
     1
102
RTVSPost2010Prop33
280
     0
102
RTVSPost2010PropOp33
 70
     1
102
RTVSPost2010Prop34
280
     0
102
RTVSPost2010PropOp34
 70
     1
102
RTVSPost2010Prop35
280
     0
102
RTVSPost2010PropOp35
 70
     1
102
RTVSPost2010Prop36
280
     0
102
RTVSPost2010PropOp36
 70
     1
102
RTVSPost2010Prop37
 90
       50
102
RTVSPost2010PropOp37
 70
     1
102
RTVSPost2010Prop38
140
0.0
102
RTVSPost2010PropOp38
 70
     1
102
RTVSPost2010Prop39
140
1.0
102
RTVSPost2010PropOp39
 70
     1
102
RTVSPost2010Prop40
 90
        0
102
RTVSPost2010PropOp40
 70
     1
102
RTVSPost2010Prop41ColorIndex
 90
       18
102
RTVSPost2010Prop41ColorRGB
 90
        0
102
RTVSPost2010PropOp41
 70
     1
102
RTVSPost2010Prop42
 90
       50
102
RTVSPost2010PropOp42
 70
     1
102
RTVSPost2010Prop43
 90
        3
102
RTVSPost2010PropOp43
 70
     1
102
RTVSPost2010Prop44ColorIndex
 90
        5
102
RTVSPost2010Prop44ColorRGB
 90
      255
102
RTVSPost2010PropOp44
 70
     1
102
RTVSPost2010Prop45
280
     0
102
RTVSPost2010PropOp45
 70
     1
102
RTVSPost2010Prop46
 90
       50
102
RTVSPost2010PropOp46
 70
     1
102
RTVSPost2010Prop47
 90
       50
102
RTVSPost2010PropOp47
 70
     1
102
RTVSPost2010Prop48
 90
       50
102
RTVSPost2010PropOp48
 70
     1
102
RTVSPost2010Prop49
280
     0
102
RTVSPost2010PropOp49
 70
     1
102
RTVSPost2010Prop50
 90
       50
102
RTVSPost2010PropOp50
 70
     1
102
RTVSPost2010Prop51ColorIndex
 90
      256
102
RTVSPost2010Prop51ColorRGB
 90
-16777216
102
RTVSPost2010PropOp51
 70
     0
102
RTVSPost2010Prop52
140
1.0
102
RTVSPost2010PropOp52
 70
     0
102
RTVSPost2010Prop53
 90
        2
102
RTVSPost2010PropOp53
 70
     1
102
RTVSPost2010Prop54
  1
strokes_ogs.tif
102
RTVSPost2010PropOp54
 70
     1
102
RTVSPost2010Prop55
280
     0
102
RTVSPost2010PropOp55
 70
     1
102
RTVSPost2010Prop56
140
1.0
102
RTVSPost2010PropOp56
 70
     1
102
RTVSPost2010Prop57
140
1.0
102
RTVSPost2010PropOp57
 70
     1
102
RTVSPropertyOp0
 70
     1
102
RTVSPropertyOp1
 70
     1
102
RTVSPropertyOp2
 70
     1
102
RTVSPropertyOp3
 70
     1
102
RTVSPropertyOp4
 70
     1
102
RTVSPropertyOp5
 70
     1
102
RTVSPropertyOp6
 70
     1
102
RTVSPropertyOp7
 70
     1
102
RTVSPropertyOp8
 70
     1
102
RTVSPropertyOp9
 70
     1
102
RTVSPropertyOp10
 70
     1
102
RTVSPropertyOp11
 70
     1
102
RTVSPropertyOp12
 70
     1
102
RTVSPropertyOp13
 70
     1
102
RTVSPropertyOp14
 70
     1
102
RTVSPropertyOp15
 70
     1
102
RTVSPropertyOp16
 70
     1
102
RTVSPropertyOp17
 70
     1
102
RTVSPropertyOp18
 70
     1
102
RTVSPropertyOp19
 70
     1
102
RTVSPropertyOp20
 70
     1
102
RTVSPropertyOp21
 70
     1
102
RTVSPropertyOp22
 70
     1
102
RTVSPropertyOp23
 70
     1
102
RTVSPropertyOp24
 70
     1
102
RTVSPropertyOp25
 70
     1
102
RTVSPropertyOp26
 70
     1
102
RTVSPropertyOp27
 70
     1
102
RTVSPropertyOp28
 70
     1
102
RTVSPropertyOp29
 70
     1
102
RTVSPropertyOp30
 70
     1
102
RTVSPropertyOp31
 70
     1
102
RTVSPropertyOp32
 70
     1
102
RTVSPropertyOp33
 70
     1
102
RTVSPropertyOp34
 70
     1
102
RTVSPropertyOp35
 70
     1
102
RTVSPropertyOp36
 70
     1
102
RTVSPropertyOp37
 70
     1
102
RTVSPropertyOp38
 70
     1
102
RTVSPropertyOp39
 70
     1
102
RTVSPropertyOp40
 70
     1
102
RTVSPropertyOp41
 70
     1
102
RTVSPropertyOp42
 70
     1
102
RTVSPropertyOp43
 70
     1
102
RTVSPropertyOp44
 70
     1
102
RTVSPropertyOp45
 70
     1
102
RTVSPropertyOp46
 70
     1
102
RTVSPropertyOp47
 70
     1
102
RTVSPropertyOp48
 70
     1
102
RTVSPropertyOp49
 70
     1
102
RTVSPropertyOp50
 70
     1
102
RTVSPropertyOp51
 70
     0
102
RTVSPropertyOp52
 70
     0
102
RTVSPropertyOp53
 70
     1
102
RTVSPropertyOp54
 70
     1
102
RTVSPropertyOp55
 70
     1
102
RTVSPropertyOp56
 70
     1
102
RTVSPropertyOp57
 70
     1
102
RTVSPropertyOp58
 70
     1
102
RTVSPropertyOp59
 70
     1
102
RTVSPropertyOp60
 70
     1
102
RTVSPropertyOp61
 70
     1
102
RTVSPropertyOp62
 70
     1
  0
XRECORD
  5
47E9
102
{ACAD_REACTORS
330
47E8
102
}
330
47E8
100
AcDbXrecord
280
     1
102
RTVSPost2010Prop28
280
     0
102
RTVSPost2010PropOp28
 70
     1
102
RTVSPost2010Prop29
280
     1
102
RTVSPost2010PropOp29
 70
     1
102
RTVSPost2010Prop30
280
     1
102
RTVSPost2010PropOp30
 70
     1
102
RTVSPost2010Prop31
280
     0
102
RTVSPost2010PropOp31
 70
     1
102
RTVSPost2010Prop32
280
     0
102
RTVSPost2010PropOp32
 70
     1
102
RTVSPost2010Prop33
280
     0
102
RTVSPost2010PropOp33
 70
     1
102
RTVSPost2010Prop34
280
     0
102
RTVSPost2010PropOp34
 70
     1
102
RTVSPost2010Prop35
280
     0
102
RTVSPost2010PropOp35
 70
     1
102
RTVSPost2010Prop36
280
     0
102
RTVSPost2010PropOp36
 70
     1
102
RTVSPost2010Prop37
 90
       50
102
RTVSPost2010PropOp37
 70
     1
102
RTVSPost2010Prop38
140
0.0
102
RTVSPost2010PropOp38
 70
     1
102
RTVSPost2010Prop39
140
1.0
102
RTVSPost2010PropOp39
 70
     1
102
RTVSPost2010Prop40
 90
        0
102
RTVSPost2010PropOp40
 70
     1
102
RTVSPost2010Prop41ColorIndex
 90
       18
102
RTVSPost2010Prop41ColorRGB
 90
        0
102
RTVSPost2010PropOp41
 70
     1
102
RTVSPost2010Prop42
 90
       50
102
RTVSPost2010PropOp42
 70
     1
102
RTVSPost2010Prop43
 90
        3
102
RTVSPost2010PropOp43
 70
     1
102
RTVSPost2010Prop44ColorIndex
 90
        5
102
RTVSPost2010Prop44ColorRGB
 90
      255
102
RTVSPost2010PropOp44
 70
     1
102
RTVSPost2010Prop45
280
     0
102
RTVSPost2010PropOp45
 70
     1
102
RTVSPost2010Prop46
 90
       50
102
RTVSPost2010PropOp46
 70
     1
102
RTVSPost2010Prop47
 90
       50
102
RTVSPost2010PropOp47
 70
     1
102
RTVSPost2010Prop48
 90
       50
102
RTVSPost2010PropOp48
 70
     1
102
RTVSPost2010Prop49
280
     0
102
RTVSPost2010PropOp49
 70
     1
102
RTVSPost2010Prop50
 90
       50
102
RTVSPost2010PropOp50
 70
     1
102
RTVSPost2010Prop51ColorIndex
 90
      256
102
RTVSPost2010Prop51ColorRGB
 90
-16777216
102
RTVSPost2010PropOp51
 70
     0
102
RTVSPost2010Prop52
140
1.0
102
RTVSPost2010PropOp52
 70
     0
102
RTVSPost2010Prop53
 90
        2
102
RTVSPost2010PropOp53
 70
     1
102
RTVSPost2010Prop54
  1
strokes_ogs.tif
102
RTVSPost2010PropOp54
 70
     1
102
RTVSPost2010Prop55
280
     0
102
RTVSPost2010PropOp55
 70
     1
102
RTVSPost2010Prop56
140
1.0
102
RTVSPost2010PropOp56
 70
     1
102
RTVSPost2010Prop57
140
1.0
102
RTVSPost2010PropOp57
 70
     1
102
RTVSPropertyOp0
 70
     1
102
RTVSPropertyOp1
 70
     1
102
RTVSPropertyOp2
 70
     1
102
RTVSPropertyOp3
 70
     1
102
RTVSPropertyOp4
 70
     1
102
RTVSPropertyOp5
 70
     1
102
RTVSPropertyOp6
 70
     1
102
RTVSPropertyOp7
 70
     1
102
RTVSPropertyOp8
 70
     1
102
RTVSPropertyOp9
 70
     1
102
RTVSPropertyOp10
 70
     1
102
RTVSPropertyOp11
 70
     1
102
RTVSPropertyOp12
 70
     1
102
RTVSPropertyOp13
 70
     1
102
RTVSPropertyOp14
 70
     1
102
RTVSPropertyOp15
 70
     1
102
RTVSPropertyOp16
 70
     1
102
RTVSPropertyOp17
 70
     1
102
RTVSPropertyOp18
 70
     1
102
RTVSPropertyOp19
 70
     1
102
RTVSPropertyOp20
 70
     1
102
RTVSPropertyOp21
 70
     1
102
RTVSPropertyOp22
 70
     1
102
RTVSPropertyOp23
 70
     1
102
RTVSPropertyOp24
 70
     1
102
RTVSPropertyOp25
 70
     1
102
RTVSPropertyOp26
 70
     1
102
RTVSPropertyOp27
 70
     1
102
RTVSPropertyOp28
 70
     1
102
RTVSPropertyOp29
 70
     1
102
RTVSPropertyOp30
 70
     1
102
RTVSPropertyOp31
 70
     1
102
RTVSPropertyOp32
 70
     1
102
RTVSPropertyOp33
 70
     1
102
RTVSPropertyOp34
 70
     1
102
RTVSPropertyOp35
 70
     1
102
RTVSPropertyOp36
 70
     1
102
RTVSPropertyOp37
 70
     1
102
RTVSPropertyOp38
 70
     1
102
RTVSPropertyOp39
 70
     1
102
RTVSPropertyOp40
 70
     1
102
RTVSPropertyOp41
 70
     1
102
RTVSPropertyOp42
 70
     1
102
RTVSPropertyOp43
 70
     1
102
RTVSPropertyOp44
 70
     1
102
RTVSPropertyOp45
 70
     1
102
RTVSPropertyOp46
 70
     1
102
RTVSPropertyOp47
 70
     1
102
RTVSPropertyOp48
 70
     1
102
RTVSPropertyOp49
 70
     1
102
RTVSPropertyOp50
 70
     1
102
RTVSPropertyOp51
 70
     0
102
RTVSPropertyOp52
 70
     0
102
RTVSPropertyOp53
 70
     1
102
RTVSPropertyOp54
 70
     1
102
RTVSPropertyOp55
 70
     1
102
RTVSPropertyOp56
 70
     1
102
RTVSPropertyOp57
 70
     1
102
RTVSPropertyOp58
 70
     1
102
RTVSPropertyOp59
 70
     1
102
RTVSPropertyOp60
 70
     1
102
RTVSPropertyOp61
 70
     1
102
RTVSPropertyOp62
 70
     1
  0
XRECORD
  5
47ED
102
{ACAD_REACTORS
330
47EC
102
}
330
47EC
100
AcDbXrecord
280
     1
102
RTVSPost2010Prop28
280
     0
102
RTVSPost2010PropOp28
 70
     1
102
RTVSPost2010Prop29
280
     1
102
RTVSPost2010PropOp29
 70
     1
102
RTVSPost2010Prop30
280
     1
102
RTVSPost2010PropOp30
 70
     1
102
RTVSPost2010Prop31
280
     0
102
RTVSPost2010PropOp31
 70
     1
102
RTVSPost2010Prop32
280
     0
102
RTVSPost2010PropOp32
 70
     1
102
RTVSPost2010Prop33
280
     0
102
RTVSPost2010PropOp33
 70
     1
102
RTVSPost2010Prop34
280
     0
102
RTVSPost2010PropOp34
 70
     1
102
RTVSPost2010Prop35
280
     0
102
RTVSPost2010PropOp35
 70
     1
102
RTVSPost2010Prop36
280
     0
102
RTVSPost2010PropOp36
 70
     1
102
RTVSPost2010Prop37
 90
       50
102
RTVSPost2010PropOp37
 70
     1
102
RTVSPost2010Prop38
140
0.0
102
RTVSPost2010PropOp38
 70
     1
102
RTVSPost2010Prop39
140
1.0
102
RTVSPost2010PropOp39
 70
     1
102
RTVSPost2010Prop40
 90
        0
102
RTVSPost2010PropOp40
 70
     1
102
RTVSPost2010Prop41ColorIndex
 90
       18
102
RTVSPost2010Prop41ColorRGB
 90
        0
102
RTVSPost2010PropOp41
 70
     1
102
RTVSPost2010Prop42
 90
       50
102
RTVSPost2010PropOp42
 70
     1
102
RTVSPost2010Prop43
 90
        3
102
RTVSPost2010PropOp43
 70
     1
102
RTVSPost2010Prop44ColorIndex
 90
        5
102
RTVSPost2010Prop44ColorRGB
 90
      255
102
RTVSPost2010PropOp44
 70
     1
102
RTVSPost2010Prop45
280
     0
102
RTVSPost2010PropOp45
 70
     1
102
RTVSPost2010Prop46
 90
       50
102
RTVSPost2010PropOp46
 70
     1
102
RTVSPost2010Prop47
 90
       50
102
RTVSPost2010PropOp47
 70
     1
102
RTVSPost2010Prop48
 90
       50
102
RTVSPost2010PropOp48
 70
     1
102
RTVSPost2010Prop49
280
     0
102
RTVSPost2010PropOp49
 70
     1
102
RTVSPost2010Prop50
 90
       50
102
RTVSPost2010PropOp50
 70
     1
102
RTVSPost2010Prop51ColorIndex
 90
      256
102
RTVSPost2010Prop51ColorRGB
 90
-16777216
102
RTVSPost2010PropOp51
 70
     0
102
RTVSPost2010Prop52
140
1.0
102
RTVSPost2010PropOp52
 70
     0
102
RTVSPost2010Prop53
 90
        2
102
RTVSPost2010PropOp53
 70
     1
102
RTVSPost2010Prop54
  1
strokes_ogs.tif
102
RTVSPost2010PropOp54
 70
     1
102
RTVSPost2010Prop55
280
     0
102
RTVSPost2010PropOp55
 70
     1
102
RTVSPost2010Prop56
140
1.0
102
RTVSPost2010PropOp56
 70
     1
102
RTVSPost2010Prop57
140
1.0
102
RTVSPost2010PropOp57
 70
     1
102
RTVSPropertyOp0
 70
     1
102
RTVSPropertyOp1
 70
     1
102
RTVSPropertyOp2
 70
     1
102
RTVSPropertyOp3
 70
     1
102
RTVSPropertyOp4
 70
     1
102
RTVSPropertyOp5
 70
     1
102
RTVSPropertyOp6
 70
     1
102
RTVSPropertyOp7
 70
     1
102
RTVSPropertyOp8
 70
     1
102
RTVSPropertyOp9
 70
     1
102
RTVSPropertyOp10
 70
     1
102
RTVSPropertyOp11
 70
     1
102
RTVSPropertyOp12
 70
     1
102
RTVSPropertyOp13
 70
     1
102
RTVSPropertyOp14
 70
     1
102
RTVSPropertyOp15
 70
     1
102
RTVSPropertyOp16
 70
     1
102
RTVSPropertyOp17
 70
     1
102
RTVSPropertyOp18
 70
     1
102
RTVSPropertyOp19
 70
     1
102
RTVSPropertyOp20
 70
     1
102
RTVSPropertyOp21
 70
     1
102
RTVSPropertyOp22
 70
     1
102
RTVSPropertyOp23
 70
     1
102
RTVSPropertyOp24
 70
     1
102
RTVSPropertyOp25
 70
     1
102
RTVSPropertyOp26
 70
     1
102
RTVSPropertyOp27
 70
     1
102
RTVSPropertyOp28
 70
     1
102
RTVSPropertyOp29
 70
     1
102
RTVSPropertyOp30
 70
     1
102
RTVSPropertyOp31
 70
     1
102
RTVSPropertyOp32
 70
     1
102
RTVSPropertyOp33
 70
     1
102
RTVSPropertyOp34
 70
     1
102
RTVSPropertyOp35
 70
     1
102
RTVSPropertyOp36
 70
     1
102
RTVSPropertyOp37
 70
     1
102
RTVSPropertyOp38
 70
     1
102
RTVSPropertyOp39
 70
     1
102
RTVSPropertyOp40
 70
     1
102
RTVSPropertyOp41
 70
     1
102
RTVSPropertyOp42
 70
     1
102
RTVSPropertyOp43
 70
     1
102
RTVSPropertyOp44
 70
     1
102
RTVSPropertyOp45
 70
     1
102
RTVSPropertyOp46
 70
     1
102
RTVSPropertyOp47
 70
     1
102
RTVSPropertyOp48
 70
     1
102
RTVSPropertyOp49
 70
     1
102
RTVSPropertyOp50
 70
     1
102
RTVSPropertyOp51
 70
     0
102
RTVSPropertyOp52
 70
     0
102
RTVSPropertyOp53
 70
     1
102
RTVSPropertyOp54
 70
     1
102
RTVSPropertyOp55
 70
     1
102
RTVSPropertyOp56
 70
     1
102
RTVSPropertyOp57
 70
     1
102
RTVSPropertyOp58
 70
     1
102
RTVSPropertyOp59
 70
     1
102
RTVSPropertyOp60
 70
     1
102
RTVSPropertyOp61
 70
     1
102
RTVSPropertyOp62
 70
     1
  0
XRECORD
  5
47FF
102
{ACAD_REACTORS
330
47FE
102
}
330
47FE
100
AcDbXrecord
280
     1
102
RTVSPost2010Prop28
280
     0
102
RTVSPost2010PropOp28
 70
     1
102
RTVSPost2010Prop29
280
     1
102
RTVSPost2010PropOp29
 70
     1
102
RTVSPost2010Prop30
280
     1
102
RTVSPost2010PropOp30
 70
     1
102
RTVSPost2010Prop31
280
     0
102
RTVSPost2010PropOp31
 70
     1
102
RTVSPost2010Prop32
280
     0
102
RTVSPost2010PropOp32
 70
     1
102
RTVSPost2010Prop33
280
     0
102
RTVSPost2010PropOp33
 70
     1
102
RTVSPost2010Prop34
280
     0
102
RTVSPost2010PropOp34
 70
     1
102
RTVSPost2010Prop35
280
     0
102
RTVSPost2010PropOp35
 70
     1
102
RTVSPost2010Prop36
280
     0
102
RTVSPost2010PropOp36
 70
     1
102
RTVSPost2010Prop37
 90
       50
102
RTVSPost2010PropOp37
 70
     1
102
RTVSPost2010Prop38
140
0.0
102
RTVSPost2010PropOp38
 70
     1
102
RTVSPost2010Prop39
140
1.0
102
RTVSPost2010PropOp39
 70
     1
102
RTVSPost2010Prop40
 90
        0
102
RTVSPost2010PropOp40
 70
     1
102
RTVSPost2010Prop41ColorIndex
 90
       18
102
RTVSPost2010Prop41ColorRGB
 90
        0
102
RTVSPost2010PropOp41
 70
     1
102
RTVSPost2010Prop42
 90
       50
102
RTVSPost2010PropOp42
 70
     1
102
RTVSPost2010Prop43
 90
        3
102
RTVSPost2010PropOp43
 70
     1
102
RTVSPost2010Prop44ColorIndex
 90
        5
102
RTVSPost2010Prop44ColorRGB
 90
      255
102
RTVSPost2010PropOp44
 70
     1
102
RTVSPost2010Prop45
280
     0
102
RTVSPost2010PropOp45
 70
     1
102
RTVSPost2010Prop46
 90
       50
102
RTVSPost2010PropOp46
 70
     1
102
RTVSPost2010Prop47
 90
       50
102
RTVSPost2010PropOp47
 70
     1
102
RTVSPost2010Prop48
 90
       50
102
RTVSPost2010PropOp48
 70
     1
102
RTVSPost2010Prop49
280
     0
102
RTVSPost2010PropOp49
 70
     1
102
RTVSPost2010Prop50
 90
       50
102
RTVSPost2010PropOp50
 70
     1
102
RTVSPost2010Prop51ColorIndex
 90
      256
102
RTVSPost2010Prop51ColorRGB
 90
-16777216
102
RTVSPost2010PropOp51
 70
     0
102
RTVSPost2010Prop52
140
1.0
102
RTVSPost2010PropOp52
 70
     0
102
RTVSPost2010Prop53
 90
        2
102
RTVSPost2010PropOp53
 70
     1
102
RTVSPost2010Prop54
  1
strokes_ogs.tif
102
RTVSPost2010PropOp54
 70
     1
102
RTVSPost2010Prop55
280
     0
102
RTVSPost2010PropOp55
 70
     1
102
RTVSPost2010Prop56
140
1.0
102
RTVSPost2010PropOp56
 70
     1
102
RTVSPost2010Prop57
140
1.0
102
RTVSPost2010PropOp57
 70
     1
102
RTVSPropertyOp0
 70
     0
102
RTVSPropertyOp1
 70
     0
102
RTVSPropertyOp2
 70
     0
102
RTVSPropertyOp3
 70
     0
102
RTVSPropertyOp4
 70
     0
102
RTVSPropertyOp5
 70
     0
102
RTVSPropertyOp6
 70
     0
102
RTVSPropertyOp7
 70
     0
102
RTVSPropertyOp8
 70
     0
102
RTVSPropertyOp9
 70
     0
102
RTVSPropertyOp10
 70
     0
102
RTVSPropertyOp11
 70
     0
102
RTVSPropertyOp12
 70
     0
102
RTVSPropertyOp13
 70
     0
102
RTVSPropertyOp14
 70
     2
102
RTVSPropertyOp15
 70
     0
102
RTVSPropertyOp16
 70
     0
102
RTVSPropertyOp17
 70
     0
102
RTVSPropertyOp18
 70
     0
102
RTVSPropertyOp19
 70
     0
102
RTVSPropertyOp20
 70
     0
102
RTVSPropertyOp21
 70
     0
102
RTVSPropertyOp22
 70
     0
102
RTVSPropertyOp23
 70
     0
102
RTVSPropertyOp24
 70
     0
102
RTVSPropertyOp25
 70
     0
102
RTVSPropertyOp26
 70
     0
102
RTVSPropertyOp27
 70
     0
102
RTVSPropertyOp28
 70
     1
102
RTVSPropertyOp29
 70
     1
102
RTVSPropertyOp30
 70
     1
102
RTVSPropertyOp31
 70
     1
102
RTVSPropertyOp32
 70
     1
102
RTVSPropertyOp33
 70
     1
102
RTVSPropertyOp34
 70
     1
102
RTVSPropertyOp35
 70
     1
102
RTVSPropertyOp36
 70
     1
102
RTVSPropertyOp37
 70
     1
102
RTVSPropertyOp38
 70
     1
102
RTVSPropertyOp39
 70
     1
102
RTVSPropertyOp40
 70
     1
102
RTVSPropertyOp41
 70
     1
102
RTVSPropertyOp42
 70
     1
102
RTVSPropertyOp43
 70
     1
102
RTVSPropertyOp44
 70
     1
102
RTVSPropertyOp45
 70
     1
102
RTVSPropertyOp46
 70
     1
102
RTVSPropertyOp47
 70
     1
102
RTVSPropertyOp48
 70
     1
102
RTVSPropertyOp49
 70
     1
102
RTVSPropertyOp50
 70
     1
102
RTVSPropertyOp51
 70
     0
102
RTVSPropertyOp52
 70
     0
102
RTVSPropertyOp53
 70
     1
102
RTVSPropertyOp54
 70
     1
102
RTVSPropertyOp55
 70
     1
102
RTVSPropertyOp56
 70
     1
102
RTVSPropertyOp57
 70
     1
102
RTVSPropertyOp58
 70
     1
102
RTVSPropertyOp59
 70
     1
102
RTVSPropertyOp60
 70
     1
102
RTVSPropertyOp61
 70
     1
102
RTVSPropertyOp62
 70
     1
  0
XRECORD
  5
47F5
102
{ACAD_REACTORS
330
47F4
102
}
330
47F4
100
AcDbXrecord
280
     1
102
RTVSPost2010Prop28
280
     0
102
RTVSPost2010PropOp28
 70
     1
102
RTVSPost2010Prop29
280
     1
102
RTVSPost2010PropOp29
 70
     1
102
RTVSPost2010Prop30
280
     1
102
RTVSPost2010PropOp30
 70
     1
102
RTVSPost2010Prop31
280
     0
102
RTVSPost2010PropOp31
 70
     1
102
RTVSPost2010Prop32
280
     0
102
RTVSPost2010PropOp32
 70
     1
102
RTVSPost2010Prop33
280
     0
102
RTVSPost2010PropOp33
 70
     1
102
RTVSPost2010Prop34
280
     0
102
RTVSPost2010PropOp34
 70
     1
102
RTVSPost2010Prop35
280
     0
102
RTVSPost2010PropOp35
 70
     1
102
RTVSPost2010Prop36
280
     0
102
RTVSPost2010PropOp36
 70
     1
102
RTVSPost2010Prop37
 90
       50
102
RTVSPost2010PropOp37
 70
     1
102
RTVSPost2010Prop38
140
0.0
102
RTVSPost2010PropOp38
 70
     1
102
RTVSPost2010Prop39
140
1.0
102
RTVSPost2010PropOp39
 70
     1
102
RTVSPost2010Prop40
 90
        0
102
RTVSPost2010PropOp40
 70
     1
102
RTVSPost2010Prop41ColorIndex
 90
       18
102
RTVSPost2010Prop41ColorRGB
 90
        0
102
RTVSPost2010PropOp41
 70
     1
102
RTVSPost2010Prop42
 90
       50
102
RTVSPost2010PropOp42
 70
     1
102
RTVSPost2010Prop43
 90
        3
102
RTVSPost2010PropOp43
 70
     1
102
RTVSPost2010Prop44ColorIndex
 90
        5
102
RTVSPost2010Prop44ColorRGB
 90
      255
102
RTVSPost2010PropOp44
 70
     1
102
RTVSPost2010Prop45
280
     0
102
RTVSPost2010PropOp45
 70
     1
102
RTVSPost2010Prop46
 90
       50
102
RTVSPost2010PropOp46
 70
     1
102
RTVSPost2010Prop47
 90
       50
102
RTVSPost2010PropOp47
 70
     1
102
RTVSPost2010Prop48
 90
       50
102
RTVSPost2010PropOp48
 70
     1
102
RTVSPost2010Prop49
280
     0
102
RTVSPost2010PropOp49
 70
     1
102
RTVSPost2010Prop50
 90
       50
102
RTVSPost2010PropOp50
 70
     1
102
RTVSPost2010Prop51ColorIndex
 90
      256
102
RTVSPost2010Prop51ColorRGB
 90
-16777216
102
RTVSPost2010PropOp51
 70
     0
102
RTVSPost2010Prop52
140
1.0
102
RTVSPost2010PropOp52
 70
     0
102
RTVSPost2010Prop53
 90
        2
102
RTVSPost2010PropOp53
 70
     1
102
RTVSPost2010Prop54
  1
strokes_ogs.tif
102
RTVSPost2010PropOp54
 70
     1
102
RTVSPost2010Prop55
280
     0
102
RTVSPost2010PropOp55
 70
     1
102
RTVSPost2010Prop56
140
1.0
102
RTVSPost2010PropOp56
 70
     1
102
RTVSPost2010Prop57
140
1.0
102
RTVSPost2010PropOp57
 70
     1
102
RTVSPropertyOp0
 70
     1
102
RTVSPropertyOp1
 70
     1
102
RTVSPropertyOp2
 70
     1
102
RTVSPropertyOp3
 70
     1
102
RTVSPropertyOp4
 70
     1
102
RTVSPropertyOp5
 70
     1
102
RTVSPropertyOp6
 70
     1
102
RTVSPropertyOp7
 70
     1
102
RTVSPropertyOp8
 70
     1
102
RTVSPropertyOp9
 70
     1
102
RTVSPropertyOp10
 70
     1
102
RTVSPropertyOp11
 70
     1
102
RTVSPropertyOp12
 70
     1
102
RTVSPropertyOp13
 70
     1
102
RTVSPropertyOp14
 70
     1
102
RTVSPropertyOp15
 70
     1
102
RTVSPropertyOp16
 70
     1
102
RTVSPropertyOp17
 70
     1
102
RTVSPropertyOp18
 70
     1
102
RTVSPropertyOp19
 70
     1
102
RTVSPropertyOp20
 70
     1
102
RTVSPropertyOp21
 70
     1
102
RTVSPropertyOp22
 70
     1
102
RTVSPropertyOp23
 70
     1
102
RTVSPropertyOp24
 70
     1
102
RTVSPropertyOp25
 70
     1
102
RTVSPropertyOp26
 70
     1
102
RTVSPropertyOp27
 70
     1
102
RTVSPropertyOp28
 70
     1
102
RTVSPropertyOp29
 70
     1
102
RTVSPropertyOp30
 70
     1
102
RTVSPropertyOp31
 70
     1
102
RTVSPropertyOp32
 70
     1
102
RTVSPropertyOp33
 70
     1
102
RTVSPropertyOp34
 70
     1
102
RTVSPropertyOp35
 70
     1
102
RTVSPropertyOp36
 70
     1
102
RTVSPropertyOp37
 70
     1
102
RTVSPropertyOp38
 70
     1
102
RTVSPropertyOp39
 70
     1
102
RTVSPropertyOp40
 70
     1
102
RTVSPropertyOp41
 70
     1
102
RTVSPropertyOp42
 70
     1
102
RTVSPropertyOp43
 70
     1
102
RTVSPropertyOp44
 70
     1
102
RTVSPropertyOp45
 70
     1
102
RTVSPropertyOp46
 70
     1
102
RTVSPropertyOp47
 70
     1
102
RTVSPropertyOp48
 70
     1
102
RTVSPropertyOp49
 70
     1
102
RTVSPropertyOp50
 70
     1
102
RTVSPropertyOp51
 70
     0
102
RTVSPropertyOp52
 70
     0
102
RTVSPropertyOp53
 70
     1
102
RTVSPropertyOp54
 70
     1
102
RTVSPropertyOp55
 70
     1
102
RTVSPropertyOp56
 70
     1
102
RTVSPropertyOp57
 70
     1
102
RTVSPropertyOp58
 70
     1
102
RTVSPropertyOp59
 70
     1
102
RTVSPropertyOp60
 70
     1
102
RTVSPropertyOp61
 70
     1
102
RTVSPropertyOp62
 70
     1
  0
XRECORD
  5
47D9
102
{ACAD_REACTORS
330
47D8
102
}
330
47D8
100
AcDbXrecord
280
     1
102
RTVSPost2010Prop28
280
     0
102
RTVSPost2010PropOp28
 70
     1
102
RTVSPost2010Prop29
280
     1
102
RTVSPost2010PropOp29
 70
     1
102
RTVSPost2010Prop30
280
     1
102
RTVSPost2010PropOp30
 70
     1
102
RTVSPost2010Prop31
280
     0
102
RTVSPost2010PropOp31
 70
     1
102
RTVSPost2010Prop32
280
     0
102
RTVSPost2010PropOp32
 70
     1
102
RTVSPost2010Prop33
280
     0
102
RTVSPost2010PropOp33
 70
     1
102
RTVSPost2010Prop34
280
     0
102
RTVSPost2010PropOp34
 70
     1
102
RTVSPost2010Prop35
280
     0
102
RTVSPost2010PropOp35
 70
     1
102
RTVSPost2010Prop36
280
     0
102
RTVSPost2010PropOp36
 70
     1
102
RTVSPost2010Prop37
 90
       50
102
RTVSPost2010PropOp37
 70
     1
102
RTVSPost2010Prop38
140
0.0
102
RTVSPost2010PropOp38
 70
     1
102
RTVSPost2010Prop39
140
1.0
102
RTVSPost2010PropOp39
 70
     1
102
RTVSPost2010Prop40
 90
        0
102
RTVSPost2010PropOp40
 70
     1
102
RTVSPost2010Prop41ColorIndex
 90
       18
102
RTVSPost2010Prop41ColorRGB
 90
        0
102
RTVSPost2010PropOp41
 70
     1
102
RTVSPost2010Prop42
 90
       50
102
RTVSPost2010PropOp42
 70
     1
102
RTVSPost2010Prop43
 90
        3
102
RTVSPost2010PropOp43
 70
     1
102
RTVSPost2010Prop44ColorIndex
 90
        5
102
RTVSPost2010Prop44ColorRGB
 90
      255
102
RTVSPost2010PropOp44
 70
     1
102
RTVSPost2010Prop45
280
     0
102
RTVSPost2010PropOp45
 70
     1
102
RTVSPost2010Prop46
 90
       50
102
RTVSPost2010PropOp46
 70
     1
102
RTVSPost2010Prop47
 90
       50
102
RTVSPost2010PropOp47
 70
     1
102
RTVSPost2010Prop48
 90
       50
102
RTVSPost2010PropOp48
 70
     1
102
RTVSPost2010Prop49
280
     0
102
RTVSPost2010PropOp49
 70
     1
102
RTVSPost2010Prop50
 90
       50
102
RTVSPost2010PropOp50
 70
     1
102
RTVSPost2010Prop51ColorIndex
 90
      256
102
RTVSPost2010Prop51ColorRGB
 90
-16777216
102
RTVSPost2010PropOp51
 70
     0
102
RTVSPost2010Prop52
140
1.0
102
RTVSPost2010PropOp52
 70
     0
102
RTVSPost2010Prop53
 90
        2
102
RTVSPost2010PropOp53
 70
     1
102
RTVSPost2010Prop54
  1
strokes_ogs.tif
102
RTVSPost2010PropOp54
 70
     1
102
RTVSPost2010Prop55
280
     0
102
RTVSPost2010PropOp55
 70
     1
102
RTVSPost2010Prop56
140
1.0
102
RTVSPost2010PropOp56
 70
     1
102
RTVSPost2010Prop57
140
1.0
102
RTVSPost2010PropOp57
 70
     1
102
RTVSPropertyOp0
 70
     1
102
RTVSPropertyOp1
 70
     1
102
RTVSPropertyOp2
 70
     1
102
RTVSPropertyOp3
 70
     1
102
RTVSPropertyOp4
 70
     1
102
RTVSPropertyOp5
 70
     1
102
RTVSPropertyOp6
 70
     1
102
RTVSPropertyOp7
 70
     1
102
RTVSPropertyOp8
 70
     1
102
RTVSPropertyOp9
 70
     1
102
RTVSPropertyOp10
 70
     1
102
RTVSPropertyOp11
 70
     1
102
RTVSPropertyOp12
 70
     1
102
RTVSPropertyOp13
 70
     1
102
RTVSPropertyOp14
 70
     1
102
RTVSPropertyOp15
 70
     1
102
RTVSPropertyOp16
 70
     1
102
RTVSPropertyOp17
 70
     1
102
RTVSPropertyOp18
 70
     1
102
RTVSPropertyOp19
 70
     1
102
RTVSPropertyOp20
 70
     1
102
RTVSPropertyOp21
 70
     1
102
RTVSPropertyOp22
 70
     1
102
RTVSPropertyOp23
 70
     1
102
RTVSPropertyOp24
 70
     1
102
RTVSPropertyOp25
 70
     1
102
RTVSPropertyOp26
 70
     1
102
RTVSPropertyOp27
 70
     1
102
RTVSPropertyOp28
 70
     1
102
RTVSPropertyOp29
 70
     1
102
RTVSPropertyOp30
 70
     1
102
RTVSPropertyOp31
 70
     1
102
RTVSPropertyOp32
 70
     1
102
RTVSPropertyOp33
 70
     1
102
RTVSPropertyOp34
 70
     1
102
RTVSPropertyOp35
 70
     1
102
RTVSPropertyOp36
 70
     1
102
RTVSPropertyOp37
 70
     1
102
RTVSPropertyOp38
 70
     1
102
RTVSPropertyOp39
 70
     1
102
RTVSPropertyOp40
 70
     1
102
RTVSPropertyOp41
 70
     1
102
RTVSPropertyOp42
 70
     1
102
RTVSPropertyOp43
 70
     1
102
RTVSPropertyOp44
 70
     1
102
RTVSPropertyOp45
 70
     1
102
RTVSPropertyOp46
 70
     1
102
RTVSPropertyOp47
 70
     1
102
RTVSPropertyOp48
 70
     1
102
RTVSPropertyOp49
 70
     1
102
RTVSPropertyOp50
 70
     1
102
RTVSPropertyOp51
 70
     0
102
RTVSPropertyOp52
 70
     0
102
RTVSPropertyOp53
 70
     1
102
RTVSPropertyOp54
 70
     1
102
RTVSPropertyOp55
 70
     1
102
RTVSPropertyOp56
 70
     1
102
RTVSPropertyOp57
 70
     1
102
RTVSPropertyOp58
 70
     1
102
RTVSPropertyOp59
 70
     1
102
RTVSPropertyOp60
 70
     1
102
RTVSPropertyOp61
 70
     1
102
RTVSPropertyOp62
 70
     1
  0
XRECORD
  5
47DB
102
{ACAD_REACTORS
330
47DA
102
}
330
47DA
100
AcDbXrecord
280
     1
102
RTVSPost2010Prop28
280
     0
102
RTVSPost2010PropOp28
 70
     1
102
RTVSPost2010Prop29
280
     1
102
RTVSPost2010PropOp29
 70
     1
102
RTVSPost2010Prop30
280
     1
102
RTVSPost2010PropOp30
 70
     1
102
RTVSPost2010Prop31
280
     0
102
RTVSPost2010PropOp31
 70
     1
102
RTVSPost2010Prop32
280
     0
102
RTVSPost2010PropOp32
 70
     1
102
RTVSPost2010Prop33
280
     0
102
RTVSPost2010PropOp33
 70
     1
102
RTVSPost2010Prop34
280
     0
102
RTVSPost2010PropOp34
 70
     1
102
RTVSPost2010Prop35
280
     0
102
RTVSPost2010PropOp35
 70
     1
102
RTVSPost2010Prop36
280
     0
102
RTVSPost2010PropOp36
 70
     1
102
RTVSPost2010Prop37
 90
       50
102
RTVSPost2010PropOp37
 70
     1
102
RTVSPost2010Prop38
140
0.0
102
RTVSPost2010PropOp38
 70
     1
102
RTVSPost2010Prop39
140
1.0
102
RTVSPost2010PropOp39
 70
     1
102
RTVSPost2010Prop40
 90
        0
102
RTVSPost2010PropOp40
 70
     1
102
RTVSPost2010Prop41ColorIndex
 90
       18
102
RTVSPost2010Prop41ColorRGB
 90
        0
102
RTVSPost2010PropOp41
 70
     1
102
RTVSPost2010Prop42
 90
       50
102
RTVSPost2010PropOp42
 70
     1
102
RTVSPost2010Prop43
 90
        3
102
RTVSPost2010PropOp43
 70
     1
102
RTVSPost2010Prop44ColorIndex
 90
        5
102
RTVSPost2010Prop44ColorRGB
 90
      255
102
RTVSPost2010PropOp44
 70
     1
102
RTVSPost2010Prop45
280
     0
102
RTVSPost2010PropOp45
 70
     1
102
RTVSPost2010Prop46
 90
       50
102
RTVSPost2010PropOp46
 70
     1
102
RTVSPost2010Prop47
 90
       50
102
RTVSPost2010PropOp47
 70
     1
102
RTVSPost2010Prop48
 90
       50
102
RTVSPost2010PropOp48
 70
     1
102
RTVSPost2010Prop49
280
     0
102
RTVSPost2010PropOp49
 70
     1
102
RTVSPost2010Prop50
 90
       50
102
RTVSPost2010PropOp50
 70
     1
102
RTVSPost2010Prop51ColorIndex
 90
      256
102
RTVSPost2010Prop51ColorRGB
 90
-16777216
102
RTVSPost2010PropOp51
 70
     0
102
RTVSPost2010Prop52
140
1.0
102
RTVSPost2010PropOp52
 70
     0
102
RTVSPost2010Prop53
 90
        2
102
RTVSPost2010PropOp53
 70
     1
102
RTVSPost2010Prop54
  1
strokes_ogs.tif
102
RTVSPost2010PropOp54
 70
     1
102
RTVSPost2010Prop55
280
     0
102
RTVSPost2010PropOp55
 70
     1
102
RTVSPost2010Prop56
140
1.0
102
RTVSPost2010PropOp56
 70
     1
102
RTVSPost2010Prop57
140
1.0
102
RTVSPost2010PropOp57
 70
     1
102
RTVSPropertyOp0
 70
     1
102
RTVSPropertyOp1
 70
     1
102
RTVSPropertyOp2
 70
     1
102
RTVSPropertyOp3
 70
     1
102
RTVSPropertyOp4
 70
     1
102
RTVSPropertyOp5
 70
     1
102
RTVSPropertyOp6
 70
     1
102
RTVSPropertyOp7
 70
     1
102
RTVSPropertyOp8
 70
     1
102
RTVSPropertyOp9
 70
     1
102
RTVSPropertyOp10
 70
     1
102
RTVSPropertyOp11
 70
     1
102
RTVSPropertyOp12
 70
     1
102
RTVSPropertyOp13
 70
     1
102
RTVSPropertyOp14
 70
     1
102
RTVSPropertyOp15
 70
     1
102
RTVSPropertyOp16
 70
     1
102
RTVSPropertyOp17
 70
     1
102
RTVSPropertyOp18
 70
     1
102
RTVSPropertyOp19
 70
     1
102
RTVSPropertyOp20
 70
     1
102
RTVSPropertyOp21
 70
     1
102
RTVSPropertyOp22
 70
     1
102
RTVSPropertyOp23
 70
     1
102
RTVSPropertyOp24
 70
     1
102
RTVSPropertyOp25
 70
     1
102
RTVSPropertyOp26
 70
     1
102
RTVSPropertyOp27
 70
     1
102
RTVSPropertyOp28
 70
     1
102
RTVSPropertyOp29
 70
     1
102
RTVSPropertyOp30
 70
     1
102
RTVSPropertyOp31
 70
     1
102
RTVSPropertyOp32
 70
     1
102
RTVSPropertyOp33
 70
     1
102
RTVSPropertyOp34
 70
     1
102
RTVSPropertyOp35
 70
     1
102
RTVSPropertyOp36
 70
     1
102
RTVSPropertyOp37
 70
     1
102
RTVSPropertyOp38
 70
     1
102
RTVSPropertyOp39
 70
     1
102
RTVSPropertyOp40
 70
     1
102
RTVSPropertyOp41
 70
     1
102
RTVSPropertyOp42
 70
     1
102
RTVSPropertyOp43
 70
     1
102
RTVSPropertyOp44
 70
     1
102
RTVSPropertyOp45
 70
     1
102
RTVSPropertyOp46
 70
     1
102
RTVSPropertyOp47
 70
     1
102
RTVSPropertyOp48
 70
     1
102
RTVSPropertyOp49
 70
     1
102
RTVSPropertyOp50
 70
     1
102
RTVSPropertyOp51
 70
     0
102
RTVSPropertyOp52
 70
     0
102
RTVSPropertyOp53
 70
     1
102
RTVSPropertyOp54
 70
     1
102
RTVSPropertyOp55
 70
     1
102
RTVSPropertyOp56
 70
     1
102
RTVSPropertyOp57
 70
     1
102
RTVSPropertyOp58
 70
     1
102
RTVSPropertyOp59
 70
     1
102
RTVSPropertyOp60
 70
     1
102
RTVSPropertyOp61
 70
     1
102
RTVSPropertyOp62
 70
     1
  0
XRECORD
  5
47DD
102
{ACAD_REACTORS
330
47DC
102
}
330
47DC
100
AcDbXrecord
280
     1
102
RTVSPost2010Prop28
280
     0
102
RTVSPost2010PropOp28
 70
     1
102
RTVSPost2010Prop29
280
     1
102
RTVSPost2010PropOp29
 70
     1
102
RTVSPost2010Prop30
280
     1
102
RTVSPost2010PropOp30
 70
     1
102
RTVSPost2010Prop31
280
     0
102
RTVSPost2010PropOp31
 70
     1
102
RTVSPost2010Prop32
280
     0
102
RTVSPost2010PropOp32
 70
     1
102
RTVSPost2010Prop33
280
     0
102
RTVSPost2010PropOp33
 70
     1
102
RTVSPost2010Prop34
280
     0
102
RTVSPost2010PropOp34
 70
     1
102
RTVSPost2010Prop35
280
     0
102
RTVSPost2010PropOp35
 70
     1
102
RTVSPost2010Prop36
280
     0
102
RTVSPost2010PropOp36
 70
     1
102
RTVSPost2010Prop37
 90
       50
102
RTVSPost2010PropOp37
 70
     1
102
RTVSPost2010Prop38
140
0.0
102
RTVSPost2010PropOp38
 70
     1
102
RTVSPost2010Prop39
140
1.0
102
RTVSPost2010PropOp39
 70
     1
102
RTVSPost2010Prop40
 90
        0
102
RTVSPost2010PropOp40
 70
     1
102
RTVSPost2010Prop41ColorIndex
 90
       18
102
RTVSPost2010Prop41ColorRGB
 90
        0
102
RTVSPost2010PropOp41
 70
     1
102
RTVSPost2010Prop42
 90
       50
102
RTVSPost2010PropOp42
 70
     1
102
RTVSPost2010Prop43
 90
        3
102
RTVSPost2010PropOp43
 70
     1
102
RTVSPost2010Prop44ColorIndex
 90
        5
102
RTVSPost2010Prop44ColorRGB
 90
      255
102
RTVSPost2010PropOp44
 70
     1
102
RTVSPost2010Prop45
280
     0
102
RTVSPost2010PropOp45
 70
     1
102
RTVSPost2010Prop46
 90
       50
102
RTVSPost2010PropOp46
 70
     1
102
RTVSPost2010Prop47
 90
       50
102
RTVSPost2010PropOp47
 70
     1
102
RTVSPost2010Prop48
 90
       50
102
RTVSPost2010PropOp48
 70
     1
102
RTVSPost2010Prop49
280
     0
102
RTVSPost2010PropOp49
 70
     1
102
RTVSPost2010Prop50
 90
       50
102
RTVSPost2010PropOp50
 70
     1
102
RTVSPost2010Prop51ColorIndex
 90
      256
102
RTVSPost2010Prop51ColorRGB
 90
-16777216
102
RTVSPost2010PropOp51
 70
     0
102
RTVSPost2010Prop52
140
1.0
102
RTVSPost2010PropOp52
 70
     0
102
RTVSPost2010Prop53
 90
        2
102
RTVSPost2010PropOp53
 70
     1
102
RTVSPost2010Prop54
  1
strokes_ogs.tif
102
RTVSPost2010PropOp54
 70
     1
102
RTVSPost2010Prop55
280
     0
102
RTVSPost2010PropOp55
 70
     1
102
RTVSPost2010Prop56
140
1.0
102
RTVSPost2010PropOp56
 70
     1
102
RTVSPost2010Prop57
140
1.0
102
RTVSPost2010PropOp57
 70
     1
102
RTVSPropertyOp0
 70
     1
102
RTVSPropertyOp1
 70
     1
102
RTVSPropertyOp2
 70
     1
102
RTVSPropertyOp3
 70
     1
102
RTVSPropertyOp4
 70
     1
102
RTVSPropertyOp5
 70
     1
102
RTVSPropertyOp6
 70
     1
102
RTVSPropertyOp7
 70
     1
102
RTVSPropertyOp8
 70
     1
102
RTVSPropertyOp9
 70
     1
102
RTVSPropertyOp10
 70
     1
102
RTVSPropertyOp11
 70
     1
102
RTVSPropertyOp12
 70
     1
102
RTVSPropertyOp13
 70
     1
102
RTVSPropertyOp14
 70
     1
102
RTVSPropertyOp15
 70
     1
102
RTVSPropertyOp16
 70
     1
102
RTVSPropertyOp17
 70
     1
102
RTVSPropertyOp18
 70
     1
102
RTVSPropertyOp19
 70
     1
102
RTVSPropertyOp20
 70
     1
102
RTVSPropertyOp21
 70
     1
102
RTVSPropertyOp22
 70
     1
102
RTVSPropertyOp23
 70
     1
102
RTVSPropertyOp24
 70
     1
102
RTVSPropertyOp25
 70
     1
102
RTVSPropertyOp26
 70
     1
102
RTVSPropertyOp27
 70
     1
102
RTVSPropertyOp28
 70
     1
102
RTVSPropertyOp29
 70
     1
102
RTVSPropertyOp30
 70
     1
102
RTVSPropertyOp31
 70
     1
102
RTVSPropertyOp32
 70
     1
102
RTVSPropertyOp33
 70
     1
102
RTVSPropertyOp34
 70
     1
102
RTVSPropertyOp35
 70
     1
102
RTVSPropertyOp36
 70
     1
102
RTVSPropertyOp37
 70
     1
102
RTVSPropertyOp38
 70
     1
102
RTVSPropertyOp39
 70
     1
102
RTVSPropertyOp40
 70
     1
102
RTVSPropertyOp41
 70
     1
102
RTVSPropertyOp42
 70
     1
102
RTVSPropertyOp43
 70
     1
102
RTVSPropertyOp44
 70
     1
102
RTVSPropertyOp45
 70
     1
102
RTVSPropertyOp46
 70
     1
102
RTVSPropertyOp47
 70
     1
102
RTVSPropertyOp48
 70
     1
102
RTVSPropertyOp49
 70
     1
102
RTVSPropertyOp50
 70
     1
102
RTVSPropertyOp51
 70
     0
102
RTVSPropertyOp52
 70
     0
102
RTVSPropertyOp53
 70
     1
102
RTVSPropertyOp54
 70
     1
102
RTVSPropertyOp55
 70
     1
102
RTVSPropertyOp56
 70
     1
102
RTVSPropertyOp57
 70
     1
102
RTVSPropertyOp58
 70
     1
102
RTVSPropertyOp59
 70
     1
102
RTVSPropertyOp60
 70
     1
102
RTVSPropertyOp61
 70
     1
102
RTVSPropertyOp62
 70
     1
  0
XRECORD
  5
47DF
102
{ACAD_REACTORS
330
47DE
102
}
330
47DE
100
AcDbXrecord
280
     1
102
RTVSPost2010Prop28
280
     0
102
RTVSPost2010PropOp28
 70
     1
102
RTVSPost2010Prop29
280
     1
102
RTVSPost2010PropOp29
 70
     1
102
RTVSPost2010Prop30
280
     1
102
RTVSPost2010PropOp30
 70
     1
102
RTVSPost2010Prop31
280
     0
102
RTVSPost2010PropOp31
 70
     1
102
RTVSPost2010Prop32
280
     0
102
RTVSPost2010PropOp32
 70
     1
102
RTVSPost2010Prop33
280
     0
102
RTVSPost2010PropOp33
 70
     1
102
RTVSPost2010Prop34
280
     0
102
RTVSPost2010PropOp34
 70
     1
102
RTVSPost2010Prop35
280
     0
102
RTVSPost2010PropOp35
 70
     1
102
RTVSPost2010Prop36
280
     0
102
RTVSPost2010PropOp36
 70
     1
102
RTVSPost2010Prop37
 90
       50
102
RTVSPost2010PropOp37
 70
     1
102
RTVSPost2010Prop38
140
0.0
102
RTVSPost2010PropOp38
 70
     1
102
RTVSPost2010Prop39
140
1.0
102
RTVSPost2010PropOp39
 70
     1
102
RTVSPost2010Prop40
 90
        0
102
RTVSPost2010PropOp40
 70
     1
102
RTVSPost2010Prop41ColorIndex
 90
       18
102
RTVSPost2010Prop41ColorRGB
 90
        0
102
RTVSPost2010PropOp41
 70
     1
102
RTVSPost2010Prop42
 90
       50
102
RTVSPost2010PropOp42
 70
     1
102
RTVSPost2010Prop43
 90
        3
102
RTVSPost2010PropOp43
 70
     1
102
RTVSPost2010Prop44ColorIndex
 90
        5
102
RTVSPost2010Prop44ColorRGB
 90
      255
102
RTVSPost2010PropOp44
 70
     1
102
RTVSPost2010Prop45
280
     0
102
RTVSPost2010PropOp45
 70
     1
102
RTVSPost2010Prop46
 90
       50
102
RTVSPost2010PropOp46
 70
     1
102
RTVSPost2010Prop47
 90
       50
102
RTVSPost2010PropOp47
 70
     1
102
RTVSPost2010Prop48
 90
       50
102
RTVSPost2010PropOp48
 70
     1
102
RTVSPost2010Prop49
280
     0
102
RTVSPost2010PropOp49
 70
     1
102
RTVSPost2010Prop50
 90
       50
102
RTVSPost2010PropOp50
 70
     1
102
RTVSPost2010Prop51ColorIndex
 90
      256
102
RTVSPost2010Prop51ColorRGB
 90
-16777216
102
RTVSPost2010PropOp51
 70
     0
102
RTVSPost2010Prop52
140
1.0
102
RTVSPost2010PropOp52
 70
     0
102
RTVSPost2010Prop53
 90
        2
102
RTVSPost2010PropOp53
 70
     1
102
RTVSPost2010Prop54
  1
strokes_ogs.tif
102
RTVSPost2010PropOp54
 70
     1
102
RTVSPost2010Prop55
280
     0
102
RTVSPost2010PropOp55
 70
     1
102
RTVSPost2010Prop56
140
1.0
102
RTVSPost2010PropOp56
 70
     1
102
RTVSPost2010Prop57
140
1.0
102
RTVSPost2010PropOp57
 70
     1
102
RTVSPropertyOp0
 70
     1
102
RTVSPropertyOp1
 70
     1
102
RTVSPropertyOp2
 70
     1
102
RTVSPropertyOp3
 70
     1
102
RTVSPropertyOp4
 70
     1
102
RTVSPropertyOp5
 70
     1
102
RTVSPropertyOp6
 70
     1
102
RTVSPropertyOp7
 70
     1
102
RTVSPropertyOp8
 70
     1
102
RTVSPropertyOp9
 70
     1
102
RTVSPropertyOp10
 70
     1
102
RTVSPropertyOp11
 70
     1
102
RTVSPropertyOp12
 70
     1
102
RTVSPropertyOp13
 70
     1
102
RTVSPropertyOp14
 70
     1
102
RTVSPropertyOp15
 70
     1
102
RTVSPropertyOp16
 70
     1
102
RTVSPropertyOp17
 70
     1
102
RTVSPropertyOp18
 70
     1
102
RTVSPropertyOp19
 70
     1
102
RTVSPropertyOp20
 70
     1
102
RTVSPropertyOp21
 70
     1
102
RTVSPropertyOp22
 70
     1
102
RTVSPropertyOp23
 70
     1
102
RTVSPropertyOp24
 70
     1
102
RTVSPropertyOp25
 70
     1
102
RTVSPropertyOp26
 70
     1
102
RTVSPropertyOp27
 70
     1
102
RTVSPropertyOp28
 70
     1
102
RTVSPropertyOp29
 70
     1
102
RTVSPropertyOp30
 70
     1
102
RTVSPropertyOp31
 70
     1
102
RTVSPropertyOp32
 70
     1
102
RTVSPropertyOp33
 70
     1
102
RTVSPropertyOp34
 70
     1
102
RTVSPropertyOp35
 70
     1
102
RTVSPropertyOp36
 70
     1
102
RTVSPropertyOp37
 70
     1
102
RTVSPropertyOp38
 70
     1
102
RTVSPropertyOp39
 70
     1
102
RTVSPropertyOp40
 70
     1
102
RTVSPropertyOp41
 70
     1
102
RTVSPropertyOp42
 70
     1
102
RTVSPropertyOp43
 70
     1
102
RTVSPropertyOp44
 70
     1
102
RTVSPropertyOp45
 70
     1
102
RTVSPropertyOp46
 70
     1
102
RTVSPropertyOp47
 70
     1
102
RTVSPropertyOp48
 70
     1
102
RTVSPropertyOp49
 70
     1
102
RTVSPropertyOp50
 70
     1
102
RTVSPropertyOp51
 70
     0
102
RTVSPropertyOp52
 70
     0
102
RTVSPropertyOp53
 70
     1
102
RTVSPropertyOp54
 70
     1
102
RTVSPropertyOp55
 70
     1
102
RTVSPropertyOp56
 70
     1
102
RTVSPropertyOp57
 70
     1
102
RTVSPropertyOp58
 70
     1
102
RTVSPropertyOp59
 70
     1
102
RTVSPropertyOp60
 70
     1
102
RTVSPropertyOp61
 70
     1
102
RTVSPropertyOp62
 70
     1
  0
XRECORD
  5
47E7
102
{ACAD_REACTORS
330
47E6
102
}
330
47E6
100
AcDbXrecord
280
     1
102
RTVSPost2010Prop28
280
     0
102
RTVSPost2010PropOp28
 70
     1
102
RTVSPost2010Prop29
280
     1
102
RTVSPost2010PropOp29
 70
     1
102
RTVSPost2010Prop30
280
     1
102
RTVSPost2010PropOp30
 70
     1
102
RTVSPost2010Prop31
280
     0
102
RTVSPost2010PropOp31
 70
     1
102
RTVSPost2010Prop32
280
     0
102
RTVSPost2010PropOp32
 70
     1
102
RTVSPost2010Prop33
280
     0
102
RTVSPost2010PropOp33
 70
     1
102
RTVSPost2010Prop34
280
     0
102
RTVSPost2010PropOp34
 70
     1
102
RTVSPost2010Prop35
280
     0
102
RTVSPost2010PropOp35
 70
     1
102
RTVSPost2010Prop36
280
     0
102
RTVSPost2010PropOp36
 70
     1
102
RTVSPost2010Prop37
 90
       50
102
RTVSPost2010PropOp37
 70
     1
102
RTVSPost2010Prop38
140
0.0
102
RTVSPost2010PropOp38
 70
     1
102
RTVSPost2010Prop39
140
1.0
102
RTVSPost2010PropOp39
 70
     1
102
RTVSPost2010Prop40
 90
        0
102
RTVSPost2010PropOp40
 70
     1
102
RTVSPost2010Prop41ColorIndex
 90
       18
102
RTVSPost2010Prop41ColorRGB
 90
        0
102
RTVSPost2010PropOp41
 70
     1
102
RTVSPost2010Prop42
 90
       50
102
RTVSPost2010PropOp42
 70
     1
102
RTVSPost2010Prop43
 90
        3
102
RTVSPost2010PropOp43
 70
     1
102
RTVSPost2010Prop44ColorIndex
 90
        5
102
RTVSPost2010Prop44ColorRGB
 90
      255
102
RTVSPost2010PropOp44
 70
     1
102
RTVSPost2010Prop45
280
     0
102
RTVSPost2010PropOp45
 70
     1
102
RTVSPost2010Prop46
 90
       50
102
RTVSPost2010PropOp46
 70
     1
102
RTVSPost2010Prop47
 90
       50
102
RTVSPost2010PropOp47
 70
     1
102
RTVSPost2010Prop48
 90
       50
102
RTVSPost2010PropOp48
 70
     1
102
RTVSPost2010Prop49
280
     0
102
RTVSPost2010PropOp49
 70
     1
102
RTVSPost2010Prop50
 90
       50
102
RTVSPost2010PropOp50
 70
     1
102
RTVSPost2010Prop51ColorIndex
 90
      256
102
RTVSPost2010Prop51ColorRGB
 90
-16777216
102
RTVSPost2010PropOp51
 70
     0
102
RTVSPost2010Prop52
140
1.0
102
RTVSPost2010PropOp52
 70
     0
102
RTVSPost2010Prop53
 90
        2
102
RTVSPost2010PropOp53
 70
     1
102
RTVSPost2010Prop54
  1
strokes_ogs.tif
102
RTVSPost2010PropOp54
 70
     1
102
RTVSPost2010Prop55
280
     0
102
RTVSPost2010PropOp55
 70
     1
102
RTVSPost2010Prop56
140
1.0
102
RTVSPost2010PropOp56
 70
     1
102
RTVSPost2010Prop57
140
1.0
102
RTVSPost2010PropOp57
 70
     1
102
RTVSPropertyOp0
 70
     1
102
RTVSPropertyOp1
 70
     1
102
RTVSPropertyOp2
 70
     1
102
RTVSPropertyOp3
 70
     1
102
RTVSPropertyOp4
 70
     1
102
RTVSPropertyOp5
 70
     1
102
RTVSPropertyOp6
 70
     1
102
RTVSPropertyOp7
 70
     1
102
RTVSPropertyOp8
 70
     1
102
RTVSPropertyOp9
 70
     1
102
RTVSPropertyOp10
 70
     1
102
RTVSPropertyOp11
 70
     1
102
RTVSPropertyOp12
 70
     1
102
RTVSPropertyOp13
 70
     1
102
RTVSPropertyOp14
 70
     1
102
RTVSPropertyOp15
 70
     1
102
RTVSPropertyOp16
 70
     1
102
RTVSPropertyOp17
 70
     1
102
RTVSPropertyOp18
 70
     1
102
RTVSPropertyOp19
 70
     1
102
RTVSPropertyOp20
 70
     1
102
RTVSPropertyOp21
 70
     1
102
RTVSPropertyOp22
 70
     1
102
RTVSPropertyOp23
 70
     1
102
RTVSPropertyOp24
 70
     1
102
RTVSPropertyOp25
 70
     1
102
RTVSPropertyOp26
 70
     1
102
RTVSPropertyOp27
 70
     1
102
RTVSPropertyOp28
 70
     1
102
RTVSPropertyOp29
 70
     1
102
RTVSPropertyOp30
 70
     1
102
RTVSPropertyOp31
 70
     1
102
RTVSPropertyOp32
 70
     1
102
RTVSPropertyOp33
 70
     1
102
RTVSPropertyOp34
 70
     1
102
RTVSPropertyOp35
 70
     1
102
RTVSPropertyOp36
 70
     1
102
RTVSPropertyOp37
 70
     1
102
RTVSPropertyOp38
 70
     1
102
RTVSPropertyOp39
 70
     1
102
RTVSPropertyOp40
 70
     1
102
RTVSPropertyOp41
 70
     1
102
RTVSPropertyOp42
 70
     1
102
RTVSPropertyOp43
 70
     1
102
RTVSPropertyOp44
 70
     1
102
RTVSPropertyOp45
 70
     1
102
RTVSPropertyOp46
 70
     1
102
RTVSPropertyOp47
 70
     1
102
RTVSPropertyOp48
 70
     1
102
RTVSPropertyOp49
 70
     1
102
RTVSPropertyOp50
 70
     1
102
RTVSPropertyOp51
 70
     0
102
RTVSPropertyOp52
 70
     0
102
RTVSPropertyOp53
 70
     1
102
RTVSPropertyOp54
 70
     1
102
RTVSPropertyOp55
 70
     1
102
RTVSPropertyOp56
 70
     1
102
RTVSPropertyOp57
 70
     1
102
RTVSPropertyOp58
 70
     1
102
RTVSPropertyOp59
 70
     1
102
RTVSPropertyOp60
 70
     1
102
RTVSPropertyOp61
 70
     1
102
RTVSPropertyOp62
 70
     1
  0
XRECORD
  5
47FB
102
{ACAD_REACTORS
330
47FA
102
}
330
47FA
100
AcDbXrecord
280
     1
102
RTVSPost2010Prop28
280
     0
102
RTVSPost2010PropOp28
 70
     1
102
RTVSPost2010Prop29
280
     1
102
RTVSPost2010PropOp29
 70
     1
102
RTVSPost2010Prop30
280
     1
102
RTVSPost2010PropOp30
 70
     1
102
RTVSPost2010Prop31
280
     0
102
RTVSPost2010PropOp31
 70
     1
102
RTVSPost2010Prop32
280
     0
102
RTVSPost2010PropOp32
 70
     1
102
RTVSPost2010Prop33
280
     0
102
RTVSPost2010PropOp33
 70
     1
102
RTVSPost2010Prop34
280
     0
102
RTVSPost2010PropOp34
 70
     1
102
RTVSPost2010Prop35
280
     0
102
RTVSPost2010PropOp35
 70
     1
102
RTVSPost2010Prop36
280
     0
102
RTVSPost2010PropOp36
 70
     1
102
RTVSPost2010Prop37
 90
       50
102
RTVSPost2010PropOp37
 70
     1
102
RTVSPost2010Prop38
140
0.0
102
RTVSPost2010PropOp38
 70
     1
102
RTVSPost2010Prop39
140
1.0
102
RTVSPost2010PropOp39
 70
     1
102
RTVSPost2010Prop40
 90
        0
102
RTVSPost2010PropOp40
 70
     1
102
RTVSPost2010Prop41ColorIndex
 90
       18
102
RTVSPost2010Prop41ColorRGB
 90
        0
102
RTVSPost2010PropOp41
 70
     1
102
RTVSPost2010Prop42
 90
       50
102
RTVSPost2010PropOp42
 70
     1
102
RTVSPost2010Prop43
 90
        3
102
RTVSPost2010PropOp43
 70
     1
102
RTVSPost2010Prop44ColorIndex
 90
        5
102
RTVSPost2010Prop44ColorRGB
 90
      255
102
RTVSPost2010PropOp44
 70
     1
102
RTVSPost2010Prop45
280
     0
102
RTVSPost2010PropOp45
 70
     1
102
RTVSPost2010Prop46
 90
       50
102
RTVSPost2010PropOp46
 70
     1
102
RTVSPost2010Prop47
 90
       50
102
RTVSPost2010PropOp47
 70
     1
102
RTVSPost2010Prop48
 90
       50
102
RTVSPost2010PropOp48
 70
     1
102
RTVSPost2010Prop49
280
     0
102
RTVSPost2010PropOp49
 70
     1
102
RTVSPost2010Prop50
 90
       50
102
RTVSPost2010PropOp50
 70
     1
102
RTVSPost2010Prop51ColorIndex
 90
      256
102
RTVSPost2010Prop51ColorRGB
 90
-16777216
102
RTVSPost2010PropOp51
 70
     0
102
RTVSPost2010Prop52
140
1.0
102
RTVSPost2010PropOp52
 70
     0
102
RTVSPost2010Prop53
 90
        2
102
RTVSPost2010PropOp53
 70
     1
102
RTVSPost2010Prop54
  1
strokes_ogs.tif
102
RTVSPost2010PropOp54
 70
     1
102
RTVSPost2010Prop55
280
     0
102
RTVSPost2010PropOp55
 70
     1
102
RTVSPost2010Prop56
140
1.0
102
RTVSPost2010PropOp56
 70
     1
102
RTVSPost2010Prop57
140
1.0
102
RTVSPost2010PropOp57
 70
     1
102
RTVSPropertyOp0
 70
     0
102
RTVSPropertyOp1
 70
     0
102
RTVSPropertyOp2
 70
     0
102
RTVSPropertyOp3
 70
     0
102
RTVSPropertyOp4
 70
     0
102
RTVSPropertyOp5
 70
     0
102
RTVSPropertyOp6
 70
     0
102
RTVSPropertyOp7
 70
     0
102
RTVSPropertyOp8
 70
     0
102
RTVSPropertyOp9
 70
     0
102
RTVSPropertyOp10
 70
     0
102
RTVSPropertyOp11
 70
     0
102
RTVSPropertyOp12
 70
     0
102
RTVSPropertyOp13
 70
     0
102
RTVSPropertyOp14
 70
     2
102
RTVSPropertyOp15
 70
     0
102
RTVSPropertyOp16
 70
     0
102
RTVSPropertyOp17
 70
     0
102
RTVSPropertyOp18
 70
     0
102
RTVSPropertyOp19
 70
     0
102
RTVSPropertyOp20
 70
     0
102
RTVSPropertyOp21
 70
     0
102
RTVSPropertyOp22
 70
     0
102
RTVSPropertyOp23
 70
     0
102
RTVSPropertyOp24
 70
     0
102
RTVSPropertyOp25
 70
     0
102
RTVSPropertyOp26
 70
     0
102
RTVSPropertyOp27
 70
     0
102
RTVSPropertyOp28
 70
     1
102
RTVSPropertyOp29
 70
     1
102
RTVSPropertyOp30
 70
     1
102
RTVSPropertyOp31
 70
     1
102
RTVSPropertyOp32
 70
     1
102
RTVSPropertyOp33
 70
     1
102
RTVSPropertyOp34
 70
     1
102
RTVSPropertyOp35
 70
     1
102
RTVSPropertyOp36
 70
     1
102
RTVSPropertyOp37
 70
     1
102
RTVSPropertyOp38
 70
     1
102
RTVSPropertyOp39
 70
     1
102
RTVSPropertyOp40
 70
     1
102
RTVSPropertyOp41
 70
     1
102
RTVSPropertyOp42
 70
     1
102
RTVSPropertyOp43
 70
     1
102
RTVSPropertyOp44
 70
     1
102
RTVSPropertyOp45
 70
     1
102
RTVSPropertyOp46
 70
     1
102
RTVSPropertyOp47
 70
     1
102
RTVSPropertyOp48
 70
     1
102
RTVSPropertyOp49
 70
     1
102
RTVSPropertyOp50
 70
     1
102
RTVSPropertyOp51
 70
     0
102
RTVSPropertyOp52
 70
     0
102
RTVSPropertyOp53
 70
     1
102
RTVSPropertyOp54
 70
     1
102
RTVSPropertyOp55
 70
     1
102
RTVSPropertyOp56
 70
     1
102
RTVSPropertyOp57
 70
     1
102
RTVSPropertyOp58
 70
     1
102
RTVSPropertyOp59
 70
     1
102
RTVSPropertyOp60
 70
     1
102
RTVSPropertyOp61
 70
     1
102
RTVSPropertyOp62
 70
     1
  0
XRECORD
  5
47F3
102
{ACAD_REACTORS
330
47F2
102
}
330
47F2
100
AcDbXrecord
280
     1
102
RTVSPost2010Prop28
280
     0
102
RTVSPost2010PropOp28
 70
     1
102
RTVSPost2010Prop29
280
     1
102
RTVSPost2010PropOp29
 70
     1
102
RTVSPost2010Prop30
280
     1
102
RTVSPost2010PropOp30
 70
     1
102
RTVSPost2010Prop31
280
     0
102
RTVSPost2010PropOp31
 70
     1
102
RTVSPost2010Prop32
280
     0
102
RTVSPost2010PropOp32
 70
     1
102
RTVSPost2010Prop33
280
     0
102
RTVSPost2010PropOp33
 70
     1
102
RTVSPost2010Prop34
280
     0
102
RTVSPost2010PropOp34
 70
     1
102
RTVSPost2010Prop35
280
     0
102
RTVSPost2010PropOp35
 70
     1
102
RTVSPost2010Prop36
280
     0
102
RTVSPost2010PropOp36
 70
     1
102
RTVSPost2010Prop37
 90
       50
102
RTVSPost2010PropOp37
 70
     1
102
RTVSPost2010Prop38
140
0.0
102
RTVSPost2010PropOp38
 70
     1
102
RTVSPost2010Prop39
140
1.0
102
RTVSPost2010PropOp39
 70
     1
102
RTVSPost2010Prop40
 90
        0
102
RTVSPost2010PropOp40
 70
     1
102
RTVSPost2010Prop41ColorIndex
 90
       18
102
RTVSPost2010Prop41ColorRGB
 90
        0
102
RTVSPost2010PropOp41
 70
     1
102
RTVSPost2010Prop42
 90
       50
102
RTVSPost2010PropOp42
 70
     1
102
RTVSPost2010Prop43
 90
        3
102
RTVSPost2010PropOp43
 70
     1
102
RTVSPost2010Prop44ColorIndex
 90
        5
102
RTVSPost2010Prop44ColorRGB
 90
      255
102
RTVSPost2010PropOp44
 70
     1
102
RTVSPost2010Prop45
280
     0
102
RTVSPost2010PropOp45
 70
     1
102
RTVSPost2010Prop46
 90
       50
102
RTVSPost2010PropOp46
 70
     1
102
RTVSPost2010Prop47
 90
       50
102
RTVSPost2010PropOp47
 70
     1
102
RTVSPost2010Prop48
 90
       50
102
RTVSPost2010PropOp48
 70
     1
102
RTVSPost2010Prop49
280
     0
102
RTVSPost2010PropOp49
 70
     1
102
RTVSPost2010Prop50
 90
       50
102
RTVSPost2010PropOp50
 70
     1
102
RTVSPost2010Prop51ColorIndex
 90
      256
102
RTVSPost2010Prop51ColorRGB
 90
-16777216
102
RTVSPost2010PropOp51
 70
     0
102
RTVSPost2010Prop52
140
1.0
102
RTVSPost2010PropOp52
 70
     0
102
RTVSPost2010Prop53
 90
        2
102
RTVSPost2010PropOp53
 70
     1
102
RTVSPost2010Prop54
  1
strokes_ogs.tif
102
RTVSPost2010PropOp54
 70
     1
102
RTVSPost2010Prop55
280
     0
102
RTVSPost2010PropOp55
 70
     1
102
RTVSPost2010Prop56
140
1.0
102
RTVSPost2010PropOp56
 70
     1
102
RTVSPost2010Prop57
140
1.0
102
RTVSPost2010PropOp57
 70
     1
102
RTVSPropertyOp0
 70
     1
102
RTVSPropertyOp1
 70
     1
102
RTVSPropertyOp2
 70
     1
102
RTVSPropertyOp3
 70
     1
102
RTVSPropertyOp4
 70
     1
102
RTVSPropertyOp5
 70
     1
102
RTVSPropertyOp6
 70
     1
102
RTVSPropertyOp7
 70
     1
102
RTVSPropertyOp8
 70
     1
102
RTVSPropertyOp9
 70
     1
102
RTVSPropertyOp10
 70
     1
102
RTVSPropertyOp11
 70
     1
102
RTVSPropertyOp12
 70
     1
102
RTVSPropertyOp13
 70
     1
102
RTVSPropertyOp14
 70
     1
102
RTVSPropertyOp15
 70
     1
102
RTVSPropertyOp16
 70
     1
102
RTVSPropertyOp17
 70
     1
102
RTVSPropertyOp18
 70
     1
102
RTVSPropertyOp19
 70
     1
102
RTVSPropertyOp20
 70
     1
102
RTVSPropertyOp21
 70
     1
102
RTVSPropertyOp22
 70
     1
102
RTVSPropertyOp23
 70
     1
102
RTVSPropertyOp24
 70
     1
102
RTVSPropertyOp25
 70
     1
102
RTVSPropertyOp26
 70
     1
102
RTVSPropertyOp27
 70
     1
102
RTVSPropertyOp28
 70
     1
102
RTVSPropertyOp29
 70
     1
102
RTVSPropertyOp30
 70
     1
102
RTVSPropertyOp31
 70
     1
102
RTVSPropertyOp32
 70
     1
102
RTVSPropertyOp33
 70
     1
102
RTVSPropertyOp34
 70
     1
102
RTVSPropertyOp35
 70
     1
102
RTVSPropertyOp36
 70
     1
102
RTVSPropertyOp37
 70
     1
102
RTVSPropertyOp38
 70
     1
102
RTVSPropertyOp39
 70
     1
102
RTVSPropertyOp40
 70
     1
102
RTVSPropertyOp41
 70
     1
102
RTVSPropertyOp42
 70
     1
102
RTVSPropertyOp43
 70
     1
102
RTVSPropertyOp44
 70
     1
102
RTVSPropertyOp45
 70
     1
102
RTVSPropertyOp46
 70
     1
102
RTVSPropertyOp47
 70
     1
102
RTVSPropertyOp48
 70
     1
102
RTVSPropertyOp49
 70
     1
102
RTVSPropertyOp50
 70
     1
102
RTVSPropertyOp51
 70
     0
102
RTVSPropertyOp52
 70
     0
102
RTVSPropertyOp53
 70
     1
102
RTVSPropertyOp54
 70
     1
102
RTVSPropertyOp55
 70
     1
102
RTVSPropertyOp56
 70
     1
102
RTVSPropertyOp57
 70
     1
102
RTVSPropertyOp58
 70
     1
102
RTVSPropertyOp59
 70
     1
102
RTVSPropertyOp60
 70
     1
102
RTVSPropertyOp61
 70
     1
102
RTVSPropertyOp62
 70
     1
  0
XRECORD
  5
47FD
102
{ACAD_REACTORS
330
47FC
102
}
330
47FC
100
AcDbXrecord
280
     1
102
RTVSPost2010Prop28
280
     0
102
RTVSPost2010PropOp28
 70
     1
102
RTVSPost2010Prop29
280
     1
102
RTVSPost2010PropOp29
 70
     1
102
RTVSPost2010Prop30
280
     1
102
RTVSPost2010PropOp30
 70
     1
102
RTVSPost2010Prop31
280
     0
102
RTVSPost2010PropOp31
 70
     1
102
RTVSPost2010Prop32
280
     0
102
RTVSPost2010PropOp32
 70
     1
102
RTVSPost2010Prop33
280
     0
102
RTVSPost2010PropOp33
 70
     1
102
RTVSPost2010Prop34
280
     0
102
RTVSPost2010PropOp34
 70
     1
102
RTVSPost2010Prop35
280
     0
102
RTVSPost2010PropOp35
 70
     1
102
RTVSPost2010Prop36
280
     0
102
RTVSPost2010PropOp36
 70
     1
102
RTVSPost2010Prop37
 90
       50
102
RTVSPost2010PropOp37
 70
     1
102
RTVSPost2010Prop38
140
0.0
102
RTVSPost2010PropOp38
 70
     1
102
RTVSPost2010Prop39
140
1.0
102
RTVSPost2010PropOp39
 70
     1
102
RTVSPost2010Prop40
 90
        0
102
RTVSPost2010PropOp40
 70
     1
102
RTVSPost2010Prop41ColorIndex
 90
       18
102
RTVSPost2010Prop41ColorRGB
 90
        0
102
RTVSPost2010PropOp41
 70
     1
102
RTVSPost2010Prop42
 90
       50
102
RTVSPost2010PropOp42
 70
     1
102
RTVSPost2010Prop43
 90
        3
102
RTVSPost2010PropOp43
 70
     1
102
RTVSPost2010Prop44ColorIndex
 90
        5
102
RTVSPost2010Prop44ColorRGB
 90
      255
102
RTVSPost2010PropOp44
 70
     1
102
RTVSPost2010Prop45
280
     0
102
RTVSPost2010PropOp45
 70
     1
102
RTVSPost2010Prop46
 90
       50
102
RTVSPost2010PropOp46
 70
     1
102
RTVSPost2010Prop47
 90
       50
102
RTVSPost2010PropOp47
 70
     1
102
RTVSPost2010Prop48
 90
       50
102
RTVSPost2010PropOp48
 70
     1
102
RTVSPost2010Prop49
280
     0
102
RTVSPost2010PropOp49
 70
     1
102
RTVSPost2010Prop50
 90
       50
102
RTVSPost2010PropOp50
 70
     1
102
RTVSPost2010Prop51ColorIndex
 90
      256
102
RTVSPost2010Prop51ColorRGB
 90
-16777216
102
RTVSPost2010PropOp51
 70
     0
102
RTVSPost2010Prop52
140
1.0
102
RTVSPost2010PropOp52
 70
     0
102
RTVSPost2010Prop53
 90
        2
102
RTVSPost2010PropOp53
 70
     1
102
RTVSPost2010Prop54
  1
strokes_ogs.tif
102
RTVSPost2010PropOp54
 70
     1
102
RTVSPost2010Prop55
280
     0
102
RTVSPost2010PropOp55
 70
     1
102
RTVSPost2010Prop56
140
1.0
102
RTVSPost2010PropOp56
 70
     1
102
RTVSPost2010Prop57
140
1.0
102
RTVSPost2010PropOp57
 70
     1
102
RTVSPropertyOp0
 70
     0
102
RTVSPropertyOp1
 70
     0
102
RTVSPropertyOp2
 70
     0
102
RTVSPropertyOp3
 70
     0
102
RTVSPropertyOp4
 70
     0
102
RTVSPropertyOp5
 70
     0
102
RTVSPropertyOp6
 70
     0
102
RTVSPropertyOp7
 70
     0
102
RTVSPropertyOp8
 70
     0
102
RTVSPropertyOp9
 70
     0
102
RTVSPropertyOp10
 70
     0
102
RTVSPropertyOp11
 70
     0
102
RTVSPropertyOp12
 70
     0
102
RTVSPropertyOp13
 70
     0
102
RTVSPropertyOp14
 70
     2
102
RTVSPropertyOp15
 70
     0
102
RTVSPropertyOp16
 70
     0
102
RTVSPropertyOp17
 70
     0
102
RTVSPropertyOp18
 70
     0
102
RTVSPropertyOp19
 70
     0
102
RTVSPropertyOp20
 70
     0
102
RTVSPropertyOp21
 70
     0
102
RTVSPropertyOp22
 70
     0
102
RTVSPropertyOp23
 70
     0
102
RTVSPropertyOp24
 70
     0
102
RTVSPropertyOp25
 70
     0
102
RTVSPropertyOp26
 70
     0
102
RTVSPropertyOp27
 70
     0
102
RTVSPropertyOp28
 70
     1
102
RTVSPropertyOp29
 70
     1
102
RTVSPropertyOp30
 70
     1
102
RTVSPropertyOp31
 70
     1
102
RTVSPropertyOp32
 70
     1
102
RTVSPropertyOp33
 70
     1
102
RTVSPropertyOp34
 70
     1
102
RTVSPropertyOp35
 70
     1
102
RTVSPropertyOp36
 70
     1
102
RTVSPropertyOp37
 70
     1
102
RTVSPropertyOp38
 70
     1
102
RTVSPropertyOp39
 70
     1
102
RTVSPropertyOp40
 70
     1
102
RTVSPropertyOp41
 70
     1
102
RTVSPropertyOp42
 70
     1
102
RTVSPropertyOp43
 70
     1
102
RTVSPropertyOp44
 70
     1
102
RTVSPropertyOp45
 70
     1
102
RTVSPropertyOp46
 70
     1
102
RTVSPropertyOp47
 70
     1
102
RTVSPropertyOp48
 70
     1
102
RTVSPropertyOp49
 70
     1
102
RTVSPropertyOp50
 70
     1
102
RTVSPropertyOp51
 70
     0
102
RTVSPropertyOp52
 70
     0
102
RTVSPropertyOp53
 70
     1
102
RTVSPropertyOp54
 70
     1
102
RTVSPropertyOp55
 70
     1
102
RTVSPropertyOp56
 70
     1
102
RTVSPropertyOp57
 70
     1
102
RTVSPropertyOp58
 70
     1
102
RTVSPropertyOp59
 70
     1
102
RTVSPropertyOp60
 70
     1
102
RTVSPropertyOp61
 70
     1
102
RTVSPropertyOp62
 70
     1
  0
XRECORD
  5
47EB
102
{ACAD_REACTORS
330
47EA
102
}
330
47EA
100
AcDbXrecord
280
     1
102
RTVSPost2010Prop28
280
     0
102
RTVSPost2010PropOp28
 70
     1
102
RTVSPost2010Prop29
280
     1
102
RTVSPost2010PropOp29
 70
     1
102
RTVSPost2010Prop30
280
     1
102
RTVSPost2010PropOp30
 70
     1
102
RTVSPost2010Prop31
280
     0
102
RTVSPost2010PropOp31
 70
     1
102
RTVSPost2010Prop32
280
     0
102
RTVSPost2010PropOp32
 70
     1
102
RTVSPost2010Prop33
280
     0
102
RTVSPost2010PropOp33
 70
     1
102
RTVSPost2010Prop34
280
     0
102
RTVSPost2010PropOp34
 70
     1
102
RTVSPost2010Prop35
280
     0
102
RTVSPost2010PropOp35
 70
     1
102
RTVSPost2010Prop36
280
     0
102
RTVSPost2010PropOp36
 70
     1
102
RTVSPost2010Prop37
 90
       50
102
RTVSPost2010PropOp37
 70
     1
102
RTVSPost2010Prop38
140
0.0
102
RTVSPost2010PropOp38
 70
     1
102
RTVSPost2010Prop39
140
1.0
102
RTVSPost2010PropOp39
 70
     1
102
RTVSPost2010Prop40
 90
        0
102
RTVSPost2010PropOp40
 70
     1
102
RTVSPost2010Prop41ColorIndex
 90
       18
102
RTVSPost2010Prop41ColorRGB
 90
        0
102
RTVSPost2010PropOp41
 70
     1
102
RTVSPost2010Prop42
 90
       50
102
RTVSPost2010PropOp42
 70
     1
102
RTVSPost2010Prop43
 90
        3
102
RTVSPost2010PropOp43
 70
     1
102
RTVSPost2010Prop44ColorIndex
 90
        5
102
RTVSPost2010Prop44ColorRGB
 90
      255
102
RTVSPost2010PropOp44
 70
     1
102
RTVSPost2010Prop45
280
     0
102
RTVSPost2010PropOp45
 70
     1
102
RTVSPost2010Prop46
 90
       50
102
RTVSPost2010PropOp46
 70
     1
102
RTVSPost2010Prop47
 90
       50
102
RTVSPost2010PropOp47
 70
     1
102
RTVSPost2010Prop48
 90
       50
102
RTVSPost2010PropOp48
 70
     1
102
RTVSPost2010Prop49
280
     0
102
RTVSPost2010PropOp49
 70
     1
102
RTVSPost2010Prop50
 90
       50
102
RTVSPost2010PropOp50
 70
     1
102
RTVSPost2010Prop51ColorIndex
 90
      256
102
RTVSPost2010Prop51ColorRGB
 90
-16777216
102
RTVSPost2010PropOp51
 70
     0
102
RTVSPost2010Prop52
140
1.0
102
RTVSPost2010PropOp52
 70
     0
102
RTVSPost2010Prop53
 90
        2
102
RTVSPost2010PropOp53
 70
     1
102
RTVSPost2010Prop54
  1
strokes_ogs.tif
102
RTVSPost2010PropOp54
 70
     1
102
RTVSPost2010Prop55
280
     0
102
RTVSPost2010PropOp55
 70
     1
102
RTVSPost2010Prop56
140
1.0
102
RTVSPost2010PropOp56
 70
     1
102
RTVSPost2010Prop57
140
1.0
102
RTVSPost2010PropOp57
 70
     1
102
RTVSPropertyOp0
 70
     1
102
RTVSPropertyOp1
 70
     1
102
RTVSPropertyOp2
 70
     1
102
RTVSPropertyOp3
 70
     1
102
RTVSPropertyOp4
 70
     1
102
RTVSPropertyOp5
 70
     1
102
RTVSPropertyOp6
 70
     1
102
RTVSPropertyOp7
 70
     1
102
RTVSPropertyOp8
 70
     1
102
RTVSPropertyOp9
 70
     1
102
RTVSPropertyOp10
 70
     1
102
RTVSPropertyOp11
 70
     1
102
RTVSPropertyOp12
 70
     1
102
RTVSPropertyOp13
 70
     1
102
RTVSPropertyOp14
 70
     1
102
RTVSPropertyOp15
 70
     1
102
RTVSPropertyOp16
 70
     1
102
RTVSPropertyOp17
 70
     1
102
RTVSPropertyOp18
 70
     1
102
RTVSPropertyOp19
 70
     1
102
RTVSPropertyOp20
 70
     1
102
RTVSPropertyOp21
 70
     1
102
RTVSPropertyOp22
 70
     1
102
RTVSPropertyOp23
 70
     1
102
RTVSPropertyOp24
 70
     1
102
RTVSPropertyOp25
 70
     1
102
RTVSPropertyOp26
 70
     1
102
RTVSPropertyOp27
 70
     1
102
RTVSPropertyOp28
 70
     1
102
RTVSPropertyOp29
 70
     1
102
RTVSPropertyOp30
 70
     1
102
RTVSPropertyOp31
 70
     1
102
RTVSPropertyOp32
 70
     1
102
RTVSPropertyOp33
 70
     1
102
RTVSPropertyOp34
 70
     1
102
RTVSPropertyOp35
 70
     1
102
RTVSPropertyOp36
 70
     1
102
RTVSPropertyOp37
 70
     1
102
RTVSPropertyOp38
 70
     1
102
RTVSPropertyOp39
 70
     1
102
RTVSPropertyOp40
 70
     1
102
RTVSPropertyOp41
 70
     1
102
RTVSPropertyOp42
 70
     1
102
RTVSPropertyOp43
 70
     1
102
RTVSPropertyOp44
 70
     1
102
RTVSPropertyOp45
 70
     1
102
RTVSPropertyOp46
 70
     1
102
RTVSPropertyOp47
 70
     1
102
RTVSPropertyOp48
 70
     1
102
RTVSPropertyOp49
 70
     1
102
RTVSPropertyOp50
 70
     1
102
RTVSPropertyOp51
 70
     0
102
RTVSPropertyOp52
 70
     0
102
RTVSPropertyOp53
 70
     1
102
RTVSPropertyOp54
 70
     1
102
RTVSPropertyOp55
 70
     1
102
RTVSPropertyOp56
 70
     1
102
RTVSPropertyOp57
 70
     1
102
RTVSPropertyOp58
 70
     1
102
RTVSPropertyOp59
 70
     1
102
RTVSPropertyOp60
 70
     1
102
RTVSPropertyOp61
 70
     1
102
RTVSPropertyOp62
 70
     1
  0
XRECORD
  5
4809
102
{ACAD_REACTORS
330
4808
102
}
330
4808
100
AcDbXrecord
280
     1
102
RTVSPost2010Prop28
280
     0
102
RTVSPost2010PropOp28
 70
     1
102
RTVSPost2010Prop29
280
     1
102
RTVSPost2010PropOp29
 70
     1
102
RTVSPost2010Prop30
280
     1
102
RTVSPost2010PropOp30
 70
     1
102
RTVSPost2010Prop31
280
     0
102
RTVSPost2010PropOp31
 70
     1
102
RTVSPost2010Prop32
280
     0
102
RTVSPost2010PropOp32
 70
     1
102
RTVSPost2010Prop33
280
     0
102
RTVSPost2010PropOp33
 70
     1
102
RTVSPost2010Prop34
280
     0
102
RTVSPost2010PropOp34
 70
     1
102
RTVSPost2010Prop35
280
     0
102
RTVSPost2010PropOp35
 70
     1
102
RTVSPost2010Prop36
280
     0
102
RTVSPost2010PropOp36
 70
     1
102
RTVSPost2010Prop37
 90
       50
102
RTVSPost2010PropOp37
 70
     1
102
RTVSPost2010Prop38
140
0.0
102
RTVSPost2010PropOp38
 70
     1
102
RTVSPost2010Prop39
140
1.0
102
RTVSPost2010PropOp39
 70
     1
102
RTVSPost2010Prop40
 90
        0
102
RTVSPost2010PropOp40
 70
     1
102
RTVSPost2010Prop41ColorIndex
 90
       18
102
RTVSPost2010Prop41ColorRGB
 90
        0
102
RTVSPost2010PropOp41
 70
     1
102
RTVSPost2010Prop42
 90
       50
102
RTVSPost2010PropOp42
 70
     1
102
RTVSPost2010Prop43
 90
        3
102
RTVSPost2010PropOp43
 70
     1
102
RTVSPost2010Prop44ColorIndex
 90
        5
102
RTVSPost2010Prop44ColorRGB
 90
      255
102
RTVSPost2010PropOp44
 70
     1
102
RTVSPost2010Prop45
280
     0
102
RTVSPost2010PropOp45
 70
     1
102
RTVSPost2010Prop46
 90
       50
102
RTVSPost2010PropOp46
 70
     1
102
RTVSPost2010Prop47
 90
       50
102
RTVSPost2010PropOp47
 70
     1
102
RTVSPost2010Prop48
 90
       50
102
RTVSPost2010PropOp48
 70
     1
102
RTVSPost2010Prop49
280
     0
102
RTVSPost2010PropOp49
 70
     1
102
RTVSPost2010Prop50
 90
       50
102
RTVSPost2010PropOp50
 70
     1
102
RTVSPost2010Prop51ColorIndex
 90
      256
102
RTVSPost2010Prop51ColorRGB
 90
-16777216
102
RTVSPost2010PropOp51
 70
     0
102
RTVSPost2010Prop52
140
1.0
102
RTVSPost2010PropOp52
 70
     0
102
RTVSPost2010Prop53
 90
        2
102
RTVSPost2010PropOp53
 70
     1
102
RTVSPost2010Prop54
  1
strokes_ogs.tif
102
RTVSPost2010PropOp54
 70
     1
102
RTVSPost2010Prop55
280
     0
102
RTVSPost2010PropOp55
 70
     1
102
RTVSPost2010Prop56
140
1.0
102
RTVSPost2010PropOp56
 70
     1
102
RTVSPost2010Prop57
140
1.0
102
RTVSPost2010PropOp57
 70
     1
102
RTVSPropertyOp0
 70
     1
102
RTVSPropertyOp1
 70
     1
102
RTVSPropertyOp2
 70
     1
102
RTVSPropertyOp3
 70
     1
102
RTVSPropertyOp4
 70
     1
102
RTVSPropertyOp5
 70
     1
102
RTVSPropertyOp6
 70
     1
102
RTVSPropertyOp7
 70
     1
102
RTVSPropertyOp8
 70
     1
102
RTVSPropertyOp9
 70
     1
102
RTVSPropertyOp10
 70
     1
102
RTVSPropertyOp11
 70
     1
102
RTVSPropertyOp12
 70
     1
102
RTVSPropertyOp13
 70
     1
102
RTVSPropertyOp14
 70
     1
102
RTVSPropertyOp15
 70
     1
102
RTVSPropertyOp16
 70
     1
102
RTVSPropertyOp17
 70
     1
102
RTVSPropertyOp18
 70
     1
102
RTVSPropertyOp19
 70
     1
102
RTVSPropertyOp20
 70
     1
102
RTVSPropertyOp21
 70
     1
102
RTVSPropertyOp22
 70
     1
102
RTVSPropertyOp23
 70
     1
102
RTVSPropertyOp24
 70
     1
102
RTVSPropertyOp25
 70
     1
102
RTVSPropertyOp26
 70
     1
102
RTVSPropertyOp27
 70
     1
102
RTVSPropertyOp28
 70
     1
102
RTVSPropertyOp29
 70
     1
102
RTVSPropertyOp30
 70
     1
102
RTVSPropertyOp31
 70
     1
102
RTVSPropertyOp32
 70
     1
102
RTVSPropertyOp33
 70
     1
102
RTVSPropertyOp34
 70
     1
102
RTVSPropertyOp35
 70
     1
102
RTVSPropertyOp36
 70
     1
102
RTVSPropertyOp37
 70
     1
102
RTVSPropertyOp38
 70
     1
102
RTVSPropertyOp39
 70
     1
102
RTVSPropertyOp40
 70
     1
102
RTVSPropertyOp41
 70
     1
102
RTVSPropertyOp42
 70
     1
102
RTVSPropertyOp43
 70
     1
102
RTVSPropertyOp44
 70
     1
102
RTVSPropertyOp45
 70
     1
102
RTVSPropertyOp46
 70
     1
102
RTVSPropertyOp47
 70
     1
102
RTVSPropertyOp48
 70
     1
102
RTVSPropertyOp49
 70
     1
102
RTVSPropertyOp50
 70
     1
102
RTVSPropertyOp51
 70
     0
102
RTVSPropertyOp52
 70
     0
102
RTVSPropertyOp53
 70
     1
102
RTVSPropertyOp54
 70
     1
102
RTVSPropertyOp55
 70
     1
102
RTVSPropertyOp56
 70
     1
102
RTVSPropertyOp57
 70
     1
102
RTVSPropertyOp58
 70
     1
102
RTVSPropertyOp59
 70
     1
102
RTVSPropertyOp60
 70
     1
102
RTVSPropertyOp61
 70
     1
102
RTVSPropertyOp62
 70
     1
  0
XRECORD
  5
4807
102
{ACAD_REACTORS
330
4806
102
}
330
4806
100
AcDbXrecord
280
     1
102
RTVSPost2010Prop28
280
     0
102
RTVSPost2010PropOp28
 70
     1
102
RTVSPost2010Prop29
280
     1
102
RTVSPost2010PropOp29
 70
     1
102
RTVSPost2010Prop30
280
     1
102
RTVSPost2010PropOp30
 70
     1
102
RTVSPost2010Prop31
280
     0
102
RTVSPost2010PropOp31
 70
     1
102
RTVSPost2010Prop32
280
     0
102
RTVSPost2010PropOp32
 70
     1
102
RTVSPost2010Prop33
280
     0
102
RTVSPost2010PropOp33
 70
     1
102
RTVSPost2010Prop34
280
     0
102
RTVSPost2010PropOp34
 70
     1
102
RTVSPost2010Prop35
280
     0
102
RTVSPost2010PropOp35
 70
     1
102
RTVSPost2010Prop36
280
     0
102
RTVSPost2010PropOp36
 70
     1
102
RTVSPost2010Prop37
 90
       50
102
RTVSPost2010PropOp37
 70
     1
102
RTVSPost2010Prop38
140
0.0
102
RTVSPost2010PropOp38
 70
     1
102
RTVSPost2010Prop39
140
1.0
102
RTVSPost2010PropOp39
 70
     1
102
RTVSPost2010Prop40
 90
        0
102
RTVSPost2010PropOp40
 70
     1
102
RTVSPost2010Prop41ColorIndex
 90
       18
102
RTVSPost2010Prop41ColorRGB
 90
        0
102
RTVSPost2010PropOp41
 70
     1
102
RTVSPost2010Prop42
 90
       50
102
RTVSPost2010PropOp42
 70
     1
102
RTVSPost2010Prop43
 90
        3
102
RTVSPost2010PropOp43
 70
     1
102
RTVSPost2010Prop44ColorIndex
 90
        5
102
RTVSPost2010Prop44ColorRGB
 90
      255
102
RTVSPost2010PropOp44
 70
     1
102
RTVSPost2010Prop45
280
     0
102
RTVSPost2010PropOp45
 70
     1
102
RTVSPost2010Prop46
 90
       50
102
RTVSPost2010PropOp46
 70
     1
102
RTVSPost2010Prop47
 90
       50
102
RTVSPost2010PropOp47
 70
     1
102
RTVSPost2010Prop48
 90
       50
102
RTVSPost2010PropOp48
 70
     1
102
RTVSPost2010Prop49
280
     0
102
RTVSPost2010PropOp49
 70
     1
102
RTVSPost2010Prop50
 90
       50
102
RTVSPost2010PropOp50
 70
     1
102
RTVSPost2010Prop51ColorIndex
 90
      256
102
RTVSPost2010Prop51ColorRGB
 90
-16777216
102
RTVSPost2010PropOp51
 70
     0
102
RTVSPost2010Prop52
140
1.0
102
RTVSPost2010PropOp52
 70
     0
102
RTVSPost2010Prop53
 90
        2
102
RTVSPost2010PropOp53
 70
     1
102
RTVSPost2010Prop54
  1
strokes_ogs.tif
102
RTVSPost2010PropOp54
 70
     1
102
RTVSPost2010Prop55
280
     0
102
RTVSPost2010PropOp55
 70
     1
102
RTVSPost2010Prop56
140
1.0
102
RTVSPost2010PropOp56
 70
     1
102
RTVSPost2010Prop57
140
1.0
102
RTVSPost2010PropOp57
 70
     1
102
RTVSPropertyOp0
 70
     1
102
RTVSPropertyOp1
 70
     1
102
RTVSPropertyOp2
 70
     1
102
RTVSPropertyOp3
 70
     1
102
RTVSPropertyOp4
 70
     1
102
RTVSPropertyOp5
 70
     1
102
RTVSPropertyOp6
 70
     1
102
RTVSPropertyOp7
 70
     1
102
RTVSPropertyOp8
 70
     1
102
RTVSPropertyOp9
 70
     1
102
RTVSPropertyOp10
 70
     1
102
RTVSPropertyOp11
 70
     1
102
RTVSPropertyOp12
 70
     1
102
RTVSPropertyOp13
 70
     1
102
RTVSPropertyOp14
 70
     1
102
RTVSPropertyOp15
 70
     1
102
RTVSPropertyOp16
 70
     1
102
RTVSPropertyOp17
 70
     1
102
RTVSPropertyOp18
 70
     1
102
RTVSPropertyOp19
 70
     1
102
RTVSPropertyOp20
 70
     1
102
RTVSPropertyOp21
 70
     1
102
RTVSPropertyOp22
 70
     1
102
RTVSPropertyOp23
 70
     1
102
RTVSPropertyOp24
 70
     1
102
RTVSPropertyOp25
 70
     1
102
RTVSPropertyOp26
 70
     1
102
RTVSPropertyOp27
 70
     1
102
RTVSPropertyOp28
 70
     1
102
RTVSPropertyOp29
 70
     1
102
RTVSPropertyOp30
 70
     1
102
RTVSPropertyOp31
 70
     1
102
RTVSPropertyOp32
 70
     1
102
RTVSPropertyOp33
 70
     1
102
RTVSPropertyOp34
 70
     1
102
RTVSPropertyOp35
 70
     1
102
RTVSPropertyOp36
 70
     1
102
RTVSPropertyOp37
 70
     1
102
RTVSPropertyOp38
 70
     1
102
RTVSPropertyOp39
 70
     1
102
RTVSPropertyOp40
 70
     1
102
RTVSPropertyOp41
 70
     1
102
RTVSPropertyOp42
 70
     1
102
RTVSPropertyOp43
 70
     1
102
RTVSPropertyOp44
 70
     1
102
RTVSPropertyOp45
 70
     1
102
RTVSPropertyOp46
 70
     1
102
RTVSPropertyOp47
 70
     1
102
RTVSPropertyOp48
 70
     1
102
RTVSPropertyOp49
 70
     1
102
RTVSPropertyOp50
 70
     1
102
RTVSPropertyOp51
 70
     0
102
RTVSPropertyOp52
 70
     0
102
RTVSPropertyOp53
 70
     1
102
RTVSPropertyOp54
 70
     1
102
RTVSPropertyOp55
 70
     1
102
RTVSPropertyOp56
 70
     1
102
RTVSPropertyOp57
 70
     1
102
RTVSPropertyOp58
 70
     1
102
RTVSPropertyOp59
 70
     1
102
RTVSPropertyOp60
 70
     1
102
RTVSPropertyOp61
 70
     1
102
RTVSPropertyOp62
 70
     1
  0
XRECORD
  5
4801
102
{ACAD_REACTORS
330
4800
102
}
330
4800
100
AcDbXrecord
280
     1
102
RTVSPost2010Prop28
280
     0
102
RTVSPost2010PropOp28
 70
     1
102
RTVSPost2010Prop29
280
     1
102
RTVSPost2010PropOp29
 70
     1
102
RTVSPost2010Prop30
280
     1
102
RTVSPost2010PropOp30
 70
     1
102
RTVSPost2010Prop31
280
     0
102
RTVSPost2010PropOp31
 70
     1
102
RTVSPost2010Prop32
280
     0
102
RTVSPost2010PropOp32
 70
     1
102
RTVSPost2010Prop33
280
     0
102
RTVSPost2010PropOp33
 70
     1
102
RTVSPost2010Prop34
280
     0
102
RTVSPost2010PropOp34
 70
     1
102
RTVSPost2010Prop35
280
     0
102
RTVSPost2010PropOp35
 70
     1
102
RTVSPost2010Prop36
280
     0
102
RTVSPost2010PropOp36
 70
     1
102
RTVSPost2010Prop37
 90
       50
102
RTVSPost2010PropOp37
 70
     1
102
RTVSPost2010Prop38
140
0.0
102
RTVSPost2010PropOp38
 70
     1
102
RTVSPost2010Prop39
140
1.0
102
RTVSPost2010PropOp39
 70
     1
102
RTVSPost2010Prop40
 90
        0
102
RTVSPost2010PropOp40
 70
     1
102
RTVSPost2010Prop41ColorIndex
 90
       18
102
RTVSPost2010Prop41ColorRGB
 90
        0
102
RTVSPost2010PropOp41
 70
     1
102
RTVSPost2010Prop42
 90
       50
102
RTVSPost2010PropOp42
 70
     1
102
RTVSPost2010Prop43
 90
        3
102
RTVSPost2010PropOp43
 70
     1
102
RTVSPost2010Prop44ColorIndex
 90
        5
102
RTVSPost2010Prop44ColorRGB
 90
      255
102
RTVSPost2010PropOp44
 70
     1
102
RTVSPost2010Prop45
280
     0
102
RTVSPost2010PropOp45
 70
     1
102
RTVSPost2010Prop46
 90
       50
102
RTVSPost2010PropOp46
 70
     1
102
RTVSPost2010Prop47
 90
       50
102
RTVSPost2010PropOp47
 70
     1
102
RTVSPost2010Prop48
 90
       50
102
RTVSPost2010PropOp48
 70
     1
102
RTVSPost2010Prop49
280
     0
102
RTVSPost2010PropOp49
 70
     1
102
RTVSPost2010Prop50
 90
       50
102
RTVSPost2010PropOp50
 70
     1
102
RTVSPost2010Prop51ColorIndex
 90
      256
102
RTVSPost2010Prop51ColorRGB
 90
-16777216
102
RTVSPost2010PropOp51
 70
     0
102
RTVSPost2010Prop52
140
1.0
102
RTVSPost2010PropOp52
 70
     0
102
RTVSPost2010Prop53
 90
        2
102
RTVSPost2010PropOp53
 70
     1
102
RTVSPost2010Prop54
  1
strokes_ogs.tif
102
RTVSPost2010PropOp54
 70
     1
102
RTVSPost2010Prop55
280
     0
102
RTVSPost2010PropOp55
 70
     1
102
RTVSPost2010Prop56
140
1.0
102
RTVSPost2010PropOp56
 70
     1
102
RTVSPost2010Prop57
140
1.0
102
RTVSPost2010PropOp57
 70
     1
102
RTVSPropertyOp0
 70
     1
102
RTVSPropertyOp1
 70
     1
102
RTVSPropertyOp2
 70
     1
102
RTVSPropertyOp3
 70
     1
102
RTVSPropertyOp4
 70
     1
102
RTVSPropertyOp5
 70
     1
102
RTVSPropertyOp6
 70
     1
102
RTVSPropertyOp7
 70
     1
102
RTVSPropertyOp8
 70
     1
102
RTVSPropertyOp9
 70
     1
102
RTVSPropertyOp10
 70
     1
102
RTVSPropertyOp11
 70
     1
102
RTVSPropertyOp12
 70
     1
102
RTVSPropertyOp13
 70
     1
102
RTVSPropertyOp14
 70
     1
102
RTVSPropertyOp15
 70
     1
102
RTVSPropertyOp16
 70
     1
102
RTVSPropertyOp17
 70
     1
102
RTVSPropertyOp18
 70
     1
102
RTVSPropertyOp19
 70
     1
102
RTVSPropertyOp20
 70
     1
102
RTVSPropertyOp21
 70
     1
102
RTVSPropertyOp22
 70
     1
102
RTVSPropertyOp23
 70
     1
102
RTVSPropertyOp24
 70
     1
102
RTVSPropertyOp25
 70
     1
102
RTVSPropertyOp26
 70
     1
102
RTVSPropertyOp27
 70
     1
102
RTVSPropertyOp28
 70
     1
102
RTVSPropertyOp29
 70
     1
102
RTVSPropertyOp30
 70
     1
102
RTVSPropertyOp31
 70
     1
102
RTVSPropertyOp32
 70
     1
102
RTVSPropertyOp33
 70
     1
102
RTVSPropertyOp34
 70
     1
102
RTVSPropertyOp35
 70
     1
102
RTVSPropertyOp36
 70
     1
102
RTVSPropertyOp37
 70
     1
102
RTVSPropertyOp38
 70
     1
102
RTVSPropertyOp39
 70
     1
102
RTVSPropertyOp40
 70
     1
102
RTVSPropertyOp41
 70
     1
102
RTVSPropertyOp42
 70
     1
102
RTVSPropertyOp43
 70
     1
102
RTVSPropertyOp44
 70
     1
102
RTVSPropertyOp45
 70
     1
102
RTVSPropertyOp46
 70
     1
102
RTVSPropertyOp47
 70
     1
102
RTVSPropertyOp48
 70
     1
102
RTVSPropertyOp49
 70
     1
102
RTVSPropertyOp50
 70
     1
102
RTVSPropertyOp51
 70
     0
102
RTVSPropertyOp52
 70
     0
102
RTVSPropertyOp53
 70
     1
102
RTVSPropertyOp54
 70
     1
102
RTVSPropertyOp55
 70
     1
102
RTVSPropertyOp56
 70
     1
102
RTVSPropertyOp57
 70
     1
102
RTVSPropertyOp58
 70
     1
102
RTVSPropertyOp59
 70
     1
102
RTVSPropertyOp60
 70
     1
102
RTVSPropertyOp61
 70
     1
102
RTVSPropertyOp62
 70
     1
  0
XRECORD
  5
4803
102
{ACAD_REACTORS
330
4802
102
}
330
4802
100
AcDbXrecord
280
     1
102
RTVSPost2010Prop28
280
     0
102
RTVSPost2010PropOp28
 70
     1
102
RTVSPost2010Prop29
280
     1
102
RTVSPost2010PropOp29
 70
     1
102
RTVSPost2010Prop30
280
     1
102
RTVSPost2010PropOp30
 70
     1
102
RTVSPost2010Prop31
280
     0
102
RTVSPost2010PropOp31
 70
     1
102
RTVSPost2010Prop32
280
     0
102
RTVSPost2010PropOp32
 70
     1
102
RTVSPost2010Prop33
280
     0
102
RTVSPost2010PropOp33
 70
     1
102
RTVSPost2010Prop34
280
     0
102
RTVSPost2010PropOp34
 70
     1
102
RTVSPost2010Prop35
280
     0
102
RTVSPost2010PropOp35
 70
     1
102
RTVSPost2010Prop36
280
     0
102
RTVSPost2010PropOp36
 70
     1
102
RTVSPost2010Prop37
 90
       50
102
RTVSPost2010PropOp37
 70
     1
102
RTVSPost2010Prop38
140
0.0
102
RTVSPost2010PropOp38
 70
     1
102
RTVSPost2010Prop39
140
1.0
102
RTVSPost2010PropOp39
 70
     1
102
RTVSPost2010Prop40
 90
        0
102
RTVSPost2010PropOp40
 70
     1
102
RTVSPost2010Prop41ColorIndex
 90
       18
102
RTVSPost2010Prop41ColorRGB
 90
        0
102
RTVSPost2010PropOp41
 70
     1
102
RTVSPost2010Prop42
 90
       50
102
RTVSPost2010PropOp42
 70
     1
102
RTVSPost2010Prop43
 90
        3
102
RTVSPost2010PropOp43
 70
     1
102
RTVSPost2010Prop44ColorIndex
 90
        5
102
RTVSPost2010Prop44ColorRGB
 90
      255
102
RTVSPost2010PropOp44
 70
     1
102
RTVSPost2010Prop45
280
     0
102
RTVSPost2010PropOp45
 70
     1
102
RTVSPost2010Prop46
 90
       50
102
RTVSPost2010PropOp46
 70
     1
102
RTVSPost2010Prop47
 90
       50
102
RTVSPost2010PropOp47
 70
     1
102
RTVSPost2010Prop48
 90
       50
102
RTVSPost2010PropOp48
 70
     1
102
RTVSPost2010Prop49
280
     0
102
RTVSPost2010PropOp49
 70
     1
102
RTVSPost2010Prop50
 90
       50
102
RTVSPost2010PropOp50
 70
     1
102
RTVSPost2010Prop51ColorIndex
 90
      256
102
RTVSPost2010Prop51ColorRGB
 90
-16777216
102
RTVSPost2010PropOp51
 70
     0
102
RTVSPost2010Prop52
140
1.0
102
RTVSPost2010PropOp52
 70
     0
102
RTVSPost2010Prop53
 90
        2
102
RTVSPost2010PropOp53
 70
     1
102
RTVSPost2010Prop54
  1
strokes_ogs.tif
102
RTVSPost2010PropOp54
 70
     1
102
RTVSPost2010Prop55
280
     0
102
RTVSPost2010PropOp55
 70
     1
102
RTVSPost2010Prop56
140
1.0
102
RTVSPost2010PropOp56
 70
     1
102
RTVSPost2010Prop57
140
1.0
102
RTVSPost2010PropOp57
 70
     1
102
RTVSPropertyOp0
 70
     1
102
RTVSPropertyOp1
 70
     1
102
RTVSPropertyOp2
 70
     1
102
RTVSPropertyOp3
 70
     1
102
RTVSPropertyOp4
 70
     1
102
RTVSPropertyOp5
 70
     1
102
RTVSPropertyOp6
 70
     1
102
RTVSPropertyOp7
 70
     1
102
RTVSPropertyOp8
 70
     1
102
RTVSPropertyOp9
 70
     1
102
RTVSPropertyOp10
 70
     1
102
RTVSPropertyOp11
 70
     1
102
RTVSPropertyOp12
 70
     1
102
RTVSPropertyOp13
 70
     1
102
RTVSPropertyOp14
 70
     1
102
RTVSPropertyOp15
 70
     1
102
RTVSPropertyOp16
 70
     1
102
RTVSPropertyOp17
 70
     1
102
RTVSPropertyOp18
 70
     1
102
RTVSPropertyOp19
 70
     1
102
RTVSPropertyOp20
 70
     1
102
RTVSPropertyOp21
 70
     1
102
RTVSPropertyOp22
 70
     1
102
RTVSPropertyOp23
 70
     1
102
RTVSPropertyOp24
 70
     1
102
RTVSPropertyOp25
 70
     1
102
RTVSPropertyOp26
 70
     1
102
RTVSPropertyOp27
 70
     1
102
RTVSPropertyOp28
 70
     1
102
RTVSPropertyOp29
 70
     1
102
RTVSPropertyOp30
 70
     1
102
RTVSPropertyOp31
 70
     1
102
RTVSPropertyOp32
 70
     1
102
RTVSPropertyOp33
 70
     1
102
RTVSPropertyOp34
 70
     1
102
RTVSPropertyOp35
 70
     1
102
RTVSPropertyOp36
 70
     1
102
RTVSPropertyOp37
 70
     1
102
RTVSPropertyOp38
 70
     1
102
RTVSPropertyOp39
 70
     1
102
RTVSPropertyOp40
 70
     1
102
RTVSPropertyOp41
 70
     1
102
RTVSPropertyOp42
 70
     1
102
RTVSPropertyOp43
 70
     1
102
RTVSPropertyOp44
 70
     1
102
RTVSPropertyOp45
 70
     1
102
RTVSPropertyOp46
 70
     1
102
RTVSPropertyOp47
 70
     1
102
RTVSPropertyOp48
 70
     1
102
RTVSPropertyOp49
 70
     1
102
RTVSPropertyOp50
 70
     1
102
RTVSPropertyOp51
 70
     0
102
RTVSPropertyOp52
 70
     0
102
RTVSPropertyOp53
 70
     1
102
RTVSPropertyOp54
 70
     1
102
RTVSPropertyOp55
 70
     1
102
RTVSPropertyOp56
 70
     1
102
RTVSPropertyOp57
 70
     1
102
RTVSPropertyOp58
 70
     1
102
RTVSPropertyOp59
 70
     1
102
RTVSPropertyOp60
 70
     1
102
RTVSPropertyOp61
 70
     1
102
RTVSPropertyOp62
 70
     1
  0
XRECORD
  5
47F1
102
{ACAD_REACTORS
330
47F0
102
}
330
47F0
100
AcDbXrecord
280
     1
102
RTVSPost2010Prop28
280
     0
102
RTVSPost2010PropOp28
 70
     1
102
RTVSPost2010Prop29
280
     1
102
RTVSPost2010PropOp29
 70
     1
102
RTVSPost2010Prop30
280
     1
102
RTVSPost2010PropOp30
 70
     1
102
RTVSPost2010Prop31
280
     0
102
RTVSPost2010PropOp31
 70
     1
102
RTVSPost2010Prop32
280
     0
102
RTVSPost2010PropOp32
 70
     1
102
RTVSPost2010Prop33
280
     0
102
RTVSPost2010PropOp33
 70
     1
102
RTVSPost2010Prop34
280
     0
102
RTVSPost2010PropOp34
 70
     1
102
RTVSPost2010Prop35
280
     0
102
RTVSPost2010PropOp35
 70
     1
102
RTVSPost2010Prop36
280
     0
102
RTVSPost2010PropOp36
 70
     1
102
RTVSPost2010Prop37
 90
       50
102
RTVSPost2010PropOp37
 70
     1
102
RTVSPost2010Prop38
140
0.0
102
RTVSPost2010PropOp38
 70
     1
102
RTVSPost2010Prop39
140
1.0
102
RTVSPost2010PropOp39
 70
     1
102
RTVSPost2010Prop40
 90
        0
102
RTVSPost2010PropOp40
 70
     1
102
RTVSPost2010Prop41ColorIndex
 90
       18
102
RTVSPost2010Prop41ColorRGB
 90
        0
102
RTVSPost2010PropOp41
 70
     1
102
RTVSPost2010Prop42
 90
       50
102
RTVSPost2010PropOp42
 70
     1
102
RTVSPost2010Prop43
 90
        3
102
RTVSPost2010PropOp43
 70
     1
102
RTVSPost2010Prop44ColorIndex
 90
        5
102
RTVSPost2010Prop44ColorRGB
 90
      255
102
RTVSPost2010PropOp44
 70
     1
102
RTVSPost2010Prop45
280
     0
102
RTVSPost2010PropOp45
 70
     1
102
RTVSPost2010Prop46
 90
       50
102
RTVSPost2010PropOp46
 70
     1
102
RTVSPost2010Prop47
 90
       50
102
RTVSPost2010PropOp47
 70
     1
102
RTVSPost2010Prop48
 90
       50
102
RTVSPost2010PropOp48
 70
     1
102
RTVSPost2010Prop49
280
     0
102
RTVSPost2010PropOp49
 70
     1
102
RTVSPost2010Prop50
 90
       50
102
RTVSPost2010PropOp50
 70
     1
102
RTVSPost2010Prop51ColorIndex
 90
      256
102
RTVSPost2010Prop51ColorRGB
 90
-16777216
102
RTVSPost2010PropOp51
 70
     0
102
RTVSPost2010Prop52
140
1.0
102
RTVSPost2010PropOp52
 70
     0
102
RTVSPost2010Prop53
 90
        2
102
RTVSPost2010PropOp53
 70
     1
102
RTVSPost2010Prop54
  1
strokes_ogs.tif
102
RTVSPost2010PropOp54
 70
     1
102
RTVSPost2010Prop55
280
     0
102
RTVSPost2010PropOp55
 70
     1
102
RTVSPost2010Prop56
140
1.0
102
RTVSPost2010PropOp56
 70
     1
102
RTVSPost2010Prop57
140
1.0
102
RTVSPost2010PropOp57
 70
     1
102
RTVSPropertyOp0
 70
     1
102
RTVSPropertyOp1
 70
     1
102
RTVSPropertyOp2
 70
     1
102
RTVSPropertyOp3
 70
     1
102
RTVSPropertyOp4
 70
     1
102
RTVSPropertyOp5
 70
     1
102
RTVSPropertyOp6
 70
     1
102
RTVSPropertyOp7
 70
     1
102
RTVSPropertyOp8
 70
     1
102
RTVSPropertyOp9
 70
     1
102
RTVSPropertyOp10
 70
     1
102
RTVSPropertyOp11
 70
     1
102
RTVSPropertyOp12
 70
     1
102
RTVSPropertyOp13
 70
     1
102
RTVSPropertyOp14
 70
     1
102
RTVSPropertyOp15
 70
     1
102
RTVSPropertyOp16
 70
     1
102
RTVSPropertyOp17
 70
     1
102
RTVSPropertyOp18
 70
     1
102
RTVSPropertyOp19
 70
     1
102
RTVSPropertyOp20
 70
     1
102
RTVSPropertyOp21
 70
     1
102
RTVSPropertyOp22
 70
     1
102
RTVSPropertyOp23
 70
     1
102
RTVSPropertyOp24
 70
     1
102
RTVSPropertyOp25
 70
     1
102
RTVSPropertyOp26
 70
     1
102
RTVSPropertyOp27
 70
     1
102
RTVSPropertyOp28
 70
     1
102
RTVSPropertyOp29
 70
     1
102
RTVSPropertyOp30
 70
     1
102
RTVSPropertyOp31
 70
     1
102
RTVSPropertyOp32
 70
     1
102
RTVSPropertyOp33
 70
     1
102
RTVSPropertyOp34
 70
     1
102
RTVSPropertyOp35
 70
     1
102
RTVSPropertyOp36
 70
     1
102
RTVSPropertyOp37
 70
     1
102
RTVSPropertyOp38
 70
     1
102
RTVSPropertyOp39
 70
     1
102
RTVSPropertyOp40
 70
     1
102
RTVSPropertyOp41
 70
     1
102
RTVSPropertyOp42
 70
     1
102
RTVSPropertyOp43
 70
     1
102
RTVSPropertyOp44
 70
     1
102
RTVSPropertyOp45
 70
     1
102
RTVSPropertyOp46
 70
     1
102
RTVSPropertyOp47
 70
     1
102
RTVSPropertyOp48
 70
     1
102
RTVSPropertyOp49
 70
     1
102
RTVSPropertyOp50
 70
     1
102
RTVSPropertyOp51
 70
     0
102
RTVSPropertyOp52
 70
     0
102
RTVSPropertyOp53
 70
     1
102
RTVSPropertyOp54
 70
     1
102
RTVSPropertyOp55
 70
     1
102
RTVSPropertyOp56
 70
     1
102
RTVSPropertyOp57
 70
     1
102
RTVSPropertyOp58
 70
     1
102
RTVSPropertyOp59
 70
     1
102
RTVSPropertyOp60
 70
     1
102
RTVSPropertyOp61
 70
     1
102
RTVSPropertyOp62
 70
     1
  0
XRECORD
  5
47E5
102
{ACAD_REACTORS
330
47E4
102
}
330
47E4
100
AcDbXrecord
280
     1
102
RTVSPost2010Prop28
280
     0
102
RTVSPost2010PropOp28
 70
     1
102
RTVSPost2010Prop29
280
     1
102
RTVSPost2010PropOp29
 70
     1
102
RTVSPost2010Prop30
280
     1
102
RTVSPost2010PropOp30
 70
     1
102
RTVSPost2010Prop31
280
     0
102
RTVSPost2010PropOp31
 70
     1
102
RTVSPost2010Prop32
280
     0
102
RTVSPost2010PropOp32
 70
     1
102
RTVSPost2010Prop33
280
     0
102
RTVSPost2010PropOp33
 70
     1
102
RTVSPost2010Prop34
280
     0
102
RTVSPost2010PropOp34
 70
     1
102
RTVSPost2010Prop35
280
     0
102
RTVSPost2010PropOp35
 70
     1
102
RTVSPost2010Prop36
280
     0
102
RTVSPost2010PropOp36
 70
     1
102
RTVSPost2010Prop37
 90
       50
102
RTVSPost2010PropOp37
 70
     1
102
RTVSPost2010Prop38
140
0.0
102
RTVSPost2010PropOp38
 70
     1
102
RTVSPost2010Prop39
140
1.0
102
RTVSPost2010PropOp39
 70
     1
102
RTVSPost2010Prop40
 90
        0
102
RTVSPost2010PropOp40
 70
     1
102
RTVSPost2010Prop41ColorIndex
 90
       18
102
RTVSPost2010Prop41ColorRGB
 90
        0
102
RTVSPost2010PropOp41
 70
     1
102
RTVSPost2010Prop42
 90
       50
102
RTVSPost2010PropOp42
 70
     1
102
RTVSPost2010Prop43
 90
        3
102
RTVSPost2010PropOp43
 70
     1
102
RTVSPost2010Prop44ColorIndex
 90
        5
102
RTVSPost2010Prop44ColorRGB
 90
      255
102
RTVSPost2010PropOp44
 70
     1
102
RTVSPost2010Prop45
280
     0
102
RTVSPost2010PropOp45
 70
     1
102
RTVSPost2010Prop46
 90
       50
102
RTVSPost2010PropOp46
 70
     1
102
RTVSPost2010Prop47
 90
       50
102
RTVSPost2010PropOp47
 70
     1
102
RTVSPost2010Prop48
 90
       50
102
RTVSPost2010PropOp48
 70
     1
102
RTVSPost2010Prop49
280
     0
102
RTVSPost2010PropOp49
 70
     1
102
RTVSPost2010Prop50
 90
       50
102
RTVSPost2010PropOp50
 70
     1
102
RTVSPost2010Prop51ColorIndex
 90
      256
102
RTVSPost2010Prop51ColorRGB
 90
-16777216
102
RTVSPost2010PropOp51
 70
     0
102
RTVSPost2010Prop52
140
1.0
102
RTVSPost2010PropOp52
 70
     0
102
RTVSPost2010Prop53
 90
        2
102
RTVSPost2010PropOp53
 70
     1
102
RTVSPost2010Prop54
  1
strokes_ogs.tif
102
RTVSPost2010PropOp54
 70
     1
102
RTVSPost2010Prop55
280
     0
102
RTVSPost2010PropOp55
 70
     1
102
RTVSPost2010Prop56
140
1.0
102
RTVSPost2010PropOp56
 70
     1
102
RTVSPost2010Prop57
140
1.0
102
RTVSPost2010PropOp57
 70
     1
102
RTVSPropertyOp0
 70
     1
102
RTVSPropertyOp1
 70
     1
102
RTVSPropertyOp2
 70
     1
102
RTVSPropertyOp3
 70
     1
102
RTVSPropertyOp4
 70
     1
102
RTVSPropertyOp5
 70
     1
102
RTVSPropertyOp6
 70
     1
102
RTVSPropertyOp7
 70
     1
102
RTVSPropertyOp8
 70
     1
102
RTVSPropertyOp9
 70
     1
102
RTVSPropertyOp10
 70
     1
102
RTVSPropertyOp11
 70
     1
102
RTVSPropertyOp12
 70
     1
102
RTVSPropertyOp13
 70
     1
102
RTVSPropertyOp14
 70
     1
102
RTVSPropertyOp15
 70
     1
102
RTVSPropertyOp16
 70
     1
102
RTVSPropertyOp17
 70
     1
102
RTVSPropertyOp18
 70
     1
102
RTVSPropertyOp19
 70
     1
102
RTVSPropertyOp20
 70
     1
102
RTVSPropertyOp21
 70
     1
102
RTVSPropertyOp22
 70
     1
102
RTVSPropertyOp23
 70
     1
102
RTVSPropertyOp24
 70
     1
102
RTVSPropertyOp25
 70
     1
102
RTVSPropertyOp26
 70
     1
102
RTVSPropertyOp27
 70
     1
102
RTVSPropertyOp28
 70
     1
102
RTVSPropertyOp29
 70
     1
102
RTVSPropertyOp30
 70
     1
102
RTVSPropertyOp31
 70
     1
102
RTVSPropertyOp32
 70
     1
102
RTVSPropertyOp33
 70
     1
102
RTVSPropertyOp34
 70
     1
102
RTVSPropertyOp35
 70
     1
102
RTVSPropertyOp36
 70
     1
102
RTVSPropertyOp37
 70
     1
102
RTVSPropertyOp38
 70
     1
102
RTVSPropertyOp39
 70
     1
102
RTVSPropertyOp40
 70
     1
102
RTVSPropertyOp41
 70
     1
102
RTVSPropertyOp42
 70
     1
102
RTVSPropertyOp43
 70
     1
102
RTVSPropertyOp44
 70
     1
102
RTVSPropertyOp45
 70
     1
102
RTVSPropertyOp46
 70
     1
102
RTVSPropertyOp47
 70
     1
102
RTVSPropertyOp48
 70
     1
102
RTVSPropertyOp49
 70
     1
102
RTVSPropertyOp50
 70
     1
102
RTVSPropertyOp51
 70
     0
102
RTVSPropertyOp52
 70
     0
102
RTVSPropertyOp53
 70
     1
102
RTVSPropertyOp54
 70
     1
102
RTVSPropertyOp55
 70
     1
102
RTVSPropertyOp56
 70
     1
102
RTVSPropertyOp57
 70
     1
102
RTVSPropertyOp58
 70
     1
102
RTVSPropertyOp59
 70
     1
102
RTVSPropertyOp60
 70
     1
102
RTVSPropertyOp61
 70
     1
102
RTVSPropertyOp62
 70
     1
  0
XRECORD
  5
4805
102
{ACAD_REACTORS
330
4804
102
}
330
4804
100
AcDbXrecord
280
     1
102
RTVSPost2010Prop28
280
     0
102
RTVSPost2010PropOp28
 70
     1
102
RTVSPost2010Prop29
280
     1
102
RTVSPost2010PropOp29
 70
     1
102
RTVSPost2010Prop30
280
     1
102
RTVSPost2010PropOp30
 70
     1
102
RTVSPost2010Prop31
280
     0
102
RTVSPost2010PropOp31
 70
     1
102
RTVSPost2010Prop32
280
     0
102
RTVSPost2010PropOp32
 70
     1
102
RTVSPost2010Prop33
280
     0
102
RTVSPost2010PropOp33
 70
     1
102
RTVSPost2010Prop34
280
     0
102
RTVSPost2010PropOp34
 70
     1
102
RTVSPost2010Prop35
280
     0
102
RTVSPost2010PropOp35
 70
     1
102
RTVSPost2010Prop36
280
     0
102
RTVSPost2010PropOp36
 70
     1
102
RTVSPost2010Prop37
 90
       50
102
RTVSPost2010PropOp37
 70
     1
102
RTVSPost2010Prop38
140
0.0
102
RTVSPost2010PropOp38
 70
     1
102
RTVSPost2010Prop39
140
1.0
102
RTVSPost2010PropOp39
 70
     1
102
RTVSPost2010Prop40
 90
        0
102
RTVSPost2010PropOp40
 70
     1
102
RTVSPost2010Prop41ColorIndex
 90
       18
102
RTVSPost2010Prop41ColorRGB
 90
        0
102
RTVSPost2010PropOp41
 70
     1
102
RTVSPost2010Prop42
 90
       50
102
RTVSPost2010PropOp42
 70
     1
102
RTVSPost2010Prop43
 90
        3
102
RTVSPost2010PropOp43
 70
     1
102
RTVSPost2010Prop44ColorIndex
 90
        5
102
RTVSPost2010Prop44ColorRGB
 90
      255
102
RTVSPost2010PropOp44
 70
     1
102
RTVSPost2010Prop45
280
     0
102
RTVSPost2010PropOp45
 70
     1
102
RTVSPost2010Prop46
 90
       50
102
RTVSPost2010PropOp46
 70
     1
102
RTVSPost2010Prop47
 90
       50
102
RTVSPost2010PropOp47
 70
     1
102
RTVSPost2010Prop48
 90
       50
102
RTVSPost2010PropOp48
 70
     1
102
RTVSPost2010Prop49
280
     0
102
RTVSPost2010PropOp49
 70
     1
102
RTVSPost2010Prop50
 90
       50
102
RTVSPost2010PropOp50
 70
     1
102
RTVSPost2010Prop51ColorIndex
 90
      256
102
RTVSPost2010Prop51ColorRGB
 90
-16777216
102
RTVSPost2010PropOp51
 70
     0
102
RTVSPost2010Prop52
140
1.0
102
RTVSPost2010PropOp52
 70
     0
102
RTVSPost2010Prop53
 90
        2
102
RTVSPost2010PropOp53
 70
     1
102
RTVSPost2010Prop54
  1
strokes_ogs.tif
102
RTVSPost2010PropOp54
 70
     1
102
RTVSPost2010Prop55
280
     0
102
RTVSPost2010PropOp55
 70
     1
102
RTVSPost2010Prop56
140
1.0
102
RTVSPost2010PropOp56
 70
     1
102
RTVSPost2010Prop57
140
1.0
102
RTVSPost2010PropOp57
 70
     1
102
RTVSPropertyOp0
 70
     1
102
RTVSPropertyOp1
 70
     1
102
RTVSPropertyOp2
 70
     1
102
RTVSPropertyOp3
 70
     1
102
RTVSPropertyOp4
 70
     1
102
RTVSPropertyOp5
 70
     1
102
RTVSPropertyOp6
 70
     1
102
RTVSPropertyOp7
 70
     1
102
RTVSPropertyOp8
 70
     1
102
RTVSPropertyOp9
 70
     1
102
RTVSPropertyOp10
 70
     1
102
RTVSPropertyOp11
 70
     1
102
RTVSPropertyOp12
 70
     1
102
RTVSPropertyOp13
 70
     1
102
RTVSPropertyOp14
 70
     1
102
RTVSPropertyOp15
 70
     1
102
RTVSPropertyOp16
 70
     1
102
RTVSPropertyOp17
 70
     1
102
RTVSPropertyOp18
 70
     1
102
RTVSPropertyOp19
 70
     1
102
RTVSPropertyOp20
 70
     1
102
RTVSPropertyOp21
 70
     1
102
RTVSPropertyOp22
 70
     1
102
RTVSPropertyOp23
 70
     1
102
RTVSPropertyOp24
 70
     1
102
RTVSPropertyOp25
 70
     1
102
RTVSPropertyOp26
 70
     1
102
RTVSPropertyOp27
 70
     1
102
RTVSPropertyOp28
 70
     1
102
RTVSPropertyOp29
 70
     1
102
RTVSPropertyOp30
 70
     1
102
RTVSPropertyOp31
 70
     1
102
RTVSPropertyOp32
 70
     1
102
RTVSPropertyOp33
 70
     1
102
RTVSPropertyOp34
 70
     1
102
RTVSPropertyOp35
 70
     1
102
RTVSPropertyOp36
 70
     1
102
RTVSPropertyOp37
 70
     1
102
RTVSPropertyOp38
 70
     1
102
RTVSPropertyOp39
 70
     1
102
RTVSPropertyOp40
 70
     1
102
RTVSPropertyOp41
 70
     1
102
RTVSPropertyOp42
 70
     1
102
RTVSPropertyOp43
 70
     1
102
RTVSPropertyOp44
 70
     1
102
RTVSPropertyOp45
 70
     1
102
RTVSPropertyOp46
 70
     1
102
RTVSPropertyOp47
 70
     1
102
RTVSPropertyOp48
 70
     1
102
RTVSPropertyOp49
 70
     1
102
RTVSPropertyOp50
 70
     1
102
RTVSPropertyOp51
 70
     0
102
RTVSPropertyOp52
 70
     0
102
RTVSPropertyOp53
 70
     1
102
RTVSPropertyOp54
 70
     1
102
RTVSPropertyOp55
 70
     1
102
RTVSPropertyOp56
 70
     1
102
RTVSPropertyOp57
 70
     1
102
RTVSPropertyOp58
 70
     1
102
RTVSPropertyOp59
 70
     1
102
RTVSPropertyOp60
 70
     1
102
RTVSPropertyOp61
 70
     1
102
RTVSPropertyOp62
 70
     1
  0
ENDSEC
  0
EOF
