  0
SECTION
  2
HEADER
  9
$ACADVER
  1
AC1015
  9
$ACADMAINTVER
 70
    18
  9
$DWGCODEPAGE
  3
ANSI_1252
  9
$INSBASE
 10
0.0
 20
0.0
 30
0.0
  9
$EXTMIN
 10
-255.4312126983786
 20
-391.1765897297028
 30
-0.0015258207003583
  9
$EXTMAX
 10
347.4023446433739
 20
333.5811774919056
 30
0.0000000349246037
  9
$LIMMIN
 10
0.0
 20
0.0
  9
$LIMMAX
 10
420.0
 20
297.0
  9
$ORTHOMODE
 70
     0
  9
$REGENMODE
 70
     1
  9
$FILLMODE
 70
     1
  9
$QTEXTMODE
 70
     0
  9
$MIRRTEXT
 70
     0
  9
$LTSCALE
 40
1.0
  9
$ATTMODE
 70
     1
  9
$TEXTSIZE
 40
2.5
  9
$TRACEWID
 40
1.0
  9
$TEXTSTYLE
  7
Standard
  9
$CLAYER
  8
0
  9
$CELTYPE
  6
ByLayer
  9
$CECOLOR
 62
   256
  9
$CELTSCALE
 40
1.0
  9
$DISPSILH
 70
     0
  9
$DIMSCALE
 40
1.0
  9
$DIMASZ
 40
2.5
  9
$DIMEXO
 40
0.625
  9
$DIMDLI
 40
3.75
  9
$DIMRND
 40
0.0
  9
$DIMDLE
 40
0.0
  9
$DIMEXE
 40
1.25
  9
$DIMTP
 40
0.0
  9
$DIMTM
 40
0.0
  9
$DIMTXT
 40
2.5
  9
$DIMCEN
 40
2.5
  9
$DIMTSZ
 40
0.0
  9
$DIMTOL
 70
     0
  9
$DIMLIM
 70
     0
  9
$DIMTIH
 70
     0
  9
$DIMTOH
 70
     0
  9
$DIMSE1
 70
     0
  9
$DIMSE2
 70
     0
  9
$DIMTAD
 70
     1
  9
$DIMZIN
 70
     8
  9
$DIMBLK
  1

  9
$DIMASO
 70
     1
  9
$DIMSHO
 70
     1
  9
$DIMPOST
  1

  9
$DIMAPOST
  1

  9
$DIMALT
 70
     0
  9
$DIMALTD
 70
     3
  9
$DIMALTF
 40
0.03937007874016
  9
$DIMLFAC
 40
1.0
  9
$DIMTOFL
 70
     1
  9
$DIMTVP
 40
0.0
  9
$DIMTIX
 70
     0
  9
$DIMSOXD
 70
     0
  9
$DIMSAH
 70
     0
  9
$DIMBLK1
  1

  9
$DIMBLK2
  1

  9
$DIMSTYLE
  2
ISO-25
  9
$DIMCLRD
 70
     0
  9
$DIMCLRE
 70
     0
  9
$DIMCLRT
 70
     0
  9
$DIMTFAC
 40
1.0
  9
$DIMGAP
 40
0.625
  9
$DIMJUST
 70
     0
  9
$DIMSD1
 70
     0
  9
$DIMSD2
 70
     0
  9
$DIMTOLJ
 70
     0
  9
$DIMTZIN
 70
     8
  9
$DIMALTZ
 70
     0
  9
$DIMALTTZ
 70
     0
  9
$DIMUPT
 70
     0
  9
$DIMDEC
 70
     2
  9
$DIMTDEC
 70
     2
  9
$DIMALTU
 70
     2
  9
$DIMALTTD
 70
     3
  9
$DIMTXSTY
  7
Standard
  9
$DIMAUNIT
 70
     0
  9
$DIMADEC
 70
     0
  9
$DIMALTRND
 40
0.0
  9
$DIMAZIN
 70
     0
  9
$DIMDSEP
 70
    44
  9
$DIMATFIT
 70
     3
  9
$DIMFRAC
 70
     0
  9
$DIMLDRBLK
  1

  9
$DIMLUNIT
 70
     2
  9
$DIMLWD
 70
    -2
  9
$DIMLWE
 70
    -2
  9
$DIMTMOVE
 70
     0
  9
$LUNITS
 70
     2
  9
$LUPREC
 70
     4
  9
$SKETCHINC
 40
1.0
  9
$FILLETRAD
 40
0.0
  9
$AUNITS
 70
     0
  9
$AUPREC
 70
     0
  9
$MENU
  1
.
  9
$ELEVATION
 40
0.0
  9
$PELEVATION
 40
0.0
  9
$THICKNESS
 40
0.0
  9
$LIMCHECK
 70
     0
  9
$CHAMFERA
 40
0.0
  9
$CHAMFERB
 40
0.0
  9
$CHAMFERC
 40
0.0
  9
$CHAMFERD
 40
0.0
  9
$SKPOLY
 70
     0
  9
$TDCREATE
 40
2460719.406504630
  9
$TDUCREATE
 40
2460719.114837963
  9
$TDUPDATE
 40
2460719.411388889
  9
$TDUUPDATE
 40
2460719.119722223
  9
$TDINDWG
 40
0.0020486111
  9
$TDUSRTIMER
 40
0.0020486111
  9
$USRTIMER
 70
     1
  9
$ANGBASE
 50
0.0
  9
$ANGDIR
 70
     0
  9
$PDMODE
 70
     0
  9
$PDSIZE
 40
0.0
  9
$PLINEWID
 40
0.0
  9
$SPLFRAME
 70
     0
  9
$SPLINETYPE
 70
     6
  9
$SPLINESEGS
 70
     8
  9
$HANDSEED
  5
445B
  9
$SURFTAB1
 70
     6
  9
$SURFTAB2
 70
     6
  9
$SURFTYPE
 70
     6
  9
$SURFU
 70
     6
  9
$SURFV
 70
     6
  9
$UCSBASE
  2

  9
$UCSNAME
  2

  9
$UCSORG
 10
0.0
 20
0.0
 30
0.0
  9
$UCSXDIR
 10
1.0
 20
0.0
 30
0.0
  9
$UCSYDIR
 10
0.0
 20
1.0
 30
0.0
  9
$UCSORTHOREF
  2

  9
$UCSORTHOVIEW
 70
     0
  9
$UCSORGTOP
 10
0.0
 20
0.0
 30
0.0
  9
$UCSORGBOTTOM
 10
0.0
 20
0.0
 30
0.0
  9
$UCSORGLEFT
 10
0.0
 20
0.0
 30
0.0
  9
$UCSORGRIGHT
 10
0.0
 20
0.0
 30
0.0
  9
$UCSORGFRONT
 10
0.0
 20
0.0
 30
0.0
  9
$UCSORGBACK
 10
0.0
 20
0.0
 30
0.0
  9
$PUCSBASE
  2

  9
$PUCSNAME
  2

  9
$PUCSORG
 10
0.0
 20
0.0
 30
0.0
  9
$PUCSXDIR
 10
1.0
 20
0.0
 30
0.0
  9
$PUCSYDIR
 10
0.0
 20
1.0
 30
0.0
  9
$PUCSORTHOREF
  2

  9
$PUCSORTHOVIEW
 70
     0
  9
$PUCSORGTOP
 10
0.0
 20
0.0
 30
0.0
  9
$PUCSORGBOTTOM
 10
0.0
 20
0.0
 30
0.0
  9
$PUCSORGLEFT
 10
0.0
 20
0.0
 30
0.0
  9
$PUCSORGRIGHT
 10
0.0
 20
0.0
 30
0.0
  9
$PUCSORGFRONT
 10
0.0
 20
0.0
 30
0.0
  9
$PUCSORGBACK
 10
0.0
 20
0.0
 30
0.0
  9
$USERI1
 70
     0
  9
$USERI2
 70
     0
  9
$USERI3
 70
     0
  9
$USERI4
 70
     0
  9
$USERI5
 70
     0
  9
$USERR1
 40
0.0
  9
$USERR2
 40
0.0
  9
$USERR3
 40
0.0
  9
$USERR4
 40
0.0
  9
$USERR5
 40
0.0
  9
$WORLDVIEW
 70
     1
  9
$SHADEDGE
 70
     3
  9
$SHADEDIF
 70
    70
  9
$TILEMODE
 70
     1
  9
$MAXACTVP
 70
    48
  9
$PINSBASE
 10
0.0
 20
0.0
 30
0.0
  9
$PLIMCHECK
 70
     0
  9
$PEXTMIN
 10
0.0
 20
0.0
 30
0.0
  9
$PEXTMAX
 10
0.0
 20
0.0
 30
0.0
  9
$PLIMMIN
 10
0.0
 20
0.0
  9
$PLIMMAX
 10
12.0
 20
9.0
  9
$UNITMODE
 70
     0
  9
$VISRETAIN
 70
     1
  9
$PLINEGEN
 70
     0
  9
$PSLTSCALE
 70
     1
  9
$TREEDEPTH
 70
  3020
  9
$CMLSTYLE
  2
Standard
  9
$CMLJUST
 70
     0
  9
$CMLSCALE
 40
20.0
  9
$PROXYGRAPHICS
 70
     1
  9
$MEASUREMENT
 70
     1
  9
$CELWEIGHT
370
    -1
  9
$ENDCAPS
280
     0
  9
$JOINSTYLE
280
     0
  9
$LWDISPLAY
290
     0
  9
$INSUNITS
 70
     4
  9
$HYPERLINKBASE
  1

  9
$STYLESHEET
  1

  9
$XEDIT
290
     1
  9
$CEPSNTYPE
380
     0
  9
$PSTYLEMODE
290
     1
  9
$FINGERPRINTGUID
  2
{375C693C-302E-BC42-B92A-19F6C371B7B0}
  9
$VERSIONGUID
  2
{F71ABB43-0A74-7A43-B129-89E457D5A546}
  9
$EXTNAMES
290
     1
  9
$PSVPSCALE
 40
0.0
  9
$OLESTARTUP
290
     0
  0
ENDSEC
  0
SECTION
  2
CLASSES
  0
CLASS
  1
ACDBDICTIONARYWDFLT
  2
AcDbDictionaryWithDefault
  3
ObjectDBX Classes
 90
        0
280
     0
281
     0
  0
CLASS
  1
ACDBPLACEHOLDER
  2
AcDbPlaceHolder
  3
ObjectDBX Classes
 90
        0
280
     0
281
     0
  0
CLASS
  1
LAYOUT
  2
AcDbLayout
  3
ObjectDBX Classes
 90
        0
280
     0
281
     0
  0
CLASS
  1
DICTIONARYVAR
  2
AcDbDictionaryVar
  3
ObjectDBX Classes
 90
        0
280
     0
281
     0
  0
CLASS
  1
TABLESTYLE
  2
AcDbTableStyle
  3
ObjectDBX Classes
 90
     4095
280
     0
281
     0
  0
CLASS
  1
MATERIAL
  2
AcDbMaterial
  3
ObjectDBX Classes
 90
     1153
280
     0
281
     0
  0
CLASS
  1
VISUALSTYLE
  2
AcDbVisualStyle
  3
ObjectDBX Classes
 90
     4095
280
     0
281
     0
  0
CLASS
  1
SCALE
  2
AcDbScale
  3
ObjectDBX Classes
 90
     1153
280
     0
281
     0
  0
CLASS
  1
MLEADERSTYLE
  2
AcDbMLeaderStyle
  3
ACDB_MLEADERSTYLE_CLASS
 90
     4095
280
     0
281
     0
  0
CLASS
  1
CELLSTYLEMAP
  2
AcDbCellStyleMap
  3
ObjectDBX Classes
 90
     1152
280
     0
281
     0
  0
CLASS
  1
EXACXREFPANELOBJECT
  2
ExAcXREFPanelObject
  3
EXAC_ESW
 90
    33793
280
     0
281
     0
  0
CLASS
  1
NPOCOLLECTION
  2
AcDbImpNonPersistentObjectsCollection
  3
ObjectDBX Classes
 90
    33921
280
     0
281
     0
  0
CLASS
  1
LAYER_INDEX
  2
AcDbLayerIndex
  3
ObjectDBX Classes
 90
    32768
280
     0
281
     0
  0
CLASS
  1
SPATIAL_INDEX
  2
AcDbSpatialIndex
  3
ObjectDBX Classes
 90
    32768
280
     0
281
     0
  0
CLASS
  1
IDBUFFER
  2
AcDbIdBuffer
  3
ObjectDBX Classes
 90
    32768
280
     0
281
     0
  0
CLASS
  1
ACDBSECTIONVIEWSTYLE
  2
AcDbSectionViewStyle
  3
ObjectDBX Classes
 90
     1025
280
     0
281
     0
  0
CLASS
  1
ACDBDETAILVIEWSTYLE
  2
AcDbDetailViewStyle
  3
ObjectDBX Classes
 90
     1025
280
     0
281
     0
  0
CLASS
  1
XRECORD
  2
AcDbXrecord
  3
ObjectDBX Classes
 90
        0
280
     0
281
     0
  0
ENDSEC
  0
SECTION
  2
TABLES
  0
TABLE
  2
VPORT
  5
8
102
{ACAD_XDICTIONARY
360
4369
102
}
330
0
100
AcDbSymbolTable
 70
     1
  0
VPORT
  5
EA
330
8
100
AcDbSymbolTableRecord
100
AcDbViewportTableRecord
  2
*Active
 70
     0
 10
0.0
 20
0.0
 11
1.0
 21
1.0
 12
45.98556597249769
 22
-28.79770611889859
 13
0.0
 23
0.0
 14
10.0
 24
10.0
 15
10.0
 25
10.0
 16
0.0
 26
0.0
 36
1.0
 17
0.0
 27
0.0
 37
0.0
 40
770.7142054880405
 41
0.9846153846153846
 42
50.0
 43
0.0
 44
0.0
 50
0.0
 51
0.0
 71
     0
 72
  1000
 73
     1
 74
     3
 75
     0
 76
     1
 77
     0
 78
     0
281
     0
 65
     1
110
0.0
120
0.0
130
0.0
111
1.0
121
0.0
131
0.0
112
0.0
122
1.0
132
0.0
 79
     0
146
0.0
1001
ACAD_NAV_VCDISPLAY
1070
     3
  0
ENDTAB
  0
TABLE
  2
LTYPE
  5
5
330
0
100
AcDbSymbolTable
 70
     1
  0
LTYPE
  5
14
330
5
100
AcDbSymbolTableRecord
100
AcDbLinetypeTableRecord
  2
ByBlock
 70
     0
  3

 72
    65
 73
     0
 40
0.0
  0
LTYPE
  5
15
330
5
100
AcDbSymbolTableRecord
100
AcDbLinetypeTableRecord
  2
ByLayer
 70
     0
  3

 72
    65
 73
     0
 40
0.0
  0
LTYPE
  5
16
330
5
100
AcDbSymbolTableRecord
100
AcDbLinetypeTableRecord
  2
Continuous
 70
     0
  3
Solid line
 72
    65
 73
     0
 40
0.0
  0
ENDTAB
  0
TABLE
  2
LAYER
  5
2
102
{ACAD_XDICTIONARY
360
1FF
102
}
330
0
100
AcDbSymbolTable
 70
     1
  0
LAYER
  5
10
102
{ACAD_XDICTIONARY
360
13C
102
}
330
2
100
AcDbSymbolTableRecord
100
AcDbLayerTableRecord
  2
0
 70
     0
 62
     7
  6
Continuous
370
    -3
390
F
  0
ENDTAB
  0
TABLE
  2
STYLE
  5
3
330
0
100
AcDbSymbolTable
 70
     1
  0
STYLE
  5
11
330
3
100
AcDbSymbolTableRecord
100
AcDbTextStyleTableRecord
  2
Standard
 70
     0
 40
0.0
 41
1.0
 50
0.0
 71
     0
 42
2.5
  3
arial.ttf
  4

1001
ACAD
1000
Arial
1071
       34
  0
ENDTAB
  0
TABLE
  2
VIEW
  5
6
330
0
100
AcDbSymbolTable
 70
     0
  0
ENDTAB
  0
TABLE
  2
UCS
  5
7
330
0
100
AcDbSymbolTable
 70
     0
  0
ENDTAB
  0
TABLE
  2
APPID
  5
9
330
0
100
AcDbSymbolTable
 70
     8
  0
APPID
  5
12
330
9
100
AcDbSymbolTableRecord
100
AcDbRegAppTableRecord
  2
ACAD
 70
     0
  0
APPID
  5
9E
330
9
100
AcDbSymbolTableRecord
100
AcDbRegAppTableRecord
  2
ACAD_PSEXT
 70
     0
  0
APPID
  5
133
330
9
100
AcDbSymbolTableRecord
100
AcDbRegAppTableRecord
  2
AcadAnnoPO
 70
     0
  0
APPID
  5
134
330
9
100
AcDbSymbolTableRecord
100
AcDbRegAppTableRecord
  2
AcadAnnotative
 70
     0
  0
APPID
  5
135
330
9
100
AcDbSymbolTableRecord
100
AcDbRegAppTableRecord
  2
ACAD_DSTYLE_DIMJAG
 70
     0
  0
APPID
  5
136
330
9
100
AcDbSymbolTableRecord
100
AcDbRegAppTableRecord
  2
ACAD_DSTYLE_DIMTALN
 70
     0
  0
APPID
  5
165
330
9
100
AcDbSymbolTableRecord
100
AcDbRegAppTableRecord
  2
ACAD_MLEADERVER
 70
     0
  0
APPID
  5
217
330
9
100
AcDbSymbolTableRecord
100
AcDbRegAppTableRecord
  2
ACAD_NAV_VCDISPLAY
 70
     0
  0
ENDTAB
  0
TABLE
  2
DIMSTYLE
  5
A
330
0
100
AcDbSymbolTable
 70
     1
100
AcDbDimStyleTable
 71
     0
  0
DIMSTYLE
105
27
330
A
100
AcDbSymbolTableRecord
100
AcDbDimStyleTableRecord
  2
ISO-25
 70
     0
 41
2.5
 42
0.625
 43
3.75
 44
1.25
 73
     0
 74
     0
 77
     1
 78
     8
140
2.5
141
2.5
143
0.03937007874016
147
0.625
171
     3
172
     1
271
     2
272
     2
274
     3
278
    44
283
     0
284
     8
340
11
  0
ENDTAB
  0
TABLE
  2
BLOCK_RECORD
  5
1
330
0
100
AcDbSymbolTable
 70
     7
  0
BLOCK_RECORD
  5
1F
102
{ACAD_XDICTIONARY
360
1CE
102
}
330
1
100
AcDbSymbolTableRecord
100
AcDbBlockTableRecord
  2
*Model_Space
340
22
  0
BLOCK_RECORD
  5
D2
102
{ACAD_XDICTIONARY
360
431C
102
}
330
1
100
AcDbSymbolTableRecord
100
AcDbBlockTableRecord
  2
*Paper_Space
340
D3
  0
BLOCK_RECORD
  5
D6
102
{ACAD_XDICTIONARY
360
431E
102
}
330
1
100
AcDbSymbolTableRecord
100
AcDbBlockTableRecord
  2
*Paper_Space0
340
D7
  0
BLOCK_RECORD
  5
4021
330
1
100
AcDbSymbolTableRecord
100
AcDbBlockTableRecord
  2
SPR120_180-Front
340
0
102
{BLKREFS
331
4312
102
}
  0
BLOCK_RECORD
  5
40A7
330
1
100
AcDbSymbolTableRecord
100
AcDbBlockTableRecord
  2
SPR120_180-Left
340
0
102
{BLKREFS
331
4313
102
}
  0
BLOCK_RECORD
  5
40E2
330
1
100
AcDbSymbolTableRecord
100
AcDbBlockTableRecord
  2
SPR120_180-Right
340
0
102
{BLKREFS
331
4314
102
}
  0
BLOCK_RECORD
  5
411F
330
1
100
AcDbSymbolTableRecord
100
AcDbBlockTableRecord
  2
SPR120_180-Top
340
0
102
{BLKREFS
331
4315
102
}
  0
BLOCK_RECORD
  5
418F
330
1
100
AcDbSymbolTableRecord
100
AcDbBlockTableRecord
  2
SPR120_180-Bottom
340
0
102
{BLKREFS
331
4316
102
}
  0
BLOCK_RECORD
  5
41FB
330
1
100
AcDbSymbolTableRecord
100
AcDbBlockTableRecord
  2
SPR120_180-ISO
340
0
102
{BLKREFS
331
4317
102
}
  0
ENDTAB
  0
ENDSEC
  0
SECTION
  2
BLOCKS
  0
BLOCK
  5
20
330
1F
100
AcDbEntity
  8
0
100
AcDbBlockBegin
  2
*Model_Space
 70
     0
 10
0.0
 20
0.0
 30
0.0
  3
*Model_Space
  1

  0
ENDBLK
  5
21
330
1F
100
AcDbEntity
  8
0
100
AcDbBlockEnd
  0
BLOCK
  5
D4
330
D2
100
AcDbEntity
 67
     1
  8
0
100
AcDbBlockBegin
  2
*Paper_Space
 70
     0
 10
0.0
 20
0.0
 30
0.0
  3
*Paper_Space
  1

  0
ENDBLK
  5
D5
330
D2
100
AcDbEntity
 67
     1
  8
0
100
AcDbBlockEnd
  0
BLOCK
  5
D8
330
D6
100
AcDbEntity
 67
     1
  8
0
100
AcDbBlockBegin
  2
*Paper_Space0
 70
     0
 10
0.0
 20
0.0
 30
0.0
  3
*Paper_Space0
  1

  0
ENDBLK
  5
D9
330
D6
100
AcDbEntity
 67
     1
  8
0
100
AcDbBlockEnd
  0
BLOCK
  5
4022
330
4021
100
AcDbEntity
  8
0
100
AcDbBlockBegin
  2
SPR120_180-Front
 70
     0
 10
0.0
 20
0.0
 30
0.0
  3
SPR120_180-Front
  1

  0
LINE
  5
4024
330
4021
100
AcDbEntity
  8
0
100
AcDbLine
 10
102.527090561
 20
6.269999999999996
 30
0.0
 11
97.52709056099996
 21
1.269999999999996
 31
0.0
  0
LINE
  5
4025
330
4021
100
AcDbEntity
  8
0
100
AcDbLine
 10
-97.52709056100002
 20
1.269999999999996
 30
0.0
 11
-102.527090561
 21
6.269999999999996
 31
0.0
  0
LINE
  5
4026
330
4021
100
AcDbEntity
  8
0
100
AcDbLine
 10
-102.527090561
 20
72.27000000000001
 30
0.0
 11
-97.52709056100002
 21
77.27000000000001
 31
0.0
  0
LINE
  5
4027
330
4021
100
AcDbEntity
  8
0
100
AcDbLine
 10
97.52709056099995
 20
77.27000000000001
 30
0.0
 11
102.5270905609999
 21
72.27000000000001
 31
0.0
  0
LINE
  5
4028
330
4021
100
AcDbEntity
  8
0
100
AcDbLine
 10
102.5270905609999
 20
72.27000000000001
 30
0.0
 11
102.527090561
 21
6.269999999999997
 31
0.0
  0
LINE
  5
4029
330
4021
100
AcDbEntity
  8
0
100
AcDbLine
 10
-102.527090561
 20
6.269999999999996
 30
0.0
 11
-102.527090561
 21
72.27000000000001
 31
0.0
  0
LINE
  5
402A
330
4021
100
AcDbEntity
  8
0
100
AcDbLine
 10
56.49999999999998
 20
77.27000000000001
 30
0.0
 11
97.52709056099995
 21
77.27000000000001
 31
0.0
  0
LINE
  5
402B
330
4021
100
AcDbEntity
  8
0
100
AcDbLine
 10
-56.50000000000002
 20
1.269999999999987
 30
0.0
 11
-97.52709056100002
 21
1.269999999999996
 31
0.0
  0
LINE
  5
402C
330
4021
100
AcDbEntity
  8
0
100
AcDbLine
 10
97.52709056099996
 20
1.269999999999996
 30
0.0
 11
56.49999999999998
 21
1.269999999999987
 31
0.0
  0
ARC
  5
402D
330
4021
100
AcDbEntity
  8
0
100
AcDbCircle
 10
56.49999999999998
 20
78.77000000000004
 30
0.0
 40
1.5
100
AcDbArc
 50
90.0
 51
270.0
  0
LINE
  5
402E
330
4021
100
AcDbEntity
  8
0
100
AcDbLine
 10
-97.52709056100002
 20
77.27000000000001
 30
0.0
 11
-56.50000000000002
 21
77.27000000000001
 31
0.0
  0
ARC
  5
402F
330
4021
100
AcDbEntity
  8
0
100
AcDbCircle
 10
-56.50000000000002
 20
78.77000000000001
 30
0.0
 40
1.5
100
AcDbArc
 50
270.0
 51
90.0
  0
LINE
  5
4030
330
4021
100
AcDbEntity
  8
0
100
AcDbLine
 10
61.5000000000002
 20
80.27000000000002
 30
0.0
 11
61.50000000000023
 21
85.27000000000002
 31
0.0
  0
LINE
  5
4031
330
4021
100
AcDbEntity
  8
0
100
AcDbLine
 10
61.50000000000023
 20
85.27000000000002
 30
0.0
 11
60.00000000000023
 21
85.27000000000002
 31
0.0
  0
LINE
  5
4032
330
4021
100
AcDbEntity
  8
0
100
AcDbLine
 10
60.00000000000023
 20
85.27000000000002
 30
0.0
 11
60.00000000000021
 21
80.27000000000002
 31
0.0
  0
LINE
  5
4033
330
4021
100
AcDbEntity
  8
0
100
AcDbLine
 10
60.00000000000021
 20
80.27000000000002
 30
0.0
 11
61.5000000000002
 21
80.27000000000002
 31
0.0
  0
LINE
  5
4034
330
4021
100
AcDbEntity
  8
0
100
AcDbLine
 10
60.00000000000023
 20
175.67
 30
0.0
 11
61.50000000000023
 21
175.67
 31
0.0
  0
LINE
  5
4035
330
4021
100
AcDbEntity
  8
0
100
AcDbLine
 10
61.50000000000023
 20
175.67
 30
0.0
 11
61.5000000000002
 21
180.67
 31
0.0
  0
LINE
  5
4036
330
4021
100
AcDbEntity
  8
0
100
AcDbLine
 10
-61.5
 20
85.27000000000001
 30
0.0
 11
-61.5
 21
80.27000000000002
 31
0.0
  0
LINE
  5
4037
330
4021
100
AcDbEntity
  8
0
100
AcDbLine
 10
-61.5
 20
80.27000000000002
 30
0.0
 11
-60.0
 21
80.27000000000002
 31
0.0
  0
LINE
  5
4038
330
4021
100
AcDbEntity
  8
0
100
AcDbLine
 10
-60.0
 20
80.27000000000002
 30
0.0
 11
-60.0
 21
85.27000000000001
 31
0.0
  0
LINE
  5
4039
330
4021
100
AcDbEntity
  8
0
100
AcDbLine
 10
-60.0
 20
85.27000000000001
 30
0.0
 11
-61.5
 21
85.27000000000001
 31
0.0
  0
LINE
  5
403A
330
4021
100
AcDbEntity
  8
0
100
AcDbLine
 10
-61.5
 20
180.67
 30
0.0
 11
-61.5
 21
175.67
 31
0.0
  0
LINE
  5
403B
330
4021
100
AcDbEntity
  8
0
100
AcDbLine
 10
-61.5
 20
175.67
 30
0.0
 11
-60.0
 21
175.67
 31
0.0
  0
LINE
  5
403C
330
4021
100
AcDbEntity
  8
0
100
AcDbLine
 10
61.5000000000002
 20
180.67
 30
0.0
 11
60.00000000000021
 21
180.67
 31
0.0
  0
LINE
  5
403D
330
4021
100
AcDbEntity
  8
0
100
AcDbLine
 10
60.00000000000021
 20
180.67
 30
0.0
 11
60.00000000000023
 21
175.67
 31
0.0
  0
LINE
  5
403E
330
4021
100
AcDbEntity
  8
0
100
AcDbLine
 10
-60.0
 20
175.67
 30
0.0
 11
-60.0
 21
180.67
 31
0.0
  0
LINE
  5
403F
330
4021
100
AcDbEntity
  8
0
100
AcDbLine
 10
-60.0
 20
180.67
 30
0.0
 11
-61.5
 21
180.67
 31
0.0
  0
LINE
  5
4040
330
4021
100
AcDbEntity
  8
0
100
AcDbLine
 10
61.49999999999995
 20
-28.42608254450008
 30
0.0
 11
61.49999999999998
 21
-21.35501473263463
 31
0.0
  0
LINE
  5
4041
330
4021
100
AcDbEntity
  8
0
100
AcDbLine
 10
61.49999999999998
 20
-21.35501473263463
 30
0.0
 11
59.99999999999997
 21
-21.35501473263463
 31
0.0
  0
LINE
  5
4042
330
4021
100
AcDbEntity
  8
0
100
AcDbLine
 10
59.99999999999997
 20
-21.35501473263463
 30
0.0
 11
59.99999999999997
 21
-28.42608254450008
 31
0.0
  0
LINE
  5
4043
330
4021
100
AcDbEntity
  8
0
100
AcDbLine
 10
59.99999999999997
 20
-28.42608254450008
 30
0.0
 11
61.49999999999995
 21
-28.42608254450008
 31
0.0
  0
LINE
  5
4044
330
4021
100
AcDbEntity
  8
0
100
AcDbLine
 10
-61.49999999999995
 20
-21.35501473263464
 30
0.0
 11
-61.49999999999993
 21
-28.42608254450009
 31
0.0
  0
LINE
  5
4045
330
4021
100
AcDbEntity
  8
0
100
AcDbLine
 10
-61.49999999999993
 20
-28.42608254450009
 30
0.0
 11
-59.99999999999996
 21
-28.42608254450009
 31
0.0
  0
LINE
  5
4046
330
4021
100
AcDbEntity
  8
0
100
AcDbLine
 10
-59.99999999999996
 20
-28.42608254450009
 30
0.0
 11
-59.99999999999996
 21
-21.35501473263464
 31
0.0
  0
LINE
  5
4047
330
4021
100
AcDbEntity
  8
0
100
AcDbLine
 10
-59.99999999999996
 20
-21.35501473263464
 30
0.0
 11
-61.49999999999995
 21
-21.35501473263464
 31
0.0
  0
LINE
  5
4048
330
4021
100
AcDbEntity
  8
0
100
AcDbLine
 10
61.50000000000023
 20
85.27000000000002
 30
0.0
 11
61.50000000000023
 21
175.67
 31
0.0
  0
LINE
  5
4049
330
4021
100
AcDbEntity
  8
0
100
AcDbLine
 10
60.00000000000023
 20
175.67
 30
0.0
 11
60.00000000000023
 21
85.27000000000002
 31
0.0
  0
LINE
  5
404A
330
4021
100
AcDbEntity
  8
0
100
AcDbLine
 10
-61.5
 20
175.67
 30
0.0
 11
-61.5
 21
85.27000000000001
 31
0.0
  0
LINE
  5
404B
330
4021
100
AcDbEntity
  8
0
100
AcDbLine
 10
-60.0
 20
175.67
 30
0.0
 11
-60.0
 21
85.27000000000001
 31
0.0
  0
LINE
  5
404C
330
4021
100
AcDbEntity
  8
0
100
AcDbLine
 10
56.49999999999998
 20
80.27000000000002
 30
0.0
 11
59.39999999999999
 21
80.27000000000002
 31
0.0
  0
LINE
  5
404D
330
4021
100
AcDbEntity
  8
0
100
AcDbLine
 10
-59.40000000000001
 20
80.27000000000002
 30
0.0
 11
-56.50000000000002
 21
80.27000000000001
 31
0.0
  0
LINE
  5
404E
330
4021
100
AcDbEntity
  8
0
100
AcDbLine
 10
-59.40000000000001
 20
180.67
 30
0.0
 11
59.39999999999999
 21
180.67
 31
0.0
  0
LINE
  5
404F
330
4021
100
AcDbEntity
  8
0
100
AcDbLine
 10
61.50000000000208
 20
-2.263131642256726
 30
0.0
 11
61.49999999999998
 21
-21.35501473263463
 31
0.0
  0
LINE
  5
4050
330
4021
100
AcDbEntity
  8
0
100
AcDbLine
 10
60.00000000000171
 20
-2.263131642256725
 30
0.0
 11
59.99999999999997
 21
-21.35501473263463
 31
0.0
  0
ELLIPSE
  5
4051
330
4021
100
AcDbEntity
  8
0
100
AcDbEllipse
 10
59.39999999999998
 20
-54.16476937947047
 30
0.0
 11
0.6000000000000089
 21
-0.0000000000000007
 31
0.0
210
0.0
220
0.0
230
1.0
 40
0.7071067811865475
 41
4.71238898038475
 42
6.283185307179506
  0
ELLIPSE
  5
4052
330
4021
100
AcDbEntity
  8
0
100
AcDbEllipse
 10
59.39999999999998
 20
-54.16476937947047
 30
0.0
 11
2.100000000000031
 21
-0.0000000000000622
 31
0.0
210
0.0
220
0.0
230
1.0
 40
0.7071067811865527
 41
4.712388980384693
 42
6.283185307179538
  0
LINE
  5
4053
330
4021
100
AcDbEntity
  8
0
100
AcDbLine
 10
61.50000000000208
 20
-2.263131642256726
 30
0.0
 11
60.00000000000171
 21
-2.263131642256725
 31
0.0
  0
ELLIPSE
  5
4054
330
4021
100
AcDbEntity
  8
0
100
AcDbEllipse
 10
-56.50000000000002
 20
0.0236058844764063
 30
0.0
 11
-1.5
 21
0.0000000000001095
 31
0.0
210
0.0
220
0.0
230
1.0
 40
0.7071067811865479
 41
1.570796326795026
 42
2.705254581962135
  0
LINE
  5
4055
330
4021
100
AcDbEntity
  8
0
100
AcDbLine
 10
-56.50000000000002
 20
-1.037054287303408
 30
0.0
 11
-58.79315533855962
 21
-1.037054287303383
 31
0.0
  0
LINE
  5
4056
330
4021
100
AcDbEntity
  8
0
100
AcDbLine
 10
-58.79315533855962
 20
-1.037054287303383
 30
0.0
 11
-59.40000000000001
 21
-1.466158262545942
 31
0.0
  0
LINE
  5
4057
330
4021
100
AcDbEntity
  8
0
100
AcDbLine
 10
59.39999999999999
 20
-1.466158262545947
 30
0.0
 11
58.7931553385596
 21
-1.037054287303388
 31
0.0
  0
LINE
  5
4058
330
4021
100
AcDbEntity
  8
0
100
AcDbLine
 10
58.7931553385596
 20
-1.037054287303388
 30
0.0
 11
56.49999999999998
 21
-1.037054287303413
 31
0.0
  0
ELLIPSE
  5
4059
330
4021
100
AcDbEntity
  8
0
100
AcDbEllipse
 10
56.49999999999998
 20
0.023605884476406
 30
0.0
 11
-1.5
 21
0.0
 31
0.0
210
0.0
220
0.0
230
1.0
 40
0.7071067811865479
 41
0.4363380716279047
 42
1.570796326794896
  0
SPLINE
  5
405A
330
4021
100
AcDbEntity
  8
0
100
AcDbSpline
210
0.0
220
0.0
230
1.0
 70
     8
 71
     3
 72
     8
 73
     4
 74
     0
 42
0.000000001
 43
0.0000000001
 40
-1.0
 40
-1.0
 40
-1.0
 40
-1.0
 40
0.0
 40
0.0
 40
0.0
 40
0.0
 10
-55.01767776087199
 20
-0.0003899405809507
 30
0.0
 10
-54.97251992073981
 20
-0.1594792109354459
 30
0.0
 10
-55.01586474390123
 20
-0.3214850446752977
 30
0.0
 10
-55.14054197002048
 20
-0.4246540092928796
 30
0.0
  0
SPLINE
  5
405B
330
4021
100
AcDbEntity
  8
0
100
AcDbSpline
210
0.0
220
0.0
230
1.0
 70
     8
 71
     3
 72
     8
 73
     4
 74
     0
 42
0.000000001
 43
0.0000000001
 40
-1.0
 40
-1.0
 40
-1.0
 40
-1.0
 40
0.0
 40
0.0
 40
0.0
 40
0.0
 10
55.14054197002042
 20
-0.4246540092928796
 30
0.0
 10
55.01586474390373
 20
-0.3214850446752982
 30
0.0
 10
54.97251992074176
 20
-0.1594792109354491
 30
0.0
 10
55.01767776087193
 20
-0.0003899405809508
 30
0.0
  0
LINE
  5
405C
330
4021
100
AcDbEntity
  8
0
100
AcDbLine
 10
-60.00000000000124
 20
-2.26313164225673
 30
0.0
 11
-61.50000000000154
 21
-2.26313164225673
 31
0.0
  0
SPLINE
  5
405D
330
4021
100
AcDbEntity
  8
0
100
AcDbSpline
210
0.0
220
0.0
230
1.0
 70
     8
 71
     3
 72
     8
 73
     4
 74
     0
 42
0.000000001
 43
0.0000000001
 40
-1.0
 40
-1.0
 40
-1.0
 40
-1.0
 40
0.0
 40
0.0
 40
0.0
 40
0.0
 10
-59.40000000000001
 20
-1.466158262545948
 30
0.0
 10
-59.714159265359
 20
-1.873237411765183
 30
0.0
 10
-60.00000000000003
 20
-2.07819663918027
 30
0.0
 10
-60.00000000000003
 20
-2.263131641492208
 30
0.0
  0
ARC
  5
405E
330
4021
100
AcDbEntity
  8
0
100
AcDbCircle
 10
-56.50000000000002
 20
-0.2299999999999986
 30
0.0
 40
1.5
100
AcDbArc
 50
8.805075259701309
 51
90.0
  0
SPLINE
  5
405F
330
4021
100
AcDbEntity
  8
0
100
AcDbSpline
210
0.0
220
0.0
230
1.0
 70
     8
 71
     3
 72
     8
 73
     4
 74
     0
 42
0.000000001
 43
0.0000000001
 40
-1.0
 40
-1.0
 40
-1.0
 40
-1.0
 40
0.0
 40
0.0
 40
0.0
 40
0.0
 10
60.00000000000001
 20
-2.263131641492194
 30
0.0
 10
60.0
 20
-2.07819663918072
 30
0.0
 10
59.71415926535899
 20
-1.873237411765278
 30
0.0
 10
59.39999999999999
 20
-1.46615826254593
 30
0.0
  0
ARC
  5
4060
330
4021
100
AcDbEntity
  8
0
100
AcDbCircle
 10
56.49999999999998
 20
-0.2299999999999986
 30
0.0
 40
1.5
100
AcDbArc
 50
90.0
 51
171.1949247402987
  0
SPLINE
  5
4061
330
4021
100
AcDbEntity
  8
0
100
AcDbSpline
210
0.0
220
0.0
230
1.0
 70
     8
 71
     3
 72
    16
 73
    12
 74
     0
 42
0.000000001
 43
0.0000000001
 40
0.0
 40
0.0
 40
0.0
 40
0.0
 40
0.0356537247285552
 40
0.0356537247285552
 40
0.0703704956518124
 40
0.0703704956518124
 40
0.1051345640176348
 40
0.1051345640176348
 40
0.1398962718748685
 40
0.1398962718748685
 40
0.1538885733137824
 40
0.1538885733137824
 40
0.1538885733137824
 40
0.1538885733137824
 10
-60.49950000000127
 20
-2.263131641492229
 30
0.0
 10
-60.49949999999906
 20
-2.263131641490674
 30
0.0
 10
-60.47955867539652
 20
-2.26305995101493
 30
0.0
 10
-60.40583172167686
 20
-2.250836451208417
 30
0.0
 10
-60.35213458024689
 20
-2.238741830454944
 30
0.0
 10
-60.2229373042509
 20
-2.194102190367223
 30
0.0
 10
-60.14591985429479
 20
-2.160888677203438
 30
0.0
 10
-59.9857406408594
 20
-2.069479202548119
 30
0.0
 10
-59.90073655253265
 20
-2.010107098207501
 30
0.0
 10
-59.78901418345007
 20
-1.909831885111686
 30
0.0
 10
-59.75758437990342
 20
-1.878943669853036
 30
0.0
 10
-59.72742155524385
 20
-1.846191951394239
 30
0.0
  0
SPLINE
  5
4062
330
4021
100
AcDbEntity
  8
0
100
AcDbSpline
210
0.0
220
0.0
230
1.0
 70
     8
 71
     3
 72
    16
 73
    12
 74
     0
 42
0.000000001
 43
0.0000000001
 40
0.0
 40
0.0
 40
0.0
 40
0.0
 40
0.0356266149325311
 40
0.0356266149325311
 40
0.0703447701792013
 40
0.0703447701792013
 40
0.1051087694987997
 40
0.1051087694987997
 40
0.1398704808040339
 40
0.1398704808040339
 40
0.153888864703022
 40
0.153888864703022
 40
0.153888864703022
 40
0.153888864703022
 10
59.72742155524386
 20
-1.846191951394287
 30
0.0
 10
59.80422088265372
 20
-1.92958301232912
 30
0.0
 10
59.88999615129886
 20
-2.001172959730675
 30
0.0
 10
60.05564046641649
 20
-2.113266523261797
 30
0.0
 10
60.13750261648823
 20
-2.155953002275099
 30
0.0
 10
60.28182181890541
 20
-2.217016702989488
 30
0.0
 10
60.34591305088967
 20
-2.236189491810355
 30
0.0
 10
60.44238223265217
 20
-2.258395304186651
 30
0.0
 10
60.47587215056915
 20
-2.261811174867069
 30
0.0
 10
60.49650501536338
 20
-2.26313097191642
 30
0.0
 10
60.49950000000011
 20
-2.263131641491597
 30
0.0
 10
60.49950000000003
 20
-2.263131641492207
 30
0.0
  0
LINE
  5
4063
330
4021
100
AcDbEntity
  8
0
100
AcDbLine
 10
61.49999999999997
 20
-54.16476937947052
 30
0.0
 11
61.49999999999995
 21
-28.42608254450008
 31
0.0
  0
LINE
  5
4064
330
4021
100
AcDbEntity
  8
0
100
AcDbLine
 10
-61.49999999999993
 20
-28.42608254450009
 30
0.0
 11
-61.49999999999997
 21
-54.16476937947052
 31
0.0
  0
LINE
  5
4065
330
4021
100
AcDbEntity
  8
0
100
AcDbLine
 10
-59.99999999999996
 20
-28.42608254450009
 30
0.0
 11
-59.99999999999996
 21
-54.16476937947052
 31
0.0
  0
LINE
  5
4066
330
4021
100
AcDbEntity
  8
0
100
AcDbLine
 10
-59.39999999999998
 20
-54.58903344818243
 30
0.0
 11
59.39999999999998
 21
-54.58903344818243
 31
0.0
  0
LINE
  5
4067
330
4021
100
AcDbEntity
  8
0
100
AcDbLine
 10
59.99999999999996
 20
-54.16476937947052
 30
0.0
 11
59.99999999999997
 21
-28.42608254450008
 31
0.0
  0
LINE
  5
4068
330
4021
100
AcDbEntity
  8
0
100
AcDbLine
 10
-59.39999999999998
 20
-55.64969361996226
 30
0.0
 11
59.39999999999998
 21
-55.64969361996226
 31
0.0
  0
LINE
  5
4069
330
4021
100
AcDbEntity
  8
0
100
AcDbLine
 10
-61.50000000000154
 20
-2.26313164225673
 30
0.0
 11
-61.49999999999995
 21
-21.35501473263464
 31
0.0
  0
LINE
  5
406A
330
4021
100
AcDbEntity
  8
0
100
AcDbLine
 10
-60.00000000000124
 20
-2.26313164225673
 30
0.0
 11
-59.99999999999996
 21
-21.35501473263464
 31
0.0
  0
CIRCLE
  5
406B
330
4021
100
AcDbEntity
  8
0
100
AcDbCircle
 10
49.99999999999999
 20
149.77
 30
0.0
 40
2.5
  0
CIRCLE
  5
406C
330
4021
100
AcDbEntity
  8
0
100
AcDbCircle
 10
49.99999999999999
 20
109.7699999999999
 30
0.0
 40
2.5
  0
CIRCLE
  5
406D
330
4021
100
AcDbEntity
  8
0
100
AcDbCircle
 10
49.99999999999999
 20
69.76999999999996
 30
0.0
 40
2.5
  0
CIRCLE
  5
406E
330
4021
100
AcDbEntity
  8
0
100
AcDbCircle
 10
49.99999999999999
 20
29.76999999999997
 30
0.0
 40
2.5
  0
CIRCLE
  5
406F
330
4021
100
AcDbEntity
  8
0
100
AcDbCircle
 10
39.99999999999999
 20
169.77
 30
0.0
 40
2.5
  0
CIRCLE
  5
4070
330
4021
100
AcDbEntity
  8
0
100
AcDbCircle
 10
39.99999999999999
 20
129.77
 30
0.0
 40
2.5
  0
CIRCLE
  5
4071
330
4021
100
AcDbEntity
  8
0
100
AcDbCircle
 10
39.99999999999999
 20
89.76999999999996
 30
0.0
 40
2.5
  0
CIRCLE
  5
4072
330
4021
100
AcDbEntity
  8
0
100
AcDbCircle
 10
39.99999999999999
 20
49.76999999999996
 30
0.0
 40
2.5
  0
CIRCLE
  5
4073
330
4021
100
AcDbEntity
  8
0
100
AcDbCircle
 10
39.99999999999999
 20
9.769999999999965
 30
0.0
 40
2.5
  0
CIRCLE
  5
4074
330
4021
100
AcDbEntity
  8
0
100
AcDbCircle
 10
-40.0
 20
149.77
 30
0.0
 40
2.5
  0
CIRCLE
  5
4075
330
4021
100
AcDbEntity
  8
0
100
AcDbCircle
 10
-40.0
 20
109.77
 30
0.0
 40
2.5
  0
CIRCLE
  5
4076
330
4021
100
AcDbEntity
  8
0
100
AcDbCircle
 10
-40.0
 20
69.76999999999998
 30
0.0
 40
2.5
  0
CIRCLE
  5
4077
330
4021
100
AcDbEntity
  8
0
100
AcDbCircle
 10
-40.0
 20
29.76999999999998
 30
0.0
 40
2.5
  0
CIRCLE
  5
4078
330
4021
100
AcDbEntity
  8
0
100
AcDbCircle
 10
-50.00000000000001
 20
169.77
 30
0.0
 40
2.5
  0
CIRCLE
  5
4079
330
4021
100
AcDbEntity
  8
0
100
AcDbCircle
 10
-50.00000000000001
 20
129.77
 30
0.0
 40
2.5
  0
CIRCLE
  5
407A
330
4021
100
AcDbEntity
  8
0
100
AcDbCircle
 10
-50.00000000000001
 20
89.76999999999998
 30
0.0
 40
2.5
  0
CIRCLE
  5
407B
330
4021
100
AcDbEntity
  8
0
100
AcDbCircle
 10
-50.00000000000001
 20
49.76999999999998
 30
0.0
 40
2.5
  0
CIRCLE
  5
407C
330
4021
100
AcDbEntity
  8
0
100
AcDbCircle
 10
-50.00000000000001
 20
9.769999999999983
 30
0.0
 40
2.5
  0
CIRCLE
  5
407D
330
4021
100
AcDbEntity
  8
0
100
AcDbCircle
 10
-73.02709056100001
 20
69.76999999999998
 30
0.0
 40
2.5
  0
CIRCLE
  5
407E
330
4021
100
AcDbEntity
  8
0
100
AcDbCircle
 10
67.02709056099992
 20
69.76999999999996
 30
0.0
 40
2.5
  0
CIRCLE
  5
407F
330
4021
100
AcDbEntity
  8
0
100
AcDbCircle
 10
-67.02709056099999
 20
29.76999999999999
 30
0.0
 40
2.5
  0
CIRCLE
  5
4080
330
4021
100
AcDbEntity
  8
0
100
AcDbCircle
 10
73.02709056099994
 20
29.76999999999998
 30
0.0
 40
2.5
  0
ELLIPSE
  5
4081
330
4021
100
AcDbEntity
  8
0
100
AcDbEllipse
 10
-22.50000000000001
 20
0.0236058844764063
 30
0.0
 11
-2.5
 21
0.0
 31
0.0
210
0.0
220
0.0
230
1.0
 40
0.7071067811865479
 41
0.2563733270184496
 42
1.570796326794896
  0
LINE
  5
4082
330
4021
100
AcDbEntity
  8
0
100
AcDbLine
 10
-17.50000000000001
 20
-1.744161068489967
 30
0.0
 11
-22.50000000000001
 21
-1.744161068489967
 31
0.0
  0
ELLIPSE
  5
4083
330
4021
100
AcDbEntity
  8
0
100
AcDbEllipse
 10
-17.50000000000001
 20
0.0236058844764062
 30
0.0
 11
2.499999999999999
 21
-0.0000000000000003
 31
0.0
210
0.0
220
0.0
230
1.0
 40
0.7071067811865479
 41
4.712388980384689
 42
6.026811980161137
  0
SPLINE
  5
4084
330
4021
100
AcDbEntity
  8
0
100
AcDbSpline
210
0.0
220
0.0
230
1.0
 70
     8
 71
     3
 72
     8
 73
     4
 74
     0
 42
0.000000001
 43
0.0000000001
 40
-1.0
 40
-1.0
 40
-1.0
 40
-1.0
 40
0.0
 40
0.0
 40
0.0
 40
0.0
 10
-24.91828991960764
 20
-0.4246540092928796
 30
0.0
 10
-24.99189972302028
 20
-0.3163012038324997
 30
0.0
 10
-25.01609483643938
 20
-0.1581319339738405
 30
0.0
 10
-24.98943351399744
 20
-0.0003899405809503
 30
0.0
  0
SPLINE
  5
4085
330
4021
100
AcDbEntity
  8
0
100
AcDbSpline
210
0.0
220
0.0
230
1.0
 70
     8
 71
     3
 72
     8
 73
     4
 74
     0
 42
0.000000001
 43
0.0000000001
 40
-1.0
 40
-1.0
 40
-1.0
 40
-1.0
 40
0.0
 40
0.0
 40
0.0
 40
0.0
 10
-15.01056648600258
 20
-0.0003899405809504
 30
0.0
 10
-14.9839051635608
 20
-0.1581319339738713
 30
0.0
 10
-15.00810027697978
 20
-0.3163012038325279
 30
0.0
 10
-15.08171008039238
 20
-0.4246540092928794
 30
0.0
  0
ARC
  5
4086
330
4021
100
AcDbEntity
  8
0
100
AcDbCircle
 10
-17.50000000000001
 20
-0.2299999999999986
 30
0.0
 40
2.5
100
AcDbArc
 50
5.269701326164559
 51
90.0
  0
LINE
  5
4087
330
4021
100
AcDbEntity
  8
0
100
AcDbLine
 10
-22.50000000000001
 20
2.270000000000001
 30
0.0
 11
-17.50000000000001
 21
2.270000000000001
 31
0.0
  0
ARC
  5
4088
330
4021
100
AcDbEntity
  8
0
100
AcDbCircle
 10
-22.50000000000001
 20
-0.2299999999999986
 30
0.0
 40
2.5
100
AcDbArc
 50
90.0
 51
174.7302986738354
  0
ELLIPSE
  5
4089
330
4021
100
AcDbEntity
  8
0
100
AcDbEllipse
 10
17.49999999999999
 20
0.0236058844764062
 30
0.0
 11
-2.5
 21
0.0
 31
0.0
210
0.0
220
0.0
230
1.0
 40
0.7071067811865479
 41
0.2563733270184496
 42
1.570796326794896
  0
LINE
  5
408A
330
4021
100
AcDbEntity
  8
0
100
AcDbLine
 10
22.5
 20
-1.744161068489969
 30
0.0
 11
17.49999999999999
 21
-1.744161068489969
 31
0.0
  0
ELLIPSE
  5
408B
330
4021
100
AcDbEntity
  8
0
100
AcDbEllipse
 10
22.5
 20
0.0236058844764063
 30
0.0
 11
2.5
 21
-0.0000000000000008
 31
0.0
210
0.0
220
0.0
230
1.0
 40
0.7071067811865479
 41
4.712388980384689
 42
6.026811980161137
  0
SPLINE
  5
408C
330
4021
100
AcDbEntity
  8
0
100
AcDbSpline
210
0.0
220
0.0
230
1.0
 70
     8
 71
     3
 72
     8
 73
     4
 74
     0
 42
0.000000001
 43
0.0000000001
 40
-1.0
 40
-1.0
 40
-1.0
 40
-1.0
 40
0.0
 40
0.0
 40
0.0
 40
0.0
 10
15.08171008039235
 20
-0.4246540092928794
 30
0.0
 10
15.00810027697997
 20
-0.3163012038325243
 30
0.0
 10
14.98390516356048
 20
-0.1581319339738665
 30
0.0
 10
15.01056648600256
 20
-0.0003899405809504
 30
0.0
  0
SPLINE
  5
408D
330
4021
100
AcDbEntity
  8
0
100
AcDbSpline
210
0.0
220
0.0
230
1.0
 70
     8
 71
     3
 72
     8
 73
     4
 74
     0
 42
0.000000001
 43
0.0000000001
 40
-1.0
 40
-1.0
 40
-1.0
 40
-1.0
 40
0.0
 40
0.0
 40
0.0
 40
0.0
 10
24.98943351399743
 20
-0.0003899405809504
 30
0.0
 10
25.01609483643946
 20
-0.1581319339738421
 30
0.0
 10
24.99189972302031
 20
-0.3163012038325015
 30
0.0
 10
24.91828991960763
 20
-0.4246540092928796
 30
0.0
  0
ARC
  5
408E
330
4021
100
AcDbEntity
  8
0
100
AcDbCircle
 10
22.5
 20
-0.2299999999999986
 30
0.0
 40
2.5
100
AcDbArc
 50
5.269701326164559
 51
90.0
  0
LINE
  5
408F
330
4021
100
AcDbEntity
  8
0
100
AcDbLine
 10
17.49999999999999
 20
2.270000000000001
 30
0.0
 11
22.5
 21
2.270000000000001
 31
0.0
  0
ARC
  5
4090
330
4021
100
AcDbEntity
  8
0
100
AcDbCircle
 10
17.49999999999999
 20
-0.2299999999999986
 30
0.0
 40
2.5
100
AcDbArc
 50
90.0
 51
174.7302986738354
  0
SPLINE
  5
4091
330
4021
100
AcDbEntity
  8
0
100
AcDbSpline
210
0.0
220
0.0
230
1.0
 70
     8
 71
     3
 72
     8
 73
     4
 74
     0
 42
0.000000001
 43
0.0000000001
 40
-1.0
 40
-1.0
 40
-1.0
 40
-1.0
 40
0.0
 40
0.0
 40
0.0
 40
0.0
 10
-40.01056648600259
 20
-0.0003899405809506
 30
0.0
 10
-39.98390516356046
 20
-0.1581319339738718
 30
0.0
 10
-40.00810027697968
 20
-0.3163012038324724
 30
0.0
 10
-40.08171008039237
 20
-0.4246540092928794
 30
0.0
  0
ELLIPSE
  5
4092
330
4021
100
AcDbEntity
  8
0
100
AcDbEllipse
 10
-42.5
 20
0.0236058844764062
 30
0.0
 11
2.499999999999999
 21
-0.0000000000000004
 31
0.0
210
0.0
220
0.0
230
1.0
 40
0.7071067811865479
 41
3.39796598060824
 42
6.026811980161135
  0
ELLIPSE
  5
4093
330
4021
100
AcDbEntity
  8
0
100
AcDbEllipse
 10
42.5
 20
0.0236058844764063
 30
0.0
 11
2.5
 21
-0.0000000000000005
 31
0.0
210
0.0
220
0.0
230
1.0
 40
0.7071067811865479
 41
3.397965980608241
 42
6.026811980161136
  0
SPLINE
  5
4094
330
4021
100
AcDbEntity
  8
0
100
AcDbSpline
210
0.0
220
0.0
230
1.0
 70
     8
 71
     3
 72
     8
 73
     4
 74
     0
 42
0.000000001
 43
0.0000000001
 40
-1.0
 40
-1.0
 40
-1.0
 40
-1.0
 40
0.0
 40
0.0
 40
0.0
 40
0.0
 10
40.08171008039236
 20
-0.4246540092928802
 30
0.0
 10
40.00810027697983
 20
-0.3163012038324944
 30
0.0
 10
39.98390516356058
 20
-0.1581319339738693
 30
0.0
 10
40.01056648600257
 20
-0.0003899405809504
 30
0.0
  0
SPLINE
  5
4095
330
4021
100
AcDbEntity
  8
0
100
AcDbSpline
210
0.0
220
0.0
230
1.0
 70
     8
 71
     3
 72
     8
 73
     4
 74
     0
 42
0.000000001
 43
0.0000000001
 40
-1.0
 40
-1.0
 40
-1.0
 40
-1.0
 40
0.0
 40
0.0
 40
0.0
 40
0.0
 10
-44.91828991960765
 20
-0.4246540092928802
 30
0.0
 10
-44.99189972302027
 20
-0.3163012038325028
 30
0.0
 10
-45.01609483643965
 20
-0.1581319339738779
 30
0.0
 10
-44.98943351399742
 20
-0.0003899405809503
 30
0.0
  0
ARC
  5
4096
330
4021
100
AcDbEntity
  8
0
100
AcDbCircle
 10
-42.5
 20
-0.2299999999999986
 30
0.0
 40
2.499999999999999
100
AcDbArc
 50
5.269701326164559
 51
174.7302986738354
  0
SPLINE
  5
4097
330
4021
100
AcDbEntity
  8
0
100
AcDbSpline
210
0.0
220
0.0
230
1.0
 70
     8
 71
     3
 72
     8
 73
     4
 74
     0
 42
0.000000001
 43
0.0000000001
 40
-1.0
 40
-1.0
 40
-1.0
 40
-1.0
 40
0.0
 40
0.0
 40
0.0
 40
0.0
 10
44.98943351399742
 20
-0.0003899405809506
 30
0.0
 10
45.01609483643922
 20
-0.1581319339738664
 30
0.0
 10
44.99189972302032
 20
-0.3163012038324644
 30
0.0
 10
44.91828991960763
 20
-0.4246540092928794
 30
0.0
  0
ARC
  5
4098
330
4021
100
AcDbEntity
  8
0
100
AcDbCircle
 10
42.5
 20
-0.2299999999999986
 30
0.0
 40
2.5
100
AcDbArc
 50
5.269701326164559
 51
174.7302986738354
  0
SPLINE
  5
4099
330
4021
100
AcDbEntity
  8
0
100
AcDbSpline
210
0.0
220
0.0
230
1.0
 70
     8
 71
     3
 72
     8
 73
     4
 74
     0
 42
0.000000001
 43
0.0000000001
 40
-1.0
 40
-1.0
 40
-1.0
 40
-1.0
 40
0.0
 40
0.0
 40
0.0
 40
0.0
 10
-4.91828992013192
 20
-0.4246540092928794
 30
0.0
 10
-4.99189972330745
 20
-0.316301203816359
 30
0.0
 10
-5.016094836485378
 20
-0.1581319339514803
 30
0.0
 10
-4.989433513812965
 20
-0.0003899405809506
 30
0.0
  0
ELLIPSE
  5
409A
330
4021
100
AcDbEntity
  8
0
100
AcDbEllipse
 10
2.499999999999999
 20
0.0236058830621926
 30
0.0
 11
2.5
 21
-0.0000000000000004
 31
0.0
210
0.0
220
0.0
230
1.0
 40
0.7071067811865479
 41
4.712388980384682
 42
6.026811980988168
  0
LINE
  5
409B
330
4021
100
AcDbEntity
  8
0
100
AcDbLine
 10
2.499999999999982
 20
-1.744161069904182
 30
0.0
 11
-2.500000000000008
 21
-1.744161069904182
 31
0.0
  0
ELLIPSE
  5
409C
330
4021
100
AcDbEntity
  8
0
100
AcDbEllipse
 10
-2.500000000000008
 20
0.0236058830621926
 30
0.0
 11
-2.5
 21
0.0000000000000004
 31
0.0
210
0.0
220
0.0
230
1.0
 40
0.7071067811865479
 41
0.2563733261914187
 42
1.570796326794896
  0
SPLINE
  5
409D
330
4021
100
AcDbEntity
  8
0
100
AcDbSpline
210
0.0
220
0.0
230
1.0
 70
     8
 71
     3
 72
     8
 73
     4
 74
     0
 42
0.000000001
 43
0.0000000001
 40
-1.0
 40
-1.0
 40
-1.0
 40
-1.0
 40
0.0
 40
0.0
 40
0.0
 40
0.0
 10
4.989433513812962
 20
-0.0003899405809504
 30
0.0
 10
5.01609483648544
 20
-0.1581319339514943
 30
0.0
 10
4.991899723307128
 20
-0.3163012038163515
 30
0.0
 10
4.918289920131925
 20
-0.4246540092928796
 30
0.0
  0
ARC
  5
409E
330
4021
100
AcDbEntity
  8
0
100
AcDbCircle
 10
2.5
 20
-0.2300000019999987
 30
0.0
 40
2.5
100
AcDbArc
 50
5.269701372195669
 51
90.00000000000042
  0
LINE
  5
409F
330
4021
100
AcDbEntity
  8
0
100
AcDbLine
 10
-2.500000000000008
 20
2.269999998000001
 30
0.0
 11
2.499999999999982
 21
2.269999998000001
 31
0.0
  0
ARC
  5
40A0
330
4021
100
AcDbEntity
  8
0
100
AcDbCircle
 10
-2.500000000000008
 20
-0.2300000019999987
 30
0.0
 40
2.5
100
AcDbArc
 50
90.0
 51
174.7302986278043
  0
ELLIPSE
  5
40A1
330
4021
100
AcDbEntity
  8
0
100
AcDbEllipse
 10
-59.39999999999998
 20
-54.16476937947047
 30
0.0
 11
-2.100000000000031
 21
-0.000000000000009
 31
0.0
210
0.0
220
0.0
230
1.0
 40
0.7071067811865476
 41
0.0
 42
1.570796326794889
  0
ELLIPSE
  5
40A2
330
4021
100
AcDbEntity
  8
0
100
AcDbEllipse
 10
-59.39999999999998
 20
-54.16476937947047
 30
0.0
 11
-0.6000000000000089
 21
-0.0000000000000355
 31
0.0
210
0.0
220
0.0
230
1.0
 40
0.7071067811865718
 41
0.0
 42
1.570796326794795
  0
LINE
  5
40A3
330
4021
100
AcDbEntity
  8
0
100
AcDbLine
 10
59.39999999999999
 20
180.67
 30
0.0
 11
60.0
 21
180.67
 31
0.0
  0
LINE
  5
40A4
330
4021
100
AcDbEntity
  8
0
100
AcDbLine
 10
59.39999999999999
 20
80.27000000000002
 30
0.0
 11
60.0
 21
80.27000000000002
 31
0.0
  0
LINE
  5
40A5
330
4021
100
AcDbEntity
  8
0
100
AcDbLine
 10
-60.0
 20
180.67
 30
0.0
 11
-59.40000000000001
 21
180.67
 31
0.0
  0
LINE
  5
40A6
330
4021
100
AcDbEntity
  8
0
100
AcDbLine
 10
-60.0
 20
80.27000000000002
 30
0.0
 11
-59.40000000000001
 21
80.27000000000002
 31
0.0
  0
ENDBLK
  5
4023
330
4021
100
AcDbEntity
  8
0
100
AcDbBlockEnd
  0
BLOCK
  5
40A8
330
40A7
100
AcDbEntity
  8
0
100
AcDbBlockBegin
  2
SPR120_180-Left
 70
     0
 10
0.0
 20
0.0
 30
0.0
  3
SPR120_180-Left
  1

  0
LINE
  5
40AA
330
40A7
100
AcDbEntity
  8
0
100
AcDbLine
 10
0.0
 20
-0.0003899405809516
 30
0.0
 11
0.0
 21
1.270000000000001
 31
0.0
  0
LINE
  5
40AB
330
40A7
100
AcDbEntity
  8
0
100
AcDbLine
 10
62.91118318265866
 20
-2.26313164225673
 30
0.0
 11
4.362741700911199
 21
-2.26313164149223
 31
0.0
  0
LINE
  5
40AC
330
40A7
100
AcDbEntity
  8
0
100
AcDbLine
 10
1.675735931288095
 20
-0.4246540092928798
 30
0.0
 11
2.288136209298631
 21
-1.037054287303415
 31
0.0
  0
LINE
  5
40AD
330
40A7
100
AcDbEntity
  8
0
100
AcDbLine
 10
2.288136209298594
 20
-1.037054287303383
 30
0.0
 11
2.717240184541153
 21
-1.466158262545942
 31
0.0
  0
SPLINE
  5
40AE
330
40A7
100
AcDbEntity
  8
0
100
AcDbSpline
210
0.0
220
0.0
230
1.0
 70
     8
 71
     3
 72
     8
 73
     4
 74
     0
 42
0.000000001
 43
0.0000000001
 40
-1.0
 40
-1.0
 40
-1.0
 40
-1.0
 40
0.0
 40
0.0
 40
0.0
 40
0.0
 10
1.500000000000024
 20
-0.0003899405809507
 30
0.0
 10
1.500000000000024
 20
-0.1594792109354459
 30
0.0
 10
1.572566966670514
 20
-0.3214850446752977
 30
0.0
 10
1.675735931288095
 20
-0.4246540092928796
 30
0.0
  0
SPLINE
  5
40AF
330
40A7
100
AcDbEntity
  8
0
100
AcDbSpline
210
0.0
220
0.0
230
1.0
 70
     8
 71
     3
 72
     8
 73
     4
 74
     0
 42
0.000000001
 43
0.0000000001
 40
0.0
 40
0.0
 40
0.0
 40
0.0
 40
1.0
 40
1.0
 40
1.0
 40
1.0
 10
0.6150757595082742
 20
-1.485314181072701
 30
0.0
 10
0.253984383346738
 20
-1.124222804911164
 30
0.0
 10
0.0000000000000242
 20
-0.5572023868216841
 30
0.0
 10
0.000000000000024
 20
-0.000389940580951
 30
0.0
  0
SPLINE
  5
40B0
330
40A7
100
AcDbEntity
  8
0
100
AcDbSpline
210
0.0
220
0.0
230
1.0
 70
     8
 71
     3
 72
     8
 73
     4
 74
     0
 42
0.000000001
 43
0.0000000001
 40
-1.0
 40
-1.0
 40
-1.0
 40
-1.0
 40
0.0
 40
0.0
 40
0.0
 40
0.0
 10
2.717240184541163
 20
-1.466158262545948
 30
0.0
 10
3.124319333760397
 20
-1.873237411765183
 30
0.0
 10
3.733518404783481
 20
-2.07819663918027
 30
0.0
 10
4.362741700911274
 20
-2.263131641492208
 30
0.0
  0
LINE
  5
40B1
330
40A7
100
AcDbEntity
  8
0
100
AcDbLine
 10
2.717240184541153
 20
-1.466158262545942
 30
0.0
 11
2.364040347338768
 21
-1.819358099748326
 31
0.0
  0
LINE
  5
40B2
330
40A7
100
AcDbEntity
  8
0
100
AcDbLine
 10
2.364040347338768
 20
-1.819358099748326
 30
0.0
 11
1.656580012761331
 21
-2.526818434325763
 31
0.0
  0
SPLINE
  5
40B3
330
40A7
100
AcDbEntity
  8
0
100
AcDbSpline
210
0.0
220
0.0
230
1.0
 70
     8
 71
     3
 72
     8
 73
     4
 74
     0
 42
0.000000001
 43
0.0000000001
 40
0.0
 40
0.0
 40
0.0
 40
0.0
 40
1.0
 40
1.0
 40
1.0
 40
1.0
 10
4.362741700911231
 20
-2.263131641492251
 30
0.0
 10
3.178158037513638
 20
-2.633557006450113
 30
0.0
 10
2.063659161980577
 20
-2.933897583545003
 30
0.0
 10
1.65658001276134
 20
-2.526818434325769
 30
0.0
  0
LINE
  5
40B4
330
40A7
100
AcDbEntity
  8
0
100
AcDbLine
 10
1.656580012761331
 20
-2.526818434325763
 30
0.0
 11
1.227476037518773
 21
-2.097714459083203
 31
0.0
  0
LINE
  5
40B5
330
40A7
100
AcDbEntity
  8
0
100
AcDbLine
 10
2.288136209298594
 20
-1.037054287303383
 30
0.0
 11
1.227476037518773
 21
-2.097714459083203
 31
0.0
  0
LINE
  5
40B6
330
40A7
100
AcDbEntity
  8
0
100
AcDbLine
 10
1.227476037518825
 20
-2.097714459083221
 30
0.0
 11
0.6150757595082901
 21
-1.485314181072685
 31
0.0
  0
LINE
  5
40B7
330
40A7
100
AcDbEntity
  8
0
100
AcDbLine
 10
1.675735931288095
 20
-0.4246540092928796
 30
0.0
 11
1.322536092803569
 21
-0.7778538477774056
 31
0.0
  0
LINE
  5
40B8
330
40A7
100
AcDbEntity
  8
0
100
AcDbLine
 10
1.322536092803569
 20
-0.7778538477774056
 30
0.0
 11
0.6150757595082743
 21
-1.485314181072701
 31
0.0
  0
LINE
  5
40B9
330
40A7
100
AcDbEntity
  8
0
100
AcDbLine
 10
1.500000000000019
 20
-0.0003899405809504
 30
0.0
 11
1.00049999543961
 21
-0.0003899405809504
 31
0.0
  0
LINE
  5
40BA
330
40A7
100
AcDbEntity
  8
0
100
AcDbLine
 10
1.00049999543961
 20
-0.0003899405809504
 30
0.0
 11
0.0
 21
-0.0003899405809504
 31
0.0
  0
LINE
  5
40BB
330
40A7
100
AcDbEntity
  8
0
100
AcDbLine
 10
1.500000000000015
 20
1.270000000000001
 30
0.0
 11
1.500000000000015
 21
-0.000389940580951
 31
0.0
  0
LINE
  5
40BC
330
40A7
100
AcDbEntity
  8
0
100
AcDbLine
 10
0.0
 20
6.269999999999996
 30
0.0
 11
0.0
 21
1.269999999999996
 31
0.0
  0
LINE
  5
40BD
330
40A7
100
AcDbEntity
  8
0
100
AcDbLine
 10
0.0
 20
77.27000000000001
 30
0.0
 11
0.0
 21
72.27000000000001
 31
0.0
  0
LINE
  5
40BE
330
40A7
100
AcDbEntity
  8
0
100
AcDbLine
 10
1.500000000000027
 20
1.269999999999996
 30
0.0
 11
1.500000000000029
 21
6.269999999999996
 31
0.0
  0
LINE
  5
40BF
330
40A7
100
AcDbEntity
  8
0
100
AcDbLine
 10
1.500000000000029
 20
6.269999999999996
 30
0.0
 11
0.0
 21
6.269999999999996
 31
0.0
  0
LINE
  5
40C0
330
40A7
100
AcDbEntity
  8
0
100
AcDbLine
 10
0.0
 20
1.269999999999996
 30
0.0
 11
1.500000000000027
 21
1.269999999999996
 31
0.0
  0
LINE
  5
40C1
330
40A7
100
AcDbEntity
  8
0
100
AcDbLine
 10
0.0
 20
72.27000000000001
 30
0.0
 11
1.500000000000029
 21
72.27000000000001
 31
0.0
  0
LINE
  5
40C2
330
40A7
100
AcDbEntity
  8
0
100
AcDbLine
 10
1.500000000000029
 20
72.27000000000001
 30
0.0
 11
1.500000000000027
 21
77.27000000000001
 31
0.0
  0
LINE
  5
40C3
330
40A7
100
AcDbEntity
  8
0
100
AcDbLine
 10
1.500000000000027
 20
77.27000000000001
 30
0.0
 11
0.0
 21
77.27000000000001
 31
0.0
  0
LINE
  5
40C4
330
40A7
100
AcDbEntity
  8
0
100
AcDbLine
 10
0.0
 20
6.269999999999996
 30
0.0
 11
0.0
 21
72.27000000000001
 31
0.0
  0
LINE
  5
40C5
330
40A7
100
AcDbEntity
  8
0
100
AcDbLine
 10
0.0
 20
77.27000000000001
 30
0.0
 11
0.0
 21
80.27000000000001
 31
0.0
  0
LINE
  5
40C6
330
40A7
100
AcDbEntity
  8
0
100
AcDbLine
 10
1.500000000000029
 20
6.269999999999996
 30
0.0
 11
1.500000000000029
 21
72.27000000000001
 31
0.0
  0
LINE
  5
40C7
330
40A7
100
AcDbEntity
  8
0
100
AcDbLine
 10
1.500000000000015
 20
77.27000000000001
 30
0.0
 11
1.500000000000015
 21
80.27000000000001
 31
0.0
  0
LINE
  5
40C8
330
40A7
100
AcDbEntity
  8
0
100
AcDbLine
 10
0.0
 20
80.27000000000002
 30
0.0
 11
0.0
 21
180.67
 31
0.0
  0
LINE
  5
40C9
330
40A7
100
AcDbEntity
  8
0
100
AcDbLine
 10
2.100000000000013
 20
180.67
 30
0.0
 11
0.0
 21
180.67
 31
0.0
  0
LINE
  5
40CA
330
40A7
100
AcDbEntity
  8
0
100
AcDbLine
 10
0.0
 20
80.27000000000002
 30
0.0
 11
2.100000000000004
 21
80.27000000000002
 31
0.0
  0
LINE
  5
40CB
330
40A7
100
AcDbEntity
  8
0
100
AcDbLine
 10
43.50000000000002
 20
85.27000000000001
 30
0.0
 11
38.50000000000001
 21
80.27000000000002
 31
0.0
  0
LINE
  5
40CC
330
40A7
100
AcDbEntity
  8
0
100
AcDbLine
 10
38.50000000000002
 20
180.67
 30
0.0
 11
43.50000000000002
 21
175.67
 31
0.0
  0
LINE
  5
40CD
330
40A7
100
AcDbEntity
  8
0
100
AcDbLine
 10
82.00306627386
 20
-21.35501473263464
 30
0.0
 11
82.00306627386
 21
-28.42608254450009
 31
0.0
  0
CIRCLE
  5
40CE
330
40A7
100
AcDbEntity
  8
0
100
AcDbCircle
 10
35.50000000000002
 20
167.7699999999999
 30
0.0
 40
2.5
  0
CIRCLE
  5
40CF
330
40A7
100
AcDbEntity
  8
0
100
AcDbCircle
 10
35.50000000000002
 20
147.77
 30
0.0
 40
2.5
  0
CIRCLE
  5
40D0
330
40A7
100
AcDbEntity
  8
0
100
AcDbCircle
 10
35.50000000000002
 20
127.77
 30
0.0
 40
2.5
  0
CIRCLE
  5
40D1
330
40A7
100
AcDbEntity
  8
0
100
AcDbCircle
 10
35.50000000000002
 20
107.77
 30
0.0
 40
2.5
  0
CIRCLE
  5
40D2
330
40A7
100
AcDbEntity
  8
0
100
AcDbCircle
 10
35.50000000000002
 20
87.76999999999999
 30
0.0
 40
2.5
  0
LINE
  5
40D3
330
40A7
100
AcDbEntity
  8
0
100
AcDbLine
 10
43.50000000000002
 20
175.67
 30
0.0
 11
43.50000000000002
 21
85.27000000000001
 31
0.0
  0
LINE
  5
40D4
330
40A7
100
AcDbEntity
  8
0
100
AcDbLine
 10
2.100000000000013
 20
180.67
 30
0.0
 11
38.50000000000002
 21
180.67
 31
0.0
  0
LINE
  5
40D5
330
40A7
100
AcDbEntity
  8
0
100
AcDbLine
 10
38.50000000000001
 20
80.27000000000002
 30
0.0
 11
2.100000000000004
 21
80.27000000000002
 31
0.0
  0
LINE
  5
40D6
330
40A7
100
AcDbEntity
  8
0
100
AcDbLine
 10
82.00306627386
 20
-28.42608254450009
 30
0.0
 11
56.26437943888955
 21
-54.16476937947052
 31
0.0
  0
LINE
  5
40D7
330
40A7
100
AcDbEntity
  8
0
100
AcDbLine
 10
62.91118318265866
 20
-2.26313164225673
 30
0.0
 11
82.00306627386
 21
-21.35501473263464
 31
0.0
  0
CIRCLE
  5
40D8
330
40A7
100
AcDbEntity
  8
0
100
AcDbCircle
 10
74.57844507130477
 20
-25.24410202925711
 30
0.0
 40
2.5
  0
ARC
  5
40D9
330
40A7
100
AcDbEntity
  8
0
100
AcDbCircle
 10
59.31559010709463
 20
-13.990452698916
 30
0.0
 40
0.8000000000000012
100
AcDbArc
 50
315.000000001042
 51
75.00000000104186
  0
LINE
  5
40DA
330
40A7
100
AcDbEntity
  8
0
100
AcDbLine
 10
59.88127553205417
 20
-14.55613812385494
 30
0.0
 11
56.81941335363089
 21
-17.61800030238964
 31
0.0
  0
ARC
  5
40DB
330
40A7
100
AcDbEntity
  8
0
100
AcDbCircle
 10
56.25372792867135
 20
-17.0523148774507
 30
0.0
 40
0.8
100
AcDbArc
 50
195.0000000010428
 51
315.0000000010428
  0
LINE
  5
40DC
330
40A7
100
AcDbEntity
  8
0
100
AcDbLine
 10
55.48098726764388
 20
-17.25937011354677
 30
0.0
 11
54.36026792735773
 21
-13.07678859487811
 31
0.0
  0
ARC
  5
40DD
330
40A7
100
AcDbEntity
  8
0
100
AcDbCircle
 10
55.13300858838519
 20
-12.86973335878203
 30
0.0
 40
0.8000000000000014
100
AcDbArc
 50
75.00000000104188
 51
195.0000000010427
  0
LINE
  5
40DE
330
40A7
100
AcDbEntity
  8
0
100
AcDbLine
 10
55.34006382445316
 20
-12.096992697747
 30
0.0
 11
59.5226453431626
 21
-13.21771203788096
 31
0.0
  0
LINE
  5
40DF
330
40A7
100
AcDbEntity
  8
0
100
AcDbLine
 10
55.28251771018369
 20
-12.08382813389861
 30
0.0
 11
54.3471033635072
 21
-13.01924248060914
 31
0.0
  0
LINE
  5
40E0
330
40A7
100
AcDbEntity
  8
0
100
AcDbLine
 10
54.77945519839778
 20
-55.64969361996226
 30
0.0
 11
1.656580012761326
 21
-2.526818434325761
 31
0.0
  0
LINE
  5
40E1
330
40A7
100
AcDbEntity
  8
0
100
AcDbLine
 10
56.26437943888952
 20
-54.1647693794705
 30
0.0
 11
54.77945519839774
 21
-55.64969361996225
 31
0.0
  0
ENDBLK
  5
40A9
330
40A7
100
AcDbEntity
  8
0
100
AcDbBlockEnd
  0
BLOCK
  5
40E3
330
40E2
100
AcDbEntity
  8
0
100
AcDbBlockBegin
  2
SPR120_180-Right
 70
     0
 10
0.0
 20
0.0
 30
0.0
  3
SPR120_180-Right
  1

  0
LINE
  5
40E5
330
40E2
100
AcDbEntity
  8
0
100
AcDbLine
 10
-1.499999999999971
 20
6.269999999999996
 30
0.0
 11
-1.499999999999972
 21
1.269999999999996
 31
0.0
  0
LINE
  5
40E6
330
40E2
100
AcDbEntity
  8
0
100
AcDbLine
 10
-1.499999999999972
 20
1.269999999999996
 30
0.0
 11
0.0
 21
1.269999999999987
 31
0.0
  0
LINE
  5
40E7
330
40E2
100
AcDbEntity
  8
0
100
AcDbLine
 10
0.0
 20
1.269999999999987
 30
0.0
 11
0.0
 21
6.269999999999996
 31
0.0
  0
LINE
  5
40E8
330
40E2
100
AcDbEntity
  8
0
100
AcDbLine
 10
0.0
 20
6.269999999999996
 30
0.0
 11
-1.499999999999971
 21
6.269999999999996
 31
0.0
  0
LINE
  5
40E9
330
40E2
100
AcDbEntity
  8
0
100
AcDbLine
 10
-1.499999999999971
 20
72.27000000000001
 30
0.0
 11
0.0
 21
72.27000000000001
 31
0.0
  0
LINE
  5
40EA
330
40E2
100
AcDbEntity
  8
0
100
AcDbLine
 10
0.0
 20
72.27000000000001
 30
0.0
 11
0.0
 21
77.27000000000001
 31
0.0
  0
LINE
  5
40EB
330
40E2
100
AcDbEntity
  8
0
100
AcDbLine
 10
-1.499999999999972
 20
77.27000000000001
 30
0.0
 11
-1.499999999999971
 21
72.27000000000001
 31
0.0
  0
LINE
  5
40EC
330
40E2
100
AcDbEntity
  8
0
100
AcDbLine
 10
0.0
 20
77.27000000000001
 30
0.0
 11
-1.499999999999972
 21
77.27000000000001
 31
0.0
  0
LINE
  5
40ED
330
40E2
100
AcDbEntity
  8
0
100
AcDbLine
 10
0.0
 20
72.27000000000001
 30
0.0
 11
0.0
 21
6.269999999999997
 31
0.0
  0
LINE
  5
40EE
330
40E2
100
AcDbEntity
  8
0
100
AcDbLine
 10
-1.499999999999971
 20
72.27000000000001
 30
0.0
 11
-1.499999999999971
 21
6.269999999999997
 31
0.0
  0
LINE
  5
40EF
330
40E2
100
AcDbEntity
  8
0
100
AcDbLine
 10
0.0
 20
80.27000000000002
 30
0.0
 11
0.0
 21
77.27000000000002
 31
0.0
  0
LINE
  5
40F0
330
40E2
100
AcDbEntity
  8
0
100
AcDbLine
 10
-1.499999999999984
 20
80.27000000000002
 30
0.0
 11
-1.499999999999984
 21
77.27000000000002
 31
0.0
  0
LINE
  5
40F1
330
40E2
100
AcDbEntity
  8
0
100
AcDbLine
 10
0.0
 20
1.270000000000001
 30
0.0
 11
0.0
 21
-0.000389940580951
 31
0.0
  0
LINE
  5
40F2
330
40E2
100
AcDbEntity
  8
0
100
AcDbLine
 10
-4.362741700911185
 20
-2.263131641492243
 30
0.0
 11
-62.91118318265865
 21
-2.263131642256726
 31
0.0
  0
LINE
  5
40F3
330
40E2
100
AcDbEntity
  8
0
100
AcDbLine
 10
-2.717240184541121
 20
-1.466158262545947
 30
0.0
 11
-2.288136209298563
 21
-1.037054287303388
 31
0.0
  0
LINE
  5
40F4
330
40E2
100
AcDbEntity
  8
0
100
AcDbLine
 10
-2.288136209298607
 20
-1.037054287303415
 30
0.0
 11
-1.675735931288064
 21
-0.4246540092928725
 31
0.0
  0
SPLINE
  5
40F5
330
40E2
100
AcDbEntity
  8
0
100
AcDbSpline
210
0.0
220
0.0
230
1.0
 70
     8
 71
     3
 72
     8
 73
     4
 74
     0
 42
0.000000001
 43
0.0000000001
 40
-1.0
 40
-1.0
 40
-1.0
 40
-1.0
 40
0.0
 40
0.0
 40
0.0
 40
0.0
 10
-1.675735931288071
 20
-0.4246540092928796
 30
0.0
 10
-1.57256696667049
 20
-0.3214850446752982
 30
0.0
 10
-1.5
 20
-0.1594792109354491
 30
0.0
 10
-1.5
 20
-0.0003899405809508
 30
0.0
  0
SPLINE
  5
40F6
330
40E2
100
AcDbEntity
  8
0
100
AcDbSpline
210
0.0
220
0.0
230
1.0
 70
     8
 71
     3
 72
     8
 73
     4
 74
     0
 42
0.000000001
 43
0.0000000001
 40
0.0
 40
0.0
 40
0.0
 40
0.0
 40
1.0
 40
1.0
 40
1.0
 40
1.0
 10
0.0000000000000002
 20
-0.0003899405809515
 30
0.0
 10
-0.0000000000000001
 20
-0.5572023868216953
 30
0.0
 10
-0.2539843833467157
 20
-1.124222804911166
 30
0.0
 10
-0.61507575950825
 20
-1.485314181072701
 30
0.0
  0
LINE
  5
40F7
330
40E2
100
AcDbEntity
  8
0
100
AcDbLine
 10
-2.717240184541121
 20
-1.466158262545947
 30
0.0
 11
-2.364040347338554
 21
-1.819358099748513
 31
0.0
  0
SPLINE
  5
40F8
330
40E2
100
AcDbEntity
  8
0
100
AcDbSpline
210
0.0
220
0.0
230
1.0
 70
     8
 71
     3
 72
     8
 73
     4
 74
     0
 42
0.000000001
 43
0.0000000001
 40
-1.0
 40
-1.0
 40
-1.0
 40
-1.0
 40
0.0
 40
0.0
 40
0.0
 40
0.0
 10
-4.362741700911225
 20
-2.263131641492194
 30
0.0
 10
-3.733518404783915
 20
-2.07819663918072
 30
0.0
 10
-3.124319333760461
 20
-1.873237411765278
 30
0.0
 10
-2.717240184541114
 20
-1.46615826254593
 30
0.0
  0
SPLINE
  5
40F9
330
40E2
100
AcDbEntity
  8
0
100
AcDbSpline
210
0.0
220
0.0
230
1.0
 70
     8
 71
     3
 72
     8
 73
     4
 74
     0
 42
0.000000001
 43
0.0000000001
 40
0.0
 40
0.0
 40
0.0
 40
0.0
 40
1.0
 40
1.0
 40
1.0
 40
1.0
 10
-1.656580012761292
 20
-2.526818434325751
 30
0.0
 10
-2.063659161980639
 20
-2.933897583545099
 30
0.0
 10
-3.178158037514097
 20
-2.633557006450538
 30
0.0
 10
-4.362741700911183
 20
-2.263131641492237
 30
0.0
  0
LINE
  5
40FA
330
40E2
100
AcDbEntity
  8
0
100
AcDbLine
 10
-2.364040347338554
 20
-1.819358099748513
 30
0.0
 11
-1.6565800127613
 21
-2.526818434325768
 31
0.0
  0
LINE
  5
40FB
330
40E2
100
AcDbEntity
  8
0
100
AcDbLine
 10
-0.6150757595082525
 20
-1.485314181072681
 30
0.0
 11
-1.227476037518796
 21
-2.097714459083225
 31
0.0
  0
LINE
  5
40FC
330
40E2
100
AcDbEntity
  8
0
100
AcDbLine
 10
-0.6150757595082498
 20
-1.4853141810727
 30
0.0
 11
-1.322536092819554
 21
-0.7778538477613967
 31
0.0
  0
LINE
  5
40FD
330
40E2
100
AcDbEntity
  8
0
100
AcDbLine
 10
-1.322536092819554
 20
-0.7778538477613967
 30
0.0
 11
-1.675735931288071
 21
-0.4246540092928793
 31
0.0
  0
LINE
  5
40FE
330
40E2
100
AcDbEntity
  8
0
100
AcDbLine
 10
-2.288136209298563
 20
-1.037054287303388
 30
0.0
 11
-1.227476037518744
 21
-2.097714459083206
 31
0.0
  0
LINE
  5
40FF
330
40E2
100
AcDbEntity
  8
0
100
AcDbLine
 10
-1.227476037518744
 20
-2.097714459083206
 30
0.0
 11
-1.6565800127613
 21
-2.526818434325768
 31
0.0
  0
LINE
  5
4100
330
40E2
100
AcDbEntity
  8
0
100
AcDbLine
 10
-1.499999999999987
 20
-0.0003899405809504
 30
0.0
 11
-1.000499995481381
 21
-0.0003899405809504
 31
0.0
  0
LINE
  5
4101
330
40E2
100
AcDbEntity
  8
0
100
AcDbLine
 10
-1.000499995481381
 20
-0.0003899405809504
 30
0.0
 11
0.0
 21
-0.0003899405809504
 31
0.0
  0
LINE
  5
4102
330
40E2
100
AcDbEntity
  8
0
100
AcDbLine
 10
-1.499999999999991
 20
-0.0003899405809516
 30
0.0
 11
-1.499999999999991
 21
1.270000000000001
 31
0.0
  0
LINE
  5
4103
330
40E2
100
AcDbEntity
  8
0
100
AcDbLine
 10
0.0
 20
80.27000000000002
 30
0.0
 11
0.0
 21
180.67
 31
0.0
  0
LINE
  5
4104
330
40E2
100
AcDbEntity
  8
0
100
AcDbLine
 10
0.0
 20
180.67
 30
0.0
 11
-2.099999999999959
 21
180.67
 31
0.0
  0
LINE
  5
4105
330
40E2
100
AcDbEntity
  8
0
100
AcDbLine
 10
-2.099999999999976
 20
80.27000000000002
 30
0.0
 11
0.0
 21
80.27000000000002
 31
0.0
  0
LINE
  5
4106
330
40E2
100
AcDbEntity
  8
0
100
AcDbLine
 10
-38.49999999999997
 20
80.27000000000002
 30
0.0
 11
-43.49999999999997
 21
85.27000000000002
 31
0.0
  0
LINE
  5
4107
330
40E2
100
AcDbEntity
  8
0
100
AcDbLine
 10
-43.49999999999997
 20
175.67
 30
0.0
 11
-38.49999999999996
 21
180.67
 31
0.0
  0
LINE
  5
4108
330
40E2
100
AcDbEntity
  8
0
100
AcDbLine
 10
-82.00306627385996
 20
-28.42608254450008
 30
0.0
 11
-82.00306627385996
 21
-21.35501473263463
 31
0.0
  0
LINE
  5
4109
330
40E2
100
AcDbEntity
  8
0
100
AcDbLine
 10
-43.49999999999997
 20
85.27000000000002
 30
0.0
 11
-43.49999999999997
 21
175.67
 31
0.0
  0
LINE
  5
410A
330
40E2
100
AcDbEntity
  8
0
100
AcDbLine
 10
-2.099999999999976
 20
80.27000000000002
 30
0.0
 11
-38.49999999999997
 21
80.27000000000002
 31
0.0
  0
LINE
  5
410B
330
40E2
100
AcDbEntity
  8
0
100
AcDbLine
 10
-38.49999999999996
 20
180.67
 30
0.0
 11
-2.099999999999959
 21
180.67
 31
0.0
  0
CIRCLE
  5
410C
330
40E2
100
AcDbEntity
  8
0
100
AcDbCircle
 10
-35.49999999999999
 20
172.77
 30
0.0
 40
2.5
  0
CIRCLE
  5
410D
330
40E2
100
AcDbEntity
  8
0
100
AcDbCircle
 10
-35.49999999999999
 20
152.77
 30
0.0
 40
2.5
  0
CIRCLE
  5
410E
330
40E2
100
AcDbEntity
  8
0
100
AcDbCircle
 10
-35.49999999999999
 20
132.77
 30
0.0
 40
2.5
  0
CIRCLE
  5
410F
330
40E2
100
AcDbEntity
  8
0
100
AcDbCircle
 10
-35.49999999999999
 20
112.77
 30
0.0
 40
2.5
  0
CIRCLE
  5
4110
330
40E2
100
AcDbEntity
  8
0
100
AcDbCircle
 10
-35.49999999999999
 20
92.76999999999999
 30
0.0
 40
2.5
  0
LINE
  5
4111
330
40E2
100
AcDbEntity
  8
0
100
AcDbLine
 10
-62.91118318265865
 20
-2.263131642256726
 30
0.0
 11
-82.00306627385996
 21
-21.35501473263463
 31
0.0
  0
LINE
  5
4112
330
40E2
100
AcDbEntity
  8
0
100
AcDbLine
 10
-1.6565800127613
 20
-2.526818434325768
 30
0.0
 11
-54.77945519839777
 21
-55.64969361996226
 31
0.0
  0
LINE
  5
4113
330
40E2
100
AcDbEntity
  8
0
100
AcDbLine
 10
-54.77945519839774
 20
-55.64969361996226
 30
0.0
 11
-56.26437943888953
 21
-54.16476937947053
 31
0.0
  0
LINE
  5
4114
330
40E2
100
AcDbEntity
  8
0
100
AcDbLine
 10
-56.26437943888952
 20
-54.16476937947052
 30
0.0
 11
-82.00306627385996
 21
-28.42608254450008
 31
0.0
  0
CIRCLE
  5
4115
330
40E2
100
AcDbEntity
  8
0
100
AcDbCircle
 10
-71.04291116530766
 20
-21.70856812338872
 30
0.0
 40
2.5
  0
ARC
  5
4116
330
40E2
100
AcDbEntity
  8
0
100
AcDbCircle
 10
-51.59747468238808
 20
-9.33419945291363
 30
0.0
 40
0.8000000000000015
100
AcDbArc
 50
344.9999999989574
 51
355.4526675359234
  0
LINE
  5
4117
330
40E2
100
AcDbEntity
  8
0
100
AcDbLine
 10
-50.82473402136061
 20
-9.541254689009706
 30
0.0
 11
-51.94545336164678
 21
-13.72383620767836
 31
0.0
  0
ARC
  5
4118
330
40E2
100
AcDbEntity
  8
0
100
AcDbCircle
 10
-52.71819402267425
 20
-13.51678097158229
 30
0.0
 40
0.8
100
AcDbArc
 50
224.9999999989572
 51
344.9999999989576
  0
LINE
  5
4119
330
40E2
100
AcDbEntity
  8
0
100
AcDbLine
 10
-53.28387944763378
 20
-14.08246639652124
 30
0.0
 11
-56.34574162605706
 21
-11.02060421798654
 31
0.0
  0
ARC
  5
411A
330
40E2
100
AcDbEntity
  8
0
100
AcDbCircle
 10
-55.78005620109752
 20
-10.45491879304759
 30
0.0
 40
0.8000000000000014
100
AcDbArc
 50
104.9999999989575
 51
224.9999999989572
  0
LINE
  5
411B
330
40E2
100
AcDbEntity
  8
0
100
AcDbLine
 10
-55.98711143716549
 20
-9.682178132012559
 30
0.0
 11
-51.80452991845605
 21
-8.561458791878598
 31
0.0
  0
ARC
  5
411C
330
40E2
100
AcDbEntity
  8
0
100
AcDbCircle
 10
-51.59747468238808
 20
-9.33419945291363
 30
0.0
 40
0.8000000000000014
100
AcDbArc
 50
49.59733246198601
 51
104.9999999989581
  0
LINE
  5
411D
330
40E2
100
AcDbEntity
  8
0
100
AcDbLine
 10
-51.07895039795263
 20
-8.724992947325674
 30
0.0
 11
-50.79999294004347
 21
-9.397625556585486
 31
0.0
  0
ARC
  5
411E
330
40E2
100
AcDbEntity
  8
0
100
AcDbCircle
 10
-55.13300858838519
 20
-12.86973335878203
 30
0.0
 40
0.8000000000000015
100
AcDbArc
 50
349.2288663267691
 51
100.7711336711455
  0
ENDBLK
  5
40E4
330
40E2
100
AcDbEntity
  8
0
100
AcDbBlockEnd
  0
BLOCK
  5
4120
330
411F
100
AcDbEntity
  8
0
100
AcDbBlockBegin
  2
SPR120_180-Top
 70
     0
 10
0.0
 20
0.0
 30
0.0
  3
SPR120_180-Top
  1

  0
LINE
  5
4122
330
411F
100
AcDbEntity
  8
0
100
AcDbLine
 10
102.5270905609999
 20
-1.499999999999971
 30
0.0
 11
102.5270905609999
 21
0.0
 31
0.0
  0
LINE
  5
4123
330
411F
100
AcDbEntity
  8
0
100
AcDbLine
 10
-97.52709056100002
 20
0.0
 30
0.0
 11
-102.527090561
 21
0.0
 31
0.0
  0
LINE
  5
4124
330
411F
100
AcDbEntity
  8
0
100
AcDbLine
 10
102.5270905609999
 20
0.0
 30
0.0
 11
97.52709056099995
 21
0.0
 31
0.0
  0
LINE
  5
4125
330
411F
100
AcDbEntity
  8
0
100
AcDbLine
 10
-102.527090561
 20
0.0
 30
0.0
 11
-102.527090561
 21
-1.500000000000029
 31
0.0
  0
LINE
  5
4126
330
411F
100
AcDbEntity
  8
0
100
AcDbLine
 10
-102.527090561
 20
-1.500000000000029
 30
0.0
 11
-97.52709056100002
 21
-1.500000000000027
 31
0.0
  0
LINE
  5
4127
330
411F
100
AcDbEntity
  8
0
100
AcDbLine
 10
-97.52709056100002
 20
-1.500000000000027
 30
0.0
 11
-97.52709056100002
 21
0.0
 31
0.0
  0
LINE
  5
4128
330
411F
100
AcDbEntity
  8
0
100
AcDbLine
 10
97.52709056099995
 20
-1.499999999999972
 30
0.0
 11
102.5270905609999
 21
-1.499999999999971
 31
0.0
  0
LINE
  5
4129
330
411F
100
AcDbEntity
  8
0
100
AcDbLine
 10
97.52709056099995
 20
0.0
 30
0.0
 11
97.52709056099995
 21
-1.499999999999972
 31
0.0
  0
LINE
  5
412A
330
411F
100
AcDbEntity
  8
0
100
AcDbLine
 10
-97.52709056100002
 20
0.0
 30
0.0
 11
-59.40000000000001
 21
0.0
 31
0.0
  0
LINE
  5
412B
330
411F
100
AcDbEntity
  8
0
100
AcDbLine
 10
59.39999999999999
 20
0.0
 30
0.0
 11
97.52709056099995
 21
0.0
 31
0.0
  0
LINE
  5
412C
330
411F
100
AcDbEntity
  8
0
100
AcDbLine
 10
61.41246117974981
 20
-1.499999999999983
 30
0.0
 11
97.52709056099995
 21
-1.499999999999972
 31
0.0
  0
LINE
  5
412D
330
411F
100
AcDbEntity
  8
0
100
AcDbLine
 10
-97.52709056100002
 20
-1.500000000000027
 30
0.0
 11
-61.41246117974983
 21
-1.500000000000017
 31
0.0
  0
LINE
  5
412E
330
411F
100
AcDbEntity
  8
0
100
AcDbLine
 10
59.39999999999999
 20
0.0
 30
0.0
 11
-59.40000000000001
 21
0.0
 31
0.0
  0
LINE
  5
412F
330
411F
100
AcDbEntity
  8
0
100
AcDbLine
 10
61.5000000000002
 20
-38.49999999999996
 30
0.0
 11
61.5
 21
-2.099999999999959
 31
0.0
  0
LINE
  5
4130
330
411F
100
AcDbEntity
  8
0
100
AcDbLine
 10
-61.50000000000002
 20
-2.100000000000013
 30
0.0
 11
-61.5
 21
-38.50000000000002
 31
0.0
  0
LINE
  5
4131
330
411F
100
AcDbEntity
  8
0
100
AcDbLine
 10
60.0
 20
-2.099999999999977
 30
0.0
 11
60.00000000000021
 21
-38.5
 31
0.0
  0
LINE
  5
4132
330
411F
100
AcDbEntity
  8
0
100
AcDbLine
 10
-59.40000000000001
 20
-1.500000000000016
 30
0.0
 11
59.39999999999999
 21
-1.499999999999981
 31
0.0
  0
LINE
  5
4133
330
411F
100
AcDbEntity
  8
0
100
AcDbLine
 10
-60.0
 20
-38.50000000000002
 30
0.0
 11
-60.0
 21
-2.100000000000012
 31
0.0
  0
LINE
  5
4134
330
411F
100
AcDbEntity
  8
0
100
AcDbLine
 10
60.00000000000023
 20
-43.49999999999997
 30
0.0
 11
61.50000000000023
 21
-43.49999999999997
 31
0.0
  0
LINE
  5
4135
330
411F
100
AcDbEntity
  8
0
100
AcDbLine
 10
61.50000000000023
 20
-43.49999999999997
 30
0.0
 11
61.5000000000002
 21
-38.49999999999996
 31
0.0
  0
LINE
  5
4136
330
411F
100
AcDbEntity
  8
0
100
AcDbLine
 10
-61.5
 20
-38.50000000000002
 30
0.0
 11
-61.5
 21
-43.50000000000002
 31
0.0
  0
LINE
  5
4137
330
411F
100
AcDbEntity
  8
0
100
AcDbLine
 10
-61.5
 20
-43.50000000000002
 30
0.0
 11
-60.0
 21
-43.50000000000001
 31
0.0
  0
LINE
  5
4138
330
411F
100
AcDbEntity
  8
0
100
AcDbLine
 10
61.5000000000002
 20
-38.49999999999996
 30
0.0
 11
60.00000000000021
 21
-38.5
 31
0.0
  0
LINE
  5
4139
330
411F
100
AcDbEntity
  8
0
100
AcDbLine
 10
60.00000000000021
 20
-38.5
 30
0.0
 11
60.00000000000023
 21
-43.49999999999997
 31
0.0
  0
LINE
  5
413A
330
411F
100
AcDbEntity
  8
0
100
AcDbLine
 10
-60.0
 20
-43.50000000000001
 30
0.0
 11
-60.0
 21
-38.50000000000002
 31
0.0
  0
LINE
  5
413B
330
411F
100
AcDbEntity
  8
0
100
AcDbLine
 10
-60.0
 20
-38.50000000000002
 30
0.0
 11
-61.5
 21
-38.50000000000002
 31
0.0
  0
LINE
  5
413C
330
411F
100
AcDbEntity
  8
0
100
AcDbLine
 10
61.49999999999998
 20
-82.00306627385996
 30
0.0
 11
59.99999999999997
 21
-82.00306627385996
 31
0.0
  0
LINE
  5
413D
330
411F
100
AcDbEntity
  8
0
100
AcDbLine
 10
-59.99999999999996
 20
-82.00306627386
 30
0.0
 11
-61.49999999999995
 21
-82.00306627386
 31
0.0
  0
LINE
  5
413E
330
411F
100
AcDbEntity
  8
0
100
AcDbLine
 10
61.50000000000208
 20
-62.91118318265865
 30
0.0
 11
61.49999999999998
 21
-82.00306627385996
 31
0.0
  0
LINE
  5
413F
330
411F
100
AcDbEntity
  8
0
100
AcDbLine
 10
60.00000000000171
 20
-62.91118318265865
 30
0.0
 11
59.99999999999997
 21
-82.00306627385996
 31
0.0
  0
ELLIPSE
  5
4140
330
411F
100
AcDbEntity
  8
0
100
AcDbEllipse
 10
59.39999999999998
 20
-56.26437943888951
 30
0.0
 11
0.6000000000000089
 21
-0.0000000000000257
 31
0.0
210
0.0
220
0.0
230
1.0
 40
0.7071067811865475
 41
0.0
 42
1.570796326794897
  0
LINE
  5
4141
330
411F
100
AcDbEntity
  8
0
100
AcDbLine
 10
61.50000000000208
 20
-62.91118318265865
 30
0.0
 11
60.00000000000171
 21
-62.91118318265865
 31
0.0
  0
LINE
  5
4142
330
411F
100
AcDbEntity
  8
0
100
AcDbLine
 10
61.50000000000002
 20
-43.49999999999997
 30
0.0
 11
61.50000000000208
 21
-62.91118318265865
 31
0.0
  0
LINE
  5
4143
330
411F
100
AcDbEntity
  8
0
100
AcDbLine
 10
-61.50000000000154
 20
-62.91118318265866
 30
0.0
 11
-61.50000000000155
 21
-43.50000000000002
 31
0.0
  0
ELLIPSE
  5
4144
330
411F
100
AcDbEntity
  8
0
100
AcDbEllipse
 10
-56.50000000000002
 20
-1.22747603751881
 30
0.0
 11
-1.5
 21
0.0000000000001091
 31
0.0
210
0.0
220
0.0
230
1.0
 40
0.7071067811865474
 41
1.570796326795026
 42
2.705254581962137
  0
LINE
  5
4145
330
411F
100
AcDbEntity
  8
0
100
AcDbLine
 10
-56.50000000000002
 20
-2.288136209298618
 30
0.0
 11
-58.79315533855962
 21
-2.288136209298594
 31
0.0
  0
LINE
  5
4146
330
411F
100
AcDbEntity
  8
0
100
AcDbLine
 10
-58.79315533855962
 20
-2.288136209298594
 30
0.0
 11
-59.40000000000001
 21
-2.717240184541153
 31
0.0
  0
LINE
  5
4147
330
411F
100
AcDbEntity
  8
0
100
AcDbLine
 10
59.39999999999999
 20
-2.717240184541121
 30
0.0
 11
58.7931553385596
 21
-2.288136209298563
 31
0.0
  0
LINE
  5
4148
330
411F
100
AcDbEntity
  8
0
100
AcDbLine
 10
58.7931553385596
 20
-2.288136209298563
 30
0.0
 11
56.49999999999998
 21
-2.288136209298588
 31
0.0
  0
ELLIPSE
  5
4149
330
411F
100
AcDbEntity
  8
0
100
AcDbEllipse
 10
56.49999999999998
 20
-1.227476037518786
 30
0.0
 11
-1.5
 21
-0.0000000000000003
 31
0.0
210
0.0
220
0.0
230
1.0
 40
0.7071067811865474
 41
0.4363380716279047
 42
1.570796326794896
  0
SPLINE
  5
414A
330
411F
100
AcDbEntity
  8
0
100
AcDbSpline
210
0.0
220
0.0
230
1.0
 70
     8
 71
     3
 72
     8
 73
     4
 74
     0
 42
0.000000001
 43
0.0000000001
 40
-1.0
 40
-1.0
 40
-1.0
 40
-1.0
 40
0.0
 40
0.0
 40
0.0
 40
0.0
 10
-55.01767776087199
 20
-1.500000000000024
 30
0.0
 10
-54.97251992073981
 20
-1.500000000000024
 30
0.0
 10
-55.01586474390123
 20
-1.572566966670514
 30
0.0
 10
-55.14054197002048
 20
-1.675735931288095
 30
0.0
  0
SPLINE
  5
414B
330
411F
100
AcDbEntity
  8
0
100
AcDbSpline
210
0.0
220
0.0
230
1.0
 70
     8
 71
     3
 72
     8
 73
     4
 74
     0
 42
0.000000001
 43
0.0000000001
 40
-1.0
 40
-1.0
 40
-1.0
 40
-1.0
 40
0.0
 40
0.0
 40
0.0
 40
0.0
 10
55.14054197002042
 20
-1.675735931288071
 30
0.0
 10
55.01586474390373
 20
-1.57256696667049
 30
0.0
 10
54.97251992074176
 20
-1.5
 30
0.0
 10
55.01767776087193
 20
-1.5
 30
0.0
  0
LINE
  5
414C
330
411F
100
AcDbEntity
  8
0
100
AcDbLine
 10
-60.00000000000124
 20
-62.91118318265866
 30
0.0
 11
-61.50000000000154
 21
-62.91118318265866
 31
0.0
  0
LINE
  5
414D
330
411F
100
AcDbEntity
  8
0
100
AcDbLine
 10
-60.00000000000001
 20
-43.50000000000001
 30
0.0
 11
-60.00000000000124
 21
-62.91118318265866
 31
0.0
  0
SPLINE
  5
414E
330
411F
100
AcDbEntity
  8
0
100
AcDbSpline
210
0.0
220
0.0
230
1.0
 70
     8
 71
     3
 72
     8
 73
     4
 74
     0
 42
0.000000001
 43
0.0000000001
 40
-1.0
 40
-1.0
 40
-1.0
 40
-1.0
 40
0.0
 40
0.0
 40
0.0
 40
0.0
 10
-59.40000000000001
 20
-2.717240184541163
 30
0.0
 10
-59.714159265359
 20
-3.124319333760397
 30
0.0
 10
-60.00000000000003
 20
-3.733518404783481
 30
0.0
 10
-60.00000000000003
 20
-4.362741700911274
 30
0.0
  0
LINE
  5
414F
330
411F
100
AcDbEntity
  8
0
100
AcDbLine
 10
-59.40000000000001
 20
-2.717240184541153
 30
0.0
 11
-59.40000000000001
 21
-2.364040347338769
 31
0.0
  0
LINE
  5
4150
330
411F
100
AcDbEntity
  8
0
100
AcDbLine
 10
-59.40000000000001
 20
-2.364040347338769
 30
0.0
 11
-59.40000000000001
 21
-1.656580012761331
 31
0.0
  0
SPLINE
  5
4151
330
411F
100
AcDbEntity
  8
0
100
AcDbSpline
210
0.0
220
0.0
230
1.0
 70
     8
 71
     3
 72
     8
 73
     4
 74
     0
 42
0.000000001
 43
0.0000000001
 40
0.8233926083861769
 40
0.8233926083861769
 40
0.8233926083861769
 40
0.8233926083861769
 40
1.0
 40
1.0
 40
1.0
 40
1.0
 10
-59.96833079343947
 20
-1.934942494001856
 30
0.0
 10
-59.78528852951264
 20
-1.822430928280969
 30
0.0
 10
-59.59418996942229
 20
-1.728473199485324
 30
0.0
 10
-59.40000000000001
 20
-1.656580012761341
 30
0.0
  0
LINE
  5
4152
330
411F
100
AcDbEntity
  8
0
100
AcDbLine
 10
-59.40000000000001
 20
-1.656580012761331
 30
0.0
 11
-59.17856242236219
 21
-1.500000000000017
 31
0.0
  0
LINE
  5
4153
330
411F
100
AcDbEntity
  8
0
100
AcDbLine
 10
-58.79315533855962
 20
-2.288136209298594
 30
0.0
 11
-58.79315533855962
 21
-1.500000000000016
 31
0.0
  0
LINE
  5
4154
330
411F
100
AcDbEntity
  8
0
100
AcDbLine
 10
-55.14054197002046
 20
-1.675735931288095
 30
0.0
 11
-55.14054197002046
 21
-1.500000000000015
 31
0.0
  0
LINE
  5
4155
330
411F
100
AcDbEntity
  8
0
100
AcDbLine
 10
60.00000000000171
 20
-62.91118318265865
 30
0.0
 11
60.00000000000171
 21
-43.49999999999997
 31
0.0
  0
LINE
  5
4156
330
411F
100
AcDbEntity
  8
0
100
AcDbLine
 10
59.39999999999999
 20
-2.717240184541121
 30
0.0
 11
59.39999999999999
 21
-2.364040347338554
 31
0.0
  0
SPLINE
  5
4157
330
411F
100
AcDbEntity
  8
0
100
AcDbSpline
210
0.0
220
0.0
230
1.0
 70
     8
 71
     3
 72
     8
 73
     4
 74
     0
 42
0.000000001
 43
0.0000000001
 40
-1.0
 40
-1.0
 40
-1.0
 40
-1.0
 40
0.0
 40
0.0
 40
0.0
 40
0.0
 10
60.00000000000001
 20
-4.362741700911225
 30
0.0
 10
60.0
 20
-3.733518404783915
 30
0.0
 10
59.71415926535899
 20
-3.124319333760461
 30
0.0
 10
59.39999999999999
 20
-2.717240184541114
 30
0.0
  0
SPLINE
  5
4158
330
411F
100
AcDbEntity
  8
0
100
AcDbSpline
210
0.0
220
0.0
230
1.0
 70
     8
 71
     3
 72
     8
 73
     4
 74
     0
 42
0.000000001
 43
0.0000000001
 40
0.0
 40
0.0
 40
0.0
 40
0.0
 40
0.1766073916138312
 40
0.1766073916138312
 40
0.1766073916138312
 40
0.1766073916138312
 10
59.39999999999999
 20
-1.656580012761292
 30
0.0
 10
59.59418996942229
 20
-1.728473199485298
 30
0.0
 10
59.78528852951264
 20
-1.822430928280977
 30
0.0
 10
59.96833079343949
 20
-1.934942494001901
 30
0.0
  0
LINE
  5
4159
330
411F
100
AcDbEntity
  8
0
100
AcDbLine
 10
59.39999999999999
 20
-2.364040347338554
 30
0.0
 11
59.39999999999999
 21
-1.656580012761299
 31
0.0
  0
LINE
  5
415A
330
411F
100
AcDbEntity
  8
0
100
AcDbLine
 10
55.14054197002042
 20
-1.499999999999984
 30
0.0
 11
55.1405419700204
 21
-1.675735931288071
 31
0.0
  0
LINE
  5
415B
330
411F
100
AcDbEntity
  8
0
100
AcDbLine
 10
58.7931553385596
 20
-2.288136209298563
 30
0.0
 11
58.7931553385596
 21
-1.499999999999983
 31
0.0
  0
LINE
  5
415C
330
411F
100
AcDbEntity
  8
0
100
AcDbLine
 10
59.17856242236215
 20
-1.499999999999974
 30
0.0
 11
59.39999999999999
 21
-1.656580012761299
 31
0.0
  0
LINE
  5
415D
330
411F
100
AcDbEntity
  8
0
100
AcDbLine
 10
-61.50000000000154
 20
-62.91118318265866
 30
0.0
 11
-61.49999999999995
 21
-82.00306627386
 31
0.0
  0
LINE
  5
415E
330
411F
100
AcDbEntity
  8
0
100
AcDbLine
 10
-60.00000000000124
 20
-62.91118318265866
 30
0.0
 11
-59.99999999999996
 21
-82.00306627386
 31
0.0
  0
ELLIPSE
  5
415F
330
411F
100
AcDbEntity
  8
0
100
AcDbEllipse
 10
-22.50000000000001
 20
-0.166815865738999
 30
0.0
 11
2.499999999999999
 21
0.0000000000001828
 31
0.0
210
0.0
220
0.0
230
1.0
 40
0.7071067811865475
 41
3.995971005724946
 42
4.712388980384622
  0
LINE
  5
4160
330
411F
100
AcDbEntity
  8
0
100
AcDbLine
 10
-24.91828991960764
 20
-1.500000000000006
 30
0.0
 11
-24.91828991960764
 21
-1.675735931288089
 31
0.0
  0
ELLIPSE
  5
4161
330
411F
100
AcDbEntity
  8
0
100
AcDbEllipse
 10
-22.50000000000001
 20
-1.227476037518803
 30
0.0
 11
-2.5
 21
-0.0000000000000006
 31
0.0
210
0.0
220
0.0
230
1.0
 40
0.7071067811865471
 41
0.2563733270184496
 42
1.570796326794896
  0
LINE
  5
4162
330
411F
100
AcDbEntity
  8
0
100
AcDbLine
 10
-22.50000000000001
 20
-1.934582818705345
 30
0.0
 11
-17.50000000000001
 21
-1.934582818705344
 31
0.0
  0
LINE
  5
4163
330
411F
100
AcDbEntity
  8
0
100
AcDbLine
 10
-17.50000000000001
 20
-2.995242990485166
 30
0.0
 11
-22.50000000000001
 21
-2.995242990485167
 31
0.0
  0
ELLIPSE
  5
4164
330
411F
100
AcDbEntity
  8
0
100
AcDbEllipse
 10
-17.50000000000001
 20
-0.1668158657389979
 30
0.0
 11
2.5
 21
0.0000000000000006
 31
0.0
210
0.0
220
0.0
230
1.0
 40
0.7071067811865474
 41
4.712388980384689
 42
5.4288069550443
  0
ELLIPSE
  5
4165
330
411F
100
AcDbEntity
  8
0
100
AcDbEllipse
 10
-17.50000000000001
 20
-1.227476037518802
 30
0.0
 11
2.5
 21
0.0000000000000006
 31
0.0
210
0.0
220
0.0
230
1.0
 40
0.7071067811865472
 41
4.712388980384689
 42
6.026811980161137
  0
LINE
  5
4166
330
411F
100
AcDbEntity
  8
0
100
AcDbLine
 10
-15.08171008039237
 20
-1.675735931288087
 30
0.0
 11
-15.08171008039237
 21
-1.500000000000003
 31
0.0
  0
SPLINE
  5
4167
330
411F
100
AcDbEntity
  8
0
100
AcDbSpline
210
0.0
220
0.0
230
1.0
 70
     8
 71
     3
 72
     8
 73
     4
 74
     0
 42
0.000000001
 43
0.0000000001
 40
-1.0
 40
-1.0
 40
-1.0
 40
-1.0
 40
0.0
 40
0.0
 40
0.0
 40
0.0
 10
-24.91828991960764
 20
-1.675735931288089
 30
0.0
 10
-24.99189972302028
 20
-1.567383125827709
 30
0.0
 10
-25.01609483643938
 20
-1.500000000000017
 30
0.0
 10
-24.98943351399744
 20
-1.500000000000017
 30
0.0
  0
SPLINE
  5
4168
330
411F
100
AcDbEntity
  8
0
100
AcDbSpline
210
0.0
220
0.0
230
1.0
 70
     8
 71
     3
 72
     8
 73
     4
 74
     0
 42
0.000000001
 43
0.0000000001
 40
-1.0
 40
-1.0
 40
-1.0
 40
-1.0
 40
0.0
 40
0.0
 40
0.0
 40
0.0
 10
-15.01056648600258
 20
-1.500000000000015
 30
0.0
 10
-14.9839051635608
 20
-1.500000000000015
 30
0.0
 10
-15.00810027697978
 20
-1.567383125827735
 30
0.0
 10
-15.08171008039238
 20
-1.675735931288087
 30
0.0
  0
ELLIPSE
  5
4169
330
411F
100
AcDbEntity
  8
0
100
AcDbEllipse
 10
17.49999999999999
 20
-0.1668158657389884
 30
0.0
 11
2.5
 21
0.0000000000001829
 31
0.0
210
0.0
220
0.0
230
1.0
 40
0.7071067811865472
 41
3.995971005724943
 42
4.712388980384622
  0
LINE
  5
416A
330
411F
100
AcDbEntity
  8
0
100
AcDbLine
 10
15.08171008039235
 20
-1.499999999999994
 30
0.0
 11
15.08171008039236
 21
-1.67573593128808
 31
0.0
  0
ELLIPSE
  5
416B
330
411F
100
AcDbEntity
  8
0
100
AcDbEllipse
 10
17.49999999999999
 20
-1.227476037518794
 30
0.0
 11
-2.5
 21
-0.0000000000000006
 31
0.0
210
0.0
220
0.0
230
1.0
 40
0.7071067811865472
 41
0.2563733270184496
 42
1.570796326794896
  0
LINE
  5
416C
330
411F
100
AcDbEntity
  8
0
100
AcDbLine
 10
17.49999999999999
 20
-1.934582818705334
 30
0.0
 11
22.5
 21
-1.934582818705333
 31
0.0
  0
LINE
  5
416D
330
411F
100
AcDbEntity
  8
0
100
AcDbLine
 10
22.5
 20
-2.995242990485155
 30
0.0
 11
17.49999999999999
 21
-2.995242990485156
 31
0.0
  0
ELLIPSE
  5
416E
330
411F
100
AcDbEntity
  8
0
100
AcDbEllipse
 10
22.5
 20
-0.1668158657389871
 30
0.0
 11
2.5
 21
0.0000000000000006
 31
0.0
210
0.0
220
0.0
230
1.0
 40
0.7071067811865472
 41
4.712388980384689
 42
5.428806955044302
  0
ELLIPSE
  5
416F
330
411F
100
AcDbEntity
  8
0
100
AcDbEllipse
 10
22.5
 20
-1.227476037518793
 30
0.0
 11
2.5
 21
0.0000000000000008
 31
0.0
210
0.0
220
0.0
230
1.0
 40
0.7071067811865476
 41
4.712388980384689
 42
6.026811980161135
  0
LINE
  5
4170
330
411F
100
AcDbEntity
  8
0
100
AcDbLine
 10
24.91828991960763
 20
-1.675735931288078
 30
0.0
 11
24.91828991960763
 21
-1.499999999999992
 31
0.0
  0
SPLINE
  5
4171
330
411F
100
AcDbEntity
  8
0
100
AcDbSpline
210
0.0
220
0.0
230
1.0
 70
     8
 71
     3
 72
     8
 73
     4
 74
     0
 42
0.000000001
 43
0.0000000001
 40
-1.0
 40
-1.0
 40
-1.0
 40
-1.0
 40
0.0
 40
0.0
 40
0.0
 40
0.0
 10
15.08171008039235
 20
-1.67573593128808
 30
0.0
 10
15.00810027697997
 20
-1.567383125827725
 30
0.0
 10
14.98390516356048
 20
-1.500000000000008
 30
0.0
 10
15.01056648600256
 20
-1.500000000000008
 30
0.0
  0
SPLINE
  5
4172
330
411F
100
AcDbEntity
  8
0
100
AcDbSpline
210
0.0
220
0.0
230
1.0
 70
     8
 71
     3
 72
     8
 73
     4
 74
     0
 42
0.000000001
 43
0.0000000001
 40
-1.0
 40
-1.0
 40
-1.0
 40
-1.0
 40
0.0
 40
0.0
 40
0.0
 40
0.0
 10
24.98943351399743
 20
-1.500000000000006
 30
0.0
 10
25.01609483643946
 20
-1.500000000000006
 30
0.0
 10
24.99189972302031
 20
-1.5673831258277
 30
0.0
 10
24.91828991960763
 20
-1.675735931288078
 30
0.0
  0
SPLINE
  5
4173
330
411F
100
AcDbEntity
  8
0
100
AcDbSpline
210
0.0
220
0.0
230
1.0
 70
     8
 71
     3
 72
     8
 73
     4
 74
     0
 42
0.000000001
 43
0.0000000001
 40
-1.0
 40
-1.0
 40
-1.0
 40
-1.0
 40
0.0
 40
0.0
 40
0.0
 40
0.0
 10
-40.01056648600259
 20
-1.500000000000021
 30
0.0
 10
-39.98390516356046
 20
-1.500000000000021
 30
0.0
 10
-40.00810027697968
 20
-1.567383125827685
 30
0.0
 10
-40.08171008039237
 20
-1.675735931288092
 30
0.0
  0
ELLIPSE
  5
4174
330
411F
100
AcDbEntity
  8
0
100
AcDbEllipse
 10
-42.5
 20
-1.227476037518807
 30
0.0
 11
2.5
 21
0.0000000000000005
 31
0.0
210
0.0
220
0.0
230
1.0
 40
0.7071067811865475
 41
3.397965980608241
 42
6.026811980161135
  0
ELLIPSE
  5
4175
330
411F
100
AcDbEntity
  8
0
100
AcDbEllipse
 10
42.5
 20
-1.227476037518788
 30
0.0
 11
2.5
 21
0.000000000000001
 31
0.0
210
0.0
220
0.0
230
1.0
 40
0.7071067811865475
 41
3.397965980608241
 42
6.026811980161136
  0
SPLINE
  5
4176
330
411F
100
AcDbEntity
  8
0
100
AcDbSpline
210
0.0
220
0.0
230
1.0
 70
     8
 71
     3
 72
     8
 73
     4
 74
     0
 42
0.000000001
 43
0.0000000001
 40
-1.0
 40
-1.0
 40
-1.0
 40
-1.0
 40
0.0
 40
0.0
 40
0.0
 40
0.0
 10
40.08171008039236
 20
-1.675735931288075
 30
0.0
 10
40.00810027697983
 20
-1.567383125827689
 30
0.0
 10
39.98390516356058
 20
-1.500000000000003
 30
0.0
 10
40.01056648600257
 20
-1.500000000000003
 30
0.0
  0
ELLIPSE
  5
4177
330
411F
100
AcDbEntity
  8
0
100
AcDbEllipse
 10
-42.5
 20
-0.1668158657390042
 30
0.0
 11
2.499999999999999
 21
0.0000000000001828
 31
0.0
210
0.0
220
0.0
230
1.0
 40
0.7071067811865474
 41
3.995971005724948
 42
5.428806955044159
  0
LINE
  5
4178
330
411F
100
AcDbEntity
  8
0
100
AcDbLine
 10
-44.91828991960765
 20
-1.500000000000012
 30
0.0
 11
-44.91828991960765
 21
-1.675735931288093
 31
0.0
  0
LINE
  5
4179
330
411F
100
AcDbEntity
  8
0
100
AcDbLine
 10
-40.08171008039237
 20
-1.675735931288092
 30
0.0
 11
-40.08171008039237
 21
-1.500000000000012
 31
0.0
  0
SPLINE
  5
417A
330
411F
100
AcDbEntity
  8
0
100
AcDbSpline
210
0.0
220
0.0
230
1.0
 70
     8
 71
     3
 72
     8
 73
     4
 74
     0
 42
0.000000001
 43
0.0000000001
 40
-1.0
 40
-1.0
 40
-1.0
 40
-1.0
 40
0.0
 40
0.0
 40
0.0
 40
0.0
 10
-44.91828991960765
 20
-1.675735931288094
 30
0.0
 10
-44.99189972302027
 20
-1.567383125827716
 30
0.0
 10
-45.01609483643965
 20
-1.500000000000022
 30
0.0
 10
-44.98943351399742
 20
-1.500000000000022
 30
0.0
  0
ELLIPSE
  5
417B
330
411F
100
AcDbEntity
  8
0
100
AcDbEllipse
 10
42.5
 20
-0.1668158657389818
 30
0.0
 11
2.5
 21
0.0000000000001826
 31
0.0
210
0.0
220
0.0
230
1.0
 40
0.7071067811865475
 41
3.995971005724953
 42
5.428806955044169
  0
LINE
  5
417C
330
411F
100
AcDbEntity
  8
0
100
AcDbLine
 10
40.08171008039236
 20
-1.499999999999994
 30
0.0
 11
40.08171008039236
 21
-1.675735931288074
 31
0.0
  0
LINE
  5
417D
330
411F
100
AcDbEntity
  8
0
100
AcDbLine
 10
44.91828991960763
 20
-1.675735931288073
 30
0.0
 11
44.91828991960763
 21
-1.499999999999985
 31
0.0
  0
SPLINE
  5
417E
330
411F
100
AcDbEntity
  8
0
100
AcDbSpline
210
0.0
220
0.0
230
1.0
 70
     8
 71
     3
 72
     8
 73
     4
 74
     0
 42
0.000000001
 43
0.0000000001
 40
-1.0
 40
-1.0
 40
-1.0
 40
-1.0
 40
0.0
 40
0.0
 40
0.0
 40
0.0
 10
44.98943351399742
 20
-1.500000000000002
 30
0.0
 10
45.01609483643922
 20
-1.500000000000002
 30
0.0
 10
44.99189972302032
 20
-1.567383125827658
 30
0.0
 10
44.91828991960763
 20
-1.675735931288073
 30
0.0
  0
SPLINE
  5
417F
330
411F
100
AcDbEntity
  8
0
100
AcDbSpline
210
0.0
220
0.0
230
1.0
 70
     8
 71
     3
 72
     8
 73
     4
 74
     0
 42
0.000000001
 43
0.0000000001
 40
-1.0
 40
-1.0
 40
-1.0
 40
-1.0
 40
0.0
 40
0.0
 40
0.0
 40
0.0
 10
-4.91828992013192
 20
-1.675735931288084
 30
0.0
 10
-4.99189972330745
 20
-1.567383125811564
 30
0.0
 10
-5.016094836485378
 20
-1.500000000000013
 30
0.0
 10
-4.989433513812965
 20
-1.500000000000013
 30
0.0
  0
ELLIPSE
  5
4180
330
411F
100
AcDbEntity
  8
0
100
AcDbEllipse
 10
2.499999999999999
 20
-1.227476038933011
 30
0.0
 11
2.5
 21
0.000000000000001
 31
0.0
210
0.0
220
0.0
230
1.0
 40
0.7071067811865474
 41
4.712388980384682
 42
6.026811980988168
  0
LINE
  5
4181
330
411F
100
AcDbEntity
  8
0
100
AcDbLine
 10
2.499999999999982
 20
-2.995242991899374
 30
0.0
 11
-2.500000000000008
 21
-2.995242991899375
 31
0.0
  0
ELLIPSE
  5
4182
330
411F
100
AcDbEntity
  8
0
100
AcDbEllipse
 10
-2.500000000000008
 20
-1.227476038933012
 30
0.0
 11
-2.5
 21
-0.0000000000000002
 31
0.0
210
0.0
220
0.0
230
1.0
 40
0.7071067811865472
 41
0.2563733261914187
 42
1.570796326794896
  0
SPLINE
  5
4183
330
411F
100
AcDbEntity
  8
0
100
AcDbSpline
210
0.0
220
0.0
230
1.0
 70
     8
 71
     3
 72
     8
 73
     4
 74
     0
 42
0.000000001
 43
0.0000000001
 40
-1.0
 40
-1.0
 40
-1.0
 40
-1.0
 40
0.0
 40
0.0
 40
0.0
 40
0.0
 10
4.989433513812962
 20
-1.500000000000011
 30
0.0
 10
5.01609483648544
 20
-1.500000000000011
 30
0.0
 10
4.991899723307128
 20
-1.567383125811554
 30
0.0
 10
4.918289920131925
 20
-1.675735931288082
 30
0.0
  0
ELLIPSE
  5
4184
330
411F
100
AcDbEntity
  8
0
100
AcDbEllipse
 10
-2.500000000000008
 20
-0.1668158671532074
 30
0.0
 11
2.5
 21
0.0000000000001824
 31
0.0
210
0.0
220
0.0
230
1.0
 40
0.7071067811865472
 41
3.995971004506708
 42
4.712388980384622
  0
LINE
  5
4185
330
411F
100
AcDbEntity
  8
0
100
AcDbLine
 10
-4.91828992013192
 20
-1.5
 30
0.0
 11
-4.918289920131922
 21
-1.675735931288084
 31
0.0
  0
LINE
  5
4186
330
411F
100
AcDbEntity
  8
0
100
AcDbLine
 10
-2.500000000000008
 20
-1.934582820119553
 30
0.0
 11
2.499999999999982
 21
-1.934582820119552
 31
0.0
  0
ELLIPSE
  5
4187
330
411F
100
AcDbEntity
  8
0
100
AcDbEllipse
 10
2.499999999999999
 20
-0.1668158671532123
 30
0.0
 11
2.5
 21
-0.000000000000012
 31
0.0
210
0.0
220
0.0
230
1.0
 40
0.7071067811865472
 41
4.712388980384682
 42
5.428806956262546
  0
LINE
  5
4188
330
411F
100
AcDbEntity
  8
0
100
AcDbLine
 10
4.918289920131921
 20
-1.675735931288082
 30
0.0
 11
4.918289920131921
 21
-1.499999999999997
 31
0.0
  0
LINE
  5
4189
330
411F
100
AcDbEntity
  8
0
100
AcDbLine
 10
-59.39999999999998
 20
-55.8401153701776
 30
0.0
 11
59.39999999999998
 21
-55.84011537017758
 31
0.0
  0
ELLIPSE
  5
418A
330
411F
100
AcDbEntity
  8
0
100
AcDbEllipse
 10
-59.39999999999998
 20
-56.26437943888952
 30
0.0
 11
-0.6000000000000089
 21
0.0000000000000265
 31
0.0
210
0.0
220
0.0
230
1.0
 40
0.7071067811865233
 41
4.712388980384808
 42
6.283185307179753
  0
ARC
  5
418B
330
411F
100
AcDbEntity
  8
0
100
AcDbCircle
 10
59.39999999999999
 20
-2.099999999999986
 30
0.0
 40
0.600000000000005
100
AcDbArc
 50
0.0
 51
90.0
  0
ARC
  5
418C
330
411F
100
AcDbEntity
  8
0
100
AcDbCircle
 10
59.39999999999999
 20
-2.099999999999986
 30
0.0
 40
2.100000000000008
100
AcDbArc
 50
0.0
 51
90.0
  0
ARC
  5
418D
330
411F
100
AcDbEntity
  8
0
100
AcDbCircle
 10
-59.40000000000001
 20
-2.100000000000012
 30
0.0
 40
0.5999999999999961
100
AcDbArc
 50
90.0
 51
180.0
  0
ARC
  5
418E
330
411F
100
AcDbEntity
  8
0
100
AcDbCircle
 10
-59.40000000000001
 20
-2.100000000000012
 30
0.0
 40
2.099999999999999
100
AcDbArc
 50
90.0
 51
180.0
  0
ENDBLK
  5
4121
330
411F
100
AcDbEntity
  8
0
100
AcDbBlockEnd
  0
BLOCK
  5
4190
330
418F
100
AcDbEntity
  8
0
100
AcDbBlockBegin
  2
SPR120_180-Bottom
 70
     0
 10
0.0
 20
0.0
 30
0.0
  3
SPR120_180-Bottom
  1

  0
LINE
  5
4192
330
418F
100
AcDbEntity
  8
0
100
AcDbLine
 10
102.527090561
 20
1.499999999999971
 30
0.0
 11
97.52709056099996
 21
1.499999999999972
 31
0.0
  0
LINE
  5
4193
330
418F
100
AcDbEntity
  8
0
100
AcDbLine
 10
97.52709056099996
 20
1.499999999999972
 30
0.0
 11
97.52709056099996
 21
0.0
 31
0.0
  0
LINE
  5
4194
330
418F
100
AcDbEntity
  8
0
100
AcDbLine
 10
97.52709056099996
 20
0.0
 30
0.0
 11
102.527090561
 21
0.0
 31
0.0
  0
LINE
  5
4195
330
418F
100
AcDbEntity
  8
0
100
AcDbLine
 10
102.527090561
 20
0.0
 30
0.0
 11
102.527090561
 21
1.499999999999971
 31
0.0
  0
LINE
  5
4196
330
418F
100
AcDbEntity
  8
0
100
AcDbLine
 10
-102.527090561
 20
0.0
 30
0.0
 11
-97.52709056100002
 21
0.0
 31
0.0
  0
LINE
  5
4197
330
418F
100
AcDbEntity
  8
0
100
AcDbLine
 10
-97.52709056100002
 20
1.500000000000027
 30
0.0
 11
-102.527090561
 21
1.500000000000029
 31
0.0
  0
LINE
  5
4198
330
418F
100
AcDbEntity
  8
0
100
AcDbLine
 10
-102.527090561
 20
1.500000000000029
 30
0.0
 11
-102.527090561
 21
0.0
 31
0.0
  0
LINE
  5
4199
330
418F
100
AcDbEntity
  8
0
100
AcDbLine
 10
-97.52709056100002
 20
0.0
 30
0.0
 11
-97.52709056100002
 21
1.500000000000027
 31
0.0
  0
LINE
  5
419A
330
418F
100
AcDbEntity
  8
0
100
AcDbLine
 10
97.52709056099996
 20
0.0
 30
0.0
 11
56.49999999999998
 21
0.0
 31
0.0
  0
LINE
  5
419B
330
418F
100
AcDbEntity
  8
0
100
AcDbLine
 10
-56.50000000000002
 20
0.0
 30
0.0
 11
-97.52709056100002
 21
0.0
 31
0.0
  0
LINE
  5
419C
330
418F
100
AcDbEntity
  8
0
100
AcDbLine
 10
-59.17856242236216
 20
1.50000000000002
 30
0.0
 11
-97.52709056100002
 21
1.500000000000027
 31
0.0
  0
LINE
  5
419D
330
418F
100
AcDbEntity
  8
0
100
AcDbLine
 10
97.52709056099996
 20
1.499999999999972
 30
0.0
 11
59.17856242236216
 21
1.499999999999983
 31
0.0
  0
LINE
  5
419E
330
418F
100
AcDbEntity
  8
0
100
AcDbLine
 10
56.49999999999998
 20
0.0
 30
0.0
 11
55.01767776087193
 21
0.0
 31
0.0
  0
LINE
  5
419F
330
418F
100
AcDbEntity
  8
0
100
AcDbLine
 10
-55.01767776087196
 20
0.0
 30
0.0
 11
-56.50000000000002
 21
0.0
 31
0.0
  0
SPLINE
  5
41A0
330
418F
100
AcDbEntity
  8
0
100
AcDbSpline
210
0.0
220
0.0
230
1.0
 70
     8
 71
     3
 72
     8
 73
     4
 74
     0
 42
0.000000001
 43
0.0000000001
 40
0.0
 40
0.0
 40
0.0
 40
0.0
 40
1.0
 40
1.0
 40
1.0
 40
1.0
 10
-55.14054197002048
 20
0.6150757595082743
 30
0.0
 10
-55.01586474390123
 20
0.2539843833467381
 30
0.0
 10
-54.97251992073981
 20
0.0000000000000243
 30
0.0
 10
-55.01767776087199
 20
0.0000000000000242
 30
0.0
  0
SPLINE
  5
41A1
330
418F
100
AcDbEntity
  8
0
100
AcDbSpline
210
0.0
220
0.0
230
1.0
 70
     8
 71
     3
 72
     8
 73
     4
 74
     0
 42
0.000000001
 43
0.0000000001
 40
0.0
 40
0.0
 40
0.0
 40
0.0
 40
1.0
 40
1.0
 40
1.0
 40
1.0
 10
55.01767776087193
 20
-0.0000000000000003
 30
0.0
 10
54.97251992074176
 20
0.0
 30
0.0
 10
55.01586474390373
 20
0.2539843833467156
 30
0.0
 10
55.14054197002042
 20
0.61507575950825
 30
0.0
  0
SPLINE
  5
41A2
330
418F
100
AcDbEntity
  8
0
100
AcDbSpline
210
0.0
220
0.0
230
1.0
 70
     8
 71
     3
 72
     8
 73
     4
 74
     0
 42
0.000000001
 43
0.0000000001
 40
0.0
 40
0.0
 40
0.0
 40
0.0
 40
1.0
 40
1.0
 40
1.0
 40
1.0
 10
-61.50000000000004
 20
4.362741700911231
 30
0.0
 10
-61.49999999999999
 20
3.178158037513639
 30
0.0
 10
-60.49955742875643
 20
2.063659161980577
 30
0.0
 10
-59.40000000000001
 20
1.656580012761341
 30
0.0
  0
LINE
  5
41A3
330
418F
100
AcDbEntity
  8
0
100
AcDbLine
 10
-59.40000000000001
 20
1.656580012761331
 30
0.0
 11
-58.79315533855962
 21
1.227476037518773
 31
0.0
  0
LINE
  5
41A4
330
418F
100
AcDbEntity
  8
0
100
AcDbLine
 10
-58.79315533855962
 20
1.227476037518773
 30
0.0
 11
-56.50000000000002
 21
1.227476037518796
 31
0.0
  0
ELLIPSE
  5
41A5
330
418F
100
AcDbEntity
  8
0
100
AcDbEllipse
 10
-56.50000000000002
 20
0.1668158657390048
 30
0.0
 11
1.5
 21
-0.0000000000000003
 31
0.0
210
0.0
220
0.0
230
1.0
 40
0.7071067811865474
 41
0.4363380716279135
 42
1.570796326794896
  0
LINE
  5
41A6
330
418F
100
AcDbEntity
  8
0
100
AcDbLine
 10
-55.01767776087196
 20
0.1805170265382094
 30
0.0
 11
-55.01767776087196
 21
0.0
 31
0.0
  0
SPLINE
  5
41A7
330
418F
100
AcDbEntity
  8
0
100
AcDbSpline
210
0.0
220
0.0
230
1.0
 70
     8
 71
     3
 72
     8
 73
     4
 74
     0
 42
0.000000001
 43
0.0000000001
 40
0.0
 40
0.0
 40
0.0
 40
0.0
 40
1.0
 40
1.0
 40
1.0
 40
1.0
 10
59.39999999999999
 20
1.656580012761292
 30
0.0
 10
60.49955742875646
 20
2.063659161980639
 30
0.0
 10
61.49999999999998
 20
3.178158037514096
 30
0.0
 10
61.50000000000002
 20
4.362741700911182
 30
0.0
  0
ELLIPSE
  5
41A8
330
418F
100
AcDbEntity
  8
0
100
AcDbEllipse
 10
56.49999999999998
 20
0.1668158657389749
 30
0.0
 11
1.5
 21
-0.0000000000001098
 31
0.0
210
0.0
220
0.0
230
1.0
 40
0.7071067811865479
 41
1.570796326795031
 42
2.705254581962144
  0
LINE
  5
41A9
330
418F
100
AcDbEntity
  8
0
100
AcDbLine
 10
56.49999999999998
 20
1.227476037518766
 30
0.0
 11
58.7931553385596
 21
1.227476037518744
 31
0.0
  0
LINE
  5
41AA
330
418F
100
AcDbEntity
  8
0
100
AcDbLine
 10
58.7931553385596
 20
1.227476037518744
 30
0.0
 11
59.39999999999999
 21
1.656580012761299
 31
0.0
  0
LINE
  5
41AB
330
418F
100
AcDbEntity
  8
0
100
AcDbLine
 10
55.01767776087193
 20
0.1805170265382869
 30
0.0
 11
55.01767776087193
 21
0.0
 31
0.0
  0
LINE
  5
41AC
330
418F
100
AcDbEntity
  8
0
100
AcDbLine
 10
44.98943351399742
 20
0.0
 30
0.0
 11
55.01767776087193
 21
0.0
 31
0.0
  0
LINE
  5
41AD
330
418F
100
AcDbEntity
  8
0
100
AcDbLine
 10
24.98943351399743
 20
0.0
 30
0.0
 11
40.01056648600257
 21
0.0
 31
0.0
  0
LINE
  5
41AE
330
418F
100
AcDbEntity
  8
0
100
AcDbLine
 10
4.98943351381296
 20
0.0
 30
0.0
 11
15.01056648600256
 21
0.0
 31
0.0
  0
LINE
  5
41AF
330
418F
100
AcDbEntity
  8
0
100
AcDbLine
 10
-15.01056648600258
 20
0.0
 30
0.0
 11
-4.989433513812969
 21
0.0
 31
0.0
  0
LINE
  5
41B0
330
418F
100
AcDbEntity
  8
0
100
AcDbLine
 10
-40.01056648600258
 20
0.0
 30
0.0
 11
-24.98943351399744
 21
0.0
 31
0.0
  0
LINE
  5
41B1
330
418F
100
AcDbEntity
  8
0
100
AcDbLine
 10
-55.01767776087196
 20
0.0
 30
0.0
 11
-44.98943351399744
 21
0.0
 31
0.0
  0
LINE
  5
41B2
330
418F
100
AcDbEntity
  8
0
100
AcDbLine
 10
61.49999999999997
 20
56.26437943888952
 30
0.0
 11
61.49999999999995
 21
82.00306627385996
 31
0.0
  0
LINE
  5
41B3
330
418F
100
AcDbEntity
  8
0
100
AcDbLine
 10
-61.49999999999993
 20
82.00306627386
 30
0.0
 11
-61.49999999999997
 21
56.26437943888955
 31
0.0
  0
LINE
  5
41B4
330
418F
100
AcDbEntity
  8
0
100
AcDbLine
 10
-59.99999999999996
 20
82.00306627386
 30
0.0
 11
-59.99999999999996
 21
56.26437943888953
 31
0.0
  0
LINE
  5
41B5
330
418F
100
AcDbEntity
  8
0
100
AcDbLine
 10
-59.39999999999998
 20
55.8401153701776
 30
0.0
 11
59.39999999999998
 21
55.84011537017758
 31
0.0
  0
LINE
  5
41B6
330
418F
100
AcDbEntity
  8
0
100
AcDbLine
 10
59.99999999999996
 20
56.26437943888952
 30
0.0
 11
59.99999999999997
 21
82.00306627385996
 31
0.0
  0
LINE
  5
41B7
330
418F
100
AcDbEntity
  8
0
100
AcDbLine
 10
-59.39999999999998
 20
54.77945519839778
 30
0.0
 11
59.39999999999998
 21
54.77945519839777
 31
0.0
  0
LINE
  5
41B8
330
418F
100
AcDbEntity
  8
0
100
AcDbLine
 10
44.98943351399742
 20
0.0
 30
0.0
 11
40.01056648600257
 21
0.0
 31
0.0
  0
LINE
  5
41B9
330
418F
100
AcDbEntity
  8
0
100
AcDbLine
 10
-40.01056648600258
 20
0.0
 30
0.0
 11
-44.98943351399744
 21
0.0
 31
0.0
  0
SPLINE
  5
41BA
330
418F
100
AcDbEntity
  8
0
100
AcDbSpline
210
0.0
220
0.0
230
1.0
 70
     8
 71
     3
 72
     8
 73
     4
 74
     0
 42
0.000000001
 43
0.0000000001
 40
0.0
 40
0.0
 40
0.0
 40
0.0
 40
1.0
 40
1.0
 40
1.0
 40
1.0
 10
-40.08171008039237
 20
0.615075759508271
 30
0.0
 10
-40.00810027697968
 20
0.2358409403968468
 30
0.0
 10
-39.98390516356046
 20
0.0000000000000208
 30
0.0
 10
-40.01056648600259
 20
0.0000000000000208
 30
0.0
  0
ELLIPSE
  5
41BB
330
418F
100
AcDbEntity
  8
0
100
AcDbEllipse
 10
-42.5
 20
0.1668158657390042
 30
0.0
 11
-2.5
 21
0.0000000000000002
 31
0.0
210
0.0
220
0.0
230
1.0
 40
0.7071067811865474
 41
3.397965980608241
 42
6.026811980161135
  0
SPLINE
  5
41BC
330
418F
100
AcDbEntity
  8
0
100
AcDbSpline
210
0.0
220
0.0
230
1.0
 70
     8
 71
     3
 72
     8
 73
     4
 74
     0
 42
0.000000001
 43
0.0000000001
 40
0.0
 40
0.0
 40
0.0
 40
0.0
 40
1.0
 40
1.0
 40
1.0
 40
1.0
 10
-44.98943351399742
 20
0.0000000000000219
 30
0.0
 10
-45.01609483643965
 20
0.0000000000000217
 30
0.0
 10
-44.99189972302027
 20
0.2358409403969526
 30
0.0
 10
-44.91828991960765
 20
0.6150757595082748
 30
0.0
  0
LINE
  5
41BD
330
418F
100
AcDbEntity
  8
0
100
AcDbLine
 10
-44.98943351399744
 20
0.1805170265382749
 30
0.0
 11
-44.98943351399744
 21
0.0
 31
0.0
  0
LINE
  5
41BE
330
418F
100
AcDbEntity
  8
0
100
AcDbLine
 10
-40.01056648600258
 20
0.1805170265382203
 30
0.0
 11
-40.01056648600258
 21
0.0
 31
0.0
  0
LINE
  5
41BF
330
418F
100
AcDbEntity
  8
0
100
AcDbLine
 10
-44.14171865077713
 20
1.500000000000013
 30
0.0
 11
-40.85828134922288
 21
1.500000000000012
 31
0.0
  0
ELLIPSE
  5
41C0
330
418F
100
AcDbEntity
  8
0
100
AcDbEllipse
 10
42.5
 20
0.1668158657389818
 30
0.0
 11
-2.5
 21
0.0000000000000009
 31
0.0
210
0.0
220
0.0
230
1.0
 40
0.7071067811865475
 41
3.397965980608241
 42
6.026811980161136
  0
SPLINE
  5
41C1
330
418F
100
AcDbEntity
  8
0
100
AcDbSpline
210
0.0
220
0.0
230
1.0
 70
     8
 71
     3
 72
     8
 73
     4
 74
     0
 42
0.000000001
 43
0.0000000001
 40
0.0
 40
0.0
 40
0.0
 40
0.0
 40
1.0
 40
1.0
 40
1.0
 40
1.0
 10
40.01056648600257
 20
0.0000000000000031
 30
0.0
 10
39.98390516356058
 20
0.0000000000000029
 30
0.0
 10
40.00810027697983
 20
0.2358409403969046
 30
0.0
 10
40.08171008039236
 20
0.6150757595082559
 30
0.0
  0
LINE
  5
41C2
330
418F
100
AcDbEntity
  8
0
100
AcDbLine
 10
40.01056648600257
 20
0.1805170265383321
 30
0.0
 11
40.01056648600257
 21
0.0
 31
0.0
  0
LINE
  5
41C3
330
418F
100
AcDbEntity
  8
0
100
AcDbLine
 10
44.98943351399742
 20
0.1805170265382189
 30
0.0
 11
44.98943351399742
 21
0.0
 31
0.0
  0
SPLINE
  5
41C4
330
418F
100
AcDbEntity
  8
0
100
AcDbSpline
210
0.0
220
0.0
230
1.0
 70
     8
 71
     3
 72
     8
 73
     4
 74
     0
 42
0.000000001
 43
0.0000000001
 40
0.0
 40
0.0
 40
0.0
 40
0.0
 40
1.0
 40
1.0
 40
1.0
 40
1.0
 10
44.91828991960763
 20
0.6150757595082521
 30
0.0
 10
44.99189972302032
 20
0.2358409403967999
 30
0.0
 10
45.01609483643922
 20
0.0000000000000019
 30
0.0
 10
44.98943351399742
 20
0.0000000000000019
 30
0.0
  0
LINE
  5
41C5
330
418F
100
AcDbEntity
  8
0
100
AcDbLine
 10
40.85828134922288
 20
1.499999999999994
 30
0.0
 11
44.14171865077711
 21
1.499999999999993
 31
0.0
  0
LINE
  5
41C6
330
418F
100
AcDbEntity
  8
0
100
AcDbLine
 10
24.98943351399743
 20
0.0
 30
0.0
 11
22.5
 21
0.0
 31
0.0
  0
LINE
  5
41C7
330
418F
100
AcDbEntity
  8
0
100
AcDbLine
 10
22.5
 20
0.0
 30
0.0
 11
17.49999999999999
 21
0.0
 31
0.0
  0
LINE
  5
41C8
330
418F
100
AcDbEntity
  8
0
100
AcDbLine
 10
17.49999999999999
 20
0.0
 30
0.0
 11
15.01056648600256
 21
0.0
 31
0.0
  0
LINE
  5
41C9
330
418F
100
AcDbEntity
  8
0
100
AcDbLine
 10
-15.01056648600258
 20
0.0
 30
0.0
 11
-17.50000000000001
 21
0.0
 31
0.0
  0
LINE
  5
41CA
330
418F
100
AcDbEntity
  8
0
100
AcDbLine
 10
-17.50000000000001
 20
0.0
 30
0.0
 11
-22.50000000000001
 21
0.0
 31
0.0
  0
LINE
  5
41CB
330
418F
100
AcDbEntity
  8
0
100
AcDbLine
 10
-22.50000000000001
 20
0.0
 30
0.0
 11
-24.98943351399744
 21
0.0
 31
0.0
  0
ELLIPSE
  5
41CC
330
418F
100
AcDbEntity
  8
0
100
AcDbEllipse
 10
-22.50000000000001
 20
0.166815865738999
 30
0.0
 11
-2.5
 21
0.0000000000000003
 31
0.0
210
0.0
220
0.0
230
1.0
 40
0.7071067811865474
 41
4.712388980384689
 42
6.026811980161136
  0
LINE
  5
41CD
330
418F
100
AcDbEntity
  8
0
100
AcDbLine
 10
-22.50000000000001
 20
1.934582818705345
 30
0.0
 11
-17.50000000000001
 21
1.934582818705344
 31
0.0
  0
ELLIPSE
  5
41CE
330
418F
100
AcDbEntity
  8
0
100
AcDbEllipse
 10
-17.50000000000001
 20
0.1668158657389979
 30
0.0
 11
2.5
 21
-0.0000000000000006
 31
0.0
210
0.0
220
0.0
230
1.0
 40
0.7071067811865474
 41
0.2563733270184496
 42
1.570796326794896
  0
SPLINE
  5
41CF
330
418F
100
AcDbEntity
  8
0
100
AcDbSpline
210
0.0
220
0.0
230
1.0
 70
     8
 71
     3
 72
     8
 73
     4
 74
     0
 42
0.000000001
 43
0.0000000001
 40
0.0
 40
0.0
 40
0.0
 40
0.0
 40
1.0
 40
1.0
 40
1.0
 40
1.0
 10
-24.98943351399744
 20
0.0000000000000175
 30
0.0
 10
-25.01609483643938
 20
0.0000000000000173
 30
0.0
 10
-24.99189972302028
 20
0.2358409403969383
 30
0.0
 10
-24.91828991960764
 20
0.6150757595082677
 30
0.0
  0
LINE
  5
41D0
330
418F
100
AcDbEntity
  8
0
100
AcDbLine
 10
-24.98943351399744
 20
0.1805170265382747
 30
0.0
 11
-24.98943351399744
 21
0.0
 31
0.0
  0
LINE
  5
41D1
330
418F
100
AcDbEntity
  8
0
100
AcDbLine
 10
-15.01056648600258
 20
0.1805170265383149
 30
0.0
 11
-15.01056648600258
 21
0.0
 31
0.0
  0
SPLINE
  5
41D2
330
418F
100
AcDbEntity
  8
0
100
AcDbSpline
210
0.0
220
0.0
230
1.0
 70
     8
 71
     3
 72
     8
 73
     4
 74
     0
 42
0.000000001
 43
0.0000000001
 40
0.0
 40
0.0
 40
0.0
 40
0.0
 40
1.0
 40
1.0
 40
1.0
 40
1.0
 10
-15.08171008039238
 20
0.6150757595082654
 30
0.0
 10
-15.00810027697978
 20
0.2358409403970357
 30
0.0
 10
-14.9839051635608
 20
0.0000000000000151
 30
0.0
 10
-15.01056648600258
 20
0.0000000000000153
 30
0.0
  0
LINE
  5
41D3
330
418F
100
AcDbEntity
  8
0
100
AcDbLine
 10
-17.50000000000001
 20
1.500000000000007
 30
0.0
 11
-15.85828134922289
 21
1.500000000000006
 31
0.0
  0
LINE
  5
41D4
330
418F
100
AcDbEntity
  8
0
100
AcDbLine
 10
-22.50000000000001
 20
1.500000000000009
 30
0.0
 11
-17.50000000000001
 21
1.500000000000008
 31
0.0
  0
LINE
  5
41D5
330
418F
100
AcDbEntity
  8
0
100
AcDbLine
 10
-24.14171865077713
 20
1.500000000000008
 30
0.0
 11
-22.50000000000001
 21
1.500000000000008
 31
0.0
  0
ELLIPSE
  5
41D6
330
418F
100
AcDbEntity
  8
0
100
AcDbEllipse
 10
17.49999999999999
 20
0.1668158657389884
 30
0.0
 11
-2.5
 21
0.0000000000000003
 31
0.0
210
0.0
220
0.0
230
1.0
 40
0.7071067811865475
 41
4.712388980384689
 42
6.026811980161137
  0
LINE
  5
41D7
330
418F
100
AcDbEntity
  8
0
100
AcDbLine
 10
17.49999999999999
 20
1.934582818705334
 30
0.0
 11
22.5
 21
1.934582818705333
 31
0.0
  0
ELLIPSE
  5
41D8
330
418F
100
AcDbEntity
  8
0
100
AcDbEllipse
 10
22.5
 20
0.1668158657389871
 30
0.0
 11
2.5
 21
-0.0000000000000006
 31
0.0
210
0.0
220
0.0
230
1.0
 40
0.7071067811865472
 41
0.2563733270184496
 42
1.570796326794896
  0
SPLINE
  5
41D9
330
418F
100
AcDbEntity
  8
0
100
AcDbSpline
210
0.0
220
0.0
230
1.0
 70
     8
 71
     3
 72
     8
 73
     4
 74
     0
 42
0.000000001
 43
0.0000000001
 40
0.0
 40
0.0
 40
0.0
 40
0.0
 40
1.0
 40
1.0
 40
1.0
 40
1.0
 10
15.01056648600256
 20
0.0000000000000086
 30
0.0
 10
14.98390516356048
 20
0.0000000000000085
 30
0.0
 10
15.00810027697997
 20
0.235840940397016
 30
0.0
 10
15.08171008039235
 20
0.6150757595082589
 30
0.0
  0
LINE
  5
41DA
330
418F
100
AcDbEntity
  8
0
100
AcDbLine
 10
15.01056648600256
 20
0.1805170265382674
 30
0.0
 11
15.01056648600256
 21
0.0
 31
0.0
  0
LINE
  5
41DB
330
418F
100
AcDbEntity
  8
0
100
AcDbLine
 10
24.98943351399743
 20
0.1805170265382572
 30
0.0
 11
24.98943351399743
 21
0.0
 31
0.0
  0
SPLINE
  5
41DC
330
418F
100
AcDbEntity
  8
0
100
AcDbSpline
210
0.0
220
0.0
230
1.0
 70
     8
 71
     3
 72
     8
 73
     4
 74
     0
 42
0.000000001
 43
0.0000000001
 40
0.0
 40
0.0
 40
0.0
 40
0.0
 40
1.0
 40
1.0
 40
1.0
 40
1.0
 10
24.91828991960763
 20
0.6150757595082565
 30
0.0
 10
24.99189972302031
 20
0.2358409403969337
 30
0.0
 10
25.01609483643946
 20
0.0000000000000063
 30
0.0
 10
24.98943351399743
 20
0.0000000000000064
 30
0.0
  0
LINE
  5
41DD
330
418F
100
AcDbEntity
  8
0
100
AcDbLine
 10
22.5
 20
1.499999999999998
 30
0.0
 11
24.14171865077712
 21
1.499999999999998
 31
0.0
  0
LINE
  5
41DE
330
418F
100
AcDbEntity
  8
0
100
AcDbLine
 10
17.49999999999999
 20
1.499999999999998
 30
0.0
 11
22.5
 21
1.499999999999997
 31
0.0
  0
LINE
  5
41DF
330
418F
100
AcDbEntity
  8
0
100
AcDbLine
 10
15.85828134922287
 20
1.5
 30
0.0
 11
17.49999999999999
 21
1.499999999999999
 31
0.0
  0
LINE
  5
41E0
330
418F
100
AcDbEntity
  8
0
100
AcDbLine
 10
4.98943351381296
 20
0.0
 30
0.0
 11
2.499999999999982
 21
0.0
 31
0.0
  0
LINE
  5
41E1
330
418F
100
AcDbEntity
  8
0
100
AcDbLine
 10
2.499999999999981
 20
0.0
 30
0.0
 11
-2.500000000000008
 21
0.0
 31
0.0
  0
LINE
  5
41E2
330
418F
100
AcDbEntity
  8
0
100
AcDbLine
 10
-2.500000000000008
 20
0.0
 30
0.0
 11
-4.989433513812969
 21
0.0
 31
0.0
  0
SPLINE
  5
41E3
330
418F
100
AcDbEntity
  8
0
100
AcDbSpline
210
0.0
220
0.0
230
1.0
 70
     8
 71
     3
 72
     8
 73
     4
 74
     0
 42
0.000000001
 43
0.0000000001
 40
0.0
 40
0.0
 40
0.0
 40
0.0
 40
1.0
 40
1.0
 40
1.0
 40
1.0
 10
4.918289920131925
 20
0.615075759508261
 30
0.0
 10
4.991899723307127
 20
0.2358409403404128
 30
0.0
 10
5.01609483648544
 20
0.0000000000000107
 30
0.0
 10
4.989433513812961
 20
0.0000000000000108
 30
0.0
  0
SPLINE
  5
41E4
330
418F
100
AcDbEntity
  8
0
100
AcDbSpline
210
0.0
220
0.0
230
1.0
 70
     8
 71
     3
 72
     8
 73
     4
 74
     0
 42
0.000000001
 43
0.0000000001
 40
0.0
 40
0.0
 40
0.0
 40
0.0
 40
1.0
 40
1.0
 40
1.0
 40
1.0
 10
-4.989433513812965
 20
0.000000000000013
 30
0.0
 10
-5.016094836485378
 20
0.000000000000013
 30
0.0
 10
-4.991899723307451
 20
0.235840940340442
 30
0.0
 10
-4.91828992013192
 20
0.6150757595082633
 30
0.0
  0
ELLIPSE
  5
41E5
330
418F
100
AcDbEntity
  8
0
100
AcDbEllipse
 10
-2.500000000000008
 20
0.1668158671532074
 30
0.0
 11
-2.5
 21
0.0000000000000003
 31
0.0
210
0.0
220
0.0
230
1.0
 40
0.7071067811865475
 41
4.712388980384689
 42
6.026811980988167
  0
LINE
  5
41E6
330
418F
100
AcDbEntity
  8
0
100
AcDbLine
 10
-2.500000000000008
 20
1.934582820119553
 30
0.0
 11
2.499999999999982
 21
1.934582820119552
 31
0.0
  0
ELLIPSE
  5
41E7
330
418F
100
AcDbEntity
  8
0
100
AcDbEllipse
 10
2.499999999999999
 20
0.1668158671532123
 30
0.0
 11
2.5
 21
0.000000000000012
 31
0.0
210
0.0
220
0.0
230
1.0
 40
0.7071067811865472
 41
0.2563733261914081
 42
1.570796326794903
  0
LINE
  5
41E8
330
418F
100
AcDbEntity
  8
0
100
AcDbLine
 10
-4.989433513812969
 20
0.1805170296371419
 30
0.0
 11
-4.989433513812969
 21
0.0
 31
0.0
  0
LINE
  5
41E9
330
418F
100
AcDbEntity
  8
0
100
AcDbLine
 10
4.98943351381296
 20
0.1805170296372305
 30
0.0
 11
4.98943351381296
 21
0.0
 31
0.0
  0
LINE
  5
41EA
330
418F
100
AcDbEntity
  8
0
100
AcDbLine
 10
2.499999999999983
 20
1.500000000000003
 30
0.0
 11
4.141718653073997
 21
1.500000000000002
 31
0.0
  0
LINE
  5
41EB
330
418F
100
AcDbEntity
  8
0
100
AcDbLine
 10
-2.500000000000008
 20
1.500000000000003
 30
0.0
 11
2.499999999999982
 21
1.500000000000002
 31
0.0
  0
LINE
  5
41EC
330
418F
100
AcDbEntity
  8
0
100
AcDbLine
 10
-4.141718653073995
 20
1.500000000000004
 30
0.0
 11
-2.500000000000008
 21
1.500000000000003
 31
0.0
  0
LINE
  5
41ED
330
418F
100
AcDbEntity
  8
0
100
AcDbLine
 10
61.5
 20
2.099999999999976
 30
0.0
 11
61.50000000000002
 21
4.362741700911184
 31
0.0
  0
LINE
  5
41EE
330
418F
100
AcDbEntity
  8
0
100
AcDbLine
 10
-61.50000000000002
 20
4.362741700911199
 30
0.0
 11
-61.50000000000002
 21
2.100000000000004
 31
0.0
  0
LINE
  5
41EF
330
418F
100
AcDbEntity
  8
0
100
AcDbLine
 10
59.99999999999997
 20
82.00306627385996
 30
0.0
 11
61.49999999999995
 21
82.00306627385996
 31
0.0
  0
LINE
  5
41F0
330
418F
100
AcDbEntity
  8
0
100
AcDbLine
 10
-61.49999999999993
 20
82.00306627386
 30
0.0
 11
-59.99999999999996
 21
82.00306627386
 31
0.0
  0
LINE
  5
41F1
330
418F
100
AcDbEntity
  8
0
100
AcDbLine
 10
61.49999999999997
 20
56.26437943888952
 30
0.0
 11
61.50000000000002
 21
4.362741700911181
 31
0.0
  0
ELLIPSE
  5
41F2
330
418F
100
AcDbEntity
  8
0
100
AcDbEllipse
 10
59.39999999999998
 20
56.26437943888951
 30
0.0
 11
0.6000000000000089
 21
0.0000000000000257
 31
0.0
210
0.0
220
0.0
230
1.0
 40
0.7071067811865475
 41
4.712388980384688
 42
6.283185307179548
  0
ELLIPSE
  5
41F3
330
418F
100
AcDbEntity
  8
0
100
AcDbEllipse
 10
59.39999999999998
 20
56.26437943888951
 30
0.0
 11
2.100000000000031
 21
0.0000000000000351
 31
0.0
210
0.0
220
0.0
230
1.0
 40
0.7071067811865426
 41
4.712388980384728
 42
6.28318530717967
  0
LINE
  5
41F4
330
418F
100
AcDbEntity
  8
0
100
AcDbLine
 10
-61.50000000000004
 20
4.362741700911197
 30
0.0
 11
-61.49999999999997
 21
56.26437943888955
 31
0.0
  0
ELLIPSE
  5
41F5
330
418F
100
AcDbEntity
  8
0
100
AcDbEllipse
 10
-59.39999999999998
 20
56.26437943888952
 30
0.0
 11
-2.100000000000031
 21
0.0000000000000095
 31
0.0
210
0.0
220
0.0
230
1.0
 40
0.7071067811865476
 41
0.0
 42
1.570796326794903
  0
ELLIPSE
  5
41F6
330
418F
100
AcDbEntity
  8
0
100
AcDbEllipse
 10
-59.39999999999998
 20
56.26437943888952
 30
0.0
 11
-0.6000000000000089
 21
-0.0000000000000265
 31
0.0
210
0.0
220
0.0
230
1.0
 40
0.7071067811865233
 41
0.0
 42
1.570796326794776
  0
ARC
  5
41F7
330
418F
100
AcDbEntity
  8
0
100
AcDbCircle
 10
59.39999999999999
 20
2.099999999999986
 30
0.0
 40
0.600000000000005
100
AcDbArc
 50
270.0
 51
343.4444348564543
  0
ARC
  5
41F8
330
418F
100
AcDbEntity
  8
0
100
AcDbCircle
 10
59.39999999999999
 20
2.099999999999986
 30
0.0
 40
2.100000000000008
100
AcDbArc
 50
343.3984504009798
 51
0.0
  0
ARC
  5
41F9
330
418F
100
AcDbEntity
  8
0
100
AcDbCircle
 10
-59.40000000000001
 20
2.100000000000012
 30
0.0
 40
0.5999999999999962
100
AcDbArc
 50
196.5555651435482
 51
270.0
  0
ARC
  5
41FA
330
418F
100
AcDbEntity
  8
0
100
AcDbCircle
 10
-59.40000000000001
 20
2.100000000000012
 30
0.0
 40
2.099999999999999
100
AcDbArc
 50
180.0
 51
196.60154959902
  0
ENDBLK
  5
4191
330
418F
100
AcDbEntity
  8
0
100
AcDbBlockEnd
  0
BLOCK
  5
41FC
330
41FB
100
AcDbEntity
  8
0
100
AcDbBlockBegin
  2
SPR120_180-ISO
 70
     0
 10
0.0
 20
0.0
 30
0.0
  3
SPR120_180-ISO
  1

  0
LINE
  5
41FE
330
41FB
100
AcDbEntity
  8
0
100
AcDbLine
 10
100.4270114937889
 20
-71.65134956617707
 30
0.0
 11
96.89147758785622
 21
-73.69259101849639
 31
0.0
  0
LINE
  5
41FF
330
41FB
100
AcDbEntity
  8
0
100
AcDbLine
 10
101.4876716655688
 20
-71.03897713048128
 30
0.0
 11
100.4270114937889
 21
-71.65134956617707
 31
0.0
  0
LINE
  5
4200
330
41FB
100
AcDbEntity
  8
0
100
AcDbLine
 10
100.4270114937889
 20
-17.76257522494715
 30
0.0
 11
101.4876716655688
 21
-17.15020278925136
 31
0.0
  0
LINE
  5
4201
330
41FB
100
AcDbEntity
  8
0
100
AcDbLine
 10
101.4876716655687
 20
-17.15020278925136
 30
0.0
 11
97.95213775963603
 21
-11.02647843229341
 31
0.0
  0
LINE
  5
4202
330
41FB
100
AcDbEntity
  8
0
100
AcDbLine
 10
-41.03265658229907
 20
5.937944972388775
 30
0.0
 11
-44.56819048823181
 21
12.06166932934671
 31
0.0
  0
LINE
  5
4203
330
41FB
100
AcDbEntity
  8
0
100
AcDbLine
 10
96.89147758785621
 20
-11.6388508679892
 30
0.0
 11
100.4270114937889
 21
-17.76257522494715
 31
0.0
  0
LINE
  5
4204
330
41FB
100
AcDbEntity
  8
0
100
AcDbLine
 10
97.95213775963603
 20
-11.02647843229341
 30
0.0
 11
96.89147758785621
 21
-11.6388508679892
 31
0.0
  0
LINE
  5
4205
330
41FB
100
AcDbEntity
  8
0
100
AcDbLine
 10
101.4876716655687
 20
-17.15020278925136
 30
0.0
 11
101.4876716655688
 21
-71.03897713048128
 31
0.0
  0
LINE
  5
4206
330
41FB
100
AcDbEntity
  8
0
100
AcDbLine
 10
100.4270114937889
 20
-17.76257522494715
 30
0.0
 11
100.4270114937889
 21
-71.65134956617707
 31
0.0
  0
LINE
  5
4207
330
41FB
100
AcDbEntity
  8
0
100
AcDbLine
 10
-15.55765654019413
 20
54.50843186237253
 30
0.0
 11
-10.96146246248155
 21
51.85481797435741
 31
0.0
  0
LINE
  5
4208
330
41FB
100
AcDbEntity
  8
0
100
AcDbLine
 10
70.35581737397143
 20
4.906264571013174
 30
0.0
 11
97.95213775963603
 21
-11.02647843229341
 31
0.0
  0
LINE
  5
4209
330
41FB
100
AcDbEntity
  8
0
100
AcDbLine
 10
-44.56819048823181
 20
12.06166932934671
 30
0.0
 11
-44.56819048823181
 21
42.27204282367255
 31
0.0
  0
LINE
  5
420A
330
41FB
100
AcDbEntity
  8
0
100
AcDbLine
 10
69.29515720219163
 20
4.29389213531738
 30
0.0
 11
96.89147758785621
 21
-11.6388508679892
 31
0.0
  0
LINE
  5
420B
330
41FB
100
AcDbEntity
  8
0
100
AcDbLine
 10
-12.02212263426137
 20
-10.81129461184556
 30
0.0
 11
-41.03265658229907
 21
5.937944972388775
 31
0.0
  0
LINE
  5
420C
330
41FB
100
AcDbEntity
  8
0
100
AcDbLine
 10
96.89147758785622
 20
-73.69259101849639
 30
0.0
 11
67.88094363981852
 21
-56.94335143426207
 31
0.0
  0
LINE
  5
420D
330
41FB
100
AcDbEntity
  8
0
100
AcDbLine
 10
-16.61831671197394
 20
53.89605942667673
 30
0.0
 11
-12.02212263426137
 21
51.24244553866162
 31
0.0
  0
LINE
  5
420E
330
41FB
100
AcDbEntity
  8
0
100
AcDbLine
 10
-10.96146246248155
 20
51.85481797435741
 30
0.0
 11
-12.02212263426137
 21
51.24244553866162
 31
0.0
  0
ELLIPSE
  5
420F
330
41FB
100
AcDbEntity
  8
0
100
AcDbEllipse
 10
-12.02212263426137
 20
52.4671904100532
 30
0.0
 11
0.7500000000000007
 21
-1.299038105676658
 31
0.0
210
0.0
220
0.0
230
0.9999999999999998
 40
0.5773502691896259
 41
5.497787143782137
 42
8.639379797371928
  0
ELLIPSE
  5
4210
330
41FB
100
AcDbEntity
  8
0
100
AcDbEllipse
 10
64.34540973388577
 20
2.252650682998038
 30
0.0
 11
1.25
 21
-2.165063509461095
 31
0.0
210
0.0
220
0.0
230
1.0
 40
0.577350269189626
 41
4.999145532596241
 42
5.845036276595413
  0
ELLIPSE
  5
4211
330
41FB
100
AcDbEntity
  8
0
100
AcDbEllipse
 10
63.28474956210595
 20
1.640278247302244
 30
0.0
 11
1.250000000000001
 21
-2.165063509461096
 31
0.0
210
0.0
220
0.0
230
0.9999999999999998
 40
0.5773502691896259
 41
4.999145532596246
 42
7.567225081762932
  0
ELLIPSE
  5
4212
330
41FB
100
AcDbEntity
  8
0
100
AcDbEllipse
 10
64.34540973388577
 20
-30.407212554111
 30
0.0
 11
1.250000000000129
 21
-2.16506350946102
 31
0.0
210
0.0
220
0.0
230
1.0
 40
0.5773502691896261
 41
3.579741684173548
 42
5.845036276594998
  0
ELLIPSE
  5
4213
330
41FB
100
AcDbEntity
  8
0
100
AcDbEllipse
 10
63.28474956210595
 20
-31.01958498980679
 30
0.0
 11
1.25
 21
-2.165063509461095
 31
0.0
210
0.0
220
0.0
230
1.0
 40
0.577350269189626
 41
0.0
 42
6.283185307179586
  0
ELLIPSE
  5
4214
330
41FB
100
AcDbEntity
  8
0
100
AcDbEllipse
 10
57.27434192202031
 20
87.98479168040925
 30
0.0
 11
1.250000000000129
 21
-2.165063509461021
 31
0.0
210
0.0
220
0.0
230
1.0
 40
0.577350269189626
 41
3.579741684173544
 42
5.845036276595009
  0
ELLIPSE
  5
4215
330
41FB
100
AcDbEntity
  8
0
100
AcDbEllipse
 10
57.27434192202029
 20
-9.994798030917845
 30
0.0
 11
1.250000000000129
 21
-2.165063509461021
 31
0.0
210
0.0
220
0.0
230
1.0
 40
0.577350269189626
 41
3.579741684173546
 42
5.845036276594997
  0
ELLIPSE
  5
4216
330
41FB
100
AcDbEntity
  8
0
100
AcDbEllipse
 10
56.21368175024048
 20
87.37241924471346
 30
0.0
 11
1.25
 21
-2.165063509461095
 31
0.0
210
0.0
220
0.0
230
1.0
 40
0.577350269189626
 41
0.0
 42
6.283185307179586
  0
ELLIPSE
  5
4217
330
41FB
100
AcDbEntity
  8
0
100
AcDbEllipse
 10
56.21368175024047
 20
-10.60717046661364
 30
0.0
 11
1.25
 21
-2.165063509461095
 31
0.0
210
0.0
220
0.0
230
1.0
 40
0.577350269189626
 41
0.0
 42
6.283185307179586
  0
ELLIPSE
  5
4218
330
41FB
100
AcDbEntity
  8
0
100
AcDbEllipse
 10
57.27434192202029
 20
-42.65466126802688
 30
0.0
 11
1.250000000000129
 21
-2.165063509461021
 31
0.0
210
0.0
220
0.0
230
1.0
 40
0.577350269189626
 41
3.579741684173544
 42
5.845036276594997
  0
ELLIPSE
  5
4219
330
41FB
100
AcDbEntity
  8
0
100
AcDbEllipse
 10
56.21368175024047
 20
-43.26703370372267
 30
0.0
 11
1.25
 21
-2.165063509461095
 31
0.0
210
0.0
220
0.0
230
1.0
 40
0.577350269189626
 41
0.0
 42
6.283185307179586
  0
ELLIPSE
  5
421A
330
41FB
100
AcDbEntity
  8
0
100
AcDbEllipse
 10
0.7057994270964941
 20
104.3147232989637
 30
0.0
 11
1.25000000000013
 21
-2.165063509461021
 31
0.0
210
0.0
220
0.0
230
1.0
 40
0.5773502691896259
 41
3.579741684173544
 42
5.845036276594998
  0
ELLIPSE
  5
421B
330
41FB
100
AcDbEntity
  8
0
100
AcDbEllipse
 10
0.7057994270964941
 20
71.65486006185474
 30
0.0
 11
1.25000000000013
 21
-2.165063509461021
 31
0.0
210
0.0
220
0.0
230
1.0
 40
0.5773502691896259
 41
3.579741684173544
 42
5.845036276594998
  0
ELLIPSE
  5
421C
330
41FB
100
AcDbEntity
  8
0
100
AcDbEllipse
 10
0.7057994270964896
 20
38.99499682474571
 30
0.0
 11
1.25000000000013
 21
-2.165063509461021
 31
0.0
210
0.0
220
0.0
230
1.0
 40
0.5773502691896259
 41
3.579741684173544
 42
5.845036276594996
  0
ELLIPSE
  5
421D
330
41FB
100
AcDbEntity
  8
0
100
AcDbEllipse
 10
-0.3548607446833296
 20
103.702350863268
 30
0.0
 11
1.25
 21
-2.165063509461095
 31
0.0
210
0.0
220
0.0
230
1.0
 40
0.577350269189626
 41
0.0
 42
6.283185307179586
  0
ELLIPSE
  5
421E
330
41FB
100
AcDbEntity
  8
0
100
AcDbEllipse
 10
-0.3548607446833296
 20
71.04248762615894
 30
0.0
 11
1.25
 21
-2.165063509461095
 31
0.0
210
0.0
220
0.0
230
1.0
 40
0.577350269189626
 41
0.0
 42
6.283185307179586
  0
ELLIPSE
  5
421F
330
41FB
100
AcDbEntity
  8
0
100
AcDbEllipse
 10
-0.3548607446833341
 20
38.38262438904992
 30
0.0
 11
1.25
 21
-2.165063509461095
 31
0.0
210
0.0
220
0.0
230
1.0
 40
0.577350269189626
 41
0.0
 42
6.283185307179586
  0
ELLIPSE
  5
4220
330
41FB
100
AcDbEntity
  8
0
100
AcDbEllipse
 10
0.7057994270964896
 20
6.335133587636683
 30
0.0
 11
1.250000000000129
 21
-2.16506350946102
 31
0.0
210
0.0
220
0.0
230
1.0
 40
0.5773502691896261
 41
3.579741684173548
 42
5.845036276594998
  0
ELLIPSE
  5
4221
330
41FB
100
AcDbEntity
  8
0
100
AcDbEllipse
 10
-0.3548607446833341
 20
5.722761151940884
 30
0.0
 11
1.25
 21
-2.165063509461095
 31
0.0
210
0.0
220
0.0
230
1.0
 40
0.577350269189626
 41
0.0
 42
6.283185307179586
  0
ELLIPSE
  5
4222
330
41FB
100
AcDbEntity
  8
0
100
AcDbEllipse
 10
-6.365268384768989
 20
124.7271378221569
 30
0.0
 11
1.25000000000013
 21
-2.165063509461021
 31
0.0
210
0.0
220
0.0
230
1.0
 40
0.5773502691896259
 41
3.579741684173544
 42
5.845036276595004
  0
ELLIPSE
  5
4223
330
41FB
100
AcDbEntity
  8
0
100
AcDbEllipse
 10
-6.365268384768989
 20
92.0672745850479
 30
0.0
 11
1.25000000000013
 21
-2.165063509461021
 31
0.0
210
0.0
220
0.0
230
1.0
 40
0.5773502691896259
 41
3.579741684173544
 42
5.845036276595
  0
ELLIPSE
  5
4224
330
41FB
100
AcDbEntity
  8
0
100
AcDbEllipse
 10
-6.365268384768989
 20
59.40741134793885
 30
0.0
 11
1.25000000000013
 21
-2.165063509461021
 31
0.0
210
0.0
220
0.0
230
1.0
 40
0.5773502691896259
 41
3.579741684173544
 42
5.845036276595
  0
ELLIPSE
  5
4225
330
41FB
100
AcDbEntity
  8
0
100
AcDbEllipse
 10
-6.365268384768993
 20
26.74754811082983
 30
0.0
 11
1.25000000000013
 21
-2.165063509461021
 31
0.0
210
0.0
220
0.0
230
1.0
 40
0.5773502691896259
 41
3.579741684173544
 42
5.845036276594995
  0
ELLIPSE
  5
4226
330
41FB
100
AcDbEntity
  8
0
100
AcDbEllipse
 10
-7.425928556548813
 20
124.1147653864611
 30
0.0
 11
1.25
 21
-2.165063509461095
 31
0.0
210
0.0
220
0.0
230
1.0
 40
0.577350269189626
 41
0.0
 42
6.283185307179586
  0
ELLIPSE
  5
4227
330
41FB
100
AcDbEntity
  8
0
100
AcDbEllipse
 10
-7.425928556548813
 20
91.45490214935209
 30
0.0
 11
1.25
 21
-2.165063509461095
 31
0.0
210
0.0
220
0.0
230
1.0
 40
0.577350269189626
 41
0.0
 42
6.283185307179586
  0
ELLIPSE
  5
4228
330
41FB
100
AcDbEntity
  8
0
100
AcDbEllipse
 10
-7.425928556548813
 20
58.79503891224306
 30
0.0
 11
1.25
 21
-2.165063509461095
 31
0.0
210
0.0
220
0.0
230
1.0
 40
0.577350269189626
 41
0.0
 42
6.283185307179586
  0
ELLIPSE
  5
4229
330
41FB
100
AcDbEntity
  8
0
100
AcDbEllipse
 10
-7.425928556548817
 20
26.13517567513403
 30
0.0
 11
1.25
 21
-2.165063509461095
 31
0.0
210
0.0
220
0.0
230
1.0
 40
0.577350269189626
 41
0.0
 42
6.283185307179586
  0
ELLIPSE
  5
422A
330
41FB
100
AcDbEntity
  8
0
100
AcDbEllipse
 10
-6.365268384768993
 20
-5.912315126279206
 30
0.0
 11
1.250000000000129
 21
-2.165063509461021
 31
0.0
210
0.0
220
0.0
230
1.0
 40
0.577350269189626
 41
3.579741684173548
 42
5.845036276594998
  0
ELLIPSE
  5
422B
330
41FB
100
AcDbEntity
  8
0
100
AcDbEllipse
 10
-7.425928556548817
 20
-6.524687561974999
 30
0.0
 11
1.25
 21
-2.165063509461095
 31
0.0
210
0.0
220
0.0
230
1.0
 40
0.577350269189626
 41
0.0
 42
6.283185307179586
  0
ELLIPSE
  5
422C
330
41FB
100
AcDbEntity
  8
0
100
AcDbEllipse
 10
-22.64788027144883
 20
52.47825008526915
 30
0.0
 11
1.25
 21
-2.165063509461096
 31
0.0
210
0.0
220
0.0
230
0.9999999999999998
 40
0.577350269189626
 41
5.508682942395983
 42
5.845036276595417
  0
ELLIPSE
  5
422D
330
41FB
100
AcDbEntity
  8
0
100
AcDbEllipse
 10
76.38538093344628
 20
-4.698629930103561
 30
0.0
 11
1.25000000000013
 21
-2.165063509461021
 31
0.0
210
0.0
220
0.0
230
1.0
 40
0.5773502691896259
 41
3.579741684173544
 42
5.845036276594997
  0
ELLIPSE
  5
422E
330
41FB
100
AcDbEntity
  8
0
100
AcDbEllipse
 10
-23.70854044322865
 20
51.86587764957334
 30
0.0
 11
1.25
 21
-2.165063509461095
 31
0.0
210
0.0
220
0.0
230
0.9999999999999998
 40
0.577350269189626
 41
5.508682942395985
 42
7.057687671963189
  0
ELLIPSE
  5
422F
330
41FB
100
AcDbEntity
  8
0
100
AcDbEllipse
 10
75.32472076166647
 20
-5.311002365799355
 30
0.0
 11
1.25
 21
-2.165063509461095
 31
0.0
210
0.0
220
0.0
230
1.0
 40
0.577350269189626
 41
0.0
 42
6.283185307179586
  0
ELLIPSE
  5
4230
330
41FB
100
AcDbEntity
  8
0
100
AcDbEllipse
 10
-18.40523958432953
 20
17.36889710537693
 30
0.0
 11
1.250000000000129
 21
-2.16506350946102
 31
0.0
210
0.0
220
0.0
230
1.0
 40
0.5773502691896261
 41
3.579741684173548
 42
5.845036276594999
  0
ELLIPSE
  5
4231
330
41FB
100
AcDbEntity
  8
0
100
AcDbEllipse
 10
80.62802162056559
 20
-39.80798290999576
 30
0.0
 11
1.250000000000129
 21
-2.16506350946102
 31
0.0
210
0.0
220
0.0
230
1.0
 40
0.5773502691896261
 41
3.579741684173548
 42
5.845036276594998
  0
ELLIPSE
  5
4232
330
41FB
100
AcDbEntity
  8
0
100
AcDbEllipse
 10
-19.46589975610936
 20
16.75652466968113
 30
0.0
 11
1.25
 21
-2.165063509461095
 31
0.0
210
0.0
220
0.0
230
1.0
 40
0.577350269189626
 41
0.0
 42
6.283185307179586
  0
ELLIPSE
  5
4233
330
41FB
100
AcDbEntity
  8
0
100
AcDbEllipse
 10
79.56736144878576
 20
-40.42035534569155
 30
0.0
 11
1.25
 21
-2.165063509461095
 31
0.0
210
0.0
220
0.0
230
1.0
 40
0.577350269189626
 41
0.0
 42
6.283185307179586
  0
ELLIPSE
  5
4234
330
41FB
100
AcDbEntity
  8
0
100
AcDbEllipse
 10
59.04210887498667
 20
-51.84024780346376
 30
0.0
 11
1.250000000000129
 21
-2.165063509461021
 31
0.0
210
0.0
220
0.0
230
1.0
 40
0.577350269189626
 41
3.579741684173544
 42
3.835017178248603
  0
ELLIPSE
  5
4235
330
41FB
100
AcDbEntity
  8
0
100
AcDbEllipse
 10
-1.06196752586988
 20
-17.13914311403542
 30
0.0
 11
1.25000000000013
 21
-2.16506350946102
 31
0.0
210
0.0
220
0.0
230
1.0
 40
0.577350269189626
 41
3.579741684173548
 42
3.835017178248604
  0
SPLINE
  5
4236
330
41FB
100
AcDbEntity
  8
0
100
AcDbSpline
210
0.0
220
0.0
230
1.0
 70
     8
 71
     3
 72
     8
 73
     4
 74
     0
 42
0.000000001
 43
0.0000000001
 40
-1.0
 40
-1.0
 40
-1.0
 40
-1.0
 40
0.0
 40
0.0
 40
0.0
 40
0.0
 10
-0.3623323785890742
 20
-18.58034669758185
 30
0.0
 10
-0.3434799766948471
 20
-18.7200269351644
 30
0.0
 10
-0.4082355706754504
 20
-18.86680303544606
 30
0.0
 10
-0.5369025653320137
 20
-18.96945650182997
 30
0.0
  0
ELLIPSE
  5
4237
330
41FB
100
AcDbEntity
  8
0
100
AcDbEllipse
 10
-1.929924155743414
 20
-17.43318977035969
 30
0.0
 11
-1.249999999999999
 21
-2.165063509461096
 31
0.0
210
0.0
220
0.0
230
1.0
 40
0.816496580927726
 41
4.968762307403137
 42
7.597608306956033
  0
ELLIPSE
  5
4238
330
41FB
100
AcDbEntity
  8
0
100
AcDbEllipse
 10
58.17415224511314
 20
-52.13429445978803
 30
0.0
 11
-1.25
 21
-2.165063509461095
 31
0.0
210
0.0
220
0.0
230
1.0
 40
0.816496580927726
 41
4.968762307403141
 42
7.597608306956034
  0
SPLINE
  5
4239
330
41FB
100
AcDbEntity
  8
0
100
AcDbSpline
210
0.0
220
0.0
230
1.0
 70
     8
 71
     3
 72
     8
 73
     4
 74
     0
 42
0.000000001
 43
0.0000000001
 40
-1.0
 40
-1.0
 40
-1.0
 40
-1.0
 40
0.0
 40
0.0
 40
0.0
 40
0.0
 10
56.1471954334653
 20
-51.6960357402067
 30
0.0
 10
56.17176244581211
 20
-51.53328012101366
 30
0.0
 10
56.20230098225208
 20
-51.36674879335
 30
0.0
 10
56.22115338414622
 20
-51.24883743438441
 30
0.0
  0
ELLIPSE
  5
423A
330
41FB
100
AcDbEntity
  8
0
100
AcDbEllipse
 10
-1.179924155743425
 20
-17.8662024722519
 30
0.0
 11
-1.25
 21
-2.165063509461095
 31
0.0
210
0.0
220
0.0
230
1.0
 40
0.8164965809277262
 41
4.968762307403139
 42
6.069429174707155
  0
LINE
  5
423B
330
41FB
100
AcDbEntity
  8
0
100
AcDbLine
 10
-3.206880967391265
 20
-17.42794375267057
 30
0.0
 11
-3.707130967289868
 21
-17.13912428056701
 31
0.0
  0
LINE
  5
423C
330
41FB
100
AcDbEntity
  8
0
100
AcDbLine
 10
-3.707130967289868
 20
-17.13912428056701
 30
0.0
 11
-3.956880967391267
 21
-16.99493105077835
 31
0.0
  0
LINE
  5
423D
330
41FB
100
AcDbEntity
  8
0
100
AcDbLine
 10
-3.882923016710342
 20
-16.54773274495606
 30
0.0
 11
-3.529723179114871
 21
-16.34381272364258
 31
0.0
  0
SPLINE
  5
423E
330
41FB
100
AcDbEntity
  8
0
100
AcDbSpline
210
0.0
220
0.0
230
1.0
 70
     8
 71
     3
 72
     8
 73
     4
 74
     0
 42
0.000000001
 43
0.0000000001
 40
-1.0
 40
-1.0
 40
-1.0
 40
-1.0
 40
0.0
 40
0.0
 40
0.0
 40
0.0
 10
-3.956880967391276
 20
-16.99493105077835
 30
0.0
 10
-3.932313955044532
 20
-16.83217543158528
 30
0.0
 10
-3.901775418604636
 20
-16.66564410392157
 30
0.0
 10
-3.882923016710337
 20
-16.54773274495606
 30
0.0
  0
SPLINE
  5
423F
330
41FB
100
AcDbEntity
  8
0
100
AcDbSpline
210
0.0
220
0.0
230
1.0
 70
     8
 71
     3
 72
     8
 73
     4
 74
     0
 42
0.000000001
 43
0.0000000001
 40
0.0
 40
0.0
 40
0.0
 40
0.0
 40
1.0
 40
1.0
 40
1.0
 40
1.0
 10
-2.822262844930518
 20
-15.93536030926027
 30
0.0
 10
-2.841115246824816
 20
-16.3752611639109
 30
0.0
 10
-2.990771446290483
 20
-16.93342677650628
 30
0.0
 10
-3.206880967391274
 20
-17.42794375267057
 30
0.0
  0
LINE
  5
4240
330
41FB
100
AcDbEntity
  8
0
100
AcDbLine
 10
-3.529723179114871
 20
-16.34381272364258
 30
0.0
 11
-2.822262844930523
 21
-15.93536030926026
 31
0.0
  0
ELLIPSE
  5
4241
330
41FB
100
AcDbEntity
  8
0
100
AcDbEllipse
 10
-2.122627697649703
 20
-17.75151554973122
 30
0.0
 11
-1.25
 21
2.165063509461095
 31
0.0
210
0.0
220
0.0
230
1.0
 40
0.5773502691896261
 41
4.018964455725523
 42
6.97660983183875
  0
ELLIPSE
  5
4242
330
41FB
100
AcDbEntity
  8
0
100
AcDbEllipse
 10
58.92415224511314
 20
-52.56730716168025
 30
0.0
 11
-1.25
 21
-2.165063509461095
 31
0.0
210
0.0
220
0.0
230
1.0
 40
0.8164965809277262
 41
4.968762307403133
 42
6.069429174707154
  0
LINE
  5
4243
330
41FB
100
AcDbEntity
  8
0
100
AcDbLine
 10
56.89719543346528
 20
-52.12904844209893
 30
0.0
 11
56.39694543356591
 21
-51.84022896999491
 31
0.0
  0
LINE
  5
4244
330
41FB
100
AcDbEntity
  8
0
100
AcDbLine
 10
56.39694543356591
 20
-51.84022896999491
 30
0.0
 11
56.1471954334653
 21
-51.6960357402067
 31
0.0
  0
LINE
  5
4245
330
41FB
100
AcDbEntity
  8
0
100
AcDbLine
 10
56.22115338414622
 20
-51.24883743438441
 30
0.0
 11
56.57435322173114
 21
-51.04491741307701
 31
0.0
  0
SPLINE
  5
4246
330
41FB
100
AcDbEntity
  8
0
100
AcDbSpline
210
0.0
220
0.0
230
1.0
 70
     8
 71
     3
 72
     8
 73
     4
 74
     0
 42
0.000000001
 43
0.0000000001
 40
0.0
 40
0.0
 40
0.0
 40
0.0
 40
1.0
 40
1.0
 40
1.0
 40
1.0
 10
57.28181355592603
 20
-50.63646499868861
 30
0.0
 10
57.2629611540319
 20
-51.07636585333931
 30
0.0
 10
57.11330495456618
 20
-51.63453146593464
 30
0.0
 10
56.89719543346528
 20
-52.12904844209893
 30
0.0
  0
LINE
  5
4247
330
41FB
100
AcDbEntity
  8
0
100
AcDbLine
 10
56.57435322173114
 20
-51.04491741307701
 30
0.0
 11
57.28181355592603
 21
-50.63646499868861
 31
0.0
  0
SPLINE
  5
4248
330
41FB
100
AcDbEntity
  8
0
100
AcDbSpline
210
0.0
220
0.0
230
1.0
 70
     8
 71
     3
 72
     8
 73
     4
 74
     0
 42
0.000000001
 43
0.0000000001
 40
-1.0
 40
-1.0
 40
-1.0
 40
-1.0
 40
0.0
 40
0.0
 40
0.0
 40
0.0
 10
59.7417440222675
 20
-53.28145138701021
 30
0.0
 10
59.76059642416148
 20
-53.42113162459262
 30
0.0
 10
59.69584083018112
 20
-53.56790772487439
 30
0.0
 10
59.56717383552454
 20
-53.67056119125833
 30
0.0
  0
ELLIPSE
  5
4249
330
41FB
100
AcDbEntity
  8
0
100
AcDbEllipse
 10
57.98144870320685
 20
-52.45262023915956
 30
0.0
 11
-1.25
 21
2.165063509461095
 31
0.0
210
0.0
220
0.0
230
1.0
 40
0.577350269189626
 41
4.018964455725525
 42
6.976609831838749
  0
ELLIPSE
  5
424A
330
41FB
100
AcDbEntity
  8
0
100
AcDbEllipse
 10
41.36443934532298
 20
-41.63404054186719
 30
0.0
 11
1.250000000000129
 21
-2.165063509461021
 31
0.0
210
0.0
220
0.0
230
1.0
 40
0.577350269189626
 41
3.579741684173542
 42
3.835017178248601
  0
ELLIPSE
  5
424B
330
41FB
100
AcDbEntity
  8
0
100
AcDbEllipse
 10
13.08016809786107
 20
-25.30410892331268
 30
0.0
 11
1.25000000000013
 21
-2.165063509461021
 31
0.0
210
0.0
220
0.0
230
1.0
 40
0.577350269189626
 41
3.579741684173544
 42
3.8350171782486
  0
ELLIPSE
  5
424C
330
41FB
100
AcDbEntity
  8
0
100
AcDbEllipse
 10
12.96221146798752
 20
-26.03116828152916
 30
0.0
 11
-1.25
 21
-2.165063509461096
 31
0.0
210
0.0
220
0.0
230
0.9999999999999998
 40
0.816496580927726
 41
4.968762307403139
 42
6.283185307179587
  0
LINE
  5
424D
330
41FB
100
AcDbEntity
  8
0
100
AcDbLine
 10
10.93525465633969
 20
-25.59290956194783
 30
0.0
 11
10.43500465644114
 21
-25.3040900898443
 31
0.0
  0
LINE
  5
424E
330
41FB
100
AcDbEntity
  8
0
100
AcDbLine
 10
10.43500465644114
 20
-25.3040900898443
 30
0.0
 11
10.18525465633969
 21
-25.15989686005561
 31
0.0
  0
ELLIPSE
  5
424F
330
41FB
100
AcDbEntity
  8
0
100
AcDbEllipse
 10
12.21221146798753
 20
-25.59815557963695
 30
0.0
 11
-1.249999999999999
 21
-2.165063509461097
 31
0.0
210
0.0
220
0.0
230
0.9999999999999998
 40
0.8164965809277262
 41
4.968762307403139
 42
6.283185307179586
  0
LINE
  5
4250
330
41FB
100
AcDbEntity
  8
0
100
AcDbLine
 10
14.49774537392028
 20
-29.80446054141737
 30
0.0
 11
10.96221146798754
 21
-27.76321908909805
 31
0.0
  0
ELLIPSE
  5
4251
330
41FB
100
AcDbEntity
  8
0
100
AcDbEllipse
 10
15.74774537392027
 20
-27.63939703195627
 30
0.0
 11
-1.249999999999999
 21
-2.165063509461095
 31
0.0
210
0.0
220
0.0
230
1.0
 40
0.8164965809277264
 41
0.0
 42
1.314422999776447
  0
LINE
  5
4252
330
41FB
100
AcDbEntity
  8
0
100
AcDbLine
 10
10.25921260702061
 20
-24.71269855423332
 30
0.0
 11
10.61241244460355
 21
-24.50877853292708
 31
0.0
  0
SPLINE
  5
4253
330
41FB
100
AcDbEntity
  8
0
100
AcDbSpline
210
0.0
220
0.0
230
1.0
 70
     8
 71
     3
 72
     8
 73
     4
 74
     0
 42
0.000000001
 43
0.0000000001
 40
-1.0
 40
-1.0
 40
-1.0
 40
-1.0
 40
0.0
 40
0.0
 40
0.0
 40
0.0
 10
10.18525465633969
 20
-25.15989686005561
 30
0.0
 10
10.20982166868642
 20
-24.99714124086253
 30
0.0
 10
10.2403602051265
 20
-24.83060991319891
 30
0.0
 10
10.25921260702061
 20
-24.71269855423332
 30
0.0
  0
SPLINE
  5
4254
330
41FB
100
AcDbEntity
  8
0
100
AcDbSpline
210
0.0
220
0.0
230
1.0
 70
     8
 71
     3
 72
     8
 73
     4
 74
     0
 42
0.000000001
 43
0.0000000001
 40
0.0
 40
0.0
 40
0.0
 40
0.0
 40
1.0
 40
1.0
 40
1.0
 40
1.0
 10
11.31987277880043
 20
-24.10032611853753
 30
0.0
 10
11.30102037690632
 20
-24.54022697318816
 30
0.0
 10
11.15136417744048
 20
-25.09839258578353
 30
0.0
 10
10.93525465633969
 20
-25.59290956194783
 30
0.0
  0
LINE
  5
4255
330
41FB
100
AcDbEntity
  8
0
100
AcDbLine
 10
10.61241244460355
 20
-24.50877853292708
 30
0.0
 11
11.31987277880043
 21
-24.10032611853752
 31
0.0
  0
SPLINE
  5
4256
330
41FB
100
AcDbEntity
  8
0
100
AcDbSpline
210
0.0
220
0.0
230
1.0
 70
     8
 71
     3
 72
     8
 73
     4
 74
     0
 42
0.000000001
 43
0.0000000001
 40
-1.0
 40
-1.0
 40
-1.0
 40
-1.0
 40
0.0
 40
0.0
 40
0.0
 40
0.0
 10
17.31533715107462
 20
-28.78655395917843
 30
0.0
 10
17.3341895529686
 20
-28.92623419676083
 30
0.0
 10
17.26943395898814
 20
-29.07301029704266
 30
0.0
 10
17.14076696433168
 20
-29.17566376342654
 30
0.0
  0
ELLIPSE
  5
4257
330
41FB
100
AcDbEntity
  8
0
100
AcDbEllipse
 10
15.55504183201399
 20
-27.95772281132779
 30
0.0
 11
1.249999999999871
 21
-2.16506350946117
 31
0.0
210
0.0
220
0.0
230
1.0
 40
0.577350269189626
 41
0.877371802135948
 42
2.356194490192583
  0
LINE
  5
4258
330
41FB
100
AcDbEntity
  8
0
100
AcDbLine
 10
12.01950792608125
 20
-23.87523990668917
 30
0.0
 11
15.55504183201399
 21
-25.91648135900848
 31
0.0
  0
ELLIPSE
  5
4259
330
41FB
100
AcDbEntity
  8
0
100
AcDbEllipse
 10
12.01950792608125
 20
-25.91648135900848
 30
0.0
 11
-1.250000000000001
 21
2.165063509461095
 31
0.0
210
0.0
220
0.0
230
1.0
 40
0.5773502691896261
 41
5.497787143782137
 42
6.976609831838751
  0
ELLIPSE
  5
425A
330
41FB
100
AcDbEntity
  8
0
100
AcDbEllipse
 10
41.24648271544943
 20
-42.36109990008367
 30
0.0
 11
-1.249999999999999
 21
-2.165063509461097
 31
0.0
210
0.0
220
0.0
230
0.9999999999999998
 40
0.816496580927726
 41
4.968762307403137
 42
6.283185307179585
  0
LINE
  5
425B
330
41FB
100
AcDbEntity
  8
0
100
AcDbLine
 10
39.2195259038016
 20
-41.92284118050235
 30
0.0
 11
38.71927590390129
 21
-41.6340217083978
 31
0.0
  0
LINE
  5
425C
330
41FB
100
AcDbEntity
  8
0
100
AcDbLine
 10
38.71927590390129
 20
-41.6340217083978
 30
0.0
 11
38.4695259038016
 21
-41.48982847861012
 31
0.0
  0
ELLIPSE
  5
425D
330
41FB
100
AcDbEntity
  8
0
100
AcDbEllipse
 10
40.49648271544945
 20
-41.92808719819146
 30
0.0
 11
-1.249999999999999
 21
-2.165063509461097
 31
0.0
210
0.0
220
0.0
230
0.9999999999999998
 40
0.816496580927726
 41
4.968762307403137
 42
6.283185307179585
  0
LINE
  5
425E
330
41FB
100
AcDbEntity
  8
0
100
AcDbLine
 10
42.78201662138219
 20
-46.13439215997188
 30
0.0
 11
39.24648271544945
 21
-44.09315070765256
 31
0.0
  0
ELLIPSE
  5
425F
330
41FB
100
AcDbEntity
  8
0
100
AcDbEllipse
 10
44.03201662138219
 20
-43.96932865051078
 30
0.0
 11
-1.25
 21
-2.165063509461096
 31
0.0
210
0.0
220
0.0
230
0.9999999999999998
 40
0.8164965809277262
 41
0.0
 42
1.314422999776446
  0
LINE
  5
4260
330
41FB
100
AcDbEntity
  8
0
100
AcDbLine
 10
38.54348385448252
 20
-41.04263017278783
 30
0.0
 11
38.89668369206986
 21
-40.83871015147905
 31
0.0
  0
SPLINE
  5
4261
330
41FB
100
AcDbEntity
  8
0
100
AcDbSpline
210
0.0
220
0.0
230
1.0
 70
     8
 71
     3
 72
     8
 73
     4
 74
     0
 42
0.000000001
 43
0.0000000001
 40
-1.0
 40
-1.0
 40
-1.0
 40
-1.0
 40
0.0
 40
0.0
 40
0.0
 40
0.0
 10
38.46952590380159
 20
-41.48982847861012
 30
0.0
 10
38.49409291614849
 20
-41.32707285941719
 30
0.0
 10
38.52463145258832
 20
-41.1605415317534
 30
0.0
 10
38.54348385448251
 20
-41.04263017278783
 30
0.0
  0
SPLINE
  5
4262
330
41FB
100
AcDbEntity
  8
0
100
AcDbSpline
210
0.0
220
0.0
230
1.0
 70
     8
 71
     3
 72
     8
 73
     4
 74
     0
 42
0.000000001
 43
0.0000000001
 40
0.0
 40
0.0
 40
0.0
 40
0.0
 40
1.0
 40
1.0
 40
1.0
 40
1.0
 10
39.60414402626233
 20
-40.43025773709203
 30
0.0
 10
39.58529162436814
 20
-40.87015859174269
 30
0.0
 10
39.4356354249025
 20
-41.42832420433825
 30
0.0
 10
39.21952590380159
 20
-41.92284118050235
 30
0.0
  0
LINE
  5
4263
330
41FB
100
AcDbEntity
  8
0
100
AcDbLine
 10
38.89668369206986
 20
-40.83871015147905
 30
0.0
 11
39.60414402626234
 21
-40.43025773709203
 31
0.0
  0
SPLINE
  5
4264
330
41FB
100
AcDbEntity
  8
0
100
AcDbSpline
210
0.0
220
0.0
230
1.0
 70
     8
 71
     3
 72
     8
 73
     4
 74
     0
 42
0.000000001
 43
0.0000000001
 40
-1.0
 40
-1.0
 40
-1.0
 40
-1.0
 40
0.0
 40
0.0
 40
0.0
 40
0.0
 10
45.59960839853653
 20
-45.11648557773295
 30
0.0
 10
45.61846080043069
 20
-45.25616581531543
 30
0.0
 10
45.55370520645013
 20
-45.40294191559718
 30
0.0
 10
45.42503821179359
 20
-45.50559538198107
 30
0.0
  0
ELLIPSE
  5
4265
330
41FB
100
AcDbEntity
  8
0
100
AcDbEllipse
 10
43.8393130794759
 20
-44.28765442988231
 30
0.0
 11
1.249999999999871
 21
-2.16506350946117
 31
0.0
210
0.0
220
0.0
230
1.0
 40
0.577350269189626
 41
0.8773718021359444
 42
2.356194490192587
  0
LINE
  5
4266
330
41FB
100
AcDbEntity
  8
0
100
AcDbLine
 10
40.30377917354315
 20
-40.20517152524369
 30
0.0
 11
43.8393130794759
 21
-42.24641297756299
 31
0.0
  0
ELLIPSE
  5
4267
330
41FB
100
AcDbEntity
  8
0
100
AcDbEllipse
 10
40.30377917354315
 20
-42.24641297756299
 30
0.0
 11
-1.250000000000001
 21
2.165063509461095
 31
0.0
210
0.0
220
0.0
230
1.0
 40
0.5773502691896261
 41
5.497787143782137
 42
6.976609831838749
  0
ELLIPSE
  5
4268
330
41FB
100
AcDbEntity
  8
0
100
AcDbEllipse
 10
27.22230372159203
 20
-33.46907473422293
 30
0.0
 11
1.25000000000013
 21
-2.165063509461021
 31
0.0
210
0.0
220
0.0
230
1.0
 40
0.577350269189626
 41
3.579741684173546
 42
3.835017177445208
  0
SPLINE
  5
4269
330
41FB
100
AcDbEntity
  8
0
100
AcDbSpline
210
0.0
220
0.0
230
1.0
 70
     8
 71
     3
 72
     8
 73
     4
 74
     0
 42
0.000000001
 43
0.0000000001
 40
-1.0
 40
-1.0
 40
-1.0
 40
-1.0
 40
0.0
 40
0.0
 40
0.0
 40
0.0
 10
24.32739027969992
 20
-33.32486266911884
 30
0.0
 10
24.35195729222573
 20
-33.16210705000279
 30
0.0
 10
24.38249582882493
 20
-32.99557572243914
 30
0.0
 10
24.401348230882
 20
-32.87766436358589
 30
0.0
  0
ELLIPSE
  5
426A
330
41FB
100
AcDbEntity
  8
0
100
AcDbEllipse
 10
29.88988099665124
 20
-35.80436284296558
 30
0.0
 11
-1.249999999999999
 21
-2.165063509461097
 31
0.0
210
0.0
220
0.0
230
0.9999999999999998
 40
0.8164965809277262
 41
0.0
 42
1.314423000603476
  0
LINE
  5
426B
330
41FB
100
AcDbEntity
  8
0
100
AcDbLine
 10
28.63988099665123
 20
-37.96942635242667
 30
0.0
 11
25.1043470907185
 21
-35.92818490010736
 31
0.0
  0
ELLIPSE
  5
426C
330
41FB
100
AcDbEntity
  8
0
100
AcDbEllipse
 10
26.35434709071849
 20
-33.76312139064626
 30
0.0
 11
-1.25
 21
-2.165063509461096
 31
0.0
210
0.0
220
0.0
230
1.0
 40
0.8164965809277262
 41
4.968762306576106
 42
6.283185307179586
  0
SPLINE
  5
426D
330
41FB
100
AcDbEntity
  8
0
100
AcDbSpline
210
0.0
220
0.0
230
1.0
 70
     8
 71
     3
 72
     8
 73
     4
 74
     0
 42
0.000000001
 43
0.0000000001
 40
-1.0
 40
-1.0
 40
-1.0
 40
-1.0
 40
0.0
 40
0.0
 40
0.0
 40
0.0
 10
31.45747277467514
 20
-36.95151976838038
 30
0.0
 10
31.47632517673225
 20
-37.0912000060387
 30
0.0
 10
31.41156958293341
 20
-37.23797610641724
 30
0.0
 10
31.28290258843338
 20
-37.34062957291785
 30
0.0
  0
SPLINE
  5
426E
330
41FB
100
AcDbEntity
  8
0
100
AcDbSpline
210
0.0
220
0.0
230
1.0
 70
     8
 71
     3
 72
     8
 73
     4
 74
     0
 42
0.000000001
 43
0.0000000001
 40
0.0
 40
0.0
 40
0.0
 40
0.0
 40
1.0
 40
1.0
 40
1.0
 40
1.0
 10
25.46200840266183
 20
-32.2652919278901
 30
0.0
 10
25.44315600060476
 20
-32.70519278238274
 30
0.0
 10
25.29349980100832
 20
-33.26335839487436
 30
0.0
 10
25.07739027969992
 20
-33.75787537101106
 30
0.0
  0
ELLIPSE
  5
426F
330
41FB
100
AcDbEntity
  8
0
100
AcDbEllipse
 10
27.10434709071848
 20
-34.19613409253847
 30
0.0
 11
-1.25
 21
-2.165063509461095
 31
0.0
210
0.0
220
0.0
230
1.0
 40
0.8164965809277262
 41
4.968762306576109
 42
6.283185307179586
  0
LINE
  5
4270
330
41FB
100
AcDbEntity
  8
0
100
AcDbLine
 10
25.07739027969992
 20
-33.75787537101106
 30
0.0
 11
24.57714027980225
 21
-33.46905589890803
 31
0.0
  0
LINE
  5
4271
330
41FB
100
AcDbEntity
  8
0
100
AcDbLine
 10
24.57714027980225
 20
-33.46905589890803
 30
0.0
 11
24.32739027969992
 21
-33.32486266911884
 31
0.0
  0
LINE
  5
4272
330
41FB
100
AcDbEntity
  8
0
100
AcDbLine
 10
24.40134823088201
 20
-32.87766436358589
 30
0.0
 11
24.7545480684669
 21
-32.67374434227851
 31
0.0
  0
LINE
  5
4273
330
41FB
100
AcDbEntity
  8
0
100
AcDbLine
 10
24.7545480684669
 20
-32.67374434227851
 30
0.0
 11
25.46200840266183
 21
-32.26529192789009
 31
0.0
  0
ELLIPSE
  5
4274
330
41FB
100
AcDbEntity
  8
0
100
AcDbEllipse
 10
29.69717745574495
 20
-36.12268862223805
 30
0.0
 11
1.249999999999871
 21
-2.16506350946117
 31
0.0
210
0.0
220
0.0
230
1.0
 40
0.577350269189626
 41
0.8773718029393453
 42
2.356194490192594
  0
LINE
  5
4275
330
41FB
100
AcDbEntity
  8
0
100
AcDbLine
 10
26.16164354981221
 20
-32.04020571759941
 30
0.0
 11
29.69717745574494
 21
-34.08144716991873
 31
0.0
  0
ELLIPSE
  5
4276
330
41FB
100
AcDbEntity
  8
0
100
AcDbEllipse
 10
26.16164354981221
 20
-34.08144716991873
 30
0.0
 11
-1.250000000000001
 21
2.165063509461095
 31
0.0
210
0.0
220
0.0
230
1.0
 40
0.5773502691896261
 41
5.497787143782135
 42
6.976609831035355
  0
LINE
  5
4277
330
41FB
100
AcDbEntity
  8
0
100
AcDbLine
 10
70.99221347703934
 20
88.96458757752254
 30
0.0
 11
-13.01207212792253
 21
137.4644844846294
 31
0.0
  0
LINE
  5
4278
330
41FB
100
AcDbEntity
  8
0
100
AcDbLine
 10
41.71799273591644
 20
-7.545308288134728
 30
0.0
 11
41.71799273591644
 21
66.26598262773168
 31
0.0
  0
LINE
  5
4279
330
41FB
100
AcDbEntity
  8
0
100
AcDbLine
 10
40.65733256413661
 20
66.87835506342747
 30
0.0
 11
40.65733256413661
 21
-6.93293585243893
 31
0.0
  0
LINE
  5
427A
330
41FB
100
AcDbEntity
  8
0
100
AcDbLine
 10
70.99221347703934
 20
5.273688032430667
 30
0.0
 11
45.25352664184915
 21
-9.586549740454026
 31
0.0
  0
LINE
  5
427B
330
41FB
100
AcDbEntity
  8
0
100
AcDbLine
 10
45.25352664184916
 20
72.38970698468962
 30
0.0
 11
70.99221347703937
 21
87.24994475757432
 31
0.0
  0
LINE
  5
427C
330
41FB
100
AcDbEntity
  8
0
100
AcDbLine
 10
-45.2561413500291
 20
116.4805223547869
 30
0.0
 11
-45.25614135002911
 21
42.66923143892049
 31
0.0
  0
LINE
  5
427D
330
41FB
100
AcDbEntity
  8
0
100
AcDbLine
 10
-15.98192060890602
 20
137.4644844846294
 30
0.0
 11
-41.72060744409636
 21
122.6042467117448
 31
0.0
  0
LINE
  5
427E
330
41FB
100
AcDbEntity
  8
0
100
AcDbLine
 10
-44.19548117824927
 20
115.8681499190911
 30
0.0
 11
-44.19548117824927
 21
42.0568590032247
 31
0.0
  0
LINE
  5
427F
330
41FB
100
AcDbEntity
  8
0
100
AcDbLine
 10
70.99221347703937
 20
87.24994475757432
 30
0.0
 11
69.93155330525953
 21
87.86231719327011
 31
0.0
  0
LINE
  5
4280
330
41FB
100
AcDbEntity
  8
0
100
AcDbLine
 10
69.93155330525953
 20
87.86231719327011
 30
0.0
 11
44.19286647006932
 21
73.00207942038539
 31
0.0
  0
LINE
  5
4281
330
41FB
100
AcDbEntity
  8
0
100
AcDbLine
 10
-14.07273229970237
 20
54.87585532379
 30
0.0
 11
-12.02212263426137
 21
53.6919352814448
 31
0.0
  0
LINE
  5
4282
330
41FB
100
AcDbEntity
  8
0
100
AcDbLine
 10
70.99221347703934
 20
88.96458757752254
 30
0.0
 11
69.93155330525953
 21
88.35221514182675
 31
0.0
  0
LINE
  5
4283
330
41FB
100
AcDbEntity
  8
0
100
AcDbLine
 10
-13.01207212792253
 20
137.4644844846294
 30
0.0
 11
-14.07273229970236
 21
136.8521120489336
 31
0.0
  0
LINE
  5
4284
330
41FB
100
AcDbEntity
  8
0
100
AcDbLine
 10
-15.98192060890602
 20
137.4644844846294
 30
0.0
 11
-14.9212604371262
 21
136.8521120489336
 31
0.0
  0
LINE
  5
4285
330
41FB
100
AcDbEntity
  8
0
100
AcDbLine
 10
-14.07273229970236
 20
136.8521120489336
 30
0.0
 11
69.93155330525953
 21
88.35221514182675
 31
0.0
  0
LINE
  5
4286
330
41FB
100
AcDbEntity
  8
0
100
AcDbLine
 10
-40.65994727231654
 20
40.01561755090539
 30
0.0
 11
-14.92126043712621
 21
54.87585532379
 31
0.0
  0
LINE
  5
4287
330
41FB
100
AcDbEntity
  8
0
100
AcDbLine
 10
-40.65994727231653
 20
121.991874276049
 30
0.0
 11
-14.9212604371262
 21
136.8521120489336
 31
0.0
  0
LINE
  5
4288
330
41FB
100
AcDbEntity
  8
0
100
AcDbLine
 10
45.25352664184915
 20
-9.586549740454026
 30
0.0
 11
41.71799273591644
 21
-7.545308288134728
 31
0.0
  0
LINE
  5
4289
330
41FB
100
AcDbEntity
  8
0
100
AcDbLine
 10
41.71799273591644
 20
-7.545308288134728
 30
0.0
 11
40.65733256413661
 21
-6.93293585243893
 31
0.0
  0
LINE
  5
428A
330
41FB
100
AcDbEntity
  8
0
100
AcDbLine
 10
40.65733256413661
 20
66.87835506342747
 30
0.0
 11
41.71799273591644
 21
66.26598262773168
 31
0.0
  0
LINE
  5
428B
330
41FB
100
AcDbEntity
  8
0
100
AcDbLine
 10
41.71799273591644
 20
66.26598262773168
 30
0.0
 11
45.25352664184916
 21
72.38970698468962
 31
0.0
  0
LINE
  5
428C
330
41FB
100
AcDbEntity
  8
0
100
AcDbLine
 10
-40.65994727231654
 20
40.01561755090539
 30
0.0
 11
-44.19548117824927
 21
42.0568590032247
 31
0.0
  0
LINE
  5
428D
330
41FB
100
AcDbEntity
  8
0
100
AcDbLine
 10
-44.19548117824927
 20
42.0568590032247
 30
0.0
 11
-45.25614135002911
 21
42.66923143892049
 31
0.0
  0
LINE
  5
428E
330
41FB
100
AcDbEntity
  8
0
100
AcDbLine
 10
-41.72060744409636
 20
122.6042467117448
 30
0.0
 11
-45.2561413500291
 21
116.4805223547869
 31
0.0
  0
LINE
  5
428F
330
41FB
100
AcDbEntity
  8
0
100
AcDbLine
 10
-45.2561413500291
 20
116.4805223547869
 30
0.0
 11
-44.19548117824927
 21
115.8681499190911
 31
0.0
  0
LINE
  5
4290
330
41FB
100
AcDbEntity
  8
0
100
AcDbLine
 10
45.25352664184916
 20
72.38970698468962
 30
0.0
 11
44.19286647006932
 21
73.00207942038539
 31
0.0
  0
LINE
  5
4291
330
41FB
100
AcDbEntity
  8
0
100
AcDbLine
 10
44.19286647006932
 20
73.00207942038539
 30
0.0
 11
40.65733256413661
 21
66.87835506342747
 31
0.0
  0
LINE
  5
4292
330
41FB
100
AcDbEntity
  8
0
100
AcDbLine
 10
-44.19548117824927
 20
115.8681499190911
 30
0.0
 11
-40.65994727231653
 21
121.991874276049
 31
0.0
  0
LINE
  5
4293
330
41FB
100
AcDbEntity
  8
0
100
AcDbLine
 10
-40.65994727231653
 20
121.991874276049
 30
0.0
 11
-41.72060744409636
 21
122.6042467117448
 31
0.0
  0
LINE
  5
4294
330
41FB
100
AcDbEntity
  8
0
100
AcDbLine
 10
14.49221347719477
 20
-116.0965819345156
 30
0.0
 11
14.49221347719479
 21
-110.3230792426193
 31
0.0
  0
LINE
  5
4295
330
41FB
100
AcDbEntity
  8
0
100
AcDbLine
 10
14.49221347719479
 20
-110.3230792426193
 30
0.0
 11
13.43155330541499
 21
-109.7107068069235
 31
0.0
  0
LINE
  5
4296
330
41FB
100
AcDbEntity
  8
0
100
AcDbLine
 10
13.43155330541499
 20
-109.7107068069235
 30
0.0
 11
13.43155330541497
 21
-115.4842094988198
 31
0.0
  0
LINE
  5
4297
330
41FB
100
AcDbEntity
  8
0
100
AcDbLine
 10
13.43155330541497
 20
-115.4842094988198
 30
0.0
 11
14.49221347719477
 21
-116.0965819345156
 31
0.0
  0
LINE
  5
4298
330
41FB
100
AcDbEntity
  8
0
100
AcDbLine
 10
-72.48192060875054
 20
-60.10853951556426
 30
0.0
 11
-72.4819206087505
 21
-65.8820422074605
 31
0.0
  0
LINE
  5
4299
330
41FB
100
AcDbEntity
  8
0
100
AcDbLine
 10
-72.4819206087505
 20
-65.8820422074605
 30
0.0
 11
-71.4212604369707
 21
-66.49441464315628
 31
0.0
  0
LINE
  5
429A
330
41FB
100
AcDbEntity
  8
0
100
AcDbLine
 10
-71.4212604369707
 20
-66.49441464315628
 30
0.0
 11
-71.4212604369707
 21
-60.72091195126006
 31
0.0
  0
LINE
  5
429B
330
41FB
100
AcDbEntity
  8
0
100
AcDbLine
 10
-71.4212604369707
 20
-60.72091195126006
 30
0.0
 11
-72.48192060875054
 21
-60.10853951556426
 31
0.0
  0
ELLIPSE
  5
429C
330
41FB
100
AcDbEntity
  8
0
100
AcDbEllipse
 10
47.37484698540841
 20
67.16412886675236
 30
0.0
 11
1.250000000000129
 21
2.165063509461021
 31
0.0
210
0.0
220
0.0
230
1.0
 40
0.5773502691896258
 41
0.0
 42
6.283185307179586
  0
ELLIPSE
  5
429D
330
41FB
100
AcDbEntity
  8
0
100
AcDbEllipse
 10
47.37484698540841
 20
50.83419724819785
 30
0.0
 11
1.250000000000129
 21
2.165063509461021
 31
0.0
210
0.0
220
0.0
230
1.0
 40
0.5773502691896258
 41
0.0
 42
6.283185307179586
  0
ELLIPSE
  5
429E
330
41FB
100
AcDbEntity
  8
0
100
AcDbEllipse
 10
47.37484698540841
 20
34.50426562964333
 30
0.0
 11
1.250000000000129
 21
2.165063509461021
 31
0.0
210
0.0
220
0.0
230
1.0
 40
0.5773502691896258
 41
0.0
 42
6.283185307179586
  0
ELLIPSE
  5
429F
330
41FB
100
AcDbEntity
  8
0
100
AcDbEllipse
 10
47.37484698540841
 20
18.17433401108882
 30
0.0
 11
1.250000000000129
 21
2.165063509461021
 31
0.0
210
0.0
220
0.0
230
1.0
 40
0.5773502691896258
 41
0.0
 42
6.283185307179586
  0
ELLIPSE
  5
42A0
330
41FB
100
AcDbEntity
  8
0
100
AcDbEllipse
 10
46.31418681362858
 20
67.77650130244815
 30
0.0
 11
1.249999999999864
 21
2.165063509461173
 31
0.0
210
0.0
220
0.0
230
0.9999999999999998
 40
0.577350269189622
 41
3.579741684173537
 42
5.84503627659499
  0
ELLIPSE
  5
42A1
330
41FB
100
AcDbEntity
  8
0
100
AcDbEllipse
 10
46.31418681362858
 20
51.44656968389364
 30
0.0
 11
1.249999999999865
 21
2.165063509461173
 31
0.0
210
0.0
220
0.0
230
1.0
 40
0.577350269189622
 41
3.579741684173548
 42
5.845036276594988
  0
ELLIPSE
  5
42A2
330
41FB
100
AcDbEntity
  8
0
100
AcDbEllipse
 10
46.31418681362858
 20
35.11663806533912
 30
0.0
 11
1.249999999999865
 21
2.165063509461173
 31
0.0
210
0.0
220
0.0
230
1.0
 40
0.577350269189622
 41
3.579741684173548
 42
5.845036276594983
  0
ELLIPSE
  5
42A3
330
41FB
100
AcDbEntity
  8
0
100
AcDbEllipse
 10
46.31418681362858
 20
18.78670644678461
 30
0.0
 11
1.249999999999865
 21
2.165063509461173
 31
0.0
210
0.0
220
0.0
230
1.0
 40
0.577350269189622
 41
3.57974168417355
 42
5.845036276594983
  0
ELLIPSE
  5
42A4
330
41FB
100
AcDbEntity
  8
0
100
AcDbEllipse
 10
47.37484698540841
 20
1.844402392534307
 30
0.0
 11
1.250000000000129
 21
2.165063509461021
 31
0.0
210
0.0
220
0.0
230
1.0
 40
0.5773502691896258
 41
0.0
 42
6.283185307179586
  0
ELLIPSE
  5
42A5
330
41FB
100
AcDbEntity
  8
0
100
AcDbEllipse
 10
46.31418681362858
 20
2.456774828230101
 30
0.0
 11
1.249999999999865
 21
2.165063509461173
 31
0.0
210
0.0
220
0.0
230
1.0
 40
0.577350269189622
 41
3.579741684173548
 42
5.845036276594988
  0
LINE
  5
42A6
330
41FB
100
AcDbEntity
  8
0
100
AcDbLine
 10
70.99221347703934
 20
5.273688032430667
 30
0.0
 11
70.99221347703937
 21
87.24994475757434
 31
0.0
  0
ELLIPSE
  5
42A7
330
41FB
100
AcDbEntity
  8
0
100
AcDbEllipse
 10
69.50728923654759
 20
88.10726616754841
 30
0.0
 11
0.6000000000000051
 21
0.0
 31
0.0
210
0.0
220
0.0
230
1.0
 40
0.5773502691896255
 41
5.497787143782133
 42
7.068583470577037
  0
LINE
  5
42A8
330
41FB
100
AcDbEntity
  8
0
100
AcDbLine
 10
69.93155330525953
 20
88.35221514182675
 30
0.0
 11
69.93155330525953
 21
87.86231719327009
 31
0.0
  0
ELLIPSE
  5
42A9
330
41FB
100
AcDbEntity
  8
0
100
AcDbEllipse
 10
69.50728923654759
 20
88.10726616754841
 30
0.0
 11
2.100000000000008
 21
-0.0000000000000003
 31
0.0
210
0.0
220
0.0
230
1.0
 40
0.5773502691896255
 41
5.497787143782142
 42
7.06858347057703
  0
ELLIPSE
  5
42AA
330
41FB
100
AcDbEntity
  8
0
100
AcDbEllipse
 10
69.50728923654757
 20
6.131009442404771
 30
0.0
 11
2.100000000000008
 21
0.0000000000000014
 31
0.0
210
0.0
220
0.0
230
1.0
 40
0.5773502691896258
 41
5.497787143782137
 42
6.28318530717958
  0
LINE
  5
42AB
330
41FB
100
AcDbEntity
  8
0
100
AcDbLine
 10
-14.07273229970236
 20
136.8521120489336
 30
0.0
 11
-14.07273229970237
 21
54.87585532379
 31
0.0
  0
ELLIPSE
  5
42AC
330
41FB
100
AcDbEntity
  8
0
100
AcDbEllipse
 10
-14.49699636841429
 20
136.6071630746553
 30
0.0
 11
0.5999999999999961
 21
-0.0000000000000359
 31
0.0
210
0.0
220
0.0
230
1.0
 40
0.5773502691896258
 41
0.785398163397697
 42
2.356194490192603
  0
LINE
  5
42AD
330
41FB
100
AcDbEntity
  8
0
100
AcDbLine
 10
-14.9212604371262
 20
136.8521120489336
 30
0.0
 11
-14.92126043712621
 21
54.87585532379
 31
0.0
  0
ELLIPSE
  5
42AE
330
41FB
100
AcDbEntity
  8
0
100
AcDbEllipse
 10
-14.4969963684143
 20
54.6309063495117
 30
0.0
 11
0.5999999999999961
 21
-0.0000000000000359
 31
0.0
210
0.0
220
0.0
230
1.0
 40
0.5773502691896258
 41
0.785398163397689
 42
2.356194490192596
  0
ELLIPSE
  5
42AF
330
41FB
100
AcDbEntity
  8
0
100
AcDbEllipse
 10
-14.49699636841429
 20
136.6071630746553
 30
0.0
 11
-2.099999999999999
 21
-0.0000000000001255
 31
0.0
210
0.0
220
0.0
230
1.0
 40
0.5773502691896257
 41
3.926990816987002
 42
5.497787143781899
  0
LINE
  5
42B0
330
41FB
100
AcDbEntity
  8
0
100
AcDbLine
 10
71.60728923654758
 20
88.10726616754841
 30
0.0
 11
71.60728923654758
 21
6.131009442404788
 31
0.0
  0
ELLIPSE
  5
42B1
330
41FB
100
AcDbEntity
  8
0
100
AcDbEllipse
 10
-39.59928710053672
 20
113.2961856891687
 30
0.0
 11
1.249999999999871
 21
2.16506350946117
 31
0.0
210
0.0
220
0.0
230
1.0
 40
0.5773502691896258
 41
3.579741684173537
 42
5.845036276594988
  0
ELLIPSE
  5
42B2
330
41FB
100
AcDbEntity
  8
0
100
AcDbEllipse
 10
-39.59928710053673
 20
96.96625407061421
 30
0.0
 11
1.249999999999871
 21
2.16506350946117
 31
0.0
210
0.0
220
0.0
230
1.0
 40
0.5773502691896258
 41
3.579741684173551
 42
5.845036276594988
  0
ELLIPSE
  5
42B3
330
41FB
100
AcDbEntity
  8
0
100
AcDbEllipse
 10
-39.59928710053673
 20
80.63632245205972
 30
0.0
 11
1.249999999999871
 21
2.16506350946117
 31
0.0
210
0.0
220
0.0
230
1.0
 40
0.5773502691896258
 41
3.579741684173551
 42
5.845036276594988
  0
ELLIPSE
  5
42B4
330
41FB
100
AcDbEntity
  8
0
100
AcDbEllipse
 10
-39.59928710053673
 20
64.3063908335052
 30
0.0
 11
1.249999999999871
 21
2.16506350946117
 31
0.0
210
0.0
220
0.0
230
1.0
 40
0.5773502691896258
 41
3.579741684173551
 42
5.845036276594996
  0
ELLIPSE
  5
42B5
330
41FB
100
AcDbEntity
  8
0
100
AcDbEllipse
 10
-38.53862692875689
 20
112.6838132534729
 30
0.0
 11
1.250000000000129
 21
2.165063509461021
 31
0.0
210
0.0
220
0.0
230
1.0
 40
0.5773502691896258
 41
0.0
 42
6.283185307179586
  0
ELLIPSE
  5
42B6
330
41FB
100
AcDbEntity
  8
0
100
AcDbEllipse
 10
-38.5386269287569
 20
96.35388163491843
 30
0.0
 11
1.250000000000129
 21
2.165063509461021
 31
0.0
210
0.0
220
0.0
230
1.0
 40
0.5773502691896258
 41
0.0
 42
6.283185307179586
  0
ELLIPSE
  5
42B7
330
41FB
100
AcDbEntity
  8
0
100
AcDbEllipse
 10
-38.5386269287569
 20
80.02395001636392
 30
0.0
 11
1.250000000000129
 21
2.165063509461021
 31
0.0
210
0.0
220
0.0
230
1.0
 40
0.5773502691896258
 41
0.0
 42
6.283185307179586
  0
ELLIPSE
  5
42B8
330
41FB
100
AcDbEntity
  8
0
100
AcDbEllipse
 10
-38.5386269287569
 20
63.6940183978094
 30
0.0
 11
1.250000000000129
 21
2.165063509461021
 31
0.0
210
0.0
220
0.0
230
1.0
 40
0.5773502691896258
 41
0.0
 42
6.283185307179586
  0
ELLIPSE
  5
42B9
330
41FB
100
AcDbEntity
  8
0
100
AcDbEllipse
 10
-39.59928710053673
 20
47.97645921495067
 30
0.0
 11
1.249999999999871
 21
2.16506350946117
 31
0.0
210
0.0
220
0.0
230
1.0
 40
0.5773502691896258
 41
3.579741684173551
 42
5.845036276594996
  0
ELLIPSE
  5
42BA
330
41FB
100
AcDbEntity
  8
0
100
AcDbEllipse
 10
-38.5386269287569
 20
47.36408677925489
 30
0.0
 11
1.250000000000129
 21
2.165063509461021
 31
0.0
210
0.0
220
0.0
230
1.0
 40
0.5773502691896258
 41
0.0
 42
6.283185307179586
  0
LINE
  5
42BB
330
41FB
100
AcDbEntity
  8
0
100
AcDbLine
 10
27.99221347660552
 20
-86.94039334213591
 30
0.0
 11
14.49221347719479
 21
-110.3230792426193
 31
0.0
  0
LINE
  5
42BC
330
41FB
100
AcDbEntity
  8
0
100
AcDbLine
 10
26.93155330482544
 20
-86.32802090643998
 30
0.0
 11
13.43155330541499
 21
-109.7107068069235
 31
0.0
  0
LINE
  5
42BD
330
41FB
100
AcDbEntity
  8
0
100
AcDbLine
 10
32.69221347703932
 20
-126.604356833677
 30
0.0
 11
69.39221347625147
 21
-63.03809219726397
 31
0.0
  0
LINE
  5
42BE
330
41FB
100
AcDbEntity
  8
0
100
AcDbLine
 10
68.08302516704445
 20
-62.56920754861667
 30
0.0
 11
69.07083451643771
 21
-60.85827156727602
 31
0.0
  0
LINE
  5
42BF
330
41FB
100
AcDbEntity
  8
0
100
AcDbLine
 10
33.02594258449492
 20
-126.7970354237029
 30
0.0
 11
32.69221347703934
 21
-126.604356833677
 31
0.0
  0
LINE
  5
42C0
330
41FB
100
AcDbEntity
  8
0
100
AcDbLine
 10
70.06430255355735
 20
-62.64471412826154
 30
0.0
 11
33.02594258449492
 21
-126.7970354237029
 31
0.0
  0
LINE
  5
42C1
330
41FB
100
AcDbEntity
  8
0
100
AcDbLine
 10
27.99221347660552
 20
-86.94039334213591
 30
0.0
 11
26.93155330482544
 21
-86.32802090643998
 31
0.0
  0
LINE
  5
42C2
330
41FB
100
AcDbEntity
  8
0
100
AcDbLine
 10
69.39221347625147
 20
-63.03809219726397
 30
0.0
 11
27.99221347660552
 21
-86.94039334213591
 31
0.0
  0
LINE
  5
42C3
330
41FB
100
AcDbEntity
  8
0
100
AcDbLine
 10
-58.98192060934238
 20
-36.7258536150793
 30
0.0
 11
-17.58192060969394
 21
-12.82355247020879
 31
0.0
  0
ELLIPSE
  5
42C4
330
41FB
100
AcDbEntity
  8
0
100
AcDbEllipse
 10
-11.82941909235508
 20
-11.71771370386561
 30
0.0
 11
-0.7500000000000009
 21
-1.299038105676658
 31
0.0
210
0.0
220
0.0
230
1.0
 40
0.8164965809277262
 41
0.0
 42
1.134458255166983
  0
LINE
  5
42C5
330
41FB
100
AcDbEntity
  8
0
100
AcDbLine
 10
-12.57941909235507
 20
-13.01675180954225
 30
0.0
 11
-14.20092478256469
 21
-12.08057506280719
 31
0.0
  0
LINE
  5
42C6
330
41FB
100
AcDbEntity
  8
0
100
AcDbLine
 10
-14.20092478256469
 20
-12.08057506280719
 30
0.0
 11
-14.93345108852417
 21
-12.35837466016909
 31
0.0
  0
LINE
  5
42C7
330
41FB
100
AcDbEntity
  8
0
100
AcDbLine
 10
69.07083451643771
 20
-60.85827156727602
 30
0.0
 11
68.94515287193446
 21
-60.08498537869378
 31
0.0
  0
LINE
  5
42C8
330
41FB
100
AcDbEntity
  8
0
100
AcDbLine
 10
68.94515287193446
 20
-60.08498537869378
 30
0.0
 11
67.32364718172482
 21
-59.14880863195876
 31
0.0
  0
ELLIPSE
  5
42C9
330
41FB
100
AcDbEntity
  8
0
100
AcDbEllipse
 10
68.07364718172481
 20
-57.84977052628213
 30
0.0
 11
-0.7499999999999999
 21
-1.299038105676658
 31
0.0
210
0.0
220
0.0
230
1.0
 40
0.816496580927726
 41
5.148727052012596
 42
6.283185307179585
  0
SPLINE
  5
42CA
330
41FB
100
AcDbEntity
  8
0
100
AcDbSpline
210
0.0
220
0.0
230
1.0
 70
     8
 71
     3
 72
     8
 73
     4
 74
     0
 42
0.000000001
 43
0.0000000001
 40
-1.0
 40
-1.0
 40
-1.0
 40
-1.0
 40
0.0
 40
0.0
 40
0.0
 40
0.0
 10
-10.97396252707032
 20
-12.45371917481546
 30
0.0
 10
-10.94203111208912
 20
-12.60205063115719
 30
0.0
 10
-11.02399312469874
 20
-12.74625773062739
 30
0.0
 10
-11.18510471123627
 20
-12.82171412650659
 30
0.0
  0
SPLINE
  5
42CB
330
41FB
100
AcDbEntity
  8
0
100
AcDbSpline
210
0.0
220
0.0
230
1.0
 70
     8
 71
     3
 72
     8
 73
     4
 74
     0
 42
0.000000001
 43
0.0000000001
 40
-1.0
 40
-1.0
 40
-1.0
 40
-1.0
 40
0.0
 40
0.0
 40
0.0
 40
0.0
 10
66.79539757936952
 20
-57.84377811553007
 30
0.0
 10
66.78018894181197
 20
-57.66652319080598
 30
0.0
 10
66.80085211764763
 20
-57.48692519142334
 30
0.0
 10
66.83278353262744
 20
-57.37546495715079
 30
0.0
  0
SPLINE
  5
42CC
330
41FB
100
AcDbEntity
  8
0
100
AcDbSpline
210
0.0
220
0.0
230
1.0
 70
     8
 71
     3
 72
     8
 73
     4
 74
     0
 42
0.000000001
 43
0.0000000001
 40
0.1302463606542703
 40
0.1302463606542703
 40
0.1302463606542703
 40
0.1302463606542703
 40
1.0
 40
1.0
 40
1.0
 40
1.0
 10
67.87523004748918
 20
-56.94054390044882
 30
0.0
 10
67.82240411170104
 20
-57.34996512788573
 30
0.0
 10
67.69079433758566
 20
-57.84787696305222
 30
0.0
 10
67.54539757936952
 20
-58.27679081742228
 30
0.0
  0
LINE
  5
42CD
330
41FB
100
AcDbEntity
  8
0
100
AcDbLine
 10
-57.92126043756235
 20
-37.33822605077522
 30
0.0
 11
-58.98192060934238
 21
-36.7258536150793
 31
0.0
  0
LINE
  5
42CE
330
41FB
100
AcDbEntity
  8
0
100
AcDbLine
 10
-16.52126043791415
 20
-13.43592490590458
 30
0.0
 11
-57.92126043756235
 21
-37.33822605077524
 31
0.0
  0
LINE
  5
42CF
330
41FB
100
AcDbEntity
  8
0
100
AcDbLine
 10
-16.52126043791415
 20
-13.43592490590458
 30
0.0
 11
-16.87446027511771
 21
-13.2320048848174
 31
0.0
  0
LINE
  5
42D0
330
41FB
100
AcDbEntity
  8
0
100
AcDbLine
 10
-16.87446027511771
 20
-13.2320048848174
 30
0.0
 11
-17.58192060969394
 21
-12.82355247020879
 31
0.0
  0
SPLINE
  5
42D1
330
41FB
100
AcDbEntity
  8
0
100
AcDbSpline
210
0.0
220
0.0
230
1.0
 70
     8
 71
     3
 72
     8
 73
     4
 74
     0
 42
0.000000001
 43
0.0000000001
 40
-1.0
 40
-1.0
 40
-1.0
 40
-1.0
 40
0.0
 40
0.0
 40
0.0
 40
0.0
 10
-14.93345108852418
 20
-12.3583746601691
 30
0.0
 10
-15.44344366232467
 20
-12.72868777740962
 30
0.0
 10
-16.07633237834165
 20
-13.02804677385884
 30
0.0
 10
-16.52126043791417
 20
-13.43592490590461
 30
0.0
  0
SPLINE
  5
42D2
330
41FB
100
AcDbEntity
  8
0
100
AcDbSpline
210
0.0
220
0.0
230
1.0
 70
     8
 71
     3
 72
     8
 73
     4
 74
     0
 42
0.000000001
 43
0.0000000001
 40
0.0
 40
0.0
 40
0.0
 40
0.0
 40
0.6081734479693816
 40
0.6081734479693816
 40
0.6081734479693816
 40
0.6081734479693816
 10
-17.58192060969396
 20
-12.82355247020882
 30
0.0
 10
-17.07249802307427
 20
-12.71337989695013
 30
0.0
 10
-16.31974865676559
 20
-12.74369210544639
 30
0.0
 10
-15.56841579356296
 20
-12.77318649549319
 30
0.0
  0
ELLIPSE
  5
42D3
330
41FB
100
AcDbEntity
  8
0
100
AcDbEllipse
 10
-12.02212263426137
 20
-12.03603948323713
 30
0.0
 11
0.7499999999999233
 21
-1.299038105676702
 31
0.0
210
0.0
220
0.0
230
1.0
 40
0.5773502691896259
 41
0.9390757175653323
 42
2.356194490192585
  0
LINE
  5
42D4
330
41FB
100
AcDbEntity
  8
0
100
AcDbLine
 10
69.39221347625147
 20
-63.03809219726397
 30
0.0
 11
68.68475314167432
 21
-62.62963978265488
 31
0.0
  0
LINE
  5
42D5
330
41FB
100
AcDbEntity
  8
0
100
AcDbLine
 10
68.68475314167432
 20
-62.62963978265488
 30
0.0
 11
68.33155330447161
 21
-62.42571976156816
 31
0.0
  0
LINE
  5
42D6
330
41FB
100
AcDbEntity
  8
0
100
AcDbLine
 10
26.93155330482544
 20
-86.32802090643998
 30
0.0
 11
68.33155330447161
 21
-62.42571976156816
 31
0.0
  0
LINE
  5
42D7
330
41FB
100
AcDbEntity
  8
0
100
AcDbLine
 10
69.07083451643771
 20
-60.85827156727602
 30
0.0
 11
69.32058451643763
 21
-61.00246479700608
 31
0.0
  0
SPLINE
  5
42D8
330
41FB
100
AcDbEntity
  8
0
100
AcDbSpline
210
0.0
220
0.0
230
1.0
 70
     8
 71
     3
 72
     8
 73
     4
 74
     0
 42
0.000000001
 43
0.0000000001
 40
-1.0
 40
-1.0
 40
-1.0
 40
-1.0
 40
0.0
 40
0.0
 40
0.0
 40
0.0
 10
68.33155330447161
 20
-62.42571976156816
 30
0.0
 10
68.77648136404378
 20
-62.01784162952296
 30
0.0
 10
69.005130236453
 20
-61.48509465054903
 30
0.0
 10
69.07083451643771
 20
-60.85827156727599
 30
0.0
  0
SPLINE
  5
42D9
330
41FB
100
AcDbEntity
  8
0
100
AcDbSpline
210
0.0
220
0.0
230
1.0
 70
     8
 71
     3
 72
     8
 73
     4
 74
     0
 42
0.000000001
 43
0.0000000001
 40
0.0
 40
0.0
 40
0.0
 40
0.0
 40
1.0
 40
1.0
 40
1.0
 40
1.0
 10
69.82083451643773
 20
-61.29128426916821
 30
0.0
 10
70.31049060372281
 20
-62.23874480998173
 30
0.0
 10
70.22984061752231
 20
-62.85693898574802
 30
0.0
 10
69.39221347625147
 20
-63.03809219726396
 30
0.0
  0
LINE
  5
42DA
330
41FB
100
AcDbEntity
  8
0
100
AcDbLine
 10
69.32058451643763
 20
-61.00246479700608
 30
0.0
 11
69.82083451643771
 21
-61.29128426916823
 31
0.0
  0
ELLIPSE
  5
42DB
330
41FB
100
AcDbEntity
  8
0
100
AcDbEllipse
 10
68.82364718172479
 20
-58.28278322817434
 30
0.0
 11
-0.7500000000000006
 21
-1.299038105676657
 31
0.0
210
0.0
220
0.0
230
0.9999999999999998
 40
0.8164965809277262
 41
5.148727052012597
 42
6.283185307179586
  0
LINE
  5
42DC
330
41FB
100
AcDbEntity
  8
0
100
AcDbLine
 10
67.5453975793695
 20
-58.27679081742227
 30
0.0
 11
67.04514758026461
 21
-57.98797134577696
 31
0.0
  0
LINE
  5
42DD
330
41FB
100
AcDbEntity
  8
0
100
AcDbLine
 10
67.04514758026461
 20
-57.98797134577696
 30
0.0
 11
66.7953975793695
 21
-57.84377811553006
 31
0.0
  0
LINE
  5
42DE
330
41FB
100
AcDbEntity
  8
0
100
AcDbLine
 10
68.94515287193446
 20
-60.08498537869378
 30
0.0
 11
69.69515287193447
 21
-60.517998080586
 31
0.0
  0
LINE
  5
42DF
330
41FB
100
AcDbEntity
  8
0
100
AcDbLine
 10
69.69515287193447
 20
-60.517998080586
 30
0.0
 11
69.82083451643771
 21
-61.29128426916823
 31
0.0
  0
LINE
  5
42E0
330
41FB
100
AcDbEntity
  8
0
100
AcDbLine
 10
66.83278353262744
 20
-57.37546495715079
 30
0.0
 11
67.18598337302527
 21
-57.17154493421936
 31
0.0
  0
LINE
  5
42E1
330
41FB
100
AcDbEntity
  8
0
100
AcDbLine
 10
67.18598337302527
 20
-57.17154493421936
 30
0.0
 11
67.71858480977465
 21
-56.86404735134132
 31
0.0
  0
ELLIPSE
  5
42E2
330
41FB
100
AcDbEntity
  8
0
100
AcDbEllipse
 10
67.88094363981852
 20
-58.16809630565365
 30
0.0
 11
-0.7500000000000009
 21
1.299038105676658
 31
0.0
210
0.0
220
0.0
230
1.0
 40
0.577350269189626
 41
5.497787143782137
 42
6.914905916409349
  0
LINE
  5
42E3
330
41FB
100
AcDbEntity
  8
0
100
AcDbLine
 10
32.69221347703932
 20
-126.604356833677
 30
0.0
 11
14.49221347719477
 21
-116.0965819345156
 31
0.0
  0
LINE
  5
42E4
330
41FB
100
AcDbEntity
  8
0
100
AcDbLine
 10
-71.4212604369707
 20
-66.49441464315628
 30
0.0
 11
-53.22126043712618
 21
-77.00218954231769
 31
0.0
  0
LINE
  5
42E5
330
41FB
100
AcDbEntity
  8
0
100
AcDbLine
 10
-0.3623323785890653
 20
-18.58034669758185
 30
0.0
 11
10.25921260702061
 21
-24.71269855423332
 31
0.0
  0
LINE
  5
42E6
330
41FB
100
AcDbEntity
  8
0
100
AcDbLine
 10
10.18525465633969
 20
-25.15989686005561
 30
0.0
 11
-0.5369025653320137
 21
-18.96945650182997
 31
0.0
  0
LINE
  5
42E7
330
41FB
100
AcDbEntity
  8
0
100
AcDbLine
 10
24.32739027969992
 20
-33.32486266911884
 30
0.0
 11
17.14076696433168
 21
-29.17566376342655
 31
0.0
  0
LINE
  5
42E8
330
41FB
100
AcDbEntity
  8
0
100
AcDbLine
 10
17.31533715107462
 20
-28.78655395917843
 30
0.0
 11
24.40134823088201
 21
-32.87766436358589
 31
0.0
  0
LINE
  5
42E9
330
41FB
100
AcDbEntity
  8
0
100
AcDbLine
 10
-3.956880967391267
 20
-16.99493105077835
 30
0.0
 11
-11.18510471123626
 21
-12.8217141265066
 31
0.0
  0
LINE
  5
42EA
330
41FB
100
AcDbEntity
  8
0
100
AcDbLine
 10
-52.49699636841426
 20
-77.42034359735287
 30
0.0
 11
13.43155330541497
 21
-115.4842094988198
 31
0.0
  0
LINE
  5
42EB
330
41FB
100
AcDbEntity
  8
0
100
AcDbLine
 10
66.7953975793695
 20
-57.84377811553006
 30
0.0
 11
59.56717383552454
 21
-53.67056119125833
 31
0.0
  0
LINE
  5
42EC
330
41FB
100
AcDbEntity
  8
0
100
AcDbLine
 10
56.1471954334653
 20
-51.6960357402067
 30
0.0
 11
45.42503821179359
 21
-45.50559538198107
 31
0.0
  0
LINE
  5
42ED
330
41FB
100
AcDbEntity
  8
0
100
AcDbLine
 10
38.4695259038016
 20
-41.48982847861012
 30
0.0
 11
31.28290258843337
 21
-37.34062957291785
 31
0.0
  0
LINE
  5
42EE
330
41FB
100
AcDbEntity
  8
0
100
AcDbLine
 10
31.45747277467515
 20
-36.95151976838038
 30
0.0
 11
38.54348385448252
 21
-41.04263017278783
 31
0.0
  0
LINE
  5
42EF
330
41FB
100
AcDbEntity
  8
0
100
AcDbLine
 10
45.59960839853654
 20
-45.11648557773294
 30
0.0
 11
56.22115338414622
 21
-51.24883743438441
 31
0.0
  0
LINE
  5
42F0
330
41FB
100
AcDbEntity
  8
0
100
AcDbLine
 10
-10.9739625270703
 20
-12.45371917481547
 30
0.0
 11
-3.882923016710342
 21
-16.54773274495606
 31
0.0
  0
LINE
  5
42F1
330
41FB
100
AcDbEntity
  8
0
100
AcDbLine
 10
59.7417440222675
 20
-53.28145138701019
 30
0.0
 11
66.83278353262744
 21
-57.37546495715079
 31
0.0
  0
ELLIPSE
  5
42F2
330
41FB
100
AcDbEntity
  8
0
100
AcDbEllipse
 10
22.24221347730849
 20
-106.1372897910602
 30
0.0
 11
1.250000000000129
 21
2.16506350946102
 31
0.0
210
0.0
220
0.0
230
1.0
 40
0.5773502691896257
 41
0.0
 42
6.283185307179586
  0
ELLIPSE
  5
42F3
330
41FB
100
AcDbEntity
  8
0
100
AcDbEllipse
 10
35.99221347751321
 20
-88.09509387900261
 30
0.0
 11
-0.4000000000000427
 21
-0.692820323027528
 31
0.0
210
0.0
220
0.0
230
1.0
 40
0.5773502691896254
 41
2.094395102375157
 42
2.27682856651157
  0
LINE
  5
42F4
330
41FB
100
AcDbEntity
  8
0
100
AcDbLine
 10
36.53862363902433
 20
-87.94868371750183
 30
0.0
 11
35.74615539370107
 21
-91.82127898170792
 31
0.0
  0
ELLIPSE
  5
42F5
330
41FB
100
AcDbEntity
  8
0
100
AcDbEllipse
 10
35.19974523218995
 20
-91.96768914320868
 30
0.0
 11
-0.4000000000000421
 21
-0.6928203230275268
 31
0.0
210
0.0
220
0.0
230
1.0
 40
0.5773502691896255
 41
0.0
 42
2.094395102375109
  0
LINE
  5
42F6
330
41FB
100
AcDbEntity
  8
0
100
AcDbLine
 10
34.79974523218268
 20
-92.66050946623202
 30
0.0
 11
32.63468172276097
 21
-91.41050946616378
 31
0.0
  0
ELLIPSE
  5
42F7
330
41FB
100
AcDbEntity
  8
0
100
AcDbEllipse
 10
33.03468172276823
 20
-90.71768914314041
 30
0.0
 11
-0.4000000000072806
 21
-0.6928203230233492
 31
0.0
210
0.0
220
0.0
230
1.0
 40
0.5773502691896254
 41
4.188790204822794
 42
6.283185307252372
  0
LINE
  5
42F8
330
41FB
100
AcDbEntity
  8
0
100
AcDbLine
 10
32.88827156126441
 20
-90.17127898161781
 30
0.0
 11
35.84580331600939
 21
-87.54868371748001
 31
0.0
  0
ELLIPSE
  5
42F9
330
41FB
100
AcDbEntity
  8
0
100
AcDbEllipse
 10
35.99221347751321
 20
-88.09509387900261
 30
0.0
 11
0.4000000000000013
 21
0.6928203230275518
 31
0.0
210
0.0
220
0.0
230
1.0
 40
0.5773502691896262
 41
0.0802385882704755
 42
1.047197551178412
  0
LINE
  5
42FA
330
41FB
100
AcDbEntity
  8
0
100
AcDbLine
 10
36.35886551524745
 20
-87.38599219742631
 30
0.0
 11
36.55611822539757
 21
-87.82131051780389
 31
0.0
  0
ELLIPSE
  5
42FB
330
41FB
100
AcDbEntity
  8
0
100
AcDbEllipse
 10
34.13908506041015
 20
-91.35531670751289
 30
0.0
 11
-0.4000000000072799
 21
-0.6928203230233481
 31
0.0
210
0.0
220
0.0
230
1.0
 40
0.5773502691896257
 41
0.0000000000727862
 42
2.094395102429601
  0
LINE
  5
42FC
330
41FB
100
AcDbEntity
  8
0
100
AcDbLine
 10
34.68549522192124
 20
-91.20890654601213
 30
0.0
 11
35.74615539370107
 21
-91.82127898170792
 31
0.0
  0
LINE
  5
42FD
330
41FB
100
AcDbEntity
  8
0
100
AcDbLine
 10
34.68549522192124
 20
-91.20890654601213
 30
0.0
 11
35.34332473807189
 21
-87.99425727276485
 31
0.0
  0
LINE
  5
42FE
330
41FB
100
AcDbEntity
  8
0
100
AcDbLine
 10
35.84580331599676
 20
-87.54868371750184
 30
0.0
 11
36.53862363902433
 21
-87.94868371750183
 31
0.0
  0
LINE
  5
42FF
330
41FB
100
AcDbEntity
  8
0
100
AcDbLine
 10
35.94736444950257
 20
-87.46984636142073
 30
0.0
 11
36.55611822539757
 21
-87.82131051780389
 31
0.0
  0
ELLIPSE
  5
4300
330
41FB
100
AcDbEntity
  8
0
100
AcDbEllipse
 10
21.1815533055287
 20
-105.5249173553644
 30
0.0
 11
1.24999999999987
 21
2.16506350946117
 31
0.0
210
0.0
220
0.0
230
1.0
 40
0.5773502691896258
 41
3.579741684173537
 42
5.845036276595009
  0
LINE
  5
4301
330
41FB
100
AcDbEntity
  8
0
100
AcDbLine
 10
-58.98192060934238
 20
-36.7258536150793
 30
0.0
 11
-72.48192060875054
 21
-60.10853951556426
 31
0.0
  0
LINE
  5
4302
330
41FB
100
AcDbEntity
  8
0
100
AcDbLine
 10
-57.92126043756235
 20
-37.33822605077522
 30
0.0
 11
-71.4212604369707
 21
-60.72091195126006
 31
0.0
  0
ELLIPSE
  5
4303
330
41FB
100
AcDbEntity
  8
0
100
AcDbEllipse
 10
-67.23192060868228
 20
-60.25287708290105
 30
0.0
 11
1.24999999999987
 21
2.165063509461171
 31
0.0
210
0.0
220
0.0
230
1.0
 40
0.5773502691896255
 41
3.579741684173528
 42
5.845036276595009
  0
ELLIPSE
  5
4304
330
41FB
100
AcDbEntity
  8
0
100
AcDbEllipse
 10
-54.27438885380083
 20
-46.0832764350495
 30
0.0
 11
-0.4000000000072799
 21
-0.6928203230233481
 31
0.0
210
0.0
220
0.0
230
1.0
 40
0.5773502691896257
 41
0.000000000072778
 42
2.094395102429573
  0
LINE
  5
4305
330
41FB
100
AcDbEntity
  8
0
100
AcDbLine
 10
-53.72797869228974
 20
-45.93686627354874
 30
0.0
 11
-53.07014917613911
 21
-42.72221700030148
 31
0.0
  0
LINE
  5
4306
330
41FB
100
AcDbEntity
  8
0
100
AcDbLine
 10
-52.66731852050994
 20
-46.54923870924453
 30
0.0
 11
-53.72797869228974
 21
-45.93686627354874
 31
0.0
  0
LINE
  5
4307
330
41FB
100
AcDbEntity
  8
0
100
AcDbLine
 10
-51.87485027518667
 20
-42.67664344503845
 30
0.0
 11
-52.66731852050994
 21
-46.54923870924453
 31
0.0
  0
LINE
  5
4308
330
41FB
100
AcDbEntity
  8
0
100
AcDbLine
 10
-51.87485027518667
 20
-42.67664344503845
 30
0.0
 11
-52.56767059822148
 21
-42.27664344503426
 31
0.0
  0
ELLIPSE
  5
4309
330
41FB
100
AcDbEntity
  8
0
100
AcDbEllipse
 10
-52.42126043669777
 20
-42.8230536065392
 30
0.0
 11
0.4000000000000004
 21
0.6928203230275523
 31
0.0
210
0.0
220
0.0
230
0.9999999999999998
 40
0.5773502691896257
 41
5.235987755964798
 42
7.330382858358005
  0
LINE
  5
430A
330
41FB
100
AcDbEntity
  8
0
100
AcDbLine
 10
-55.52520235294657
 20
-44.89923870915446
 30
0.0
 11
-52.56767059820162
 21
-42.27664344501661
 31
0.0
  0
ELLIPSE
  5
430B
330
41FB
100
AcDbEntity
  8
0
100
AcDbEllipse
 10
-55.37879219144274
 20
-45.44564887067704
 30
0.0
 11
-0.4000000000072796
 21
-0.6928203230233496
 31
0.0
210
0.0
220
0.0
230
1.0
 40
0.5773502691896257
 41
4.188790204822788
 42
6.283185307252368
  0
LINE
  5
430C
330
41FB
100
AcDbEntity
  8
0
100
AcDbLine
 10
-53.61372868202829
 20
-47.38846919376864
 30
0.0
 11
-55.77879219145002
 21
-46.1384691937004
 31
0.0
  0
ELLIPSE
  5
430D
330
41FB
100
AcDbEntity
  8
0
100
AcDbEllipse
 10
-53.21372868202104
 20
-46.69564887074528
 30
0.0
 11
-0.4000000000000412
 21
-0.6928203230275269
 31
0.0
210
0.0
220
0.0
230
0.9999999999999998
 40
0.577350269189626
 41
0.0
 42
2.094395102375109
  0
ELLIPSE
  5
430E
330
41FB
100
AcDbEntity
  8
0
100
AcDbEllipse
 10
-66.1712604369025
 20
-60.86524951859683
 30
0.0
 11
1.250000000000128
 21
2.165063509461021
 31
0.0
210
0.0
220
0.0
230
1.0
 40
0.5773502691896259
 41
0.0
 42
6.283185307179586
  0
LINE
  5
430F
330
41FB
100
AcDbEntity
  8
0
100
AcDbLine
 10
-14.93345108852417
 20
-12.35837466016909
 30
0.0
 11
-52.49699636841426
 21
-77.42034359735287
 31
0.0
  0
LINE
  5
4310
330
41FB
100
AcDbEntity
  8
0
100
AcDbLine
 10
-53.22126043712616
 20
-77.00218954231765
 30
0.0
 11
-52.49699636841424
 21
-77.42034359735287
 31
0.0
  0
LINE
  5
4311
330
41FB
100
AcDbEntity
  8
0
100
AcDbLine
 10
-53.22126043712618
 20
-77.00218954231769
 30
0.0
 11
-16.52126043791415
 21
-13.43592490590458
 31
0.0
  0
ENDBLK
  5
41FD
330
41FB
100
AcDbEntity
  8
0
100
AcDbBlockEnd
  0
ENDSEC
  0
SECTION
  2
ENTITIES
  0
INSERT
  5
4312
330
1F
100
AcDbEntity
  8
0
100
AcDbBlockReference
  2
SPR120_180-Front
 10
0.0
 20
0.0
 30
0.0
  0
INSERT
  5
4313
330
1F
100
AcDbEntity
  8
0
100
AcDbBlockReference
  2
SPR120_180-Left
 10
173.4229986469886
 20
0.0
 30
0.0
  0
INSERT
  5
4314
330
1F
100
AcDbEntity
  8
0
100
AcDbBlockReference
  2
SPR120_180-Right
 10
-173.4229986469887
 20
0.0
 30
0.0
  0
INSERT
  5
4315
330
1F
100
AcDbEntity
  8
0
100
AcDbBlockReference
  2
SPR120_180-Top
 10
0.0
 20
-126.5456017059509
 30
0.0
  0
INSERT
  5
4316
330
1F
100
AcDbEntity
  8
0
100
AcDbBlockReference
  2
SPR120_180-Bottom
 10
0.0
 20
251.5659080859887
 30
0.0
  0
INSERT
  5
4317
330
1F
100
AcDbEntity
  8
0
100
AcDbBlockReference
  2
SPR120_180-ISO
 10
245.9049192557392
 20
-264.3652003459045
 30
0.0
  0
MTEXT
  5
4318
330
1F
100
AcDbEntity
  8
0
100
AcDbMText
 10
0.0
 20
-279.4445760657997
 30
0.0
 40
23.12306648626516
 41
0.0
 71
     5
 72
     5
  1
SPR120/180
 73
     1
 44
1.0
1001
ACAD
1000
MTEXTBEGIN
1070
    73
1070
     1
1070
    44
1040
1.0
1070
    74
1070
     0
1000
MTEXTEND
  0
ENDSEC
  0
SECTION
  2
OBJECTS
  0
DICTIONARY
  5
C
330
0
100
AcDbDictionary
281
     1
  3
ACAD_CIP_PREVIOUS_PRODUCT_INFO
350
216
  3
ACAD_COLOR
350
6B
  3
ACAD_DETAILVIEWSTYLE
350
21B
  3
ACAD_GROUP
350
D
  3
ACAD_LAYOUT
350
1A
  3
ACAD_MATERIAL
350
6A
  3
ACAD_MLEADERSTYLE
350
12D
  3
ACAD_MLINESTYLE
350
17
  3
ACAD_PLOTSETTINGS
350
19
  3
ACAD_PLOTSTYLENAME
350
E
  3
ACAD_SCALELIST
350
10C
  3
ACAD_SECTIONVIEWSTYLE
350
219
  3
ACAD_TABLESTYLE
350
7E
  3
ACAD_VISUALSTYLE
350
EF
  3
ACDB_RECOMPOSE_DATA
350
4419
  3
AcDbVariableDictionary
350
5E
  3
DWGPROPS
350
441A
  0
DICTIONARY
  5
4369
330
8
100
AcDbDictionary
280
     1
281
     1
  0
DICTIONARY
  5
1FF
330
2
100
AcDbDictionary
280
     1
281
     1
  3
ACAD_LAYERSTATES
360
200
  0
DICTIONARY
  5
13C
330
10
100
AcDbDictionary
280
     1
281
     1
  0
DICTIONARY
  5
1CE
330
1F
100
AcDbDictionary
280
     1
281
     1
  3
ACAD_LAYOUTSELFREF
360
4371
  0
DICTIONARY
  5
431C
330
D2
100
AcDbDictionary
280
     1
281
     1
  3
ACAD_LAYOUTSELFREF
360
437A
  0
DICTIONARY
  5
431E
330
D6
100
AcDbDictionary
280
     1
281
     1
  3
ACAD_LAYOUTSELFREF
360
437D
  0
XRECORD
  5
216
102
{ACAD_REACTORS
330
C
102
}
330
C
100
AcDbXrecord
280
     1
300
ACD
300
2021
300
87393ACD_2021_0F
  0
DICTIONARY
  5
6B
102
{ACAD_REACTORS
330
C
102
}
330
C
100
AcDbDictionary
281
     1
  0
DICTIONARY
  5
21B
102
{ACAD_REACTORS
330
C
102
}
330
C
100
AcDbDictionary
281
     1
  3
Metric50
350
21C
  0
DICTIONARY
  5
D
102
{ACAD_REACTORS
330
C
102
}
330
C
100
AcDbDictionary
281
     1
  0
DICTIONARY
  5
1A
102
{ACAD_REACTORS
330
C
102
}
330
C
100
AcDbDictionary
281
     1
  3
Layout1
350
D3
  3
Layout2
350
D7
  3
Model
350
22
  0
DICTIONARY
  5
6A
102
{ACAD_REACTORS
330
C
102
}
330
C
100
AcDbDictionary
281
     1
  3
ByBlock
350
ED
  3
ByLayer
350
EC
  3
Global
350
EE
  0
DICTIONARY
  5
12D
102
{ACAD_REACTORS
330
C
102
}
330
C
100
AcDbDictionary
281
     1
  3
Standard
350
12E
  0
DICTIONARY
  5
17
102
{ACAD_REACTORS
330
C
102
}
330
C
100
AcDbDictionary
281
     1
  3
Standard
350
18
  0
DICTIONARY
  5
19
102
{ACAD_REACTORS
330
C
102
}
330
C
100
AcDbDictionary
281
     1
  0
ACDBDICTIONARYWDFLT
  5
E
102
{ACAD_REACTORS
330
C
102
}
330
C
100
AcDbDictionary
281
     1
  3
Normal
350
F
100
AcDbDictionaryWithDefault
340
F
  0
DICTIONARY
  5
10C
102
{ACAD_REACTORS
330
C
102
}
330
C
100
AcDbDictionary
281
     1
  3
A0
350
10D
  3
A1
350
1BE
  3
A2
350
1BF
  3
A3
350
1C0
  3
A4
350
1C1
  3
A5
350
1C2
  3
A6
350
1C3
  3
A7
350
1C4
  3
A8
350
1C5
  3
A9
350
1C6
  3
B0
350
1C7
  3
B1
350
1C8
  3
B2
350
1C9
  3
B3
350
1CA
  3
B4
350
1CB
  3
B5
350
1CC
  3
B6
350
1CD
  0
DICTIONARY
  5
219
102
{ACAD_REACTORS
330
C
102
}
330
C
100
AcDbDictionary
281
     1
  3
Metric50
350
21A
  0
DICTIONARY
  5
7E
102
{ACAD_REACTORS
330
C
102
}
330
C
100
AcDbDictionary
281
     1
  3
Standard
350
7F
  0
DICTIONARY
  5
EF
102
{ACAD_REACTORS
330
C
102
}
330
C
100
AcDbDictionary
281
     1
  3
2dWireframe
350
F5
  3
Basic
350
F4
  3
Brighten
350
FB
  3
ColorChange
350
FF
  3
Conceptual
350
F8
  3
Dim
350
FA
  3
EdgeColorOff
350
1E6
  3
Facepattern
350
FE
  3
Flat
350
F0
  3
FlatWithEdges
350
F1
  3
Gouraud
350
F2
  3
GouraudWithEdges
350
F3
  3
Hidden
350
F7
  3
JitterOff
350
1E4
  3
Linepattern
350
FD
  3
OverhangOff
350
1E5
  3
Realistic
350
F9
  3
Shaded
350
1F3
  3
Shaded with edges
350
1F2
  3
Shades of Gray
350
1EF
  3
Sketchy
350
1F0
  3
Thicken
350
FC
  3
Wireframe
350
F6
  3
X-Ray
350
1F1
  0
XRECORD
  5
4419
102
{ACAD_REACTORS
330
C
102
}
330
C
100
AcDbXrecord
280
     1
 90
        1
330
7F
  0
DICTIONARY
  5
5E
102
{ACAD_REACTORS
330
C
102
}
330
C
100
AcDbDictionary
281
     1
  3
CANNOSCALE
350
146
  3
CENTEREXE
350
259
  3
CENTERLTYPEFILE
350
25A
  3
CMLEADERSTYLE
350
145
  3
CTABLESTYLE
350
84
  3
CVIEWDETAILSTYLE
350
227
  3
CVIEWSECTIONSTYLE
350
228
  3
DIMASSOC
350
5F
  3
HIDETEXT
350
63
  3
INDEXCTL
350
43C6
  3
LAYEREVAL
350
1AE
  3
LAYERNOTIFY
350
1AF
  3
LIGHTINGUNITS
350
43C4
  3
MSLTSCALE
350
43C3
  3
PSOLHEIGHT
350
4416
  3
PSOLWIDTH
350
4415
  3
SORTENTS
350
43C5
  3
XCLIPFRAME
350
4417
  0
XRECORD
  5
441A
102
{ACAD_REACTORS
330
C
102
}
330
C
100
AcDbXrecord
280
     1
  1
DWGPROPS COOKIE
  2

  3

  4

  6

  7

  8
truole
  9

300
=
301
=
302
=
303
=
304
=
305
=
306
=
307
=
308
=
309
=
 40
0.0020486111111111
 41
2460719.40650463
 42
2460719.411388889
  1

 90
        0
  0
DICTIONARY
  5
200
102
{ACAD_REACTORS
330
1FF
102
}
330
1FF
100
AcDbDictionary
281
     1
  0
XRECORD
  5
4371
102
{ACAD_REACTORS
330
1CE
102
}
330
1CE
100
AcDbXrecord
280
     1
340
1F
  0
XRECORD
  5
437A
102
{ACAD_REACTORS
330
431C
102
}
330
431C
100
AcDbXrecord
280
     1
340
D2
  0
XRECORD
  5
437D
102
{ACAD_REACTORS
330
431E
102
}
330
431E
100
AcDbXrecord
280
     1
340
D6
  0
ACDBDETAILVIEWSTYLE
  5
21C
102
{ACAD_XDICTIONARY
360
4459
102
}
102
{ACAD_REACTORS
330
21B
102
}
330
21B
100
AcDbModelDocViewStyle
 70
     0
  3
Metric50
290
     0
100
AcDbDetailViewStyle
 70
     0
 71
     0
 90
        3
 71
     1
340
11
 40
5.0
340
0
 40
5.0
300

 40
0.0
280
     1
 71
     2
340
16
 90
       25
 71
     3
340
11
 40
5.0
 90
        0
 40
15.0
 90
        1
300
%<\AcVar ViewDetailId>% (%<\AcVar ViewScale \f "%sn">%)
 71
     4
340
16
 90
       25
340
16
 90
       25
280
     0
  0
LAYOUT
  5
D3
102
{ACAD_XDICTIONARY
360
441E
102
}
102
{ACAD_REACTORS
330
1A
102
}
330
1A
100
AcDbPlotSettings
  1

  2
C:\Documents and Settings\basas\Application Data\Autodesk\AutoCAD 2005\R16.1\enu\plotters\Default Windows System Printer.pc3
  4

  6

 40
0.0
 41
0.0
 42
0.0
 43
0.0
 44
0.0
 45
0.0
 46
0.0
 47
0.0
 48
0.0
 49
0.0
140
0.0
141
0.0
142
1.0
143
1.0
 70
   688
 72
     0
 73
     0
 74
     5
  7

 75
    16
147
1.0
148
0.0
149
0.0
100
AcDbLayout
  1
Layout1
 70
     1
 71
     1
 10
0.0
 20
0.0
 11
12.0
 21
9.0
 12
0.0
 22
0.0
 32
0.0
 14
0.0
 24
0.0
 34
0.0
 15
0.0
 25
0.0
 35
0.0
146
0.0
 13
0.0
 23
0.0
 33
0.0
 16
1.0
 26
0.0
 36
0.0
 17
0.0
 27
1.0
 37
0.0
 76
     0
330
D2
  0
LAYOUT
  5
D7
102
{ACAD_XDICTIONARY
360
4420
102
}
102
{ACAD_REACTORS
330
1A
102
}
330
1A
100
AcDbPlotSettings
  1

  2
C:\Documents and Settings\basas\Application Data\Autodesk\AutoCAD 2005\R16.1\enu\plotters\Default Windows System Printer.pc3
  4

  6

 40
0.0
 41
0.0
 42
0.0
 43
0.0
 44
0.0
 45
0.0
 46
0.0
 47
0.0
 48
0.0
 49
0.0
140
0.0
141
0.0
142
1.0
143
1.0
 70
   688
 72
     0
 73
     0
 74
     5
  7

 75
    16
147
1.0
148
0.0
149
0.0
100
AcDbLayout
  1
Layout2
 70
     1
 71
     2
 10
0.0
 20
0.0
 11
12.0
 21
9.0
 12
0.0
 22
0.0
 32
0.0
 14
0.0
 24
0.0
 34
0.0
 15
0.0
 25
0.0
 35
0.0
146
0.0
 13
0.0
 23
0.0
 33
0.0
 16
1.0
 26
0.0
 36
0.0
 17
0.0
 27
1.0
 37
0.0
 76
     0
330
D6
  0
LAYOUT
  5
22
102
{ACAD_XDICTIONARY
360
441B
102
}
102
{ACAD_REACTORS
330
1A
102
}
330
1A
100
AcDbPlotSettings
  1

  2
none_device
  4
ISO_A4_(210.00_x_297.00_MM)
  6

 40
7.5
 41
20.0
 42
7.5
 43
20.0
 44
210.0
 45
297.0
 46
11.54999923706054
 47
-13.65000009536743
 48
0.0
 49
0.0
140
0.0
141
0.0
142
1.0
143
8.704084754739808
 70
 11952
 72
     1
 73
     0
 74
     0
  7

 75
     0
147
0.1148885871608098
148
0.0
149
0.0
100
AcDbLayout
  1
Model
 70
     1
 71
     0
 10
0.0
 20
0.0
 11
12.0
 21
9.0
 12
0.0
 22
0.0
 32
0.0
 14
0.0
 24
0.0
 34
0.0
 15
0.0
 25
0.0
 35
0.0
146
0.0
 13
0.0
 23
0.0
 33
0.0
 16
1.0
 26
0.0
 36
0.0
 17
0.0
 27
1.0
 37
0.0
 76
     0
330
1F
331
EA
1001
ACAD_PSEXT
1000
None
1000
None
1000
Not applicable
1000
The layout will not be plotted unless a new plotter configuration name is selected.
1070
     0
  0
MATERIAL
  5
ED
102
{ACAD_XDICTIONARY
360
1F9
102
}
102
{ACAD_REACTORS
330
6A
102
}
330
6A
100
AcDbMaterial
  1
ByBlock
  0
MATERIAL
  5
EC
102
{ACAD_XDICTIONARY
360
1F7
102
}
102
{ACAD_REACTORS
330
6A
102
}
330
6A
100
AcDbMaterial
  1
ByLayer
  0
MATERIAL
  5
EE
102
{ACAD_XDICTIONARY
360
173
102
}
102
{ACAD_REACTORS
330
6A
102
}
330
6A
100
AcDbMaterial
  1
Global
 43
0.0007999999797903
 43
0.0
 43
0.0
 43
0.0
 43
0.0
 43
0.0007999999797903
 43
0.0
 43
0.0
 43
0.0
 43
0.0
 43
1.0
 43
0.0
 43
0.0
 43
0.0
 43
0.0
 43
1.0
 49
0.0007999999797903
 49
0.0
 49
0.0
 49
0.0
 49
0.0
 49
0.0007999999797903
 49
0.0
 49
0.0
 49
0.0
 49
0.0
 49
1.0
 49
0.0
 49
0.0
 49
0.0
 49
0.0
 49
1.0
142
0.0007999999797903
142
0.0
142
0.0
142
0.0
142
0.0
142
0.0007999999797903
142
0.0
142
0.0
142
0.0
142
0.0
142
1.0
142
0.0
142
0.0
142
0.0
142
0.0
142
1.0
144
0.0007999999797903
144
0.0
144
0.0
144
0.0
144
0.0
144
0.0007999999797903
144
0.0
144
0.0
144
0.0
144
0.0
144
1.0
144
0.0
144
0.0
144
0.0
144
0.0
144
1.0
1001
ACAD
1070
    -1
1070
     3
1070
     0
1000

1071
        0
1070
     0
  0
MLEADERSTYLE
  5
12E
102
{ACAD_XDICTIONARY
360
4445
102
}
102
{ACAD_REACTORS
330
12D
102
}
330
12D
100
AcDbMLeaderStyle
170
     2
171
     1
172
     0
 90
        2
 40
0.0
 41
0.0
173
     1
 91
-1056964608
340
14
 92
       -2
290
     1
 42
2.0
291
     1
 43
8.0
  3
Standard
 44
4.0
300

342
11
174
     1
178
     1
175
     1
176
     0
 93
-1056964608
 45
4.0
292
     0
297
     0
 46
4.0
 94
-1056964608
 47
1.0
 49
1.0
140
1.0
293
     1
141
0.0
294
     1
177
     0
142
1.0
295
     0
296
     0
143
3.75
1001
ACAD_MLEADERVER
1070
     2
  0
MLINESTYLE
  5
18
102
{ACAD_REACTORS
330
17
102
}
330
17
100
AcDbMlineStyle
  2
STANDARD
 70
     0
  3

 62
   256
 51
90.0
 52
90.0
 71
     2
 49
0.5
 62
   256
  6
BYLAYER
 49
-0.5
 62
   256
  6
BYLAYER
  0
ACDBPLACEHOLDER
  5
F
102
{ACAD_REACTORS
330
E
102
}
330
E
  0
SCALE
  5
10D
102
{ACAD_REACTORS
330
10C
102
}
330
10C
100
AcDbScale
 70
     0
300
1:1
140
1.0
141
1.0
290
     1
  0
SCALE
  5
1BE
102
{ACAD_REACTORS
330
10C
102
}
330
10C
100
AcDbScale
 70
     0
300
1:2
140
1.0
141
2.0
290
     0
  0
SCALE
  5
1BF
102
{ACAD_REACTORS
330
10C
102
}
330
10C
100
AcDbScale
 70
     0
300
1:4
140
1.0
141
4.0
290
     0
  0
SCALE
  5
1C0
102
{ACAD_REACTORS
330
10C
102
}
330
10C
100
AcDbScale
 70
     0
300
1:5
140
1.0
141
5.0
290
     0
  0
SCALE
  5
1C1
102
{ACAD_REACTORS
330
10C
102
}
330
10C
100
AcDbScale
 70
     0
300
1:8
140
1.0
141
8.0
290
     0
  0
SCALE
  5
1C2
102
{ACAD_REACTORS
330
10C
102
}
330
10C
100
AcDbScale
 70
     0
300
1:10
140
1.0
141
10.0
290
     0
  0
SCALE
  5
1C3
102
{ACAD_REACTORS
330
10C
102
}
330
10C
100
AcDbScale
 70
     0
300
1:16
140
1.0
141
16.0
290
     0
  0
SCALE
  5
1C4
102
{ACAD_REACTORS
330
10C
102
}
330
10C
100
AcDbScale
 70
     0
300
1:20
140
1.0
141
20.0
290
     0
  0
SCALE
  5
1C5
102
{ACAD_REACTORS
330
10C
102
}
330
10C
100
AcDbScale
 70
     0
300
1:30
140
1.0
141
30.0
290
     0
  0
SCALE
  5
1C6
102
{ACAD_REACTORS
330
10C
102
}
330
10C
100
AcDbScale
 70
     0
300
1:40
140
1.0
141
40.0
290
     0
  0
SCALE
  5
1C7
102
{ACAD_REACTORS
330
10C
102
}
330
10C
100
AcDbScale
 70
     0
300
1:50
140
1.0
141
50.0
290
     0
  0
SCALE
  5
1C8
102
{ACAD_REACTORS
330
10C
102
}
330
10C
100
AcDbScale
 70
     0
300
1:100
140
1.0
141
100.0
290
     0
  0
SCALE
  5
1C9
102
{ACAD_REACTORS
330
10C
102
}
330
10C
100
AcDbScale
 70
     0
300
2:1
140
2.0
141
1.0
290
     0
  0
SCALE
  5
1CA
102
{ACAD_REACTORS
330
10C
102
}
330
10C
100
AcDbScale
 70
     0
300
4:1
140
4.0
141
1.0
290
     0
  0
SCALE
  5
1CB
102
{ACAD_REACTORS
330
10C
102
}
330
10C
100
AcDbScale
 70
     0
300
8:1
140
8.0
141
1.0
290
     0
  0
SCALE
  5
1CC
102
{ACAD_REACTORS
330
10C
102
}
330
10C
100
AcDbScale
 70
     0
300
10:1
140
10.0
141
1.0
290
     0
  0
SCALE
  5
1CD
102
{ACAD_REACTORS
330
10C
102
}
330
10C
100
AcDbScale
 70
     0
300
100:1
140
100.0
141
1.0
290
     0
  0
ACDBSECTIONVIEWSTYLE
  5
21A
102
{ACAD_XDICTIONARY
360
4457
102
}
102
{ACAD_REACTORS
330
219
102
}
330
219
100
AcDbModelDocViewStyle
 70
     0
  3
Metric50
290
     0
100
AcDbSectionViewStyle
 70
     0
 71
     0
 90
      102
 71
     1
340
11
 40
5.0
340
0
340
0
 40
5.0
300
I, O, Q, S, X, Z
 40
10.0
 90
        0
 40
2.5
 90
        0
 71
     2
340
16
 90
       25
340
16
 90
       50
 40
5.0
 40
2.5
 40
5.0
 71
     3
340
11
 40
5.0
 90
        0
 40
15.0
 90
        1
300
%<\AcVar ViewSectionStartId>%-%<\AcVar ViewSectionEndId>% (%<\AcVar ViewScale \f "%sn">%)
 71
     4
300
ANSI31
 40
1.0
 90
        0
290
     0
290
     0
 90
        6
 40
0.0
 40
1.570796326794896
 40
0.2617993877991494
 40
1.308996938995747
 40
-0.2617993877991494
 40
1.832595714594046
  0
TABLESTYLE
  5
7F
102
{ACAD_XDICTIONARY
360
162
102
}
102
{ACAD_REACTORS
330
7E
102
}
330
7E
100
AcDbTableStyle
  3
Standard
 70
     0
 71
     0
 40
1.5
 41
1.5
280
     0
281
     0
  7
Standard
140
4.5
170
     2
 62
     0
 63
     7
283
     0
274
    -2
284
     1
 64
     0
275
    -2
285
     1
 65
     0
276
    -2
286
     1
 66
     0
277
    -2
287
     1
 67
     0
278
    -2
288
     1
 68
     0
279
    -2
289
     1
 69
     0
  7
Standard
140
6.0
170
     5
 62
     0
 63
     7
283
     0
274
    -2
284
     1
 64
     0
275
    -2
285
     1
 65
     0
276
    -2
286
     1
 66
     0
277
    -2
287
     1
 67
     0
278
    -2
288
     1
 68
     0
279
    -2
289
     1
 69
     0
  7
Standard
140
4.5
170
     5
 62
     0
 63
     7
283
     0
274
    -2
284
     1
 64
     0
275
    -2
285
     1
 65
     0
276
    -2
286
     1
 66
     0
277
    -2
287
     1
 67
     0
278
    -2
288
     1
 68
     0
279
    -2
289
     1
 69
     0
  0
VISUALSTYLE
  5
F5
102
{ACAD_XDICTIONARY
360
442F
102
}
102
{ACAD_REACTORS
330
EF
102
}
330
EF
100
AcDbVisualStyle
  2
2dWireframe
 70
     4
 71
     0
 72
     2
 73
     1
 90
        0
 40
-0.6
 41
-30.0
 62
     5
 63
     7
 74
     1
 91
        4
 64
     7
 65
   257
 75
     1
175
     1
 42
1.0
 92
        0
 66
   257
 43
1.0
 76
     1
 77
     6
 78
     2
 67
     7
 79
     5
170
     0
171
     0
290
     0
174
     0
 93
        1
 44
0.0
173
     0
291
     0
 45
0.0
1001
ACAD
1000
AcDbSavedByObjectVersion
1070
     0
  0
VISUALSTYLE
  5
F4
102
{ACAD_XDICTIONARY
360
442D
102
}
102
{ACAD_REACTORS
330
EF
102
}
330
EF
100
AcDbVisualStyle
  2
Basic
 70
     7
 71
     1
 72
     0
 73
     1
 90
        0
 40
-0.6
 41
-30.0
 62
     5
 63
     7
 74
     0
 91
        4
 64
     7
 65
   257
 75
     1
175
     1
 42
1.0
 92
        8
 66
     7
 43
1.0
 76
     1
 77
     6
 78
     2
 67
     7
 79
     5
170
     0
171
     0
290
     0
174
     0
 93
        1
 44
0.0
173
     0
291
     1
 45
0.0
1001
ACAD
1000
AcDbSavedByObjectVersion
1070
     0
  0
VISUALSTYLE
  5
FB
102
{ACAD_XDICTIONARY
360
443B
102
}
102
{ACAD_REACTORS
330
EF
102
}
330
EF
100
AcDbVisualStyle
  2
Brighten
 70
    12
 71
     2
 72
     2
 73
     1
 90
        0
 40
-0.6
 41
-30.0
 62
     5
 63
     7
 74
     1
 91
        4
 64
     7
 65
   257
 75
     1
175
     1
 42
1.0
 92
        8
 66
     7
 43
1.0
 76
     1
 77
     6
 78
     2
 67
     7
 79
     5
170
     0
171
     0
290
     0
174
     0
 93
        1
 44
50.0
173
     0
291
     1
 45
0.0
1001
ACAD
1000
AcDbSavedByObjectVersion
1070
     0
  0
VISUALSTYLE
  5
FF
102
{ACAD_XDICTIONARY
360
4443
102
}
102
{ACAD_REACTORS
330
EF
102
}
330
EF
100
AcDbVisualStyle
  2
ColorChange
 70
    16
 71
     2
 72
     2
 73
     3
 90
        0
 40
-0.6
 41
-30.0
 62
     5
 63
     8
 74
     1
 91
        4
 64
     7
 65
   257
 75
     1
175
     1
 42
1.0
 92
        8
 66
     8
 43
1.0
 76
     1
 77
     6
 78
     2
 67
     7
 79
     5
170
     0
171
     0
290
     0
174
     0
 93
        1
 44
0.0
173
     0
291
     1
 45
0.0
1001
ACAD
1000
AcDbSavedByObjectVersion
1070
     0
  0
VISUALSTYLE
  5
F8
102
{ACAD_XDICTIONARY
360
4435
102
}
102
{ACAD_REACTORS
330
EF
102
}
330
EF
100
AcDbVisualStyle
  2
Conceptual
 70
     9
 71
     3
 72
     2
 73
     1
 90
        0
 40
-0.6
 41
-30.0
 62
     5
 63
     7
 74
     2
 91
        2
 64
     7
 65
   257
 75
     1
175
     1
 42
40.0
 92
        8
 66
     7
 43
1.0
 76
     1
 77
     6
 78
     2
 67
     7
 79
     3
170
     0
171
     0
290
     0
174
     0
 93
        1
 44
0.0
173
     0
291
     0
 45
0.0
1001
ACAD
1000
AcDbSavedByObjectVersion
1070
     0
  0
VISUALSTYLE
  5
FA
102
{ACAD_XDICTIONARY
360
4439
102
}
102
{ACAD_REACTORS
330
EF
102
}
330
EF
100
AcDbVisualStyle
  2
Dim
 70
    11
 71
     2
 72
     2
 73
     1
 90
        0
 40
-0.6
 41
-30.0
 62
     5
 63
     7
 74
     1
 91
        4
 64
     7
 65
   257
 75
     1
175
     1
 42
1.0
 92
        8
 66
     7
 43
1.0
 76
     1
 77
     6
 78
     2
 67
     7
 79
     5
170
     0
171
     0
290
     0
174
     0
 93
        1
 44
-50.0
173
     0
291
     1
 45
0.0
1001
ACAD
1000
AcDbSavedByObjectVersion
1070
     0
  0
VISUALSTYLE
  5
1E6
102
{ACAD_XDICTIONARY
360
444B
102
}
102
{ACAD_REACTORS
330
EF
102
}
330
EF
100
AcDbVisualStyle
  2
EdgeColorOff
 70
    22
 71
     2
 72
     2
 73
     0
 90
        0
 40
-0.6
 41
-30.0
 62
     5
 63
     7
 74
     1
 91
        4
 64
     7
 65
   257
 75
     1
175
     1
 42
1.0
 92
        8
 66
     7
 43
1.0
 76
     1
 77
     6
 78
     2
 67
     7
 79
     5
170
     0
171
     0
290
     0
174
     0
 93
        1
 44
0.0
173
     0
291
     1
 45
0.0
1001
ACAD
1000
AcDbSavedByObjectVersion
1070
     0
  0
VISUALSTYLE
  5
FE
102
{ACAD_XDICTIONARY
360
4441
102
}
102
{ACAD_REACTORS
330
EF
102
}
330
EF
100
AcDbVisualStyle
  2
Facepattern
 70
    15
 71
     2
 72
     2
 73
     1
 90
        0
 40
-0.6
 41
-30.0
 62
     5
 63
     7
 74
     1
 91
        4
 64
     7
 65
   257
 75
     1
175
     1
 42
1.0
 92
        8
 66
     7
 43
1.0
 76
     1
 77
     6
 78
     2
 67
     7
 79
     5
170
     0
171
     0
290
     0
174
     0
 93
        1
 44
0.0
173
     0
291
     1
 45
0.0
1001
ACAD
1000
AcDbSavedByObjectVersion
1070
     0
  0
VISUALSTYLE
  5
F0
102
{ACAD_XDICTIONARY
360
4425
102
}
102
{ACAD_REACTORS
330
EF
102
}
330
EF
100
AcDbVisualStyle
  2
Flat
 70
     0
 71
     2
 72
     1
 73
     1
 90
        2
 40
-0.6
 41
30.0
 62
     5
 63
     7
 74
     0
 91
        0
 64
     7
 65
   257
 75
     1
175
     1
 42
1.0
 92
        8
 66
     7
 43
1.0
 76
     1
 77
     6
 78
     2
 67
     7
 79
     5
170
     0
171
     0
290
     0
174
     0
 93
       13
 44
0.0
173
     0
291
     1
 45
0.0
1001
ACAD
1000
AcDbSavedByObjectVersion
1070
     0
  0
VISUALSTYLE
  5
F1
102
{ACAD_XDICTIONARY
360
4427
102
}
102
{ACAD_REACTORS
330
EF
102
}
330
EF
100
AcDbVisualStyle
  2
FlatWithEdges
 70
     1
 71
     2
 72
     1
 73
     1
 90
        2
 40
-0.6
 41
30.0
 62
     5
 63
     7
 74
     1
 91
        0
 64
     7
 65
   257
 75
     1
175
     1
 42
1.0
 92
        0
 66
   257
 43
1.0
 76
     1
 77
     6
 78
     2
 67
     7
 79
     5
170
     0
171
     0
290
     0
174
     0
 93
       13
 44
0.0
173
     0
291
     1
 45
0.0
1001
ACAD
1000
AcDbSavedByObjectVersion
1070
     0
  0
VISUALSTYLE
  5
F2
102
{ACAD_XDICTIONARY
360
4429
102
}
102
{ACAD_REACTORS
330
EF
102
}
330
EF
100
AcDbVisualStyle
  2
Gouraud
 70
     2
 71
     2
 72
     2
 73
     1
 90
        2
 40
-0.6
 41
30.0
 62
     5
 63
     7
 74
     0
 91
        0
 64
     7
 65
   257
 75
     1
175
     1
 42
1.0
 92
        0
 66
     7
 43
1.0
 76
     1
 77
     6
 78
     2
 67
     7
 79
     5
170
     0
171
     0
290
     0
174
     0
 93
       13
 44
0.0
173
     0
291
     1
 45
0.0
1001
ACAD
1000
AcDbSavedByObjectVersion
1070
     0
  0
VISUALSTYLE
  5
F3
102
{ACAD_XDICTIONARY
360
442B
102
}
102
{ACAD_REACTORS
330
EF
102
}
330
EF
100
AcDbVisualStyle
  2
GouraudWithEdges
 70
     3
 71
     2
 72
     2
 73
     1
 90
        2
 40
-0.6
 41
30.0
 62
     5
 63
     7
 74
     1
 91
        0
 64
     7
 65
   257
 75
     1
175
     1
 42
1.0
 92
        0
 66
   257
 43
1.0
 76
     1
 77
     6
 78
     2
 67
     7
 79
     5
170
     0
171
     0
290
     0
174
     0
 93
       13
 44
0.0
173
     0
291
     1
 45
0.0
1001
ACAD
1000
AcDbSavedByObjectVersion
1070
     0
  0
VISUALSTYLE
  5
F7
102
{ACAD_XDICTIONARY
360
4433
102
}
102
{ACAD_REACTORS
330
EF
102
}
330
EF
100
AcDbVisualStyle
  2
Hidden
 70
     6
 71
     1
 72
     2
 73
     2
 90
        0
 40
-0.6
 41
-30.0
 62
     5
 63
     7
 74
     2
 91
        2
 64
     7
 65
   257
 75
     2
175
     1
 42
40.0
 92
        0
 66
   257
 43
1.0
 76
     1
 77
     6
 78
     2
 67
     7
 79
     3
170
     0
171
     0
290
     0
174
     0
 93
        1
 44
0.0
173
     0
291
     0
 45
0.0
1001
ACAD
1000
AcDbSavedByObjectVersion
1070
     0
  0
VISUALSTYLE
  5
1E4
102
{ACAD_XDICTIONARY
360
4447
102
}
102
{ACAD_REACTORS
330
EF
102
}
330
EF
100
AcDbVisualStyle
  2
JitterOff
 70
    20
 71
     2
 72
     2
 73
     0
 90
        0
 40
-0.6
 41
-30.0
 62
     5
 63
     7
 74
     1
 91
        4
 64
     7
 65
   257
 75
     1
175
     1
 42
1.0
 92
       10
 66
     7
 43
1.0
 76
     1
 77
     6
 78
     2
 67
     7
 79
     5
170
     0
171
     0
290
     0
174
     0
 93
        1
 44
0.0
173
     0
291
     1
 45
0.0
1001
ACAD
1000
AcDbSavedByObjectVersion
1070
     0
  0
VISUALSTYLE
  5
FD
102
{ACAD_XDICTIONARY
360
443F
102
}
102
{ACAD_REACTORS
330
EF
102
}
330
EF
100
AcDbVisualStyle
  2
Linepattern
 70
    14
 71
     2
 72
     2
 73
     1
 90
        0
 40
-0.6
 41
-30.0
 62
     5
 63
     7
 74
     1
 91
        4
 64
     7
 65
   257
 75
     7
175
     7
 42
1.0
 92
        8
 66
     7
 43
1.0
 76
     1
 77
     6
 78
     2
 67
     7
 79
     5
170
     0
171
     0
290
     0
174
     0
 93
        1
 44
0.0
173
     0
291
     1
 45
0.0
1001
ACAD
1000
AcDbSavedByObjectVersion
1070
     0
  0
VISUALSTYLE
  5
1E5
102
{ACAD_XDICTIONARY
360
4449
102
}
102
{ACAD_REACTORS
330
EF
102
}
330
EF
100
AcDbVisualStyle
  2
OverhangOff
 70
    21
 71
     2
 72
     2
 73
     0
 90
        0
 40
-0.6
 41
-30.0
 62
     5
 63
     7
 74
     1
 91
        4
 64
     7
 65
   257
 75
     1
175
     1
 42
1.0
 92
        9
 66
     7
 43
1.0
 76
     1
 77
     6
 78
     2
 67
     7
 79
     5
170
     0
171
     0
290
     0
174
     0
 93
        1
 44
0.0
173
     0
291
     1
 45
0.0
1001
ACAD
1000
AcDbSavedByObjectVersion
1070
     0
  0
VISUALSTYLE
  5
F9
102
{ACAD_XDICTIONARY
360
4437
102
}
102
{ACAD_REACTORS
330
EF
102
}
330
EF
100
AcDbVisualStyle
  2
Realistic
 70
     8
 71
     2
 72
     2
 73
     0
 90
        2
 40
-0.6
 41
30.0
 62
     5
 63
     7
 74
     0
 91
        0
 64
     7
 65
   257
 75
     1
175
     1
 42
1.0
 92
        8
 66
   257
 43
1.0
 76
     1
 77
     6
 78
     2
 67
     7
 79
     3
170
     0
171
     0
290
     0
174
     0
 93
       13
 44
0.0
173
     0
291
     0
 45
0.0
1001
ACAD
1000
AcDbSavedByObjectVersion
1070
     0
  0
VISUALSTYLE
  5
1F3
102
{ACAD_XDICTIONARY
360
4455
102
}
102
{ACAD_REACTORS
330
EF
102
}
330
EF
100
AcDbVisualStyle
  2
Shaded
 70
    27
 71
     2
 72
     2
 73
     1
 90
        2
 40
-0.6
 41
30.0
 62
     5
 63
     7
 74
     0
 91
        4
 64
     7
 65
   257
 75
     1
175
     1
 42
1.0
 92
        8
 66
   257
 43
1.0
 76
     1
 77
     6
 78
     2
 67
     8
 79
     3
170
     0
171
     0
290
     0
174
     0
 93
        5
 44
0.0
173
     0
291
     0
 45
0.0
1001
ACAD
1000
AcDbSavedByObjectVersion
1070
     0
  0
VISUALSTYLE
  5
1F2
102
{ACAD_XDICTIONARY
360
4453
102
}
102
{ACAD_REACTORS
330
EF
102
}
330
EF
100
AcDbVisualStyle
  2
Shaded with edges
 70
    26
 71
     2
 72
     2
 73
     1
 90
        2
 40
-0.6
 41
30.0
 62
     5
 63
     7
 74
     1
 91
        2
 64
     7
 65
   257
 75
     2
175
     1
 42
1.0
 92
        8
 66
   257
 43
1.0
 76
     1
 77
     6
 78
     2
 67
     7
 79
     3
170
     0
171
     0
290
     0
174
     0
 93
        5
 44
0.0
173
     0
291
     0
 45
0.0
1001
ACAD
1000
AcDbSavedByObjectVersion
1070
     0
  0
VISUALSTYLE
  5
1EF
102
{ACAD_XDICTIONARY
360
444D
102
}
102
{ACAD_REACTORS
330
EF
102
}
330
EF
100
AcDbVisualStyle
  2
Shades of Gray
 70
    23
 71
     2
 72
     2
 73
     3
 90
        0
 40
-0.6
 41
-30.0
 62
     5
 63
     7
 74
     2
 91
        2
 64
     7
 65
     7
 75
     1
175
     1
 42
40.0
 92
        8
 66
     7
 43
1.0
 76
     1
 77
     6
 78
     2
 67
     7
 79
     3
170
     0
171
     0
290
     0
174
     0
 93
        1
 44
0.0
173
     0
291
     0
 45
0.0
1001
ACAD
1000
AcDbSavedByObjectVersion
1070
     0
  0
VISUALSTYLE
  5
1F0
102
{ACAD_XDICTIONARY
360
444F
102
}
102
{ACAD_REACTORS
330
EF
102
}
330
EF
100
AcDbVisualStyle
  2
Sketchy
 70
    24
 71
     1
 72
     2
 73
     2
 90
        0
 40
-0.6
 41
-30.0
 62
     5
 63
     7
 74
     2
 91
        2
 64
     7
 65
     7
 75
     1
175
     1
 42
40.0
 92
       11
 66
     7
 43
1.0
 76
     1
 77
     6
 78
     2
 67
     7
 79
     6
170
     0
171
     0
290
     0
174
     0
 93
        1
 44
0.0
173
     0
291
     0
 45
0.0
1001
ACAD
1000
AcDbSavedByObjectVersion
1070
     0
  0
VISUALSTYLE
  5
FC
102
{ACAD_XDICTIONARY
360
443D
102
}
102
{ACAD_REACTORS
330
EF
102
}
330
EF
100
AcDbVisualStyle
  2
Thicken
 70
    13
 71
     2
 72
     2
 73
     1
 90
        0
 40
-0.6
 41
-30.0
 62
     5
 63
     7
 74
     1
 91
        4
 64
     7
 65
   257
 75
     1
175
     1
 42
1.0
 92
       12
 66
     7
 43
1.0
 76
     1
 77
     6
 78
     2
 67
     7
 79
     5
170
     0
171
     0
290
     0
174
     0
 93
        1
 44
0.0
173
     0
291
     1
 45
0.0
1001
ACAD
1000
AcDbSavedByObjectVersion
1070
     0
  0
VISUALSTYLE
  5
F6
102
{ACAD_XDICTIONARY
360
4431
102
}
102
{ACAD_REACTORS
330
EF
102
}
330
EF
100
AcDbVisualStyle
  2
Wireframe
 70
     5
 71
     0
 72
     2
 73
     0
 90
        0
 40
-0.6
 41
-30.0
 62
     5
 63
     7
 74
     1
 91
        4
 64
     7
 65
   257
 75
     1
175
     1
 42
1.0
 92
        0
 66
   257
 43
1.0
 76
     1
 77
     6
 78
     2
 67
     7
 79
     3
170
     0
171
     0
290
     0
174
     0
 93
        1
 44
0.0
173
     0
291
     0
 45
0.0
1001
ACAD
1000
AcDbSavedByObjectVersion
1070
     0
  0
VISUALSTYLE
  5
1F1
102
{ACAD_XDICTIONARY
360
4451
102
}
102
{ACAD_REACTORS
330
EF
102
}
330
EF
100
AcDbVisualStyle
  2
X-Ray
 70
    25
 71
     2
 72
     2
 73
     1
 90
        1
 40
0.5
 41
-30.0
 62
     5
 63
     7
 74
     1
 91
        0
 64
     7
 65
   257
 75
     1
175
     1
 42
1.0
 92
        8
 66
     7
 43
1.0
 76
     1
 77
     6
 78
     2
 67
     7
 79
     3
170
     0
171
     0
290
     0
174
     0
 93
       13
 44
0.0
173
     0
291
     0
 45
0.0
1001
ACAD
1000
AcDbSavedByObjectVersion
1070
     0
  0
DICTIONARYVAR
  5
146
102
{ACAD_REACTORS
330
5E
102
}
330
5E
100
DictionaryVariables
280
     0
  1
1:1
  0
DICTIONARYVAR
  5
259
102
{ACAD_REACTORS
330
5E
102
}
330
5E
100
DictionaryVariables
280
     0
  1
3.500000
  0
DICTIONARYVAR
  5
25A
102
{ACAD_REACTORS
330
5E
102
}
330
5E
100
DictionaryVariables
280
     0
  1
acadiso.lin
  0
DICTIONARYVAR
  5
145
102
{ACAD_REACTORS
330
5E
102
}
330
5E
100
DictionaryVariables
280
     0
  1
STANDARD
  0
DICTIONARYVAR
  5
84
102
{ACAD_REACTORS
330
5E
102
}
330
5E
100
DictionaryVariables
280
     0
  1
STANDARD
  0
DICTIONARYVAR
  5
227
102
{ACAD_REACTORS
330
5E
102
}
330
5E
100
DictionaryVariables
280
     0
  1
Metric50
  0
DICTIONARYVAR
  5
228
102
{ACAD_REACTORS
330
5E
102
}
330
5E
100
DictionaryVariables
280
     0
  1
Metric50
  0
DICTIONARYVAR
  5
5F
102
{ACAD_REACTORS
330
5E
102
}
330
5E
100
DictionaryVariables
280
     0
  1
2
  0
DICTIONARYVAR
  5
63
102
{ACAD_REACTORS
330
5E
102
}
330
5E
100
DictionaryVariables
280
     0
  1
1
  0
DICTIONARYVAR
  5
43C6
102
{ACAD_REACTORS
330
5E
102
}
330
5E
100
DictionaryVariables
280
     0
  1
0
  0
DICTIONARYVAR
  5
1AE
102
{ACAD_REACTORS
330
5E
102
}
330
5E
100
DictionaryVariables
280
     0
  1
0
  0
DICTIONARYVAR
  5
1AF
102
{ACAD_REACTORS
330
5E
102
}
330
5E
100
DictionaryVariables
280
     0
  1
0
  0
DICTIONARYVAR
  5
43C4
102
{ACAD_REACTORS
330
5E
102
}
330
5E
100
DictionaryVariables
280
     0
  1
2
  0
DICTIONARYVAR
  5
43C3
102
{ACAD_REACTORS
330
5E
102
}
330
5E
100
DictionaryVariables
280
     0
  1
1
  0
DICTIONARYVAR
  5
4416
102
{ACAD_REACTORS
330
5E
102
}
330
5E
100
DictionaryVariables
280
     0
  1
80.000000
  0
DICTIONARYVAR
  5
4415
102
{ACAD_REACTORS
330
5E
102
}
330
5E
100
DictionaryVariables
280
     0
  1
5.000000
  0
DICTIONARYVAR
  5
43C5
102
{ACAD_REACTORS
330
5E
102
}
330
5E
100
DictionaryVariables
280
     0
  1
127
  0
DICTIONARYVAR
  5
4417
102
{ACAD_REACTORS
330
5E
102
}
330
5E
100
DictionaryVariables
280
     0
  1
2
  0
DICTIONARY
  5
4459
330
21C
100
AcDbDictionary
280
     1
281
     1
  3
ACAD_XREC_ROUNDTRIP
360
445A
  0
DICTIONARY
  5
441E
330
D3
100
AcDbDictionary
280
     1
281
     1
  3
ACAD_XREC_ROUNDTRIP
360
441F
  0
DICTIONARY
  5
4420
330
D7
100
AcDbDictionary
280
     1
281
     1
  3
ACAD_XREC_ROUNDTRIP
360
4421
  0
DICTIONARY
  5
441B
330
22
100
AcDbDictionary
280
     1
281
     1
  3
ACAD_XREC_ROUNDTRIP
360
441C
  0
DICTIONARY
  5
1F9
330
ED
100
AcDbDictionary
280
     1
281
     1
  3
ACAD_XREC_ROUNDTRIP
360
4423
  3
FBXASSET
360
1FA
  0
DICTIONARY
  5
1F7
330
EC
100
AcDbDictionary
280
     1
281
     1
  3
ACAD_XREC_ROUNDTRIP
360
4422
  3
FBXASSET
360
1F8
  0
DICTIONARY
  5
173
330
EE
100
AcDbDictionary
280
     1
281
     1
  3
ACAD_XREC_ROUNDTRIP
360
4424
  3
BUMPTILE
360
175
  3
DIFFUSETILE
360
174
  3
FBXASSET
360
1FB
  3
OPACITYTILE
360
176
  3
REFLECTIONTILE
360
177
  0
DICTIONARY
  5
4445
330
12E
100
AcDbDictionary
280
     1
281
     1
  3
ACAD_XREC_ROUNDTRIP
360
4446
  0
DICTIONARY
  5
4457
330
21A
100
AcDbDictionary
280
     1
281
     1
  3
ACAD_XREC_ROUNDTRIP
360
4458
  0
DICTIONARY
  5
162
330
7F
100
AcDbDictionary
280
     1
281
     1
  3
ACAD_ROUNDTRIP_2008_TABLESTYLE_CELLSTYLEMAP
360
4418
  3
ACAD_XREC_ROUNDTRIP
360
441D
  0
DICTIONARY
  5
442F
330
F5
100
AcDbDictionary
280
     1
281
     1
  3
ACAD_XREC_ROUNDTRIP
360
4430
  0
DICTIONARY
  5
442D
330
F4
100
AcDbDictionary
280
     1
281
     1
  3
ACAD_XREC_ROUNDTRIP
360
442E
  0
DICTIONARY
  5
443B
330
FB
100
AcDbDictionary
280
     1
281
     1
  3
ACAD_XREC_ROUNDTRIP
360
443C
  0
DICTIONARY
  5
4443
330
FF
100
AcDbDictionary
280
     1
281
     1
  3
ACAD_XREC_ROUNDTRIP
360
4444
  0
DICTIONARY
  5
4435
330
F8
100
AcDbDictionary
280
     1
281
     1
  3
ACAD_XREC_ROUNDTRIP
360
4436
  0
DICTIONARY
  5
4439
330
FA
100
AcDbDictionary
280
     1
281
     1
  3
ACAD_XREC_ROUNDTRIP
360
443A
  0
DICTIONARY
  5
444B
330
1E6
100
AcDbDictionary
280
     1
281
     1
  3
ACAD_XREC_ROUNDTRIP
360
444C
  0
DICTIONARY
  5
4441
330
FE
100
AcDbDictionary
280
     1
281
     1
  3
ACAD_XREC_ROUNDTRIP
360
4442
  0
DICTIONARY
  5
4425
330
F0
100
AcDbDictionary
280
     1
281
     1
  3
ACAD_XREC_ROUNDTRIP
360
4426
  0
DICTIONARY
  5
4427
330
F1
100
AcDbDictionary
280
     1
281
     1
  3
ACAD_XREC_ROUNDTRIP
360
4428
  0
DICTIONARY
  5
4429
330
F2
100
AcDbDictionary
280
     1
281
     1
  3
ACAD_XREC_ROUNDTRIP
360
442A
  0
DICTIONARY
  5
442B
330
F3
100
AcDbDictionary
280
     1
281
     1
  3
ACAD_XREC_ROUNDTRIP
360
442C
  0
DICTIONARY
  5
4433
330
F7
100
AcDbDictionary
280
     1
281
     1
  3
ACAD_XREC_ROUNDTRIP
360
4434
  0
DICTIONARY
  5
4447
330
1E4
100
AcDbDictionary
280
     1
281
     1
  3
ACAD_XREC_ROUNDTRIP
360
4448
  0
DICTIONARY
  5
443F
330
FD
100
AcDbDictionary
280
     1
281
     1
  3
ACAD_XREC_ROUNDTRIP
360
4440
  0
DICTIONARY
  5
4449
330
1E5
100
AcDbDictionary
280
     1
281
     1
  3
ACAD_XREC_ROUNDTRIP
360
444A
  0
DICTIONARY
  5
4437
330
F9
100
AcDbDictionary
280
     1
281
     1
  3
ACAD_XREC_ROUNDTRIP
360
4438
  0
DICTIONARY
  5
4455
330
1F3
100
AcDbDictionary
280
     1
281
     1
  3
ACAD_XREC_ROUNDTRIP
360
4456
  0
DICTIONARY
  5
4453
330
1F2
100
AcDbDictionary
280
     1
281
     1
  3
ACAD_XREC_ROUNDTRIP
360
4454
  0
DICTIONARY
  5
444D
330
1EF
100
AcDbDictionary
280
     1
281
     1
  3
ACAD_XREC_ROUNDTRIP
360
444E
  0
DICTIONARY
  5
444F
330
1F0
100
AcDbDictionary
280
     1
281
     1
  3
ACAD_XREC_ROUNDTRIP
360
4450
  0
DICTIONARY
  5
443D
330
FC
100
AcDbDictionary
280
     1
281
     1
  3
ACAD_XREC_ROUNDTRIP
360
443E
  0
DICTIONARY
  5
4431
330
F6
100
AcDbDictionary
280
     1
281
     1
  3
ACAD_XREC_ROUNDTRIP
360
4432
  0
DICTIONARY
  5
4451
330
1F1
100
AcDbDictionary
280
     1
281
     1
  3
ACAD_XREC_ROUNDTRIP
360
4452
  0
XRECORD
  5
445A
102
{ACAD_REACTORS
330
4459
102
}
330
4459
100
AcDbXrecord
280
     1
102
DISPLAYNAME
  1
Metric50
102
FLAGS
 90
        0
  0
XRECORD
  5
441F
102
{ACAD_REACTORS
330
441E
102
}
330
441E
100
AcDbXrecord
280
     1
102
SHADEPLOT
 70
     0
102
SHADEPLOTRESLEVEL
 70
     2
102
SHADEPLOTCUSTOMDPI
 70
   300
  0
XRECORD
  5
4421
102
{ACAD_REACTORS
330
4420
102
}
330
4420
100
AcDbXrecord
280
     1
102
SHADEPLOT
 70
     0
102
SHADEPLOTRESLEVEL
 70
     2
102
SHADEPLOTCUSTOMDPI
 70
   300
  0
XRECORD
  5
441C
102
{ACAD_REACTORS
330
441B
102
}
330
441B
100
AcDbXrecord
280
     1
102
SHADEPLOT
 70
     0
102
SHADEPLOTRESLEVEL
 70
     2
102
SHADEPLOTCUSTOMDPI
 70
   300
  0
XRECORD
  5
4423
102
{ACAD_REACTORS
330
1F9
102
}
330
1F9
100
AcDbXrecord
280
     1
102
MATERIAL
148
0.0
149
0.0
149
0.0
 93
        0
 94
       63
282
     0
 72
     1
 77
     1
171
     1
175
     1
179
     1
273
     0
  0
XRECORD
  5
1FA
102
{ACAD_REACTORS
330
1F9
102
}
330
1F9
100
AcDbXrecord
280
     1
 70
     1
 90
429727718
  1
D62C5603-E3A1-4AEA-B7FB-FE5D8D0755AF
310
504B03040A0000080000CC70623B3DEE336E79000000790000001B0000006175746F6465736B2D64657369676E2D7061636B6167652E786D6C3C3F786D6C2076657273696F6E3D22312E302220656E636F64696E673D227574662D3822203F3E3C666F726D6174733E3C666F726D61743E687474703A2F2F736368656D612E
310
6175746F6465736B2E636F6D2F64657369676E2D7061636B6167652F323030393C2F666F726D61743E3C2F666F726D6174733E504B0304140006080800CC70623BD486FD9CA0000000F4000000130000005B436F6E74656E745F54797065735D2E786D6C7D8EC10E82300C865F65E91D8A1E8C310C0EEA1BF002731658846E
310
D98AC1B77784ABF1D8FE5FBFBF75BBCE937A534CCEB38643598122B6FEE978D0B0485F9C41B54DDD7D022595594E1A469170414C76A4D9A4D207E29CF43ECE46F218070CC6BECC4078ACAA135ACF422C856C0E68EA1BF5669944DDD7BCDE7B1F8E415D77AECB980613C2E4AC91FC167A2B244592486606FC29C8FD7F045B9A
310
EF7053A7E60B504B0304140006080800CC70623B853B8169EB0000007C01000008000000636F72652E786D6C8D90416EC3201045AF62CDB6C206821CC7C244919D9CA01740401C94182C03558F5F9C3852BBEB6A467FFE9B197D7EFC9E1EC5975982F5AE035262288C535E5B377690E21535501C055FBC8FBF6C503839990E
310
5619041F179FE64D52DE45E362569DD7661365082642A11EB9E920A89B99642953CC8E702F67A9EE7234257977194EC9EAE275C4EABCCF5EAD5940D4AC6F0E35A568B8F43562CD7046CD199FD07E60174276A7BE677B5EADB0E0D14EEFFB6A31321A0D82627C4084204C3F096B71DD52F6819B16635EADF63F509AF53FA164
310
5DDCD1EDDD17164090FCC8732078B56691CB33A85CD7DCC40F504B0304140006080800CC70623B55019EA25F0000007C00000007000000636E782E786D6C4DCB3B0E80201045D1AD90E915ED2CF8AC45050C11660C8261F98AB1B07AC9C97D42D718D865D3E909258CFD00CCE24AC6E326A164D74DC0B4128928FF32603847
310
2BA13128B1252AC747C6BAB984FC68F0B87FE8960A5C09FE86CFB69FBA01504B0304140006080800CC70623BDBABAAF470010000D40300000C0000006662782F636F72652E786D6CC553D16E823014FD95A6AF4B694182CC941A83FA05FB810A9511A125A5257EFE2E82712ECEB8A7F100CD39F7F69E734AF9FADC366850B6
310
AF8DCE7018308C942E4C59EB2AC3DE1D498AD15A706B8CFB56869196ADCAF00863C12B6B7C374385D14E6907A836A59A41D9F7CA615434B0C8705F7CAA5606D23BA8E84F41278B93AC54100640439DE0BDB320004D43C63716C7C399D30917DCFBBA9CD9BA8469F5B156168B24CED3F7248AC8769F27244EB73B92EED8862C
310
B7F13E0C179B3C8F979C8ECD82BBBABDAA2BAC924E9558448CBD9330242CFA08E3154B5651FCC6D215639C8EE5774DBE2B5F6CF2B5768B68963BB5F5588420E442FC700B1139D4CB01F450C1E918227C2E09DF070D8140C84E1E9AAB8F1340832A9CB13130A5F1376A908D57309505ECF2A0DF179C4E9D30F5B239B87E3823
310
7A79C6F31DE1A8A5AEC08474B03C7837EAE4938639B44E5932B833D2C6B6B279CDC613877FA26EE21F4A2A4C63EC7F29A2F301D1F9F7A0E37D145F504B0304140006080800CC70623B9C113CC27E0000009D0000000B0000006662782F636E782E786D6C4DCCDF0A83201C86E15B91DFB94BFB330DD428C8FB886521330DA7
310
6397BF1A1DECE883878F57749FCDA1B7892F1BBC047A23808C7F84D9FA55424E0BE6803A256208E9EF06C84F9B91703228B1C690F78B66B34CD9A5439DF5CF0BFBF65E35BCA1B8D6A5C6F540381E886698B5741C695F9503EBA150A2F8958E3DC3EA0B504B0304140006080800CC70623B7DF2F77C2A010000120200003100
310
00006662782F41393633353835312D344632462D344230382D423046372D3739314545314133324237412F636F72652E786D6C8D51DB8EC22014FC15C2939B0D2DB4B45643319AE817EC0F6041255A68B86CFCFC856D4D76DF7CE190393373060EDB3DC707F856CE6B6B7A480A0C81328395DA5C7B18C3057510EC3873D686
310
3F34088C18550F330C39BB3A1BA7051AAC09CA84841A2BD5020AEF55806078A44B0FFD7053A328440C89E1EFC52486BBB8AA8214A99D789CF9E05200300FC927E4FB4D5B375D43103D5527440FB843077C5AA3F5861C8F645F5787F59E95B390B318B55CE45AA638FAA2957BD7248B390B7A7CC51F9C124149C82B8C378810
310
84AB2F42B7B8DD56F413775B8C5999E9FF4471926F8AA236A1AE96B8B3CC434E5839373893369E1FAF30EA395917409EB7F26AF8801C171837A4A6AC9C89E9F9C9B1A58BA30FD6A5EF5DDDCF894B9AD9B6A59C957943A9FCAE2FD5BC4DFE03504B0304140006080800CC70623BAD7543B64E01000033030000300000006662
310
782F41393633353835312D344632462D344230382D423046372D3739314545314133324237412F636E782E786D6CD593CD6EC32010845F0571AD6CE3D48AD20813A9873E410FBD12D82434182C7EAAE6EDBB2424CD25871E7B41D6EC30B3FA84F9E67BB2E40B4234DE8DB46F1925E094D7C6ED479AD3AE5951B2113C789FEE
310
6C943839C1488B4C05DF079FE72A69D8C96C13AAD6B8631503449F83828872B949AC57D26200B826A308D316B4064D6E46FCDA41C05550DC9E483A00797BFD207EFB092A45DE9514C1BBD22178396BD39D891265658C238DEA00936C654E5E433CB65A26D9F6EDB5EBC14EBF49A45CB856E66048291F6939A9A81BB5C89177
310
38143CA680F4AA299D66A042CEB3354A2684DC9D8D178FE0D9B8B41CAAD720F880EE7EF93C0C18769E099ECC04D5A102C8049A8A05632F4DDF376CF1DE0F6BB65C2F8627B65A33C6BB62177CEBBDAD973006829F89F22E814B54F4BC2BE347F8AA8F681390B50FA73F804400B5F542E796F19FF974E7F78DB802FE05E20750
310
4B0304140006080800CC70623BE75B7789680500003C100000340000006662782F41393633353835312D344632462D344230382D423046372D3739314545314133324237412F6F626A656374732E786D6CAD575B8F9B3818FD2B887D06C22499CB8AA1CA655245D5B455A356FB305264C061D8018C6C3393D95FBFC7600890
310
A4CD5EF210B0B1BFEBF98E3F7B1FF6596ABC522E1296DF9BAE3D320D9A872C4AF2F8DE2CE5CEBA358D0FBEC719939D65A691938CDE9B6ADAF4BD98B3B2D05311DD91329583D9D5FC0F438434A7A611A644887B5384CF34233629258BA878B12322891DEFF6B66BD70BFB62634E8AE781D082709A4B588AF91C528CDA28B73F
310
1C998EEF39EABBEFA97FBD6A7C7E9553F9D3D79FE442923C3C523610337627CB87ABE99D359D4CC6D6E4FACAB5E6ABF9D2726FC6A3C5F56271377BB88362213924694B38DD99FE47C48627A1E7D49F5A8BB5E1A74C0A599ED3B0F21F1E56366B89112D681E218F0915D0D6F17AD41FBA2A369DCF6335D62ABBD39779D5DDD1
310
11D4D8DE3CBB96B2E04FB8202E41051754A1AA8E8F76B4C6DFE810B580B1547F4B84911149794252234D024EF8BBE963A95AE27B3D310A9D5C215C7960FAEE415ED75694C6AFB17BCACA5D99A60A9AA65F217B0BFC53292ACB92BF283FAD0D3621576592CB5BED907C2FA8E9DF794E35E97BEA31BED21FEB401ABB94C44839
310
DCACBF0E1C5DA8DA5B2F4DFFD32AD86F543D9E565E7056502E157C00AD2671CD534549AB752FCA9CDA00677A313F04E51B22FF19E57B300579E3C97EB29F682D92935CEC18CF901B7B54FD8C51F362B56FC72FE0B3C1EAE335EDCCBF5AEC39ADB17DC238973F804BA5E6F6BFE7AF1FB32E523BE9F3BD571418E3631DCA4D48
310
5250CF639223210A9446CA30052EDF057BD35F8329C1ECD84552BF0DC8D18BE7BCE23BFE6BD960AB4A7DE79923A103BEBD80F911CBAA2C60DB19B01CF164A5583B772EE6D3FFA56666CBCDA74DC97724A48F9A58967497E489C4D979006FD7A05E227A1EBDD0F737C623387A9C844D3709995625106D157315F8B8392CD4E0
310
A0B9A720C4BE9829CEF37EA1E13111214D53925356365ADA634861B52519DD27A00AEB808EAF0628E6F435519D446F45CF2C9CF5214F0A15B2F6D06B79DA3EE3CBF7F56780D2F4E7EF73A0F5E5B02A38D07DC852C6B7C1FBB6664213E0C39E3EBA7FF4E1AD23EA2829407C85E586727488B751B2DB9502BC7B228A3FD68B6E
310
A65A22397E690AA8D158D7E404EC8CDA235CC3B7D1898680131CEC2CDF2638C65196279577750F15884AEE19F94199155B92B13297978469D4F8D358DF0AEF7631E28DC8F0D9F437D5D39A83B2231A1D52D543813A824EF8D44BCFF2FA6A31BD1E8DAD87F1CCB526B3879935BF59CDADD5C37479BB1CDD4CA7B3556B516589
310
EF352754B706114D9C885EC9131DE6EFEB43D99AFE2391C2F958179413D7CFEF6B1B6DB1E7600F00DE6E5C67454A339A4BA2E0FBA85ED26F045D454F463DBFCE484C2F90F2E5E3666003662ED8F755951A7D1BECD5B30B550B2785C8E7320B7292A4838DDA71BBC863ED7613CAF659337A3354231D4FF4A182A54904C2898C
310
98B28C4AD0CE056CCF332A80986E571EE9DBC305BB5FEB7E509220A58D25CF042D712A806AC0AD0C657FDEF80D2D9CEAA2EE4D1C76F60BFE74219A06527D6F82DF6412526107381E55E353090704D085B52408A8913C4ED159D79BDA71BB4BC506F4831350EB6F975CD22D69BF7AC49B91A2C0A9DDA3D5CA36AD20FC478E37
310
E61844E2352865EBCB61A275A65283CAAA9DD27703B4102F5AF51EF5F573B75CBB5AD38BC845F7A49F82A0966A49C2E3EA5EA0ECD326CD965F1DB402C6FA8B51A4658C5C5E2EC9E214602E55810345408596591009A82E7E7FFACA19EEA299B14A0081A705CB3296EBC14CDF658DCD336EA6D1136881AAEB87B81AB9EE53D5
310
F5EB8BC8362082DA24122F98680A4E7930C01A0079749CEA14382A0783E5EBA5A10F8C098456A03D6A4AEB6BB881E2513747552A5DB22C7EDAF83BD5528081A365F7FF06504B0304140006080000CC70623B000000000000000000000000350000006662782F41393633353835312D344632462D344230382D423046372D37
310
39314545314133324237412F76657274696365732E62696E504B0304140006080800CC70623BF270F1330600000004000000360000006662782F41393633353835312D344632462D344230382D423046372D3739314545314133324237412F747269616E676C65732E62696E636660600000504B0304140006080000CC7062
310
3B000000000000000000000000370000006662782F41393633353835312D344632462D344230382D423046372D3739314545314133324237412F617474726962757465732E62696E504B0304140006080800CC70623B08DA0BD19000000041010000360000006662782F41393633353835312D344632462D344230382D4230
310
46372D3739314545314133324237412F6469726563746F72792E786D6C858F410AC3201045AF22B36F53E9A60B35CBEEBAE80D244E44489C6234F4F835464A48035D0DF398FF9F8AF63D0E6CC63039F212F8F9020C7D47C6792B21C5FE7403D62A1188E2E60C98D7234A5830286103A55745067B9D86B8A3CF9C7F90C11DE6
310
07FB144396D7B6A82D282E9A152AD114D5EF2CB866EEE831B8EEA07A7BB5A8D7D61A2BAAEB7FD5F70921FF497D00504B0304140006080800CC70623BEDD1DC58FD000000A00100003B0000006662782F41393633353835312D344632462D344230382D423046372D3739314545314133324237412F7265736F75726365732F
310
636F72652E786D6C8D504B6E833010BD0A9A6D65B00922041947112427E8052C33A156828DFCA97AFC9A40A576D7CDCCE87D344F8F9FBFE667F689CE6B6B3A6039850C8DB2A336530731DC4903D95970676DF82583CCC8193B5861107C72362E3BA4AC096842428D1D7107A5F7182053CF7474E0D507CE32973124857FE48B
310
540F3961CEF244279DE03EB81420DB9EAC1384436FA353E879B1B182C7A8C75DA3C7F453DF353A1075D537A7BA6464B8F535A99AE14A9A2BBD90E350DD183B5CFABE3AF262350B1EF4FC9351399401471025A527C218A1E53BAB5A5AB765F5469B96525EACF23FA6B88CFF34456DC2A1DCE36E360F82A5202F42F062ED2BAD
310
579969AFDD8A6F504B010214000A0000080000CC70623B3DEE336E79000000790000001B00000000000000000000000000000000006175746F6465736B2D64657369676E2D7061636B6167652E786D6C504B01021400140006080800CC70623BD486FD9CA0000000F40000001300000000000000000000000000B20000005B
310
436F6E74656E745F54797065735D2E786D6C504B01021400140006080800CC70623B853B8169EB0000007C010000080000000000000000000000000083010000636F72652E786D6C504B01021400140006080800CC70623B55019EA25F0000007C000000070000000000000000000000000094020000636E782E786D6C504B
310
01021400140006080800CC70623BDBABAAF470010000D40300000C00000000000000000000000000180300006662782F636F72652E786D6C504B01021400140006080800CC70623B9C113CC27E0000009D0000000B00000000000000000000000000B20400006662782F636E782E786D6C504B01021400140006080800CC70
310
623B7DF2F77C2A010000120200003100000000000000000000000000590500006662782F41393633353835312D344632462D344230382D423046372D3739314545314133324237412F636F72652E786D6C504B01021400140006080800CC70623BAD7543B64E010000330300003000000000000000000000000000D2060000
310
6662782F41393633353835312D344632462D344230382D423046372D3739314545314133324237412F636E782E786D6C504B01021400140006080800CC70623BE75B7789680500003C10000034000000000000000000000000006E0800006662782F41393633353835312D344632462D344230382D423046372D3739314545
310
314133324237412F6F626A656374732E786D6C504B01021400140006080000CC70623B0000000000000000000000003500000000000000000000000000280E00006662782F41393633353835312D344632462D344230382D423046372D3739314545314133324237412F76657274696365732E62696E504B01021400140006
310
080800CC70623BF270F133060000000400000036000000000000000000000000007B0E00006662782F41393633353835312D344632462D344230382D423046372D3739314545314133324237412F747269616E676C65732E62696E504B01021400140006080000CC70623B0000000000000000000000003700000000000000
310
000000000000D50E00006662782F41393633353835312D344632462D344230382D423046372D3739314545314133324237412F617474726962757465732E62696E504B01021400140006080800CC70623B08DA0BD1900000004101000036000000000000000000000000002A0F00006662782F41393633353835312D344632
310
462D344230382D423046372D3739314545314133324237412F6469726563746F72792E786D6C504B01021400140006080800CC70623BEDD1DC58FD000000A00100003B000000000000000000000000000E1000006662782F41393633353835312D344632462D344230382D423046372D3739314545314133324237412F7265
310
736F75726365732F636F72652E786D6C504B0506000000000E000E0080040000641100000000
  0
XRECORD
  5
4422
102
{ACAD_REACTORS
330
1F7
102
}
330
1F7
100
AcDbXrecord
280
     1
102
MATERIAL
148
0.0
149
0.0
149
0.0
 93
        0
 94
       63
282
     0
 72
     1
 77
     1
171
     1
175
     1
179
     1
273
     0
  0
XRECORD
  5
1F8
102
{ACAD_REACTORS
330
1F7
102
}
330
1F7
100
AcDbXrecord
280
     1
 70
     1
 90
429727718
  1
30362254-06B7-45E0-A893-8CFA70E3D6BC
310
504B03040A0000080000CC70623B3DEE336E79000000790000001B0000006175746F6465736B2D64657369676E2D7061636B6167652E786D6C3C3F786D6C2076657273696F6E3D22312E302220656E636F64696E673D227574662D3822203F3E3C666F726D6174733E3C666F726D61743E687474703A2F2F736368656D612E
310
6175746F6465736B2E636F6D2F64657369676E2D7061636B6167652F323030393C2F666F726D61743E3C2F666F726D6174733E504B0304140006080800CC70623BD486FD9CA0000000F4000000130000005B436F6E74656E745F54797065735D2E786D6C7D8EC10E82300C865F65E91D8A1E8C310C0EEA1BF002731658846E
310
D98AC1B77784ABF1D8FE5FBFBF75BBCE937A534CCEB38643598122B6FEE978D0B0485F9C41B54DDD7D022595594E1A469170414C76A4D9A4D207E29CF43ECE46F218070CC6BECC4078ACAA135ACF422C856C0E68EA1BF5669944DDD7BCDE7B1F8E415D77AECB980613C2E4AC91FC167A2B244592486606FC29C8FD7F045B9A
310
EF7053A7E60B504B0304140006080800CC70623B1EC5D7A3EB0000007C01000008000000636F72652E786D6C8D90416EC3201045AF82665B6103C6756C6122AB4D4ED00B204C5C94182C03558F5F9C3852BBEB6A467FFE9B197D71FC9E6FE8CBACC17AD7032D0820E3B41FAD9B7A48F1820F808E52ACDEC75F36404ECDA687
310
4D0629A6D5A76597B477D1B89855E747B38B2A041301E95B6E7A08FAD3CCAA50296647B8168BD2573599823EBB0CA76447F43862C7BCCF5EAC59410E4DDD9C7973C2755553CCCFA4C603E3040F1565ED3B1FDE4E432BCA0D9622DAF9795FAF464533826484B498524CD807E51D79ED187F21878E10516EF63F505AC67F42C9
310
BA58B1FDDD071640D2FCC87D2045B96591CB3DA85CB7DCE40F504B0304140006080800CC70623B55019EA25F0000007C00000007000000636E782E786D6C4DCB3B0E80201045D1AD90E915ED2CF8AC45050C11660C8261F98AB1B07AC9C97D42D718D865D3E909258CFD00CCE24AC6E326A164D74DC0B4128928FF32603847
310
2BA13128B1252AC747C6BAB984FC68F0B87FE8960A5C09FE86CFB69FBA01504B0304140006080800CC70623B8C9102E971010000D40300000C0000006662782F636F72652E786D6CC5535B6E833010BC8AE5DF0A6C08340F1947A84D4ED00B38C6A128602363A31CBFCB234A53A551FA553EC09AD9F5CE8C31DB9E9B1AF5CA
310
7695D1198E428A91D2D214952E33ECDD315861B4E5CC1AE3BE9561A445A3323CC098B3D21ADFCE9034DA29ED00D5A6503328BA4E398C640D8B0C77F253352214DE4145770A5B214FA2546114020D759C75CE8200340D19DE981F0F6746269C33EFAB6266AB02A655C74A59CCF365BADC27CB5D902ED22848F6340DF238A141
310
BE88E2F57B92BFEDF23523433367AE6A2EEAA455C2A902F398D2751045018D3FA264435F3771F242571B4A1919CA6F9A7C5B3CD9E42BED16F12C776AEB308F40C848FC700B1139D4891EF410CEC810227CC6846F8386402064270EF5C5C709A05E49676C024C61FC95EA45ED154CA5211D1FF4FB8291A913A68E9B83EBBB33
310
E2A7673CDE118E5AE8124C0807CB8377834E366998436B950D7A7746DAD846D4CFD978E0F04FD455FC5D49D2D4C6FE9722321F10997F0F32DC47FE05504B0304140006080800CC70623BFFEA85907E0000009D0000000B0000006662782F636E782E786D6C4DCCD10A83201886E15B91FFDC95D95A811AB6F23E625948A6C3
310
E9D8E5AF46073BFAE0E1E365ED67B3E8ADC3CB78C7815C7240DA3DFC64DCC221C519D7805AC182F7F1EF06C88D9BE6703008B6049F9E274D7A1E938DBB5AE3D6131B2589BA0D3D965551E0B2EA732C9B9A624AAEB41E3A557677029960D9AFB4EF11165F504B0304140006080800CC70623B4FEEA4082C0100001202000031
310
0000006662782F39464131463745442D413632322D343644302D413938332D3331353338454246344243312F636F72652E786D6C8D515B6EC32010BC0AE2AB55850DD871ED0813254D72825EC00192A2C460F1A872FC42ED48ED5F7E00CDCECCCEB26C731F6FE05B39AFADE921293004CA082BB5B9F43086336A21D870E6AC
310
0D7F68109861543DCC30E4ECE26C9C164858139409093556AA051CBC570102714B8F1E7AF1A5C6A11862480C7F2DA6415C878B2A4891CA89C7990F2E050073937C42DE1DB7E4F87ED8A36D4329AA9B3D46DBAEAD504556557BD81DEBDD0761E52CE42C462D17B996298E3E6BE59E35C962CE821E1FF18553435012728A7187
310
0841987E927A8D9B35ADDF70BBC6989599FE4F1427F9A4286A132ABAC49D651EF234CD5CE04CDA78BA3DC2A8FB645D00B9DF8B57E215725C60BCA2A463E54C4CE327C7A65E1C7DB02E7DEFCBF594B864C5CA6CDBD49C957943E9FA5D5FBAF336F90F504B0304140006080800CC70623BAD7543B64E01000033030000300000
310
006662782F39464131463745442D413632322D343644302D413938332D3331353338454246344243312F636E782E786D6CD593CD6EC32010845F0571AD6CE3D48AD20813A9873E410FBD12D82434182C7EAAE6EDBB2424CD25871E7B41D6EC30B3FA84F9E67BB2E40B4234DE8DB46F1925E094D7C6ED479AD3AE5951B2113C
310
789FEE6C943839C1488B4C05DF079FE72A69D8C96C13AAD6B8631503449F83828872B949AC57D26200B826A308D316B4064D6E46FCDA41C05550DC9E483A00797BFD207EFB092A45DE9514C1BBD22178396BD39D891265658C238DEA00936C654E5E433CB65A26D9F6EDB5EBC14EBF49A45CB856E66048291F6939A9A81BB5
310
C8917738143CA680F4AA299D66A042CEB3354A2684DC9D8D178FE0D9B8B41CAAD720F880EE7EF93C0C18769E099ECC04D5A102C8049A8A05632F4DDF376CF1DE0F6BB65C2F8627B65A33C6BB62177CEBBDAD973006829F89F22E814B54F4BC2BE347F8AA8F681390B50FA73F804400B5F542E796F19FF974E7F78DB802FE05
310
E207504B0304140006080800CC70623B16AB87BA640500003C100000340000006662782F39464131463745442D413632322D343644302D413938332D3331353338454246344243312F6F626A656374732E786D6CAD575B6FA33818FD2B887DE6924B3BED8A326A92B68A663B534DD4D13E548A0C38942D60649B369D5FBFC7
310
600890A493BDE42160637FD7F31D7FF63E6FB3D478A55C242CBF3247B66B1A340F5994E4F19559CA8D75611A9F7D8F33263BCB4C232719BD32D5B4E97B316765A1A722BA21652A07B3B7B33F0D11D29C9A46981221AE4C113ED38CD8A4942CA2E2C58E882476BCD9DA23BB5ED8171B73523C0F841684D35CC252CCE79062D4
310
468DFA43D7747CCF51DF7D4FFDEB5593E3AB9CCA9FBEFE241792E4E19EB28198C968BAB8199F5D5A67D3E9C49A9E8F47D6EC76B6B0469F26EEFC7C3EBFBCBEB98462213924694B38DD98FE1D62C393D073EA4FADC5DAF04326852CCF6958F90F0F2B9BB5C48816348F90C7840A68EB78EDF68723159BCEE7891A6B95DDE9D3
310
BCEAEEE8086A6C6F9E5D4B59F0175C10A7A0820BAA5055C7473B5AE3CFDD452D602CD5DF12616444529E90D448938013FE6EFA58AA96F85E4F8C42275708571E98FE6827AF6B2B4AE3D7D83D64E5A64C53054DD3AF90BD06FEA9149565C94FCA0F6B834DC85599E4F2423B24DF0B6AFA979E534DFA9E7A4CC6FA631D486393
310
921829879BF5D781A373557BCB85E97FB90DB62B558F8795179C15944B051F40AB495CF35451D26A4727654E6D8033BD98EF82F21D91FF8AF2DD9982BCF1643BDD4EB516C9492E368C67C88DED563FC36D5EACF66DFF057C3658BDBFA69DF9578B3DA735B64F18C7F20770A9D45CFCF7FCF563D6456A277DBEF78A02637CA2
310
43B90A490AEAB94F72244481D24819A6C0E59B606BFA4B3025981DBB48EAB701D97BF19C577CC77F2D1B6C55A9EF3C732474C0B727303F625995056C3B02963D9EAC146BE78EC5FCEC7FA999EBC5EACBAAE41B12D27B4D2C0BBA49F244E2ECDC81B76B502F113D8F5EE8FB1BE3111CDD4FC2AA9B844CAB1288B68AB90A7CDC
310
1C166AB0D3DC5310625FCC14E779BFD0709F8890A629C9292B1B2DED31A4B0DA928CEE135085754027E3018A397D4D5427D15BD1330B677DC8934285AC3DF45A9EB68FF8F2B8FC0A509AFEECFD0FF2DE25CC6047F7214B195F07EFEB9A094D800F7BFAE8FED187B78EA8A3A400F115961BCAD1215E47C966530AF0EE8128FE
310
58CEBB996A8964FFA529A046635D9353B0336A8F700DDF46271A024E70B0B37C9DE01847591E54DED53D54202AB947E4076556AC49C6CA5C9E1226B7F1A7B1BE15DEED62C41B91E1B3E9AFAAA735036547343A925075041DF0A9979E893B391F8FCFA6967B3EFB644DCF6E5CEBFAE272625DCC6FAF3FB93793C5F90CE1EF57
310
407342756B10D1C489E8953CD1617E5CEECAD6F4EF8914CE5D5D504E5C3F1F9736DA62CFC11E00BCDDB8CC8A9466349744C1F75EBDA4DF09BA8A9E8C7A7E9991989E20E5DBDD6A6003664ED8F7A04A8DBE0DF6EAD9B9AA858342E47399053949D2C146EDB85DE4B176BB0965FBAC19BD19AA918E27FA50C1D22402E144464C
310
59462568E704B6E71915404CB72B8FF4EDE184DDAF753F284990D2C6926782963815403548A70C657FDEF80D2D9CEAA2AE4C1C76F60BFE74219A06527D6582DF6412526107381E55E353090704D085B52408D0933C4ED159D79BDA71BB4BC506F4831350EB6F979CD22D69BF7AC49B91A2C0A9DDA3D5CA36AD20FC478E37E6
310
1844E2352865EBCB6EA275A652E3836BE04EFB400BF1A2556F515F1FBB35B2AB35BD889C744FFA1004B5544B121E57F70215746DD2F5E2C1412B602CBF19455AC6C8E5E9922C4E01E65215385004546899059180EAFCF7A707CE7017CD8CDB0410789AB32C63B91E5CEBBBACB17AC6CD347A022D5075FD106377347AAABA7E
310
7D11590744509B44E205134DC1290F06580320F78E537D3D73540E06CB970B431F185308AD40BBD794D6D77003C5A36E8EAA54BA64597CD8F83BD552A080A365F7FF06504B0304140006080000CC70623B000000000000000000000000350000006662782F39464131463745442D413632322D343644302D413938332D3331
310
353338454246344243312F76657274696365732E62696E504B0304140006080800CC70623BF270F1330600000004000000360000006662782F39464131463745442D413632322D343644302D413938332D3331353338454246344243312F747269616E676C65732E62696E636660600000504B0304140006080000CC70623B
310
000000000000000000000000370000006662782F39464131463745442D413632322D343644302D413938332D3331353338454246344243312F617474726962757465732E62696E504B0304140006080800CC70623B08DA0BD19000000041010000360000006662782F39464131463745442D413632322D343644302D413938
310
332D3331353338454246344243312F6469726563746F72792E786D6C858F410AC3201045AF22B36F53E9A60B35CBEEBAE80D244E44489C6234F4F835464A48035D0DF398FF9F8AF63D0E6CC63039F212F8F9020C7D47C6792B21C5FE7403D62A1188E2E60C98D7234A5830286103A55745067B9D86B8A3CF9C7F90C11DE607
310
FB144396D7B6A82D282E9A152AD114D5EF2CB866EEE831B8EEA07A7BB5A8D7D61A2BAAEB7FD5F70921FF497D00504B0304140006080800CC70623B0D6EF93BFE000000A00100003B0000006662782F39464131463745442D413632322D343644302D413938332D3331353338454246344243312F7265736F75726365732F63
310
6F72652E786D6C8D50596E833010BD0A9ADFCA60B334011947A8694ED00B586642AC041B79A97AFC9A40A5F6AF3F33A3B7689E1E3F7DCD8FEC139DD7D6F4C0720A191A65476DA61E62B892236427C19DB5E1970C322367EC618541F0C9D9B8EC90B226A009093576C41D94DE63804C3DD2D18357379C652E63480A7FCF17A9
310
EE72C29CE5894E3AC17D702940B63D59270887DE46A7D0F36263058F518FBB468FE9A7BE6A7420864373B8D4873369AA8691FA421B3294352543C5CAF65C0F6FEF43CB8BD52C78D0F34F46E550061C419494B6843142CB0F5677F4B52BEB177AEC28E5C52AFF638ACBF84F53D42654E51E77B379102C05791282176B5F693D
310
CB4C7BED567C03504B010214000A0000080000CC70623B3DEE336E79000000790000001B00000000000000000000000000000000006175746F6465736B2D64657369676E2D7061636B6167652E786D6C504B01021400140006080800CC70623BD486FD9CA0000000F40000001300000000000000000000000000B20000005B
310
436F6E74656E745F54797065735D2E786D6C504B01021400140006080800CC70623B1EC5D7A3EB0000007C010000080000000000000000000000000083010000636F72652E786D6C504B01021400140006080800CC70623B55019EA25F0000007C000000070000000000000000000000000094020000636E782E786D6C504B
310
01021400140006080800CC70623B8C9102E971010000D40300000C00000000000000000000000000180300006662782F636F72652E786D6C504B01021400140006080800CC70623BFFEA85907E0000009D0000000B00000000000000000000000000B30400006662782F636E782E786D6C504B01021400140006080800CC70
310
623B4FEEA4082C0100001202000031000000000000000000000000005A0500006662782F39464131463745442D413632322D343644302D413938332D3331353338454246344243312F636F72652E786D6C504B01021400140006080800CC70623BAD7543B64E010000330300003000000000000000000000000000D5060000
310
6662782F39464131463745442D413632322D343644302D413938332D3331353338454246344243312F636E782E786D6C504B01021400140006080800CC70623B16AB87BA640500003C1000003400000000000000000000000000710800006662782F39464131463745442D413632322D343644302D413938332D3331353338
310
454246344243312F6F626A656374732E786D6C504B01021400140006080000CC70623B0000000000000000000000003500000000000000000000000000270E00006662782F39464131463745442D413632322D343644302D413938332D3331353338454246344243312F76657274696365732E62696E504B01021400140006
310
080800CC70623BF270F133060000000400000036000000000000000000000000007A0E00006662782F39464131463745442D413632322D343644302D413938332D3331353338454246344243312F747269616E676C65732E62696E504B01021400140006080000CC70623B0000000000000000000000003700000000000000
310
000000000000D40E00006662782F39464131463745442D413632322D343644302D413938332D3331353338454246344243312F617474726962757465732E62696E504B01021400140006080800CC70623B08DA0BD190000000410100003600000000000000000000000000290F00006662782F39464131463745442D413632
310
322D343644302D413938332D3331353338454246344243312F6469726563746F72792E786D6C504B01021400140006080800CC70623B0D6EF93BFE000000A00100003B000000000000000000000000000D1000006662782F39464131463745442D413632322D343644302D413938332D3331353338454246344243312F7265
310
736F75726365732F636F72652E786D6C504B0506000000000E000E0080040000641100000000
  0
XRECORD
  5
4424
102
{ACAD_REACTORS
330
173
102
}
330
173
100
AcDbXrecord
280
     1
102
MATERIAL
148
0.0
149
0.0
149
0.0
 93
        0
 94
       63
282
     0
 72
     1
 77
     1
171
     1
175
     1
179
     1
273
     0
  0
XRECORD
  5
175
102
{ACAD_REACTORS
330
173
102
}
330
173
100
AcDbXrecord
280
     1
270
     1
271
     1
  0
XRECORD
  5
174
102
{ACAD_REACTORS
330
173
102
}
330
173
100
AcDbXrecord
280
     1
270
     1
271
     1
  0
XRECORD
  5
1FB
102
{ACAD_REACTORS
330
173
102
}
330
173
100
AcDbXrecord
280
     1
 70
     0
 90
1673772943
  1
ECE7A1D2-D628-4531-984C-D00F80459256
310
504B03040A0000080000CC70623B3DEE336E79000000790000001B0000006175746F6465736B2D64657369676E2D7061636B6167652E786D6C3C3F786D6C2076657273696F6E3D22312E302220656E636F64696E673D227574662D3822203F3E3C666F726D6174733E3C666F726D61743E687474703A2F2F736368656D612E
310
6175746F6465736B2E636F6D2F64657369676E2D7061636B6167652F323030393C2F666F726D61743E3C2F666F726D6174733E504B0304140006080800CC70623BD486FD9CA0000000F4000000130000005B436F6E74656E745F54797065735D2E786D6C7D8EC10E82300C865F65E91D8A1E8C310C0EEA1BF002731658846E
310
D98AC1B77784ABF1D8FE5FBFBF75BBCE937A534CCEB38643598122B6FEE978D0B0485F9C41B54DDD7D022595594E1A469170414C76A4D9A4D207E29CF43ECE46F218070CC6BECC4078ACAA135ACF422C856C0E68EA1BF5669944DDD7BCDE7B1F8E415D77AECB980613C2E4AC91FC167A2B244592486606FC29C8FD7F045B9A
310
EF7053A7E60B504B0304140006080800CC70623BD9DDAED0EC0000007C01000008000000636F72652E786D6C8D90416EC3201045AF82665B61836D9CD8C2444DD39CA01740405C94182C03558F5F9C3852BBEB6A467FFE9B197D7EF89E6EE8CB2CC17A37002D0820E394D7D68D03A478C17B4007C117EFE32F1B20272733C0
310
2A83E0E3E2D3BC49CABB685CCCAAF3DA6CA20CC14440EA969B0182FA34932C648AD911AEC52CD5558EA6A0CF2EC329598D1E47ACCEFBECC59A050463A7EA5833865FEBDD0E37353BE3EE8DBDE3F6786A48D375FBF6CC78B9C282473B3DEFABC5C86834888A900E538A49F5419B9EB47DD5BC907D4F082F57FB1F28CDFA9F50
310
B22ED6D5F6EE030B20687EE43E10BC5CB3C8E51E54AE6B6EE207504B0304140006080800CC70623B55019EA25F0000007C00000007000000636E782E786D6C4DCB3B0E80201045D1AD90E915ED2CF8AC45050C11660C8261F98AB1B07AC9C97D42D718D865D3E909258CFD00CCE24AC6E326A164D74DC0B4128928FF326038
310
472BA13128B1252AC747C6BAB984FC68F0B87FE8960A5C09FE86CFB69FBA01504B0304140006080800CC70623BA24EB22D72010000D40300000C0000006662782F636F72652E786D6CC5535B6E833010BC8AE5DF0A6C5E49888CA3A6694ED00B38E05014B091B1518EDFE511A5A9D228FD2A1F60CDEC7A67C6986DCE4D8D7A
310
69BA4AAB0C073EC548AA5C17952A33ECECD15B61B4E1CC686DBF9561A44423333CC098B3D268D7CE50AE9595CA02AA74216750749DB418E5352C32DCE59FB211BE70162ABA93DF8AFC244AE9073ED050C759670D0840D390E18DF9F1706664C23973AE2A66B62A605A75ACA4C13C4976E1364A12EF355A2EBD384AF65EFA96
310
BC7B8BED2EA6719AAE16FB8491A199335B351775B991C2CA02F390D2D40B028F861F41BCA68B7518BFD0D59A524686F29B26D7164F36B94AD9289CE54E6D1DE6010819891F6E21228B3AD1831EC219194284CF98F06DD01008846CC5A1BEF83801D4CBDC6A1303536877A57A513B0953A94FC707FDBE6064EA84A9E3E6E0FA
310
EE8CF0E9198F7784A316AA0413C2C2F2E0ECA0934D1AE6D05A69BCDE9E91D2A611F573361E38FC1375157F5752AE6B6DFE4B11990F88CCBF0719EE23FF02504B0304140006080800CC70623B408A7D3B7C0000009D0000000B0000006662782F636E782E786D6C4DCCD10A83201886E15B91FFDC552A92A0064DBC8F581632
310
D3703A76F9ABD1C18E3E78F878E5F0D9027ABBFCF2292AE86E2D20171F69F6715550CB827B40839639A5F2770314A7CD293819B45C73AAFB45B35BA61ACAA1C1C7E7855C58C15BC331339661262CC762340413D68D77DA5B42298546CBE6573AF60CEB2F504B0304140006080800CC70623B449FB9BD290100001202000031
310
0000006662782F36394639363044362D344446342D343946362D394244322D3234314243333846323333332F636F72652E786D6C8D515B6EC32010BC0AE22B55850D98B871848994463E412FE002495162B07854397EA176A4F62F3F2C9A9D991D587EB84F37F0AD7D30CEF6905418026DA553C65E7A98E219ED203808EE9D
310
8B7F6810D871D23D2C3014FCE25D9A57483A1BB58D19B54EE9151C43D0110279CB971E06F9A5A7B11A53CC8C70ADE6515EC78BAE4895DB992778883E0700CB907242D17643D7E2538BD869608875438BBAE38922CAC8F1BDD90DB4691A5E2F42C153326A951B95E398B3D1FE599322163C9AE9115F7A3D46ADA0A018778810
310
84E907617BDCEE297BC5BB3DC6BC2EF47FA234AB2745C9D8D8D035EE220B50105E2F0DC1954B9FB747187D9F9D8FA0CCDB042D5FA0C015C65B42DF78BD10F3F3B363CB56C7109DCFDFBBB97E662ED92EB62D13BC2E1BCAE5777DB9966D8A1F504B0304140006080800CC70623BAD7543B64E01000033030000300000006662
310
782F36394639363044362D344446342D343946362D394244322D3234314243333846323333332F636E782E786D6CD593CD6EC32010845F0571AD6CE3D48AD20813A9873E410FBD12D82434182C7EAAE6EDBB2424CD25871E7B41D6EC30B3FA84F9E67BB2E40B4234DE8DB46F1925E094D7C6ED479AD3AE5951B2113C789FEE
310
6C943839C1488B4C05DF079FE72A69D8C96C13AAD6B8631503449F83828872B949AC57D26200B826A308D316B4064D6E46FCDA41C05550DC9E483A00797BFD207EFB092A45DE9514C1BBD22178396BD39D891265658C238DEA00936C654E5E433CB65A26D9F6EDB5EBC14EBF49A45CB856E66048291F6939A9A81BB5C89177
310
38143CA680F4AA299D66A042CEB3354A2684DC9D8D178FE0D9B8B41CAAD720F880EE7EF93C0C18769E099ECC04D5A102C8049A8A05632F4DDF376CF1DE0F6BB65C2F8627B65A33C6BB62177CEBBDAD973006829F89F22E814B54F4BC2BE347F8AA8F681390B50FA73F804400B5F542E796F19FF974E7F78DB802FE05E20750
310
4B0304140006080800CC70623B8D05915C650500003B100000340000006662782F36394639363044362D344446342D343946362D394244322D3234314243333846323333332F6F626A656374732E786D6CAD575B6FA33814FE2B887D06429276DA1565D4266D158D3A339A6846FB502932E050B66023DB74D2FDF5FB190C01
310
9276B2973C046C8ECFF53B17071F77456EBD502133CEAE6CDF9DD81665314F32965ED995DA3A17B6F5310C04E7AA47665B8C14F4CAD6DB7618A48257A5D94AE89654B91AEDDEDDFC61C998326A5B714EA4BCB265FC440BE2924AF184CA6737218AB8E976E7FA6E4338649B0A523E8D98964450A6A029F619B8588D52FE7039
310
B1BD30F0F4F730D0FF866AF6369557DB33949F31A9088B0F848DD8CCFCF9F2767A76E99CCDE733677E3EF59D9BBB9BA5E37F984D16E78BC5E5F5ED25044B25C0C96822E8D60EEFE11B91C581D77CEA34368A1F5329E68CD1B8B61F16D63A1B8E092D294B10C78C4A48EB593D192E7DED9BDEE7995E1B91FDEDD3ACEA9FE831
310
6A756F9F7D4D79F4274C90A7A04248AA51D5F8C718DAE06FB2F75AC4796EBE65D22A88A22223B995679120E2D50E41AA49C260C046A35368846B0BECD0DFF3EBEB8AD4F835768F69B9ADF25C43D30E6B646F807FAA64AD59F61715C7A54127C4AACA98BA3006A9D792DAE165E0D59B61A01FB3A9F9D838D2DAE62445C86166
310
F37564E842E7DE6A69879FEEA2DD5AE7E371E1A5E025154AC307D06A03D73EB5978C58FFA4C8E9033066E0F3BD53BEC1F39F91BE7B55103791EDE6BBB991A2046172CB4581D8B893FA674DDA17A77B3B7C413D1B511FD2743BFF8A38F03A658705E3ADF8015C3A3417FF3D7E439FF591DA0B5F18BC20C1B8981957AE6392A3
310
F43C640C01D1A0B4728E2DD4F26DB4B3C3152A252A3B4E913CEC1C72F012782FF88EFF8637AA552DBEF76408E8A8DE9E50F9E1CB3A2DA0DB1B6039A893B56063DC5B3E3FFB5F72E67AB9FEB4AEC496C4F4C1149625DD662C53E89D7BF0F6151A046260D1337DFDC94502430F83B0EE07A130A224BCAD7DAE1D9FB6CD422FF6
310
920702629C4BB9AE79C12F243C6432A6794E18E5552BA56B431AAB5D91317302B2B071E86C3A42B1A02F999E24061403B5D0EB639195DA655DD3EBEAB4FB862DDF579F014AD0E73C22F99E28DA57FB98E75C6CA2D74D53086D600F4786E0FE3144B771A8A7B900F03594DB8A633CBC49B2EDB69228BB479CF863B5E807AAAB
310
23872F6DFEB4129B949CA33823F58830E86D65621E10047D9DB34D862E8EAC3C2ABC2F7B2C40D67CDFE01F5545B92105AF983AC54D93D69E56FB8E797F88913F898A9FEC705D3F9D1B54EC8426FB500D40A03BD0119B06E1B95DDC7EB8F6975367793EBD70E66733DFB9BC982F9CE564727731999F5D4ECFCE3B8D6A4DC2A0
310
6D50FD148437D110834A64C6CDDF57FBACB5C307A2A477DFE4939736CFEF2B175371E0E10CF0DD1D5C15654E0BCA14D1E87DD02FF93782A162C0A3D95F1524A52770F972BF1EE9809D13CE7DD599467F8ECE9ADD85CE85A34CD45355448C64F9E8A031DC2D596ACC6E5DD93D9B82DE2EF5CAF81363A8E47996A0DE24564A79
310
4115AACE09C55E14540231FDA13C319787134EBF34E3A022514E5B4D9E0826E25C02D5805B15ABE1BEF51B26383D445DD9E875EE33FE4C22DA16427D65A3BCA92CA6D28DD01DF5DC53330704308475351050232CCD31583787BA75774AFB06E5070DD0C8EF484E19968C5D83BA5B90B244D31E54D55A372320FE4786B7EA58
310
44E135AA5467CB7EA333A61683CC6A8C3257034C10CF46F40EF9F5BE59BE5BD30C3C72D235E95D10345C1D45445A5F0BB47E46A5EBE5570F9380B5FA629579952296A773720405982B9DE04011506178964401AA8BDF1FBF0A8EAB6861DD6580C0E38217056766716DAEB2D6FA0917D3E4116581EADB879C4E7CFFB11EFACD
310
3D641311495D92C8676CB409A72D18610D803CE8A626049E8EC1887CB5B44CC39883690DDA8399B4B9855B481E7D71D4A9D22F96E5BB73BF5793020C02137BF837504B0304140006080000CC70623B000000000000000000000000350000006662782F36394639363044362D344446342D343946362D394244322D32343142
310
43333846323333332F76657274696365732E62696E504B0304140006080800CC70623BF270F1330600000004000000360000006662782F36394639363044362D344446342D343946362D394244322D3234314243333846323333332F747269616E676C65732E62696E636660600000504B0304140006080000CC70623B0000
310
00000000000000000000370000006662782F36394639363044362D344446342D343946362D394244322D3234314243333846323333332F617474726962757465732E62696E504B0304140006080800CC70623B08DA0BD19000000041010000360000006662782F36394639363044362D344446342D343946362D394244322D
310
3234314243333846323333332F6469726563746F72792E786D6C858F410AC3201045AF22B36F53E9A60B35CBEEBAE80D244E44489C6234F4F835464A48035D0DF398FF9F8AF63D0E6CC63039F212F8F9020C7D47C6792B21C5FE7403D62A1188E2E60C98D7234A5830286103A55745067B9D86B8A3CF9C7F90C11DE607FB14
310
4396D7B6A82D282E9A152AD114D5EF2CB866EEE831B8EEA07A7BB5A8D7D61A2BAAEB7FD5F70921FF497D00504B0304140006080800CC70623BCA768048FE000000A00100003B0000006662782F36394639363044362D344446342D343946362D394244322D3234314243333846323333332F7265736F75726365732F636F72
310
652E786D6C8D50596E833010BD0A9ADFCA60D600328E9AA639412F609909B1126CE4A5EAF16B0295DABFFECC8CDEA2797AECF8353F924FB44E193D409E5248504B332A3D0D10FC95B4901C39B3C6F85F3248B49871801506CE266BC2B243D2688FDA47549B11775038871E12F988C7004EDE7016A9083E2ADC3D5D84BC8B09
310
D33C8D74D471E6BC8D0192EDC93A815B742658898E651BCB59086ADC356A8C3FD555A1055ED7E7E254D615792D0F075295F585746FF53B694EE78A565DD736979A65AB9933AFE69F8CD2A2F038022F28ED489E135A7CE4554F9BBEA85E68DB53CAB255FEC71496F19FA6A0B42F8B3DEE6673C0F318E4497096AD7DC5F52C33
310
EEB55BFE0D504B010214000A0000080000CC70623B3DEE336E79000000790000001B00000000000000000000000000000000006175746F6465736B2D64657369676E2D7061636B6167652E786D6C504B01021400140006080800CC70623BD486FD9CA0000000F40000001300000000000000000000000000B20000005B436F
310
6E74656E745F54797065735D2E786D6C504B01021400140006080800CC70623BD9DDAED0EC0000007C010000080000000000000000000000000083010000636F72652E786D6C504B01021400140006080800CC70623B55019EA25F0000007C000000070000000000000000000000000095020000636E782E786D6C504B0102
310
1400140006080800CC70623BA24EB22D72010000D40300000C00000000000000000000000000190300006662782F636F72652E786D6C504B01021400140006080800CC70623B408A7D3B7C0000009D0000000B00000000000000000000000000B50400006662782F636E782E786D6C504B01021400140006080800CC70623B
310
449FB9BD290100001202000031000000000000000000000000005A0500006662782F36394639363044362D344446342D343946362D394244322D3234314243333846323333332F636F72652E786D6C504B01021400140006080800CC70623BAD7543B64E010000330300003000000000000000000000000000D20600006662
310
782F36394639363044362D344446342D343946362D394244322D3234314243333846323333332F636E782E786D6C504B01021400140006080800CC70623B8D05915C650500003B10000034000000000000000000000000006E0800006662782F36394639363044362D344446342D343946362D394244322D32343142433338
310
46323333332F6F626A656374732E786D6C504B01021400140006080000CC70623B0000000000000000000000003500000000000000000000000000250E00006662782F36394639363044362D344446342D343946362D394244322D3234314243333846323333332F76657274696365732E62696E504B010214001400060808
310
00CC70623BF270F13306000000040000003600000000000000000000000000780E00006662782F36394639363044362D344446342D343946362D394244322D3234314243333846323333332F747269616E676C65732E62696E504B01021400140006080000CC70623B00000000000000000000000037000000000000000000
310
00000000D20E00006662782F36394639363044362D344446342D343946362D394244322D3234314243333846323333332F617474726962757465732E62696E504B01021400140006080800CC70623B08DA0BD190000000410100003600000000000000000000000000270F00006662782F36394639363044362D344446342D
310
343946362D394244322D3234314243333846323333332F6469726563746F72792E786D6C504B01021400140006080800CC70623BCA768048FE000000A00100003B000000000000000000000000000B1000006662782F36394639363044362D344446342D343946362D394244322D3234314243333846323333332F7265736F
310
75726365732F636F72652E786D6C504B0506000000000E000E0080040000621100000000
  0
XRECORD
  5
176
102
{ACAD_REACTORS
330
173
102
}
330
173
100
AcDbXrecord
280
     1
270
     1
271
     1
  0
XRECORD
  5
177
102
{ACAD_REACTORS
330
173
102
}
330
173
100
AcDbXrecord
280
     1
270
     1
271
     1
  0
XRECORD
  5
4446
102
{ACAD_REACTORS
330
4445
102
}
330
4445
100
AcDbXrecord
280
     1
102
ACAD_ROUNDTRIP_2012_MLEADER_STYLE
298
     1
  0
XRECORD
  5
4458
102
{ACAD_REACTORS
330
4457
102
}
330
4457
100
AcDbXrecord
280
     1
102
DISPLAYNAME
  1
Metric50
102
FLAGS
 90
        0
  0
CELLSTYLEMAP
  5
4418
102
{ACAD_REACTORS
330
162
102
}
330
162
100
AcDbCellStyleMap
 90
        3
300
CELLSTYLE
  1
TABLEFORMAT_BEGIN
 90
        5
170
     1
 91
        0
 92
    32768
 62
   257
 93
        1
300
CONTENTFORMAT
  1
CONTENTFORMAT_BEGIN
 90
        0
 91
        0
 92
      512
 93
        0
300

 40
0.0
140
1.0
 94
        5
 62
     0
340
11
144
6.0
309
CONTENTFORMAT_END
171
     1
301
MARGIN
  1
CELLMARGIN_BEGIN
 40
1.5
 40
1.5
 40
1.5
 40
1.5
 40
4.5
 40
4.5
309
CELLMARGIN_END
 94
        6
 95
        1
302
GRIDFORMAT
  1
GRIDFORMAT_BEGIN
 90
        0
 91
        1
 62
     0
 92
       -2
340
14
 93
        0
 40
1.125
309
GRIDFORMAT_END
 95
        2
302
GRIDFORMAT
  1
GRIDFORMAT_BEGIN
 90
        0
 91
        1
 62
     0
 92
       -2
340
14
 93
        0
 40
1.125
309
GRIDFORMAT_END
 95
        4
302
GRIDFORMAT
  1
GRIDFORMAT_BEGIN
 90
        0
 91
        1
 62
     0
 92
       -2
340
14
 93
        0
 40
1.125
309
GRIDFORMAT_END
 95
        8
302
GRIDFORMAT
  1
GRIDFORMAT_BEGIN
 90
        0
 91
        1
 62
     0
 92
       -2
340
14
 93
        0
 40
1.125
309
GRIDFORMAT_END
 95
       16
302
GRIDFORMAT
  1
GRIDFORMAT_BEGIN
 90
        0
 91
        1
 62
     0
 92
       -2
340
14
 93
        0
 40
1.125
309
GRIDFORMAT_END
 95
       32
302
GRIDFORMAT
  1
GRIDFORMAT_BEGIN
 90
        0
 91
        1
 62
     0
 92
       -2
340
14
 93
        0
 40
1.125
309
GRIDFORMAT_END
309
TABLEFORMAT_END
  1
CELLSTYLE_BEGIN
 90
        1
 91
        1
300
_TITLE
309
CELLSTYLE_END
300
CELLSTYLE
  1
TABLEFORMAT_BEGIN
 90
        5
170
     1
 91
        0
 92
        0
 62
   257
 93
        1
300
CONTENTFORMAT
  1
CONTENTFORMAT_BEGIN
 90
        0
 91
        0
 92
      512
 93
        0
300

 40
0.0
140
1.0
 94
        5
 62
     0
340
11
144
4.5
309
CONTENTFORMAT_END
171
     1
301
MARGIN
  1
CELLMARGIN_BEGIN
 40
1.5
 40
1.5
 40
1.5
 40
1.5
 40
4.5
 40
4.5
309
CELLMARGIN_END
 94
        6
 95
        1
302
GRIDFORMAT
  1
GRIDFORMAT_BEGIN
 90
        0
 91
        1
 62
     0
 92
       -2
340
14
 93
        0
 40
1.125
309
GRIDFORMAT_END
 95
        2
302
GRIDFORMAT
  1
GRIDFORMAT_BEGIN
 90
        0
 91
        1
 62
     0
 92
       -2
340
14
 93
        0
 40
1.125
309
GRIDFORMAT_END
 95
        4
302
GRIDFORMAT
  1
GRIDFORMAT_BEGIN
 90
        0
 91
        1
 62
     0
 92
       -2
340
14
 93
        0
 40
1.125
309
GRIDFORMAT_END
 95
        8
302
GRIDFORMAT
  1
GRIDFORMAT_BEGIN
 90
        0
 91
        1
 62
     0
 92
       -2
340
14
 93
        0
 40
1.125
309
GRIDFORMAT_END
 95
       16
302
GRIDFORMAT
  1
GRIDFORMAT_BEGIN
 90
        0
 91
        1
 62
     0
 92
       -2
340
14
 93
        0
 40
1.125
309
GRIDFORMAT_END
 95
       32
302
GRIDFORMAT
  1
GRIDFORMAT_BEGIN
 90
        0
 91
        1
 62
     0
 92
       -2
340
14
 93
        0
 40
1.125
309
GRIDFORMAT_END
309
TABLEFORMAT_END
  1
CELLSTYLE_BEGIN
 90
        2
 91
        1
300
_HEADER
309
CELLSTYLE_END
300
CELLSTYLE
  1
TABLEFORMAT_BEGIN
 90
        5
170
     1
 91
        0
 92
        0
 62
   257
 93
        1
300
CONTENTFORMAT
  1
CONTENTFORMAT_BEGIN
 90
        0
 91
        0
 92
      512
 93
        0
300

 40
0.0
140
1.0
 94
        2
 62
     0
340
11
144
4.5
309
CONTENTFORMAT_END
171
     1
301
MARGIN
  1
CELLMARGIN_BEGIN
 40
1.5
 40
1.5
 40
1.5
 40
1.5
 40
4.5
 40
4.5
309
CELLMARGIN_END
 94
        6
 95
        1
302
GRIDFORMAT
  1
GRIDFORMAT_BEGIN
 90
        0
 91
        1
 62
     0
 92
       -2
340
14
 93
        0
 40
1.125
309
GRIDFORMAT_END
 95
        2
302
GRIDFORMAT
  1
GRIDFORMAT_BEGIN
 90
        0
 91
        1
 62
     0
 92
       -2
340
14
 93
        0
 40
1.125
309
GRIDFORMAT_END
 95
        4
302
GRIDFORMAT
  1
GRIDFORMAT_BEGIN
 90
        0
 91
        1
 62
     0
 92
       -2
340
14
 93
        0
 40
1.125
309
GRIDFORMAT_END
 95
        8
302
GRIDFORMAT
  1
GRIDFORMAT_BEGIN
 90
        0
 91
        1
 62
     0
 92
       -2
340
14
 93
        0
 40
1.125
309
GRIDFORMAT_END
 95
       16
302
GRIDFORMAT
  1
GRIDFORMAT_BEGIN
 90
        0
 91
        1
 62
     0
 92
       -2
340
14
 93
        0
 40
1.125
309
GRIDFORMAT_END
 95
       32
302
GRIDFORMAT
  1
GRIDFORMAT_BEGIN
 90
        0
 91
        1
 62
     0
 92
       -2
340
14
 93
        0
 40
1.125
309
GRIDFORMAT_END
309
TABLEFORMAT_END
  1
CELLSTYLE_BEGIN
 90
        3
 91
        2
300
_DATA
309
CELLSTYLE_END
  0
XRECORD
  5
441D
102
{ACAD_REACTORS
330
162
102
}
330
162
100
AcDbXrecord
280
     1
102
ACAD_ROUNDTRIP_PRE2007_TABLESTYLE
 90
      512
 91
        0
  1

 92
      512
 93
        0
  2

 94
      512
 95
        0
  3

  0
XRECORD
  5
4430
102
{ACAD_REACTORS
330
442F
102
}
330
442F
100
AcDbXrecord
280
     1
102
RTVSPost2010Prop28
280
     1
102
RTVSPost2010PropOp28
 70
     1
102
RTVSPost2010Prop29
280
     1
102
RTVSPost2010PropOp29
 70
     1
102
RTVSPost2010Prop30
280
     0
102
RTVSPost2010PropOp30
 70
     1
102
RTVSPost2010Prop31
280
     0
102
RTVSPost2010PropOp31
 70
     1
102
RTVSPost2010Prop32
280
     0
102
RTVSPost2010PropOp32
 70
     1
102
RTVSPost2010Prop33
280
     0
102
RTVSPost2010PropOp33
 70
     1
102
RTVSPost2010Prop34
280
     0
102
RTVSPost2010PropOp34
 70
     1
102
RTVSPost2010Prop35
280
     0
102
RTVSPost2010PropOp35
 70
     1
102
RTVSPost2010Prop36
280
     0
102
RTVSPost2010PropOp36
 70
     1
102
RTVSPost2010Prop37
 90
       50
102
RTVSPost2010PropOp37
 70
     1
102
RTVSPost2010Prop38
140
0.0
102
RTVSPost2010PropOp38
 70
     1
102
RTVSPost2010Prop39
140
1.0
102
RTVSPost2010PropOp39
 70
     1
102
RTVSPost2010Prop40
 90
        0
102
RTVSPost2010PropOp40
 70
     1
102
RTVSPost2010Prop41ColorIndex
 90
       18
102
RTVSPost2010Prop41ColorRGB
 90
        0
102
RTVSPost2010PropOp41
 70
     1
102
RTVSPost2010Prop42
 90
       50
102
RTVSPost2010PropOp42
 70
     1
102
RTVSPost2010Prop43
 90
        3
102
RTVSPost2010PropOp43
 70
     1
102
RTVSPost2010Prop44ColorIndex
 90
        5
102
RTVSPost2010Prop44ColorRGB
 90
      255
102
RTVSPost2010PropOp44
 70
     1
102
RTVSPost2010Prop45
280
     0
102
RTVSPost2010PropOp45
 70
     1
102
RTVSPost2010Prop46
 90
       50
102
RTVSPost2010PropOp46
 70
     1
102
RTVSPost2010Prop47
 90
       50
102
RTVSPost2010PropOp47
 70
     1
102
RTVSPost2010Prop48
 90
       50
102
RTVSPost2010PropOp48
 70
     1
102
RTVSPost2010Prop49
280
     0
102
RTVSPost2010PropOp49
 70
     1
102
RTVSPost2010Prop50
 90
       50
102
RTVSPost2010PropOp50
 70
     1
102
RTVSPost2010Prop51ColorIndex
 90
      256
102
RTVSPost2010Prop51ColorRGB
 90
-16777216
102
RTVSPost2010PropOp51
 70
     0
102
RTVSPost2010Prop52
140
1.0
102
RTVSPost2010PropOp52
 70
     0
102
RTVSPost2010Prop53
 90
        2
102
RTVSPost2010PropOp53
 70
     1
102
RTVSPost2010Prop54
  1
strokes_ogs.tif
102
RTVSPost2010PropOp54
 70
     1
102
RTVSPost2010Prop55
280
     0
102
RTVSPost2010PropOp55
 70
     1
102
RTVSPost2010Prop56
140
1.0
102
RTVSPost2010PropOp56
 70
     1
102
RTVSPost2010Prop57
140
1.0
102
RTVSPost2010PropOp57
 70
     1
102
RTVSPropertyOp0
 70
     1
102
RTVSPropertyOp1
 70
     1
102
RTVSPropertyOp2
 70
     1
102
RTVSPropertyOp3
 70
     1
102
RTVSPropertyOp4
 70
     1
102
RTVSPropertyOp5
 70
     1
102
RTVSPropertyOp6
 70
     1
102
RTVSPropertyOp7
 70
     1
102
RTVSPropertyOp8
 70
     1
102
RTVSPropertyOp9
 70
     1
102
RTVSPropertyOp10
 70
     1
102
RTVSPropertyOp11
 70
     1
102
RTVSPropertyOp12
 70
     1
102
RTVSPropertyOp13
 70
     1
102
RTVSPropertyOp14
 70
     1
102
RTVSPropertyOp15
 70
     1
102
RTVSPropertyOp16
 70
     1
102
RTVSPropertyOp17
 70
     1
102
RTVSPropertyOp18
 70
     1
102
RTVSPropertyOp19
 70
     1
102
RTVSPropertyOp20
 70
     1
102
RTVSPropertyOp21
 70
     1
102
RTVSPropertyOp22
 70
     1
102
RTVSPropertyOp23
 70
     1
102
RTVSPropertyOp24
 70
     1
102
RTVSPropertyOp25
 70
     1
102
RTVSPropertyOp26
 70
     1
102
RTVSPropertyOp27
 70
     1
102
RTVSPropertyOp28
 70
     1
102
RTVSPropertyOp29
 70
     1
102
RTVSPropertyOp30
 70
     1
102
RTVSPropertyOp31
 70
     1
102
RTVSPropertyOp32
 70
     1
102
RTVSPropertyOp33
 70
     1
102
RTVSPropertyOp34
 70
     1
102
RTVSPropertyOp35
 70
     1
102
RTVSPropertyOp36
 70
     1
102
RTVSPropertyOp37
 70
     1
102
RTVSPropertyOp38
 70
     1
102
RTVSPropertyOp39
 70
     1
102
RTVSPropertyOp40
 70
     1
102
RTVSPropertyOp41
 70
     1
102
RTVSPropertyOp42
 70
     1
102
RTVSPropertyOp43
 70
     1
102
RTVSPropertyOp44
 70
     1
102
RTVSPropertyOp45
 70
     1
102
RTVSPropertyOp46
 70
     1
102
RTVSPropertyOp47
 70
     1
102
RTVSPropertyOp48
 70
     1
102
RTVSPropertyOp49
 70
     1
102
RTVSPropertyOp50
 70
     1
102
RTVSPropertyOp51
 70
     0
102
RTVSPropertyOp52
 70
     0
102
RTVSPropertyOp53
 70
     1
102
RTVSPropertyOp54
 70
     1
102
RTVSPropertyOp55
 70
     1
102
RTVSPropertyOp56
 70
     1
102
RTVSPropertyOp57
 70
     1
102
RTVSPropertyOp58
 70
     1
102
RTVSPropertyOp59
 70
     1
102
RTVSPropertyOp60
 70
     1
102
RTVSPropertyOp61
 70
     1
102
RTVSPropertyOp62
 70
     1
  0
XRECORD
  5
442E
102
{ACAD_REACTORS
330
442D
102
}
330
442D
100
AcDbXrecord
280
     1
102
RTVSPost2010Prop28
280
     0
102
RTVSPost2010PropOp28
 70
     1
102
RTVSPost2010Prop29
280
     1
102
RTVSPost2010PropOp29
 70
     1
102
RTVSPost2010Prop30
280
     1
102
RTVSPost2010PropOp30
 70
     1
102
RTVSPost2010Prop31
280
     0
102
RTVSPost2010PropOp31
 70
     1
102
RTVSPost2010Prop32
280
     0
102
RTVSPost2010PropOp32
 70
     1
102
RTVSPost2010Prop33
280
     0
102
RTVSPost2010PropOp33
 70
     1
102
RTVSPost2010Prop34
280
     0
102
RTVSPost2010PropOp34
 70
     1
102
RTVSPost2010Prop35
280
     0
102
RTVSPost2010PropOp35
 70
     1
102
RTVSPost2010Prop36
280
     0
102
RTVSPost2010PropOp36
 70
     1
102
RTVSPost2010Prop37
 90
       50
102
RTVSPost2010PropOp37
 70
     1
102
RTVSPost2010Prop38
140
0.0
102
RTVSPost2010PropOp38
 70
     1
102
RTVSPost2010Prop39
140
1.0
102
RTVSPost2010PropOp39
 70
     1
102
RTVSPost2010Prop40
 90
        0
102
RTVSPost2010PropOp40
 70
     1
102
RTVSPost2010Prop41ColorIndex
 90
       18
102
RTVSPost2010Prop41ColorRGB
 90
        0
102
RTVSPost2010PropOp41
 70
     1
102
RTVSPost2010Prop42
 90
       50
102
RTVSPost2010PropOp42
 70
     1
102
RTVSPost2010Prop43
 90
        3
102
RTVSPost2010PropOp43
 70
     1
102
RTVSPost2010Prop44ColorIndex
 90
        5
102
RTVSPost2010Prop44ColorRGB
 90
      255
102
RTVSPost2010PropOp44
 70
     1
102
RTVSPost2010Prop45
280
     0
102
RTVSPost2010PropOp45
 70
     1
102
RTVSPost2010Prop46
 90
       50
102
RTVSPost2010PropOp46
 70
     1
102
RTVSPost2010Prop47
 90
       50
102
RTVSPost2010PropOp47
 70
     1
102
RTVSPost2010Prop48
 90
       50
102
RTVSPost2010PropOp48
 70
     1
102
RTVSPost2010Prop49
280
     0
102
RTVSPost2010PropOp49
 70
     1
102
RTVSPost2010Prop50
 90
       50
102
RTVSPost2010PropOp50
 70
     1
102
RTVSPost2010Prop51ColorIndex
 90
      256
102
RTVSPost2010Prop51ColorRGB
 90
-16777216
102
RTVSPost2010PropOp51
 70
     0
102
RTVSPost2010Prop52
140
1.0
102
RTVSPost2010PropOp52
 70
     0
102
RTVSPost2010Prop53
 90
        2
102
RTVSPost2010PropOp53
 70
     1
102
RTVSPost2010Prop54
  1
strokes_ogs.tif
102
RTVSPost2010PropOp54
 70
     1
102
RTVSPost2010Prop55
280
     0
102
RTVSPost2010PropOp55
 70
     1
102
RTVSPost2010Prop56
140
1.0
102
RTVSPost2010PropOp56
 70
     1
102
RTVSPost2010Prop57
140
1.0
102
RTVSPost2010PropOp57
 70
     1
102
RTVSPropertyOp0
 70
     1
102
RTVSPropertyOp1
 70
     1
102
RTVSPropertyOp2
 70
     1
102
RTVSPropertyOp3
 70
     1
102
RTVSPropertyOp4
 70
     1
102
RTVSPropertyOp5
 70
     1
102
RTVSPropertyOp6
 70
     1
102
RTVSPropertyOp7
 70
     1
102
RTVSPropertyOp8
 70
     1
102
RTVSPropertyOp9
 70
     1
102
RTVSPropertyOp10
 70
     1
102
RTVSPropertyOp11
 70
     1
102
RTVSPropertyOp12
 70
     1
102
RTVSPropertyOp13
 70
     1
102
RTVSPropertyOp14
 70
     1
102
RTVSPropertyOp15
 70
     1
102
RTVSPropertyOp16
 70
     1
102
RTVSPropertyOp17
 70
     1
102
RTVSPropertyOp18
 70
     1
102
RTVSPropertyOp19
 70
     1
102
RTVSPropertyOp20
 70
     1
102
RTVSPropertyOp21
 70
     1
102
RTVSPropertyOp22
 70
     1
102
RTVSPropertyOp23
 70
     1
102
RTVSPropertyOp24
 70
     1
102
RTVSPropertyOp25
 70
     1
102
RTVSPropertyOp26
 70
     1
102
RTVSPropertyOp27
 70
     1
102
RTVSPropertyOp28
 70
     1
102
RTVSPropertyOp29
 70
     1
102
RTVSPropertyOp30
 70
     1
102
RTVSPropertyOp31
 70
     1
102
RTVSPropertyOp32
 70
     1
102
RTVSPropertyOp33
 70
     1
102
RTVSPropertyOp34
 70
     1
102
RTVSPropertyOp35
 70
     1
102
RTVSPropertyOp36
 70
     1
102
RTVSPropertyOp37
 70
     1
102
RTVSPropertyOp38
 70
     1
102
RTVSPropertyOp39
 70
     1
102
RTVSPropertyOp40
 70
     1
102
RTVSPropertyOp41
 70
     1
102
RTVSPropertyOp42
 70
     1
102
RTVSPropertyOp43
 70
     1
102
RTVSPropertyOp44
 70
     1
102
RTVSPropertyOp45
 70
     1
102
RTVSPropertyOp46
 70
     1
102
RTVSPropertyOp47
 70
     1
102
RTVSPropertyOp48
 70
     1
102
RTVSPropertyOp49
 70
     1
102
RTVSPropertyOp50
 70
     1
102
RTVSPropertyOp51
 70
     0
102
RTVSPropertyOp52
 70
     0
102
RTVSPropertyOp53
 70
     1
102
RTVSPropertyOp54
 70
     1
102
RTVSPropertyOp55
 70
     1
102
RTVSPropertyOp56
 70
     1
102
RTVSPropertyOp57
 70
     1
102
RTVSPropertyOp58
 70
     1
102
RTVSPropertyOp59
 70
     1
102
RTVSPropertyOp60
 70
     1
102
RTVSPropertyOp61
 70
     1
102
RTVSPropertyOp62
 70
     1
  0
XRECORD
  5
443C
102
{ACAD_REACTORS
330
443B
102
}
330
443B
100
AcDbXrecord
280
     1
102
RTVSPost2010Prop28
280
     0
102
RTVSPost2010PropOp28
 70
     1
102
RTVSPost2010Prop29
280
     1
102
RTVSPost2010PropOp29
 70
     1
102
RTVSPost2010Prop30
280
     1
102
RTVSPost2010PropOp30
 70
     1
102
RTVSPost2010Prop31
280
     0
102
RTVSPost2010PropOp31
 70
     1
102
RTVSPost2010Prop32
280
     0
102
RTVSPost2010PropOp32
 70
     1
102
RTVSPost2010Prop33
280
     0
102
RTVSPost2010PropOp33
 70
     1
102
RTVSPost2010Prop34
280
     0
102
RTVSPost2010PropOp34
 70
     1
102
RTVSPost2010Prop35
280
     0
102
RTVSPost2010PropOp35
 70
     1
102
RTVSPost2010Prop36
280
     0
102
RTVSPost2010PropOp36
 70
     1
102
RTVSPost2010Prop37
 90
       50
102
RTVSPost2010PropOp37
 70
     1
102
RTVSPost2010Prop38
140
0.0
102
RTVSPost2010PropOp38
 70
     1
102
RTVSPost2010Prop39
140
1.0
102
RTVSPost2010PropOp39
 70
     1
102
RTVSPost2010Prop40
 90
        0
102
RTVSPost2010PropOp40
 70
     1
102
RTVSPost2010Prop41ColorIndex
 90
       18
102
RTVSPost2010Prop41ColorRGB
 90
        0
102
RTVSPost2010PropOp41
 70
     1
102
RTVSPost2010Prop42
 90
       50
102
RTVSPost2010PropOp42
 70
     1
102
RTVSPost2010Prop43
 90
        3
102
RTVSPost2010PropOp43
 70
     1
102
RTVSPost2010Prop44ColorIndex
 90
        5
102
RTVSPost2010Prop44ColorRGB
 90
      255
102
RTVSPost2010PropOp44
 70
     1
102
RTVSPost2010Prop45
280
     0
102
RTVSPost2010PropOp45
 70
     1
102
RTVSPost2010Prop46
 90
       50
102
RTVSPost2010PropOp46
 70
     1
102
RTVSPost2010Prop47
 90
       50
102
RTVSPost2010PropOp47
 70
     1
102
RTVSPost2010Prop48
 90
       50
102
RTVSPost2010PropOp48
 70
     1
102
RTVSPost2010Prop49
280
     0
102
RTVSPost2010PropOp49
 70
     1
102
RTVSPost2010Prop50
 90
       50
102
RTVSPost2010PropOp50
 70
     1
102
RTVSPost2010Prop51ColorIndex
 90
      256
102
RTVSPost2010Prop51ColorRGB
 90
-16777216
102
RTVSPost2010PropOp51
 70
     0
102
RTVSPost2010Prop52
140
1.0
102
RTVSPost2010PropOp52
 70
     0
102
RTVSPost2010Prop53
 90
        2
102
RTVSPost2010PropOp53
 70
     1
102
RTVSPost2010Prop54
  1
strokes_ogs.tif
102
RTVSPost2010PropOp54
 70
     1
102
RTVSPost2010Prop55
280
     0
102
RTVSPost2010PropOp55
 70
     1
102
RTVSPost2010Prop56
140
1.0
102
RTVSPost2010PropOp56
 70
     1
102
RTVSPost2010Prop57
140
1.0
102
RTVSPost2010PropOp57
 70
     1
102
RTVSPropertyOp0
 70
     1
102
RTVSPropertyOp1
 70
     1
102
RTVSPropertyOp2
 70
     1
102
RTVSPropertyOp3
 70
     1
102
RTVSPropertyOp4
 70
     1
102
RTVSPropertyOp5
 70
     1
102
RTVSPropertyOp6
 70
     1
102
RTVSPropertyOp7
 70
     1
102
RTVSPropertyOp8
 70
     1
102
RTVSPropertyOp9
 70
     1
102
RTVSPropertyOp10
 70
     1
102
RTVSPropertyOp11
 70
     1
102
RTVSPropertyOp12
 70
     1
102
RTVSPropertyOp13
 70
     1
102
RTVSPropertyOp14
 70
     1
102
RTVSPropertyOp15
 70
     1
102
RTVSPropertyOp16
 70
     1
102
RTVSPropertyOp17
 70
     1
102
RTVSPropertyOp18
 70
     1
102
RTVSPropertyOp19
 70
     1
102
RTVSPropertyOp20
 70
     1
102
RTVSPropertyOp21
 70
     1
102
RTVSPropertyOp22
 70
     1
102
RTVSPropertyOp23
 70
     1
102
RTVSPropertyOp24
 70
     1
102
RTVSPropertyOp25
 70
     1
102
RTVSPropertyOp26
 70
     1
102
RTVSPropertyOp27
 70
     1
102
RTVSPropertyOp28
 70
     1
102
RTVSPropertyOp29
 70
     1
102
RTVSPropertyOp30
 70
     1
102
RTVSPropertyOp31
 70
     1
102
RTVSPropertyOp32
 70
     1
102
RTVSPropertyOp33
 70
     1
102
RTVSPropertyOp34
 70
     1
102
RTVSPropertyOp35
 70
     1
102
RTVSPropertyOp36
 70
     1
102
RTVSPropertyOp37
 70
     1
102
RTVSPropertyOp38
 70
     1
102
RTVSPropertyOp39
 70
     1
102
RTVSPropertyOp40
 70
     1
102
RTVSPropertyOp41
 70
     1
102
RTVSPropertyOp42
 70
     1
102
RTVSPropertyOp43
 70
     1
102
RTVSPropertyOp44
 70
     1
102
RTVSPropertyOp45
 70
     1
102
RTVSPropertyOp46
 70
     1
102
RTVSPropertyOp47
 70
     1
102
RTVSPropertyOp48
 70
     1
102
RTVSPropertyOp49
 70
     1
102
RTVSPropertyOp50
 70
     1
102
RTVSPropertyOp51
 70
     0
102
RTVSPropertyOp52
 70
     0
102
RTVSPropertyOp53
 70
     1
102
RTVSPropertyOp54
 70
     1
102
RTVSPropertyOp55
 70
     1
102
RTVSPropertyOp56
 70
     1
102
RTVSPropertyOp57
 70
     1
102
RTVSPropertyOp58
 70
     1
102
RTVSPropertyOp59
 70
     1
102
RTVSPropertyOp60
 70
     1
102
RTVSPropertyOp61
 70
     1
102
RTVSPropertyOp62
 70
     1
  0
XRECORD
  5
4444
102
{ACAD_REACTORS
330
4443
102
}
330
4443
100
AcDbXrecord
280
     1
102
RTVSPost2010Prop28
280
     0
102
RTVSPost2010PropOp28
 70
     1
102
RTVSPost2010Prop29
280
     1
102
RTVSPost2010PropOp29
 70
     1
102
RTVSPost2010Prop30
280
     1
102
RTVSPost2010PropOp30
 70
     1
102
RTVSPost2010Prop31
280
     0
102
RTVSPost2010PropOp31
 70
     1
102
RTVSPost2010Prop32
280
     0
102
RTVSPost2010PropOp32
 70
     1
102
RTVSPost2010Prop33
280
     0
102
RTVSPost2010PropOp33
 70
     1
102
RTVSPost2010Prop34
280
     0
102
RTVSPost2010PropOp34
 70
     1
102
RTVSPost2010Prop35
280
     0
102
RTVSPost2010PropOp35
 70
     1
102
RTVSPost2010Prop36
280
     0
102
RTVSPost2010PropOp36
 70
     1
102
RTVSPost2010Prop37
 90
       50
102
RTVSPost2010PropOp37
 70
     1
102
RTVSPost2010Prop38
140
0.0
102
RTVSPost2010PropOp38
 70
     1
102
RTVSPost2010Prop39
140
1.0
102
RTVSPost2010PropOp39
 70
     1
102
RTVSPost2010Prop40
 90
        0
102
RTVSPost2010PropOp40
 70
     1
102
RTVSPost2010Prop41ColorIndex
 90
       18
102
RTVSPost2010Prop41ColorRGB
 90
        0
102
RTVSPost2010PropOp41
 70
     1
102
RTVSPost2010Prop42
 90
       50
102
RTVSPost2010PropOp42
 70
     1
102
RTVSPost2010Prop43
 90
        3
102
RTVSPost2010PropOp43
 70
     1
102
RTVSPost2010Prop44ColorIndex
 90
        5
102
RTVSPost2010Prop44ColorRGB
 90
      255
102
RTVSPost2010PropOp44
 70
     1
102
RTVSPost2010Prop45
280
     0
102
RTVSPost2010PropOp45
 70
     1
102
RTVSPost2010Prop46
 90
       50
102
RTVSPost2010PropOp46
 70
     1
102
RTVSPost2010Prop47
 90
       50
102
RTVSPost2010PropOp47
 70
     1
102
RTVSPost2010Prop48
 90
       50
102
RTVSPost2010PropOp48
 70
     1
102
RTVSPost2010Prop49
280
     0
102
RTVSPost2010PropOp49
 70
     1
102
RTVSPost2010Prop50
 90
       50
102
RTVSPost2010PropOp50
 70
     1
102
RTVSPost2010Prop51ColorIndex
 90
      256
102
RTVSPost2010Prop51ColorRGB
 90
-16777216
102
RTVSPost2010PropOp51
 70
     0
102
RTVSPost2010Prop52
140
1.0
102
RTVSPost2010PropOp52
 70
     0
102
RTVSPost2010Prop53
 90
        2
102
RTVSPost2010PropOp53
 70
     1
102
RTVSPost2010Prop54
  1
strokes_ogs.tif
102
RTVSPost2010PropOp54
 70
     1
102
RTVSPost2010Prop55
280
     0
102
RTVSPost2010PropOp55
 70
     1
102
RTVSPost2010Prop56
140
1.0
102
RTVSPost2010PropOp56
 70
     1
102
RTVSPost2010Prop57
140
1.0
102
RTVSPost2010PropOp57
 70
     1
102
RTVSPropertyOp0
 70
     1
102
RTVSPropertyOp1
 70
     1
102
RTVSPropertyOp2
 70
     1
102
RTVSPropertyOp3
 70
     1
102
RTVSPropertyOp4
 70
     1
102
RTVSPropertyOp5
 70
     1
102
RTVSPropertyOp6
 70
     1
102
RTVSPropertyOp7
 70
     1
102
RTVSPropertyOp8
 70
     1
102
RTVSPropertyOp9
 70
     1
102
RTVSPropertyOp10
 70
     1
102
RTVSPropertyOp11
 70
     1
102
RTVSPropertyOp12
 70
     1
102
RTVSPropertyOp13
 70
     1
102
RTVSPropertyOp14
 70
     1
102
RTVSPropertyOp15
 70
     1
102
RTVSPropertyOp16
 70
     1
102
RTVSPropertyOp17
 70
     1
102
RTVSPropertyOp18
 70
     1
102
RTVSPropertyOp19
 70
     1
102
RTVSPropertyOp20
 70
     1
102
RTVSPropertyOp21
 70
     1
102
RTVSPropertyOp22
 70
     1
102
RTVSPropertyOp23
 70
     1
102
RTVSPropertyOp24
 70
     1
102
RTVSPropertyOp25
 70
     1
102
RTVSPropertyOp26
 70
     1
102
RTVSPropertyOp27
 70
     1
102
RTVSPropertyOp28
 70
     1
102
RTVSPropertyOp29
 70
     1
102
RTVSPropertyOp30
 70
     1
102
RTVSPropertyOp31
 70
     1
102
RTVSPropertyOp32
 70
     1
102
RTVSPropertyOp33
 70
     1
102
RTVSPropertyOp34
 70
     1
102
RTVSPropertyOp35
 70
     1
102
RTVSPropertyOp36
 70
     1
102
RTVSPropertyOp37
 70
     1
102
RTVSPropertyOp38
 70
     1
102
RTVSPropertyOp39
 70
     1
102
RTVSPropertyOp40
 70
     1
102
RTVSPropertyOp41
 70
     1
102
RTVSPropertyOp42
 70
     1
102
RTVSPropertyOp43
 70
     1
102
RTVSPropertyOp44
 70
     1
102
RTVSPropertyOp45
 70
     1
102
RTVSPropertyOp46
 70
     1
102
RTVSPropertyOp47
 70
     1
102
RTVSPropertyOp48
 70
     1
102
RTVSPropertyOp49
 70
     1
102
RTVSPropertyOp50
 70
     1
102
RTVSPropertyOp51
 70
     0
102
RTVSPropertyOp52
 70
     0
102
RTVSPropertyOp53
 70
     1
102
RTVSPropertyOp54
 70
     1
102
RTVSPropertyOp55
 70
     1
102
RTVSPropertyOp56
 70
     1
102
RTVSPropertyOp57
 70
     1
102
RTVSPropertyOp58
 70
     1
102
RTVSPropertyOp59
 70
     1
102
RTVSPropertyOp60
 70
     1
102
RTVSPropertyOp61
 70
     1
102
RTVSPropertyOp62
 70
     1
  0
XRECORD
  5
4436
102
{ACAD_REACTORS
330
4435
102
}
330
4435
100
AcDbXrecord
280
     1
102
RTVSPost2010Prop28
280
     0
102
RTVSPost2010PropOp28
 70
     1
102
RTVSPost2010Prop29
280
     1
102
RTVSPost2010PropOp29
 70
     1
102
RTVSPost2010Prop30
280
     1
102
RTVSPost2010PropOp30
 70
     1
102
RTVSPost2010Prop31
280
     0
102
RTVSPost2010PropOp31
 70
     1
102
RTVSPost2010Prop32
280
     0
102
RTVSPost2010PropOp32
 70
     1
102
RTVSPost2010Prop33
280
     0
102
RTVSPost2010PropOp33
 70
     1
102
RTVSPost2010Prop34
280
     0
102
RTVSPost2010PropOp34
 70
     1
102
RTVSPost2010Prop35
280
     0
102
RTVSPost2010PropOp35
 70
     1
102
RTVSPost2010Prop36
280
     0
102
RTVSPost2010PropOp36
 70
     1
102
RTVSPost2010Prop37
 90
       50
102
RTVSPost2010PropOp37
 70
     1
102
RTVSPost2010Prop38
140
0.0
102
RTVSPost2010PropOp38
 70
     1
102
RTVSPost2010Prop39
140
1.0
102
RTVSPost2010PropOp39
 70
     1
102
RTVSPost2010Prop40
 90
        0
102
RTVSPost2010PropOp40
 70
     1
102
RTVSPost2010Prop41ColorIndex
 90
       18
102
RTVSPost2010Prop41ColorRGB
 90
        0
102
RTVSPost2010PropOp41
 70
     1
102
RTVSPost2010Prop42
 90
       50
102
RTVSPost2010PropOp42
 70
     1
102
RTVSPost2010Prop43
 90
        3
102
RTVSPost2010PropOp43
 70
     1
102
RTVSPost2010Prop44ColorIndex
 90
        5
102
RTVSPost2010Prop44ColorRGB
 90
      255
102
RTVSPost2010PropOp44
 70
     1
102
RTVSPost2010Prop45
280
     0
102
RTVSPost2010PropOp45
 70
     1
102
RTVSPost2010Prop46
 90
       50
102
RTVSPost2010PropOp46
 70
     1
102
RTVSPost2010Prop47
 90
       50
102
RTVSPost2010PropOp47
 70
     1
102
RTVSPost2010Prop48
 90
       50
102
RTVSPost2010PropOp48
 70
     1
102
RTVSPost2010Prop49
280
     0
102
RTVSPost2010PropOp49
 70
     1
102
RTVSPost2010Prop50
 90
       50
102
RTVSPost2010PropOp50
 70
     1
102
RTVSPost2010Prop51ColorIndex
 90
      256
102
RTVSPost2010Prop51ColorRGB
 90
-16777216
102
RTVSPost2010PropOp51
 70
     0
102
RTVSPost2010Prop52
140
1.0
102
RTVSPost2010PropOp52
 70
     0
102
RTVSPost2010Prop53
 90
        2
102
RTVSPost2010PropOp53
 70
     1
102
RTVSPost2010Prop54
  1
strokes_ogs.tif
102
RTVSPost2010PropOp54
 70
     1
102
RTVSPost2010Prop55
280
     0
102
RTVSPost2010PropOp55
 70
     1
102
RTVSPost2010Prop56
140
1.0
102
RTVSPost2010PropOp56
 70
     1
102
RTVSPost2010Prop57
140
1.0
102
RTVSPost2010PropOp57
 70
     1
102
RTVSPropertyOp0
 70
     1
102
RTVSPropertyOp1
 70
     1
102
RTVSPropertyOp2
 70
     1
102
RTVSPropertyOp3
 70
     1
102
RTVSPropertyOp4
 70
     1
102
RTVSPropertyOp5
 70
     1
102
RTVSPropertyOp6
 70
     1
102
RTVSPropertyOp7
 70
     1
102
RTVSPropertyOp8
 70
     1
102
RTVSPropertyOp9
 70
     1
102
RTVSPropertyOp10
 70
     1
102
RTVSPropertyOp11
 70
     1
102
RTVSPropertyOp12
 70
     1
102
RTVSPropertyOp13
 70
     1
102
RTVSPropertyOp14
 70
     1
102
RTVSPropertyOp15
 70
     1
102
RTVSPropertyOp16
 70
     1
102
RTVSPropertyOp17
 70
     1
102
RTVSPropertyOp18
 70
     1
102
RTVSPropertyOp19
 70
     1
102
RTVSPropertyOp20
 70
     1
102
RTVSPropertyOp21
 70
     1
102
RTVSPropertyOp22
 70
     1
102
RTVSPropertyOp23
 70
     1
102
RTVSPropertyOp24
 70
     1
102
RTVSPropertyOp25
 70
     1
102
RTVSPropertyOp26
 70
     1
102
RTVSPropertyOp27
 70
     1
102
RTVSPropertyOp28
 70
     1
102
RTVSPropertyOp29
 70
     1
102
RTVSPropertyOp30
 70
     1
102
RTVSPropertyOp31
 70
     1
102
RTVSPropertyOp32
 70
     1
102
RTVSPropertyOp33
 70
     1
102
RTVSPropertyOp34
 70
     1
102
RTVSPropertyOp35
 70
     1
102
RTVSPropertyOp36
 70
     1
102
RTVSPropertyOp37
 70
     1
102
RTVSPropertyOp38
 70
     1
102
RTVSPropertyOp39
 70
     1
102
RTVSPropertyOp40
 70
     1
102
RTVSPropertyOp41
 70
     1
102
RTVSPropertyOp42
 70
     1
102
RTVSPropertyOp43
 70
     1
102
RTVSPropertyOp44
 70
     1
102
RTVSPropertyOp45
 70
     1
102
RTVSPropertyOp46
 70
     1
102
RTVSPropertyOp47
 70
     1
102
RTVSPropertyOp48
 70
     1
102
RTVSPropertyOp49
 70
     1
102
RTVSPropertyOp50
 70
     1
102
RTVSPropertyOp51
 70
     0
102
RTVSPropertyOp52
 70
     0
102
RTVSPropertyOp53
 70
     1
102
RTVSPropertyOp54
 70
     1
102
RTVSPropertyOp55
 70
     1
102
RTVSPropertyOp56
 70
     1
102
RTVSPropertyOp57
 70
     1
102
RTVSPropertyOp58
 70
     1
102
RTVSPropertyOp59
 70
     1
102
RTVSPropertyOp60
 70
     1
102
RTVSPropertyOp61
 70
     1
102
RTVSPropertyOp62
 70
     1
  0
XRECORD
  5
443A
102
{ACAD_REACTORS
330
4439
102
}
330
4439
100
AcDbXrecord
280
     1
102
RTVSPost2010Prop28
280
     0
102
RTVSPost2010PropOp28
 70
     1
102
RTVSPost2010Prop29
280
     1
102
RTVSPost2010PropOp29
 70
     1
102
RTVSPost2010Prop30
280
     1
102
RTVSPost2010PropOp30
 70
     1
102
RTVSPost2010Prop31
280
     0
102
RTVSPost2010PropOp31
 70
     1
102
RTVSPost2010Prop32
280
     0
102
RTVSPost2010PropOp32
 70
     1
102
RTVSPost2010Prop33
280
     0
102
RTVSPost2010PropOp33
 70
     1
102
RTVSPost2010Prop34
280
     0
102
RTVSPost2010PropOp34
 70
     1
102
RTVSPost2010Prop35
280
     0
102
RTVSPost2010PropOp35
 70
     1
102
RTVSPost2010Prop36
280
     0
102
RTVSPost2010PropOp36
 70
     1
102
RTVSPost2010Prop37
 90
       50
102
RTVSPost2010PropOp37
 70
     1
102
RTVSPost2010Prop38
140
0.0
102
RTVSPost2010PropOp38
 70
     1
102
RTVSPost2010Prop39
140
1.0
102
RTVSPost2010PropOp39
 70
     1
102
RTVSPost2010Prop40
 90
        0
102
RTVSPost2010PropOp40
 70
     1
102
RTVSPost2010Prop41ColorIndex
 90
       18
102
RTVSPost2010Prop41ColorRGB
 90
        0
102
RTVSPost2010PropOp41
 70
     1
102
RTVSPost2010Prop42
 90
       50
102
RTVSPost2010PropOp42
 70
     1
102
RTVSPost2010Prop43
 90
        3
102
RTVSPost2010PropOp43
 70
     1
102
RTVSPost2010Prop44ColorIndex
 90
        5
102
RTVSPost2010Prop44ColorRGB
 90
      255
102
RTVSPost2010PropOp44
 70
     1
102
RTVSPost2010Prop45
280
     0
102
RTVSPost2010PropOp45
 70
     1
102
RTVSPost2010Prop46
 90
       50
102
RTVSPost2010PropOp46
 70
     1
102
RTVSPost2010Prop47
 90
       50
102
RTVSPost2010PropOp47
 70
     1
102
RTVSPost2010Prop48
 90
       50
102
RTVSPost2010PropOp48
 70
     1
102
RTVSPost2010Prop49
280
     0
102
RTVSPost2010PropOp49
 70
     1
102
RTVSPost2010Prop50
 90
       50
102
RTVSPost2010PropOp50
 70
     1
102
RTVSPost2010Prop51ColorIndex
 90
      256
102
RTVSPost2010Prop51ColorRGB
 90
-16777216
102
RTVSPost2010PropOp51
 70
     0
102
RTVSPost2010Prop52
140
1.0
102
RTVSPost2010PropOp52
 70
     0
102
RTVSPost2010Prop53
 90
        2
102
RTVSPost2010PropOp53
 70
     1
102
RTVSPost2010Prop54
  1
strokes_ogs.tif
102
RTVSPost2010PropOp54
 70
     1
102
RTVSPost2010Prop55
280
     0
102
RTVSPost2010PropOp55
 70
     1
102
RTVSPost2010Prop56
140
1.0
102
RTVSPost2010PropOp56
 70
     1
102
RTVSPost2010Prop57
140
1.0
102
RTVSPost2010PropOp57
 70
     1
102
RTVSPropertyOp0
 70
     1
102
RTVSPropertyOp1
 70
     1
102
RTVSPropertyOp2
 70
     1
102
RTVSPropertyOp3
 70
     1
102
RTVSPropertyOp4
 70
     1
102
RTVSPropertyOp5
 70
     1
102
RTVSPropertyOp6
 70
     1
102
RTVSPropertyOp7
 70
     1
102
RTVSPropertyOp8
 70
     1
102
RTVSPropertyOp9
 70
     1
102
RTVSPropertyOp10
 70
     1
102
RTVSPropertyOp11
 70
     1
102
RTVSPropertyOp12
 70
     1
102
RTVSPropertyOp13
 70
     1
102
RTVSPropertyOp14
 70
     1
102
RTVSPropertyOp15
 70
     1
102
RTVSPropertyOp16
 70
     1
102
RTVSPropertyOp17
 70
     1
102
RTVSPropertyOp18
 70
     1
102
RTVSPropertyOp19
 70
     1
102
RTVSPropertyOp20
 70
     1
102
RTVSPropertyOp21
 70
     1
102
RTVSPropertyOp22
 70
     1
102
RTVSPropertyOp23
 70
     1
102
RTVSPropertyOp24
 70
     1
102
RTVSPropertyOp25
 70
     1
102
RTVSPropertyOp26
 70
     1
102
RTVSPropertyOp27
 70
     1
102
RTVSPropertyOp28
 70
     1
102
RTVSPropertyOp29
 70
     1
102
RTVSPropertyOp30
 70
     1
102
RTVSPropertyOp31
 70
     1
102
RTVSPropertyOp32
 70
     1
102
RTVSPropertyOp33
 70
     1
102
RTVSPropertyOp34
 70
     1
102
RTVSPropertyOp35
 70
     1
102
RTVSPropertyOp36
 70
     1
102
RTVSPropertyOp37
 70
     1
102
RTVSPropertyOp38
 70
     1
102
RTVSPropertyOp39
 70
     1
102
RTVSPropertyOp40
 70
     1
102
RTVSPropertyOp41
 70
     1
102
RTVSPropertyOp42
 70
     1
102
RTVSPropertyOp43
 70
     1
102
RTVSPropertyOp44
 70
     1
102
RTVSPropertyOp45
 70
     1
102
RTVSPropertyOp46
 70
     1
102
RTVSPropertyOp47
 70
     1
102
RTVSPropertyOp48
 70
     1
102
RTVSPropertyOp49
 70
     1
102
RTVSPropertyOp50
 70
     1
102
RTVSPropertyOp51
 70
     0
102
RTVSPropertyOp52
 70
     0
102
RTVSPropertyOp53
 70
     1
102
RTVSPropertyOp54
 70
     1
102
RTVSPropertyOp55
 70
     1
102
RTVSPropertyOp56
 70
     1
102
RTVSPropertyOp57
 70
     1
102
RTVSPropertyOp58
 70
     1
102
RTVSPropertyOp59
 70
     1
102
RTVSPropertyOp60
 70
     1
102
RTVSPropertyOp61
 70
     1
102
RTVSPropertyOp62
 70
     1
  0
XRECORD
  5
444C
102
{ACAD_REACTORS
330
444B
102
}
330
444B
100
AcDbXrecord
280
     1
102
RTVSPost2010Prop28
280
     0
102
RTVSPost2010PropOp28
 70
     1
102
RTVSPost2010Prop29
280
     1
102
RTVSPost2010PropOp29
 70
     1
102
RTVSPost2010Prop30
280
     1
102
RTVSPost2010PropOp30
 70
     1
102
RTVSPost2010Prop31
280
     0
102
RTVSPost2010PropOp31
 70
     1
102
RTVSPost2010Prop32
280
     0
102
RTVSPost2010PropOp32
 70
     1
102
RTVSPost2010Prop33
280
     0
102
RTVSPost2010PropOp33
 70
     1
102
RTVSPost2010Prop34
280
     0
102
RTVSPost2010PropOp34
 70
     1
102
RTVSPost2010Prop35
280
     0
102
RTVSPost2010PropOp35
 70
     1
102
RTVSPost2010Prop36
280
     0
102
RTVSPost2010PropOp36
 70
     1
102
RTVSPost2010Prop37
 90
       50
102
RTVSPost2010PropOp37
 70
     1
102
RTVSPost2010Prop38
140
0.0
102
RTVSPost2010PropOp38
 70
     1
102
RTVSPost2010Prop39
140
1.0
102
RTVSPost2010PropOp39
 70
     1
102
RTVSPost2010Prop40
 90
        0
102
RTVSPost2010PropOp40
 70
     1
102
RTVSPost2010Prop41ColorIndex
 90
       18
102
RTVSPost2010Prop41ColorRGB
 90
        0
102
RTVSPost2010PropOp41
 70
     1
102
RTVSPost2010Prop42
 90
       50
102
RTVSPost2010PropOp42
 70
     1
102
RTVSPost2010Prop43
 90
        3
102
RTVSPost2010PropOp43
 70
     1
102
RTVSPost2010Prop44ColorIndex
 90
        5
102
RTVSPost2010Prop44ColorRGB
 90
      255
102
RTVSPost2010PropOp44
 70
     1
102
RTVSPost2010Prop45
280
     0
102
RTVSPost2010PropOp45
 70
     1
102
RTVSPost2010Prop46
 90
       50
102
RTVSPost2010PropOp46
 70
     1
102
RTVSPost2010Prop47
 90
       50
102
RTVSPost2010PropOp47
 70
     1
102
RTVSPost2010Prop48
 90
       50
102
RTVSPost2010PropOp48
 70
     1
102
RTVSPost2010Prop49
280
     0
102
RTVSPost2010PropOp49
 70
     1
102
RTVSPost2010Prop50
 90
       50
102
RTVSPost2010PropOp50
 70
     1
102
RTVSPost2010Prop51ColorIndex
 90
      256
102
RTVSPost2010Prop51ColorRGB
 90
-16777216
102
RTVSPost2010PropOp51
 70
     0
102
RTVSPost2010Prop52
140
1.0
102
RTVSPost2010PropOp52
 70
     0
102
RTVSPost2010Prop53
 90
        2
102
RTVSPost2010PropOp53
 70
     1
102
RTVSPost2010Prop54
  1
strokes_ogs.tif
102
RTVSPost2010PropOp54
 70
     1
102
RTVSPost2010Prop55
280
     0
102
RTVSPost2010PropOp55
 70
     1
102
RTVSPost2010Prop56
140
1.0
102
RTVSPost2010PropOp56
 70
     1
102
RTVSPost2010Prop57
140
1.0
102
RTVSPost2010PropOp57
 70
     1
102
RTVSPropertyOp0
 70
     0
102
RTVSPropertyOp1
 70
     0
102
RTVSPropertyOp2
 70
     0
102
RTVSPropertyOp3
 70
     0
102
RTVSPropertyOp4
 70
     0
102
RTVSPropertyOp5
 70
     0
102
RTVSPropertyOp6
 70
     0
102
RTVSPropertyOp7
 70
     0
102
RTVSPropertyOp8
 70
     0
102
RTVSPropertyOp9
 70
     0
102
RTVSPropertyOp10
 70
     0
102
RTVSPropertyOp11
 70
     0
102
RTVSPropertyOp12
 70
     0
102
RTVSPropertyOp13
 70
     0
102
RTVSPropertyOp14
 70
     2
102
RTVSPropertyOp15
 70
     0
102
RTVSPropertyOp16
 70
     0
102
RTVSPropertyOp17
 70
     0
102
RTVSPropertyOp18
 70
     0
102
RTVSPropertyOp19
 70
     0
102
RTVSPropertyOp20
 70
     0
102
RTVSPropertyOp21
 70
     0
102
RTVSPropertyOp22
 70
     0
102
RTVSPropertyOp23
 70
     0
102
RTVSPropertyOp24
 70
     0
102
RTVSPropertyOp25
 70
     0
102
RTVSPropertyOp26
 70
     0
102
RTVSPropertyOp27
 70
     0
102
RTVSPropertyOp28
 70
     1
102
RTVSPropertyOp29
 70
     1
102
RTVSPropertyOp30
 70
     1
102
RTVSPropertyOp31
 70
     1
102
RTVSPropertyOp32
 70
     1
102
RTVSPropertyOp33
 70
     1
102
RTVSPropertyOp34
 70
     1
102
RTVSPropertyOp35
 70
     1
102
RTVSPropertyOp36
 70
     1
102
RTVSPropertyOp37
 70
     1
102
RTVSPropertyOp38
 70
     1
102
RTVSPropertyOp39
 70
     1
102
RTVSPropertyOp40
 70
     1
102
RTVSPropertyOp41
 70
     1
102
RTVSPropertyOp42
 70
     1
102
RTVSPropertyOp43
 70
     1
102
RTVSPropertyOp44
 70
     1
102
RTVSPropertyOp45
 70
     1
102
RTVSPropertyOp46
 70
     1
102
RTVSPropertyOp47
 70
     1
102
RTVSPropertyOp48
 70
     1
102
RTVSPropertyOp49
 70
     1
102
RTVSPropertyOp50
 70
     1
102
RTVSPropertyOp51
 70
     0
102
RTVSPropertyOp52
 70
     0
102
RTVSPropertyOp53
 70
     1
102
RTVSPropertyOp54
 70
     1
102
RTVSPropertyOp55
 70
     1
102
RTVSPropertyOp56
 70
     1
102
RTVSPropertyOp57
 70
     1
102
RTVSPropertyOp58
 70
     1
102
RTVSPropertyOp59
 70
     1
102
RTVSPropertyOp60
 70
     1
102
RTVSPropertyOp61
 70
     1
102
RTVSPropertyOp62
 70
     1
  0
XRECORD
  5
4442
102
{ACAD_REACTORS
330
4441
102
}
330
4441
100
AcDbXrecord
280
     1
102
RTVSPost2010Prop28
280
     0
102
RTVSPost2010PropOp28
 70
     1
102
RTVSPost2010Prop29
280
     1
102
RTVSPost2010PropOp29
 70
     1
102
RTVSPost2010Prop30
280
     1
102
RTVSPost2010PropOp30
 70
     1
102
RTVSPost2010Prop31
280
     0
102
RTVSPost2010PropOp31
 70
     1
102
RTVSPost2010Prop32
280
     0
102
RTVSPost2010PropOp32
 70
     1
102
RTVSPost2010Prop33
280
     0
102
RTVSPost2010PropOp33
 70
     1
102
RTVSPost2010Prop34
280
     0
102
RTVSPost2010PropOp34
 70
     1
102
RTVSPost2010Prop35
280
     0
102
RTVSPost2010PropOp35
 70
     1
102
RTVSPost2010Prop36
280
     0
102
RTVSPost2010PropOp36
 70
     1
102
RTVSPost2010Prop37
 90
       50
102
RTVSPost2010PropOp37
 70
     1
102
RTVSPost2010Prop38
140
0.0
102
RTVSPost2010PropOp38
 70
     1
102
RTVSPost2010Prop39
140
1.0
102
RTVSPost2010PropOp39
 70
     1
102
RTVSPost2010Prop40
 90
        0
102
RTVSPost2010PropOp40
 70
     1
102
RTVSPost2010Prop41ColorIndex
 90
       18
102
RTVSPost2010Prop41ColorRGB
 90
        0
102
RTVSPost2010PropOp41
 70
     1
102
RTVSPost2010Prop42
 90
       50
102
RTVSPost2010PropOp42
 70
     1
102
RTVSPost2010Prop43
 90
        3
102
RTVSPost2010PropOp43
 70
     1
102
RTVSPost2010Prop44ColorIndex
 90
        5
102
RTVSPost2010Prop44ColorRGB
 90
      255
102
RTVSPost2010PropOp44
 70
     1
102
RTVSPost2010Prop45
280
     0
102
RTVSPost2010PropOp45
 70
     1
102
RTVSPost2010Prop46
 90
       50
102
RTVSPost2010PropOp46
 70
     1
102
RTVSPost2010Prop47
 90
       50
102
RTVSPost2010PropOp47
 70
     1
102
RTVSPost2010Prop48
 90
       50
102
RTVSPost2010PropOp48
 70
     1
102
RTVSPost2010Prop49
280
     0
102
RTVSPost2010PropOp49
 70
     1
102
RTVSPost2010Prop50
 90
       50
102
RTVSPost2010PropOp50
 70
     1
102
RTVSPost2010Prop51ColorIndex
 90
      256
102
RTVSPost2010Prop51ColorRGB
 90
-16777216
102
RTVSPost2010PropOp51
 70
     0
102
RTVSPost2010Prop52
140
1.0
102
RTVSPost2010PropOp52
 70
     0
102
RTVSPost2010Prop53
 90
        2
102
RTVSPost2010PropOp53
 70
     1
102
RTVSPost2010Prop54
  1
strokes_ogs.tif
102
RTVSPost2010PropOp54
 70
     1
102
RTVSPost2010Prop55
280
     0
102
RTVSPost2010PropOp55
 70
     1
102
RTVSPost2010Prop56
140
1.0
102
RTVSPost2010PropOp56
 70
     1
102
RTVSPost2010Prop57
140
1.0
102
RTVSPost2010PropOp57
 70
     1
102
RTVSPropertyOp0
 70
     1
102
RTVSPropertyOp1
 70
     1
102
RTVSPropertyOp2
 70
     1
102
RTVSPropertyOp3
 70
     1
102
RTVSPropertyOp4
 70
     1
102
RTVSPropertyOp5
 70
     1
102
RTVSPropertyOp6
 70
     1
102
RTVSPropertyOp7
 70
     1
102
RTVSPropertyOp8
 70
     1
102
RTVSPropertyOp9
 70
     1
102
RTVSPropertyOp10
 70
     1
102
RTVSPropertyOp11
 70
     1
102
RTVSPropertyOp12
 70
     1
102
RTVSPropertyOp13
 70
     1
102
RTVSPropertyOp14
 70
     1
102
RTVSPropertyOp15
 70
     1
102
RTVSPropertyOp16
 70
     1
102
RTVSPropertyOp17
 70
     1
102
RTVSPropertyOp18
 70
     1
102
RTVSPropertyOp19
 70
     1
102
RTVSPropertyOp20
 70
     1
102
RTVSPropertyOp21
 70
     1
102
RTVSPropertyOp22
 70
     1
102
RTVSPropertyOp23
 70
     1
102
RTVSPropertyOp24
 70
     1
102
RTVSPropertyOp25
 70
     1
102
RTVSPropertyOp26
 70
     1
102
RTVSPropertyOp27
 70
     1
102
RTVSPropertyOp28
 70
     1
102
RTVSPropertyOp29
 70
     1
102
RTVSPropertyOp30
 70
     1
102
RTVSPropertyOp31
 70
     1
102
RTVSPropertyOp32
 70
     1
102
RTVSPropertyOp33
 70
     1
102
RTVSPropertyOp34
 70
     1
102
RTVSPropertyOp35
 70
     1
102
RTVSPropertyOp36
 70
     1
102
RTVSPropertyOp37
 70
     1
102
RTVSPropertyOp38
 70
     1
102
RTVSPropertyOp39
 70
     1
102
RTVSPropertyOp40
 70
     1
102
RTVSPropertyOp41
 70
     1
102
RTVSPropertyOp42
 70
     1
102
RTVSPropertyOp43
 70
     1
102
RTVSPropertyOp44
 70
     1
102
RTVSPropertyOp45
 70
     1
102
RTVSPropertyOp46
 70
     1
102
RTVSPropertyOp47
 70
     1
102
RTVSPropertyOp48
 70
     1
102
RTVSPropertyOp49
 70
     1
102
RTVSPropertyOp50
 70
     1
102
RTVSPropertyOp51
 70
     0
102
RTVSPropertyOp52
 70
     0
102
RTVSPropertyOp53
 70
     1
102
RTVSPropertyOp54
 70
     1
102
RTVSPropertyOp55
 70
     1
102
RTVSPropertyOp56
 70
     1
102
RTVSPropertyOp57
 70
     1
102
RTVSPropertyOp58
 70
     1
102
RTVSPropertyOp59
 70
     1
102
RTVSPropertyOp60
 70
     1
102
RTVSPropertyOp61
 70
     1
102
RTVSPropertyOp62
 70
     1
  0
XRECORD
  5
4426
102
{ACAD_REACTORS
330
4425
102
}
330
4425
100
AcDbXrecord
280
     1
102
RTVSPost2010Prop28
280
     0
102
RTVSPost2010PropOp28
 70
     1
102
RTVSPost2010Prop29
280
     1
102
RTVSPost2010PropOp29
 70
     1
102
RTVSPost2010Prop30
280
     1
102
RTVSPost2010PropOp30
 70
     1
102
RTVSPost2010Prop31
280
     0
102
RTVSPost2010PropOp31
 70
     1
102
RTVSPost2010Prop32
280
     0
102
RTVSPost2010PropOp32
 70
     1
102
RTVSPost2010Prop33
280
     0
102
RTVSPost2010PropOp33
 70
     1
102
RTVSPost2010Prop34
280
     0
102
RTVSPost2010PropOp34
 70
     1
102
RTVSPost2010Prop35
280
     0
102
RTVSPost2010PropOp35
 70
     1
102
RTVSPost2010Prop36
280
     0
102
RTVSPost2010PropOp36
 70
     1
102
RTVSPost2010Prop37
 90
       50
102
RTVSPost2010PropOp37
 70
     1
102
RTVSPost2010Prop38
140
0.0
102
RTVSPost2010PropOp38
 70
     1
102
RTVSPost2010Prop39
140
1.0
102
RTVSPost2010PropOp39
 70
     1
102
RTVSPost2010Prop40
 90
        0
102
RTVSPost2010PropOp40
 70
     1
102
RTVSPost2010Prop41ColorIndex
 90
       18
102
RTVSPost2010Prop41ColorRGB
 90
        0
102
RTVSPost2010PropOp41
 70
     1
102
RTVSPost2010Prop42
 90
       50
102
RTVSPost2010PropOp42
 70
     1
102
RTVSPost2010Prop43
 90
        3
102
RTVSPost2010PropOp43
 70
     1
102
RTVSPost2010Prop44ColorIndex
 90
        5
102
RTVSPost2010Prop44ColorRGB
 90
      255
102
RTVSPost2010PropOp44
 70
     1
102
RTVSPost2010Prop45
280
     0
102
RTVSPost2010PropOp45
 70
     1
102
RTVSPost2010Prop46
 90
       50
102
RTVSPost2010PropOp46
 70
     1
102
RTVSPost2010Prop47
 90
       50
102
RTVSPost2010PropOp47
 70
     1
102
RTVSPost2010Prop48
 90
       50
102
RTVSPost2010PropOp48
 70
     1
102
RTVSPost2010Prop49
280
     0
102
RTVSPost2010PropOp49
 70
     1
102
RTVSPost2010Prop50
 90
       50
102
RTVSPost2010PropOp50
 70
     1
102
RTVSPost2010Prop51ColorIndex
 90
      256
102
RTVSPost2010Prop51ColorRGB
 90
-16777216
102
RTVSPost2010PropOp51
 70
     0
102
RTVSPost2010Prop52
140
1.0
102
RTVSPost2010PropOp52
 70
     0
102
RTVSPost2010Prop53
 90
        2
102
RTVSPost2010PropOp53
 70
     1
102
RTVSPost2010Prop54
  1
strokes_ogs.tif
102
RTVSPost2010PropOp54
 70
     1
102
RTVSPost2010Prop55
280
     0
102
RTVSPost2010PropOp55
 70
     1
102
RTVSPost2010Prop56
140
1.0
102
RTVSPost2010PropOp56
 70
     1
102
RTVSPost2010Prop57
140
1.0
102
RTVSPost2010PropOp57
 70
     1
102
RTVSPropertyOp0
 70
     1
102
RTVSPropertyOp1
 70
     1
102
RTVSPropertyOp2
 70
     1
102
RTVSPropertyOp3
 70
     1
102
RTVSPropertyOp4
 70
     1
102
RTVSPropertyOp5
 70
     1
102
RTVSPropertyOp6
 70
     1
102
RTVSPropertyOp7
 70
     1
102
RTVSPropertyOp8
 70
     1
102
RTVSPropertyOp9
 70
     1
102
RTVSPropertyOp10
 70
     1
102
RTVSPropertyOp11
 70
     1
102
RTVSPropertyOp12
 70
     1
102
RTVSPropertyOp13
 70
     1
102
RTVSPropertyOp14
 70
     1
102
RTVSPropertyOp15
 70
     1
102
RTVSPropertyOp16
 70
     1
102
RTVSPropertyOp17
 70
     1
102
RTVSPropertyOp18
 70
     1
102
RTVSPropertyOp19
 70
     1
102
RTVSPropertyOp20
 70
     1
102
RTVSPropertyOp21
 70
     1
102
RTVSPropertyOp22
 70
     1
102
RTVSPropertyOp23
 70
     1
102
RTVSPropertyOp24
 70
     1
102
RTVSPropertyOp25
 70
     1
102
RTVSPropertyOp26
 70
     1
102
RTVSPropertyOp27
 70
     1
102
RTVSPropertyOp28
 70
     1
102
RTVSPropertyOp29
 70
     1
102
RTVSPropertyOp30
 70
     1
102
RTVSPropertyOp31
 70
     1
102
RTVSPropertyOp32
 70
     1
102
RTVSPropertyOp33
 70
     1
102
RTVSPropertyOp34
 70
     1
102
RTVSPropertyOp35
 70
     1
102
RTVSPropertyOp36
 70
     1
102
RTVSPropertyOp37
 70
     1
102
RTVSPropertyOp38
 70
     1
102
RTVSPropertyOp39
 70
     1
102
RTVSPropertyOp40
 70
     1
102
RTVSPropertyOp41
 70
     1
102
RTVSPropertyOp42
 70
     1
102
RTVSPropertyOp43
 70
     1
102
RTVSPropertyOp44
 70
     1
102
RTVSPropertyOp45
 70
     1
102
RTVSPropertyOp46
 70
     1
102
RTVSPropertyOp47
 70
     1
102
RTVSPropertyOp48
 70
     1
102
RTVSPropertyOp49
 70
     1
102
RTVSPropertyOp50
 70
     1
102
RTVSPropertyOp51
 70
     0
102
RTVSPropertyOp52
 70
     0
102
RTVSPropertyOp53
 70
     1
102
RTVSPropertyOp54
 70
     1
102
RTVSPropertyOp55
 70
     1
102
RTVSPropertyOp56
 70
     1
102
RTVSPropertyOp57
 70
     1
102
RTVSPropertyOp58
 70
     1
102
RTVSPropertyOp59
 70
     1
102
RTVSPropertyOp60
 70
     1
102
RTVSPropertyOp61
 70
     1
102
RTVSPropertyOp62
 70
     1
  0
XRECORD
  5
4428
102
{ACAD_REACTORS
330
4427
102
}
330
4427
100
AcDbXrecord
280
     1
102
RTVSPost2010Prop28
280
     0
102
RTVSPost2010PropOp28
 70
     1
102
RTVSPost2010Prop29
280
     1
102
RTVSPost2010PropOp29
 70
     1
102
RTVSPost2010Prop30
280
     1
102
RTVSPost2010PropOp30
 70
     1
102
RTVSPost2010Prop31
280
     0
102
RTVSPost2010PropOp31
 70
     1
102
RTVSPost2010Prop32
280
     0
102
RTVSPost2010PropOp32
 70
     1
102
RTVSPost2010Prop33
280
     0
102
RTVSPost2010PropOp33
 70
     1
102
RTVSPost2010Prop34
280
     0
102
RTVSPost2010PropOp34
 70
     1
102
RTVSPost2010Prop35
280
     0
102
RTVSPost2010PropOp35
 70
     1
102
RTVSPost2010Prop36
280
     0
102
RTVSPost2010PropOp36
 70
     1
102
RTVSPost2010Prop37
 90
       50
102
RTVSPost2010PropOp37
 70
     1
102
RTVSPost2010Prop38
140
0.0
102
RTVSPost2010PropOp38
 70
     1
102
RTVSPost2010Prop39
140
1.0
102
RTVSPost2010PropOp39
 70
     1
102
RTVSPost2010Prop40
 90
        0
102
RTVSPost2010PropOp40
 70
     1
102
RTVSPost2010Prop41ColorIndex
 90
       18
102
RTVSPost2010Prop41ColorRGB
 90
        0
102
RTVSPost2010PropOp41
 70
     1
102
RTVSPost2010Prop42
 90
       50
102
RTVSPost2010PropOp42
 70
     1
102
RTVSPost2010Prop43
 90
        3
102
RTVSPost2010PropOp43
 70
     1
102
RTVSPost2010Prop44ColorIndex
 90
        5
102
RTVSPost2010Prop44ColorRGB
 90
      255
102
RTVSPost2010PropOp44
 70
     1
102
RTVSPost2010Prop45
280
     0
102
RTVSPost2010PropOp45
 70
     1
102
RTVSPost2010Prop46
 90
       50
102
RTVSPost2010PropOp46
 70
     1
102
RTVSPost2010Prop47
 90
       50
102
RTVSPost2010PropOp47
 70
     1
102
RTVSPost2010Prop48
 90
       50
102
RTVSPost2010PropOp48
 70
     1
102
RTVSPost2010Prop49
280
     0
102
RTVSPost2010PropOp49
 70
     1
102
RTVSPost2010Prop50
 90
       50
102
RTVSPost2010PropOp50
 70
     1
102
RTVSPost2010Prop51ColorIndex
 90
      256
102
RTVSPost2010Prop51ColorRGB
 90
-16777216
102
RTVSPost2010PropOp51
 70
     0
102
RTVSPost2010Prop52
140
1.0
102
RTVSPost2010PropOp52
 70
     0
102
RTVSPost2010Prop53
 90
        2
102
RTVSPost2010PropOp53
 70
     1
102
RTVSPost2010Prop54
  1
strokes_ogs.tif
102
RTVSPost2010PropOp54
 70
     1
102
RTVSPost2010Prop55
280
     0
102
RTVSPost2010PropOp55
 70
     1
102
RTVSPost2010Prop56
140
1.0
102
RTVSPost2010PropOp56
 70
     1
102
RTVSPost2010Prop57
140
1.0
102
RTVSPost2010PropOp57
 70
     1
102
RTVSPropertyOp0
 70
     1
102
RTVSPropertyOp1
 70
     1
102
RTVSPropertyOp2
 70
     1
102
RTVSPropertyOp3
 70
     1
102
RTVSPropertyOp4
 70
     1
102
RTVSPropertyOp5
 70
     1
102
RTVSPropertyOp6
 70
     1
102
RTVSPropertyOp7
 70
     1
102
RTVSPropertyOp8
 70
     1
102
RTVSPropertyOp9
 70
     1
102
RTVSPropertyOp10
 70
     1
102
RTVSPropertyOp11
 70
     1
102
RTVSPropertyOp12
 70
     1
102
RTVSPropertyOp13
 70
     1
102
RTVSPropertyOp14
 70
     1
102
RTVSPropertyOp15
 70
     1
102
RTVSPropertyOp16
 70
     1
102
RTVSPropertyOp17
 70
     1
102
RTVSPropertyOp18
 70
     1
102
RTVSPropertyOp19
 70
     1
102
RTVSPropertyOp20
 70
     1
102
RTVSPropertyOp21
 70
     1
102
RTVSPropertyOp22
 70
     1
102
RTVSPropertyOp23
 70
     1
102
RTVSPropertyOp24
 70
     1
102
RTVSPropertyOp25
 70
     1
102
RTVSPropertyOp26
 70
     1
102
RTVSPropertyOp27
 70
     1
102
RTVSPropertyOp28
 70
     1
102
RTVSPropertyOp29
 70
     1
102
RTVSPropertyOp30
 70
     1
102
RTVSPropertyOp31
 70
     1
102
RTVSPropertyOp32
 70
     1
102
RTVSPropertyOp33
 70
     1
102
RTVSPropertyOp34
 70
     1
102
RTVSPropertyOp35
 70
     1
102
RTVSPropertyOp36
 70
     1
102
RTVSPropertyOp37
 70
     1
102
RTVSPropertyOp38
 70
     1
102
RTVSPropertyOp39
 70
     1
102
RTVSPropertyOp40
 70
     1
102
RTVSPropertyOp41
 70
     1
102
RTVSPropertyOp42
 70
     1
102
RTVSPropertyOp43
 70
     1
102
RTVSPropertyOp44
 70
     1
102
RTVSPropertyOp45
 70
     1
102
RTVSPropertyOp46
 70
     1
102
RTVSPropertyOp47
 70
     1
102
RTVSPropertyOp48
 70
     1
102
RTVSPropertyOp49
 70
     1
102
RTVSPropertyOp50
 70
     1
102
RTVSPropertyOp51
 70
     0
102
RTVSPropertyOp52
 70
     0
102
RTVSPropertyOp53
 70
     1
102
RTVSPropertyOp54
 70
     1
102
RTVSPropertyOp55
 70
     1
102
RTVSPropertyOp56
 70
     1
102
RTVSPropertyOp57
 70
     1
102
RTVSPropertyOp58
 70
     1
102
RTVSPropertyOp59
 70
     1
102
RTVSPropertyOp60
 70
     1
102
RTVSPropertyOp61
 70
     1
102
RTVSPropertyOp62
 70
     1
  0
XRECORD
  5
442A
102
{ACAD_REACTORS
330
4429
102
}
330
4429
100
AcDbXrecord
280
     1
102
RTVSPost2010Prop28
280
     0
102
RTVSPost2010PropOp28
 70
     1
102
RTVSPost2010Prop29
280
     1
102
RTVSPost2010PropOp29
 70
     1
102
RTVSPost2010Prop30
280
     1
102
RTVSPost2010PropOp30
 70
     1
102
RTVSPost2010Prop31
280
     0
102
RTVSPost2010PropOp31
 70
     1
102
RTVSPost2010Prop32
280
     0
102
RTVSPost2010PropOp32
 70
     1
102
RTVSPost2010Prop33
280
     0
102
RTVSPost2010PropOp33
 70
     1
102
RTVSPost2010Prop34
280
     0
102
RTVSPost2010PropOp34
 70
     1
102
RTVSPost2010Prop35
280
     0
102
RTVSPost2010PropOp35
 70
     1
102
RTVSPost2010Prop36
280
     0
102
RTVSPost2010PropOp36
 70
     1
102
RTVSPost2010Prop37
 90
       50
102
RTVSPost2010PropOp37
 70
     1
102
RTVSPost2010Prop38
140
0.0
102
RTVSPost2010PropOp38
 70
     1
102
RTVSPost2010Prop39
140
1.0
102
RTVSPost2010PropOp39
 70
     1
102
RTVSPost2010Prop40
 90
        0
102
RTVSPost2010PropOp40
 70
     1
102
RTVSPost2010Prop41ColorIndex
 90
       18
102
RTVSPost2010Prop41ColorRGB
 90
        0
102
RTVSPost2010PropOp41
 70
     1
102
RTVSPost2010Prop42
 90
       50
102
RTVSPost2010PropOp42
 70
     1
102
RTVSPost2010Prop43
 90
        3
102
RTVSPost2010PropOp43
 70
     1
102
RTVSPost2010Prop44ColorIndex
 90
        5
102
RTVSPost2010Prop44ColorRGB
 90
      255
102
RTVSPost2010PropOp44
 70
     1
102
RTVSPost2010Prop45
280
     0
102
RTVSPost2010PropOp45
 70
     1
102
RTVSPost2010Prop46
 90
       50
102
RTVSPost2010PropOp46
 70
     1
102
RTVSPost2010Prop47
 90
       50
102
RTVSPost2010PropOp47
 70
     1
102
RTVSPost2010Prop48
 90
       50
102
RTVSPost2010PropOp48
 70
     1
102
RTVSPost2010Prop49
280
     0
102
RTVSPost2010PropOp49
 70
     1
102
RTVSPost2010Prop50
 90
       50
102
RTVSPost2010PropOp50
 70
     1
102
RTVSPost2010Prop51ColorIndex
 90
      256
102
RTVSPost2010Prop51ColorRGB
 90
-16777216
102
RTVSPost2010PropOp51
 70
     0
102
RTVSPost2010Prop52
140
1.0
102
RTVSPost2010PropOp52
 70
     0
102
RTVSPost2010Prop53
 90
        2
102
RTVSPost2010PropOp53
 70
     1
102
RTVSPost2010Prop54
  1
strokes_ogs.tif
102
RTVSPost2010PropOp54
 70
     1
102
RTVSPost2010Prop55
280
     0
102
RTVSPost2010PropOp55
 70
     1
102
RTVSPost2010Prop56
140
1.0
102
RTVSPost2010PropOp56
 70
     1
102
RTVSPost2010Prop57
140
1.0
102
RTVSPost2010PropOp57
 70
     1
102
RTVSPropertyOp0
 70
     1
102
RTVSPropertyOp1
 70
     1
102
RTVSPropertyOp2
 70
     1
102
RTVSPropertyOp3
 70
     1
102
RTVSPropertyOp4
 70
     1
102
RTVSPropertyOp5
 70
     1
102
RTVSPropertyOp6
 70
     1
102
RTVSPropertyOp7
 70
     1
102
RTVSPropertyOp8
 70
     1
102
RTVSPropertyOp9
 70
     1
102
RTVSPropertyOp10
 70
     1
102
RTVSPropertyOp11
 70
     1
102
RTVSPropertyOp12
 70
     1
102
RTVSPropertyOp13
 70
     1
102
RTVSPropertyOp14
 70
     1
102
RTVSPropertyOp15
 70
     1
102
RTVSPropertyOp16
 70
     1
102
RTVSPropertyOp17
 70
     1
102
RTVSPropertyOp18
 70
     1
102
RTVSPropertyOp19
 70
     1
102
RTVSPropertyOp20
 70
     1
102
RTVSPropertyOp21
 70
     1
102
RTVSPropertyOp22
 70
     1
102
RTVSPropertyOp23
 70
     1
102
RTVSPropertyOp24
 70
     1
102
RTVSPropertyOp25
 70
     1
102
RTVSPropertyOp26
 70
     1
102
RTVSPropertyOp27
 70
     1
102
RTVSPropertyOp28
 70
     1
102
RTVSPropertyOp29
 70
     1
102
RTVSPropertyOp30
 70
     1
102
RTVSPropertyOp31
 70
     1
102
RTVSPropertyOp32
 70
     1
102
RTVSPropertyOp33
 70
     1
102
RTVSPropertyOp34
 70
     1
102
RTVSPropertyOp35
 70
     1
102
RTVSPropertyOp36
 70
     1
102
RTVSPropertyOp37
 70
     1
102
RTVSPropertyOp38
 70
     1
102
RTVSPropertyOp39
 70
     1
102
RTVSPropertyOp40
 70
     1
102
RTVSPropertyOp41
 70
     1
102
RTVSPropertyOp42
 70
     1
102
RTVSPropertyOp43
 70
     1
102
RTVSPropertyOp44
 70
     1
102
RTVSPropertyOp45
 70
     1
102
RTVSPropertyOp46
 70
     1
102
RTVSPropertyOp47
 70
     1
102
RTVSPropertyOp48
 70
     1
102
RTVSPropertyOp49
 70
     1
102
RTVSPropertyOp50
 70
     1
102
RTVSPropertyOp51
 70
     0
102
RTVSPropertyOp52
 70
     0
102
RTVSPropertyOp53
 70
     1
102
RTVSPropertyOp54
 70
     1
102
RTVSPropertyOp55
 70
     1
102
RTVSPropertyOp56
 70
     1
102
RTVSPropertyOp57
 70
     1
102
RTVSPropertyOp58
 70
     1
102
RTVSPropertyOp59
 70
     1
102
RTVSPropertyOp60
 70
     1
102
RTVSPropertyOp61
 70
     1
102
RTVSPropertyOp62
 70
     1
  0
XRECORD
  5
442C
102
{ACAD_REACTORS
330
442B
102
}
330
442B
100
AcDbXrecord
280
     1
102
RTVSPost2010Prop28
280
     0
102
RTVSPost2010PropOp28
 70
     1
102
RTVSPost2010Prop29
280
     1
102
RTVSPost2010PropOp29
 70
     1
102
RTVSPost2010Prop30
280
     1
102
RTVSPost2010PropOp30
 70
     1
102
RTVSPost2010Prop31
280
     0
102
RTVSPost2010PropOp31
 70
     1
102
RTVSPost2010Prop32
280
     0
102
RTVSPost2010PropOp32
 70
     1
102
RTVSPost2010Prop33
280
     0
102
RTVSPost2010PropOp33
 70
     1
102
RTVSPost2010Prop34
280
     0
102
RTVSPost2010PropOp34
 70
     1
102
RTVSPost2010Prop35
280
     0
102
RTVSPost2010PropOp35
 70
     1
102
RTVSPost2010Prop36
280
     0
102
RTVSPost2010PropOp36
 70
     1
102
RTVSPost2010Prop37
 90
       50
102
RTVSPost2010PropOp37
 70
     1
102
RTVSPost2010Prop38
140
0.0
102
RTVSPost2010PropOp38
 70
     1
102
RTVSPost2010Prop39
140
1.0
102
RTVSPost2010PropOp39
 70
     1
102
RTVSPost2010Prop40
 90
        0
102
RTVSPost2010PropOp40
 70
     1
102
RTVSPost2010Prop41ColorIndex
 90
       18
102
RTVSPost2010Prop41ColorRGB
 90
        0
102
RTVSPost2010PropOp41
 70
     1
102
RTVSPost2010Prop42
 90
       50
102
RTVSPost2010PropOp42
 70
     1
102
RTVSPost2010Prop43
 90
        3
102
RTVSPost2010PropOp43
 70
     1
102
RTVSPost2010Prop44ColorIndex
 90
        5
102
RTVSPost2010Prop44ColorRGB
 90
      255
102
RTVSPost2010PropOp44
 70
     1
102
RTVSPost2010Prop45
280
     0
102
RTVSPost2010PropOp45
 70
     1
102
RTVSPost2010Prop46
 90
       50
102
RTVSPost2010PropOp46
 70
     1
102
RTVSPost2010Prop47
 90
       50
102
RTVSPost2010PropOp47
 70
     1
102
RTVSPost2010Prop48
 90
       50
102
RTVSPost2010PropOp48
 70
     1
102
RTVSPost2010Prop49
280
     0
102
RTVSPost2010PropOp49
 70
     1
102
RTVSPost2010Prop50
 90
       50
102
RTVSPost2010PropOp50
 70
     1
102
RTVSPost2010Prop51ColorIndex
 90
      256
102
RTVSPost2010Prop51ColorRGB
 90
-16777216
102
RTVSPost2010PropOp51
 70
     0
102
RTVSPost2010Prop52
140
1.0
102
RTVSPost2010PropOp52
 70
     0
102
RTVSPost2010Prop53
 90
        2
102
RTVSPost2010PropOp53
 70
     1
102
RTVSPost2010Prop54
  1
strokes_ogs.tif
102
RTVSPost2010PropOp54
 70
     1
102
RTVSPost2010Prop55
280
     0
102
RTVSPost2010PropOp55
 70
     1
102
RTVSPost2010Prop56
140
1.0
102
RTVSPost2010PropOp56
 70
     1
102
RTVSPost2010Prop57
140
1.0
102
RTVSPost2010PropOp57
 70
     1
102
RTVSPropertyOp0
 70
     1
102
RTVSPropertyOp1
 70
     1
102
RTVSPropertyOp2
 70
     1
102
RTVSPropertyOp3
 70
     1
102
RTVSPropertyOp4
 70
     1
102
RTVSPropertyOp5
 70
     1
102
RTVSPropertyOp6
 70
     1
102
RTVSPropertyOp7
 70
     1
102
RTVSPropertyOp8
 70
     1
102
RTVSPropertyOp9
 70
     1
102
RTVSPropertyOp10
 70
     1
102
RTVSPropertyOp11
 70
     1
102
RTVSPropertyOp12
 70
     1
102
RTVSPropertyOp13
 70
     1
102
RTVSPropertyOp14
 70
     1
102
RTVSPropertyOp15
 70
     1
102
RTVSPropertyOp16
 70
     1
102
RTVSPropertyOp17
 70
     1
102
RTVSPropertyOp18
 70
     1
102
RTVSPropertyOp19
 70
     1
102
RTVSPropertyOp20
 70
     1
102
RTVSPropertyOp21
 70
     1
102
RTVSPropertyOp22
 70
     1
102
RTVSPropertyOp23
 70
     1
102
RTVSPropertyOp24
 70
     1
102
RTVSPropertyOp25
 70
     1
102
RTVSPropertyOp26
 70
     1
102
RTVSPropertyOp27
 70
     1
102
RTVSPropertyOp28
 70
     1
102
RTVSPropertyOp29
 70
     1
102
RTVSPropertyOp30
 70
     1
102
RTVSPropertyOp31
 70
     1
102
RTVSPropertyOp32
 70
     1
102
RTVSPropertyOp33
 70
     1
102
RTVSPropertyOp34
 70
     1
102
RTVSPropertyOp35
 70
     1
102
RTVSPropertyOp36
 70
     1
102
RTVSPropertyOp37
 70
     1
102
RTVSPropertyOp38
 70
     1
102
RTVSPropertyOp39
 70
     1
102
RTVSPropertyOp40
 70
     1
102
RTVSPropertyOp41
 70
     1
102
RTVSPropertyOp42
 70
     1
102
RTVSPropertyOp43
 70
     1
102
RTVSPropertyOp44
 70
     1
102
RTVSPropertyOp45
 70
     1
102
RTVSPropertyOp46
 70
     1
102
RTVSPropertyOp47
 70
     1
102
RTVSPropertyOp48
 70
     1
102
RTVSPropertyOp49
 70
     1
102
RTVSPropertyOp50
 70
     1
102
RTVSPropertyOp51
 70
     0
102
RTVSPropertyOp52
 70
     0
102
RTVSPropertyOp53
 70
     1
102
RTVSPropertyOp54
 70
     1
102
RTVSPropertyOp55
 70
     1
102
RTVSPropertyOp56
 70
     1
102
RTVSPropertyOp57
 70
     1
102
RTVSPropertyOp58
 70
     1
102
RTVSPropertyOp59
 70
     1
102
RTVSPropertyOp60
 70
     1
102
RTVSPropertyOp61
 70
     1
102
RTVSPropertyOp62
 70
     1
  0
XRECORD
  5
4434
102
{ACAD_REACTORS
330
4433
102
}
330
4433
100
AcDbXrecord
280
     1
102
RTVSPost2010Prop28
280
     0
102
RTVSPost2010PropOp28
 70
     1
102
RTVSPost2010Prop29
280
     1
102
RTVSPost2010PropOp29
 70
     1
102
RTVSPost2010Prop30
280
     1
102
RTVSPost2010PropOp30
 70
     1
102
RTVSPost2010Prop31
280
     0
102
RTVSPost2010PropOp31
 70
     1
102
RTVSPost2010Prop32
280
     0
102
RTVSPost2010PropOp32
 70
     1
102
RTVSPost2010Prop33
280
     0
102
RTVSPost2010PropOp33
 70
     1
102
RTVSPost2010Prop34
280
     0
102
RTVSPost2010PropOp34
 70
     1
102
RTVSPost2010Prop35
280
     0
102
RTVSPost2010PropOp35
 70
     1
102
RTVSPost2010Prop36
280
     0
102
RTVSPost2010PropOp36
 70
     1
102
RTVSPost2010Prop37
 90
       50
102
RTVSPost2010PropOp37
 70
     1
102
RTVSPost2010Prop38
140
0.0
102
RTVSPost2010PropOp38
 70
     1
102
RTVSPost2010Prop39
140
1.0
102
RTVSPost2010PropOp39
 70
     1
102
RTVSPost2010Prop40
 90
        0
102
RTVSPost2010PropOp40
 70
     1
102
RTVSPost2010Prop41ColorIndex
 90
       18
102
RTVSPost2010Prop41ColorRGB
 90
        0
102
RTVSPost2010PropOp41
 70
     1
102
RTVSPost2010Prop42
 90
       50
102
RTVSPost2010PropOp42
 70
     1
102
RTVSPost2010Prop43
 90
        3
102
RTVSPost2010PropOp43
 70
     1
102
RTVSPost2010Prop44ColorIndex
 90
        5
102
RTVSPost2010Prop44ColorRGB
 90
      255
102
RTVSPost2010PropOp44
 70
     1
102
RTVSPost2010Prop45
280
     0
102
RTVSPost2010PropOp45
 70
     1
102
RTVSPost2010Prop46
 90
       50
102
RTVSPost2010PropOp46
 70
     1
102
RTVSPost2010Prop47
 90
       50
102
RTVSPost2010PropOp47
 70
     1
102
RTVSPost2010Prop48
 90
       50
102
RTVSPost2010PropOp48
 70
     1
102
RTVSPost2010Prop49
280
     0
102
RTVSPost2010PropOp49
 70
     1
102
RTVSPost2010Prop50
 90
       50
102
RTVSPost2010PropOp50
 70
     1
102
RTVSPost2010Prop51ColorIndex
 90
      256
102
RTVSPost2010Prop51ColorRGB
 90
-16777216
102
RTVSPost2010PropOp51
 70
     0
102
RTVSPost2010Prop52
140
1.0
102
RTVSPost2010PropOp52
 70
     0
102
RTVSPost2010Prop53
 90
        2
102
RTVSPost2010PropOp53
 70
     1
102
RTVSPost2010Prop54
  1
strokes_ogs.tif
102
RTVSPost2010PropOp54
 70
     1
102
RTVSPost2010Prop55
280
     0
102
RTVSPost2010PropOp55
 70
     1
102
RTVSPost2010Prop56
140
1.0
102
RTVSPost2010PropOp56
 70
     1
102
RTVSPost2010Prop57
140
1.0
102
RTVSPost2010PropOp57
 70
     1
102
RTVSPropertyOp0
 70
     1
102
RTVSPropertyOp1
 70
     1
102
RTVSPropertyOp2
 70
     1
102
RTVSPropertyOp3
 70
     1
102
RTVSPropertyOp4
 70
     1
102
RTVSPropertyOp5
 70
     1
102
RTVSPropertyOp6
 70
     1
102
RTVSPropertyOp7
 70
     1
102
RTVSPropertyOp8
 70
     1
102
RTVSPropertyOp9
 70
     1
102
RTVSPropertyOp10
 70
     1
102
RTVSPropertyOp11
 70
     1
102
RTVSPropertyOp12
 70
     1
102
RTVSPropertyOp13
 70
     1
102
RTVSPropertyOp14
 70
     1
102
RTVSPropertyOp15
 70
     1
102
RTVSPropertyOp16
 70
     1
102
RTVSPropertyOp17
 70
     1
102
RTVSPropertyOp18
 70
     1
102
RTVSPropertyOp19
 70
     1
102
RTVSPropertyOp20
 70
     1
102
RTVSPropertyOp21
 70
     1
102
RTVSPropertyOp22
 70
     1
102
RTVSPropertyOp23
 70
     1
102
RTVSPropertyOp24
 70
     1
102
RTVSPropertyOp25
 70
     1
102
RTVSPropertyOp26
 70
     1
102
RTVSPropertyOp27
 70
     1
102
RTVSPropertyOp28
 70
     1
102
RTVSPropertyOp29
 70
     1
102
RTVSPropertyOp30
 70
     1
102
RTVSPropertyOp31
 70
     1
102
RTVSPropertyOp32
 70
     1
102
RTVSPropertyOp33
 70
     1
102
RTVSPropertyOp34
 70
     1
102
RTVSPropertyOp35
 70
     1
102
RTVSPropertyOp36
 70
     1
102
RTVSPropertyOp37
 70
     1
102
RTVSPropertyOp38
 70
     1
102
RTVSPropertyOp39
 70
     1
102
RTVSPropertyOp40
 70
     1
102
RTVSPropertyOp41
 70
     1
102
RTVSPropertyOp42
 70
     1
102
RTVSPropertyOp43
 70
     1
102
RTVSPropertyOp44
 70
     1
102
RTVSPropertyOp45
 70
     1
102
RTVSPropertyOp46
 70
     1
102
RTVSPropertyOp47
 70
     1
102
RTVSPropertyOp48
 70
     1
102
RTVSPropertyOp49
 70
     1
102
RTVSPropertyOp50
 70
     1
102
RTVSPropertyOp51
 70
     0
102
RTVSPropertyOp52
 70
     0
102
RTVSPropertyOp53
 70
     1
102
RTVSPropertyOp54
 70
     1
102
RTVSPropertyOp55
 70
     1
102
RTVSPropertyOp56
 70
     1
102
RTVSPropertyOp57
 70
     1
102
RTVSPropertyOp58
 70
     1
102
RTVSPropertyOp59
 70
     1
102
RTVSPropertyOp60
 70
     1
102
RTVSPropertyOp61
 70
     1
102
RTVSPropertyOp62
 70
     1
  0
XRECORD
  5
4448
102
{ACAD_REACTORS
330
4447
102
}
330
4447
100
AcDbXrecord
280
     1
102
RTVSPost2010Prop28
280
     0
102
RTVSPost2010PropOp28
 70
     1
102
RTVSPost2010Prop29
280
     1
102
RTVSPost2010PropOp29
 70
     1
102
RTVSPost2010Prop30
280
     1
102
RTVSPost2010PropOp30
 70
     1
102
RTVSPost2010Prop31
280
     0
102
RTVSPost2010PropOp31
 70
     1
102
RTVSPost2010Prop32
280
     0
102
RTVSPost2010PropOp32
 70
     1
102
RTVSPost2010Prop33
280
     0
102
RTVSPost2010PropOp33
 70
     1
102
RTVSPost2010Prop34
280
     0
102
RTVSPost2010PropOp34
 70
     1
102
RTVSPost2010Prop35
280
     0
102
RTVSPost2010PropOp35
 70
     1
102
RTVSPost2010Prop36
280
     0
102
RTVSPost2010PropOp36
 70
     1
102
RTVSPost2010Prop37
 90
       50
102
RTVSPost2010PropOp37
 70
     1
102
RTVSPost2010Prop38
140
0.0
102
RTVSPost2010PropOp38
 70
     1
102
RTVSPost2010Prop39
140
1.0
102
RTVSPost2010PropOp39
 70
     1
102
RTVSPost2010Prop40
 90
        0
102
RTVSPost2010PropOp40
 70
     1
102
RTVSPost2010Prop41ColorIndex
 90
       18
102
RTVSPost2010Prop41ColorRGB
 90
        0
102
RTVSPost2010PropOp41
 70
     1
102
RTVSPost2010Prop42
 90
       50
102
RTVSPost2010PropOp42
 70
     1
102
RTVSPost2010Prop43
 90
        3
102
RTVSPost2010PropOp43
 70
     1
102
RTVSPost2010Prop44ColorIndex
 90
        5
102
RTVSPost2010Prop44ColorRGB
 90
      255
102
RTVSPost2010PropOp44
 70
     1
102
RTVSPost2010Prop45
280
     0
102
RTVSPost2010PropOp45
 70
     1
102
RTVSPost2010Prop46
 90
       50
102
RTVSPost2010PropOp46
 70
     1
102
RTVSPost2010Prop47
 90
       50
102
RTVSPost2010PropOp47
 70
     1
102
RTVSPost2010Prop48
 90
       50
102
RTVSPost2010PropOp48
 70
     1
102
RTVSPost2010Prop49
280
     0
102
RTVSPost2010PropOp49
 70
     1
102
RTVSPost2010Prop50
 90
       50
102
RTVSPost2010PropOp50
 70
     1
102
RTVSPost2010Prop51ColorIndex
 90
      256
102
RTVSPost2010Prop51ColorRGB
 90
-16777216
102
RTVSPost2010PropOp51
 70
     0
102
RTVSPost2010Prop52
140
1.0
102
RTVSPost2010PropOp52
 70
     0
102
RTVSPost2010Prop53
 90
        2
102
RTVSPost2010PropOp53
 70
     1
102
RTVSPost2010Prop54
  1
strokes_ogs.tif
102
RTVSPost2010PropOp54
 70
     1
102
RTVSPost2010Prop55
280
     0
102
RTVSPost2010PropOp55
 70
     1
102
RTVSPost2010Prop56
140
1.0
102
RTVSPost2010PropOp56
 70
     1
102
RTVSPost2010Prop57
140
1.0
102
RTVSPost2010PropOp57
 70
     1
102
RTVSPropertyOp0
 70
     0
102
RTVSPropertyOp1
 70
     0
102
RTVSPropertyOp2
 70
     0
102
RTVSPropertyOp3
 70
     0
102
RTVSPropertyOp4
 70
     0
102
RTVSPropertyOp5
 70
     0
102
RTVSPropertyOp6
 70
     0
102
RTVSPropertyOp7
 70
     0
102
RTVSPropertyOp8
 70
     0
102
RTVSPropertyOp9
 70
     0
102
RTVSPropertyOp10
 70
     0
102
RTVSPropertyOp11
 70
     0
102
RTVSPropertyOp12
 70
     0
102
RTVSPropertyOp13
 70
     0
102
RTVSPropertyOp14
 70
     2
102
RTVSPropertyOp15
 70
     0
102
RTVSPropertyOp16
 70
     0
102
RTVSPropertyOp17
 70
     0
102
RTVSPropertyOp18
 70
     0
102
RTVSPropertyOp19
 70
     0
102
RTVSPropertyOp20
 70
     0
102
RTVSPropertyOp21
 70
     0
102
RTVSPropertyOp22
 70
     0
102
RTVSPropertyOp23
 70
     0
102
RTVSPropertyOp24
 70
     0
102
RTVSPropertyOp25
 70
     0
102
RTVSPropertyOp26
 70
     0
102
RTVSPropertyOp27
 70
     0
102
RTVSPropertyOp28
 70
     1
102
RTVSPropertyOp29
 70
     1
102
RTVSPropertyOp30
 70
     1
102
RTVSPropertyOp31
 70
     1
102
RTVSPropertyOp32
 70
     1
102
RTVSPropertyOp33
 70
     1
102
RTVSPropertyOp34
 70
     1
102
RTVSPropertyOp35
 70
     1
102
RTVSPropertyOp36
 70
     1
102
RTVSPropertyOp37
 70
     1
102
RTVSPropertyOp38
 70
     1
102
RTVSPropertyOp39
 70
     1
102
RTVSPropertyOp40
 70
     1
102
RTVSPropertyOp41
 70
     1
102
RTVSPropertyOp42
 70
     1
102
RTVSPropertyOp43
 70
     1
102
RTVSPropertyOp44
 70
     1
102
RTVSPropertyOp45
 70
     1
102
RTVSPropertyOp46
 70
     1
102
RTVSPropertyOp47
 70
     1
102
RTVSPropertyOp48
 70
     1
102
RTVSPropertyOp49
 70
     1
102
RTVSPropertyOp50
 70
     1
102
RTVSPropertyOp51
 70
     0
102
RTVSPropertyOp52
 70
     0
102
RTVSPropertyOp53
 70
     1
102
RTVSPropertyOp54
 70
     1
102
RTVSPropertyOp55
 70
     1
102
RTVSPropertyOp56
 70
     1
102
RTVSPropertyOp57
 70
     1
102
RTVSPropertyOp58
 70
     1
102
RTVSPropertyOp59
 70
     1
102
RTVSPropertyOp60
 70
     1
102
RTVSPropertyOp61
 70
     1
102
RTVSPropertyOp62
 70
     1
  0
XRECORD
  5
4440
102
{ACAD_REACTORS
330
443F
102
}
330
443F
100
AcDbXrecord
280
     1
102
RTVSPost2010Prop28
280
     0
102
RTVSPost2010PropOp28
 70
     1
102
RTVSPost2010Prop29
280
     1
102
RTVSPost2010PropOp29
 70
     1
102
RTVSPost2010Prop30
280
     1
102
RTVSPost2010PropOp30
 70
     1
102
RTVSPost2010Prop31
280
     0
102
RTVSPost2010PropOp31
 70
     1
102
RTVSPost2010Prop32
280
     0
102
RTVSPost2010PropOp32
 70
     1
102
RTVSPost2010Prop33
280
     0
102
RTVSPost2010PropOp33
 70
     1
102
RTVSPost2010Prop34
280
     0
102
RTVSPost2010PropOp34
 70
     1
102
RTVSPost2010Prop35
280
     0
102
RTVSPost2010PropOp35
 70
     1
102
RTVSPost2010Prop36
280
     0
102
RTVSPost2010PropOp36
 70
     1
102
RTVSPost2010Prop37
 90
       50
102
RTVSPost2010PropOp37
 70
     1
102
RTVSPost2010Prop38
140
0.0
102
RTVSPost2010PropOp38
 70
     1
102
RTVSPost2010Prop39
140
1.0
102
RTVSPost2010PropOp39
 70
     1
102
RTVSPost2010Prop40
 90
        0
102
RTVSPost2010PropOp40
 70
     1
102
RTVSPost2010Prop41ColorIndex
 90
       18
102
RTVSPost2010Prop41ColorRGB
 90
        0
102
RTVSPost2010PropOp41
 70
     1
102
RTVSPost2010Prop42
 90
       50
102
RTVSPost2010PropOp42
 70
     1
102
RTVSPost2010Prop43
 90
        3
102
RTVSPost2010PropOp43
 70
     1
102
RTVSPost2010Prop44ColorIndex
 90
        5
102
RTVSPost2010Prop44ColorRGB
 90
      255
102
RTVSPost2010PropOp44
 70
     1
102
RTVSPost2010Prop45
280
     0
102
RTVSPost2010PropOp45
 70
     1
102
RTVSPost2010Prop46
 90
       50
102
RTVSPost2010PropOp46
 70
     1
102
RTVSPost2010Prop47
 90
       50
102
RTVSPost2010PropOp47
 70
     1
102
RTVSPost2010Prop48
 90
       50
102
RTVSPost2010PropOp48
 70
     1
102
RTVSPost2010Prop49
280
     0
102
RTVSPost2010PropOp49
 70
     1
102
RTVSPost2010Prop50
 90
       50
102
RTVSPost2010PropOp50
 70
     1
102
RTVSPost2010Prop51ColorIndex
 90
      256
102
RTVSPost2010Prop51ColorRGB
 90
-16777216
102
RTVSPost2010PropOp51
 70
     0
102
RTVSPost2010Prop52
140
1.0
102
RTVSPost2010PropOp52
 70
     0
102
RTVSPost2010Prop53
 90
        2
102
RTVSPost2010PropOp53
 70
     1
102
RTVSPost2010Prop54
  1
strokes_ogs.tif
102
RTVSPost2010PropOp54
 70
     1
102
RTVSPost2010Prop55
280
     0
102
RTVSPost2010PropOp55
 70
     1
102
RTVSPost2010Prop56
140
1.0
102
RTVSPost2010PropOp56
 70
     1
102
RTVSPost2010Prop57
140
1.0
102
RTVSPost2010PropOp57
 70
     1
102
RTVSPropertyOp0
 70
     1
102
RTVSPropertyOp1
 70
     1
102
RTVSPropertyOp2
 70
     1
102
RTVSPropertyOp3
 70
     1
102
RTVSPropertyOp4
 70
     1
102
RTVSPropertyOp5
 70
     1
102
RTVSPropertyOp6
 70
     1
102
RTVSPropertyOp7
 70
     1
102
RTVSPropertyOp8
 70
     1
102
RTVSPropertyOp9
 70
     1
102
RTVSPropertyOp10
 70
     1
102
RTVSPropertyOp11
 70
     1
102
RTVSPropertyOp12
 70
     1
102
RTVSPropertyOp13
 70
     1
102
RTVSPropertyOp14
 70
     1
102
RTVSPropertyOp15
 70
     1
102
RTVSPropertyOp16
 70
     1
102
RTVSPropertyOp17
 70
     1
102
RTVSPropertyOp18
 70
     1
102
RTVSPropertyOp19
 70
     1
102
RTVSPropertyOp20
 70
     1
102
RTVSPropertyOp21
 70
     1
102
RTVSPropertyOp22
 70
     1
102
RTVSPropertyOp23
 70
     1
102
RTVSPropertyOp24
 70
     1
102
RTVSPropertyOp25
 70
     1
102
RTVSPropertyOp26
 70
     1
102
RTVSPropertyOp27
 70
     1
102
RTVSPropertyOp28
 70
     1
102
RTVSPropertyOp29
 70
     1
102
RTVSPropertyOp30
 70
     1
102
RTVSPropertyOp31
 70
     1
102
RTVSPropertyOp32
 70
     1
102
RTVSPropertyOp33
 70
     1
102
RTVSPropertyOp34
 70
     1
102
RTVSPropertyOp35
 70
     1
102
RTVSPropertyOp36
 70
     1
102
RTVSPropertyOp37
 70
     1
102
RTVSPropertyOp38
 70
     1
102
RTVSPropertyOp39
 70
     1
102
RTVSPropertyOp40
 70
     1
102
RTVSPropertyOp41
 70
     1
102
RTVSPropertyOp42
 70
     1
102
RTVSPropertyOp43
 70
     1
102
RTVSPropertyOp44
 70
     1
102
RTVSPropertyOp45
 70
     1
102
RTVSPropertyOp46
 70
     1
102
RTVSPropertyOp47
 70
     1
102
RTVSPropertyOp48
 70
     1
102
RTVSPropertyOp49
 70
     1
102
RTVSPropertyOp50
 70
     1
102
RTVSPropertyOp51
 70
     0
102
RTVSPropertyOp52
 70
     0
102
RTVSPropertyOp53
 70
     1
102
RTVSPropertyOp54
 70
     1
102
RTVSPropertyOp55
 70
     1
102
RTVSPropertyOp56
 70
     1
102
RTVSPropertyOp57
 70
     1
102
RTVSPropertyOp58
 70
     1
102
RTVSPropertyOp59
 70
     1
102
RTVSPropertyOp60
 70
     1
102
RTVSPropertyOp61
 70
     1
102
RTVSPropertyOp62
 70
     1
  0
XRECORD
  5
444A
102
{ACAD_REACTORS
330
4449
102
}
330
4449
100
AcDbXrecord
280
     1
102
RTVSPost2010Prop28
280
     0
102
RTVSPost2010PropOp28
 70
     1
102
RTVSPost2010Prop29
280
     1
102
RTVSPost2010PropOp29
 70
     1
102
RTVSPost2010Prop30
280
     1
102
RTVSPost2010PropOp30
 70
     1
102
RTVSPost2010Prop31
280
     0
102
RTVSPost2010PropOp31
 70
     1
102
RTVSPost2010Prop32
280
     0
102
RTVSPost2010PropOp32
 70
     1
102
RTVSPost2010Prop33
280
     0
102
RTVSPost2010PropOp33
 70
     1
102
RTVSPost2010Prop34
280
     0
102
RTVSPost2010PropOp34
 70
     1
102
RTVSPost2010Prop35
280
     0
102
RTVSPost2010PropOp35
 70
     1
102
RTVSPost2010Prop36
280
     0
102
RTVSPost2010PropOp36
 70
     1
102
RTVSPost2010Prop37
 90
       50
102
RTVSPost2010PropOp37
 70
     1
102
RTVSPost2010Prop38
140
0.0
102
RTVSPost2010PropOp38
 70
     1
102
RTVSPost2010Prop39
140
1.0
102
RTVSPost2010PropOp39
 70
     1
102
RTVSPost2010Prop40
 90
        0
102
RTVSPost2010PropOp40
 70
     1
102
RTVSPost2010Prop41ColorIndex
 90
       18
102
RTVSPost2010Prop41ColorRGB
 90
        0
102
RTVSPost2010PropOp41
 70
     1
102
RTVSPost2010Prop42
 90
       50
102
RTVSPost2010PropOp42
 70
     1
102
RTVSPost2010Prop43
 90
        3
102
RTVSPost2010PropOp43
 70
     1
102
RTVSPost2010Prop44ColorIndex
 90
        5
102
RTVSPost2010Prop44ColorRGB
 90
      255
102
RTVSPost2010PropOp44
 70
     1
102
RTVSPost2010Prop45
280
     0
102
RTVSPost2010PropOp45
 70
     1
102
RTVSPost2010Prop46
 90
       50
102
RTVSPost2010PropOp46
 70
     1
102
RTVSPost2010Prop47
 90
       50
102
RTVSPost2010PropOp47
 70
     1
102
RTVSPost2010Prop48
 90
       50
102
RTVSPost2010PropOp48
 70
     1
102
RTVSPost2010Prop49
280
     0
102
RTVSPost2010PropOp49
 70
     1
102
RTVSPost2010Prop50
 90
       50
102
RTVSPost2010PropOp50
 70
     1
102
RTVSPost2010Prop51ColorIndex
 90
      256
102
RTVSPost2010Prop51ColorRGB
 90
-16777216
102
RTVSPost2010PropOp51
 70
     0
102
RTVSPost2010Prop52
140
1.0
102
RTVSPost2010PropOp52
 70
     0
102
RTVSPost2010Prop53
 90
        2
102
RTVSPost2010PropOp53
 70
     1
102
RTVSPost2010Prop54
  1
strokes_ogs.tif
102
RTVSPost2010PropOp54
 70
     1
102
RTVSPost2010Prop55
280
     0
102
RTVSPost2010PropOp55
 70
     1
102
RTVSPost2010Prop56
140
1.0
102
RTVSPost2010PropOp56
 70
     1
102
RTVSPost2010Prop57
140
1.0
102
RTVSPost2010PropOp57
 70
     1
102
RTVSPropertyOp0
 70
     0
102
RTVSPropertyOp1
 70
     0
102
RTVSPropertyOp2
 70
     0
102
RTVSPropertyOp3
 70
     0
102
RTVSPropertyOp4
 70
     0
102
RTVSPropertyOp5
 70
     0
102
RTVSPropertyOp6
 70
     0
102
RTVSPropertyOp7
 70
     0
102
RTVSPropertyOp8
 70
     0
102
RTVSPropertyOp9
 70
     0
102
RTVSPropertyOp10
 70
     0
102
RTVSPropertyOp11
 70
     0
102
RTVSPropertyOp12
 70
     0
102
RTVSPropertyOp13
 70
     0
102
RTVSPropertyOp14
 70
     2
102
RTVSPropertyOp15
 70
     0
102
RTVSPropertyOp16
 70
     0
102
RTVSPropertyOp17
 70
     0
102
RTVSPropertyOp18
 70
     0
102
RTVSPropertyOp19
 70
     0
102
RTVSPropertyOp20
 70
     0
102
RTVSPropertyOp21
 70
     0
102
RTVSPropertyOp22
 70
     0
102
RTVSPropertyOp23
 70
     0
102
RTVSPropertyOp24
 70
     0
102
RTVSPropertyOp25
 70
     0
102
RTVSPropertyOp26
 70
     0
102
RTVSPropertyOp27
 70
     0
102
RTVSPropertyOp28
 70
     1
102
RTVSPropertyOp29
 70
     1
102
RTVSPropertyOp30
 70
     1
102
RTVSPropertyOp31
 70
     1
102
RTVSPropertyOp32
 70
     1
102
RTVSPropertyOp33
 70
     1
102
RTVSPropertyOp34
 70
     1
102
RTVSPropertyOp35
 70
     1
102
RTVSPropertyOp36
 70
     1
102
RTVSPropertyOp37
 70
     1
102
RTVSPropertyOp38
 70
     1
102
RTVSPropertyOp39
 70
     1
102
RTVSPropertyOp40
 70
     1
102
RTVSPropertyOp41
 70
     1
102
RTVSPropertyOp42
 70
     1
102
RTVSPropertyOp43
 70
     1
102
RTVSPropertyOp44
 70
     1
102
RTVSPropertyOp45
 70
     1
102
RTVSPropertyOp46
 70
     1
102
RTVSPropertyOp47
 70
     1
102
RTVSPropertyOp48
 70
     1
102
RTVSPropertyOp49
 70
     1
102
RTVSPropertyOp50
 70
     1
102
RTVSPropertyOp51
 70
     0
102
RTVSPropertyOp52
 70
     0
102
RTVSPropertyOp53
 70
     1
102
RTVSPropertyOp54
 70
     1
102
RTVSPropertyOp55
 70
     1
102
RTVSPropertyOp56
 70
     1
102
RTVSPropertyOp57
 70
     1
102
RTVSPropertyOp58
 70
     1
102
RTVSPropertyOp59
 70
     1
102
RTVSPropertyOp60
 70
     1
102
RTVSPropertyOp61
 70
     1
102
RTVSPropertyOp62
 70
     1
  0
XRECORD
  5
4438
102
{ACAD_REACTORS
330
4437
102
}
330
4437
100
AcDbXrecord
280
     1
102
RTVSPost2010Prop28
280
     0
102
RTVSPost2010PropOp28
 70
     1
102
RTVSPost2010Prop29
280
     1
102
RTVSPost2010PropOp29
 70
     1
102
RTVSPost2010Prop30
280
     1
102
RTVSPost2010PropOp30
 70
     1
102
RTVSPost2010Prop31
280
     0
102
RTVSPost2010PropOp31
 70
     1
102
RTVSPost2010Prop32
280
     0
102
RTVSPost2010PropOp32
 70
     1
102
RTVSPost2010Prop33
280
     0
102
RTVSPost2010PropOp33
 70
     1
102
RTVSPost2010Prop34
280
     0
102
RTVSPost2010PropOp34
 70
     1
102
RTVSPost2010Prop35
280
     0
102
RTVSPost2010PropOp35
 70
     1
102
RTVSPost2010Prop36
280
     0
102
RTVSPost2010PropOp36
 70
     1
102
RTVSPost2010Prop37
 90
       50
102
RTVSPost2010PropOp37
 70
     1
102
RTVSPost2010Prop38
140
0.0
102
RTVSPost2010PropOp38
 70
     1
102
RTVSPost2010Prop39
140
1.0
102
RTVSPost2010PropOp39
 70
     1
102
RTVSPost2010Prop40
 90
        0
102
RTVSPost2010PropOp40
 70
     1
102
RTVSPost2010Prop41ColorIndex
 90
       18
102
RTVSPost2010Prop41ColorRGB
 90
        0
102
RTVSPost2010PropOp41
 70
     1
102
RTVSPost2010Prop42
 90
       50
102
RTVSPost2010PropOp42
 70
     1
102
RTVSPost2010Prop43
 90
        3
102
RTVSPost2010PropOp43
 70
     1
102
RTVSPost2010Prop44ColorIndex
 90
        5
102
RTVSPost2010Prop44ColorRGB
 90
      255
102
RTVSPost2010PropOp44
 70
     1
102
RTVSPost2010Prop45
280
     0
102
RTVSPost2010PropOp45
 70
     1
102
RTVSPost2010Prop46
 90
       50
102
RTVSPost2010PropOp46
 70
     1
102
RTVSPost2010Prop47
 90
       50
102
RTVSPost2010PropOp47
 70
     1
102
RTVSPost2010Prop48
 90
       50
102
RTVSPost2010PropOp48
 70
     1
102
RTVSPost2010Prop49
280
     0
102
RTVSPost2010PropOp49
 70
     1
102
RTVSPost2010Prop50
 90
       50
102
RTVSPost2010PropOp50
 70
     1
102
RTVSPost2010Prop51ColorIndex
 90
      256
102
RTVSPost2010Prop51ColorRGB
 90
-16777216
102
RTVSPost2010PropOp51
 70
     0
102
RTVSPost2010Prop52
140
1.0
102
RTVSPost2010PropOp52
 70
     0
102
RTVSPost2010Prop53
 90
        2
102
RTVSPost2010PropOp53
 70
     1
102
RTVSPost2010Prop54
  1
strokes_ogs.tif
102
RTVSPost2010PropOp54
 70
     1
102
RTVSPost2010Prop55
280
     0
102
RTVSPost2010PropOp55
 70
     1
102
RTVSPost2010Prop56
140
1.0
102
RTVSPost2010PropOp56
 70
     1
102
RTVSPost2010Prop57
140
1.0
102
RTVSPost2010PropOp57
 70
     1
102
RTVSPropertyOp0
 70
     1
102
RTVSPropertyOp1
 70
     1
102
RTVSPropertyOp2
 70
     1
102
RTVSPropertyOp3
 70
     1
102
RTVSPropertyOp4
 70
     1
102
RTVSPropertyOp5
 70
     1
102
RTVSPropertyOp6
 70
     1
102
RTVSPropertyOp7
 70
     1
102
RTVSPropertyOp8
 70
     1
102
RTVSPropertyOp9
 70
     1
102
RTVSPropertyOp10
 70
     1
102
RTVSPropertyOp11
 70
     1
102
RTVSPropertyOp12
 70
     1
102
RTVSPropertyOp13
 70
     1
102
RTVSPropertyOp14
 70
     1
102
RTVSPropertyOp15
 70
     1
102
RTVSPropertyOp16
 70
     1
102
RTVSPropertyOp17
 70
     1
102
RTVSPropertyOp18
 70
     1
102
RTVSPropertyOp19
 70
     1
102
RTVSPropertyOp20
 70
     1
102
RTVSPropertyOp21
 70
     1
102
RTVSPropertyOp22
 70
     1
102
RTVSPropertyOp23
 70
     1
102
RTVSPropertyOp24
 70
     1
102
RTVSPropertyOp25
 70
     1
102
RTVSPropertyOp26
 70
     1
102
RTVSPropertyOp27
 70
     1
102
RTVSPropertyOp28
 70
     1
102
RTVSPropertyOp29
 70
     1
102
RTVSPropertyOp30
 70
     1
102
RTVSPropertyOp31
 70
     1
102
RTVSPropertyOp32
 70
     1
102
RTVSPropertyOp33
 70
     1
102
RTVSPropertyOp34
 70
     1
102
RTVSPropertyOp35
 70
     1
102
RTVSPropertyOp36
 70
     1
102
RTVSPropertyOp37
 70
     1
102
RTVSPropertyOp38
 70
     1
102
RTVSPropertyOp39
 70
     1
102
RTVSPropertyOp40
 70
     1
102
RTVSPropertyOp41
 70
     1
102
RTVSPropertyOp42
 70
     1
102
RTVSPropertyOp43
 70
     1
102
RTVSPropertyOp44
 70
     1
102
RTVSPropertyOp45
 70
     1
102
RTVSPropertyOp46
 70
     1
102
RTVSPropertyOp47
 70
     1
102
RTVSPropertyOp48
 70
     1
102
RTVSPropertyOp49
 70
     1
102
RTVSPropertyOp50
 70
     1
102
RTVSPropertyOp51
 70
     0
102
RTVSPropertyOp52
 70
     0
102
RTVSPropertyOp53
 70
     1
102
RTVSPropertyOp54
 70
     1
102
RTVSPropertyOp55
 70
     1
102
RTVSPropertyOp56
 70
     1
102
RTVSPropertyOp57
 70
     1
102
RTVSPropertyOp58
 70
     1
102
RTVSPropertyOp59
 70
     1
102
RTVSPropertyOp60
 70
     1
102
RTVSPropertyOp61
 70
     1
102
RTVSPropertyOp62
 70
     1
  0
XRECORD
  5
4456
102
{ACAD_REACTORS
330
4455
102
}
330
4455
100
AcDbXrecord
280
     1
102
RTVSPost2010Prop28
280
     0
102
RTVSPost2010PropOp28
 70
     1
102
RTVSPost2010Prop29
280
     1
102
RTVSPost2010PropOp29
 70
     1
102
RTVSPost2010Prop30
280
     1
102
RTVSPost2010PropOp30
 70
     1
102
RTVSPost2010Prop31
280
     0
102
RTVSPost2010PropOp31
 70
     1
102
RTVSPost2010Prop32
280
     0
102
RTVSPost2010PropOp32
 70
     1
102
RTVSPost2010Prop33
280
     0
102
RTVSPost2010PropOp33
 70
     1
102
RTVSPost2010Prop34
280
     0
102
RTVSPost2010PropOp34
 70
     1
102
RTVSPost2010Prop35
280
     0
102
RTVSPost2010PropOp35
 70
     1
102
RTVSPost2010Prop36
280
     0
102
RTVSPost2010PropOp36
 70
     1
102
RTVSPost2010Prop37
 90
       50
102
RTVSPost2010PropOp37
 70
     1
102
RTVSPost2010Prop38
140
0.0
102
RTVSPost2010PropOp38
 70
     1
102
RTVSPost2010Prop39
140
1.0
102
RTVSPost2010PropOp39
 70
     1
102
RTVSPost2010Prop40
 90
        0
102
RTVSPost2010PropOp40
 70
     1
102
RTVSPost2010Prop41ColorIndex
 90
       18
102
RTVSPost2010Prop41ColorRGB
 90
        0
102
RTVSPost2010PropOp41
 70
     1
102
RTVSPost2010Prop42
 90
       50
102
RTVSPost2010PropOp42
 70
     1
102
RTVSPost2010Prop43
 90
        3
102
RTVSPost2010PropOp43
 70
     1
102
RTVSPost2010Prop44ColorIndex
 90
        5
102
RTVSPost2010Prop44ColorRGB
 90
      255
102
RTVSPost2010PropOp44
 70
     1
102
RTVSPost2010Prop45
280
     0
102
RTVSPost2010PropOp45
 70
     1
102
RTVSPost2010Prop46
 90
       50
102
RTVSPost2010PropOp46
 70
     1
102
RTVSPost2010Prop47
 90
       50
102
RTVSPost2010PropOp47
 70
     1
102
RTVSPost2010Prop48
 90
       50
102
RTVSPost2010PropOp48
 70
     1
102
RTVSPost2010Prop49
280
     0
102
RTVSPost2010PropOp49
 70
     1
102
RTVSPost2010Prop50
 90
       50
102
RTVSPost2010PropOp50
 70
     1
102
RTVSPost2010Prop51ColorIndex
 90
      256
102
RTVSPost2010Prop51ColorRGB
 90
-16777216
102
RTVSPost2010PropOp51
 70
     0
102
RTVSPost2010Prop52
140
1.0
102
RTVSPost2010PropOp52
 70
     0
102
RTVSPost2010Prop53
 90
        2
102
RTVSPost2010PropOp53
 70
     1
102
RTVSPost2010Prop54
  1
strokes_ogs.tif
102
RTVSPost2010PropOp54
 70
     1
102
RTVSPost2010Prop55
280
     0
102
RTVSPost2010PropOp55
 70
     1
102
RTVSPost2010Prop56
140
1.0
102
RTVSPost2010PropOp56
 70
     1
102
RTVSPost2010Prop57
140
1.0
102
RTVSPost2010PropOp57
 70
     1
102
RTVSPropertyOp0
 70
     1
102
RTVSPropertyOp1
 70
     1
102
RTVSPropertyOp2
 70
     1
102
RTVSPropertyOp3
 70
     1
102
RTVSPropertyOp4
 70
     1
102
RTVSPropertyOp5
 70
     1
102
RTVSPropertyOp6
 70
     1
102
RTVSPropertyOp7
 70
     1
102
RTVSPropertyOp8
 70
     1
102
RTVSPropertyOp9
 70
     1
102
RTVSPropertyOp10
 70
     1
102
RTVSPropertyOp11
 70
     1
102
RTVSPropertyOp12
 70
     1
102
RTVSPropertyOp13
 70
     1
102
RTVSPropertyOp14
 70
     1
102
RTVSPropertyOp15
 70
     1
102
RTVSPropertyOp16
 70
     1
102
RTVSPropertyOp17
 70
     1
102
RTVSPropertyOp18
 70
     1
102
RTVSPropertyOp19
 70
     1
102
RTVSPropertyOp20
 70
     1
102
RTVSPropertyOp21
 70
     1
102
RTVSPropertyOp22
 70
     1
102
RTVSPropertyOp23
 70
     1
102
RTVSPropertyOp24
 70
     1
102
RTVSPropertyOp25
 70
     1
102
RTVSPropertyOp26
 70
     1
102
RTVSPropertyOp27
 70
     1
102
RTVSPropertyOp28
 70
     1
102
RTVSPropertyOp29
 70
     1
102
RTVSPropertyOp30
 70
     1
102
RTVSPropertyOp31
 70
     1
102
RTVSPropertyOp32
 70
     1
102
RTVSPropertyOp33
 70
     1
102
RTVSPropertyOp34
 70
     1
102
RTVSPropertyOp35
 70
     1
102
RTVSPropertyOp36
 70
     1
102
RTVSPropertyOp37
 70
     1
102
RTVSPropertyOp38
 70
     1
102
RTVSPropertyOp39
 70
     1
102
RTVSPropertyOp40
 70
     1
102
RTVSPropertyOp41
 70
     1
102
RTVSPropertyOp42
 70
     1
102
RTVSPropertyOp43
 70
     1
102
RTVSPropertyOp44
 70
     1
102
RTVSPropertyOp45
 70
     1
102
RTVSPropertyOp46
 70
     1
102
RTVSPropertyOp47
 70
     1
102
RTVSPropertyOp48
 70
     1
102
RTVSPropertyOp49
 70
     1
102
RTVSPropertyOp50
 70
     1
102
RTVSPropertyOp51
 70
     0
102
RTVSPropertyOp52
 70
     0
102
RTVSPropertyOp53
 70
     1
102
RTVSPropertyOp54
 70
     1
102
RTVSPropertyOp55
 70
     1
102
RTVSPropertyOp56
 70
     1
102
RTVSPropertyOp57
 70
     1
102
RTVSPropertyOp58
 70
     1
102
RTVSPropertyOp59
 70
     1
102
RTVSPropertyOp60
 70
     1
102
RTVSPropertyOp61
 70
     1
102
RTVSPropertyOp62
 70
     1
  0
XRECORD
  5
4454
102
{ACAD_REACTORS
330
4453
102
}
330
4453
100
AcDbXrecord
280
     1
102
RTVSPost2010Prop28
280
     0
102
RTVSPost2010PropOp28
 70
     1
102
RTVSPost2010Prop29
280
     1
102
RTVSPost2010PropOp29
 70
     1
102
RTVSPost2010Prop30
280
     1
102
RTVSPost2010PropOp30
 70
     1
102
RTVSPost2010Prop31
280
     0
102
RTVSPost2010PropOp31
 70
     1
102
RTVSPost2010Prop32
280
     0
102
RTVSPost2010PropOp32
 70
     1
102
RTVSPost2010Prop33
280
     0
102
RTVSPost2010PropOp33
 70
     1
102
RTVSPost2010Prop34
280
     0
102
RTVSPost2010PropOp34
 70
     1
102
RTVSPost2010Prop35
280
     0
102
RTVSPost2010PropOp35
 70
     1
102
RTVSPost2010Prop36
280
     0
102
RTVSPost2010PropOp36
 70
     1
102
RTVSPost2010Prop37
 90
       50
102
RTVSPost2010PropOp37
 70
     1
102
RTVSPost2010Prop38
140
0.0
102
RTVSPost2010PropOp38
 70
     1
102
RTVSPost2010Prop39
140
1.0
102
RTVSPost2010PropOp39
 70
     1
102
RTVSPost2010Prop40
 90
        0
102
RTVSPost2010PropOp40
 70
     1
102
RTVSPost2010Prop41ColorIndex
 90
       18
102
RTVSPost2010Prop41ColorRGB
 90
        0
102
RTVSPost2010PropOp41
 70
     1
102
RTVSPost2010Prop42
 90
       50
102
RTVSPost2010PropOp42
 70
     1
102
RTVSPost2010Prop43
 90
        3
102
RTVSPost2010PropOp43
 70
     1
102
RTVSPost2010Prop44ColorIndex
 90
        5
102
RTVSPost2010Prop44ColorRGB
 90
      255
102
RTVSPost2010PropOp44
 70
     1
102
RTVSPost2010Prop45
280
     0
102
RTVSPost2010PropOp45
 70
     1
102
RTVSPost2010Prop46
 90
       50
102
RTVSPost2010PropOp46
 70
     1
102
RTVSPost2010Prop47
 90
       50
102
RTVSPost2010PropOp47
 70
     1
102
RTVSPost2010Prop48
 90
       50
102
RTVSPost2010PropOp48
 70
     1
102
RTVSPost2010Prop49
280
     0
102
RTVSPost2010PropOp49
 70
     1
102
RTVSPost2010Prop50
 90
       50
102
RTVSPost2010PropOp50
 70
     1
102
RTVSPost2010Prop51ColorIndex
 90
      256
102
RTVSPost2010Prop51ColorRGB
 90
-16777216
102
RTVSPost2010PropOp51
 70
     0
102
RTVSPost2010Prop52
140
1.0
102
RTVSPost2010PropOp52
 70
     0
102
RTVSPost2010Prop53
 90
        2
102
RTVSPost2010PropOp53
 70
     1
102
RTVSPost2010Prop54
  1
strokes_ogs.tif
102
RTVSPost2010PropOp54
 70
     1
102
RTVSPost2010Prop55
280
     0
102
RTVSPost2010PropOp55
 70
     1
102
RTVSPost2010Prop56
140
1.0
102
RTVSPost2010PropOp56
 70
     1
102
RTVSPost2010Prop57
140
1.0
102
RTVSPost2010PropOp57
 70
     1
102
RTVSPropertyOp0
 70
     1
102
RTVSPropertyOp1
 70
     1
102
RTVSPropertyOp2
 70
     1
102
RTVSPropertyOp3
 70
     1
102
RTVSPropertyOp4
 70
     1
102
RTVSPropertyOp5
 70
     1
102
RTVSPropertyOp6
 70
     1
102
RTVSPropertyOp7
 70
     1
102
RTVSPropertyOp8
 70
     1
102
RTVSPropertyOp9
 70
     1
102
RTVSPropertyOp10
 70
     1
102
RTVSPropertyOp11
 70
     1
102
RTVSPropertyOp12
 70
     1
102
RTVSPropertyOp13
 70
     1
102
RTVSPropertyOp14
 70
     1
102
RTVSPropertyOp15
 70
     1
102
RTVSPropertyOp16
 70
     1
102
RTVSPropertyOp17
 70
     1
102
RTVSPropertyOp18
 70
     1
102
RTVSPropertyOp19
 70
     1
102
RTVSPropertyOp20
 70
     1
102
RTVSPropertyOp21
 70
     1
102
RTVSPropertyOp22
 70
     1
102
RTVSPropertyOp23
 70
     1
102
RTVSPropertyOp24
 70
     1
102
RTVSPropertyOp25
 70
     1
102
RTVSPropertyOp26
 70
     1
102
RTVSPropertyOp27
 70
     1
102
RTVSPropertyOp28
 70
     1
102
RTVSPropertyOp29
 70
     1
102
RTVSPropertyOp30
 70
     1
102
RTVSPropertyOp31
 70
     1
102
RTVSPropertyOp32
 70
     1
102
RTVSPropertyOp33
 70
     1
102
RTVSPropertyOp34
 70
     1
102
RTVSPropertyOp35
 70
     1
102
RTVSPropertyOp36
 70
     1
102
RTVSPropertyOp37
 70
     1
102
RTVSPropertyOp38
 70
     1
102
RTVSPropertyOp39
 70
     1
102
RTVSPropertyOp40
 70
     1
102
RTVSPropertyOp41
 70
     1
102
RTVSPropertyOp42
 70
     1
102
RTVSPropertyOp43
 70
     1
102
RTVSPropertyOp44
 70
     1
102
RTVSPropertyOp45
 70
     1
102
RTVSPropertyOp46
 70
     1
102
RTVSPropertyOp47
 70
     1
102
RTVSPropertyOp48
 70
     1
102
RTVSPropertyOp49
 70
     1
102
RTVSPropertyOp50
 70
     1
102
RTVSPropertyOp51
 70
     0
102
RTVSPropertyOp52
 70
     0
102
RTVSPropertyOp53
 70
     1
102
RTVSPropertyOp54
 70
     1
102
RTVSPropertyOp55
 70
     1
102
RTVSPropertyOp56
 70
     1
102
RTVSPropertyOp57
 70
     1
102
RTVSPropertyOp58
 70
     1
102
RTVSPropertyOp59
 70
     1
102
RTVSPropertyOp60
 70
     1
102
RTVSPropertyOp61
 70
     1
102
RTVSPropertyOp62
 70
     1
  0
XRECORD
  5
444E
102
{ACAD_REACTORS
330
444D
102
}
330
444D
100
AcDbXrecord
280
     1
102
RTVSPost2010Prop28
280
     0
102
RTVSPost2010PropOp28
 70
     1
102
RTVSPost2010Prop29
280
     1
102
RTVSPost2010PropOp29
 70
     1
102
RTVSPost2010Prop30
280
     1
102
RTVSPost2010PropOp30
 70
     1
102
RTVSPost2010Prop31
280
     0
102
RTVSPost2010PropOp31
 70
     1
102
RTVSPost2010Prop32
280
     0
102
RTVSPost2010PropOp32
 70
     1
102
RTVSPost2010Prop33
280
     0
102
RTVSPost2010PropOp33
 70
     1
102
RTVSPost2010Prop34
280
     0
102
RTVSPost2010PropOp34
 70
     1
102
RTVSPost2010Prop35
280
     0
102
RTVSPost2010PropOp35
 70
     1
102
RTVSPost2010Prop36
280
     0
102
RTVSPost2010PropOp36
 70
     1
102
RTVSPost2010Prop37
 90
       50
102
RTVSPost2010PropOp37
 70
     1
102
RTVSPost2010Prop38
140
0.0
102
RTVSPost2010PropOp38
 70
     1
102
RTVSPost2010Prop39
140
1.0
102
RTVSPost2010PropOp39
 70
     1
102
RTVSPost2010Prop40
 90
        0
102
RTVSPost2010PropOp40
 70
     1
102
RTVSPost2010Prop41ColorIndex
 90
       18
102
RTVSPost2010Prop41ColorRGB
 90
        0
102
RTVSPost2010PropOp41
 70
     1
102
RTVSPost2010Prop42
 90
       50
102
RTVSPost2010PropOp42
 70
     1
102
RTVSPost2010Prop43
 90
        3
102
RTVSPost2010PropOp43
 70
     1
102
RTVSPost2010Prop44ColorIndex
 90
        5
102
RTVSPost2010Prop44ColorRGB
 90
      255
102
RTVSPost2010PropOp44
 70
     1
102
RTVSPost2010Prop45
280
     0
102
RTVSPost2010PropOp45
 70
     1
102
RTVSPost2010Prop46
 90
       50
102
RTVSPost2010PropOp46
 70
     1
102
RTVSPost2010Prop47
 90
       50
102
RTVSPost2010PropOp47
 70
     1
102
RTVSPost2010Prop48
 90
       50
102
RTVSPost2010PropOp48
 70
     1
102
RTVSPost2010Prop49
280
     0
102
RTVSPost2010PropOp49
 70
     1
102
RTVSPost2010Prop50
 90
       50
102
RTVSPost2010PropOp50
 70
     1
102
RTVSPost2010Prop51ColorIndex
 90
      256
102
RTVSPost2010Prop51ColorRGB
 90
-16777216
102
RTVSPost2010PropOp51
 70
     0
102
RTVSPost2010Prop52
140
1.0
102
RTVSPost2010PropOp52
 70
     0
102
RTVSPost2010Prop53
 90
        2
102
RTVSPost2010PropOp53
 70
     1
102
RTVSPost2010Prop54
  1
strokes_ogs.tif
102
RTVSPost2010PropOp54
 70
     1
102
RTVSPost2010Prop55
280
     0
102
RTVSPost2010PropOp55
 70
     1
102
RTVSPost2010Prop56
140
1.0
102
RTVSPost2010PropOp56
 70
     1
102
RTVSPost2010Prop57
140
1.0
102
RTVSPost2010PropOp57
 70
     1
102
RTVSPropertyOp0
 70
     1
102
RTVSPropertyOp1
 70
     1
102
RTVSPropertyOp2
 70
     1
102
RTVSPropertyOp3
 70
     1
102
RTVSPropertyOp4
 70
     1
102
RTVSPropertyOp5
 70
     1
102
RTVSPropertyOp6
 70
     1
102
RTVSPropertyOp7
 70
     1
102
RTVSPropertyOp8
 70
     1
102
RTVSPropertyOp9
 70
     1
102
RTVSPropertyOp10
 70
     1
102
RTVSPropertyOp11
 70
     1
102
RTVSPropertyOp12
 70
     1
102
RTVSPropertyOp13
 70
     1
102
RTVSPropertyOp14
 70
     1
102
RTVSPropertyOp15
 70
     1
102
RTVSPropertyOp16
 70
     1
102
RTVSPropertyOp17
 70
     1
102
RTVSPropertyOp18
 70
     1
102
RTVSPropertyOp19
 70
     1
102
RTVSPropertyOp20
 70
     1
102
RTVSPropertyOp21
 70
     1
102
RTVSPropertyOp22
 70
     1
102
RTVSPropertyOp23
 70
     1
102
RTVSPropertyOp24
 70
     1
102
RTVSPropertyOp25
 70
     1
102
RTVSPropertyOp26
 70
     1
102
RTVSPropertyOp27
 70
     1
102
RTVSPropertyOp28
 70
     1
102
RTVSPropertyOp29
 70
     1
102
RTVSPropertyOp30
 70
     1
102
RTVSPropertyOp31
 70
     1
102
RTVSPropertyOp32
 70
     1
102
RTVSPropertyOp33
 70
     1
102
RTVSPropertyOp34
 70
     1
102
RTVSPropertyOp35
 70
     1
102
RTVSPropertyOp36
 70
     1
102
RTVSPropertyOp37
 70
     1
102
RTVSPropertyOp38
 70
     1
102
RTVSPropertyOp39
 70
     1
102
RTVSPropertyOp40
 70
     1
102
RTVSPropertyOp41
 70
     1
102
RTVSPropertyOp42
 70
     1
102
RTVSPropertyOp43
 70
     1
102
RTVSPropertyOp44
 70
     1
102
RTVSPropertyOp45
 70
     1
102
RTVSPropertyOp46
 70
     1
102
RTVSPropertyOp47
 70
     1
102
RTVSPropertyOp48
 70
     1
102
RTVSPropertyOp49
 70
     1
102
RTVSPropertyOp50
 70
     1
102
RTVSPropertyOp51
 70
     0
102
RTVSPropertyOp52
 70
     0
102
RTVSPropertyOp53
 70
     1
102
RTVSPropertyOp54
 70
     1
102
RTVSPropertyOp55
 70
     1
102
RTVSPropertyOp56
 70
     1
102
RTVSPropertyOp57
 70
     1
102
RTVSPropertyOp58
 70
     1
102
RTVSPropertyOp59
 70
     1
102
RTVSPropertyOp60
 70
     1
102
RTVSPropertyOp61
 70
     1
102
RTVSPropertyOp62
 70
     1
  0
XRECORD
  5
4450
102
{ACAD_REACTORS
330
444F
102
}
330
444F
100
AcDbXrecord
280
     1
102
RTVSPost2010Prop28
280
     0
102
RTVSPost2010PropOp28
 70
     1
102
RTVSPost2010Prop29
280
     1
102
RTVSPost2010PropOp29
 70
     1
102
RTVSPost2010Prop30
280
     1
102
RTVSPost2010PropOp30
 70
     1
102
RTVSPost2010Prop31
280
     0
102
RTVSPost2010PropOp31
 70
     1
102
RTVSPost2010Prop32
280
     0
102
RTVSPost2010PropOp32
 70
     1
102
RTVSPost2010Prop33
280
     0
102
RTVSPost2010PropOp33
 70
     1
102
RTVSPost2010Prop34
280
     0
102
RTVSPost2010PropOp34
 70
     1
102
RTVSPost2010Prop35
280
     0
102
RTVSPost2010PropOp35
 70
     1
102
RTVSPost2010Prop36
280
     0
102
RTVSPost2010PropOp36
 70
     1
102
RTVSPost2010Prop37
 90
       50
102
RTVSPost2010PropOp37
 70
     1
102
RTVSPost2010Prop38
140
0.0
102
RTVSPost2010PropOp38
 70
     1
102
RTVSPost2010Prop39
140
1.0
102
RTVSPost2010PropOp39
 70
     1
102
RTVSPost2010Prop40
 90
        0
102
RTVSPost2010PropOp40
 70
     1
102
RTVSPost2010Prop41ColorIndex
 90
       18
102
RTVSPost2010Prop41ColorRGB
 90
        0
102
RTVSPost2010PropOp41
 70
     1
102
RTVSPost2010Prop42
 90
       50
102
RTVSPost2010PropOp42
 70
     1
102
RTVSPost2010Prop43
 90
        3
102
RTVSPost2010PropOp43
 70
     1
102
RTVSPost2010Prop44ColorIndex
 90
        5
102
RTVSPost2010Prop44ColorRGB
 90
      255
102
RTVSPost2010PropOp44
 70
     1
102
RTVSPost2010Prop45
280
     0
102
RTVSPost2010PropOp45
 70
     1
102
RTVSPost2010Prop46
 90
       50
102
RTVSPost2010PropOp46
 70
     1
102
RTVSPost2010Prop47
 90
       50
102
RTVSPost2010PropOp47
 70
     1
102
RTVSPost2010Prop48
 90
       50
102
RTVSPost2010PropOp48
 70
     1
102
RTVSPost2010Prop49
280
     0
102
RTVSPost2010PropOp49
 70
     1
102
RTVSPost2010Prop50
 90
       50
102
RTVSPost2010PropOp50
 70
     1
102
RTVSPost2010Prop51ColorIndex
 90
      256
102
RTVSPost2010Prop51ColorRGB
 90
-16777216
102
RTVSPost2010PropOp51
 70
     0
102
RTVSPost2010Prop52
140
1.0
102
RTVSPost2010PropOp52
 70
     0
102
RTVSPost2010Prop53
 90
        2
102
RTVSPost2010PropOp53
 70
     1
102
RTVSPost2010Prop54
  1
strokes_ogs.tif
102
RTVSPost2010PropOp54
 70
     1
102
RTVSPost2010Prop55
280
     0
102
RTVSPost2010PropOp55
 70
     1
102
RTVSPost2010Prop56
140
1.0
102
RTVSPost2010PropOp56
 70
     1
102
RTVSPost2010Prop57
140
1.0
102
RTVSPost2010PropOp57
 70
     1
102
RTVSPropertyOp0
 70
     1
102
RTVSPropertyOp1
 70
     1
102
RTVSPropertyOp2
 70
     1
102
RTVSPropertyOp3
 70
     1
102
RTVSPropertyOp4
 70
     1
102
RTVSPropertyOp5
 70
     1
102
RTVSPropertyOp6
 70
     1
102
RTVSPropertyOp7
 70
     1
102
RTVSPropertyOp8
 70
     1
102
RTVSPropertyOp9
 70
     1
102
RTVSPropertyOp10
 70
     1
102
RTVSPropertyOp11
 70
     1
102
RTVSPropertyOp12
 70
     1
102
RTVSPropertyOp13
 70
     1
102
RTVSPropertyOp14
 70
     1
102
RTVSPropertyOp15
 70
     1
102
RTVSPropertyOp16
 70
     1
102
RTVSPropertyOp17
 70
     1
102
RTVSPropertyOp18
 70
     1
102
RTVSPropertyOp19
 70
     1
102
RTVSPropertyOp20
 70
     1
102
RTVSPropertyOp21
 70
     1
102
RTVSPropertyOp22
 70
     1
102
RTVSPropertyOp23
 70
     1
102
RTVSPropertyOp24
 70
     1
102
RTVSPropertyOp25
 70
     1
102
RTVSPropertyOp26
 70
     1
102
RTVSPropertyOp27
 70
     1
102
RTVSPropertyOp28
 70
     1
102
RTVSPropertyOp29
 70
     1
102
RTVSPropertyOp30
 70
     1
102
RTVSPropertyOp31
 70
     1
102
RTVSPropertyOp32
 70
     1
102
RTVSPropertyOp33
 70
     1
102
RTVSPropertyOp34
 70
     1
102
RTVSPropertyOp35
 70
     1
102
RTVSPropertyOp36
 70
     1
102
RTVSPropertyOp37
 70
     1
102
RTVSPropertyOp38
 70
     1
102
RTVSPropertyOp39
 70
     1
102
RTVSPropertyOp40
 70
     1
102
RTVSPropertyOp41
 70
     1
102
RTVSPropertyOp42
 70
     1
102
RTVSPropertyOp43
 70
     1
102
RTVSPropertyOp44
 70
     1
102
RTVSPropertyOp45
 70
     1
102
RTVSPropertyOp46
 70
     1
102
RTVSPropertyOp47
 70
     1
102
RTVSPropertyOp48
 70
     1
102
RTVSPropertyOp49
 70
     1
102
RTVSPropertyOp50
 70
     1
102
RTVSPropertyOp51
 70
     0
102
RTVSPropertyOp52
 70
     0
102
RTVSPropertyOp53
 70
     1
102
RTVSPropertyOp54
 70
     1
102
RTVSPropertyOp55
 70
     1
102
RTVSPropertyOp56
 70
     1
102
RTVSPropertyOp57
 70
     1
102
RTVSPropertyOp58
 70
     1
102
RTVSPropertyOp59
 70
     1
102
RTVSPropertyOp60
 70
     1
102
RTVSPropertyOp61
 70
     1
102
RTVSPropertyOp62
 70
     1
  0
XRECORD
  5
443E
102
{ACAD_REACTORS
330
443D
102
}
330
443D
100
AcDbXrecord
280
     1
102
RTVSPost2010Prop28
280
     0
102
RTVSPost2010PropOp28
 70
     1
102
RTVSPost2010Prop29
280
     1
102
RTVSPost2010PropOp29
 70
     1
102
RTVSPost2010Prop30
280
     1
102
RTVSPost2010PropOp30
 70
     1
102
RTVSPost2010Prop31
280
     0
102
RTVSPost2010PropOp31
 70
     1
102
RTVSPost2010Prop32
280
     0
102
RTVSPost2010PropOp32
 70
     1
102
RTVSPost2010Prop33
280
     0
102
RTVSPost2010PropOp33
 70
     1
102
RTVSPost2010Prop34
280
     0
102
RTVSPost2010PropOp34
 70
     1
102
RTVSPost2010Prop35
280
     0
102
RTVSPost2010PropOp35
 70
     1
102
RTVSPost2010Prop36
280
     0
102
RTVSPost2010PropOp36
 70
     1
102
RTVSPost2010Prop37
 90
       50
102
RTVSPost2010PropOp37
 70
     1
102
RTVSPost2010Prop38
140
0.0
102
RTVSPost2010PropOp38
 70
     1
102
RTVSPost2010Prop39
140
1.0
102
RTVSPost2010PropOp39
 70
     1
102
RTVSPost2010Prop40
 90
        0
102
RTVSPost2010PropOp40
 70
     1
102
RTVSPost2010Prop41ColorIndex
 90
       18
102
RTVSPost2010Prop41ColorRGB
 90
        0
102
RTVSPost2010PropOp41
 70
     1
102
RTVSPost2010Prop42
 90
       50
102
RTVSPost2010PropOp42
 70
     1
102
RTVSPost2010Prop43
 90
        3
102
RTVSPost2010PropOp43
 70
     1
102
RTVSPost2010Prop44ColorIndex
 90
        5
102
RTVSPost2010Prop44ColorRGB
 90
      255
102
RTVSPost2010PropOp44
 70
     1
102
RTVSPost2010Prop45
280
     0
102
RTVSPost2010PropOp45
 70
     1
102
RTVSPost2010Prop46
 90
       50
102
RTVSPost2010PropOp46
 70
     1
102
RTVSPost2010Prop47
 90
       50
102
RTVSPost2010PropOp47
 70
     1
102
RTVSPost2010Prop48
 90
       50
102
RTVSPost2010PropOp48
 70
     1
102
RTVSPost2010Prop49
280
     0
102
RTVSPost2010PropOp49
 70
     1
102
RTVSPost2010Prop50
 90
       50
102
RTVSPost2010PropOp50
 70
     1
102
RTVSPost2010Prop51ColorIndex
 90
      256
102
RTVSPost2010Prop51ColorRGB
 90
-16777216
102
RTVSPost2010PropOp51
 70
     0
102
RTVSPost2010Prop52
140
1.0
102
RTVSPost2010PropOp52
 70
     0
102
RTVSPost2010Prop53
 90
        2
102
RTVSPost2010PropOp53
 70
     1
102
RTVSPost2010Prop54
  1
strokes_ogs.tif
102
RTVSPost2010PropOp54
 70
     1
102
RTVSPost2010Prop55
280
     0
102
RTVSPost2010PropOp55
 70
     1
102
RTVSPost2010Prop56
140
1.0
102
RTVSPost2010PropOp56
 70
     1
102
RTVSPost2010Prop57
140
1.0
102
RTVSPost2010PropOp57
 70
     1
102
RTVSPropertyOp0
 70
     1
102
RTVSPropertyOp1
 70
     1
102
RTVSPropertyOp2
 70
     1
102
RTVSPropertyOp3
 70
     1
102
RTVSPropertyOp4
 70
     1
102
RTVSPropertyOp5
 70
     1
102
RTVSPropertyOp6
 70
     1
102
RTVSPropertyOp7
 70
     1
102
RTVSPropertyOp8
 70
     1
102
RTVSPropertyOp9
 70
     1
102
RTVSPropertyOp10
 70
     1
102
RTVSPropertyOp11
 70
     1
102
RTVSPropertyOp12
 70
     1
102
RTVSPropertyOp13
 70
     1
102
RTVSPropertyOp14
 70
     1
102
RTVSPropertyOp15
 70
     1
102
RTVSPropertyOp16
 70
     1
102
RTVSPropertyOp17
 70
     1
102
RTVSPropertyOp18
 70
     1
102
RTVSPropertyOp19
 70
     1
102
RTVSPropertyOp20
 70
     1
102
RTVSPropertyOp21
 70
     1
102
RTVSPropertyOp22
 70
     1
102
RTVSPropertyOp23
 70
     1
102
RTVSPropertyOp24
 70
     1
102
RTVSPropertyOp25
 70
     1
102
RTVSPropertyOp26
 70
     1
102
RTVSPropertyOp27
 70
     1
102
RTVSPropertyOp28
 70
     1
102
RTVSPropertyOp29
 70
     1
102
RTVSPropertyOp30
 70
     1
102
RTVSPropertyOp31
 70
     1
102
RTVSPropertyOp32
 70
     1
102
RTVSPropertyOp33
 70
     1
102
RTVSPropertyOp34
 70
     1
102
RTVSPropertyOp35
 70
     1
102
RTVSPropertyOp36
 70
     1
102
RTVSPropertyOp37
 70
     1
102
RTVSPropertyOp38
 70
     1
102
RTVSPropertyOp39
 70
     1
102
RTVSPropertyOp40
 70
     1
102
RTVSPropertyOp41
 70
     1
102
RTVSPropertyOp42
 70
     1
102
RTVSPropertyOp43
 70
     1
102
RTVSPropertyOp44
 70
     1
102
RTVSPropertyOp45
 70
     1
102
RTVSPropertyOp46
 70
     1
102
RTVSPropertyOp47
 70
     1
102
RTVSPropertyOp48
 70
     1
102
RTVSPropertyOp49
 70
     1
102
RTVSPropertyOp50
 70
     1
102
RTVSPropertyOp51
 70
     0
102
RTVSPropertyOp52
 70
     0
102
RTVSPropertyOp53
 70
     1
102
RTVSPropertyOp54
 70
     1
102
RTVSPropertyOp55
 70
     1
102
RTVSPropertyOp56
 70
     1
102
RTVSPropertyOp57
 70
     1
102
RTVSPropertyOp58
 70
     1
102
RTVSPropertyOp59
 70
     1
102
RTVSPropertyOp60
 70
     1
102
RTVSPropertyOp61
 70
     1
102
RTVSPropertyOp62
 70
     1
  0
XRECORD
  5
4432
102
{ACAD_REACTORS
330
4431
102
}
330
4431
100
AcDbXrecord
280
     1
102
RTVSPost2010Prop28
280
     0
102
RTVSPost2010PropOp28
 70
     1
102
RTVSPost2010Prop29
280
     1
102
RTVSPost2010PropOp29
 70
     1
102
RTVSPost2010Prop30
280
     1
102
RTVSPost2010PropOp30
 70
     1
102
RTVSPost2010Prop31
280
     0
102
RTVSPost2010PropOp31
 70
     1
102
RTVSPost2010Prop32
280
     0
102
RTVSPost2010PropOp32
 70
     1
102
RTVSPost2010Prop33
280
     0
102
RTVSPost2010PropOp33
 70
     1
102
RTVSPost2010Prop34
280
     0
102
RTVSPost2010PropOp34
 70
     1
102
RTVSPost2010Prop35
280
     0
102
RTVSPost2010PropOp35
 70
     1
102
RTVSPost2010Prop36
280
     0
102
RTVSPost2010PropOp36
 70
     1
102
RTVSPost2010Prop37
 90
       50
102
RTVSPost2010PropOp37
 70
     1
102
RTVSPost2010Prop38
140
0.0
102
RTVSPost2010PropOp38
 70
     1
102
RTVSPost2010Prop39
140
1.0
102
RTVSPost2010PropOp39
 70
     1
102
RTVSPost2010Prop40
 90
        0
102
RTVSPost2010PropOp40
 70
     1
102
RTVSPost2010Prop41ColorIndex
 90
       18
102
RTVSPost2010Prop41ColorRGB
 90
        0
102
RTVSPost2010PropOp41
 70
     1
102
RTVSPost2010Prop42
 90
       50
102
RTVSPost2010PropOp42
 70
     1
102
RTVSPost2010Prop43
 90
        3
102
RTVSPost2010PropOp43
 70
     1
102
RTVSPost2010Prop44ColorIndex
 90
        5
102
RTVSPost2010Prop44ColorRGB
 90
      255
102
RTVSPost2010PropOp44
 70
     1
102
RTVSPost2010Prop45
280
     0
102
RTVSPost2010PropOp45
 70
     1
102
RTVSPost2010Prop46
 90
       50
102
RTVSPost2010PropOp46
 70
     1
102
RTVSPost2010Prop47
 90
       50
102
RTVSPost2010PropOp47
 70
     1
102
RTVSPost2010Prop48
 90
       50
102
RTVSPost2010PropOp48
 70
     1
102
RTVSPost2010Prop49
280
     0
102
RTVSPost2010PropOp49
 70
     1
102
RTVSPost2010Prop50
 90
       50
102
RTVSPost2010PropOp50
 70
     1
102
RTVSPost2010Prop51ColorIndex
 90
      256
102
RTVSPost2010Prop51ColorRGB
 90
-16777216
102
RTVSPost2010PropOp51
 70
     0
102
RTVSPost2010Prop52
140
1.0
102
RTVSPost2010PropOp52
 70
     0
102
RTVSPost2010Prop53
 90
        2
102
RTVSPost2010PropOp53
 70
     1
102
RTVSPost2010Prop54
  1
strokes_ogs.tif
102
RTVSPost2010PropOp54
 70
     1
102
RTVSPost2010Prop55
280
     0
102
RTVSPost2010PropOp55
 70
     1
102
RTVSPost2010Prop56
140
1.0
102
RTVSPost2010PropOp56
 70
     1
102
RTVSPost2010Prop57
140
1.0
102
RTVSPost2010PropOp57
 70
     1
102
RTVSPropertyOp0
 70
     1
102
RTVSPropertyOp1
 70
     1
102
RTVSPropertyOp2
 70
     1
102
RTVSPropertyOp3
 70
     1
102
RTVSPropertyOp4
 70
     1
102
RTVSPropertyOp5
 70
     1
102
RTVSPropertyOp6
 70
     1
102
RTVSPropertyOp7
 70
     1
102
RTVSPropertyOp8
 70
     1
102
RTVSPropertyOp9
 70
     1
102
RTVSPropertyOp10
 70
     1
102
RTVSPropertyOp11
 70
     1
102
RTVSPropertyOp12
 70
     1
102
RTVSPropertyOp13
 70
     1
102
RTVSPropertyOp14
 70
     1
102
RTVSPropertyOp15
 70
     1
102
RTVSPropertyOp16
 70
     1
102
RTVSPropertyOp17
 70
     1
102
RTVSPropertyOp18
 70
     1
102
RTVSPropertyOp19
 70
     1
102
RTVSPropertyOp20
 70
     1
102
RTVSPropertyOp21
 70
     1
102
RTVSPropertyOp22
 70
     1
102
RTVSPropertyOp23
 70
     1
102
RTVSPropertyOp24
 70
     1
102
RTVSPropertyOp25
 70
     1
102
RTVSPropertyOp26
 70
     1
102
RTVSPropertyOp27
 70
     1
102
RTVSPropertyOp28
 70
     1
102
RTVSPropertyOp29
 70
     1
102
RTVSPropertyOp30
 70
     1
102
RTVSPropertyOp31
 70
     1
102
RTVSPropertyOp32
 70
     1
102
RTVSPropertyOp33
 70
     1
102
RTVSPropertyOp34
 70
     1
102
RTVSPropertyOp35
 70
     1
102
RTVSPropertyOp36
 70
     1
102
RTVSPropertyOp37
 70
     1
102
RTVSPropertyOp38
 70
     1
102
RTVSPropertyOp39
 70
     1
102
RTVSPropertyOp40
 70
     1
102
RTVSPropertyOp41
 70
     1
102
RTVSPropertyOp42
 70
     1
102
RTVSPropertyOp43
 70
     1
102
RTVSPropertyOp44
 70
     1
102
RTVSPropertyOp45
 70
     1
102
RTVSPropertyOp46
 70
     1
102
RTVSPropertyOp47
 70
     1
102
RTVSPropertyOp48
 70
     1
102
RTVSPropertyOp49
 70
     1
102
RTVSPropertyOp50
 70
     1
102
RTVSPropertyOp51
 70
     0
102
RTVSPropertyOp52
 70
     0
102
RTVSPropertyOp53
 70
     1
102
RTVSPropertyOp54
 70
     1
102
RTVSPropertyOp55
 70
     1
102
RTVSPropertyOp56
 70
     1
102
RTVSPropertyOp57
 70
     1
102
RTVSPropertyOp58
 70
     1
102
RTVSPropertyOp59
 70
     1
102
RTVSPropertyOp60
 70
     1
102
RTVSPropertyOp61
 70
     1
102
RTVSPropertyOp62
 70
     1
  0
XRECORD
  5
4452
102
{ACAD_REACTORS
330
4451
102
}
330
4451
100
AcDbXrecord
280
     1
102
RTVSPost2010Prop28
280
     0
102
RTVSPost2010PropOp28
 70
     1
102
RTVSPost2010Prop29
280
     1
102
RTVSPost2010PropOp29
 70
     1
102
RTVSPost2010Prop30
280
     1
102
RTVSPost2010PropOp30
 70
     1
102
RTVSPost2010Prop31
280
     0
102
RTVSPost2010PropOp31
 70
     1
102
RTVSPost2010Prop32
280
     0
102
RTVSPost2010PropOp32
 70
     1
102
RTVSPost2010Prop33
280
     0
102
RTVSPost2010PropOp33
 70
     1
102
RTVSPost2010Prop34
280
     0
102
RTVSPost2010PropOp34
 70
     1
102
RTVSPost2010Prop35
280
     0
102
RTVSPost2010PropOp35
 70
     1
102
RTVSPost2010Prop36
280
     0
102
RTVSPost2010PropOp36
 70
     1
102
RTVSPost2010Prop37
 90
       50
102
RTVSPost2010PropOp37
 70
     1
102
RTVSPost2010Prop38
140
0.0
102
RTVSPost2010PropOp38
 70
     1
102
RTVSPost2010Prop39
140
1.0
102
RTVSPost2010PropOp39
 70
     1
102
RTVSPost2010Prop40
 90
        0
102
RTVSPost2010PropOp40
 70
     1
102
RTVSPost2010Prop41ColorIndex
 90
       18
102
RTVSPost2010Prop41ColorRGB
 90
        0
102
RTVSPost2010PropOp41
 70
     1
102
RTVSPost2010Prop42
 90
       50
102
RTVSPost2010PropOp42
 70
     1
102
RTVSPost2010Prop43
 90
        3
102
RTVSPost2010PropOp43
 70
     1
102
RTVSPost2010Prop44ColorIndex
 90
        5
102
RTVSPost2010Prop44ColorRGB
 90
      255
102
RTVSPost2010PropOp44
 70
     1
102
RTVSPost2010Prop45
280
     0
102
RTVSPost2010PropOp45
 70
     1
102
RTVSPost2010Prop46
 90
       50
102
RTVSPost2010PropOp46
 70
     1
102
RTVSPost2010Prop47
 90
       50
102
RTVSPost2010PropOp47
 70
     1
102
RTVSPost2010Prop48
 90
       50
102
RTVSPost2010PropOp48
 70
     1
102
RTVSPost2010Prop49
280
     0
102
RTVSPost2010PropOp49
 70
     1
102
RTVSPost2010Prop50
 90
       50
102
RTVSPost2010PropOp50
 70
     1
102
RTVSPost2010Prop51ColorIndex
 90
      256
102
RTVSPost2010Prop51ColorRGB
 90
-16777216
102
RTVSPost2010PropOp51
 70
     0
102
RTVSPost2010Prop52
140
1.0
102
RTVSPost2010PropOp52
 70
     0
102
RTVSPost2010Prop53
 90
        2
102
RTVSPost2010PropOp53
 70
     1
102
RTVSPost2010Prop54
  1
strokes_ogs.tif
102
RTVSPost2010PropOp54
 70
     1
102
RTVSPost2010Prop55
280
     0
102
RTVSPost2010PropOp55
 70
     1
102
RTVSPost2010Prop56
140
1.0
102
RTVSPost2010PropOp56
 70
     1
102
RTVSPost2010Prop57
140
1.0
102
RTVSPost2010PropOp57
 70
     1
102
RTVSPropertyOp0
 70
     1
102
RTVSPropertyOp1
 70
     1
102
RTVSPropertyOp2
 70
     1
102
RTVSPropertyOp3
 70
     1
102
RTVSPropertyOp4
 70
     1
102
RTVSPropertyOp5
 70
     1
102
RTVSPropertyOp6
 70
     1
102
RTVSPropertyOp7
 70
     1
102
RTVSPropertyOp8
 70
     1
102
RTVSPropertyOp9
 70
     1
102
RTVSPropertyOp10
 70
     1
102
RTVSPropertyOp11
 70
     1
102
RTVSPropertyOp12
 70
     1
102
RTVSPropertyOp13
 70
     1
102
RTVSPropertyOp14
 70
     1
102
RTVSPropertyOp15
 70
     1
102
RTVSPropertyOp16
 70
     1
102
RTVSPropertyOp17
 70
     1
102
RTVSPropertyOp18
 70
     1
102
RTVSPropertyOp19
 70
     1
102
RTVSPropertyOp20
 70
     1
102
RTVSPropertyOp21
 70
     1
102
RTVSPropertyOp22
 70
     1
102
RTVSPropertyOp23
 70
     1
102
RTVSPropertyOp24
 70
     1
102
RTVSPropertyOp25
 70
     1
102
RTVSPropertyOp26
 70
     1
102
RTVSPropertyOp27
 70
     1
102
RTVSPropertyOp28
 70
     1
102
RTVSPropertyOp29
 70
     1
102
RTVSPropertyOp30
 70
     1
102
RTVSPropertyOp31
 70
     1
102
RTVSPropertyOp32
 70
     1
102
RTVSPropertyOp33
 70
     1
102
RTVSPropertyOp34
 70
     1
102
RTVSPropertyOp35
 70
     1
102
RTVSPropertyOp36
 70
     1
102
RTVSPropertyOp37
 70
     1
102
RTVSPropertyOp38
 70
     1
102
RTVSPropertyOp39
 70
     1
102
RTVSPropertyOp40
 70
     1
102
RTVSPropertyOp41
 70
     1
102
RTVSPropertyOp42
 70
     1
102
RTVSPropertyOp43
 70
     1
102
RTVSPropertyOp44
 70
     1
102
RTVSPropertyOp45
 70
     1
102
RTVSPropertyOp46
 70
     1
102
RTVSPropertyOp47
 70
     1
102
RTVSPropertyOp48
 70
     1
102
RTVSPropertyOp49
 70
     1
102
RTVSPropertyOp50
 70
     1
102
RTVSPropertyOp51
 70
     0
102
RTVSPropertyOp52
 70
     0
102
RTVSPropertyOp53
 70
     1
102
RTVSPropertyOp54
 70
     1
102
RTVSPropertyOp55
 70
     1
102
RTVSPropertyOp56
 70
     1
102
RTVSPropertyOp57
 70
     1
102
RTVSPropertyOp58
 70
     1
102
RTVSPropertyOp59
 70
     1
102
RTVSPropertyOp60
 70
     1
102
RTVSPropertyOp61
 70
     1
102
RTVSPropertyOp62
 70
     1
  0
ENDSEC
  0
EOF
