  0
SECTION
  2
HEADER
  9
$ACADVER
  1
AC1015
  9
$ACADMAINTVER
 70
    18
  9
$DWGCODEPAGE
  3
ANSI_1252
  9
$INSBASE
 10
0.0
 20
0.0
 30
0.0
  9
$EXTMIN
 10
-249.4390862265591
 20
-368.8345181704901
 30
-0.0015258207003583
  9
$EXTMAX
 10
341.4102181715545
 20
307.590958345438
 30
0.0000000349246037
  9
$LIMMIN
 10
0.0
 20
0.0
  9
$LIMMAX
 10
420.0
 20
297.0
  9
$ORTHOMODE
 70
     0
  9
$REGENMODE
 70
     1
  9
$FILLMODE
 70
     1
  9
$QTEXTMODE
 70
     0
  9
$MIRRTEXT
 70
     0
  9
$LTSCALE
 40
1.0
  9
$ATTMODE
 70
     1
  9
$TEXTSIZE
 40
2.5
  9
$TRACEWID
 40
1.0
  9
$TEXTSTYLE
  7
Standard
  9
$CLAYER
  8
0
  9
$CELTYPE
  6
ByLayer
  9
$CECOLOR
 62
   256
  9
$CELTSCALE
 40
1.0
  9
$DISPSILH
 70
     0
  9
$DIMSCALE
 40
1.0
  9
$DIMASZ
 40
2.5
  9
$DIMEXO
 40
0.625
  9
$DIMDLI
 40
3.75
  9
$DIMRND
 40
0.0
  9
$DIMDLE
 40
0.0
  9
$DIMEXE
 40
1.25
  9
$DIMTP
 40
0.0
  9
$DIMTM
 40
0.0
  9
$DIMTXT
 40
2.5
  9
$DIMCEN
 40
2.5
  9
$DIMTSZ
 40
0.0
  9
$DIMTOL
 70
     0
  9
$DIMLIM
 70
     0
  9
$DIMTIH
 70
     0
  9
$DIMTOH
 70
     0
  9
$DIMSE1
 70
     0
  9
$DIMSE2
 70
     0
  9
$DIMTAD
 70
     1
  9
$DIMZIN
 70
     8
  9
$DIMBLK
  1

  9
$DIMASO
 70
     1
  9
$DIMSHO
 70
     1
  9
$DIMPOST
  1

  9
$DIMAPOST
  1

  9
$DIMALT
 70
     0
  9
$DIMALTD
 70
     3
  9
$DIMALTF
 40
0.03937007874016
  9
$DIMLFAC
 40
1.0
  9
$DIMTOFL
 70
     1
  9
$DIMTVP
 40
0.0
  9
$DIMTIX
 70
     0
  9
$DIMSOXD
 70
     0
  9
$DIMSAH
 70
     0
  9
$DIMBLK1
  1

  9
$DIMBLK2
  1

  9
$DIMSTYLE
  2
ISO-25
  9
$DIMCLRD
 70
     0
  9
$DIMCLRE
 70
     0
  9
$DIMCLRT
 70
     0
  9
$DIMTFAC
 40
1.0
  9
$DIMGAP
 40
0.625
  9
$DIMJUST
 70
     0
  9
$DIMSD1
 70
     0
  9
$DIMSD2
 70
     0
  9
$DIMTOLJ
 70
     0
  9
$DIMTZIN
 70
     8
  9
$DIMALTZ
 70
     0
  9
$DIMALTTZ
 70
     0
  9
$DIMUPT
 70
     0
  9
$DIMDEC
 70
     2
  9
$DIMTDEC
 70
     2
  9
$DIMALTU
 70
     2
  9
$DIMALTTD
 70
     3
  9
$DIMTXSTY
  7
Standard
  9
$DIMAUNIT
 70
     0
  9
$DIMADEC
 70
     0
  9
$DIMALTRND
 40
0.0
  9
$DIMAZIN
 70
     0
  9
$DIMDSEP
 70
    44
  9
$DIMATFIT
 70
     3
  9
$DIMFRAC
 70
     0
  9
$DIMLDRBLK
  1

  9
$DIMLUNIT
 70
     2
  9
$DIMLWD
 70
    -2
  9
$DIMLWE
 70
    -2
  9
$DIMTMOVE
 70
     0
  9
$LUNITS
 70
     2
  9
$LUPREC
 70
     4
  9
$SKETCHINC
 40
1.0
  9
$FILLETRAD
 40
0.0
  9
$AUNITS
 70
     0
  9
$AUPREC
 70
     0
  9
$MENU
  1
.
  9
$ELEVATION
 40
0.0
  9
$PELEVATION
 40
0.0
  9
$THICKNESS
 40
0.0
  9
$LIMCHECK
 70
     0
  9
$CHAMFERA
 40
0.0
  9
$CHAMFERB
 40
0.0
  9
$CHAMFERC
 40
0.0
  9
$CHAMFERD
 40
0.0
  9
$SKPOLY
 70
     0
  9
$TDCREATE
 40
2460719.406504630
  9
$TDUCREATE
 40
2460719.114837963
  9
$TDUPDATE
 40
2460719.411319444
  9
$TDUUPDATE
 40
2460719.119652778
  9
$TDINDWG
 40
0.0020370370
  9
$TDUSRTIMER
 40
0.0020370370
  9
$USRTIMER
 70
     1
  9
$ANGBASE
 50
0.0
  9
$ANGDIR
 70
     0
  9
$PDMODE
 70
     0
  9
$PDSIZE
 40
0.0
  9
$PLINEWID
 40
0.0
  9
$SPLFRAME
 70
     0
  9
$SPLINETYPE
 70
     6
  9
$SPLINESEGS
 70
     8
  9
$HANDSEED
  5
40B2
  9
$SURFTAB1
 70
     6
  9
$SURFTAB2
 70
     6
  9
$SURFTYPE
 70
     6
  9
$SURFU
 70
     6
  9
$SURFV
 70
     6
  9
$UCSBASE
  2

  9
$UCSNAME
  2

  9
$UCSORG
 10
0.0
 20
0.0
 30
0.0
  9
$UCSXDIR
 10
1.0
 20
0.0
 30
0.0
  9
$UCSYDIR
 10
0.0
 20
1.0
 30
0.0
  9
$UCSORTHOREF
  2

  9
$UCSORTHOVIEW
 70
     0
  9
$UCSORGTOP
 10
0.0
 20
0.0
 30
0.0
  9
$UCSORGBOTTOM
 10
0.0
 20
0.0
 30
0.0
  9
$UCSORGLEFT
 10
0.0
 20
0.0
 30
0.0
  9
$UCSORGRIGHT
 10
0.0
 20
0.0
 30
0.0
  9
$UCSORGFRONT
 10
0.0
 20
0.0
 30
0.0
  9
$UCSORGBACK
 10
0.0
 20
0.0
 30
0.0
  9
$PUCSBASE
  2

  9
$PUCSNAME
  2

  9
$PUCSORG
 10
0.0
 20
0.0
 30
0.0
  9
$PUCSXDIR
 10
1.0
 20
0.0
 30
0.0
  9
$PUCSYDIR
 10
0.0
 20
1.0
 30
0.0
  9
$PUCSORTHOREF
  2

  9
$PUCSORTHOVIEW
 70
     0
  9
$PUCSORGTOP
 10
0.0
 20
0.0
 30
0.0
  9
$PUCSORGBOTTOM
 10
0.0
 20
0.0
 30
0.0
  9
$PUCSORGLEFT
 10
0.0
 20
0.0
 30
0.0
  9
$PUCSORGRIGHT
 10
0.0
 20
0.0
 30
0.0
  9
$PUCSORGFRONT
 10
0.0
 20
0.0
 30
0.0
  9
$PUCSORGBACK
 10
0.0
 20
0.0
 30
0.0
  9
$USERI1
 70
     0
  9
$USERI2
 70
     0
  9
$USERI3
 70
     0
  9
$USERI4
 70
     0
  9
$USERI5
 70
     0
  9
$USERR1
 40
0.0
  9
$USERR2
 40
0.0
  9
$USERR3
 40
0.0
  9
$USERR4
 40
0.0
  9
$USERR5
 40
0.0
  9
$WORLDVIEW
 70
     1
  9
$SHADEDGE
 70
     3
  9
$SHADEDIF
 70
    70
  9
$TILEMODE
 70
     1
  9
$MAXACTVP
 70
    48
  9
$PINSBASE
 10
0.0
 20
0.0
 30
0.0
  9
$PLIMCHECK
 70
     0
  9
$PEXTMIN
 10
0.0
 20
0.0
 30
0.0
  9
$PEXTMAX
 10
0.0
 20
0.0
 30
0.0
  9
$PLIMMIN
 10
0.0
 20
0.0
  9
$PLIMMAX
 10
12.0
 20
9.0
  9
$UNITMODE
 70
     0
  9
$VISRETAIN
 70
     1
  9
$PLINEGEN
 70
     0
  9
$PSLTSCALE
 70
     1
  9
$TREEDEPTH
 70
  3020
  9
$CMLSTYLE
  2
Standard
  9
$CMLJUST
 70
     0
  9
$CMLSCALE
 40
20.0
  9
$PROXYGRAPHICS
 70
     1
  9
$MEASUREMENT
 70
     1
  9
$CELWEIGHT
370
    -1
  9
$ENDCAPS
280
     0
  9
$JOINSTYLE
280
     0
  9
$LWDISPLAY
290
     0
  9
$INSUNITS
 70
     4
  9
$HYPERLINKBASE
  1

  9
$STYLESHEET
  1

  9
$XEDIT
290
     1
  9
$CEPSNTYPE
380
     0
  9
$PSTYLEMODE
290
     1
  9
$FINGERPRINTGUID
  2
{375C693C-302E-BC42-B92A-19F6C371B7B0}
  9
$VERSIONGUID
  2
{B576F72A-0513-AC4F-80B0-F5620739A957}
  9
$EXTNAMES
290
     1
  9
$PSVPSCALE
 40
0.0
  9
$OLESTARTUP
290
     0
  0
ENDSEC
  0
SECTION
  2
CLASSES
  0
CLASS
  1
ACDBDICTIONARYWDFLT
  2
AcDbDictionaryWithDefault
  3
ObjectDBX Classes
 90
        0
280
     0
281
     0
  0
CLASS
  1
ACDBPLACEHOLDER
  2
AcDbPlaceHolder
  3
ObjectDBX Classes
 90
        0
280
     0
281
     0
  0
CLASS
  1
LAYOUT
  2
AcDbLayout
  3
ObjectDBX Classes
 90
        0
280
     0
281
     0
  0
CLASS
  1
DICTIONARYVAR
  2
AcDbDictionaryVar
  3
ObjectDBX Classes
 90
        0
280
     0
281
     0
  0
CLASS
  1
TABLESTYLE
  2
AcDbTableStyle
  3
ObjectDBX Classes
 90
     4095
280
     0
281
     0
  0
CLASS
  1
MATERIAL
  2
AcDbMaterial
  3
ObjectDBX Classes
 90
     1153
280
     0
281
     0
  0
CLASS
  1
VISUALSTYLE
  2
AcDbVisualStyle
  3
ObjectDBX Classes
 90
     4095
280
     0
281
     0
  0
CLASS
  1
SCALE
  2
AcDbScale
  3
ObjectDBX Classes
 90
     1153
280
     0
281
     0
  0
CLASS
  1
MLEADERSTYLE
  2
AcDbMLeaderStyle
  3
ACDB_MLEADERSTYLE_CLASS
 90
     4095
280
     0
281
     0
  0
CLASS
  1
CELLSTYLEMAP
  2
AcDbCellStyleMap
  3
ObjectDBX Classes
 90
     1152
280
     0
281
     0
  0
CLASS
  1
EXACXREFPANELOBJECT
  2
ExAcXREFPanelObject
  3
EXAC_ESW
 90
    33793
280
     0
281
     0
  0
CLASS
  1
NPOCOLLECTION
  2
AcDbImpNonPersistentObjectsCollection
  3
ObjectDBX Classes
 90
    33921
280
     0
281
     0
  0
CLASS
  1
LAYER_INDEX
  2
AcDbLayerIndex
  3
ObjectDBX Classes
 90
    32768
280
     0
281
     0
  0
CLASS
  1
SPATIAL_INDEX
  2
AcDbSpatialIndex
  3
ObjectDBX Classes
 90
    32768
280
     0
281
     0
  0
CLASS
  1
IDBUFFER
  2
AcDbIdBuffer
  3
ObjectDBX Classes
 90
    32768
280
     0
281
     0
  0
CLASS
  1
ACDBSECTIONVIEWSTYLE
  2
AcDbSectionViewStyle
  3
ObjectDBX Classes
 90
     1025
280
     0
281
     0
  0
CLASS
  1
ACDBDETAILVIEWSTYLE
  2
AcDbDetailViewStyle
  3
ObjectDBX Classes
 90
     1025
280
     0
281
     0
  0
CLASS
  1
XRECORD
  2
AcDbXrecord
  3
ObjectDBX Classes
 90
        0
280
     0
281
     0
  0
ENDSEC
  0
SECTION
  2
TABLES
  0
TABLE
  2
VPORT
  5
8
102
{ACAD_XDICTIONARY
360
3FC0
102
}
330
0
100
AcDbSymbolTable
 70
     1
  0
VPORT
  5
EA
330
8
100
AcDbSymbolTableRecord
100
AcDbViewportTableRecord
  2
*Active
 70
     0
 10
0.0
 20
0.0
 11
1.0
 21
1.0
 12
45.98556597249774
 22
-30.62177991252605
 13
0.0
 23
0.0
 14
10.0
 24
10.0
 15
10.0
 25
10.0
 16
0.0
 26
0.0
 36
1.0
 17
0.0
 27
0.0
 37
0.0
 40
719.3171943550017
 41
0.9846153846153846
 42
50.0
 43
0.0
 44
0.0
 50
0.0
 51
0.0
 71
     0
 72
  1000
 73
     1
 74
     3
 75
     0
 76
     1
 77
     0
 78
     0
281
     0
 65
     1
110
0.0
120
0.0
130
0.0
111
1.0
121
0.0
131
0.0
112
0.0
122
1.0
132
0.0
 79
     0
146
0.0
1001
ACAD_NAV_VCDISPLAY
1070
     3
  0
ENDTAB
  0
TABLE
  2
LTYPE
  5
5
330
0
100
AcDbSymbolTable
 70
     1
  0
LTYPE
  5
14
330
5
100
AcDbSymbolTableRecord
100
AcDbLinetypeTableRecord
  2
ByBlock
 70
     0
  3

 72
    65
 73
     0
 40
0.0
  0
LTYPE
  5
15
330
5
100
AcDbSymbolTableRecord
100
AcDbLinetypeTableRecord
  2
ByLayer
 70
     0
  3

 72
    65
 73
     0
 40
0.0
  0
LTYPE
  5
16
330
5
100
AcDbSymbolTableRecord
100
AcDbLinetypeTableRecord
  2
Continuous
 70
     0
  3
Solid line
 72
    65
 73
     0
 40
0.0
  0
ENDTAB
  0
TABLE
  2
LAYER
  5
2
102
{ACAD_XDICTIONARY
360
1FF
102
}
330
0
100
AcDbSymbolTable
 70
     1
  0
LAYER
  5
10
102
{ACAD_XDICTIONARY
360
13C
102
}
330
2
100
AcDbSymbolTableRecord
100
AcDbLayerTableRecord
  2
0
 70
     0
 62
     7
  6
Continuous
370
    -3
390
F
  0
ENDTAB
  0
TABLE
  2
STYLE
  5
3
330
0
100
AcDbSymbolTable
 70
     1
  0
STYLE
  5
11
330
3
100
AcDbSymbolTableRecord
100
AcDbTextStyleTableRecord
  2
Standard
 70
     0
 40
0.0
 41
1.0
 50
0.0
 71
     0
 42
2.5
  3
arial.ttf
  4

1001
ACAD
1000
Arial
1071
       34
  0
ENDTAB
  0
TABLE
  2
VIEW
  5
6
330
0
100
AcDbSymbolTable
 70
     0
  0
ENDTAB
  0
TABLE
  2
UCS
  5
7
330
0
100
AcDbSymbolTable
 70
     0
  0
ENDTAB
  0
TABLE
  2
APPID
  5
9
330
0
100
AcDbSymbolTable
 70
     8
  0
APPID
  5
12
330
9
100
AcDbSymbolTableRecord
100
AcDbRegAppTableRecord
  2
ACAD
 70
     0
  0
APPID
  5
9E
330
9
100
AcDbSymbolTableRecord
100
AcDbRegAppTableRecord
  2
ACAD_PSEXT
 70
     0
  0
APPID
  5
133
330
9
100
AcDbSymbolTableRecord
100
AcDbRegAppTableRecord
  2
AcadAnnoPO
 70
     0
  0
APPID
  5
134
330
9
100
AcDbSymbolTableRecord
100
AcDbRegAppTableRecord
  2
AcadAnnotative
 70
     0
  0
APPID
  5
135
330
9
100
AcDbSymbolTableRecord
100
AcDbRegAppTableRecord
  2
ACAD_DSTYLE_DIMJAG
 70
     0
  0
APPID
  5
136
330
9
100
AcDbSymbolTableRecord
100
AcDbRegAppTableRecord
  2
ACAD_DSTYLE_DIMTALN
 70
     0
  0
APPID
  5
165
330
9
100
AcDbSymbolTableRecord
100
AcDbRegAppTableRecord
  2
ACAD_MLEADERVER
 70
     0
  0
APPID
  5
217
330
9
100
AcDbSymbolTableRecord
100
AcDbRegAppTableRecord
  2
ACAD_NAV_VCDISPLAY
 70
     0
  0
ENDTAB
  0
TABLE
  2
DIMSTYLE
  5
A
330
0
100
AcDbSymbolTable
 70
     1
100
AcDbDimStyleTable
 71
     0
  0
DIMSTYLE
105
27
330
A
100
AcDbSymbolTableRecord
100
AcDbDimStyleTableRecord
  2
ISO-25
 70
     0
 41
2.5
 42
0.625
 43
3.75
 44
1.25
 73
     0
 74
     0
 77
     1
 78
     8
140
2.5
141
2.5
143
0.03937007874016
147
0.625
171
     3
172
     1
271
     2
272
     2
274
     3
278
    44
283
     0
284
     8
340
11
  0
ENDTAB
  0
TABLE
  2
BLOCK_RECORD
  5
1
330
0
100
AcDbSymbolTable
 70
     7
  0
BLOCK_RECORD
  5
1F
102
{ACAD_XDICTIONARY
360
1CE
102
}
330
1
100
AcDbSymbolTableRecord
100
AcDbBlockTableRecord
  2
*Model_Space
340
22
  0
BLOCK_RECORD
  5
D2
102
{ACAD_XDICTIONARY
360
3F73
102
}
330
1
100
AcDbSymbolTableRecord
100
AcDbBlockTableRecord
  2
*Paper_Space
340
D3
  0
BLOCK_RECORD
  5
D6
102
{ACAD_XDICTIONARY
360
3F75
102
}
330
1
100
AcDbSymbolTableRecord
100
AcDbBlockTableRecord
  2
*Paper_Space0
340
D7
  0
BLOCK_RECORD
  5
3C82
330
1
100
AcDbSymbolTableRecord
100
AcDbBlockTableRecord
  2
SPR120_160-Front
340
0
102
{BLKREFS
331
3F69
102
}
  0
BLOCK_RECORD
  5
3D06
330
1
100
AcDbSymbolTableRecord
100
AcDbBlockTableRecord
  2
SPR120_160-Left
340
0
102
{BLKREFS
331
3F6A
102
}
  0
BLOCK_RECORD
  5
3D40
330
1
100
AcDbSymbolTableRecord
100
AcDbBlockTableRecord
  2
SPR120_160-Right
340
0
102
{BLKREFS
331
3F6B
102
}
  0
BLOCK_RECORD
  5
3D7C
330
1
100
AcDbSymbolTableRecord
100
AcDbBlockTableRecord
  2
SPR120_160-Top
340
0
102
{BLKREFS
331
3F6C
102
}
  0
BLOCK_RECORD
  5
3DEC
330
1
100
AcDbSymbolTableRecord
100
AcDbBlockTableRecord
  2
SPR120_160-Bottom
340
0
102
{BLKREFS
331
3F6D
102
}
  0
BLOCK_RECORD
  5
3E58
330
1
100
AcDbSymbolTableRecord
100
AcDbBlockTableRecord
  2
SPR120_160-ISO
340
0
102
{BLKREFS
331
3F6E
102
}
  0
ENDTAB
  0
ENDSEC
  0
SECTION
  2
BLOCKS
  0
BLOCK
  5
20
330
1F
100
AcDbEntity
  8
0
100
AcDbBlockBegin
  2
*Model_Space
 70
     0
 10
0.0
 20
0.0
 30
0.0
  3
*Model_Space
  1

  0
ENDBLK
  5
21
330
1F
100
AcDbEntity
  8
0
100
AcDbBlockEnd
  0
BLOCK
  5
D4
330
D2
100
AcDbEntity
 67
     1
  8
0
100
AcDbBlockBegin
  2
*Paper_Space
 70
     0
 10
0.0
 20
0.0
 30
0.0
  3
*Paper_Space
  1

  0
ENDBLK
  5
D5
330
D2
100
AcDbEntity
 67
     1
  8
0
100
AcDbBlockEnd
  0
BLOCK
  5
D8
330
D6
100
AcDbEntity
 67
     1
  8
0
100
AcDbBlockBegin
  2
*Paper_Space0
 70
     0
 10
0.0
 20
0.0
 30
0.0
  3
*Paper_Space0
  1

  0
ENDBLK
  5
D9
330
D6
100
AcDbEntity
 67
     1
  8
0
100
AcDbBlockEnd
  0
BLOCK
  5
3C83
330
3C82
100
AcDbEntity
  8
0
100
AcDbBlockBegin
  2
SPR120_160-Front
 70
     0
 10
0.0
 20
0.0
 30
0.0
  3
SPR120_160-Front
  1

  0
LINE
  5
3C85
330
3C82
100
AcDbEntity
  8
0
100
AcDbLine
 10
102.527090561
 20
6.269999999999996
 30
0.0
 11
97.52709056099996
 21
1.269999999999996
 31
0.0
  0
LINE
  5
3C86
330
3C82
100
AcDbEntity
  8
0
100
AcDbLine
 10
-97.52709056100002
 20
1.269999999999996
 30
0.0
 11
-102.527090561
 21
6.269999999999996
 31
0.0
  0
LINE
  5
3C87
330
3C82
100
AcDbEntity
  8
0
100
AcDbLine
 10
-102.527090561
 20
72.27000000000001
 30
0.0
 11
-97.52709056100002
 21
77.27000000000001
 31
0.0
  0
LINE
  5
3C88
330
3C82
100
AcDbEntity
  8
0
100
AcDbLine
 10
97.52709056099995
 20
77.27000000000001
 30
0.0
 11
102.5270905609999
 21
72.27000000000001
 31
0.0
  0
LINE
  5
3C89
330
3C82
100
AcDbEntity
  8
0
100
AcDbLine
 10
102.5270905609999
 20
72.27000000000001
 30
0.0
 11
102.527090561
 21
6.269999999999997
 31
0.0
  0
LINE
  5
3C8A
330
3C82
100
AcDbEntity
  8
0
100
AcDbLine
 10
-102.527090561
 20
6.269999999999996
 30
0.0
 11
-102.527090561
 21
72.27000000000001
 31
0.0
  0
LINE
  5
3C8B
330
3C82
100
AcDbEntity
  8
0
100
AcDbLine
 10
56.49999999999998
 20
77.27000000000001
 30
0.0
 11
97.52709056099995
 21
77.27000000000001
 31
0.0
  0
LINE
  5
3C8C
330
3C82
100
AcDbEntity
  8
0
100
AcDbLine
 10
-56.50000000000002
 20
1.269999999999987
 30
0.0
 11
-97.52709056100002
 21
1.269999999999996
 31
0.0
  0
LINE
  5
3C8D
330
3C82
100
AcDbEntity
  8
0
100
AcDbLine
 10
97.52709056099996
 20
1.269999999999996
 30
0.0
 11
56.49999999999998
 21
1.269999999999987
 31
0.0
  0
ARC
  5
3C8E
330
3C82
100
AcDbEntity
  8
0
100
AcDbCircle
 10
56.49999999999998
 20
78.77000000000004
 30
0.0
 40
1.5
100
AcDbArc
 50
90.0
 51
270.0
  0
LINE
  5
3C8F
330
3C82
100
AcDbEntity
  8
0
100
AcDbLine
 10
-97.52709056100002
 20
77.27000000000001
 30
0.0
 11
-56.50000000000002
 21
77.27000000000001
 31
0.0
  0
ARC
  5
3C90
330
3C82
100
AcDbEntity
  8
0
100
AcDbCircle
 10
-56.50000000000002
 20
78.77000000000001
 30
0.0
 40
1.5
100
AcDbArc
 50
270.0
 51
90.0
  0
LINE
  5
3C91
330
3C82
100
AcDbEntity
  8
0
100
AcDbLine
 10
61.50000000000019
 20
80.27000000000002
 30
0.0
 11
61.50000000000023
 21
85.27000000000002
 31
0.0
  0
LINE
  5
3C92
330
3C82
100
AcDbEntity
  8
0
100
AcDbLine
 10
61.50000000000023
 20
85.27000000000002
 30
0.0
 11
60.00000000000022
 21
85.27000000000002
 31
0.0
  0
LINE
  5
3C93
330
3C82
100
AcDbEntity
  8
0
100
AcDbLine
 10
60.00000000000022
 20
85.27000000000002
 30
0.0
 11
60.0000000000002
 21
80.27000000000002
 31
0.0
  0
LINE
  5
3C94
330
3C82
100
AcDbEntity
  8
0
100
AcDbLine
 10
60.0000000000002
 20
80.27000000000002
 30
0.0
 11
61.50000000000019
 21
80.27000000000002
 31
0.0
  0
LINE
  5
3C95
330
3C82
100
AcDbEntity
  8
0
100
AcDbLine
 10
60.00000000000022
 20
155.67
 30
0.0
 11
61.50000000000023
 21
155.67
 31
0.0
  0
LINE
  5
3C96
330
3C82
100
AcDbEntity
  8
0
100
AcDbLine
 10
61.50000000000023
 20
155.67
 30
0.0
 11
61.50000000000019
 21
160.67
 31
0.0
  0
LINE
  5
3C97
330
3C82
100
AcDbEntity
  8
0
100
AcDbLine
 10
-61.50000000000002
 20
85.27000000000001
 30
0.0
 11
-61.50000000000002
 21
80.27000000000002
 31
0.0
  0
LINE
  5
3C98
330
3C82
100
AcDbEntity
  8
0
100
AcDbLine
 10
-61.50000000000002
 20
80.27000000000002
 30
0.0
 11
-60.0
 21
80.27000000000002
 31
0.0
  0
LINE
  5
3C99
330
3C82
100
AcDbEntity
  8
0
100
AcDbLine
 10
-60.0
 20
80.27000000000002
 30
0.0
 11
-60.0
 21
85.27000000000001
 31
0.0
  0
LINE
  5
3C9A
330
3C82
100
AcDbEntity
  8
0
100
AcDbLine
 10
-60.0
 20
85.27000000000001
 30
0.0
 11
-61.50000000000002
 21
85.27000000000001
 31
0.0
  0
LINE
  5
3C9B
330
3C82
100
AcDbEntity
  8
0
100
AcDbLine
 10
-61.50000000000002
 20
160.67
 30
0.0
 11
-61.50000000000002
 21
155.67
 31
0.0
  0
LINE
  5
3C9C
330
3C82
100
AcDbEntity
  8
0
100
AcDbLine
 10
-61.50000000000002
 20
155.67
 30
0.0
 11
-60.0
 21
155.67
 31
0.0
  0
LINE
  5
3C9D
330
3C82
100
AcDbEntity
  8
0
100
AcDbLine
 10
61.50000000000019
 20
160.67
 30
0.0
 11
60.0000000000002
 21
160.67
 31
0.0
  0
LINE
  5
3C9E
330
3C82
100
AcDbEntity
  8
0
100
AcDbLine
 10
60.0000000000002
 20
160.67
 30
0.0
 11
60.00000000000022
 21
155.67
 31
0.0
  0
LINE
  5
3C9F
330
3C82
100
AcDbEntity
  8
0
100
AcDbLine
 10
-60.0
 20
155.67
 30
0.0
 11
-60.0
 21
160.67
 31
0.0
  0
LINE
  5
3CA0
330
3C82
100
AcDbEntity
  8
0
100
AcDbLine
 10
-60.0
 20
160.67
 30
0.0
 11
-61.50000000000002
 21
160.67
 31
0.0
  0
LINE
  5
3CA1
330
3C82
100
AcDbEntity
  8
0
100
AcDbLine
 10
61.49999999999995
 20
-28.42608254450008
 30
0.0
 11
61.49999999999997
 21
-21.35501473263463
 31
0.0
  0
LINE
  5
3CA2
330
3C82
100
AcDbEntity
  8
0
100
AcDbLine
 10
61.49999999999997
 20
-21.35501473263463
 30
0.0
 11
59.99999999999996
 21
-21.35501473263463
 31
0.0
  0
LINE
  5
3CA3
330
3C82
100
AcDbEntity
  8
0
100
AcDbLine
 10
59.99999999999996
 20
-21.35501473263463
 30
0.0
 11
59.99999999999996
 21
-28.42608254450008
 31
0.0
  0
LINE
  5
3CA4
330
3C82
100
AcDbEntity
  8
0
100
AcDbLine
 10
59.99999999999996
 20
-28.42608254450008
 30
0.0
 11
61.49999999999995
 21
-28.42608254450008
 31
0.0
  0
LINE
  5
3CA5
330
3C82
100
AcDbEntity
  8
0
100
AcDbLine
 10
-61.49999999999997
 20
-21.35501473263464
 30
0.0
 11
-61.49999999999995
 21
-28.42608254450009
 31
0.0
  0
LINE
  5
3CA6
330
3C82
100
AcDbEntity
  8
0
100
AcDbLine
 10
-61.49999999999995
 20
-28.42608254450009
 30
0.0
 11
-59.99999999999996
 21
-28.42608254450009
 31
0.0
  0
LINE
  5
3CA7
330
3C82
100
AcDbEntity
  8
0
100
AcDbLine
 10
-59.99999999999996
 20
-28.42608254450009
 30
0.0
 11
-59.99999999999996
 21
-21.35501473263464
 31
0.0
  0
LINE
  5
3CA8
330
3C82
100
AcDbEntity
  8
0
100
AcDbLine
 10
-59.99999999999996
 20
-21.35501473263464
 30
0.0
 11
-61.49999999999997
 21
-21.35501473263464
 31
0.0
  0
LINE
  5
3CA9
330
3C82
100
AcDbEntity
  8
0
100
AcDbLine
 10
61.50000000000023
 20
85.27000000000002
 30
0.0
 11
61.50000000000023
 21
155.67
 31
0.0
  0
LINE
  5
3CAA
330
3C82
100
AcDbEntity
  8
0
100
AcDbLine
 10
60.00000000000022
 20
155.67
 30
0.0
 11
60.00000000000022
 21
85.27000000000002
 31
0.0
  0
LINE
  5
3CAB
330
3C82
100
AcDbEntity
  8
0
100
AcDbLine
 10
-61.50000000000002
 20
155.67
 30
0.0
 11
-61.50000000000002
 21
85.27000000000001
 31
0.0
  0
LINE
  5
3CAC
330
3C82
100
AcDbEntity
  8
0
100
AcDbLine
 10
-60.0
 20
155.67
 30
0.0
 11
-60.0
 21
85.27000000000001
 31
0.0
  0
LINE
  5
3CAD
330
3C82
100
AcDbEntity
  8
0
100
AcDbLine
 10
56.49999999999998
 20
80.27000000000002
 30
0.0
 11
59.39999999999998
 21
80.27000000000002
 31
0.0
  0
LINE
  5
3CAE
330
3C82
100
AcDbEntity
  8
0
100
AcDbLine
 10
-59.40000000000002
 20
80.27000000000002
 30
0.0
 11
-56.50000000000002
 21
80.27000000000001
 31
0.0
  0
LINE
  5
3CAF
330
3C82
100
AcDbEntity
  8
0
100
AcDbLine
 10
-59.40000000000002
 20
160.67
 30
0.0
 11
59.39999999999998
 21
160.67
 31
0.0
  0
LINE
  5
3CB0
330
3C82
100
AcDbEntity
  8
0
100
AcDbLine
 10
61.50000000000211
 20
-2.263131642256726
 30
0.0
 11
61.49999999999997
 21
-21.35501473263463
 31
0.0
  0
LINE
  5
3CB1
330
3C82
100
AcDbEntity
  8
0
100
AcDbLine
 10
60.00000000000172
 20
-2.263131642256725
 30
0.0
 11
59.99999999999996
 21
-21.35501473263463
 31
0.0
  0
ELLIPSE
  5
3CB2
330
3C82
100
AcDbEntity
  8
0
100
AcDbEllipse
 10
59.39999999999997
 20
-54.16476937947047
 30
0.0
 11
0.6000000000000089
 21
-0.0000000000000007
 31
0.0
210
0.0
220
0.0
230
1.0
 40
0.7071067811865475
 41
4.71238898038475
 42
6.283185307179506
  0
ELLIPSE
  5
3CB3
330
3C82
100
AcDbEntity
  8
0
100
AcDbEllipse
 10
59.39999999999997
 20
-54.16476937947047
 30
0.0
 11
2.100000000000031
 21
-0.0000000000000622
 31
0.0
210
0.0
220
0.0
230
1.0
 40
0.7071067811865527
 41
4.712388980384693
 42
6.283185307179538
  0
LINE
  5
3CB4
330
3C82
100
AcDbEntity
  8
0
100
AcDbLine
 10
61.50000000000211
 20
-2.263131642256726
 30
0.0
 11
60.00000000000172
 21
-2.263131642256725
 31
0.0
  0
ELLIPSE
  5
3CB5
330
3C82
100
AcDbEntity
  8
0
100
AcDbEllipse
 10
-56.50000000000002
 20
0.0236058844764062
 30
0.0
 11
-1.5
 21
0.0000000000001095
 31
0.0
210
0.0
220
0.0
230
1.0
 40
0.7071067811865479
 41
1.570796326795026
 42
2.705254581962135
  0
LINE
  5
3CB6
330
3C82
100
AcDbEntity
  8
0
100
AcDbLine
 10
-56.50000000000002
 20
-1.037054287303421
 30
0.0
 11
-58.79315533855963
 21
-1.03705428730342
 31
0.0
  0
LINE
  5
3CB7
330
3C82
100
AcDbEntity
  8
0
100
AcDbLine
 10
-58.79315533855963
 20
-1.03705428730342
 30
0.0
 11
-59.40000000000002
 21
-1.466158262545979
 31
0.0
  0
LINE
  5
3CB8
330
3C82
100
AcDbEntity
  8
0
100
AcDbLine
 10
59.39999999999998
 20
-1.466158262545984
 30
0.0
 11
58.79315533855959
 21
-1.037054287303426
 31
0.0
  0
LINE
  5
3CB9
330
3C82
100
AcDbEntity
  8
0
100
AcDbLine
 10
58.79315533855959
 20
-1.037054287303426
 30
0.0
 11
56.49999999999998
 21
-1.037054287303426
 31
0.0
  0
ELLIPSE
  5
3CBA
330
3C82
100
AcDbEntity
  8
0
100
AcDbEllipse
 10
56.49999999999998
 20
0.0236058844764063
 30
0.0
 11
-1.5
 21
0.0
 31
0.0
210
0.0
220
0.0
230
1.0
 40
0.7071067811865479
 41
0.4363380716279047
 42
1.570796326794896
  0
SPLINE
  5
3CBB
330
3C82
100
AcDbEntity
  8
0
100
AcDbSpline
210
0.0
220
0.0
230
1.0
 70
     8
 71
     3
 72
     8
 73
     4
 74
     0
 42
0.000000001
 43
0.0000000001
 40
-1.0
 40
-1.0
 40
-1.0
 40
-1.0
 40
0.0
 40
0.0
 40
0.0
 40
0.0
 10
-55.01767776087199
 20
-0.0003899405809507
 30
0.0
 10
-54.97251992073983
 20
-0.1594792109354459
 30
0.0
 10
-55.01586474390124
 20
-0.3214850446752977
 30
0.0
 10
-55.1405419700205
 20
-0.4246540092928796
 30
0.0
  0
SPLINE
  5
3CBC
330
3C82
100
AcDbEntity
  8
0
100
AcDbSpline
210
0.0
220
0.0
230
1.0
 70
     8
 71
     3
 72
     8
 73
     4
 74
     0
 42
0.000000001
 43
0.0000000001
 40
-1.0
 40
-1.0
 40
-1.0
 40
-1.0
 40
0.0
 40
0.0
 40
0.0
 40
0.0
 10
55.14054197002041
 20
-0.4246540092928796
 30
0.0
 10
55.01586474390372
 20
-0.3214850446752982
 30
0.0
 10
54.97251992074175
 20
-0.1594792109354491
 30
0.0
 10
55.01767776087192
 20
-0.0003899405809508
 30
0.0
  0
LINE
  5
3CBD
330
3C82
100
AcDbEntity
  8
0
100
AcDbLine
 10
-60.00000000000127
 20
-2.263131642256734
 30
0.0
 11
-61.50000000000159
 21
-2.263131642256734
 31
0.0
  0
SPLINE
  5
3CBE
330
3C82
100
AcDbEntity
  8
0
100
AcDbSpline
210
0.0
220
0.0
230
1.0
 70
     8
 71
     3
 72
     8
 73
     4
 74
     0
 42
0.000000001
 43
0.0000000001
 40
-1.0
 40
-1.0
 40
-1.0
 40
-1.0
 40
0.0
 40
0.0
 40
0.0
 40
0.0
 10
-59.40000000000002
 20
-1.466158262545966
 30
0.0
 10
-59.714159265359
 20
-1.873237411765359
 30
0.0
 10
-60.00000000000003
 20
-2.078196639180311
 30
0.0
 10
-60.00000000000004
 20
-2.263131641492208
 30
0.0
  0
ARC
  5
3CBF
330
3C82
100
AcDbEntity
  8
0
100
AcDbCircle
 10
-56.50000000000002
 20
-0.2299999999999986
 30
0.0
 40
1.5
100
AcDbArc
 50
8.805075259701309
 51
90.0
  0
SPLINE
  5
3CC0
330
3C82
100
AcDbEntity
  8
0
100
AcDbSpline
210
0.0
220
0.0
230
1.0
 70
     8
 71
     3
 72
     8
 73
     4
 74
     0
 42
0.000000001
 43
0.0000000001
 40
-1.0
 40
-1.0
 40
-1.0
 40
-1.0
 40
0.0
 40
0.0
 40
0.0
 40
0.0
 10
60.0
 20
-2.263131641492217
 30
0.0
 10
60.0
 20
-2.07819663918066
 30
0.0
 10
59.71415926535896
 20
-1.873237411765659
 30
0.0
 10
59.39999999999998
 20
-1.466158262545975
 30
0.0
  0
ARC
  5
3CC1
330
3C82
100
AcDbEntity
  8
0
100
AcDbCircle
 10
56.49999999999998
 20
-0.2299999999999986
 30
0.0
 40
1.5
100
AcDbArc
 50
90.0
 51
171.1949247402987
  0
SPLINE
  5
3CC2
330
3C82
100
AcDbEntity
  8
0
100
AcDbSpline
210
0.0
220
0.0
230
1.0
 70
     8
 71
     3
 72
    16
 73
    12
 74
     0
 42
0.000000001
 43
0.0000000001
 40
0.0
 40
0.0
 40
0.0
 40
0.0
 40
0.0356537247361519
 40
0.0356537247361519
 40
0.070370495658925
 40
0.070370495658925
 40
0.1051345640253819
 40
0.1051345640253819
 40
0.1398962718824107
 40
0.1398962718824107
 40
0.1538885733136861
 40
0.1538885733136861
 40
0.1538885733136861
 40
0.1538885733136861
 10
-60.49950000000123
 20
-2.26313164149222
 30
0.0
 10
-60.49949999999899
 20
-2.263131641490668
 30
0.0
 10
-60.47955867538759
 20
-2.263059951014856
 30
0.0
 10
-60.40583172164553
 20
-2.250836451201911
 30
0.0
 10
-60.35213458021019
 20
-2.238741830444931
 30
0.0
 10
-60.22293730420535
 20
-2.194102190348891
 30
0.0
 10
-60.14591985424353
 20
-2.160888677178916
 30
0.0
 10
-59.98574064080417
 20
-2.069479202511883
 30
0.0
 10
-59.90073655247799
 20
-2.010107098165693
 30
0.0
 10
-59.78901418341563
 20
-1.909831885077908
 30
0.0
 10
-59.75758437988695
 20
-1.87894366983519
 30
0.0
 10
-59.72742155524388
 20
-1.846191951394309
 30
0.0
  0
SPLINE
  5
3CC3
330
3C82
100
AcDbEntity
  8
0
100
AcDbSpline
210
0.0
220
0.0
230
1.0
 70
     8
 71
     3
 72
    16
 73
    12
 74
     0
 42
0.000000001
 43
0.0000000001
 40
0.0
 40
0.0
 40
0.0
 40
0.0
 40
0.0356266149455294
 40
0.0356266149455294
 40
0.070344770192643
 40
0.070344770192643
 40
0.1051087695108363
 40
0.1051087695108363
 40
0.1398704808168109
 40
0.1398704808168109
 40
0.1538888647028691
 40
0.1538888647028691
 40
0.1538888647028691
 40
0.1538888647028691
 10
59.72742155524387
 20
-1.846191951394318
 30
0.0
 10
59.8042208826817
 20
-1.92958301235952
 30
0.0
 10
59.88999615136146
 20
-2.001172959782674
 30
0.0
 10
60.05564046651028
 20
-2.113266523315959
 30
0.0
 10
60.1375026165795
 20
-2.155953002319815
 30
0.0
 10
60.28182181898031
 20
-2.217016703015119
 30
0.0
 10
60.34591305095265
 20
-2.236189491827827
 30
0.0
 10
60.44238223269366
 20
-2.258395304193265
 30
0.0
 10
60.47587215059848
 20
-2.261811174869832
 30
0.0
 10
60.49650501536859
 20
-2.263130971916427
 30
0.0
 10
60.49950000000004
 20
-2.263131641491619
 30
0.0
 10
60.49950000000024
 20
-2.26313164149223
 30
0.0
  0
LINE
  5
3CC4
330
3C82
100
AcDbEntity
  8
0
100
AcDbLine
 10
61.49999999999995
 20
-54.16476937947052
 30
0.0
 11
61.49999999999995
 21
-28.42608254450008
 31
0.0
  0
LINE
  5
3CC5
330
3C82
100
AcDbEntity
  8
0
100
AcDbLine
 10
-61.49999999999995
 20
-28.42608254450009
 30
0.0
 11
-61.49999999999998
 21
-54.16476937947052
 31
0.0
  0
LINE
  5
3CC6
330
3C82
100
AcDbEntity
  8
0
100
AcDbLine
 10
-59.99999999999996
 20
-28.42608254450009
 30
0.0
 11
-59.99999999999997
 21
-54.16476937947052
 31
0.0
  0
LINE
  5
3CC7
330
3C82
100
AcDbEntity
  8
0
100
AcDbLine
 10
-59.39999999999999
 20
-54.58903344818243
 30
0.0
 11
59.39999999999997
 21
-54.58903344818243
 31
0.0
  0
LINE
  5
3CC8
330
3C82
100
AcDbEntity
  8
0
100
AcDbLine
 10
59.99999999999996
 20
-54.16476937947052
 30
0.0
 11
59.99999999999996
 21
-28.42608254450008
 31
0.0
  0
LINE
  5
3CC9
330
3C82
100
AcDbEntity
  8
0
100
AcDbLine
 10
-59.39999999999999
 20
-55.64969361996226
 30
0.0
 11
59.39999999999997
 21
-55.64969361996226
 31
0.0
  0
LINE
  5
3CCA
330
3C82
100
AcDbEntity
  8
0
100
AcDbLine
 10
-61.50000000000159
 20
-2.263131642256734
 30
0.0
 11
-61.49999999999997
 21
-21.35501473263464
 31
0.0
  0
LINE
  5
3CCB
330
3C82
100
AcDbEntity
  8
0
100
AcDbLine
 10
-60.00000000000127
 20
-2.263131642256734
 30
0.0
 11
-59.99999999999996
 21
-21.35501473263464
 31
0.0
  0
CIRCLE
  5
3CCC
330
3C82
100
AcDbEntity
  8
0
100
AcDbCircle
 10
49.99999999999997
 20
149.77
 30
0.0
 40
2.5
  0
CIRCLE
  5
3CCD
330
3C82
100
AcDbEntity
  8
0
100
AcDbCircle
 10
49.99999999999997
 20
109.7699999999999
 30
0.0
 40
2.5
  0
CIRCLE
  5
3CCE
330
3C82
100
AcDbEntity
  8
0
100
AcDbCircle
 10
49.99999999999997
 20
69.76999999999996
 30
0.0
 40
2.5
  0
CIRCLE
  5
3CCF
330
3C82
100
AcDbEntity
  8
0
100
AcDbCircle
 10
49.99999999999997
 20
29.76999999999997
 30
0.0
 40
2.5
  0
CIRCLE
  5
3CD0
330
3C82
100
AcDbEntity
  8
0
100
AcDbCircle
 10
39.99999999999997
 20
129.77
 30
0.0
 40
2.5
  0
CIRCLE
  5
3CD1
330
3C82
100
AcDbEntity
  8
0
100
AcDbCircle
 10
39.99999999999997
 20
89.76999999999996
 30
0.0
 40
2.5
  0
CIRCLE
  5
3CD2
330
3C82
100
AcDbEntity
  8
0
100
AcDbCircle
 10
39.99999999999997
 20
49.76999999999996
 30
0.0
 40
2.5
  0
CIRCLE
  5
3CD3
330
3C82
100
AcDbEntity
  8
0
100
AcDbCircle
 10
39.99999999999997
 20
9.769999999999965
 30
0.0
 40
2.5
  0
CIRCLE
  5
3CD4
330
3C82
100
AcDbEntity
  8
0
100
AcDbCircle
 10
-40.00000000000001
 20
149.77
 30
0.0
 40
2.5
  0
CIRCLE
  5
3CD5
330
3C82
100
AcDbEntity
  8
0
100
AcDbCircle
 10
-40.00000000000001
 20
109.77
 30
0.0
 40
2.5
  0
CIRCLE
  5
3CD6
330
3C82
100
AcDbEntity
  8
0
100
AcDbCircle
 10
-40.00000000000001
 20
69.76999999999998
 30
0.0
 40
2.5
  0
CIRCLE
  5
3CD7
330
3C82
100
AcDbEntity
  8
0
100
AcDbCircle
 10
-40.00000000000001
 20
29.76999999999998
 30
0.0
 40
2.5
  0
CIRCLE
  5
3CD8
330
3C82
100
AcDbEntity
  8
0
100
AcDbCircle
 10
-50.00000000000003
 20
129.77
 30
0.0
 40
2.5
  0
CIRCLE
  5
3CD9
330
3C82
100
AcDbEntity
  8
0
100
AcDbCircle
 10
-50.00000000000003
 20
89.76999999999998
 30
0.0
 40
2.5
  0
CIRCLE
  5
3CDA
330
3C82
100
AcDbEntity
  8
0
100
AcDbCircle
 10
-50.00000000000003
 20
49.76999999999998
 30
0.0
 40
2.5
  0
CIRCLE
  5
3CDB
330
3C82
100
AcDbEntity
  8
0
100
AcDbCircle
 10
-50.00000000000003
 20
9.769999999999983
 30
0.0
 40
2.5
  0
CIRCLE
  5
3CDC
330
3C82
100
AcDbEntity
  8
0
100
AcDbCircle
 10
-73.02709056100001
 20
69.76999999999998
 30
0.0
 40
2.5
  0
CIRCLE
  5
3CDD
330
3C82
100
AcDbEntity
  8
0
100
AcDbCircle
 10
67.02709056099992
 20
69.76999999999996
 30
0.0
 40
2.5
  0
CIRCLE
  5
3CDE
330
3C82
100
AcDbEntity
  8
0
100
AcDbCircle
 10
-67.02709056099999
 20
29.76999999999999
 30
0.0
 40
2.5
  0
CIRCLE
  5
3CDF
330
3C82
100
AcDbEntity
  8
0
100
AcDbCircle
 10
73.02709056099994
 20
29.76999999999998
 30
0.0
 40
2.5
  0
ELLIPSE
  5
3CE0
330
3C82
100
AcDbEntity
  8
0
100
AcDbEllipse
 10
-22.50000000000002
 20
0.0236058844764062
 30
0.0
 11
-2.5
 21
0.0
 31
0.0
210
0.0
220
0.0
230
1.0
 40
0.7071067811865479
 41
0.2563733270184496
 42
1.570796326794896
  0
LINE
  5
3CE1
330
3C82
100
AcDbEntity
  8
0
100
AcDbLine
 10
-17.50000000000001
 20
-1.74416106848998
 30
0.0
 11
-22.50000000000002
 21
-1.74416106848998
 31
0.0
  0
ELLIPSE
  5
3CE2
330
3C82
100
AcDbEntity
  8
0
100
AcDbEllipse
 10
-17.50000000000001
 20
0.0236058844764063
 30
0.0
 11
2.499999999999999
 21
-0.0000000000000001
 31
0.0
210
0.0
220
0.0
230
1.0
 40
0.707106781186548
 41
4.712388980384689
 42
6.026811980161137
  0
SPLINE
  5
3CE3
330
3C82
100
AcDbEntity
  8
0
100
AcDbSpline
210
0.0
220
0.0
230
1.0
 70
     8
 71
     3
 72
     8
 73
     4
 74
     0
 42
0.000000001
 43
0.0000000001
 40
-1.0
 40
-1.0
 40
-1.0
 40
-1.0
 40
0.0
 40
0.0
 40
0.0
 40
0.0
 10
-24.91828991960765
 20
-0.4246540092928796
 30
0.0
 10
-24.99189972302028
 20
-0.3163012038324997
 30
0.0
 10
-25.01609483643939
 20
-0.1581319339738405
 30
0.0
 10
-24.98943351399745
 20
-0.0003899405809503
 30
0.0
  0
SPLINE
  5
3CE4
330
3C82
100
AcDbEntity
  8
0
100
AcDbSpline
210
0.0
220
0.0
230
1.0
 70
     8
 71
     3
 72
     8
 73
     4
 74
     0
 42
0.000000001
 43
0.0000000001
 40
-1.0
 40
-1.0
 40
-1.0
 40
-1.0
 40
0.0
 40
0.0
 40
0.0
 40
0.0
 10
-15.01056648600259
 20
-0.0003899405809504
 30
0.0
 10
-14.98390516356081
 20
-0.1581319339738713
 30
0.0
 10
-15.00810027697979
 20
-0.3163012038325279
 30
0.0
 10
-15.08171008039239
 20
-0.4246540092928794
 30
0.0
  0
ARC
  5
3CE5
330
3C82
100
AcDbEntity
  8
0
100
AcDbCircle
 10
-17.50000000000001
 20
-0.2299999999999986
 30
0.0
 40
2.5
100
AcDbArc
 50
5.269701326164559
 51
90.0
  0
LINE
  5
3CE6
330
3C82
100
AcDbEntity
  8
0
100
AcDbLine
 10
-22.50000000000002
 20
2.270000000000001
 30
0.0
 11
-17.50000000000001
 21
2.270000000000001
 31
0.0
  0
ARC
  5
3CE7
330
3C82
100
AcDbEntity
  8
0
100
AcDbCircle
 10
-22.50000000000002
 20
-0.2299999999999986
 30
0.0
 40
2.5
100
AcDbArc
 50
90.0
 51
174.7302986738354
  0
ELLIPSE
  5
3CE8
330
3C82
100
AcDbEntity
  8
0
100
AcDbEllipse
 10
17.49999999999998
 20
0.0236058844764063
 30
0.0
 11
-2.5
 21
0.0
 31
0.0
210
0.0
220
0.0
230
1.0
 40
0.7071067811865479
 41
0.2563733270184496
 42
1.570796326794896
  0
LINE
  5
3CE9
330
3C82
100
AcDbEntity
  8
0
100
AcDbLine
 10
22.5
 20
-1.744161068489982
 30
0.0
 11
17.49999999999998
 21
-1.744161068489981
 31
0.0
  0
ELLIPSE
  5
3CEA
330
3C82
100
AcDbEntity
  8
0
100
AcDbEllipse
 10
22.5
 20
0.0236058844764062
 30
0.0
 11
2.5
 21
-0.0000000000000008
 31
0.0
210
0.0
220
0.0
230
1.0
 40
0.7071067811865479
 41
4.712388980384689
 42
6.026811980161137
  0
SPLINE
  5
3CEB
330
3C82
100
AcDbEntity
  8
0
100
AcDbSpline
210
0.0
220
0.0
230
1.0
 70
     8
 71
     3
 72
     8
 73
     4
 74
     0
 42
0.000000001
 43
0.0000000001
 40
-1.0
 40
-1.0
 40
-1.0
 40
-1.0
 40
0.0
 40
0.0
 40
0.0
 40
0.0
 10
15.08171008039234
 20
-0.4246540092928794
 30
0.0
 10
15.00810027697996
 20
-0.3163012038325243
 30
0.0
 10
14.98390516356047
 20
-0.1581319339738665
 30
0.0
 10
15.01056648600255
 20
-0.0003899405809504
 30
0.0
  0
SPLINE
  5
3CEC
330
3C82
100
AcDbEntity
  8
0
100
AcDbSpline
210
0.0
220
0.0
230
1.0
 70
     8
 71
     3
 72
     8
 73
     4
 74
     0
 42
0.000000001
 43
0.0000000001
 40
-1.0
 40
-1.0
 40
-1.0
 40
-1.0
 40
0.0
 40
0.0
 40
0.0
 40
0.0
 10
24.98943351399742
 20
-0.0003899405809504
 30
0.0
 10
25.01609483643945
 20
-0.1581319339738421
 30
0.0
 10
24.9918997230203
 20
-0.3163012038325015
 30
0.0
 10
24.91828991960762
 20
-0.4246540092928796
 30
0.0
  0
ARC
  5
3CED
330
3C82
100
AcDbEntity
  8
0
100
AcDbCircle
 10
22.5
 20
-0.2299999999999986
 30
0.0
 40
2.5
100
AcDbArc
 50
5.269701326164559
 51
90.0
  0
LINE
  5
3CEE
330
3C82
100
AcDbEntity
  8
0
100
AcDbLine
 10
17.49999999999998
 20
2.270000000000001
 30
0.0
 11
22.5
 21
2.270000000000001
 31
0.0
  0
ARC
  5
3CEF
330
3C82
100
AcDbEntity
  8
0
100
AcDbCircle
 10
17.49999999999998
 20
-0.2299999999999986
 30
0.0
 40
2.5
100
AcDbArc
 50
90.0
 51
174.7302986738354
  0
SPLINE
  5
3CF0
330
3C82
100
AcDbEntity
  8
0
100
AcDbSpline
210
0.0
220
0.0
230
1.0
 70
     8
 71
     3
 72
     8
 73
     4
 74
     0
 42
0.000000001
 43
0.0000000001
 40
-1.0
 40
-1.0
 40
-1.0
 40
-1.0
 40
0.0
 40
0.0
 40
0.0
 40
0.0
 10
-40.0105664860026
 20
-0.0003899405809506
 30
0.0
 10
-39.98390516356047
 20
-0.1581319339738718
 30
0.0
 10
-40.00810027697969
 20
-0.3163012038324724
 30
0.0
 10
-40.08171008039238
 20
-0.4246540092928794
 30
0.0
  0
ELLIPSE
  5
3CF1
330
3C82
100
AcDbEntity
  8
0
100
AcDbEllipse
 10
-42.50000000000001
 20
0.0236058844764062
 30
0.0
 11
2.499999999999999
 21
-0.0000000000000004
 31
0.0
210
0.0
220
0.0
230
1.0
 40
0.7071067811865479
 41
3.39796598060824
 42
6.026811980161135
  0
ELLIPSE
  5
3CF2
330
3C82
100
AcDbEntity
  8
0
100
AcDbEllipse
 10
42.49999999999999
 20
0.0236058844764062
 30
0.0
 11
2.5
 21
-0.0000000000000005
 31
0.0
210
0.0
220
0.0
230
1.0
 40
0.7071067811865479
 41
3.397965980608241
 42
6.026811980161136
  0
SPLINE
  5
3CF3
330
3C82
100
AcDbEntity
  8
0
100
AcDbSpline
210
0.0
220
0.0
230
1.0
 70
     8
 71
     3
 72
     8
 73
     4
 74
     0
 42
0.000000001
 43
0.0000000001
 40
-1.0
 40
-1.0
 40
-1.0
 40
-1.0
 40
0.0
 40
0.0
 40
0.0
 40
0.0
 10
40.08171008039235
 20
-0.4246540092928802
 30
0.0
 10
40.00810027697982
 20
-0.3163012038324944
 30
0.0
 10
39.98390516356057
 20
-0.1581319339738693
 30
0.0
 10
40.01056648600256
 20
-0.0003899405809504
 30
0.0
  0
SPLINE
  5
3CF4
330
3C82
100
AcDbEntity
  8
0
100
AcDbSpline
210
0.0
220
0.0
230
1.0
 70
     8
 71
     3
 72
     8
 73
     4
 74
     0
 42
0.000000001
 43
0.0000000001
 40
-1.0
 40
-1.0
 40
-1.0
 40
-1.0
 40
0.0
 40
0.0
 40
0.0
 40
0.0
 10
-44.91828991960765
 20
-0.4246540092928802
 30
0.0
 10
-44.99189972302028
 20
-0.3163012038325028
 30
0.0
 10
-45.01609483643966
 20
-0.1581319339738779
 30
0.0
 10
-44.98943351399744
 20
-0.0003899405809503
 30
0.0
  0
ARC
  5
3CF5
330
3C82
100
AcDbEntity
  8
0
100
AcDbCircle
 10
-42.50000000000001
 20
-0.2299999999999986
 30
0.0
 40
2.499999999999999
100
AcDbArc
 50
5.269701326164559
 51
174.7302986738354
  0
SPLINE
  5
3CF6
330
3C82
100
AcDbEntity
  8
0
100
AcDbSpline
210
0.0
220
0.0
230
1.0
 70
     8
 71
     3
 72
     8
 73
     4
 74
     0
 42
0.000000001
 43
0.0000000001
 40
-1.0
 40
-1.0
 40
-1.0
 40
-1.0
 40
0.0
 40
0.0
 40
0.0
 40
0.0
 10
44.98943351399741
 20
-0.0003899405809506
 30
0.0
 10
45.01609483643921
 20
-0.1581319339738664
 30
0.0
 10
44.99189972302031
 20
-0.3163012038324644
 30
0.0
 10
44.91828991960762
 20
-0.4246540092928794
 30
0.0
  0
ARC
  5
3CF7
330
3C82
100
AcDbEntity
  8
0
100
AcDbCircle
 10
42.49999999999999
 20
-0.2299999999999986
 30
0.0
 40
2.5
100
AcDbArc
 50
5.269701326164559
 51
174.7302986738354
  0
SPLINE
  5
3CF8
330
3C82
100
AcDbEntity
  8
0
100
AcDbSpline
210
0.0
220
0.0
230
1.0
 70
     8
 71
     3
 72
     8
 73
     4
 74
     0
 42
0.000000001
 43
0.0000000001
 40
-1.0
 40
-1.0
 40
-1.0
 40
-1.0
 40
0.0
 40
0.0
 40
0.0
 40
0.0
 10
-4.918289920131929
 20
-0.4246540092928794
 30
0.0
 10
-4.991899723307459
 20
-0.316301203816359
 30
0.0
 10
-5.016094836485387
 20
-0.1581319339514803
 30
0.0
 10
-4.989433513812974
 20
-0.0003899405809506
 30
0.0
  0
ELLIPSE
  5
3CF9
330
3C82
100
AcDbEntity
  8
0
100
AcDbEllipse
 10
2.49999999999999
 20
0.0236058830621926
 30
0.0
 11
2.5
 21
-0.0000000000000004
 31
0.0
210
0.0
220
0.0
230
1.0
 40
0.7071067811865479
 41
4.712388980384682
 42
6.026811980988168
  0
LINE
  5
3CFA
330
3C82
100
AcDbEntity
  8
0
100
AcDbLine
 10
2.499999999999973
 20
-1.744161069904195
 30
0.0
 11
-2.500000000000017
 21
-1.744161069904194
 31
0.0
  0
ELLIPSE
  5
3CFB
330
3C82
100
AcDbEntity
  8
0
100
AcDbEllipse
 10
-2.500000000000017
 20
0.0236058830621924
 30
0.0
 11
-2.5
 21
0.0000000000000004
 31
0.0
210
0.0
220
0.0
230
1.0
 40
0.7071067811865479
 41
0.2563733261914187
 42
1.570796326794896
  0
SPLINE
  5
3CFC
330
3C82
100
AcDbEntity
  8
0
100
AcDbSpline
210
0.0
220
0.0
230
1.0
 70
     8
 71
     3
 72
     8
 73
     4
 74
     0
 42
0.000000001
 43
0.0000000001
 40
-1.0
 40
-1.0
 40
-1.0
 40
-1.0
 40
0.0
 40
0.0
 40
0.0
 40
0.0
 10
4.989433513812953
 20
-0.0003899405809504
 30
0.0
 10
5.016094836485431
 20
-0.1581319339514943
 30
0.0
 10
4.991899723307119
 20
-0.3163012038163515
 30
0.0
 10
4.918289920131917
 20
-0.4246540092928796
 30
0.0
  0
ARC
  5
3CFD
330
3C82
100
AcDbEntity
  8
0
100
AcDbCircle
 10
2.499999999999991
 20
-0.2300000019999987
 30
0.0
 40
2.5
100
AcDbArc
 50
5.269701372195739
 51
90.00000000000042
  0
LINE
  5
3CFE
330
3C82
100
AcDbEntity
  8
0
100
AcDbLine
 10
-2.500000000000017
 20
2.269999998000001
 30
0.0
 11
2.499999999999973
 21
2.269999998000001
 31
0.0
  0
ARC
  5
3CFF
330
3C82
100
AcDbEntity
  8
0
100
AcDbCircle
 10
-2.500000000000017
 20
-0.2300000019999987
 30
0.0
 40
2.5
100
AcDbArc
 50
90.0
 51
174.7302986278043
  0
ELLIPSE
  5
3D00
330
3C82
100
AcDbEntity
  8
0
100
AcDbEllipse
 10
-59.39999999999999
 20
-54.16476937947047
 30
0.0
 11
-2.100000000000031
 21
-0.000000000000009
 31
0.0
210
0.0
220
0.0
230
1.0
 40
0.7071067811865476
 41
0.0
 42
1.570796326794889
  0
ELLIPSE
  5
3D01
330
3C82
100
AcDbEntity
  8
0
100
AcDbEllipse
 10
-59.39999999999999
 20
-54.16476937947047
 30
0.0
 11
-0.6000000000000089
 21
-0.0000000000000355
 31
0.0
210
0.0
220
0.0
230
1.0
 40
0.7071067811865718
 41
0.0
 42
1.570796326794781
  0
LINE
  5
3D02
330
3C82
100
AcDbEntity
  8
0
100
AcDbLine
 10
59.39999999999998
 20
160.67
 30
0.0
 11
60.0
 21
160.67
 31
0.0
  0
LINE
  5
3D03
330
3C82
100
AcDbEntity
  8
0
100
AcDbLine
 10
59.39999999999998
 20
80.27000000000002
 30
0.0
 11
60.0
 21
80.27000000000002
 31
0.0
  0
LINE
  5
3D04
330
3C82
100
AcDbEntity
  8
0
100
AcDbLine
 10
-60.00000000000001
 20
160.67
 30
0.0
 11
-59.40000000000002
 21
160.67
 31
0.0
  0
LINE
  5
3D05
330
3C82
100
AcDbEntity
  8
0
100
AcDbLine
 10
-60.00000000000001
 20
80.27000000000002
 30
0.0
 11
-59.40000000000002
 21
80.27000000000002
 31
0.0
  0
ENDBLK
  5
3C84
330
3C82
100
AcDbEntity
  8
0
100
AcDbBlockEnd
  0
BLOCK
  5
3D07
330
3D06
100
AcDbEntity
  8
0
100
AcDbBlockBegin
  2
SPR120_160-Left
 70
     0
 10
0.0
 20
0.0
 30
0.0
  3
SPR120_160-Left
  1

  0
LINE
  5
3D09
330
3D06
100
AcDbEntity
  8
0
100
AcDbLine
 10
0.0
 20
-0.0003899405809516
 30
0.0
 11
0.0
 21
1.270000000000001
 31
0.0
  0
LINE
  5
3D0A
330
3D06
100
AcDbEntity
  8
0
100
AcDbLine
 10
62.91118318265865
 20
-2.263131642256734
 30
0.0
 11
4.362741700911225
 21
-2.263131641492252
 31
0.0
  0
LINE
  5
3D0B
330
3D06
100
AcDbEntity
  8
0
100
AcDbLine
 10
1.675735931288095
 20
-0.4246540092928799
 30
0.0
 11
2.288136209298631
 21
-1.037054287303415
 31
0.0
  0
LINE
  5
3D0C
330
3D06
100
AcDbEntity
  8
0
100
AcDbLine
 10
2.288136209298606
 20
-1.03705428730342
 30
0.0
 11
2.717240184541164
 21
-1.466158262545979
 31
0.0
  0
SPLINE
  5
3D0D
330
3D06
100
AcDbEntity
  8
0
100
AcDbSpline
210
0.0
220
0.0
230
1.0
 70
     8
 71
     3
 72
     8
 73
     4
 74
     0
 42
0.000000001
 43
0.0000000001
 40
-1.0
 40
-1.0
 40
-1.0
 40
-1.0
 40
0.0
 40
0.0
 40
0.0
 40
0.0
 10
1.500000000000023
 20
-0.0003899405809507
 30
0.0
 10
1.500000000000023
 20
-0.1594792109354459
 30
0.0
 10
1.572566966670513
 20
-0.3214850446752977
 30
0.0
 10
1.675735931288095
 20
-0.4246540092928796
 30
0.0
  0
SPLINE
  5
3D0E
330
3D06
100
AcDbEntity
  8
0
100
AcDbSpline
210
0.0
220
0.0
230
1.0
 70
     8
 71
     3
 72
     8
 73
     4
 74
     0
 42
0.000000001
 43
0.0000000001
 40
0.0
 40
0.0
 40
0.0
 40
0.0
 40
1.0
 40
1.0
 40
1.0
 40
1.0
 10
0.615075759508274
 20
-1.485314181072701
 30
0.0
 10
0.2539843833467378
 20
-1.124222804911164
 30
0.0
 10
0.0000000000000239
 20
-0.5572023868216841
 30
0.0
 10
0.0000000000000238
 20
-0.000389940580951
 30
0.0
  0
SPLINE
  5
3D0F
330
3D06
100
AcDbEntity
  8
0
100
AcDbSpline
210
0.0
220
0.0
230
1.0
 70
     8
 71
     3
 72
     8
 73
     4
 74
     0
 42
0.000000001
 43
0.0000000001
 40
-1.0
 40
-1.0
 40
-1.0
 40
-1.0
 40
0.0
 40
0.0
 40
0.0
 40
0.0
 10
2.717240184541184
 20
-1.466158262545966
 30
0.0
 10
3.124319333760578
 20
-1.873237411765359
 30
0.0
 10
3.733518404783575
 20
-2.078196639180311
 30
0.0
 10
4.362741700911273
 20
-2.263131641492208
 30
0.0
  0
LINE
  5
3D10
330
3D06
100
AcDbEntity
  8
0
100
AcDbLine
 10
2.717240184541164
 20
-1.466158262545979
 30
0.0
 11
2.364040347338476
 21
-1.819358099748667
 31
0.0
  0
LINE
  5
3D11
330
3D06
100
AcDbEntity
  8
0
100
AcDbLine
 10
2.364040347338476
 20
-1.819358099748667
 30
0.0
 11
1.656580012761343
 21
-2.5268184343258
 31
0.0
  0
SPLINE
  5
3D12
330
3D06
100
AcDbEntity
  8
0
100
AcDbSpline
210
0.0
220
0.0
230
1.0
 70
     8
 71
     3
 72
     8
 73
     4
 74
     0
 42
0.000000001
 43
0.0000000001
 40
0.0
 40
0.0
 40
0.0
 40
0.0
 40
1.0
 40
1.0
 40
1.0
 40
1.0
 10
4.362741700911231
 20
-2.263131641492251
 30
0.0
 10
3.178158037513799
 20
-2.633557006450087
 30
0.0
 10
2.063659161980757
 20
-2.933897583545179
 30
0.0
 10
1.656580012761362
 20
-2.526818434325787
 30
0.0
  0
LINE
  5
3D13
330
3D06
100
AcDbEntity
  8
0
100
AcDbLine
 10
1.656580012761343
 20
-2.5268184343258
 30
0.0
 11
1.227476037518791
 21
-2.097714459083235
 31
0.0
  0
LINE
  5
3D14
330
3D06
100
AcDbEntity
  8
0
100
AcDbLine
 10
2.288136209298606
 20
-1.03705428730342
 30
0.0
 11
1.227476037518791
 21
-2.097714459083235
 31
0.0
  0
LINE
  5
3D15
330
3D06
100
AcDbEntity
  8
0
100
AcDbLine
 10
1.227476037518822
 20
-2.097714459083224
 30
0.0
 11
0.6150757595082869
 21
-1.485314181072688
 31
0.0
  0
LINE
  5
3D16
330
3D06
100
AcDbEntity
  8
0
100
AcDbLine
 10
1.675735931288095
 20
-0.4246540092928796
 30
0.0
 11
1.322536092803569
 21
-0.7778538477774056
 31
0.0
  0
LINE
  5
3D17
330
3D06
100
AcDbEntity
  8
0
100
AcDbLine
 10
1.322536092803569
 20
-0.7778538477774056
 30
0.0
 11
0.615075759508274
 21
-1.485314181072701
 31
0.0
  0
LINE
  5
3D18
330
3D06
100
AcDbEntity
  8
0
100
AcDbLine
 10
1.500000000000001
 20
-0.0003899405809504
 30
0.0
 11
1.00049999543961
 21
-0.0003899405809504
 31
0.0
  0
LINE
  5
3D19
330
3D06
100
AcDbEntity
  8
0
100
AcDbLine
 10
1.00049999543961
 20
-0.0003899405809504
 30
0.0
 11
0.0
 21
-0.0003899405809504
 31
0.0
  0
LINE
  5
3D1A
330
3D06
100
AcDbEntity
  8
0
100
AcDbLine
 10
1.499999999999998
 20
1.270000000000001
 30
0.0
 11
1.499999999999997
 21
-0.000389940580951
 31
0.0
  0
LINE
  5
3D1B
330
3D06
100
AcDbEntity
  8
0
100
AcDbLine
 10
0.0
 20
6.269999999999996
 30
0.0
 11
0.0
 21
1.269999999999996
 31
0.0
  0
LINE
  5
3D1C
330
3D06
100
AcDbEntity
  8
0
100
AcDbLine
 10
0.0
 20
77.27000000000001
 30
0.0
 11
0.0
 21
72.27000000000001
 31
0.0
  0
LINE
  5
3D1D
330
3D06
100
AcDbEntity
  8
0
100
AcDbLine
 10
1.500000000000009
 20
1.269999999999996
 30
0.0
 11
1.500000000000011
 21
6.269999999999996
 31
0.0
  0
LINE
  5
3D1E
330
3D06
100
AcDbEntity
  8
0
100
AcDbLine
 10
1.500000000000011
 20
6.269999999999996
 30
0.0
 11
0.0
 21
6.269999999999996
 31
0.0
  0
LINE
  5
3D1F
330
3D06
100
AcDbEntity
  8
0
100
AcDbLine
 10
0.0
 20
1.269999999999996
 30
0.0
 11
1.500000000000009
 21
1.269999999999996
 31
0.0
  0
LINE
  5
3D20
330
3D06
100
AcDbEntity
  8
0
100
AcDbLine
 10
0.0
 20
72.27000000000001
 30
0.0
 11
1.500000000000011
 21
72.27000000000001
 31
0.0
  0
LINE
  5
3D21
330
3D06
100
AcDbEntity
  8
0
100
AcDbLine
 10
1.500000000000011
 20
72.27000000000001
 30
0.0
 11
1.500000000000009
 21
77.27000000000001
 31
0.0
  0
LINE
  5
3D22
330
3D06
100
AcDbEntity
  8
0
100
AcDbLine
 10
1.500000000000009
 20
77.27000000000001
 30
0.0
 11
0.0
 21
77.27000000000001
 31
0.0
  0
LINE
  5
3D23
330
3D06
100
AcDbEntity
  8
0
100
AcDbLine
 10
0.0
 20
6.269999999999996
 30
0.0
 11
0.0
 21
72.27000000000001
 31
0.0
  0
LINE
  5
3D24
330
3D06
100
AcDbEntity
  8
0
100
AcDbLine
 10
0.0
 20
77.27000000000001
 30
0.0
 11
0.0
 21
80.27000000000001
 31
0.0
  0
LINE
  5
3D25
330
3D06
100
AcDbEntity
  8
0
100
AcDbLine
 10
1.500000000000011
 20
6.269999999999996
 30
0.0
 11
1.500000000000011
 21
72.27000000000001
 31
0.0
  0
LINE
  5
3D26
330
3D06
100
AcDbEntity
  8
0
100
AcDbLine
 10
1.499999999999998
 20
77.27000000000001
 30
0.0
 11
1.499999999999998
 21
80.27000000000001
 31
0.0
  0
LINE
  5
3D27
330
3D06
100
AcDbEntity
  8
0
100
AcDbLine
 10
0.0
 20
80.27000000000002
 30
0.0
 11
0.0
 21
160.67
 31
0.0
  0
LINE
  5
3D28
330
3D06
100
AcDbEntity
  8
0
100
AcDbLine
 10
2.100000000000012
 20
160.67
 30
0.0
 11
0.0
 21
160.67
 31
0.0
  0
LINE
  5
3D29
330
3D06
100
AcDbEntity
  8
0
100
AcDbLine
 10
0.0
 20
80.27000000000002
 30
0.0
 11
2.100000000000004
 21
80.27000000000002
 31
0.0
  0
LINE
  5
3D2A
330
3D06
100
AcDbEntity
  8
0
100
AcDbLine
 10
43.50000000000001
 20
85.27000000000001
 30
0.0
 11
38.50000000000001
 21
80.27000000000002
 31
0.0
  0
LINE
  5
3D2B
330
3D06
100
AcDbEntity
  8
0
100
AcDbLine
 10
38.50000000000002
 20
160.67
 30
0.0
 11
43.50000000000001
 21
155.67
 31
0.0
  0
LINE
  5
3D2C
330
3D06
100
AcDbEntity
  8
0
100
AcDbLine
 10
82.00306627386
 20
-21.35501473263464
 30
0.0
 11
82.00306627386
 21
-28.42608254450009
 31
0.0
  0
CIRCLE
  5
3D2D
330
3D06
100
AcDbEntity
  8
0
100
AcDbCircle
 10
35.50000000000002
 20
147.77
 30
0.0
 40
2.5
  0
CIRCLE
  5
3D2E
330
3D06
100
AcDbEntity
  8
0
100
AcDbCircle
 10
35.50000000000002
 20
127.77
 30
0.0
 40
2.5
  0
CIRCLE
  5
3D2F
330
3D06
100
AcDbEntity
  8
0
100
AcDbCircle
 10
35.50000000000002
 20
107.77
 30
0.0
 40
2.5
  0
CIRCLE
  5
3D30
330
3D06
100
AcDbEntity
  8
0
100
AcDbCircle
 10
35.50000000000002
 20
87.77000000000001
 30
0.0
 40
2.5
  0
LINE
  5
3D31
330
3D06
100
AcDbEntity
  8
0
100
AcDbLine
 10
43.50000000000001
 20
155.67
 30
0.0
 11
43.50000000000001
 21
85.27000000000001
 31
0.0
  0
LINE
  5
3D32
330
3D06
100
AcDbEntity
  8
0
100
AcDbLine
 10
2.100000000000012
 20
160.67
 30
0.0
 11
38.50000000000002
 21
160.67
 31
0.0
  0
LINE
  5
3D33
330
3D06
100
AcDbEntity
  8
0
100
AcDbLine
 10
38.50000000000001
 20
80.27000000000002
 30
0.0
 11
2.100000000000004
 21
80.27000000000002
 31
0.0
  0
LINE
  5
3D34
330
3D06
100
AcDbEntity
  8
0
100
AcDbLine
 10
82.00306627386
 20
-28.42608254450009
 30
0.0
 11
56.26437943888953
 21
-54.16476937947052
 31
0.0
  0
LINE
  5
3D35
330
3D06
100
AcDbEntity
  8
0
100
AcDbLine
 10
62.91118318265865
 20
-2.263131642256734
 30
0.0
 11
82.00306627386
 21
-21.35501473263464
 31
0.0
  0
CIRCLE
  5
3D36
330
3D06
100
AcDbEntity
  8
0
100
AcDbCircle
 10
74.57844507130477
 20
-25.24410202925711
 30
0.0
 40
2.5
  0
ARC
  5
3D37
330
3D06
100
AcDbEntity
  8
0
100
AcDbCircle
 10
59.31559010709463
 20
-13.990452698916
 30
0.0
 40
0.8000000000000012
100
AcDbArc
 50
315.000000001042
 51
75.00000000104186
  0
LINE
  5
3D38
330
3D06
100
AcDbEntity
  8
0
100
AcDbLine
 10
59.88127553205416
 20
-14.55613812385494
 30
0.0
 11
56.81941335363088
 21
-17.61800030238964
 31
0.0
  0
ARC
  5
3D39
330
3D06
100
AcDbEntity
  8
0
100
AcDbCircle
 10
56.25372792867135
 20
-17.0523148774507
 30
0.0
 40
0.8
100
AcDbArc
 50
195.0000000010428
 51
315.0000000010428
  0
LINE
  5
3D3A
330
3D06
100
AcDbEntity
  8
0
100
AcDbLine
 10
55.48098726764387
 20
-17.25937011354677
 30
0.0
 11
54.36026792735771
 21
-13.07678859487811
 31
0.0
  0
ARC
  5
3D3B
330
3D06
100
AcDbEntity
  8
0
100
AcDbCircle
 10
55.13300858838519
 20
-12.86973335878203
 30
0.0
 40
0.8000000000000014
100
AcDbArc
 50
75.00000000104188
 51
195.0000000010427
  0
LINE
  5
3D3C
330
3D06
100
AcDbEntity
  8
0
100
AcDbLine
 10
55.34006382445316
 20
-12.096992697747
 30
0.0
 11
59.5226453431626
 21
-13.21771203788096
 31
0.0
  0
LINE
  5
3D3D
330
3D06
100
AcDbEntity
  8
0
100
AcDbLine
 10
55.28251771018369
 20
-12.08382813389861
 30
0.0
 11
54.3471033635072
 21
-13.01924248060914
 31
0.0
  0
LINE
  5
3D3E
330
3D06
100
AcDbEntity
  8
0
100
AcDbLine
 10
54.77945519839778
 20
-55.64969361996226
 30
0.0
 11
1.656580012761335
 21
-2.526818434325797
 31
0.0
  0
LINE
  5
3D3F
330
3D06
100
AcDbEntity
  8
0
100
AcDbLine
 10
56.26437943888952
 20
-54.16476937947051
 30
0.0
 11
54.77945519839775
 21
-55.64969361996225
 31
0.0
  0
ENDBLK
  5
3D08
330
3D06
100
AcDbEntity
  8
0
100
AcDbBlockEnd
  0
BLOCK
  5
3D41
330
3D40
100
AcDbEntity
  8
0
100
AcDbBlockBegin
  2
SPR120_160-Right
 70
     0
 10
0.0
 20
0.0
 30
0.0
  3
SPR120_160-Right
  1

  0
LINE
  5
3D43
330
3D40
100
AcDbEntity
  8
0
100
AcDbLine
 10
-1.499999999999953
 20
6.269999999999996
 30
0.0
 11
-1.499999999999955
 21
1.269999999999996
 31
0.0
  0
LINE
  5
3D44
330
3D40
100
AcDbEntity
  8
0
100
AcDbLine
 10
-1.499999999999955
 20
1.269999999999996
 30
0.0
 11
0.0
 21
1.270000000000022
 31
0.0
  0
LINE
  5
3D45
330
3D40
100
AcDbEntity
  8
0
100
AcDbLine
 10
0.0
 20
1.270000000000022
 30
0.0
 11
0.0
 21
6.269999999999996
 31
0.0
  0
LINE
  5
3D46
330
3D40
100
AcDbEntity
  8
0
100
AcDbLine
 10
0.0
 20
6.269999999999996
 30
0.0
 11
-1.499999999999953
 21
6.269999999999996
 31
0.0
  0
LINE
  5
3D47
330
3D40
100
AcDbEntity
  8
0
100
AcDbLine
 10
-1.499999999999953
 20
72.27000000000001
 30
0.0
 11
0.0
 21
72.27000000000001
 31
0.0
  0
LINE
  5
3D48
330
3D40
100
AcDbEntity
  8
0
100
AcDbLine
 10
0.0
 20
72.27000000000001
 30
0.0
 11
0.0
 21
77.27000000000001
 31
0.0
  0
LINE
  5
3D49
330
3D40
100
AcDbEntity
  8
0
100
AcDbLine
 10
-1.499999999999955
 20
77.27000000000001
 30
0.0
 11
-1.499999999999953
 21
72.27000000000001
 31
0.0
  0
LINE
  5
3D4A
330
3D40
100
AcDbEntity
  8
0
100
AcDbLine
 10
0.0
 20
77.27000000000001
 30
0.0
 11
-1.499999999999955
 21
77.27000000000001
 31
0.0
  0
LINE
  5
3D4B
330
3D40
100
AcDbEntity
  8
0
100
AcDbLine
 10
0.0
 20
72.27000000000001
 30
0.0
 11
0.0
 21
6.269999999999997
 31
0.0
  0
LINE
  5
3D4C
330
3D40
100
AcDbEntity
  8
0
100
AcDbLine
 10
-1.499999999999953
 20
72.27000000000001
 30
0.0
 11
-1.499999999999953
 21
6.269999999999997
 31
0.0
  0
LINE
  5
3D4D
330
3D40
100
AcDbEntity
  8
0
100
AcDbLine
 10
0.0
 20
80.27000000000002
 30
0.0
 11
0.0
 21
77.27000000000002
 31
0.0
  0
LINE
  5
3D4E
330
3D40
100
AcDbEntity
  8
0
100
AcDbLine
 10
-1.499999999999966
 20
80.27000000000002
 30
0.0
 11
-1.499999999999966
 21
77.27000000000002
 31
0.0
  0
LINE
  5
3D4F
330
3D40
100
AcDbEntity
  8
0
100
AcDbLine
 10
0.0
 20
1.270000000000001
 30
0.0
 11
0.0
 21
-0.000389940580951
 31
0.0
  0
LINE
  5
3D50
330
3D40
100
AcDbEntity
  8
0
100
AcDbLine
 10
-4.362741700911199
 20
-2.263131641492252
 30
0.0
 11
-62.91118318265863
 21
-2.263131642256726
 31
0.0
  0
LINE
  5
3D51
330
3D40
100
AcDbEntity
  8
0
100
AcDbLine
 10
-2.717240184541134
 20
-1.466158262545984
 30
0.0
 11
-2.288136209298575
 21
-1.037054287303426
 31
0.0
  0
LINE
  5
3D52
330
3D40
100
AcDbEntity
  8
0
100
AcDbLine
 10
-2.288136209298607
 20
-1.037054287303415
 30
0.0
 11
-1.675735931288064
 21
-0.4246540092928722
 31
0.0
  0
SPLINE
  5
3D53
330
3D40
100
AcDbEntity
  8
0
100
AcDbSpline
210
0.0
220
0.0
230
1.0
 70
     8
 71
     3
 72
     8
 73
     4
 74
     0
 42
0.000000001
 43
0.0000000001
 40
-1.0
 40
-1.0
 40
-1.0
 40
-1.0
 40
0.0
 40
0.0
 40
0.0
 40
0.0
 10
-1.675735931288071
 20
-0.4246540092928796
 30
0.0
 10
-1.57256696667049
 20
-0.3214850446752982
 30
0.0
 10
-1.5
 20
-0.1594792109354491
 30
0.0
 10
-1.5
 20
-0.0003899405809508
 30
0.0
  0
SPLINE
  5
3D54
330
3D40
100
AcDbEntity
  8
0
100
AcDbSpline
210
0.0
220
0.0
230
1.0
 70
     8
 71
     3
 72
     8
 73
     4
 74
     0
 42
0.000000001
 43
0.0000000001
 40
0.0
 40
0.0
 40
0.0
 40
0.0
 40
1.0
 40
1.0
 40
1.0
 40
1.0
 10
-0.0000000000000001
 20
-0.0003899405809515
 30
0.0
 10
-0.0000000000000004
 20
-0.5572023868216953
 30
0.0
 10
-0.2539843833467159
 20
-1.124222804911166
 30
0.0
 10
-0.6150757595082502
 20
-1.485314181072701
 30
0.0
  0
LINE
  5
3D55
330
3D40
100
AcDbEntity
  8
0
100
AcDbLine
 10
-2.717240184541134
 20
-1.466158262545984
 30
0.0
 11
-2.364040347337867
 21
-1.81935809974925
 31
0.0
  0
SPLINE
  5
3D56
330
3D40
100
AcDbEntity
  8
0
100
AcDbSpline
210
0.0
220
0.0
230
1.0
 70
     8
 71
     3
 72
     8
 73
     4
 74
     0
 42
0.000000001
 43
0.0000000001
 40
-1.0
 40
-1.0
 40
-1.0
 40
-1.0
 40
0.0
 40
0.0
 40
0.0
 40
0.0
 10
-4.362741700911248
 20
-2.263131641492217
 30
0.0
 10
-3.733518404783838
 20
-2.07819663918066
 30
0.0
 10
-3.124319333760842
 20
-1.873237411765659
 30
0.0
 10
-2.717240184541159
 20
-1.466158262545975
 30
0.0
  0
SPLINE
  5
3D57
330
3D40
100
AcDbEntity
  8
0
100
AcDbSpline
210
0.0
220
0.0
230
1.0
 70
     8
 71
     3
 72
     8
 73
     4
 74
     0
 42
0.000000001
 43
0.0000000001
 40
0.0
 40
0.0
 40
0.0
 40
0.0
 40
1.0
 40
1.0
 40
1.0
 40
1.0
 10
-1.656580012761337
 20
-2.526818434325796
 30
0.0
 10
-2.06365916198102
 20
-2.93389758354548
 30
0.0
 10
-3.178158037513998
 20
-2.633557006450499
 30
0.0
 10
-4.362741700911205
 20
-2.26313164149226
 30
0.0
  0
LINE
  5
3D58
330
3D40
100
AcDbEntity
  8
0
100
AcDbLine
 10
-2.364040347337867
 20
-1.81935809974925
 30
0.0
 11
-1.656580012761314
 21
-2.526818434325803
 31
0.0
  0
LINE
  5
3D59
330
3D40
100
AcDbEntity
  8
0
100
AcDbLine
 10
-0.6150757595082559
 20
-1.485314181072678
 30
0.0
 11
-1.227476037518799
 21
-2.097714459083222
 31
0.0
  0
LINE
  5
3D5A
330
3D40
100
AcDbEntity
  8
0
100
AcDbLine
 10
-0.6150757595082501
 20
-1.4853141810727
 30
0.0
 11
-1.322536092819554
 21
-0.7778538477613967
 31
0.0
  0
LINE
  5
3D5B
330
3D40
100
AcDbEntity
  8
0
100
AcDbLine
 10
-1.322536092819554
 20
-0.7778538477613967
 30
0.0
 11
-1.675735931288071
 21
-0.4246540092928793
 31
0.0
  0
LINE
  5
3D5C
330
3D40
100
AcDbEntity
  8
0
100
AcDbLine
 10
-2.288136209298575
 20
-1.037054287303426
 30
0.0
 11
-1.227476037518763
 21
-2.097714459083237
 31
0.0
  0
LINE
  5
3D5D
330
3D40
100
AcDbEntity
  8
0
100
AcDbLine
 10
-1.227476037518763
 20
-2.097714459083237
 30
0.0
 11
-1.656580012761314
 21
-2.526818434325803
 31
0.0
  0
LINE
  5
3D5E
330
3D40
100
AcDbEntity
  8
0
100
AcDbLine
 10
-1.49999999999997
 20
-0.0003899405809504
 30
0.0
 11
-1.000499995481381
 21
-0.0003899405809504
 31
0.0
  0
LINE
  5
3D5F
330
3D40
100
AcDbEntity
  8
0
100
AcDbLine
 10
-1.000499995481381
 20
-0.0003899405809504
 30
0.0
 11
0.0
 21
-0.0003899405809504
 31
0.0
  0
LINE
  5
3D60
330
3D40
100
AcDbEntity
  8
0
100
AcDbLine
 10
-1.499999999999973
 20
-0.0003899405809516
 30
0.0
 11
-1.499999999999973
 21
1.270000000000001
 31
0.0
  0
LINE
  5
3D61
330
3D40
100
AcDbEntity
  8
0
100
AcDbLine
 10
0.0
 20
80.27000000000002
 30
0.0
 11
0.0
 21
160.67
 31
0.0
  0
LINE
  5
3D62
330
3D40
100
AcDbEntity
  8
0
100
AcDbLine
 10
0.0
 20
160.67
 30
0.0
 11
-2.099999999999959
 21
160.67
 31
0.0
  0
LINE
  5
3D63
330
3D40
100
AcDbEntity
  8
0
100
AcDbLine
 10
-2.099999999999977
 20
80.27000000000002
 30
0.0
 11
0.0
 21
80.27000000000002
 31
0.0
  0
LINE
  5
3D64
330
3D40
100
AcDbEntity
  8
0
100
AcDbLine
 10
-38.49999999999997
 20
80.27000000000002
 30
0.0
 11
-43.49999999999998
 21
85.27000000000002
 31
0.0
  0
LINE
  5
3D65
330
3D40
100
AcDbEntity
  8
0
100
AcDbLine
 10
-43.49999999999998
 20
155.67
 30
0.0
 11
-38.49999999999996
 21
160.67
 31
0.0
  0
LINE
  5
3D66
330
3D40
100
AcDbEntity
  8
0
100
AcDbLine
 10
-82.00306627385996
 20
-28.42608254450008
 30
0.0
 11
-82.00306627385996
 21
-21.35501473263463
 31
0.0
  0
LINE
  5
3D67
330
3D40
100
AcDbEntity
  8
0
100
AcDbLine
 10
-43.49999999999998
 20
85.27000000000002
 30
0.0
 11
-43.49999999999998
 21
155.67
 31
0.0
  0
LINE
  5
3D68
330
3D40
100
AcDbEntity
  8
0
100
AcDbLine
 10
-2.099999999999977
 20
80.27000000000002
 30
0.0
 11
-38.49999999999997
 21
80.27000000000002
 31
0.0
  0
LINE
  5
3D69
330
3D40
100
AcDbEntity
  8
0
100
AcDbLine
 10
-38.49999999999996
 20
160.67
 30
0.0
 11
-2.099999999999959
 21
160.67
 31
0.0
  0
CIRCLE
  5
3D6A
330
3D40
100
AcDbEntity
  8
0
100
AcDbCircle
 10
-35.49999999999999
 20
152.77
 30
0.0
 40
2.5
  0
CIRCLE
  5
3D6B
330
3D40
100
AcDbEntity
  8
0
100
AcDbCircle
 10
-35.49999999999999
 20
132.77
 30
0.0
 40
2.5
  0
CIRCLE
  5
3D6C
330
3D40
100
AcDbEntity
  8
0
100
AcDbCircle
 10
-35.49999999999999
 20
112.77
 30
0.0
 40
2.5
  0
CIRCLE
  5
3D6D
330
3D40
100
AcDbEntity
  8
0
100
AcDbCircle
 10
-35.49999999999999
 20
92.77000000000001
 30
0.0
 40
2.5
  0
LINE
  5
3D6E
330
3D40
100
AcDbEntity
  8
0
100
AcDbLine
 10
-62.91118318265863
 20
-2.263131642256726
 30
0.0
 11
-82.00306627385996
 21
-21.35501473263463
 31
0.0
  0
LINE
  5
3D6F
330
3D40
100
AcDbEntity
  8
0
100
AcDbLine
 10
-1.656580012761314
 20
-2.526818434325803
 30
0.0
 11
-54.77945519839777
 21
-55.64969361996226
 31
0.0
  0
LINE
  5
3D70
330
3D40
100
AcDbEntity
  8
0
100
AcDbLine
 10
-54.77945519839774
 20
-55.64969361996226
 30
0.0
 11
-56.26437943888955
 21
-54.16476937947053
 31
0.0
  0
LINE
  5
3D71
330
3D40
100
AcDbEntity
  8
0
100
AcDbLine
 10
-56.26437943888952
 20
-54.16476937947052
 30
0.0
 11
-82.00306627385996
 21
-28.42608254450008
 31
0.0
  0
CIRCLE
  5
3D72
330
3D40
100
AcDbEntity
  8
0
100
AcDbCircle
 10
-71.04291116530767
 20
-21.70856812338872
 30
0.0
 40
2.5
  0
ARC
  5
3D73
330
3D40
100
AcDbEntity
  8
0
100
AcDbCircle
 10
-51.59747468238809
 20
-9.33419945291363
 30
0.0
 40
0.8000000000000015
100
AcDbArc
 50
344.9999999989572
 51
355.4526675359234
  0
LINE
  5
3D74
330
3D40
100
AcDbEntity
  8
0
100
AcDbLine
 10
-50.82473402136063
 20
-9.541254689009706
 30
0.0
 11
-51.94545336164679
 21
-13.72383620767836
 31
0.0
  0
ARC
  5
3D75
330
3D40
100
AcDbEntity
  8
0
100
AcDbCircle
 10
-52.71819402267426
 20
-13.51678097158229
 30
0.0
 40
0.8
100
AcDbArc
 50
224.9999999989572
 51
344.9999999989576
  0
LINE
  5
3D76
330
3D40
100
AcDbEntity
  8
0
100
AcDbLine
 10
-53.28387944763379
 20
-14.08246639652124
 30
0.0
 11
-56.34574162605708
 21
-11.02060421798654
 31
0.0
  0
ARC
  5
3D77
330
3D40
100
AcDbEntity
  8
0
100
AcDbCircle
 10
-55.78005620109753
 20
-10.45491879304759
 30
0.0
 40
0.8000000000000014
100
AcDbArc
 50
104.9999999989575
 51
224.9999999989572
  0
LINE
  5
3D78
330
3D40
100
AcDbEntity
  8
0
100
AcDbLine
 10
-55.9871114371655
 20
-9.682178132012559
 30
0.0
 11
-51.80452991845606
 21
-8.561458791878598
 31
0.0
  0
ARC
  5
3D79
330
3D40
100
AcDbEntity
  8
0
100
AcDbCircle
 10
-51.59747468238809
 20
-9.33419945291363
 30
0.0
 40
0.8000000000000014
100
AcDbArc
 50
49.59733246198601
 51
104.9999999989581
  0
LINE
  5
3D7A
330
3D40
100
AcDbEntity
  8
0
100
AcDbLine
 10
-51.07895039795263
 20
-8.724992947325674
 30
0.0
 11
-50.79999294004348
 21
-9.397625556585486
 31
0.0
  0
ARC
  5
3D7B
330
3D40
100
AcDbEntity
  8
0
100
AcDbCircle
 10
-55.13300858838519
 20
-12.86973335878203
 30
0.0
 40
0.8000000000000015
100
AcDbArc
 50
349.2288663267691
 51
100.7711336711455
  0
ENDBLK
  5
3D42
330
3D40
100
AcDbEntity
  8
0
100
AcDbBlockEnd
  0
BLOCK
  5
3D7D
330
3D7C
100
AcDbEntity
  8
0
100
AcDbBlockBegin
  2
SPR120_160-Top
 70
     0
 10
0.0
 20
0.0
 30
0.0
  3
SPR120_160-Top
  1

  0
LINE
  5
3D7F
330
3D7C
100
AcDbEntity
  8
0
100
AcDbLine
 10
102.5270905609999
 20
-1.499999999999953
 30
0.0
 11
102.5270905609999
 21
0.0
 31
0.0
  0
LINE
  5
3D80
330
3D7C
100
AcDbEntity
  8
0
100
AcDbLine
 10
-97.52709056100002
 20
0.0
 30
0.0
 11
-102.527090561
 21
0.0
 31
0.0
  0
LINE
  5
3D81
330
3D7C
100
AcDbEntity
  8
0
100
AcDbLine
 10
102.5270905609999
 20
0.0
 30
0.0
 11
97.52709056099995
 21
0.0
 31
0.0
  0
LINE
  5
3D82
330
3D7C
100
AcDbEntity
  8
0
100
AcDbLine
 10
-102.527090561
 20
0.0
 30
0.0
 11
-102.527090561
 21
-1.500000000000011
 31
0.0
  0
LINE
  5
3D83
330
3D7C
100
AcDbEntity
  8
0
100
AcDbLine
 10
-102.527090561
 20
-1.500000000000011
 30
0.0
 11
-97.52709056100002
 21
-1.50000000000001
 31
0.0
  0
LINE
  5
3D84
330
3D7C
100
AcDbEntity
  8
0
100
AcDbLine
 10
-97.52709056100002
 20
-1.50000000000001
 30
0.0
 11
-97.52709056100002
 21
0.0
 31
0.0
  0
LINE
  5
3D85
330
3D7C
100
AcDbEntity
  8
0
100
AcDbLine
 10
97.52709056099995
 20
-1.499999999999954
 30
0.0
 11
102.5270905609999
 21
-1.499999999999953
 31
0.0
  0
LINE
  5
3D86
330
3D7C
100
AcDbEntity
  8
0
100
AcDbLine
 10
97.52709056099995
 20
0.0
 30
0.0
 11
97.52709056099995
 21
-1.499999999999954
 31
0.0
  0
LINE
  5
3D87
330
3D7C
100
AcDbEntity
  8
0
100
AcDbLine
 10
-97.52709056100002
 20
0.0
 30
0.0
 11
-59.40000000000002
 21
0.0
 31
0.0
  0
LINE
  5
3D88
330
3D7C
100
AcDbEntity
  8
0
100
AcDbLine
 10
59.39999999999998
 20
0.0
 30
0.0
 11
97.52709056099995
 21
0.0
 31
0.0
  0
LINE
  5
3D89
330
3D7C
100
AcDbEntity
  8
0
100
AcDbLine
 10
61.41246117974979
 20
-1.499999999999965
 30
0.0
 11
97.52709056099995
 21
-1.499999999999954
 31
0.0
  0
LINE
  5
3D8A
330
3D7C
100
AcDbEntity
  8
0
100
AcDbLine
 10
-97.52709056100002
 20
-1.50000000000001
 30
0.0
 11
-61.41246117974983
 21
-1.5
 31
0.0
  0
LINE
  5
3D8B
330
3D7C
100
AcDbEntity
  8
0
100
AcDbLine
 10
59.39999999999998
 20
0.0
 30
0.0
 11
-59.40000000000002
 21
0.0
 31
0.0
  0
LINE
  5
3D8C
330
3D7C
100
AcDbEntity
  8
0
100
AcDbLine
 10
61.50000000000019
 20
-38.49999999999996
 30
0.0
 11
61.49999999999999
 21
-2.099999999999959
 31
0.0
  0
LINE
  5
3D8D
330
3D7C
100
AcDbEntity
  8
0
100
AcDbLine
 10
-61.50000000000002
 20
-2.100000000000013
 30
0.0
 11
-61.50000000000002
 21
-38.50000000000002
 31
0.0
  0
LINE
  5
3D8E
330
3D7C
100
AcDbEntity
  8
0
100
AcDbLine
 10
60.0
 20
-2.099999999999977
 30
0.0
 11
60.0000000000002
 21
-38.5
 31
0.0
  0
LINE
  5
3D8F
330
3D7C
100
AcDbEntity
  8
0
100
AcDbLine
 10
-59.40000000000002
 20
-1.500000000000016
 30
0.0
 11
59.39999999999998
 21
-1.499999999999981
 31
0.0
  0
LINE
  5
3D90
330
3D7C
100
AcDbEntity
  8
0
100
AcDbLine
 10
-60.0
 20
-38.50000000000002
 30
0.0
 11
-60.00000000000001
 21
-2.100000000000012
 31
0.0
  0
LINE
  5
3D91
330
3D7C
100
AcDbEntity
  8
0
100
AcDbLine
 10
60.00000000000022
 20
-43.49999999999997
 30
0.0
 11
61.50000000000023
 21
-43.49999999999997
 31
0.0
  0
LINE
  5
3D92
330
3D7C
100
AcDbEntity
  8
0
100
AcDbLine
 10
61.50000000000023
 20
-43.49999999999997
 30
0.0
 11
61.50000000000019
 21
-38.49999999999996
 31
0.0
  0
LINE
  5
3D93
330
3D7C
100
AcDbEntity
  8
0
100
AcDbLine
 10
-61.50000000000002
 20
-38.50000000000002
 30
0.0
 11
-61.50000000000002
 21
-43.50000000000002
 31
0.0
  0
LINE
  5
3D94
330
3D7C
100
AcDbEntity
  8
0
100
AcDbLine
 10
-61.50000000000002
 20
-43.50000000000002
 30
0.0
 11
-60.0
 21
-43.50000000000001
 31
0.0
  0
LINE
  5
3D95
330
3D7C
100
AcDbEntity
  8
0
100
AcDbLine
 10
61.50000000000019
 20
-38.49999999999996
 30
0.0
 11
60.0000000000002
 21
-38.5
 31
0.0
  0
LINE
  5
3D96
330
3D7C
100
AcDbEntity
  8
0
100
AcDbLine
 10
60.0000000000002
 20
-38.5
 30
0.0
 11
60.00000000000022
 21
-43.49999999999997
 31
0.0
  0
LINE
  5
3D97
330
3D7C
100
AcDbEntity
  8
0
100
AcDbLine
 10
-60.0
 20
-43.50000000000001
 30
0.0
 11
-60.0
 21
-38.50000000000002
 31
0.0
  0
LINE
  5
3D98
330
3D7C
100
AcDbEntity
  8
0
100
AcDbLine
 10
-60.0
 20
-38.50000000000002
 30
0.0
 11
-61.50000000000002
 21
-38.50000000000002
 31
0.0
  0
LINE
  5
3D99
330
3D7C
100
AcDbEntity
  8
0
100
AcDbLine
 10
61.49999999999997
 20
-82.00306627385996
 30
0.0
 11
59.99999999999996
 21
-82.00306627385996
 31
0.0
  0
LINE
  5
3D9A
330
3D7C
100
AcDbEntity
  8
0
100
AcDbLine
 10
-59.99999999999996
 20
-82.00306627386
 30
0.0
 11
-61.49999999999997
 21
-82.00306627386
 31
0.0
  0
LINE
  5
3D9B
330
3D7C
100
AcDbEntity
  8
0
100
AcDbLine
 10
61.50000000000211
 20
-62.91118318265862
 30
0.0
 11
61.49999999999997
 21
-82.00306627385996
 31
0.0
  0
LINE
  5
3D9C
330
3D7C
100
AcDbEntity
  8
0
100
AcDbLine
 10
60.00000000000172
 20
-62.91118318265862
 30
0.0
 11
59.99999999999996
 21
-82.00306627385996
 31
0.0
  0
ELLIPSE
  5
3D9D
330
3D7C
100
AcDbEntity
  8
0
100
AcDbEllipse
 10
59.39999999999997
 20
-56.26437943888951
 30
0.0
 11
0.6000000000000089
 21
-0.0000000000000257
 31
0.0
210
0.0
220
0.0
230
1.0
 40
0.7071067811865475
 41
0.0
 42
1.570796326794897
  0
LINE
  5
3D9E
330
3D7C
100
AcDbEntity
  8
0
100
AcDbLine
 10
61.50000000000211
 20
-62.91118318265862
 30
0.0
 11
60.00000000000172
 21
-62.91118318265862
 31
0.0
  0
LINE
  5
3D9F
330
3D7C
100
AcDbEntity
  8
0
100
AcDbLine
 10
61.5
 20
-43.49999999999997
 30
0.0
 11
61.50000000000211
 21
-62.91118318265862
 31
0.0
  0
LINE
  5
3DA0
330
3D7C
100
AcDbEntity
  8
0
100
AcDbLine
 10
-61.50000000000159
 20
-62.91118318265866
 30
0.0
 11
-61.50000000000162
 21
-43.50000000000002
 31
0.0
  0
ELLIPSE
  5
3DA1
330
3D7C
100
AcDbEntity
  8
0
100
AcDbEllipse
 10
-56.50000000000002
 20
-1.22747603751881
 30
0.0
 11
-1.5
 21
0.0000000000001091
 31
0.0
210
0.0
220
0.0
230
1.0
 40
0.7071067811865474
 41
1.570796326795026
 42
2.705254581962137
  0
LINE
  5
3DA2
330
3D7C
100
AcDbEntity
  8
0
100
AcDbLine
 10
-56.50000000000002
 20
-2.288136209298606
 30
0.0
 11
-58.79315533855963
 21
-2.288136209298606
 31
0.0
  0
LINE
  5
3DA3
330
3D7C
100
AcDbEntity
  8
0
100
AcDbLine
 10
-58.79315533855963
 20
-2.288136209298606
 30
0.0
 11
-59.40000000000002
 21
-2.717240184541165
 31
0.0
  0
LINE
  5
3DA4
330
3D7C
100
AcDbEntity
  8
0
100
AcDbLine
 10
59.39999999999998
 20
-2.717240184541133
 30
0.0
 11
58.79315533855959
 21
-2.288136209298575
 31
0.0
  0
LINE
  5
3DA5
330
3D7C
100
AcDbEntity
  8
0
100
AcDbLine
 10
58.79315533855959
 20
-2.288136209298575
 30
0.0
 11
56.49999999999998
 21
-2.288136209298575
 31
0.0
  0
ELLIPSE
  5
3DA6
330
3D7C
100
AcDbEntity
  8
0
100
AcDbEllipse
 10
56.49999999999998
 20
-1.227476037518786
 30
0.0
 11
-1.5
 21
-0.0000000000000003
 31
0.0
210
0.0
220
0.0
230
1.0
 40
0.7071067811865474
 41
0.4363380716279047
 42
1.570796326794896
  0
SPLINE
  5
3DA7
330
3D7C
100
AcDbEntity
  8
0
100
AcDbSpline
210
0.0
220
0.0
230
1.0
 70
     8
 71
     3
 72
     8
 73
     4
 74
     0
 42
0.000000001
 43
0.0000000001
 40
-1.0
 40
-1.0
 40
-1.0
 40
-1.0
 40
0.0
 40
0.0
 40
0.0
 40
0.0
 10
-55.01767776087199
 20
-1.500000000000024
 30
0.0
 10
-54.97251992073983
 20
-1.500000000000024
 30
0.0
 10
-55.01586474390124
 20
-1.572566966670514
 30
0.0
 10
-55.1405419700205
 20
-1.675735931288095
 30
0.0
  0
SPLINE
  5
3DA8
330
3D7C
100
AcDbEntity
  8
0
100
AcDbSpline
210
0.0
220
0.0
230
1.0
 70
     8
 71
     3
 72
     8
 73
     4
 74
     0
 42
0.000000001
 43
0.0000000001
 40
-1.0
 40
-1.0
 40
-1.0
 40
-1.0
 40
0.0
 40
0.0
 40
0.0
 40
0.0
 10
55.14054197002041
 20
-1.675735931288071
 30
0.0
 10
55.01586474390372
 20
-1.57256696667049
 30
0.0
 10
54.97251992074175
 20
-1.5
 30
0.0
 10
55.01767776087192
 20
-1.5
 30
0.0
  0
LINE
  5
3DA9
330
3D7C
100
AcDbEntity
  8
0
100
AcDbLine
 10
-60.00000000000127
 20
-62.91118318265866
 30
0.0
 11
-61.50000000000159
 21
-62.91118318265866
 31
0.0
  0
LINE
  5
3DAA
330
3D7C
100
AcDbEntity
  8
0
100
AcDbLine
 10
-60.00000000000003
 20
-43.50000000000001
 30
0.0
 11
-60.00000000000127
 21
-62.91118318265866
 31
0.0
  0
SPLINE
  5
3DAB
330
3D7C
100
AcDbEntity
  8
0
100
AcDbSpline
210
0.0
220
0.0
230
1.0
 70
     8
 71
     3
 72
     8
 73
     4
 74
     0
 42
0.000000001
 43
0.0000000001
 40
-1.0
 40
-1.0
 40
-1.0
 40
-1.0
 40
0.0
 40
0.0
 40
0.0
 40
0.0
 10
-59.40000000000002
 20
-2.717240184541185
 30
0.0
 10
-59.714159265359
 20
-3.124319333760578
 30
0.0
 10
-60.00000000000003
 20
-3.733518404783575
 30
0.0
 10
-60.00000000000004
 20
-4.362741700911274
 30
0.0
  0
LINE
  5
3DAC
330
3D7C
100
AcDbEntity
  8
0
100
AcDbLine
 10
-59.40000000000002
 20
-2.717240184541165
 30
0.0
 11
-59.40000000000002
 21
-2.364040347338477
 31
0.0
  0
LINE
  5
3DAD
330
3D7C
100
AcDbEntity
  8
0
100
AcDbLine
 10
-59.40000000000002
 20
-2.364040347338477
 30
0.0
 11
-59.40000000000002
 21
-1.656580012761343
 31
0.0
  0
SPLINE
  5
3DAE
330
3D7C
100
AcDbEntity
  8
0
100
AcDbSpline
210
0.0
220
0.0
230
1.0
 70
     8
 71
     3
 72
     8
 73
     4
 74
     0
 42
0.000000001
 43
0.0000000001
 40
0.8233926083861712
 40
0.8233926083861712
 40
0.8233926083861712
 40
0.8233926083861712
 40
1.0
 40
1.0
 40
1.0
 40
1.0
 10
-59.96833079343949
 20
-1.934942494001956
 30
0.0
 10
-59.78528852951264
 20
-1.822430928281048
 30
0.0
 10
-59.59418996942229
 20
-1.728473199485377
 30
0.0
 10
-59.40000000000002
 20
-1.656580012761363
 30
0.0
  0
LINE
  5
3DAF
330
3D7C
100
AcDbEntity
  8
0
100
AcDbLine
 10
-59.40000000000002
 20
-1.656580012761343
 30
0.0
 11
-59.17856242236216
 21
-1.500000000000003
 31
0.0
  0
LINE
  5
3DB0
330
3D7C
100
AcDbEntity
  8
0
100
AcDbLine
 10
-58.79315533855963
 20
-2.288136209298606
 30
0.0
 11
-58.79315533855963
 21
-1.500000000000016
 31
0.0
  0
LINE
  5
3DB1
330
3D7C
100
AcDbEntity
  8
0
100
AcDbLine
 10
-55.14054197002046
 20
-1.675735931288095
 30
0.0
 11
-55.14054197002046
 21
-1.500000000000015
 31
0.0
  0
LINE
  5
3DB2
330
3D7C
100
AcDbEntity
  8
0
100
AcDbLine
 10
60.00000000000172
 20
-62.91118318265862
 30
0.0
 11
60.00000000000172
 21
-43.49999999999997
 31
0.0
  0
LINE
  5
3DB3
330
3D7C
100
AcDbEntity
  8
0
100
AcDbLine
 10
59.39999999999998
 20
-2.717240184541133
 30
0.0
 11
59.39999999999998
 21
-2.364040347337867
 31
0.0
  0
SPLINE
  5
3DB4
330
3D7C
100
AcDbEntity
  8
0
100
AcDbSpline
210
0.0
220
0.0
230
1.0
 70
     8
 71
     3
 72
     8
 73
     4
 74
     0
 42
0.000000001
 43
0.0000000001
 40
-1.0
 40
-1.0
 40
-1.0
 40
-1.0
 40
0.0
 40
0.0
 40
0.0
 40
0.0
 10
60.0
 20
-4.362741700911247
 30
0.0
 10
60.0
 20
-3.733518404783837
 30
0.0
 10
59.71415926535896
 20
-3.124319333760841
 30
0.0
 10
59.39999999999998
 20
-2.717240184541158
 30
0.0
  0
SPLINE
  5
3DB5
330
3D7C
100
AcDbEntity
  8
0
100
AcDbSpline
210
0.0
220
0.0
230
1.0
 70
     8
 71
     3
 72
     8
 73
     4
 74
     0
 42
0.000000001
 43
0.0000000001
 40
0.0
 40
0.0
 40
0.0
 40
0.0
 40
0.1766073916138338
 40
0.1766073916138338
 40
0.1766073916138338
 40
0.1766073916138338
 10
59.39999999999998
 20
-1.656580012761336
 30
0.0
 10
59.59418996942225
 20
-1.728473199485403
 30
0.0
 10
59.7852885295126
 20
-1.822430928281118
 30
0.0
 10
59.96833079343947
 20
-1.93494249400206
 30
0.0
  0
LINE
  5
3DB6
330
3D7C
100
AcDbEntity
  8
0
100
AcDbLine
 10
59.39999999999998
 20
-2.364040347337867
 30
0.0
 11
59.39999999999998
 21
-1.656580012761313
 31
0.0
  0
LINE
  5
3DB7
330
3D7C
100
AcDbEntity
  8
0
100
AcDbLine
 10
55.14054197002041
 20
-1.499999999999982
 30
0.0
 11
55.14054197002039
 21
-1.675735931288071
 31
0.0
  0
LINE
  5
3DB8
330
3D7C
100
AcDbEntity
  8
0
100
AcDbLine
 10
58.79315533855959
 20
-2.288136209298575
 30
0.0
 11
58.79315533855959
 21
-1.499999999999981
 31
0.0
  0
LINE
  5
3DB9
330
3D7C
100
AcDbEntity
  8
0
100
AcDbLine
 10
59.17856242236211
 20
-1.499999999999973
 30
0.0
 11
59.39999999999998
 21
-1.656580012761313
 31
0.0
  0
LINE
  5
3DBA
330
3D7C
100
AcDbEntity
  8
0
100
AcDbLine
 10
-61.50000000000159
 20
-62.91118318265866
 30
0.0
 11
-61.49999999999997
 21
-82.00306627386
 31
0.0
  0
LINE
  5
3DBB
330
3D7C
100
AcDbEntity
  8
0
100
AcDbLine
 10
-60.00000000000127
 20
-62.91118318265866
 30
0.0
 11
-59.99999999999996
 21
-82.00306627386
 31
0.0
  0
ELLIPSE
  5
3DBC
330
3D7C
100
AcDbEntity
  8
0
100
AcDbEllipse
 10
-22.50000000000002
 20
-0.1668158657389959
 30
0.0
 11
2.499999999999999
 21
0.0000000000001828
 31
0.0
210
0.0
220
0.0
230
1.0
 40
0.7071067811865474
 41
3.995971005724948
 42
4.712388980384622
  0
LINE
  5
3DBD
330
3D7C
100
AcDbEntity
  8
0
100
AcDbLine
 10
-24.91828991960765
 20
-1.500000000000006
 30
0.0
 11
-24.91828991960765
 21
-1.675735931288089
 31
0.0
  0
ELLIPSE
  5
3DBE
330
3D7C
100
AcDbEntity
  8
0
100
AcDbEllipse
 10
-22.50000000000002
 20
-1.227476037518803
 30
0.0
 11
-2.5
 21
-0.0000000000000006
 31
0.0
210
0.0
220
0.0
230
1.0
 40
0.7071067811865472
 41
0.2563733270184496
 42
1.570796326794896
  0
LINE
  5
3DBF
330
3D7C
100
AcDbEntity
  8
0
100
AcDbLine
 10
-22.50000000000002
 20
-1.934582818705331
 30
0.0
 11
-17.50000000000001
 21
-1.93458281870533
 31
0.0
  0
LINE
  5
3DC0
330
3D7C
100
AcDbEntity
  8
0
100
AcDbLine
 10
-17.50000000000001
 20
-2.995242990485153
 30
0.0
 11
-22.50000000000002
 21
-2.995242990485154
 31
0.0
  0
ELLIPSE
  5
3DC1
330
3D7C
100
AcDbEntity
  8
0
100
AcDbEllipse
 10
-17.50000000000001
 20
-0.1668158657389945
 30
0.0
 11
2.5
 21
0.0000000000000006
 31
0.0
210
0.0
220
0.0
230
1.0
 40
0.7071067811865472
 41
4.712388980384689
 42
5.428806955044297
  0
ELLIPSE
  5
3DC2
330
3D7C
100
AcDbEntity
  8
0
100
AcDbEllipse
 10
-17.50000000000001
 20
-1.227476037518802
 30
0.0
 11
2.5
 21
0.0000000000000009
 31
0.0
210
0.0
220
0.0
230
1.0
 40
0.7071067811865475
 41
4.712388980384689
 42
6.026811980161137
  0
LINE
  5
3DC3
330
3D7C
100
AcDbEntity
  8
0
100
AcDbLine
 10
-15.08171008039238
 20
-1.675735931288087
 30
0.0
 11
-15.08171008039238
 21
-1.500000000000003
 31
0.0
  0
SPLINE
  5
3DC4
330
3D7C
100
AcDbEntity
  8
0
100
AcDbSpline
210
0.0
220
0.0
230
1.0
 70
     8
 71
     3
 72
     8
 73
     4
 74
     0
 42
0.000000001
 43
0.0000000001
 40
-1.0
 40
-1.0
 40
-1.0
 40
-1.0
 40
0.0
 40
0.0
 40
0.0
 40
0.0
 10
-24.91828991960765
 20
-1.675735931288089
 30
0.0
 10
-24.99189972302028
 20
-1.567383125827709
 30
0.0
 10
-25.01609483643939
 20
-1.500000000000017
 30
0.0
 10
-24.98943351399745
 20
-1.500000000000017
 30
0.0
  0
SPLINE
  5
3DC5
330
3D7C
100
AcDbEntity
  8
0
100
AcDbSpline
210
0.0
220
0.0
230
1.0
 70
     8
 71
     3
 72
     8
 73
     4
 74
     0
 42
0.000000001
 43
0.0000000001
 40
-1.0
 40
-1.0
 40
-1.0
 40
-1.0
 40
0.0
 40
0.0
 40
0.0
 40
0.0
 10
-15.01056648600259
 20
-1.500000000000015
 30
0.0
 10
-14.98390516356081
 20
-1.500000000000015
 30
0.0
 10
-15.00810027697979
 20
-1.567383125827735
 30
0.0
 10
-15.08171008039239
 20
-1.675735931288087
 30
0.0
  0
ELLIPSE
  5
3DC6
330
3D7C
100
AcDbEntity
  8
0
100
AcDbEllipse
 10
17.49999999999998
 20
-0.1668158657389913
 30
0.0
 11
2.5
 21
0.0000000000001828
 31
0.0
210
0.0
220
0.0
230
1.0
 40
0.7071067811865474
 41
3.995971005724941
 42
4.712388980384622
  0
LINE
  5
3DC7
330
3D7C
100
AcDbEntity
  8
0
100
AcDbLine
 10
15.08171008039234
 20
-1.499999999999994
 30
0.0
 11
15.08171008039235
 21
-1.67573593128808
 31
0.0
  0
ELLIPSE
  5
3DC8
330
3D7C
100
AcDbEntity
  8
0
100
AcDbEllipse
 10
17.49999999999998
 20
-1.227476037518794
 30
0.0
 11
-2.5
 21
-0.0000000000000006
 31
0.0
210
0.0
220
0.0
230
1.0
 40
0.7071067811865472
 41
0.2563733270184496
 42
1.570796326794896
  0
LINE
  5
3DC9
330
3D7C
100
AcDbEntity
  8
0
100
AcDbLine
 10
17.49999999999998
 20
-1.934582818705321
 30
0.0
 11
22.5
 21
-1.93458281870532
 31
0.0
  0
LINE
  5
3DCA
330
3D7C
100
AcDbEntity
  8
0
100
AcDbLine
 10
22.5
 20
-2.995242990485142
 30
0.0
 11
17.49999999999998
 21
-2.995242990485143
 31
0.0
  0
ELLIPSE
  5
3DCB
330
3D7C
100
AcDbEntity
  8
0
100
AcDbEllipse
 10
22.5
 20
-0.1668158657389902
 30
0.0
 11
2.5
 21
0.0000000000000006
 31
0.0
210
0.0
220
0.0
230
1.0
 40
0.7071067811865472
 41
4.712388980384689
 42
5.428806955044304
  0
ELLIPSE
  5
3DCC
330
3D7C
100
AcDbEntity
  8
0
100
AcDbEllipse
 10
22.5
 20
-1.227476037518793
 30
0.0
 11
2.5
 21
0.0000000000000008
 31
0.0
210
0.0
220
0.0
230
1.0
 40
0.7071067811865476
 41
4.712388980384689
 42
6.026811980161135
  0
LINE
  5
3DCD
330
3D7C
100
AcDbEntity
  8
0
100
AcDbLine
 10
24.91828991960762
 20
-1.675735931288078
 30
0.0
 11
24.91828991960762
 21
-1.499999999999992
 31
0.0
  0
SPLINE
  5
3DCE
330
3D7C
100
AcDbEntity
  8
0
100
AcDbSpline
210
0.0
220
0.0
230
1.0
 70
     8
 71
     3
 72
     8
 73
     4
 74
     0
 42
0.000000001
 43
0.0000000001
 40
-1.0
 40
-1.0
 40
-1.0
 40
-1.0
 40
0.0
 40
0.0
 40
0.0
 40
0.0
 10
15.08171008039234
 20
-1.67573593128808
 30
0.0
 10
15.00810027697996
 20
-1.567383125827725
 30
0.0
 10
14.98390516356047
 20
-1.500000000000008
 30
0.0
 10
15.01056648600255
 20
-1.500000000000008
 30
0.0
  0
SPLINE
  5
3DCF
330
3D7C
100
AcDbEntity
  8
0
100
AcDbSpline
210
0.0
220
0.0
230
1.0
 70
     8
 71
     3
 72
     8
 73
     4
 74
     0
 42
0.000000001
 43
0.0000000001
 40
-1.0
 40
-1.0
 40
-1.0
 40
-1.0
 40
0.0
 40
0.0
 40
0.0
 40
0.0
 10
24.98943351399742
 20
-1.500000000000006
 30
0.0
 10
25.01609483643945
 20
-1.500000000000006
 30
0.0
 10
24.9918997230203
 20
-1.5673831258277
 30
0.0
 10
24.91828991960762
 20
-1.675735931288078
 30
0.0
  0
SPLINE
  5
3DD0
330
3D7C
100
AcDbEntity
  8
0
100
AcDbSpline
210
0.0
220
0.0
230
1.0
 70
     8
 71
     3
 72
     8
 73
     4
 74
     0
 42
0.000000001
 43
0.0000000001
 40
-1.0
 40
-1.0
 40
-1.0
 40
-1.0
 40
0.0
 40
0.0
 40
0.0
 40
0.0
 10
-40.0105664860026
 20
-1.500000000000021
 30
0.0
 10
-39.98390516356047
 20
-1.500000000000021
 30
0.0
 10
-40.00810027697969
 20
-1.567383125827685
 30
0.0
 10
-40.08171008039238
 20
-1.675735931288092
 30
0.0
  0
ELLIPSE
  5
3DD1
330
3D7C
100
AcDbEntity
  8
0
100
AcDbEllipse
 10
-42.50000000000001
 20
-1.227476037518807
 30
0.0
 11
2.5
 21
0.0000000000000005
 31
0.0
210
0.0
220
0.0
230
1.0
 40
0.7071067811865475
 41
3.397965980608241
 42
6.026811980161135
  0
ELLIPSE
  5
3DD2
330
3D7C
100
AcDbEntity
  8
0
100
AcDbEllipse
 10
42.49999999999999
 20
-1.227476037518788
 30
0.0
 11
2.5
 21
0.000000000000001
 31
0.0
210
0.0
220
0.0
230
1.0
 40
0.7071067811865475
 41
3.397965980608241
 42
6.026811980161136
  0
SPLINE
  5
3DD3
330
3D7C
100
AcDbEntity
  8
0
100
AcDbSpline
210
0.0
220
0.0
230
1.0
 70
     8
 71
     3
 72
     8
 73
     4
 74
     0
 42
0.000000001
 43
0.0000000001
 40
-1.0
 40
-1.0
 40
-1.0
 40
-1.0
 40
0.0
 40
0.0
 40
0.0
 40
0.0
 10
40.08171008039235
 20
-1.675735931288075
 30
0.0
 10
40.00810027697982
 20
-1.567383125827689
 30
0.0
 10
39.98390516356057
 20
-1.500000000000003
 30
0.0
 10
40.01056648600256
 20
-1.500000000000003
 30
0.0
  0
ELLIPSE
  5
3DD4
330
3D7C
100
AcDbEntity
  8
0
100
AcDbEllipse
 10
-42.50000000000001
 20
-0.1668158657390012
 30
0.0
 11
2.5
 21
0.0000000000001821
 31
0.0
210
0.0
220
0.0
230
1.0
 40
0.7071067811865472
 41
3.995971005724948
 42
5.428806955044164
  0
LINE
  5
3DD5
330
3D7C
100
AcDbEntity
  8
0
100
AcDbLine
 10
-44.91828991960765
 20
-1.500000000000012
 30
0.0
 11
-44.91828991960765
 21
-1.675735931288093
 31
0.0
  0
LINE
  5
3DD6
330
3D7C
100
AcDbEntity
  8
0
100
AcDbLine
 10
-40.08171008039238
 20
-1.675735931288092
 30
0.0
 11
-40.08171008039238
 21
-1.500000000000011
 31
0.0
  0
SPLINE
  5
3DD7
330
3D7C
100
AcDbEntity
  8
0
100
AcDbSpline
210
0.0
220
0.0
230
1.0
 70
     8
 71
     3
 72
     8
 73
     4
 74
     0
 42
0.000000001
 43
0.0000000001
 40
-1.0
 40
-1.0
 40
-1.0
 40
-1.0
 40
0.0
 40
0.0
 40
0.0
 40
0.0
 10
-44.91828991960765
 20
-1.675735931288094
 30
0.0
 10
-44.99189972302028
 20
-1.567383125827716
 30
0.0
 10
-45.01609483643966
 20
-1.500000000000022
 30
0.0
 10
-44.98943351399744
 20
-1.500000000000022
 30
0.0
  0
ELLIPSE
  5
3DD8
330
3D7C
100
AcDbEntity
  8
0
100
AcDbEllipse
 10
42.49999999999999
 20
-0.166815865738985
 30
0.0
 11
2.5
 21
0.0000000000001829
 31
0.0
210
0.0
220
0.0
230
1.0
 40
0.7071067811865475
 41
3.995971005724943
 42
5.428806955044168
  0
LINE
  5
3DD9
330
3D7C
100
AcDbEntity
  8
0
100
AcDbLine
 10
40.08171008039235
 20
-1.499999999999987
 30
0.0
 11
40.08171008039235
 21
-1.675735931288074
 31
0.0
  0
LINE
  5
3DDA
330
3D7C
100
AcDbEntity
  8
0
100
AcDbLine
 10
44.91828991960762
 20
-1.675735931288073
 30
0.0
 11
44.91828991960762
 21
-1.499999999999985
 31
0.0
  0
SPLINE
  5
3DDB
330
3D7C
100
AcDbEntity
  8
0
100
AcDbSpline
210
0.0
220
0.0
230
1.0
 70
     8
 71
     3
 72
     8
 73
     4
 74
     0
 42
0.000000001
 43
0.0000000001
 40
-1.0
 40
-1.0
 40
-1.0
 40
-1.0
 40
0.0
 40
0.0
 40
0.0
 40
0.0
 10
44.98943351399741
 20
-1.500000000000002
 30
0.0
 10
45.01609483643921
 20
-1.500000000000002
 30
0.0
 10
44.99189972302031
 20
-1.567383125827658
 30
0.0
 10
44.91828991960762
 20
-1.675735931288073
 30
0.0
  0
SPLINE
  5
3DDC
330
3D7C
100
AcDbEntity
  8
0
100
AcDbSpline
210
0.0
220
0.0
230
1.0
 70
     8
 71
     3
 72
     8
 73
     4
 74
     0
 42
0.000000001
 43
0.0000000001
 40
-1.0
 40
-1.0
 40
-1.0
 40
-1.0
 40
0.0
 40
0.0
 40
0.0
 40
0.0
 10
-4.918289920131929
 20
-1.675735931288084
 30
0.0
 10
-4.991899723307459
 20
-1.567383125811564
 30
0.0
 10
-5.016094836485387
 20
-1.500000000000013
 30
0.0
 10
-4.989433513812974
 20
-1.500000000000013
 30
0.0
  0
ELLIPSE
  5
3DDD
330
3D7C
100
AcDbEntity
  8
0
100
AcDbEllipse
 10
2.49999999999999
 20
-1.227476038933011
 30
0.0
 11
2.5
 21
0.000000000000001
 31
0.0
210
0.0
220
0.0
230
1.0
 40
0.7071067811865474
 41
4.712388980384682
 42
6.026811980988168
  0
LINE
  5
3DDE
330
3D7C
100
AcDbEntity
  8
0
100
AcDbLine
 10
2.499999999999973
 20
-2.995242991899361
 30
0.0
 11
-2.500000000000017
 21
-2.995242991899362
 31
0.0
  0
ELLIPSE
  5
3DDF
330
3D7C
100
AcDbEntity
  8
0
100
AcDbEllipse
 10
-2.500000000000017
 20
-1.227476038933012
 30
0.0
 11
-2.5
 21
-0.0000000000000002
 31
0.0
210
0.0
220
0.0
230
1.0
 40
0.7071067811865474
 41
0.2563733261914187
 42
1.570796326794896
  0
SPLINE
  5
3DE0
330
3D7C
100
AcDbEntity
  8
0
100
AcDbSpline
210
0.0
220
0.0
230
1.0
 70
     8
 71
     3
 72
     8
 73
     4
 74
     0
 42
0.000000001
 43
0.0000000001
 40
-1.0
 40
-1.0
 40
-1.0
 40
-1.0
 40
0.0
 40
0.0
 40
0.0
 40
0.0
 10
4.989433513812953
 20
-1.500000000000011
 30
0.0
 10
5.016094836485431
 20
-1.500000000000011
 30
0.0
 10
4.991899723307119
 20
-1.567383125811554
 30
0.0
 10
4.918289920131917
 20
-1.675735931288082
 30
0.0
  0
ELLIPSE
  5
3DE1
330
3D7C
100
AcDbEntity
  8
0
100
AcDbEllipse
 10
-2.500000000000017
 20
-0.1668158671532074
 30
0.0
 11
2.5
 21
0.0000000000001824
 31
0.0
210
0.0
220
0.0
230
1.0
 40
0.7071067811865472
 41
3.995971004506708
 42
4.712388980384622
  0
LINE
  5
3DE2
330
3D7C
100
AcDbEntity
  8
0
100
AcDbLine
 10
-4.918289920131929
 20
-1.5
 30
0.0
 11
-4.918289920131931
 21
-1.675735931288084
 31
0.0
  0
LINE
  5
3DE3
330
3D7C
100
AcDbEntity
  8
0
100
AcDbLine
 10
-2.500000000000017
 20
-1.93458282011954
 30
0.0
 11
2.499999999999973
 21
-1.934582820119539
 31
0.0
  0
ELLIPSE
  5
3DE4
330
3D7C
100
AcDbEntity
  8
0
100
AcDbEllipse
 10
2.49999999999999
 20
-0.1668158671532061
 30
0.0
 11
2.5
 21
-0.000000000000012
 31
0.0
210
0.0
220
0.0
230
1.0
 40
0.7071067811865474
 41
4.712388980384682
 42
5.42880695626254
  0
LINE
  5
3DE5
330
3D7C
100
AcDbEntity
  8
0
100
AcDbLine
 10
4.918289920131912
 20
-1.675735931288082
 30
0.0
 11
4.918289920131912
 21
-1.499999999999997
 31
0.0
  0
LINE
  5
3DE6
330
3D7C
100
AcDbEntity
  8
0
100
AcDbLine
 10
-59.39999999999999
 20
-55.8401153701776
 30
0.0
 11
59.39999999999997
 21
-55.84011537017758
 31
0.0
  0
ELLIPSE
  5
3DE7
330
3D7C
100
AcDbEntity
  8
0
100
AcDbEllipse
 10
-59.39999999999999
 20
-56.26437943888952
 30
0.0
 11
-0.6000000000000089
 21
0.0000000000000354
 31
0.0
210
0.0
220
0.0
230
1.0
 40
0.7071067811865233
 41
4.712388980384805
 42
6.283185307179753
  0
ARC
  5
3DE8
330
3D7C
100
AcDbEntity
  8
0
100
AcDbCircle
 10
59.39999999999998
 20
-2.099999999999986
 30
0.0
 40
0.600000000000005
100
AcDbArc
 50
0.0
 51
90.0
  0
ARC
  5
3DE9
330
3D7C
100
AcDbEntity
  8
0
100
AcDbCircle
 10
59.39999999999998
 20
-2.099999999999986
 30
0.0
 40
2.100000000000008
100
AcDbArc
 50
0.0
 51
90.0
  0
ARC
  5
3DEA
330
3D7C
100
AcDbEntity
  8
0
100
AcDbCircle
 10
-59.40000000000002
 20
-2.100000000000012
 30
0.0
 40
0.5999999999999961
100
AcDbArc
 50
90.0
 51
180.0
  0
ARC
  5
3DEB
330
3D7C
100
AcDbEntity
  8
0
100
AcDbCircle
 10
-59.40000000000002
 20
-2.100000000000012
 30
0.0
 40
2.099999999999999
100
AcDbArc
 50
90.0
 51
180.0
  0
ENDBLK
  5
3D7E
330
3D7C
100
AcDbEntity
  8
0
100
AcDbBlockEnd
  0
BLOCK
  5
3DED
330
3DEC
100
AcDbEntity
  8
0
100
AcDbBlockBegin
  2
SPR120_160-Bottom
 70
     0
 10
0.0
 20
0.0
 30
0.0
  3
SPR120_160-Bottom
  1

  0
LINE
  5
3DEF
330
3DEC
100
AcDbEntity
  8
0
100
AcDbLine
 10
102.527090561
 20
1.499999999999953
 30
0.0
 11
97.52709056099996
 21
1.499999999999954
 31
0.0
  0
LINE
  5
3DF0
330
3DEC
100
AcDbEntity
  8
0
100
AcDbLine
 10
97.52709056099996
 20
1.499999999999954
 30
0.0
 11
97.52709056099996
 21
0.0
 31
0.0
  0
LINE
  5
3DF1
330
3DEC
100
AcDbEntity
  8
0
100
AcDbLine
 10
97.52709056099996
 20
0.0
 30
0.0
 11
102.527090561
 21
0.0
 31
0.0
  0
LINE
  5
3DF2
330
3DEC
100
AcDbEntity
  8
0
100
AcDbLine
 10
102.527090561
 20
0.0
 30
0.0
 11
102.527090561
 21
1.499999999999953
 31
0.0
  0
LINE
  5
3DF3
330
3DEC
100
AcDbEntity
  8
0
100
AcDbLine
 10
-102.527090561
 20
0.0
 30
0.0
 11
-97.52709056100002
 21
0.0
 31
0.0
  0
LINE
  5
3DF4
330
3DEC
100
AcDbEntity
  8
0
100
AcDbLine
 10
-97.52709056100002
 20
1.500000000000009
 30
0.0
 11
-102.527090561
 21
1.500000000000011
 31
0.0
  0
LINE
  5
3DF5
330
3DEC
100
AcDbEntity
  8
0
100
AcDbLine
 10
-102.527090561
 20
1.500000000000011
 30
0.0
 11
-102.527090561
 21
0.0
 31
0.0
  0
LINE
  5
3DF6
330
3DEC
100
AcDbEntity
  8
0
100
AcDbLine
 10
-97.52709056100002
 20
0.0
 30
0.0
 11
-97.52709056100002
 21
1.500000000000009
 31
0.0
  0
LINE
  5
3DF7
330
3DEC
100
AcDbEntity
  8
0
100
AcDbLine
 10
97.52709056099996
 20
0.0
 30
0.0
 11
56.49999999999998
 21
0.0
 31
0.0
  0
LINE
  5
3DF8
330
3DEC
100
AcDbEntity
  8
0
100
AcDbLine
 10
-56.50000000000002
 20
0.0
 30
0.0
 11
-97.52709056100002
 21
0.0
 31
0.0
  0
LINE
  5
3DF9
330
3DEC
100
AcDbEntity
  8
0
100
AcDbLine
 10
-59.17856242236213
 20
1.500000000000002
 30
0.0
 11
-97.52709056100002
 21
1.500000000000009
 31
0.0
  0
LINE
  5
3DFA
330
3DEC
100
AcDbEntity
  8
0
100
AcDbLine
 10
97.52709056099996
 20
1.499999999999954
 30
0.0
 11
59.17856242236211
 21
1.499999999999965
 31
0.0
  0
LINE
  5
3DFB
330
3DEC
100
AcDbEntity
  8
0
100
AcDbLine
 10
56.49999999999998
 20
0.0
 30
0.0
 11
55.01767776087192
 21
0.0
 31
0.0
  0
LINE
  5
3DFC
330
3DEC
100
AcDbEntity
  8
0
100
AcDbLine
 10
-55.01767776087198
 20
0.0
 30
0.0
 11
-56.50000000000002
 21
0.0
 31
0.0
  0
SPLINE
  5
3DFD
330
3DEC
100
AcDbEntity
  8
0
100
AcDbSpline
210
0.0
220
0.0
230
1.0
 70
     8
 71
     3
 72
     8
 73
     4
 74
     0
 42
0.000000001
 43
0.0000000001
 40
0.0
 40
0.0
 40
0.0
 40
0.0
 40
1.0
 40
1.0
 40
1.0
 40
1.0
 10
-55.1405419700205
 20
0.6150757595082743
 30
0.0
 10
-55.01586474390124
 20
0.2539843833467381
 30
0.0
 10
-54.97251992073983
 20
0.0000000000000243
 30
0.0
 10
-55.01767776087199
 20
0.0000000000000242
 30
0.0
  0
SPLINE
  5
3DFE
330
3DEC
100
AcDbEntity
  8
0
100
AcDbSpline
210
0.0
220
0.0
230
1.0
 70
     8
 71
     3
 72
     8
 73
     4
 74
     0
 42
0.000000001
 43
0.0000000001
 40
0.0
 40
0.0
 40
0.0
 40
0.0
 40
1.0
 40
1.0
 40
1.0
 40
1.0
 10
55.01767776087192
 20
-0.0000000000000003
 30
0.0
 10
54.97251992074175
 20
0.0
 30
0.0
 10
55.01586474390372
 20
0.2539843833467156
 30
0.0
 10
55.14054197002041
 20
0.61507575950825
 30
0.0
  0
SPLINE
  5
3DFF
330
3DEC
100
AcDbEntity
  8
0
100
AcDbSpline
210
0.0
220
0.0
230
1.0
 70
     8
 71
     3
 72
     8
 73
     4
 74
     0
 42
0.000000001
 43
0.0000000001
 40
0.0
 40
0.0
 40
0.0
 40
0.0
 40
1.0
 40
1.0
 40
1.0
 40
1.0
 10
-61.50000000000005
 20
4.362741700911231
 30
0.0
 10
-61.5
 20
3.1781580375138
 30
0.0
 10
-60.49955742875642
 20
2.063659161980757
 30
0.0
 10
-59.40000000000002
 20
1.656580012761363
 30
0.0
  0
LINE
  5
3E00
330
3DEC
100
AcDbEntity
  8
0
100
AcDbLine
 10
-59.40000000000002
 20
1.656580012761343
 30
0.0
 11
-58.79315533855963
 21
1.227476037518791
 31
0.0
  0
LINE
  5
3E01
330
3DEC
100
AcDbEntity
  8
0
100
AcDbLine
 10
-58.79315533855963
 20
1.227476037518791
 30
0.0
 11
-56.50000000000002
 21
1.227476037518783
 31
0.0
  0
ELLIPSE
  5
3E02
330
3DEC
100
AcDbEntity
  8
0
100
AcDbEllipse
 10
-56.50000000000002
 20
0.1668158657390017
 30
0.0
 11
1.5
 21
-0.0000000000000003
 31
0.0
210
0.0
220
0.0
230
1.0
 40
0.7071067811865474
 41
0.4363380716279135
 42
1.570796326794896
  0
LINE
  5
3E03
330
3DEC
100
AcDbEntity
  8
0
100
AcDbLine
 10
-55.01767776087198
 20
0.1805170265382094
 30
0.0
 11
-55.01767776087198
 21
0.0
 31
0.0
  0
SPLINE
  5
3E04
330
3DEC
100
AcDbEntity
  8
0
100
AcDbSpline
210
0.0
220
0.0
230
1.0
 70
     8
 71
     3
 72
     8
 73
     4
 74
     0
 42
0.000000001
 43
0.0000000001
 40
0.0
 40
0.0
 40
0.0
 40
0.0
 40
1.0
 40
1.0
 40
1.0
 40
1.0
 10
59.39999999999998
 20
1.656580012761336
 30
0.0
 10
60.49955742875635
 20
2.06365916198102
 30
0.0
 10
61.49999999999997
 20
3.178158037513998
 30
0.0
 10
61.50000000000002
 20
4.362741700911204
 30
0.0
  0
ELLIPSE
  5
3E05
330
3DEC
100
AcDbEntity
  8
0
100
AcDbEllipse
 10
56.49999999999998
 20
0.1668158657389778
 30
0.0
 11
1.5
 21
-0.0000000000001103
 31
0.0
210
0.0
220
0.0
230
1.0
 40
0.7071067811865474
 41
1.570796326795026
 42
2.705254581962144
  0
LINE
  5
3E06
330
3DEC
100
AcDbEntity
  8
0
100
AcDbLine
 10
56.49999999999998
 20
1.227476037518754
 30
0.0
 11
58.79315533855959
 21
1.227476037518762
 31
0.0
  0
LINE
  5
3E07
330
3DEC
100
AcDbEntity
  8
0
100
AcDbLine
 10
58.79315533855959
 20
1.227476037518762
 30
0.0
 11
59.39999999999998
 21
1.656580012761313
 31
0.0
  0
LINE
  5
3E08
330
3DEC
100
AcDbEntity
  8
0
100
AcDbLine
 10
55.01767776087192
 20
0.1805170265382869
 30
0.0
 11
55.01767776087192
 21
0.0
 31
0.0
  0
LINE
  5
3E09
330
3DEC
100
AcDbEntity
  8
0
100
AcDbLine
 10
44.98943351399741
 20
0.0
 30
0.0
 11
55.01767776087192
 21
0.0
 31
0.0
  0
LINE
  5
3E0A
330
3DEC
100
AcDbEntity
  8
0
100
AcDbLine
 10
24.98943351399742
 20
0.0
 30
0.0
 11
40.01056648600256
 21
0.0
 31
0.0
  0
LINE
  5
3E0B
330
3DEC
100
AcDbEntity
  8
0
100
AcDbLine
 10
4.989433513812951
 20
0.0
 30
0.0
 11
15.01056648600255
 21
0.0
 31
0.0
  0
LINE
  5
3E0C
330
3DEC
100
AcDbEntity
  8
0
100
AcDbLine
 10
-15.01056648600259
 20
0.0
 30
0.0
 11
-4.989433513812977
 21
0.0
 31
0.0
  0
LINE
  5
3E0D
330
3DEC
100
AcDbEntity
  8
0
100
AcDbLine
 10
-40.01056648600259
 20
0.0
 30
0.0
 11
-24.98943351399745
 21
0.0
 31
0.0
  0
LINE
  5
3E0E
330
3DEC
100
AcDbEntity
  8
0
100
AcDbLine
 10
-55.01767776087198
 20
0.0
 30
0.0
 11
-44.98943351399744
 21
0.0
 31
0.0
  0
LINE
  5
3E0F
330
3DEC
100
AcDbEntity
  8
0
100
AcDbLine
 10
61.49999999999995
 20
56.26437943888952
 30
0.0
 11
61.49999999999995
 21
82.00306627385996
 31
0.0
  0
LINE
  5
3E10
330
3DEC
100
AcDbEntity
  8
0
100
AcDbLine
 10
-61.49999999999995
 20
82.00306627386
 30
0.0
 11
-61.49999999999998
 21
56.26437943888955
 31
0.0
  0
LINE
  5
3E11
330
3DEC
100
AcDbEntity
  8
0
100
AcDbLine
 10
-59.99999999999996
 20
82.00306627386
 30
0.0
 11
-59.99999999999997
 21
56.26437943888953
 31
0.0
  0
LINE
  5
3E12
330
3DEC
100
AcDbEntity
  8
0
100
AcDbLine
 10
-59.39999999999999
 20
55.8401153701776
 30
0.0
 11
59.39999999999997
 21
55.84011537017758
 31
0.0
  0
LINE
  5
3E13
330
3DEC
100
AcDbEntity
  8
0
100
AcDbLine
 10
59.99999999999996
 20
56.26437943888952
 30
0.0
 11
59.99999999999996
 21
82.00306627385996
 31
0.0
  0
LINE
  5
3E14
330
3DEC
100
AcDbEntity
  8
0
100
AcDbLine
 10
-59.39999999999999
 20
54.77945519839778
 30
0.0
 11
59.39999999999997
 21
54.77945519839777
 31
0.0
  0
LINE
  5
3E15
330
3DEC
100
AcDbEntity
  8
0
100
AcDbLine
 10
44.98943351399741
 20
0.0
 30
0.0
 11
40.01056648600256
 21
0.0
 31
0.0
  0
LINE
  5
3E16
330
3DEC
100
AcDbEntity
  8
0
100
AcDbLine
 10
-40.01056648600259
 20
0.0
 30
0.0
 11
-44.98943351399744
 21
0.0
 31
0.0
  0
SPLINE
  5
3E17
330
3DEC
100
AcDbEntity
  8
0
100
AcDbSpline
210
0.0
220
0.0
230
1.0
 70
     8
 71
     3
 72
     8
 73
     4
 74
     0
 42
0.000000001
 43
0.0000000001
 40
0.0
 40
0.0
 40
0.0
 40
0.0
 40
1.0
 40
1.0
 40
1.0
 40
1.0
 10
-40.08171008039238
 20
0.615075759508271
 30
0.0
 10
-40.00810027697969
 20
0.2358409403968468
 30
0.0
 10
-39.98390516356047
 20
0.0000000000000208
 30
0.0
 10
-40.0105664860026
 20
0.0000000000000208
 30
0.0
  0
ELLIPSE
  5
3E18
330
3DEC
100
AcDbEntity
  8
0
100
AcDbEllipse
 10
-42.50000000000001
 20
0.1668158657390012
 30
0.0
 11
-2.5
 21
0.0000000000000002
 31
0.0
210
0.0
220
0.0
230
1.0
 40
0.7071067811865474
 41
3.397965980608241
 42
6.026811980161135
  0
SPLINE
  5
3E19
330
3DEC
100
AcDbEntity
  8
0
100
AcDbSpline
210
0.0
220
0.0
230
1.0
 70
     8
 71
     3
 72
     8
 73
     4
 74
     0
 42
0.000000001
 43
0.0000000001
 40
0.0
 40
0.0
 40
0.0
 40
0.0
 40
1.0
 40
1.0
 40
1.0
 40
1.0
 10
-44.98943351399744
 20
0.0000000000000219
 30
0.0
 10
-45.01609483643966
 20
0.0000000000000217
 30
0.0
 10
-44.99189972302028
 20
0.2358409403969526
 30
0.0
 10
-44.91828991960765
 20
0.6150757595082748
 30
0.0
  0
LINE
  5
3E1A
330
3DEC
100
AcDbEntity
  8
0
100
AcDbLine
 10
-44.98943351399744
 20
0.1805170265382749
 30
0.0
 11
-44.98943351399744
 21
0.0
 31
0.0
  0
LINE
  5
3E1B
330
3DEC
100
AcDbEntity
  8
0
100
AcDbLine
 10
-40.01056648600259
 20
0.1805170265382203
 30
0.0
 11
-40.01056648600259
 21
0.0
 31
0.0
  0
LINE
  5
3E1C
330
3DEC
100
AcDbEntity
  8
0
100
AcDbLine
 10
-44.14171865077715
 20
1.499999999999995
 30
0.0
 11
-40.85828134922287
 21
1.499999999999994
 31
0.0
  0
ELLIPSE
  5
3E1D
330
3DEC
100
AcDbEntity
  8
0
100
AcDbEllipse
 10
42.49999999999999
 20
0.166815865738985
 30
0.0
 11
-2.5
 21
0.0000000000000002
 31
0.0
210
0.0
220
0.0
230
1.0
 40
0.7071067811865474
 41
3.397965980608241
 42
6.026811980161135
  0
SPLINE
  5
3E1E
330
3DEC
100
AcDbEntity
  8
0
100
AcDbSpline
210
0.0
220
0.0
230
1.0
 70
     8
 71
     3
 72
     8
 73
     4
 74
     0
 42
0.000000001
 43
0.0000000001
 40
0.0
 40
0.0
 40
0.0
 40
0.0
 40
1.0
 40
1.0
 40
1.0
 40
1.0
 10
40.01056648600256
 20
0.0000000000000031
 30
0.0
 10
39.98390516356057
 20
0.0000000000000029
 30
0.0
 10
40.00810027697982
 20
0.2358409403969046
 30
0.0
 10
40.08171008039235
 20
0.6150757595082559
 30
0.0
  0
LINE
  5
3E1F
330
3DEC
100
AcDbEntity
  8
0
100
AcDbLine
 10
40.01056648600256
 20
0.1805170265383321
 30
0.0
 11
40.01056648600256
 21
0.0
 31
0.0
  0
LINE
  5
3E20
330
3DEC
100
AcDbEntity
  8
0
100
AcDbLine
 10
44.98943351399741
 20
0.1805170265382189
 30
0.0
 11
44.98943351399741
 21
0.0
 31
0.0
  0
SPLINE
  5
3E21
330
3DEC
100
AcDbEntity
  8
0
100
AcDbSpline
210
0.0
220
0.0
230
1.0
 70
     8
 71
     3
 72
     8
 73
     4
 74
     0
 42
0.000000001
 43
0.0000000001
 40
0.0
 40
0.0
 40
0.0
 40
0.0
 40
1.0
 40
1.0
 40
1.0
 40
1.0
 10
44.91828991960762
 20
0.6150757595082521
 30
0.0
 10
44.99189972302031
 20
0.2358409403967999
 30
0.0
 10
45.01609483643921
 20
0.0000000000000019
 30
0.0
 10
44.98943351399741
 20
0.0000000000000019
 30
0.0
  0
LINE
  5
3E22
330
3DEC
100
AcDbEntity
  8
0
100
AcDbLine
 10
40.85828134922284
 20
1.499999999999976
 30
0.0
 11
44.14171865077713
 21
1.499999999999975
 31
0.0
  0
LINE
  5
3E23
330
3DEC
100
AcDbEntity
  8
0
100
AcDbLine
 10
24.98943351399742
 20
0.0
 30
0.0
 11
22.5
 21
0.0
 31
0.0
  0
LINE
  5
3E24
330
3DEC
100
AcDbEntity
  8
0
100
AcDbLine
 10
22.5
 20
0.0
 30
0.0
 11
17.49999999999998
 21
0.0
 31
0.0
  0
LINE
  5
3E25
330
3DEC
100
AcDbEntity
  8
0
100
AcDbLine
 10
17.49999999999998
 20
0.0
 30
0.0
 11
15.01056648600255
 21
0.0
 31
0.0
  0
LINE
  5
3E26
330
3DEC
100
AcDbEntity
  8
0
100
AcDbLine
 10
-15.01056648600259
 20
0.0
 30
0.0
 11
-17.50000000000001
 21
0.0
 31
0.0
  0
LINE
  5
3E27
330
3DEC
100
AcDbEntity
  8
0
100
AcDbLine
 10
-17.50000000000001
 20
0.0
 30
0.0
 11
-22.50000000000002
 21
0.0
 31
0.0
  0
LINE
  5
3E28
330
3DEC
100
AcDbEntity
  8
0
100
AcDbLine
 10
-22.50000000000002
 20
0.0
 30
0.0
 11
-24.98943351399745
 21
0.0
 31
0.0
  0
ELLIPSE
  5
3E29
330
3DEC
100
AcDbEntity
  8
0
100
AcDbEllipse
 10
-22.50000000000002
 20
0.1668158657389959
 30
0.0
 11
-2.5
 21
0.0000000000000003
 31
0.0
210
0.0
220
0.0
230
1.0
 40
0.7071067811865474
 41
4.712388980384689
 42
6.026811980161136
  0
LINE
  5
3E2A
330
3DEC
100
AcDbEntity
  8
0
100
AcDbLine
 10
-22.50000000000002
 20
1.934582818705331
 30
0.0
 11
-17.50000000000001
 21
1.93458281870533
 31
0.0
  0
ELLIPSE
  5
3E2B
330
3DEC
100
AcDbEntity
  8
0
100
AcDbEllipse
 10
-17.50000000000001
 20
0.1668158657389945
 30
0.0
 11
2.5
 21
-0.0000000000000006
 31
0.0
210
0.0
220
0.0
230
1.0
 40
0.7071067811865472
 41
0.2563733270184496
 42
1.570796326794896
  0
SPLINE
  5
3E2C
330
3DEC
100
AcDbEntity
  8
0
100
AcDbSpline
210
0.0
220
0.0
230
1.0
 70
     8
 71
     3
 72
     8
 73
     4
 74
     0
 42
0.000000001
 43
0.0000000001
 40
0.0
 40
0.0
 40
0.0
 40
0.0
 40
1.0
 40
1.0
 40
1.0
 40
1.0
 10
-24.98943351399745
 20
0.0000000000000175
 30
0.0
 10
-25.01609483643939
 20
0.0000000000000173
 30
0.0
 10
-24.99189972302028
 20
0.2358409403969383
 30
0.0
 10
-24.91828991960765
 20
0.6150757595082677
 30
0.0
  0
LINE
  5
3E2D
330
3DEC
100
AcDbEntity
  8
0
100
AcDbLine
 10
-24.98943351399745
 20
0.1805170265382747
 30
0.0
 11
-24.98943351399745
 21
0.0
 31
0.0
  0
LINE
  5
3E2E
330
3DEC
100
AcDbEntity
  8
0
100
AcDbLine
 10
-15.01056648600259
 20
0.1805170265383149
 30
0.0
 11
-15.01056648600259
 21
0.0
 31
0.0
  0
SPLINE
  5
3E2F
330
3DEC
100
AcDbEntity
  8
0
100
AcDbSpline
210
0.0
220
0.0
230
1.0
 70
     8
 71
     3
 72
     8
 73
     4
 74
     0
 42
0.000000001
 43
0.0000000001
 40
0.0
 40
0.0
 40
0.0
 40
0.0
 40
1.0
 40
1.0
 40
1.0
 40
1.0
 10
-15.08171008039239
 20
0.6150757595082654
 30
0.0
 10
-15.00810027697979
 20
0.2358409403970357
 30
0.0
 10
-14.98390516356081
 20
0.0000000000000151
 30
0.0
 10
-15.01056648600259
 20
0.0000000000000153
 30
0.0
  0
LINE
  5
3E30
330
3DEC
100
AcDbEntity
  8
0
100
AcDbLine
 10
-17.50000000000001
 20
1.499999999999989
 30
0.0
 11
-15.85828134922287
 21
1.499999999999989
 31
0.0
  0
LINE
  5
3E31
330
3DEC
100
AcDbEntity
  8
0
100
AcDbLine
 10
-22.50000000000002
 20
1.499999999999992
 30
0.0
 11
-17.50000000000001
 21
1.49999999999999
 31
0.0
  0
LINE
  5
3E32
330
3DEC
100
AcDbEntity
  8
0
100
AcDbLine
 10
-24.14171865077716
 20
1.499999999999991
 30
0.0
 11
-22.50000000000002
 21
1.49999999999999
 31
0.0
  0
ELLIPSE
  5
3E33
330
3DEC
100
AcDbEntity
  8
0
100
AcDbEllipse
 10
17.49999999999998
 20
0.1668158657389913
 30
0.0
 11
-2.5
 21
-0.0000000000000001
 31
0.0
210
0.0
220
0.0
230
1.0
 40
0.7071067811865476
 41
4.712388980384689
 42
6.026811980161137
  0
LINE
  5
3E34
330
3DEC
100
AcDbEntity
  8
0
100
AcDbLine
 10
17.49999999999998
 20
1.934582818705321
 30
0.0
 11
22.5
 21
1.93458281870532
 31
0.0
  0
ELLIPSE
  5
3E35
330
3DEC
100
AcDbEntity
  8
0
100
AcDbEllipse
 10
22.5
 20
0.1668158657389902
 30
0.0
 11
2.5
 21
-0.0000000000000006
 31
0.0
210
0.0
220
0.0
230
1.0
 40
0.7071067811865472
 41
0.2563733270184496
 42
1.570796326794896
  0
SPLINE
  5
3E36
330
3DEC
100
AcDbEntity
  8
0
100
AcDbSpline
210
0.0
220
0.0
230
1.0
 70
     8
 71
     3
 72
     8
 73
     4
 74
     0
 42
0.000000001
 43
0.0000000001
 40
0.0
 40
0.0
 40
0.0
 40
0.0
 40
1.0
 40
1.0
 40
1.0
 40
1.0
 10
15.01056648600255
 20
0.0000000000000086
 30
0.0
 10
14.98390516356047
 20
0.0000000000000085
 30
0.0
 10
15.00810027697996
 20
0.235840940397016
 30
0.0
 10
15.08171008039234
 20
0.6150757595082589
 30
0.0
  0
LINE
  5
3E37
330
3DEC
100
AcDbEntity
  8
0
100
AcDbLine
 10
15.01056648600255
 20
0.1805170265382674
 30
0.0
 11
15.01056648600255
 21
0.0
 31
0.0
  0
LINE
  5
3E38
330
3DEC
100
AcDbEntity
  8
0
100
AcDbLine
 10
24.98943351399742
 20
0.1805170265382572
 30
0.0
 11
24.98943351399742
 21
0.0
 31
0.0
  0
SPLINE
  5
3E39
330
3DEC
100
AcDbEntity
  8
0
100
AcDbSpline
210
0.0
220
0.0
230
1.0
 70
     8
 71
     3
 72
     8
 73
     4
 74
     0
 42
0.000000001
 43
0.0000000001
 40
0.0
 40
0.0
 40
0.0
 40
0.0
 40
1.0
 40
1.0
 40
1.0
 40
1.0
 10
24.91828991960762
 20
0.6150757595082565
 30
0.0
 10
24.9918997230203
 20
0.2358409403969337
 30
0.0
 10
25.01609483643945
 20
0.0000000000000063
 30
0.0
 10
24.98943351399742
 20
0.0000000000000064
 30
0.0
  0
LINE
  5
3E3A
330
3DEC
100
AcDbEntity
  8
0
100
AcDbLine
 10
22.5
 20
1.49999999999998
 30
0.0
 11
24.14171865077714
 21
1.49999999999998
 31
0.0
  0
LINE
  5
3E3B
330
3DEC
100
AcDbEntity
  8
0
100
AcDbLine
 10
17.49999999999998
 20
1.49999999999998
 30
0.0
 11
22.5
 21
1.499999999999979
 31
0.0
  0
LINE
  5
3E3C
330
3DEC
100
AcDbEntity
  8
0
100
AcDbLine
 10
15.85828134922283
 20
1.499999999999982
 30
0.0
 11
17.49999999999998
 21
1.499999999999981
 31
0.0
  0
LINE
  5
3E3D
330
3DEC
100
AcDbEntity
  8
0
100
AcDbLine
 10
4.989433513812951
 20
0.0
 30
0.0
 11
2.499999999999973
 21
0.0
 31
0.0
  0
LINE
  5
3E3E
330
3DEC
100
AcDbEntity
  8
0
100
AcDbLine
 10
2.499999999999972
 20
0.0
 30
0.0
 11
-2.500000000000017
 21
0.0
 31
0.0
  0
LINE
  5
3E3F
330
3DEC
100
AcDbEntity
  8
0
100
AcDbLine
 10
-2.500000000000017
 20
0.0
 30
0.0
 11
-4.989433513812977
 21
0.0
 31
0.0
  0
SPLINE
  5
3E40
330
3DEC
100
AcDbEntity
  8
0
100
AcDbSpline
210
0.0
220
0.0
230
1.0
 70
     8
 71
     3
 72
     8
 73
     4
 74
     0
 42
0.000000001
 43
0.0000000001
 40
0.0
 40
0.0
 40
0.0
 40
0.0
 40
1.0
 40
1.0
 40
1.0
 40
1.0
 10
4.918289920131916
 20
0.615075759508261
 30
0.0
 10
4.991899723307118
 20
0.2358409403404128
 30
0.0
 10
5.016094836485431
 20
0.0000000000000107
 30
0.0
 10
4.989433513812953
 20
0.0000000000000108
 30
0.0
  0
SPLINE
  5
3E41
330
3DEC
100
AcDbEntity
  8
0
100
AcDbSpline
210
0.0
220
0.0
230
1.0
 70
     8
 71
     3
 72
     8
 73
     4
 74
     0
 42
0.000000001
 43
0.0000000001
 40
0.0
 40
0.0
 40
0.0
 40
0.0
 40
1.0
 40
1.0
 40
1.0
 40
1.0
 10
-4.989433513812974
 20
0.000000000000013
 30
0.0
 10
-5.016094836485387
 20
0.000000000000013
 30
0.0
 10
-4.99189972330746
 20
0.235840940340442
 30
0.0
 10
-4.918289920131929
 20
0.6150757595082633
 30
0.0
  0
ELLIPSE
  5
3E42
330
3DEC
100
AcDbEntity
  8
0
100
AcDbEllipse
 10
-2.500000000000017
 20
0.1668158671532074
 30
0.0
 11
-2.5
 21
0.0000000000000003
 31
0.0
210
0.0
220
0.0
230
1.0
 40
0.7071067811865475
 41
4.712388980384689
 42
6.026811980988167
  0
LINE
  5
3E43
330
3DEC
100
AcDbEntity
  8
0
100
AcDbLine
 10
-2.500000000000017
 20
1.93458282011954
 30
0.0
 11
2.499999999999973
 21
1.934582820119539
 31
0.0
  0
ELLIPSE
  5
3E44
330
3DEC
100
AcDbEntity
  8
0
100
AcDbEllipse
 10
2.49999999999999
 20
0.1668158671532061
 30
0.0
 11
2.5
 21
0.000000000000012
 31
0.0
210
0.0
220
0.0
230
1.0
 40
0.7071067811865474
 41
0.2563733261914081
 42
1.570796326794903
  0
LINE
  5
3E45
330
3DEC
100
AcDbEntity
  8
0
100
AcDbLine
 10
-4.989433513812977
 20
0.1805170296371419
 30
0.0
 11
-4.989433513812977
 21
0.0
 31
0.0
  0
LINE
  5
3E46
330
3DEC
100
AcDbEntity
  8
0
100
AcDbLine
 10
4.989433513812951
 20
0.1805170296372305
 30
0.0
 11
4.989433513812951
 21
0.0
 31
0.0
  0
LINE
  5
3E47
330
3DEC
100
AcDbEntity
  8
0
100
AcDbLine
 10
2.499999999999973
 20
1.499999999999985
 30
0.0
 11
4.141718653074006
 21
1.499999999999984
 31
0.0
  0
LINE
  5
3E48
330
3DEC
100
AcDbEntity
  8
0
100
AcDbLine
 10
-2.500000000000017
 20
1.499999999999986
 30
0.0
 11
2.499999999999973
 21
1.499999999999984
 31
0.0
  0
LINE
  5
3E49
330
3DEC
100
AcDbEntity
  8
0
100
AcDbLine
 10
-4.141718653074034
 20
1.499999999999986
 30
0.0
 11
-2.500000000000017
 21
1.499999999999986
 31
0.0
  0
LINE
  5
3E4A
330
3DEC
100
AcDbEntity
  8
0
100
AcDbLine
 10
61.49999999999999
 20
2.099999999999976
 30
0.0
 11
61.5
 21
4.362741700911198
 31
0.0
  0
LINE
  5
3E4B
330
3DEC
100
AcDbEntity
  8
0
100
AcDbLine
 10
-61.50000000000002
 20
4.362741700911239
 30
0.0
 11
-61.50000000000002
 21
2.100000000000004
 31
0.0
  0
LINE
  5
3E4C
330
3DEC
100
AcDbEntity
  8
0
100
AcDbLine
 10
59.99999999999996
 20
82.00306627385996
 30
0.0
 11
61.49999999999995
 21
82.00306627385996
 31
0.0
  0
LINE
  5
3E4D
330
3DEC
100
AcDbEntity
  8
0
100
AcDbLine
 10
-61.49999999999995
 20
82.00306627386
 30
0.0
 11
-59.99999999999996
 21
82.00306627386
 31
0.0
  0
LINE
  5
3E4E
330
3DEC
100
AcDbEntity
  8
0
100
AcDbLine
 10
61.49999999999995
 20
56.26437943888952
 30
0.0
 11
61.50000000000002
 21
4.362741700911199
 31
0.0
  0
ELLIPSE
  5
3E4F
330
3DEC
100
AcDbEntity
  8
0
100
AcDbEllipse
 10
59.39999999999997
 20
56.26437943888951
 30
0.0
 11
0.6000000000000089
 21
0.0000000000000257
 31
0.0
210
0.0
220
0.0
230
1.0
 40
0.7071067811865475
 41
4.712388980384688
 42
6.283185307179548
  0
ELLIPSE
  5
3E50
330
3DEC
100
AcDbEntity
  8
0
100
AcDbEllipse
 10
59.39999999999997
 20
56.26437943888952
 30
0.0
 11
2.100000000000031
 21
0.0000000000000351
 31
0.0
210
0.0
220
0.0
230
1.0
 40
0.7071067811865426
 41
4.712388980384728
 42
6.28318530717967
  0
LINE
  5
3E51
330
3DEC
100
AcDbEntity
  8
0
100
AcDbLine
 10
-61.50000000000005
 20
4.362741700911235
 30
0.0
 11
-61.49999999999998
 21
56.26437943888955
 31
0.0
  0
ELLIPSE
  5
3E52
330
3DEC
100
AcDbEntity
  8
0
100
AcDbEllipse
 10
-59.39999999999999
 20
56.26437943888952
 30
0.0
 11
-2.100000000000031
 21
0.0000000000000095
 31
0.0
210
0.0
220
0.0
230
1.0
 40
0.7071067811865476
 41
0.0
 42
1.570796326794903
  0
ELLIPSE
  5
3E53
330
3DEC
100
AcDbEntity
  8
0
100
AcDbEllipse
 10
-59.39999999999999
 20
56.26437943888952
 30
0.0
 11
-0.6000000000000089
 21
-0.0000000000000354
 31
0.0
210
0.0
220
0.0
230
1.0
 40
0.7071067811865233
 41
0.0
 42
1.570796326794781
  0
ARC
  5
3E54
330
3DEC
100
AcDbEntity
  8
0
100
AcDbCircle
 10
59.39999999999998
 20
2.099999999999986
 30
0.0
 40
0.600000000000005
100
AcDbArc
 50
270.0
 51
343.4444348564562
  0
ARC
  5
3E55
330
3DEC
100
AcDbEntity
  8
0
100
AcDbCircle
 10
59.39999999999998
 20
2.099999999999986
 30
0.0
 40
2.100000000000008
100
AcDbArc
 50
343.3984504009792
 51
0.0
  0
ARC
  5
3E56
330
3DEC
100
AcDbEntity
  8
0
100
AcDbCircle
 10
-59.40000000000002
 20
2.100000000000012
 30
0.0
 40
0.5999999999999961
100
AcDbArc
 50
196.5555651435455
 51
269.9999999999992
  0
ARC
  5
3E57
330
3DEC
100
AcDbEntity
  8
0
100
AcDbCircle
 10
-59.40000000000002
 20
2.100000000000012
 30
0.0
 40
2.099999999999999
100
AcDbArc
 50
180.0
 51
196.6015495990206
  0
ENDBLK
  5
3DEE
330
3DEC
100
AcDbEntity
  8
0
100
AcDbBlockEnd
  0
BLOCK
  5
3E59
330
3E58
100
AcDbEntity
  8
0
100
AcDbBlockBegin
  2
SPR120_160-ISO
 70
     0
 10
0.0
 20
0.0
 30
0.0
  3
SPR120_160-ISO
  1

  0
LINE
  5
3E5B
330
3E58
100
AcDbEntity
  8
0
100
AcDbLine
 10
100.4270114937889
 20
-63.48638375689986
 30
0.0
 11
96.89147758785617
 21
-65.52762520921916
 31
0.0
  0
LINE
  5
3E5C
330
3E58
100
AcDbEntity
  8
0
100
AcDbLine
 10
101.4876716655687
 20
-62.87401132120407
 30
0.0
 11
100.4270114937889
 21
-63.48638375689986
 31
0.0
  0
LINE
  5
3E5D
330
3E58
100
AcDbEntity
  8
0
100
AcDbLine
 10
100.4270114937888
 20
-9.597609415669921
 30
0.0
 11
101.4876716655687
 21
-8.985236979974132
 31
0.0
  0
LINE
  5
3E5E
330
3E58
100
AcDbEntity
  8
0
100
AcDbLine
 10
101.4876716655687
 20
-8.985236979974132
 30
0.0
 11
97.95213775963595
 21
-2.861512623016189
 31
0.0
  0
LINE
  5
3E5F
330
3E58
100
AcDbEntity
  8
0
100
AcDbLine
 10
-41.03265658229909
 20
14.10291078166598
 30
0.0
 11
-44.56819048823184
 21
20.22663513862393
 31
0.0
  0
LINE
  5
3E60
330
3E58
100
AcDbEntity
  8
0
100
AcDbLine
 10
96.89147758785615
 20
-3.473885058711982
 30
0.0
 11
100.4270114937888
 21
-9.597609415669921
 31
0.0
  0
LINE
  5
3E61
330
3E58
100
AcDbEntity
  8
0
100
AcDbLine
 10
97.95213775963595
 20
-2.861512623016189
 30
0.0
 11
96.89147758785615
 21
-3.473885058711982
 31
0.0
  0
LINE
  5
3E62
330
3E58
100
AcDbEntity
  8
0
100
AcDbLine
 10
101.4876716655687
 20
-8.985236979974132
 30
0.0
 11
101.4876716655687
 21
-62.87401132120407
 31
0.0
  0
LINE
  5
3E63
330
3E58
100
AcDbEntity
  8
0
100
AcDbLine
 10
100.4270114937888
 20
-9.597609415669921
 30
0.0
 11
100.4270114937889
 21
-63.48638375689986
 31
0.0
  0
LINE
  5
3E64
330
3E58
100
AcDbEntity
  8
0
100
AcDbLine
 10
-15.55765654019416
 20
62.67339767164976
 30
0.0
 11
-10.96146246248158
 21
60.01978378363464
 31
0.0
  0
LINE
  5
3E65
330
3E58
100
AcDbEntity
  8
0
100
AcDbLine
 10
70.35581737397139
 20
13.0712303802904
 30
0.0
 11
97.95213775963595
 21
-2.861512623016189
 31
0.0
  0
LINE
  5
3E66
330
3E58
100
AcDbEntity
  8
0
100
AcDbLine
 10
-44.56819048823184
 20
20.22663513862393
 30
0.0
 11
-44.56819048823184
 21
50.43700863294976
 31
0.0
  0
LINE
  5
3E67
330
3E58
100
AcDbEntity
  8
0
100
AcDbLine
 10
69.29515720219159
 20
12.4588579445946
 30
0.0
 11
96.89147758785615
 21
-3.473885058711982
 31
0.0
  0
LINE
  5
3E68
330
3E58
100
AcDbEntity
  8
0
100
AcDbLine
 10
-12.0221226342614
 20
-2.646328802568351
 30
0.0
 11
-41.03265658229909
 21
14.10291078166598
 31
0.0
  0
LINE
  5
3E69
330
3E58
100
AcDbEntity
  8
0
100
AcDbLine
 10
96.89147758785617
 20
-65.52762520921916
 30
0.0
 11
67.88094363981847
 21
-48.77838562498485
 31
0.0
  0
LINE
  5
3E6A
330
3E58
100
AcDbEntity
  8
0
100
AcDbLine
 10
-16.61831671197397
 20
62.06102523595396
 30
0.0
 11
-12.0221226342614
 21
59.40741134793883
 31
0.0
  0
LINE
  5
3E6B
330
3E58
100
AcDbEntity
  8
0
100
AcDbLine
 10
-10.96146246248158
 20
60.01978378363464
 30
0.0
 11
-12.0221226342614
 21
59.40741134793883
 31
0.0
  0
ELLIPSE
  5
3E6C
330
3E58
100
AcDbEntity
  8
0
100
AcDbEllipse
 10
-12.0221226342614
 20
60.63215621933043
 30
0.0
 11
0.7500000000000009
 21
-1.299038105676658
 31
0.0
210
0.0
220
0.0
230
1.0
 40
0.5773502691896259
 41
5.497787143782135
 42
8.639379797371928
  0
ELLIPSE
  5
3E6D
330
3E58
100
AcDbEntity
  8
0
100
AcDbEllipse
 10
64.34540973388573
 20
75.73734296649333
 30
0.0
 11
1.250000000000129
 21
-2.165063509461021
 31
0.0
210
0.0
220
0.0
230
1.0
 40
0.5773502691896259
 41
3.579741684173544
 42
4.454997905016221
  0
ELLIPSE
  5
3E6E
330
3E58
100
AcDbEntity
  8
0
100
AcDbEllipse
 10
64.34540973388573
 20
10.41761649227526
 30
0.0
 11
1.25
 21
-2.165063509461096
 31
0.0
210
0.0
220
0.0
230
1.0
 40
0.5773502691896259
 41
4.999145532596246
 42
5.845036276595419
  0
ELLIPSE
  5
3E6F
330
3E58
100
AcDbEntity
  8
0
100
AcDbEllipse
 10
63.28474956210591
 20
75.12497053079754
 30
0.0
 11
-1.25
 21
2.165063509461096
 31
0.0
210
0.0
220
0.0
230
0.9999999999999998
 40
0.577350269189626
 41
4.969780055752955
 42
7.596590558606227
  0
ELLIPSE
  5
3E70
330
3E58
100
AcDbEntity
  8
0
100
AcDbEllipse
 10
63.28474956210591
 20
9.805244056579468
 30
0.0
 11
1.25
 21
-2.165063509461096
 31
0.0
210
0.0
220
0.0
230
0.9999999999999998
 40
0.577350269189626
 41
4.999145532596243
 42
7.567225081762932
  0
ELLIPSE
  5
3E71
330
3E58
100
AcDbEntity
  8
0
100
AcDbEllipse
 10
64.34540973388573
 20
-22.24224674483377
 30
0.0
 11
1.250000000000129
 21
-2.165063509461021
 31
0.0
210
0.0
220
0.0
230
1.0
 40
0.577350269189626
 41
3.579741684173548
 42
5.845036276594997
  0
ELLIPSE
  5
3E72
330
3E58
100
AcDbEntity
  8
0
100
AcDbEllipse
 10
63.28474956210591
 20
-22.85461918052957
 30
0.0
 11
1.25
 21
-2.165063509461095
 31
0.0
210
0.0
220
0.0
230
1.0
 40
0.577350269189626
 41
0.0
 42
6.283185307179586
  0
ELLIPSE
  5
3E73
330
3E58
100
AcDbEntity
  8
0
100
AcDbEllipse
 10
57.27434192202025
 20
-1.829832221640623
 30
0.0
 11
1.250000000000129
 21
-2.165063509461021
 31
0.0
210
0.0
220
0.0
230
1.0
 40
0.577350269189626
 41
3.579741684173546
 42
5.845036276594997
  0
ELLIPSE
  5
3E74
330
3E58
100
AcDbEntity
  8
0
100
AcDbEllipse
 10
56.21368175024044
 20
-2.442204657336417
 30
0.0
 11
1.25
 21
-2.165063509461095
 31
0.0
210
0.0
220
0.0
230
1.0
 40
0.577350269189626
 41
0.0
 42
6.283185307179586
  0
ELLIPSE
  5
3E75
330
3E58
100
AcDbEntity
  8
0
100
AcDbEllipse
 10
57.27434192202025
 20
-34.48969545874966
 30
0.0
 11
1.250000000000129
 21
-2.165063509461021
 31
0.0
210
0.0
220
0.0
230
1.0
 40
0.577350269189626
 41
3.579741684173548
 42
5.845036276594998
  0
ELLIPSE
  5
3E76
330
3E58
100
AcDbEntity
  8
0
100
AcDbEllipse
 10
56.21368175024044
 20
-35.10206789444546
 30
0.0
 11
1.25
 21
-2.165063509461095
 31
0.0
210
0.0
220
0.0
230
1.0
 40
0.577350269189626
 41
0.0
 42
6.283185307179586
  0
ELLIPSE
  5
3E77
330
3E58
100
AcDbEntity
  8
0
100
AcDbEllipse
 10
0.705799427096463
 20
112.479689108241
 30
0.0
 11
1.250000000000129
 21
-2.165063509461021
 31
0.0
210
0.0
220
0.0
230
1.0
 40
0.5773502691896259
 41
3.579741684173544
 42
5.845036276594997
  0
ELLIPSE
  5
3E78
330
3E58
100
AcDbEntity
  8
0
100
AcDbEllipse
 10
0.705799427096463
 20
79.81982587113197
 30
0.0
 11
1.250000000000129
 21
-2.165063509461021
 31
0.0
210
0.0
220
0.0
230
1.0
 40
0.5773502691896259
 41
3.579741684173544
 42
5.845036276594997
  0
ELLIPSE
  5
3E79
330
3E58
100
AcDbEntity
  8
0
100
AcDbEllipse
 10
0.7057994270964585
 20
47.15996263402295
 30
0.0
 11
1.250000000000129
 21
-2.165063509461021
 31
0.0
210
0.0
220
0.0
230
1.0
 40
0.5773502691896259
 41
3.579741684173544
 42
5.845036276594997
  0
ELLIPSE
  5
3E7A
330
3E58
100
AcDbEntity
  8
0
100
AcDbEllipse
 10
-0.3548607446833607
 20
111.8673166725452
 30
0.0
 11
1.25
 21
-2.165063509461095
 31
0.0
210
0.0
220
0.0
230
1.0
 40
0.577350269189626
 41
0.0
 42
6.283185307179586
  0
ELLIPSE
  5
3E7B
330
3E58
100
AcDbEntity
  8
0
100
AcDbEllipse
 10
-0.3548607446833607
 20
79.20745343543616
 30
0.0
 11
1.25
 21
-2.165063509461095
 31
0.0
210
0.0
220
0.0
230
1.0
 40
0.577350269189626
 41
0.0
 42
6.283185307179586
  0
ELLIPSE
  5
3E7C
330
3E58
100
AcDbEntity
  8
0
100
AcDbEllipse
 10
-0.3548607446833651
 20
46.54759019832713
 30
0.0
 11
1.25
 21
-2.165063509461095
 31
0.0
210
0.0
220
0.0
230
1.0
 40
0.577350269189626
 41
0.0
 42
6.283185307179586
  0
ELLIPSE
  5
3E7D
330
3E58
100
AcDbEntity
  8
0
100
AcDbEllipse
 10
0.7057994270964585
 20
14.50009939691389
 30
0.0
 11
1.250000000000129
 21
-2.165063509461021
 31
0.0
210
0.0
220
0.0
230
1.0
 40
0.577350269189626
 41
3.579741684173548
 42
5.845036276594997
  0
ELLIPSE
  5
3E7E
330
3E58
100
AcDbEntity
  8
0
100
AcDbEllipse
 10
-0.3548607446833651
 20
13.8877269612181
 30
0.0
 11
1.25
 21
-2.165063509461095
 31
0.0
210
0.0
220
0.0
230
1.0
 40
0.577350269189626
 41
0.0
 42
6.283185307179586
  0
ELLIPSE
  5
3E7F
330
3E58
100
AcDbEntity
  8
0
100
AcDbEllipse
 10
-6.36526838476902
 20
100.2322403943251
 30
0.0
 11
1.250000000000129
 21
-2.165063509461021
 31
0.0
210
0.0
220
0.0
230
1.0
 40
0.5773502691896259
 41
3.579741684173544
 42
5.845036276594999
  0
ELLIPSE
  5
3E80
330
3E58
100
AcDbEntity
  8
0
100
AcDbEllipse
 10
-6.36526838476902
 20
67.57237715721609
 30
0.0
 11
1.250000000000129
 21
-2.165063509461021
 31
0.0
210
0.0
220
0.0
230
1.0
 40
0.5773502691896259
 41
3.579741684173544
 42
5.845036276594999
  0
ELLIPSE
  5
3E81
330
3E58
100
AcDbEntity
  8
0
100
AcDbEllipse
 10
-6.365268384769025
 20
34.91251392010705
 30
0.0
 11
1.250000000000129
 21
-2.165063509461021
 31
0.0
210
0.0
220
0.0
230
1.0
 40
0.5773502691896259
 41
3.579741684173544
 42
5.845036276594996
  0
ELLIPSE
  5
3E82
330
3E58
100
AcDbEntity
  8
0
100
AcDbEllipse
 10
-7.425928556548844
 20
99.61986795862934
 30
0.0
 11
1.25
 21
-2.165063509461095
 31
0.0
210
0.0
220
0.0
230
1.0
 40
0.577350269189626
 41
0.0
 42
6.283185307179586
  0
ELLIPSE
  5
3E83
330
3E58
100
AcDbEntity
  8
0
100
AcDbEllipse
 10
-7.425928556548844
 20
66.96000472152029
 30
0.0
 11
1.25
 21
-2.165063509461095
 31
0.0
210
0.0
220
0.0
230
1.0
 40
0.577350269189626
 41
0.0
 42
6.283185307179586
  0
ELLIPSE
  5
3E84
330
3E58
100
AcDbEntity
  8
0
100
AcDbEllipse
 10
-7.425928556548848
 20
34.30014148441125
 30
0.0
 11
1.25
 21
-2.165063509461095
 31
0.0
210
0.0
220
0.0
230
1.0
 40
0.577350269189626
 41
0.0
 42
6.283185307179586
  0
ELLIPSE
  5
3E85
330
3E58
100
AcDbEntity
  8
0
100
AcDbEllipse
 10
-6.365268384769025
 20
2.252650682998007
 30
0.0
 11
1.250000000000129
 21
-2.165063509461021
 31
0.0
210
0.0
220
0.0
230
1.0
 40
0.577350269189626
 41
3.579741684173546
 42
5.845036276594997
  0
ELLIPSE
  5
3E86
330
3E58
100
AcDbEntity
  8
0
100
AcDbEllipse
 10
-7.425928556548848
 20
1.640278247302209
 30
0.0
 11
1.25
 21
-2.165063509461095
 31
0.0
210
0.0
220
0.0
230
1.0
 40
0.577350269189626
 41
0.0
 42
6.283185307179586
  0
ELLIPSE
  5
3E87
330
3E58
100
AcDbEntity
  8
0
100
AcDbEllipse
 10
-22.64788027144886
 20
60.64321589454637
 30
0.0
 11
1.25
 21
-2.165063509461096
 31
0.0
210
0.0
220
0.0
230
1.0
 40
0.577350269189626
 41
5.508682942395983
 42
5.845036276595417
  0
ELLIPSE
  5
3E88
330
3E58
100
AcDbEntity
  8
0
100
AcDbEllipse
 10
76.38538093344624
 20
3.46633587917366
 30
0.0
 11
1.250000000000129
 21
-2.165063509461021
 31
0.0
210
0.0
220
0.0
230
1.0
 40
0.5773502691896259
 41
3.579741684173546
 42
5.845036276594997
  0
ELLIPSE
  5
3E89
330
3E58
100
AcDbEntity
  8
0
100
AcDbEllipse
 10
-23.70854044322868
 20
60.03084345885056
 30
0.0
 11
1.25
 21
-2.165063509461095
 31
0.0
210
0.0
220
0.0
230
1.0
 40
0.577350269189626
 41
5.508682942395985
 42
7.05768767196319
  0
ELLIPSE
  5
3E8A
330
3E58
100
AcDbEntity
  8
0
100
AcDbEllipse
 10
75.32472076166643
 20
2.853963443477862
 30
0.0
 11
1.25
 21
-2.165063509461095
 31
0.0
210
0.0
220
0.0
230
1.0
 40
0.577350269189626
 41
0.0
 42
6.283185307179586
  0
ELLIPSE
  5
3E8B
330
3E58
100
AcDbEntity
  8
0
100
AcDbEllipse
 10
-18.40523958432956
 20
25.53386291465415
 30
0.0
 11
1.250000000000129
 21
-2.165063509461021
 31
0.0
210
0.0
220
0.0
230
1.0
 40
0.577350269189626
 41
3.579741684173548
 42
5.845036276594999
  0
ELLIPSE
  5
3E8C
330
3E58
100
AcDbEntity
  8
0
100
AcDbEllipse
 10
80.62802162056554
 20
-31.64301710071855
 30
0.0
 11
1.250000000000129
 21
-2.165063509461021
 31
0.0
210
0.0
220
0.0
230
1.0
 40
0.577350269189626
 41
3.579741684173548
 42
5.845036276594997
  0
ELLIPSE
  5
3E8D
330
3E58
100
AcDbEntity
  8
0
100
AcDbEllipse
 10
-19.46589975610938
 20
24.92149047895835
 30
0.0
 11
1.25
 21
-2.165063509461095
 31
0.0
210
0.0
220
0.0
230
1.0
 40
0.577350269189626
 41
0.0
 42
6.283185307179586
  0
ELLIPSE
  5
3E8E
330
3E58
100
AcDbEntity
  8
0
100
AcDbEllipse
 10
79.56736144878573
 20
-32.25538953641434
 30
0.0
 11
1.25
 21
-2.165063509461095
 31
0.0
210
0.0
220
0.0
230
1.0
 40
0.577350269189626
 41
0.0
 42
6.283185307179586
  0
ELLIPSE
  5
3E8F
330
3E58
100
AcDbEntity
  8
0
100
AcDbEllipse
 10
59.04210887498663
 20
-43.67528199418656
 30
0.0
 11
1.250000000000129
 21
-2.165063509461021
 31
0.0
210
0.0
220
0.0
230
1.0
 40
0.577350269189626
 41
3.579741684173544
 42
3.835017178248603
  0
ELLIPSE
  5
3E90
330
3E58
100
AcDbEntity
  8
0
100
AcDbEllipse
 10
-1.061967525869911
 20
-8.974177304758212
 30
0.0
 11
1.250000000000129
 21
-2.165063509461021
 31
0.0
210
0.0
220
0.0
230
1.0
 40
0.577350269189626
 41
3.579741684173548
 42
3.835017178248603
  0
SPLINE
  5
3E91
330
3E58
100
AcDbEntity
  8
0
100
AcDbSpline
210
0.0
220
0.0
230
1.0
 70
     8
 71
     3
 72
     8
 73
     4
 74
     0
 42
0.000000001
 43
0.0000000001
 40
-1.0
 40
-1.0
 40
-1.0
 40
-1.0
 40
0.0
 40
0.0
 40
0.0
 40
0.0
 10
-0.3623323785891186
 20
-10.41538088830465
 30
0.0
 10
-0.3434799766948915
 20
-10.5550611258872
 30
0.0
 10
-0.4082355706754948
 20
-10.70183722616885
 30
0.0
 10
-0.5369025653320536
 20
-10.80449069255277
 30
0.0
  0
ELLIPSE
  5
3E92
330
3E58
100
AcDbEntity
  8
0
100
AcDbEllipse
 10
-1.929924155743458
 20
-9.268223961082489
 30
0.0
 11
-1.249999999999998
 21
-2.165063509461096
 31
0.0
210
0.0
220
0.0
230
1.0
 40
0.816496580927726
 41
4.968762307403138
 42
7.597608306956033
  0
ELLIPSE
  5
3E93
330
3E58
100
AcDbEntity
  8
0
100
AcDbEllipse
 10
58.17415224511309
 20
-43.96932865051083
 30
0.0
 11
-1.249999999999999
 21
-2.165063509461097
 31
0.0
210
0.0
220
0.0
230
0.9999999999999998
 40
0.816496580927726
 41
4.968762307403141
 42
7.597608306956037
  0
SPLINE
  5
3E94
330
3E58
100
AcDbEntity
  8
0
100
AcDbSpline
210
0.0
220
0.0
230
1.0
 70
     8
 71
     3
 72
     8
 73
     4
 74
     0
 42
0.000000001
 43
0.0000000001
 40
-1.0
 40
-1.0
 40
-1.0
 40
-1.0
 40
0.0
 40
0.0
 40
0.0
 40
0.0
 10
56.14719543346524
 20
-43.5310699309295
 30
0.0
 10
56.17176244581205
 20
-43.36831431173645
 30
0.0
 10
56.20230098225203
 20
-43.20178298407279
 30
0.0
 10
56.22115338414616
 20
-43.08387162510721
 30
0.0
  0
ELLIPSE
  5
3E95
330
3E58
100
AcDbEntity
  8
0
100
AcDbEllipse
 10
-1.17992415574347
 20
-9.701236662974704
 30
0.0
 11
-1.249999999999998
 21
-2.165063509461097
 31
0.0
210
0.0
220
0.0
230
1.0
 40
0.816496580927726
 41
4.968762307403139
 42
6.069429174707154
  0
LINE
  5
3E96
330
3E58
100
AcDbEntity
  8
0
100
AcDbLine
 10
-3.20688096739131
 20
-9.262977943393373
 30
0.0
 11
-3.707130967289908
 21
-8.974158471289806
 31
0.0
  0
LINE
  5
3E97
330
3E58
100
AcDbEntity
  8
0
100
AcDbLine
 10
-3.707130967289908
 20
-8.974158471289806
 30
0.0
 11
-3.956880967391307
 21
-8.829965241501154
 31
0.0
  0
LINE
  5
3E98
330
3E58
100
AcDbEntity
  8
0
100
AcDbLine
 10
-3.882923016710377
 20
-8.382766935678848
 30
0.0
 11
-3.529723179114916
 21
-8.178846914365378
 31
0.0
  0
SPLINE
  5
3E99
330
3E58
100
AcDbEntity
  8
0
100
AcDbSpline
210
0.0
220
0.0
230
1.0
 70
     8
 71
     3
 72
     8
 73
     4
 74
     0
 42
0.000000001
 43
0.0000000001
 40
-1.0
 40
-1.0
 40
-1.0
 40
-1.0
 40
0.0
 40
0.0
 40
0.0
 40
0.0
 10
-3.956880967391316
 20
-8.829965241501152
 30
0.0
 10
-3.932313955044572
 20
-8.667209622308076
 30
0.0
 10
-3.90177541860468
 20
-8.500678294644369
 30
0.0
 10
-3.882923016710382
 20
-8.382766935678862
 30
0.0
  0
SPLINE
  5
3E9A
330
3E58
100
AcDbEntity
  8
0
100
AcDbSpline
210
0.0
220
0.0
230
1.0
 70
     8
 71
     3
 72
     8
 73
     4
 74
     0
 42
0.000000001
 43
0.0000000001
 40
0.0
 40
0.0
 40
0.0
 40
0.0
 40
1.0
 40
1.0
 40
1.0
 40
1.0
 10
-2.822262844930563
 20
-7.770394499983066
 30
0.0
 10
-2.841115246824861
 20
-8.210295354633696
 30
0.0
 10
-2.990771446290523
 20
-8.768460967229078
 30
0.0
 10
-3.206880967391314
 20
-9.262977943393373
 30
0.0
  0
LINE
  5
3E9B
330
3E58
100
AcDbEntity
  8
0
100
AcDbLine
 10
-3.529723179114916
 20
-8.178846914365378
 30
0.0
 11
-2.822262844930554
 21
-7.770394499983055
 31
0.0
  0
ELLIPSE
  5
3E9C
330
3E58
100
AcDbEntity
  8
0
100
AcDbEllipse
 10
-2.122627697649734
 20
-9.586549740454008
 30
0.0
 11
-1.25
 21
2.165063509461095
 31
0.0
210
0.0
220
0.0
230
1.0
 40
0.5773502691896261
 41
4.018964455725523
 42
6.97660983183875
  0
ELLIPSE
  5
3E9D
330
3E58
100
AcDbEntity
  8
0
100
AcDbEllipse
 10
58.92415224511307
 20
-44.40234135240304
 30
0.0
 11
-1.249999999999999
 21
-2.165063509461097
 31
0.0
210
0.0
220
0.0
230
1.0
 40
0.816496580927726
 41
4.968762307403141
 42
6.06942917470716
  0
LINE
  5
3E9E
330
3E58
100
AcDbEntity
  8
0
100
AcDbLine
 10
56.89719543346523
 20
-43.96408263282172
 30
0.0
 11
56.39694543356586
 21
-43.6752631607177
 31
0.0
  0
LINE
  5
3E9F
330
3E58
100
AcDbEntity
  8
0
100
AcDbLine
 10
56.39694543356586
 20
-43.6752631607177
 30
0.0
 11
56.14719543346524
 21
-43.5310699309295
 31
0.0
  0
LINE
  5
3EA0
330
3E58
100
AcDbEntity
  8
0
100
AcDbLine
 10
56.22115338414618
 20
-43.08387162510719
 30
0.0
 11
56.57435322173109
 21
-42.87995160379981
 31
0.0
  0
SPLINE
  5
3EA1
330
3E58
100
AcDbEntity
  8
0
100
AcDbSpline
210
0.0
220
0.0
230
1.0
 70
     8
 71
     3
 72
     8
 73
     4
 74
     0
 42
0.000000001
 43
0.0000000001
 40
0.0
 40
0.0
 40
0.0
 40
0.0
 40
1.0
 40
1.0
 40
1.0
 40
1.0
 10
57.28181355592598
 20
-42.47149918941141
 30
0.0
 10
57.26296115403186
 20
-42.9114000440621
 30
0.0
 10
57.11330495456613
 20
-43.46956565665743
 30
0.0
 10
56.89719543346523
 20
-43.96408263282172
 30
0.0
  0
LINE
  5
3EA2
330
3E58
100
AcDbEntity
  8
0
100
AcDbLine
 10
56.57435322173109
 20
-42.87995160379981
 30
0.0
 11
57.28181355592599
 21
-42.4714991894114
 31
0.0
  0
SPLINE
  5
3EA3
330
3E58
100
AcDbEntity
  8
0
100
AcDbSpline
210
0.0
220
0.0
230
1.0
 70
     8
 71
     3
 72
     8
 73
     4
 74
     0
 42
0.000000001
 43
0.0000000001
 40
-1.0
 40
-1.0
 40
-1.0
 40
-1.0
 40
0.0
 40
0.0
 40
0.0
 40
0.0
 10
59.74174402226744
 20
-45.11648557773299
 30
0.0
 10
59.76059642416142
 20
-45.2561658153154
 30
0.0
 10
59.69584083018105
 20
-45.40294191559719
 30
0.0
 10
59.5671738355245
 20
-45.50559538198111
 30
0.0
  0
ELLIPSE
  5
3EA4
330
3E58
100
AcDbEntity
  8
0
100
AcDbEllipse
 10
57.98144870320682
 20
-44.28765442988235
 30
0.0
 11
-1.25
 21
2.165063509461095
 31
0.0
210
0.0
220
0.0
230
1.0
 40
0.577350269189626
 41
4.018964455725525
 42
6.97660983183875
  0
ELLIPSE
  5
3EA5
330
3E58
100
AcDbEntity
  8
0
100
AcDbEllipse
 10
41.36443934532294
 20
-33.46907473258999
 30
0.0
 11
1.250000000000129
 21
-2.165063509461021
 31
0.0
210
0.0
220
0.0
230
1.0
 40
0.577350269189626
 41
3.579741684173542
 42
3.8350171782486
  0
ELLIPSE
  5
3EA6
330
3E58
100
AcDbEntity
  8
0
100
AcDbEllipse
 10
13.08016809786104
 20
-17.13914311403547
 30
0.0
 11
1.250000000000129
 21
-2.165063509461021
 31
0.0
210
0.0
220
0.0
230
1.0
 40
0.577350269189626
 41
3.579741684173548
 42
3.835017178248604
  0
ELLIPSE
  5
3EA7
330
3E58
100
AcDbEntity
  8
0
100
AcDbEllipse
 10
12.96221146798748
 20
-17.86620247225196
 30
0.0
 11
-1.249999999999999
 21
-2.165063509461097
 31
0.0
210
0.0
220
0.0
230
0.9999999999999998
 40
0.816496580927726
 41
4.968762307403139
 42
6.283185307179586
  0
LINE
  5
3EA8
330
3E58
100
AcDbEntity
  8
0
100
AcDbLine
 10
10.93525465633964
 20
-17.42794375267063
 30
0.0
 11
10.43500465644109
 21
-17.13912428056709
 31
0.0
  0
LINE
  5
3EA9
330
3E58
100
AcDbEntity
  8
0
100
AcDbLine
 10
10.43500465644109
 20
-17.13912428056709
 30
0.0
 11
10.18525465633964
 21
-16.99493105077841
 31
0.0
  0
ELLIPSE
  5
3EAA
330
3E58
100
AcDbEntity
  8
0
100
AcDbEllipse
 10
12.21221146798749
 20
-17.43318977035974
 30
0.0
 11
-1.249999999999999
 21
-2.165063509461097
 31
0.0
210
0.0
220
0.0
230
1.0
 40
0.816496580927726
 41
4.968762307403137
 42
6.283185307179586
  0
LINE
  5
3EAB
330
3E58
100
AcDbEntity
  8
0
100
AcDbLine
 10
14.49774537392024
 20
-21.63949473214016
 30
0.0
 11
10.9622114679875
 21
-19.59825327982085
 31
0.0
  0
ELLIPSE
  5
3EAC
330
3E58
100
AcDbEntity
  8
0
100
AcDbEllipse
 10
15.74774537392023
 20
-19.47443122267906
 30
0.0
 11
-1.249999999999999
 21
-2.165063509461097
 31
0.0
210
0.0
220
0.0
230
1.0
 40
0.816496580927726
 41
0.0
 42
1.314422999776447
  0
LINE
  5
3EAD
330
3E58
100
AcDbEntity
  8
0
100
AcDbLine
 10
10.25921260702058
 20
-16.5477327449561
 30
0.0
 11
10.6124124446035
 21
-16.34381272364987
 31
0.0
  0
SPLINE
  5
3EAE
330
3E58
100
AcDbEntity
  8
0
100
AcDbSpline
210
0.0
220
0.0
230
1.0
 70
     8
 71
     3
 72
     8
 73
     4
 74
     0
 42
0.000000001
 43
0.0000000001
 40
-1.0
 40
-1.0
 40
-1.0
 40
-1.0
 40
0.0
 40
0.0
 40
0.0
 40
0.0
 10
10.18525465633964
 20
-16.99493105077841
 30
0.0
 10
10.20982166868638
 20
-16.83217543158533
 30
0.0
 10
10.24036020512646
 20
-16.66564410392171
 30
0.0
 10
10.25921260702056
 20
-16.54773274495611
 30
0.0
  0
SPLINE
  5
3EAF
330
3E58
100
AcDbEntity
  8
0
100
AcDbSpline
210
0.0
220
0.0
230
1.0
 70
     8
 71
     3
 72
     8
 73
     4
 74
     0
 42
0.000000001
 43
0.0000000001
 40
0.0
 40
0.0
 40
0.0
 40
0.0
 40
1.0
 40
1.0
 40
1.0
 40
1.0
 10
11.31987277880038
 20
-15.93536030926032
 30
0.0
 10
11.30102037690628
 20
-16.37526116391095
 30
0.0
 10
11.15136417744043
 20
-16.93342677650632
 30
0.0
 10
10.93525465633964
 20
-17.42794375267063
 30
0.0
  0
LINE
  5
3EB0
330
3E58
100
AcDbEntity
  8
0
100
AcDbLine
 10
10.6124124446035
 20
-16.34381272364987
 30
0.0
 11
11.3198727788004
 21
-15.93536030926031
 31
0.0
  0
SPLINE
  5
3EB1
330
3E58
100
AcDbEntity
  8
0
100
AcDbSpline
210
0.0
220
0.0
230
1.0
 70
     8
 71
     3
 72
     8
 73
     4
 74
     0
 42
0.000000001
 43
0.0000000001
 40
-1.0
 40
-1.0
 40
-1.0
 40
-1.0
 40
0.0
 40
0.0
 40
0.0
 40
0.0
 10
17.31533715107457
 20
-20.62158814990123
 30
0.0
 10
17.33418955296855
 20
-20.76126838748363
 30
0.0
 10
17.26943395898809
 20
-20.90804448776546
 30
0.0
 10
17.14076696433163
 20
-21.01069795414934
 30
0.0
  0
ELLIPSE
  5
3EB2
330
3E58
100
AcDbEntity
  8
0
100
AcDbEllipse
 10
15.55504183201395
 20
-19.79275700205058
 30
0.0
 11
1.24999999999987
 21
-2.16506350946117
 31
0.0
210
0.0
220
0.0
230
1.0
 40
0.577350269189626
 41
0.8773718021359497
 42
2.356194490192587
  0
LINE
  5
3EB3
330
3E58
100
AcDbEntity
  8
0
100
AcDbLine
 10
12.01950792608121
 20
-15.71027409741195
 30
0.0
 11
15.55504183201395
 21
-17.75151554973126
 31
0.0
  0
ELLIPSE
  5
3EB4
330
3E58
100
AcDbEntity
  8
0
100
AcDbEllipse
 10
12.01950792608121
 20
-17.75151554973126
 30
0.0
 11
-1.25
 21
2.165063509461095
 31
0.0
210
0.0
220
0.0
230
1.0
 40
0.5773502691896261
 41
5.497787143782137
 42
6.97660983183875
  0
ELLIPSE
  5
3EB5
330
3E58
100
AcDbEntity
  8
0
100
AcDbEllipse
 10
41.24648271544938
 20
-34.19613409080648
 30
0.0
 11
-1.249999999999999
 21
-2.165063509461097
 31
0.0
210
0.0
220
0.0
230
1.0
 40
0.816496580927726
 41
4.968762307403139
 42
6.283185307179586
  0
LINE
  5
3EB6
330
3E58
100
AcDbEntity
  8
0
100
AcDbLine
 10
39.21952590380155
 20
-33.75787537122514
 30
0.0
 11
38.71927590390124
 21
-33.46905589912059
 31
0.0
  0
LINE
  5
3EB7
330
3E58
100
AcDbEntity
  8
0
100
AcDbLine
 10
38.71927590390124
 20
-33.46905589912059
 30
0.0
 11
38.46952590380155
 21
-33.32486266933293
 31
0.0
  0
ELLIPSE
  5
3EB8
330
3E58
100
AcDbEntity
  8
0
100
AcDbEllipse
 10
40.49648271544939
 20
-33.76312138891427
 30
0.0
 11
-1.249999999999999
 21
-2.165063509461097
 31
0.0
210
0.0
220
0.0
230
1.0
 40
0.816496580927726
 41
4.968762307403139
 42
6.283185307179586
  0
LINE
  5
3EB9
330
3E58
100
AcDbEntity
  8
0
100
AcDbLine
 10
42.78201662138215
 20
-37.96942635069469
 30
0.0
 11
39.24648271544941
 21
-35.92818489837537
 31
0.0
  0
ELLIPSE
  5
3EBA
330
3E58
100
AcDbEntity
  8
0
100
AcDbEllipse
 10
44.03201662138214
 20
-35.80436284123358
 30
0.0
 11
-1.249999999999998
 21
-2.165063509461097
 31
0.0
210
0.0
220
0.0
230
1.0
 40
0.816496580927726
 41
0.0
 42
1.314422999776448
  0
LINE
  5
3EBB
330
3E58
100
AcDbEntity
  8
0
100
AcDbLine
 10
38.54348385448248
 20
-32.87766436351062
 30
0.0
 11
38.89668369206981
 21
-32.67374434220184
 31
0.0
  0
SPLINE
  5
3EBC
330
3E58
100
AcDbEntity
  8
0
100
AcDbSpline
210
0.0
220
0.0
230
1.0
 70
     8
 71
     3
 72
     8
 73
     4
 74
     0
 42
0.000000001
 43
0.0000000001
 40
-1.0
 40
-1.0
 40
-1.0
 40
-1.0
 40
0.0
 40
0.0
 40
0.0
 40
0.0
 10
38.46952590380155
 20
-33.32486266933293
 30
0.0
 10
38.49409291614844
 20
-33.16210705013998
 30
0.0
 10
38.52463145258827
 20
-32.99557572247619
 30
0.0
 10
38.54348385448246
 20
-32.87766436351063
 30
0.0
  0
SPLINE
  5
3EBD
330
3E58
100
AcDbEntity
  8
0
100
AcDbSpline
210
0.0
220
0.0
230
1.0
 70
     8
 71
     3
 72
     8
 73
     4
 74
     0
 42
0.000000001
 43
0.0000000001
 40
0.0
 40
0.0
 40
0.0
 40
0.0
 40
1.0
 40
1.0
 40
1.0
 40
1.0
 10
39.60414402626228
 20
-32.26529192781484
 30
0.0
 10
39.58529162436809
 20
-32.70519278246549
 30
0.0
 10
39.43563542490245
 20
-33.26335839506105
 30
0.0
 10
39.21952590380154
 20
-33.75787537122514
 30
0.0
  0
LINE
  5
3EBE
330
3E58
100
AcDbEntity
  8
0
100
AcDbLine
 10
38.89668369206981
 20
-32.67374434220184
 30
0.0
 11
39.60414402626231
 21
-32.26529192781483
 31
0.0
  0
SPLINE
  5
3EBF
330
3E58
100
AcDbEntity
  8
0
100
AcDbSpline
210
0.0
220
0.0
230
1.0
 70
     8
 71
     3
 72
     8
 73
     4
 74
     0
 42
0.000000001
 43
0.0000000001
 40
-1.0
 40
-1.0
 40
-1.0
 40
-1.0
 40
0.0
 40
0.0
 40
0.0
 40
0.0
 10
45.59960839853648
 20
-36.95151976845574
 30
0.0
 10
45.61846080043063
 20
-37.09120000603823
 30
0.0
 10
45.55370520645007
 20
-37.23797610631998
 30
0.0
 10
45.42503821179354
 20
-37.34062957270386
 30
0.0
  0
ELLIPSE
  5
3EC0
330
3E58
100
AcDbEntity
  8
0
100
AcDbEllipse
 10
43.83931307947586
 20
-36.1226886206051
 30
0.0
 11
1.24999999999987
 21
-2.16506350946117
 31
0.0
210
0.0
220
0.0
230
1.0
 40
0.577350269189626
 41
0.8773718021359471
 42
2.356194490192587
  0
LINE
  5
3EC1
330
3E58
100
AcDbEntity
  8
0
100
AcDbLine
 10
40.30377917354312
 20
-32.04020571596647
 30
0.0
 11
43.83931307947586
 21
-34.08144716828579
 31
0.0
  0
ELLIPSE
  5
3EC2
330
3E58
100
AcDbEntity
  8
0
100
AcDbEllipse
 10
40.30377917354312
 20
-34.08144716828578
 30
0.0
 11
-1.25
 21
2.165063509461096
 31
0.0
210
0.0
220
0.0
230
0.9999999999999998
 40
0.577350269189626
 41
5.497787143782137
 42
6.976609831838752
  0
ELLIPSE
  5
3EC3
330
3E58
100
AcDbEntity
  8
0
100
AcDbEllipse
 10
27.22230372159199
 20
-25.30410892494572
 30
0.0
 11
1.250000000000129
 21
-2.165063509461021
 31
0.0
210
0.0
220
0.0
230
1.0
 40
0.5773502691896259
 41
3.579741684173544
 42
3.835017177445206
  0
SPLINE
  5
3EC4
330
3E58
100
AcDbEntity
  8
0
100
AcDbSpline
210
0.0
220
0.0
230
1.0
 70
     8
 71
     3
 72
     8
 73
     4
 74
     0
 42
0.000000001
 43
0.0000000001
 40
-1.0
 40
-1.0
 40
-1.0
 40
-1.0
 40
0.0
 40
0.0
 40
0.0
 40
0.0
 10
24.32739027969987
 20
-25.15989685984163
 30
0.0
 10
24.35195729222568
 20
-24.99714124072558
 30
0.0
 10
24.38249582882489
 20
-24.83060991316193
 30
0.0
 10
24.40134823088195
 20
-24.71269855430869
 30
0.0
  0
ELLIPSE
  5
3EC5
330
3E58
100
AcDbEntity
  8
0
100
AcDbEllipse
 10
29.88988099665119
 20
-27.63939703368837
 30
0.0
 11
-1.249999999999998
 21
-2.165063509461097
 31
0.0
210
0.0
220
0.0
230
1.0
 40
0.8164965809277262
 41
0.0
 42
1.314423000603477
  0
LINE
  5
3EC6
330
3E58
100
AcDbEntity
  8
0
100
AcDbLine
 10
28.63988099665119
 20
-29.80446054314947
 30
0.0
 11
25.10434709071846
 21
-27.76321909083016
 31
0.0
  0
ELLIPSE
  5
3EC7
330
3E58
100
AcDbEntity
  8
0
100
AcDbEllipse
 10
26.35434709071845
 20
-25.59815558136906
 30
0.0
 11
-1.249999999999999
 21
-2.165063509461097
 31
0.0
210
0.0
220
0.0
230
0.9999999999999998
 40
0.816496580927726
 41
4.968762306576106
 42
6.283185307179586
  0
SPLINE
  5
3EC8
330
3E58
100
AcDbEntity
  8
0
100
AcDbSpline
210
0.0
220
0.0
230
1.0
 70
     8
 71
     3
 72
     8
 73
     4
 74
     0
 42
0.000000001
 43
0.0000000001
 40
-1.0
 40
-1.0
 40
-1.0
 40
-1.0
 40
0.0
 40
0.0
 40
0.0
 40
0.0
 10
31.4574727746751
 20
-28.78655395910318
 30
0.0
 10
31.4763251767322
 20
-28.92623419676149
 30
0.0
 10
31.41156958293336
 20
-29.07301029714003
 30
0.0
 10
31.28290258843332
 20
-29.17566376364064
 30
0.0
  0
SPLINE
  5
3EC9
330
3E58
100
AcDbEntity
  8
0
100
AcDbSpline
210
0.0
220
0.0
230
1.0
 70
     8
 71
     3
 72
     8
 73
     4
 74
     0
 42
0.000000001
 43
0.0000000001
 40
0.0
 40
0.0
 40
0.0
 40
0.0
 40
1.0
 40
1.0
 40
1.0
 40
1.0
 10
25.46200840266177
 20
-24.10032611861289
 30
0.0
 10
25.44315600060471
 20
-24.54022697310553
 30
0.0
 10
25.29349980100827
 20
-25.09839258559715
 30
0.0
 10
25.07739027969987
 20
-25.59290956173385
 30
0.0
  0
ELLIPSE
  5
3ECA
330
3E58
100
AcDbEntity
  8
0
100
AcDbEllipse
 10
27.10434709071844
 20
-26.03116828326127
 30
0.0
 11
-1.249999999999998
 21
-2.165063509461097
 31
0.0
210
0.0
220
0.0
230
1.0
 40
0.816496580927726
 41
4.968762306576106
 42
6.283185307179585
  0
LINE
  5
3ECB
330
3E58
100
AcDbEntity
  8
0
100
AcDbLine
 10
25.07739027969987
 20
-25.59290956173385
 30
0.0
 11
24.57714027980221
 21
-25.30409008963083
 31
0.0
  0
LINE
  5
3ECC
330
3E58
100
AcDbEntity
  8
0
100
AcDbLine
 10
24.57714027980221
 20
-25.30409008963083
 30
0.0
 11
24.32739027969987
 21
-25.15989685984163
 31
0.0
  0
LINE
  5
3ECD
330
3E58
100
AcDbEntity
  8
0
100
AcDbLine
 10
24.40134823088197
 20
-24.71269855430867
 30
0.0
 11
24.75454806846685
 21
-24.50877853300131
 31
0.0
  0
LINE
  5
3ECE
330
3E58
100
AcDbEntity
  8
0
100
AcDbLine
 10
24.75454806846685
 20
-24.50877853300131
 30
0.0
 11
25.46200840266179
 21
-24.10032611861288
 31
0.0
  0
ELLIPSE
  5
3ECF
330
3E58
100
AcDbEntity
  8
0
100
AcDbEllipse
 10
29.69717745574492
 20
-27.95772281296084
 30
0.0
 11
1.249999999999871
 21
-2.16506350946117
 31
0.0
210
0.0
220
0.0
230
1.0
 40
0.5773502691896259
 41
0.8773718029393426
 42
2.356194490192594
  0
LINE
  5
3ED0
330
3E58
100
AcDbEntity
  8
0
100
AcDbLine
 10
26.16164354981217
 20
-23.8752399083222
 30
0.0
 11
29.6971774557449
 21
-25.91648136064151
 31
0.0
  0
ELLIPSE
  5
3ED1
330
3E58
100
AcDbEntity
  8
0
100
AcDbEllipse
 10
26.16164354981217
 20
-25.91648136064152
 30
0.0
 11
-1.25
 21
2.165063509461095
 31
0.0
210
0.0
220
0.0
230
1.0
 40
0.5773502691896261
 41
5.497787143782135
 42
6.976609831035354
  0
LINE
  5
3ED2
330
3E58
100
AcDbEntity
  8
0
100
AcDbLine
 10
70.9922134770393
 20
80.79962176824526
 30
0.0
 11
-13.01207212792258
 21
129.2995186753522
 31
0.0
  0
LINE
  5
3ED3
330
3E58
100
AcDbEntity
  8
0
100
AcDbLine
 10
41.71799273591639
 20
0.6196575211424938
 30
0.0
 11
41.7179927359164
 21
58.10101681845438
 31
0.0
  0
LINE
  5
3ED4
330
3E58
100
AcDbEntity
  8
0
100
AcDbLine
 10
40.65733256413657
 20
58.71338925415019
 30
0.0
 11
40.65733256413657
 21
1.232029956838296
 31
0.0
  0
LINE
  5
3ED5
330
3E58
100
AcDbEntity
  8
0
100
AcDbLine
 10
70.99221347703928
 20
13.43865384170788
 30
0.0
 11
45.25352664184911
 21
-1.421583931176804
 31
0.0
  0
LINE
  5
3ED6
330
3E58
100
AcDbEntity
  8
0
100
AcDbLine
 10
45.25352664184913
 20
64.22474117541234
 30
0.0
 11
70.99221347703931
 21
79.08497894829705
 31
0.0
  0
LINE
  5
3ED7
330
3E58
100
AcDbEntity
  8
0
100
AcDbLine
 10
-45.25614135002913
 20
108.3155565455096
 30
0.0
 11
-45.25614135002913
 21
50.83419724819771
 31
0.0
  0
LINE
  5
3ED8
330
3E58
100
AcDbEntity
  8
0
100
AcDbLine
 10
-15.98192060890606
 20
129.2995186753522
 30
0.0
 11
-41.72060744409638
 21
114.4392809024675
 31
0.0
  0
LINE
  5
3ED9
330
3E58
100
AcDbEntity
  8
0
100
AcDbLine
 10
-44.19548117824931
 20
107.7031841098138
 30
0.0
 11
-44.19548117824931
 21
50.2218248125019
 31
0.0
  0
LINE
  5
3EDA
330
3E58
100
AcDbEntity
  8
0
100
AcDbLine
 10
70.99221347703931
 20
79.08497894829705
 30
0.0
 11
69.93155330525947
 21
79.69735138399284
 31
0.0
  0
LINE
  5
3EDB
330
3E58
100
AcDbEntity
  8
0
100
AcDbLine
 10
69.93155330525947
 20
79.69735138399284
 30
0.0
 11
44.19286647006927
 21
64.83711361110812
 31
0.0
  0
LINE
  5
3EDC
330
3E58
100
AcDbEntity
  8
0
100
AcDbLine
 10
-14.0727322997024
 20
63.04082113306723
 30
0.0
 11
-12.0221226342614
 21
61.85690109072203
 31
0.0
  0
LINE
  5
3EDD
330
3E58
100
AcDbEntity
  8
0
100
AcDbLine
 10
70.9922134770393
 20
80.79962176824526
 30
0.0
 11
69.93155330525947
 21
80.18724933254945
 31
0.0
  0
LINE
  5
3EDE
330
3E58
100
AcDbEntity
  8
0
100
AcDbLine
 10
-13.01207212792257
 20
129.2995186753522
 30
0.0
 11
-14.07273229970239
 21
128.6871462396564
 31
0.0
  0
LINE
  5
3EDF
330
3E58
100
AcDbEntity
  8
0
100
AcDbLine
 10
-15.98192060890606
 20
129.2995186753522
 30
0.0
 11
-14.92126043712624
 21
128.6871462396564
 31
0.0
  0
LINE
  5
3EE0
330
3E58
100
AcDbEntity
  8
0
100
AcDbLine
 10
-14.07273229970239
 20
128.6871462396564
 30
0.0
 11
69.93155330525947
 21
80.18724933254945
 31
0.0
  0
LINE
  5
3EE1
330
3E58
100
AcDbEntity
  8
0
100
AcDbLine
 10
-40.65994727231657
 20
48.1805833601826
 30
0.0
 11
-14.92126043712625
 21
63.04082113306721
 31
0.0
  0
LINE
  5
3EE2
330
3E58
100
AcDbEntity
  8
0
100
AcDbLine
 10
-40.65994727231657
 20
113.8269084667717
 30
0.0
 11
-14.92126043712624
 21
128.6871462396564
 31
0.0
  0
LINE
  5
3EE3
330
3E58
100
AcDbEntity
  8
0
100
AcDbLine
 10
45.25352664184911
 20
-1.421583931176804
 30
0.0
 11
41.71799273591639
 21
0.6196575211424938
 31
0.0
  0
LINE
  5
3EE4
330
3E58
100
AcDbEntity
  8
0
100
AcDbLine
 10
41.71799273591639
 20
0.6196575211424938
 30
0.0
 11
40.65733256413657
 21
1.232029956838291
 31
0.0
  0
LINE
  5
3EE5
330
3E58
100
AcDbEntity
  8
0
100
AcDbLine
 10
40.65733256413657
 20
58.71338925415019
 30
0.0
 11
41.7179927359164
 21
58.10101681845438
 31
0.0
  0
LINE
  5
3EE6
330
3E58
100
AcDbEntity
  8
0
100
AcDbLine
 10
41.7179927359164
 20
58.10101681845438
 30
0.0
 11
45.25352664184913
 21
64.22474117541234
 31
0.0
  0
LINE
  5
3EE7
330
3E58
100
AcDbEntity
  8
0
100
AcDbLine
 10
-40.65994727231657
 20
48.1805833601826
 30
0.0
 11
-44.19548117824931
 21
50.2218248125019
 31
0.0
  0
LINE
  5
3EE8
330
3E58
100
AcDbEntity
  8
0
100
AcDbLine
 10
-44.19548117824931
 20
50.2218248125019
 30
0.0
 11
-45.25614135002913
 21
50.83419724819771
 31
0.0
  0
LINE
  5
3EE9
330
3E58
100
AcDbEntity
  8
0
100
AcDbLine
 10
-41.72060744409638
 20
114.4392809024675
 30
0.0
 11
-45.25614135002913
 21
108.3155565455096
 31
0.0
  0
LINE
  5
3EEA
330
3E58
100
AcDbEntity
  8
0
100
AcDbLine
 10
-45.25614135002913
 20
108.3155565455096
 30
0.0
 11
-44.19548117824931
 21
107.7031841098138
 31
0.0
  0
LINE
  5
3EEB
330
3E58
100
AcDbEntity
  8
0
100
AcDbLine
 10
45.25352664184913
 20
64.22474117541234
 30
0.0
 11
44.19286647006927
 21
64.83711361110812
 31
0.0
  0
LINE
  5
3EEC
330
3E58
100
AcDbEntity
  8
0
100
AcDbLine
 10
44.19286647006927
 20
64.83711361110812
 30
0.0
 11
40.65733256413657
 21
58.71338925415019
 31
0.0
  0
LINE
  5
3EED
330
3E58
100
AcDbEntity
  8
0
100
AcDbLine
 10
-44.19548117824931
 20
107.7031841098138
 30
0.0
 11
-40.65994727231657
 21
113.8269084667717
 31
0.0
  0
LINE
  5
3EEE
330
3E58
100
AcDbEntity
  8
0
100
AcDbLine
 10
-40.65994727231657
 20
113.8269084667717
 30
0.0
 11
-41.72060744409638
 21
114.4392809024675
 31
0.0
  0
LINE
  5
3EEF
330
3E58
100
AcDbEntity
  8
0
100
AcDbLine
 10
14.49221347719473
 20
-107.9316161252384
 30
0.0
 11
14.49221347719475
 21
-102.1581134333421
 31
0.0
  0
LINE
  5
3EF0
330
3E58
100
AcDbEntity
  8
0
100
AcDbLine
 10
14.49221347719475
 20
-102.1581134333421
 30
0.0
 11
13.43155330541495
 21
-101.5457409976463
 31
0.0
  0
LINE
  5
3EF1
330
3E58
100
AcDbEntity
  8
0
100
AcDbLine
 10
13.43155330541495
 20
-101.5457409976463
 30
0.0
 11
13.43155330541493
 21
-107.3192436895426
 31
0.0
  0
LINE
  5
3EF2
330
3E58
100
AcDbEntity
  8
0
100
AcDbLine
 10
13.43155330541493
 20
-107.3192436895426
 30
0.0
 11
14.49221347719473
 21
-107.9316161252384
 31
0.0
  0
LINE
  5
3EF3
330
3E58
100
AcDbEntity
  8
0
100
AcDbLine
 10
-72.48192060875054
 20
-51.94357370628707
 30
0.0
 11
-72.48192060875052
 21
-57.7170763981833
 31
0.0
  0
LINE
  5
3EF4
330
3E58
100
AcDbEntity
  8
0
100
AcDbLine
 10
-72.48192060875052
 20
-57.7170763981833
 30
0.0
 11
-71.42126043697072
 21
-58.32944883387909
 31
0.0
  0
LINE
  5
3EF5
330
3E58
100
AcDbEntity
  8
0
100
AcDbLine
 10
-71.42126043697072
 20
-58.32944883387909
 30
0.0
 11
-71.42126043697072
 21
-52.55594614198286
 31
0.0
  0
LINE
  5
3EF6
330
3E58
100
AcDbEntity
  8
0
100
AcDbLine
 10
-71.42126043697072
 20
-52.55594614198286
 30
0.0
 11
-72.48192060875054
 21
-51.94357370628707
 31
0.0
  0
ELLIPSE
  5
3EF7
330
3E58
100
AcDbEntity
  8
0
100
AcDbEllipse
 10
47.37484698540838
 20
58.99916305747511
 30
0.0
 11
1.250000000000128
 21
2.165063509461022
 31
0.0
210
0.0
220
0.0
230
1.0
 40
0.5773502691896257
 41
0.0
 42
6.283185307179586
  0
ELLIPSE
  5
3EF8
330
3E58
100
AcDbEntity
  8
0
100
AcDbEllipse
 10
47.37484698540838
 20
42.66923143892059
 30
0.0
 11
1.250000000000128
 21
2.165063509461022
 31
0.0
210
0.0
220
0.0
230
1.0
 40
0.5773502691896257
 41
0.0
 42
6.283185307179586
  0
ELLIPSE
  5
3EF9
330
3E58
100
AcDbEntity
  8
0
100
AcDbEllipse
 10
47.37484698540838
 20
26.33929982036607
 30
0.0
 11
1.250000000000128
 21
2.165063509461022
 31
0.0
210
0.0
220
0.0
230
1.0
 40
0.5773502691896257
 41
0.0
 42
6.283185307179586
  0
ELLIPSE
  5
3EFA
330
3E58
100
AcDbEntity
  8
0
100
AcDbEllipse
 10
46.31418681362855
 20
59.6115354931709
 30
0.0
 11
1.249999999999864
 21
2.165063509461175
 31
0.0
210
0.0
220
0.0
230
0.9999999999999998
 40
0.5773502691896218
 41
3.579741684173548
 42
5.845036276594986
  0
ELLIPSE
  5
3EFB
330
3E58
100
AcDbEntity
  8
0
100
AcDbEllipse
 10
46.31418681362855
 20
43.28160387461638
 30
0.0
 11
1.249999999999864
 21
2.165063509461175
 31
0.0
210
0.0
220
0.0
230
0.9999999999999998
 40
0.5773502691896218
 41
3.579741684173548
 42
5.845036276594986
  0
ELLIPSE
  5
3EFC
330
3E58
100
AcDbEntity
  8
0
100
AcDbEllipse
 10
46.31418681362855
 20
26.95167225606186
 30
0.0
 11
1.249999999999864
 21
2.165063509461175
 31
0.0
210
0.0
220
0.0
230
0.9999999999999998
 40
0.5773502691896218
 41
3.579741684173548
 42
5.845036276594983
  0
ELLIPSE
  5
3EFD
330
3E58
100
AcDbEntity
  8
0
100
AcDbEllipse
 10
47.37484698540838
 20
10.00936820181154
 30
0.0
 11
1.250000000000128
 21
2.165063509461022
 31
0.0
210
0.0
220
0.0
230
1.0
 40
0.5773502691896257
 41
0.0
 42
6.283185307179586
  0
ELLIPSE
  5
3EFE
330
3E58
100
AcDbEntity
  8
0
100
AcDbEllipse
 10
46.31418681362855
 20
10.62174063750733
 30
0.0
 11
1.249999999999864
 21
2.165063509461175
 31
0.0
210
0.0
220
0.0
230
0.9999999999999998
 40
0.5773502691896218
 41
3.579741684173548
 42
5.845036276594986
  0
LINE
  5
3EFF
330
3E58
100
AcDbEntity
  8
0
100
AcDbLine
 10
70.99221347703928
 20
13.43865384170788
 30
0.0
 11
70.99221347703931
 21
79.08497894829705
 31
0.0
  0
ELLIPSE
  5
3F00
330
3E58
100
AcDbEntity
  8
0
100
AcDbEllipse
 10
69.50728923654754
 20
79.94230035827114
 30
0.0
 11
0.6000000000000047
 21
0.0
 31
0.0
210
0.0
220
0.0
230
1.0
 40
0.577350269189626
 41
5.497787143782153
 42
7.068583470577037
  0
LINE
  5
3F01
330
3E58
100
AcDbEntity
  8
0
100
AcDbLine
 10
69.93155330525947
 20
80.18724933254945
 30
0.0
 11
69.93155330525947
 21
79.69735138399279
 31
0.0
  0
ELLIPSE
  5
3F02
330
3E58
100
AcDbEntity
  8
0
100
AcDbEllipse
 10
69.50728923654754
 20
79.94230035827114
 30
0.0
 11
2.100000000000008
 21
-0.0000000000000001
 31
0.0
210
0.0
220
0.0
230
1.0
 40
0.5773502691896259
 41
5.49778714378215
 42
7.068583470577032
  0
ELLIPSE
  5
3F03
330
3E58
100
AcDbEntity
  8
0
100
AcDbEllipse
 10
69.50728923654754
 20
14.29597525168199
 30
0.0
 11
2.100000000000008
 21
0.0000000000000015
 31
0.0
210
0.0
220
0.0
230
1.0
 40
0.5773502691896258
 41
5.497787143782137
 42
6.283185307179582
  0
LINE
  5
3F04
330
3E58
100
AcDbEntity
  8
0
100
AcDbLine
 10
-14.07273229970239
 20
128.6871462396564
 30
0.0
 11
-14.0727322997024
 21
63.04082113306723
 31
0.0
  0
ELLIPSE
  5
3F05
330
3E58
100
AcDbEntity
  8
0
100
AcDbEllipse
 10
-14.49699636841432
 20
128.442197265378
 30
0.0
 11
0.5999999999999961
 21
-0.0000000000000359
 31
0.0
210
0.0
220
0.0
230
1.0
 40
0.5773502691896257
 41
0.785398163397697
 42
2.356194490192603
  0
LINE
  5
3F06
330
3E58
100
AcDbEntity
  8
0
100
AcDbLine
 10
-14.92126043712624
 20
128.6871462396564
 30
0.0
 11
-14.92126043712625
 21
63.04082113306721
 31
0.0
  0
ELLIPSE
  5
3F07
330
3E58
100
AcDbEntity
  8
0
100
AcDbEllipse
 10
-14.49699636841432
 20
62.79587215878891
 30
0.0
 11
0.5999999999999961
 21
-0.0000000000000359
 31
0.0
210
0.0
220
0.0
230
1.0
 40
0.5773502691896257
 41
0.785398163397689
 42
2.356194490192596
  0
ELLIPSE
  5
3F08
330
3E58
100
AcDbEntity
  8
0
100
AcDbEllipse
 10
-14.49699636841432
 20
128.442197265378
 30
0.0
 11
-2.099999999999998
 21
-0.0000000000001251
 31
0.0
210
0.0
220
0.0
230
1.0
 40
0.5773502691896258
 41
3.926990816987004
 42
5.4977871437819
  0
LINE
  5
3F09
330
3E58
100
AcDbEntity
  8
0
100
AcDbLine
 10
71.60728923654755
 20
79.94230035827115
 30
0.0
 11
71.60728923654755
 21
14.29597525168201
 31
0.0
  0
ELLIPSE
  5
3F0A
330
3E58
100
AcDbEntity
  8
0
100
AcDbEllipse
 10
-39.59928710053678
 20
105.1312198798915
 30
0.0
 11
1.24999999999987
 21
2.165063509461171
 31
0.0
210
0.0
220
0.0
230
0.9999999999999998
 40
0.5773502691896257
 41
3.579741684173544
 42
5.845036276594986
  0
ELLIPSE
  5
3F0B
330
3E58
100
AcDbEntity
  8
0
100
AcDbEllipse
 10
-39.59928710053678
 20
88.80128826133697
 30
0.0
 11
1.24999999999987
 21
2.165063509461171
 31
0.0
210
0.0
220
0.0
230
0.9999999999999998
 40
0.5773502691896257
 41
3.579741684173544
 42
5.845036276594986
  0
ELLIPSE
  5
3F0C
330
3E58
100
AcDbEntity
  8
0
100
AcDbEllipse
 10
-39.59928710053678
 20
72.47135664278245
 30
0.0
 11
1.24999999999987
 21
2.165063509461171
 31
0.0
210
0.0
220
0.0
230
0.9999999999999998
 40
0.5773502691896257
 41
3.579741684173544
 42
5.84503627659499
  0
ELLIPSE
  5
3F0D
330
3E58
100
AcDbEntity
  8
0
100
AcDbEllipse
 10
-38.53862692875695
 20
104.5188474441957
 30
0.0
 11
1.250000000000128
 21
2.165063509461022
 31
0.0
210
0.0
220
0.0
230
1.0
 40
0.5773502691896257
 41
0.0
 42
6.283185307179586
  0
ELLIPSE
  5
3F0E
330
3E58
100
AcDbEntity
  8
0
100
AcDbEllipse
 10
-38.53862692875695
 20
88.18891582564118
 30
0.0
 11
1.250000000000128
 21
2.165063509461022
 31
0.0
210
0.0
220
0.0
230
1.0
 40
0.5773502691896257
 41
0.0
 42
6.283185307179586
  0
ELLIPSE
  5
3F0F
330
3E58
100
AcDbEntity
  8
0
100
AcDbEllipse
 10
-38.53862692875695
 20
71.85898420708666
 30
0.0
 11
1.250000000000128
 21
2.165063509461022
 31
0.0
210
0.0
220
0.0
230
1.0
 40
0.5773502691896257
 41
0.0
 42
6.283185307179586
  0
ELLIPSE
  5
3F10
330
3E58
100
AcDbEntity
  8
0
100
AcDbEllipse
 10
-39.59928710053678
 20
56.14142502422794
 30
0.0
 11
1.24999999999987
 21
2.165063509461171
 31
0.0
210
0.0
220
0.0
230
0.9999999999999998
 40
0.5773502691896257
 41
3.579741684173544
 42
5.84503627659499
  0
ELLIPSE
  5
3F11
330
3E58
100
AcDbEntity
  8
0
100
AcDbEllipse
 10
-38.53862692875695
 20
55.52905258853214
 30
0.0
 11
1.250000000000128
 21
2.165063509461022
 31
0.0
210
0.0
220
0.0
230
1.0
 40
0.5773502691896257
 41
0.0
 42
6.283185307179586
  0
LINE
  5
3F12
330
3E58
100
AcDbEntity
  8
0
100
AcDbLine
 10
27.99221347660552
 20
-78.77542753285872
 30
0.0
 11
14.49221347719475
 21
-102.1581134333421
 31
0.0
  0
LINE
  5
3F13
330
3E58
100
AcDbEntity
  8
0
100
AcDbLine
 10
26.93155330482543
 20
-78.16305509716278
 30
0.0
 11
13.43155330541495
 21
-101.5457409976463
 31
0.0
  0
LINE
  5
3F14
330
3E58
100
AcDbEntity
  8
0
100
AcDbLine
 10
32.69221347703928
 20
-118.4393910243998
 30
0.0
 11
69.39221347625139
 21
-54.87312638798677
 31
0.0
  0
LINE
  5
3F15
330
3E58
100
AcDbEntity
  8
0
100
AcDbLine
 10
68.08302516704441
 20
-54.40424173933948
 30
0.0
 11
69.07083451643766
 21
-52.69330575799884
 31
0.0
  0
LINE
  5
3F16
330
3E58
100
AcDbEntity
  8
0
100
AcDbLine
 10
33.02594258449486
 20
-118.6320696144257
 30
0.0
 11
32.69221347703929
 21
-118.4393910243998
 31
0.0
  0
LINE
  5
3F17
330
3E58
100
AcDbEntity
  8
0
100
AcDbLine
 10
70.0643025535573
 20
-54.47974831898434
 30
0.0
 11
33.02594258449487
 21
-118.6320696144257
 31
0.0
  0
LINE
  5
3F18
330
3E58
100
AcDbEntity
  8
0
100
AcDbLine
 10
27.99221347660552
 20
-78.77542753285872
 30
0.0
 11
26.93155330482543
 21
-78.16305509716278
 31
0.0
  0
LINE
  5
3F19
330
3E58
100
AcDbEntity
  8
0
100
AcDbLine
 10
69.39221347625139
 20
-54.87312638798678
 30
0.0
 11
27.99221347660552
 21
-78.77542753285872
 31
0.0
  0
LINE
  5
3F1A
330
3E58
100
AcDbEntity
  8
0
100
AcDbLine
 10
-58.98192060934245
 20
-28.56088780580209
 30
0.0
 11
-17.58192060969399
 21
-4.658586660931627
 31
0.0
  0
ELLIPSE
  5
3F1B
330
3E58
100
AcDbEntity
  8
0
100
AcDbEllipse
 10
-11.82941909235513
 20
-3.55274789458841
 30
0.0
 11
-0.7499999999999992
 21
-1.299038105676658
 31
0.0
210
0.0
220
0.0
230
0.9999999999999998
 40
0.816496580927726
 41
0.0
 42
1.134458255166983
  0
LINE
  5
3F1C
330
3E58
100
AcDbEntity
  8
0
100
AcDbLine
 10
-12.5794190923551
 20
-4.851786000265061
 30
0.0
 11
-14.20092478256474
 21
-3.915609253530019
 31
0.0
  0
LINE
  5
3F1D
330
3E58
100
AcDbEntity
  8
0
100
AcDbLine
 10
-14.20092478256474
 20
-3.915609253530019
 30
0.0
 11
-14.93345108852422
 21
-4.193408850891926
 31
0.0
  0
LINE
  5
3F1E
330
3E58
100
AcDbEntity
  8
0
100
AcDbLine
 10
69.07083451643766
 20
-52.69330575799884
 30
0.0
 11
68.94515287193441
 21
-51.92001956941661
 31
0.0
  0
LINE
  5
3F1F
330
3E58
100
AcDbEntity
  8
0
100
AcDbLine
 10
68.94515287193441
 20
-51.92001956941661
 30
0.0
 11
67.32364718172476
 21
-50.98384282268156
 31
0.0
  0
ELLIPSE
  5
3F20
330
3E58
100
AcDbEntity
  8
0
100
AcDbEllipse
 10
68.07364718172475
 20
-49.68480471700491
 30
0.0
 11
-0.7499999999999996
 21
-1.299038105676658
 31
0.0
210
0.0
220
0.0
230
1.0
 40
0.816496580927726
 41
5.148727052012596
 42
6.283185307179585
  0
SPLINE
  5
3F21
330
3E58
100
AcDbEntity
  8
0
100
AcDbSpline
210
0.0
220
0.0
230
1.0
 70
     8
 71
     3
 72
     8
 73
     4
 74
     0
 42
0.000000001
 43
0.0000000001
 40
-1.0
 40
-1.0
 40
-1.0
 40
-1.0
 40
0.0
 40
0.0
 40
0.0
 40
0.0
 10
-10.97396252707036
 20
-4.288753365538258
 30
0.0
 10
-10.94203111208917
 20
-4.437084821879988
 30
0.0
 10
-11.02399312469878
 20
-4.581291921350194
 30
0.0
 10
-11.18510471123632
 20
-4.656748317229393
 30
0.0
  0
SPLINE
  5
3F22
330
3E58
100
AcDbEntity
  8
0
100
AcDbSpline
210
0.0
220
0.0
230
1.0
 70
     8
 71
     3
 72
     8
 73
     4
 74
     0
 42
0.000000001
 43
0.0000000001
 40
-1.0
 40
-1.0
 40
-1.0
 40
-1.0
 40
0.0
 40
0.0
 40
0.0
 40
0.0
 10
66.79539757936947
 20
-49.67881230625285
 30
0.0
 10
66.78018894181191
 20
-49.50155738152878
 30
0.0
 10
66.80085211764759
 20
-49.32195938214613
 30
0.0
 10
66.83278353262737
 20
-49.21049914787359
 30
0.0
  0
SPLINE
  5
3F23
330
3E58
100
AcDbEntity
  8
0
100
AcDbSpline
210
0.0
220
0.0
230
1.0
 70
     8
 71
     3
 72
     8
 73
     4
 74
     0
 42
0.000000001
 43
0.0000000001
 40
0.1302463606542607
 40
0.1302463606542607
 40
0.1302463606542607
 40
0.1302463606542607
 40
1.0
 40
1.0
 40
1.0
 40
1.0
 10
67.87523004748912
 20
-48.77557809117158
 30
0.0
 10
67.82240411170099
 20
-49.1849993186085
 30
0.0
 10
67.6907943375856
 20
-49.682911153775
 30
0.0
 10
67.54539757936946
 20
-50.11182500814507
 30
0.0
  0
LINE
  5
3F24
330
3E58
100
AcDbEntity
  8
0
100
AcDbLine
 10
-57.92126043756238
 20
-29.17326024149802
 30
0.0
 11
-58.98192060934245
 21
-28.56088780580209
 31
0.0
  0
LINE
  5
3F25
330
3E58
100
AcDbEntity
  8
0
100
AcDbLine
 10
-16.52126043791421
 20
-5.270959096627407
 30
0.0
 11
-57.92126043756238
 21
-29.17326024149801
 31
0.0
  0
LINE
  5
3F26
330
3E58
100
AcDbEntity
  8
0
100
AcDbLine
 10
-16.52126043791421
 20
-5.270959096627407
 30
0.0
 11
-16.87446027511773
 21
-5.06703907554022
 31
0.0
  0
LINE
  5
3F27
330
3E58
100
AcDbEntity
  8
0
100
AcDbLine
 10
-16.87446027511773
 20
-5.06703907554022
 30
0.0
 11
-17.581920609694
 21
-4.658586660931627
 31
0.0
  0
SPLINE
  5
3F28
330
3E58
100
AcDbEntity
  8
0
100
AcDbSpline
210
0.0
220
0.0
230
1.0
 70
     8
 71
     3
 72
     8
 73
     4
 74
     0
 42
0.000000001
 43
0.0000000001
 40
-1.0
 40
-1.0
 40
-1.0
 40
-1.0
 40
0.0
 40
0.0
 40
0.0
 40
0.0
 10
-14.93345108852422
 20
-4.193408850891922
 30
0.0
 10
-15.44344366232483
 20
-4.563721968132639
 30
0.0
 10
-16.07633237834175
 20
-4.863080964581709
 30
0.0
 10
-16.52126043791421
 20
-5.270959096627403
 30
0.0
  0
SPLINE
  5
3F29
330
3E58
100
AcDbEntity
  8
0
100
AcDbSpline
210
0.0
220
0.0
230
1.0
 70
     8
 71
     3
 72
     8
 73
     4
 74
     0
 42
0.000000001
 43
0.0000000001
 40
0.0
 40
0.0
 40
0.0
 40
0.0
 40
0.6081734479693843
 40
0.6081734479693843
 40
0.6081734479693843
 40
0.6081734479693843
 10
-17.58192060969399
 20
-4.658586660931622
 30
0.0
 10
-17.07249802307438
 20
-4.548414087672951
 30
0.0
 10
-16.31974865676571
 20
-4.578726296169297
 30
0.0
 10
-15.56841579356306
 20
-4.608220686216113
 30
0.0
  0
ELLIPSE
  5
3F2A
330
3E58
100
AcDbEntity
  8
0
100
AcDbEllipse
 10
-12.0221226342614
 20
-3.87107367395993
 30
0.0
 11
0.7499999999999229
 21
-1.299038105676702
 31
0.0
210
0.0
220
0.0
230
0.9999999999999998
 40
0.577350269189626
 41
0.9390757175653314
 42
2.356194490192585
  0
LINE
  5
3F2B
330
3E58
100
AcDbEntity
  8
0
100
AcDbLine
 10
69.39221347625139
 20
-54.87312638798678
 30
0.0
 11
68.68475314167437
 21
-54.46467397337777
 31
0.0
  0
LINE
  5
3F2C
330
3E58
100
AcDbEntity
  8
0
100
AcDbLine
 10
68.68475314167437
 20
-54.46467397337777
 30
0.0
 11
68.33155330447154
 21
-54.26075395229097
 31
0.0
  0
LINE
  5
3F2D
330
3E58
100
AcDbEntity
  8
0
100
AcDbLine
 10
26.93155330482543
 20
-78.16305509716278
 30
0.0
 11
68.33155330447154
 21
-54.26075395229097
 31
0.0
  0
LINE
  5
3F2E
330
3E58
100
AcDbEntity
  8
0
100
AcDbLine
 10
69.07083451643766
 20
-52.69330575799884
 30
0.0
 11
69.32058451643806
 21
-52.83749898772918
 31
0.0
  0
SPLINE
  5
3F2F
330
3E58
100
AcDbEntity
  8
0
100
AcDbSpline
210
0.0
220
0.0
230
1.0
 70
     8
 71
     3
 72
     8
 73
     4
 74
     0
 42
0.000000001
 43
0.0000000001
 40
-1.0
 40
-1.0
 40
-1.0
 40
-1.0
 40
0.0
 40
0.0
 40
0.0
 40
0.0
 10
68.33155330447154
 20
-54.26075395229098
 30
0.0
 10
68.77648136404378
 20
-53.85287582024567
 30
0.0
 10
69.00513023645266
 20
-53.32012884127228
 30
0.0
 10
69.07083451643763
 20
-52.69330575799884
 30
0.0
  0
SPLINE
  5
3F30
330
3E58
100
AcDbEntity
  8
0
100
AcDbSpline
210
0.0
220
0.0
230
1.0
 70
     8
 71
     3
 72
     8
 73
     4
 74
     0
 42
0.000000001
 43
0.0000000001
 40
0.0
 40
0.0
 40
0.0
 40
0.0
 40
1.0
 40
1.0
 40
1.0
 40
1.0
 10
69.82083451643763
 20
-53.12631845989105
 30
0.0
 10
70.31049060372241
 20
-54.07377900070494
 30
0.0
 10
70.22984061752232
 20
-54.69197317647074
 30
0.0
 10
69.39221347625139
 20
-54.87312638798679
 30
0.0
  0
LINE
  5
3F31
330
3E58
100
AcDbEntity
  8
0
100
AcDbLine
 10
69.32058451643806
 20
-52.83749898772918
 30
0.0
 11
69.82083451643764
 21
-53.12631845989105
 31
0.0
  0
ELLIPSE
  5
3F32
330
3E58
100
AcDbEntity
  8
0
100
AcDbEllipse
 10
68.82364718172474
 20
-50.11781741889713
 30
0.0
 11
-0.7499999999999996
 21
-1.299038105676658
 31
0.0
210
0.0
220
0.0
230
1.0
 40
0.816496580927726
 41
5.148727052012596
 42
6.283185307179585
  0
LINE
  5
3F33
330
3E58
100
AcDbEntity
  8
0
100
AcDbLine
 10
67.54539757936945
 20
-50.11182500814506
 30
0.0
 11
67.04514758026455
 21
-49.82300553649974
 31
0.0
  0
LINE
  5
3F34
330
3E58
100
AcDbEntity
  8
0
100
AcDbLine
 10
67.04514758026455
 20
-49.82300553649974
 30
0.0
 11
66.79539757936945
 21
-49.67881230625284
 31
0.0
  0
LINE
  5
3F35
330
3E58
100
AcDbEntity
  8
0
100
AcDbLine
 10
68.94515287193441
 20
-51.92001956941661
 30
0.0
 11
69.69515287193441
 21
-52.35303227130883
 31
0.0
  0
LINE
  5
3F36
330
3E58
100
AcDbEntity
  8
0
100
AcDbLine
 10
69.69515287193441
 20
-52.35303227130883
 30
0.0
 11
69.82083451643764
 21
-53.12631845989105
 31
0.0
  0
LINE
  5
3F37
330
3E58
100
AcDbEntity
  8
0
100
AcDbLine
 10
66.83278353262739
 20
-49.21049914787356
 30
0.0
 11
67.18598337302521
 21
-49.00657912494216
 31
0.0
  0
LINE
  5
3F38
330
3E58
100
AcDbEntity
  8
0
100
AcDbLine
 10
67.18598337302521
 20
-49.00657912494216
 30
0.0
 11
67.7185848097746
 21
-48.69908154206412
 31
0.0
  0
ELLIPSE
  5
3F39
330
3E58
100
AcDbEntity
  8
0
100
AcDbEllipse
 10
67.88094363981847
 20
-50.00313049637643
 30
0.0
 11
-0.7500000000000007
 21
1.299038105676658
 31
0.0
210
0.0
220
0.0
230
0.9999999999999998
 40
0.5773502691896259
 41
5.497787143782137
 42
6.914905916409349
  0
LINE
  5
3F3A
330
3E58
100
AcDbEntity
  8
0
100
AcDbLine
 10
32.69221347703928
 20
-118.4393910243998
 30
0.0
 11
14.49221347719473
 21
-107.9316161252384
 31
0.0
  0
LINE
  5
3F3B
330
3E58
100
AcDbEntity
  8
0
100
AcDbLine
 10
-71.42126043697072
 20
-58.32944883387909
 30
0.0
 11
-53.22126043712621
 21
-68.8372237330405
 31
0.0
  0
LINE
  5
3F3C
330
3E58
100
AcDbEntity
  8
0
100
AcDbLine
 10
-0.3623323785890964
 20
-10.41538088830464
 30
0.0
 11
10.25921260702058
 21
-16.5477327449561
 31
0.0
  0
LINE
  5
3F3D
330
3E58
100
AcDbEntity
  8
0
100
AcDbLine
 10
10.18525465633964
 20
-16.99493105077841
 30
0.0
 11
-0.5369025653320536
 21
-10.80449069255277
 31
0.0
  0
LINE
  5
3F3E
330
3E58
100
AcDbEntity
  8
0
100
AcDbLine
 10
24.32739027969987
 20
-25.15989685984163
 30
0.0
 11
17.14076696433163
 21
-21.01069795414934
 31
0.0
  0
LINE
  5
3F3F
330
3E58
100
AcDbEntity
  8
0
100
AcDbLine
 10
17.31533715107459
 20
-20.62158814990121
 30
0.0
 11
24.40134823088197
 21
-24.71269855430867
 31
0.0
  0
LINE
  5
3F40
330
3E58
100
AcDbEntity
  8
0
100
AcDbLine
 10
-3.956880967391307
 20
-8.829965241501154
 30
0.0
 11
-11.1851047112363
 21
-4.656748317229402
 31
0.0
  0
LINE
  5
3F41
330
3E58
100
AcDbEntity
  8
0
100
AcDbLine
 10
-52.49699636841428
 20
-69.25537778807568
 30
0.0
 11
13.43155330541493
 21
-107.3192436895426
 31
0.0
  0
LINE
  5
3F42
330
3E58
100
AcDbEntity
  8
0
100
AcDbLine
 10
66.79539757936945
 20
-49.67881230625284
 30
0.0
 11
59.5671738355245
 21
-45.50559538198111
 31
0.0
  0
LINE
  5
3F43
330
3E58
100
AcDbEntity
  8
0
100
AcDbLine
 10
56.14719543346524
 20
-43.5310699309295
 30
0.0
 11
45.42503821179354
 21
-37.34062957270386
 31
0.0
  0
LINE
  5
3F44
330
3E58
100
AcDbEntity
  8
0
100
AcDbLine
 10
38.46952590380155
 20
-33.32486266933293
 30
0.0
 11
31.28290258843332
 21
-29.17566376364064
 31
0.0
  0
LINE
  5
3F45
330
3E58
100
AcDbEntity
  8
0
100
AcDbLine
 10
31.45747277467511
 20
-28.78655395910316
 30
0.0
 11
38.54348385448248
 21
-32.87766436351062
 31
0.0
  0
LINE
  5
3F46
330
3E58
100
AcDbEntity
  8
0
100
AcDbLine
 10
45.5996083985365
 20
-36.95151976845573
 30
0.0
 11
56.22115338414618
 21
-43.08387162510719
 31
0.0
  0
LINE
  5
3F47
330
3E58
100
AcDbEntity
  8
0
100
AcDbLine
 10
-10.97396252707033
 20
-4.288753365538253
 30
0.0
 11
-3.882923016710377
 21
-8.382766935678848
 31
0.0
  0
LINE
  5
3F48
330
3E58
100
AcDbEntity
  8
0
100
AcDbLine
 10
59.74174402226745
 20
-45.11648557773298
 30
0.0
 11
66.83278353262739
 21
-49.21049914787356
 31
0.0
  0
ELLIPSE
  5
3F49
330
3E58
100
AcDbEntity
  8
0
100
AcDbEllipse
 10
22.24221347730845
 20
-97.97232398178302
 30
0.0
 11
1.250000000000129
 21
2.165063509461021
 31
0.0
210
0.0
220
0.0
230
1.0
 40
0.5773502691896254
 41
0.0
 42
6.283185307179586
  0
ELLIPSE
  5
3F4A
330
3E58
100
AcDbEntity
  8
0
100
AcDbEllipse
 10
35.99221347751316
 20
-79.93012806972538
 30
0.0
 11
-0.4000000000000421
 21
-0.6928203230275285
 31
0.0
210
0.0
220
0.0
230
1.0
 40
0.5773502691896252
 41
2.094395102375143
 42
2.276828566511582
  0
LINE
  5
3F4B
330
3E58
100
AcDbEntity
  8
0
100
AcDbLine
 10
36.53862363902428
 20
-79.78371790822464
 30
0.0
 11
35.74615539370102
 21
-83.65631317243071
 31
0.0
  0
ELLIPSE
  5
3F4C
330
3E58
100
AcDbEntity
  8
0
100
AcDbEllipse
 10
35.1997452321899
 20
-83.80272333393145
 30
0.0
 11
-0.4000000000000414
 21
-0.6928203230275268
 31
0.0
210
0.0
220
0.0
230
1.0
 40
0.5773502691896254
 41
0.0
 42
2.094395102375107
  0
LINE
  5
3F4D
330
3E58
100
AcDbEntity
  8
0
100
AcDbLine
 10
34.79974523218264
 20
-84.49554365695481
 30
0.0
 11
32.63468172276092
 21
-83.24554365688657
 31
0.0
  0
ELLIPSE
  5
3F4E
330
3E58
100
AcDbEntity
  8
0
100
AcDbEllipse
 10
33.03468172276819
 20
-82.5527233338632
 30
0.0
 11
-0.4000000000072803
 21
-0.6928203230233491
 31
0.0
210
0.0
220
0.0
230
1.0
 40
0.5773502691896257
 41
4.188790204822794
 42
6.283185307252373
  0
LINE
  5
3F4F
330
3E58
100
AcDbEntity
  8
0
100
AcDbLine
 10
32.88827156126437
 20
-82.00631317234062
 30
0.0
 11
35.84580331600934
 21
-79.38371790820278
 31
0.0
  0
ELLIPSE
  5
3F50
330
3E58
100
AcDbEntity
  8
0
100
AcDbEllipse
 10
35.99221347751316
 20
-79.93012806972538
 30
0.0
 11
0.4000000000000007
 21
0.692820323027552
 31
0.0
210
0.0
220
0.0
230
1.0
 40
0.577350269189626
 41
0.0802385882704746
 42
1.047197551178412
  0
LINE
  5
3F51
330
3E58
100
AcDbEntity
  8
0
100
AcDbLine
 10
36.3588655152474
 20
-79.22102638814912
 30
0.0
 11
36.55611822539753
 21
-79.6563447085267
 31
0.0
  0
ELLIPSE
  5
3F52
330
3E58
100
AcDbEntity
  8
0
100
AcDbEllipse
 10
34.13908506041011
 20
-83.1903508982357
 30
0.0
 11
-0.4000000000072797
 21
-0.6928203230233481
 31
0.0
210
0.0
220
0.0
230
1.0
 40
0.5773502691896257
 41
0.0000000000727867
 42
2.094395102429601
  0
LINE
  5
3F53
330
3E58
100
AcDbEntity
  8
0
100
AcDbLine
 10
34.6854952219212
 20
-83.04394073673492
 30
0.0
 11
35.74615539370102
 21
-83.65631317243071
 31
0.0
  0
LINE
  5
3F54
330
3E58
100
AcDbEntity
  8
0
100
AcDbLine
 10
34.6854952219212
 20
-83.04394073673492
 30
0.0
 11
35.34332473807185
 21
-79.82929146348765
 31
0.0
  0
LINE
  5
3F55
330
3E58
100
AcDbEntity
  8
0
100
AcDbLine
 10
35.84580331599672
 20
-79.38371790822464
 30
0.0
 11
36.53862363902428
 21
-79.78371790822464
 31
0.0
  0
LINE
  5
3F56
330
3E58
100
AcDbEntity
  8
0
100
AcDbLine
 10
35.94736444950253
 20
-79.30488055214353
 30
0.0
 11
36.55611822539753
 21
-79.6563447085267
 31
0.0
  0
ELLIPSE
  5
3F57
330
3E58
100
AcDbEntity
  8
0
100
AcDbEllipse
 10
21.18155330552866
 20
-97.35995154608723
 30
0.0
 11
1.24999999999987
 21
2.165063509461171
 31
0.0
210
0.0
220
0.0
230
1.0
 40
0.5773502691896257
 41
3.579741684173534
 42
5.845036276595009
  0
LINE
  5
3F58
330
3E58
100
AcDbEntity
  8
0
100
AcDbLine
 10
-58.98192060934245
 20
-28.56088780580209
 30
0.0
 11
-72.48192060875054
 21
-51.94357370628707
 31
0.0
  0
LINE
  5
3F59
330
3E58
100
AcDbEntity
  8
0
100
AcDbLine
 10
-57.92126043756238
 20
-29.17326024149802
 30
0.0
 11
-71.42126043697072
 21
-52.55594614198286
 31
0.0
  0
ELLIPSE
  5
3F5A
330
3E58
100
AcDbEntity
  8
0
100
AcDbEllipse
 10
-67.23192060868232
 20
-52.08791127362385
 30
0.0
 11
1.24999999999987
 21
2.165063509461171
 31
0.0
210
0.0
220
0.0
230
0.9999999999999998
 40
0.5773502691896254
 41
3.579741684173539
 42
5.845036276595013
  0
ELLIPSE
  5
3F5B
330
3E58
100
AcDbEntity
  8
0
100
AcDbEllipse
 10
-54.27438885380085
 20
-37.91831062577231
 30
0.0
 11
-0.4000000000072797
 21
-0.6928203230233481
 31
0.0
210
0.0
220
0.0
230
1.0
 40
0.5773502691896257
 41
0.0000000000727879
 42
2.094395102429583
  0
LINE
  5
3F5C
330
3E58
100
AcDbEntity
  8
0
100
AcDbLine
 10
-53.72797869228976
 20
-37.77190046427155
 30
0.0
 11
-53.07014917613912
 21
-34.55725119102428
 31
0.0
  0
LINE
  5
3F5D
330
3E58
100
AcDbEntity
  8
0
100
AcDbLine
 10
-52.66731852050995
 20
-38.38427289996733
 30
0.0
 11
-53.72797869228976
 21
-37.77190046427155
 31
0.0
  0
LINE
  5
3F5E
330
3E58
100
AcDbEntity
  8
0
100
AcDbLine
 10
-51.87485027518668
 20
-34.51167763576127
 30
0.0
 11
-52.66731852050995
 21
-38.38427289996733
 31
0.0
  0
LINE
  5
3F5F
330
3E58
100
AcDbEntity
  8
0
100
AcDbLine
 10
-51.87485027518668
 20
-34.51167763576127
 30
0.0
 11
-52.56767059822152
 21
-34.11167763575706
 31
0.0
  0
ELLIPSE
  5
3F60
330
3E58
100
AcDbEntity
  8
0
100
AcDbEllipse
 10
-52.42126043669781
 20
-34.65808779726201
 30
0.0
 11
0.4000000000000002
 21
0.6928203230275524
 31
0.0
210
0.0
220
0.0
230
0.9999999999999998
 40
0.5773502691896254
 41
5.235987755964796
 42
7.330382858357991
  0
LINE
  5
3F61
330
3E58
100
AcDbEntity
  8
0
100
AcDbLine
 10
-55.52520235294661
 20
-36.73427289987726
 30
0.0
 11
-52.56767059820163
 21
-34.11167763573942
 31
0.0
  0
ELLIPSE
  5
3F62
330
3E58
100
AcDbEntity
  8
0
100
AcDbEllipse
 10
-55.37879219144277
 20
-37.28068306139984
 30
0.0
 11
-0.4000000000072795
 21
-0.6928203230233495
 31
0.0
210
0.0
220
0.0
230
0.9999999999999998
 40
0.5773502691896258
 41
4.188790204822788
 42
6.283185307252363
  0
LINE
  5
3F63
330
3E58
100
AcDbEntity
  8
0
100
AcDbLine
 10
-53.61372868202835
 20
-39.22350338449144
 30
0.0
 11
-55.77879219145004
 21
-37.97350338442321
 31
0.0
  0
ELLIPSE
  5
3F64
330
3E58
100
AcDbEntity
  8
0
100
AcDbEllipse
 10
-53.21372868202107
 20
-38.53068306146808
 30
0.0
 11
-0.4000000000000411
 21
-0.6928203230275276
 31
0.0
210
0.0
220
0.0
230
1.0
 40
0.5773502691896258
 41
0.0
 42
2.094395102375102
  0
ELLIPSE
  5
3F65
330
3E58
100
AcDbEntity
  8
0
100
AcDbEllipse
 10
-66.17126043690252
 20
-52.70028370931962
 30
0.0
 11
1.250000000000127
 21
2.165063509461022
 31
0.0
210
0.0
220
0.0
230
1.0
 40
0.5773502691896258
 41
0.0
 42
6.283185307179586
  0
LINE
  5
3F66
330
3E58
100
AcDbEntity
  8
0
100
AcDbLine
 10
-14.93345108852422
 20
-4.193408850891926
 30
0.0
 11
-52.49699636841428
 21
-69.25537778807568
 31
0.0
  0
LINE
  5
3F67
330
3E58
100
AcDbEntity
  8
0
100
AcDbLine
 10
-53.22126043712618
 20
-68.83722373304046
 30
0.0
 11
-52.49699636841428
 21
-69.25537778807568
 31
0.0
  0
LINE
  5
3F68
330
3E58
100
AcDbEntity
  8
0
100
AcDbLine
 10
-53.22126043712621
 20
-68.8372237330405
 30
0.0
 11
-16.52126043791422
 21
-5.270959096627407
 31
0.0
  0
ENDBLK
  5
3E5A
330
3E58
100
AcDbEntity
  8
0
100
AcDbBlockEnd
  0
ENDSEC
  0
SECTION
  2
ENTITIES
  0
INSERT
  5
3F69
330
1F
100
AcDbEntity
  8
0
100
AcDbBlockReference
  2
SPR120_160-Front
 10
0.0
 20
0.0
 30
0.0
  0
INSERT
  5
3F6A
330
1F
100
AcDbEntity
  8
0
100
AcDbBlockReference
  2
SPR120_160-Left
 10
167.4229986469887
 20
0.0
 30
0.0
  0
INSERT
  5
3F6B
330
1F
100
AcDbEntity
  8
0
100
AcDbBlockReference
  2
SPR120_160-Right
 10
-167.4229986469887
 20
0.0
 30
0.0
  0
INSERT
  5
3F6C
330
1F
100
AcDbEntity
  8
0
100
AcDbBlockReference
  2
SPR120_160-Top
 10
0.0
 20
-120.5456017059509
 30
0.0
  0
INSERT
  5
3F6D
330
1F
100
AcDbEntity
  8
0
100
AcDbBlockReference
  2
SPR120_160-Bottom
 10
0.0
 20
225.5659080859887
 30
0.0
  0
INSERT
  5
3F6E
330
1F
100
AcDbEntity
  8
0
100
AcDbBlockReference
  2
SPR120_160-ISO
 10
239.9049192557392
 20
-250.2002345366272
 30
0.0
  0
MTEXT
  5
3F6F
330
1F
100
AcDbEntity
  8
0
100
AcDbMText
 10
0.0
 20
-267.4445760657996
 30
0.0
 40
21.63196936199623
 41
0.0
 71
     5
 72
     5
  1
SPR120/160
 73
     1
 44
1.0
1001
ACAD
1000
MTEXTBEGIN
1070
    73
1070
     1
1070
    44
1040
1.0
1070
    74
1070
     0
1000
MTEXTEND
  0
ENDSEC
  0
SECTION
  2
OBJECTS
  0
DICTIONARY
  5
C
330
0
100
AcDbDictionary
281
     1
  3
ACAD_CIP_PREVIOUS_PRODUCT_INFO
350
216
  3
ACAD_COLOR
350
6B
  3
ACAD_DETAILVIEWSTYLE
350
21B
  3
ACAD_GROUP
350
D
  3
ACAD_LAYOUT
350
1A
  3
ACAD_MATERIAL
350
6A
  3
ACAD_MLEADERSTYLE
350
12D
  3
ACAD_MLINESTYLE
350
17
  3
ACAD_PLOTSETTINGS
350
19
  3
ACAD_PLOTSTYLENAME
350
E
  3
ACAD_SCALELIST
350
10C
  3
ACAD_SECTIONVIEWSTYLE
350
219
  3
ACAD_TABLESTYLE
350
7E
  3
ACAD_VISUALSTYLE
350
EF
  3
ACDB_RECOMPOSE_DATA
350
4070
  3
AcDbVariableDictionary
350
5E
  3
DWGPROPS
350
4071
  0
DICTIONARY
  5
3FC0
330
8
100
AcDbDictionary
280
     1
281
     1
  0
DICTIONARY
  5
1FF
330
2
100
AcDbDictionary
280
     1
281
     1
  3
ACAD_LAYERSTATES
360
200
  0
DICTIONARY
  5
13C
330
10
100
AcDbDictionary
280
     1
281
     1
  0
DICTIONARY
  5
1CE
330
1F
100
AcDbDictionary
280
     1
281
     1
  3
ACAD_LAYOUTSELFREF
360
3FC8
  0
DICTIONARY
  5
3F73
330
D2
100
AcDbDictionary
280
     1
281
     1
  3
ACAD_LAYOUTSELFREF
360
3FD1
  0
DICTIONARY
  5
3F75
330
D6
100
AcDbDictionary
280
     1
281
     1
  3
ACAD_LAYOUTSELFREF
360
3FD4
  0
XRECORD
  5
216
102
{ACAD_REACTORS
330
C
102
}
330
C
100
AcDbXrecord
280
     1
300
ACD
300
2021
300
87393ACD_2021_0F
  0
DICTIONARY
  5
6B
102
{ACAD_REACTORS
330
C
102
}
330
C
100
AcDbDictionary
281
     1
  0
DICTIONARY
  5
21B
102
{ACAD_REACTORS
330
C
102
}
330
C
100
AcDbDictionary
281
     1
  3
Metric50
350
21C
  0
DICTIONARY
  5
D
102
{ACAD_REACTORS
330
C
102
}
330
C
100
AcDbDictionary
281
     1
  0
DICTIONARY
  5
1A
102
{ACAD_REACTORS
330
C
102
}
330
C
100
AcDbDictionary
281
     1
  3
Layout1
350
D3
  3
Layout2
350
D7
  3
Model
350
22
  0
DICTIONARY
  5
6A
102
{ACAD_REACTORS
330
C
102
}
330
C
100
AcDbDictionary
281
     1
  3
ByBlock
350
ED
  3
ByLayer
350
EC
  3
Global
350
EE
  0
DICTIONARY
  5
12D
102
{ACAD_REACTORS
330
C
102
}
330
C
100
AcDbDictionary
281
     1
  3
Standard
350
12E
  0
DICTIONARY
  5
17
102
{ACAD_REACTORS
330
C
102
}
330
C
100
AcDbDictionary
281
     1
  3
Standard
350
18
  0
DICTIONARY
  5
19
102
{ACAD_REACTORS
330
C
102
}
330
C
100
AcDbDictionary
281
     1
  0
ACDBDICTIONARYWDFLT
  5
E
102
{ACAD_REACTORS
330
C
102
}
330
C
100
AcDbDictionary
281
     1
  3
Normal
350
F
100
AcDbDictionaryWithDefault
340
F
  0
DICTIONARY
  5
10C
102
{ACAD_REACTORS
330
C
102
}
330
C
100
AcDbDictionary
281
     1
  3
A0
350
10D
  3
A1
350
1BE
  3
A2
350
1BF
  3
A3
350
1C0
  3
A4
350
1C1
  3
A5
350
1C2
  3
A6
350
1C3
  3
A7
350
1C4
  3
A8
350
1C5
  3
A9
350
1C6
  3
B0
350
1C7
  3
B1
350
1C8
  3
B2
350
1C9
  3
B3
350
1CA
  3
B4
350
1CB
  3
B5
350
1CC
  3
B6
350
1CD
  0
DICTIONARY
  5
219
102
{ACAD_REACTORS
330
C
102
}
330
C
100
AcDbDictionary
281
     1
  3
Metric50
350
21A
  0
DICTIONARY
  5
7E
102
{ACAD_REACTORS
330
C
102
}
330
C
100
AcDbDictionary
281
     1
  3
Standard
350
7F
  0
DICTIONARY
  5
EF
102
{ACAD_REACTORS
330
C
102
}
330
C
100
AcDbDictionary
281
     1
  3
2dWireframe
350
F5
  3
Basic
350
F4
  3
Brighten
350
FB
  3
ColorChange
350
FF
  3
Conceptual
350
F8
  3
Dim
350
FA
  3
EdgeColorOff
350
1E6
  3
Facepattern
350
FE
  3
Flat
350
F0
  3
FlatWithEdges
350
F1
  3
Gouraud
350
F2
  3
GouraudWithEdges
350
F3
  3
Hidden
350
F7
  3
JitterOff
350
1E4
  3
Linepattern
350
FD
  3
OverhangOff
350
1E5
  3
Realistic
350
F9
  3
Shaded
350
1F3
  3
Shaded with edges
350
1F2
  3
Shades of Gray
350
1EF
  3
Sketchy
350
1F0
  3
Thicken
350
FC
  3
Wireframe
350
F6
  3
X-Ray
350
1F1
  0
XRECORD
  5
4070
102
{ACAD_REACTORS
330
C
102
}
330
C
100
AcDbXrecord
280
     1
 90
        1
330
7F
  0
DICTIONARY
  5
5E
102
{ACAD_REACTORS
330
C
102
}
330
C
100
AcDbDictionary
281
     1
  3
CANNOSCALE
350
146
  3
CENTEREXE
350
259
  3
CENTERLTYPEFILE
350
25A
  3
CMLEADERSTYLE
350
145
  3
CTABLESTYLE
350
84
  3
CVIEWDETAILSTYLE
350
227
  3
CVIEWSECTIONSTYLE
350
228
  3
DIMASSOC
350
5F
  3
HIDETEXT
350
63
  3
INDEXCTL
350
401D
  3
LAYEREVAL
350
1AE
  3
LAYERNOTIFY
350
1AF
  3
LIGHTINGUNITS
350
401B
  3
MSLTSCALE
350
401A
  3
PSOLHEIGHT
350
406D
  3
PSOLWIDTH
350
406C
  3
SORTENTS
350
401C
  3
XCLIPFRAME
350
406E
  0
XRECORD
  5
4071
102
{ACAD_REACTORS
330
C
102
}
330
C
100
AcDbXrecord
280
     1
  1
DWGPROPS COOKIE
  2

  3

  4

  6

  7

  8
truole
  9

300
=
301
=
302
=
303
=
304
=
305
=
306
=
307
=
308
=
309
=
 40
0.002037037037037
 41
2460719.40650463
 42
2460719.411319444
  1

 90
        0
  0
DICTIONARY
  5
200
102
{ACAD_REACTORS
330
1FF
102
}
330
1FF
100
AcDbDictionary
281
     1
  0
XRECORD
  5
3FC8
102
{ACAD_REACTORS
330
1CE
102
}
330
1CE
100
AcDbXrecord
280
     1
340
1F
  0
XRECORD
  5
3FD1
102
{ACAD_REACTORS
330
3F73
102
}
330
3F73
100
AcDbXrecord
280
     1
340
D2
  0
XRECORD
  5
3FD4
102
{ACAD_REACTORS
330
3F75
102
}
330
3F75
100
AcDbXrecord
280
     1
340
D6
  0
ACDBDETAILVIEWSTYLE
  5
21C
102
{ACAD_XDICTIONARY
360
40B0
102
}
102
{ACAD_REACTORS
330
21B
102
}
330
21B
100
AcDbModelDocViewStyle
 70
     0
  3
Metric50
290
     0
100
AcDbDetailViewStyle
 70
     0
 71
     0
 90
        3
 71
     1
340
11
 40
5.0
340
0
 40
5.0
300

 40
0.0
280
     1
 71
     2
340
16
 90
       25
 71
     3
340
11
 40
5.0
 90
        0
 40
15.0
 90
        1
300
%<\AcVar ViewDetailId>% (%<\AcVar ViewScale \f "%sn">%)
 71
     4
340
16
 90
       25
340
16
 90
       25
280
     0
  0
LAYOUT
  5
D3
102
{ACAD_XDICTIONARY
360
4075
102
}
102
{ACAD_REACTORS
330
1A
102
}
330
1A
100
AcDbPlotSettings
  1

  2
C:\Documents and Settings\basas\Application Data\Autodesk\AutoCAD 2005\R16.1\enu\plotters\Default Windows System Printer.pc3
  4

  6

 40
0.0
 41
0.0
 42
0.0
 43
0.0
 44
0.0
 45
0.0
 46
0.0
 47
0.0
 48
0.0
 49
0.0
140
0.0
141
0.0
142
1.0
143
1.0
 70
   688
 72
     0
 73
     0
 74
     5
  7

 75
    16
147
1.0
148
0.0
149
0.0
100
AcDbLayout
  1
Layout1
 70
     1
 71
     1
 10
0.0
 20
0.0
 11
12.0
 21
9.0
 12
0.0
 22
0.0
 32
0.0
 14
0.0
 24
0.0
 34
0.0
 15
0.0
 25
0.0
 35
0.0
146
0.0
 13
0.0
 23
0.0
 33
0.0
 16
1.0
 26
0.0
 36
0.0
 17
0.0
 27
1.0
 37
0.0
 76
     0
330
D2
  0
LAYOUT
  5
D7
102
{ACAD_XDICTIONARY
360
4077
102
}
102
{ACAD_REACTORS
330
1A
102
}
330
1A
100
AcDbPlotSettings
  1

  2
C:\Documents and Settings\basas\Application Data\Autodesk\AutoCAD 2005\R16.1\enu\plotters\Default Windows System Printer.pc3
  4

  6

 40
0.0
 41
0.0
 42
0.0
 43
0.0
 44
0.0
 45
0.0
 46
0.0
 47
0.0
 48
0.0
 49
0.0
140
0.0
141
0.0
142
1.0
143
1.0
 70
   688
 72
     0
 73
     0
 74
     5
  7

 75
    16
147
1.0
148
0.0
149
0.0
100
AcDbLayout
  1
Layout2
 70
     1
 71
     2
 10
0.0
 20
0.0
 11
12.0
 21
9.0
 12
0.0
 22
0.0
 32
0.0
 14
0.0
 24
0.0
 34
0.0
 15
0.0
 25
0.0
 35
0.0
146
0.0
 13
0.0
 23
0.0
 33
0.0
 16
1.0
 26
0.0
 36
0.0
 17
0.0
 27
1.0
 37
0.0
 76
     0
330
D6
  0
LAYOUT
  5
22
102
{ACAD_XDICTIONARY
360
4072
102
}
102
{ACAD_REACTORS
330
1A
102
}
330
1A
100
AcDbPlotSettings
  1

  2
none_device
  4
ISO_A4_(210.00_x_297.00_MM)
  6

 40
7.5
 41
20.0
 42
7.5
 43
20.0
 44
210.0
 45
297.0
 46
11.54999923706054
 47
-13.65000009536743
 48
0.0
 49
0.0
140
0.0
141
0.0
142
1.0
143
8.704084754739808
 70
 11952
 72
     1
 73
     0
 74
     0
  7

 75
     0
147
0.1148885871608098
148
0.0
149
0.0
100
AcDbLayout
  1
Model
 70
     1
 71
     0
 10
0.0
 20
0.0
 11
12.0
 21
9.0
 12
0.0
 22
0.0
 32
0.0
 14
0.0
 24
0.0
 34
0.0
 15
0.0
 25
0.0
 35
0.0
146
0.0
 13
0.0
 23
0.0
 33
0.0
 16
1.0
 26
0.0
 36
0.0
 17
0.0
 27
1.0
 37
0.0
 76
     0
330
1F
331
EA
1001
ACAD_PSEXT
1000
None
1000
None
1000
Not applicable
1000
The layout will not be plotted unless a new plotter configuration name is selected.
1070
     0
  0
MATERIAL
  5
ED
102
{ACAD_XDICTIONARY
360
1F9
102
}
102
{ACAD_REACTORS
330
6A
102
}
330
6A
100
AcDbMaterial
  1
ByBlock
  0
MATERIAL
  5
EC
102
{ACAD_XDICTIONARY
360
1F7
102
}
102
{ACAD_REACTORS
330
6A
102
}
330
6A
100
AcDbMaterial
  1
ByLayer
  0
MATERIAL
  5
EE
102
{ACAD_XDICTIONARY
360
173
102
}
102
{ACAD_REACTORS
330
6A
102
}
330
6A
100
AcDbMaterial
  1
Global
 43
0.0007999999797903
 43
0.0
 43
0.0
 43
0.0
 43
0.0
 43
0.0007999999797903
 43
0.0
 43
0.0
 43
0.0
 43
0.0
 43
1.0
 43
0.0
 43
0.0
 43
0.0
 43
0.0
 43
1.0
 49
0.0007999999797903
 49
0.0
 49
0.0
 49
0.0
 49
0.0
 49
0.0007999999797903
 49
0.0
 49
0.0
 49
0.0
 49
0.0
 49
1.0
 49
0.0
 49
0.0
 49
0.0
 49
0.0
 49
1.0
142
0.0007999999797903
142
0.0
142
0.0
142
0.0
142
0.0
142
0.0007999999797903
142
0.0
142
0.0
142
0.0
142
0.0
142
1.0
142
0.0
142
0.0
142
0.0
142
0.0
142
1.0
144
0.0007999999797903
144
0.0
144
0.0
144
0.0
144
0.0
144
0.0007999999797903
144
0.0
144
0.0
144
0.0
144
0.0
144
1.0
144
0.0
144
0.0
144
0.0
144
0.0
144
1.0
1001
ACAD
1070
    -1
1070
     3
1070
     0
1000

1071
        0
1070
     0
  0
MLEADERSTYLE
  5
12E
102
{ACAD_XDICTIONARY
360
409C
102
}
102
{ACAD_REACTORS
330
12D
102
}
330
12D
100
AcDbMLeaderStyle
170
     2
171
     1
172
     0
 90
        2
 40
0.0
 41
0.0
173
     1
 91
-1056964608
340
14
 92
       -2
290
     1
 42
2.0
291
     1
 43
8.0
  3
Standard
 44
4.0
300

342
11
174
     1
178
     1
175
     1
176
     0
 93
-1056964608
 45
4.0
292
     0
297
     0
 46
4.0
 94
-1056964608
 47
1.0
 49
1.0
140
1.0
293
     1
141
0.0
294
     1
177
     0
142
1.0
295
     0
296
     0
143
3.75
1001
ACAD_MLEADERVER
1070
     2
  0
MLINESTYLE
  5
18
102
{ACAD_REACTORS
330
17
102
}
330
17
100
AcDbMlineStyle
  2
STANDARD
 70
     0
  3

 62
   256
 51
90.0
 52
90.0
 71
     2
 49
0.5
 62
   256
  6
BYLAYER
 49
-0.5
 62
   256
  6
BYLAYER
  0
ACDBPLACEHOLDER
  5
F
102
{ACAD_REACTORS
330
E
102
}
330
E
  0
SCALE
  5
10D
102
{ACAD_REACTORS
330
10C
102
}
330
10C
100
AcDbScale
 70
     0
300
1:1
140
1.0
141
1.0
290
     1
  0
SCALE
  5
1BE
102
{ACAD_REACTORS
330
10C
102
}
330
10C
100
AcDbScale
 70
     0
300
1:2
140
1.0
141
2.0
290
     0
  0
SCALE
  5
1BF
102
{ACAD_REACTORS
330
10C
102
}
330
10C
100
AcDbScale
 70
     0
300
1:4
140
1.0
141
4.0
290
     0
  0
SCALE
  5
1C0
102
{ACAD_REACTORS
330
10C
102
}
330
10C
100
AcDbScale
 70
     0
300
1:5
140
1.0
141
5.0
290
     0
  0
SCALE
  5
1C1
102
{ACAD_REACTORS
330
10C
102
}
330
10C
100
AcDbScale
 70
     0
300
1:8
140
1.0
141
8.0
290
     0
  0
SCALE
  5
1C2
102
{ACAD_REACTORS
330
10C
102
}
330
10C
100
AcDbScale
 70
     0
300
1:10
140
1.0
141
10.0
290
     0
  0
SCALE
  5
1C3
102
{ACAD_REACTORS
330
10C
102
}
330
10C
100
AcDbScale
 70
     0
300
1:16
140
1.0
141
16.0
290
     0
  0
SCALE
  5
1C4
102
{ACAD_REACTORS
330
10C
102
}
330
10C
100
AcDbScale
 70
     0
300
1:20
140
1.0
141
20.0
290
     0
  0
SCALE
  5
1C5
102
{ACAD_REACTORS
330
10C
102
}
330
10C
100
AcDbScale
 70
     0
300
1:30
140
1.0
141
30.0
290
     0
  0
SCALE
  5
1C6
102
{ACAD_REACTORS
330
10C
102
}
330
10C
100
AcDbScale
 70
     0
300
1:40
140
1.0
141
40.0
290
     0
  0
SCALE
  5
1C7
102
{ACAD_REACTORS
330
10C
102
}
330
10C
100
AcDbScale
 70
     0
300
1:50
140
1.0
141
50.0
290
     0
  0
SCALE
  5
1C8
102
{ACAD_REACTORS
330
10C
102
}
330
10C
100
AcDbScale
 70
     0
300
1:100
140
1.0
141
100.0
290
     0
  0
SCALE
  5
1C9
102
{ACAD_REACTORS
330
10C
102
}
330
10C
100
AcDbScale
 70
     0
300
2:1
140
2.0
141
1.0
290
     0
  0
SCALE
  5
1CA
102
{ACAD_REACTORS
330
10C
102
}
330
10C
100
AcDbScale
 70
     0
300
4:1
140
4.0
141
1.0
290
     0
  0
SCALE
  5
1CB
102
{ACAD_REACTORS
330
10C
102
}
330
10C
100
AcDbScale
 70
     0
300
8:1
140
8.0
141
1.0
290
     0
  0
SCALE
  5
1CC
102
{ACAD_REACTORS
330
10C
102
}
330
10C
100
AcDbScale
 70
     0
300
10:1
140
10.0
141
1.0
290
     0
  0
SCALE
  5
1CD
102
{ACAD_REACTORS
330
10C
102
}
330
10C
100
AcDbScale
 70
     0
300
100:1
140
100.0
141
1.0
290
     0
  0
ACDBSECTIONVIEWSTYLE
  5
21A
102
{ACAD_XDICTIONARY
360
40AE
102
}
102
{ACAD_REACTORS
330
219
102
}
330
219
100
AcDbModelDocViewStyle
 70
     0
  3
Metric50
290
     0
100
AcDbSectionViewStyle
 70
     0
 71
     0
 90
      102
 71
     1
340
11
 40
5.0
340
0
340
0
 40
5.0
300
I, O, Q, S, X, Z
 40
10.0
 90
        0
 40
2.5
 90
        0
 71
     2
340
16
 90
       25
340
16
 90
       50
 40
5.0
 40
2.5
 40
5.0
 71
     3
340
11
 40
5.0
 90
        0
 40
15.0
 90
        1
300
%<\AcVar ViewSectionStartId>%-%<\AcVar ViewSectionEndId>% (%<\AcVar ViewScale \f "%sn">%)
 71
     4
300
ANSI31
 40
1.0
 90
        0
290
     0
290
     0
 90
        6
 40
0.0
 40
1.570796326794896
 40
0.2617993877991494
 40
1.308996938995747
 40
-0.2617993877991494
 40
1.832595714594046
  0
TABLESTYLE
  5
7F
102
{ACAD_XDICTIONARY
360
162
102
}
102
{ACAD_REACTORS
330
7E
102
}
330
7E
100
AcDbTableStyle
  3
Standard
 70
     0
 71
     0
 40
1.5
 41
1.5
280
     0
281
     0
  7
Standard
140
4.5
170
     2
 62
     0
 63
     7
283
     0
274
    -2
284
     1
 64
     0
275
    -2
285
     1
 65
     0
276
    -2
286
     1
 66
     0
277
    -2
287
     1
 67
     0
278
    -2
288
     1
 68
     0
279
    -2
289
     1
 69
     0
  7
Standard
140
6.0
170
     5
 62
     0
 63
     7
283
     0
274
    -2
284
     1
 64
     0
275
    -2
285
     1
 65
     0
276
    -2
286
     1
 66
     0
277
    -2
287
     1
 67
     0
278
    -2
288
     1
 68
     0
279
    -2
289
     1
 69
     0
  7
Standard
140
4.5
170
     5
 62
     0
 63
     7
283
     0
274
    -2
284
     1
 64
     0
275
    -2
285
     1
 65
     0
276
    -2
286
     1
 66
     0
277
    -2
287
     1
 67
     0
278
    -2
288
     1
 68
     0
279
    -2
289
     1
 69
     0
  0
VISUALSTYLE
  5
F5
102
{ACAD_XDICTIONARY
360
4086
102
}
102
{ACAD_REACTORS
330
EF
102
}
330
EF
100
AcDbVisualStyle
  2
2dWireframe
 70
     4
 71
     0
 72
     2
 73
     1
 90
        0
 40
-0.6
 41
-30.0
 62
     5
 63
     7
 74
     1
 91
        4
 64
     7
 65
   257
 75
     1
175
     1
 42
1.0
 92
        0
 66
   257
 43
1.0
 76
     1
 77
     6
 78
     2
 67
     7
 79
     5
170
     0
171
     0
290
     0
174
     0
 93
        1
 44
0.0
173
     0
291
     0
 45
0.0
1001
ACAD
1000
AcDbSavedByObjectVersion
1070
     0
  0
VISUALSTYLE
  5
F4
102
{ACAD_XDICTIONARY
360
4084
102
}
102
{ACAD_REACTORS
330
EF
102
}
330
EF
100
AcDbVisualStyle
  2
Basic
 70
     7
 71
     1
 72
     0
 73
     1
 90
        0
 40
-0.6
 41
-30.0
 62
     5
 63
     7
 74
     0
 91
        4
 64
     7
 65
   257
 75
     1
175
     1
 42
1.0
 92
        8
 66
     7
 43
1.0
 76
     1
 77
     6
 78
     2
 67
     7
 79
     5
170
     0
171
     0
290
     0
174
     0
 93
        1
 44
0.0
173
     0
291
     1
 45
0.0
1001
ACAD
1000
AcDbSavedByObjectVersion
1070
     0
  0
VISUALSTYLE
  5
FB
102
{ACAD_XDICTIONARY
360
4092
102
}
102
{ACAD_REACTORS
330
EF
102
}
330
EF
100
AcDbVisualStyle
  2
Brighten
 70
    12
 71
     2
 72
     2
 73
     1
 90
        0
 40
-0.6
 41
-30.0
 62
     5
 63
     7
 74
     1
 91
        4
 64
     7
 65
   257
 75
     1
175
     1
 42
1.0
 92
        8
 66
     7
 43
1.0
 76
     1
 77
     6
 78
     2
 67
     7
 79
     5
170
     0
171
     0
290
     0
174
     0
 93
        1
 44
50.0
173
     0
291
     1
 45
0.0
1001
ACAD
1000
AcDbSavedByObjectVersion
1070
     0
  0
VISUALSTYLE
  5
FF
102
{ACAD_XDICTIONARY
360
409A
102
}
102
{ACAD_REACTORS
330
EF
102
}
330
EF
100
AcDbVisualStyle
  2
ColorChange
 70
    16
 71
     2
 72
     2
 73
     3
 90
        0
 40
-0.6
 41
-30.0
 62
     5
 63
     8
 74
     1
 91
        4
 64
     7
 65
   257
 75
     1
175
     1
 42
1.0
 92
        8
 66
     8
 43
1.0
 76
     1
 77
     6
 78
     2
 67
     7
 79
     5
170
     0
171
     0
290
     0
174
     0
 93
        1
 44
0.0
173
     0
291
     1
 45
0.0
1001
ACAD
1000
AcDbSavedByObjectVersion
1070
     0
  0
VISUALSTYLE
  5
F8
102
{ACAD_XDICTIONARY
360
408C
102
}
102
{ACAD_REACTORS
330
EF
102
}
330
EF
100
AcDbVisualStyle
  2
Conceptual
 70
     9
 71
     3
 72
     2
 73
     1
 90
        0
 40
-0.6
 41
-30.0
 62
     5
 63
     7
 74
     2
 91
        2
 64
     7
 65
   257
 75
     1
175
     1
 42
40.0
 92
        8
 66
     7
 43
1.0
 76
     1
 77
     6
 78
     2
 67
     7
 79
     3
170
     0
171
     0
290
     0
174
     0
 93
        1
 44
0.0
173
     0
291
     0
 45
0.0
1001
ACAD
1000
AcDbSavedByObjectVersion
1070
     0
  0
VISUALSTYLE
  5
FA
102
{ACAD_XDICTIONARY
360
4090
102
}
102
{ACAD_REACTORS
330
EF
102
}
330
EF
100
AcDbVisualStyle
  2
Dim
 70
    11
 71
     2
 72
     2
 73
     1
 90
        0
 40
-0.6
 41
-30.0
 62
     5
 63
     7
 74
     1
 91
        4
 64
     7
 65
   257
 75
     1
175
     1
 42
1.0
 92
        8
 66
     7
 43
1.0
 76
     1
 77
     6
 78
     2
 67
     7
 79
     5
170
     0
171
     0
290
     0
174
     0
 93
        1
 44
-50.0
173
     0
291
     1
 45
0.0
1001
ACAD
1000
AcDbSavedByObjectVersion
1070
     0
  0
VISUALSTYLE
  5
1E6
102
{ACAD_XDICTIONARY
360
40A2
102
}
102
{ACAD_REACTORS
330
EF
102
}
330
EF
100
AcDbVisualStyle
  2
EdgeColorOff
 70
    22
 71
     2
 72
     2
 73
     0
 90
        0
 40
-0.6
 41
-30.0
 62
     5
 63
     7
 74
     1
 91
        4
 64
     7
 65
   257
 75
     1
175
     1
 42
1.0
 92
        8
 66
     7
 43
1.0
 76
     1
 77
     6
 78
     2
 67
     7
 79
     5
170
     0
171
     0
290
     0
174
     0
 93
        1
 44
0.0
173
     0
291
     1
 45
0.0
1001
ACAD
1000
AcDbSavedByObjectVersion
1070
     0
  0
VISUALSTYLE
  5
FE
102
{ACAD_XDICTIONARY
360
4098
102
}
102
{ACAD_REACTORS
330
EF
102
}
330
EF
100
AcDbVisualStyle
  2
Facepattern
 70
    15
 71
     2
 72
     2
 73
     1
 90
        0
 40
-0.6
 41
-30.0
 62
     5
 63
     7
 74
     1
 91
        4
 64
     7
 65
   257
 75
     1
175
     1
 42
1.0
 92
        8
 66
     7
 43
1.0
 76
     1
 77
     6
 78
     2
 67
     7
 79
     5
170
     0
171
     0
290
     0
174
     0
 93
        1
 44
0.0
173
     0
291
     1
 45
0.0
1001
ACAD
1000
AcDbSavedByObjectVersion
1070
     0
  0
VISUALSTYLE
  5
F0
102
{ACAD_XDICTIONARY
360
407C
102
}
102
{ACAD_REACTORS
330
EF
102
}
330
EF
100
AcDbVisualStyle
  2
Flat
 70
     0
 71
     2
 72
     1
 73
     1
 90
        2
 40
-0.6
 41
30.0
 62
     5
 63
     7
 74
     0
 91
        0
 64
     7
 65
   257
 75
     1
175
     1
 42
1.0
 92
        8
 66
     7
 43
1.0
 76
     1
 77
     6
 78
     2
 67
     7
 79
     5
170
     0
171
     0
290
     0
174
     0
 93
       13
 44
0.0
173
     0
291
     1
 45
0.0
1001
ACAD
1000
AcDbSavedByObjectVersion
1070
     0
  0
VISUALSTYLE
  5
F1
102
{ACAD_XDICTIONARY
360
407E
102
}
102
{ACAD_REACTORS
330
EF
102
}
330
EF
100
AcDbVisualStyle
  2
FlatWithEdges
 70
     1
 71
     2
 72
     1
 73
     1
 90
        2
 40
-0.6
 41
30.0
 62
     5
 63
     7
 74
     1
 91
        0
 64
     7
 65
   257
 75
     1
175
     1
 42
1.0
 92
        0
 66
   257
 43
1.0
 76
     1
 77
     6
 78
     2
 67
     7
 79
     5
170
     0
171
     0
290
     0
174
     0
 93
       13
 44
0.0
173
     0
291
     1
 45
0.0
1001
ACAD
1000
AcDbSavedByObjectVersion
1070
     0
  0
VISUALSTYLE
  5
F2
102
{ACAD_XDICTIONARY
360
4080
102
}
102
{ACAD_REACTORS
330
EF
102
}
330
EF
100
AcDbVisualStyle
  2
Gouraud
 70
     2
 71
     2
 72
     2
 73
     1
 90
        2
 40
-0.6
 41
30.0
 62
     5
 63
     7
 74
     0
 91
        0
 64
     7
 65
   257
 75
     1
175
     1
 42
1.0
 92
        0
 66
     7
 43
1.0
 76
     1
 77
     6
 78
     2
 67
     7
 79
     5
170
     0
171
     0
290
     0
174
     0
 93
       13
 44
0.0
173
     0
291
     1
 45
0.0
1001
ACAD
1000
AcDbSavedByObjectVersion
1070
     0
  0
VISUALSTYLE
  5
F3
102
{ACAD_XDICTIONARY
360
4082
102
}
102
{ACAD_REACTORS
330
EF
102
}
330
EF
100
AcDbVisualStyle
  2
GouraudWithEdges
 70
     3
 71
     2
 72
     2
 73
     1
 90
        2
 40
-0.6
 41
30.0
 62
     5
 63
     7
 74
     1
 91
        0
 64
     7
 65
   257
 75
     1
175
     1
 42
1.0
 92
        0
 66
   257
 43
1.0
 76
     1
 77
     6
 78
     2
 67
     7
 79
     5
170
     0
171
     0
290
     0
174
     0
 93
       13
 44
0.0
173
     0
291
     1
 45
0.0
1001
ACAD
1000
AcDbSavedByObjectVersion
1070
     0
  0
VISUALSTYLE
  5
F7
102
{ACAD_XDICTIONARY
360
408A
102
}
102
{ACAD_REACTORS
330
EF
102
}
330
EF
100
AcDbVisualStyle
  2
Hidden
 70
     6
 71
     1
 72
     2
 73
     2
 90
        0
 40
-0.6
 41
-30.0
 62
     5
 63
     7
 74
     2
 91
        2
 64
     7
 65
   257
 75
     2
175
     1
 42
40.0
 92
        0
 66
   257
 43
1.0
 76
     1
 77
     6
 78
     2
 67
     7
 79
     3
170
     0
171
     0
290
     0
174
     0
 93
        1
 44
0.0
173
     0
291
     0
 45
0.0
1001
ACAD
1000
AcDbSavedByObjectVersion
1070
     0
  0
VISUALSTYLE
  5
1E4
102
{ACAD_XDICTIONARY
360
409E
102
}
102
{ACAD_REACTORS
330
EF
102
}
330
EF
100
AcDbVisualStyle
  2
JitterOff
 70
    20
 71
     2
 72
     2
 73
     0
 90
        0
 40
-0.6
 41
-30.0
 62
     5
 63
     7
 74
     1
 91
        4
 64
     7
 65
   257
 75
     1
175
     1
 42
1.0
 92
       10
 66
     7
 43
1.0
 76
     1
 77
     6
 78
     2
 67
     7
 79
     5
170
     0
171
     0
290
     0
174
     0
 93
        1
 44
0.0
173
     0
291
     1
 45
0.0
1001
ACAD
1000
AcDbSavedByObjectVersion
1070
     0
  0
VISUALSTYLE
  5
FD
102
{ACAD_XDICTIONARY
360
4096
102
}
102
{ACAD_REACTORS
330
EF
102
}
330
EF
100
AcDbVisualStyle
  2
Linepattern
 70
    14
 71
     2
 72
     2
 73
     1
 90
        0
 40
-0.6
 41
-30.0
 62
     5
 63
     7
 74
     1
 91
        4
 64
     7
 65
   257
 75
     7
175
     7
 42
1.0
 92
        8
 66
     7
 43
1.0
 76
     1
 77
     6
 78
     2
 67
     7
 79
     5
170
     0
171
     0
290
     0
174
     0
 93
        1
 44
0.0
173
     0
291
     1
 45
0.0
1001
ACAD
1000
AcDbSavedByObjectVersion
1070
     0
  0
VISUALSTYLE
  5
1E5
102
{ACAD_XDICTIONARY
360
40A0
102
}
102
{ACAD_REACTORS
330
EF
102
}
330
EF
100
AcDbVisualStyle
  2
OverhangOff
 70
    21
 71
     2
 72
     2
 73
     0
 90
        0
 40
-0.6
 41
-30.0
 62
     5
 63
     7
 74
     1
 91
        4
 64
     7
 65
   257
 75
     1
175
     1
 42
1.0
 92
        9
 66
     7
 43
1.0
 76
     1
 77
     6
 78
     2
 67
     7
 79
     5
170
     0
171
     0
290
     0
174
     0
 93
        1
 44
0.0
173
     0
291
     1
 45
0.0
1001
ACAD
1000
AcDbSavedByObjectVersion
1070
     0
  0
VISUALSTYLE
  5
F9
102
{ACAD_XDICTIONARY
360
408E
102
}
102
{ACAD_REACTORS
330
EF
102
}
330
EF
100
AcDbVisualStyle
  2
Realistic
 70
     8
 71
     2
 72
     2
 73
     0
 90
        2
 40
-0.6
 41
30.0
 62
     5
 63
     7
 74
     0
 91
        0
 64
     7
 65
   257
 75
     1
175
     1
 42
1.0
 92
        8
 66
   257
 43
1.0
 76
     1
 77
     6
 78
     2
 67
     7
 79
     3
170
     0
171
     0
290
     0
174
     0
 93
       13
 44
0.0
173
     0
291
     0
 45
0.0
1001
ACAD
1000
AcDbSavedByObjectVersion
1070
     0
  0
VISUALSTYLE
  5
1F3
102
{ACAD_XDICTIONARY
360
40AC
102
}
102
{ACAD_REACTORS
330
EF
102
}
330
EF
100
AcDbVisualStyle
  2
Shaded
 70
    27
 71
     2
 72
     2
 73
     1
 90
        2
 40
-0.6
 41
30.0
 62
     5
 63
     7
 74
     0
 91
        4
 64
     7
 65
   257
 75
     1
175
     1
 42
1.0
 92
        8
 66
   257
 43
1.0
 76
     1
 77
     6
 78
     2
 67
     8
 79
     3
170
     0
171
     0
290
     0
174
     0
 93
        5
 44
0.0
173
     0
291
     0
 45
0.0
1001
ACAD
1000
AcDbSavedByObjectVersion
1070
     0
  0
VISUALSTYLE
  5
1F2
102
{ACAD_XDICTIONARY
360
40AA
102
}
102
{ACAD_REACTORS
330
EF
102
}
330
EF
100
AcDbVisualStyle
  2
Shaded with edges
 70
    26
 71
     2
 72
     2
 73
     1
 90
        2
 40
-0.6
 41
30.0
 62
     5
 63
     7
 74
     1
 91
        2
 64
     7
 65
   257
 75
     2
175
     1
 42
1.0
 92
        8
 66
   257
 43
1.0
 76
     1
 77
     6
 78
     2
 67
     7
 79
     3
170
     0
171
     0
290
     0
174
     0
 93
        5
 44
0.0
173
     0
291
     0
 45
0.0
1001
ACAD
1000
AcDbSavedByObjectVersion
1070
     0
  0
VISUALSTYLE
  5
1EF
102
{ACAD_XDICTIONARY
360
40A4
102
}
102
{ACAD_REACTORS
330
EF
102
}
330
EF
100
AcDbVisualStyle
  2
Shades of Gray
 70
    23
 71
     2
 72
     2
 73
     3
 90
        0
 40
-0.6
 41
-30.0
 62
     5
 63
     7
 74
     2
 91
        2
 64
     7
 65
     7
 75
     1
175
     1
 42
40.0
 92
        8
 66
     7
 43
1.0
 76
     1
 77
     6
 78
     2
 67
     7
 79
     3
170
     0
171
     0
290
     0
174
     0
 93
        1
 44
0.0
173
     0
291
     0
 45
0.0
1001
ACAD
1000
AcDbSavedByObjectVersion
1070
     0
  0
VISUALSTYLE
  5
1F0
102
{ACAD_XDICTIONARY
360
40A6
102
}
102
{ACAD_REACTORS
330
EF
102
}
330
EF
100
AcDbVisualStyle
  2
Sketchy
 70
    24
 71
     1
 72
     2
 73
     2
 90
        0
 40
-0.6
 41
-30.0
 62
     5
 63
     7
 74
     2
 91
        2
 64
     7
 65
     7
 75
     1
175
     1
 42
40.0
 92
       11
 66
     7
 43
1.0
 76
     1
 77
     6
 78
     2
 67
     7
 79
     6
170
     0
171
     0
290
     0
174
     0
 93
        1
 44
0.0
173
     0
291
     0
 45
0.0
1001
ACAD
1000
AcDbSavedByObjectVersion
1070
     0
  0
VISUALSTYLE
  5
FC
102
{ACAD_XDICTIONARY
360
4094
102
}
102
{ACAD_REACTORS
330
EF
102
}
330
EF
100
AcDbVisualStyle
  2
Thicken
 70
    13
 71
     2
 72
     2
 73
     1
 90
        0
 40
-0.6
 41
-30.0
 62
     5
 63
     7
 74
     1
 91
        4
 64
     7
 65
   257
 75
     1
175
     1
 42
1.0
 92
       12
 66
     7
 43
1.0
 76
     1
 77
     6
 78
     2
 67
     7
 79
     5
170
     0
171
     0
290
     0
174
     0
 93
        1
 44
0.0
173
     0
291
     1
 45
0.0
1001
ACAD
1000
AcDbSavedByObjectVersion
1070
     0
  0
VISUALSTYLE
  5
F6
102
{ACAD_XDICTIONARY
360
4088
102
}
102
{ACAD_REACTORS
330
EF
102
}
330
EF
100
AcDbVisualStyle
  2
Wireframe
 70
     5
 71
     0
 72
     2
 73
     0
 90
        0
 40
-0.6
 41
-30.0
 62
     5
 63
     7
 74
     1
 91
        4
 64
     7
 65
   257
 75
     1
175
     1
 42
1.0
 92
        0
 66
   257
 43
1.0
 76
     1
 77
     6
 78
     2
 67
     7
 79
     3
170
     0
171
     0
290
     0
174
     0
 93
        1
 44
0.0
173
     0
291
     0
 45
0.0
1001
ACAD
1000
AcDbSavedByObjectVersion
1070
     0
  0
VISUALSTYLE
  5
1F1
102
{ACAD_XDICTIONARY
360
40A8
102
}
102
{ACAD_REACTORS
330
EF
102
}
330
EF
100
AcDbVisualStyle
  2
X-Ray
 70
    25
 71
     2
 72
     2
 73
     1
 90
        1
 40
0.5
 41
-30.0
 62
     5
 63
     7
 74
     1
 91
        0
 64
     7
 65
   257
 75
     1
175
     1
 42
1.0
 92
        8
 66
     7
 43
1.0
 76
     1
 77
     6
 78
     2
 67
     7
 79
     3
170
     0
171
     0
290
     0
174
     0
 93
       13
 44
0.0
173
     0
291
     0
 45
0.0
1001
ACAD
1000
AcDbSavedByObjectVersion
1070
     0
  0
DICTIONARYVAR
  5
146
102
{ACAD_REACTORS
330
5E
102
}
330
5E
100
DictionaryVariables
280
     0
  1
1:1
  0
DICTIONARYVAR
  5
259
102
{ACAD_REACTORS
330
5E
102
}
330
5E
100
DictionaryVariables
280
     0
  1
3.500000
  0
DICTIONARYVAR
  5
25A
102
{ACAD_REACTORS
330
5E
102
}
330
5E
100
DictionaryVariables
280
     0
  1
acadiso.lin
  0
DICTIONARYVAR
  5
145
102
{ACAD_REACTORS
330
5E
102
}
330
5E
100
DictionaryVariables
280
     0
  1
STANDARD
  0
DICTIONARYVAR
  5
84
102
{ACAD_REACTORS
330
5E
102
}
330
5E
100
DictionaryVariables
280
     0
  1
STANDARD
  0
DICTIONARYVAR
  5
227
102
{ACAD_REACTORS
330
5E
102
}
330
5E
100
DictionaryVariables
280
     0
  1
Metric50
  0
DICTIONARYVAR
  5
228
102
{ACAD_REACTORS
330
5E
102
}
330
5E
100
DictionaryVariables
280
     0
  1
Metric50
  0
DICTIONARYVAR
  5
5F
102
{ACAD_REACTORS
330
5E
102
}
330
5E
100
DictionaryVariables
280
     0
  1
2
  0
DICTIONARYVAR
  5
63
102
{ACAD_REACTORS
330
5E
102
}
330
5E
100
DictionaryVariables
280
     0
  1
1
  0
DICTIONARYVAR
  5
401D
102
{ACAD_REACTORS
330
5E
102
}
330
5E
100
DictionaryVariables
280
     0
  1
0
  0
DICTIONARYVAR
  5
1AE
102
{ACAD_REACTORS
330
5E
102
}
330
5E
100
DictionaryVariables
280
     0
  1
0
  0
DICTIONARYVAR
  5
1AF
102
{ACAD_REACTORS
330
5E
102
}
330
5E
100
DictionaryVariables
280
     0
  1
0
  0
DICTIONARYVAR
  5
401B
102
{ACAD_REACTORS
330
5E
102
}
330
5E
100
DictionaryVariables
280
     0
  1
2
  0
DICTIONARYVAR
  5
401A
102
{ACAD_REACTORS
330
5E
102
}
330
5E
100
DictionaryVariables
280
     0
  1
1
  0
DICTIONARYVAR
  5
406D
102
{ACAD_REACTORS
330
5E
102
}
330
5E
100
DictionaryVariables
280
     0
  1
80.000000
  0
DICTIONARYVAR
  5
406C
102
{ACAD_REACTORS
330
5E
102
}
330
5E
100
DictionaryVariables
280
     0
  1
5.000000
  0
DICTIONARYVAR
  5
401C
102
{ACAD_REACTORS
330
5E
102
}
330
5E
100
DictionaryVariables
280
     0
  1
127
  0
DICTIONARYVAR
  5
406E
102
{ACAD_REACTORS
330
5E
102
}
330
5E
100
DictionaryVariables
280
     0
  1
2
  0
DICTIONARY
  5
40B0
330
21C
100
AcDbDictionary
280
     1
281
     1
  3
ACAD_XREC_ROUNDTRIP
360
40B1
  0
DICTIONARY
  5
4075
330
D3
100
AcDbDictionary
280
     1
281
     1
  3
ACAD_XREC_ROUNDTRIP
360
4076
  0
DICTIONARY
  5
4077
330
D7
100
AcDbDictionary
280
     1
281
     1
  3
ACAD_XREC_ROUNDTRIP
360
4078
  0
DICTIONARY
  5
4072
330
22
100
AcDbDictionary
280
     1
281
     1
  3
ACAD_XREC_ROUNDTRIP
360
4073
  0
DICTIONARY
  5
1F9
330
ED
100
AcDbDictionary
280
     1
281
     1
  3
ACAD_XREC_ROUNDTRIP
360
407A
  3
FBXASSET
360
1FA
  0
DICTIONARY
  5
1F7
330
EC
100
AcDbDictionary
280
     1
281
     1
  3
ACAD_XREC_ROUNDTRIP
360
4079
  3
FBXASSET
360
1F8
  0
DICTIONARY
  5
173
330
EE
100
AcDbDictionary
280
     1
281
     1
  3
ACAD_XREC_ROUNDTRIP
360
407B
  3
BUMPTILE
360
175
  3
DIFFUSETILE
360
174
  3
FBXASSET
360
1FB
  3
OPACITYTILE
360
176
  3
REFLECTIONTILE
360
177
  0
DICTIONARY
  5
409C
330
12E
100
AcDbDictionary
280
     1
281
     1
  3
ACAD_XREC_ROUNDTRIP
360
409D
  0
DICTIONARY
  5
40AE
330
21A
100
AcDbDictionary
280
     1
281
     1
  3
ACAD_XREC_ROUNDTRIP
360
40AF
  0
DICTIONARY
  5
162
330
7F
100
AcDbDictionary
280
     1
281
     1
  3
ACAD_ROUNDTRIP_2008_TABLESTYLE_CELLSTYLEMAP
360
406F
  3
ACAD_XREC_ROUNDTRIP
360
4074
  0
DICTIONARY
  5
4086
330
F5
100
AcDbDictionary
280
     1
281
     1
  3
ACAD_XREC_ROUNDTRIP
360
4087
  0
DICTIONARY
  5
4084
330
F4
100
AcDbDictionary
280
     1
281
     1
  3
ACAD_XREC_ROUNDTRIP
360
4085
  0
DICTIONARY
  5
4092
330
FB
100
AcDbDictionary
280
     1
281
     1
  3
ACAD_XREC_ROUNDTRIP
360
4093
  0
DICTIONARY
  5
409A
330
FF
100
AcDbDictionary
280
     1
281
     1
  3
ACAD_XREC_ROUNDTRIP
360
409B
  0
DICTIONARY
  5
408C
330
F8
100
AcDbDictionary
280
     1
281
     1
  3
ACAD_XREC_ROUNDTRIP
360
408D
  0
DICTIONARY
  5
4090
330
FA
100
AcDbDictionary
280
     1
281
     1
  3
ACAD_XREC_ROUNDTRIP
360
4091
  0
DICTIONARY
  5
40A2
330
1E6
100
AcDbDictionary
280
     1
281
     1
  3
ACAD_XREC_ROUNDTRIP
360
40A3
  0
DICTIONARY
  5
4098
330
FE
100
AcDbDictionary
280
     1
281
     1
  3
ACAD_XREC_ROUNDTRIP
360
4099
  0
DICTIONARY
  5
407C
330
F0
100
AcDbDictionary
280
     1
281
     1
  3
ACAD_XREC_ROUNDTRIP
360
407D
  0
DICTIONARY
  5
407E
330
F1
100
AcDbDictionary
280
     1
281
     1
  3
ACAD_XREC_ROUNDTRIP
360
407F
  0
DICTIONARY
  5
4080
330
F2
100
AcDbDictionary
280
     1
281
     1
  3
ACAD_XREC_ROUNDTRIP
360
4081
  0
DICTIONARY
  5
4082
330
F3
100
AcDbDictionary
280
     1
281
     1
  3
ACAD_XREC_ROUNDTRIP
360
4083
  0
DICTIONARY
  5
408A
330
F7
100
AcDbDictionary
280
     1
281
     1
  3
ACAD_XREC_ROUNDTRIP
360
408B
  0
DICTIONARY
  5
409E
330
1E4
100
AcDbDictionary
280
     1
281
     1
  3
ACAD_XREC_ROUNDTRIP
360
409F
  0
DICTIONARY
  5
4096
330
FD
100
AcDbDictionary
280
     1
281
     1
  3
ACAD_XREC_ROUNDTRIP
360
4097
  0
DICTIONARY
  5
40A0
330
1E5
100
AcDbDictionary
280
     1
281
     1
  3
ACAD_XREC_ROUNDTRIP
360
40A1
  0
DICTIONARY
  5
408E
330
F9
100
AcDbDictionary
280
     1
281
     1
  3
ACAD_XREC_ROUNDTRIP
360
408F
  0
DICTIONARY
  5
40AC
330
1F3
100
AcDbDictionary
280
     1
281
     1
  3
ACAD_XREC_ROUNDTRIP
360
40AD
  0
DICTIONARY
  5
40AA
330
1F2
100
AcDbDictionary
280
     1
281
     1
  3
ACAD_XREC_ROUNDTRIP
360
40AB
  0
DICTIONARY
  5
40A4
330
1EF
100
AcDbDictionary
280
     1
281
     1
  3
ACAD_XREC_ROUNDTRIP
360
40A5
  0
DICTIONARY
  5
40A6
330
1F0
100
AcDbDictionary
280
     1
281
     1
  3
ACAD_XREC_ROUNDTRIP
360
40A7
  0
DICTIONARY
  5
4094
330
FC
100
AcDbDictionary
280
     1
281
     1
  3
ACAD_XREC_ROUNDTRIP
360
4095
  0
DICTIONARY
  5
4088
330
F6
100
AcDbDictionary
280
     1
281
     1
  3
ACAD_XREC_ROUNDTRIP
360
4089
  0
DICTIONARY
  5
40A8
330
1F1
100
AcDbDictionary
280
     1
281
     1
  3
ACAD_XREC_ROUNDTRIP
360
40A9
  0
XRECORD
  5
40B1
102
{ACAD_REACTORS
330
40B0
102
}
330
40B0
100
AcDbXrecord
280
     1
102
DISPLAYNAME
  1
Metric50
102
FLAGS
 90
        0
  0
XRECORD
  5
4076
102
{ACAD_REACTORS
330
4075
102
}
330
4075
100
AcDbXrecord
280
     1
102
SHADEPLOT
 70
     0
102
SHADEPLOTRESLEVEL
 70
     2
102
SHADEPLOTCUSTOMDPI
 70
   300
  0
XRECORD
  5
4078
102
{ACAD_REACTORS
330
4077
102
}
330
4077
100
AcDbXrecord
280
     1
102
SHADEPLOT
 70
     0
102
SHADEPLOTRESLEVEL
 70
     2
102
SHADEPLOTCUSTOMDPI
 70
   300
  0
XRECORD
  5
4073
102
{ACAD_REACTORS
330
4072
102
}
330
4072
100
AcDbXrecord
280
     1
102
SHADEPLOT
 70
     0
102
SHADEPLOTRESLEVEL
 70
     2
102
SHADEPLOTCUSTOMDPI
 70
   300
  0
XRECORD
  5
407A
102
{ACAD_REACTORS
330
1F9
102
}
330
1F9
100
AcDbXrecord
280
     1
102
MATERIAL
148
0.0
149
0.0
149
0.0
 93
        0
 94
       63
282
     0
 72
     1
 77
     1
171
     1
175
     1
179
     1
273
     0
  0
XRECORD
  5
1FA
102
{ACAD_REACTORS
330
1F9
102
}
330
1F9
100
AcDbXrecord
280
     1
 70
     1
 90
429727718
  1
D62C5603-E3A1-4AEA-B7FB-FE5D8D0755AF
310
504B03040A0000080000CC70623B3DEE336E79000000790000001B0000006175746F6465736B2D64657369676E2D7061636B6167652E786D6C3C3F786D6C2076657273696F6E3D22312E302220656E636F64696E673D227574662D3822203F3E3C666F726D6174733E3C666F726D61743E687474703A2F2F736368656D612E
310
6175746F6465736B2E636F6D2F64657369676E2D7061636B6167652F323030393C2F666F726D61743E3C2F666F726D6174733E504B0304140006080800CC70623BD486FD9CA0000000F4000000130000005B436F6E74656E745F54797065735D2E786D6C7D8EC10E82300C865F65E91D8A1E8C310C0EEA1BF002731658846E
310
D98AC1B77784ABF1D8FE5FBFBF75BBCE937A534CCEB38643598122B6FEE978D0B0485F9C41B54DDD7D022595594E1A469170414C76A4D9A4D207E29CF43ECE46F218070CC6BECC4078ACAA135ACF422C856C0E68EA1BF5669944DDD7BCDE7B1F8E415D77AECB980613C2E4AC91FC167A2B244592486606FC29C8FD7F045B9A
310
EF7053A7E60B504B0304140006080800CC70623B853B8169EB0000007C01000008000000636F72652E786D6C8D90416EC3201045AF62CDB6C206821CC7C244919D9CA01740401C94182C03558F5F9C3852BBEB6A467FFE9B197D7EFC9E1EC5975982F5AE035262288C535E5B377690E21535501C055FBC8FBF6C503839990E
310
5619041F179FE64D52DE45E362569DD7661365082642A11EB9E920A89B99642953CC8E702F67A9EE7234257977194EC9EAE275C4EABCCF5EAD5940D4AC6F0E35A568B8F43562CD7046CD199FD07E60174276A7BE677B5EADB0E0D14EEFFB6A31321A0D82627C4084204C3F096B71DD52F6819B16635EADF63F509AF53FA164
310
5DDCD1EDDD17164090FCC8732078B56691CB33A85CD7DCC40F504B0304140006080800CC70623B55019EA25F0000007C00000007000000636E782E786D6C4DCB3B0E80201045D1AD90E915ED2CF8AC45050C11660C8261F98AB1B07AC9C97D42D718D865D3E909258CFD00CCE24AC6E326A164D74DC0B4128928FF32603847
310
2BA13128B1252AC747C6BAB984FC68F0B87FE8960A5C09FE86CFB69FBA01504B0304140006080800CC70623BDBABAAF470010000D40300000C0000006662782F636F72652E786D6CC553D16E823014FD95A6AF4B694182CC941A83FA05FB810A9511A125A5257EFE2E82712ECEB8A7F100CD39F7F69E734AF9FADC366850B6
310
AF8DCE7018308C942E4C59EB2AC3DE1D498AD15A706B8CFB56869196ADCAF00863C12B6B7C374385D14E6907A836A59A41D9F7CA615434B0C8705F7CAA5606D23BA8E84F41278B93AC54100640439DE0BDB320004D43C63716C7C399D30917DCFBBA9CD9BA8469F5B156168B24CED3F7248AC8769F27244EB73B92EED8862C
310
B7F13E0C179B3C8F979C8ECD82BBBABDAA2BAC924E9558448CBD9330242CFA08E3154B5651FCC6D215639C8EE5774DBE2B5F6CF2B5768B68963BB5F5588420E442FC700B1139D4CB01F450C1E918227C2E09DF070D8140C84E1E9AAB8F1340832A9CB13130A5F1376A908D57309505ECF2A0DF179C4E9D30F5B239B87E3823
310
7A79C6F31DE1A8A5AEC08474B03C7837EAE4938639B44E5932B833D2C6B6B279CDC613877FA26EE21F4A2A4C63EC7F29A2F301D1F9F7A0E37D145F504B0304140006080800CC70623B9C113CC27E0000009D0000000B0000006662782F636E782E786D6C4DCCDF0A83201C86E15B91DFB94BFB330DD428C8FB886521330DA7
310
6397BF1A1DECE883878F57749FCDA1B7892F1BBC047A23808C7F84D9FA55424E0BE6803A256208E9EF06C84F9B91703228B1C690F78B66B34CD9A5439DF5CF0BFBF65E35BCA1B8D6A5C6F540381E886698B5741C695F9503EBA150A2F8958E3DC3EA0B504B0304140006080800CC70623B7DF2F77C2A010000120200003100
310
00006662782F41393633353835312D344632462D344230382D423046372D3739314545314133324237412F636F72652E786D6C8D51DB8EC22014FC15C2939B0D2DB4B45643319AE817EC0F6041255A68B86CFCFC856D4D76DF7CE190393373060EDB3DC707F856CE6B6B7A480A0C81328395DA5C7B18C3057510EC3873D686
310
3F34088C18550F330C39BB3A1BA7051AAC09CA84841A2BD5020AEF55806078A44B0FFD7053A328440C89E1EFC52486BBB8AA8214A99D789CF9E05200300FC927E4FB4D5B375D43103D5527440FB843077C5AA3F5861C8F645F5787F59E95B390B318B55CE45AA638FAA2957BD7248B390B7A7CC51F9C124149C82B8C378810
310
84AB2F42B7B8DD56F413775B8C5999E9FF4471926F8AA236A1AE96B8B3CC434E5839373893369E1FAF30EA395917409EB7F26AF8801C171837A4A6AC9C89E9F9C9B1A58BA30FD6A5EF5DDDCF894B9AD9B6A59C957943A9FCAE2FD5BC4DFE03504B0304140006080800CC70623BAD7543B64E01000033030000300000006662
310
782F41393633353835312D344632462D344230382D423046372D3739314545314133324237412F636E782E786D6CD593CD6EC32010845F0571AD6CE3D48AD20813A9873E410FBD12D82434182C7EAAE6EDBB2424CD25871E7B41D6EC30B3FA84F9E67BB2E40B4234DE8DB46F1925E094D7C6ED479AD3AE5951B2113C789FEE
310
6C943839C1488B4C05DF079FE72A69D8C96C13AAD6B8631503449F83828872B949AC57D26200B826A308D316B4064D6E46FCDA41C05550DC9E483A00797BFD207EFB092A45DE9514C1BBD22178396BD39D891265658C238DEA00936C654E5E433CB65A26D9F6EDB5EBC14EBF49A45CB856E66048291F6939A9A81BB5C89177
310
38143CA680F4AA299D66A042CEB3354A2684DC9D8D178FE0D9B8B41CAAD720F880EE7EF93C0C18769E099ECC04D5A102C8049A8A05632F4DDF376CF1DE0F6BB65C2F8627B65A33C6BB62177CEBBDAD973006829F89F22E814B54F4BC2BE347F8AA8F681390B50FA73F804400B5F542E796F19FF974E7F78DB802FE05E20750
310
4B0304140006080800CC70623BE75B7789680500003C100000340000006662782F41393633353835312D344632462D344230382D423046372D3739314545314133324237412F6F626A656374732E786D6CAD575B8F9B3818FD2B887D06C22499CB8AA1CA655245D5B455A356FB305264C061D8018C6C3393D95FBFC7600890
310
A4CD5EF210B0B1BFEBF98E3F7B1FF6596ABC522E1296DF9BAE3D320D9A872C4AF2F8DE2CE5CEBA358D0FBEC719939D65A691938CDE9B6ADAF4BD98B3B2D05311DD91329583D9D5FC0F438434A7A611A644887B5384CF34233629258BA878B12322891DEFF6B66BD70BFB62634E8AE781D082709A4B588AF91C528CDA28B73F
310
1C998EEF39EABBEFA97FBD6A7C7E9553F9D3D79FE442923C3C523610337627CB87ABE99D359D4CC6D6E4FACAB5E6ABF9D2726FC6A3C5F56271377BB88362213924694B38DD99FE47C48627A1E7D49F5A8BB5E1A74C0A599ED3B0F21F1E56366B89112D681E218F0915D0D6F17AD41FBA2A369DCF6335D62ABBD39779D5DDD1
310
11D4D8DE3CBB96B2E04FB8202E41051754A1AA8E8F76B4C6DFE810B580B1547F4B84911149794252234D024EF8BBE963A95AE27B3D310A9D5C215C7960FAEE415ED75694C6AFB17BCACA5D99A60A9AA65F217B0BFC53292ACB92BF283FAD0D3621576592CB5BED907C2FA8E9DF794E35E97BEA31BED21FEB401ABB94C44839
310
DCACBF0E1C5DA8DA5B2F4DFFD32AD86F543D9E565E7056502E157C00AD2671CD534549AB752FCA9CDA00677A313F04E51B22FF19E57B300579E3C97EB29F682D92935CEC18CF901B7B54FD8C51F362B56FC72FE0B3C1EAE335EDCCBF5AEC39ADB17DC238973F804BA5E6F6BFE7AF1FB32E523BE9F3BD571418E3631DCA4D48
310
5250CF639223210A9446CA30052EDF057BD35F8329C1ECD84552BF0DC8D18BE7BCE23BFE6BD960AB4A7DE79923A103BEBD80F911CBAA2C60DB19B01CF164A5583B772EE6D3FFA56666CBCDA74DC97724A48F9A58967497E489C4D979006FD7A05E227A1EBDD0F737C623387A9C844D3709995625106D157315F8B8392CD4E0
310
A0B9A720C4BE9829CEF37EA1E13111214D53925356365ADA634861B52519DD27A00AEB808EAF0628E6F435519D446F45CF2C9CF5214F0A15B2F6D06B79DA3EE3CBF7F56780D2F4E7EF73A0F5E5B02A38D07DC852C6B7C1FBB6664213E0C39E3EBA7FF4E1AD23EA2829407C85E586727488B751B2DB9502BC7B228A3FD68B6E
310
A65A22397E690AA8D158D7E404EC8CDA235CC3B7D1898680131CEC2CDF2638C65196279577750F15884AEE19F94199155B92B13297978469D4F8D358DF0AEF7631E28DC8F0D9F437D5D39A83B2231A1D52D543813A824EF8D44BCFF2FA6A31BD1E8DAD87F1CCB526B3879935BF59CDADD5C37479BB1CDD4CA7B3556B516589
310
EF352754B706114D9C885EC9131DE6EFEB43D99AFE2391C2F958179413D7CFEF6B1B6DB1E7600F00DE6E5C67454A339A4BA2E0FBA85ED26F045D454F463DBFCE484C2F90F2E5E3666003662ED8F755951A7D1BECD5B30B550B2785C8E7320B7292A4838DDA71BBC863ED7613CAF659337A3354231D4FF4A182A54904C2898C
310
98B28C4AD0CE056CCF332A80986E571EE9DBC305BB5FEB7E509220A58D25CF042D712A806AC0AD0C657FDEF80D2D9CEAA2EE4D1C76F60BFE74219A06527D6F82DF6412526107381E55E353090704D085B52408A8913C4ED159D79BDA71BB4BC506F4831350EB6F975CD22D69BF7AC49B91A2C0A9DDA3D5CA36AD20FC478E37
310
E61844E2352865EBCB61A275A65283CAAA9DD27703B4102F5AF51EF5F573B75CBB5AD38BC845F7A49F82A0966A49C2E3EA5EA0ECD326CD965F1DB402C6FA8B51A4658C5C5E2EC9E214602E55810345408596591009A82E7E7FFACA19EEA299B14A0081A705CB3296EBC14CDF658DCD336EA6D1136881AAEB87B81AB9EE53D5
310
F5EB8BC8362082DA24122F98680A4E7930C01A0079749CEA14382A0783E5EBA5A10F8C098456A03D6A4AEB6BB881E2513747552A5DB22C7EDAF83BD5528081A365F7FF06504B0304140006080000CC70623B000000000000000000000000350000006662782F41393633353835312D344632462D344230382D423046372D37
310
39314545314133324237412F76657274696365732E62696E504B0304140006080800CC70623BF270F1330600000004000000360000006662782F41393633353835312D344632462D344230382D423046372D3739314545314133324237412F747269616E676C65732E62696E636660600000504B0304140006080000CC7062
310
3B000000000000000000000000370000006662782F41393633353835312D344632462D344230382D423046372D3739314545314133324237412F617474726962757465732E62696E504B0304140006080800CC70623B08DA0BD19000000041010000360000006662782F41393633353835312D344632462D344230382D4230
310
46372D3739314545314133324237412F6469726563746F72792E786D6C858F410AC3201045AF22B36F53E9A60B35CBEEBAE80D244E44489C6234F4F835464A48035D0DF398FF9F8AF63D0E6CC63039F212F8F9020C7D47C6792B21C5FE7403D62A1188E2E60C98D7234A5830286103A55745067B9D86B8A3CF9C7F90C11DE6
310
07FB144396D7B6A82D282E9A152AD114D5EF2CB866EEE831B8EEA07A7BB5A8D7D61A2BAAEB7FD5F70921FF497D00504B0304140006080800CC70623BEDD1DC58FD000000A00100003B0000006662782F41393633353835312D344632462D344230382D423046372D3739314545314133324237412F7265736F75726365732F
310
636F72652E786D6C8D504B6E833010BD0A9A6D65B00922041947112427E8052C33A156828DFCA97AFC9A40A576D7CDCCE87D344F8F9FBFE667F689CE6B6B3A6039850C8DB2A336530731DC4903D95970676DF82583CCC8193B5861107C72362E3BA4AC096842428D1D7107A5F7182053CF7474E0D507CE32973124857FE48B
310
540F3961CEF244279DE03EB81420DB9EAC1384436FA353E879B1B182C7A8C75DA3C7F453DF353A1075D537A7BA6464B8F535A99AE14A9A2BBD90E350DD183B5CFABE3AF262350B1EF4FC9351399401471025A527C218A1E53BAB5A5AB765F5469B96525EACF23FA6B88CFF34456DC2A1DCE36E360F82A5202F42F062ED2BAD
310
579969AFDD8A6F504B010214000A0000080000CC70623B3DEE336E79000000790000001B00000000000000000000000000000000006175746F6465736B2D64657369676E2D7061636B6167652E786D6C504B01021400140006080800CC70623BD486FD9CA0000000F40000001300000000000000000000000000B20000005B
310
436F6E74656E745F54797065735D2E786D6C504B01021400140006080800CC70623B853B8169EB0000007C010000080000000000000000000000000083010000636F72652E786D6C504B01021400140006080800CC70623B55019EA25F0000007C000000070000000000000000000000000094020000636E782E786D6C504B
310
01021400140006080800CC70623BDBABAAF470010000D40300000C00000000000000000000000000180300006662782F636F72652E786D6C504B01021400140006080800CC70623B9C113CC27E0000009D0000000B00000000000000000000000000B20400006662782F636E782E786D6C504B01021400140006080800CC70
310
623B7DF2F77C2A010000120200003100000000000000000000000000590500006662782F41393633353835312D344632462D344230382D423046372D3739314545314133324237412F636F72652E786D6C504B01021400140006080800CC70623BAD7543B64E010000330300003000000000000000000000000000D2060000
310
6662782F41393633353835312D344632462D344230382D423046372D3739314545314133324237412F636E782E786D6C504B01021400140006080800CC70623BE75B7789680500003C10000034000000000000000000000000006E0800006662782F41393633353835312D344632462D344230382D423046372D3739314545
310
314133324237412F6F626A656374732E786D6C504B01021400140006080000CC70623B0000000000000000000000003500000000000000000000000000280E00006662782F41393633353835312D344632462D344230382D423046372D3739314545314133324237412F76657274696365732E62696E504B01021400140006
310
080800CC70623BF270F133060000000400000036000000000000000000000000007B0E00006662782F41393633353835312D344632462D344230382D423046372D3739314545314133324237412F747269616E676C65732E62696E504B01021400140006080000CC70623B0000000000000000000000003700000000000000
310
000000000000D50E00006662782F41393633353835312D344632462D344230382D423046372D3739314545314133324237412F617474726962757465732E62696E504B01021400140006080800CC70623B08DA0BD1900000004101000036000000000000000000000000002A0F00006662782F41393633353835312D344632
310
462D344230382D423046372D3739314545314133324237412F6469726563746F72792E786D6C504B01021400140006080800CC70623BEDD1DC58FD000000A00100003B000000000000000000000000000E1000006662782F41393633353835312D344632462D344230382D423046372D3739314545314133324237412F7265
310
736F75726365732F636F72652E786D6C504B0506000000000E000E0080040000641100000000
  0
XRECORD
  5
4079
102
{ACAD_REACTORS
330
1F7
102
}
330
1F7
100
AcDbXrecord
280
     1
102
MATERIAL
148
0.0
149
0.0
149
0.0
 93
        0
 94
       63
282
     0
 72
     1
 77
     1
171
     1
175
     1
179
     1
273
     0
  0
XRECORD
  5
1F8
102
{ACAD_REACTORS
330
1F7
102
}
330
1F7
100
AcDbXrecord
280
     1
 70
     1
 90
429727718
  1
30362254-06B7-45E0-A893-8CFA70E3D6BC
310
504B03040A0000080000CC70623B3DEE336E79000000790000001B0000006175746F6465736B2D64657369676E2D7061636B6167652E786D6C3C3F786D6C2076657273696F6E3D22312E302220656E636F64696E673D227574662D3822203F3E3C666F726D6174733E3C666F726D61743E687474703A2F2F736368656D612E
310
6175746F6465736B2E636F6D2F64657369676E2D7061636B6167652F323030393C2F666F726D61743E3C2F666F726D6174733E504B0304140006080800CC70623BD486FD9CA0000000F4000000130000005B436F6E74656E745F54797065735D2E786D6C7D8EC10E82300C865F65E91D8A1E8C310C0EEA1BF002731658846E
310
D98AC1B77784ABF1D8FE5FBFBF75BBCE937A534CCEB38643598122B6FEE978D0B0485F9C41B54DDD7D022595594E1A469170414C76A4D9A4D207E29CF43ECE46F218070CC6BECC4078ACAA135ACF422C856C0E68EA1BF5669944DDD7BCDE7B1F8E415D77AECB980613C2E4AC91FC167A2B244592486606FC29C8FD7F045B9A
310
EF7053A7E60B504B0304140006080800CC70623B1EC5D7A3EB0000007C01000008000000636F72652E786D6C8D90416EC3201045AF82665B6103C6756C6122AB4D4ED00B204C5C94182C03558F5F9C3852BBEB6A467FFE9B197D71FC9E6FE8CBACC17AD7032D0820E3B41FAD9B7A48F1820F808E52ACDEC75F36404ECDA687
310
4D0629A6D5A76597B477D1B89855E747B38B2A041301E95B6E7A08FAD3CCAA50296647B8168BD2573599823EBB0CA76447F43862C7BCCF5EAC59410E4DDD9C7973C2755553CCCFA4C603E3040F1565ED3B1FDE4E432BCA0D9622DAF9795FAF464533826484B498524CD807E51D79ED187F21878E10516EF63F505AC67F42C9
310
BA58B1FDDD071640D2FCC87D2045B96591CB3DA85CB7DCE40F504B0304140006080800CC70623B55019EA25F0000007C00000007000000636E782E786D6C4DCB3B0E80201045D1AD90E915ED2CF8AC45050C11660C8261F98AB1B07AC9C97D42D718D865D3E909258CFD00CCE24AC6E326A164D74DC0B4128928FF32603847
310
2BA13128B1252AC747C6BAB984FC68F0B87FE8960A5C09FE86CFB69FBA01504B0304140006080800CC70623B8C9102E971010000D40300000C0000006662782F636F72652E786D6CC5535B6E833010BC8AE5DF0A6C08340F1947A84D4ED00B38C6A128602363A31CBFCB234A53A551FA553EC09AD9F5CE8C31DB9E9B1AF5CA
310
7695D1198E428A91D2D214952E33ECDD315861B4E5CC1AE3BE9561A445A3323CC098B3D21ADFCE9034DA29ED00D5A6503328BA4E398C640D8B0C77F253352214DE4145770A5B214FA2546114020D759C75CE8200340D19DE981F0F6746269C33EFAB6266AB02A655C74A59CCF365BADC27CB5D902ED22848F6340DF238A141
310
BE88E2F57B92BFEDF23523433367AE6A2EEAA455C2A902F398D2751045018D3FA264435F3771F242571B4A1919CA6F9A7C5B3CD9E42BED16F12C776AEB308F40C848FC700B1139D4891EF410CEC810227CC6846F8386402064270EF5C5C709A05E49676C024C61FC95EA45ED154CA5211D1FF4FB8291A913A68E9B83EBBB33
310
E2A7673CDE118E5AE8124C0807CB8377834E366998436B950D7A7746DAD846D4CFD978E0F04FD455FC5D49D2D4C6FE9722321F10997F0F32DC47FE05504B0304140006080800CC70623BFFEA85907E0000009D0000000B0000006662782F636E782E786D6C4DCCD10A83201886E15B91FFDC95D95A811AB6F23E625948A6C3
310
E9D8E5AF46073BFAE0E1E365ED67B3E8ADC3CB78C7815C7240DA3DFC64DCC221C519D7805AC182F7F1EF06C88D9BE6703008B6049F9E274D7A1E938DBB5AE3D6131B2589BA0D3D965551E0B2EA732C9B9A624AAEB41E3A557677029960D9AFB4EF11165F504B0304140006080800CC70623B4FEEA4082C0100001202000031
310
0000006662782F39464131463745442D413632322D343644302D413938332D3331353338454246344243312F636F72652E786D6C8D515B6EC32010BC0AE2AB55850DD871ED0813254D72825EC00192A2C460F1A872FC42ED48ED5F7E00CDCECCCEB26C731F6FE05B39AFADE921293004CA082BB5B9F43086336A21D870E6AC
310
0D7F68109861543DCC30E4ECE26C9C164858139409093556AA051CBC570102714B8F1E7AF1A5C6A11862480C7F2DA6415C878B2A4891CA89C7990F2E050073937C42DE1DB7E4F87ED8A36D4329AA9B3D46DBAEAD504556557BD81DEBDD0761E52CE42C462D17B996298E3E6BE59E35C962CE821E1FF18553435012728A7187
310
0841987E927A8D9B35ADDF70BBC6989599FE4F1427F9A4286A132ABAC49D651EF234CD5CE04CDA78BA3DC2A8FB645D00B9DF8B57E215725C60BCA2A463E54C4CE327C7A65E1C7DB02E7DEFCBF594B864C5CA6CDBD49C957943E9FA5D5FBAF336F90F504B0304140006080800CC70623BAD7543B64E01000033030000300000
310
006662782F39464131463745442D413632322D343644302D413938332D3331353338454246344243312F636E782E786D6CD593CD6EC32010845F0571AD6CE3D48AD20813A9873E410FBD12D82434182C7EAAE6EDBB2424CD25871E7B41D6EC30B3FA84F9E67BB2E40B4234DE8DB46F1925E094D7C6ED479AD3AE5951B2113C
310
789FEE6C943839C1488B4C05DF079FE72A69D8C96C13AAD6B8631503449F83828872B949AC57D26200B826A308D316B4064D6E46FCDA41C05550DC9E483A00797BFD207EFB092A45DE9514C1BBD22178396BD39D891265658C238DEA00936C654E5E433CB65A26D9F6EDB5EBC14EBF49A45CB856E66048291F6939A9A81BB5
310
C8917738143CA680F4AA299D66A042CEB3354A2684DC9D8D178FE0D9B8B41CAAD720F880EE7EF93C0C18769E099ECC04D5A102C8049A8A05632F4DDF376CF1DE0F6BB65C2F8627B65A33C6BB62177CEBBDAD973006829F89F22E814B54F4BC2BE347F8AA8F681390B50FA73F804400B5F542E796F19FF974E7F78DB802FE05
310
E207504B0304140006080800CC70623B16AB87BA640500003C100000340000006662782F39464131463745442D413632322D343644302D413938332D3331353338454246344243312F6F626A656374732E786D6CAD575B6FA33818FD2B887DE6924B3BED8A326A92B68A663B534DD4D13E548A0C38942D60649B369D5FBFC7
310
600890A493BDE42160637FD7F31D7FF63E6FB3D478A55C242CBF3247B66B1A340F5994E4F19559CA8D75611A9F7D8F33263BCB4C232719BD32D5B4E97B316765A1A722BA21652A07B3B7B33F0D11D29C9A46981221AE4C113ED38CD8A4942CA2E2C58E882476BCD9DA23BB5ED8171B73523C0F841684D35CC252CCE79062D4
310
468DFA43D7747CCF51DF7D4FFDEB5593E3AB9CCA9FBEFE241792E4E19EB28198C968BAB8199F5D5A67D3E9C49A9E8F47D6EC76B6B0469F26EEFC7C3EBFBCBEB98462213924694B38DD98FE1D62C393D073EA4FADC5DAF04326852CCF6958F90F0F2B9BB5C48816348F90C7840A68EB78EDF68723159BCEE7891A6B95DDE9D3
310
BCEAEEE8086A6C6F9E5D4B59F0175C10A7A0820BAA5055C7473B5AE3CFDD452D602CD5DF12616444529E90D448938013FE6EFA58AA96F85E4F8C42275708571E98FE6827AF6B2B4AE3D7D83D64E5A64C53054DD3AF90BD06FEA9149565C94FCA0F6B834DC85599E4F2423B24DF0B6AFA979E534DFA9E7A4CC6FA631D486393
310
921829879BF5D781A373557BCB85E97FB90DB62B558F8795179C15944B051F40AB495CF35451D26A4727654E6D8033BD98EF82F21D91FF8AF2DD9982BCF1643BDD4EB516C9492E368C67C88DED563FC36D5EACF66DFF057C3658BDBFA69DF9578B3DA735B64F18C7F20770A9D45CFCF7FCF563D6456A277DBEF78A02637CA2
310
43B90A490AEAB94F72244481D24819A6C0E59B606BFA4B3025981DBB48EAB701D97BF19C577CC77F2D1B6C55A9EF3C732474C0B727303F625995056C3B02963D9EAC146BE78EC5FCEC7FA999EBC5EACBAAE41B12D27B4D2C0BBA49F244E2ECDC81B76B502F113D8F5EE8FB1BE3111CDD4FC2AA9B844CAB1288B68AB90A7CDC
310
1C166AB0D3DC5310625FCC14E779BFD0709F8890A629C9292B1B2DED31A4B0DA928CEE135085754027E3018A397D4D5427D15BD1330B677DC8934285AC3DF45A9EB68FF8F2B8FC0A509AFEECFD0FF2DE25CC6047F7214B195F07EFEB9A094D800F7BFAE8FED187B78EA8A3A400F115961BCAD1215E47C966530AF0EE8128FE
310
58CEBB996A8964FFA529A046635D9353B0336A8F700DDF46271A024E70B0B37C9DE01847591E54DED53D54202AB947E4076556AC49C6CA5C9E1226B7F1A7B1BE15DEED62C41B91E1B3E9AFAAA735036547343A925075041DF0A9979E893B391F8FCFA6967B3EFB644DCF6E5CEBFAE272625DCC6FAF3FB93793C5F90CE1EF57
310
407342756B10D1C489E8953CD1617E5CEECAD6F4EF8914CE5D5D504E5C3F1F9736DA62CFC11E00BCDDB8CC8A9466349744C1F75EBDA4DF09BA8A9E8C7A7E9991989E20E5DBDD6A6003664ED8F7A04A8DBE0DF6EAD9B9AA858342E47399053949D2C146EDB85DE4B176BB0965FBAC19BD19AA918E27FA50C1D22402E144464C
310
59462568E704B6E71915404CB72B8FF4EDE184DDAF753F284990D2C6926782963815403548A70C657FDEF80D2D9CEAA2AE4C1C76F60BFE74219A06527D6582DF6412526107381E55E353090704D085B52408D0933C4ED159D79BDA71BB4BC506F4831350EB6F979CD22D69BF7AC49B91A2C0A9DDA3D5CA36AD20FC478E37E6
310
1844E2352865EBCB6EA275A652E3836BE04EFB400BF1A2556F515F1FBB35B2AB35BD889C744FFA1004B5544B121E57F70215746DD2F5E2C1412B602CBF19455AC6C8E5E9922C4E01E65215385004546899059180EAFCF7A707CE7017CD8CDB0410789AB32C63B91E5CEBBBACB17AC6CD347A022D5075FD106377347AAABA7E
310
7D11590744509B44E205134DC1290F06580320F78E537D3D73540E06CB970B431F185308AD40BBD794D6D77003C5A36E8EAA54BA64597CD8F83BD552A080A365F7FF06504B0304140006080000CC70623B000000000000000000000000350000006662782F39464131463745442D413632322D343644302D413938332D3331
310
353338454246344243312F76657274696365732E62696E504B0304140006080800CC70623BF270F1330600000004000000360000006662782F39464131463745442D413632322D343644302D413938332D3331353338454246344243312F747269616E676C65732E62696E636660600000504B0304140006080000CC70623B
310
000000000000000000000000370000006662782F39464131463745442D413632322D343644302D413938332D3331353338454246344243312F617474726962757465732E62696E504B0304140006080800CC70623B08DA0BD19000000041010000360000006662782F39464131463745442D413632322D343644302D413938
310
332D3331353338454246344243312F6469726563746F72792E786D6C858F410AC3201045AF22B36F53E9A60B35CBEEBAE80D244E44489C6234F4F835464A48035D0DF398FF9F8AF63D0E6CC63039F212F8F9020C7D47C6792B21C5FE7403D62A1188E2E60C98D7234A5830286103A55745067B9D86B8A3CF9C7F90C11DE607
310
FB144396D7B6A82D282E9A152AD114D5EF2CB866EEE831B8EEA07A7BB5A8D7D61A2BAAEB7FD5F70921FF497D00504B0304140006080800CC70623B0D6EF93BFE000000A00100003B0000006662782F39464131463745442D413632322D343644302D413938332D3331353338454246344243312F7265736F75726365732F63
310
6F72652E786D6C8D50596E833010BD0A9ADFCA60B334011947A8694ED00B586642AC041B79A97AFC9A40A5F6AF3F33A3B7689E1E3F7DCD8FEC139DD7D6F4C0720A191A65476DA61E62B892236427C19DB5E1970C322367EC618541F0C9D9B8EC90B226A009093576C41D94DE63804C3DD2D18357379C652E63480A7FCF17A9
310
EE72C29CE5894E3AC17D702940B63D59270887DE46A7D0F36263058F518FBB468FE9A7BE6A7420864373B8D4873369AA8691FA421B3294352543C5CAF65C0F6FEF43CB8BD52C78D0F34F46E550061C419494B6843142CB0F5677F4B52BEB177AEC28E5C52AFF638ACBF84F53D42654E51E77B379102C05791282176B5F693D
310
CB4C7BED567C03504B010214000A0000080000CC70623B3DEE336E79000000790000001B00000000000000000000000000000000006175746F6465736B2D64657369676E2D7061636B6167652E786D6C504B01021400140006080800CC70623BD486FD9CA0000000F40000001300000000000000000000000000B20000005B
310
436F6E74656E745F54797065735D2E786D6C504B01021400140006080800CC70623B1EC5D7A3EB0000007C010000080000000000000000000000000083010000636F72652E786D6C504B01021400140006080800CC70623B55019EA25F0000007C000000070000000000000000000000000094020000636E782E786D6C504B
310
01021400140006080800CC70623B8C9102E971010000D40300000C00000000000000000000000000180300006662782F636F72652E786D6C504B01021400140006080800CC70623BFFEA85907E0000009D0000000B00000000000000000000000000B30400006662782F636E782E786D6C504B01021400140006080800CC70
310
623B4FEEA4082C0100001202000031000000000000000000000000005A0500006662782F39464131463745442D413632322D343644302D413938332D3331353338454246344243312F636F72652E786D6C504B01021400140006080800CC70623BAD7543B64E010000330300003000000000000000000000000000D5060000
310
6662782F39464131463745442D413632322D343644302D413938332D3331353338454246344243312F636E782E786D6C504B01021400140006080800CC70623B16AB87BA640500003C1000003400000000000000000000000000710800006662782F39464131463745442D413632322D343644302D413938332D3331353338
310
454246344243312F6F626A656374732E786D6C504B01021400140006080000CC70623B0000000000000000000000003500000000000000000000000000270E00006662782F39464131463745442D413632322D343644302D413938332D3331353338454246344243312F76657274696365732E62696E504B01021400140006
310
080800CC70623BF270F133060000000400000036000000000000000000000000007A0E00006662782F39464131463745442D413632322D343644302D413938332D3331353338454246344243312F747269616E676C65732E62696E504B01021400140006080000CC70623B0000000000000000000000003700000000000000
310
000000000000D40E00006662782F39464131463745442D413632322D343644302D413938332D3331353338454246344243312F617474726962757465732E62696E504B01021400140006080800CC70623B08DA0BD190000000410100003600000000000000000000000000290F00006662782F39464131463745442D413632
310
322D343644302D413938332D3331353338454246344243312F6469726563746F72792E786D6C504B01021400140006080800CC70623B0D6EF93BFE000000A00100003B000000000000000000000000000D1000006662782F39464131463745442D413632322D343644302D413938332D3331353338454246344243312F7265
310
736F75726365732F636F72652E786D6C504B0506000000000E000E0080040000641100000000
  0
XRECORD
  5
407B
102
{ACAD_REACTORS
330
173
102
}
330
173
100
AcDbXrecord
280
     1
102
MATERIAL
148
0.0
149
0.0
149
0.0
 93
        0
 94
       63
282
     0
 72
     1
 77
     1
171
     1
175
     1
179
     1
273
     0
  0
XRECORD
  5
175
102
{ACAD_REACTORS
330
173
102
}
330
173
100
AcDbXrecord
280
     1
270
     1
271
     1
  0
XRECORD
  5
174
102
{ACAD_REACTORS
330
173
102
}
330
173
100
AcDbXrecord
280
     1
270
     1
271
     1
  0
XRECORD
  5
1FB
102
{ACAD_REACTORS
330
173
102
}
330
173
100
AcDbXrecord
280
     1
 70
     0
 90
1673772943
  1
ECE7A1D2-D628-4531-984C-D00F80459256
310
504B03040A0000080000CC70623B3DEE336E79000000790000001B0000006175746F6465736B2D64657369676E2D7061636B6167652E786D6C3C3F786D6C2076657273696F6E3D22312E302220656E636F64696E673D227574662D3822203F3E3C666F726D6174733E3C666F726D61743E687474703A2F2F736368656D612E
310
6175746F6465736B2E636F6D2F64657369676E2D7061636B6167652F323030393C2F666F726D61743E3C2F666F726D6174733E504B0304140006080800CC70623BD486FD9CA0000000F4000000130000005B436F6E74656E745F54797065735D2E786D6C7D8EC10E82300C865F65E91D8A1E8C310C0EEA1BF002731658846E
310
D98AC1B77784ABF1D8FE5FBFBF75BBCE937A534CCEB38643598122B6FEE978D0B0485F9C41B54DDD7D022595594E1A469170414C76A4D9A4D207E29CF43ECE46F218070CC6BECC4078ACAA135ACF422C856C0E68EA1BF5669944DDD7BCDE7B1F8E415D77AECB980613C2E4AC91FC167A2B244592486606FC29C8FD7F045B9A
310
EF7053A7E60B504B0304140006080800CC70623BD9DDAED0EC0000007C01000008000000636F72652E786D6C8D90416EC3201045AF82665B61836D9CD8C2444DD39CA01740405C94182C03558F5F9C3852BBEB6A467FFE9B197D7EF89E6EE8CB2CC17A37002D0820E394D7D68D03A478C17B4007C117EFE32F1B20272733C0
310
2A83E0E3E2D3BC49CABB685CCCAAF3DA6CA20CC14440EA969B0182FA34932C648AD911AEC52CD5558EA6A0CF2EC329598D1E47ACCEFBECC59A050463A7EA5833865FEBDD0E37353BE3EE8DBDE3F6786A48D375FBF6CC78B9C282473B3DEFABC5C86834888A900E538A49F5419B9EB47DD5BC907D4F082F57FB1F28CDFA9F50
310
B22ED6D5F6EE030B20687EE43E10BC5CB3C8E51E54AE6B6EE207504B0304140006080800CC70623B55019EA25F0000007C00000007000000636E782E786D6C4DCB3B0E80201045D1AD90E915ED2CF8AC45050C11660C8261F98AB1B07AC9C97D42D718D865D3E909258CFD00CCE24AC6E326A164D74DC0B4128928FF326038
310
472BA13128B1252AC747C6BAB984FC68F0B87FE8960A5C09FE86CFB69FBA01504B0304140006080800CC70623BA24EB22D72010000D40300000C0000006662782F636F72652E786D6CC5535B6E833010BC8AE5DF0A6C5E49888CA3A6694ED00B38E05014B091B1518EDFE511A5A9D228FD2A1F60CDEC7A67C6986DCE4D8D7A
310
69BA4AAB0C073EC548AA5C17952A33ECECD15B61B4E1CC686DBF9561A44423333CC098B3D268D7CE50AE9595CA02AA74216750749DB418E5352C32DCE59FB211BE70162ABA93DF8AFC244AE9073ED050C759670D0840D390E18DF9F1706664C23973AE2A66B62A605A75ACA4C13C4976E1364A12EF355A2EBD384AF65EFA96
310
BC7B8BED2EA6719AAE16FB8491A199335B351775B991C2CA02F390D2D40B028F861F41BCA68B7518BFD0D59A524686F29B26D7164F36B94AD9289CE54E6D1DE6010819891F6E21228B3AD1831EC219194284CF98F06DD01008846CC5A1BEF83801D4CBDC6A1303536877A57A513B0953A94FC707FDBE6064EA84A9E3E6E0FA
310
EE8CF0E9198F7784A316AA0413C2C2F2E0ECA0934D1AE6D05A69BCDE9E91D2A611F573361E38FC1375157F5752AE6B6DFE4B11990F88CCBF0719EE23FF02504B0304140006080800CC70623B408A7D3B7C0000009D0000000B0000006662782F636E782E786D6C4DCCD10A83201886E15B91FFDC552A92A0064DBC8F581632
310
D3703A76F9ABD1C18E3E78F878E5F0D9027ABBFCF2292AE86E2D20171F69F6715550CB827B40839639A5F2770314A7CD293819B45C73AAFB45B35BA61ACAA1C1C7E7855C58C15BC331339661262CC762340413D68D77DA5B42298546CBE6573AF60CEB2F504B0304140006080800CC70623B449FB9BD290100001202000031
310
0000006662782F36394639363044362D344446342D343946362D394244322D3234314243333846323333332F636F72652E786D6C8D515B6EC32010BC0AE22B55850D98B871848994463E412FE002495162B07854397EA176A4F62F3F2C9A9D991D587EB84F37F0AD7D30CEF6905418026DA553C65E7A98E219ED203808EE9D
310
8B7F6810D871D23D2C3014FCE25D9A57483A1BB58D19B54EE9151C43D0110279CB971E06F9A5A7B11A53CC8C70ADE6515EC78BAE4895DB992778883E0700CB907242D17643D7E2538BD869608875438BBAE38922CAC8F1BDD90DB4691A5E2F42C153326A951B95E398B3D1FE599322163C9AE9115F7A3D46ADA0A018778810
310
84E907617BDCEE297BC5BB3DC6BC2EF47FA234AB2745C9D8D8D035EE220B50105E2F0DC1954B9FB747187D9F9D8FA0CCDB042D5FA0C015C65B42DF78BD10F3F3B363CB56C7109DCFDFBBB97E662ED92EB62D13BC2E1BCAE5777DB9966D8A1F504B0304140006080800CC70623BAD7543B64E01000033030000300000006662
310
782F36394639363044362D344446342D343946362D394244322D3234314243333846323333332F636E782E786D6CD593CD6EC32010845F0571AD6CE3D48AD20813A9873E410FBD12D82434182C7EAAE6EDBB2424CD25871E7B41D6EC30B3FA84F9E67BB2E40B4234DE8DB46F1925E094D7C6ED479AD3AE5951B2113C789FEE
310
6C943839C1488B4C05DF079FE72A69D8C96C13AAD6B8631503449F83828872B949AC57D26200B826A308D316B4064D6E46FCDA41C05550DC9E483A00797BFD207EFB092A45DE9514C1BBD22178396BD39D891265658C238DEA00936C654E5E433CB65A26D9F6EDB5EBC14EBF49A45CB856E66048291F6939A9A81BB5C89177
310
38143CA680F4AA299D66A042CEB3354A2684DC9D8D178FE0D9B8B41CAAD720F880EE7EF93C0C18769E099ECC04D5A102C8049A8A05632F4DDF376CF1DE0F6BB65C2F8627B65A33C6BB62177CEBBDAD973006829F89F22E814B54F4BC2BE347F8AA8F681390B50FA73F804400B5F542E796F19FF974E7F78DB802FE05E20750
310
4B0304140006080800CC70623B8D05915C650500003B100000340000006662782F36394639363044362D344446342D343946362D394244322D3234314243333846323333332F6F626A656374732E786D6CAD575B6FA33814FE2B887D06429276DA1565D4266D158D3A339A6846FB502932E050B66023DB74D2FDF5FB190C01
310
9276B2973C046C8ECFF53B17071F77456EBD502133CEAE6CDF9DD81665314F32965ED995DA3A17B6F5310C04E7AA47665B8C14F4CAD6DB7618A48257A5D94AE89654B91AEDDEDDFC61C998326A5B714EA4BCB265FC440BE2924AF184CA6737218AB8E976E7FA6E4338649B0A523E8D98964450A6A029F619B8588D52FE7039
310
B1BD30F0F4F730D0FF866AF6369557DB33949F31A9088B0F848DD8CCFCF9F2767A76E99CCDE733677E3EF59D9BBB9BA5E37F984D16E78BC5E5F5ED25044B25C0C96822E8D60EEFE11B91C581D77CEA34368A1F5329E68CD1B8B61F16D63A1B8E092D294B10C78C4A48EB593D192E7DED9BDEE7995E1B91FDEDD3ACEA9FE831
310
6A756F9F7D4D79F4274C90A7A04248AA51D5F8C718DAE06FB2F75AC4796EBE65D22A88A22223B995679120E2D50E41AA49C260C046A35368846B0BECD0DFF3EBEB8AD4F835768F69B9ADF25C43D30E6B646F807FAA64AD59F61715C7A54127C4AACA98BA3006A9D792DAE165E0D59B61A01FB3A9F9D838D2DAE62445C86166
310
F37564E842E7DE6A69879FEEA2DD5AE7E371E1A5E025154AC307D06A03D73EB5978C58FFA4C8E9033066E0F3BD53BEC1F39F91BE7B55103791EDE6BBB991A2046172CB4581D8B893FA674DDA17A77B3B7C413D1B511FD2743BFF8A38F03A658705E3ADF8015C3A3417FF3D7E439FF591DA0B5F18BC20C1B8981957AE6392A3
310
F43C640C01D1A0B4728E2DD4F26DB4B3C3152A252A3B4E913CEC1C72F012782FF88EFF8637AA552DBEF76408E8A8DE9E50F9E1CB3A2DA0DB1B6039A893B56063DC5B3E3FFB5F72E67AB9FEB4AEC496C4F4C1149625DD662C53E89D7BF0F6151A046260D1337DFDC94502430F83B0EE07A130A224BCAD7DAE1D9FB6CD422FF6
310
920702629C4BB9AE79C12F243C6432A6794E18E5552BA56B431AAB5D91317302B2B071E86C3A42B1A02F999E24061403B5D0EB639195DA655DD3EBEAB4FB862DDF579F014AD0E73C22F99E28DA57FB98E75C6CA2D74D53086D600F4786E0FE3144B771A8A7B900F03594DB8A633CBC49B2EDB69228BB479CF863B5E807AAAB
310
23872F6DFEB4129B949CA33823F58830E86D65621E10047D9DB34D862E8EAC3C2ABC2F7B2C40D67CDFE01F5545B92105AF983AC54D93D69E56FB8E797F88913F898A9FEC705D3F9D1B54EC8426FB500D40A03BD0119B06E1B95DDC7EB8F6975367793EBD70E66733DFB9BC982F9CE564727731999F5D4ECFCE3B8D6A4DC2A0
310
6D50FD148437D110834A64C6CDDF57FBACB5C307A2A477DFE4939736CFEF2B175371E0E10CF0DD1D5C15654E0BCA14D1E87DD02FF93782A162C0A3D95F1524A52770F972BF1EE9809D13CE7DD599467F8ECE9ADD85CE85A34CD45355448C64F9E8A031DC2D596ACC6E5DD93D9B82DE2EF5CAF81363A8E47996A0DE24564A79
310
4115AACE09C55E14540231FDA13C319787134EBF34E3A022514E5B4D9E0826E25C02D5805B15ABE1BEF51B26383D445DD9E875EE33FE4C22DA16427D65A3BCA92CA6D28DD01DF5DC53330704308475351050232CCD31583787BA75774AFB06E5070DD0C8EF484E19968C5D83BA5B90B244D31E54D55A372320FE4786B7EA58
310
44E135AA5467CB7EA333A61683CC6A8C3257034C10CF46F40EF9F5BE59BE5BD30C3C72D235E95D10345C1D45445A5F0BB47E46A5EBE5570F9380B5FA629579952296A773720405982B9DE04011506178964401AA8BDF1FBF0A8EAB6861DD6580C0E38217056766716DAEB2D6FA0917D3E4116581EADB879C4E7CFFB11EFACD
310
3D641311495D92C8676CB409A72D18610D803CE8A626049E8EC1887CB5B44CC39883690DDA8399B4B9855B481E7D71D4A9D22F96E5BB73BF5793020C02137BF837504B0304140006080000CC70623B000000000000000000000000350000006662782F36394639363044362D344446342D343946362D394244322D32343142
310
43333846323333332F76657274696365732E62696E504B0304140006080800CC70623BF270F1330600000004000000360000006662782F36394639363044362D344446342D343946362D394244322D3234314243333846323333332F747269616E676C65732E62696E636660600000504B0304140006080000CC70623B0000
310
00000000000000000000370000006662782F36394639363044362D344446342D343946362D394244322D3234314243333846323333332F617474726962757465732E62696E504B0304140006080800CC70623B08DA0BD19000000041010000360000006662782F36394639363044362D344446342D343946362D394244322D
310
3234314243333846323333332F6469726563746F72792E786D6C858F410AC3201045AF22B36F53E9A60B35CBEEBAE80D244E44489C6234F4F835464A48035D0DF398FF9F8AF63D0E6CC63039F212F8F9020C7D47C6792B21C5FE7403D62A1188E2E60C98D7234A5830286103A55745067B9D86B8A3CF9C7F90C11DE607FB14
310
4396D7B6A82D282E9A152AD114D5EF2CB866EEE831B8EEA07A7BB5A8D7D61A2BAAEB7FD5F70921FF497D00504B0304140006080800CC70623BCA768048FE000000A00100003B0000006662782F36394639363044362D344446342D343946362D394244322D3234314243333846323333332F7265736F75726365732F636F72
310
652E786D6C8D50596E833010BD0A9ADFCA60D600328E9AA639412F609909B1126CE4A5EAF16B0295DABFFECC8CDEA2797AECF8353F924FB44E193D409E5248504B332A3D0D10FC95B4901C39B3C6F85F3248B49871801506CE266BC2B243D2688FDA47549B11775038871E12F988C7004EDE7016A9083E2ADC3D5D84BC8B09
310
D33C8D74D471E6BC8D0192EDC93A815B742658898E651BCB59086ADC356A8C3FD555A1055ED7E7E254D615792D0F075295F585746FF53B694EE78A565DD736979A65AB9933AFE69F8CD2A2F038022F28ED489E135A7CE4554F9BBEA85E68DB53CAB255FEC71496F19FA6A0B42F8B3DEE6673C0F318E4497096AD7DC5F52C33
310
EEB55BFE0D504B010214000A0000080000CC70623B3DEE336E79000000790000001B00000000000000000000000000000000006175746F6465736B2D64657369676E2D7061636B6167652E786D6C504B01021400140006080800CC70623BD486FD9CA0000000F40000001300000000000000000000000000B20000005B436F
310
6E74656E745F54797065735D2E786D6C504B01021400140006080800CC70623BD9DDAED0EC0000007C010000080000000000000000000000000083010000636F72652E786D6C504B01021400140006080800CC70623B55019EA25F0000007C000000070000000000000000000000000095020000636E782E786D6C504B0102
310
1400140006080800CC70623BA24EB22D72010000D40300000C00000000000000000000000000190300006662782F636F72652E786D6C504B01021400140006080800CC70623B408A7D3B7C0000009D0000000B00000000000000000000000000B50400006662782F636E782E786D6C504B01021400140006080800CC70623B
310
449FB9BD290100001202000031000000000000000000000000005A0500006662782F36394639363044362D344446342D343946362D394244322D3234314243333846323333332F636F72652E786D6C504B01021400140006080800CC70623BAD7543B64E010000330300003000000000000000000000000000D20600006662
310
782F36394639363044362D344446342D343946362D394244322D3234314243333846323333332F636E782E786D6C504B01021400140006080800CC70623B8D05915C650500003B10000034000000000000000000000000006E0800006662782F36394639363044362D344446342D343946362D394244322D32343142433338
310
46323333332F6F626A656374732E786D6C504B01021400140006080000CC70623B0000000000000000000000003500000000000000000000000000250E00006662782F36394639363044362D344446342D343946362D394244322D3234314243333846323333332F76657274696365732E62696E504B010214001400060808
310
00CC70623BF270F13306000000040000003600000000000000000000000000780E00006662782F36394639363044362D344446342D343946362D394244322D3234314243333846323333332F747269616E676C65732E62696E504B01021400140006080000CC70623B00000000000000000000000037000000000000000000
310
00000000D20E00006662782F36394639363044362D344446342D343946362D394244322D3234314243333846323333332F617474726962757465732E62696E504B01021400140006080800CC70623B08DA0BD190000000410100003600000000000000000000000000270F00006662782F36394639363044362D344446342D
310
343946362D394244322D3234314243333846323333332F6469726563746F72792E786D6C504B01021400140006080800CC70623BCA768048FE000000A00100003B000000000000000000000000000B1000006662782F36394639363044362D344446342D343946362D394244322D3234314243333846323333332F7265736F
310
75726365732F636F72652E786D6C504B0506000000000E000E0080040000621100000000
  0
XRECORD
  5
176
102
{ACAD_REACTORS
330
173
102
}
330
173
100
AcDbXrecord
280
     1
270
     1
271
     1
  0
XRECORD
  5
177
102
{ACAD_REACTORS
330
173
102
}
330
173
100
AcDbXrecord
280
     1
270
     1
271
     1
  0
XRECORD
  5
409D
102
{ACAD_REACTORS
330
409C
102
}
330
409C
100
AcDbXrecord
280
     1
102
ACAD_ROUNDTRIP_2012_MLEADER_STYLE
298
     1
  0
XRECORD
  5
40AF
102
{ACAD_REACTORS
330
40AE
102
}
330
40AE
100
AcDbXrecord
280
     1
102
DISPLAYNAME
  1
Metric50
102
FLAGS
 90
        0
  0
CELLSTYLEMAP
  5
406F
102
{ACAD_REACTORS
330
162
102
}
330
162
100
AcDbCellStyleMap
 90
        3
300
CELLSTYLE
  1
TABLEFORMAT_BEGIN
 90
        5
170
     1
 91
        0
 92
    32768
 62
   257
 93
        1
300
CONTENTFORMAT
  1
CONTENTFORMAT_BEGIN
 90
        0
 91
        0
 92
      512
 93
        0
300

 40
0.0
140
1.0
 94
        5
 62
     0
340
11
144
6.0
309
CONTENTFORMAT_END
171
     1
301
MARGIN
  1
CELLMARGIN_BEGIN
 40
1.5
 40
1.5
 40
1.5
 40
1.5
 40
4.5
 40
4.5
309
CELLMARGIN_END
 94
        6
 95
        1
302
GRIDFORMAT
  1
GRIDFORMAT_BEGIN
 90
        0
 91
        1
 62
     0
 92
       -2
340
14
 93
        0
 40
1.125
309
GRIDFORMAT_END
 95
        2
302
GRIDFORMAT
  1
GRIDFORMAT_BEGIN
 90
        0
 91
        1
 62
     0
 92
       -2
340
14
 93
        0
 40
1.125
309
GRIDFORMAT_END
 95
        4
302
GRIDFORMAT
  1
GRIDFORMAT_BEGIN
 90
        0
 91
        1
 62
     0
 92
       -2
340
14
 93
        0
 40
1.125
309
GRIDFORMAT_END
 95
        8
302
GRIDFORMAT
  1
GRIDFORMAT_BEGIN
 90
        0
 91
        1
 62
     0
 92
       -2
340
14
 93
        0
 40
1.125
309
GRIDFORMAT_END
 95
       16
302
GRIDFORMAT
  1
GRIDFORMAT_BEGIN
 90
        0
 91
        1
 62
     0
 92
       -2
340
14
 93
        0
 40
1.125
309
GRIDFORMAT_END
 95
       32
302
GRIDFORMAT
  1
GRIDFORMAT_BEGIN
 90
        0
 91
        1
 62
     0
 92
       -2
340
14
 93
        0
 40
1.125
309
GRIDFORMAT_END
309
TABLEFORMAT_END
  1
CELLSTYLE_BEGIN
 90
        1
 91
        1
300
_TITLE
309
CELLSTYLE_END
300
CELLSTYLE
  1
TABLEFORMAT_BEGIN
 90
        5
170
     1
 91
        0
 92
        0
 62
   257
 93
        1
300
CONTENTFORMAT
  1
CONTENTFORMAT_BEGIN
 90
        0
 91
        0
 92
      512
 93
        0
300

 40
0.0
140
1.0
 94
        5
 62
     0
340
11
144
4.5
309
CONTENTFORMAT_END
171
     1
301
MARGIN
  1
CELLMARGIN_BEGIN
 40
1.5
 40
1.5
 40
1.5
 40
1.5
 40
4.5
 40
4.5
309
CELLMARGIN_END
 94
        6
 95
        1
302
GRIDFORMAT
  1
GRIDFORMAT_BEGIN
 90
        0
 91
        1
 62
     0
 92
       -2
340
14
 93
        0
 40
1.125
309
GRIDFORMAT_END
 95
        2
302
GRIDFORMAT
  1
GRIDFORMAT_BEGIN
 90
        0
 91
        1
 62
     0
 92
       -2
340
14
 93
        0
 40
1.125
309
GRIDFORMAT_END
 95
        4
302
GRIDFORMAT
  1
GRIDFORMAT_BEGIN
 90
        0
 91
        1
 62
     0
 92
       -2
340
14
 93
        0
 40
1.125
309
GRIDFORMAT_END
 95
        8
302
GRIDFORMAT
  1
GRIDFORMAT_BEGIN
 90
        0
 91
        1
 62
     0
 92
       -2
340
14
 93
        0
 40
1.125
309
GRIDFORMAT_END
 95
       16
302
GRIDFORMAT
  1
GRIDFORMAT_BEGIN
 90
        0
 91
        1
 62
     0
 92
       -2
340
14
 93
        0
 40
1.125
309
GRIDFORMAT_END
 95
       32
302
GRIDFORMAT
  1
GRIDFORMAT_BEGIN
 90
        0
 91
        1
 62
     0
 92
       -2
340
14
 93
        0
 40
1.125
309
GRIDFORMAT_END
309
TABLEFORMAT_END
  1
CELLSTYLE_BEGIN
 90
        2
 91
        1
300
_HEADER
309
CELLSTYLE_END
300
CELLSTYLE
  1
TABLEFORMAT_BEGIN
 90
        5
170
     1
 91
        0
 92
        0
 62
   257
 93
        1
300
CONTENTFORMAT
  1
CONTENTFORMAT_BEGIN
 90
        0
 91
        0
 92
      512
 93
        0
300

 40
0.0
140
1.0
 94
        2
 62
     0
340
11
144
4.5
309
CONTENTFORMAT_END
171
     1
301
MARGIN
  1
CELLMARGIN_BEGIN
 40
1.5
 40
1.5
 40
1.5
 40
1.5
 40
4.5
 40
4.5
309
CELLMARGIN_END
 94
        6
 95
        1
302
GRIDFORMAT
  1
GRIDFORMAT_BEGIN
 90
        0
 91
        1
 62
     0
 92
       -2
340
14
 93
        0
 40
1.125
309
GRIDFORMAT_END
 95
        2
302
GRIDFORMAT
  1
GRIDFORMAT_BEGIN
 90
        0
 91
        1
 62
     0
 92
       -2
340
14
 93
        0
 40
1.125
309
GRIDFORMAT_END
 95
        4
302
GRIDFORMAT
  1
GRIDFORMAT_BEGIN
 90
        0
 91
        1
 62
     0
 92
       -2
340
14
 93
        0
 40
1.125
309
GRIDFORMAT_END
 95
        8
302
GRIDFORMAT
  1
GRIDFORMAT_BEGIN
 90
        0
 91
        1
 62
     0
 92
       -2
340
14
 93
        0
 40
1.125
309
GRIDFORMAT_END
 95
       16
302
GRIDFORMAT
  1
GRIDFORMAT_BEGIN
 90
        0
 91
        1
 62
     0
 92
       -2
340
14
 93
        0
 40
1.125
309
GRIDFORMAT_END
 95
       32
302
GRIDFORMAT
  1
GRIDFORMAT_BEGIN
 90
        0
 91
        1
 62
     0
 92
       -2
340
14
 93
        0
 40
1.125
309
GRIDFORMAT_END
309
TABLEFORMAT_END
  1
CELLSTYLE_BEGIN
 90
        3
 91
        2
300
_DATA
309
CELLSTYLE_END
  0
XRECORD
  5
4074
102
{ACAD_REACTORS
330
162
102
}
330
162
100
AcDbXrecord
280
     1
102
ACAD_ROUNDTRIP_PRE2007_TABLESTYLE
 90
      512
 91
        0
  1

 92
      512
 93
        0
  2

 94
      512
 95
        0
  3

  0
XRECORD
  5
4087
102
{ACAD_REACTORS
330
4086
102
}
330
4086
100
AcDbXrecord
280
     1
102
RTVSPost2010Prop28
280
     1
102
RTVSPost2010PropOp28
 70
     1
102
RTVSPost2010Prop29
280
     1
102
RTVSPost2010PropOp29
 70
     1
102
RTVSPost2010Prop30
280
     0
102
RTVSPost2010PropOp30
 70
     1
102
RTVSPost2010Prop31
280
     0
102
RTVSPost2010PropOp31
 70
     1
102
RTVSPost2010Prop32
280
     0
102
RTVSPost2010PropOp32
 70
     1
102
RTVSPost2010Prop33
280
     0
102
RTVSPost2010PropOp33
 70
     1
102
RTVSPost2010Prop34
280
     0
102
RTVSPost2010PropOp34
 70
     1
102
RTVSPost2010Prop35
280
     0
102
RTVSPost2010PropOp35
 70
     1
102
RTVSPost2010Prop36
280
     0
102
RTVSPost2010PropOp36
 70
     1
102
RTVSPost2010Prop37
 90
       50
102
RTVSPost2010PropOp37
 70
     1
102
RTVSPost2010Prop38
140
0.0
102
RTVSPost2010PropOp38
 70
     1
102
RTVSPost2010Prop39
140
1.0
102
RTVSPost2010PropOp39
 70
     1
102
RTVSPost2010Prop40
 90
        0
102
RTVSPost2010PropOp40
 70
     1
102
RTVSPost2010Prop41ColorIndex
 90
       18
102
RTVSPost2010Prop41ColorRGB
 90
        0
102
RTVSPost2010PropOp41
 70
     1
102
RTVSPost2010Prop42
 90
       50
102
RTVSPost2010PropOp42
 70
     1
102
RTVSPost2010Prop43
 90
        3
102
RTVSPost2010PropOp43
 70
     1
102
RTVSPost2010Prop44ColorIndex
 90
        5
102
RTVSPost2010Prop44ColorRGB
 90
      255
102
RTVSPost2010PropOp44
 70
     1
102
RTVSPost2010Prop45
280
     0
102
RTVSPost2010PropOp45
 70
     1
102
RTVSPost2010Prop46
 90
       50
102
RTVSPost2010PropOp46
 70
     1
102
RTVSPost2010Prop47
 90
       50
102
RTVSPost2010PropOp47
 70
     1
102
RTVSPost2010Prop48
 90
       50
102
RTVSPost2010PropOp48
 70
     1
102
RTVSPost2010Prop49
280
     0
102
RTVSPost2010PropOp49
 70
     1
102
RTVSPost2010Prop50
 90
       50
102
RTVSPost2010PropOp50
 70
     1
102
RTVSPost2010Prop51ColorIndex
 90
      256
102
RTVSPost2010Prop51ColorRGB
 90
-16777216
102
RTVSPost2010PropOp51
 70
     0
102
RTVSPost2010Prop52
140
1.0
102
RTVSPost2010PropOp52
 70
     0
102
RTVSPost2010Prop53
 90
        2
102
RTVSPost2010PropOp53
 70
     1
102
RTVSPost2010Prop54
  1
strokes_ogs.tif
102
RTVSPost2010PropOp54
 70
     1
102
RTVSPost2010Prop55
280
     0
102
RTVSPost2010PropOp55
 70
     1
102
RTVSPost2010Prop56
140
1.0
102
RTVSPost2010PropOp56
 70
     1
102
RTVSPost2010Prop57
140
1.0
102
RTVSPost2010PropOp57
 70
     1
102
RTVSPropertyOp0
 70
     1
102
RTVSPropertyOp1
 70
     1
102
RTVSPropertyOp2
 70
     1
102
RTVSPropertyOp3
 70
     1
102
RTVSPropertyOp4
 70
     1
102
RTVSPropertyOp5
 70
     1
102
RTVSPropertyOp6
 70
     1
102
RTVSPropertyOp7
 70
     1
102
RTVSPropertyOp8
 70
     1
102
RTVSPropertyOp9
 70
     1
102
RTVSPropertyOp10
 70
     1
102
RTVSPropertyOp11
 70
     1
102
RTVSPropertyOp12
 70
     1
102
RTVSPropertyOp13
 70
     1
102
RTVSPropertyOp14
 70
     1
102
RTVSPropertyOp15
 70
     1
102
RTVSPropertyOp16
 70
     1
102
RTVSPropertyOp17
 70
     1
102
RTVSPropertyOp18
 70
     1
102
RTVSPropertyOp19
 70
     1
102
RTVSPropertyOp20
 70
     1
102
RTVSPropertyOp21
 70
     1
102
RTVSPropertyOp22
 70
     1
102
RTVSPropertyOp23
 70
     1
102
RTVSPropertyOp24
 70
     1
102
RTVSPropertyOp25
 70
     1
102
RTVSPropertyOp26
 70
     1
102
RTVSPropertyOp27
 70
     1
102
RTVSPropertyOp28
 70
     1
102
RTVSPropertyOp29
 70
     1
102
RTVSPropertyOp30
 70
     1
102
RTVSPropertyOp31
 70
     1
102
RTVSPropertyOp32
 70
     1
102
RTVSPropertyOp33
 70
     1
102
RTVSPropertyOp34
 70
     1
102
RTVSPropertyOp35
 70
     1
102
RTVSPropertyOp36
 70
     1
102
RTVSPropertyOp37
 70
     1
102
RTVSPropertyOp38
 70
     1
102
RTVSPropertyOp39
 70
     1
102
RTVSPropertyOp40
 70
     1
102
RTVSPropertyOp41
 70
     1
102
RTVSPropertyOp42
 70
     1
102
RTVSPropertyOp43
 70
     1
102
RTVSPropertyOp44
 70
     1
102
RTVSPropertyOp45
 70
     1
102
RTVSPropertyOp46
 70
     1
102
RTVSPropertyOp47
 70
     1
102
RTVSPropertyOp48
 70
     1
102
RTVSPropertyOp49
 70
     1
102
RTVSPropertyOp50
 70
     1
102
RTVSPropertyOp51
 70
     0
102
RTVSPropertyOp52
 70
     0
102
RTVSPropertyOp53
 70
     1
102
RTVSPropertyOp54
 70
     1
102
RTVSPropertyOp55
 70
     1
102
RTVSPropertyOp56
 70
     1
102
RTVSPropertyOp57
 70
     1
102
RTVSPropertyOp58
 70
     1
102
RTVSPropertyOp59
 70
     1
102
RTVSPropertyOp60
 70
     1
102
RTVSPropertyOp61
 70
     1
102
RTVSPropertyOp62
 70
     1
  0
XRECORD
  5
4085
102
{ACAD_REACTORS
330
4084
102
}
330
4084
100
AcDbXrecord
280
     1
102
RTVSPost2010Prop28
280
     0
102
RTVSPost2010PropOp28
 70
     1
102
RTVSPost2010Prop29
280
     1
102
RTVSPost2010PropOp29
 70
     1
102
RTVSPost2010Prop30
280
     1
102
RTVSPost2010PropOp30
 70
     1
102
RTVSPost2010Prop31
280
     0
102
RTVSPost2010PropOp31
 70
     1
102
RTVSPost2010Prop32
280
     0
102
RTVSPost2010PropOp32
 70
     1
102
RTVSPost2010Prop33
280
     0
102
RTVSPost2010PropOp33
 70
     1
102
RTVSPost2010Prop34
280
     0
102
RTVSPost2010PropOp34
 70
     1
102
RTVSPost2010Prop35
280
     0
102
RTVSPost2010PropOp35
 70
     1
102
RTVSPost2010Prop36
280
     0
102
RTVSPost2010PropOp36
 70
     1
102
RTVSPost2010Prop37
 90
       50
102
RTVSPost2010PropOp37
 70
     1
102
RTVSPost2010Prop38
140
0.0
102
RTVSPost2010PropOp38
 70
     1
102
RTVSPost2010Prop39
140
1.0
102
RTVSPost2010PropOp39
 70
     1
102
RTVSPost2010Prop40
 90
        0
102
RTVSPost2010PropOp40
 70
     1
102
RTVSPost2010Prop41ColorIndex
 90
       18
102
RTVSPost2010Prop41ColorRGB
 90
        0
102
RTVSPost2010PropOp41
 70
     1
102
RTVSPost2010Prop42
 90
       50
102
RTVSPost2010PropOp42
 70
     1
102
RTVSPost2010Prop43
 90
        3
102
RTVSPost2010PropOp43
 70
     1
102
RTVSPost2010Prop44ColorIndex
 90
        5
102
RTVSPost2010Prop44ColorRGB
 90
      255
102
RTVSPost2010PropOp44
 70
     1
102
RTVSPost2010Prop45
280
     0
102
RTVSPost2010PropOp45
 70
     1
102
RTVSPost2010Prop46
 90
       50
102
RTVSPost2010PropOp46
 70
     1
102
RTVSPost2010Prop47
 90
       50
102
RTVSPost2010PropOp47
 70
     1
102
RTVSPost2010Prop48
 90
       50
102
RTVSPost2010PropOp48
 70
     1
102
RTVSPost2010Prop49
280
     0
102
RTVSPost2010PropOp49
 70
     1
102
RTVSPost2010Prop50
 90
       50
102
RTVSPost2010PropOp50
 70
     1
102
RTVSPost2010Prop51ColorIndex
 90
      256
102
RTVSPost2010Prop51ColorRGB
 90
-16777216
102
RTVSPost2010PropOp51
 70
     0
102
RTVSPost2010Prop52
140
1.0
102
RTVSPost2010PropOp52
 70
     0
102
RTVSPost2010Prop53
 90
        2
102
RTVSPost2010PropOp53
 70
     1
102
RTVSPost2010Prop54
  1
strokes_ogs.tif
102
RTVSPost2010PropOp54
 70
     1
102
RTVSPost2010Prop55
280
     0
102
RTVSPost2010PropOp55
 70
     1
102
RTVSPost2010Prop56
140
1.0
102
RTVSPost2010PropOp56
 70
     1
102
RTVSPost2010Prop57
140
1.0
102
RTVSPost2010PropOp57
 70
     1
102
RTVSPropertyOp0
 70
     1
102
RTVSPropertyOp1
 70
     1
102
RTVSPropertyOp2
 70
     1
102
RTVSPropertyOp3
 70
     1
102
RTVSPropertyOp4
 70
     1
102
RTVSPropertyOp5
 70
     1
102
RTVSPropertyOp6
 70
     1
102
RTVSPropertyOp7
 70
     1
102
RTVSPropertyOp8
 70
     1
102
RTVSPropertyOp9
 70
     1
102
RTVSPropertyOp10
 70
     1
102
RTVSPropertyOp11
 70
     1
102
RTVSPropertyOp12
 70
     1
102
RTVSPropertyOp13
 70
     1
102
RTVSPropertyOp14
 70
     1
102
RTVSPropertyOp15
 70
     1
102
RTVSPropertyOp16
 70
     1
102
RTVSPropertyOp17
 70
     1
102
RTVSPropertyOp18
 70
     1
102
RTVSPropertyOp19
 70
     1
102
RTVSPropertyOp20
 70
     1
102
RTVSPropertyOp21
 70
     1
102
RTVSPropertyOp22
 70
     1
102
RTVSPropertyOp23
 70
     1
102
RTVSPropertyOp24
 70
     1
102
RTVSPropertyOp25
 70
     1
102
RTVSPropertyOp26
 70
     1
102
RTVSPropertyOp27
 70
     1
102
RTVSPropertyOp28
 70
     1
102
RTVSPropertyOp29
 70
     1
102
RTVSPropertyOp30
 70
     1
102
RTVSPropertyOp31
 70
     1
102
RTVSPropertyOp32
 70
     1
102
RTVSPropertyOp33
 70
     1
102
RTVSPropertyOp34
 70
     1
102
RTVSPropertyOp35
 70
     1
102
RTVSPropertyOp36
 70
     1
102
RTVSPropertyOp37
 70
     1
102
RTVSPropertyOp38
 70
     1
102
RTVSPropertyOp39
 70
     1
102
RTVSPropertyOp40
 70
     1
102
RTVSPropertyOp41
 70
     1
102
RTVSPropertyOp42
 70
     1
102
RTVSPropertyOp43
 70
     1
102
RTVSPropertyOp44
 70
     1
102
RTVSPropertyOp45
 70
     1
102
RTVSPropertyOp46
 70
     1
102
RTVSPropertyOp47
 70
     1
102
RTVSPropertyOp48
 70
     1
102
RTVSPropertyOp49
 70
     1
102
RTVSPropertyOp50
 70
     1
102
RTVSPropertyOp51
 70
     0
102
RTVSPropertyOp52
 70
     0
102
RTVSPropertyOp53
 70
     1
102
RTVSPropertyOp54
 70
     1
102
RTVSPropertyOp55
 70
     1
102
RTVSPropertyOp56
 70
     1
102
RTVSPropertyOp57
 70
     1
102
RTVSPropertyOp58
 70
     1
102
RTVSPropertyOp59
 70
     1
102
RTVSPropertyOp60
 70
     1
102
RTVSPropertyOp61
 70
     1
102
RTVSPropertyOp62
 70
     1
  0
XRECORD
  5
4093
102
{ACAD_REACTORS
330
4092
102
}
330
4092
100
AcDbXrecord
280
     1
102
RTVSPost2010Prop28
280
     0
102
RTVSPost2010PropOp28
 70
     1
102
RTVSPost2010Prop29
280
     1
102
RTVSPost2010PropOp29
 70
     1
102
RTVSPost2010Prop30
280
     1
102
RTVSPost2010PropOp30
 70
     1
102
RTVSPost2010Prop31
280
     0
102
RTVSPost2010PropOp31
 70
     1
102
RTVSPost2010Prop32
280
     0
102
RTVSPost2010PropOp32
 70
     1
102
RTVSPost2010Prop33
280
     0
102
RTVSPost2010PropOp33
 70
     1
102
RTVSPost2010Prop34
280
     0
102
RTVSPost2010PropOp34
 70
     1
102
RTVSPost2010Prop35
280
     0
102
RTVSPost2010PropOp35
 70
     1
102
RTVSPost2010Prop36
280
     0
102
RTVSPost2010PropOp36
 70
     1
102
RTVSPost2010Prop37
 90
       50
102
RTVSPost2010PropOp37
 70
     1
102
RTVSPost2010Prop38
140
0.0
102
RTVSPost2010PropOp38
 70
     1
102
RTVSPost2010Prop39
140
1.0
102
RTVSPost2010PropOp39
 70
     1
102
RTVSPost2010Prop40
 90
        0
102
RTVSPost2010PropOp40
 70
     1
102
RTVSPost2010Prop41ColorIndex
 90
       18
102
RTVSPost2010Prop41ColorRGB
 90
        0
102
RTVSPost2010PropOp41
 70
     1
102
RTVSPost2010Prop42
 90
       50
102
RTVSPost2010PropOp42
 70
     1
102
RTVSPost2010Prop43
 90
        3
102
RTVSPost2010PropOp43
 70
     1
102
RTVSPost2010Prop44ColorIndex
 90
        5
102
RTVSPost2010Prop44ColorRGB
 90
      255
102
RTVSPost2010PropOp44
 70
     1
102
RTVSPost2010Prop45
280
     0
102
RTVSPost2010PropOp45
 70
     1
102
RTVSPost2010Prop46
 90
       50
102
RTVSPost2010PropOp46
 70
     1
102
RTVSPost2010Prop47
 90
       50
102
RTVSPost2010PropOp47
 70
     1
102
RTVSPost2010Prop48
 90
       50
102
RTVSPost2010PropOp48
 70
     1
102
RTVSPost2010Prop49
280
     0
102
RTVSPost2010PropOp49
 70
     1
102
RTVSPost2010Prop50
 90
       50
102
RTVSPost2010PropOp50
 70
     1
102
RTVSPost2010Prop51ColorIndex
 90
      256
102
RTVSPost2010Prop51ColorRGB
 90
-16777216
102
RTVSPost2010PropOp51
 70
     0
102
RTVSPost2010Prop52
140
1.0
102
RTVSPost2010PropOp52
 70
     0
102
RTVSPost2010Prop53
 90
        2
102
RTVSPost2010PropOp53
 70
     1
102
RTVSPost2010Prop54
  1
strokes_ogs.tif
102
RTVSPost2010PropOp54
 70
     1
102
RTVSPost2010Prop55
280
     0
102
RTVSPost2010PropOp55
 70
     1
102
RTVSPost2010Prop56
140
1.0
102
RTVSPost2010PropOp56
 70
     1
102
RTVSPost2010Prop57
140
1.0
102
RTVSPost2010PropOp57
 70
     1
102
RTVSPropertyOp0
 70
     1
102
RTVSPropertyOp1
 70
     1
102
RTVSPropertyOp2
 70
     1
102
RTVSPropertyOp3
 70
     1
102
RTVSPropertyOp4
 70
     1
102
RTVSPropertyOp5
 70
     1
102
RTVSPropertyOp6
 70
     1
102
RTVSPropertyOp7
 70
     1
102
RTVSPropertyOp8
 70
     1
102
RTVSPropertyOp9
 70
     1
102
RTVSPropertyOp10
 70
     1
102
RTVSPropertyOp11
 70
     1
102
RTVSPropertyOp12
 70
     1
102
RTVSPropertyOp13
 70
     1
102
RTVSPropertyOp14
 70
     1
102
RTVSPropertyOp15
 70
     1
102
RTVSPropertyOp16
 70
     1
102
RTVSPropertyOp17
 70
     1
102
RTVSPropertyOp18
 70
     1
102
RTVSPropertyOp19
 70
     1
102
RTVSPropertyOp20
 70
     1
102
RTVSPropertyOp21
 70
     1
102
RTVSPropertyOp22
 70
     1
102
RTVSPropertyOp23
 70
     1
102
RTVSPropertyOp24
 70
     1
102
RTVSPropertyOp25
 70
     1
102
RTVSPropertyOp26
 70
     1
102
RTVSPropertyOp27
 70
     1
102
RTVSPropertyOp28
 70
     1
102
RTVSPropertyOp29
 70
     1
102
RTVSPropertyOp30
 70
     1
102
RTVSPropertyOp31
 70
     1
102
RTVSPropertyOp32
 70
     1
102
RTVSPropertyOp33
 70
     1
102
RTVSPropertyOp34
 70
     1
102
RTVSPropertyOp35
 70
     1
102
RTVSPropertyOp36
 70
     1
102
RTVSPropertyOp37
 70
     1
102
RTVSPropertyOp38
 70
     1
102
RTVSPropertyOp39
 70
     1
102
RTVSPropertyOp40
 70
     1
102
RTVSPropertyOp41
 70
     1
102
RTVSPropertyOp42
 70
     1
102
RTVSPropertyOp43
 70
     1
102
RTVSPropertyOp44
 70
     1
102
RTVSPropertyOp45
 70
     1
102
RTVSPropertyOp46
 70
     1
102
RTVSPropertyOp47
 70
     1
102
RTVSPropertyOp48
 70
     1
102
RTVSPropertyOp49
 70
     1
102
RTVSPropertyOp50
 70
     1
102
RTVSPropertyOp51
 70
     0
102
RTVSPropertyOp52
 70
     0
102
RTVSPropertyOp53
 70
     1
102
RTVSPropertyOp54
 70
     1
102
RTVSPropertyOp55
 70
     1
102
RTVSPropertyOp56
 70
     1
102
RTVSPropertyOp57
 70
     1
102
RTVSPropertyOp58
 70
     1
102
RTVSPropertyOp59
 70
     1
102
RTVSPropertyOp60
 70
     1
102
RTVSPropertyOp61
 70
     1
102
RTVSPropertyOp62
 70
     1
  0
XRECORD
  5
409B
102
{ACAD_REACTORS
330
409A
102
}
330
409A
100
AcDbXrecord
280
     1
102
RTVSPost2010Prop28
280
     0
102
RTVSPost2010PropOp28
 70
     1
102
RTVSPost2010Prop29
280
     1
102
RTVSPost2010PropOp29
 70
     1
102
RTVSPost2010Prop30
280
     1
102
RTVSPost2010PropOp30
 70
     1
102
RTVSPost2010Prop31
280
     0
102
RTVSPost2010PropOp31
 70
     1
102
RTVSPost2010Prop32
280
     0
102
RTVSPost2010PropOp32
 70
     1
102
RTVSPost2010Prop33
280
     0
102
RTVSPost2010PropOp33
 70
     1
102
RTVSPost2010Prop34
280
     0
102
RTVSPost2010PropOp34
 70
     1
102
RTVSPost2010Prop35
280
     0
102
RTVSPost2010PropOp35
 70
     1
102
RTVSPost2010Prop36
280
     0
102
RTVSPost2010PropOp36
 70
     1
102
RTVSPost2010Prop37
 90
       50
102
RTVSPost2010PropOp37
 70
     1
102
RTVSPost2010Prop38
140
0.0
102
RTVSPost2010PropOp38
 70
     1
102
RTVSPost2010Prop39
140
1.0
102
RTVSPost2010PropOp39
 70
     1
102
RTVSPost2010Prop40
 90
        0
102
RTVSPost2010PropOp40
 70
     1
102
RTVSPost2010Prop41ColorIndex
 90
       18
102
RTVSPost2010Prop41ColorRGB
 90
        0
102
RTVSPost2010PropOp41
 70
     1
102
RTVSPost2010Prop42
 90
       50
102
RTVSPost2010PropOp42
 70
     1
102
RTVSPost2010Prop43
 90
        3
102
RTVSPost2010PropOp43
 70
     1
102
RTVSPost2010Prop44ColorIndex
 90
        5
102
RTVSPost2010Prop44ColorRGB
 90
      255
102
RTVSPost2010PropOp44
 70
     1
102
RTVSPost2010Prop45
280
     0
102
RTVSPost2010PropOp45
 70
     1
102
RTVSPost2010Prop46
 90
       50
102
RTVSPost2010PropOp46
 70
     1
102
RTVSPost2010Prop47
 90
       50
102
RTVSPost2010PropOp47
 70
     1
102
RTVSPost2010Prop48
 90
       50
102
RTVSPost2010PropOp48
 70
     1
102
RTVSPost2010Prop49
280
     0
102
RTVSPost2010PropOp49
 70
     1
102
RTVSPost2010Prop50
 90
       50
102
RTVSPost2010PropOp50
 70
     1
102
RTVSPost2010Prop51ColorIndex
 90
      256
102
RTVSPost2010Prop51ColorRGB
 90
-16777216
102
RTVSPost2010PropOp51
 70
     0
102
RTVSPost2010Prop52
140
1.0
102
RTVSPost2010PropOp52
 70
     0
102
RTVSPost2010Prop53
 90
        2
102
RTVSPost2010PropOp53
 70
     1
102
RTVSPost2010Prop54
  1
strokes_ogs.tif
102
RTVSPost2010PropOp54
 70
     1
102
RTVSPost2010Prop55
280
     0
102
RTVSPost2010PropOp55
 70
     1
102
RTVSPost2010Prop56
140
1.0
102
RTVSPost2010PropOp56
 70
     1
102
RTVSPost2010Prop57
140
1.0
102
RTVSPost2010PropOp57
 70
     1
102
RTVSPropertyOp0
 70
     1
102
RTVSPropertyOp1
 70
     1
102
RTVSPropertyOp2
 70
     1
102
RTVSPropertyOp3
 70
     1
102
RTVSPropertyOp4
 70
     1
102
RTVSPropertyOp5
 70
     1
102
RTVSPropertyOp6
 70
     1
102
RTVSPropertyOp7
 70
     1
102
RTVSPropertyOp8
 70
     1
102
RTVSPropertyOp9
 70
     1
102
RTVSPropertyOp10
 70
     1
102
RTVSPropertyOp11
 70
     1
102
RTVSPropertyOp12
 70
     1
102
RTVSPropertyOp13
 70
     1
102
RTVSPropertyOp14
 70
     1
102
RTVSPropertyOp15
 70
     1
102
RTVSPropertyOp16
 70
     1
102
RTVSPropertyOp17
 70
     1
102
RTVSPropertyOp18
 70
     1
102
RTVSPropertyOp19
 70
     1
102
RTVSPropertyOp20
 70
     1
102
RTVSPropertyOp21
 70
     1
102
RTVSPropertyOp22
 70
     1
102
RTVSPropertyOp23
 70
     1
102
RTVSPropertyOp24
 70
     1
102
RTVSPropertyOp25
 70
     1
102
RTVSPropertyOp26
 70
     1
102
RTVSPropertyOp27
 70
     1
102
RTVSPropertyOp28
 70
     1
102
RTVSPropertyOp29
 70
     1
102
RTVSPropertyOp30
 70
     1
102
RTVSPropertyOp31
 70
     1
102
RTVSPropertyOp32
 70
     1
102
RTVSPropertyOp33
 70
     1
102
RTVSPropertyOp34
 70
     1
102
RTVSPropertyOp35
 70
     1
102
RTVSPropertyOp36
 70
     1
102
RTVSPropertyOp37
 70
     1
102
RTVSPropertyOp38
 70
     1
102
RTVSPropertyOp39
 70
     1
102
RTVSPropertyOp40
 70
     1
102
RTVSPropertyOp41
 70
     1
102
RTVSPropertyOp42
 70
     1
102
RTVSPropertyOp43
 70
     1
102
RTVSPropertyOp44
 70
     1
102
RTVSPropertyOp45
 70
     1
102
RTVSPropertyOp46
 70
     1
102
RTVSPropertyOp47
 70
     1
102
RTVSPropertyOp48
 70
     1
102
RTVSPropertyOp49
 70
     1
102
RTVSPropertyOp50
 70
     1
102
RTVSPropertyOp51
 70
     0
102
RTVSPropertyOp52
 70
     0
102
RTVSPropertyOp53
 70
     1
102
RTVSPropertyOp54
 70
     1
102
RTVSPropertyOp55
 70
     1
102
RTVSPropertyOp56
 70
     1
102
RTVSPropertyOp57
 70
     1
102
RTVSPropertyOp58
 70
     1
102
RTVSPropertyOp59
 70
     1
102
RTVSPropertyOp60
 70
     1
102
RTVSPropertyOp61
 70
     1
102
RTVSPropertyOp62
 70
     1
  0
XRECORD
  5
408D
102
{ACAD_REACTORS
330
408C
102
}
330
408C
100
AcDbXrecord
280
     1
102
RTVSPost2010Prop28
280
     0
102
RTVSPost2010PropOp28
 70
     1
102
RTVSPost2010Prop29
280
     1
102
RTVSPost2010PropOp29
 70
     1
102
RTVSPost2010Prop30
280
     1
102
RTVSPost2010PropOp30
 70
     1
102
RTVSPost2010Prop31
280
     0
102
RTVSPost2010PropOp31
 70
     1
102
RTVSPost2010Prop32
280
     0
102
RTVSPost2010PropOp32
 70
     1
102
RTVSPost2010Prop33
280
     0
102
RTVSPost2010PropOp33
 70
     1
102
RTVSPost2010Prop34
280
     0
102
RTVSPost2010PropOp34
 70
     1
102
RTVSPost2010Prop35
280
     0
102
RTVSPost2010PropOp35
 70
     1
102
RTVSPost2010Prop36
280
     0
102
RTVSPost2010PropOp36
 70
     1
102
RTVSPost2010Prop37
 90
       50
102
RTVSPost2010PropOp37
 70
     1
102
RTVSPost2010Prop38
140
0.0
102
RTVSPost2010PropOp38
 70
     1
102
RTVSPost2010Prop39
140
1.0
102
RTVSPost2010PropOp39
 70
     1
102
RTVSPost2010Prop40
 90
        0
102
RTVSPost2010PropOp40
 70
     1
102
RTVSPost2010Prop41ColorIndex
 90
       18
102
RTVSPost2010Prop41ColorRGB
 90
        0
102
RTVSPost2010PropOp41
 70
     1
102
RTVSPost2010Prop42
 90
       50
102
RTVSPost2010PropOp42
 70
     1
102
RTVSPost2010Prop43
 90
        3
102
RTVSPost2010PropOp43
 70
     1
102
RTVSPost2010Prop44ColorIndex
 90
        5
102
RTVSPost2010Prop44ColorRGB
 90
      255
102
RTVSPost2010PropOp44
 70
     1
102
RTVSPost2010Prop45
280
     0
102
RTVSPost2010PropOp45
 70
     1
102
RTVSPost2010Prop46
 90
       50
102
RTVSPost2010PropOp46
 70
     1
102
RTVSPost2010Prop47
 90
       50
102
RTVSPost2010PropOp47
 70
     1
102
RTVSPost2010Prop48
 90
       50
102
RTVSPost2010PropOp48
 70
     1
102
RTVSPost2010Prop49
280
     0
102
RTVSPost2010PropOp49
 70
     1
102
RTVSPost2010Prop50
 90
       50
102
RTVSPost2010PropOp50
 70
     1
102
RTVSPost2010Prop51ColorIndex
 90
      256
102
RTVSPost2010Prop51ColorRGB
 90
-16777216
102
RTVSPost2010PropOp51
 70
     0
102
RTVSPost2010Prop52
140
1.0
102
RTVSPost2010PropOp52
 70
     0
102
RTVSPost2010Prop53
 90
        2
102
RTVSPost2010PropOp53
 70
     1
102
RTVSPost2010Prop54
  1
strokes_ogs.tif
102
RTVSPost2010PropOp54
 70
     1
102
RTVSPost2010Prop55
280
     0
102
RTVSPost2010PropOp55
 70
     1
102
RTVSPost2010Prop56
140
1.0
102
RTVSPost2010PropOp56
 70
     1
102
RTVSPost2010Prop57
140
1.0
102
RTVSPost2010PropOp57
 70
     1
102
RTVSPropertyOp0
 70
     1
102
RTVSPropertyOp1
 70
     1
102
RTVSPropertyOp2
 70
     1
102
RTVSPropertyOp3
 70
     1
102
RTVSPropertyOp4
 70
     1
102
RTVSPropertyOp5
 70
     1
102
RTVSPropertyOp6
 70
     1
102
RTVSPropertyOp7
 70
     1
102
RTVSPropertyOp8
 70
     1
102
RTVSPropertyOp9
 70
     1
102
RTVSPropertyOp10
 70
     1
102
RTVSPropertyOp11
 70
     1
102
RTVSPropertyOp12
 70
     1
102
RTVSPropertyOp13
 70
     1
102
RTVSPropertyOp14
 70
     1
102
RTVSPropertyOp15
 70
     1
102
RTVSPropertyOp16
 70
     1
102
RTVSPropertyOp17
 70
     1
102
RTVSPropertyOp18
 70
     1
102
RTVSPropertyOp19
 70
     1
102
RTVSPropertyOp20
 70
     1
102
RTVSPropertyOp21
 70
     1
102
RTVSPropertyOp22
 70
     1
102
RTVSPropertyOp23
 70
     1
102
RTVSPropertyOp24
 70
     1
102
RTVSPropertyOp25
 70
     1
102
RTVSPropertyOp26
 70
     1
102
RTVSPropertyOp27
 70
     1
102
RTVSPropertyOp28
 70
     1
102
RTVSPropertyOp29
 70
     1
102
RTVSPropertyOp30
 70
     1
102
RTVSPropertyOp31
 70
     1
102
RTVSPropertyOp32
 70
     1
102
RTVSPropertyOp33
 70
     1
102
RTVSPropertyOp34
 70
     1
102
RTVSPropertyOp35
 70
     1
102
RTVSPropertyOp36
 70
     1
102
RTVSPropertyOp37
 70
     1
102
RTVSPropertyOp38
 70
     1
102
RTVSPropertyOp39
 70
     1
102
RTVSPropertyOp40
 70
     1
102
RTVSPropertyOp41
 70
     1
102
RTVSPropertyOp42
 70
     1
102
RTVSPropertyOp43
 70
     1
102
RTVSPropertyOp44
 70
     1
102
RTVSPropertyOp45
 70
     1
102
RTVSPropertyOp46
 70
     1
102
RTVSPropertyOp47
 70
     1
102
RTVSPropertyOp48
 70
     1
102
RTVSPropertyOp49
 70
     1
102
RTVSPropertyOp50
 70
     1
102
RTVSPropertyOp51
 70
     0
102
RTVSPropertyOp52
 70
     0
102
RTVSPropertyOp53
 70
     1
102
RTVSPropertyOp54
 70
     1
102
RTVSPropertyOp55
 70
     1
102
RTVSPropertyOp56
 70
     1
102
RTVSPropertyOp57
 70
     1
102
RTVSPropertyOp58
 70
     1
102
RTVSPropertyOp59
 70
     1
102
RTVSPropertyOp60
 70
     1
102
RTVSPropertyOp61
 70
     1
102
RTVSPropertyOp62
 70
     1
  0
XRECORD
  5
4091
102
{ACAD_REACTORS
330
4090
102
}
330
4090
100
AcDbXrecord
280
     1
102
RTVSPost2010Prop28
280
     0
102
RTVSPost2010PropOp28
 70
     1
102
RTVSPost2010Prop29
280
     1
102
RTVSPost2010PropOp29
 70
     1
102
RTVSPost2010Prop30
280
     1
102
RTVSPost2010PropOp30
 70
     1
102
RTVSPost2010Prop31
280
     0
102
RTVSPost2010PropOp31
 70
     1
102
RTVSPost2010Prop32
280
     0
102
RTVSPost2010PropOp32
 70
     1
102
RTVSPost2010Prop33
280
     0
102
RTVSPost2010PropOp33
 70
     1
102
RTVSPost2010Prop34
280
     0
102
RTVSPost2010PropOp34
 70
     1
102
RTVSPost2010Prop35
280
     0
102
RTVSPost2010PropOp35
 70
     1
102
RTVSPost2010Prop36
280
     0
102
RTVSPost2010PropOp36
 70
     1
102
RTVSPost2010Prop37
 90
       50
102
RTVSPost2010PropOp37
 70
     1
102
RTVSPost2010Prop38
140
0.0
102
RTVSPost2010PropOp38
 70
     1
102
RTVSPost2010Prop39
140
1.0
102
RTVSPost2010PropOp39
 70
     1
102
RTVSPost2010Prop40
 90
        0
102
RTVSPost2010PropOp40
 70
     1
102
RTVSPost2010Prop41ColorIndex
 90
       18
102
RTVSPost2010Prop41ColorRGB
 90
        0
102
RTVSPost2010PropOp41
 70
     1
102
RTVSPost2010Prop42
 90
       50
102
RTVSPost2010PropOp42
 70
     1
102
RTVSPost2010Prop43
 90
        3
102
RTVSPost2010PropOp43
 70
     1
102
RTVSPost2010Prop44ColorIndex
 90
        5
102
RTVSPost2010Prop44ColorRGB
 90
      255
102
RTVSPost2010PropOp44
 70
     1
102
RTVSPost2010Prop45
280
     0
102
RTVSPost2010PropOp45
 70
     1
102
RTVSPost2010Prop46
 90
       50
102
RTVSPost2010PropOp46
 70
     1
102
RTVSPost2010Prop47
 90
       50
102
RTVSPost2010PropOp47
 70
     1
102
RTVSPost2010Prop48
 90
       50
102
RTVSPost2010PropOp48
 70
     1
102
RTVSPost2010Prop49
280
     0
102
RTVSPost2010PropOp49
 70
     1
102
RTVSPost2010Prop50
 90
       50
102
RTVSPost2010PropOp50
 70
     1
102
RTVSPost2010Prop51ColorIndex
 90
      256
102
RTVSPost2010Prop51ColorRGB
 90
-16777216
102
RTVSPost2010PropOp51
 70
     0
102
RTVSPost2010Prop52
140
1.0
102
RTVSPost2010PropOp52
 70
     0
102
RTVSPost2010Prop53
 90
        2
102
RTVSPost2010PropOp53
 70
     1
102
RTVSPost2010Prop54
  1
strokes_ogs.tif
102
RTVSPost2010PropOp54
 70
     1
102
RTVSPost2010Prop55
280
     0
102
RTVSPost2010PropOp55
 70
     1
102
RTVSPost2010Prop56
140
1.0
102
RTVSPost2010PropOp56
 70
     1
102
RTVSPost2010Prop57
140
1.0
102
RTVSPost2010PropOp57
 70
     1
102
RTVSPropertyOp0
 70
     1
102
RTVSPropertyOp1
 70
     1
102
RTVSPropertyOp2
 70
     1
102
RTVSPropertyOp3
 70
     1
102
RTVSPropertyOp4
 70
     1
102
RTVSPropertyOp5
 70
     1
102
RTVSPropertyOp6
 70
     1
102
RTVSPropertyOp7
 70
     1
102
RTVSPropertyOp8
 70
     1
102
RTVSPropertyOp9
 70
     1
102
RTVSPropertyOp10
 70
     1
102
RTVSPropertyOp11
 70
     1
102
RTVSPropertyOp12
 70
     1
102
RTVSPropertyOp13
 70
     1
102
RTVSPropertyOp14
 70
     1
102
RTVSPropertyOp15
 70
     1
102
RTVSPropertyOp16
 70
     1
102
RTVSPropertyOp17
 70
     1
102
RTVSPropertyOp18
 70
     1
102
RTVSPropertyOp19
 70
     1
102
RTVSPropertyOp20
 70
     1
102
RTVSPropertyOp21
 70
     1
102
RTVSPropertyOp22
 70
     1
102
RTVSPropertyOp23
 70
     1
102
RTVSPropertyOp24
 70
     1
102
RTVSPropertyOp25
 70
     1
102
RTVSPropertyOp26
 70
     1
102
RTVSPropertyOp27
 70
     1
102
RTVSPropertyOp28
 70
     1
102
RTVSPropertyOp29
 70
     1
102
RTVSPropertyOp30
 70
     1
102
RTVSPropertyOp31
 70
     1
102
RTVSPropertyOp32
 70
     1
102
RTVSPropertyOp33
 70
     1
102
RTVSPropertyOp34
 70
     1
102
RTVSPropertyOp35
 70
     1
102
RTVSPropertyOp36
 70
     1
102
RTVSPropertyOp37
 70
     1
102
RTVSPropertyOp38
 70
     1
102
RTVSPropertyOp39
 70
     1
102
RTVSPropertyOp40
 70
     1
102
RTVSPropertyOp41
 70
     1
102
RTVSPropertyOp42
 70
     1
102
RTVSPropertyOp43
 70
     1
102
RTVSPropertyOp44
 70
     1
102
RTVSPropertyOp45
 70
     1
102
RTVSPropertyOp46
 70
     1
102
RTVSPropertyOp47
 70
     1
102
RTVSPropertyOp48
 70
     1
102
RTVSPropertyOp49
 70
     1
102
RTVSPropertyOp50
 70
     1
102
RTVSPropertyOp51
 70
     0
102
RTVSPropertyOp52
 70
     0
102
RTVSPropertyOp53
 70
     1
102
RTVSPropertyOp54
 70
     1
102
RTVSPropertyOp55
 70
     1
102
RTVSPropertyOp56
 70
     1
102
RTVSPropertyOp57
 70
     1
102
RTVSPropertyOp58
 70
     1
102
RTVSPropertyOp59
 70
     1
102
RTVSPropertyOp60
 70
     1
102
RTVSPropertyOp61
 70
     1
102
RTVSPropertyOp62
 70
     1
  0
XRECORD
  5
40A3
102
{ACAD_REACTORS
330
40A2
102
}
330
40A2
100
AcDbXrecord
280
     1
102
RTVSPost2010Prop28
280
     0
102
RTVSPost2010PropOp28
 70
     1
102
RTVSPost2010Prop29
280
     1
102
RTVSPost2010PropOp29
 70
     1
102
RTVSPost2010Prop30
280
     1
102
RTVSPost2010PropOp30
 70
     1
102
RTVSPost2010Prop31
280
     0
102
RTVSPost2010PropOp31
 70
     1
102
RTVSPost2010Prop32
280
     0
102
RTVSPost2010PropOp32
 70
     1
102
RTVSPost2010Prop33
280
     0
102
RTVSPost2010PropOp33
 70
     1
102
RTVSPost2010Prop34
280
     0
102
RTVSPost2010PropOp34
 70
     1
102
RTVSPost2010Prop35
280
     0
102
RTVSPost2010PropOp35
 70
     1
102
RTVSPost2010Prop36
280
     0
102
RTVSPost2010PropOp36
 70
     1
102
RTVSPost2010Prop37
 90
       50
102
RTVSPost2010PropOp37
 70
     1
102
RTVSPost2010Prop38
140
0.0
102
RTVSPost2010PropOp38
 70
     1
102
RTVSPost2010Prop39
140
1.0
102
RTVSPost2010PropOp39
 70
     1
102
RTVSPost2010Prop40
 90
        0
102
RTVSPost2010PropOp40
 70
     1
102
RTVSPost2010Prop41ColorIndex
 90
       18
102
RTVSPost2010Prop41ColorRGB
 90
        0
102
RTVSPost2010PropOp41
 70
     1
102
RTVSPost2010Prop42
 90
       50
102
RTVSPost2010PropOp42
 70
     1
102
RTVSPost2010Prop43
 90
        3
102
RTVSPost2010PropOp43
 70
     1
102
RTVSPost2010Prop44ColorIndex
 90
        5
102
RTVSPost2010Prop44ColorRGB
 90
      255
102
RTVSPost2010PropOp44
 70
     1
102
RTVSPost2010Prop45
280
     0
102
RTVSPost2010PropOp45
 70
     1
102
RTVSPost2010Prop46
 90
       50
102
RTVSPost2010PropOp46
 70
     1
102
RTVSPost2010Prop47
 90
       50
102
RTVSPost2010PropOp47
 70
     1
102
RTVSPost2010Prop48
 90
       50
102
RTVSPost2010PropOp48
 70
     1
102
RTVSPost2010Prop49
280
     0
102
RTVSPost2010PropOp49
 70
     1
102
RTVSPost2010Prop50
 90
       50
102
RTVSPost2010PropOp50
 70
     1
102
RTVSPost2010Prop51ColorIndex
 90
      256
102
RTVSPost2010Prop51ColorRGB
 90
-16777216
102
RTVSPost2010PropOp51
 70
     0
102
RTVSPost2010Prop52
140
1.0
102
RTVSPost2010PropOp52
 70
     0
102
RTVSPost2010Prop53
 90
        2
102
RTVSPost2010PropOp53
 70
     1
102
RTVSPost2010Prop54
  1
strokes_ogs.tif
102
RTVSPost2010PropOp54
 70
     1
102
RTVSPost2010Prop55
280
     0
102
RTVSPost2010PropOp55
 70
     1
102
RTVSPost2010Prop56
140
1.0
102
RTVSPost2010PropOp56
 70
     1
102
RTVSPost2010Prop57
140
1.0
102
RTVSPost2010PropOp57
 70
     1
102
RTVSPropertyOp0
 70
     0
102
RTVSPropertyOp1
 70
     0
102
RTVSPropertyOp2
 70
     0
102
RTVSPropertyOp3
 70
     0
102
RTVSPropertyOp4
 70
     0
102
RTVSPropertyOp5
 70
     0
102
RTVSPropertyOp6
 70
     0
102
RTVSPropertyOp7
 70
     0
102
RTVSPropertyOp8
 70
     0
102
RTVSPropertyOp9
 70
     0
102
RTVSPropertyOp10
 70
     0
102
RTVSPropertyOp11
 70
     0
102
RTVSPropertyOp12
 70
     0
102
RTVSPropertyOp13
 70
     0
102
RTVSPropertyOp14
 70
     2
102
RTVSPropertyOp15
 70
     0
102
RTVSPropertyOp16
 70
     0
102
RTVSPropertyOp17
 70
     0
102
RTVSPropertyOp18
 70
     0
102
RTVSPropertyOp19
 70
     0
102
RTVSPropertyOp20
 70
     0
102
RTVSPropertyOp21
 70
     0
102
RTVSPropertyOp22
 70
     0
102
RTVSPropertyOp23
 70
     0
102
RTVSPropertyOp24
 70
     0
102
RTVSPropertyOp25
 70
     0
102
RTVSPropertyOp26
 70
     0
102
RTVSPropertyOp27
 70
     0
102
RTVSPropertyOp28
 70
     1
102
RTVSPropertyOp29
 70
     1
102
RTVSPropertyOp30
 70
     1
102
RTVSPropertyOp31
 70
     1
102
RTVSPropertyOp32
 70
     1
102
RTVSPropertyOp33
 70
     1
102
RTVSPropertyOp34
 70
     1
102
RTVSPropertyOp35
 70
     1
102
RTVSPropertyOp36
 70
     1
102
RTVSPropertyOp37
 70
     1
102
RTVSPropertyOp38
 70
     1
102
RTVSPropertyOp39
 70
     1
102
RTVSPropertyOp40
 70
     1
102
RTVSPropertyOp41
 70
     1
102
RTVSPropertyOp42
 70
     1
102
RTVSPropertyOp43
 70
     1
102
RTVSPropertyOp44
 70
     1
102
RTVSPropertyOp45
 70
     1
102
RTVSPropertyOp46
 70
     1
102
RTVSPropertyOp47
 70
     1
102
RTVSPropertyOp48
 70
     1
102
RTVSPropertyOp49
 70
     1
102
RTVSPropertyOp50
 70
     1
102
RTVSPropertyOp51
 70
     0
102
RTVSPropertyOp52
 70
     0
102
RTVSPropertyOp53
 70
     1
102
RTVSPropertyOp54
 70
     1
102
RTVSPropertyOp55
 70
     1
102
RTVSPropertyOp56
 70
     1
102
RTVSPropertyOp57
 70
     1
102
RTVSPropertyOp58
 70
     1
102
RTVSPropertyOp59
 70
     1
102
RTVSPropertyOp60
 70
     1
102
RTVSPropertyOp61
 70
     1
102
RTVSPropertyOp62
 70
     1
  0
XRECORD
  5
4099
102
{ACAD_REACTORS
330
4098
102
}
330
4098
100
AcDbXrecord
280
     1
102
RTVSPost2010Prop28
280
     0
102
RTVSPost2010PropOp28
 70
     1
102
RTVSPost2010Prop29
280
     1
102
RTVSPost2010PropOp29
 70
     1
102
RTVSPost2010Prop30
280
     1
102
RTVSPost2010PropOp30
 70
     1
102
RTVSPost2010Prop31
280
     0
102
RTVSPost2010PropOp31
 70
     1
102
RTVSPost2010Prop32
280
     0
102
RTVSPost2010PropOp32
 70
     1
102
RTVSPost2010Prop33
280
     0
102
RTVSPost2010PropOp33
 70
     1
102
RTVSPost2010Prop34
280
     0
102
RTVSPost2010PropOp34
 70
     1
102
RTVSPost2010Prop35
280
     0
102
RTVSPost2010PropOp35
 70
     1
102
RTVSPost2010Prop36
280
     0
102
RTVSPost2010PropOp36
 70
     1
102
RTVSPost2010Prop37
 90
       50
102
RTVSPost2010PropOp37
 70
     1
102
RTVSPost2010Prop38
140
0.0
102
RTVSPost2010PropOp38
 70
     1
102
RTVSPost2010Prop39
140
1.0
102
RTVSPost2010PropOp39
 70
     1
102
RTVSPost2010Prop40
 90
        0
102
RTVSPost2010PropOp40
 70
     1
102
RTVSPost2010Prop41ColorIndex
 90
       18
102
RTVSPost2010Prop41ColorRGB
 90
        0
102
RTVSPost2010PropOp41
 70
     1
102
RTVSPost2010Prop42
 90
       50
102
RTVSPost2010PropOp42
 70
     1
102
RTVSPost2010Prop43
 90
        3
102
RTVSPost2010PropOp43
 70
     1
102
RTVSPost2010Prop44ColorIndex
 90
        5
102
RTVSPost2010Prop44ColorRGB
 90
      255
102
RTVSPost2010PropOp44
 70
     1
102
RTVSPost2010Prop45
280
     0
102
RTVSPost2010PropOp45
 70
     1
102
RTVSPost2010Prop46
 90
       50
102
RTVSPost2010PropOp46
 70
     1
102
RTVSPost2010Prop47
 90
       50
102
RTVSPost2010PropOp47
 70
     1
102
RTVSPost2010Prop48
 90
       50
102
RTVSPost2010PropOp48
 70
     1
102
RTVSPost2010Prop49
280
     0
102
RTVSPost2010PropOp49
 70
     1
102
RTVSPost2010Prop50
 90
       50
102
RTVSPost2010PropOp50
 70
     1
102
RTVSPost2010Prop51ColorIndex
 90
      256
102
RTVSPost2010Prop51ColorRGB
 90
-16777216
102
RTVSPost2010PropOp51
 70
     0
102
RTVSPost2010Prop52
140
1.0
102
RTVSPost2010PropOp52
 70
     0
102
RTVSPost2010Prop53
 90
        2
102
RTVSPost2010PropOp53
 70
     1
102
RTVSPost2010Prop54
  1
strokes_ogs.tif
102
RTVSPost2010PropOp54
 70
     1
102
RTVSPost2010Prop55
280
     0
102
RTVSPost2010PropOp55
 70
     1
102
RTVSPost2010Prop56
140
1.0
102
RTVSPost2010PropOp56
 70
     1
102
RTVSPost2010Prop57
140
1.0
102
RTVSPost2010PropOp57
 70
     1
102
RTVSPropertyOp0
 70
     1
102
RTVSPropertyOp1
 70
     1
102
RTVSPropertyOp2
 70
     1
102
RTVSPropertyOp3
 70
     1
102
RTVSPropertyOp4
 70
     1
102
RTVSPropertyOp5
 70
     1
102
RTVSPropertyOp6
 70
     1
102
RTVSPropertyOp7
 70
     1
102
RTVSPropertyOp8
 70
     1
102
RTVSPropertyOp9
 70
     1
102
RTVSPropertyOp10
 70
     1
102
RTVSPropertyOp11
 70
     1
102
RTVSPropertyOp12
 70
     1
102
RTVSPropertyOp13
 70
     1
102
RTVSPropertyOp14
 70
     1
102
RTVSPropertyOp15
 70
     1
102
RTVSPropertyOp16
 70
     1
102
RTVSPropertyOp17
 70
     1
102
RTVSPropertyOp18
 70
     1
102
RTVSPropertyOp19
 70
     1
102
RTVSPropertyOp20
 70
     1
102
RTVSPropertyOp21
 70
     1
102
RTVSPropertyOp22
 70
     1
102
RTVSPropertyOp23
 70
     1
102
RTVSPropertyOp24
 70
     1
102
RTVSPropertyOp25
 70
     1
102
RTVSPropertyOp26
 70
     1
102
RTVSPropertyOp27
 70
     1
102
RTVSPropertyOp28
 70
     1
102
RTVSPropertyOp29
 70
     1
102
RTVSPropertyOp30
 70
     1
102
RTVSPropertyOp31
 70
     1
102
RTVSPropertyOp32
 70
     1
102
RTVSPropertyOp33
 70
     1
102
RTVSPropertyOp34
 70
     1
102
RTVSPropertyOp35
 70
     1
102
RTVSPropertyOp36
 70
     1
102
RTVSPropertyOp37
 70
     1
102
RTVSPropertyOp38
 70
     1
102
RTVSPropertyOp39
 70
     1
102
RTVSPropertyOp40
 70
     1
102
RTVSPropertyOp41
 70
     1
102
RTVSPropertyOp42
 70
     1
102
RTVSPropertyOp43
 70
     1
102
RTVSPropertyOp44
 70
     1
102
RTVSPropertyOp45
 70
     1
102
RTVSPropertyOp46
 70
     1
102
RTVSPropertyOp47
 70
     1
102
RTVSPropertyOp48
 70
     1
102
RTVSPropertyOp49
 70
     1
102
RTVSPropertyOp50
 70
     1
102
RTVSPropertyOp51
 70
     0
102
RTVSPropertyOp52
 70
     0
102
RTVSPropertyOp53
 70
     1
102
RTVSPropertyOp54
 70
     1
102
RTVSPropertyOp55
 70
     1
102
RTVSPropertyOp56
 70
     1
102
RTVSPropertyOp57
 70
     1
102
RTVSPropertyOp58
 70
     1
102
RTVSPropertyOp59
 70
     1
102
RTVSPropertyOp60
 70
     1
102
RTVSPropertyOp61
 70
     1
102
RTVSPropertyOp62
 70
     1
  0
XRECORD
  5
407D
102
{ACAD_REACTORS
330
407C
102
}
330
407C
100
AcDbXrecord
280
     1
102
RTVSPost2010Prop28
280
     0
102
RTVSPost2010PropOp28
 70
     1
102
RTVSPost2010Prop29
280
     1
102
RTVSPost2010PropOp29
 70
     1
102
RTVSPost2010Prop30
280
     1
102
RTVSPost2010PropOp30
 70
     1
102
RTVSPost2010Prop31
280
     0
102
RTVSPost2010PropOp31
 70
     1
102
RTVSPost2010Prop32
280
     0
102
RTVSPost2010PropOp32
 70
     1
102
RTVSPost2010Prop33
280
     0
102
RTVSPost2010PropOp33
 70
     1
102
RTVSPost2010Prop34
280
     0
102
RTVSPost2010PropOp34
 70
     1
102
RTVSPost2010Prop35
280
     0
102
RTVSPost2010PropOp35
 70
     1
102
RTVSPost2010Prop36
280
     0
102
RTVSPost2010PropOp36
 70
     1
102
RTVSPost2010Prop37
 90
       50
102
RTVSPost2010PropOp37
 70
     1
102
RTVSPost2010Prop38
140
0.0
102
RTVSPost2010PropOp38
 70
     1
102
RTVSPost2010Prop39
140
1.0
102
RTVSPost2010PropOp39
 70
     1
102
RTVSPost2010Prop40
 90
        0
102
RTVSPost2010PropOp40
 70
     1
102
RTVSPost2010Prop41ColorIndex
 90
       18
102
RTVSPost2010Prop41ColorRGB
 90
        0
102
RTVSPost2010PropOp41
 70
     1
102
RTVSPost2010Prop42
 90
       50
102
RTVSPost2010PropOp42
 70
     1
102
RTVSPost2010Prop43
 90
        3
102
RTVSPost2010PropOp43
 70
     1
102
RTVSPost2010Prop44ColorIndex
 90
        5
102
RTVSPost2010Prop44ColorRGB
 90
      255
102
RTVSPost2010PropOp44
 70
     1
102
RTVSPost2010Prop45
280
     0
102
RTVSPost2010PropOp45
 70
     1
102
RTVSPost2010Prop46
 90
       50
102
RTVSPost2010PropOp46
 70
     1
102
RTVSPost2010Prop47
 90
       50
102
RTVSPost2010PropOp47
 70
     1
102
RTVSPost2010Prop48
 90
       50
102
RTVSPost2010PropOp48
 70
     1
102
RTVSPost2010Prop49
280
     0
102
RTVSPost2010PropOp49
 70
     1
102
RTVSPost2010Prop50
 90
       50
102
RTVSPost2010PropOp50
 70
     1
102
RTVSPost2010Prop51ColorIndex
 90
      256
102
RTVSPost2010Prop51ColorRGB
 90
-16777216
102
RTVSPost2010PropOp51
 70
     0
102
RTVSPost2010Prop52
140
1.0
102
RTVSPost2010PropOp52
 70
     0
102
RTVSPost2010Prop53
 90
        2
102
RTVSPost2010PropOp53
 70
     1
102
RTVSPost2010Prop54
  1
strokes_ogs.tif
102
RTVSPost2010PropOp54
 70
     1
102
RTVSPost2010Prop55
280
     0
102
RTVSPost2010PropOp55
 70
     1
102
RTVSPost2010Prop56
140
1.0
102
RTVSPost2010PropOp56
 70
     1
102
RTVSPost2010Prop57
140
1.0
102
RTVSPost2010PropOp57
 70
     1
102
RTVSPropertyOp0
 70
     1
102
RTVSPropertyOp1
 70
     1
102
RTVSPropertyOp2
 70
     1
102
RTVSPropertyOp3
 70
     1
102
RTVSPropertyOp4
 70
     1
102
RTVSPropertyOp5
 70
     1
102
RTVSPropertyOp6
 70
     1
102
RTVSPropertyOp7
 70
     1
102
RTVSPropertyOp8
 70
     1
102
RTVSPropertyOp9
 70
     1
102
RTVSPropertyOp10
 70
     1
102
RTVSPropertyOp11
 70
     1
102
RTVSPropertyOp12
 70
     1
102
RTVSPropertyOp13
 70
     1
102
RTVSPropertyOp14
 70
     1
102
RTVSPropertyOp15
 70
     1
102
RTVSPropertyOp16
 70
     1
102
RTVSPropertyOp17
 70
     1
102
RTVSPropertyOp18
 70
     1
102
RTVSPropertyOp19
 70
     1
102
RTVSPropertyOp20
 70
     1
102
RTVSPropertyOp21
 70
     1
102
RTVSPropertyOp22
 70
     1
102
RTVSPropertyOp23
 70
     1
102
RTVSPropertyOp24
 70
     1
102
RTVSPropertyOp25
 70
     1
102
RTVSPropertyOp26
 70
     1
102
RTVSPropertyOp27
 70
     1
102
RTVSPropertyOp28
 70
     1
102
RTVSPropertyOp29
 70
     1
102
RTVSPropertyOp30
 70
     1
102
RTVSPropertyOp31
 70
     1
102
RTVSPropertyOp32
 70
     1
102
RTVSPropertyOp33
 70
     1
102
RTVSPropertyOp34
 70
     1
102
RTVSPropertyOp35
 70
     1
102
RTVSPropertyOp36
 70
     1
102
RTVSPropertyOp37
 70
     1
102
RTVSPropertyOp38
 70
     1
102
RTVSPropertyOp39
 70
     1
102
RTVSPropertyOp40
 70
     1
102
RTVSPropertyOp41
 70
     1
102
RTVSPropertyOp42
 70
     1
102
RTVSPropertyOp43
 70
     1
102
RTVSPropertyOp44
 70
     1
102
RTVSPropertyOp45
 70
     1
102
RTVSPropertyOp46
 70
     1
102
RTVSPropertyOp47
 70
     1
102
RTVSPropertyOp48
 70
     1
102
RTVSPropertyOp49
 70
     1
102
RTVSPropertyOp50
 70
     1
102
RTVSPropertyOp51
 70
     0
102
RTVSPropertyOp52
 70
     0
102
RTVSPropertyOp53
 70
     1
102
RTVSPropertyOp54
 70
     1
102
RTVSPropertyOp55
 70
     1
102
RTVSPropertyOp56
 70
     1
102
RTVSPropertyOp57
 70
     1
102
RTVSPropertyOp58
 70
     1
102
RTVSPropertyOp59
 70
     1
102
RTVSPropertyOp60
 70
     1
102
RTVSPropertyOp61
 70
     1
102
RTVSPropertyOp62
 70
     1
  0
XRECORD
  5
407F
102
{ACAD_REACTORS
330
407E
102
}
330
407E
100
AcDbXrecord
280
     1
102
RTVSPost2010Prop28
280
     0
102
RTVSPost2010PropOp28
 70
     1
102
RTVSPost2010Prop29
280
     1
102
RTVSPost2010PropOp29
 70
     1
102
RTVSPost2010Prop30
280
     1
102
RTVSPost2010PropOp30
 70
     1
102
RTVSPost2010Prop31
280
     0
102
RTVSPost2010PropOp31
 70
     1
102
RTVSPost2010Prop32
280
     0
102
RTVSPost2010PropOp32
 70
     1
102
RTVSPost2010Prop33
280
     0
102
RTVSPost2010PropOp33
 70
     1
102
RTVSPost2010Prop34
280
     0
102
RTVSPost2010PropOp34
 70
     1
102
RTVSPost2010Prop35
280
     0
102
RTVSPost2010PropOp35
 70
     1
102
RTVSPost2010Prop36
280
     0
102
RTVSPost2010PropOp36
 70
     1
102
RTVSPost2010Prop37
 90
       50
102
RTVSPost2010PropOp37
 70
     1
102
RTVSPost2010Prop38
140
0.0
102
RTVSPost2010PropOp38
 70
     1
102
RTVSPost2010Prop39
140
1.0
102
RTVSPost2010PropOp39
 70
     1
102
RTVSPost2010Prop40
 90
        0
102
RTVSPost2010PropOp40
 70
     1
102
RTVSPost2010Prop41ColorIndex
 90
       18
102
RTVSPost2010Prop41ColorRGB
 90
        0
102
RTVSPost2010PropOp41
 70
     1
102
RTVSPost2010Prop42
 90
       50
102
RTVSPost2010PropOp42
 70
     1
102
RTVSPost2010Prop43
 90
        3
102
RTVSPost2010PropOp43
 70
     1
102
RTVSPost2010Prop44ColorIndex
 90
        5
102
RTVSPost2010Prop44ColorRGB
 90
      255
102
RTVSPost2010PropOp44
 70
     1
102
RTVSPost2010Prop45
280
     0
102
RTVSPost2010PropOp45
 70
     1
102
RTVSPost2010Prop46
 90
       50
102
RTVSPost2010PropOp46
 70
     1
102
RTVSPost2010Prop47
 90
       50
102
RTVSPost2010PropOp47
 70
     1
102
RTVSPost2010Prop48
 90
       50
102
RTVSPost2010PropOp48
 70
     1
102
RTVSPost2010Prop49
280
     0
102
RTVSPost2010PropOp49
 70
     1
102
RTVSPost2010Prop50
 90
       50
102
RTVSPost2010PropOp50
 70
     1
102
RTVSPost2010Prop51ColorIndex
 90
      256
102
RTVSPost2010Prop51ColorRGB
 90
-16777216
102
RTVSPost2010PropOp51
 70
     0
102
RTVSPost2010Prop52
140
1.0
102
RTVSPost2010PropOp52
 70
     0
102
RTVSPost2010Prop53
 90
        2
102
RTVSPost2010PropOp53
 70
     1
102
RTVSPost2010Prop54
  1
strokes_ogs.tif
102
RTVSPost2010PropOp54
 70
     1
102
RTVSPost2010Prop55
280
     0
102
RTVSPost2010PropOp55
 70
     1
102
RTVSPost2010Prop56
140
1.0
102
RTVSPost2010PropOp56
 70
     1
102
RTVSPost2010Prop57
140
1.0
102
RTVSPost2010PropOp57
 70
     1
102
RTVSPropertyOp0
 70
     1
102
RTVSPropertyOp1
 70
     1
102
RTVSPropertyOp2
 70
     1
102
RTVSPropertyOp3
 70
     1
102
RTVSPropertyOp4
 70
     1
102
RTVSPropertyOp5
 70
     1
102
RTVSPropertyOp6
 70
     1
102
RTVSPropertyOp7
 70
     1
102
RTVSPropertyOp8
 70
     1
102
RTVSPropertyOp9
 70
     1
102
RTVSPropertyOp10
 70
     1
102
RTVSPropertyOp11
 70
     1
102
RTVSPropertyOp12
 70
     1
102
RTVSPropertyOp13
 70
     1
102
RTVSPropertyOp14
 70
     1
102
RTVSPropertyOp15
 70
     1
102
RTVSPropertyOp16
 70
     1
102
RTVSPropertyOp17
 70
     1
102
RTVSPropertyOp18
 70
     1
102
RTVSPropertyOp19
 70
     1
102
RTVSPropertyOp20
 70
     1
102
RTVSPropertyOp21
 70
     1
102
RTVSPropertyOp22
 70
     1
102
RTVSPropertyOp23
 70
     1
102
RTVSPropertyOp24
 70
     1
102
RTVSPropertyOp25
 70
     1
102
RTVSPropertyOp26
 70
     1
102
RTVSPropertyOp27
 70
     1
102
RTVSPropertyOp28
 70
     1
102
RTVSPropertyOp29
 70
     1
102
RTVSPropertyOp30
 70
     1
102
RTVSPropertyOp31
 70
     1
102
RTVSPropertyOp32
 70
     1
102
RTVSPropertyOp33
 70
     1
102
RTVSPropertyOp34
 70
     1
102
RTVSPropertyOp35
 70
     1
102
RTVSPropertyOp36
 70
     1
102
RTVSPropertyOp37
 70
     1
102
RTVSPropertyOp38
 70
     1
102
RTVSPropertyOp39
 70
     1
102
RTVSPropertyOp40
 70
     1
102
RTVSPropertyOp41
 70
     1
102
RTVSPropertyOp42
 70
     1
102
RTVSPropertyOp43
 70
     1
102
RTVSPropertyOp44
 70
     1
102
RTVSPropertyOp45
 70
     1
102
RTVSPropertyOp46
 70
     1
102
RTVSPropertyOp47
 70
     1
102
RTVSPropertyOp48
 70
     1
102
RTVSPropertyOp49
 70
     1
102
RTVSPropertyOp50
 70
     1
102
RTVSPropertyOp51
 70
     0
102
RTVSPropertyOp52
 70
     0
102
RTVSPropertyOp53
 70
     1
102
RTVSPropertyOp54
 70
     1
102
RTVSPropertyOp55
 70
     1
102
RTVSPropertyOp56
 70
     1
102
RTVSPropertyOp57
 70
     1
102
RTVSPropertyOp58
 70
     1
102
RTVSPropertyOp59
 70
     1
102
RTVSPropertyOp60
 70
     1
102
RTVSPropertyOp61
 70
     1
102
RTVSPropertyOp62
 70
     1
  0
XRECORD
  5
4081
102
{ACAD_REACTORS
330
4080
102
}
330
4080
100
AcDbXrecord
280
     1
102
RTVSPost2010Prop28
280
     0
102
RTVSPost2010PropOp28
 70
     1
102
RTVSPost2010Prop29
280
     1
102
RTVSPost2010PropOp29
 70
     1
102
RTVSPost2010Prop30
280
     1
102
RTVSPost2010PropOp30
 70
     1
102
RTVSPost2010Prop31
280
     0
102
RTVSPost2010PropOp31
 70
     1
102
RTVSPost2010Prop32
280
     0
102
RTVSPost2010PropOp32
 70
     1
102
RTVSPost2010Prop33
280
     0
102
RTVSPost2010PropOp33
 70
     1
102
RTVSPost2010Prop34
280
     0
102
RTVSPost2010PropOp34
 70
     1
102
RTVSPost2010Prop35
280
     0
102
RTVSPost2010PropOp35
 70
     1
102
RTVSPost2010Prop36
280
     0
102
RTVSPost2010PropOp36
 70
     1
102
RTVSPost2010Prop37
 90
       50
102
RTVSPost2010PropOp37
 70
     1
102
RTVSPost2010Prop38
140
0.0
102
RTVSPost2010PropOp38
 70
     1
102
RTVSPost2010Prop39
140
1.0
102
RTVSPost2010PropOp39
 70
     1
102
RTVSPost2010Prop40
 90
        0
102
RTVSPost2010PropOp40
 70
     1
102
RTVSPost2010Prop41ColorIndex
 90
       18
102
RTVSPost2010Prop41ColorRGB
 90
        0
102
RTVSPost2010PropOp41
 70
     1
102
RTVSPost2010Prop42
 90
       50
102
RTVSPost2010PropOp42
 70
     1
102
RTVSPost2010Prop43
 90
        3
102
RTVSPost2010PropOp43
 70
     1
102
RTVSPost2010Prop44ColorIndex
 90
        5
102
RTVSPost2010Prop44ColorRGB
 90
      255
102
RTVSPost2010PropOp44
 70
     1
102
RTVSPost2010Prop45
280
     0
102
RTVSPost2010PropOp45
 70
     1
102
RTVSPost2010Prop46
 90
       50
102
RTVSPost2010PropOp46
 70
     1
102
RTVSPost2010Prop47
 90
       50
102
RTVSPost2010PropOp47
 70
     1
102
RTVSPost2010Prop48
 90
       50
102
RTVSPost2010PropOp48
 70
     1
102
RTVSPost2010Prop49
280
     0
102
RTVSPost2010PropOp49
 70
     1
102
RTVSPost2010Prop50
 90
       50
102
RTVSPost2010PropOp50
 70
     1
102
RTVSPost2010Prop51ColorIndex
 90
      256
102
RTVSPost2010Prop51ColorRGB
 90
-16777216
102
RTVSPost2010PropOp51
 70
     0
102
RTVSPost2010Prop52
140
1.0
102
RTVSPost2010PropOp52
 70
     0
102
RTVSPost2010Prop53
 90
        2
102
RTVSPost2010PropOp53
 70
     1
102
RTVSPost2010Prop54
  1
strokes_ogs.tif
102
RTVSPost2010PropOp54
 70
     1
102
RTVSPost2010Prop55
280
     0
102
RTVSPost2010PropOp55
 70
     1
102
RTVSPost2010Prop56
140
1.0
102
RTVSPost2010PropOp56
 70
     1
102
RTVSPost2010Prop57
140
1.0
102
RTVSPost2010PropOp57
 70
     1
102
RTVSPropertyOp0
 70
     1
102
RTVSPropertyOp1
 70
     1
102
RTVSPropertyOp2
 70
     1
102
RTVSPropertyOp3
 70
     1
102
RTVSPropertyOp4
 70
     1
102
RTVSPropertyOp5
 70
     1
102
RTVSPropertyOp6
 70
     1
102
RTVSPropertyOp7
 70
     1
102
RTVSPropertyOp8
 70
     1
102
RTVSPropertyOp9
 70
     1
102
RTVSPropertyOp10
 70
     1
102
RTVSPropertyOp11
 70
     1
102
RTVSPropertyOp12
 70
     1
102
RTVSPropertyOp13
 70
     1
102
RTVSPropertyOp14
 70
     1
102
RTVSPropertyOp15
 70
     1
102
RTVSPropertyOp16
 70
     1
102
RTVSPropertyOp17
 70
     1
102
RTVSPropertyOp18
 70
     1
102
RTVSPropertyOp19
 70
     1
102
RTVSPropertyOp20
 70
     1
102
RTVSPropertyOp21
 70
     1
102
RTVSPropertyOp22
 70
     1
102
RTVSPropertyOp23
 70
     1
102
RTVSPropertyOp24
 70
     1
102
RTVSPropertyOp25
 70
     1
102
RTVSPropertyOp26
 70
     1
102
RTVSPropertyOp27
 70
     1
102
RTVSPropertyOp28
 70
     1
102
RTVSPropertyOp29
 70
     1
102
RTVSPropertyOp30
 70
     1
102
RTVSPropertyOp31
 70
     1
102
RTVSPropertyOp32
 70
     1
102
RTVSPropertyOp33
 70
     1
102
RTVSPropertyOp34
 70
     1
102
RTVSPropertyOp35
 70
     1
102
RTVSPropertyOp36
 70
     1
102
RTVSPropertyOp37
 70
     1
102
RTVSPropertyOp38
 70
     1
102
RTVSPropertyOp39
 70
     1
102
RTVSPropertyOp40
 70
     1
102
RTVSPropertyOp41
 70
     1
102
RTVSPropertyOp42
 70
     1
102
RTVSPropertyOp43
 70
     1
102
RTVSPropertyOp44
 70
     1
102
RTVSPropertyOp45
 70
     1
102
RTVSPropertyOp46
 70
     1
102
RTVSPropertyOp47
 70
     1
102
RTVSPropertyOp48
 70
     1
102
RTVSPropertyOp49
 70
     1
102
RTVSPropertyOp50
 70
     1
102
RTVSPropertyOp51
 70
     0
102
RTVSPropertyOp52
 70
     0
102
RTVSPropertyOp53
 70
     1
102
RTVSPropertyOp54
 70
     1
102
RTVSPropertyOp55
 70
     1
102
RTVSPropertyOp56
 70
     1
102
RTVSPropertyOp57
 70
     1
102
RTVSPropertyOp58
 70
     1
102
RTVSPropertyOp59
 70
     1
102
RTVSPropertyOp60
 70
     1
102
RTVSPropertyOp61
 70
     1
102
RTVSPropertyOp62
 70
     1
  0
XRECORD
  5
4083
102
{ACAD_REACTORS
330
4082
102
}
330
4082
100
AcDbXrecord
280
     1
102
RTVSPost2010Prop28
280
     0
102
RTVSPost2010PropOp28
 70
     1
102
RTVSPost2010Prop29
280
     1
102
RTVSPost2010PropOp29
 70
     1
102
RTVSPost2010Prop30
280
     1
102
RTVSPost2010PropOp30
 70
     1
102
RTVSPost2010Prop31
280
     0
102
RTVSPost2010PropOp31
 70
     1
102
RTVSPost2010Prop32
280
     0
102
RTVSPost2010PropOp32
 70
     1
102
RTVSPost2010Prop33
280
     0
102
RTVSPost2010PropOp33
 70
     1
102
RTVSPost2010Prop34
280
     0
102
RTVSPost2010PropOp34
 70
     1
102
RTVSPost2010Prop35
280
     0
102
RTVSPost2010PropOp35
 70
     1
102
RTVSPost2010Prop36
280
     0
102
RTVSPost2010PropOp36
 70
     1
102
RTVSPost2010Prop37
 90
       50
102
RTVSPost2010PropOp37
 70
     1
102
RTVSPost2010Prop38
140
0.0
102
RTVSPost2010PropOp38
 70
     1
102
RTVSPost2010Prop39
140
1.0
102
RTVSPost2010PropOp39
 70
     1
102
RTVSPost2010Prop40
 90
        0
102
RTVSPost2010PropOp40
 70
     1
102
RTVSPost2010Prop41ColorIndex
 90
       18
102
RTVSPost2010Prop41ColorRGB
 90
        0
102
RTVSPost2010PropOp41
 70
     1
102
RTVSPost2010Prop42
 90
       50
102
RTVSPost2010PropOp42
 70
     1
102
RTVSPost2010Prop43
 90
        3
102
RTVSPost2010PropOp43
 70
     1
102
RTVSPost2010Prop44ColorIndex
 90
        5
102
RTVSPost2010Prop44ColorRGB
 90
      255
102
RTVSPost2010PropOp44
 70
     1
102
RTVSPost2010Prop45
280
     0
102
RTVSPost2010PropOp45
 70
     1
102
RTVSPost2010Prop46
 90
       50
102
RTVSPost2010PropOp46
 70
     1
102
RTVSPost2010Prop47
 90
       50
102
RTVSPost2010PropOp47
 70
     1
102
RTVSPost2010Prop48
 90
       50
102
RTVSPost2010PropOp48
 70
     1
102
RTVSPost2010Prop49
280
     0
102
RTVSPost2010PropOp49
 70
     1
102
RTVSPost2010Prop50
 90
       50
102
RTVSPost2010PropOp50
 70
     1
102
RTVSPost2010Prop51ColorIndex
 90
      256
102
RTVSPost2010Prop51ColorRGB
 90
-16777216
102
RTVSPost2010PropOp51
 70
     0
102
RTVSPost2010Prop52
140
1.0
102
RTVSPost2010PropOp52
 70
     0
102
RTVSPost2010Prop53
 90
        2
102
RTVSPost2010PropOp53
 70
     1
102
RTVSPost2010Prop54
  1
strokes_ogs.tif
102
RTVSPost2010PropOp54
 70
     1
102
RTVSPost2010Prop55
280
     0
102
RTVSPost2010PropOp55
 70
     1
102
RTVSPost2010Prop56
140
1.0
102
RTVSPost2010PropOp56
 70
     1
102
RTVSPost2010Prop57
140
1.0
102
RTVSPost2010PropOp57
 70
     1
102
RTVSPropertyOp0
 70
     1
102
RTVSPropertyOp1
 70
     1
102
RTVSPropertyOp2
 70
     1
102
RTVSPropertyOp3
 70
     1
102
RTVSPropertyOp4
 70
     1
102
RTVSPropertyOp5
 70
     1
102
RTVSPropertyOp6
 70
     1
102
RTVSPropertyOp7
 70
     1
102
RTVSPropertyOp8
 70
     1
102
RTVSPropertyOp9
 70
     1
102
RTVSPropertyOp10
 70
     1
102
RTVSPropertyOp11
 70
     1
102
RTVSPropertyOp12
 70
     1
102
RTVSPropertyOp13
 70
     1
102
RTVSPropertyOp14
 70
     1
102
RTVSPropertyOp15
 70
     1
102
RTVSPropertyOp16
 70
     1
102
RTVSPropertyOp17
 70
     1
102
RTVSPropertyOp18
 70
     1
102
RTVSPropertyOp19
 70
     1
102
RTVSPropertyOp20
 70
     1
102
RTVSPropertyOp21
 70
     1
102
RTVSPropertyOp22
 70
     1
102
RTVSPropertyOp23
 70
     1
102
RTVSPropertyOp24
 70
     1
102
RTVSPropertyOp25
 70
     1
102
RTVSPropertyOp26
 70
     1
102
RTVSPropertyOp27
 70
     1
102
RTVSPropertyOp28
 70
     1
102
RTVSPropertyOp29
 70
     1
102
RTVSPropertyOp30
 70
     1
102
RTVSPropertyOp31
 70
     1
102
RTVSPropertyOp32
 70
     1
102
RTVSPropertyOp33
 70
     1
102
RTVSPropertyOp34
 70
     1
102
RTVSPropertyOp35
 70
     1
102
RTVSPropertyOp36
 70
     1
102
RTVSPropertyOp37
 70
     1
102
RTVSPropertyOp38
 70
     1
102
RTVSPropertyOp39
 70
     1
102
RTVSPropertyOp40
 70
     1
102
RTVSPropertyOp41
 70
     1
102
RTVSPropertyOp42
 70
     1
102
RTVSPropertyOp43
 70
     1
102
RTVSPropertyOp44
 70
     1
102
RTVSPropertyOp45
 70
     1
102
RTVSPropertyOp46
 70
     1
102
RTVSPropertyOp47
 70
     1
102
RTVSPropertyOp48
 70
     1
102
RTVSPropertyOp49
 70
     1
102
RTVSPropertyOp50
 70
     1
102
RTVSPropertyOp51
 70
     0
102
RTVSPropertyOp52
 70
     0
102
RTVSPropertyOp53
 70
     1
102
RTVSPropertyOp54
 70
     1
102
RTVSPropertyOp55
 70
     1
102
RTVSPropertyOp56
 70
     1
102
RTVSPropertyOp57
 70
     1
102
RTVSPropertyOp58
 70
     1
102
RTVSPropertyOp59
 70
     1
102
RTVSPropertyOp60
 70
     1
102
RTVSPropertyOp61
 70
     1
102
RTVSPropertyOp62
 70
     1
  0
XRECORD
  5
408B
102
{ACAD_REACTORS
330
408A
102
}
330
408A
100
AcDbXrecord
280
     1
102
RTVSPost2010Prop28
280
     0
102
RTVSPost2010PropOp28
 70
     1
102
RTVSPost2010Prop29
280
     1
102
RTVSPost2010PropOp29
 70
     1
102
RTVSPost2010Prop30
280
     1
102
RTVSPost2010PropOp30
 70
     1
102
RTVSPost2010Prop31
280
     0
102
RTVSPost2010PropOp31
 70
     1
102
RTVSPost2010Prop32
280
     0
102
RTVSPost2010PropOp32
 70
     1
102
RTVSPost2010Prop33
280
     0
102
RTVSPost2010PropOp33
 70
     1
102
RTVSPost2010Prop34
280
     0
102
RTVSPost2010PropOp34
 70
     1
102
RTVSPost2010Prop35
280
     0
102
RTVSPost2010PropOp35
 70
     1
102
RTVSPost2010Prop36
280
     0
102
RTVSPost2010PropOp36
 70
     1
102
RTVSPost2010Prop37
 90
       50
102
RTVSPost2010PropOp37
 70
     1
102
RTVSPost2010Prop38
140
0.0
102
RTVSPost2010PropOp38
 70
     1
102
RTVSPost2010Prop39
140
1.0
102
RTVSPost2010PropOp39
 70
     1
102
RTVSPost2010Prop40
 90
        0
102
RTVSPost2010PropOp40
 70
     1
102
RTVSPost2010Prop41ColorIndex
 90
       18
102
RTVSPost2010Prop41ColorRGB
 90
        0
102
RTVSPost2010PropOp41
 70
     1
102
RTVSPost2010Prop42
 90
       50
102
RTVSPost2010PropOp42
 70
     1
102
RTVSPost2010Prop43
 90
        3
102
RTVSPost2010PropOp43
 70
     1
102
RTVSPost2010Prop44ColorIndex
 90
        5
102
RTVSPost2010Prop44ColorRGB
 90
      255
102
RTVSPost2010PropOp44
 70
     1
102
RTVSPost2010Prop45
280
     0
102
RTVSPost2010PropOp45
 70
     1
102
RTVSPost2010Prop46
 90
       50
102
RTVSPost2010PropOp46
 70
     1
102
RTVSPost2010Prop47
 90
       50
102
RTVSPost2010PropOp47
 70
     1
102
RTVSPost2010Prop48
 90
       50
102
RTVSPost2010PropOp48
 70
     1
102
RTVSPost2010Prop49
280
     0
102
RTVSPost2010PropOp49
 70
     1
102
RTVSPost2010Prop50
 90
       50
102
RTVSPost2010PropOp50
 70
     1
102
RTVSPost2010Prop51ColorIndex
 90
      256
102
RTVSPost2010Prop51ColorRGB
 90
-16777216
102
RTVSPost2010PropOp51
 70
     0
102
RTVSPost2010Prop52
140
1.0
102
RTVSPost2010PropOp52
 70
     0
102
RTVSPost2010Prop53
 90
        2
102
RTVSPost2010PropOp53
 70
     1
102
RTVSPost2010Prop54
  1
strokes_ogs.tif
102
RTVSPost2010PropOp54
 70
     1
102
RTVSPost2010Prop55
280
     0
102
RTVSPost2010PropOp55
 70
     1
102
RTVSPost2010Prop56
140
1.0
102
RTVSPost2010PropOp56
 70
     1
102
RTVSPost2010Prop57
140
1.0
102
RTVSPost2010PropOp57
 70
     1
102
RTVSPropertyOp0
 70
     1
102
RTVSPropertyOp1
 70
     1
102
RTVSPropertyOp2
 70
     1
102
RTVSPropertyOp3
 70
     1
102
RTVSPropertyOp4
 70
     1
102
RTVSPropertyOp5
 70
     1
102
RTVSPropertyOp6
 70
     1
102
RTVSPropertyOp7
 70
     1
102
RTVSPropertyOp8
 70
     1
102
RTVSPropertyOp9
 70
     1
102
RTVSPropertyOp10
 70
     1
102
RTVSPropertyOp11
 70
     1
102
RTVSPropertyOp12
 70
     1
102
RTVSPropertyOp13
 70
     1
102
RTVSPropertyOp14
 70
     1
102
RTVSPropertyOp15
 70
     1
102
RTVSPropertyOp16
 70
     1
102
RTVSPropertyOp17
 70
     1
102
RTVSPropertyOp18
 70
     1
102
RTVSPropertyOp19
 70
     1
102
RTVSPropertyOp20
 70
     1
102
RTVSPropertyOp21
 70
     1
102
RTVSPropertyOp22
 70
     1
102
RTVSPropertyOp23
 70
     1
102
RTVSPropertyOp24
 70
     1
102
RTVSPropertyOp25
 70
     1
102
RTVSPropertyOp26
 70
     1
102
RTVSPropertyOp27
 70
     1
102
RTVSPropertyOp28
 70
     1
102
RTVSPropertyOp29
 70
     1
102
RTVSPropertyOp30
 70
     1
102
RTVSPropertyOp31
 70
     1
102
RTVSPropertyOp32
 70
     1
102
RTVSPropertyOp33
 70
     1
102
RTVSPropertyOp34
 70
     1
102
RTVSPropertyOp35
 70
     1
102
RTVSPropertyOp36
 70
     1
102
RTVSPropertyOp37
 70
     1
102
RTVSPropertyOp38
 70
     1
102
RTVSPropertyOp39
 70
     1
102
RTVSPropertyOp40
 70
     1
102
RTVSPropertyOp41
 70
     1
102
RTVSPropertyOp42
 70
     1
102
RTVSPropertyOp43
 70
     1
102
RTVSPropertyOp44
 70
     1
102
RTVSPropertyOp45
 70
     1
102
RTVSPropertyOp46
 70
     1
102
RTVSPropertyOp47
 70
     1
102
RTVSPropertyOp48
 70
     1
102
RTVSPropertyOp49
 70
     1
102
RTVSPropertyOp50
 70
     1
102
RTVSPropertyOp51
 70
     0
102
RTVSPropertyOp52
 70
     0
102
RTVSPropertyOp53
 70
     1
102
RTVSPropertyOp54
 70
     1
102
RTVSPropertyOp55
 70
     1
102
RTVSPropertyOp56
 70
     1
102
RTVSPropertyOp57
 70
     1
102
RTVSPropertyOp58
 70
     1
102
RTVSPropertyOp59
 70
     1
102
RTVSPropertyOp60
 70
     1
102
RTVSPropertyOp61
 70
     1
102
RTVSPropertyOp62
 70
     1
  0
XRECORD
  5
409F
102
{ACAD_REACTORS
330
409E
102
}
330
409E
100
AcDbXrecord
280
     1
102
RTVSPost2010Prop28
280
     0
102
RTVSPost2010PropOp28
 70
     1
102
RTVSPost2010Prop29
280
     1
102
RTVSPost2010PropOp29
 70
     1
102
RTVSPost2010Prop30
280
     1
102
RTVSPost2010PropOp30
 70
     1
102
RTVSPost2010Prop31
280
     0
102
RTVSPost2010PropOp31
 70
     1
102
RTVSPost2010Prop32
280
     0
102
RTVSPost2010PropOp32
 70
     1
102
RTVSPost2010Prop33
280
     0
102
RTVSPost2010PropOp33
 70
     1
102
RTVSPost2010Prop34
280
     0
102
RTVSPost2010PropOp34
 70
     1
102
RTVSPost2010Prop35
280
     0
102
RTVSPost2010PropOp35
 70
     1
102
RTVSPost2010Prop36
280
     0
102
RTVSPost2010PropOp36
 70
     1
102
RTVSPost2010Prop37
 90
       50
102
RTVSPost2010PropOp37
 70
     1
102
RTVSPost2010Prop38
140
0.0
102
RTVSPost2010PropOp38
 70
     1
102
RTVSPost2010Prop39
140
1.0
102
RTVSPost2010PropOp39
 70
     1
102
RTVSPost2010Prop40
 90
        0
102
RTVSPost2010PropOp40
 70
     1
102
RTVSPost2010Prop41ColorIndex
 90
       18
102
RTVSPost2010Prop41ColorRGB
 90
        0
102
RTVSPost2010PropOp41
 70
     1
102
RTVSPost2010Prop42
 90
       50
102
RTVSPost2010PropOp42
 70
     1
102
RTVSPost2010Prop43
 90
        3
102
RTVSPost2010PropOp43
 70
     1
102
RTVSPost2010Prop44ColorIndex
 90
        5
102
RTVSPost2010Prop44ColorRGB
 90
      255
102
RTVSPost2010PropOp44
 70
     1
102
RTVSPost2010Prop45
280
     0
102
RTVSPost2010PropOp45
 70
     1
102
RTVSPost2010Prop46
 90
       50
102
RTVSPost2010PropOp46
 70
     1
102
RTVSPost2010Prop47
 90
       50
102
RTVSPost2010PropOp47
 70
     1
102
RTVSPost2010Prop48
 90
       50
102
RTVSPost2010PropOp48
 70
     1
102
RTVSPost2010Prop49
280
     0
102
RTVSPost2010PropOp49
 70
     1
102
RTVSPost2010Prop50
 90
       50
102
RTVSPost2010PropOp50
 70
     1
102
RTVSPost2010Prop51ColorIndex
 90
      256
102
RTVSPost2010Prop51ColorRGB
 90
-16777216
102
RTVSPost2010PropOp51
 70
     0
102
RTVSPost2010Prop52
140
1.0
102
RTVSPost2010PropOp52
 70
     0
102
RTVSPost2010Prop53
 90
        2
102
RTVSPost2010PropOp53
 70
     1
102
RTVSPost2010Prop54
  1
strokes_ogs.tif
102
RTVSPost2010PropOp54
 70
     1
102
RTVSPost2010Prop55
280
     0
102
RTVSPost2010PropOp55
 70
     1
102
RTVSPost2010Prop56
140
1.0
102
RTVSPost2010PropOp56
 70
     1
102
RTVSPost2010Prop57
140
1.0
102
RTVSPost2010PropOp57
 70
     1
102
RTVSPropertyOp0
 70
     0
102
RTVSPropertyOp1
 70
     0
102
RTVSPropertyOp2
 70
     0
102
RTVSPropertyOp3
 70
     0
102
RTVSPropertyOp4
 70
     0
102
RTVSPropertyOp5
 70
     0
102
RTVSPropertyOp6
 70
     0
102
RTVSPropertyOp7
 70
     0
102
RTVSPropertyOp8
 70
     0
102
RTVSPropertyOp9
 70
     0
102
RTVSPropertyOp10
 70
     0
102
RTVSPropertyOp11
 70
     0
102
RTVSPropertyOp12
 70
     0
102
RTVSPropertyOp13
 70
     0
102
RTVSPropertyOp14
 70
     2
102
RTVSPropertyOp15
 70
     0
102
RTVSPropertyOp16
 70
     0
102
RTVSPropertyOp17
 70
     0
102
RTVSPropertyOp18
 70
     0
102
RTVSPropertyOp19
 70
     0
102
RTVSPropertyOp20
 70
     0
102
RTVSPropertyOp21
 70
     0
102
RTVSPropertyOp22
 70
     0
102
RTVSPropertyOp23
 70
     0
102
RTVSPropertyOp24
 70
     0
102
RTVSPropertyOp25
 70
     0
102
RTVSPropertyOp26
 70
     0
102
RTVSPropertyOp27
 70
     0
102
RTVSPropertyOp28
 70
     1
102
RTVSPropertyOp29
 70
     1
102
RTVSPropertyOp30
 70
     1
102
RTVSPropertyOp31
 70
     1
102
RTVSPropertyOp32
 70
     1
102
RTVSPropertyOp33
 70
     1
102
RTVSPropertyOp34
 70
     1
102
RTVSPropertyOp35
 70
     1
102
RTVSPropertyOp36
 70
     1
102
RTVSPropertyOp37
 70
     1
102
RTVSPropertyOp38
 70
     1
102
RTVSPropertyOp39
 70
     1
102
RTVSPropertyOp40
 70
     1
102
RTVSPropertyOp41
 70
     1
102
RTVSPropertyOp42
 70
     1
102
RTVSPropertyOp43
 70
     1
102
RTVSPropertyOp44
 70
     1
102
RTVSPropertyOp45
 70
     1
102
RTVSPropertyOp46
 70
     1
102
RTVSPropertyOp47
 70
     1
102
RTVSPropertyOp48
 70
     1
102
RTVSPropertyOp49
 70
     1
102
RTVSPropertyOp50
 70
     1
102
RTVSPropertyOp51
 70
     0
102
RTVSPropertyOp52
 70
     0
102
RTVSPropertyOp53
 70
     1
102
RTVSPropertyOp54
 70
     1
102
RTVSPropertyOp55
 70
     1
102
RTVSPropertyOp56
 70
     1
102
RTVSPropertyOp57
 70
     1
102
RTVSPropertyOp58
 70
     1
102
RTVSPropertyOp59
 70
     1
102
RTVSPropertyOp60
 70
     1
102
RTVSPropertyOp61
 70
     1
102
RTVSPropertyOp62
 70
     1
  0
XRECORD
  5
4097
102
{ACAD_REACTORS
330
4096
102
}
330
4096
100
AcDbXrecord
280
     1
102
RTVSPost2010Prop28
280
     0
102
RTVSPost2010PropOp28
 70
     1
102
RTVSPost2010Prop29
280
     1
102
RTVSPost2010PropOp29
 70
     1
102
RTVSPost2010Prop30
280
     1
102
RTVSPost2010PropOp30
 70
     1
102
RTVSPost2010Prop31
280
     0
102
RTVSPost2010PropOp31
 70
     1
102
RTVSPost2010Prop32
280
     0
102
RTVSPost2010PropOp32
 70
     1
102
RTVSPost2010Prop33
280
     0
102
RTVSPost2010PropOp33
 70
     1
102
RTVSPost2010Prop34
280
     0
102
RTVSPost2010PropOp34
 70
     1
102
RTVSPost2010Prop35
280
     0
102
RTVSPost2010PropOp35
 70
     1
102
RTVSPost2010Prop36
280
     0
102
RTVSPost2010PropOp36
 70
     1
102
RTVSPost2010Prop37
 90
       50
102
RTVSPost2010PropOp37
 70
     1
102
RTVSPost2010Prop38
140
0.0
102
RTVSPost2010PropOp38
 70
     1
102
RTVSPost2010Prop39
140
1.0
102
RTVSPost2010PropOp39
 70
     1
102
RTVSPost2010Prop40
 90
        0
102
RTVSPost2010PropOp40
 70
     1
102
RTVSPost2010Prop41ColorIndex
 90
       18
102
RTVSPost2010Prop41ColorRGB
 90
        0
102
RTVSPost2010PropOp41
 70
     1
102
RTVSPost2010Prop42
 90
       50
102
RTVSPost2010PropOp42
 70
     1
102
RTVSPost2010Prop43
 90
        3
102
RTVSPost2010PropOp43
 70
     1
102
RTVSPost2010Prop44ColorIndex
 90
        5
102
RTVSPost2010Prop44ColorRGB
 90
      255
102
RTVSPost2010PropOp44
 70
     1
102
RTVSPost2010Prop45
280
     0
102
RTVSPost2010PropOp45
 70
     1
102
RTVSPost2010Prop46
 90
       50
102
RTVSPost2010PropOp46
 70
     1
102
RTVSPost2010Prop47
 90
       50
102
RTVSPost2010PropOp47
 70
     1
102
RTVSPost2010Prop48
 90
       50
102
RTVSPost2010PropOp48
 70
     1
102
RTVSPost2010Prop49
280
     0
102
RTVSPost2010PropOp49
 70
     1
102
RTVSPost2010Prop50
 90
       50
102
RTVSPost2010PropOp50
 70
     1
102
RTVSPost2010Prop51ColorIndex
 90
      256
102
RTVSPost2010Prop51ColorRGB
 90
-16777216
102
RTVSPost2010PropOp51
 70
     0
102
RTVSPost2010Prop52
140
1.0
102
RTVSPost2010PropOp52
 70
     0
102
RTVSPost2010Prop53
 90
        2
102
RTVSPost2010PropOp53
 70
     1
102
RTVSPost2010Prop54
  1
strokes_ogs.tif
102
RTVSPost2010PropOp54
 70
     1
102
RTVSPost2010Prop55
280
     0
102
RTVSPost2010PropOp55
 70
     1
102
RTVSPost2010Prop56
140
1.0
102
RTVSPost2010PropOp56
 70
     1
102
RTVSPost2010Prop57
140
1.0
102
RTVSPost2010PropOp57
 70
     1
102
RTVSPropertyOp0
 70
     1
102
RTVSPropertyOp1
 70
     1
102
RTVSPropertyOp2
 70
     1
102
RTVSPropertyOp3
 70
     1
102
RTVSPropertyOp4
 70
     1
102
RTVSPropertyOp5
 70
     1
102
RTVSPropertyOp6
 70
     1
102
RTVSPropertyOp7
 70
     1
102
RTVSPropertyOp8
 70
     1
102
RTVSPropertyOp9
 70
     1
102
RTVSPropertyOp10
 70
     1
102
RTVSPropertyOp11
 70
     1
102
RTVSPropertyOp12
 70
     1
102
RTVSPropertyOp13
 70
     1
102
RTVSPropertyOp14
 70
     1
102
RTVSPropertyOp15
 70
     1
102
RTVSPropertyOp16
 70
     1
102
RTVSPropertyOp17
 70
     1
102
RTVSPropertyOp18
 70
     1
102
RTVSPropertyOp19
 70
     1
102
RTVSPropertyOp20
 70
     1
102
RTVSPropertyOp21
 70
     1
102
RTVSPropertyOp22
 70
     1
102
RTVSPropertyOp23
 70
     1
102
RTVSPropertyOp24
 70
     1
102
RTVSPropertyOp25
 70
     1
102
RTVSPropertyOp26
 70
     1
102
RTVSPropertyOp27
 70
     1
102
RTVSPropertyOp28
 70
     1
102
RTVSPropertyOp29
 70
     1
102
RTVSPropertyOp30
 70
     1
102
RTVSPropertyOp31
 70
     1
102
RTVSPropertyOp32
 70
     1
102
RTVSPropertyOp33
 70
     1
102
RTVSPropertyOp34
 70
     1
102
RTVSPropertyOp35
 70
     1
102
RTVSPropertyOp36
 70
     1
102
RTVSPropertyOp37
 70
     1
102
RTVSPropertyOp38
 70
     1
102
RTVSPropertyOp39
 70
     1
102
RTVSPropertyOp40
 70
     1
102
RTVSPropertyOp41
 70
     1
102
RTVSPropertyOp42
 70
     1
102
RTVSPropertyOp43
 70
     1
102
RTVSPropertyOp44
 70
     1
102
RTVSPropertyOp45
 70
     1
102
RTVSPropertyOp46
 70
     1
102
RTVSPropertyOp47
 70
     1
102
RTVSPropertyOp48
 70
     1
102
RTVSPropertyOp49
 70
     1
102
RTVSPropertyOp50
 70
     1
102
RTVSPropertyOp51
 70
     0
102
RTVSPropertyOp52
 70
     0
102
RTVSPropertyOp53
 70
     1
102
RTVSPropertyOp54
 70
     1
102
RTVSPropertyOp55
 70
     1
102
RTVSPropertyOp56
 70
     1
102
RTVSPropertyOp57
 70
     1
102
RTVSPropertyOp58
 70
     1
102
RTVSPropertyOp59
 70
     1
102
RTVSPropertyOp60
 70
     1
102
RTVSPropertyOp61
 70
     1
102
RTVSPropertyOp62
 70
     1
  0
XRECORD
  5
40A1
102
{ACAD_REACTORS
330
40A0
102
}
330
40A0
100
AcDbXrecord
280
     1
102
RTVSPost2010Prop28
280
     0
102
RTVSPost2010PropOp28
 70
     1
102
RTVSPost2010Prop29
280
     1
102
RTVSPost2010PropOp29
 70
     1
102
RTVSPost2010Prop30
280
     1
102
RTVSPost2010PropOp30
 70
     1
102
RTVSPost2010Prop31
280
     0
102
RTVSPost2010PropOp31
 70
     1
102
RTVSPost2010Prop32
280
     0
102
RTVSPost2010PropOp32
 70
     1
102
RTVSPost2010Prop33
280
     0
102
RTVSPost2010PropOp33
 70
     1
102
RTVSPost2010Prop34
280
     0
102
RTVSPost2010PropOp34
 70
     1
102
RTVSPost2010Prop35
280
     0
102
RTVSPost2010PropOp35
 70
     1
102
RTVSPost2010Prop36
280
     0
102
RTVSPost2010PropOp36
 70
     1
102
RTVSPost2010Prop37
 90
       50
102
RTVSPost2010PropOp37
 70
     1
102
RTVSPost2010Prop38
140
0.0
102
RTVSPost2010PropOp38
 70
     1
102
RTVSPost2010Prop39
140
1.0
102
RTVSPost2010PropOp39
 70
     1
102
RTVSPost2010Prop40
 90
        0
102
RTVSPost2010PropOp40
 70
     1
102
RTVSPost2010Prop41ColorIndex
 90
       18
102
RTVSPost2010Prop41ColorRGB
 90
        0
102
RTVSPost2010PropOp41
 70
     1
102
RTVSPost2010Prop42
 90
       50
102
RTVSPost2010PropOp42
 70
     1
102
RTVSPost2010Prop43
 90
        3
102
RTVSPost2010PropOp43
 70
     1
102
RTVSPost2010Prop44ColorIndex
 90
        5
102
RTVSPost2010Prop44ColorRGB
 90
      255
102
RTVSPost2010PropOp44
 70
     1
102
RTVSPost2010Prop45
280
     0
102
RTVSPost2010PropOp45
 70
     1
102
RTVSPost2010Prop46
 90
       50
102
RTVSPost2010PropOp46
 70
     1
102
RTVSPost2010Prop47
 90
       50
102
RTVSPost2010PropOp47
 70
     1
102
RTVSPost2010Prop48
 90
       50
102
RTVSPost2010PropOp48
 70
     1
102
RTVSPost2010Prop49
280
     0
102
RTVSPost2010PropOp49
 70
     1
102
RTVSPost2010Prop50
 90
       50
102
RTVSPost2010PropOp50
 70
     1
102
RTVSPost2010Prop51ColorIndex
 90
      256
102
RTVSPost2010Prop51ColorRGB
 90
-16777216
102
RTVSPost2010PropOp51
 70
     0
102
RTVSPost2010Prop52
140
1.0
102
RTVSPost2010PropOp52
 70
     0
102
RTVSPost2010Prop53
 90
        2
102
RTVSPost2010PropOp53
 70
     1
102
RTVSPost2010Prop54
  1
strokes_ogs.tif
102
RTVSPost2010PropOp54
 70
     1
102
RTVSPost2010Prop55
280
     0
102
RTVSPost2010PropOp55
 70
     1
102
RTVSPost2010Prop56
140
1.0
102
RTVSPost2010PropOp56
 70
     1
102
RTVSPost2010Prop57
140
1.0
102
RTVSPost2010PropOp57
 70
     1
102
RTVSPropertyOp0
 70
     0
102
RTVSPropertyOp1
 70
     0
102
RTVSPropertyOp2
 70
     0
102
RTVSPropertyOp3
 70
     0
102
RTVSPropertyOp4
 70
     0
102
RTVSPropertyOp5
 70
     0
102
RTVSPropertyOp6
 70
     0
102
RTVSPropertyOp7
 70
     0
102
RTVSPropertyOp8
 70
     0
102
RTVSPropertyOp9
 70
     0
102
RTVSPropertyOp10
 70
     0
102
RTVSPropertyOp11
 70
     0
102
RTVSPropertyOp12
 70
     0
102
RTVSPropertyOp13
 70
     0
102
RTVSPropertyOp14
 70
     2
102
RTVSPropertyOp15
 70
     0
102
RTVSPropertyOp16
 70
     0
102
RTVSPropertyOp17
 70
     0
102
RTVSPropertyOp18
 70
     0
102
RTVSPropertyOp19
 70
     0
102
RTVSPropertyOp20
 70
     0
102
RTVSPropertyOp21
 70
     0
102
RTVSPropertyOp22
 70
     0
102
RTVSPropertyOp23
 70
     0
102
RTVSPropertyOp24
 70
     0
102
RTVSPropertyOp25
 70
     0
102
RTVSPropertyOp26
 70
     0
102
RTVSPropertyOp27
 70
     0
102
RTVSPropertyOp28
 70
     1
102
RTVSPropertyOp29
 70
     1
102
RTVSPropertyOp30
 70
     1
102
RTVSPropertyOp31
 70
     1
102
RTVSPropertyOp32
 70
     1
102
RTVSPropertyOp33
 70
     1
102
RTVSPropertyOp34
 70
     1
102
RTVSPropertyOp35
 70
     1
102
RTVSPropertyOp36
 70
     1
102
RTVSPropertyOp37
 70
     1
102
RTVSPropertyOp38
 70
     1
102
RTVSPropertyOp39
 70
     1
102
RTVSPropertyOp40
 70
     1
102
RTVSPropertyOp41
 70
     1
102
RTVSPropertyOp42
 70
     1
102
RTVSPropertyOp43
 70
     1
102
RTVSPropertyOp44
 70
     1
102
RTVSPropertyOp45
 70
     1
102
RTVSPropertyOp46
 70
     1
102
RTVSPropertyOp47
 70
     1
102
RTVSPropertyOp48
 70
     1
102
RTVSPropertyOp49
 70
     1
102
RTVSPropertyOp50
 70
     1
102
RTVSPropertyOp51
 70
     0
102
RTVSPropertyOp52
 70
     0
102
RTVSPropertyOp53
 70
     1
102
RTVSPropertyOp54
 70
     1
102
RTVSPropertyOp55
 70
     1
102
RTVSPropertyOp56
 70
     1
102
RTVSPropertyOp57
 70
     1
102
RTVSPropertyOp58
 70
     1
102
RTVSPropertyOp59
 70
     1
102
RTVSPropertyOp60
 70
     1
102
RTVSPropertyOp61
 70
     1
102
RTVSPropertyOp62
 70
     1
  0
XRECORD
  5
408F
102
{ACAD_REACTORS
330
408E
102
}
330
408E
100
AcDbXrecord
280
     1
102
RTVSPost2010Prop28
280
     0
102
RTVSPost2010PropOp28
 70
     1
102
RTVSPost2010Prop29
280
     1
102
RTVSPost2010PropOp29
 70
     1
102
RTVSPost2010Prop30
280
     1
102
RTVSPost2010PropOp30
 70
     1
102
RTVSPost2010Prop31
280
     0
102
RTVSPost2010PropOp31
 70
     1
102
RTVSPost2010Prop32
280
     0
102
RTVSPost2010PropOp32
 70
     1
102
RTVSPost2010Prop33
280
     0
102
RTVSPost2010PropOp33
 70
     1
102
RTVSPost2010Prop34
280
     0
102
RTVSPost2010PropOp34
 70
     1
102
RTVSPost2010Prop35
280
     0
102
RTVSPost2010PropOp35
 70
     1
102
RTVSPost2010Prop36
280
     0
102
RTVSPost2010PropOp36
 70
     1
102
RTVSPost2010Prop37
 90
       50
102
RTVSPost2010PropOp37
 70
     1
102
RTVSPost2010Prop38
140
0.0
102
RTVSPost2010PropOp38
 70
     1
102
RTVSPost2010Prop39
140
1.0
102
RTVSPost2010PropOp39
 70
     1
102
RTVSPost2010Prop40
 90
        0
102
RTVSPost2010PropOp40
 70
     1
102
RTVSPost2010Prop41ColorIndex
 90
       18
102
RTVSPost2010Prop41ColorRGB
 90
        0
102
RTVSPost2010PropOp41
 70
     1
102
RTVSPost2010Prop42
 90
       50
102
RTVSPost2010PropOp42
 70
     1
102
RTVSPost2010Prop43
 90
        3
102
RTVSPost2010PropOp43
 70
     1
102
RTVSPost2010Prop44ColorIndex
 90
        5
102
RTVSPost2010Prop44ColorRGB
 90
      255
102
RTVSPost2010PropOp44
 70
     1
102
RTVSPost2010Prop45
280
     0
102
RTVSPost2010PropOp45
 70
     1
102
RTVSPost2010Prop46
 90
       50
102
RTVSPost2010PropOp46
 70
     1
102
RTVSPost2010Prop47
 90
       50
102
RTVSPost2010PropOp47
 70
     1
102
RTVSPost2010Prop48
 90
       50
102
RTVSPost2010PropOp48
 70
     1
102
RTVSPost2010Prop49
280
     0
102
RTVSPost2010PropOp49
 70
     1
102
RTVSPost2010Prop50
 90
       50
102
RTVSPost2010PropOp50
 70
     1
102
RTVSPost2010Prop51ColorIndex
 90
      256
102
RTVSPost2010Prop51ColorRGB
 90
-16777216
102
RTVSPost2010PropOp51
 70
     0
102
RTVSPost2010Prop52
140
1.0
102
RTVSPost2010PropOp52
 70
     0
102
RTVSPost2010Prop53
 90
        2
102
RTVSPost2010PropOp53
 70
     1
102
RTVSPost2010Prop54
  1
strokes_ogs.tif
102
RTVSPost2010PropOp54
 70
     1
102
RTVSPost2010Prop55
280
     0
102
RTVSPost2010PropOp55
 70
     1
102
RTVSPost2010Prop56
140
1.0
102
RTVSPost2010PropOp56
 70
     1
102
RTVSPost2010Prop57
140
1.0
102
RTVSPost2010PropOp57
 70
     1
102
RTVSPropertyOp0
 70
     1
102
RTVSPropertyOp1
 70
     1
102
RTVSPropertyOp2
 70
     1
102
RTVSPropertyOp3
 70
     1
102
RTVSPropertyOp4
 70
     1
102
RTVSPropertyOp5
 70
     1
102
RTVSPropertyOp6
 70
     1
102
RTVSPropertyOp7
 70
     1
102
RTVSPropertyOp8
 70
     1
102
RTVSPropertyOp9
 70
     1
102
RTVSPropertyOp10
 70
     1
102
RTVSPropertyOp11
 70
     1
102
RTVSPropertyOp12
 70
     1
102
RTVSPropertyOp13
 70
     1
102
RTVSPropertyOp14
 70
     1
102
RTVSPropertyOp15
 70
     1
102
RTVSPropertyOp16
 70
     1
102
RTVSPropertyOp17
 70
     1
102
RTVSPropertyOp18
 70
     1
102
RTVSPropertyOp19
 70
     1
102
RTVSPropertyOp20
 70
     1
102
RTVSPropertyOp21
 70
     1
102
RTVSPropertyOp22
 70
     1
102
RTVSPropertyOp23
 70
     1
102
RTVSPropertyOp24
 70
     1
102
RTVSPropertyOp25
 70
     1
102
RTVSPropertyOp26
 70
     1
102
RTVSPropertyOp27
 70
     1
102
RTVSPropertyOp28
 70
     1
102
RTVSPropertyOp29
 70
     1
102
RTVSPropertyOp30
 70
     1
102
RTVSPropertyOp31
 70
     1
102
RTVSPropertyOp32
 70
     1
102
RTVSPropertyOp33
 70
     1
102
RTVSPropertyOp34
 70
     1
102
RTVSPropertyOp35
 70
     1
102
RTVSPropertyOp36
 70
     1
102
RTVSPropertyOp37
 70
     1
102
RTVSPropertyOp38
 70
     1
102
RTVSPropertyOp39
 70
     1
102
RTVSPropertyOp40
 70
     1
102
RTVSPropertyOp41
 70
     1
102
RTVSPropertyOp42
 70
     1
102
RTVSPropertyOp43
 70
     1
102
RTVSPropertyOp44
 70
     1
102
RTVSPropertyOp45
 70
     1
102
RTVSPropertyOp46
 70
     1
102
RTVSPropertyOp47
 70
     1
102
RTVSPropertyOp48
 70
     1
102
RTVSPropertyOp49
 70
     1
102
RTVSPropertyOp50
 70
     1
102
RTVSPropertyOp51
 70
     0
102
RTVSPropertyOp52
 70
     0
102
RTVSPropertyOp53
 70
     1
102
RTVSPropertyOp54
 70
     1
102
RTVSPropertyOp55
 70
     1
102
RTVSPropertyOp56
 70
     1
102
RTVSPropertyOp57
 70
     1
102
RTVSPropertyOp58
 70
     1
102
RTVSPropertyOp59
 70
     1
102
RTVSPropertyOp60
 70
     1
102
RTVSPropertyOp61
 70
     1
102
RTVSPropertyOp62
 70
     1
  0
XRECORD
  5
40AD
102
{ACAD_REACTORS
330
40AC
102
}
330
40AC
100
AcDbXrecord
280
     1
102
RTVSPost2010Prop28
280
     0
102
RTVSPost2010PropOp28
 70
     1
102
RTVSPost2010Prop29
280
     1
102
RTVSPost2010PropOp29
 70
     1
102
RTVSPost2010Prop30
280
     1
102
RTVSPost2010PropOp30
 70
     1
102
RTVSPost2010Prop31
280
     0
102
RTVSPost2010PropOp31
 70
     1
102
RTVSPost2010Prop32
280
     0
102
RTVSPost2010PropOp32
 70
     1
102
RTVSPost2010Prop33
280
     0
102
RTVSPost2010PropOp33
 70
     1
102
RTVSPost2010Prop34
280
     0
102
RTVSPost2010PropOp34
 70
     1
102
RTVSPost2010Prop35
280
     0
102
RTVSPost2010PropOp35
 70
     1
102
RTVSPost2010Prop36
280
     0
102
RTVSPost2010PropOp36
 70
     1
102
RTVSPost2010Prop37
 90
       50
102
RTVSPost2010PropOp37
 70
     1
102
RTVSPost2010Prop38
140
0.0
102
RTVSPost2010PropOp38
 70
     1
102
RTVSPost2010Prop39
140
1.0
102
RTVSPost2010PropOp39
 70
     1
102
RTVSPost2010Prop40
 90
        0
102
RTVSPost2010PropOp40
 70
     1
102
RTVSPost2010Prop41ColorIndex
 90
       18
102
RTVSPost2010Prop41ColorRGB
 90
        0
102
RTVSPost2010PropOp41
 70
     1
102
RTVSPost2010Prop42
 90
       50
102
RTVSPost2010PropOp42
 70
     1
102
RTVSPost2010Prop43
 90
        3
102
RTVSPost2010PropOp43
 70
     1
102
RTVSPost2010Prop44ColorIndex
 90
        5
102
RTVSPost2010Prop44ColorRGB
 90
      255
102
RTVSPost2010PropOp44
 70
     1
102
RTVSPost2010Prop45
280
     0
102
RTVSPost2010PropOp45
 70
     1
102
RTVSPost2010Prop46
 90
       50
102
RTVSPost2010PropOp46
 70
     1
102
RTVSPost2010Prop47
 90
       50
102
RTVSPost2010PropOp47
 70
     1
102
RTVSPost2010Prop48
 90
       50
102
RTVSPost2010PropOp48
 70
     1
102
RTVSPost2010Prop49
280
     0
102
RTVSPost2010PropOp49
 70
     1
102
RTVSPost2010Prop50
 90
       50
102
RTVSPost2010PropOp50
 70
     1
102
RTVSPost2010Prop51ColorIndex
 90
      256
102
RTVSPost2010Prop51ColorRGB
 90
-16777216
102
RTVSPost2010PropOp51
 70
     0
102
RTVSPost2010Prop52
140
1.0
102
RTVSPost2010PropOp52
 70
     0
102
RTVSPost2010Prop53
 90
        2
102
RTVSPost2010PropOp53
 70
     1
102
RTVSPost2010Prop54
  1
strokes_ogs.tif
102
RTVSPost2010PropOp54
 70
     1
102
RTVSPost2010Prop55
280
     0
102
RTVSPost2010PropOp55
 70
     1
102
RTVSPost2010Prop56
140
1.0
102
RTVSPost2010PropOp56
 70
     1
102
RTVSPost2010Prop57
140
1.0
102
RTVSPost2010PropOp57
 70
     1
102
RTVSPropertyOp0
 70
     1
102
RTVSPropertyOp1
 70
     1
102
RTVSPropertyOp2
 70
     1
102
RTVSPropertyOp3
 70
     1
102
RTVSPropertyOp4
 70
     1
102
RTVSPropertyOp5
 70
     1
102
RTVSPropertyOp6
 70
     1
102
RTVSPropertyOp7
 70
     1
102
RTVSPropertyOp8
 70
     1
102
RTVSPropertyOp9
 70
     1
102
RTVSPropertyOp10
 70
     1
102
RTVSPropertyOp11
 70
     1
102
RTVSPropertyOp12
 70
     1
102
RTVSPropertyOp13
 70
     1
102
RTVSPropertyOp14
 70
     1
102
RTVSPropertyOp15
 70
     1
102
RTVSPropertyOp16
 70
     1
102
RTVSPropertyOp17
 70
     1
102
RTVSPropertyOp18
 70
     1
102
RTVSPropertyOp19
 70
     1
102
RTVSPropertyOp20
 70
     1
102
RTVSPropertyOp21
 70
     1
102
RTVSPropertyOp22
 70
     1
102
RTVSPropertyOp23
 70
     1
102
RTVSPropertyOp24
 70
     1
102
RTVSPropertyOp25
 70
     1
102
RTVSPropertyOp26
 70
     1
102
RTVSPropertyOp27
 70
     1
102
RTVSPropertyOp28
 70
     1
102
RTVSPropertyOp29
 70
     1
102
RTVSPropertyOp30
 70
     1
102
RTVSPropertyOp31
 70
     1
102
RTVSPropertyOp32
 70
     1
102
RTVSPropertyOp33
 70
     1
102
RTVSPropertyOp34
 70
     1
102
RTVSPropertyOp35
 70
     1
102
RTVSPropertyOp36
 70
     1
102
RTVSPropertyOp37
 70
     1
102
RTVSPropertyOp38
 70
     1
102
RTVSPropertyOp39
 70
     1
102
RTVSPropertyOp40
 70
     1
102
RTVSPropertyOp41
 70
     1
102
RTVSPropertyOp42
 70
     1
102
RTVSPropertyOp43
 70
     1
102
RTVSPropertyOp44
 70
     1
102
RTVSPropertyOp45
 70
     1
102
RTVSPropertyOp46
 70
     1
102
RTVSPropertyOp47
 70
     1
102
RTVSPropertyOp48
 70
     1
102
RTVSPropertyOp49
 70
     1
102
RTVSPropertyOp50
 70
     1
102
RTVSPropertyOp51
 70
     0
102
RTVSPropertyOp52
 70
     0
102
RTVSPropertyOp53
 70
     1
102
RTVSPropertyOp54
 70
     1
102
RTVSPropertyOp55
 70
     1
102
RTVSPropertyOp56
 70
     1
102
RTVSPropertyOp57
 70
     1
102
RTVSPropertyOp58
 70
     1
102
RTVSPropertyOp59
 70
     1
102
RTVSPropertyOp60
 70
     1
102
RTVSPropertyOp61
 70
     1
102
RTVSPropertyOp62
 70
     1
  0
XRECORD
  5
40AB
102
{ACAD_REACTORS
330
40AA
102
}
330
40AA
100
AcDbXrecord
280
     1
102
RTVSPost2010Prop28
280
     0
102
RTVSPost2010PropOp28
 70
     1
102
RTVSPost2010Prop29
280
     1
102
RTVSPost2010PropOp29
 70
     1
102
RTVSPost2010Prop30
280
     1
102
RTVSPost2010PropOp30
 70
     1
102
RTVSPost2010Prop31
280
     0
102
RTVSPost2010PropOp31
 70
     1
102
RTVSPost2010Prop32
280
     0
102
RTVSPost2010PropOp32
 70
     1
102
RTVSPost2010Prop33
280
     0
102
RTVSPost2010PropOp33
 70
     1
102
RTVSPost2010Prop34
280
     0
102
RTVSPost2010PropOp34
 70
     1
102
RTVSPost2010Prop35
280
     0
102
RTVSPost2010PropOp35
 70
     1
102
RTVSPost2010Prop36
280
     0
102
RTVSPost2010PropOp36
 70
     1
102
RTVSPost2010Prop37
 90
       50
102
RTVSPost2010PropOp37
 70
     1
102
RTVSPost2010Prop38
140
0.0
102
RTVSPost2010PropOp38
 70
     1
102
RTVSPost2010Prop39
140
1.0
102
RTVSPost2010PropOp39
 70
     1
102
RTVSPost2010Prop40
 90
        0
102
RTVSPost2010PropOp40
 70
     1
102
RTVSPost2010Prop41ColorIndex
 90
       18
102
RTVSPost2010Prop41ColorRGB
 90
        0
102
RTVSPost2010PropOp41
 70
     1
102
RTVSPost2010Prop42
 90
       50
102
RTVSPost2010PropOp42
 70
     1
102
RTVSPost2010Prop43
 90
        3
102
RTVSPost2010PropOp43
 70
     1
102
RTVSPost2010Prop44ColorIndex
 90
        5
102
RTVSPost2010Prop44ColorRGB
 90
      255
102
RTVSPost2010PropOp44
 70
     1
102
RTVSPost2010Prop45
280
     0
102
RTVSPost2010PropOp45
 70
     1
102
RTVSPost2010Prop46
 90
       50
102
RTVSPost2010PropOp46
 70
     1
102
RTVSPost2010Prop47
 90
       50
102
RTVSPost2010PropOp47
 70
     1
102
RTVSPost2010Prop48
 90
       50
102
RTVSPost2010PropOp48
 70
     1
102
RTVSPost2010Prop49
280
     0
102
RTVSPost2010PropOp49
 70
     1
102
RTVSPost2010Prop50
 90
       50
102
RTVSPost2010PropOp50
 70
     1
102
RTVSPost2010Prop51ColorIndex
 90
      256
102
RTVSPost2010Prop51ColorRGB
 90
-16777216
102
RTVSPost2010PropOp51
 70
     0
102
RTVSPost2010Prop52
140
1.0
102
RTVSPost2010PropOp52
 70
     0
102
RTVSPost2010Prop53
 90
        2
102
RTVSPost2010PropOp53
 70
     1
102
RTVSPost2010Prop54
  1
strokes_ogs.tif
102
RTVSPost2010PropOp54
 70
     1
102
RTVSPost2010Prop55
280
     0
102
RTVSPost2010PropOp55
 70
     1
102
RTVSPost2010Prop56
140
1.0
102
RTVSPost2010PropOp56
 70
     1
102
RTVSPost2010Prop57
140
1.0
102
RTVSPost2010PropOp57
 70
     1
102
RTVSPropertyOp0
 70
     1
102
RTVSPropertyOp1
 70
     1
102
RTVSPropertyOp2
 70
     1
102
RTVSPropertyOp3
 70
     1
102
RTVSPropertyOp4
 70
     1
102
RTVSPropertyOp5
 70
     1
102
RTVSPropertyOp6
 70
     1
102
RTVSPropertyOp7
 70
     1
102
RTVSPropertyOp8
 70
     1
102
RTVSPropertyOp9
 70
     1
102
RTVSPropertyOp10
 70
     1
102
RTVSPropertyOp11
 70
     1
102
RTVSPropertyOp12
 70
     1
102
RTVSPropertyOp13
 70
     1
102
RTVSPropertyOp14
 70
     1
102
RTVSPropertyOp15
 70
     1
102
RTVSPropertyOp16
 70
     1
102
RTVSPropertyOp17
 70
     1
102
RTVSPropertyOp18
 70
     1
102
RTVSPropertyOp19
 70
     1
102
RTVSPropertyOp20
 70
     1
102
RTVSPropertyOp21
 70
     1
102
RTVSPropertyOp22
 70
     1
102
RTVSPropertyOp23
 70
     1
102
RTVSPropertyOp24
 70
     1
102
RTVSPropertyOp25
 70
     1
102
RTVSPropertyOp26
 70
     1
102
RTVSPropertyOp27
 70
     1
102
RTVSPropertyOp28
 70
     1
102
RTVSPropertyOp29
 70
     1
102
RTVSPropertyOp30
 70
     1
102
RTVSPropertyOp31
 70
     1
102
RTVSPropertyOp32
 70
     1
102
RTVSPropertyOp33
 70
     1
102
RTVSPropertyOp34
 70
     1
102
RTVSPropertyOp35
 70
     1
102
RTVSPropertyOp36
 70
     1
102
RTVSPropertyOp37
 70
     1
102
RTVSPropertyOp38
 70
     1
102
RTVSPropertyOp39
 70
     1
102
RTVSPropertyOp40
 70
     1
102
RTVSPropertyOp41
 70
     1
102
RTVSPropertyOp42
 70
     1
102
RTVSPropertyOp43
 70
     1
102
RTVSPropertyOp44
 70
     1
102
RTVSPropertyOp45
 70
     1
102
RTVSPropertyOp46
 70
     1
102
RTVSPropertyOp47
 70
     1
102
RTVSPropertyOp48
 70
     1
102
RTVSPropertyOp49
 70
     1
102
RTVSPropertyOp50
 70
     1
102
RTVSPropertyOp51
 70
     0
102
RTVSPropertyOp52
 70
     0
102
RTVSPropertyOp53
 70
     1
102
RTVSPropertyOp54
 70
     1
102
RTVSPropertyOp55
 70
     1
102
RTVSPropertyOp56
 70
     1
102
RTVSPropertyOp57
 70
     1
102
RTVSPropertyOp58
 70
     1
102
RTVSPropertyOp59
 70
     1
102
RTVSPropertyOp60
 70
     1
102
RTVSPropertyOp61
 70
     1
102
RTVSPropertyOp62
 70
     1
  0
XRECORD
  5
40A5
102
{ACAD_REACTORS
330
40A4
102
}
330
40A4
100
AcDbXrecord
280
     1
102
RTVSPost2010Prop28
280
     0
102
RTVSPost2010PropOp28
 70
     1
102
RTVSPost2010Prop29
280
     1
102
RTVSPost2010PropOp29
 70
     1
102
RTVSPost2010Prop30
280
     1
102
RTVSPost2010PropOp30
 70
     1
102
RTVSPost2010Prop31
280
     0
102
RTVSPost2010PropOp31
 70
     1
102
RTVSPost2010Prop32
280
     0
102
RTVSPost2010PropOp32
 70
     1
102
RTVSPost2010Prop33
280
     0
102
RTVSPost2010PropOp33
 70
     1
102
RTVSPost2010Prop34
280
     0
102
RTVSPost2010PropOp34
 70
     1
102
RTVSPost2010Prop35
280
     0
102
RTVSPost2010PropOp35
 70
     1
102
RTVSPost2010Prop36
280
     0
102
RTVSPost2010PropOp36
 70
     1
102
RTVSPost2010Prop37
 90
       50
102
RTVSPost2010PropOp37
 70
     1
102
RTVSPost2010Prop38
140
0.0
102
RTVSPost2010PropOp38
 70
     1
102
RTVSPost2010Prop39
140
1.0
102
RTVSPost2010PropOp39
 70
     1
102
RTVSPost2010Prop40
 90
        0
102
RTVSPost2010PropOp40
 70
     1
102
RTVSPost2010Prop41ColorIndex
 90
       18
102
RTVSPost2010Prop41ColorRGB
 90
        0
102
RTVSPost2010PropOp41
 70
     1
102
RTVSPost2010Prop42
 90
       50
102
RTVSPost2010PropOp42
 70
     1
102
RTVSPost2010Prop43
 90
        3
102
RTVSPost2010PropOp43
 70
     1
102
RTVSPost2010Prop44ColorIndex
 90
        5
102
RTVSPost2010Prop44ColorRGB
 90
      255
102
RTVSPost2010PropOp44
 70
     1
102
RTVSPost2010Prop45
280
     0
102
RTVSPost2010PropOp45
 70
     1
102
RTVSPost2010Prop46
 90
       50
102
RTVSPost2010PropOp46
 70
     1
102
RTVSPost2010Prop47
 90
       50
102
RTVSPost2010PropOp47
 70
     1
102
RTVSPost2010Prop48
 90
       50
102
RTVSPost2010PropOp48
 70
     1
102
RTVSPost2010Prop49
280
     0
102
RTVSPost2010PropOp49
 70
     1
102
RTVSPost2010Prop50
 90
       50
102
RTVSPost2010PropOp50
 70
     1
102
RTVSPost2010Prop51ColorIndex
 90
      256
102
RTVSPost2010Prop51ColorRGB
 90
-16777216
102
RTVSPost2010PropOp51
 70
     0
102
RTVSPost2010Prop52
140
1.0
102
RTVSPost2010PropOp52
 70
     0
102
RTVSPost2010Prop53
 90
        2
102
RTVSPost2010PropOp53
 70
     1
102
RTVSPost2010Prop54
  1
strokes_ogs.tif
102
RTVSPost2010PropOp54
 70
     1
102
RTVSPost2010Prop55
280
     0
102
RTVSPost2010PropOp55
 70
     1
102
RTVSPost2010Prop56
140
1.0
102
RTVSPost2010PropOp56
 70
     1
102
RTVSPost2010Prop57
140
1.0
102
RTVSPost2010PropOp57
 70
     1
102
RTVSPropertyOp0
 70
     1
102
RTVSPropertyOp1
 70
     1
102
RTVSPropertyOp2
 70
     1
102
RTVSPropertyOp3
 70
     1
102
RTVSPropertyOp4
 70
     1
102
RTVSPropertyOp5
 70
     1
102
RTVSPropertyOp6
 70
     1
102
RTVSPropertyOp7
 70
     1
102
RTVSPropertyOp8
 70
     1
102
RTVSPropertyOp9
 70
     1
102
RTVSPropertyOp10
 70
     1
102
RTVSPropertyOp11
 70
     1
102
RTVSPropertyOp12
 70
     1
102
RTVSPropertyOp13
 70
     1
102
RTVSPropertyOp14
 70
     1
102
RTVSPropertyOp15
 70
     1
102
RTVSPropertyOp16
 70
     1
102
RTVSPropertyOp17
 70
     1
102
RTVSPropertyOp18
 70
     1
102
RTVSPropertyOp19
 70
     1
102
RTVSPropertyOp20
 70
     1
102
RTVSPropertyOp21
 70
     1
102
RTVSPropertyOp22
 70
     1
102
RTVSPropertyOp23
 70
     1
102
RTVSPropertyOp24
 70
     1
102
RTVSPropertyOp25
 70
     1
102
RTVSPropertyOp26
 70
     1
102
RTVSPropertyOp27
 70
     1
102
RTVSPropertyOp28
 70
     1
102
RTVSPropertyOp29
 70
     1
102
RTVSPropertyOp30
 70
     1
102
RTVSPropertyOp31
 70
     1
102
RTVSPropertyOp32
 70
     1
102
RTVSPropertyOp33
 70
     1
102
RTVSPropertyOp34
 70
     1
102
RTVSPropertyOp35
 70
     1
102
RTVSPropertyOp36
 70
     1
102
RTVSPropertyOp37
 70
     1
102
RTVSPropertyOp38
 70
     1
102
RTVSPropertyOp39
 70
     1
102
RTVSPropertyOp40
 70
     1
102
RTVSPropertyOp41
 70
     1
102
RTVSPropertyOp42
 70
     1
102
RTVSPropertyOp43
 70
     1
102
RTVSPropertyOp44
 70
     1
102
RTVSPropertyOp45
 70
     1
102
RTVSPropertyOp46
 70
     1
102
RTVSPropertyOp47
 70
     1
102
RTVSPropertyOp48
 70
     1
102
RTVSPropertyOp49
 70
     1
102
RTVSPropertyOp50
 70
     1
102
RTVSPropertyOp51
 70
     0
102
RTVSPropertyOp52
 70
     0
102
RTVSPropertyOp53
 70
     1
102
RTVSPropertyOp54
 70
     1
102
RTVSPropertyOp55
 70
     1
102
RTVSPropertyOp56
 70
     1
102
RTVSPropertyOp57
 70
     1
102
RTVSPropertyOp58
 70
     1
102
RTVSPropertyOp59
 70
     1
102
RTVSPropertyOp60
 70
     1
102
RTVSPropertyOp61
 70
     1
102
RTVSPropertyOp62
 70
     1
  0
XRECORD
  5
40A7
102
{ACAD_REACTORS
330
40A6
102
}
330
40A6
100
AcDbXrecord
280
     1
102
RTVSPost2010Prop28
280
     0
102
RTVSPost2010PropOp28
 70
     1
102
RTVSPost2010Prop29
280
     1
102
RTVSPost2010PropOp29
 70
     1
102
RTVSPost2010Prop30
280
     1
102
RTVSPost2010PropOp30
 70
     1
102
RTVSPost2010Prop31
280
     0
102
RTVSPost2010PropOp31
 70
     1
102
RTVSPost2010Prop32
280
     0
102
RTVSPost2010PropOp32
 70
     1
102
RTVSPost2010Prop33
280
     0
102
RTVSPost2010PropOp33
 70
     1
102
RTVSPost2010Prop34
280
     0
102
RTVSPost2010PropOp34
 70
     1
102
RTVSPost2010Prop35
280
     0
102
RTVSPost2010PropOp35
 70
     1
102
RTVSPost2010Prop36
280
     0
102
RTVSPost2010PropOp36
 70
     1
102
RTVSPost2010Prop37
 90
       50
102
RTVSPost2010PropOp37
 70
     1
102
RTVSPost2010Prop38
140
0.0
102
RTVSPost2010PropOp38
 70
     1
102
RTVSPost2010Prop39
140
1.0
102
RTVSPost2010PropOp39
 70
     1
102
RTVSPost2010Prop40
 90
        0
102
RTVSPost2010PropOp40
 70
     1
102
RTVSPost2010Prop41ColorIndex
 90
       18
102
RTVSPost2010Prop41ColorRGB
 90
        0
102
RTVSPost2010PropOp41
 70
     1
102
RTVSPost2010Prop42
 90
       50
102
RTVSPost2010PropOp42
 70
     1
102
RTVSPost2010Prop43
 90
        3
102
RTVSPost2010PropOp43
 70
     1
102
RTVSPost2010Prop44ColorIndex
 90
        5
102
RTVSPost2010Prop44ColorRGB
 90
      255
102
RTVSPost2010PropOp44
 70
     1
102
RTVSPost2010Prop45
280
     0
102
RTVSPost2010PropOp45
 70
     1
102
RTVSPost2010Prop46
 90
       50
102
RTVSPost2010PropOp46
 70
     1
102
RTVSPost2010Prop47
 90
       50
102
RTVSPost2010PropOp47
 70
     1
102
RTVSPost2010Prop48
 90
       50
102
RTVSPost2010PropOp48
 70
     1
102
RTVSPost2010Prop49
280
     0
102
RTVSPost2010PropOp49
 70
     1
102
RTVSPost2010Prop50
 90
       50
102
RTVSPost2010PropOp50
 70
     1
102
RTVSPost2010Prop51ColorIndex
 90
      256
102
RTVSPost2010Prop51ColorRGB
 90
-16777216
102
RTVSPost2010PropOp51
 70
     0
102
RTVSPost2010Prop52
140
1.0
102
RTVSPost2010PropOp52
 70
     0
102
RTVSPost2010Prop53
 90
        2
102
RTVSPost2010PropOp53
 70
     1
102
RTVSPost2010Prop54
  1
strokes_ogs.tif
102
RTVSPost2010PropOp54
 70
     1
102
RTVSPost2010Prop55
280
     0
102
RTVSPost2010PropOp55
 70
     1
102
RTVSPost2010Prop56
140
1.0
102
RTVSPost2010PropOp56
 70
     1
102
RTVSPost2010Prop57
140
1.0
102
RTVSPost2010PropOp57
 70
     1
102
RTVSPropertyOp0
 70
     1
102
RTVSPropertyOp1
 70
     1
102
RTVSPropertyOp2
 70
     1
102
RTVSPropertyOp3
 70
     1
102
RTVSPropertyOp4
 70
     1
102
RTVSPropertyOp5
 70
     1
102
RTVSPropertyOp6
 70
     1
102
RTVSPropertyOp7
 70
     1
102
RTVSPropertyOp8
 70
     1
102
RTVSPropertyOp9
 70
     1
102
RTVSPropertyOp10
 70
     1
102
RTVSPropertyOp11
 70
     1
102
RTVSPropertyOp12
 70
     1
102
RTVSPropertyOp13
 70
     1
102
RTVSPropertyOp14
 70
     1
102
RTVSPropertyOp15
 70
     1
102
RTVSPropertyOp16
 70
     1
102
RTVSPropertyOp17
 70
     1
102
RTVSPropertyOp18
 70
     1
102
RTVSPropertyOp19
 70
     1
102
RTVSPropertyOp20
 70
     1
102
RTVSPropertyOp21
 70
     1
102
RTVSPropertyOp22
 70
     1
102
RTVSPropertyOp23
 70
     1
102
RTVSPropertyOp24
 70
     1
102
RTVSPropertyOp25
 70
     1
102
RTVSPropertyOp26
 70
     1
102
RTVSPropertyOp27
 70
     1
102
RTVSPropertyOp28
 70
     1
102
RTVSPropertyOp29
 70
     1
102
RTVSPropertyOp30
 70
     1
102
RTVSPropertyOp31
 70
     1
102
RTVSPropertyOp32
 70
     1
102
RTVSPropertyOp33
 70
     1
102
RTVSPropertyOp34
 70
     1
102
RTVSPropertyOp35
 70
     1
102
RTVSPropertyOp36
 70
     1
102
RTVSPropertyOp37
 70
     1
102
RTVSPropertyOp38
 70
     1
102
RTVSPropertyOp39
 70
     1
102
RTVSPropertyOp40
 70
     1
102
RTVSPropertyOp41
 70
     1
102
RTVSPropertyOp42
 70
     1
102
RTVSPropertyOp43
 70
     1
102
RTVSPropertyOp44
 70
     1
102
RTVSPropertyOp45
 70
     1
102
RTVSPropertyOp46
 70
     1
102
RTVSPropertyOp47
 70
     1
102
RTVSPropertyOp48
 70
     1
102
RTVSPropertyOp49
 70
     1
102
RTVSPropertyOp50
 70
     1
102
RTVSPropertyOp51
 70
     0
102
RTVSPropertyOp52
 70
     0
102
RTVSPropertyOp53
 70
     1
102
RTVSPropertyOp54
 70
     1
102
RTVSPropertyOp55
 70
     1
102
RTVSPropertyOp56
 70
     1
102
RTVSPropertyOp57
 70
     1
102
RTVSPropertyOp58
 70
     1
102
RTVSPropertyOp59
 70
     1
102
RTVSPropertyOp60
 70
     1
102
RTVSPropertyOp61
 70
     1
102
RTVSPropertyOp62
 70
     1
  0
XRECORD
  5
4095
102
{ACAD_REACTORS
330
4094
102
}
330
4094
100
AcDbXrecord
280
     1
102
RTVSPost2010Prop28
280
     0
102
RTVSPost2010PropOp28
 70
     1
102
RTVSPost2010Prop29
280
     1
102
RTVSPost2010PropOp29
 70
     1
102
RTVSPost2010Prop30
280
     1
102
RTVSPost2010PropOp30
 70
     1
102
RTVSPost2010Prop31
280
     0
102
RTVSPost2010PropOp31
 70
     1
102
RTVSPost2010Prop32
280
     0
102
RTVSPost2010PropOp32
 70
     1
102
RTVSPost2010Prop33
280
     0
102
RTVSPost2010PropOp33
 70
     1
102
RTVSPost2010Prop34
280
     0
102
RTVSPost2010PropOp34
 70
     1
102
RTVSPost2010Prop35
280
     0
102
RTVSPost2010PropOp35
 70
     1
102
RTVSPost2010Prop36
280
     0
102
RTVSPost2010PropOp36
 70
     1
102
RTVSPost2010Prop37
 90
       50
102
RTVSPost2010PropOp37
 70
     1
102
RTVSPost2010Prop38
140
0.0
102
RTVSPost2010PropOp38
 70
     1
102
RTVSPost2010Prop39
140
1.0
102
RTVSPost2010PropOp39
 70
     1
102
RTVSPost2010Prop40
 90
        0
102
RTVSPost2010PropOp40
 70
     1
102
RTVSPost2010Prop41ColorIndex
 90
       18
102
RTVSPost2010Prop41ColorRGB
 90
        0
102
RTVSPost2010PropOp41
 70
     1
102
RTVSPost2010Prop42
 90
       50
102
RTVSPost2010PropOp42
 70
     1
102
RTVSPost2010Prop43
 90
        3
102
RTVSPost2010PropOp43
 70
     1
102
RTVSPost2010Prop44ColorIndex
 90
        5
102
RTVSPost2010Prop44ColorRGB
 90
      255
102
RTVSPost2010PropOp44
 70
     1
102
RTVSPost2010Prop45
280
     0
102
RTVSPost2010PropOp45
 70
     1
102
RTVSPost2010Prop46
 90
       50
102
RTVSPost2010PropOp46
 70
     1
102
RTVSPost2010Prop47
 90
       50
102
RTVSPost2010PropOp47
 70
     1
102
RTVSPost2010Prop48
 90
       50
102
RTVSPost2010PropOp48
 70
     1
102
RTVSPost2010Prop49
280
     0
102
RTVSPost2010PropOp49
 70
     1
102
RTVSPost2010Prop50
 90
       50
102
RTVSPost2010PropOp50
 70
     1
102
RTVSPost2010Prop51ColorIndex
 90
      256
102
RTVSPost2010Prop51ColorRGB
 90
-16777216
102
RTVSPost2010PropOp51
 70
     0
102
RTVSPost2010Prop52
140
1.0
102
RTVSPost2010PropOp52
 70
     0
102
RTVSPost2010Prop53
 90
        2
102
RTVSPost2010PropOp53
 70
     1
102
RTVSPost2010Prop54
  1
strokes_ogs.tif
102
RTVSPost2010PropOp54
 70
     1
102
RTVSPost2010Prop55
280
     0
102
RTVSPost2010PropOp55
 70
     1
102
RTVSPost2010Prop56
140
1.0
102
RTVSPost2010PropOp56
 70
     1
102
RTVSPost2010Prop57
140
1.0
102
RTVSPost2010PropOp57
 70
     1
102
RTVSPropertyOp0
 70
     1
102
RTVSPropertyOp1
 70
     1
102
RTVSPropertyOp2
 70
     1
102
RTVSPropertyOp3
 70
     1
102
RTVSPropertyOp4
 70
     1
102
RTVSPropertyOp5
 70
     1
102
RTVSPropertyOp6
 70
     1
102
RTVSPropertyOp7
 70
     1
102
RTVSPropertyOp8
 70
     1
102
RTVSPropertyOp9
 70
     1
102
RTVSPropertyOp10
 70
     1
102
RTVSPropertyOp11
 70
     1
102
RTVSPropertyOp12
 70
     1
102
RTVSPropertyOp13
 70
     1
102
RTVSPropertyOp14
 70
     1
102
RTVSPropertyOp15
 70
     1
102
RTVSPropertyOp16
 70
     1
102
RTVSPropertyOp17
 70
     1
102
RTVSPropertyOp18
 70
     1
102
RTVSPropertyOp19
 70
     1
102
RTVSPropertyOp20
 70
     1
102
RTVSPropertyOp21
 70
     1
102
RTVSPropertyOp22
 70
     1
102
RTVSPropertyOp23
 70
     1
102
RTVSPropertyOp24
 70
     1
102
RTVSPropertyOp25
 70
     1
102
RTVSPropertyOp26
 70
     1
102
RTVSPropertyOp27
 70
     1
102
RTVSPropertyOp28
 70
     1
102
RTVSPropertyOp29
 70
     1
102
RTVSPropertyOp30
 70
     1
102
RTVSPropertyOp31
 70
     1
102
RTVSPropertyOp32
 70
     1
102
RTVSPropertyOp33
 70
     1
102
RTVSPropertyOp34
 70
     1
102
RTVSPropertyOp35
 70
     1
102
RTVSPropertyOp36
 70
     1
102
RTVSPropertyOp37
 70
     1
102
RTVSPropertyOp38
 70
     1
102
RTVSPropertyOp39
 70
     1
102
RTVSPropertyOp40
 70
     1
102
RTVSPropertyOp41
 70
     1
102
RTVSPropertyOp42
 70
     1
102
RTVSPropertyOp43
 70
     1
102
RTVSPropertyOp44
 70
     1
102
RTVSPropertyOp45
 70
     1
102
RTVSPropertyOp46
 70
     1
102
RTVSPropertyOp47
 70
     1
102
RTVSPropertyOp48
 70
     1
102
RTVSPropertyOp49
 70
     1
102
RTVSPropertyOp50
 70
     1
102
RTVSPropertyOp51
 70
     0
102
RTVSPropertyOp52
 70
     0
102
RTVSPropertyOp53
 70
     1
102
RTVSPropertyOp54
 70
     1
102
RTVSPropertyOp55
 70
     1
102
RTVSPropertyOp56
 70
     1
102
RTVSPropertyOp57
 70
     1
102
RTVSPropertyOp58
 70
     1
102
RTVSPropertyOp59
 70
     1
102
RTVSPropertyOp60
 70
     1
102
RTVSPropertyOp61
 70
     1
102
RTVSPropertyOp62
 70
     1
  0
XRECORD
  5
4089
102
{ACAD_REACTORS
330
4088
102
}
330
4088
100
AcDbXrecord
280
     1
102
RTVSPost2010Prop28
280
     0
102
RTVSPost2010PropOp28
 70
     1
102
RTVSPost2010Prop29
280
     1
102
RTVSPost2010PropOp29
 70
     1
102
RTVSPost2010Prop30
280
     1
102
RTVSPost2010PropOp30
 70
     1
102
RTVSPost2010Prop31
280
     0
102
RTVSPost2010PropOp31
 70
     1
102
RTVSPost2010Prop32
280
     0
102
RTVSPost2010PropOp32
 70
     1
102
RTVSPost2010Prop33
280
     0
102
RTVSPost2010PropOp33
 70
     1
102
RTVSPost2010Prop34
280
     0
102
RTVSPost2010PropOp34
 70
     1
102
RTVSPost2010Prop35
280
     0
102
RTVSPost2010PropOp35
 70
     1
102
RTVSPost2010Prop36
280
     0
102
RTVSPost2010PropOp36
 70
     1
102
RTVSPost2010Prop37
 90
       50
102
RTVSPost2010PropOp37
 70
     1
102
RTVSPost2010Prop38
140
0.0
102
RTVSPost2010PropOp38
 70
     1
102
RTVSPost2010Prop39
140
1.0
102
RTVSPost2010PropOp39
 70
     1
102
RTVSPost2010Prop40
 90
        0
102
RTVSPost2010PropOp40
 70
     1
102
RTVSPost2010Prop41ColorIndex
 90
       18
102
RTVSPost2010Prop41ColorRGB
 90
        0
102
RTVSPost2010PropOp41
 70
     1
102
RTVSPost2010Prop42
 90
       50
102
RTVSPost2010PropOp42
 70
     1
102
RTVSPost2010Prop43
 90
        3
102
RTVSPost2010PropOp43
 70
     1
102
RTVSPost2010Prop44ColorIndex
 90
        5
102
RTVSPost2010Prop44ColorRGB
 90
      255
102
RTVSPost2010PropOp44
 70
     1
102
RTVSPost2010Prop45
280
     0
102
RTVSPost2010PropOp45
 70
     1
102
RTVSPost2010Prop46
 90
       50
102
RTVSPost2010PropOp46
 70
     1
102
RTVSPost2010Prop47
 90
       50
102
RTVSPost2010PropOp47
 70
     1
102
RTVSPost2010Prop48
 90
       50
102
RTVSPost2010PropOp48
 70
     1
102
RTVSPost2010Prop49
280
     0
102
RTVSPost2010PropOp49
 70
     1
102
RTVSPost2010Prop50
 90
       50
102
RTVSPost2010PropOp50
 70
     1
102
RTVSPost2010Prop51ColorIndex
 90
      256
102
RTVSPost2010Prop51ColorRGB
 90
-16777216
102
RTVSPost2010PropOp51
 70
     0
102
RTVSPost2010Prop52
140
1.0
102
RTVSPost2010PropOp52
 70
     0
102
RTVSPost2010Prop53
 90
        2
102
RTVSPost2010PropOp53
 70
     1
102
RTVSPost2010Prop54
  1
strokes_ogs.tif
102
RTVSPost2010PropOp54
 70
     1
102
RTVSPost2010Prop55
280
     0
102
RTVSPost2010PropOp55
 70
     1
102
RTVSPost2010Prop56
140
1.0
102
RTVSPost2010PropOp56
 70
     1
102
RTVSPost2010Prop57
140
1.0
102
RTVSPost2010PropOp57
 70
     1
102
RTVSPropertyOp0
 70
     1
102
RTVSPropertyOp1
 70
     1
102
RTVSPropertyOp2
 70
     1
102
RTVSPropertyOp3
 70
     1
102
RTVSPropertyOp4
 70
     1
102
RTVSPropertyOp5
 70
     1
102
RTVSPropertyOp6
 70
     1
102
RTVSPropertyOp7
 70
     1
102
RTVSPropertyOp8
 70
     1
102
RTVSPropertyOp9
 70
     1
102
RTVSPropertyOp10
 70
     1
102
RTVSPropertyOp11
 70
     1
102
RTVSPropertyOp12
 70
     1
102
RTVSPropertyOp13
 70
     1
102
RTVSPropertyOp14
 70
     1
102
RTVSPropertyOp15
 70
     1
102
RTVSPropertyOp16
 70
     1
102
RTVSPropertyOp17
 70
     1
102
RTVSPropertyOp18
 70
     1
102
RTVSPropertyOp19
 70
     1
102
RTVSPropertyOp20
 70
     1
102
RTVSPropertyOp21
 70
     1
102
RTVSPropertyOp22
 70
     1
102
RTVSPropertyOp23
 70
     1
102
RTVSPropertyOp24
 70
     1
102
RTVSPropertyOp25
 70
     1
102
RTVSPropertyOp26
 70
     1
102
RTVSPropertyOp27
 70
     1
102
RTVSPropertyOp28
 70
     1
102
RTVSPropertyOp29
 70
     1
102
RTVSPropertyOp30
 70
     1
102
RTVSPropertyOp31
 70
     1
102
RTVSPropertyOp32
 70
     1
102
RTVSPropertyOp33
 70
     1
102
RTVSPropertyOp34
 70
     1
102
RTVSPropertyOp35
 70
     1
102
RTVSPropertyOp36
 70
     1
102
RTVSPropertyOp37
 70
     1
102
RTVSPropertyOp38
 70
     1
102
RTVSPropertyOp39
 70
     1
102
RTVSPropertyOp40
 70
     1
102
RTVSPropertyOp41
 70
     1
102
RTVSPropertyOp42
 70
     1
102
RTVSPropertyOp43
 70
     1
102
RTVSPropertyOp44
 70
     1
102
RTVSPropertyOp45
 70
     1
102
RTVSPropertyOp46
 70
     1
102
RTVSPropertyOp47
 70
     1
102
RTVSPropertyOp48
 70
     1
102
RTVSPropertyOp49
 70
     1
102
RTVSPropertyOp50
 70
     1
102
RTVSPropertyOp51
 70
     0
102
RTVSPropertyOp52
 70
     0
102
RTVSPropertyOp53
 70
     1
102
RTVSPropertyOp54
 70
     1
102
RTVSPropertyOp55
 70
     1
102
RTVSPropertyOp56
 70
     1
102
RTVSPropertyOp57
 70
     1
102
RTVSPropertyOp58
 70
     1
102
RTVSPropertyOp59
 70
     1
102
RTVSPropertyOp60
 70
     1
102
RTVSPropertyOp61
 70
     1
102
RTVSPropertyOp62
 70
     1
  0
XRECORD
  5
40A9
102
{ACAD_REACTORS
330
40A8
102
}
330
40A8
100
AcDbXrecord
280
     1
102
RTVSPost2010Prop28
280
     0
102
RTVSPost2010PropOp28
 70
     1
102
RTVSPost2010Prop29
280
     1
102
RTVSPost2010PropOp29
 70
     1
102
RTVSPost2010Prop30
280
     1
102
RTVSPost2010PropOp30
 70
     1
102
RTVSPost2010Prop31
280
     0
102
RTVSPost2010PropOp31
 70
     1
102
RTVSPost2010Prop32
280
     0
102
RTVSPost2010PropOp32
 70
     1
102
RTVSPost2010Prop33
280
     0
102
RTVSPost2010PropOp33
 70
     1
102
RTVSPost2010Prop34
280
     0
102
RTVSPost2010PropOp34
 70
     1
102
RTVSPost2010Prop35
280
     0
102
RTVSPost2010PropOp35
 70
     1
102
RTVSPost2010Prop36
280
     0
102
RTVSPost2010PropOp36
 70
     1
102
RTVSPost2010Prop37
 90
       50
102
RTVSPost2010PropOp37
 70
     1
102
RTVSPost2010Prop38
140
0.0
102
RTVSPost2010PropOp38
 70
     1
102
RTVSPost2010Prop39
140
1.0
102
RTVSPost2010PropOp39
 70
     1
102
RTVSPost2010Prop40
 90
        0
102
RTVSPost2010PropOp40
 70
     1
102
RTVSPost2010Prop41ColorIndex
 90
       18
102
RTVSPost2010Prop41ColorRGB
 90
        0
102
RTVSPost2010PropOp41
 70
     1
102
RTVSPost2010Prop42
 90
       50
102
RTVSPost2010PropOp42
 70
     1
102
RTVSPost2010Prop43
 90
        3
102
RTVSPost2010PropOp43
 70
     1
102
RTVSPost2010Prop44ColorIndex
 90
        5
102
RTVSPost2010Prop44ColorRGB
 90
      255
102
RTVSPost2010PropOp44
 70
     1
102
RTVSPost2010Prop45
280
     0
102
RTVSPost2010PropOp45
 70
     1
102
RTVSPost2010Prop46
 90
       50
102
RTVSPost2010PropOp46
 70
     1
102
RTVSPost2010Prop47
 90
       50
102
RTVSPost2010PropOp47
 70
     1
102
RTVSPost2010Prop48
 90
       50
102
RTVSPost2010PropOp48
 70
     1
102
RTVSPost2010Prop49
280
     0
102
RTVSPost2010PropOp49
 70
     1
102
RTVSPost2010Prop50
 90
       50
102
RTVSPost2010PropOp50
 70
     1
102
RTVSPost2010Prop51ColorIndex
 90
      256
102
RTVSPost2010Prop51ColorRGB
 90
-16777216
102
RTVSPost2010PropOp51
 70
     0
102
RTVSPost2010Prop52
140
1.0
102
RTVSPost2010PropOp52
 70
     0
102
RTVSPost2010Prop53
 90
        2
102
RTVSPost2010PropOp53
 70
     1
102
RTVSPost2010Prop54
  1
strokes_ogs.tif
102
RTVSPost2010PropOp54
 70
     1
102
RTVSPost2010Prop55
280
     0
102
RTVSPost2010PropOp55
 70
     1
102
RTVSPost2010Prop56
140
1.0
102
RTVSPost2010PropOp56
 70
     1
102
RTVSPost2010Prop57
140
1.0
102
RTVSPost2010PropOp57
 70
     1
102
RTVSPropertyOp0
 70
     1
102
RTVSPropertyOp1
 70
     1
102
RTVSPropertyOp2
 70
     1
102
RTVSPropertyOp3
 70
     1
102
RTVSPropertyOp4
 70
     1
102
RTVSPropertyOp5
 70
     1
102
RTVSPropertyOp6
 70
     1
102
RTVSPropertyOp7
 70
     1
102
RTVSPropertyOp8
 70
     1
102
RTVSPropertyOp9
 70
     1
102
RTVSPropertyOp10
 70
     1
102
RTVSPropertyOp11
 70
     1
102
RTVSPropertyOp12
 70
     1
102
RTVSPropertyOp13
 70
     1
102
RTVSPropertyOp14
 70
     1
102
RTVSPropertyOp15
 70
     1
102
RTVSPropertyOp16
 70
     1
102
RTVSPropertyOp17
 70
     1
102
RTVSPropertyOp18
 70
     1
102
RTVSPropertyOp19
 70
     1
102
RTVSPropertyOp20
 70
     1
102
RTVSPropertyOp21
 70
     1
102
RTVSPropertyOp22
 70
     1
102
RTVSPropertyOp23
 70
     1
102
RTVSPropertyOp24
 70
     1
102
RTVSPropertyOp25
 70
     1
102
RTVSPropertyOp26
 70
     1
102
RTVSPropertyOp27
 70
     1
102
RTVSPropertyOp28
 70
     1
102
RTVSPropertyOp29
 70
     1
102
RTVSPropertyOp30
 70
     1
102
RTVSPropertyOp31
 70
     1
102
RTVSPropertyOp32
 70
     1
102
RTVSPropertyOp33
 70
     1
102
RTVSPropertyOp34
 70
     1
102
RTVSPropertyOp35
 70
     1
102
RTVSPropertyOp36
 70
     1
102
RTVSPropertyOp37
 70
     1
102
RTVSPropertyOp38
 70
     1
102
RTVSPropertyOp39
 70
     1
102
RTVSPropertyOp40
 70
     1
102
RTVSPropertyOp41
 70
     1
102
RTVSPropertyOp42
 70
     1
102
RTVSPropertyOp43
 70
     1
102
RTVSPropertyOp44
 70
     1
102
RTVSPropertyOp45
 70
     1
102
RTVSPropertyOp46
 70
     1
102
RTVSPropertyOp47
 70
     1
102
RTVSPropertyOp48
 70
     1
102
RTVSPropertyOp49
 70
     1
102
RTVSPropertyOp50
 70
     1
102
RTVSPropertyOp51
 70
     0
102
RTVSPropertyOp52
 70
     0
102
RTVSPropertyOp53
 70
     1
102
RTVSPropertyOp54
 70
     1
102
RTVSPropertyOp55
 70
     1
102
RTVSPropertyOp56
 70
     1
102
RTVSPropertyOp57
 70
     1
102
RTVSPropertyOp58
 70
     1
102
RTVSPropertyOp59
 70
     1
102
RTVSPropertyOp60
 70
     1
102
RTVSPropertyOp61
 70
     1
102
RTVSPropertyOp62
 70
     1
  0
ENDSEC
  0
EOF
