  0
SECTION
  2
HEADER
  9
$ACADVER
  1
AC1015
  9
$ACADMAINTVER
 70
    18
  9
$DWGCODEPAGE
  3
ANSI_1252
  9
$INSBASE
 10
0.0
 20
0.0
 30
0.0
  9
$EXTMIN
 10
-243.4469597547396
 20
-346.5151059130616
 30
-0.0015258207003583
  9
$EXTMAX
 10
335.418091699735
 20
281.5780798971864
 30
0.0000000349246037
  9
$LIMMIN
 10
0.0
 20
0.0
  9
$LIMMAX
 10
420.0
 20
297.0
  9
$ORTHOMODE
 70
     0
  9
$REGENMODE
 70
     1
  9
$FILLMODE
 70
     1
  9
$QTEXTMODE
 70
     0
  9
$MIRRTEXT
 70
     0
  9
$LTSCALE
 40
1.0
  9
$ATTMODE
 70
     1
  9
$TEXTSIZE
 40
2.5
  9
$TRACEWID
 40
1.0
  9
$TEXTSTYLE
  7
Standard
  9
$CLAYER
  8
0
  9
$CELTYPE
  6
ByLayer
  9
$CECOLOR
 62
   256
  9
$CELTSCALE
 40
1.0
  9
$DISPSILH
 70
     0
  9
$DIMSCALE
 40
1.0
  9
$DIMASZ
 40
2.5
  9
$DIMEXO
 40
0.625
  9
$DIMDLI
 40
3.75
  9
$DIMRND
 40
0.0
  9
$DIMDLE
 40
0.0
  9
$DIMEXE
 40
1.25
  9
$DIMTP
 40
0.0
  9
$DIMTM
 40
0.0
  9
$DIMTXT
 40
2.5
  9
$DIMCEN
 40
2.5
  9
$DIMTSZ
 40
0.0
  9
$DIMTOL
 70
     0
  9
$DIMLIM
 70
     0
  9
$DIMTIH
 70
     0
  9
$DIMTOH
 70
     0
  9
$DIMSE1
 70
     0
  9
$DIMSE2
 70
     0
  9
$DIMTAD
 70
     1
  9
$DIMZIN
 70
     8
  9
$DIMBLK
  1

  9
$DIMASO
 70
     1
  9
$DIMSHO
 70
     1
  9
$DIMPOST
  1

  9
$DIMAPOST
  1

  9
$DIMALT
 70
     0
  9
$DIMALTD
 70
     3
  9
$DIMALTF
 40
0.03937007874016
  9
$DIMLFAC
 40
1.0
  9
$DIMTOFL
 70
     1
  9
$DIMTVP
 40
0.0
  9
$DIMTIX
 70
     0
  9
$DIMSOXD
 70
     0
  9
$DIMSAH
 70
     0
  9
$DIMBLK1
  1

  9
$DIMBLK2
  1

  9
$DIMSTYLE
  2
ISO-25
  9
$DIMCLRD
 70
     0
  9
$DIMCLRE
 70
     0
  9
$DIMCLRT
 70
     0
  9
$DIMTFAC
 40
1.0
  9
$DIMGAP
 40
0.625
  9
$DIMJUST
 70
     0
  9
$DIMSD1
 70
     0
  9
$DIMSD2
 70
     0
  9
$DIMTOLJ
 70
     0
  9
$DIMTZIN
 70
     8
  9
$DIMALTZ
 70
     0
  9
$DIMALTTZ
 70
     0
  9
$DIMUPT
 70
     0
  9
$DIMDEC
 70
     2
  9
$DIMTDEC
 70
     2
  9
$DIMALTU
 70
     2
  9
$DIMALTTD
 70
     3
  9
$DIMTXSTY
  7
Standard
  9
$DIMAUNIT
 70
     0
  9
$DIMADEC
 70
     0
  9
$DIMALTRND
 40
0.0
  9
$DIMAZIN
 70
     0
  9
$DIMDSEP
 70
    44
  9
$DIMATFIT
 70
     3
  9
$DIMFRAC
 70
     0
  9
$DIMLDRBLK
  1

  9
$DIMLUNIT
 70
     2
  9
$DIMLWD
 70
    -2
  9
$DIMLWE
 70
    -2
  9
$DIMTMOVE
 70
     0
  9
$LUNITS
 70
     2
  9
$LUPREC
 70
     4
  9
$SKETCHINC
 40
1.0
  9
$FILLETRAD
 40
0.0
  9
$AUNITS
 70
     0
  9
$AUPREC
 70
     0
  9
$MENU
  1
.
  9
$ELEVATION
 40
0.0
  9
$PELEVATION
 40
0.0
  9
$THICKNESS
 40
0.0
  9
$LIMCHECK
 70
     0
  9
$CHAMFERA
 40
0.0
  9
$CHAMFERB
 40
0.0
  9
$CHAMFERC
 40
0.0
  9
$CHAMFERD
 40
0.0
  9
$SKPOLY
 70
     0
  9
$TDCREATE
 40
2460719.406504630
  9
$TDUCREATE
 40
2460719.114837963
  9
$TDUPDATE
 40
2460719.411250000
  9
$TDUUPDATE
 40
2460719.119583334
  9
$TDINDWG
 40
0.0020254630
  9
$TDUSRTIMER
 40
0.0020254630
  9
$USRTIMER
 70
     1
  9
$ANGBASE
 50
0.0
  9
$ANGDIR
 70
     0
  9
$PDMODE
 70
     0
  9
$PDSIZE
 40
0.0
  9
$PLINEWID
 40
0.0
  9
$SPLFRAME
 70
     0
  9
$SPLINETYPE
 70
     6
  9
$SPLINESEGS
 70
     8
  9
$HANDSEED
  5
3D13
  9
$SURFTAB1
 70
     6
  9
$SURFTAB2
 70
     6
  9
$SURFTYPE
 70
     6
  9
$SURFU
 70
     6
  9
$SURFV
 70
     6
  9
$UCSBASE
  2

  9
$UCSNAME
  2

  9
$UCSORG
 10
0.0
 20
0.0
 30
0.0
  9
$UCSXDIR
 10
1.0
 20
0.0
 30
0.0
  9
$UCSYDIR
 10
0.0
 20
1.0
 30
0.0
  9
$UCSORTHOREF
  2

  9
$UCSORTHOVIEW
 70
     0
  9
$UCSORGTOP
 10
0.0
 20
0.0
 30
0.0
  9
$UCSORGBOTTOM
 10
0.0
 20
0.0
 30
0.0
  9
$UCSORGLEFT
 10
0.0
 20
0.0
 30
0.0
  9
$UCSORGRIGHT
 10
0.0
 20
0.0
 30
0.0
  9
$UCSORGFRONT
 10
0.0
 20
0.0
 30
0.0
  9
$UCSORGBACK
 10
0.0
 20
0.0
 30
0.0
  9
$PUCSBASE
  2

  9
$PUCSNAME
  2

  9
$PUCSORG
 10
0.0
 20
0.0
 30
0.0
  9
$PUCSXDIR
 10
1.0
 20
0.0
 30
0.0
  9
$PUCSYDIR
 10
0.0
 20
1.0
 30
0.0
  9
$PUCSORTHOREF
  2

  9
$PUCSORTHOVIEW
 70
     0
  9
$PUCSORGTOP
 10
0.0
 20
0.0
 30
0.0
  9
$PUCSORGBOTTOM
 10
0.0
 20
0.0
 30
0.0
  9
$PUCSORGLEFT
 10
0.0
 20
0.0
 30
0.0
  9
$PUCSORGRIGHT
 10
0.0
 20
0.0
 30
0.0
  9
$PUCSORGFRONT
 10
0.0
 20
0.0
 30
0.0
  9
$PUCSORGBACK
 10
0.0
 20
0.0
 30
0.0
  9
$USERI1
 70
     0
  9
$USERI2
 70
     0
  9
$USERI3
 70
     0
  9
$USERI4
 70
     0
  9
$USERI5
 70
     0
  9
$USERR1
 40
0.0
  9
$USERR2
 40
0.0
  9
$USERR3
 40
0.0
  9
$USERR4
 40
0.0
  9
$USERR5
 40
0.0
  9
$WORLDVIEW
 70
     1
  9
$SHADEDGE
 70
     3
  9
$SHADEDIF
 70
    70
  9
$TILEMODE
 70
     1
  9
$MAXACTVP
 70
    48
  9
$PINSBASE
 10
0.0
 20
0.0
 30
0.0
  9
$PLIMCHECK
 70
     0
  9
$PEXTMIN
 10
0.0
 20
0.0
 30
0.0
  9
$PEXTMAX
 10
0.0
 20
0.0
 30
0.0
  9
$PLIMMIN
 10
0.0
 20
0.0
  9
$PLIMMAX
 10
12.0
 20
9.0
  9
$UNITMODE
 70
     0
  9
$VISRETAIN
 70
     1
  9
$PLINEGEN
 70
     0
  9
$PSLTSCALE
 70
     1
  9
$TREEDEPTH
 70
  3020
  9
$CMLSTYLE
  2
Standard
  9
$CMLJUST
 70
     0
  9
$CMLSCALE
 40
20.0
  9
$PROXYGRAPHICS
 70
     1
  9
$MEASUREMENT
 70
     1
  9
$CELWEIGHT
370
    -1
  9
$ENDCAPS
280
     0
  9
$JOINSTYLE
280
     0
  9
$LWDISPLAY
290
     0
  9
$INSUNITS
 70
     4
  9
$HYPERLINKBASE
  1

  9
$STYLESHEET
  1

  9
$XEDIT
290
     1
  9
$CEPSNTYPE
380
     0
  9
$PSTYLEMODE
290
     1
  9
$FINGERPRINTGUID
  2
{375C693C-302E-BC42-B92A-19F6C371B7B0}
  9
$VERSIONGUID
  2
{715E0F80-F2FD-3941-BDA9-6D21CE794533}
  9
$EXTNAMES
290
     1
  9
$PSVPSCALE
 40
0.0
  9
$OLESTARTUP
290
     0
  0
ENDSEC
  0
SECTION
  2
CLASSES
  0
CLASS
  1
ACDBDICTIONARYWDFLT
  2
AcDbDictionaryWithDefault
  3
ObjectDBX Classes
 90
        0
280
     0
281
     0
  0
CLASS
  1
ACDBPLACEHOLDER
  2
AcDbPlaceHolder
  3
ObjectDBX Classes
 90
        0
280
     0
281
     0
  0
CLASS
  1
LAYOUT
  2
AcDbLayout
  3
ObjectDBX Classes
 90
        0
280
     0
281
     0
  0
CLASS
  1
DICTIONARYVAR
  2
AcDbDictionaryVar
  3
ObjectDBX Classes
 90
        0
280
     0
281
     0
  0
CLASS
  1
TABLESTYLE
  2
AcDbTableStyle
  3
ObjectDBX Classes
 90
     4095
280
     0
281
     0
  0
CLASS
  1
MATERIAL
  2
AcDbMaterial
  3
ObjectDBX Classes
 90
     1153
280
     0
281
     0
  0
CLASS
  1
VISUALSTYLE
  2
AcDbVisualStyle
  3
ObjectDBX Classes
 90
     4095
280
     0
281
     0
  0
CLASS
  1
SCALE
  2
AcDbScale
  3
ObjectDBX Classes
 90
     1153
280
     0
281
     0
  0
CLASS
  1
MLEADERSTYLE
  2
AcDbMLeaderStyle
  3
ACDB_MLEADERSTYLE_CLASS
 90
     4095
280
     0
281
     0
  0
CLASS
  1
CELLSTYLEMAP
  2
AcDbCellStyleMap
  3
ObjectDBX Classes
 90
     1152
280
     0
281
     0
  0
CLASS
  1
EXACXREFPANELOBJECT
  2
ExAcXREFPanelObject
  3
EXAC_ESW
 90
    33793
280
     0
281
     0
  0
CLASS
  1
NPOCOLLECTION
  2
AcDbImpNonPersistentObjectsCollection
  3
ObjectDBX Classes
 90
    33921
280
     0
281
     0
  0
CLASS
  1
LAYER_INDEX
  2
AcDbLayerIndex
  3
ObjectDBX Classes
 90
    32768
280
     0
281
     0
  0
CLASS
  1
SPATIAL_INDEX
  2
AcDbSpatialIndex
  3
ObjectDBX Classes
 90
    32768
280
     0
281
     0
  0
CLASS
  1
IDBUFFER
  2
AcDbIdBuffer
  3
ObjectDBX Classes
 90
    32768
280
     0
281
     0
  0
CLASS
  1
ACDBSECTIONVIEWSTYLE
  2
AcDbSectionViewStyle
  3
ObjectDBX Classes
 90
     1025
280
     0
281
     0
  0
CLASS
  1
ACDBDETAILVIEWSTYLE
  2
AcDbDetailViewStyle
  3
ObjectDBX Classes
 90
     1025
280
     0
281
     0
  0
CLASS
  1
XRECORD
  2
AcDbXrecord
  3
ObjectDBX Classes
 90
        0
280
     0
281
     0
  0
ENDSEC
  0
SECTION
  2
TABLES
  0
TABLE
  2
VPORT
  5
8
102
{ACAD_XDICTIONARY
360
3C21
102
}
330
0
100
AcDbSymbolTable
 70
     1
  0
VPORT
  5
EA
330
8
100
AcDbSymbolTableRecord
100
AcDbViewportTableRecord
  2
*Active
 70
     0
 10
0.0
 20
0.0
 11
1.0
 21
1.0
 12
45.98556597249772
 22
-32.46851300793759
 13
0.0
 23
0.0
 14
10.0
 24
10.0
 15
10.0
 25
10.0
 16
0.0
 26
0.0
 36
1.0
 17
0.0
 27
0.0
 37
0.0
 40
667.920183221963
 41
0.9846153846153848
 42
50.0
 43
0.0
 44
0.0
 50
0.0
 51
0.0
 71
     0
 72
  1000
 73
     1
 74
     3
 75
     0
 76
     1
 77
     0
 78
     0
281
     0
 65
     1
110
0.0
120
0.0
130
0.0
111
1.0
121
0.0
131
0.0
112
0.0
122
1.0
132
0.0
 79
     0
146
0.0
1001
ACAD_NAV_VCDISPLAY
1070
     3
  0
ENDTAB
  0
TABLE
  2
LTYPE
  5
5
330
0
100
AcDbSymbolTable
 70
     1
  0
LTYPE
  5
14
330
5
100
AcDbSymbolTableRecord
100
AcDbLinetypeTableRecord
  2
ByBlock
 70
     0
  3

 72
    65
 73
     0
 40
0.0
  0
LTYPE
  5
15
330
5
100
AcDbSymbolTableRecord
100
AcDbLinetypeTableRecord
  2
ByLayer
 70
     0
  3

 72
    65
 73
     0
 40
0.0
  0
LTYPE
  5
16
330
5
100
AcDbSymbolTableRecord
100
AcDbLinetypeTableRecord
  2
Continuous
 70
     0
  3
Solid line
 72
    65
 73
     0
 40
0.0
  0
ENDTAB
  0
TABLE
  2
LAYER
  5
2
102
{ACAD_XDICTIONARY
360
1FF
102
}
330
0
100
AcDbSymbolTable
 70
     1
  0
LAYER
  5
10
102
{ACAD_XDICTIONARY
360
13C
102
}
330
2
100
AcDbSymbolTableRecord
100
AcDbLayerTableRecord
  2
0
 70
     0
 62
     7
  6
Continuous
370
    -3
390
F
  0
ENDTAB
  0
TABLE
  2
STYLE
  5
3
330
0
100
AcDbSymbolTable
 70
     1
  0
STYLE
  5
11
330
3
100
AcDbSymbolTableRecord
100
AcDbTextStyleTableRecord
  2
Standard
 70
     0
 40
0.0
 41
1.0
 50
0.0
 71
     0
 42
2.5
  3
arial.ttf
  4

1001
ACAD
1000
Arial
1071
       34
  0
ENDTAB
  0
TABLE
  2
VIEW
  5
6
330
0
100
AcDbSymbolTable
 70
     0
  0
ENDTAB
  0
TABLE
  2
UCS
  5
7
330
0
100
AcDbSymbolTable
 70
     0
  0
ENDTAB
  0
TABLE
  2
APPID
  5
9
330
0
100
AcDbSymbolTable
 70
     8
  0
APPID
  5
12
330
9
100
AcDbSymbolTableRecord
100
AcDbRegAppTableRecord
  2
ACAD
 70
     0
  0
APPID
  5
9E
330
9
100
AcDbSymbolTableRecord
100
AcDbRegAppTableRecord
  2
ACAD_PSEXT
 70
     0
  0
APPID
  5
133
330
9
100
AcDbSymbolTableRecord
100
AcDbRegAppTableRecord
  2
AcadAnnoPO
 70
     0
  0
APPID
  5
134
330
9
100
AcDbSymbolTableRecord
100
AcDbRegAppTableRecord
  2
AcadAnnotative
 70
     0
  0
APPID
  5
135
330
9
100
AcDbSymbolTableRecord
100
AcDbRegAppTableRecord
  2
ACAD_DSTYLE_DIMJAG
 70
     0
  0
APPID
  5
136
330
9
100
AcDbSymbolTableRecord
100
AcDbRegAppTableRecord
  2
ACAD_DSTYLE_DIMTALN
 70
     0
  0
APPID
  5
165
330
9
100
AcDbSymbolTableRecord
100
AcDbRegAppTableRecord
  2
ACAD_MLEADERVER
 70
     0
  0
APPID
  5
217
330
9
100
AcDbSymbolTableRecord
100
AcDbRegAppTableRecord
  2
ACAD_NAV_VCDISPLAY
 70
     0
  0
ENDTAB
  0
TABLE
  2
DIMSTYLE
  5
A
330
0
100
AcDbSymbolTable
 70
     1
100
AcDbDimStyleTable
 71
     0
  0
DIMSTYLE
105
27
330
A
100
AcDbSymbolTableRecord
100
AcDbDimStyleTableRecord
  2
ISO-25
 70
     0
 41
2.5
 42
0.625
 43
3.75
 44
1.25
 73
     0
 74
     0
 77
     1
 78
     8
140
2.5
141
2.5
143
0.03937007874016
147
0.625
171
     3
172
     1
271
     2
272
     2
274
     3
278
    44
283
     0
284
     8
340
11
  0
ENDTAB
  0
TABLE
  2
BLOCK_RECORD
  5
1
330
0
100
AcDbSymbolTable
 70
     7
  0
BLOCK_RECORD
  5
1F
102
{ACAD_XDICTIONARY
360
1CE
102
}
330
1
100
AcDbSymbolTableRecord
100
AcDbBlockTableRecord
  2
*Model_Space
340
22
  0
BLOCK_RECORD
  5
D2
102
{ACAD_XDICTIONARY
360
3BD4
102
}
330
1
100
AcDbSymbolTableRecord
100
AcDbBlockTableRecord
  2
*Paper_Space
340
D3
  0
BLOCK_RECORD
  5
D6
102
{ACAD_XDICTIONARY
360
3BD6
102
}
330
1
100
AcDbSymbolTableRecord
100
AcDbBlockTableRecord
  2
*Paper_Space0
340
D7
  0
BLOCK_RECORD
  5
38ED
330
1
100
AcDbSymbolTableRecord
100
AcDbBlockTableRecord
  2
SPR120_140-Front
340
0
102
{BLKREFS
331
3BCA
102
}
  0
BLOCK_RECORD
  5
396F
330
1
100
AcDbSymbolTableRecord
100
AcDbBlockTableRecord
  2
SPR120_140-Left
340
0
102
{BLKREFS
331
3BCB
102
}
  0
BLOCK_RECORD
  5
39A8
330
1
100
AcDbSymbolTableRecord
100
AcDbBlockTableRecord
  2
SPR120_140-Right
340
0
102
{BLKREFS
331
3BCC
102
}
  0
BLOCK_RECORD
  5
39E3
330
1
100
AcDbSymbolTableRecord
100
AcDbBlockTableRecord
  2
SPR120_140-Top
340
0
102
{BLKREFS
331
3BCD
102
}
  0
BLOCK_RECORD
  5
3A53
330
1
100
AcDbSymbolTableRecord
100
AcDbBlockTableRecord
  2
SPR120_140-Bottom
340
0
102
{BLKREFS
331
3BCE
102
}
  0
BLOCK_RECORD
  5
3ABF
330
1
100
AcDbSymbolTableRecord
100
AcDbBlockTableRecord
  2
SPR120_140-ISO
340
0
102
{BLKREFS
331
3BCF
102
}
  0
ENDTAB
  0
ENDSEC
  0
SECTION
  2
BLOCKS
  0
BLOCK
  5
20
330
1F
100
AcDbEntity
  8
0
100
AcDbBlockBegin
  2
*Model_Space
 70
     0
 10
0.0
 20
0.0
 30
0.0
  3
*Model_Space
  1

  0
ENDBLK
  5
21
330
1F
100
AcDbEntity
  8
0
100
AcDbBlockEnd
  0
BLOCK
  5
D4
330
D2
100
AcDbEntity
 67
     1
  8
0
100
AcDbBlockBegin
  2
*Paper_Space
 70
     0
 10
0.0
 20
0.0
 30
0.0
  3
*Paper_Space
  1

  0
ENDBLK
  5
D5
330
D2
100
AcDbEntity
 67
     1
  8
0
100
AcDbBlockEnd
  0
BLOCK
  5
D8
330
D6
100
AcDbEntity
 67
     1
  8
0
100
AcDbBlockBegin
  2
*Paper_Space0
 70
     0
 10
0.0
 20
0.0
 30
0.0
  3
*Paper_Space0
  1

  0
ENDBLK
  5
D9
330
D6
100
AcDbEntity
 67
     1
  8
0
100
AcDbBlockEnd
  0
BLOCK
  5
38EE
330
38ED
100
AcDbEntity
  8
0
100
AcDbBlockBegin
  2
SPR120_140-Front
 70
     0
 10
0.0
 20
0.0
 30
0.0
  3
SPR120_140-Front
  1

  0
LINE
  5
38F0
330
38ED
100
AcDbEntity
  8
0
100
AcDbLine
 10
102.527090561
 20
6.269999999999996
 30
0.0
 11
97.52709056099996
 21
1.269999999999996
 31
0.0
  0
LINE
  5
38F1
330
38ED
100
AcDbEntity
  8
0
100
AcDbLine
 10
-97.52709056100002
 20
1.269999999999996
 30
0.0
 11
-102.527090561
 21
6.269999999999996
 31
0.0
  0
LINE
  5
38F2
330
38ED
100
AcDbEntity
  8
0
100
AcDbLine
 10
-102.527090561
 20
72.26999999999998
 30
0.0
 11
-97.52709056100002
 21
77.26999999999998
 31
0.0
  0
LINE
  5
38F3
330
38ED
100
AcDbEntity
  8
0
100
AcDbLine
 10
97.52709056099995
 20
77.27000000000001
 30
0.0
 11
102.5270905609999
 21
72.27000000000001
 31
0.0
  0
LINE
  5
38F4
330
38ED
100
AcDbEntity
  8
0
100
AcDbLine
 10
102.5270905609999
 20
72.27000000000001
 30
0.0
 11
102.527090561
 21
6.269999999999997
 31
0.0
  0
LINE
  5
38F5
330
38ED
100
AcDbEntity
  8
0
100
AcDbLine
 10
-102.527090561
 20
6.269999999999996
 30
0.0
 11
-102.527090561
 21
72.26999999999998
 31
0.0
  0
LINE
  5
38F6
330
38ED
100
AcDbEntity
  8
0
100
AcDbLine
 10
56.49999999999998
 20
77.27000000000001
 30
0.0
 11
97.52709056099995
 21
77.27000000000001
 31
0.0
  0
LINE
  5
38F7
330
38ED
100
AcDbEntity
  8
0
100
AcDbLine
 10
-56.50000000000002
 20
1.269999999999987
 30
0.0
 11
-97.52709056100002
 21
1.269999999999996
 31
0.0
  0
LINE
  5
38F8
330
38ED
100
AcDbEntity
  8
0
100
AcDbLine
 10
97.52709056099996
 20
1.269999999999996
 30
0.0
 11
56.49999999999998
 21
1.269999999999987
 31
0.0
  0
ARC
  5
38F9
330
38ED
100
AcDbEntity
  8
0
100
AcDbCircle
 10
56.49999999999998
 20
78.77000000000001
 30
0.0
 40
1.5
100
AcDbArc
 50
90.0
 51
270.0
  0
LINE
  5
38FA
330
38ED
100
AcDbEntity
  8
0
100
AcDbLine
 10
-97.52709056100002
 20
77.26999999999998
 30
0.0
 11
-56.50000000000002
 21
77.26999999999998
 31
0.0
  0
ARC
  5
38FB
330
38ED
100
AcDbEntity
  8
0
100
AcDbCircle
 10
-56.50000000000002
 20
78.76999999999998
 30
0.0
 40
1.5
100
AcDbArc
 50
270.0
 51
90.0
  0
LINE
  5
38FC
330
38ED
100
AcDbEntity
  8
0
100
AcDbLine
 10
61.50000000000019
 20
80.26999999999999
 30
0.0
 11
61.50000000000023
 21
85.27000000000001
 31
0.0
  0
LINE
  5
38FD
330
38ED
100
AcDbEntity
  8
0
100
AcDbLine
 10
61.50000000000023
 20
85.27000000000001
 30
0.0
 11
60.00000000000022
 21
85.27000000000001
 31
0.0
  0
LINE
  5
38FE
330
38ED
100
AcDbEntity
  8
0
100
AcDbLine
 10
60.00000000000022
 20
85.27000000000001
 30
0.0
 11
60.0000000000002
 21
80.26999999999999
 31
0.0
  0
LINE
  5
38FF
330
38ED
100
AcDbEntity
  8
0
100
AcDbLine
 10
60.0000000000002
 20
80.26999999999999
 30
0.0
 11
61.50000000000019
 21
80.26999999999999
 31
0.0
  0
LINE
  5
3900
330
38ED
100
AcDbEntity
  8
0
100
AcDbLine
 10
60.00000000000022
 20
135.67
 30
0.0
 11
61.50000000000023
 21
135.67
 31
0.0
  0
LINE
  5
3901
330
38ED
100
AcDbEntity
  8
0
100
AcDbLine
 10
61.50000000000023
 20
135.67
 30
0.0
 11
61.50000000000019
 21
140.67
 31
0.0
  0
LINE
  5
3902
330
38ED
100
AcDbEntity
  8
0
100
AcDbLine
 10
-61.50000000000002
 20
85.27000000000001
 30
0.0
 11
-61.50000000000002
 21
80.26999999999999
 31
0.0
  0
LINE
  5
3903
330
38ED
100
AcDbEntity
  8
0
100
AcDbLine
 10
-61.50000000000002
 20
80.26999999999999
 30
0.0
 11
-60.0
 21
80.26999999999999
 31
0.0
  0
LINE
  5
3904
330
38ED
100
AcDbEntity
  8
0
100
AcDbLine
 10
-60.0
 20
80.26999999999999
 30
0.0
 11
-60.0
 21
85.27000000000001
 31
0.0
  0
LINE
  5
3905
330
38ED
100
AcDbEntity
  8
0
100
AcDbLine
 10
-60.0
 20
85.27000000000001
 30
0.0
 11
-61.50000000000002
 21
85.27000000000001
 31
0.0
  0
LINE
  5
3906
330
38ED
100
AcDbEntity
  8
0
100
AcDbLine
 10
-61.50000000000002
 20
140.67
 30
0.0
 11
-61.50000000000002
 21
135.67
 31
0.0
  0
LINE
  5
3907
330
38ED
100
AcDbEntity
  8
0
100
AcDbLine
 10
-61.50000000000002
 20
135.67
 30
0.0
 11
-60.0
 21
135.67
 31
0.0
  0
LINE
  5
3908
330
38ED
100
AcDbEntity
  8
0
100
AcDbLine
 10
61.50000000000019
 20
140.67
 30
0.0
 11
60.0000000000002
 21
140.67
 31
0.0
  0
LINE
  5
3909
330
38ED
100
AcDbEntity
  8
0
100
AcDbLine
 10
60.0000000000002
 20
140.67
 30
0.0
 11
60.00000000000022
 21
135.67
 31
0.0
  0
LINE
  5
390A
330
38ED
100
AcDbEntity
  8
0
100
AcDbLine
 10
-60.0
 20
135.67
 30
0.0
 11
-60.0
 21
140.67
 31
0.0
  0
LINE
  5
390B
330
38ED
100
AcDbEntity
  8
0
100
AcDbLine
 10
-60.0
 20
140.67
 30
0.0
 11
-61.50000000000002
 21
140.67
 31
0.0
  0
LINE
  5
390C
330
38ED
100
AcDbEntity
  8
0
100
AcDbLine
 10
61.49999999999995
 20
-28.42608254450008
 30
0.0
 11
61.49999999999997
 21
-21.35501473263463
 31
0.0
  0
LINE
  5
390D
330
38ED
100
AcDbEntity
  8
0
100
AcDbLine
 10
61.49999999999997
 20
-21.35501473263463
 30
0.0
 11
59.99999999999996
 21
-21.35501473263463
 31
0.0
  0
LINE
  5
390E
330
38ED
100
AcDbEntity
  8
0
100
AcDbLine
 10
59.99999999999996
 20
-21.35501473263463
 30
0.0
 11
59.99999999999996
 21
-28.42608254450008
 31
0.0
  0
LINE
  5
390F
330
38ED
100
AcDbEntity
  8
0
100
AcDbLine
 10
59.99999999999996
 20
-28.42608254450008
 30
0.0
 11
61.49999999999995
 21
-28.42608254450008
 31
0.0
  0
LINE
  5
3910
330
38ED
100
AcDbEntity
  8
0
100
AcDbLine
 10
-61.49999999999997
 20
-21.35501473263464
 30
0.0
 11
-61.49999999999995
 21
-28.42608254450009
 31
0.0
  0
LINE
  5
3911
330
38ED
100
AcDbEntity
  8
0
100
AcDbLine
 10
-61.49999999999995
 20
-28.42608254450009
 30
0.0
 11
-59.99999999999996
 21
-28.42608254450009
 31
0.0
  0
LINE
  5
3912
330
38ED
100
AcDbEntity
  8
0
100
AcDbLine
 10
-59.99999999999996
 20
-28.42608254450009
 30
0.0
 11
-59.99999999999996
 21
-21.35501473263464
 31
0.0
  0
LINE
  5
3913
330
38ED
100
AcDbEntity
  8
0
100
AcDbLine
 10
-59.99999999999996
 20
-21.35501473263464
 30
0.0
 11
-61.49999999999997
 21
-21.35501473263464
 31
0.0
  0
LINE
  5
3914
330
38ED
100
AcDbEntity
  8
0
100
AcDbLine
 10
61.50000000000023
 20
85.27000000000001
 30
0.0
 11
61.50000000000023
 21
135.67
 31
0.0
  0
LINE
  5
3915
330
38ED
100
AcDbEntity
  8
0
100
AcDbLine
 10
60.00000000000022
 20
135.67
 30
0.0
 11
60.00000000000022
 21
85.27000000000001
 31
0.0
  0
LINE
  5
3916
330
38ED
100
AcDbEntity
  8
0
100
AcDbLine
 10
-61.50000000000002
 20
135.67
 30
0.0
 11
-61.50000000000002
 21
85.27000000000001
 31
0.0
  0
LINE
  5
3917
330
38ED
100
AcDbEntity
  8
0
100
AcDbLine
 10
-60.0
 20
135.67
 30
0.0
 11
-60.0
 21
85.27000000000001
 31
0.0
  0
LINE
  5
3918
330
38ED
100
AcDbEntity
  8
0
100
AcDbLine
 10
56.49999999999998
 20
80.27000000000001
 30
0.0
 11
59.39999999999998
 21
80.26999999999999
 31
0.0
  0
LINE
  5
3919
330
38ED
100
AcDbEntity
  8
0
100
AcDbLine
 10
-59.40000000000002
 20
80.26999999999999
 30
0.0
 11
-56.50000000000002
 21
80.26999999999999
 31
0.0
  0
LINE
  5
391A
330
38ED
100
AcDbEntity
  8
0
100
AcDbLine
 10
-59.40000000000002
 20
140.67
 30
0.0
 11
59.39999999999998
 21
140.67
 31
0.0
  0
LINE
  5
391B
330
38ED
100
AcDbEntity
  8
0
100
AcDbLine
 10
61.50000000000206
 20
-2.263131642256726
 30
0.0
 11
61.49999999999997
 21
-21.35501473263463
 31
0.0
  0
LINE
  5
391C
330
38ED
100
AcDbEntity
  8
0
100
AcDbLine
 10
60.0000000000017
 20
-2.263131642256725
 30
0.0
 11
59.99999999999996
 21
-21.35501473263463
 31
0.0
  0
ELLIPSE
  5
391D
330
38ED
100
AcDbEntity
  8
0
100
AcDbEllipse
 10
59.39999999999997
 20
-54.16476937947047
 30
0.0
 11
0.6000000000000089
 21
-0.0000000000000007
 31
0.0
210
0.0
220
0.0
230
1.0
 40
0.7071067811865475
 41
4.71238898038475
 42
6.283185307179506
  0
ELLIPSE
  5
391E
330
38ED
100
AcDbEntity
  8
0
100
AcDbEllipse
 10
59.39999999999997
 20
-54.16476937947044
 30
0.0
 11
2.100000000000081
 21
-0.0000000000000888
 31
0.0
210
0.0
220
0.0
230
1.0
 40
0.7071067811865527
 41
4.712388980384727
 42
6.283185307179586
  0
LINE
  5
391F
330
38ED
100
AcDbEntity
  8
0
100
AcDbLine
 10
61.50000000000206
 20
-2.263131642256726
 30
0.0
 11
60.0000000000017
 21
-2.263131642256725
 31
0.0
  0
ELLIPSE
  5
3920
330
38ED
100
AcDbEntity
  8
0
100
AcDbEllipse
 10
-56.50000000000002
 20
0.0236058844764062
 30
0.0
 11
-1.5
 21
0.0000000000001095
 31
0.0
210
0.0
220
0.0
230
1.0
 40
0.7071067811865479
 41
1.570796326795026
 42
2.705254581962135
  0
LINE
  5
3921
330
38ED
100
AcDbEntity
  8
0
100
AcDbLine
 10
-56.50000000000002
 20
-1.037054287303402
 30
0.0
 11
-58.79315533855965
 21
-1.037054287303414
 31
0.0
  0
LINE
  5
3922
330
38ED
100
AcDbEntity
  8
0
100
AcDbLine
 10
-58.79315533855965
 20
-1.037054287303414
 30
0.0
 11
-59.40000000000002
 21
-1.466158262545961
 31
0.0
  0
LINE
  5
3923
330
38ED
100
AcDbEntity
  8
0
100
AcDbLine
 10
59.39999999999998
 20
-1.466158262545965
 30
0.0
 11
58.79315533855962
 21
-1.03705428730342
 31
0.0
  0
LINE
  5
3924
330
38ED
100
AcDbEntity
  8
0
100
AcDbLine
 10
58.79315533855962
 20
-1.03705428730342
 30
0.0
 11
56.49999999999998
 21
-1.037054287303407
 31
0.0
  0
ELLIPSE
  5
3925
330
38ED
100
AcDbEntity
  8
0
100
AcDbEllipse
 10
56.49999999999998
 20
0.0236058844764062
 30
0.0
 11
-1.5
 21
0.0
 31
0.0
210
0.0
220
0.0
230
1.0
 40
0.7071067811865479
 41
0.4363380716279047
 42
1.570796326794896
  0
SPLINE
  5
3926
330
38ED
100
AcDbEntity
  8
0
100
AcDbSpline
210
0.0
220
0.0
230
1.0
 70
     8
 71
     3
 72
     8
 73
     4
 74
     0
 42
0.000000001
 43
0.0000000001
 40
-1.0
 40
-1.0
 40
-1.0
 40
-1.0
 40
0.0
 40
0.0
 40
0.0
 40
0.0
 10
-55.01767776087199
 20
-0.0003899405809507
 30
0.0
 10
-54.97251992073983
 20
-0.1594792109354459
 30
0.0
 10
-55.01586474390124
 20
-0.3214850446752977
 30
0.0
 10
-55.1405419700205
 20
-0.4246540092928796
 30
0.0
  0
SPLINE
  5
3927
330
38ED
100
AcDbEntity
  8
0
100
AcDbSpline
210
0.0
220
0.0
230
1.0
 70
     8
 71
     3
 72
     8
 73
     4
 74
     0
 42
0.000000001
 43
0.0000000001
 40
-1.0
 40
-1.0
 40
-1.0
 40
-1.0
 40
0.0
 40
0.0
 40
0.0
 40
0.0
 10
55.14054197002041
 20
-0.4246540092928796
 30
0.0
 10
55.01586474390372
 20
-0.3214850446752982
 30
0.0
 10
54.97251992074175
 20
-0.1594792109354491
 30
0.0
 10
55.01767776087192
 20
-0.0003899405809508
 30
0.0
  0
LINE
  5
3928
330
38ED
100
AcDbEntity
  8
0
100
AcDbLine
 10
-59.99999999999774
 20
-2.263131642256721
 30
0.0
 11
-61.49999999999749
 21
-2.263131642256721
 31
0.0
  0
SPLINE
  5
3929
330
38ED
100
AcDbEntity
  8
0
100
AcDbSpline
210
0.0
220
0.0
230
1.0
 70
     8
 71
     3
 72
     8
 73
     4
 74
     0
 42
0.000000001
 43
0.0000000001
 40
-1.0
 40
-1.0
 40
-1.0
 40
-1.0
 40
0.0
 40
0.0
 40
0.0
 40
0.0
 10
-59.40000000000002
 20
-1.466158262545953
 30
0.0
 10
-59.71415926535898
 20
-1.873237411765488
 30
0.0
 10
-60.0
 20
-2.078196639180335
 30
0.0
 10
-60.0
 20
-2.263131641492212
 30
0.0
  0
ARC
  5
392A
330
38ED
100
AcDbEntity
  8
0
100
AcDbCircle
 10
-56.50000000000002
 20
-0.2299999999999986
 30
0.0
 40
1.5
100
AcDbArc
 50
8.805075259701309
 51
90.0
  0
SPLINE
  5
392B
330
38ED
100
AcDbEntity
  8
0
100
AcDbSpline
210
0.0
220
0.0
230
1.0
 70
     8
 71
     3
 72
     8
 73
     4
 74
     0
 42
0.000000001
 43
0.0000000001
 40
-0.9999999999999944
 40
-0.9999999999999944
 40
-0.9999999999999944
 40
-0.9999999999999944
 40
0.0
 40
0.0
 40
0.0
 40
0.0
 10
60.0
 20
-2.263131641492226
 30
0.0
 10
60.0
 20
-2.078196639180569
 30
0.0
 10
59.714159265359
 20
-1.873237411764497
 30
0.0
 10
59.39999999999998
 20
-1.466158262545984
 30
0.0
  0
ARC
  5
392C
330
38ED
100
AcDbEntity
  8
0
100
AcDbCircle
 10
56.49999999999998
 20
-0.2299999999999986
 30
0.0
 40
1.5
100
AcDbArc
 50
90.0
 51
171.1949247402987
  0
SPLINE
  5
392D
330
38ED
100
AcDbEntity
  8
0
100
AcDbSpline
210
0.0
220
0.0
230
1.0
 70
     8
 71
     3
 72
    16
 73
    12
 74
     0
 42
0.000000001
 43
0.0000000001
 40
0.0
 40
0.0
 40
0.0
 40
0.0
 40
0.0356537247356215
 40
0.0356537247356215
 40
0.0703704956585305
 40
0.0703704956585305
 40
0.1051345640258166
 40
0.1051345640258166
 40
0.1398962718819214
 40
0.1398962718819214
 40
0.1538885733137242
 40
0.1538885733137242
 40
0.1538885733137242
 40
0.1538885733137242
 10
-60.49950000000102
 20
-2.26313164149221
 30
0.0
 10
-60.4994999999986
 20
-2.263131641490644
 30
0.0
 10
-60.47955867538867
 20
-2.2630599510149
 30
0.0
 10
-60.40583172164787
 20
-2.250836451202362
 30
0.0
 10
-60.3521345802119
 20
-2.238741830445357
 30
0.0
 10
-60.22293730420706
 20
-2.194102190349614
 30
0.0
 10
-60.14591985424239
 20
-2.16088867717851
 30
0.0
 10
-59.98574064080315
 20
-2.069479202511046
 30
0.0
 10
-59.90073655247943
 20
-2.010107098166513
 30
0.0
 10
-59.78901418341809
 20
-1.909831885080301
 30
0.0
 10
-59.75758437988806
 20
-1.87894366983638
 30
0.0
 10
-59.7274215552438
 20
-1.846191951394207
 30
0.0
  0
SPLINE
  5
392E
330
38ED
100
AcDbEntity
  8
0
100
AcDbSpline
210
0.0
220
0.0
230
1.0
 70
     8
 71
     3
 72
    16
 73
    12
 74
     0
 42
0.000000001
 43
0.0000000001
 40
0.0
 40
0.0
 40
0.0
 40
0.0
 40
0.0356266149393551
 40
0.0356266149393551
 40
0.0703447701861072
 40
0.0703447701861072
 40
0.1051087695065124
 40
0.1051087695065124
 40
0.139870480810561
 40
0.139870480810561
 40
0.1538888647029529
 40
0.1538888647029529
 40
0.1538888647029529
 40
0.1538888647029529
 10
59.7274215552439
 20
-1.846191951394319
 30
0.0
 10
59.80422088266845
 20
-1.929583012345101
 30
0.0
 10
59.88999615133185
 20
-2.001172959758058
 30
0.0
 10
60.05564046646541
 20
-2.113266523290005
 30
0.0
 10
60.13750261653456
 20
-2.155953002297812
 30
0.0
 10
60.28182181894799
 20
-2.217016703004396
 30
0.0
 10
60.34591305092797
 20
-2.236189491821087
 30
0.0
 10
60.44238223267619
 20
-2.258395304190302
 30
0.0
 10
60.47587215058481
 20
-2.26181117486854
 30
0.0
 10
60.4965050153661
 20
-2.263130971916431
 30
0.0
 10
60.49950000000016
 20
-2.263131641491632
 30
0.0
 10
60.49950000000051
 20
-2.263131641492242
 30
0.0
  0
LINE
  5
392F
330
38ED
100
AcDbEntity
  8
0
100
AcDbLine
 10
61.49999999999995
 20
-54.16476937947052
 30
0.0
 11
61.49999999999995
 21
-28.42608254450008
 31
0.0
  0
LINE
  5
3930
330
38ED
100
AcDbEntity
  8
0
100
AcDbLine
 10
-61.49999999999995
 20
-28.42608254450009
 30
0.0
 11
-61.49999999999998
 21
-54.16476937947052
 31
0.0
  0
LINE
  5
3931
330
38ED
100
AcDbEntity
  8
0
100
AcDbLine
 10
-59.99999999999996
 20
-28.42608254450009
 30
0.0
 11
-59.99999999999997
 21
-54.16476937947052
 31
0.0
  0
LINE
  5
3932
330
38ED
100
AcDbEntity
  8
0
100
AcDbLine
 10
-59.39999999999999
 20
-54.58903344818243
 30
0.0
 11
59.39999999999997
 21
-54.58903344818243
 31
0.0
  0
LINE
  5
3933
330
38ED
100
AcDbEntity
  8
0
100
AcDbLine
 10
59.99999999999996
 20
-54.16476937947052
 30
0.0
 11
59.99999999999996
 21
-28.42608254450008
 31
0.0
  0
LINE
  5
3934
330
38ED
100
AcDbEntity
  8
0
100
AcDbLine
 10
-59.39999999999999
 20
-55.64969361996226
 30
0.0
 11
59.39999999999997
 21
-55.64969361996226
 31
0.0
  0
LINE
  5
3935
330
38ED
100
AcDbEntity
  8
0
100
AcDbLine
 10
-61.49999999999749
 20
-2.263131642256721
 30
0.0
 11
-61.49999999999997
 21
-21.35501473263464
 31
0.0
  0
LINE
  5
3936
330
38ED
100
AcDbEntity
  8
0
100
AcDbLine
 10
-59.99999999999774
 20
-2.263131642256721
 30
0.0
 11
-59.99999999999996
 21
-21.35501473263464
 31
0.0
  0
CIRCLE
  5
3937
330
38ED
100
AcDbEntity
  8
0
100
AcDbCircle
 10
49.99999999999997
 20
109.7699999999999
 30
0.0
 40
2.5
  0
CIRCLE
  5
3938
330
38ED
100
AcDbEntity
  8
0
100
AcDbCircle
 10
49.99999999999997
 20
69.76999999999996
 30
0.0
 40
2.5
  0
CIRCLE
  5
3939
330
38ED
100
AcDbEntity
  8
0
100
AcDbCircle
 10
49.99999999999997
 20
29.76999999999997
 30
0.0
 40
2.5
  0
CIRCLE
  5
393A
330
38ED
100
AcDbEntity
  8
0
100
AcDbCircle
 10
39.99999999999997
 20
129.77
 30
0.0
 40
2.5
  0
CIRCLE
  5
393B
330
38ED
100
AcDbEntity
  8
0
100
AcDbCircle
 10
39.99999999999997
 20
89.76999999999996
 30
0.0
 40
2.5
  0
CIRCLE
  5
393C
330
38ED
100
AcDbEntity
  8
0
100
AcDbCircle
 10
39.99999999999997
 20
49.76999999999996
 30
0.0
 40
2.5
  0
CIRCLE
  5
393D
330
38ED
100
AcDbEntity
  8
0
100
AcDbCircle
 10
39.99999999999997
 20
9.769999999999965
 30
0.0
 40
2.5
  0
CIRCLE
  5
393E
330
38ED
100
AcDbEntity
  8
0
100
AcDbCircle
 10
-40.00000000000001
 20
109.77
 30
0.0
 40
2.5
  0
CIRCLE
  5
393F
330
38ED
100
AcDbEntity
  8
0
100
AcDbCircle
 10
-40.00000000000001
 20
69.76999999999998
 30
0.0
 40
2.5
  0
CIRCLE
  5
3940
330
38ED
100
AcDbEntity
  8
0
100
AcDbCircle
 10
-40.00000000000001
 20
29.76999999999998
 30
0.0
 40
2.5
  0
CIRCLE
  5
3941
330
38ED
100
AcDbEntity
  8
0
100
AcDbCircle
 10
-50.00000000000003
 20
129.77
 30
0.0
 40
2.5
  0
CIRCLE
  5
3942
330
38ED
100
AcDbEntity
  8
0
100
AcDbCircle
 10
-50.00000000000003
 20
89.76999999999998
 30
0.0
 40
2.5
  0
CIRCLE
  5
3943
330
38ED
100
AcDbEntity
  8
0
100
AcDbCircle
 10
-50.00000000000003
 20
49.76999999999998
 30
0.0
 40
2.5
  0
CIRCLE
  5
3944
330
38ED
100
AcDbEntity
  8
0
100
AcDbCircle
 10
-50.00000000000003
 20
9.769999999999983
 30
0.0
 40
2.5
  0
CIRCLE
  5
3945
330
38ED
100
AcDbEntity
  8
0
100
AcDbCircle
 10
-73.02709056100001
 20
69.76999999999998
 30
0.0
 40
2.5
  0
CIRCLE
  5
3946
330
38ED
100
AcDbEntity
  8
0
100
AcDbCircle
 10
67.02709056099992
 20
69.76999999999996
 30
0.0
 40
2.5
  0
CIRCLE
  5
3947
330
38ED
100
AcDbEntity
  8
0
100
AcDbCircle
 10
-67.02709056099999
 20
29.76999999999999
 30
0.0
 40
2.5
  0
CIRCLE
  5
3948
330
38ED
100
AcDbEntity
  8
0
100
AcDbCircle
 10
73.02709056099994
 20
29.76999999999998
 30
0.0
 40
2.5
  0
ELLIPSE
  5
3949
330
38ED
100
AcDbEntity
  8
0
100
AcDbEllipse
 10
-22.50000000000002
 20
0.0236058844764063
 30
0.0
 11
-2.5
 21
0.0
 31
0.0
210
0.0
220
0.0
230
1.0
 40
0.707106781186548
 41
0.2563733270184496
 42
1.570796326794896
  0
LINE
  5
394A
330
38ED
100
AcDbEntity
  8
0
100
AcDbLine
 10
-17.50000000000001
 20
-1.744161068489961
 30
0.0
 11
-22.50000000000002
 21
-1.744161068489961
 31
0.0
  0
ELLIPSE
  5
394B
330
38ED
100
AcDbEntity
  8
0
100
AcDbEllipse
 10
-17.50000000000001
 20
0.0236058844764063
 30
0.0
 11
2.5
 21
-0.0000000000000008
 31
0.0
210
0.0
220
0.0
230
1.0
 40
0.7071067811865478
 41
4.712388980384689
 42
6.026811980161137
  0
SPLINE
  5
394C
330
38ED
100
AcDbEntity
  8
0
100
AcDbSpline
210
0.0
220
0.0
230
1.0
 70
     8
 71
     3
 72
     8
 73
     4
 74
     0
 42
0.000000001
 43
0.0000000001
 40
-1.0
 40
-1.0
 40
-1.0
 40
-1.0
 40
0.0
 40
0.0
 40
0.0
 40
0.0
 10
-24.91828991960765
 20
-0.4246540092928796
 30
0.0
 10
-24.99189972302028
 20
-0.3163012038324997
 30
0.0
 10
-25.01609483643939
 20
-0.1581319339738405
 30
0.0
 10
-24.98943351399745
 20
-0.0003899405809503
 30
0.0
  0
SPLINE
  5
394D
330
38ED
100
AcDbEntity
  8
0
100
AcDbSpline
210
0.0
220
0.0
230
1.0
 70
     8
 71
     3
 72
     8
 73
     4
 74
     0
 42
0.000000001
 43
0.0000000001
 40
-1.0
 40
-1.0
 40
-1.0
 40
-1.0
 40
0.0
 40
0.0
 40
0.0
 40
0.0
 10
-15.01056648600259
 20
-0.0003899405809504
 30
0.0
 10
-14.98390516356081
 20
-0.1581319339738713
 30
0.0
 10
-15.00810027697979
 20
-0.3163012038325279
 30
0.0
 10
-15.08171008039239
 20
-0.4246540092928794
 30
0.0
  0
ARC
  5
394E
330
38ED
100
AcDbEntity
  8
0
100
AcDbCircle
 10
-17.50000000000001
 20
-0.2299999999999986
 30
0.0
 40
2.5
100
AcDbArc
 50
5.269701326164559
 51
90.0
  0
LINE
  5
394F
330
38ED
100
AcDbEntity
  8
0
100
AcDbLine
 10
-22.50000000000002
 20
2.270000000000001
 30
0.0
 11
-17.50000000000001
 21
2.270000000000001
 31
0.0
  0
ARC
  5
3950
330
38ED
100
AcDbEntity
  8
0
100
AcDbCircle
 10
-22.50000000000002
 20
-0.2299999999999986
 30
0.0
 40
2.5
100
AcDbArc
 50
90.0
 51
174.7302986738354
  0
ELLIPSE
  5
3951
330
38ED
100
AcDbEntity
  8
0
100
AcDbEllipse
 10
17.49999999999998
 20
0.0236058844764063
 30
0.0
 11
-2.5
 21
0.0
 31
0.0
210
0.0
220
0.0
230
1.0
 40
0.7071067811865479
 41
0.2563733270184496
 42
1.570796326794896
  0
LINE
  5
3952
330
38ED
100
AcDbEntity
  8
0
100
AcDbLine
 10
22.5
 20
-1.744161068489963
 30
0.0
 11
17.49999999999998
 21
-1.744161068489963
 31
0.0
  0
ELLIPSE
  5
3953
330
38ED
100
AcDbEntity
  8
0
100
AcDbEllipse
 10
22.5
 20
0.0236058844764062
 30
0.0
 11
2.5
 21
-0.0000000000000008
 31
0.0
210
0.0
220
0.0
230
1.0
 40
0.7071067811865479
 41
4.712388980384689
 42
6.026811980161137
  0
SPLINE
  5
3954
330
38ED
100
AcDbEntity
  8
0
100
AcDbSpline
210
0.0
220
0.0
230
1.0
 70
     8
 71
     3
 72
     8
 73
     4
 74
     0
 42
0.000000001
 43
0.0000000001
 40
-1.0
 40
-1.0
 40
-1.0
 40
-1.0
 40
0.0
 40
0.0
 40
0.0
 40
0.0
 10
15.08171008039234
 20
-0.4246540092928794
 30
0.0
 10
15.00810027697996
 20
-0.3163012038325243
 30
0.0
 10
14.98390516356047
 20
-0.1581319339738665
 30
0.0
 10
15.01056648600255
 20
-0.0003899405809504
 30
0.0
  0
SPLINE
  5
3955
330
38ED
100
AcDbEntity
  8
0
100
AcDbSpline
210
0.0
220
0.0
230
1.0
 70
     8
 71
     3
 72
     8
 73
     4
 74
     0
 42
0.000000001
 43
0.0000000001
 40
-1.0
 40
-1.0
 40
-1.0
 40
-1.0
 40
0.0
 40
0.0
 40
0.0
 40
0.0
 10
24.98943351399742
 20
-0.0003899405809504
 30
0.0
 10
25.01609483643945
 20
-0.1581319339738421
 30
0.0
 10
24.9918997230203
 20
-0.3163012038325015
 30
0.0
 10
24.91828991960762
 20
-0.4246540092928796
 30
0.0
  0
ARC
  5
3956
330
38ED
100
AcDbEntity
  8
0
100
AcDbCircle
 10
22.5
 20
-0.2299999999999986
 30
0.0
 40
2.5
100
AcDbArc
 50
5.269701326164559
 51
90.0
  0
LINE
  5
3957
330
38ED
100
AcDbEntity
  8
0
100
AcDbLine
 10
17.49999999999998
 20
2.270000000000001
 30
0.0
 11
22.5
 21
2.270000000000001
 31
0.0
  0
ARC
  5
3958
330
38ED
100
AcDbEntity
  8
0
100
AcDbCircle
 10
17.49999999999998
 20
-0.2299999999999986
 30
0.0
 40
2.5
100
AcDbArc
 50
90.0
 51
174.7302986738354
  0
SPLINE
  5
3959
330
38ED
100
AcDbEntity
  8
0
100
AcDbSpline
210
0.0
220
0.0
230
1.0
 70
     8
 71
     3
 72
     8
 73
     4
 74
     0
 42
0.000000001
 43
0.0000000001
 40
-1.0
 40
-1.0
 40
-1.0
 40
-1.0
 40
0.0
 40
0.0
 40
0.0
 40
0.0
 10
-40.0105664860026
 20
-0.0003899405809506
 30
0.0
 10
-39.98390516356047
 20
-0.1581319339738718
 30
0.0
 10
-40.00810027697969
 20
-0.3163012038324724
 30
0.0
 10
-40.08171008039238
 20
-0.4246540092928794
 30
0.0
  0
ELLIPSE
  5
395A
330
38ED
100
AcDbEntity
  8
0
100
AcDbEllipse
 10
-42.50000000000001
 20
0.0236058844764062
 30
0.0
 11
2.499999999999999
 21
-0.0000000000000004
 31
0.0
210
0.0
220
0.0
230
1.0
 40
0.7071067811865479
 41
3.39796598060824
 42
6.026811980161135
  0
ELLIPSE
  5
395B
330
38ED
100
AcDbEntity
  8
0
100
AcDbEllipse
 10
42.49999999999999
 20
0.0236058844764062
 30
0.0
 11
2.5
 21
-0.0000000000000005
 31
0.0
210
0.0
220
0.0
230
1.0
 40
0.7071067811865479
 41
3.397965980608241
 42
6.026811980161136
  0
SPLINE
  5
395C
330
38ED
100
AcDbEntity
  8
0
100
AcDbSpline
210
0.0
220
0.0
230
1.0
 70
     8
 71
     3
 72
     8
 73
     4
 74
     0
 42
0.000000001
 43
0.0000000001
 40
-1.0
 40
-1.0
 40
-1.0
 40
-1.0
 40
0.0
 40
0.0
 40
0.0
 40
0.0
 10
40.08171008039235
 20
-0.4246540092928802
 30
0.0
 10
40.00810027697982
 20
-0.3163012038324944
 30
0.0
 10
39.98390516356057
 20
-0.1581319339738693
 30
0.0
 10
40.01056648600256
 20
-0.0003899405809504
 30
0.0
  0
SPLINE
  5
395D
330
38ED
100
AcDbEntity
  8
0
100
AcDbSpline
210
0.0
220
0.0
230
1.0
 70
     8
 71
     3
 72
     8
 73
     4
 74
     0
 42
0.000000001
 43
0.0000000001
 40
-1.0
 40
-1.0
 40
-1.0
 40
-1.0
 40
0.0
 40
0.0
 40
0.0
 40
0.0
 10
-44.91828991960765
 20
-0.4246540092928802
 30
0.0
 10
-44.99189972302028
 20
-0.3163012038325028
 30
0.0
 10
-45.01609483643966
 20
-0.1581319339738779
 30
0.0
 10
-44.98943351399744
 20
-0.0003899405809503
 30
0.0
  0
ARC
  5
395E
330
38ED
100
AcDbEntity
  8
0
100
AcDbCircle
 10
-42.50000000000001
 20
-0.2299999999999986
 30
0.0
 40
2.499999999999999
100
AcDbArc
 50
5.269701326164559
 51
174.7302986738354
  0
SPLINE
  5
395F
330
38ED
100
AcDbEntity
  8
0
100
AcDbSpline
210
0.0
220
0.0
230
1.0
 70
     8
 71
     3
 72
     8
 73
     4
 74
     0
 42
0.000000001
 43
0.0000000001
 40
-1.0
 40
-1.0
 40
-1.0
 40
-1.0
 40
0.0
 40
0.0
 40
0.0
 40
0.0
 10
44.98943351399741
 20
-0.0003899405809506
 30
0.0
 10
45.01609483643921
 20
-0.1581319339738664
 30
0.0
 10
44.99189972302031
 20
-0.3163012038324644
 30
0.0
 10
44.91828991960762
 20
-0.4246540092928794
 30
0.0
  0
ARC
  5
3960
330
38ED
100
AcDbEntity
  8
0
100
AcDbCircle
 10
42.49999999999999
 20
-0.2299999999999986
 30
0.0
 40
2.5
100
AcDbArc
 50
5.269701326164559
 51
174.7302986738354
  0
SPLINE
  5
3961
330
38ED
100
AcDbEntity
  8
0
100
AcDbSpline
210
0.0
220
0.0
230
1.0
 70
     8
 71
     3
 72
     8
 73
     4
 74
     0
 42
0.000000001
 43
0.0000000001
 40
-1.0
 40
-1.0
 40
-1.0
 40
-1.0
 40
0.0
 40
0.0
 40
0.0
 40
0.0
 10
-4.918289920131929
 20
-0.4246540092928794
 30
0.0
 10
-4.991899723307459
 20
-0.316301203816359
 30
0.0
 10
-5.016094836485387
 20
-0.1581319339514803
 30
0.0
 10
-4.989433513812974
 20
-0.0003899405809506
 30
0.0
  0
ELLIPSE
  5
3962
330
38ED
100
AcDbEntity
  8
0
100
AcDbEllipse
 10
2.49999999999999
 20
0.0236058830621927
 30
0.0
 11
2.499999999999999
 21
-0.0000000000000003
 31
0.0
210
0.0
220
0.0
230
1.0
 40
0.7071067811865479
 41
4.712388980384682
 42
6.026811980988168
  0
LINE
  5
3963
330
38ED
100
AcDbEntity
  8
0
100
AcDbLine
 10
2.499999999999973
 20
-1.744161069904188
 30
0.0
 11
-2.500000000000017
 21
-1.744161069904188
 31
0.0
  0
ELLIPSE
  5
3964
330
38ED
100
AcDbEntity
  8
0
100
AcDbEllipse
 10
-2.500000000000017
 20
0.0236058830621924
 30
0.0
 11
-2.5
 21
0.0000000000000004
 31
0.0
210
0.0
220
0.0
230
1.0
 40
0.7071067811865479
 41
0.2563733261914187
 42
1.570796326794896
  0
SPLINE
  5
3965
330
38ED
100
AcDbEntity
  8
0
100
AcDbSpline
210
0.0
220
0.0
230
1.0
 70
     8
 71
     3
 72
     8
 73
     4
 74
     0
 42
0.000000001
 43
0.0000000001
 40
-1.0
 40
-1.0
 40
-1.0
 40
-1.0
 40
0.0
 40
0.0
 40
0.0
 40
0.0
 10
4.989433513812953
 20
-0.0003899405809504
 30
0.0
 10
5.016094836485431
 20
-0.1581319339514943
 30
0.0
 10
4.991899723307119
 20
-0.3163012038163515
 30
0.0
 10
4.918289920131917
 20
-0.4246540092928796
 30
0.0
  0
ARC
  5
3966
330
38ED
100
AcDbEntity
  8
0
100
AcDbCircle
 10
2.499999999999991
 20
-0.2300000019999987
 30
0.0
 40
2.5
100
AcDbArc
 50
5.269701372195739
 51
90.00000000000042
  0
LINE
  5
3967
330
38ED
100
AcDbEntity
  8
0
100
AcDbLine
 10
-2.500000000000017
 20
2.269999998000001
 30
0.0
 11
2.499999999999973
 21
2.269999998000001
 31
0.0
  0
ARC
  5
3968
330
38ED
100
AcDbEntity
  8
0
100
AcDbCircle
 10
-2.500000000000017
 20
-0.2300000019999987
 30
0.0
 40
2.5
100
AcDbArc
 50
90.0
 51
174.7302986278043
  0
ELLIPSE
  5
3969
330
38ED
100
AcDbEntity
  8
0
100
AcDbEllipse
 10
-59.39999999999999
 20
-54.16476937947047
 30
0.0
 11
-2.100000000000031
 21
-0.000000000000009
 31
0.0
210
0.0
220
0.0
230
1.0
 40
0.7071067811864883
 41
0.0
 42
1.570796326794889
  0
ELLIPSE
  5
396A
330
38ED
100
AcDbEntity
  8
0
100
AcDbEllipse
 10
-59.39999999999999
 20
-54.16476937947051
 30
0.0
 11
-0.5999999999999586
 21
0.0
 31
0.0
210
0.0
220
0.0
230
1.0
 40
0.707106781186572
 41
0.0000000000000003
 42
1.570796326794896
  0
LINE
  5
396B
330
38ED
100
AcDbEntity
  8
0
100
AcDbLine
 10
59.39999999999998
 20
140.67
 30
0.0
 11
60.0
 21
140.67
 31
0.0
  0
LINE
  5
396C
330
38ED
100
AcDbEntity
  8
0
100
AcDbLine
 10
59.39999999999998
 20
80.26999999999999
 30
0.0
 11
60.0
 21
80.26999999999999
 31
0.0
  0
LINE
  5
396D
330
38ED
100
AcDbEntity
  8
0
100
AcDbLine
 10
-60.00000000000001
 20
140.67
 30
0.0
 11
-59.40000000000002
 21
140.67
 31
0.0
  0
LINE
  5
396E
330
38ED
100
AcDbEntity
  8
0
100
AcDbLine
 10
-60.00000000000001
 20
80.26999999999999
 30
0.0
 11
-59.40000000000002
 21
80.26999999999999
 31
0.0
  0
ENDBLK
  5
38EF
330
38ED
100
AcDbEntity
  8
0
100
AcDbBlockEnd
  0
BLOCK
  5
3970
330
396F
100
AcDbEntity
  8
0
100
AcDbBlockBegin
  2
SPR120_140-Left
 70
     0
 10
0.0
 20
0.0
 30
0.0
  3
SPR120_140-Left
  1

  0
LINE
  5
3972
330
396F
100
AcDbEntity
  8
0
100
AcDbLine
 10
0.0
 20
-0.0003899405809516
 30
0.0
 11
0.0
 21
1.270000000000001
 31
0.0
  0
LINE
  5
3973
330
396F
100
AcDbEntity
  8
0
100
AcDbLine
 10
62.91118318265867
 20
-2.263131642256721
 30
0.0
 11
4.362741700911314
 21
-2.263131641492163
 31
0.0
  0
LINE
  5
3974
330
396F
100
AcDbEntity
  8
0
100
AcDbLine
 10
1.675735931288096
 20
-0.4246540092928799
 30
0.0
 11
2.288136209298632
 21
-1.037054287303415
 31
0.0
  0
LINE
  5
3975
330
396F
100
AcDbEntity
  8
0
100
AcDbLine
 10
2.288136209298638
 20
-1.037054287303414
 30
0.0
 11
2.717240184541184
 21
-1.466158262545961
 31
0.0
  0
SPLINE
  5
3976
330
396F
100
AcDbEntity
  8
0
100
AcDbSpline
210
0.0
220
0.0
230
1.0
 70
     8
 71
     3
 72
     8
 73
     4
 74
     0
 42
0.000000001
 43
0.0000000001
 40
-1.0
 40
-1.0
 40
-1.0
 40
-1.0
 40
0.0
 40
0.0
 40
0.0
 40
0.0
 10
1.500000000000024
 20
-0.0003899405809507
 30
0.0
 10
1.500000000000024
 20
-0.1594792109354459
 30
0.0
 10
1.572566966670514
 20
-0.3214850446752977
 30
0.0
 10
1.675735931288096
 20
-0.4246540092928796
 30
0.0
  0
SPLINE
  5
3977
330
396F
100
AcDbEntity
  8
0
100
AcDbSpline
210
0.0
220
0.0
230
1.0
 70
     8
 71
     3
 72
     8
 73
     4
 74
     0
 42
0.000000001
 43
0.0000000001
 40
0.0
 40
0.0
 40
0.0
 40
0.0
 40
1.0
 40
1.0
 40
1.0
 40
1.0
 10
0.6150757595082745
 20
-1.485314181072701
 30
0.0
 10
0.2539843833467383
 20
-1.124222804911164
 30
0.0
 10
0.0000000000000245
 20
-0.5572023868216841
 30
0.0
 10
0.0000000000000243
 20
-0.000389940580951
 30
0.0
  0
SPLINE
  5
3978
330
396F
100
AcDbEntity
  8
0
100
AcDbSpline
210
0.0
220
0.0
230
1.0
 70
     8
 71
     3
 72
     8
 73
     4
 74
     0
 42
0.000000001
 43
0.0000000001
 40
-1.0
 40
-1.0
 40
-1.0
 40
-1.0
 40
0.0
 40
0.0
 40
0.0
 40
0.0
 10
2.717240184541171
 20
-1.466158262545953
 30
0.0
 10
3.124319333760708
 20
-1.873237411765488
 30
0.0
 10
3.733518404783543
 20
-2.078196639180335
 30
0.0
 10
4.362741700911278
 20
-2.263131641492212
 30
0.0
  0
LINE
  5
3979
330
396F
100
AcDbEntity
  8
0
100
AcDbLine
 10
2.717240184541184
 20
-1.466158262545961
 30
0.0
 11
2.364040347338189
 21
-1.819358099748955
 31
0.0
  0
LINE
  5
397A
330
396F
100
AcDbEntity
  8
0
100
AcDbLine
 10
2.364040347338189
 20
-1.819358099748955
 30
0.0
 11
1.656580012761362
 21
-2.526818434325782
 31
0.0
  0
SPLINE
  5
397B
330
396F
100
AcDbEntity
  8
0
100
AcDbSpline
210
0.0
220
0.0
230
1.0
 70
     8
 71
     3
 72
     8
 73
     4
 74
     0
 42
0.000000001
 43
0.0000000001
 40
0.0
 40
0.0
 40
0.0
 40
0.0
 40
1.0
 40
1.0
 40
1.0
 40
1.0
 10
4.362741700911322
 20
-2.26313164149217
 30
0.0
 10
3.178158037513734
 20
-2.633557006450144
 30
0.0
 10
2.063659161980887
 20
-2.933897583545308
 30
0.0
 10
1.65658001276135
 20
-2.526818434325774
 30
0.0
  0
LINE
  5
397C
330
396F
100
AcDbEntity
  8
0
100
AcDbLine
 10
1.656580012761362
 20
-2.526818434325782
 30
0.0
 11
1.227476037518815
 21
-2.097714459083237
 31
0.0
  0
LINE
  5
397D
330
396F
100
AcDbEntity
  8
0
100
AcDbLine
 10
2.288136209298638
 20
-1.037054287303414
 30
0.0
 11
1.227476037518815
 21
-2.097714459083237
 31
0.0
  0
LINE
  5
397E
330
396F
100
AcDbEntity
  8
0
100
AcDbLine
 10
1.227476037518822
 20
-2.097714459083224
 30
0.0
 11
0.6150757595082875
 21
-1.485314181072688
 31
0.0
  0
LINE
  5
397F
330
396F
100
AcDbEntity
  8
0
100
AcDbLine
 10
1.675735931288096
 20
-0.4246540092928796
 30
0.0
 11
1.32253609280357
 21
-0.7778538477774056
 31
0.0
  0
LINE
  5
3980
330
396F
100
AcDbEntity
  8
0
100
AcDbLine
 10
1.32253609280357
 20
-0.7778538477774056
 30
0.0
 11
0.6150757595082746
 21
-1.485314181072701
 31
0.0
  0
LINE
  5
3981
330
396F
100
AcDbEntity
  8
0
100
AcDbLine
 10
1.500000000000028
 20
-0.0003899405809504
 30
0.0
 11
1.00049999543961
 21
-0.0003899405809504
 31
0.0
  0
LINE
  5
3982
330
396F
100
AcDbEntity
  8
0
100
AcDbLine
 10
1.00049999543961
 20
-0.0003899405809504
 30
0.0
 11
0.0
 21
-0.0003899405809504
 31
0.0
  0
LINE
  5
3983
330
396F
100
AcDbEntity
  8
0
100
AcDbLine
 10
1.500000000000025
 20
1.270000000000001
 30
0.0
 11
1.500000000000024
 21
-0.000389940580951
 31
0.0
  0
LINE
  5
3984
330
396F
100
AcDbEntity
  8
0
100
AcDbLine
 10
0.0
 20
6.269999999999996
 30
0.0
 11
0.0
 21
1.269999999999996
 31
0.0
  0
LINE
  5
3985
330
396F
100
AcDbEntity
  8
0
100
AcDbLine
 10
0.0
 20
77.26999999999998
 30
0.0
 11
0.0
 21
72.26999999999998
 31
0.0
  0
LINE
  5
3986
330
396F
100
AcDbEntity
  8
0
100
AcDbLine
 10
1.500000000000036
 20
1.269999999999996
 30
0.0
 11
1.500000000000038
 21
6.269999999999996
 31
0.0
  0
LINE
  5
3987
330
396F
100
AcDbEntity
  8
0
100
AcDbLine
 10
1.500000000000038
 20
6.269999999999996
 30
0.0
 11
0.0
 21
6.269999999999996
 31
0.0
  0
LINE
  5
3988
330
396F
100
AcDbEntity
  8
0
100
AcDbLine
 10
0.0
 20
1.269999999999996
 30
0.0
 11
1.500000000000036
 21
1.269999999999996
 31
0.0
  0
LINE
  5
3989
330
396F
100
AcDbEntity
  8
0
100
AcDbLine
 10
0.0
 20
72.26999999999998
 30
0.0
 11
1.500000000000038
 21
72.26999999999998
 31
0.0
  0
LINE
  5
398A
330
396F
100
AcDbEntity
  8
0
100
AcDbLine
 10
1.500000000000038
 20
72.26999999999998
 30
0.0
 11
1.500000000000037
 21
77.26999999999998
 31
0.0
  0
LINE
  5
398B
330
396F
100
AcDbEntity
  8
0
100
AcDbLine
 10
1.500000000000037
 20
77.26999999999998
 30
0.0
 11
0.0
 21
77.26999999999998
 31
0.0
  0
LINE
  5
398C
330
396F
100
AcDbEntity
  8
0
100
AcDbLine
 10
0.0
 20
6.269999999999996
 30
0.0
 11
0.0
 21
72.26999999999998
 31
0.0
  0
LINE
  5
398D
330
396F
100
AcDbEntity
  8
0
100
AcDbLine
 10
0.0
 20
77.26999999999998
 30
0.0
 11
0.0
 21
80.26999999999999
 31
0.0
  0
LINE
  5
398E
330
396F
100
AcDbEntity
  8
0
100
AcDbLine
 10
1.500000000000038
 20
6.269999999999996
 30
0.0
 11
1.500000000000038
 21
72.26999999999998
 31
0.0
  0
LINE
  5
398F
330
396F
100
AcDbEntity
  8
0
100
AcDbLine
 10
1.500000000000025
 20
77.26999999999998
 30
0.0
 11
1.500000000000025
 21
80.26999999999999
 31
0.0
  0
LINE
  5
3990
330
396F
100
AcDbEntity
  8
0
100
AcDbLine
 10
0.0
 20
80.26999999999999
 30
0.0
 11
0.0
 21
140.67
 31
0.0
  0
LINE
  5
3991
330
396F
100
AcDbEntity
  8
0
100
AcDbLine
 10
2.100000000000013
 20
140.67
 30
0.0
 11
0.0
 21
140.67
 31
0.0
  0
LINE
  5
3992
330
396F
100
AcDbEntity
  8
0
100
AcDbLine
 10
0.0
 20
80.26999999999999
 30
0.0
 11
2.100000000000004
 21
80.26999999999999
 31
0.0
  0
LINE
  5
3993
330
396F
100
AcDbEntity
  8
0
100
AcDbLine
 10
43.50000000000002
 20
85.27000000000001
 30
0.0
 11
38.50000000000001
 21
80.26999999999999
 31
0.0
  0
LINE
  5
3994
330
396F
100
AcDbEntity
  8
0
100
AcDbLine
 10
38.50000000000002
 20
140.67
 30
0.0
 11
43.50000000000002
 21
135.67
 31
0.0
  0
LINE
  5
3995
330
396F
100
AcDbEntity
  8
0
100
AcDbLine
 10
82.00306627386
 20
-21.35501473263464
 30
0.0
 11
82.00306627386
 21
-28.42608254450009
 31
0.0
  0
CIRCLE
  5
3996
330
396F
100
AcDbEntity
  8
0
100
AcDbCircle
 10
35.50000000000002
 20
127.77
 30
0.0
 40
2.5
  0
CIRCLE
  5
3997
330
396F
100
AcDbEntity
  8
0
100
AcDbCircle
 10
35.50000000000002
 20
107.77
 30
0.0
 40
2.5
  0
CIRCLE
  5
3998
330
396F
100
AcDbEntity
  8
0
100
AcDbCircle
 10
35.50000000000002
 20
87.76999999999999
 30
0.0
 40
2.5
  0
LINE
  5
3999
330
396F
100
AcDbEntity
  8
0
100
AcDbLine
 10
43.50000000000002
 20
135.67
 30
0.0
 11
43.50000000000002
 21
85.27000000000001
 31
0.0
  0
LINE
  5
399A
330
396F
100
AcDbEntity
  8
0
100
AcDbLine
 10
2.100000000000013
 20
140.67
 30
0.0
 11
38.50000000000002
 21
140.67
 31
0.0
  0
LINE
  5
399B
330
396F
100
AcDbEntity
  8
0
100
AcDbLine
 10
38.50000000000001
 20
80.26999999999999
 30
0.0
 11
2.100000000000004
 21
80.26999999999999
 31
0.0
  0
LINE
  5
399C
330
396F
100
AcDbEntity
  8
0
100
AcDbLine
 10
82.00306627386
 20
-28.42608254450009
 30
0.0
 11
56.26437943888955
 21
-54.16476937947052
 31
0.0
  0
LINE
  5
399D
330
396F
100
AcDbEntity
  8
0
100
AcDbLine
 10
62.91118318265867
 20
-2.263131642256721
 30
0.0
 11
82.00306627386
 21
-21.35501473263464
 31
0.0
  0
CIRCLE
  5
399E
330
396F
100
AcDbEntity
  8
0
100
AcDbCircle
 10
74.57844507130477
 20
-25.24410202925711
 30
0.0
 40
2.5
  0
ARC
  5
399F
330
396F
100
AcDbEntity
  8
0
100
AcDbCircle
 10
59.31559010709463
 20
-13.990452698916
 30
0.0
 40
0.8000000000000012
100
AcDbArc
 50
315.000000001042
 51
75.00000000104186
  0
LINE
  5
39A0
330
396F
100
AcDbEntity
  8
0
100
AcDbLine
 10
59.88127553205417
 20
-14.55613812385494
 30
0.0
 11
56.81941335363089
 21
-17.61800030238964
 31
0.0
  0
ARC
  5
39A1
330
396F
100
AcDbEntity
  8
0
100
AcDbCircle
 10
56.25372792867135
 20
-17.0523148774507
 30
0.0
 40
0.8
100
AcDbArc
 50
195.0000000010428
 51
315.0000000010428
  0
LINE
  5
39A2
330
396F
100
AcDbEntity
  8
0
100
AcDbLine
 10
55.48098726764388
 20
-17.25937011354677
 30
0.0
 11
54.36026792735773
 21
-13.07678859487811
 31
0.0
  0
ARC
  5
39A3
330
396F
100
AcDbEntity
  8
0
100
AcDbCircle
 10
55.13300858838519
 20
-12.86973335878203
 30
0.0
 40
0.8000000000000014
100
AcDbArc
 50
75.00000000104188
 51
195.0000000010427
  0
LINE
  5
39A4
330
396F
100
AcDbEntity
  8
0
100
AcDbLine
 10
55.34006382445316
 20
-12.096992697747
 30
0.0
 11
59.5226453431626
 21
-13.21771203788096
 31
0.0
  0
LINE
  5
39A5
330
396F
100
AcDbEntity
  8
0
100
AcDbLine
 10
55.28251771018368
 20
-12.08382813389861
 30
0.0
 11
54.34710336350719
 21
-13.01924248060914
 31
0.0
  0
LINE
  5
39A6
330
396F
100
AcDbEntity
  8
0
100
AcDbLine
 10
54.77945519839779
 20
-55.64969361996226
 30
0.0
 11
1.656580012761361
 21
-2.526818434325779
 31
0.0
  0
LINE
  5
39A7
330
396F
100
AcDbEntity
  8
0
100
AcDbLine
 10
56.26437943888952
 20
-54.1647693794705
 30
0.0
 11
54.77945519839764
 21
-55.64969361996212
 31
0.0
  0
ENDBLK
  5
3971
330
396F
100
AcDbEntity
  8
0
100
AcDbBlockEnd
  0
BLOCK
  5
39A9
330
39A8
100
AcDbEntity
  8
0
100
AcDbBlockBegin
  2
SPR120_140-Right
 70
     0
 10
0.0
 20
0.0
 30
0.0
  3
SPR120_140-Right
  1

  0
LINE
  5
39AB
330
39A8
100
AcDbEntity
  8
0
100
AcDbLine
 10
-1.499999999999979
 20
6.269999999999996
 30
0.0
 11
-1.499999999999981
 21
1.269999999999996
 31
0.0
  0
LINE
  5
39AC
330
39A8
100
AcDbEntity
  8
0
100
AcDbLine
 10
-1.499999999999981
 20
1.269999999999996
 30
0.0
 11
0.0
 21
1.270000000000004
 31
0.0
  0
LINE
  5
39AD
330
39A8
100
AcDbEntity
  8
0
100
AcDbLine
 10
0.0
 20
1.270000000000004
 30
0.0
 11
0.0
 21
6.269999999999996
 31
0.0
  0
LINE
  5
39AE
330
39A8
100
AcDbEntity
  8
0
100
AcDbLine
 10
0.0
 20
6.269999999999996
 30
0.0
 11
-1.499999999999979
 21
6.269999999999996
 31
0.0
  0
LINE
  5
39AF
330
39A8
100
AcDbEntity
  8
0
100
AcDbLine
 10
-1.499999999999979
 20
72.27000000000001
 30
0.0
 11
0.0
 21
72.27000000000001
 31
0.0
  0
LINE
  5
39B0
330
39A8
100
AcDbEntity
  8
0
100
AcDbLine
 10
0.0
 20
72.27000000000001
 30
0.0
 11
0.0
 21
77.27000000000001
 31
0.0
  0
LINE
  5
39B1
330
39A8
100
AcDbEntity
  8
0
100
AcDbLine
 10
-1.499999999999981
 20
77.27000000000001
 30
0.0
 11
-1.499999999999979
 21
72.27000000000001
 31
0.0
  0
LINE
  5
39B2
330
39A8
100
AcDbEntity
  8
0
100
AcDbLine
 10
0.0
 20
77.27000000000001
 30
0.0
 11
-1.499999999999981
 21
77.27000000000001
 31
0.0
  0
LINE
  5
39B3
330
39A8
100
AcDbEntity
  8
0
100
AcDbLine
 10
0.0
 20
72.27000000000001
 30
0.0
 11
0.0
 21
6.269999999999997
 31
0.0
  0
LINE
  5
39B4
330
39A8
100
AcDbEntity
  8
0
100
AcDbLine
 10
-1.499999999999979
 20
72.27000000000001
 30
0.0
 11
-1.499999999999979
 21
6.269999999999997
 31
0.0
  0
LINE
  5
39B5
330
39A8
100
AcDbEntity
  8
0
100
AcDbLine
 10
0.0
 20
80.27000000000001
 30
0.0
 11
0.0
 21
77.27000000000001
 31
0.0
  0
LINE
  5
39B6
330
39A8
100
AcDbEntity
  8
0
100
AcDbLine
 10
-1.499999999999992
 20
80.27000000000001
 30
0.0
 11
-1.499999999999992
 21
77.27000000000001
 31
0.0
  0
LINE
  5
39B7
330
39A8
100
AcDbEntity
  8
0
100
AcDbLine
 10
0.0
 20
1.270000000000001
 30
0.0
 11
0.0
 21
-0.000389940580951
 31
0.0
  0
LINE
  5
39B8
330
39A8
100
AcDbEntity
  8
0
100
AcDbLine
 10
-4.362741700911207
 20
-2.263131641492261
 30
0.0
 11
-62.91118318265862
 21
-2.263131642256726
 31
0.0
  0
LINE
  5
39B9
330
39A8
100
AcDbEntity
  8
0
100
AcDbLine
 10
-2.717240184541152
 20
-1.466158262545965
 30
0.0
 11
-2.288136209298606
 21
-1.03705428730342
 31
0.0
  0
LINE
  5
39BA
330
39A8
100
AcDbEntity
  8
0
100
AcDbLine
 10
-2.288136209298606
 20
-1.037054287303415
 30
0.0
 11
-1.675735931288063
 21
-0.4246540092928724
 31
0.0
  0
SPLINE
  5
39BB
330
39A8
100
AcDbEntity
  8
0
100
AcDbSpline
210
0.0
220
0.0
230
1.0
 70
     8
 71
     3
 72
     8
 73
     4
 74
     0
 42
0.000000001
 43
0.0000000001
 40
-1.0
 40
-1.0
 40
-1.0
 40
-1.0
 40
0.0
 40
0.0
 40
0.0
 40
0.0
 10
-1.675735931288071
 20
-0.4246540092928796
 30
0.0
 10
-1.57256696667049
 20
-0.3214850446752982
 30
0.0
 10
-1.499999999999999
 20
-0.1594792109354491
 30
0.0
 10
-1.499999999999999
 20
-0.0003899405809508
 30
0.0
  0
SPLINE
  5
39BC
330
39A8
100
AcDbEntity
  8
0
100
AcDbSpline
210
0.0
220
0.0
230
1.0
 70
     8
 71
     3
 72
     8
 73
     4
 74
     0
 42
0.000000001
 43
0.0000000001
 40
0.0
 40
0.0
 40
0.0
 40
0.0
 40
1.0
 40
1.0
 40
1.0
 40
1.0
 10
0.0000000000000005
 20
-0.0003899405809515
 30
0.0
 10
0.0000000000000002
 20
-0.5572023868216953
 30
0.0
 10
-0.2539843833467154
 20
-1.124222804911166
 30
0.0
 10
-0.6150757595082497
 20
-1.485314181072701
 30
0.0
  0
LINE
  5
39BD
330
39A8
100
AcDbEntity
  8
0
100
AcDbLine
 10
-2.717240184541152
 20
-1.466158262545965
 30
0.0
 11
-2.364040347340221
 21
-1.819358099746897
 31
0.0
  0
SPLINE
  5
39BE
330
39A8
100
AcDbEntity
  8
0
100
AcDbSpline
210
0.0
220
0.0
230
1.0
 70
     8
 71
     3
 72
     8
 73
     4
 74
     0
 42
0.000000001
 43
0.0000000001
 40
-0.9999999999999944
 40
-0.9999999999999944
 40
-0.9999999999999944
 40
-0.9999999999999944
 40
0.0
 40
0.0
 40
0.0
 40
0.0
 10
-4.362741700911252
 20
-2.263131641492226
 30
0.0
 10
-3.733518404783744
 20
-2.078196639180569
 30
0.0
 10
-3.124319333759684
 20
-1.873237411764497
 30
0.0
 10
-2.717240184541171
 20
-1.466158262545984
 30
0.0
  0
SPLINE
  5
39BF
330
39A8
100
AcDbEntity
  8
0
100
AcDbSpline
210
0.0
220
0.0
230
1.0
 70
     8
 71
     3
 72
     8
 73
     4
 74
     0
 42
0.000000001
 43
0.0000000001
 40
0.0
 40
0.0
 40
0.0
 40
0.0
 40
0.9999999999999944
 40
0.9999999999999944
 40
0.9999999999999944
 40
0.9999999999999944
 10
-1.65658001276135
 20
-2.526818434325805
 30
0.0
 10
-2.063659161979862
 20
-2.933897583544318
 30
0.0
 10
-3.178158037513896
 20
-2.633557006450416
 30
0.0
 10
-4.362741700911197
 20
-2.263131641492281
 30
0.0
  0
LINE
  5
39C0
330
39A8
100
AcDbEntity
  8
0
100
AcDbLine
 10
-2.364040347340221
 20
-1.819358099746897
 30
0.0
 11
-1.65658001276133
 21
-2.526818434325787
 31
0.0
  0
LINE
  5
39C1
330
39A8
100
AcDbEntity
  8
0
100
AcDbLine
 10
-0.6150757595082551
 20
-1.485314181072678
 30
0.0
 11
-1.227476037518799
 21
-2.097714459083222
 31
0.0
  0
LINE
  5
39C2
330
39A8
100
AcDbEntity
  8
0
100
AcDbLine
 10
-0.6150757595082494
 20
-1.4853141810727
 30
0.0
 11
-1.322536092819553
 21
-0.7778538477613967
 31
0.0
  0
LINE
  5
39C3
330
39A8
100
AcDbEntity
  8
0
100
AcDbLine
 10
-1.322536092819553
 20
-0.7778538477613967
 30
0.0
 11
-1.675735931288071
 21
-0.4246540092928793
 31
0.0
  0
LINE
  5
39C4
330
39A8
100
AcDbEntity
  8
0
100
AcDbLine
 10
-2.288136209298606
 20
-1.03705428730342
 30
0.0
 11
-1.227476037518784
 21
-2.097714459083241
 31
0.0
  0
LINE
  5
39C5
330
39A8
100
AcDbEntity
  8
0
100
AcDbLine
 10
-1.227476037518784
 20
-2.097714459083241
 30
0.0
 11
-1.65658001276133
 21
-2.526818434325787
 31
0.0
  0
LINE
  5
39C6
330
39A8
100
AcDbEntity
  8
0
100
AcDbLine
 10
-1.499999999999996
 20
-0.0003899405809504
 30
0.0
 11
-1.00049999548138
 21
-0.0003899405809504
 31
0.0
  0
LINE
  5
39C7
330
39A8
100
AcDbEntity
  8
0
100
AcDbLine
 10
-1.00049999548138
 20
-0.0003899405809504
 30
0.0
 11
0.0
 21
-0.0003899405809504
 31
0.0
  0
LINE
  5
39C8
330
39A8
100
AcDbEntity
  8
0
100
AcDbLine
 10
-1.5
 20
-0.0003899405809516
 30
0.0
 11
-1.499999999999999
 21
1.270000000000001
 31
0.0
  0
LINE
  5
39C9
330
39A8
100
AcDbEntity
  8
0
100
AcDbLine
 10
0.0
 20
80.26999999999999
 30
0.0
 11
0.0
 21
140.67
 31
0.0
  0
LINE
  5
39CA
330
39A8
100
AcDbEntity
  8
0
100
AcDbLine
 10
0.0
 20
140.67
 30
0.0
 11
-2.099999999999959
 21
140.67
 31
0.0
  0
LINE
  5
39CB
330
39A8
100
AcDbEntity
  8
0
100
AcDbLine
 10
-2.099999999999976
 20
80.26999999999999
 30
0.0
 11
0.0
 21
80.26999999999999
 31
0.0
  0
LINE
  5
39CC
330
39A8
100
AcDbEntity
  8
0
100
AcDbLine
 10
-38.49999999999997
 20
80.26999999999999
 30
0.0
 11
-43.49999999999997
 21
85.27000000000001
 31
0.0
  0
LINE
  5
39CD
330
39A8
100
AcDbEntity
  8
0
100
AcDbLine
 10
-43.49999999999997
 20
135.67
 30
0.0
 11
-38.49999999999996
 21
140.67
 31
0.0
  0
LINE
  5
39CE
330
39A8
100
AcDbEntity
  8
0
100
AcDbLine
 10
-82.00306627385996
 20
-28.42608254450008
 30
0.0
 11
-82.00306627385996
 21
-21.35501473263463
 31
0.0
  0
LINE
  5
39CF
330
39A8
100
AcDbEntity
  8
0
100
AcDbLine
 10
-43.49999999999997
 20
85.27000000000001
 30
0.0
 11
-43.49999999999997
 21
135.67
 31
0.0
  0
LINE
  5
39D0
330
39A8
100
AcDbEntity
  8
0
100
AcDbLine
 10
-2.099999999999976
 20
80.26999999999999
 30
0.0
 11
-38.49999999999997
 21
80.26999999999999
 31
0.0
  0
LINE
  5
39D1
330
39A8
100
AcDbEntity
  8
0
100
AcDbLine
 10
-38.49999999999996
 20
140.67
 30
0.0
 11
-2.099999999999959
 21
140.67
 31
0.0
  0
CIRCLE
  5
39D2
330
39A8
100
AcDbEntity
  8
0
100
AcDbCircle
 10
-35.49999999999999
 20
132.77
 30
0.0
 40
2.5
  0
CIRCLE
  5
39D3
330
39A8
100
AcDbEntity
  8
0
100
AcDbCircle
 10
-35.49999999999999
 20
112.77
 30
0.0
 40
2.5
  0
CIRCLE
  5
39D4
330
39A8
100
AcDbEntity
  8
0
100
AcDbCircle
 10
-35.49999999999999
 20
92.76999999999999
 30
0.0
 40
2.5
  0
LINE
  5
39D5
330
39A8
100
AcDbEntity
  8
0
100
AcDbLine
 10
-62.91118318265862
 20
-2.263131642256726
 30
0.0
 11
-82.00306627385996
 21
-21.35501473263463
 31
0.0
  0
LINE
  5
39D6
330
39A8
100
AcDbEntity
  8
0
100
AcDbLine
 10
-1.65658001276133
 20
-2.526818434325787
 30
0.0
 11
-54.77945519839775
 21
-55.64969361996226
 31
0.0
  0
LINE
  5
39D7
330
39A8
100
AcDbEntity
  8
0
100
AcDbLine
 10
-54.77945519839774
 20
-55.64969361996226
 30
0.0
 11
-56.26437943888953
 21
-54.16476937947052
 31
0.0
  0
LINE
  5
39D8
330
39A8
100
AcDbEntity
  8
0
100
AcDbLine
 10
-56.26437943888952
 20
-54.16476937947052
 30
0.0
 11
-82.00306627385996
 21
-28.42608254450008
 31
0.0
  0
CIRCLE
  5
39D9
330
39A8
100
AcDbEntity
  8
0
100
AcDbCircle
 10
-71.04291116530766
 20
-21.70856812338872
 30
0.0
 40
2.5
  0
ARC
  5
39DA
330
39A8
100
AcDbEntity
  8
0
100
AcDbCircle
 10
-51.59747468238808
 20
-9.33419945291363
 30
0.0
 40
0.8000000000000015
100
AcDbArc
 50
344.9999999989574
 51
355.4526675359234
  0
LINE
  5
39DB
330
39A8
100
AcDbEntity
  8
0
100
AcDbLine
 10
-50.82473402136061
 20
-9.541254689009706
 30
0.0
 11
-51.94545336164678
 21
-13.72383620767836
 31
0.0
  0
ARC
  5
39DC
330
39A8
100
AcDbEntity
  8
0
100
AcDbCircle
 10
-52.71819402267425
 20
-13.51678097158229
 30
0.0
 40
0.8
100
AcDbArc
 50
224.9999999989572
 51
344.9999999989576
  0
LINE
  5
39DD
330
39A8
100
AcDbEntity
  8
0
100
AcDbLine
 10
-53.28387944763378
 20
-14.08246639652124
 30
0.0
 11
-56.34574162605706
 21
-11.02060421798654
 31
0.0
  0
ARC
  5
39DE
330
39A8
100
AcDbEntity
  8
0
100
AcDbCircle
 10
-55.78005620109752
 20
-10.45491879304759
 30
0.0
 40
0.8000000000000014
100
AcDbArc
 50
104.9999999989575
 51
224.9999999989572
  0
LINE
  5
39DF
330
39A8
100
AcDbEntity
  8
0
100
AcDbLine
 10
-55.98711143716549
 20
-9.682178132012559
 30
0.0
 11
-51.80452991845605
 21
-8.561458791878598
 31
0.0
  0
ARC
  5
39E0
330
39A8
100
AcDbEntity
  8
0
100
AcDbCircle
 10
-51.59747468238808
 20
-9.33419945291363
 30
0.0
 40
0.8000000000000014
100
AcDbArc
 50
49.59733246198601
 51
104.9999999989581
  0
LINE
  5
39E1
330
39A8
100
AcDbEntity
  8
0
100
AcDbLine
 10
-51.07895039795263
 20
-8.724992947325674
 30
0.0
 11
-50.79999294004347
 21
-9.397625556585486
 31
0.0
  0
ARC
  5
39E2
330
39A8
100
AcDbEntity
  8
0
100
AcDbCircle
 10
-55.13300858838519
 20
-12.86973335878203
 30
0.0
 40
0.8000000000000015
100
AcDbArc
 50
349.2288663267691
 51
100.7711336711455
  0
ENDBLK
  5
39AA
330
39A8
100
AcDbEntity
  8
0
100
AcDbBlockEnd
  0
BLOCK
  5
39E4
330
39E3
100
AcDbEntity
  8
0
100
AcDbBlockBegin
  2
SPR120_140-Top
 70
     0
 10
0.0
 20
0.0
 30
0.0
  3
SPR120_140-Top
  1

  0
LINE
  5
39E6
330
39E3
100
AcDbEntity
  8
0
100
AcDbLine
 10
102.5270905609999
 20
-1.49999999999998
 30
0.0
 11
102.5270905609999
 21
0.0
 31
0.0
  0
LINE
  5
39E7
330
39E3
100
AcDbEntity
  8
0
100
AcDbLine
 10
-97.52709056100002
 20
0.0
 30
0.0
 11
-102.527090561
 21
0.0
 31
0.0
  0
LINE
  5
39E8
330
39E3
100
AcDbEntity
  8
0
100
AcDbLine
 10
102.5270905609999
 20
0.0
 30
0.0
 11
97.52709056099995
 21
0.0
 31
0.0
  0
LINE
  5
39E9
330
39E3
100
AcDbEntity
  8
0
100
AcDbLine
 10
-102.527090561
 20
0.0
 30
0.0
 11
-102.527090561
 21
-1.500000000000038
 31
0.0
  0
LINE
  5
39EA
330
39E3
100
AcDbEntity
  8
0
100
AcDbLine
 10
-102.527090561
 20
-1.500000000000038
 30
0.0
 11
-97.52709056100002
 21
-1.500000000000036
 31
0.0
  0
LINE
  5
39EB
330
39E3
100
AcDbEntity
  8
0
100
AcDbLine
 10
-97.52709056100002
 20
-1.500000000000036
 30
0.0
 11
-97.52709056100002
 21
0.0
 31
0.0
  0
LINE
  5
39EC
330
39E3
100
AcDbEntity
  8
0
100
AcDbLine
 10
97.52709056099995
 20
-1.499999999999981
 30
0.0
 11
102.5270905609999
 21
-1.49999999999998
 31
0.0
  0
LINE
  5
39ED
330
39E3
100
AcDbEntity
  8
0
100
AcDbLine
 10
97.52709056099995
 20
0.0
 30
0.0
 11
97.52709056099995
 21
-1.499999999999981
 31
0.0
  0
LINE
  5
39EE
330
39E3
100
AcDbEntity
  8
0
100
AcDbLine
 10
-97.52709056100002
 20
0.0
 30
0.0
 11
-59.40000000000002
 21
0.0
 31
0.0
  0
LINE
  5
39EF
330
39E3
100
AcDbEntity
  8
0
100
AcDbLine
 10
59.39999999999998
 20
0.0
 30
0.0
 11
97.52709056099995
 21
0.0
 31
0.0
  0
LINE
  5
39F0
330
39E3
100
AcDbEntity
  8
0
100
AcDbLine
 10
61.4124611797498
 20
-1.499999999999992
 30
0.0
 11
97.52709056099995
 21
-1.499999999999981
 31
0.0
  0
LINE
  5
39F1
330
39E3
100
AcDbEntity
  8
0
100
AcDbLine
 10
-97.52709056100002
 20
-1.500000000000036
 30
0.0
 11
-61.41246117974983
 21
-1.500000000000026
 31
0.0
  0
LINE
  5
39F2
330
39E3
100
AcDbEntity
  8
0
100
AcDbLine
 10
59.39999999999998
 20
0.0
 30
0.0
 11
-59.40000000000002
 21
0.0
 31
0.0
  0
LINE
  5
39F3
330
39E3
100
AcDbEntity
  8
0
100
AcDbLine
 10
61.50000000000019
 20
-38.49999999999996
 30
0.0
 11
61.49999999999999
 21
-2.099999999999959
 31
0.0
  0
LINE
  5
39F4
330
39E3
100
AcDbEntity
  8
0
100
AcDbLine
 10
-61.50000000000002
 20
-2.100000000000013
 30
0.0
 11
-61.50000000000002
 21
-38.50000000000002
 31
0.0
  0
LINE
  5
39F5
330
39E3
100
AcDbEntity
  8
0
100
AcDbLine
 10
60.0
 20
-2.099999999999977
 30
0.0
 11
60.0000000000002
 21
-38.5
 31
0.0
  0
LINE
  5
39F6
330
39E3
100
AcDbEntity
  8
0
100
AcDbLine
 10
-59.40000000000002
 20
-1.500000000000016
 30
0.0
 11
59.39999999999998
 21
-1.499999999999981
 31
0.0
  0
LINE
  5
39F7
330
39E3
100
AcDbEntity
  8
0
100
AcDbLine
 10
-60.0
 20
-38.50000000000002
 30
0.0
 11
-60.00000000000001
 21
-2.100000000000012
 31
0.0
  0
LINE
  5
39F8
330
39E3
100
AcDbEntity
  8
0
100
AcDbLine
 10
60.00000000000022
 20
-43.49999999999997
 30
0.0
 11
61.50000000000023
 21
-43.49999999999997
 31
0.0
  0
LINE
  5
39F9
330
39E3
100
AcDbEntity
  8
0
100
AcDbLine
 10
61.50000000000023
 20
-43.49999999999997
 30
0.0
 11
61.50000000000019
 21
-38.49999999999996
 31
0.0
  0
LINE
  5
39FA
330
39E3
100
AcDbEntity
  8
0
100
AcDbLine
 10
-61.50000000000002
 20
-38.50000000000002
 30
0.0
 11
-61.50000000000002
 21
-43.50000000000002
 31
0.0
  0
LINE
  5
39FB
330
39E3
100
AcDbEntity
  8
0
100
AcDbLine
 10
-61.50000000000002
 20
-43.50000000000002
 30
0.0
 11
-60.0
 21
-43.50000000000001
 31
0.0
  0
LINE
  5
39FC
330
39E3
100
AcDbEntity
  8
0
100
AcDbLine
 10
61.50000000000019
 20
-38.49999999999996
 30
0.0
 11
60.0000000000002
 21
-38.5
 31
0.0
  0
LINE
  5
39FD
330
39E3
100
AcDbEntity
  8
0
100
AcDbLine
 10
60.0000000000002
 20
-38.5
 30
0.0
 11
60.00000000000022
 21
-43.49999999999997
 31
0.0
  0
LINE
  5
39FE
330
39E3
100
AcDbEntity
  8
0
100
AcDbLine
 10
-60.0
 20
-43.50000000000001
 30
0.0
 11
-60.0
 21
-38.50000000000002
 31
0.0
  0
LINE
  5
39FF
330
39E3
100
AcDbEntity
  8
0
100
AcDbLine
 10
-60.0
 20
-38.50000000000002
 30
0.0
 11
-61.50000000000002
 21
-38.50000000000002
 31
0.0
  0
LINE
  5
3A00
330
39E3
100
AcDbEntity
  8
0
100
AcDbLine
 10
61.49999999999997
 20
-82.00306627385996
 30
0.0
 11
59.99999999999996
 21
-82.00306627385996
 31
0.0
  0
LINE
  5
3A01
330
39E3
100
AcDbEntity
  8
0
100
AcDbLine
 10
-59.99999999999996
 20
-82.00306627386
 30
0.0
 11
-61.49999999999997
 21
-82.00306627386
 31
0.0
  0
LINE
  5
3A02
330
39E3
100
AcDbEntity
  8
0
100
AcDbLine
 10
61.50000000000206
 20
-62.91118318265862
 30
0.0
 11
61.49999999999997
 21
-82.00306627385996
 31
0.0
  0
LINE
  5
3A03
330
39E3
100
AcDbEntity
  8
0
100
AcDbLine
 10
60.0000000000017
 20
-62.91118318265862
 30
0.0
 11
59.99999999999996
 21
-82.00306627385996
 31
0.0
  0
ELLIPSE
  5
3A04
330
39E3
100
AcDbEntity
  8
0
100
AcDbEllipse
 10
59.39999999999997
 20
-56.26437943888951
 30
0.0
 11
0.6000000000000089
 21
-0.0000000000000257
 31
0.0
210
0.0
220
0.0
230
1.0
 40
0.7071067811865475
 41
0.0
 42
1.570796326794897
  0
LINE
  5
3A05
330
39E3
100
AcDbEntity
  8
0
100
AcDbLine
 10
61.50000000000206
 20
-62.91118318265862
 30
0.0
 11
60.0000000000017
 21
-62.91118318265862
 31
0.0
  0
LINE
  5
3A06
330
39E3
100
AcDbEntity
  8
0
100
AcDbLine
 10
61.5
 20
-43.49999999999997
 30
0.0
 11
61.50000000000206
 21
-62.91118318265862
 31
0.0
  0
LINE
  5
3A07
330
39E3
100
AcDbEntity
  8
0
100
AcDbLine
 10
-61.49999999999749
 20
-62.91118318265867
 30
0.0
 11
-61.4999999999975
 21
-43.50000000000002
 31
0.0
  0
ELLIPSE
  5
3A08
330
39E3
100
AcDbEntity
  8
0
100
AcDbEllipse
 10
-56.50000000000002
 20
-1.22747603751881
 30
0.0
 11
-1.5
 21
0.0000000000001091
 31
0.0
210
0.0
220
0.0
230
1.0
 40
0.7071067811865474
 41
1.570796326795026
 42
2.705254581962137
  0
LINE
  5
3A09
330
39E3
100
AcDbEntity
  8
0
100
AcDbLine
 10
-56.50000000000002
 20
-2.288136209298624
 30
0.0
 11
-58.79315533855965
 21
-2.288136209298638
 31
0.0
  0
LINE
  5
3A0A
330
39E3
100
AcDbEntity
  8
0
100
AcDbLine
 10
-58.79315533855965
 20
-2.288136209298638
 30
0.0
 11
-59.40000000000002
 21
-2.717240184541184
 31
0.0
  0
LINE
  5
3A0B
330
39E3
100
AcDbEntity
  8
0
100
AcDbLine
 10
59.39999999999998
 20
-2.717240184541152
 30
0.0
 11
58.79315533855962
 21
-2.288136209298607
 31
0.0
  0
LINE
  5
3A0C
330
39E3
100
AcDbEntity
  8
0
100
AcDbLine
 10
58.79315533855962
 20
-2.288136209298607
 30
0.0
 11
56.49999999999998
 21
-2.288136209298595
 31
0.0
  0
ELLIPSE
  5
3A0D
330
39E3
100
AcDbEntity
  8
0
100
AcDbEllipse
 10
56.49999999999998
 20
-1.227476037518785
 30
0.0
 11
-1.5
 21
-0.0000000000000003
 31
0.0
210
0.0
220
0.0
230
1.0
 40
0.7071067811865474
 41
0.4363380716279047
 42
1.570796326794896
  0
SPLINE
  5
3A0E
330
39E3
100
AcDbEntity
  8
0
100
AcDbSpline
210
0.0
220
0.0
230
1.0
 70
     8
 71
     3
 72
     8
 73
     4
 74
     0
 42
0.000000001
 43
0.0000000001
 40
-1.0
 40
-1.0
 40
-1.0
 40
-1.0
 40
0.0
 40
0.0
 40
0.0
 40
0.0
 10
-55.01767776087199
 20
-1.500000000000024
 30
0.0
 10
-54.97251992073983
 20
-1.500000000000024
 30
0.0
 10
-55.01586474390124
 20
-1.572566966670514
 30
0.0
 10
-55.1405419700205
 20
-1.675735931288095
 30
0.0
  0
SPLINE
  5
3A0F
330
39E3
100
AcDbEntity
  8
0
100
AcDbSpline
210
0.0
220
0.0
230
1.0
 70
     8
 71
     3
 72
     8
 73
     4
 74
     0
 42
0.000000001
 43
0.0000000001
 40
-1.0
 40
-1.0
 40
-1.0
 40
-1.0
 40
0.0
 40
0.0
 40
0.0
 40
0.0
 10
55.14054197002041
 20
-1.675735931288071
 30
0.0
 10
55.01586474390372
 20
-1.57256696667049
 30
0.0
 10
54.97251992074175
 20
-1.5
 30
0.0
 10
55.01767776087192
 20
-1.5
 30
0.0
  0
LINE
  5
3A10
330
39E3
100
AcDbEntity
  8
0
100
AcDbLine
 10
-59.99999999999774
 20
-62.91118318265866
 30
0.0
 11
-61.49999999999749
 21
-62.91118318265867
 31
0.0
  0
LINE
  5
3A11
330
39E3
100
AcDbEntity
  8
0
100
AcDbLine
 10
-59.99999999999997
 20
-43.50000000000001
 30
0.0
 11
-59.99999999999774
 21
-62.91118318265866
 31
0.0
  0
SPLINE
  5
3A12
330
39E3
100
AcDbEntity
  8
0
100
AcDbSpline
210
0.0
220
0.0
230
1.0
 70
     8
 71
     3
 72
     8
 73
     4
 74
     0
 42
0.000000001
 43
0.0000000001
 40
-1.0
 40
-1.0
 40
-1.0
 40
-1.0
 40
0.0
 40
0.0
 40
0.0
 40
0.0
 10
-59.40000000000002
 20
-2.717240184541171
 30
0.0
 10
-59.71415926535898
 20
-3.124319333760708
 30
0.0
 10
-60.0
 20
-3.733518404783543
 30
0.0
 10
-60.0
 20
-4.362741700911278
 30
0.0
  0
LINE
  5
3A13
330
39E3
100
AcDbEntity
  8
0
100
AcDbLine
 10
-59.40000000000002
 20
-2.717240184541184
 30
0.0
 11
-59.40000000000002
 21
-2.364040347338189
 31
0.0
  0
LINE
  5
3A14
330
39E3
100
AcDbEntity
  8
0
100
AcDbLine
 10
-59.40000000000002
 20
-2.364040347338189
 30
0.0
 11
-59.40000000000002
 21
-1.656580012761362
 31
0.0
  0
SPLINE
  5
3A15
330
39E3
100
AcDbEntity
  8
0
100
AcDbSpline
210
0.0
220
0.0
230
1.0
 70
     8
 71
     3
 72
     8
 73
     4
 74
     0
 42
0.000000001
 43
0.0000000001
 40
0.8233926083861764
 40
0.8233926083861764
 40
0.8233926083861764
 40
0.8233926083861764
 40
1.0
 40
1.0
 40
1.0
 40
1.0
 10
-59.96833079343949
 20
-1.934942494001981
 30
0.0
 10
-59.78528852951264
 20
-1.822430928281069
 30
0.0
 10
-59.59418996942229
 20
-1.728473199485387
 30
0.0
 10
-59.40000000000002
 20
-1.65658001276135
 30
0.0
  0
LINE
  5
3A16
330
39E3
100
AcDbEntity
  8
0
100
AcDbLine
 10
-59.40000000000002
 20
-1.656580012761362
 30
0.0
 11
-59.17856242236219
 21
-1.500000000000032
 31
0.0
  0
LINE
  5
3A17
330
39E3
100
AcDbEntity
  8
0
100
AcDbLine
 10
-58.79315533855965
 20
-2.288136209298638
 30
0.0
 11
-58.79315533855965
 21
-1.500000000000025
 31
0.0
  0
LINE
  5
3A18
330
39E3
100
AcDbEntity
  8
0
100
AcDbLine
 10
-55.14054197002046
 20
-1.675735931288095
 30
0.0
 11
-55.14054197002046
 21
-1.500000000000024
 31
0.0
  0
LINE
  5
3A19
330
39E3
100
AcDbEntity
  8
0
100
AcDbLine
 10
60.0000000000017
 20
-62.91118318265862
 30
0.0
 11
60.0000000000017
 21
-43.49999999999997
 31
0.0
  0
LINE
  5
3A1A
330
39E3
100
AcDbEntity
  8
0
100
AcDbLine
 10
59.39999999999998
 20
-2.717240184541152
 30
0.0
 11
59.39999999999998
 21
-2.364040347340221
 31
0.0
  0
SPLINE
  5
3A1B
330
39E3
100
AcDbEntity
  8
0
100
AcDbSpline
210
0.0
220
0.0
230
1.0
 70
     8
 71
     3
 72
     8
 73
     4
 74
     0
 42
0.000000001
 43
0.0000000001
 40
-0.9999999999999944
 40
-0.9999999999999944
 40
-0.9999999999999944
 40
-0.9999999999999944
 40
0.0
 40
0.0
 40
0.0
 40
0.0
 10
60.0
 20
-4.362741700911252
 30
0.0
 10
60.0
 20
-3.733518404783744
 30
0.0
 10
59.714159265359
 20
-3.124319333759684
 30
0.0
 10
59.39999999999998
 20
-2.717240184541171
 30
0.0
  0
SPLINE
  5
3A1C
330
39E3
100
AcDbEntity
  8
0
100
AcDbSpline
210
0.0
220
0.0
230
1.0
 70
     8
 71
     3
 72
     8
 73
     4
 74
     0
 42
0.000000001
 43
0.0000000001
 40
0.0
 40
0.0
 40
0.0
 40
0.0
 40
0.1766073916138335
 40
0.1766073916138335
 40
0.1766073916138335
 40
0.1766073916138335
 10
59.39999999999998
 20
-1.65658001276135
 30
0.0
 10
59.59418996942229
 20
-1.72847319948521
 30
0.0
 10
59.78528852951265
 20
-1.822430928280787
 30
0.0
 10
59.96833079343951
 20
-1.934942494001645
 30
0.0
  0
LINE
  5
3A1D
330
39E3
100
AcDbEntity
  8
0
100
AcDbLine
 10
59.39999999999998
 20
-2.364040347340221
 30
0.0
 11
59.39999999999998
 21
-1.65658001276133
 31
0.0
  0
LINE
  5
3A1E
330
39E3
100
AcDbEntity
  8
0
100
AcDbLine
 10
55.14054197002041
 20
-1.499999999999993
 30
0.0
 11
55.14054197002039
 21
-1.675735931288071
 31
0.0
  0
LINE
  5
3A1F
330
39E3
100
AcDbEntity
  8
0
100
AcDbLine
 10
58.79315533855962
 20
-2.288136209298607
 30
0.0
 11
58.79315533855962
 21
-1.499999999999992
 31
0.0
  0
LINE
  5
3A20
330
39E3
100
AcDbEntity
  8
0
100
AcDbLine
 10
59.17856242236212
 20
-1.499999999999989
 30
0.0
 11
59.39999999999998
 21
-1.65658001276133
 31
0.0
  0
LINE
  5
3A21
330
39E3
100
AcDbEntity
  8
0
100
AcDbLine
 10
-61.49999999999749
 20
-62.91118318265867
 30
0.0
 11
-61.49999999999997
 21
-82.00306627386
 31
0.0
  0
LINE
  5
3A22
330
39E3
100
AcDbEntity
  8
0
100
AcDbLine
 10
-59.99999999999774
 20
-62.91118318265866
 30
0.0
 11
-59.99999999999996
 21
-82.00306627386
 31
0.0
  0
ELLIPSE
  5
3A23
330
39E3
100
AcDbEntity
  8
0
100
AcDbEllipse
 10
-22.50000000000002
 20
-0.1668158657389988
 30
0.0
 11
2.5
 21
0.0000000000001825
 31
0.0
210
0.0
220
0.0
230
1.0
 40
0.7071067811865474
 41
3.995971005724944
 42
4.712388980384622
  0
LINE
  5
3A24
330
39E3
100
AcDbEntity
  8
0
100
AcDbLine
 10
-24.91828991960765
 20
-1.500000000000006
 30
0.0
 11
-24.91828991960765
 21
-1.675735931288089
 31
0.0
  0
ELLIPSE
  5
3A25
330
39E3
100
AcDbEntity
  8
0
100
AcDbEllipse
 10
-22.50000000000002
 20
-1.227476037518803
 30
0.0
 11
-2.5
 21
-0.0000000000000006
 31
0.0
210
0.0
220
0.0
230
1.0
 40
0.7071067811865471
 41
0.2563733270184496
 42
1.570796326794896
  0
LINE
  5
3A26
330
39E3
100
AcDbEntity
  8
0
100
AcDbLine
 10
-22.50000000000002
 20
-1.934582818705351
 30
0.0
 11
-17.50000000000001
 21
-1.93458281870535
 31
0.0
  0
LINE
  5
3A27
330
39E3
100
AcDbEntity
  8
0
100
AcDbLine
 10
-17.50000000000001
 20
-2.995242990485172
 30
0.0
 11
-22.50000000000002
 21
-2.995242990485173
 31
0.0
  0
ELLIPSE
  5
3A28
330
39E3
100
AcDbEntity
  8
0
100
AcDbEllipse
 10
-17.50000000000001
 20
-0.1668158657389974
 30
0.0
 11
2.5
 21
0.0000000000000006
 31
0.0
210
0.0
220
0.0
230
1.0
 40
0.7071067811865472
 41
4.712388980384689
 42
5.428806955044299
  0
ELLIPSE
  5
3A29
330
39E3
100
AcDbEntity
  8
0
100
AcDbEllipse
 10
-17.50000000000001
 20
-1.227476037518802
 30
0.0
 11
2.5
 21
0.0000000000000008
 31
0.0
210
0.0
220
0.0
230
1.0
 40
0.7071067811865472
 41
4.712388980384689
 42
6.026811980161137
  0
LINE
  5
3A2A
330
39E3
100
AcDbEntity
  8
0
100
AcDbLine
 10
-15.08171008039238
 20
-1.675735931288087
 30
0.0
 11
-15.08171008039238
 21
-1.500000000000003
 31
0.0
  0
SPLINE
  5
3A2B
330
39E3
100
AcDbEntity
  8
0
100
AcDbSpline
210
0.0
220
0.0
230
1.0
 70
     8
 71
     3
 72
     8
 73
     4
 74
     0
 42
0.000000001
 43
0.0000000001
 40
-1.0
 40
-1.0
 40
-1.0
 40
-1.0
 40
0.0
 40
0.0
 40
0.0
 40
0.0
 10
-24.91828991960765
 20
-1.675735931288089
 30
0.0
 10
-24.99189972302028
 20
-1.567383125827709
 30
0.0
 10
-25.01609483643939
 20
-1.500000000000017
 30
0.0
 10
-24.98943351399745
 20
-1.500000000000017
 30
0.0
  0
SPLINE
  5
3A2C
330
39E3
100
AcDbEntity
  8
0
100
AcDbSpline
210
0.0
220
0.0
230
1.0
 70
     8
 71
     3
 72
     8
 73
     4
 74
     0
 42
0.000000001
 43
0.0000000001
 40
-1.0
 40
-1.0
 40
-1.0
 40
-1.0
 40
0.0
 40
0.0
 40
0.0
 40
0.0
 10
-15.01056648600259
 20
-1.500000000000015
 30
0.0
 10
-14.98390516356081
 20
-1.500000000000015
 30
0.0
 10
-15.00810027697979
 20
-1.567383125827735
 30
0.0
 10
-15.08171008039239
 20
-1.675735931288087
 30
0.0
  0
ELLIPSE
  5
3A2D
330
39E3
100
AcDbEntity
  8
0
100
AcDbEllipse
 10
17.49999999999998
 20
-0.1668158657389913
 30
0.0
 11
2.5
 21
0.0000000000001828
 31
0.0
210
0.0
220
0.0
230
1.0
 40
0.7071067811865474
 41
3.995971005724941
 42
4.712388980384622
  0
LINE
  5
3A2E
330
39E3
100
AcDbEntity
  8
0
100
AcDbLine
 10
15.08171008039234
 20
-1.499999999999994
 30
0.0
 11
15.08171008039235
 21
-1.67573593128808
 31
0.0
  0
ELLIPSE
  5
3A2F
330
39E3
100
AcDbEntity
  8
0
100
AcDbEllipse
 10
17.49999999999998
 20
-1.227476037518794
 30
0.0
 11
-2.5
 21
-0.0000000000000006
 31
0.0
210
0.0
220
0.0
230
1.0
 40
0.7071067811865471
 41
0.2563733270184496
 42
1.570796326794896
  0
LINE
  5
3A30
330
39E3
100
AcDbEntity
  8
0
100
AcDbLine
 10
17.49999999999998
 20
-1.93458281870534
 30
0.0
 11
22.5
 21
-1.934582818705339
 31
0.0
  0
LINE
  5
3A31
330
39E3
100
AcDbEntity
  8
0
100
AcDbLine
 10
22.5
 20
-2.995242990485161
 30
0.0
 11
17.49999999999998
 21
-2.995242990485163
 31
0.0
  0
ELLIPSE
  5
3A32
330
39E3
100
AcDbEntity
  8
0
100
AcDbEllipse
 10
22.5
 20
-0.1668158657389902
 30
0.0
 11
2.5
 21
0.0000000000000006
 31
0.0
210
0.0
220
0.0
230
1.0
 40
0.7071067811865472
 41
4.712388980384689
 42
5.428806955044304
  0
ELLIPSE
  5
3A33
330
39E3
100
AcDbEntity
  8
0
100
AcDbEllipse
 10
22.5
 20
-1.227476037518793
 30
0.0
 11
2.5
 21
0.0000000000000008
 31
0.0
210
0.0
220
0.0
230
1.0
 40
0.7071067811865476
 41
4.712388980384689
 42
6.026811980161135
  0
LINE
  5
3A34
330
39E3
100
AcDbEntity
  8
0
100
AcDbLine
 10
24.91828991960762
 20
-1.675735931288078
 30
0.0
 11
24.91828991960762
 21
-1.499999999999992
 31
0.0
  0
SPLINE
  5
3A35
330
39E3
100
AcDbEntity
  8
0
100
AcDbSpline
210
0.0
220
0.0
230
1.0
 70
     8
 71
     3
 72
     8
 73
     4
 74
     0
 42
0.000000001
 43
0.0000000001
 40
-1.0
 40
-1.0
 40
-1.0
 40
-1.0
 40
0.0
 40
0.0
 40
0.0
 40
0.0
 10
15.08171008039234
 20
-1.67573593128808
 30
0.0
 10
15.00810027697996
 20
-1.567383125827725
 30
0.0
 10
14.98390516356047
 20
-1.500000000000008
 30
0.0
 10
15.01056648600255
 20
-1.500000000000008
 30
0.0
  0
SPLINE
  5
3A36
330
39E3
100
AcDbEntity
  8
0
100
AcDbSpline
210
0.0
220
0.0
230
1.0
 70
     8
 71
     3
 72
     8
 73
     4
 74
     0
 42
0.000000001
 43
0.0000000001
 40
-1.0
 40
-1.0
 40
-1.0
 40
-1.0
 40
0.0
 40
0.0
 40
0.0
 40
0.0
 10
24.98943351399742
 20
-1.500000000000006
 30
0.0
 10
25.01609483643945
 20
-1.500000000000006
 30
0.0
 10
24.9918997230203
 20
-1.5673831258277
 30
0.0
 10
24.91828991960762
 20
-1.675735931288078
 30
0.0
  0
SPLINE
  5
3A37
330
39E3
100
AcDbEntity
  8
0
100
AcDbSpline
210
0.0
220
0.0
230
1.0
 70
     8
 71
     3
 72
     8
 73
     4
 74
     0
 42
0.000000001
 43
0.0000000001
 40
-1.0
 40
-1.0
 40
-1.0
 40
-1.0
 40
0.0
 40
0.0
 40
0.0
 40
0.0
 10
-40.0105664860026
 20
-1.500000000000021
 30
0.0
 10
-39.98390516356047
 20
-1.500000000000021
 30
0.0
 10
-40.00810027697969
 20
-1.567383125827685
 30
0.0
 10
-40.08171008039238
 20
-1.675735931288092
 30
0.0
  0
ELLIPSE
  5
3A38
330
39E3
100
AcDbEntity
  8
0
100
AcDbEllipse
 10
-42.50000000000001
 20
-1.227476037518807
 30
0.0
 11
2.5
 21
0.0000000000000005
 31
0.0
210
0.0
220
0.0
230
1.0
 40
0.7071067811865475
 41
3.397965980608241
 42
6.026811980161135
  0
ELLIPSE
  5
3A39
330
39E3
100
AcDbEntity
  8
0
100
AcDbEllipse
 10
42.49999999999999
 20
-1.227476037518788
 30
0.0
 11
2.5
 21
0.000000000000001
 31
0.0
210
0.0
220
0.0
230
1.0
 40
0.7071067811865475
 41
3.397965980608241
 42
6.026811980161136
  0
SPLINE
  5
3A3A
330
39E3
100
AcDbEntity
  8
0
100
AcDbSpline
210
0.0
220
0.0
230
1.0
 70
     8
 71
     3
 72
     8
 73
     4
 74
     0
 42
0.000000001
 43
0.0000000001
 40
-1.0
 40
-1.0
 40
-1.0
 40
-1.0
 40
0.0
 40
0.0
 40
0.0
 40
0.0
 10
40.08171008039235
 20
-1.675735931288075
 30
0.0
 10
40.00810027697982
 20
-1.567383125827689
 30
0.0
 10
39.98390516356057
 20
-1.500000000000003
 30
0.0
 10
40.01056648600256
 20
-1.500000000000003
 30
0.0
  0
ELLIPSE
  5
3A3B
330
39E3
100
AcDbEntity
  8
0
100
AcDbEllipse
 10
-42.50000000000001
 20
-0.1668158657390012
 30
0.0
 11
2.5
 21
0.0000000000001821
 31
0.0
210
0.0
220
0.0
230
1.0
 40
0.7071067811865472
 41
3.995971005724948
 42
5.428806955044155
  0
LINE
  5
3A3C
330
39E3
100
AcDbEntity
  8
0
100
AcDbLine
 10
-44.91828991960765
 20
-1.500000000000012
 30
0.0
 11
-44.91828991960765
 21
-1.675735931288093
 31
0.0
  0
LINE
  5
3A3D
330
39E3
100
AcDbEntity
  8
0
100
AcDbLine
 10
-40.08171008039238
 20
-1.675735931288092
 30
0.0
 11
-40.08171008039238
 21
-1.500000000000021
 31
0.0
  0
SPLINE
  5
3A3E
330
39E3
100
AcDbEntity
  8
0
100
AcDbSpline
210
0.0
220
0.0
230
1.0
 70
     8
 71
     3
 72
     8
 73
     4
 74
     0
 42
0.000000001
 43
0.0000000001
 40
-1.0
 40
-1.0
 40
-1.0
 40
-1.0
 40
0.0
 40
0.0
 40
0.0
 40
0.0
 10
-44.91828991960765
 20
-1.675735931288094
 30
0.0
 10
-44.99189972302028
 20
-1.567383125827716
 30
0.0
 10
-45.01609483643966
 20
-1.500000000000022
 30
0.0
 10
-44.98943351399744
 20
-1.500000000000022
 30
0.0
  0
ELLIPSE
  5
3A3F
330
39E3
100
AcDbEntity
  8
0
100
AcDbEllipse
 10
42.49999999999999
 20
-0.166815865738985
 30
0.0
 11
2.5
 21
0.0000000000001826
 31
0.0
210
0.0
220
0.0
230
1.0
 40
0.7071067811865474
 41
3.995971005724957
 42
5.428806955044169
  0
LINE
  5
3A40
330
39E3
100
AcDbEntity
  8
0
100
AcDbLine
 10
40.08171008039235
 20
-1.500000000000003
 30
0.0
 11
40.08171008039235
 21
-1.675735931288074
 31
0.0
  0
LINE
  5
3A41
330
39E3
100
AcDbEntity
  8
0
100
AcDbLine
 10
44.91828991960762
 20
-1.675735931288073
 30
0.0
 11
44.91828991960762
 21
-1.499999999999985
 31
0.0
  0
SPLINE
  5
3A42
330
39E3
100
AcDbEntity
  8
0
100
AcDbSpline
210
0.0
220
0.0
230
1.0
 70
     8
 71
     3
 72
     8
 73
     4
 74
     0
 42
0.000000001
 43
0.0000000001
 40
-1.0
 40
-1.0
 40
-1.0
 40
-1.0
 40
0.0
 40
0.0
 40
0.0
 40
0.0
 10
44.98943351399741
 20
-1.500000000000002
 30
0.0
 10
45.01609483643921
 20
-1.500000000000002
 30
0.0
 10
44.99189972302031
 20
-1.567383125827658
 30
0.0
 10
44.91828991960762
 20
-1.675735931288073
 30
0.0
  0
SPLINE
  5
3A43
330
39E3
100
AcDbEntity
  8
0
100
AcDbSpline
210
0.0
220
0.0
230
1.0
 70
     8
 71
     3
 72
     8
 73
     4
 74
     0
 42
0.000000001
 43
0.0000000001
 40
-1.0
 40
-1.0
 40
-1.0
 40
-1.0
 40
0.0
 40
0.0
 40
0.0
 40
0.0
 10
-4.918289920131929
 20
-1.675735931288084
 30
0.0
 10
-4.991899723307459
 20
-1.567383125811564
 30
0.0
 10
-5.016094836485387
 20
-1.500000000000013
 30
0.0
 10
-4.989433513812974
 20
-1.500000000000013
 30
0.0
  0
ELLIPSE
  5
3A44
330
39E3
100
AcDbEntity
  8
0
100
AcDbEllipse
 10
2.49999999999999
 20
-1.227476038933011
 30
0.0
 11
2.499999999999999
 21
0.0000000000000011
 31
0.0
210
0.0
220
0.0
230
1.0
 40
0.7071067811865476
 41
4.712388980384682
 42
6.026811980988167
  0
LINE
  5
3A45
330
39E3
100
AcDbEntity
  8
0
100
AcDbLine
 10
2.499999999999973
 20
-2.995242991899393
 30
0.0
 11
-2.500000000000017
 21
-2.995242991899394
 31
0.0
  0
ELLIPSE
  5
3A46
330
39E3
100
AcDbEntity
  8
0
100
AcDbEllipse
 10
-2.500000000000017
 20
-1.227476038933012
 30
0.0
 11
-2.5
 21
-0.0000000000000002
 31
0.0
210
0.0
220
0.0
230
1.0
 40
0.7071067811865474
 41
0.2563733261914187
 42
1.570796326794896
  0
SPLINE
  5
3A47
330
39E3
100
AcDbEntity
  8
0
100
AcDbSpline
210
0.0
220
0.0
230
1.0
 70
     8
 71
     3
 72
     8
 73
     4
 74
     0
 42
0.000000001
 43
0.0000000001
 40
-1.0
 40
-1.0
 40
-1.0
 40
-1.0
 40
0.0
 40
0.0
 40
0.0
 40
0.0
 10
4.989433513812953
 20
-1.500000000000011
 30
0.0
 10
5.016094836485431
 20
-1.500000000000011
 30
0.0
 10
4.991899723307119
 20
-1.567383125811554
 30
0.0
 10
4.918289920131917
 20
-1.675735931288082
 30
0.0
  0
ELLIPSE
  5
3A48
330
39E3
100
AcDbEntity
  8
0
100
AcDbEllipse
 10
-2.500000000000017
 20
-0.1668158671532076
 30
0.0
 11
2.5
 21
0.0000000000001836
 31
0.0
210
0.0
220
0.0
230
1.0
 40
0.7071067811865472
 41
3.995971004506708
 42
4.712388980384622
  0
LINE
  5
3A49
330
39E3
100
AcDbEntity
  8
0
100
AcDbLine
 10
-4.918289920131929
 20
-1.5
 30
0.0
 11
-4.918289920131931
 21
-1.675735931288084
 31
0.0
  0
LINE
  5
3A4A
330
39E3
100
AcDbEntity
  8
0
100
AcDbLine
 10
-2.500000000000017
 20
-1.934582820119572
 30
0.0
 11
2.499999999999973
 21
-1.934582820119571
 31
0.0
  0
ELLIPSE
  5
3A4B
330
39E3
100
AcDbEntity
  8
0
100
AcDbEllipse
 10
2.49999999999999
 20
-0.1668158671532059
 30
0.0
 11
2.5
 21
-0.000000000000012
 31
0.0
210
0.0
220
0.0
230
1.0
 40
0.7071067811865474
 41
4.712388980384682
 42
5.42880695626254
  0
LINE
  5
3A4C
330
39E3
100
AcDbEntity
  8
0
100
AcDbLine
 10
4.918289920131912
 20
-1.675735931288082
 30
0.0
 11
4.918289920131912
 21
-1.499999999999997
 31
0.0
  0
LINE
  5
3A4D
330
39E3
100
AcDbEntity
  8
0
100
AcDbLine
 10
-59.39999999999999
 20
-55.8401153701776
 30
0.0
 11
59.39999999999997
 21
-55.84011537017758
 31
0.0
  0
ELLIPSE
  5
3A4E
330
39E3
100
AcDbEntity
  8
0
100
AcDbEllipse
 10
-59.39999999999999
 20
-56.26437943888949
 30
0.0
 11
-0.5999999999999586
 21
-0.0000000000000001
 31
0.0
210
0.0
220
0.0
230
1.0
 40
0.7071067811865234
 41
4.712388980384689
 42
6.283185307179586
  0
ARC
  5
3A4F
330
39E3
100
AcDbEntity
  8
0
100
AcDbCircle
 10
59.39999999999998
 20
-2.099999999999986
 30
0.0
 40
0.600000000000005
100
AcDbArc
 50
0.0
 51
90.0
  0
ARC
  5
3A50
330
39E3
100
AcDbEntity
  8
0
100
AcDbCircle
 10
59.39999999999998
 20
-2.099999999999986
 30
0.0
 40
2.100000000000008
100
AcDbArc
 50
0.0
 51
90.0
  0
ARC
  5
3A51
330
39E3
100
AcDbEntity
  8
0
100
AcDbCircle
 10
-59.40000000000002
 20
-2.100000000000012
 30
0.0
 40
0.5999999999999961
100
AcDbArc
 50
90.0
 51
180.0
  0
ARC
  5
3A52
330
39E3
100
AcDbEntity
  8
0
100
AcDbCircle
 10
-59.40000000000002
 20
-2.100000000000012
 30
0.0
 40
2.099999999999999
100
AcDbArc
 50
90.0
 51
180.0
  0
ENDBLK
  5
39E5
330
39E3
100
AcDbEntity
  8
0
100
AcDbBlockEnd
  0
BLOCK
  5
3A54
330
3A53
100
AcDbEntity
  8
0
100
AcDbBlockBegin
  2
SPR120_140-Bottom
 70
     0
 10
0.0
 20
0.0
 30
0.0
  3
SPR120_140-Bottom
  1

  0
LINE
  5
3A56
330
3A53
100
AcDbEntity
  8
0
100
AcDbLine
 10
102.527090561
 20
1.49999999999998
 30
0.0
 11
97.52709056099996
 21
1.499999999999981
 31
0.0
  0
LINE
  5
3A57
330
3A53
100
AcDbEntity
  8
0
100
AcDbLine
 10
97.52709056099996
 20
1.499999999999981
 30
0.0
 11
97.52709056099996
 21
0.0
 31
0.0
  0
LINE
  5
3A58
330
3A53
100
AcDbEntity
  8
0
100
AcDbLine
 10
97.52709056099996
 20
0.0
 30
0.0
 11
102.527090561
 21
0.0
 31
0.0
  0
LINE
  5
3A59
330
3A53
100
AcDbEntity
  8
0
100
AcDbLine
 10
102.527090561
 20
0.0
 30
0.0
 11
102.527090561
 21
1.49999999999998
 31
0.0
  0
LINE
  5
3A5A
330
3A53
100
AcDbEntity
  8
0
100
AcDbLine
 10
-102.527090561
 20
0.0
 30
0.0
 11
-97.52709056100002
 21
0.0
 31
0.0
  0
LINE
  5
3A5B
330
3A53
100
AcDbEntity
  8
0
100
AcDbLine
 10
-97.52709056100002
 20
1.500000000000036
 30
0.0
 11
-102.527090561
 21
1.500000000000038
 31
0.0
  0
LINE
  5
3A5C
330
3A53
100
AcDbEntity
  8
0
100
AcDbLine
 10
-102.527090561
 20
1.500000000000038
 30
0.0
 11
-102.527090561
 21
0.0
 31
0.0
  0
LINE
  5
3A5D
330
3A53
100
AcDbEntity
  8
0
100
AcDbLine
 10
-97.52709056100002
 20
0.0
 30
0.0
 11
-97.52709056100002
 21
1.500000000000036
 31
0.0
  0
LINE
  5
3A5E
330
3A53
100
AcDbEntity
  8
0
100
AcDbLine
 10
97.52709056099996
 20
0.0
 30
0.0
 11
56.49999999999998
 21
0.0
 31
0.0
  0
LINE
  5
3A5F
330
3A53
100
AcDbEntity
  8
0
100
AcDbLine
 10
-56.50000000000002
 20
0.0
 30
0.0
 11
-97.52709056100002
 21
0.0
 31
0.0
  0
LINE
  5
3A60
330
3A53
100
AcDbEntity
  8
0
100
AcDbLine
 10
-59.17856242236218
 20
1.500000000000029
 30
0.0
 11
-97.52709056100002
 21
1.500000000000036
 31
0.0
  0
LINE
  5
3A61
330
3A53
100
AcDbEntity
  8
0
100
AcDbLine
 10
97.52709056099996
 20
1.499999999999981
 30
0.0
 11
59.17856242236213
 21
1.499999999999992
 31
0.0
  0
LINE
  5
3A62
330
3A53
100
AcDbEntity
  8
0
100
AcDbLine
 10
56.49999999999998
 20
0.0
 30
0.0
 11
55.01767776087192
 21
0.0
 31
0.0
  0
LINE
  5
3A63
330
3A53
100
AcDbEntity
  8
0
100
AcDbLine
 10
-55.01767776087198
 20
0.0
 30
0.0
 11
-56.50000000000002
 21
0.0
 31
0.0
  0
SPLINE
  5
3A64
330
3A53
100
AcDbEntity
  8
0
100
AcDbSpline
210
0.0
220
0.0
230
1.0
 70
     8
 71
     3
 72
     8
 73
     4
 74
     0
 42
0.000000001
 43
0.0000000001
 40
0.0
 40
0.0
 40
0.0
 40
0.0
 40
1.0
 40
1.0
 40
1.0
 40
1.0
 10
-55.1405419700205
 20
0.6150757595082743
 30
0.0
 10
-55.01586474390124
 20
0.2539843833467381
 30
0.0
 10
-54.97251992073983
 20
0.0000000000000243
 30
0.0
 10
-55.01767776087199
 20
0.0000000000000242
 30
0.0
  0
SPLINE
  5
3A65
330
3A53
100
AcDbEntity
  8
0
100
AcDbSpline
210
0.0
220
0.0
230
1.0
 70
     8
 71
     3
 72
     8
 73
     4
 74
     0
 42
0.000000001
 43
0.0000000001
 40
0.0
 40
0.0
 40
0.0
 40
0.0
 40
1.0
 40
1.0
 40
1.0
 40
1.0
 10
55.01767776087192
 20
-0.0000000000000003
 30
0.0
 10
54.97251992074175
 20
0.0
 30
0.0
 10
55.01586474390372
 20
0.2539843833467156
 30
0.0
 10
55.14054197002041
 20
0.61507575950825
 30
0.0
  0
SPLINE
  5
3A66
330
3A53
100
AcDbEntity
  8
0
100
AcDbSpline
210
0.0
220
0.0
230
1.0
 70
     8
 71
     3
 72
     8
 73
     4
 74
     0
 42
0.000000001
 43
0.0000000001
 40
0.0
 40
0.0
 40
0.0
 40
0.0
 40
1.0
 40
1.0
 40
1.0
 40
1.0
 10
-61.49999999999999
 20
4.362741700911322
 30
0.0
 10
-61.50000000000004
 20
3.178158037513734
 30
0.0
 10
-60.49955742875642
 20
2.063659161980886
 30
0.0
 10
-59.40000000000002
 20
1.65658001276135
 30
0.0
  0
LINE
  5
3A67
330
3A53
100
AcDbEntity
  8
0
100
AcDbLine
 10
-59.40000000000002
 20
1.656580012761362
 30
0.0
 11
-58.79315533855965
 21
1.227476037518814
 31
0.0
  0
LINE
  5
3A68
330
3A53
100
AcDbEntity
  8
0
100
AcDbLine
 10
-58.79315533855965
 20
1.227476037518814
 30
0.0
 11
-56.50000000000002
 21
1.227476037518802
 31
0.0
  0
ELLIPSE
  5
3A69
330
3A53
100
AcDbEntity
  8
0
100
AcDbEllipse
 10
-56.50000000000002
 20
0.1668158657390017
 30
0.0
 11
1.5
 21
-0.0000000000000003
 31
0.0
210
0.0
220
0.0
230
1.0
 40
0.7071067811865474
 41
0.4363380716279135
 42
1.570796326794896
  0
LINE
  5
3A6A
330
3A53
100
AcDbEntity
  8
0
100
AcDbLine
 10
-55.01767776087198
 20
0.1805170265382094
 30
0.0
 11
-55.01767776087198
 21
0.0
 31
0.0
  0
SPLINE
  5
3A6B
330
3A53
100
AcDbEntity
  8
0
100
AcDbSpline
210
0.0
220
0.0
230
1.0
 70
     8
 71
     3
 72
     8
 73
     4
 74
     0
 42
0.000000001
 43
0.0000000001
 40
0.0
 40
0.0
 40
0.0
 40
0.0
 40
0.9999999999999944
 40
0.9999999999999944
 40
0.9999999999999944
 40
0.9999999999999944
 10
59.39999999999998
 20
1.65658001276135
 30
0.0
 10
60.49955742875652
 20
2.063659161979863
 30
0.0
 10
61.49999999999995
 20
3.178158037513896
 30
0.0
 10
61.50000000000002
 20
4.362741700911197
 30
0.0
  0
ELLIPSE
  5
3A6C
330
3A53
100
AcDbEntity
  8
0
100
AcDbEllipse
 10
56.49999999999998
 20
0.1668158657389779
 30
0.0
 11
1.5
 21
-0.0000000000001098
 31
0.0
210
0.0
220
0.0
230
1.0
 40
0.7071067811865479
 41
1.570796326795031
 42
2.705254581962144
  0
LINE
  5
3A6D
330
3A53
100
AcDbEntity
  8
0
100
AcDbLine
 10
56.49999999999998
 20
1.227476037518772
 30
0.0
 11
58.79315533855962
 21
1.227476037518785
 31
0.0
  0
LINE
  5
3A6E
330
3A53
100
AcDbEntity
  8
0
100
AcDbLine
 10
58.79315533855962
 20
1.227476037518785
 30
0.0
 11
59.39999999999998
 21
1.65658001276133
 31
0.0
  0
LINE
  5
3A6F
330
3A53
100
AcDbEntity
  8
0
100
AcDbLine
 10
55.01767776087192
 20
0.1805170265382869
 30
0.0
 11
55.01767776087192
 21
0.0
 31
0.0
  0
LINE
  5
3A70
330
3A53
100
AcDbEntity
  8
0
100
AcDbLine
 10
44.98943351399741
 20
0.0
 30
0.0
 11
55.01767776087192
 21
0.0
 31
0.0
  0
LINE
  5
3A71
330
3A53
100
AcDbEntity
  8
0
100
AcDbLine
 10
24.98943351399742
 20
0.0
 30
0.0
 11
40.01056648600256
 21
0.0
 31
0.0
  0
LINE
  5
3A72
330
3A53
100
AcDbEntity
  8
0
100
AcDbLine
 10
4.989433513812951
 20
0.0
 30
0.0
 11
15.01056648600255
 21
0.0
 31
0.0
  0
LINE
  5
3A73
330
3A53
100
AcDbEntity
  8
0
100
AcDbLine
 10
-15.01056648600259
 20
0.0
 30
0.0
 11
-4.989433513812977
 21
0.0
 31
0.0
  0
LINE
  5
3A74
330
3A53
100
AcDbEntity
  8
0
100
AcDbLine
 10
-40.01056648600259
 20
0.0
 30
0.0
 11
-24.98943351399745
 21
0.0
 31
0.0
  0
LINE
  5
3A75
330
3A53
100
AcDbEntity
  8
0
100
AcDbLine
 10
-55.01767776087198
 20
0.0
 30
0.0
 11
-44.98943351399744
 21
0.0
 31
0.0
  0
LINE
  5
3A76
330
3A53
100
AcDbEntity
  8
0
100
AcDbLine
 10
61.49999999999995
 20
56.26437943888952
 30
0.0
 11
61.49999999999995
 21
82.00306627385996
 31
0.0
  0
LINE
  5
3A77
330
3A53
100
AcDbEntity
  8
0
100
AcDbLine
 10
-61.49999999999995
 20
82.00306627386
 30
0.0
 11
-61.49999999999998
 21
56.26437943888955
 31
0.0
  0
LINE
  5
3A78
330
3A53
100
AcDbEntity
  8
0
100
AcDbLine
 10
-59.99999999999996
 20
82.00306627386
 30
0.0
 11
-59.99999999999997
 21
56.26437943888953
 31
0.0
  0
LINE
  5
3A79
330
3A53
100
AcDbEntity
  8
0
100
AcDbLine
 10
-59.39999999999999
 20
55.8401153701776
 30
0.0
 11
59.39999999999997
 21
55.84011537017758
 31
0.0
  0
LINE
  5
3A7A
330
3A53
100
AcDbEntity
  8
0
100
AcDbLine
 10
59.99999999999996
 20
56.26437943888952
 30
0.0
 11
59.99999999999996
 21
82.00306627385996
 31
0.0
  0
LINE
  5
3A7B
330
3A53
100
AcDbEntity
  8
0
100
AcDbLine
 10
-59.39999999999999
 20
54.77945519839778
 30
0.0
 11
59.39999999999997
 21
54.77945519839777
 31
0.0
  0
LINE
  5
3A7C
330
3A53
100
AcDbEntity
  8
0
100
AcDbLine
 10
44.98943351399741
 20
0.0
 30
0.0
 11
40.01056648600256
 21
0.0
 31
0.0
  0
LINE
  5
3A7D
330
3A53
100
AcDbEntity
  8
0
100
AcDbLine
 10
-40.01056648600259
 20
0.0
 30
0.0
 11
-44.98943351399744
 21
0.0
 31
0.0
  0
SPLINE
  5
3A7E
330
3A53
100
AcDbEntity
  8
0
100
AcDbSpline
210
0.0
220
0.0
230
1.0
 70
     8
 71
     3
 72
     8
 73
     4
 74
     0
 42
0.000000001
 43
0.0000000001
 40
0.0
 40
0.0
 40
0.0
 40
0.0
 40
1.0
 40
1.0
 40
1.0
 40
1.0
 10
-40.08171008039238
 20
0.615075759508271
 30
0.0
 10
-40.00810027697969
 20
0.2358409403968468
 30
0.0
 10
-39.98390516356047
 20
0.0000000000000208
 30
0.0
 10
-40.0105664860026
 20
0.0000000000000208
 30
0.0
  0
ELLIPSE
  5
3A7F
330
3A53
100
AcDbEntity
  8
0
100
AcDbEllipse
 10
-42.50000000000001
 20
0.1668158657390012
 30
0.0
 11
-2.5
 21
0.0000000000000002
 31
0.0
210
0.0
220
0.0
230
1.0
 40
0.7071067811865474
 41
3.397965980608241
 42
6.026811980161135
  0
SPLINE
  5
3A80
330
3A53
100
AcDbEntity
  8
0
100
AcDbSpline
210
0.0
220
0.0
230
1.0
 70
     8
 71
     3
 72
     8
 73
     4
 74
     0
 42
0.000000001
 43
0.0000000001
 40
0.0
 40
0.0
 40
0.0
 40
0.0
 40
1.0
 40
1.0
 40
1.0
 40
1.0
 10
-44.98943351399744
 20
0.0000000000000219
 30
0.0
 10
-45.01609483643966
 20
0.0000000000000217
 30
0.0
 10
-44.99189972302028
 20
0.2358409403969526
 30
0.0
 10
-44.91828991960765
 20
0.6150757595082748
 30
0.0
  0
LINE
  5
3A81
330
3A53
100
AcDbEntity
  8
0
100
AcDbLine
 10
-44.98943351399744
 20
0.1805170265382749
 30
0.0
 11
-44.98943351399744
 21
0.0
 31
0.0
  0
LINE
  5
3A82
330
3A53
100
AcDbEntity
  8
0
100
AcDbLine
 10
-40.01056648600259
 20
0.1805170265382203
 30
0.0
 11
-40.01056648600259
 21
0.0
 31
0.0
  0
LINE
  5
3A83
330
3A53
100
AcDbEntity
  8
0
100
AcDbLine
 10
-44.14171865077712
 20
1.500000000000022
 30
0.0
 11
-40.85828134922291
 21
1.500000000000021
 31
0.0
  0
ELLIPSE
  5
3A84
330
3A53
100
AcDbEntity
  8
0
100
AcDbEllipse
 10
42.49999999999999
 20
0.166815865738985
 30
0.0
 11
-2.5
 21
0.0000000000000002
 31
0.0
210
0.0
220
0.0
230
1.0
 40
0.7071067811865474
 41
3.397965980608241
 42
6.026811980161135
  0
SPLINE
  5
3A85
330
3A53
100
AcDbEntity
  8
0
100
AcDbSpline
210
0.0
220
0.0
230
1.0
 70
     8
 71
     3
 72
     8
 73
     4
 74
     0
 42
0.000000001
 43
0.0000000001
 40
0.0
 40
0.0
 40
0.0
 40
0.0
 40
1.0
 40
1.0
 40
1.0
 40
1.0
 10
40.01056648600256
 20
0.0000000000000031
 30
0.0
 10
39.98390516356057
 20
0.0000000000000029
 30
0.0
 10
40.00810027697982
 20
0.2358409403969046
 30
0.0
 10
40.08171008039235
 20
0.6150757595082559
 30
0.0
  0
LINE
  5
3A86
330
3A53
100
AcDbEntity
  8
0
100
AcDbLine
 10
40.01056648600256
 20
0.1805170265383321
 30
0.0
 11
40.01056648600256
 21
0.0
 31
0.0
  0
LINE
  5
3A87
330
3A53
100
AcDbEntity
  8
0
100
AcDbLine
 10
44.98943351399741
 20
0.1805170265382189
 30
0.0
 11
44.98943351399741
 21
0.0
 31
0.0
  0
SPLINE
  5
3A88
330
3A53
100
AcDbEntity
  8
0
100
AcDbSpline
210
0.0
220
0.0
230
1.0
 70
     8
 71
     3
 72
     8
 73
     4
 74
     0
 42
0.000000001
 43
0.0000000001
 40
0.0
 40
0.0
 40
0.0
 40
0.0
 40
1.0
 40
1.0
 40
1.0
 40
1.0
 10
44.91828991960762
 20
0.6150757595082521
 30
0.0
 10
44.99189972302031
 20
0.2358409403967999
 30
0.0
 10
45.01609483643921
 20
0.0000000000000019
 30
0.0
 10
44.98943351399741
 20
0.0000000000000019
 30
0.0
  0
LINE
  5
3A89
330
3A53
100
AcDbEntity
  8
0
100
AcDbLine
 10
40.85828134922288
 20
1.500000000000003
 30
0.0
 11
44.14171865077709
 21
1.500000000000002
 31
0.0
  0
LINE
  5
3A8A
330
3A53
100
AcDbEntity
  8
0
100
AcDbLine
 10
24.98943351399742
 20
0.0
 30
0.0
 11
22.5
 21
0.0
 31
0.0
  0
LINE
  5
3A8B
330
3A53
100
AcDbEntity
  8
0
100
AcDbLine
 10
22.5
 20
0.0
 30
0.0
 11
17.49999999999998
 21
0.0
 31
0.0
  0
LINE
  5
3A8C
330
3A53
100
AcDbEntity
  8
0
100
AcDbLine
 10
17.49999999999998
 20
0.0
 30
0.0
 11
15.01056648600255
 21
0.0
 31
0.0
  0
LINE
  5
3A8D
330
3A53
100
AcDbEntity
  8
0
100
AcDbLine
 10
-15.01056648600259
 20
0.0
 30
0.0
 11
-17.50000000000001
 21
0.0
 31
0.0
  0
LINE
  5
3A8E
330
3A53
100
AcDbEntity
  8
0
100
AcDbLine
 10
-17.50000000000001
 20
0.0
 30
0.0
 11
-22.50000000000002
 21
0.0
 31
0.0
  0
LINE
  5
3A8F
330
3A53
100
AcDbEntity
  8
0
100
AcDbLine
 10
-22.50000000000002
 20
0.0
 30
0.0
 11
-24.98943351399745
 21
0.0
 31
0.0
  0
ELLIPSE
  5
3A90
330
3A53
100
AcDbEntity
  8
0
100
AcDbEllipse
 10
-22.50000000000002
 20
0.1668158657389988
 30
0.0
 11
-2.5
 21
0.0000000000000003
 31
0.0
210
0.0
220
0.0
230
1.0
 40
0.7071067811865474
 41
4.712388980384689
 42
6.026811980161136
  0
LINE
  5
3A91
330
3A53
100
AcDbEntity
  8
0
100
AcDbLine
 10
-22.50000000000002
 20
1.934582818705351
 30
0.0
 11
-17.50000000000001
 21
1.93458281870535
 31
0.0
  0
ELLIPSE
  5
3A92
330
3A53
100
AcDbEntity
  8
0
100
AcDbEllipse
 10
-17.50000000000001
 20
0.1668158657389974
 30
0.0
 11
2.5
 21
-0.0000000000000006
 31
0.0
210
0.0
220
0.0
230
1.0
 40
0.7071067811865472
 41
0.2563733270184496
 42
1.570796326794896
  0
SPLINE
  5
3A93
330
3A53
100
AcDbEntity
  8
0
100
AcDbSpline
210
0.0
220
0.0
230
1.0
 70
     8
 71
     3
 72
     8
 73
     4
 74
     0
 42
0.000000001
 43
0.0000000001
 40
0.0
 40
0.0
 40
0.0
 40
0.0
 40
1.0
 40
1.0
 40
1.0
 40
1.0
 10
-24.98943351399745
 20
0.0000000000000175
 30
0.0
 10
-25.01609483643939
 20
0.0000000000000173
 30
0.0
 10
-24.99189972302028
 20
0.2358409403969383
 30
0.0
 10
-24.91828991960765
 20
0.6150757595082677
 30
0.0
  0
LINE
  5
3A94
330
3A53
100
AcDbEntity
  8
0
100
AcDbLine
 10
-24.98943351399745
 20
0.1805170265382747
 30
0.0
 11
-24.98943351399745
 21
0.0
 31
0.0
  0
LINE
  5
3A95
330
3A53
100
AcDbEntity
  8
0
100
AcDbLine
 10
-15.01056648600259
 20
0.1805170265383149
 30
0.0
 11
-15.01056648600259
 21
0.0
 31
0.0
  0
SPLINE
  5
3A96
330
3A53
100
AcDbEntity
  8
0
100
AcDbSpline
210
0.0
220
0.0
230
1.0
 70
     8
 71
     3
 72
     8
 73
     4
 74
     0
 42
0.000000001
 43
0.0000000001
 40
0.0
 40
0.0
 40
0.0
 40
0.0
 40
1.0
 40
1.0
 40
1.0
 40
1.0
 10
-15.08171008039239
 20
0.6150757595082654
 30
0.0
 10
-15.00810027697979
 20
0.2358409403970357
 30
0.0
 10
-14.98390516356081
 20
0.0000000000000151
 30
0.0
 10
-15.01056648600259
 20
0.0000000000000153
 30
0.0
  0
LINE
  5
3A97
330
3A53
100
AcDbEntity
  8
0
100
AcDbLine
 10
-17.50000000000001
 20
1.500000000000016
 30
0.0
 11
-15.85828134922291
 21
1.500000000000015
 31
0.0
  0
LINE
  5
3A98
330
3A53
100
AcDbEntity
  8
0
100
AcDbLine
 10
-22.50000000000002
 20
1.500000000000018
 30
0.0
 11
-17.50000000000001
 21
1.500000000000017
 31
0.0
  0
LINE
  5
3A99
330
3A53
100
AcDbEntity
  8
0
100
AcDbLine
 10
-24.14171865077712
 20
1.500000000000017
 30
0.0
 11
-22.50000000000002
 21
1.500000000000017
 31
0.0
  0
ELLIPSE
  5
3A9A
330
3A53
100
AcDbEntity
  8
0
100
AcDbEllipse
 10
17.49999999999998
 20
0.1668158657389913
 30
0.0
 11
-2.5
 21
-0.0000000000000001
 31
0.0
210
0.0
220
0.0
230
1.0
 40
0.7071067811865476
 41
4.712388980384689
 42
6.026811980161137
  0
LINE
  5
3A9B
330
3A53
100
AcDbEntity
  8
0
100
AcDbLine
 10
17.49999999999998
 20
1.93458281870534
 30
0.0
 11
22.5
 21
1.934582818705339
 31
0.0
  0
ELLIPSE
  5
3A9C
330
3A53
100
AcDbEntity
  8
0
100
AcDbEllipse
 10
22.5
 20
0.1668158657389902
 30
0.0
 11
2.5
 21
-0.0000000000000006
 31
0.0
210
0.0
220
0.0
230
1.0
 40
0.7071067811865472
 41
0.2563733270184496
 42
1.570796326794896
  0
SPLINE
  5
3A9D
330
3A53
100
AcDbEntity
  8
0
100
AcDbSpline
210
0.0
220
0.0
230
1.0
 70
     8
 71
     3
 72
     8
 73
     4
 74
     0
 42
0.000000001
 43
0.0000000001
 40
0.0
 40
0.0
 40
0.0
 40
0.0
 40
1.0
 40
1.0
 40
1.0
 40
1.0
 10
15.01056648600255
 20
0.0000000000000086
 30
0.0
 10
14.98390516356047
 20
0.0000000000000085
 30
0.0
 10
15.00810027697996
 20
0.235840940397016
 30
0.0
 10
15.08171008039234
 20
0.6150757595082589
 30
0.0
  0
LINE
  5
3A9E
330
3A53
100
AcDbEntity
  8
0
100
AcDbLine
 10
15.01056648600255
 20
0.1805170265382674
 30
0.0
 11
15.01056648600255
 21
0.0
 31
0.0
  0
LINE
  5
3A9F
330
3A53
100
AcDbEntity
  8
0
100
AcDbLine
 10
24.98943351399742
 20
0.1805170265382572
 30
0.0
 11
24.98943351399742
 21
0.0
 31
0.0
  0
SPLINE
  5
3AA0
330
3A53
100
AcDbEntity
  8
0
100
AcDbSpline
210
0.0
220
0.0
230
1.0
 70
     8
 71
     3
 72
     8
 73
     4
 74
     0
 42
0.000000001
 43
0.0000000001
 40
0.0
 40
0.0
 40
0.0
 40
0.0
 40
1.0
 40
1.0
 40
1.0
 40
1.0
 10
24.91828991960762
 20
0.6150757595082565
 30
0.0
 10
24.9918997230203
 20
0.2358409403969337
 30
0.0
 10
25.01609483643945
 20
0.0000000000000063
 30
0.0
 10
24.98943351399742
 20
0.0000000000000064
 30
0.0
  0
LINE
  5
3AA1
330
3A53
100
AcDbEntity
  8
0
100
AcDbLine
 10
22.5
 20
1.500000000000007
 30
0.0
 11
24.14171865077709
 21
1.500000000000006
 31
0.0
  0
LINE
  5
3AA2
330
3A53
100
AcDbEntity
  8
0
100
AcDbLine
 10
17.49999999999998
 20
1.500000000000007
 30
0.0
 11
22.5
 21
1.500000000000006
 31
0.0
  0
LINE
  5
3AA3
330
3A53
100
AcDbEntity
  8
0
100
AcDbLine
 10
15.85828134922287
 20
1.500000000000008
 30
0.0
 11
17.49999999999998
 21
1.500000000000008
 31
0.0
  0
LINE
  5
3AA4
330
3A53
100
AcDbEntity
  8
0
100
AcDbLine
 10
4.989433513812951
 20
0.0
 30
0.0
 11
2.499999999999973
 21
0.0
 31
0.0
  0
LINE
  5
3AA5
330
3A53
100
AcDbEntity
  8
0
100
AcDbLine
 10
2.499999999999972
 20
0.0
 30
0.0
 11
-2.500000000000017
 21
0.0
 31
0.0
  0
LINE
  5
3AA6
330
3A53
100
AcDbEntity
  8
0
100
AcDbLine
 10
-2.500000000000017
 20
0.0
 30
0.0
 11
-4.989433513812977
 21
0.0
 31
0.0
  0
SPLINE
  5
3AA7
330
3A53
100
AcDbEntity
  8
0
100
AcDbSpline
210
0.0
220
0.0
230
1.0
 70
     8
 71
     3
 72
     8
 73
     4
 74
     0
 42
0.000000001
 43
0.0000000001
 40
0.0
 40
0.0
 40
0.0
 40
0.0
 40
1.0
 40
1.0
 40
1.0
 40
1.0
 10
4.918289920131916
 20
0.615075759508261
 30
0.0
 10
4.991899723307118
 20
0.2358409403404128
 30
0.0
 10
5.016094836485431
 20
0.0000000000000107
 30
0.0
 10
4.989433513812953
 20
0.0000000000000108
 30
0.0
  0
SPLINE
  5
3AA8
330
3A53
100
AcDbEntity
  8
0
100
AcDbSpline
210
0.0
220
0.0
230
1.0
 70
     8
 71
     3
 72
     8
 73
     4
 74
     0
 42
0.000000001
 43
0.0000000001
 40
0.0
 40
0.0
 40
0.0
 40
0.0
 40
1.0
 40
1.0
 40
1.0
 40
1.0
 10
-4.989433513812974
 20
0.000000000000013
 30
0.0
 10
-5.016094836485387
 20
0.000000000000013
 30
0.0
 10
-4.99189972330746
 20
0.235840940340442
 30
0.0
 10
-4.918289920131929
 20
0.6150757595082633
 30
0.0
  0
ELLIPSE
  5
3AA9
330
3A53
100
AcDbEntity
  8
0
100
AcDbEllipse
 10
-2.500000000000017
 20
0.1668158671532076
 30
0.0
 11
-2.5
 21
0.0000000000000003
 31
0.0
210
0.0
220
0.0
230
1.0
 40
0.7071067811865475
 41
4.712388980384689
 42
6.026811980988167
  0
LINE
  5
3AAA
330
3A53
100
AcDbEntity
  8
0
100
AcDbLine
 10
-2.500000000000017
 20
1.934582820119572
 30
0.0
 11
2.499999999999973
 21
1.934582820119571
 31
0.0
  0
ELLIPSE
  5
3AAB
330
3A53
100
AcDbEntity
  8
0
100
AcDbEllipse
 10
2.49999999999999
 20
0.1668158671532059
 30
0.0
 11
2.5
 21
0.000000000000012
 31
0.0
210
0.0
220
0.0
230
1.0
 40
0.7071067811865474
 41
0.2563733261914081
 42
1.570796326794903
  0
LINE
  5
3AAC
330
3A53
100
AcDbEntity
  8
0
100
AcDbLine
 10
-4.989433513812977
 20
0.1805170296371419
 30
0.0
 11
-4.989433513812977
 21
0.0
 31
0.0
  0
LINE
  5
3AAD
330
3A53
100
AcDbEntity
  8
0
100
AcDbLine
 10
4.989433513812951
 20
0.1805170296372305
 30
0.0
 11
4.989433513812951
 21
0.0
 31
0.0
  0
LINE
  5
3AAE
330
3A53
100
AcDbEntity
  8
0
100
AcDbLine
 10
2.499999999999973
 20
1.500000000000011
 30
0.0
 11
4.141718653073963
 21
1.500000000000011
 31
0.0
  0
LINE
  5
3AAF
330
3A53
100
AcDbEntity
  8
0
100
AcDbLine
 10
-2.500000000000017
 20
1.500000000000012
 30
0.0
 11
2.499999999999973
 21
1.500000000000011
 31
0.0
  0
LINE
  5
3AB0
330
3A53
100
AcDbEntity
  8
0
100
AcDbLine
 10
-4.141718653073991
 20
1.500000000000013
 30
0.0
 11
-2.500000000000017
 21
1.500000000000012
 31
0.0
  0
LINE
  5
3AB1
330
3A53
100
AcDbEntity
  8
0
100
AcDbLine
 10
61.49999999999999
 20
2.099999999999976
 30
0.0
 11
61.5
 21
4.362741700911207
 31
0.0
  0
LINE
  5
3AB2
330
3A53
100
AcDbEntity
  8
0
100
AcDbLine
 10
-61.50000000000002
 20
4.36274170091131
 30
0.0
 11
-61.50000000000002
 21
2.100000000000004
 31
0.0
  0
LINE
  5
3AB3
330
3A53
100
AcDbEntity
  8
0
100
AcDbLine
 10
59.99999999999996
 20
82.00306627385996
 30
0.0
 11
61.49999999999995
 21
82.00306627385996
 31
0.0
  0
LINE
  5
3AB4
330
3A53
100
AcDbEntity
  8
0
100
AcDbLine
 10
-61.49999999999995
 20
82.00306627386
 30
0.0
 11
-59.99999999999996
 21
82.00306627386
 31
0.0
  0
LINE
  5
3AB5
330
3A53
100
AcDbEntity
  8
0
100
AcDbLine
 10
61.49999999999995
 20
56.26437943888952
 30
0.0
 11
61.50000000000002
 21
4.362741700911199
 31
0.0
  0
ELLIPSE
  5
3AB6
330
3A53
100
AcDbEntity
  8
0
100
AcDbEllipse
 10
59.39999999999997
 20
56.26437943888951
 30
0.0
 11
0.6000000000000089
 21
0.0000000000000257
 31
0.0
210
0.0
220
0.0
230
1.0
 40
0.7071067811865475
 41
4.712388980384688
 42
6.283185307179548
  0
ELLIPSE
  5
3AB7
330
3A53
100
AcDbEntity
  8
0
100
AcDbEllipse
 10
59.39999999999997
 20
56.26437943888955
 30
0.0
 11
2.100000000000081
 21
-0.0000000000000005
 31
0.0
210
0.0
220
0.0
230
1.0
 40
0.7071067811865426
 41
4.712388980384757
 42
6.283185307179706
  0
LINE
  5
3AB8
330
3A53
100
AcDbEntity
  8
0
100
AcDbLine
 10
-61.49999999999999
 20
4.362741700911308
 30
0.0
 11
-61.49999999999998
 21
56.26437943888955
 31
0.0
  0
ELLIPSE
  5
3AB9
330
3A53
100
AcDbEntity
  8
0
100
AcDbEllipse
 10
-59.39999999999999
 20
56.26437943888952
 30
0.0
 11
-2.100000000000031
 21
0.0000000000000095
 31
0.0
210
0.0
220
0.0
230
1.0
 40
0.7071067811866067
 41
0.0
 42
1.570796326794903
  0
ELLIPSE
  5
3ABA
330
3A53
100
AcDbEntity
  8
0
100
AcDbEllipse
 10
-59.39999999999999
 20
56.26437943888949
 30
0.0
 11
-0.5999999999999586
 21
0.0000000000000001
 31
0.0
210
0.0
220
0.0
230
1.0
 40
0.7071067811865234
 41
0.0000000000000003
 42
1.570796326794896
  0
ARC
  5
3ABB
330
3A53
100
AcDbEntity
  8
0
100
AcDbCircle
 10
59.39999999999998
 20
2.099999999999986
 30
0.0
 40
0.600000000000005
100
AcDbArc
 50
270.0
 51
343.4444348564557
  0
ARC
  5
3ABC
330
3A53
100
AcDbEntity
  8
0
100
AcDbCircle
 10
59.39999999999998
 20
2.099999999999986
 30
0.0
 40
2.100000000000008
100
AcDbArc
 50
343.3984504009799
 51
0.0
  0
ARC
  5
3ABD
330
3A53
100
AcDbEntity
  8
0
100
AcDbCircle
 10
-59.40000000000002
 20
2.100000000000012
 30
0.0
 40
0.5999999999999961
100
AcDbArc
 50
196.5555651435447
 51
269.9999999999992
  0
ARC
  5
3ABE
330
3A53
100
AcDbEntity
  8
0
100
AcDbCircle
 10
-59.40000000000002
 20
2.100000000000012
 30
0.0
 40
2.099999999999999
100
AcDbArc
 50
180.0
 51
196.6015495990197
  0
ENDBLK
  5
3A55
330
3A53
100
AcDbEntity
  8
0
100
AcDbBlockEnd
  0
BLOCK
  5
3AC0
330
3ABF
100
AcDbEntity
  8
0
100
AcDbBlockBegin
  2
SPR120_140-ISO
 70
     0
 10
0.0
 20
0.0
 30
0.0
  3
SPR120_140-ISO
  1

  0
LINE
  5
3AC2
330
3ABF
100
AcDbEntity
  8
0
100
AcDbLine
 10
100.4270114937889
 20
-55.32141794762259
 30
0.0
 11
96.89147758785621
 21
-57.3626593999419
 31
0.0
  0
LINE
  5
3AC3
330
3ABF
100
AcDbEntity
  8
0
100
AcDbLine
 10
101.4876716655688
 20
-54.70904551192679
 30
0.0
 11
100.4270114937889
 21
-55.32141794762259
 31
0.0
  0
LINE
  5
3AC4
330
3ABF
100
AcDbEntity
  8
0
100
AcDbLine
 10
100.4270114937889
 20
-1.432643606392653
 30
0.0
 11
101.4876716655687
 21
-0.8202711706968557
 31
0.0
  0
LINE
  5
3AC5
330
3ABF
100
AcDbEntity
  8
0
100
AcDbLine
 10
101.4876716655687
 20
-0.8202711706968557
 30
0.0
 11
97.95213775963601
 21
5.303453186261091
 31
0.0
  0
LINE
  5
3AC6
330
3ABF
100
AcDbEntity
  8
0
100
AcDbLine
 10
-41.03265658229909
 20
22.26787659094326
 30
0.0
 11
-44.56819048823184
 21
28.3916009479012
 31
0.0
  0
LINE
  5
3AC7
330
3ABF
100
AcDbEntity
  8
0
100
AcDbLine
 10
96.89147758785615
 20
4.691080750565292
 30
0.0
 11
100.4270114937889
 21
-1.432643606392653
 31
0.0
  0
LINE
  5
3AC8
330
3ABF
100
AcDbEntity
  8
0
100
AcDbLine
 10
97.95213775963601
 20
5.303453186261091
 30
0.0
 11
96.89147758785615
 21
4.691080750565292
 31
0.0
  0
LINE
  5
3AC9
330
3ABF
100
AcDbEntity
  8
0
100
AcDbLine
 10
101.4876716655687
 20
-0.8202711706968557
 30
0.0
 11
101.4876716655688
 21
-54.70904551192678
 31
0.0
  0
LINE
  5
3ACA
330
3ABF
100
AcDbEntity
  8
0
100
AcDbLine
 10
100.4270114937889
 20
-1.432643606392653
 30
0.0
 11
100.4270114937889
 21
-55.32141794762259
 31
0.0
  0
LINE
  5
3ACB
330
3ABF
100
AcDbEntity
  8
0
100
AcDbLine
 10
-15.55765654019416
 20
70.83836348092702
 30
0.0
 11
-10.96146246248158
 21
68.18474959291191
 31
0.0
  0
LINE
  5
3ACC
330
3ABF
100
AcDbEntity
  8
0
100
AcDbLine
 10
70.35581737397143
 20
21.23619618956767
 30
0.0
 11
97.95213775963601
 21
5.303453186261091
 31
0.0
  0
LINE
  5
3ACD
330
3ABF
100
AcDbEntity
  8
0
100
AcDbLine
 10
-44.56819048823184
 20
28.3916009479012
 30
0.0
 11
-44.56819048823184
 21
58.60197444222706
 31
0.0
  0
LINE
  5
3ACE
330
3ABF
100
AcDbEntity
  8
0
100
AcDbLine
 10
69.29515720219161
 20
20.62382375387187
 30
0.0
 11
96.89147758785615
 21
4.691080750565292
 31
0.0
  0
LINE
  5
3ACF
330
3ABF
100
AcDbEntity
  8
0
100
AcDbLine
 10
-12.0221226342614
 20
5.518637006708924
 30
0.0
 11
-41.03265658229909
 21
22.26787659094326
 31
0.0
  0
LINE
  5
3AD0
330
3ABF
100
AcDbEntity
  8
0
100
AcDbLine
 10
96.89147758785621
 20
-57.3626593999419
 30
0.0
 11
67.88094363981848
 21
-40.61341981570757
 31
0.0
  0
LINE
  5
3AD1
330
3ABF
100
AcDbEntity
  8
0
100
AcDbLine
 10
-16.61831671197397
 20
70.22599104523121
 30
0.0
 11
-12.0221226342614
 21
67.57237715721609
 31
0.0
  0
LINE
  5
3AD2
330
3ABF
100
AcDbEntity
  8
0
100
AcDbLine
 10
-10.96146246248158
 20
68.18474959291191
 30
0.0
 11
-12.0221226342614
 21
67.57237715721609
 31
0.0
  0
ELLIPSE
  5
3AD3
330
3ABF
100
AcDbEntity
  8
0
100
AcDbEllipse
 10
-12.0221226342614
 20
68.7971220286077
 30
0.0
 11
0.7500000000000004
 21
-1.299038105676658
 31
0.0
210
0.0
220
0.0
230
0.9999999999999998
 40
0.577350269189626
 41
5.497787143782135
 42
8.639379797371928
  0
ELLIPSE
  5
3AD4
330
3ABF
100
AcDbEntity
  8
0
100
AcDbEllipse
 10
64.34540973388576
 20
18.58258230155254
 30
0.0
 11
1.25
 21
-2.165063509461096
 31
0.0
210
0.0
220
0.0
230
1.0
 40
0.577350269189626
 41
4.999145532596253
 42
5.845036276595418
  0
ELLIPSE
  5
3AD5
330
3ABF
100
AcDbEntity
  8
0
100
AcDbEllipse
 10
63.28474956210592
 20
17.97020986585675
 30
0.0
 11
1.25
 21
-2.165063509461097
 31
0.0
210
0.0
220
0.0
230
1.0
 40
0.5773502691896259
 41
4.999145532596258
 42
7.567225081762924
  0
ELLIPSE
  5
3AD6
330
3ABF
100
AcDbEntity
  8
0
100
AcDbEllipse
 10
64.34540973388576
 20
-14.0772809355565
 30
0.0
 11
1.250000000000129
 21
-2.165063509461021
 31
0.0
210
0.0
220
0.0
230
1.0
 40
0.577350269189626
 41
3.579741684173548
 42
5.845036276594997
  0
ELLIPSE
  5
3AD7
330
3ABF
100
AcDbEntity
  8
0
100
AcDbEllipse
 10
63.28474956210592
 20
-14.68965337125229
 30
0.0
 11
1.25
 21
-2.165063509461096
 31
0.0
210
0.0
220
0.0
230
1.0
 40
0.577350269189626
 41
0.0
 42
6.283185307179586
  0
ELLIPSE
  5
3AD8
330
3ABF
100
AcDbEntity
  8
0
100
AcDbEllipse
 10
57.27434192202027
 20
71.65486006185474
 30
0.0
 11
1.25000000000013
 21
-2.165063509461022
 31
0.0
210
0.0
220
0.0
230
1.0
 40
0.577350269189626
 41
3.579741684173544
 42
5.845036276594997
  0
ELLIPSE
  5
3AD9
330
3ABF
100
AcDbEntity
  8
0
100
AcDbEllipse
 10
57.27434192202027
 20
6.335133587636647
 30
0.0
 11
1.25000000000013
 21
-2.165063509461022
 31
0.0
210
0.0
220
0.0
230
1.0
 40
0.577350269189626
 41
3.579741684173546
 42
5.845036276594997
  0
ELLIPSE
  5
3ADA
330
3ABF
100
AcDbEntity
  8
0
100
AcDbEllipse
 10
56.21368175024045
 20
71.04248762615894
 30
0.0
 11
1.25
 21
-2.165063509461096
 31
0.0
210
0.0
220
0.0
230
1.0
 40
0.577350269189626
 41
0.0
 42
6.283185307179586
  0
ELLIPSE
  5
3ADB
330
3ABF
100
AcDbEntity
  8
0
100
AcDbEllipse
 10
56.21368175024045
 20
5.722761151940849
 30
0.0
 11
1.25
 21
-2.165063509461096
 31
0.0
210
0.0
220
0.0
230
1.0
 40
0.577350269189626
 41
0.0
 42
6.283185307179586
  0
ELLIPSE
  5
3ADC
330
3ABF
100
AcDbEntity
  8
0
100
AcDbEllipse
 10
57.27434192202027
 20
-26.3247296494724
 30
0.0
 11
1.250000000000129
 21
-2.165063509461021
 31
0.0
210
0.0
220
0.0
230
1.0
 40
0.577350269189626
 41
3.579741684173548
 42
5.845036276594997
  0
ELLIPSE
  5
3ADD
330
3ABF
100
AcDbEntity
  8
0
100
AcDbEllipse
 10
56.21368175024045
 20
-26.93710208516819
 30
0.0
 11
1.25
 21
-2.165063509461096
 31
0.0
210
0.0
220
0.0
230
1.0
 40
0.577350269189626
 41
0.0
 42
6.283185307179586
  0
ELLIPSE
  5
3ADE
330
3ABF
100
AcDbEntity
  8
0
100
AcDbEllipse
 10
0.705799427096463
 20
87.98479168040925
 30
0.0
 11
1.250000000000129
 21
-2.165063509461022
 31
0.0
210
0.0
220
0.0
230
1.0
 40
0.577350269189626
 41
3.579741684173546
 42
5.845036276594999
  0
ELLIPSE
  5
3ADF
330
3ABF
100
AcDbEntity
  8
0
100
AcDbEllipse
 10
0.705799427096463
 20
55.32492844330021
 30
0.0
 11
1.250000000000129
 21
-2.165063509461022
 31
0.0
210
0.0
220
0.0
230
1.0
 40
0.577350269189626
 41
3.579741684173546
 42
5.845036276594997
  0
ELLIPSE
  5
3AE0
330
3ABF
100
AcDbEntity
  8
0
100
AcDbEllipse
 10
-0.3548607446833607
 20
87.37241924471346
 30
0.0
 11
1.25
 21
-2.165063509461096
 31
0.0
210
0.0
220
0.0
230
1.0
 40
0.577350269189626
 41
0.0
 42
6.283185307179586
  0
ELLIPSE
  5
3AE1
330
3ABF
100
AcDbEntity
  8
0
100
AcDbEllipse
 10
-0.3548607446833607
 20
54.71255600760442
 30
0.0
 11
1.25
 21
-2.165063509461096
 31
0.0
210
0.0
220
0.0
230
1.0
 40
0.577350269189626
 41
0.0
 42
6.283185307179586
  0
ELLIPSE
  5
3AE2
330
3ABF
100
AcDbEntity
  8
0
100
AcDbEllipse
 10
0.705799427096463
 20
22.66506520619117
 30
0.0
 11
1.250000000000129
 21
-2.165063509461021
 31
0.0
210
0.0
220
0.0
230
1.0
 40
0.577350269189626
 41
3.579741684173548
 42
5.845036276594996
  0
ELLIPSE
  5
3AE3
330
3ABF
100
AcDbEntity
  8
0
100
AcDbEllipse
 10
-0.3548607446833607
 20
22.05269277049538
 30
0.0
 11
1.25
 21
-2.165063509461096
 31
0.0
210
0.0
220
0.0
230
1.0
 40
0.577350269189626
 41
0.0
 42
6.283185307179586
  0
ELLIPSE
  5
3AE4
330
3ABF
100
AcDbEntity
  8
0
100
AcDbEllipse
 10
-6.36526838476902
 20
108.3972062036024
 30
0.0
 11
1.250000000000129
 21
-2.165063509461022
 31
0.0
210
0.0
220
0.0
230
1.0
 40
0.577350269189626
 41
3.579741684173546
 42
5.845036276595003
  0
ELLIPSE
  5
3AE5
330
3ABF
100
AcDbEntity
  8
0
100
AcDbEllipse
 10
-6.36526838476902
 20
75.73734296649336
 30
0.0
 11
1.250000000000129
 21
-2.165063509461022
 31
0.0
210
0.0
220
0.0
230
1.0
 40
0.577350269189626
 41
3.579741684173546
 42
5.845036276595003
  0
ELLIPSE
  5
3AE6
330
3ABF
100
AcDbEntity
  8
0
100
AcDbEllipse
 10
-6.36526838476902
 20
43.07747972938432
 30
0.0
 11
1.250000000000129
 21
-2.165063509461022
 31
0.0
210
0.0
220
0.0
230
1.0
 40
0.577350269189626
 41
3.579741684173546
 42
5.845036276594998
  0
ELLIPSE
  5
3AE7
330
3ABF
100
AcDbEntity
  8
0
100
AcDbEllipse
 10
-7.425928556548844
 20
107.7848337679066
 30
0.0
 11
1.25
 21
-2.165063509461096
 31
0.0
210
0.0
220
0.0
230
1.0
 40
0.577350269189626
 41
0.0
 42
6.283185307179586
  0
ELLIPSE
  5
3AE8
330
3ABF
100
AcDbEntity
  8
0
100
AcDbEllipse
 10
-7.425928556548844
 20
75.12497053079757
 30
0.0
 11
1.25
 21
-2.165063509461096
 31
0.0
210
0.0
220
0.0
230
1.0
 40
0.577350269189626
 41
0.0
 42
6.283185307179586
  0
ELLIPSE
  5
3AE9
330
3ABF
100
AcDbEntity
  8
0
100
AcDbEllipse
 10
-7.425928556548844
 20
42.46510729368853
 30
0.0
 11
1.25
 21
-2.165063509461096
 31
0.0
210
0.0
220
0.0
230
1.0
 40
0.577350269189626
 41
0.0
 42
6.283185307179586
  0
ELLIPSE
  5
3AEA
330
3ABF
100
AcDbEntity
  8
0
100
AcDbEllipse
 10
-6.36526838476902
 20
10.41761649227528
 30
0.0
 11
1.250000000000129
 21
-2.165063509461021
 31
0.0
210
0.0
220
0.0
230
1.0
 40
0.577350269189626
 41
3.579741684173546
 42
5.845036276594997
  0
ELLIPSE
  5
3AEB
330
3ABF
100
AcDbEntity
  8
0
100
AcDbEllipse
 10
-7.425928556548844
 20
9.805244056579486
 30
0.0
 11
1.25
 21
-2.165063509461096
 31
0.0
210
0.0
220
0.0
230
1.0
 40
0.577350269189626
 41
0.0
 42
6.283185307179586
  0
ELLIPSE
  5
3AEC
330
3ABF
100
AcDbEntity
  8
0
100
AcDbEllipse
 10
-22.64788027144886
 20
68.80818170382363
 30
0.0
 11
1.25
 21
-2.165063509461095
 31
0.0
210
0.0
220
0.0
230
1.0
 40
0.577350269189626
 41
5.508682942395998
 42
5.845036276595417
  0
ELLIPSE
  5
3AED
330
3ABF
100
AcDbEntity
  8
0
100
AcDbEllipse
 10
76.38538093344625
 20
11.63130168845094
 30
0.0
 11
1.250000000000129
 21
-2.165063509461022
 31
0.0
210
0.0
220
0.0
230
1.0
 40
0.577350269189626
 41
3.579741684173548
 42
5.845036276594998
  0
ELLIPSE
  5
3AEE
330
3ABF
100
AcDbEntity
  8
0
100
AcDbEllipse
 10
-23.70854044322868
 20
68.19580926812784
 30
0.0
 11
1.25
 21
-2.165063509461096
 31
0.0
210
0.0
220
0.0
230
1.0
 40
0.5773502691896259
 41
5.508682942395996
 42
7.057687671963172
  0
ELLIPSE
  5
3AEF
330
3ABF
100
AcDbEntity
  8
0
100
AcDbEllipse
 10
75.32472076166644
 20
11.01892925275514
 30
0.0
 11
1.25
 21
-2.165063509461096
 31
0.0
210
0.0
220
0.0
230
1.0
 40
0.577350269189626
 41
0.0
 42
6.283185307179586
  0
ELLIPSE
  5
3AF0
330
3ABF
100
AcDbEntity
  8
0
100
AcDbEllipse
 10
-18.40523958432956
 20
33.69882872393143
 30
0.0
 11
1.250000000000129
 21
-2.165063509461021
 31
0.0
210
0.0
220
0.0
230
1.0
 40
0.577350269189626
 41
3.579741684173548
 42
5.845036276594997
  0
ELLIPSE
  5
3AF1
330
3ABF
100
AcDbEntity
  8
0
100
AcDbEllipse
 10
80.62802162056556
 20
-23.47805129144127
 30
0.0
 11
1.250000000000129
 21
-2.165063509461021
 31
0.0
210
0.0
220
0.0
230
1.0
 40
0.577350269189626
 41
3.579741684173548
 42
5.845036276594997
  0
ELLIPSE
  5
3AF2
330
3ABF
100
AcDbEntity
  8
0
100
AcDbEllipse
 10
-19.46589975610938
 20
33.08645628823563
 30
0.0
 11
1.25
 21
-2.165063509461096
 31
0.0
210
0.0
220
0.0
230
1.0
 40
0.577350269189626
 41
0.0
 42
6.283185307179586
  0
ELLIPSE
  5
3AF3
330
3ABF
100
AcDbEntity
  8
0
100
AcDbEllipse
 10
79.56736144878575
 20
-24.09042372713707
 30
0.0
 11
1.25
 21
-2.165063509461096
 31
0.0
210
0.0
220
0.0
230
1.0
 40
0.577350269189626
 41
0.0
 42
6.283185307179586
  0
ELLIPSE
  5
3AF4
330
3ABF
100
AcDbEntity
  8
0
100
AcDbEllipse
 10
59.04210887498665
 20
-35.51031618490929
 30
0.0
 11
1.250000000000129
 21
-2.165063509461021
 31
0.0
210
0.0
220
0.0
230
1.0
 40
0.577350269189626
 41
3.579741684173548
 42
3.835017178248603
  0
ELLIPSE
  5
3AF5
330
3ABF
100
AcDbEntity
  8
0
100
AcDbEllipse
 10
-1.061967525869906
 20
-0.8092114954809371
 30
0.0
 11
1.250000000000129
 21
-2.165063509461021
 31
0.0
210
0.0
220
0.0
230
1.0
 40
0.577350269189626
 41
3.579741684173548
 42
3.835017178248603
  0
SPLINE
  5
3AF6
330
3ABF
100
AcDbEntity
  8
0
100
AcDbSpline
210
0.0
220
0.0
230
1.0
 70
     8
 71
     3
 72
     8
 73
     4
 74
     0
 42
0.000000001
 43
0.0000000001
 40
-1.0
 40
-1.0
 40
-1.0
 40
-1.0
 40
0.0
 40
0.0
 40
0.0
 40
0.0
 10
-0.3623323785890964
 20
-2.250415079027361
 30
0.0
 10
-0.3434799766948693
 20
-2.390095316609912
 30
0.0
 10
-0.4082355706754726
 20
-2.536871416891568
 30
0.0
 10
-0.5369025653320314
 20
-2.639524883275483
 30
0.0
  0
ELLIPSE
  5
3AF7
330
3ABF
100
AcDbEntity
  8
0
100
AcDbEllipse
 10
-1.929924155743436
 20
-1.103258151805202
 30
0.0
 11
-1.249999999999999
 21
-2.165063509461097
 31
0.0
210
0.0
220
0.0
230
0.9999999999999998
 40
0.8164965809277262
 41
4.968762307403137
 42
7.597608306956033
  0
ELLIPSE
  5
3AF8
330
3ABF
100
AcDbEntity
  8
0
100
AcDbEllipse
 10
58.17415224511312
 20
-35.80436284123356
 30
0.0
 11
-1.249999999999999
 21
-2.165063509461097
 31
0.0
210
0.0
220
0.0
230
1.0
 40
0.8164965809277262
 41
4.968762307403139
 42
7.597608306956034
  0
SPLINE
  5
3AF9
330
3ABF
100
AcDbEntity
  8
0
100
AcDbSpline
210
0.0
220
0.0
230
1.0
 70
     8
 71
     3
 72
     8
 73
     4
 74
     0
 42
0.000000001
 43
0.0000000001
 40
-1.0
 40
-1.0
 40
-1.0
 40
-1.0
 40
0.0
 40
0.0
 40
0.0
 40
0.0
 10
56.14719543346527
 20
-35.36610412165221
 30
0.0
 10
56.17176244581209
 20
-35.20334850245917
 30
0.0
 10
56.20230098225206
 20
-35.03681717479552
 30
0.0
 10
56.22115338414619
 20
-34.91890581582993
 30
0.0
  0
ELLIPSE
  5
3AFA
330
3ABF
100
AcDbEntity
  8
0
100
AcDbEllipse
 10
-1.179924155743448
 20
-1.536270853697416
 30
0.0
 11
-1.25
 21
-2.165063509461097
 31
0.0
210
0.0
220
0.0
230
1.0
 40
0.816496580927726
 41
4.968762307403139
 42
6.069429174707155
  0
LINE
  5
3AFB
330
3ABF
100
AcDbEntity
  8
0
100
AcDbLine
 10
-3.206880967391287
 20
-1.098012134116086
 30
0.0
 11
-3.707130967289891
 21
-0.809192662012521
 31
0.0
  0
LINE
  5
3AFC
330
3ABF
100
AcDbEntity
  8
0
100
AcDbLine
 10
-3.707130967289891
 20
-0.809192662012521
 30
0.0
 11
-3.956880967391285
 21
-0.6649994322238673
 31
0.0
  0
LINE
  5
3AFD
330
3ABF
100
AcDbEntity
  8
0
100
AcDbLine
 10
-3.882923016710373
 20
-0.2178011264015711
 30
0.0
 11
-3.529723179114894
 21
-0.0138811050880894
 31
0.0
  0
SPLINE
  5
3AFE
330
3ABF
100
AcDbEntity
  8
0
100
AcDbSpline
210
0.0
220
0.0
230
1.0
 70
     8
 71
     3
 72
     8
 73
     4
 74
     0
 42
0.000000001
 43
0.0000000001
 40
-1.0
 40
-1.0
 40
-1.0
 40
-1.0
 40
0.0
 40
0.0
 40
0.0
 40
0.0
 10
-3.956880967391298
 20
-0.6649994322238651
 30
0.0
 10
-3.932313955044555
 20
-0.5022438130307894
 30
0.0
 10
-3.901775418604658
 20
-0.3357124853670834
 30
0.0
 10
-3.88292301671036
 20
-0.2178011264015756
 30
0.0
  0
SPLINE
  5
3AFF
330
3ABF
100
AcDbEntity
  8
0
100
AcDbSpline
210
0.0
220
0.0
230
1.0
 70
     8
 71
     3
 72
     8
 73
     4
 74
     0
 42
0.000000001
 43
0.0000000001
 40
0.0
 40
0.0
 40
0.0
 40
0.0
 40
1.0
 40
1.0
 40
1.0
 40
1.0
 10
-2.82226284493054
 20
0.3945713092942204
 30
0.0
 10
-2.841115246824839
 20
-0.0453295453564096
 30
0.0
 10
-2.990771446290505
 20
-0.6034951579517922
 30
0.0
 10
-3.206880967391296
 20
-1.098012134116086
 30
0.0
  0
LINE
  5
3B00
330
3ABF
100
AcDbEntity
  8
0
100
AcDbLine
 10
-3.529723179114894
 20
-0.0138811050880894
 30
0.0
 11
-2.822262844930549
 21
0.3945713092942227
 31
0.0
  0
ELLIPSE
  5
3B01
330
3ABF
100
AcDbEntity
  8
0
100
AcDbEllipse
 10
-2.12262769764973
 20
-1.421583931176733
 30
0.0
 11
-1.25
 21
2.165063509461095
 31
0.0
210
0.0
220
0.0
230
1.0
 40
0.577350269189626
 41
4.018964455725524
 42
6.976609831838751
  0
ELLIPSE
  5
3B02
330
3ABF
100
AcDbEntity
  8
0
100
AcDbEllipse
 10
58.9241522451131
 20
-36.23737554312576
 30
0.0
 11
-1.25
 21
-2.165063509461097
 31
0.0
210
0.0
220
0.0
230
1.0
 40
0.816496580927726
 41
4.968762307403139
 42
6.069429174707155
  0
LINE
  5
3B03
330
3ABF
100
AcDbEntity
  8
0
100
AcDbLine
 10
56.89719543346527
 20
-35.79911682354444
 30
0.0
 11
56.39694543356589
 21
-35.51029735144042
 31
0.0
  0
LINE
  5
3B04
330
3ABF
100
AcDbEntity
  8
0
100
AcDbLine
 10
56.39694543356589
 20
-35.51029735144042
 30
0.0
 11
56.14719543346527
 21
-35.36610412165221
 31
0.0
  0
LINE
  5
3B05
330
3ABF
100
AcDbEntity
  8
0
100
AcDbLine
 10
56.22115338414619
 20
-34.91890581582993
 30
0.0
 11
56.57435322173113
 21
-34.71498579452253
 31
0.0
  0
SPLINE
  5
3B06
330
3ABF
100
AcDbEntity
  8
0
100
AcDbSpline
210
0.0
220
0.0
230
1.0
 70
     8
 71
     3
 72
     8
 73
     4
 74
     0
 42
0.000000001
 43
0.0000000001
 40
0.0
 40
0.0
 40
0.0
 40
0.0
 40
1.0
 40
1.0
 40
1.0
 40
1.0
 10
57.281813555926
 20
-34.30653338013413
 30
0.0
 10
57.26296115403187
 20
-34.74643423478483
 30
0.0
 10
57.11330495456615
 20
-35.30459984738016
 30
0.0
 10
56.89719543346527
 20
-35.79911682354444
 30
0.0
  0
LINE
  5
3B07
330
3ABF
100
AcDbEntity
  8
0
100
AcDbLine
 10
56.57435322173113
 20
-34.71498579452253
 30
0.0
 11
57.281813555926
 21
-34.30653338013413
 31
0.0
  0
SPLINE
  5
3B08
330
3ABF
100
AcDbEntity
  8
0
100
AcDbSpline
210
0.0
220
0.0
230
1.0
 70
     8
 71
     3
 72
     8
 73
     4
 74
     0
 42
0.000000001
 43
0.0000000001
 40
-1.0
 40
-1.0
 40
-1.0
 40
-1.0
 40
0.0
 40
0.0
 40
0.0
 40
0.0
 10
59.74174402226747
 20
-36.95151976845572
 30
0.0
 10
59.76059642416146
 20
-37.09120000603812
 30
0.0
 10
59.69584083018109
 20
-37.23797610631991
 30
0.0
 10
59.56717383552453
 20
-37.34062957270384
 30
0.0
  0
ELLIPSE
  5
3B09
330
3ABF
100
AcDbEntity
  8
0
100
AcDbEllipse
 10
57.98144870320683
 20
-36.12268862060509
 30
0.0
 11
-1.25
 21
2.165063509461096
 31
0.0
210
0.0
220
0.0
230
1.0
 40
0.577350269189626
 41
4.018964455725523
 42
6.976609831838752
  0
ELLIPSE
  5
3B0A
330
3ABF
100
AcDbEntity
  8
0
100
AcDbEllipse
 10
41.36443934532294
 20
-25.30410892331271
 30
0.0
 11
1.250000000000129
 21
-2.165063509461021
 31
0.0
210
0.0
220
0.0
230
1.0
 40
0.577350269189626
 41
3.579741684173544
 42
3.8350171782486
  0
ELLIPSE
  5
3B0B
330
3ABF
100
AcDbEntity
  8
0
100
AcDbEllipse
 10
13.08016809786104
 20
-8.974177304758194
 30
0.0
 11
1.250000000000129
 21
-2.165063509461021
 31
0.0
210
0.0
220
0.0
230
1.0
 40
0.577350269189626
 41
3.579741684173548
 42
3.835017178248603
  0
ELLIPSE
  5
3B0C
330
3ABF
100
AcDbEntity
  8
0
100
AcDbEllipse
 10
12.9622114679875
 20
-9.701236662974672
 30
0.0
 11
-1.25
 21
-2.165063509461097
 31
0.0
210
0.0
220
0.0
230
1.0
 40
0.8164965809277259
 41
4.968762307403139
 42
6.283185307179586
  0
LINE
  5
3B0D
330
3ABF
100
AcDbEntity
  8
0
100
AcDbLine
 10
10.93525465633966
 20
-9.262977943393343
 30
0.0
 11
10.43500465644111
 21
-8.974158471289806
 31
0.0
  0
LINE
  5
3B0E
330
3ABF
100
AcDbEntity
  8
0
100
AcDbLine
 10
10.43500465644111
 20
-8.974158471289806
 30
0.0
 11
10.18525465633966
 21
-8.829965241501124
 31
0.0
  0
ELLIPSE
  5
3B0F
330
3ABF
100
AcDbEntity
  8
0
100
AcDbEllipse
 10
12.21221146798751
 20
-9.26822396108246
 30
0.0
 11
-1.249999999999999
 21
-2.165063509461097
 31
0.0
210
0.0
220
0.0
230
1.0
 40
0.816496580927726
 41
4.968762307403137
 42
6.283185307179586
  0
LINE
  5
3B10
330
3ABF
100
AcDbEntity
  8
0
100
AcDbLine
 10
14.49774537392025
 20
-13.47452892286287
 30
0.0
 11
10.96221146798751
 21
-11.43328747054356
 31
0.0
  0
ELLIPSE
  5
3B11
330
3ABF
100
AcDbEntity
  8
0
100
AcDbEllipse
 10
15.74774537392025
 20
-11.30946541340178
 30
0.0
 11
-1.249999999999999
 21
-2.165063509461097
 31
0.0
210
0.0
220
0.0
230
0.9999999999999998
 40
0.8164965809277262
 41
0.0
 42
1.314422999776447
  0
LINE
  5
3B12
330
3ABF
100
AcDbEntity
  8
0
100
AcDbLine
 10
10.25921260702058
 20
-8.38276693567883
 30
0.0
 11
10.61241244460353
 21
-8.178846914372583
 31
0.0
  0
SPLINE
  5
3B13
330
3ABF
100
AcDbEntity
  8
0
100
AcDbSpline
210
0.0
220
0.0
230
1.0
 70
     8
 71
     3
 72
     8
 73
     4
 74
     0
 42
0.000000001
 43
0.0000000001
 40
-1.0
 40
-1.0
 40
-1.0
 40
-1.0
 40
0.0
 40
0.0
 40
0.0
 40
0.0
 10
10.18525465633966
 20
-8.829965241501124
 30
0.0
 10
10.2098216686864
 20
-8.667209622308044
 30
0.0
 10
10.24036020512648
 20
-8.500678294644419
 30
0.0
 10
10.25921260702058
 20
-8.382766935678828
 30
0.0
  0
SPLINE
  5
3B14
330
3ABF
100
AcDbEntity
  8
0
100
AcDbSpline
210
0.0
220
0.0
230
1.0
 70
     8
 71
     3
 72
     8
 73
     4
 74
     0
 42
0.000000001
 43
0.0000000001
 40
0.0
 40
0.0
 40
0.0
 40
0.0
 40
1.0
 40
1.0
 40
1.0
 40
1.0
 10
11.3198727788004
 20
-7.770394499983033
 30
0.0
 10
11.3010203769063
 20
-8.21029535463367
 30
0.0
 10
11.15136417744045
 20
-8.768460967229037
 30
0.0
 10
10.93525465633966
 20
-9.262977943393343
 30
0.0
  0
LINE
  5
3B15
330
3ABF
100
AcDbEntity
  8
0
100
AcDbLine
 10
10.61241244460353
 20
-8.178846914372583
 30
0.0
 11
11.3198727788004
 21
-7.770394499983033
 31
0.0
  0
SPLINE
  5
3B16
330
3ABF
100
AcDbEntity
  8
0
100
AcDbSpline
210
0.0
220
0.0
230
1.0
 70
     8
 71
     3
 72
     8
 73
     4
 74
     0
 42
0.000000001
 43
0.0000000001
 40
-1.0
 40
-1.0
 40
-1.0
 40
-1.0
 40
0.0
 40
0.0
 40
0.0
 40
0.0
 10
17.3153371510746
 20
-12.45662234062393
 30
0.0
 10
17.33418955296858
 20
-12.59630257820634
 30
0.0
 10
17.26943395898811
 20
-12.74307867848817
 30
0.0
 10
17.14076696433165
 20
-12.84573214487205
 30
0.0
  0
ELLIPSE
  5
3B17
330
3ABF
100
AcDbEntity
  8
0
100
AcDbEllipse
 10
15.55504183201396
 20
-11.6277911927733
 30
0.0
 11
1.24999999999987
 21
-2.16506350946117
 31
0.0
210
0.0
220
0.0
230
0.9999999999999998
 40
0.5773502691896261
 41
0.8773718021359488
 42
2.356194490192587
  0
LINE
  5
3B18
330
3ABF
100
AcDbEntity
  8
0
100
AcDbLine
 10
12.01950792608122
 20
-7.545308288134677
 30
0.0
 11
15.55504183201396
 21
-9.586549740453992
 31
0.0
  0
ELLIPSE
  5
3B19
330
3ABF
100
AcDbEntity
  8
0
100
AcDbEllipse
 10
12.01950792608122
 20
-9.586549740453991
 30
0.0
 11
-1.25
 21
2.165063509461095
 31
0.0
210
0.0
220
0.0
230
1.0
 40
0.5773502691896261
 41
5.497787143782137
 42
6.976609831838751
  0
ELLIPSE
  5
3B1A
330
3ABF
100
AcDbEntity
  8
0
100
AcDbEllipse
 10
41.2464827154494
 20
-26.03116828152919
 30
0.0
 11
-1.249999999999999
 21
-2.165063509461097
 31
0.0
210
0.0
220
0.0
230
1.0
 40
0.816496580927726
 41
4.968762307403139
 42
6.283185307179586
  0
LINE
  5
3B1B
330
3ABF
100
AcDbEntity
  8
0
100
AcDbLine
 10
39.21952590380158
 20
-25.59290956194786
 30
0.0
 11
38.71927590390127
 21
-25.30409008984332
 31
0.0
  0
LINE
  5
3B1C
330
3ABF
100
AcDbEntity
  8
0
100
AcDbLine
 10
38.71927590390127
 20
-25.30409008984332
 30
0.0
 11
38.46952590380157
 21
-25.15989686005564
 31
0.0
  0
ELLIPSE
  5
3B1D
330
3ABF
100
AcDbEntity
  8
0
100
AcDbEllipse
 10
40.49648271544942
 20
-25.59815557963698
 30
0.0
 11
-1.249999999999999
 21
-2.165063509461097
 31
0.0
210
0.0
220
0.0
230
1.0
 40
0.816496580927726
 41
4.968762307403139
 42
6.283185307179586
  0
LINE
  5
3B1E
330
3ABF
100
AcDbEntity
  8
0
100
AcDbLine
 10
42.78201662138217
 20
-29.8044605414174
 30
0.0
 11
39.24648271544942
 21
-27.76321908909807
 31
0.0
  0
ELLIPSE
  5
3B1F
330
3ABF
100
AcDbEntity
  8
0
100
AcDbEllipse
 10
44.03201662138217
 20
-27.63939703195629
 30
0.0
 11
-1.249999999999999
 21
-2.165063509461097
 31
0.0
210
0.0
220
0.0
230
1.0
 40
0.816496580927726
 41
0.0
 42
1.314422999776448
  0
LINE
  5
3B20
330
3ABF
100
AcDbEntity
  8
0
100
AcDbLine
 10
38.54348385448249
 20
-24.71269855423335
 30
0.0
 11
38.89668369206983
 21
-24.50877853292457
 31
0.0
  0
SPLINE
  5
3B21
330
3ABF
100
AcDbEntity
  8
0
100
AcDbSpline
210
0.0
220
0.0
230
1.0
 70
     8
 71
     3
 72
     8
 73
     4
 74
     0
 42
0.000000001
 43
0.0000000001
 40
-1.0
 40
-1.0
 40
-1.0
 40
-1.0
 40
0.0
 40
0.0
 40
0.0
 40
0.0
 10
38.46952590380157
 20
-25.15989686005564
 30
0.0
 10
38.49409291614847
 20
-24.99714124086269
 30
0.0
 10
38.5246314525883
 20
-24.8306099131989
 30
0.0
 10
38.54348385448249
 20
-24.71269855423334
 30
0.0
  0
SPLINE
  5
3B22
330
3ABF
100
AcDbEntity
  8
0
100
AcDbSpline
210
0.0
220
0.0
230
1.0
 70
     8
 71
     3
 72
     8
 73
     4
 74
     0
 42
0.000000001
 43
0.0000000001
 40
0.0
 40
0.0
 40
0.0
 40
0.0
 40
1.0
 40
1.0
 40
1.0
 40
1.0
 10
39.60414402626231
 20
-24.10032611853755
 30
0.0
 10
39.58529162436812
 20
-24.54022697318821
 30
0.0
 10
39.43563542490247
 20
-25.09839258578376
 30
0.0
 10
39.21952590380157
 20
-25.59290956194786
 30
0.0
  0
LINE
  5
3B23
330
3ABF
100
AcDbEntity
  8
0
100
AcDbLine
 10
38.89668369206983
 20
-24.50877853292457
 30
0.0
 11
39.60414402626231
 21
-24.10032611853755
 31
0.0
  0
SPLINE
  5
3B24
330
3ABF
100
AcDbEntity
  8
0
100
AcDbSpline
210
0.0
220
0.0
230
1.0
 70
     8
 71
     3
 72
     8
 73
     4
 74
     0
 42
0.000000001
 43
0.0000000001
 40
-1.0
 40
-1.0
 40
-1.0
 40
-1.0
 40
0.0
 40
0.0
 40
0.0
 40
0.0
 10
45.5996083985365
 20
-28.78655395917846
 30
0.0
 10
45.61846080043067
 20
-28.92623419676095
 30
0.0
 10
45.5537052064501
 20
-29.07301029704269
 30
0.0
 10
45.42503821179358
 20
-29.17566376342657
 30
0.0
  0
ELLIPSE
  5
3B25
330
3ABF
100
AcDbEntity
  8
0
100
AcDbEllipse
 10
43.83931307947587
 20
-27.95772281132783
 30
0.0
 11
1.24999999999987
 21
-2.16506350946117
 31
0.0
210
0.0
220
0.0
230
0.9999999999999998
 40
0.5773502691896261
 41
0.8773718021359471
 42
2.356194490192587
  0
LINE
  5
3B26
330
3ABF
100
AcDbEntity
  8
0
100
AcDbLine
 10
40.30377917354313
 20
-23.87523990668919
 30
0.0
 11
43.83931307947587
 21
-25.91648135900851
 31
0.0
  0
ELLIPSE
  5
3B27
330
3ABF
100
AcDbEntity
  8
0
100
AcDbEllipse
 10
40.30377917354313
 20
-25.91648135900851
 30
0.0
 11
-1.25
 21
2.165063509461096
 31
0.0
210
0.0
220
0.0
230
0.9999999999999998
 40
0.5773502691896261
 41
5.497787143782137
 42
6.976609831838752
  0
ELLIPSE
  5
3B28
330
3ABF
100
AcDbEntity
  8
0
100
AcDbEllipse
 10
27.222303721592
 20
-17.13914311566844
 30
0.0
 11
1.25000000000013
 21
-2.165063509461021
 31
0.0
210
0.0
220
0.0
230
1.0
 40
0.577350269189626
 41
3.579741684173546
 42
3.835017177445208
  0
SPLINE
  5
3B29
330
3ABF
100
AcDbEntity
  8
0
100
AcDbSpline
210
0.0
220
0.0
230
1.0
 70
     8
 71
     3
 72
     8
 73
     4
 74
     0
 42
0.000000001
 43
0.0000000001
 40
-1.0
 40
-1.0
 40
-1.0
 40
-1.0
 40
0.0
 40
0.0
 40
0.0
 40
0.0
 10
24.3273902796999
 20
-16.99493105056435
 30
0.0
 10
24.3519572922257
 20
-16.83217543144829
 30
0.0
 10
24.38249582882491
 20
-16.66564410388464
 30
0.0
 10
24.40134823088198
 20
-16.5477327450314
 30
0.0
  0
ELLIPSE
  5
3B2A
330
3ABF
100
AcDbEntity
  8
0
100
AcDbEllipse
 10
29.88988099665121
 20
-19.47443122441109
 30
0.0
 11
-1.25
 21
-2.165063509461097
 31
0.0
210
0.0
220
0.0
230
1.0
 40
0.816496580927726
 41
0.0
 42
1.314423000603477
  0
LINE
  5
3B2B
330
3ABF
100
AcDbEntity
  8
0
100
AcDbLine
 10
28.6398809966512
 20
-21.63949473387219
 30
0.0
 11
25.10434709071847
 21
-19.59825328155288
 31
0.0
  0
ELLIPSE
  5
3B2C
330
3ABF
100
AcDbEntity
  8
0
100
AcDbEllipse
 10
26.35434709071847
 20
-17.43318977209177
 30
0.0
 11
-1.249999999999999
 21
-2.165063509461097
 31
0.0
210
0.0
220
0.0
230
0.9999999999999998
 40
0.816496580927726
 41
4.968762306576106
 42
6.283185307179586
  0
SPLINE
  5
3B2D
330
3ABF
100
AcDbEntity
  8
0
100
AcDbSpline
210
0.0
220
0.0
230
1.0
 70
     8
 71
     3
 72
     8
 73
     4
 74
     0
 42
0.000000001
 43
0.0000000001
 40
-1.0
 40
-1.0
 40
-1.0
 40
-1.0
 40
0.0
 40
0.0
 40
0.0
 40
0.0
 10
31.45747277467512
 20
-20.62158814982589
 30
0.0
 10
31.47632517673223
 20
-20.76126838748421
 30
0.0
 10
31.41156958293338
 20
-20.90804448786275
 30
0.0
 10
31.28290258843335
 20
-21.01069795436336
 30
0.0
  0
SPLINE
  5
3B2E
330
3ABF
100
AcDbEntity
  8
0
100
AcDbSpline
210
0.0
220
0.0
230
1.0
 70
     8
 71
     3
 72
     8
 73
     4
 74
     0
 42
0.000000001
 43
0.0000000001
 40
0.0
 40
0.0
 40
0.0
 40
0.0
 40
1.0
 40
1.0
 40
1.0
 40
1.0
 10
25.4620084026618
 20
-15.9353603093356
 30
0.0
 10
25.44315600060473
 20
-16.37526116382825
 30
0.0
 10
25.29349980100829
 20
-16.93342677631987
 30
0.0
 10
25.0773902796999
 20
-17.42794375245656
 30
0.0
  0
ELLIPSE
  5
3B2F
330
3ABF
100
AcDbEntity
  8
0
100
AcDbEllipse
 10
27.10434709071846
 20
-17.86620247398398
 30
0.0
 11
-1.25
 21
-2.165063509461097
 31
0.0
210
0.0
220
0.0
230
1.0
 40
0.816496580927726
 41
4.968762306576106
 42
6.283185307179586
  0
LINE
  5
3B30
330
3ABF
100
AcDbEntity
  8
0
100
AcDbLine
 10
25.0773902796999
 20
-17.42794375245656
 30
0.0
 11
24.57714027980224
 21
-17.13912428035354
 31
0.0
  0
LINE
  5
3B31
330
3ABF
100
AcDbEntity
  8
0
100
AcDbLine
 10
24.57714027980224
 20
-17.13912428035354
 30
0.0
 11
24.3273902796999
 21
-16.99493105056435
 31
0.0
  0
LINE
  5
3B32
330
3ABF
100
AcDbEntity
  8
0
100
AcDbLine
 10
24.40134823088198
 20
-16.5477327450314
 30
0.0
 11
24.75454806846688
 21
-16.34381272372402
 31
0.0
  0
LINE
  5
3B33
330
3ABF
100
AcDbEntity
  8
0
100
AcDbLine
 10
24.75454806846688
 20
-16.34381272372402
 30
0.0
 11
25.4620084026618
 21
-15.9353603093356
 31
0.0
  0
ELLIPSE
  5
3B34
330
3ABF
100
AcDbEntity
  8
0
100
AcDbEllipse
 10
29.69717745574492
 20
-19.79275700368356
 30
0.0
 11
1.24999999999987
 21
-2.16506350946117
 31
0.0
210
0.0
220
0.0
230
1.0
 40
0.5773502691896259
 41
0.8773718029393435
 42
2.356194490192596
  0
LINE
  5
3B35
330
3ABF
100
AcDbEntity
  8
0
100
AcDbLine
 10
26.16164354981218
 20
-15.71027409904492
 30
0.0
 11
29.69717745574491
 21
-17.75151555136424
 31
0.0
  0
ELLIPSE
  5
3B36
330
3ABF
100
AcDbEntity
  8
0
100
AcDbEllipse
 10
26.16164354981218
 20
-17.75151555136424
 30
0.0
 11
-1.25
 21
2.165063509461096
 31
0.0
210
0.0
220
0.0
230
0.9999999999999998
 40
0.5773502691896261
 41
5.497787143782135
 42
6.976609831035355
  0
LINE
  5
3B37
330
3ABF
100
AcDbEntity
  8
0
100
AcDbLine
 10
70.99221347703933
 20
72.63465595896803
 30
0.0
 11
-13.01207212792255
 21
121.1345528660749
 31
0.0
  0
LINE
  5
3B38
330
3ABF
100
AcDbEntity
  8
0
100
AcDbLine
 10
41.71799273591641
 20
8.784623330419769
 30
0.0
 11
41.71799273591641
 21
49.93605100917715
 31
0.0
  0
LINE
  5
3B39
330
3ABF
100
AcDbEntity
  8
0
100
AcDbLine
 10
40.65733256413659
 20
50.54842344487294
 30
0.0
 11
40.65733256413659
 21
9.396995766115567
 31
0.0
  0
LINE
  5
3B3A
330
3ABF
100
AcDbEntity
  8
0
100
AcDbLine
 10
70.99221347703933
 20
21.60361965098515
 30
0.0
 11
45.25352664184913
 21
6.743381878100453
 31
0.0
  0
LINE
  5
3B3B
330
3ABF
100
AcDbEntity
  8
0
100
AcDbLine
 10
45.25352664184914
 20
56.05977536613512
 30
0.0
 11
70.99221347703934
 21
70.92001313901981
 31
0.0
  0
LINE
  5
3B3C
330
3ABF
100
AcDbEntity
  8
0
100
AcDbLine
 10
-45.25614135002912
 20
100.1505907362324
 30
0.0
 11
-45.25614135002912
 21
58.999163057475
 31
0.0
  0
LINE
  5
3B3D
330
3ABF
100
AcDbEntity
  8
0
100
AcDbLine
 10
-15.98192060890605
 20
121.1345528660749
 30
0.0
 11
-41.72060744409638
 21
106.2743150931903
 31
0.0
  0
LINE
  5
3B3E
330
3ABF
100
AcDbEntity
  8
0
100
AcDbLine
 10
-44.1954811782493
 20
99.53821830053659
 30
0.0
 11
-44.1954811782493
 21
58.3867906217792
 31
0.0
  0
LINE
  5
3B3F
330
3ABF
100
AcDbEntity
  8
0
100
AcDbLine
 10
70.99221347703934
 20
70.92001313901981
 30
0.0
 11
69.9315533052595
 21
71.5323855747156
 31
0.0
  0
LINE
  5
3B40
330
3ABF
100
AcDbEntity
  8
0
100
AcDbLine
 10
69.9315533052595
 20
71.5323855747156
 30
0.0
 11
44.19286647006929
 21
56.67214780183089
 31
0.0
  0
LINE
  5
3B41
330
3ABF
100
AcDbEntity
  8
0
100
AcDbLine
 10
-14.07273229970238
 20
71.2057869423445
 30
0.0
 11
-12.0221226342614
 21
70.02186689999928
 31
0.0
  0
LINE
  5
3B42
330
3ABF
100
AcDbEntity
  8
0
100
AcDbLine
 10
70.99221347703933
 20
72.63465595896803
 30
0.0
 11
69.9315533052595
 21
72.02228352327224
 31
0.0
  0
LINE
  5
3B43
330
3ABF
100
AcDbEntity
  8
0
100
AcDbLine
 10
-13.01207212792256
 20
121.1345528660749
 30
0.0
 11
-14.07273229970238
 21
120.5221804303791
 31
0.0
  0
LINE
  5
3B44
330
3ABF
100
AcDbEntity
  8
0
100
AcDbLine
 10
-15.98192060890605
 20
121.1345528660749
 30
0.0
 11
-14.92126043712622
 21
120.5221804303791
 31
0.0
  0
LINE
  5
3B45
330
3ABF
100
AcDbEntity
  8
0
100
AcDbLine
 10
-14.07273229970238
 20
120.5221804303791
 30
0.0
 11
69.9315533052595
 21
72.02228352327224
 31
0.0
  0
LINE
  5
3B46
330
3ABF
100
AcDbEntity
  8
0
100
AcDbLine
 10
-40.65994727231656
 20
56.34554916945987
 30
0.0
 11
-14.92126043712622
 21
71.2057869423445
 31
0.0
  0
LINE
  5
3B47
330
3ABF
100
AcDbEntity
  8
0
100
AcDbLine
 10
-40.65994727231656
 20
105.6619426574945
 30
0.0
 11
-14.92126043712622
 21
120.5221804303791
 31
0.0
  0
LINE
  5
3B48
330
3ABF
100
AcDbEntity
  8
0
100
AcDbLine
 10
45.25352664184913
 20
6.743381878100453
 30
0.0
 11
41.71799273591641
 21
8.784623330419769
 31
0.0
  0
LINE
  5
3B49
330
3ABF
100
AcDbEntity
  8
0
100
AcDbLine
 10
41.71799273591641
 20
8.784623330419769
 30
0.0
 11
40.65733256413659
 21
9.396995766115567
 31
0.0
  0
LINE
  5
3B4A
330
3ABF
100
AcDbEntity
  8
0
100
AcDbLine
 10
40.65733256413659
 20
50.54842344487294
 30
0.0
 11
41.71799273591641
 21
49.93605100917715
 31
0.0
  0
LINE
  5
3B4B
330
3ABF
100
AcDbEntity
  8
0
100
AcDbLine
 10
41.71799273591641
 20
49.93605100917715
 30
0.0
 11
45.25352664184914
 21
56.05977536613512
 31
0.0
  0
LINE
  5
3B4C
330
3ABF
100
AcDbEntity
  8
0
100
AcDbLine
 10
-40.65994727231656
 20
56.34554916945987
 30
0.0
 11
-44.1954811782493
 21
58.3867906217792
 31
0.0
  0
LINE
  5
3B4D
330
3ABF
100
AcDbEntity
  8
0
100
AcDbLine
 10
-44.1954811782493
 20
58.3867906217792
 30
0.0
 11
-45.25614135002912
 21
58.999163057475
 31
0.0
  0
LINE
  5
3B4E
330
3ABF
100
AcDbEntity
  8
0
100
AcDbLine
 10
-41.72060744409638
 20
106.2743150931903
 30
0.0
 11
-45.25614135002912
 21
100.1505907362324
 31
0.0
  0
LINE
  5
3B4F
330
3ABF
100
AcDbEntity
  8
0
100
AcDbLine
 10
-45.25614135002912
 20
100.1505907362324
 30
0.0
 11
-44.1954811782493
 21
99.53821830053659
 31
0.0
  0
LINE
  5
3B50
330
3ABF
100
AcDbEntity
  8
0
100
AcDbLine
 10
45.25352664184914
 20
56.05977536613512
 30
0.0
 11
44.19286647006929
 21
56.67214780183089
 31
0.0
  0
LINE
  5
3B51
330
3ABF
100
AcDbEntity
  8
0
100
AcDbLine
 10
44.19286647006929
 20
56.67214780183089
 30
0.0
 11
40.65733256413659
 21
50.54842344487294
 31
0.0
  0
LINE
  5
3B52
330
3ABF
100
AcDbEntity
  8
0
100
AcDbLine
 10
-44.1954811782493
 20
99.53821830053659
 30
0.0
 11
-40.65994727231656
 21
105.6619426574945
 31
0.0
  0
LINE
  5
3B53
330
3ABF
100
AcDbEntity
  8
0
100
AcDbLine
 10
-40.65994727231656
 20
105.6619426574945
 30
0.0
 11
-41.72060744409638
 21
106.2743150931903
 31
0.0
  0
LINE
  5
3B54
330
3ABF
100
AcDbEntity
  8
0
100
AcDbLine
 10
14.49221347719476
 20
-99.76665031596112
 30
0.0
 11
14.49221347719477
 21
-93.99314762406488
 31
0.0
  0
LINE
  5
3B55
330
3ABF
100
AcDbEntity
  8
0
100
AcDbLine
 10
14.49221347719477
 20
-93.99314762406488
 30
0.0
 11
13.43155330541497
 21
-93.38077518836909
 31
0.0
  0
LINE
  5
3B56
330
3ABF
100
AcDbEntity
  8
0
100
AcDbLine
 10
13.43155330541497
 20
-93.38077518836909
 30
0.0
 11
13.43155330541496
 21
-99.15427788026534
 31
0.0
  0
LINE
  5
3B57
330
3ABF
100
AcDbEntity
  8
0
100
AcDbLine
 10
13.43155330541496
 20
-99.15427788026534
 30
0.0
 11
14.49221347719476
 21
-99.76665031596112
 31
0.0
  0
LINE
  5
3B58
330
3ABF
100
AcDbEntity
  8
0
100
AcDbLine
 10
-72.48192060875054
 20
-43.77860789700978
 30
0.0
 11
-72.48192060875052
 21
-49.55211058890603
 31
0.0
  0
LINE
  5
3B59
330
3ABF
100
AcDbEntity
  8
0
100
AcDbLine
 10
-72.48192060875052
 20
-49.55211058890603
 30
0.0
 11
-71.42126043697072
 21
-50.16448302460182
 31
0.0
  0
LINE
  5
3B5A
330
3ABF
100
AcDbEntity
  8
0
100
AcDbLine
 10
-71.42126043697072
 20
-50.16448302460182
 30
0.0
 11
-71.42126043697072
 21
-44.39098033270557
 31
0.0
  0
LINE
  5
3B5B
330
3ABF
100
AcDbEntity
  8
0
100
AcDbLine
 10
-71.42126043697072
 20
-44.39098033270557
 30
0.0
 11
-72.48192060875054
 21
-43.77860789700978
 31
0.0
  0
ELLIPSE
  5
3B5C
330
3ABF
100
AcDbEntity
  8
0
100
AcDbEllipse
 10
47.37484698540838
 20
50.83419724819785
 30
0.0
 11
1.250000000000128
 21
2.165063509461021
 31
0.0
210
0.0
220
0.0
230
0.9999999999999998
 40
0.5773502691896258
 41
0.0
 42
6.283185307179586
  0
ELLIPSE
  5
3B5D
330
3ABF
100
AcDbEntity
  8
0
100
AcDbEllipse
 10
47.37484698540838
 20
34.50426562964333
 30
0.0
 11
1.250000000000128
 21
2.165063509461021
 31
0.0
210
0.0
220
0.0
230
0.9999999999999998
 40
0.5773502691896258
 41
0.0
 42
6.283185307179586
  0
ELLIPSE
  5
3B5E
330
3ABF
100
AcDbEntity
  8
0
100
AcDbEllipse
 10
46.31418681362855
 20
51.44656968389366
 30
0.0
 11
1.249999999999864
 21
2.165063509461175
 31
0.0
210
0.0
220
0.0
230
0.9999999999999998
 40
0.577350269189622
 41
3.579741684173546
 42
5.845036276594986
  0
ELLIPSE
  5
3B5F
330
3ABF
100
AcDbEntity
  8
0
100
AcDbEllipse
 10
46.31418681362855
 20
35.11663806533913
 30
0.0
 11
1.249999999999864
 21
2.165063509461175
 31
0.0
210
0.0
220
0.0
230
0.9999999999999998
 40
0.577350269189622
 41
3.579741684173548
 42
5.845036276594983
  0
ELLIPSE
  5
3B60
330
3ABF
100
AcDbEntity
  8
0
100
AcDbEllipse
 10
47.37484698540838
 20
18.17433401108882
 30
0.0
 11
1.250000000000128
 21
2.165063509461021
 31
0.0
210
0.0
220
0.0
230
0.9999999999999998
 40
0.5773502691896258
 41
0.0
 42
6.283185307179586
  0
ELLIPSE
  5
3B61
330
3ABF
100
AcDbEntity
  8
0
100
AcDbEllipse
 10
46.31418681362855
 20
18.78670644678461
 30
0.0
 11
1.249999999999864
 21
2.165063509461175
 31
0.0
210
0.0
220
0.0
230
0.9999999999999998
 40
0.577350269189622
 41
3.579741684173548
 42
5.845036276594988
  0
LINE
  5
3B62
330
3ABF
100
AcDbEntity
  8
0
100
AcDbLine
 10
70.99221347703933
 20
21.60361965098515
 30
0.0
 11
70.99221347703934
 21
70.92001313901981
 31
0.0
  0
ELLIPSE
  5
3B63
330
3ABF
100
AcDbEntity
  8
0
100
AcDbEllipse
 10
69.50728923654756
 20
71.7773345489939
 30
0.0
 11
0.6000000000000049
 21
0.0
 31
0.0
210
0.0
220
0.0
230
1.0
 40
0.5773502691896258
 41
5.497787143782153
 42
7.068583470577037
  0
LINE
  5
3B64
330
3ABF
100
AcDbEntity
  8
0
100
AcDbLine
 10
69.9315533052595
 20
72.02228352327224
 30
0.0
 11
69.9315533052595
 21
71.5323855747156
 31
0.0
  0
ELLIPSE
  5
3B65
330
3ABF
100
AcDbEntity
  8
0
100
AcDbEllipse
 10
69.50728923654756
 20
71.7773345489939
 30
0.0
 11
2.100000000000008
 21
-0.0000000000000002
 31
0.0
210
0.0
220
0.0
230
1.0
 40
0.5773502691896259
 41
5.49778714378215
 42
7.068583470577032
  0
ELLIPSE
  5
3B66
330
3ABF
100
AcDbEntity
  8
0
100
AcDbEllipse
 10
69.50728923654756
 20
22.46094106095926
 30
0.0
 11
2.100000000000008
 21
0.0000000000000014
 31
0.0
210
0.0
220
0.0
230
1.0
 40
0.5773502691896258
 41
5.497787143782133
 42
6.283185307179579
  0
LINE
  5
3B67
330
3ABF
100
AcDbEntity
  8
0
100
AcDbLine
 10
-14.07273229970238
 20
120.5221804303791
 30
0.0
 11
-14.07273229970238
 21
71.2057869423445
 31
0.0
  0
ELLIPSE
  5
3B68
330
3ABF
100
AcDbEntity
  8
0
100
AcDbEllipse
 10
-14.49699636841431
 20
120.2772314561008
 30
0.0
 11
0.5999999999999961
 21
-0.0000000000000357
 31
0.0
210
0.0
220
0.0
230
1.0
 40
0.5773502691896258
 41
0.7853981633976961
 42
2.356194490192603
  0
LINE
  5
3B69
330
3ABF
100
AcDbEntity
  8
0
100
AcDbLine
 10
-14.92126043712622
 20
120.5221804303791
 30
0.0
 11
-14.92126043712622
 21
71.2057869423445
 31
0.0
  0
ELLIPSE
  5
3B6A
330
3ABF
100
AcDbEntity
  8
0
100
AcDbEllipse
 10
-14.49699636841431
 20
70.96083796806617
 30
0.0
 11
0.5999999999999961
 21
-0.0000000000000357
 31
0.0
210
0.0
220
0.0
230
1.0
 40
0.5773502691896258
 41
0.7853981633976881
 42
2.356194490192594
  0
ELLIPSE
  5
3B6B
330
3ABF
100
AcDbEntity
  8
0
100
AcDbEllipse
 10
-14.49699636841431
 20
120.2772314561008
 30
0.0
 11
-2.099999999999999
 21
-0.000000000000125
 31
0.0
210
0.0
220
0.0
230
1.0
 40
0.5773502691896258
 41
3.926990816987004
 42
5.4977871437819
  0
LINE
  5
3B6C
330
3ABF
100
AcDbEntity
  8
0
100
AcDbLine
 10
71.60728923654755
 20
71.77733454899393
 30
0.0
 11
71.60728923654755
 21
22.46094106095925
 31
0.0
  0
ELLIPSE
  5
3B6D
330
3ABF
100
AcDbEntity
  8
0
100
AcDbEllipse
 10
-39.59928710053674
 20
96.96625407061421
 30
0.0
 11
1.24999999999987
 21
2.165063509461171
 31
0.0
210
0.0
220
0.0
230
0.9999999999999998
 40
0.5773502691896259
 41
3.579741684173544
 42
5.845036276594986
  0
ELLIPSE
  5
3B6E
330
3ABF
100
AcDbEntity
  8
0
100
AcDbEllipse
 10
-39.59928710053674
 20
80.63632245205969
 30
0.0
 11
1.24999999999987
 21
2.165063509461171
 31
0.0
210
0.0
220
0.0
230
0.9999999999999998
 40
0.5773502691896259
 41
3.579741684173542
 42
5.845036276594986
  0
ELLIPSE
  5
3B6F
330
3ABF
100
AcDbEntity
  8
0
100
AcDbEllipse
 10
-38.53862692875693
 20
96.35388163491843
 30
0.0
 11
1.250000000000128
 21
2.165063509461021
 31
0.0
210
0.0
220
0.0
230
0.9999999999999998
 40
0.5773502691896258
 41
0.0
 42
6.283185307179586
  0
ELLIPSE
  5
3B70
330
3ABF
100
AcDbEntity
  8
0
100
AcDbEllipse
 10
-38.53862692875693
 20
80.0239500163639
 30
0.0
 11
1.250000000000128
 21
2.165063509461021
 31
0.0
210
0.0
220
0.0
230
0.9999999999999998
 40
0.5773502691896258
 41
0.0
 42
6.283185307179586
  0
ELLIPSE
  5
3B71
330
3ABF
100
AcDbEntity
  8
0
100
AcDbEllipse
 10
-39.59928710053674
 20
64.30639083350519
 30
0.0
 11
1.24999999999987
 21
2.165063509461171
 31
0.0
210
0.0
220
0.0
230
0.9999999999999998
 40
0.5773502691896259
 41
3.579741684173542
 42
5.84503627659499
  0
ELLIPSE
  5
3B72
330
3ABF
100
AcDbEntity
  8
0
100
AcDbEllipse
 10
-38.53862692875693
 20
63.69401839780937
 30
0.0
 11
1.250000000000128
 21
2.165063509461021
 31
0.0
210
0.0
220
0.0
230
0.9999999999999998
 40
0.5773502691896258
 41
0.0
 42
6.283185307179586
  0
LINE
  5
3B73
330
3ABF
100
AcDbEntity
  8
0
100
AcDbLine
 10
27.99221347660552
 20
-70.61046172358143
 30
0.0
 11
14.49221347719477
 21
-93.99314762406488
 31
0.0
  0
LINE
  5
3B74
330
3ABF
100
AcDbEntity
  8
0
100
AcDbLine
 10
26.93155330482543
 20
-69.99808928788549
 30
0.0
 11
13.43155330541497
 21
-93.38077518836909
 31
0.0
  0
LINE
  5
3B75
330
3ABF
100
AcDbEntity
  8
0
100
AcDbLine
 10
32.6922134770393
 20
-110.2744252151225
 30
0.0
 11
69.39221347625142
 21
-46.7081605787095
 31
0.0
  0
LINE
  5
3B76
330
3ABF
100
AcDbEntity
  8
0
100
AcDbLine
 10
68.08302516704443
 20
-46.23927593006222
 30
0.0
 11
69.07083451643767
 21
-44.52833994872154
 31
0.0
  0
LINE
  5
3B77
330
3ABF
100
AcDbEntity
  8
0
100
AcDbLine
 10
33.02594258449491
 20
-110.4671038051485
 30
0.0
 11
32.69221347703935
 21
-110.2744252151226
 31
0.0
  0
LINE
  5
3B78
330
3ABF
100
AcDbEntity
  8
0
100
AcDbLine
 10
70.06430255355735
 20
-46.31478250970708
 30
0.0
 11
33.02594258449492
 21
-110.4671038051485
 31
0.0
  0
LINE
  5
3B79
330
3ABF
100
AcDbEntity
  8
0
100
AcDbLine
 10
27.99221347660552
 20
-70.61046172358143
 30
0.0
 11
26.93155330482543
 21
-69.99808928788549
 31
0.0
  0
LINE
  5
3B7A
330
3ABF
100
AcDbEntity
  8
0
100
AcDbLine
 10
69.39221347625141
 20
-46.7081605787095
 30
0.0
 11
27.99221347660552
 21
-70.61046172358143
 31
0.0
  0
LINE
  5
3B7B
330
3ABF
100
AcDbEntity
  8
0
100
AcDbLine
 10
-58.98192060933954
 20
-20.39592199652648
 30
0.0
 11
-17.581920609694
 21
3.506379148345684
 31
0.0
  0
ELLIPSE
  5
3B7C
330
3ABF
100
AcDbEntity
  8
0
100
AcDbEllipse
 10
-11.8294190923551
 20
4.612217914688878
 30
0.0
 11
-0.7499999999999996
 21
-1.299038105676658
 31
0.0
210
0.0
220
0.0
230
1.0
 40
0.816496580927726
 41
0.0
 42
1.134458255166983
  0
LINE
  5
3B7D
330
3ABF
100
AcDbEntity
  8
0
100
AcDbLine
 10
-12.57941909235509
 20
3.313179809012236
 30
0.0
 11
-14.20092478256475
 21
4.249356555747265
 31
0.0
  0
LINE
  5
3B7E
330
3ABF
100
AcDbEntity
  8
0
100
AcDbLine
 10
-14.20092478256475
 20
4.249356555747265
 30
0.0
 11
-14.93345108852421
 21
3.971556958385371
 31
0.0
  0
LINE
  5
3B7F
330
3ABF
100
AcDbEntity
  8
0
100
AcDbLine
 10
69.07083451643767
 20
-44.52833994872154
 30
0.0
 11
68.94515287193444
 21
-43.75505376013935
 31
0.0
  0
LINE
  5
3B80
330
3ABF
100
AcDbEntity
  8
0
100
AcDbLine
 10
68.94515287193444
 20
-43.75505376013935
 30
0.0
 11
67.32364718172478
 21
-42.81887701340427
 31
0.0
  0
ELLIPSE
  5
3B81
330
3ABF
100
AcDbEntity
  8
0
100
AcDbEllipse
 10
68.07364718172478
 20
-41.51983890772763
 30
0.0
 11
-0.7499999999999996
 21
-1.299038105676658
 31
0.0
210
0.0
220
0.0
230
1.0
 40
0.816496580927726
 41
5.148727052012596
 42
6.283185307179585
  0
SPLINE
  5
3B82
330
3ABF
100
AcDbEntity
  8
0
100
AcDbSpline
210
0.0
220
0.0
230
1.0
 70
     8
 71
     3
 72
     8
 73
     4
 74
     0
 42
0.000000001
 43
0.0000000001
 40
-1.0
 40
-1.0
 40
-1.0
 40
-1.0
 40
0.0
 40
0.0
 40
0.0
 40
0.0
 10
-10.97396252707034
 20
3.876212443739031
 30
0.0
 10
-10.94203111208915
 20
3.7278809873973
 30
0.0
 10
-11.02399312469876
 20
3.583673887927094
 30
0.0
 10
-11.18510471123629
 20
3.508217492047895
 30
0.0
  0
SPLINE
  5
3B83
330
3ABF
100
AcDbEntity
  8
0
100
AcDbSpline
210
0.0
220
0.0
230
1.0
 70
     8
 71
     3
 72
     8
 73
     4
 74
     0
 42
0.000000001
 43
0.0000000001
 40
-1.0
 40
-1.0
 40
-1.0
 40
-1.0
 40
0.0
 40
0.0
 40
0.0
 40
0.0
 10
66.79539757936949
 20
-41.51384649697557
 30
0.0
 10
66.78018894181194
 20
-41.33659157225149
 30
0.0
 10
66.80085211764762
 20
-41.15699357286885
 30
0.0
 10
66.83278353262742
 20
-41.0455333385963
 30
0.0
  0
SPLINE
  5
3B84
330
3ABF
100
AcDbEntity
  8
0
100
AcDbSpline
210
0.0
220
0.0
230
1.0
 70
     8
 71
     3
 72
     8
 73
     4
 74
     0
 42
0.000000001
 43
0.0000000001
 40
0.130246360654275
 40
0.130246360654275
 40
0.130246360654275
 40
0.130246360654275
 40
1.0
 40
1.0
 40
1.0
 40
1.0
 10
67.87523004748917
 20
-40.61061228189433
 30
0.0
 10
67.82240411170102
 20
-41.02003350933124
 30
0.0
 10
67.69079433758562
 20
-41.51794534449773
 30
0.0
 10
67.5453975793695
 20
-41.94685919886779
 30
0.0
  0
LINE
  5
3B85
330
3ABF
100
AcDbEntity
  8
0
100
AcDbLine
 10
-57.92126043755991
 20
-21.00829443222217
 30
0.0
 11
-58.98192060933954
 21
-20.39592199652648
 31
0.0
  0
LINE
  5
3B86
330
3ABF
100
AcDbEntity
  8
0
100
AcDbLine
 10
-16.52126043791415
 20
2.894006712649863
 30
0.0
 11
-57.92126043755991
 21
-21.00829443222217
 31
0.0
  0
LINE
  5
3B87
330
3ABF
100
AcDbEntity
  8
0
100
AcDbLine
 10
-16.52126043791415
 20
2.894006712649863
 30
0.0
 11
-16.87446027511757
 21
3.097926733736984
 31
0.0
  0
LINE
  5
3B88
330
3ABF
100
AcDbEntity
  8
0
100
AcDbLine
 10
-16.87446027511757
 20
3.097926733736984
 30
0.0
 11
-17.581920609694
 21
3.506379148345684
 31
0.0
  0
SPLINE
  5
3B89
330
3ABF
100
AcDbEntity
  8
0
100
AcDbSpline
210
0.0
220
0.0
230
1.0
 70
     8
 71
     3
 72
     8
 73
     4
 74
     0
 42
0.000000001
 43
0.0000000001
 40
-1.0
 40
-1.0
 40
-1.0
 40
-1.0
 40
0.0
 40
0.0
 40
0.0
 40
0.0
 10
-14.9334510885242
 20
3.97155695838538
 30
0.0
 10
-15.44344366232488
 20
3.601243841144481
 30
0.0
 10
-16.0763323783417
 20
3.301884844695557
 30
0.0
 10
-16.52126043791415
 20
2.894006712649859
 30
0.0
  0
SPLINE
  5
3B8A
330
3ABF
100
AcDbEntity
  8
0
100
AcDbSpline
210
0.0
220
0.0
230
1.0
 70
     8
 71
     3
 72
     8
 73
     4
 74
     0
 42
0.000000001
 43
0.0000000001
 40
0.0
 40
0.0
 40
0.0
 40
0.0
 40
0.6081734479694065
 40
0.6081734479694065
 40
0.6081734479694065
 40
0.6081734479694065
 10
-17.58192060969401
 20
3.50637914834567
 30
0.0
 10
-17.07249802307434
 20
3.616551721604337
 30
0.0
 10
-16.31974865676566
 20
3.586239513107929
 30
0.0
 10
-15.568415793563
 20
3.556745123061109
 30
0.0
  0
ELLIPSE
  5
3B8B
330
3ABF
100
AcDbEntity
  8
0
100
AcDbEllipse
 10
-12.0221226342614
 20
4.293892135317349
 30
0.0
 11
0.7499999999999228
 21
-1.299038105676702
 31
0.0
210
0.0
220
0.0
230
1.0
 40
0.577350269189626
 41
0.9390757175653314
 42
2.356194490192585
  0
LINE
  5
3B8C
330
3ABF
100
AcDbEntity
  8
0
100
AcDbLine
 10
69.39221347625141
 20
-46.7081605787095
 30
0.0
 11
68.68475314167461
 21
-46.29970816410061
 31
0.0
  0
LINE
  5
3B8D
330
3ABF
100
AcDbEntity
  8
0
100
AcDbLine
 10
68.68475314167461
 20
-46.29970816410061
 30
0.0
 11
68.33155330447157
 21
-46.09578814301369
 31
0.0
  0
LINE
  5
3B8E
330
3ABF
100
AcDbEntity
  8
0
100
AcDbLine
 10
26.93155330482543
 20
-69.99808928788549
 30
0.0
 11
68.33155330447157
 21
-46.09578814301368
 31
0.0
  0
LINE
  5
3B8F
330
3ABF
100
AcDbEntity
  8
0
100
AcDbLine
 10
69.07083451643767
 20
-44.52833994872154
 30
0.0
 11
69.32058451643642
 21
-44.67253317845094
 31
0.0
  0
SPLINE
  5
3B90
330
3ABF
100
AcDbEntity
  8
0
100
AcDbSpline
210
0.0
220
0.0
230
1.0
 70
     8
 71
     3
 72
     8
 73
     4
 74
     0
 42
0.000000001
 43
0.0000000001
 40
-0.9999999999999944
 40
-0.9999999999999944
 40
-0.9999999999999944
 40
-0.9999999999999944
 40
0.0
 40
0.0
 40
0.0
 40
0.0
 10
68.33155330447157
 20
-46.09578814301371
 30
0.0
 10
68.77648136404386
 20
-45.68791001096827
 30
0.0
 10
69.00513023645354
 20
-45.15516303199359
 30
0.0
 10
69.07083451643766
 20
-44.52833994872158
 30
0.0
  0
SPLINE
  5
3B91
330
3ABF
100
AcDbEntity
  8
0
100
AcDbSpline
210
0.0
220
0.0
230
1.0
 70
     8
 71
     3
 72
     8
 73
     4
 74
     0
 42
0.000000001
 43
0.0000000001
 40
0.0
 40
0.0
 40
0.0
 40
0.0
 40
0.9999999999999944
 40
0.9999999999999944
 40
0.9999999999999944
 40
0.9999999999999944
 10
69.82083451643766
 20
-44.96135265061379
 30
0.0
 10
70.31049060372338
 20
-45.9088131914263
 30
0.0
 10
70.22984061752243
 20
-46.52700736719335
 30
0.0
 10
69.39221347625142
 20
-46.70816057870951
 30
0.0
  0
LINE
  5
3B92
330
3ABF
100
AcDbEntity
  8
0
100
AcDbLine
 10
69.32058451643642
 20
-44.67253317845094
 30
0.0
 11
69.82083451643767
 21
-44.96135265061377
 31
0.0
  0
ELLIPSE
  5
3B93
330
3ABF
100
AcDbEntity
  8
0
100
AcDbEllipse
 10
68.82364718172476
 20
-41.95285160961984
 30
0.0
 11
-0.7499999999999999
 21
-1.299038105676658
 31
0.0
210
0.0
220
0.0
230
1.0
 40
0.8164965809277259
 41
5.148727052012597
 42
6.283185307179585
  0
LINE
  5
3B94
330
3ABF
100
AcDbEntity
  8
0
100
AcDbLine
 10
67.54539757936948
 20
-41.94685919886778
 30
0.0
 11
67.04514758026459
 21
-41.65803972722246
 31
0.0
  0
LINE
  5
3B95
330
3ABF
100
AcDbEntity
  8
0
100
AcDbLine
 10
67.04514758026459
 20
-41.65803972722246
 30
0.0
 11
66.79539757936949
 21
-41.51384649697556
 31
0.0
  0
LINE
  5
3B96
330
3ABF
100
AcDbEntity
  8
0
100
AcDbLine
 10
68.94515287193444
 20
-43.75505376013935
 30
0.0
 11
69.69515287193444
 21
-44.18806646203157
 31
0.0
  0
LINE
  5
3B97
330
3ABF
100
AcDbEntity
  8
0
100
AcDbLine
 10
69.69515287193444
 20
-44.18806646203157
 30
0.0
 11
69.82083451643767
 21
-44.96135265061377
 31
0.0
  0
LINE
  5
3B98
330
3ABF
100
AcDbEntity
  8
0
100
AcDbLine
 10
66.83278353262742
 20
-41.0455333385963
 30
0.0
 11
67.18598337302523
 21
-40.84161331566487
 31
0.0
  0
LINE
  5
3B99
330
3ABF
100
AcDbEntity
  8
0
100
AcDbLine
 10
67.18598337302523
 20
-40.84161331566487
 30
0.0
 11
67.71858480977463
 21
-40.53411573278684
 31
0.0
  0
ELLIPSE
  5
3B9A
330
3ABF
100
AcDbEntity
  8
0
100
AcDbEllipse
 10
67.88094363981848
 20
-41.83816468709915
 30
0.0
 11
-0.7500000000000004
 21
1.299038105676658
 31
0.0
210
0.0
220
0.0
230
0.9999999999999998
 40
0.5773502691896261
 41
5.497787143782137
 42
6.914905916409349
  0
LINE
  5
3B9B
330
3ABF
100
AcDbEntity
  8
0
100
AcDbLine
 10
32.6922134770393
 20
-110.2744252151225
 30
0.0
 11
14.49221347719476
 21
-99.76665031596112
 31
0.0
  0
LINE
  5
3B9C
330
3ABF
100
AcDbEntity
  8
0
100
AcDbLine
 10
-71.42126043697072
 20
-50.16448302460182
 30
0.0
 11
-53.2212604371262
 21
-60.67225792376323
 31
0.0
  0
LINE
  5
3B9D
330
3ABF
100
AcDbEntity
  8
0
100
AcDbLine
 10
-0.3623323785890964
 20
-2.250415079027365
 30
0.0
 11
10.25921260702058
 21
-8.38276693567883
 31
0.0
  0
LINE
  5
3B9E
330
3ABF
100
AcDbEntity
  8
0
100
AcDbLine
 10
10.18525465633966
 20
-8.829965241501124
 30
0.0
 11
-0.5369025653320314
 21
-2.639524883275483
 31
0.0
  0
LINE
  5
3B9F
330
3ABF
100
AcDbEntity
  8
0
100
AcDbLine
 10
24.3273902796999
 20
-16.99493105056435
 30
0.0
 11
17.14076696433166
 21
-12.84573214487205
 31
0.0
  0
LINE
  5
3BA0
330
3ABF
100
AcDbEntity
  8
0
100
AcDbLine
 10
17.3153371510746
 20
-12.45662234062394
 30
0.0
 11
24.40134823088198
 21
-16.5477327450314
 31
0.0
  0
LINE
  5
3BA1
330
3ABF
100
AcDbEntity
  8
0
100
AcDbLine
 10
-3.956880967391285
 20
-0.6649994322238673
 30
0.0
 11
-11.18510471123628
 21
3.508217492047882
 31
0.0
  0
LINE
  5
3BA2
330
3ABF
100
AcDbEntity
  8
0
100
AcDbLine
 10
-52.49699636841427
 20
-61.0904119787984
 30
0.0
 11
13.43155330541496
 21
-99.15427788026532
 31
0.0
  0
LINE
  5
3BA3
330
3ABF
100
AcDbEntity
  8
0
100
AcDbLine
 10
66.79539757936949
 20
-41.51384649697556
 30
0.0
 11
59.56717383552453
 21
-37.34062957270384
 31
0.0
  0
LINE
  5
3BA4
330
3ABF
100
AcDbEntity
  8
0
100
AcDbLine
 10
56.14719543346527
 20
-35.36610412165221
 30
0.0
 11
45.42503821179358
 21
-29.17566376342657
 31
0.0
  0
LINE
  5
3BA5
330
3ABF
100
AcDbEntity
  8
0
100
AcDbLine
 10
38.46952590380157
 20
-25.15989686005564
 30
0.0
 11
31.28290258843335
 21
-21.01069795436336
 31
0.0
  0
LINE
  5
3BA6
330
3ABF
100
AcDbEntity
  8
0
100
AcDbLine
 10
31.45747277467512
 20
-20.62158814982589
 30
0.0
 11
38.54348385448249
 21
-24.71269855423335
 31
0.0
  0
LINE
  5
3BA7
330
3ABF
100
AcDbEntity
  8
0
100
AcDbLine
 10
45.59960839853651
 20
-28.78655395917846
 30
0.0
 11
56.22115338414619
 21
-34.91890581582993
 31
0.0
  0
LINE
  5
3BA8
330
3ABF
100
AcDbEntity
  8
0
100
AcDbLine
 10
-10.97396252707033
 20
3.876212443739017
 30
0.0
 11
-3.882923016710373
 21
-0.2178011264015711
 31
0.0
  0
LINE
  5
3BA9
330
3ABF
100
AcDbEntity
  8
0
100
AcDbLine
 10
59.74174402226747
 20
-36.95151976845572
 30
0.0
 11
66.83278353262742
 21
-41.0455333385963
 31
0.0
  0
ELLIPSE
  5
3BAA
330
3ABF
100
AcDbEntity
  8
0
100
AcDbEllipse
 10
22.24221347730848
 20
-89.80735817250574
 30
0.0
 11
1.25000000000013
 21
2.165063509461021
 31
0.0
210
0.0
220
0.0
230
1.0
 40
0.5773502691896254
 41
0.0
 42
6.283185307179586
  0
ELLIPSE
  5
3BAB
330
3ABF
100
AcDbEntity
  8
0
100
AcDbEllipse
 10
35.99221347751319
 20
-71.7651622604481
 30
0.0
 11
-0.4000000000000425
 21
-0.6928203230275284
 31
0.0
210
0.0
220
0.0
230
1.0
 40
0.5773502691896254
 41
2.094395102375143
 42
2.276828566511582
  0
LINE
  5
3BAC
330
3ABF
100
AcDbEntity
  8
0
100
AcDbLine
 10
36.53862363902431
 20
-71.61875209894737
 30
0.0
 11
35.74615539370106
 21
-75.49134736315344
 31
0.0
  0
ELLIPSE
  5
3BAD
330
3ABF
100
AcDbEntity
  8
0
100
AcDbEllipse
 10
35.19974523218993
 20
-75.63775752465419
 30
0.0
 11
-0.4000000000000416
 21
-0.6928203230275272
 31
0.0
210
0.0
220
0.0
230
1.0
 40
0.5773502691896254
 41
0.0
 42
2.094395102375107
  0
LINE
  5
3BAE
330
3ABF
100
AcDbEntity
  8
0
100
AcDbLine
 10
34.79974523218267
 20
-76.33057784767754
 30
0.0
 11
32.63468172276096
 21
-75.0805778476093
 31
0.0
  0
ELLIPSE
  5
3BAF
330
3ABF
100
AcDbEntity
  8
0
100
AcDbEllipse
 10
33.03468172276822
 20
-74.38775752458593
 30
0.0
 11
-0.4000000000072803
 21
-0.6928203230233491
 31
0.0
210
0.0
220
0.0
230
0.9999999999999998
 40
0.5773502691896257
 41
4.188790204822808
 42
6.283185307252399
  0
LINE
  5
3BB0
330
3ABF
100
AcDbEntity
  8
0
100
AcDbLine
 10
32.8882715612644
 20
-73.84134736306335
 30
0.0
 11
35.84580331600937
 21
-71.2187520989255
 31
0.0
  0
ELLIPSE
  5
3BB1
330
3ABF
100
AcDbEntity
  8
0
100
AcDbEllipse
 10
35.99221347751319
 20
-71.7651622604481
 30
0.0
 11
0.4000000000000012
 21
0.6928203230275522
 31
0.0
210
0.0
220
0.0
230
1.0
 40
0.5773502691896259
 41
0.0802385882704746
 42
1.047197551178412
  0
LINE
  5
3BB2
330
3ABF
100
AcDbEntity
  8
0
100
AcDbLine
 10
36.35886551524743
 20
-71.05606057887185
 30
0.0
 11
36.55611822539756
 21
-71.49137889924941
 31
0.0
  0
ELLIPSE
  5
3BB3
330
3ABF
100
AcDbEntity
  8
0
100
AcDbEllipse
 10
34.13908506041014
 20
-75.0253850889584
 30
0.0
 11
-0.4000000000072798
 21
-0.6928203230233483
 31
0.0
210
0.0
220
0.0
230
1.0
 40
0.5773502691896255
 41
0.0000000000727867
 42
2.094395102429588
  0
LINE
  5
3BB4
330
3ABF
100
AcDbEntity
  8
0
100
AcDbLine
 10
34.68549522192123
 20
-74.87897492745765
 30
0.0
 11
35.74615539370106
 21
-75.49134736315344
 31
0.0
  0
LINE
  5
3BB5
330
3ABF
100
AcDbEntity
  8
0
100
AcDbLine
 10
34.68549522192123
 20
-74.87897492745765
 30
0.0
 11
35.34332473807187
 21
-71.66432565421039
 31
0.0
  0
LINE
  5
3BB6
330
3ABF
100
AcDbEntity
  8
0
100
AcDbLine
 10
35.84580331599674
 20
-71.21875209894736
 30
0.0
 11
36.53862363902431
 21
-71.61875209894737
 31
0.0
  0
LINE
  5
3BB7
330
3ABF
100
AcDbEntity
  8
0
100
AcDbLine
 10
35.94736444950256
 20
-71.13991474286624
 30
0.0
 11
36.55611822539756
 21
-71.49137889924941
 31
0.0
  0
ELLIPSE
  5
3BB8
330
3ABF
100
AcDbEntity
  8
0
100
AcDbEllipse
 10
21.18155330552868
 20
-89.19498573680995
 30
0.0
 11
1.24999999999987
 21
2.165063509461171
 31
0.0
210
0.0
220
0.0
230
1.0
 40
0.5773502691896259
 41
3.579741684173537
 42
5.845036276595009
  0
LINE
  5
3BB9
330
3ABF
100
AcDbEntity
  8
0
100
AcDbLine
 10
-58.98192060933954
 20
-20.39592199652648
 30
0.0
 11
-72.48192060875054
 21
-43.77860789700978
 31
0.0
  0
LINE
  5
3BBA
330
3ABF
100
AcDbEntity
  8
0
100
AcDbLine
 10
-57.92126043755991
 20
-21.00829443222217
 30
0.0
 11
-71.42126043697072
 21
-44.39098033270557
 31
0.0
  0
ELLIPSE
  5
3BBB
330
3ABF
100
AcDbEntity
  8
0
100
AcDbEllipse
 10
-67.2319206086823
 20
-43.92294546434657
 30
0.0
 11
1.24999999999987
 21
2.165063509461171
 31
0.0
210
0.0
220
0.0
230
0.9999999999999998
 40
0.5773502691896255
 41
3.579741684173539
 42
5.845036276595009
  0
ELLIPSE
  5
3BBC
330
3ABF
100
AcDbEntity
  8
0
100
AcDbEllipse
 10
-54.27438885380084
 20
-29.75334481649502
 30
0.0
 11
-0.4000000000072798
 21
-0.6928203230233483
 31
0.0
210
0.0
220
0.0
230
1.0
 40
0.5773502691896255
 41
0.0000000000727879
 42
2.094395102429583
  0
LINE
  5
3BBD
330
3ABF
100
AcDbEntity
  8
0
100
AcDbLine
 10
-53.72797869228975
 20
-29.60693465499426
 30
0.0
 11
-53.07014917613911
 21
-26.392285381747
 31
0.0
  0
LINE
  5
3BBE
330
3ABF
100
AcDbEntity
  8
0
100
AcDbLine
 10
-52.66731852050994
 20
-30.21930709069005
 30
0.0
 11
-53.72797869228975
 21
-29.60693465499426
 31
0.0
  0
LINE
  5
3BBF
330
3ABF
100
AcDbEntity
  8
0
100
AcDbLine
 10
-51.87485027518667
 20
-26.34671182648398
 30
0.0
 11
-52.66731852050994
 21
-30.21930709069005
 31
0.0
  0
LINE
  5
3BC0
330
3ABF
100
AcDbEntity
  8
0
100
AcDbLine
 10
-51.87485027518667
 20
-26.34671182648398
 30
0.0
 11
-52.56767059822148
 21
-25.94671182647978
 31
0.0
  0
ELLIPSE
  5
3BC1
330
3ABF
100
AcDbEntity
  8
0
100
AcDbEllipse
 10
-52.42126043669777
 20
-26.49312198798473
 30
0.0
 11
0.4000000000000002
 21
0.6928203230275524
 31
0.0
210
0.0
220
0.0
230
0.9999999999999998
 40
0.5773502691896255
 41
5.235987755964796
 42
7.330382858357991
  0
LINE
  5
3BC2
330
3ABF
100
AcDbEntity
  8
0
100
AcDbLine
 10
-55.52520235294657
 20
-28.56930709059997
 30
0.0
 11
-52.56767059820162
 21
-25.94671182646214
 31
0.0
  0
ELLIPSE
  5
3BC3
330
3ABF
100
AcDbEntity
  8
0
100
AcDbEllipse
 10
-55.37879219144276
 20
-29.11571725212256
 30
0.0
 11
-0.4000000000072796
 21
-0.6928203230233497
 31
0.0
210
0.0
220
0.0
230
0.9999999999999998
 40
0.5773502691896255
 41
4.188790204822788
 42
6.283185307252363
  0
LINE
  5
3BC4
330
3ABF
100
AcDbEntity
  8
0
100
AcDbLine
 10
-53.61372868202831
 20
-31.05853757521416
 30
0.0
 11
-55.77879219145003
 21
-29.80853757514592
 31
0.0
  0
ELLIPSE
  5
3BC5
330
3ABF
100
AcDbEntity
  8
0
100
AcDbEllipse
 10
-53.21372868202104
 20
-30.3657172521908
 30
0.0
 11
-0.4000000000000412
 21
-0.6928203230275272
 31
0.0
210
0.0
220
0.0
230
1.0
 40
0.5773502691896259
 41
0.0
 42
2.094395102375102
  0
ELLIPSE
  5
3BC6
330
3ABF
100
AcDbEntity
  8
0
100
AcDbEllipse
 10
-66.17126043690252
 20
-44.53531790004235
 30
0.0
 11
1.250000000000127
 21
2.165063509461022
 31
0.0
210
0.0
220
0.0
230
1.0
 40
0.577350269189626
 41
0.0
 42
6.283185307179586
  0
LINE
  5
3BC7
330
3ABF
100
AcDbEntity
  8
0
100
AcDbLine
 10
-14.93345108852421
 20
3.971556958385371
 30
0.0
 11
-52.49699636841427
 21
-61.0904119787984
 31
0.0
  0
LINE
  5
3BC8
330
3ABF
100
AcDbEntity
  8
0
100
AcDbLine
 10
-53.22126043712614
 20
-60.67225792376319
 30
0.0
 11
-52.49699636841428
 21
-61.0904119787984
 31
0.0
  0
LINE
  5
3BC9
330
3ABF
100
AcDbEntity
  8
0
100
AcDbLine
 10
-53.2212604371262
 20
-60.67225792376323
 30
0.0
 11
-16.52126043791415
 21
2.894006712649863
 31
0.0
  0
ENDBLK
  5
3AC1
330
3ABF
100
AcDbEntity
  8
0
100
AcDbBlockEnd
  0
ENDSEC
  0
SECTION
  2
ENTITIES
  0
INSERT
  5
3BCA
330
1F
100
AcDbEntity
  8
0
100
AcDbBlockReference
  2
SPR120_140-Front
 10
0.0
 20
0.0
 30
0.0
  0
INSERT
  5
3BCB
330
1F
100
AcDbEntity
  8
0
100
AcDbBlockReference
  2
SPR120_140-Left
 10
161.4229986469886
 20
0.0
 30
0.0
  0
INSERT
  5
3BCC
330
1F
100
AcDbEntity
  8
0
100
AcDbBlockReference
  2
SPR120_140-Right
 10
-161.4229986469887
 20
0.0
 30
0.0
  0
INSERT
  5
3BCD
330
1F
100
AcDbEntity
  8
0
100
AcDbBlockReference
  2
SPR120_140-Top
 10
0.0
 20
-114.545601705951
 30
0.0
  0
INSERT
  5
3BCE
330
1F
100
AcDbEntity
  8
0
100
AcDbBlockReference
  2
SPR120_140-Bottom
 10
0.0
 20
199.5659080859887
 30
0.0
  0
INSERT
  5
3BCF
330
1F
100
AcDbEntity
  8
0
100
AcDbBlockReference
  2
SPR120_140-ISO
 10
233.9049192557392
 20
-236.03526872735
 30
0.0
  0
MTEXT
  5
3BD0
330
1F
100
AcDbEntity
  8
0
100
AcDbMText
 10
0.0
 20
-255.4445760657996
 30
0.0
 40
19.63196936199623
 41
0.0
 71
     5
 72
     5
  1
SPR120/140
 73
     1
 44
1.0
1001
ACAD
1000
MTEXTBEGIN
1070
    73
1070
     1
1070
    44
1040
1.0
1070
    74
1070
     0
1000
MTEXTEND
  0
ENDSEC
  0
SECTION
  2
OBJECTS
  0
DICTIONARY
  5
C
330
0
100
AcDbDictionary
281
     1
  3
ACAD_CIP_PREVIOUS_PRODUCT_INFO
350
216
  3
ACAD_COLOR
350
6B
  3
ACAD_DETAILVIEWSTYLE
350
21B
  3
ACAD_GROUP
350
D
  3
ACAD_LAYOUT
350
1A
  3
ACAD_MATERIAL
350
6A
  3
ACAD_MLEADERSTYLE
350
12D
  3
ACAD_MLINESTYLE
350
17
  3
ACAD_PLOTSETTINGS
350
19
  3
ACAD_PLOTSTYLENAME
350
E
  3
ACAD_SCALELIST
350
10C
  3
ACAD_SECTIONVIEWSTYLE
350
219
  3
ACAD_TABLESTYLE
350
7E
  3
ACAD_VISUALSTYLE
350
EF
  3
ACDB_RECOMPOSE_DATA
350
3CD1
  3
AcDbVariableDictionary
350
5E
  3
DWGPROPS
350
3CD2
  0
DICTIONARY
  5
3C21
330
8
100
AcDbDictionary
280
     1
281
     1
  0
DICTIONARY
  5
1FF
330
2
100
AcDbDictionary
280
     1
281
     1
  3
ACAD_LAYERSTATES
360
200
  0
DICTIONARY
  5
13C
330
10
100
AcDbDictionary
280
     1
281
     1
  0
DICTIONARY
  5
1CE
330
1F
100
AcDbDictionary
280
     1
281
     1
  3
ACAD_LAYOUTSELFREF
360
3C29
  0
DICTIONARY
  5
3BD4
330
D2
100
AcDbDictionary
280
     1
281
     1
  3
ACAD_LAYOUTSELFREF
360
3C32
  0
DICTIONARY
  5
3BD6
330
D6
100
AcDbDictionary
280
     1
281
     1
  3
ACAD_LAYOUTSELFREF
360
3C35
  0
XRECORD
  5
216
102
{ACAD_REACTORS
330
C
102
}
330
C
100
AcDbXrecord
280
     1
300
ACD
300
2021
300
87393ACD_2021_0F
  0
DICTIONARY
  5
6B
102
{ACAD_REACTORS
330
C
102
}
330
C
100
AcDbDictionary
281
     1
  0
DICTIONARY
  5
21B
102
{ACAD_REACTORS
330
C
102
}
330
C
100
AcDbDictionary
281
     1
  3
Metric50
350
21C
  0
DICTIONARY
  5
D
102
{ACAD_REACTORS
330
C
102
}
330
C
100
AcDbDictionary
281
     1
  0
DICTIONARY
  5
1A
102
{ACAD_REACTORS
330
C
102
}
330
C
100
AcDbDictionary
281
     1
  3
Layout1
350
D3
  3
Layout2
350
D7
  3
Model
350
22
  0
DICTIONARY
  5
6A
102
{ACAD_REACTORS
330
C
102
}
330
C
100
AcDbDictionary
281
     1
  3
ByBlock
350
ED
  3
ByLayer
350
EC
  3
Global
350
EE
  0
DICTIONARY
  5
12D
102
{ACAD_REACTORS
330
C
102
}
330
C
100
AcDbDictionary
281
     1
  3
Standard
350
12E
  0
DICTIONARY
  5
17
102
{ACAD_REACTORS
330
C
102
}
330
C
100
AcDbDictionary
281
     1
  3
Standard
350
18
  0
DICTIONARY
  5
19
102
{ACAD_REACTORS
330
C
102
}
330
C
100
AcDbDictionary
281
     1
  0
ACDBDICTIONARYWDFLT
  5
E
102
{ACAD_REACTORS
330
C
102
}
330
C
100
AcDbDictionary
281
     1
  3
Normal
350
F
100
AcDbDictionaryWithDefault
340
F
  0
DICTIONARY
  5
10C
102
{ACAD_REACTORS
330
C
102
}
330
C
100
AcDbDictionary
281
     1
  3
A0
350
10D
  3
A1
350
1BE
  3
A2
350
1BF
  3
A3
350
1C0
  3
A4
350
1C1
  3
A5
350
1C2
  3
A6
350
1C3
  3
A7
350
1C4
  3
A8
350
1C5
  3
A9
350
1C6
  3
B0
350
1C7
  3
B1
350
1C8
  3
B2
350
1C9
  3
B3
350
1CA
  3
B4
350
1CB
  3
B5
350
1CC
  3
B6
350
1CD
  0
DICTIONARY
  5
219
102
{ACAD_REACTORS
330
C
102
}
330
C
100
AcDbDictionary
281
     1
  3
Metric50
350
21A
  0
DICTIONARY
  5
7E
102
{ACAD_REACTORS
330
C
102
}
330
C
100
AcDbDictionary
281
     1
  3
Standard
350
7F
  0
DICTIONARY
  5
EF
102
{ACAD_REACTORS
330
C
102
}
330
C
100
AcDbDictionary
281
     1
  3
2dWireframe
350
F5
  3
Basic
350
F4
  3
Brighten
350
FB
  3
ColorChange
350
FF
  3
Conceptual
350
F8
  3
Dim
350
FA
  3
EdgeColorOff
350
1E6
  3
Facepattern
350
FE
  3
Flat
350
F0
  3
FlatWithEdges
350
F1
  3
Gouraud
350
F2
  3
GouraudWithEdges
350
F3
  3
Hidden
350
F7
  3
JitterOff
350
1E4
  3
Linepattern
350
FD
  3
OverhangOff
350
1E5
  3
Realistic
350
F9
  3
Shaded
350
1F3
  3
Shaded with edges
350
1F2
  3
Shades of Gray
350
1EF
  3
Sketchy
350
1F0
  3
Thicken
350
FC
  3
Wireframe
350
F6
  3
X-Ray
350
1F1
  0
XRECORD
  5
3CD1
102
{ACAD_REACTORS
330
C
102
}
330
C
100
AcDbXrecord
280
     1
 90
        1
330
7F
  0
DICTIONARY
  5
5E
102
{ACAD_REACTORS
330
C
102
}
330
C
100
AcDbDictionary
281
     1
  3
CANNOSCALE
350
146
  3
CENTEREXE
350
259
  3
CENTERLTYPEFILE
350
25A
  3
CMLEADERSTYLE
350
145
  3
CTABLESTYLE
350
84
  3
CVIEWDETAILSTYLE
350
227
  3
CVIEWSECTIONSTYLE
350
228
  3
DIMASSOC
350
5F
  3
HIDETEXT
350
63
  3
INDEXCTL
350
3C7E
  3
LAYEREVAL
350
1AE
  3
LAYERNOTIFY
350
1AF
  3
LIGHTINGUNITS
350
3C7C
  3
MSLTSCALE
350
3C7B
  3
PSOLHEIGHT
350
3CCE
  3
PSOLWIDTH
350
3CCD
  3
SORTENTS
350
3C7D
  3
XCLIPFRAME
350
3CCF
  0
XRECORD
  5
3CD2
102
{ACAD_REACTORS
330
C
102
}
330
C
100
AcDbXrecord
280
     1
  1
DWGPROPS COOKIE
  2

  3

  4

  6

  7

  8
truole
  9

300
=
301
=
302
=
303
=
304
=
305
=
306
=
307
=
308
=
309
=
 40
0.002025462962963
 41
2460719.40650463
 42
2460719.41125
  1

 90
        0
  0
DICTIONARY
  5
200
102
{ACAD_REACTORS
330
1FF
102
}
330
1FF
100
AcDbDictionary
281
     1
  0
XRECORD
  5
3C29
102
{ACAD_REACTORS
330
1CE
102
}
330
1CE
100
AcDbXrecord
280
     1
340
1F
  0
XRECORD
  5
3C32
102
{ACAD_REACTORS
330
3BD4
102
}
330
3BD4
100
AcDbXrecord
280
     1
340
D2
  0
XRECORD
  5
3C35
102
{ACAD_REACTORS
330
3BD6
102
}
330
3BD6
100
AcDbXrecord
280
     1
340
D6
  0
ACDBDETAILVIEWSTYLE
  5
21C
102
{ACAD_XDICTIONARY
360
3D11
102
}
102
{ACAD_REACTORS
330
21B
102
}
330
21B
100
AcDbModelDocViewStyle
 70
     0
  3
Metric50
290
     0
100
AcDbDetailViewStyle
 70
     0
 71
     0
 90
        3
 71
     1
340
11
 40
5.0
340
0
 40
5.0
300

 40
0.0
280
     1
 71
     2
340
16
 90
       25
 71
     3
340
11
 40
5.0
 90
        0
 40
15.0
 90
        1
300
%<\AcVar ViewDetailId>% (%<\AcVar ViewScale \f "%sn">%)
 71
     4
340
16
 90
       25
340
16
 90
       25
280
     0
  0
LAYOUT
  5
D3
102
{ACAD_XDICTIONARY
360
3CD6
102
}
102
{ACAD_REACTORS
330
1A
102
}
330
1A
100
AcDbPlotSettings
  1

  2
C:\Documents and Settings\basas\Application Data\Autodesk\AutoCAD 2005\R16.1\enu\plotters\Default Windows System Printer.pc3
  4

  6

 40
0.0
 41
0.0
 42
0.0
 43
0.0
 44
0.0
 45
0.0
 46
0.0
 47
0.0
 48
0.0
 49
0.0
140
0.0
141
0.0
142
1.0
143
1.0
 70
   688
 72
     0
 73
     0
 74
     5
  7

 75
    16
147
1.0
148
0.0
149
0.0
100
AcDbLayout
  1
Layout1
 70
     1
 71
     1
 10
0.0
 20
0.0
 11
12.0
 21
9.0
 12
0.0
 22
0.0
 32
0.0
 14
0.0
 24
0.0
 34
0.0
 15
0.0
 25
0.0
 35
0.0
146
0.0
 13
0.0
 23
0.0
 33
0.0
 16
1.0
 26
0.0
 36
0.0
 17
0.0
 27
1.0
 37
0.0
 76
     0
330
D2
  0
LAYOUT
  5
D7
102
{ACAD_XDICTIONARY
360
3CD8
102
}
102
{ACAD_REACTORS
330
1A
102
}
330
1A
100
AcDbPlotSettings
  1

  2
C:\Documents and Settings\basas\Application Data\Autodesk\AutoCAD 2005\R16.1\enu\plotters\Default Windows System Printer.pc3
  4

  6

 40
0.0
 41
0.0
 42
0.0
 43
0.0
 44
0.0
 45
0.0
 46
0.0
 47
0.0
 48
0.0
 49
0.0
140
0.0
141
0.0
142
1.0
143
1.0
 70
   688
 72
     0
 73
     0
 74
     5
  7

 75
    16
147
1.0
148
0.0
149
0.0
100
AcDbLayout
  1
Layout2
 70
     1
 71
     2
 10
0.0
 20
0.0
 11
12.0
 21
9.0
 12
0.0
 22
0.0
 32
0.0
 14
0.0
 24
0.0
 34
0.0
 15
0.0
 25
0.0
 35
0.0
146
0.0
 13
0.0
 23
0.0
 33
0.0
 16
1.0
 26
0.0
 36
0.0
 17
0.0
 27
1.0
 37
0.0
 76
     0
330
D6
  0
LAYOUT
  5
22
102
{ACAD_XDICTIONARY
360
3CD3
102
}
102
{ACAD_REACTORS
330
1A
102
}
330
1A
100
AcDbPlotSettings
  1

  2
none_device
  4
ISO_A4_(210.00_x_297.00_MM)
  6

 40
7.5
 41
20.0
 42
7.5
 43
20.0
 44
210.0
 45
297.0
 46
11.54999923706054
 47
-13.65000009536743
 48
0.0
 49
0.0
140
0.0
141
0.0
142
1.0
143
8.704084754739808
 70
 11952
 72
     1
 73
     0
 74
     0
  7

 75
     0
147
0.1148885871608098
148
0.0
149
0.0
100
AcDbLayout
  1
Model
 70
     1
 71
     0
 10
0.0
 20
0.0
 11
12.0
 21
9.0
 12
0.0
 22
0.0
 32
0.0
 14
0.0
 24
0.0
 34
0.0
 15
0.0
 25
0.0
 35
0.0
146
0.0
 13
0.0
 23
0.0
 33
0.0
 16
1.0
 26
0.0
 36
0.0
 17
0.0
 27
1.0
 37
0.0
 76
     0
330
1F
331
EA
1001
ACAD_PSEXT
1000
None
1000
None
1000
Not applicable
1000
The layout will not be plotted unless a new plotter configuration name is selected.
1070
     0
  0
MATERIAL
  5
ED
102
{ACAD_XDICTIONARY
360
1F9
102
}
102
{ACAD_REACTORS
330
6A
102
}
330
6A
100
AcDbMaterial
  1
ByBlock
  0
MATERIAL
  5
EC
102
{ACAD_XDICTIONARY
360
1F7
102
}
102
{ACAD_REACTORS
330
6A
102
}
330
6A
100
AcDbMaterial
  1
ByLayer
  0
MATERIAL
  5
EE
102
{ACAD_XDICTIONARY
360
173
102
}
102
{ACAD_REACTORS
330
6A
102
}
330
6A
100
AcDbMaterial
  1
Global
 43
0.0007999999797903
 43
0.0
 43
0.0
 43
0.0
 43
0.0
 43
0.0007999999797903
 43
0.0
 43
0.0
 43
0.0
 43
0.0
 43
1.0
 43
0.0
 43
0.0
 43
0.0
 43
0.0
 43
1.0
 49
0.0007999999797903
 49
0.0
 49
0.0
 49
0.0
 49
0.0
 49
0.0007999999797903
 49
0.0
 49
0.0
 49
0.0
 49
0.0
 49
1.0
 49
0.0
 49
0.0
 49
0.0
 49
0.0
 49
1.0
142
0.0007999999797903
142
0.0
142
0.0
142
0.0
142
0.0
142
0.0007999999797903
142
0.0
142
0.0
142
0.0
142
0.0
142
1.0
142
0.0
142
0.0
142
0.0
142
0.0
142
1.0
144
0.0007999999797903
144
0.0
144
0.0
144
0.0
144
0.0
144
0.0007999999797903
144
0.0
144
0.0
144
0.0
144
0.0
144
1.0
144
0.0
144
0.0
144
0.0
144
0.0
144
1.0
1001
ACAD
1070
    -1
1070
     3
1070
     0
1000

1071
        0
1070
     0
  0
MLEADERSTYLE
  5
12E
102
{ACAD_XDICTIONARY
360
3CFD
102
}
102
{ACAD_REACTORS
330
12D
102
}
330
12D
100
AcDbMLeaderStyle
170
     2
171
     1
172
     0
 90
        2
 40
0.0
 41
0.0
173
     1
 91
-1056964608
340
14
 92
       -2
290
     1
 42
2.0
291
     1
 43
8.0
  3
Standard
 44
4.0
300

342
11
174
     1
178
     1
175
     1
176
     0
 93
-1056964608
 45
4.0
292
     0
297
     0
 46
4.0
 94
-1056964608
 47
1.0
 49
1.0
140
1.0
293
     1
141
0.0
294
     1
177
     0
142
1.0
295
     0
296
     0
143
3.75
1001
ACAD_MLEADERVER
1070
     2
  0
MLINESTYLE
  5
18
102
{ACAD_REACTORS
330
17
102
}
330
17
100
AcDbMlineStyle
  2
STANDARD
 70
     0
  3

 62
   256
 51
90.0
 52
90.0
 71
     2
 49
0.5
 62
   256
  6
BYLAYER
 49
-0.5
 62
   256
  6
BYLAYER
  0
ACDBPLACEHOLDER
  5
F
102
{ACAD_REACTORS
330
E
102
}
330
E
  0
SCALE
  5
10D
102
{ACAD_REACTORS
330
10C
102
}
330
10C
100
AcDbScale
 70
     0
300
1:1
140
1.0
141
1.0
290
     1
  0
SCALE
  5
1BE
102
{ACAD_REACTORS
330
10C
102
}
330
10C
100
AcDbScale
 70
     0
300
1:2
140
1.0
141
2.0
290
     0
  0
SCALE
  5
1BF
102
{ACAD_REACTORS
330
10C
102
}
330
10C
100
AcDbScale
 70
     0
300
1:4
140
1.0
141
4.0
290
     0
  0
SCALE
  5
1C0
102
{ACAD_REACTORS
330
10C
102
}
330
10C
100
AcDbScale
 70
     0
300
1:5
140
1.0
141
5.0
290
     0
  0
SCALE
  5
1C1
102
{ACAD_REACTORS
330
10C
102
}
330
10C
100
AcDbScale
 70
     0
300
1:8
140
1.0
141
8.0
290
     0
  0
SCALE
  5
1C2
102
{ACAD_REACTORS
330
10C
102
}
330
10C
100
AcDbScale
 70
     0
300
1:10
140
1.0
141
10.0
290
     0
  0
SCALE
  5
1C3
102
{ACAD_REACTORS
330
10C
102
}
330
10C
100
AcDbScale
 70
     0
300
1:16
140
1.0
141
16.0
290
     0
  0
SCALE
  5
1C4
102
{ACAD_REACTORS
330
10C
102
}
330
10C
100
AcDbScale
 70
     0
300
1:20
140
1.0
141
20.0
290
     0
  0
SCALE
  5
1C5
102
{ACAD_REACTORS
330
10C
102
}
330
10C
100
AcDbScale
 70
     0
300
1:30
140
1.0
141
30.0
290
     0
  0
SCALE
  5
1C6
102
{ACAD_REACTORS
330
10C
102
}
330
10C
100
AcDbScale
 70
     0
300
1:40
140
1.0
141
40.0
290
     0
  0
SCALE
  5
1C7
102
{ACAD_REACTORS
330
10C
102
}
330
10C
100
AcDbScale
 70
     0
300
1:50
140
1.0
141
50.0
290
     0
  0
SCALE
  5
1C8
102
{ACAD_REACTORS
330
10C
102
}
330
10C
100
AcDbScale
 70
     0
300
1:100
140
1.0
141
100.0
290
     0
  0
SCALE
  5
1C9
102
{ACAD_REACTORS
330
10C
102
}
330
10C
100
AcDbScale
 70
     0
300
2:1
140
2.0
141
1.0
290
     0
  0
SCALE
  5
1CA
102
{ACAD_REACTORS
330
10C
102
}
330
10C
100
AcDbScale
 70
     0
300
4:1
140
4.0
141
1.0
290
     0
  0
SCALE
  5
1CB
102
{ACAD_REACTORS
330
10C
102
}
330
10C
100
AcDbScale
 70
     0
300
8:1
140
8.0
141
1.0
290
     0
  0
SCALE
  5
1CC
102
{ACAD_REACTORS
330
10C
102
}
330
10C
100
AcDbScale
 70
     0
300
10:1
140
10.0
141
1.0
290
     0
  0
SCALE
  5
1CD
102
{ACAD_REACTORS
330
10C
102
}
330
10C
100
AcDbScale
 70
     0
300
100:1
140
100.0
141
1.0
290
     0
  0
ACDBSECTIONVIEWSTYLE
  5
21A
102
{ACAD_XDICTIONARY
360
3D0F
102
}
102
{ACAD_REACTORS
330
219
102
}
330
219
100
AcDbModelDocViewStyle
 70
     0
  3
Metric50
290
     0
100
AcDbSectionViewStyle
 70
     0
 71
     0
 90
      102
 71
     1
340
11
 40
5.0
340
0
340
0
 40
5.0
300
I, O, Q, S, X, Z
 40
10.0
 90
        0
 40
2.5
 90
        0
 71
     2
340
16
 90
       25
340
16
 90
       50
 40
5.0
 40
2.5
 40
5.0
 71
     3
340
11
 40
5.0
 90
        0
 40
15.0
 90
        1
300
%<\AcVar ViewSectionStartId>%-%<\AcVar ViewSectionEndId>% (%<\AcVar ViewScale \f "%sn">%)
 71
     4
300
ANSI31
 40
1.0
 90
        0
290
     0
290
     0
 90
        6
 40
0.0
 40
1.570796326794896
 40
0.2617993877991494
 40
1.308996938995747
 40
-0.2617993877991494
 40
1.832595714594046
  0
TABLESTYLE
  5
7F
102
{ACAD_XDICTIONARY
360
162
102
}
102
{ACAD_REACTORS
330
7E
102
}
330
7E
100
AcDbTableStyle
  3
Standard
 70
     0
 71
     0
 40
1.5
 41
1.5
280
     0
281
     0
  7
Standard
140
4.5
170
     2
 62
     0
 63
     7
283
     0
274
    -2
284
     1
 64
     0
275
    -2
285
     1
 65
     0
276
    -2
286
     1
 66
     0
277
    -2
287
     1
 67
     0
278
    -2
288
     1
 68
     0
279
    -2
289
     1
 69
     0
  7
Standard
140
6.0
170
     5
 62
     0
 63
     7
283
     0
274
    -2
284
     1
 64
     0
275
    -2
285
     1
 65
     0
276
    -2
286
     1
 66
     0
277
    -2
287
     1
 67
     0
278
    -2
288
     1
 68
     0
279
    -2
289
     1
 69
     0
  7
Standard
140
4.5
170
     5
 62
     0
 63
     7
283
     0
274
    -2
284
     1
 64
     0
275
    -2
285
     1
 65
     0
276
    -2
286
     1
 66
     0
277
    -2
287
     1
 67
     0
278
    -2
288
     1
 68
     0
279
    -2
289
     1
 69
     0
  0
VISUALSTYLE
  5
F5
102
{ACAD_XDICTIONARY
360
3CE7
102
}
102
{ACAD_REACTORS
330
EF
102
}
330
EF
100
AcDbVisualStyle
  2
2dWireframe
 70
     4
 71
     0
 72
     2
 73
     1
 90
        0
 40
-0.6
 41
-30.0
 62
     5
 63
     7
 74
     1
 91
        4
 64
     7
 65
   257
 75
     1
175
     1
 42
1.0
 92
        0
 66
   257
 43
1.0
 76
     1
 77
     6
 78
     2
 67
     7
 79
     5
170
     0
171
     0
290
     0
174
     0
 93
        1
 44
0.0
173
     0
291
     0
 45
0.0
1001
ACAD
1000
AcDbSavedByObjectVersion
1070
     0
  0
VISUALSTYLE
  5
F4
102
{ACAD_XDICTIONARY
360
3CE5
102
}
102
{ACAD_REACTORS
330
EF
102
}
330
EF
100
AcDbVisualStyle
  2
Basic
 70
     7
 71
     1
 72
     0
 73
     1
 90
        0
 40
-0.6
 41
-30.0
 62
     5
 63
     7
 74
     0
 91
        4
 64
     7
 65
   257
 75
     1
175
     1
 42
1.0
 92
        8
 66
     7
 43
1.0
 76
     1
 77
     6
 78
     2
 67
     7
 79
     5
170
     0
171
     0
290
     0
174
     0
 93
        1
 44
0.0
173
     0
291
     1
 45
0.0
1001
ACAD
1000
AcDbSavedByObjectVersion
1070
     0
  0
VISUALSTYLE
  5
FB
102
{ACAD_XDICTIONARY
360
3CF3
102
}
102
{ACAD_REACTORS
330
EF
102
}
330
EF
100
AcDbVisualStyle
  2
Brighten
 70
    12
 71
     2
 72
     2
 73
     1
 90
        0
 40
-0.6
 41
-30.0
 62
     5
 63
     7
 74
     1
 91
        4
 64
     7
 65
   257
 75
     1
175
     1
 42
1.0
 92
        8
 66
     7
 43
1.0
 76
     1
 77
     6
 78
     2
 67
     7
 79
     5
170
     0
171
     0
290
     0
174
     0
 93
        1
 44
50.0
173
     0
291
     1
 45
0.0
1001
ACAD
1000
AcDbSavedByObjectVersion
1070
     0
  0
VISUALSTYLE
  5
FF
102
{ACAD_XDICTIONARY
360
3CFB
102
}
102
{ACAD_REACTORS
330
EF
102
}
330
EF
100
AcDbVisualStyle
  2
ColorChange
 70
    16
 71
     2
 72
     2
 73
     3
 90
        0
 40
-0.6
 41
-30.0
 62
     5
 63
     8
 74
     1
 91
        4
 64
     7
 65
   257
 75
     1
175
     1
 42
1.0
 92
        8
 66
     8
 43
1.0
 76
     1
 77
     6
 78
     2
 67
     7
 79
     5
170
     0
171
     0
290
     0
174
     0
 93
        1
 44
0.0
173
     0
291
     1
 45
0.0
1001
ACAD
1000
AcDbSavedByObjectVersion
1070
     0
  0
VISUALSTYLE
  5
F8
102
{ACAD_XDICTIONARY
360
3CED
102
}
102
{ACAD_REACTORS
330
EF
102
}
330
EF
100
AcDbVisualStyle
  2
Conceptual
 70
     9
 71
     3
 72
     2
 73
     1
 90
        0
 40
-0.6
 41
-30.0
 62
     5
 63
     7
 74
     2
 91
        2
 64
     7
 65
   257
 75
     1
175
     1
 42
40.0
 92
        8
 66
     7
 43
1.0
 76
     1
 77
     6
 78
     2
 67
     7
 79
     3
170
     0
171
     0
290
     0
174
     0
 93
        1
 44
0.0
173
     0
291
     0
 45
0.0
1001
ACAD
1000
AcDbSavedByObjectVersion
1070
     0
  0
VISUALSTYLE
  5
FA
102
{ACAD_XDICTIONARY
360
3CF1
102
}
102
{ACAD_REACTORS
330
EF
102
}
330
EF
100
AcDbVisualStyle
  2
Dim
 70
    11
 71
     2
 72
     2
 73
     1
 90
        0
 40
-0.6
 41
-30.0
 62
     5
 63
     7
 74
     1
 91
        4
 64
     7
 65
   257
 75
     1
175
     1
 42
1.0
 92
        8
 66
     7
 43
1.0
 76
     1
 77
     6
 78
     2
 67
     7
 79
     5
170
     0
171
     0
290
     0
174
     0
 93
        1
 44
-50.0
173
     0
291
     1
 45
0.0
1001
ACAD
1000
AcDbSavedByObjectVersion
1070
     0
  0
VISUALSTYLE
  5
1E6
102
{ACAD_XDICTIONARY
360
3D03
102
}
102
{ACAD_REACTORS
330
EF
102
}
330
EF
100
AcDbVisualStyle
  2
EdgeColorOff
 70
    22
 71
     2
 72
     2
 73
     0
 90
        0
 40
-0.6
 41
-30.0
 62
     5
 63
     7
 74
     1
 91
        4
 64
     7
 65
   257
 75
     1
175
     1
 42
1.0
 92
        8
 66
     7
 43
1.0
 76
     1
 77
     6
 78
     2
 67
     7
 79
     5
170
     0
171
     0
290
     0
174
     0
 93
        1
 44
0.0
173
     0
291
     1
 45
0.0
1001
ACAD
1000
AcDbSavedByObjectVersion
1070
     0
  0
VISUALSTYLE
  5
FE
102
{ACAD_XDICTIONARY
360
3CF9
102
}
102
{ACAD_REACTORS
330
EF
102
}
330
EF
100
AcDbVisualStyle
  2
Facepattern
 70
    15
 71
     2
 72
     2
 73
     1
 90
        0
 40
-0.6
 41
-30.0
 62
     5
 63
     7
 74
     1
 91
        4
 64
     7
 65
   257
 75
     1
175
     1
 42
1.0
 92
        8
 66
     7
 43
1.0
 76
     1
 77
     6
 78
     2
 67
     7
 79
     5
170
     0
171
     0
290
     0
174
     0
 93
        1
 44
0.0
173
     0
291
     1
 45
0.0
1001
ACAD
1000
AcDbSavedByObjectVersion
1070
     0
  0
VISUALSTYLE
  5
F0
102
{ACAD_XDICTIONARY
360
3CDD
102
}
102
{ACAD_REACTORS
330
EF
102
}
330
EF
100
AcDbVisualStyle
  2
Flat
 70
     0
 71
     2
 72
     1
 73
     1
 90
        2
 40
-0.6
 41
30.0
 62
     5
 63
     7
 74
     0
 91
        0
 64
     7
 65
   257
 75
     1
175
     1
 42
1.0
 92
        8
 66
     7
 43
1.0
 76
     1
 77
     6
 78
     2
 67
     7
 79
     5
170
     0
171
     0
290
     0
174
     0
 93
       13
 44
0.0
173
     0
291
     1
 45
0.0
1001
ACAD
1000
AcDbSavedByObjectVersion
1070
     0
  0
VISUALSTYLE
  5
F1
102
{ACAD_XDICTIONARY
360
3CDF
102
}
102
{ACAD_REACTORS
330
EF
102
}
330
EF
100
AcDbVisualStyle
  2
FlatWithEdges
 70
     1
 71
     2
 72
     1
 73
     1
 90
        2
 40
-0.6
 41
30.0
 62
     5
 63
     7
 74
     1
 91
        0
 64
     7
 65
   257
 75
     1
175
     1
 42
1.0
 92
        0
 66
   257
 43
1.0
 76
     1
 77
     6
 78
     2
 67
     7
 79
     5
170
     0
171
     0
290
     0
174
     0
 93
       13
 44
0.0
173
     0
291
     1
 45
0.0
1001
ACAD
1000
AcDbSavedByObjectVersion
1070
     0
  0
VISUALSTYLE
  5
F2
102
{ACAD_XDICTIONARY
360
3CE1
102
}
102
{ACAD_REACTORS
330
EF
102
}
330
EF
100
AcDbVisualStyle
  2
Gouraud
 70
     2
 71
     2
 72
     2
 73
     1
 90
        2
 40
-0.6
 41
30.0
 62
     5
 63
     7
 74
     0
 91
        0
 64
     7
 65
   257
 75
     1
175
     1
 42
1.0
 92
        0
 66
     7
 43
1.0
 76
     1
 77
     6
 78
     2
 67
     7
 79
     5
170
     0
171
     0
290
     0
174
     0
 93
       13
 44
0.0
173
     0
291
     1
 45
0.0
1001
ACAD
1000
AcDbSavedByObjectVersion
1070
     0
  0
VISUALSTYLE
  5
F3
102
{ACAD_XDICTIONARY
360
3CE3
102
}
102
{ACAD_REACTORS
330
EF
102
}
330
EF
100
AcDbVisualStyle
  2
GouraudWithEdges
 70
     3
 71
     2
 72
     2
 73
     1
 90
        2
 40
-0.6
 41
30.0
 62
     5
 63
     7
 74
     1
 91
        0
 64
     7
 65
   257
 75
     1
175
     1
 42
1.0
 92
        0
 66
   257
 43
1.0
 76
     1
 77
     6
 78
     2
 67
     7
 79
     5
170
     0
171
     0
290
     0
174
     0
 93
       13
 44
0.0
173
     0
291
     1
 45
0.0
1001
ACAD
1000
AcDbSavedByObjectVersion
1070
     0
  0
VISUALSTYLE
  5
F7
102
{ACAD_XDICTIONARY
360
3CEB
102
}
102
{ACAD_REACTORS
330
EF
102
}
330
EF
100
AcDbVisualStyle
  2
Hidden
 70
     6
 71
     1
 72
     2
 73
     2
 90
        0
 40
-0.6
 41
-30.0
 62
     5
 63
     7
 74
     2
 91
        2
 64
     7
 65
   257
 75
     2
175
     1
 42
40.0
 92
        0
 66
   257
 43
1.0
 76
     1
 77
     6
 78
     2
 67
     7
 79
     3
170
     0
171
     0
290
     0
174
     0
 93
        1
 44
0.0
173
     0
291
     0
 45
0.0
1001
ACAD
1000
AcDbSavedByObjectVersion
1070
     0
  0
VISUALSTYLE
  5
1E4
102
{ACAD_XDICTIONARY
360
3CFF
102
}
102
{ACAD_REACTORS
330
EF
102
}
330
EF
100
AcDbVisualStyle
  2
JitterOff
 70
    20
 71
     2
 72
     2
 73
     0
 90
        0
 40
-0.6
 41
-30.0
 62
     5
 63
     7
 74
     1
 91
        4
 64
     7
 65
   257
 75
     1
175
     1
 42
1.0
 92
       10
 66
     7
 43
1.0
 76
     1
 77
     6
 78
     2
 67
     7
 79
     5
170
     0
171
     0
290
     0
174
     0
 93
        1
 44
0.0
173
     0
291
     1
 45
0.0
1001
ACAD
1000
AcDbSavedByObjectVersion
1070
     0
  0
VISUALSTYLE
  5
FD
102
{ACAD_XDICTIONARY
360
3CF7
102
}
102
{ACAD_REACTORS
330
EF
102
}
330
EF
100
AcDbVisualStyle
  2
Linepattern
 70
    14
 71
     2
 72
     2
 73
     1
 90
        0
 40
-0.6
 41
-30.0
 62
     5
 63
     7
 74
     1
 91
        4
 64
     7
 65
   257
 75
     7
175
     7
 42
1.0
 92
        8
 66
     7
 43
1.0
 76
     1
 77
     6
 78
     2
 67
     7
 79
     5
170
     0
171
     0
290
     0
174
     0
 93
        1
 44
0.0
173
     0
291
     1
 45
0.0
1001
ACAD
1000
AcDbSavedByObjectVersion
1070
     0
  0
VISUALSTYLE
  5
1E5
102
{ACAD_XDICTIONARY
360
3D01
102
}
102
{ACAD_REACTORS
330
EF
102
}
330
EF
100
AcDbVisualStyle
  2
OverhangOff
 70
    21
 71
     2
 72
     2
 73
     0
 90
        0
 40
-0.6
 41
-30.0
 62
     5
 63
     7
 74
     1
 91
        4
 64
     7
 65
   257
 75
     1
175
     1
 42
1.0
 92
        9
 66
     7
 43
1.0
 76
     1
 77
     6
 78
     2
 67
     7
 79
     5
170
     0
171
     0
290
     0
174
     0
 93
        1
 44
0.0
173
     0
291
     1
 45
0.0
1001
ACAD
1000
AcDbSavedByObjectVersion
1070
     0
  0
VISUALSTYLE
  5
F9
102
{ACAD_XDICTIONARY
360
3CEF
102
}
102
{ACAD_REACTORS
330
EF
102
}
330
EF
100
AcDbVisualStyle
  2
Realistic
 70
     8
 71
     2
 72
     2
 73
     0
 90
        2
 40
-0.6
 41
30.0
 62
     5
 63
     7
 74
     0
 91
        0
 64
     7
 65
   257
 75
     1
175
     1
 42
1.0
 92
        8
 66
   257
 43
1.0
 76
     1
 77
     6
 78
     2
 67
     7
 79
     3
170
     0
171
     0
290
     0
174
     0
 93
       13
 44
0.0
173
     0
291
     0
 45
0.0
1001
ACAD
1000
AcDbSavedByObjectVersion
1070
     0
  0
VISUALSTYLE
  5
1F3
102
{ACAD_XDICTIONARY
360
3D0D
102
}
102
{ACAD_REACTORS
330
EF
102
}
330
EF
100
AcDbVisualStyle
  2
Shaded
 70
    27
 71
     2
 72
     2
 73
     1
 90
        2
 40
-0.6
 41
30.0
 62
     5
 63
     7
 74
     0
 91
        4
 64
     7
 65
   257
 75
     1
175
     1
 42
1.0
 92
        8
 66
   257
 43
1.0
 76
     1
 77
     6
 78
     2
 67
     8
 79
     3
170
     0
171
     0
290
     0
174
     0
 93
        5
 44
0.0
173
     0
291
     0
 45
0.0
1001
ACAD
1000
AcDbSavedByObjectVersion
1070
     0
  0
VISUALSTYLE
  5
1F2
102
{ACAD_XDICTIONARY
360
3D0B
102
}
102
{ACAD_REACTORS
330
EF
102
}
330
EF
100
AcDbVisualStyle
  2
Shaded with edges
 70
    26
 71
     2
 72
     2
 73
     1
 90
        2
 40
-0.6
 41
30.0
 62
     5
 63
     7
 74
     1
 91
        2
 64
     7
 65
   257
 75
     2
175
     1
 42
1.0
 92
        8
 66
   257
 43
1.0
 76
     1
 77
     6
 78
     2
 67
     7
 79
     3
170
     0
171
     0
290
     0
174
     0
 93
        5
 44
0.0
173
     0
291
     0
 45
0.0
1001
ACAD
1000
AcDbSavedByObjectVersion
1070
     0
  0
VISUALSTYLE
  5
1EF
102
{ACAD_XDICTIONARY
360
3D05
102
}
102
{ACAD_REACTORS
330
EF
102
}
330
EF
100
AcDbVisualStyle
  2
Shades of Gray
 70
    23
 71
     2
 72
     2
 73
     3
 90
        0
 40
-0.6
 41
-30.0
 62
     5
 63
     7
 74
     2
 91
        2
 64
     7
 65
     7
 75
     1
175
     1
 42
40.0
 92
        8
 66
     7
 43
1.0
 76
     1
 77
     6
 78
     2
 67
     7
 79
     3
170
     0
171
     0
290
     0
174
     0
 93
        1
 44
0.0
173
     0
291
     0
 45
0.0
1001
ACAD
1000
AcDbSavedByObjectVersion
1070
     0
  0
VISUALSTYLE
  5
1F0
102
{ACAD_XDICTIONARY
360
3D07
102
}
102
{ACAD_REACTORS
330
EF
102
}
330
EF
100
AcDbVisualStyle
  2
Sketchy
 70
    24
 71
     1
 72
     2
 73
     2
 90
        0
 40
-0.6
 41
-30.0
 62
     5
 63
     7
 74
     2
 91
        2
 64
     7
 65
     7
 75
     1
175
     1
 42
40.0
 92
       11
 66
     7
 43
1.0
 76
     1
 77
     6
 78
     2
 67
     7
 79
     6
170
     0
171
     0
290
     0
174
     0
 93
        1
 44
0.0
173
     0
291
     0
 45
0.0
1001
ACAD
1000
AcDbSavedByObjectVersion
1070
     0
  0
VISUALSTYLE
  5
FC
102
{ACAD_XDICTIONARY
360
3CF5
102
}
102
{ACAD_REACTORS
330
EF
102
}
330
EF
100
AcDbVisualStyle
  2
Thicken
 70
    13
 71
     2
 72
     2
 73
     1
 90
        0
 40
-0.6
 41
-30.0
 62
     5
 63
     7
 74
     1
 91
        4
 64
     7
 65
   257
 75
     1
175
     1
 42
1.0
 92
       12
 66
     7
 43
1.0
 76
     1
 77
     6
 78
     2
 67
     7
 79
     5
170
     0
171
     0
290
     0
174
     0
 93
        1
 44
0.0
173
     0
291
     1
 45
0.0
1001
ACAD
1000
AcDbSavedByObjectVersion
1070
     0
  0
VISUALSTYLE
  5
F6
102
{ACAD_XDICTIONARY
360
3CE9
102
}
102
{ACAD_REACTORS
330
EF
102
}
330
EF
100
AcDbVisualStyle
  2
Wireframe
 70
     5
 71
     0
 72
     2
 73
     0
 90
        0
 40
-0.6
 41
-30.0
 62
     5
 63
     7
 74
     1
 91
        4
 64
     7
 65
   257
 75
     1
175
     1
 42
1.0
 92
        0
 66
   257
 43
1.0
 76
     1
 77
     6
 78
     2
 67
     7
 79
     3
170
     0
171
     0
290
     0
174
     0
 93
        1
 44
0.0
173
     0
291
     0
 45
0.0
1001
ACAD
1000
AcDbSavedByObjectVersion
1070
     0
  0
VISUALSTYLE
  5
1F1
102
{ACAD_XDICTIONARY
360
3D09
102
}
102
{ACAD_REACTORS
330
EF
102
}
330
EF
100
AcDbVisualStyle
  2
X-Ray
 70
    25
 71
     2
 72
     2
 73
     1
 90
        1
 40
0.5
 41
-30.0
 62
     5
 63
     7
 74
     1
 91
        0
 64
     7
 65
   257
 75
     1
175
     1
 42
1.0
 92
        8
 66
     7
 43
1.0
 76
     1
 77
     6
 78
     2
 67
     7
 79
     3
170
     0
171
     0
290
     0
174
     0
 93
       13
 44
0.0
173
     0
291
     0
 45
0.0
1001
ACAD
1000
AcDbSavedByObjectVersion
1070
     0
  0
DICTIONARYVAR
  5
146
102
{ACAD_REACTORS
330
5E
102
}
330
5E
100
DictionaryVariables
280
     0
  1
1:1
  0
DICTIONARYVAR
  5
259
102
{ACAD_REACTORS
330
5E
102
}
330
5E
100
DictionaryVariables
280
     0
  1
3.500000
  0
DICTIONARYVAR
  5
25A
102
{ACAD_REACTORS
330
5E
102
}
330
5E
100
DictionaryVariables
280
     0
  1
acadiso.lin
  0
DICTIONARYVAR
  5
145
102
{ACAD_REACTORS
330
5E
102
}
330
5E
100
DictionaryVariables
280
     0
  1
STANDARD
  0
DICTIONARYVAR
  5
84
102
{ACAD_REACTORS
330
5E
102
}
330
5E
100
DictionaryVariables
280
     0
  1
STANDARD
  0
DICTIONARYVAR
  5
227
102
{ACAD_REACTORS
330
5E
102
}
330
5E
100
DictionaryVariables
280
     0
  1
Metric50
  0
DICTIONARYVAR
  5
228
102
{ACAD_REACTORS
330
5E
102
}
330
5E
100
DictionaryVariables
280
     0
  1
Metric50
  0
DICTIONARYVAR
  5
5F
102
{ACAD_REACTORS
330
5E
102
}
330
5E
100
DictionaryVariables
280
     0
  1
2
  0
DICTIONARYVAR
  5
63
102
{ACAD_REACTORS
330
5E
102
}
330
5E
100
DictionaryVariables
280
     0
  1
1
  0
DICTIONARYVAR
  5
3C7E
102
{ACAD_REACTORS
330
5E
102
}
330
5E
100
DictionaryVariables
280
     0
  1
0
  0
DICTIONARYVAR
  5
1AE
102
{ACAD_REACTORS
330
5E
102
}
330
5E
100
DictionaryVariables
280
     0
  1
0
  0
DICTIONARYVAR
  5
1AF
102
{ACAD_REACTORS
330
5E
102
}
330
5E
100
DictionaryVariables
280
     0
  1
0
  0
DICTIONARYVAR
  5
3C7C
102
{ACAD_REACTORS
330
5E
102
}
330
5E
100
DictionaryVariables
280
     0
  1
2
  0
DICTIONARYVAR
  5
3C7B
102
{ACAD_REACTORS
330
5E
102
}
330
5E
100
DictionaryVariables
280
     0
  1
1
  0
DICTIONARYVAR
  5
3CCE
102
{ACAD_REACTORS
330
5E
102
}
330
5E
100
DictionaryVariables
280
     0
  1
80.000000
  0
DICTIONARYVAR
  5
3CCD
102
{ACAD_REACTORS
330
5E
102
}
330
5E
100
DictionaryVariables
280
     0
  1
5.000000
  0
DICTIONARYVAR
  5
3C7D
102
{ACAD_REACTORS
330
5E
102
}
330
5E
100
DictionaryVariables
280
     0
  1
127
  0
DICTIONARYVAR
  5
3CCF
102
{ACAD_REACTORS
330
5E
102
}
330
5E
100
DictionaryVariables
280
     0
  1
2
  0
DICTIONARY
  5
3D11
330
21C
100
AcDbDictionary
280
     1
281
     1
  3
ACAD_XREC_ROUNDTRIP
360
3D12
  0
DICTIONARY
  5
3CD6
330
D3
100
AcDbDictionary
280
     1
281
     1
  3
ACAD_XREC_ROUNDTRIP
360
3CD7
  0
DICTIONARY
  5
3CD8
330
D7
100
AcDbDictionary
280
     1
281
     1
  3
ACAD_XREC_ROUNDTRIP
360
3CD9
  0
DICTIONARY
  5
3CD3
330
22
100
AcDbDictionary
280
     1
281
     1
  3
ACAD_XREC_ROUNDTRIP
360
3CD4
  0
DICTIONARY
  5
1F9
330
ED
100
AcDbDictionary
280
     1
281
     1
  3
ACAD_XREC_ROUNDTRIP
360
3CDB
  3
FBXASSET
360
1FA
  0
DICTIONARY
  5
1F7
330
EC
100
AcDbDictionary
280
     1
281
     1
  3
ACAD_XREC_ROUNDTRIP
360
3CDA
  3
FBXASSET
360
1F8
  0
DICTIONARY
  5
173
330
EE
100
AcDbDictionary
280
     1
281
     1
  3
ACAD_XREC_ROUNDTRIP
360
3CDC
  3
BUMPTILE
360
175
  3
DIFFUSETILE
360
174
  3
FBXASSET
360
1FB
  3
OPACITYTILE
360
176
  3
REFLECTIONTILE
360
177
  0
DICTIONARY
  5
3CFD
330
12E
100
AcDbDictionary
280
     1
281
     1
  3
ACAD_XREC_ROUNDTRIP
360
3CFE
  0
DICTIONARY
  5
3D0F
330
21A
100
AcDbDictionary
280
     1
281
     1
  3
ACAD_XREC_ROUNDTRIP
360
3D10
  0
DICTIONARY
  5
162
330
7F
100
AcDbDictionary
280
     1
281
     1
  3
ACAD_ROUNDTRIP_2008_TABLESTYLE_CELLSTYLEMAP
360
3CD0
  3
ACAD_XREC_ROUNDTRIP
360
3CD5
  0
DICTIONARY
  5
3CE7
330
F5
100
AcDbDictionary
280
     1
281
     1
  3
ACAD_XREC_ROUNDTRIP
360
3CE8
  0
DICTIONARY
  5
3CE5
330
F4
100
AcDbDictionary
280
     1
281
     1
  3
ACAD_XREC_ROUNDTRIP
360
3CE6
  0
DICTIONARY
  5
3CF3
330
FB
100
AcDbDictionary
280
     1
281
     1
  3
ACAD_XREC_ROUNDTRIP
360
3CF4
  0
DICTIONARY
  5
3CFB
330
FF
100
AcDbDictionary
280
     1
281
     1
  3
ACAD_XREC_ROUNDTRIP
360
3CFC
  0
DICTIONARY
  5
3CED
330
F8
100
AcDbDictionary
280
     1
281
     1
  3
ACAD_XREC_ROUNDTRIP
360
3CEE
  0
DICTIONARY
  5
3CF1
330
FA
100
AcDbDictionary
280
     1
281
     1
  3
ACAD_XREC_ROUNDTRIP
360
3CF2
  0
DICTIONARY
  5
3D03
330
1E6
100
AcDbDictionary
280
     1
281
     1
  3
ACAD_XREC_ROUNDTRIP
360
3D04
  0
DICTIONARY
  5
3CF9
330
FE
100
AcDbDictionary
280
     1
281
     1
  3
ACAD_XREC_ROUNDTRIP
360
3CFA
  0
DICTIONARY
  5
3CDD
330
F0
100
AcDbDictionary
280
     1
281
     1
  3
ACAD_XREC_ROUNDTRIP
360
3CDE
  0
DICTIONARY
  5
3CDF
330
F1
100
AcDbDictionary
280
     1
281
     1
  3
ACAD_XREC_ROUNDTRIP
360
3CE0
  0
DICTIONARY
  5
3CE1
330
F2
100
AcDbDictionary
280
     1
281
     1
  3
ACAD_XREC_ROUNDTRIP
360
3CE2
  0
DICTIONARY
  5
3CE3
330
F3
100
AcDbDictionary
280
     1
281
     1
  3
ACAD_XREC_ROUNDTRIP
360
3CE4
  0
DICTIONARY
  5
3CEB
330
F7
100
AcDbDictionary
280
     1
281
     1
  3
ACAD_XREC_ROUNDTRIP
360
3CEC
  0
DICTIONARY
  5
3CFF
330
1E4
100
AcDbDictionary
280
     1
281
     1
  3
ACAD_XREC_ROUNDTRIP
360
3D00
  0
DICTIONARY
  5
3CF7
330
FD
100
AcDbDictionary
280
     1
281
     1
  3
ACAD_XREC_ROUNDTRIP
360
3CF8
  0
DICTIONARY
  5
3D01
330
1E5
100
AcDbDictionary
280
     1
281
     1
  3
ACAD_XREC_ROUNDTRIP
360
3D02
  0
DICTIONARY
  5
3CEF
330
F9
100
AcDbDictionary
280
     1
281
     1
  3
ACAD_XREC_ROUNDTRIP
360
3CF0
  0
DICTIONARY
  5
3D0D
330
1F3
100
AcDbDictionary
280
     1
281
     1
  3
ACAD_XREC_ROUNDTRIP
360
3D0E
  0
DICTIONARY
  5
3D0B
330
1F2
100
AcDbDictionary
280
     1
281
     1
  3
ACAD_XREC_ROUNDTRIP
360
3D0C
  0
DICTIONARY
  5
3D05
330
1EF
100
AcDbDictionary
280
     1
281
     1
  3
ACAD_XREC_ROUNDTRIP
360
3D06
  0
DICTIONARY
  5
3D07
330
1F0
100
AcDbDictionary
280
     1
281
     1
  3
ACAD_XREC_ROUNDTRIP
360
3D08
  0
DICTIONARY
  5
3CF5
330
FC
100
AcDbDictionary
280
     1
281
     1
  3
ACAD_XREC_ROUNDTRIP
360
3CF6
  0
DICTIONARY
  5
3CE9
330
F6
100
AcDbDictionary
280
     1
281
     1
  3
ACAD_XREC_ROUNDTRIP
360
3CEA
  0
DICTIONARY
  5
3D09
330
1F1
100
AcDbDictionary
280
     1
281
     1
  3
ACAD_XREC_ROUNDTRIP
360
3D0A
  0
XRECORD
  5
3D12
102
{ACAD_REACTORS
330
3D11
102
}
330
3D11
100
AcDbXrecord
280
     1
102
DISPLAYNAME
  1
Metric50
102
FLAGS
 90
        0
  0
XRECORD
  5
3CD7
102
{ACAD_REACTORS
330
3CD6
102
}
330
3CD6
100
AcDbXrecord
280
     1
102
SHADEPLOT
 70
     0
102
SHADEPLOTRESLEVEL
 70
     2
102
SHADEPLOTCUSTOMDPI
 70
   300
  0
XRECORD
  5
3CD9
102
{ACAD_REACTORS
330
3CD8
102
}
330
3CD8
100
AcDbXrecord
280
     1
102
SHADEPLOT
 70
     0
102
SHADEPLOTRESLEVEL
 70
     2
102
SHADEPLOTCUSTOMDPI
 70
   300
  0
XRECORD
  5
3CD4
102
{ACAD_REACTORS
330
3CD3
102
}
330
3CD3
100
AcDbXrecord
280
     1
102
SHADEPLOT
 70
     0
102
SHADEPLOTRESLEVEL
 70
     2
102
SHADEPLOTCUSTOMDPI
 70
   300
  0
XRECORD
  5
3CDB
102
{ACAD_REACTORS
330
1F9
102
}
330
1F9
100
AcDbXrecord
280
     1
102
MATERIAL
148
0.0
149
0.0
149
0.0
 93
        0
 94
       63
282
     0
 72
     1
 77
     1
171
     1
175
     1
179
     1
273
     0
  0
XRECORD
  5
1FA
102
{ACAD_REACTORS
330
1F9
102
}
330
1F9
100
AcDbXrecord
280
     1
 70
     1
 90
429727718
  1
D62C5603-E3A1-4AEA-B7FB-FE5D8D0755AF
310
504B03040A0000080000CC70623B3DEE336E79000000790000001B0000006175746F6465736B2D64657369676E2D7061636B6167652E786D6C3C3F786D6C2076657273696F6E3D22312E302220656E636F64696E673D227574662D3822203F3E3C666F726D6174733E3C666F726D61743E687474703A2F2F736368656D612E
310
6175746F6465736B2E636F6D2F64657369676E2D7061636B6167652F323030393C2F666F726D61743E3C2F666F726D6174733E504B0304140006080800CC70623BD486FD9CA0000000F4000000130000005B436F6E74656E745F54797065735D2E786D6C7D8EC10E82300C865F65E91D8A1E8C310C0EEA1BF002731658846E
310
D98AC1B77784ABF1D8FE5FBFBF75BBCE937A534CCEB38643598122B6FEE978D0B0485F9C41B54DDD7D022595594E1A469170414C76A4D9A4D207E29CF43ECE46F218070CC6BECC4078ACAA135ACF422C856C0E68EA1BF5669944DDD7BCDE7B1F8E415D77AECB980613C2E4AC91FC167A2B244592486606FC29C8FD7F045B9A
310
EF7053A7E60B504B0304140006080800CC70623B853B8169EB0000007C01000008000000636F72652E786D6C8D90416EC3201045AF62CDB6C206821CC7C244919D9CA01740401C94182C03558F5F9C3852BBEB6A467FFE9B197D7EFC9E1EC5975982F5AE035262288C535E5B377690E21535501C055FBC8FBF6C503839990E
310
5619041F179FE64D52DE45E362569DD7661365082642A11EB9E920A89B99642953CC8E702F67A9EE7234257977194EC9EAE275C4EABCCF5EAD5940D4AC6F0E35A568B8F43562CD7046CD199FD07E60174276A7BE677B5EADB0E0D14EEFFB6A31321A0D82627C4084204C3F096B71DD52F6819B16635EADF63F509AF53FA164
310
5DDCD1EDDD17164090FCC8732078B56691CB33A85CD7DCC40F504B0304140006080800CC70623B55019EA25F0000007C00000007000000636E782E786D6C4DCB3B0E80201045D1AD90E915ED2CF8AC45050C11660C8261F98AB1B07AC9C97D42D718D865D3E909258CFD00CCE24AC6E326A164D74DC0B4128928FF32603847
310
2BA13128B1252AC747C6BAB984FC68F0B87FE8960A5C09FE86CFB69FBA01504B0304140006080800CC70623BDBABAAF470010000D40300000C0000006662782F636F72652E786D6CC553D16E823014FD95A6AF4B694182CC941A83FA05FB810A9511A125A5257EFE2E82712ECEB8A7F100CD39F7F69E734AF9FADC366850B6
310
AF8DCE7018308C942E4C59EB2AC3DE1D498AD15A706B8CFB56869196ADCAF00863C12B6B7C374385D14E6907A836A59A41D9F7CA615434B0C8705F7CAA5606D23BA8E84F41278B93AC54100640439DE0BDB320004D43C63716C7C399D30917DCFBBA9CD9BA8469F5B156168B24CED3F7248AC8769F27244EB73B92EED8862C
310
B7F13E0C179B3C8F979C8ECD82BBBABDAA2BAC924E9558448CBD9330242CFA08E3154B5651FCC6D215639C8EE5774DBE2B5F6CF2B5768B68963BB5F5588420E442FC700B1139D4CB01F450C1E918227C2E09DF070D8140C84E1E9AAB8F1340832A9CB13130A5F1376A908D57309505ECF2A0DF179C4E9D30F5B239B87E3823
310
7A79C6F31DE1A8A5AEC08474B03C7837EAE4938639B44E5932B833D2C6B6B279CDC613877FA26EE21F4A2A4C63EC7F29A2F301D1F9F7A0E37D145F504B0304140006080800CC70623B9C113CC27E0000009D0000000B0000006662782F636E782E786D6C4DCCDF0A83201C86E15B91DFB94BFB330DD428C8FB886521330DA7
310
6397BF1A1DECE883878F57749FCDA1B7892F1BBC047A23808C7F84D9FA55424E0BE6803A256208E9EF06C84F9B91703228B1C690F78B66B34CD9A5439DF5CF0BFBF65E35BCA1B8D6A5C6F540381E886698B5741C695F9503EBA150A2F8958E3DC3EA0B504B0304140006080800CC70623B7DF2F77C2A010000120200003100
310
00006662782F41393633353835312D344632462D344230382D423046372D3739314545314133324237412F636F72652E786D6C8D51DB8EC22014FC15C2939B0D2DB4B45643319AE817EC0F6041255A68B86CFCFC856D4D76DF7CE190393373060EDB3DC707F856CE6B6B7A480A0C81328395DA5C7B18C3057510EC3873D686
310
3F34088C18550F330C39BB3A1BA7051AAC09CA84841A2BD5020AEF55806078A44B0FFD7053A328440C89E1EFC52486BBB8AA8214A99D789CF9E05200300FC927E4FB4D5B375D43103D5527440FB843077C5AA3F5861C8F645F5787F59E95B390B318B55CE45AA638FAA2957BD7248B390B7A7CC51F9C124149C82B8C378810
310
84AB2F42B7B8DD56F413775B8C5999E9FF4471926F8AA236A1AE96B8B3CC434E5839373893369E1FAF30EA395917409EB7F26AF8801C171837A4A6AC9C89E9F9C9B1A58BA30FD6A5EF5DDDCF894B9AD9B6A59C957943A9FCAE2FD5BC4DFE03504B0304140006080800CC70623BAD7543B64E01000033030000300000006662
310
782F41393633353835312D344632462D344230382D423046372D3739314545314133324237412F636E782E786D6CD593CD6EC32010845F0571AD6CE3D48AD20813A9873E410FBD12D82434182C7EAAE6EDBB2424CD25871E7B41D6EC30B3FA84F9E67BB2E40B4234DE8DB46F1925E094D7C6ED479AD3AE5951B2113C789FEE
310
6C943839C1488B4C05DF079FE72A69D8C96C13AAD6B8631503449F83828872B949AC57D26200B826A308D316B4064D6E46FCDA41C05550DC9E483A00797BFD207EFB092A45DE9514C1BBD22178396BD39D891265658C238DEA00936C654E5E433CB65A26D9F6EDB5EBC14EBF49A45CB856E66048291F6939A9A81BB5C89177
310
38143CA680F4AA299D66A042CEB3354A2684DC9D8D178FE0D9B8B41CAAD720F880EE7EF93C0C18769E099ECC04D5A102C8049A8A05632F4DDF376CF1DE0F6BB65C2F8627B65A33C6BB62177CEBBDAD973006829F89F22E814B54F4BC2BE347F8AA8F681390B50FA73F804400B5F542E796F19FF974E7F78DB802FE05E20750
310
4B0304140006080800CC70623BE75B7789680500003C100000340000006662782F41393633353835312D344632462D344230382D423046372D3739314545314133324237412F6F626A656374732E786D6CAD575B8F9B3818FD2B887D06C22499CB8AA1CA655245D5B455A356FB305264C061D8018C6C3393D95FBFC7600890
310
A4CD5EF210B0B1BFEBF98E3F7B1FF6596ABC522E1296DF9BAE3D320D9A872C4AF2F8DE2CE5CEBA358D0FBEC719939D65A691938CDE9B6ADAF4BD98B3B2D05311DD91329583D9D5FC0F438434A7A611A644887B5384CF34233629258BA878B12322891DEFF6B66BD70BFB62634E8AE781D082709A4B588AF91C528CDA28B73F
310
1C998EEF39EABBEFA97FBD6A7C7E9553F9D3D79FE442923C3C523610337627CB87ABE99D359D4CC6D6E4FACAB5E6ABF9D2726FC6A3C5F56271377BB88362213924694B38DD99FE47C48627A1E7D49F5A8BB5E1A74C0A599ED3B0F21F1E56366B89112D681E218F0915D0D6F17AD41FBA2A369DCF6335D62ABBD39779D5DDD1
310
11D4D8DE3CBB96B2E04FB8202E41051754A1AA8E8F76B4C6DFE810B580B1547F4B84911149794252234D024EF8BBE963A95AE27B3D310A9D5C215C7960FAEE415ED75694C6AFB17BCACA5D99A60A9AA65F217B0BFC53292ACB92BF283FAD0D3621576592CB5BED907C2FA8E9DF794E35E97BEA31BED21FEB401ABB94C44839
310
DCACBF0E1C5DA8DA5B2F4DFFD32AD86F543D9E565E7056502E157C00AD2671CD534549AB752FCA9CDA00677A313F04E51B22FF19E57B300579E3C97EB29F682D92935CEC18CF901B7B54FD8C51F362B56FC72FE0B3C1EAE335EDCCBF5AEC39ADB17DC238973F804BA5E6F6BFE7AF1FB32E523BE9F3BD571418E3631DCA4D48
310
5250CF639223210A9446CA30052EDF057BD35F8329C1ECD84552BF0DC8D18BE7BCE23BFE6BD960AB4A7DE79923A103BEBD80F911CBAA2C60DB19B01CF164A5583B772EE6D3FFA56666CBCDA74DC97724A48F9A58967497E489C4D979006FD7A05E227A1EBDD0F737C623387A9C844D3709995625106D157315F8B8392CD4E0
310
A0B9A720C4BE9829CEF37EA1E13111214D53925356365ADA634861B52519DD27A00AEB808EAF0628E6F435519D446F45CF2C9CF5214F0A15B2F6D06B79DA3EE3CBF7F56780D2F4E7EF73A0F5E5B02A38D07DC852C6B7C1FBB6664213E0C39E3EBA7FF4E1AD23EA2829407C85E586727488B751B2DB9502BC7B228A3FD68B6E
310
A65A22397E690AA8D158D7E404EC8CDA235CC3B7D1898680131CEC2CDF2638C65196279577750F15884AEE19F94199155B92B13297978469D4F8D358DF0AEF7631E28DC8F0D9F437D5D39A83B2231A1D52D543813A824EF8D44BCFF2FA6A31BD1E8DAD87F1CCB526B3879935BF59CDADD5C37479BB1CDD4CA7B3556B516589
310
EF352754B706114D9C885EC9131DE6EFEB43D99AFE2391C2F958179413D7CFEF6B1B6DB1E7600F00DE6E5C67454A339A4BA2E0FBA85ED26F045D454F463DBFCE484C2F90F2E5E3666003662ED8F755951A7D1BECD5B30B550B2785C8E7320B7292A4838DDA71BBC863ED7613CAF659337A3354231D4FF4A182A54904C2898C
310
98B28C4AD0CE056CCF332A80986E571EE9DBC305BB5FEB7E509220A58D25CF042D712A806AC0AD0C657FDEF80D2D9CEAA2EE4D1C76F60BFE74219A06527D6F82DF6412526107381E55E353090704D085B52408A8913C4ED159D79BDA71BB4BC506F4831350EB6F975CD22D69BF7AC49B91A2C0A9DDA3D5CA36AD20FC478E37
310
E61844E2352865EBCB61A275A65283CAAA9DD27703B4102F5AF51EF5F573B75CBB5AD38BC845F7A49F82A0966A49C2E3EA5EA0ECD326CD965F1DB402C6FA8B51A4658C5C5E2EC9E214602E55810345408596591009A82E7E7FFACA19EEA299B14A0081A705CB3296EBC14CDF658DCD336EA6D1136881AAEB87B81AB9EE53D5
310
F5EB8BC8362082DA24122F98680A4E7930C01A0079749CEA14382A0783E5EBA5A10F8C098456A03D6A4AEB6BB881E2513747552A5DB22C7EDAF83BD5528081A365F7FF06504B0304140006080000CC70623B000000000000000000000000350000006662782F41393633353835312D344632462D344230382D423046372D37
310
39314545314133324237412F76657274696365732E62696E504B0304140006080800CC70623BF270F1330600000004000000360000006662782F41393633353835312D344632462D344230382D423046372D3739314545314133324237412F747269616E676C65732E62696E636660600000504B0304140006080000CC7062
310
3B000000000000000000000000370000006662782F41393633353835312D344632462D344230382D423046372D3739314545314133324237412F617474726962757465732E62696E504B0304140006080800CC70623B08DA0BD19000000041010000360000006662782F41393633353835312D344632462D344230382D4230
310
46372D3739314545314133324237412F6469726563746F72792E786D6C858F410AC3201045AF22B36F53E9A60B35CBEEBAE80D244E44489C6234F4F835464A48035D0DF398FF9F8AF63D0E6CC63039F212F8F9020C7D47C6792B21C5FE7403D62A1188E2E60C98D7234A5830286103A55745067B9D86B8A3CF9C7F90C11DE6
310
07FB144396D7B6A82D282E9A152AD114D5EF2CB866EEE831B8EEA07A7BB5A8D7D61A2BAAEB7FD5F70921FF497D00504B0304140006080800CC70623BEDD1DC58FD000000A00100003B0000006662782F41393633353835312D344632462D344230382D423046372D3739314545314133324237412F7265736F75726365732F
310
636F72652E786D6C8D504B6E833010BD0A9A6D65B00922041947112427E8052C33A156828DFCA97AFC9A40A576D7CDCCE87D344F8F9FBFE667F689CE6B6B3A6039850C8DB2A336530731DC4903D95970676DF82583CCC8193B5861107C72362E3BA4AC096842428D1D7107A5F7182053CF7474E0D507CE32973124857FE48B
310
540F3961CEF244279DE03EB81420DB9EAC1384436FA353E879B1B182C7A8C75DA3C7F453DF353A1075D537A7BA6464B8F535A99AE14A9A2BBD90E350DD183B5CFABE3AF262350B1EF4FC9351399401471025A527C218A1E53BAB5A5AB765F5469B96525EACF23FA6B88CFF34456DC2A1DCE36E360F82A5202F42F062ED2BAD
310
579969AFDD8A6F504B010214000A0000080000CC70623B3DEE336E79000000790000001B00000000000000000000000000000000006175746F6465736B2D64657369676E2D7061636B6167652E786D6C504B01021400140006080800CC70623BD486FD9CA0000000F40000001300000000000000000000000000B20000005B
310
436F6E74656E745F54797065735D2E786D6C504B01021400140006080800CC70623B853B8169EB0000007C010000080000000000000000000000000083010000636F72652E786D6C504B01021400140006080800CC70623B55019EA25F0000007C000000070000000000000000000000000094020000636E782E786D6C504B
310
01021400140006080800CC70623BDBABAAF470010000D40300000C00000000000000000000000000180300006662782F636F72652E786D6C504B01021400140006080800CC70623B9C113CC27E0000009D0000000B00000000000000000000000000B20400006662782F636E782E786D6C504B01021400140006080800CC70
310
623B7DF2F77C2A010000120200003100000000000000000000000000590500006662782F41393633353835312D344632462D344230382D423046372D3739314545314133324237412F636F72652E786D6C504B01021400140006080800CC70623BAD7543B64E010000330300003000000000000000000000000000D2060000
310
6662782F41393633353835312D344632462D344230382D423046372D3739314545314133324237412F636E782E786D6C504B01021400140006080800CC70623BE75B7789680500003C10000034000000000000000000000000006E0800006662782F41393633353835312D344632462D344230382D423046372D3739314545
310
314133324237412F6F626A656374732E786D6C504B01021400140006080000CC70623B0000000000000000000000003500000000000000000000000000280E00006662782F41393633353835312D344632462D344230382D423046372D3739314545314133324237412F76657274696365732E62696E504B01021400140006
310
080800CC70623BF270F133060000000400000036000000000000000000000000007B0E00006662782F41393633353835312D344632462D344230382D423046372D3739314545314133324237412F747269616E676C65732E62696E504B01021400140006080000CC70623B0000000000000000000000003700000000000000
310
000000000000D50E00006662782F41393633353835312D344632462D344230382D423046372D3739314545314133324237412F617474726962757465732E62696E504B01021400140006080800CC70623B08DA0BD1900000004101000036000000000000000000000000002A0F00006662782F41393633353835312D344632
310
462D344230382D423046372D3739314545314133324237412F6469726563746F72792E786D6C504B01021400140006080800CC70623BEDD1DC58FD000000A00100003B000000000000000000000000000E1000006662782F41393633353835312D344632462D344230382D423046372D3739314545314133324237412F7265
310
736F75726365732F636F72652E786D6C504B0506000000000E000E0080040000641100000000
  0
XRECORD
  5
3CDA
102
{ACAD_REACTORS
330
1F7
102
}
330
1F7
100
AcDbXrecord
280
     1
102
MATERIAL
148
0.0
149
0.0
149
0.0
 93
        0
 94
       63
282
     0
 72
     1
 77
     1
171
     1
175
     1
179
     1
273
     0
  0
XRECORD
  5
1F8
102
{ACAD_REACTORS
330
1F7
102
}
330
1F7
100
AcDbXrecord
280
     1
 70
     1
 90
429727718
  1
30362254-06B7-45E0-A893-8CFA70E3D6BC
310
504B03040A0000080000CC70623B3DEE336E79000000790000001B0000006175746F6465736B2D64657369676E2D7061636B6167652E786D6C3C3F786D6C2076657273696F6E3D22312E302220656E636F64696E673D227574662D3822203F3E3C666F726D6174733E3C666F726D61743E687474703A2F2F736368656D612E
310
6175746F6465736B2E636F6D2F64657369676E2D7061636B6167652F323030393C2F666F726D61743E3C2F666F726D6174733E504B0304140006080800CC70623BD486FD9CA0000000F4000000130000005B436F6E74656E745F54797065735D2E786D6C7D8EC10E82300C865F65E91D8A1E8C310C0EEA1BF002731658846E
310
D98AC1B77784ABF1D8FE5FBFBF75BBCE937A534CCEB38643598122B6FEE978D0B0485F9C41B54DDD7D022595594E1A469170414C76A4D9A4D207E29CF43ECE46F218070CC6BECC4078ACAA135ACF422C856C0E68EA1BF5669944DDD7BCDE7B1F8E415D77AECB980613C2E4AC91FC167A2B244592486606FC29C8FD7F045B9A
310
EF7053A7E60B504B0304140006080800CC70623B1EC5D7A3EB0000007C01000008000000636F72652E786D6C8D90416EC3201045AF82665B6103C6756C6122AB4D4ED00B204C5C94182C03558F5F9C3852BBEB6A467FFE9B197D71FC9E6FE8CBACC17AD7032D0820E3B41FAD9B7A48F1820F808E52ACDEC75F36404ECDA687
310
4D0629A6D5A76597B477D1B89855E747B38B2A041301E95B6E7A08FAD3CCAA50296647B8168BD2573599823EBB0CA76447F43862C7BCCF5EAC59410E4DDD9C7973C2755553CCCFA4C603E3040F1565ED3B1FDE4E432BCA0D9622DAF9795FAF464533826484B498524CD807E51D79ED187F21878E10516EF63F505AC67F42C9
310
BA58B1FDDD071640D2FCC87D2045B96591CB3DA85CB7DCE40F504B0304140006080800CC70623B55019EA25F0000007C00000007000000636E782E786D6C4DCB3B0E80201045D1AD90E915ED2CF8AC45050C11660C8261F98AB1B07AC9C97D42D718D865D3E909258CFD00CCE24AC6E326A164D74DC0B4128928FF32603847
310
2BA13128B1252AC747C6BAB984FC68F0B87FE8960A5C09FE86CFB69FBA01504B0304140006080800CC70623B8C9102E971010000D40300000C0000006662782F636F72652E786D6CC5535B6E833010BC8AE5DF0A6C08340F1947A84D4ED00B38C6A128602363A31CBFCB234A53A551FA553EC09AD9F5CE8C31DB9E9B1AF5CA
310
7695D1198E428A91D2D214952E33ECDD315861B4E5CC1AE3BE9561A445A3323CC098B3D21ADFCE9034DA29ED00D5A6503328BA4E398C640D8B0C77F253352214DE4145770A5B214FA2546114020D759C75CE8200340D19DE981F0F6746269C33EFAB6266AB02A655C74A59CCF365BADC27CB5D902ED22848F6340DF238A141
310
BE88E2F57B92BFEDF23523433367AE6A2EEAA455C2A902F398D2751045018D3FA264435F3771F242571B4A1919CA6F9A7C5B3CD9E42BED16F12C776AEB308F40C848FC700B1139D4891EF410CEC810227CC6846F8386402064270EF5C5C709A05E49676C024C61FC95EA45ED154CA5211D1FF4FB8291A913A68E9B83EBBB33
310
E2A7673CDE118E5AE8124C0807CB8377834E366998436B950D7A7746DAD846D4CFD978E0F04FD455FC5D49D2D4C6FE9722321F10997F0F32DC47FE05504B0304140006080800CC70623BFFEA85907E0000009D0000000B0000006662782F636E782E786D6C4DCCD10A83201886E15B91FFDC95D95A811AB6F23E625948A6C3
310
E9D8E5AF46073BFAE0E1E365ED67B3E8ADC3CB78C7815C7240DA3DFC64DCC221C519D7805AC182F7F1EF06C88D9BE6703008B6049F9E274D7A1E938DBB5AE3D6131B2589BA0D3D965551E0B2EA732C9B9A624AAEB41E3A557677029960D9AFB4EF11165F504B0304140006080800CC70623B4FEEA4082C0100001202000031
310
0000006662782F39464131463745442D413632322D343644302D413938332D3331353338454246344243312F636F72652E786D6C8D515B6EC32010BC0AE2AB55850DD871ED0813254D72825EC00192A2C460F1A872FC42ED48ED5F7E00CDCECCCEB26C731F6FE05B39AFADE921293004CA082BB5B9F43086336A21D870E6AC
310
0D7F68109861543DCC30E4ECE26C9C164858139409093556AA051CBC570102714B8F1E7AF1A5C6A11862480C7F2DA6415C878B2A4891CA89C7990F2E050073937C42DE1DB7E4F87ED8A36D4329AA9B3D46DBAEAD504556557BD81DEBDD0761E52CE42C462D17B996298E3E6BE59E35C962CE821E1FF18553435012728A7187
310
0841987E927A8D9B35ADDF70BBC6989599FE4F1427F9A4286A132ABAC49D651EF234CD5CE04CDA78BA3DC2A8FB645D00B9DF8B57E215725C60BCA2A463E54C4CE327C7A65E1C7DB02E7DEFCBF594B864C5CA6CDBD49C957943E9FA5D5FBAF336F90F504B0304140006080800CC70623BAD7543B64E01000033030000300000
310
006662782F39464131463745442D413632322D343644302D413938332D3331353338454246344243312F636E782E786D6CD593CD6EC32010845F0571AD6CE3D48AD20813A9873E410FBD12D82434182C7EAAE6EDBB2424CD25871E7B41D6EC30B3FA84F9E67BB2E40B4234DE8DB46F1925E094D7C6ED479AD3AE5951B2113C
310
789FEE6C943839C1488B4C05DF079FE72A69D8C96C13AAD6B8631503449F83828872B949AC57D26200B826A308D316B4064D6E46FCDA41C05550DC9E483A00797BFD207EFB092A45DE9514C1BBD22178396BD39D891265658C238DEA00936C654E5E433CB65A26D9F6EDB5EBC14EBF49A45CB856E66048291F6939A9A81BB5
310
C8917738143CA680F4AA299D66A042CEB3354A2684DC9D8D178FE0D9B8B41CAAD720F880EE7EF93C0C18769E099ECC04D5A102C8049A8A05632F4DDF376CF1DE0F6BB65C2F8627B65A33C6BB62177CEBBDAD973006829F89F22E814B54F4BC2BE347F8AA8F681390B50FA73F804400B5F542E796F19FF974E7F78DB802FE05
310
E207504B0304140006080800CC70623B16AB87BA640500003C100000340000006662782F39464131463745442D413632322D343644302D413938332D3331353338454246344243312F6F626A656374732E786D6CAD575B6FA33818FD2B887DE6924B3BED8A326A92B68A663B534DD4D13E548A0C38942D60649B369D5FBFC7
310
600890A493BDE42160637FD7F31D7FF63E6FB3D478A55C242CBF3247B66B1A340F5994E4F19559CA8D75611A9F7D8F33263BCB4C232719BD32D5B4E97B316765A1A722BA21652A07B3B7B33F0D11D29C9A46981221AE4C113ED38CD8A4942CA2E2C58E882476BCD9DA23BB5ED8171B73523C0F841684D35CC252CCE79062D4
310
468DFA43D7747CCF51DF7D4FFDEB5593E3AB9CCA9FBEFE241792E4E19EB28198C968BAB8199F5D5A67D3E9C49A9E8F47D6EC76B6B0469F26EEFC7C3EBFBCBEB98462213924694B38DD98FE1D62C393D073EA4FADC5DAF04326852CCF6958F90F0F2B9BB5C48816348F90C7840A68EB78EDF68723159BCEE7891A6B95DDE9D3
310
BCEAEEE8086A6C6F9E5D4B59F0175C10A7A0820BAA5055C7473B5AE3CFDD452D602CD5DF12616444529E90D448938013FE6EFA58AA96F85E4F8C42275708571E98FE6827AF6B2B4AE3D7D83D64E5A64C53054DD3AF90BD06FEA9149565C94FCA0F6B834DC85599E4F2423B24DF0B6AFA979E534DFA9E7A4CC6FA631D486393
310
921829879BF5D781A373557BCB85E97FB90DB62B558F8795179C15944B051F40AB495CF35451D26A4727654E6D8033BD98EF82F21D91FF8AF2DD9982BCF1643BDD4EB516C9492E368C67C88DED563FC36D5EACF66DFF057C3658BDBFA69DF9578B3DA735B64F18C7F20770A9D45CFCF7FCF563D6456A277DBEF78A02637CA2
310
43B90A490AEAB94F72244481D24819A6C0E59B606BFA4B3025981DBB48EAB701D97BF19C577CC77F2D1B6C55A9EF3C732474C0B727303F625995056C3B02963D9EAC146BE78EC5FCEC7FA999EBC5EACBAAE41B12D27B4D2C0BBA49F244E2ECDC81B76B502F113D8F5EE8FB1BE3111CDD4FC2AA9B844CAB1288B68AB90A7CDC
310
1C166AB0D3DC5310625FCC14E779BFD0709F8890A629C9292B1B2DED31A4B0DA928CEE135085754027E3018A397D4D5427D15BD1330B677DC8934285AC3DF45A9EB68FF8F2B8FC0A509AFEECFD0FF2DE25CC6047F7214B195F07EFEB9A094D800F7BFAE8FED187B78EA8A3A400F115961BCAD1215E47C966530AF0EE8128FE
310
58CEBB996A8964FFA529A046635D9353B0336A8F700DDF46271A024E70B0B37C9DE01847591E54DED53D54202AB947E4076556AC49C6CA5C9E1226B7F1A7B1BE15DEED62C41B91E1B3E9AFAAA735036547343A925075041DF0A9979E893B391F8FCFA6967B3EFB644DCF6E5CEBFAE272625DCC6FAF3FB93793C5F90CE1EF57
310
407342756B10D1C489E8953CD1617E5CEECAD6F4EF8914CE5D5D504E5C3F1F9736DA62CFC11E00BCDDB8CC8A9466349744C1F75EBDA4DF09BA8A9E8C7A7E9991989E20E5DBDD6A6003664ED8F7A04A8DBE0DF6EAD9B9AA858342E47399053949D2C146EDB85DE4B176BB0965FBAC19BD19AA918E27FA50C1D22402E144464C
310
59462568E704B6E71915404CB72B8FF4EDE184DDAF753F284990D2C6926782963815403548A70C657FDEF80D2D9CEAA2AE4C1C76F60BFE74219A06527D6582DF6412526107381E55E353090704D085B52408D0933C4ED159D79BDA71BB4BC506F4831350EB6F979CD22D69BF7AC49B91A2C0A9DDA3D5CA36AD20FC478E37E6
310
1844E2352865EBCB6EA275A652E3836BE04EFB400BF1A2556F515F1FBB35B2AB35BD889C744FFA1004B5544B121E57F70215746DD2F5E2C1412B602CBF19455AC6C8E5E9922C4E01E65215385004546899059180EAFCF7A707CE7017CD8CDB0410789AB32C63B91E5CEBBBACB17AC6CD347A022D5075FD106377347AAABA7E
310
7D11590744509B44E205134DC1290F06580320F78E537D3D73540E06CB970B431F185308AD40BBD794D6D77003C5A36E8EAA54BA64597CD8F83BD552A080A365F7FF06504B0304140006080000CC70623B000000000000000000000000350000006662782F39464131463745442D413632322D343644302D413938332D3331
310
353338454246344243312F76657274696365732E62696E504B0304140006080800CC70623BF270F1330600000004000000360000006662782F39464131463745442D413632322D343644302D413938332D3331353338454246344243312F747269616E676C65732E62696E636660600000504B0304140006080000CC70623B
310
000000000000000000000000370000006662782F39464131463745442D413632322D343644302D413938332D3331353338454246344243312F617474726962757465732E62696E504B0304140006080800CC70623B08DA0BD19000000041010000360000006662782F39464131463745442D413632322D343644302D413938
310
332D3331353338454246344243312F6469726563746F72792E786D6C858F410AC3201045AF22B36F53E9A60B35CBEEBAE80D244E44489C6234F4F835464A48035D0DF398FF9F8AF63D0E6CC63039F212F8F9020C7D47C6792B21C5FE7403D62A1188E2E60C98D7234A5830286103A55745067B9D86B8A3CF9C7F90C11DE607
310
FB144396D7B6A82D282E9A152AD114D5EF2CB866EEE831B8EEA07A7BB5A8D7D61A2BAAEB7FD5F70921FF497D00504B0304140006080800CC70623B0D6EF93BFE000000A00100003B0000006662782F39464131463745442D413632322D343644302D413938332D3331353338454246344243312F7265736F75726365732F63
310
6F72652E786D6C8D50596E833010BD0A9ADFCA60B334011947A8694ED00B586642AC041B79A97AFC9A40A5F6AF3F33A3B7689E1E3F7DCD8FEC139DD7D6F4C0720A191A65476DA61E62B892236427C19DB5E1970C322367EC618541F0C9D9B8EC90B226A009093576C41D94DE63804C3DD2D18357379C652E63480A7FCF17A9
310
EE72C29CE5894E3AC17D702940B63D59270887DE46A7D0F36263058F518FBB468FE9A7BE6A7420864373B8D4873369AA8691FA421B3294352543C5CAF65C0F6FEF43CB8BD52C78D0F34F46E550061C419494B6843142CB0F5677F4B52BEB177AEC28E5C52AFF638ACBF84F53D42654E51E77B379102C05791282176B5F693D
310
CB4C7BED567C03504B010214000A0000080000CC70623B3DEE336E79000000790000001B00000000000000000000000000000000006175746F6465736B2D64657369676E2D7061636B6167652E786D6C504B01021400140006080800CC70623BD486FD9CA0000000F40000001300000000000000000000000000B20000005B
310
436F6E74656E745F54797065735D2E786D6C504B01021400140006080800CC70623B1EC5D7A3EB0000007C010000080000000000000000000000000083010000636F72652E786D6C504B01021400140006080800CC70623B55019EA25F0000007C000000070000000000000000000000000094020000636E782E786D6C504B
310
01021400140006080800CC70623B8C9102E971010000D40300000C00000000000000000000000000180300006662782F636F72652E786D6C504B01021400140006080800CC70623BFFEA85907E0000009D0000000B00000000000000000000000000B30400006662782F636E782E786D6C504B01021400140006080800CC70
310
623B4FEEA4082C0100001202000031000000000000000000000000005A0500006662782F39464131463745442D413632322D343644302D413938332D3331353338454246344243312F636F72652E786D6C504B01021400140006080800CC70623BAD7543B64E010000330300003000000000000000000000000000D5060000
310
6662782F39464131463745442D413632322D343644302D413938332D3331353338454246344243312F636E782E786D6C504B01021400140006080800CC70623B16AB87BA640500003C1000003400000000000000000000000000710800006662782F39464131463745442D413632322D343644302D413938332D3331353338
310
454246344243312F6F626A656374732E786D6C504B01021400140006080000CC70623B0000000000000000000000003500000000000000000000000000270E00006662782F39464131463745442D413632322D343644302D413938332D3331353338454246344243312F76657274696365732E62696E504B01021400140006
310
080800CC70623BF270F133060000000400000036000000000000000000000000007A0E00006662782F39464131463745442D413632322D343644302D413938332D3331353338454246344243312F747269616E676C65732E62696E504B01021400140006080000CC70623B0000000000000000000000003700000000000000
310
000000000000D40E00006662782F39464131463745442D413632322D343644302D413938332D3331353338454246344243312F617474726962757465732E62696E504B01021400140006080800CC70623B08DA0BD190000000410100003600000000000000000000000000290F00006662782F39464131463745442D413632
310
322D343644302D413938332D3331353338454246344243312F6469726563746F72792E786D6C504B01021400140006080800CC70623B0D6EF93BFE000000A00100003B000000000000000000000000000D1000006662782F39464131463745442D413632322D343644302D413938332D3331353338454246344243312F7265
310
736F75726365732F636F72652E786D6C504B0506000000000E000E0080040000641100000000
  0
XRECORD
  5
3CDC
102
{ACAD_REACTORS
330
173
102
}
330
173
100
AcDbXrecord
280
     1
102
MATERIAL
148
0.0
149
0.0
149
0.0
 93
        0
 94
       63
282
     0
 72
     1
 77
     1
171
     1
175
     1
179
     1
273
     0
  0
XRECORD
  5
175
102
{ACAD_REACTORS
330
173
102
}
330
173
100
AcDbXrecord
280
     1
270
     1
271
     1
  0
XRECORD
  5
174
102
{ACAD_REACTORS
330
173
102
}
330
173
100
AcDbXrecord
280
     1
270
     1
271
     1
  0
XRECORD
  5
1FB
102
{ACAD_REACTORS
330
173
102
}
330
173
100
AcDbXrecord
280
     1
 70
     0
 90
1673772943
  1
ECE7A1D2-D628-4531-984C-D00F80459256
310
504B03040A0000080000CC70623B3DEE336E79000000790000001B0000006175746F6465736B2D64657369676E2D7061636B6167652E786D6C3C3F786D6C2076657273696F6E3D22312E302220656E636F64696E673D227574662D3822203F3E3C666F726D6174733E3C666F726D61743E687474703A2F2F736368656D612E
310
6175746F6465736B2E636F6D2F64657369676E2D7061636B6167652F323030393C2F666F726D61743E3C2F666F726D6174733E504B0304140006080800CC70623BD486FD9CA0000000F4000000130000005B436F6E74656E745F54797065735D2E786D6C7D8EC10E82300C865F65E91D8A1E8C310C0EEA1BF002731658846E
310
D98AC1B77784ABF1D8FE5FBFBF75BBCE937A534CCEB38643598122B6FEE978D0B0485F9C41B54DDD7D022595594E1A469170414C76A4D9A4D207E29CF43ECE46F218070CC6BECC4078ACAA135ACF422C856C0E68EA1BF5669944DDD7BCDE7B1F8E415D77AECB980613C2E4AC91FC167A2B244592486606FC29C8FD7F045B9A
310
EF7053A7E60B504B0304140006080800CC70623BD9DDAED0EC0000007C01000008000000636F72652E786D6C8D90416EC3201045AF82665B61836D9CD8C2444DD39CA01740405C94182C03558F5F9C3852BBEB6A467FFE9B197D7EF89E6EE8CB2CC17A37002D0820E394D7D68D03A478C17B4007C117EFE32F1B20272733C0
310
2A83E0E3E2D3BC49CABB685CCCAAF3DA6CA20CC14440EA969B0182FA34932C648AD911AEC52CD5558EA6A0CF2EC329598D1E47ACCEFBECC59A050463A7EA5833865FEBDD0E37353BE3EE8DBDE3F6786A48D375FBF6CC78B9C282473B3DEFABC5C86834888A900E538A49F5419B9EB47DD5BC907D4F082F57FB1F28CDFA9F50
310
B22ED6D5F6EE030B20687EE43E10BC5CB3C8E51E54AE6B6EE207504B0304140006080800CC70623B55019EA25F0000007C00000007000000636E782E786D6C4DCB3B0E80201045D1AD90E915ED2CF8AC45050C11660C8261F98AB1B07AC9C97D42D718D865D3E909258CFD00CCE24AC6E326A164D74DC0B4128928FF326038
310
472BA13128B1252AC747C6BAB984FC68F0B87FE8960A5C09FE86CFB69FBA01504B0304140006080800CC70623BA24EB22D72010000D40300000C0000006662782F636F72652E786D6CC5535B6E833010BC8AE5DF0A6C5E49888CA3A6694ED00B38E05014B091B1518EDFE511A5A9D228FD2A1F60CDEC7A67C6986DCE4D8D7A
310
69BA4AAB0C073EC548AA5C17952A33ECECD15B61B4E1CC686DBF9561A44423333CC098B3D268D7CE50AE9595CA02AA74216750749DB418E5352C32DCE59FB211BE70162ABA93DF8AFC244AE9073ED050C759670D0840D390E18DF9F1706664C23973AE2A66B62A605A75ACA4C13C4976E1364A12EF355A2EBD384AF65EFA96
310
BC7B8BED2EA6719AAE16FB8491A199335B351775B991C2CA02F390D2D40B028F861F41BCA68B7518BFD0D59A524686F29B26D7164F36B94AD9289CE54E6D1DE6010819891F6E21228B3AD1831EC219194284CF98F06DD01008846CC5A1BEF83801D4CBDC6A1303536877A57A513B0953A94FC707FDBE6064EA84A9E3E6E0FA
310
EE8CF0E9198F7784A316AA0413C2C2F2E0ECA0934D1AE6D05A69BCDE9E91D2A611F573361E38FC1375157F5752AE6B6DFE4B11990F88CCBF0719EE23FF02504B0304140006080800CC70623B408A7D3B7C0000009D0000000B0000006662782F636E782E786D6C4DCCD10A83201886E15B91FFDC552A92A0064DBC8F581632
310
D3703A76F9ABD1C18E3E78F878E5F0D9027ABBFCF2292AE86E2D20171F69F6715550CB827B40839639A5F2770314A7CD293819B45C73AAFB45B35BA61ACAA1C1C7E7855C58C15BC331339661262CC762340413D68D77DA5B42298546CBE6573AF60CEB2F504B0304140006080800CC70623B449FB9BD290100001202000031
310
0000006662782F36394639363044362D344446342D343946362D394244322D3234314243333846323333332F636F72652E786D6C8D515B6EC32010BC0AE22B55850D98B871848994463E412FE002495162B07854397EA176A4F62F3F2C9A9D991D587EB84F37F0AD7D30CEF6905418026DA553C65E7A98E219ED203808EE9D
310
8B7F6810D871D23D2C3014FCE25D9A57483A1BB58D19B54EE9151C43D0110279CB971E06F9A5A7B11A53CC8C70ADE6515EC78BAE4895DB992778883E0700CB907242D17643D7E2538BD869608875438BBAE38922CAC8F1BDD90DB4691A5E2F42C153326A951B95E398B3D1FE599322163C9AE9115F7A3D46ADA0A018778810
310
84E907617BDCEE297BC5BB3DC6BC2EF47FA234AB2745C9D8D8D035EE220B50105E2F0DC1954B9FB747187D9F9D8FA0CCDB042D5FA0C015C65B42DF78BD10F3F3B363CB56C7109DCFDFBBB97E662ED92EB62D13BC2E1BCAE5777DB9966D8A1F504B0304140006080800CC70623BAD7543B64E01000033030000300000006662
310
782F36394639363044362D344446342D343946362D394244322D3234314243333846323333332F636E782E786D6CD593CD6EC32010845F0571AD6CE3D48AD20813A9873E410FBD12D82434182C7EAAE6EDBB2424CD25871E7B41D6EC30B3FA84F9E67BB2E40B4234DE8DB46F1925E094D7C6ED479AD3AE5951B2113C789FEE
310
6C943839C1488B4C05DF079FE72A69D8C96C13AAD6B8631503449F83828872B949AC57D26200B826A308D316B4064D6E46FCDA41C05550DC9E483A00797BFD207EFB092A45DE9514C1BBD22178396BD39D891265658C238DEA00936C654E5E433CB65A26D9F6EDB5EBC14EBF49A45CB856E66048291F6939A9A81BB5C89177
310
38143CA680F4AA299D66A042CEB3354A2684DC9D8D178FE0D9B8B41CAAD720F880EE7EF93C0C18769E099ECC04D5A102C8049A8A05632F4DDF376CF1DE0F6BB65C2F8627B65A33C6BB62177CEBBDAD973006829F89F22E814B54F4BC2BE347F8AA8F681390B50FA73F804400B5F542E796F19FF974E7F78DB802FE05E20750
310
4B0304140006080800CC70623B8D05915C650500003B100000340000006662782F36394639363044362D344446342D343946362D394244322D3234314243333846323333332F6F626A656374732E786D6CAD575B6FA33814FE2B887D06429276DA1565D4266D158D3A339A6846FB502932E050B66023DB74D2FDF5FB190C01
310
9276B2973C046C8ECFF53B17071F77456EBD502133CEAE6CDF9DD81665314F32965ED995DA3A17B6F5310C04E7AA47665B8C14F4CAD6DB7618A48257A5D94AE89654B91AEDDEDDFC61C998326A5B714EA4BCB265FC440BE2924AF184CA6737218AB8E976E7FA6E4338649B0A523E8D98964450A6A029F619B8588D52FE7039
310
B1BD30F0F4F730D0FF866AF6369557DB33949F31A9088B0F848DD8CCFCF9F2767A76E99CCDE733677E3EF59D9BBB9BA5E37F984D16E78BC5E5F5ED25044B25C0C96822E8D60EEFE11B91C581D77CEA34368A1F5329E68CD1B8B61F16D63A1B8E092D294B10C78C4A48EB593D192E7DED9BDEE7995E1B91FDEDD3ACEA9FE831
310
6A756F9F7D4D79F4274C90A7A04248AA51D5F8C718DAE06FB2F75AC4796EBE65D22A88A22223B995679120E2D50E41AA49C260C046A35368846B0BECD0DFF3EBEB8AD4F835768F69B9ADF25C43D30E6B646F807FAA64AD59F61715C7A54127C4AACA98BA3006A9D792DAE165E0D59B61A01FB3A9F9D838D2DAE62445C86166
310
F37564E842E7DE6A69879FEEA2DD5AE7E371E1A5E025154AC307D06A03D73EB5978C58FFA4C8E9033066E0F3BD53BEC1F39F91BE7B55103791EDE6BBB991A2046172CB4581D8B893FA674DDA17A77B3B7C413D1B511FD2743BFF8A38F03A658705E3ADF8015C3A3417FF3D7E439FF591DA0B5F18BC20C1B8981957AE6392A3
310
F43C640C01D1A0B4728E2DD4F26DB4B3C3152A252A3B4E913CEC1C72F012782FF88EFF8637AA552DBEF76408E8A8DE9E50F9E1CB3A2DA0DB1B6039A893B56063DC5B3E3FFB5F72E67AB9FEB4AEC496C4F4C1149625DD662C53E89D7BF0F6151A046260D1337DFDC94502430F83B0EE07A130A224BCAD7DAE1D9FB6CD422FF6
310
920702629C4BB9AE79C12F243C6432A6794E18E5552BA56B431AAB5D91317302B2B071E86C3A42B1A02F999E24061403B5D0EB639195DA655DD3EBEAB4FB862DDF579F014AD0E73C22F99E28DA57FB98E75C6CA2D74D53086D600F4786E0FE3144B771A8A7B900F03594DB8A633CBC49B2EDB69228BB479CF863B5E807AAAB
310
23872F6DFEB4129B949CA33823F58830E86D65621E10047D9DB34D862E8EAC3C2ABC2F7B2C40D67CDFE01F5545B92105AF983AC54D93D69E56FB8E797F88913F898A9FEC705D3F9D1B54EC8426FB500D40A03BD0119B06E1B95DDC7EB8F6975367793EBD70E66733DFB9BC982F9CE564727731999F5D4ECFCE3B8D6A4DC2A0
310
6D50FD148437D110834A64C6CDDF57FBACB5C307A2A477DFE4939736CFEF2B175371E0E10CF0DD1D5C15654E0BCA14D1E87DD02FF93782A162C0A3D95F1524A52770F972BF1EE9809D13CE7DD599467F8ECE9ADD85CE85A34CD45355448C64F9E8A031DC2D596ACC6E5DD93D9B82DE2EF5CAF81363A8E47996A0DE24564A79
310
4115AACE09C55E14540231FDA13C319787134EBF34E3A022514E5B4D9E0826E25C02D5805B15ABE1BEF51B26383D445DD9E875EE33FE4C22DA16427D65A3BCA92CA6D28DD01DF5DC53330704308475351050232CCD31583787BA75774AFB06E5070DD0C8EF484E19968C5D83BA5B90B244D31E54D55A372320FE4786B7EA58
310
44E135AA5467CB7EA333A61683CC6A8C3257034C10CF46F40EF9F5BE59BE5BD30C3C72D235E95D10345C1D45445A5F0BB47E46A5EBE5570F9380B5FA629579952296A773720405982B9DE04011506178964401AA8BDF1FBF0A8EAB6861DD6580C0E38217056766716DAEB2D6FA0917D3E4116581EADB879C4E7CFFB11EFACD
310
3D641311495D92C8676CB409A72D18610D803CE8A626049E8EC1887CB5B44CC39883690DDA8399B4B9855B481E7D71D4A9D22F96E5BB73BF5793020C02137BF837504B0304140006080000CC70623B000000000000000000000000350000006662782F36394639363044362D344446342D343946362D394244322D32343142
310
43333846323333332F76657274696365732E62696E504B0304140006080800CC70623BF270F1330600000004000000360000006662782F36394639363044362D344446342D343946362D394244322D3234314243333846323333332F747269616E676C65732E62696E636660600000504B0304140006080000CC70623B0000
310
00000000000000000000370000006662782F36394639363044362D344446342D343946362D394244322D3234314243333846323333332F617474726962757465732E62696E504B0304140006080800CC70623B08DA0BD19000000041010000360000006662782F36394639363044362D344446342D343946362D394244322D
310
3234314243333846323333332F6469726563746F72792E786D6C858F410AC3201045AF22B36F53E9A60B35CBEEBAE80D244E44489C6234F4F835464A48035D0DF398FF9F8AF63D0E6CC63039F212F8F9020C7D47C6792B21C5FE7403D62A1188E2E60C98D7234A5830286103A55745067B9D86B8A3CF9C7F90C11DE607FB14
310
4396D7B6A82D282E9A152AD114D5EF2CB866EEE831B8EEA07A7BB5A8D7D61A2BAAEB7FD5F70921FF497D00504B0304140006080800CC70623BCA768048FE000000A00100003B0000006662782F36394639363044362D344446342D343946362D394244322D3234314243333846323333332F7265736F75726365732F636F72
310
652E786D6C8D50596E833010BD0A9ADFCA60D600328E9AA639412F609909B1126CE4A5EAF16B0295DABFFECC8CDEA2797AECF8353F924FB44E193D409E5248504B332A3D0D10FC95B4901C39B3C6F85F3248B49871801506CE266BC2B243D2688FDA47549B11775038871E12F988C7004EDE7016A9083E2ADC3D5D84BC8B09
310
D33C8D74D471E6BC8D0192EDC93A815B742658898E651BCB59086ADC356A8C3FD555A1055ED7E7E254D615792D0F075295F585746FF53B694EE78A565DD736979A65AB9933AFE69F8CD2A2F038022F28ED489E135A7CE4554F9BBEA85E68DB53CAB255FEC71496F19FA6A0B42F8B3DEE6673C0F318E4497096AD7DC5F52C33
310
EEB55BFE0D504B010214000A0000080000CC70623B3DEE336E79000000790000001B00000000000000000000000000000000006175746F6465736B2D64657369676E2D7061636B6167652E786D6C504B01021400140006080800CC70623BD486FD9CA0000000F40000001300000000000000000000000000B20000005B436F
310
6E74656E745F54797065735D2E786D6C504B01021400140006080800CC70623BD9DDAED0EC0000007C010000080000000000000000000000000083010000636F72652E786D6C504B01021400140006080800CC70623B55019EA25F0000007C000000070000000000000000000000000095020000636E782E786D6C504B0102
310
1400140006080800CC70623BA24EB22D72010000D40300000C00000000000000000000000000190300006662782F636F72652E786D6C504B01021400140006080800CC70623B408A7D3B7C0000009D0000000B00000000000000000000000000B50400006662782F636E782E786D6C504B01021400140006080800CC70623B
310
449FB9BD290100001202000031000000000000000000000000005A0500006662782F36394639363044362D344446342D343946362D394244322D3234314243333846323333332F636F72652E786D6C504B01021400140006080800CC70623BAD7543B64E010000330300003000000000000000000000000000D20600006662
310
782F36394639363044362D344446342D343946362D394244322D3234314243333846323333332F636E782E786D6C504B01021400140006080800CC70623B8D05915C650500003B10000034000000000000000000000000006E0800006662782F36394639363044362D344446342D343946362D394244322D32343142433338
310
46323333332F6F626A656374732E786D6C504B01021400140006080000CC70623B0000000000000000000000003500000000000000000000000000250E00006662782F36394639363044362D344446342D343946362D394244322D3234314243333846323333332F76657274696365732E62696E504B010214001400060808
310
00CC70623BF270F13306000000040000003600000000000000000000000000780E00006662782F36394639363044362D344446342D343946362D394244322D3234314243333846323333332F747269616E676C65732E62696E504B01021400140006080000CC70623B00000000000000000000000037000000000000000000
310
00000000D20E00006662782F36394639363044362D344446342D343946362D394244322D3234314243333846323333332F617474726962757465732E62696E504B01021400140006080800CC70623B08DA0BD190000000410100003600000000000000000000000000270F00006662782F36394639363044362D344446342D
310
343946362D394244322D3234314243333846323333332F6469726563746F72792E786D6C504B01021400140006080800CC70623BCA768048FE000000A00100003B000000000000000000000000000B1000006662782F36394639363044362D344446342D343946362D394244322D3234314243333846323333332F7265736F
310
75726365732F636F72652E786D6C504B0506000000000E000E0080040000621100000000
  0
XRECORD
  5
176
102
{ACAD_REACTORS
330
173
102
}
330
173
100
AcDbXrecord
280
     1
270
     1
271
     1
  0
XRECORD
  5
177
102
{ACAD_REACTORS
330
173
102
}
330
173
100
AcDbXrecord
280
     1
270
     1
271
     1
  0
XRECORD
  5
3CFE
102
{ACAD_REACTORS
330
3CFD
102
}
330
3CFD
100
AcDbXrecord
280
     1
102
ACAD_ROUNDTRIP_2012_MLEADER_STYLE
298
     1
  0
XRECORD
  5
3D10
102
{ACAD_REACTORS
330
3D0F
102
}
330
3D0F
100
AcDbXrecord
280
     1
102
DISPLAYNAME
  1
Metric50
102
FLAGS
 90
        0
  0
CELLSTYLEMAP
  5
3CD0
102
{ACAD_REACTORS
330
162
102
}
330
162
100
AcDbCellStyleMap
 90
        3
300
CELLSTYLE
  1
TABLEFORMAT_BEGIN
 90
        5
170
     1
 91
        0
 92
    32768
 62
   257
 93
        1
300
CONTENTFORMAT
  1
CONTENTFORMAT_BEGIN
 90
        0
 91
        0
 92
      512
 93
        0
300

 40
0.0
140
1.0
 94
        5
 62
     0
340
11
144
6.0
309
CONTENTFORMAT_END
171
     1
301
MARGIN
  1
CELLMARGIN_BEGIN
 40
1.5
 40
1.5
 40
1.5
 40
1.5
 40
4.5
 40
4.5
309
CELLMARGIN_END
 94
        6
 95
        1
302
GRIDFORMAT
  1
GRIDFORMAT_BEGIN
 90
        0
 91
        1
 62
     0
 92
       -2
340
14
 93
        0
 40
1.125
309
GRIDFORMAT_END
 95
        2
302
GRIDFORMAT
  1
GRIDFORMAT_BEGIN
 90
        0
 91
        1
 62
     0
 92
       -2
340
14
 93
        0
 40
1.125
309
GRIDFORMAT_END
 95
        4
302
GRIDFORMAT
  1
GRIDFORMAT_BEGIN
 90
        0
 91
        1
 62
     0
 92
       -2
340
14
 93
        0
 40
1.125
309
GRIDFORMAT_END
 95
        8
302
GRIDFORMAT
  1
GRIDFORMAT_BEGIN
 90
        0
 91
        1
 62
     0
 92
       -2
340
14
 93
        0
 40
1.125
309
GRIDFORMAT_END
 95
       16
302
GRIDFORMAT
  1
GRIDFORMAT_BEGIN
 90
        0
 91
        1
 62
     0
 92
       -2
340
14
 93
        0
 40
1.125
309
GRIDFORMAT_END
 95
       32
302
GRIDFORMAT
  1
GRIDFORMAT_BEGIN
 90
        0
 91
        1
 62
     0
 92
       -2
340
14
 93
        0
 40
1.125
309
GRIDFORMAT_END
309
TABLEFORMAT_END
  1
CELLSTYLE_BEGIN
 90
        1
 91
        1
300
_TITLE
309
CELLSTYLE_END
300
CELLSTYLE
  1
TABLEFORMAT_BEGIN
 90
        5
170
     1
 91
        0
 92
        0
 62
   257
 93
        1
300
CONTENTFORMAT
  1
CONTENTFORMAT_BEGIN
 90
        0
 91
        0
 92
      512
 93
        0
300

 40
0.0
140
1.0
 94
        5
 62
     0
340
11
144
4.5
309
CONTENTFORMAT_END
171
     1
301
MARGIN
  1
CELLMARGIN_BEGIN
 40
1.5
 40
1.5
 40
1.5
 40
1.5
 40
4.5
 40
4.5
309
CELLMARGIN_END
 94
        6
 95
        1
302
GRIDFORMAT
  1
GRIDFORMAT_BEGIN
 90
        0
 91
        1
 62
     0
 92
       -2
340
14
 93
        0
 40
1.125
309
GRIDFORMAT_END
 95
        2
302
GRIDFORMAT
  1
GRIDFORMAT_BEGIN
 90
        0
 91
        1
 62
     0
 92
       -2
340
14
 93
        0
 40
1.125
309
GRIDFORMAT_END
 95
        4
302
GRIDFORMAT
  1
GRIDFORMAT_BEGIN
 90
        0
 91
        1
 62
     0
 92
       -2
340
14
 93
        0
 40
1.125
309
GRIDFORMAT_END
 95
        8
302
GRIDFORMAT
  1
GRIDFORMAT_BEGIN
 90
        0
 91
        1
 62
     0
 92
       -2
340
14
 93
        0
 40
1.125
309
GRIDFORMAT_END
 95
       16
302
GRIDFORMAT
  1
GRIDFORMAT_BEGIN
 90
        0
 91
        1
 62
     0
 92
       -2
340
14
 93
        0
 40
1.125
309
GRIDFORMAT_END
 95
       32
302
GRIDFORMAT
  1
GRIDFORMAT_BEGIN
 90
        0
 91
        1
 62
     0
 92
       -2
340
14
 93
        0
 40
1.125
309
GRIDFORMAT_END
309
TABLEFORMAT_END
  1
CELLSTYLE_BEGIN
 90
        2
 91
        1
300
_HEADER
309
CELLSTYLE_END
300
CELLSTYLE
  1
TABLEFORMAT_BEGIN
 90
        5
170
     1
 91
        0
 92
        0
 62
   257
 93
        1
300
CONTENTFORMAT
  1
CONTENTFORMAT_BEGIN
 90
        0
 91
        0
 92
      512
 93
        0
300

 40
0.0
140
1.0
 94
        2
 62
     0
340
11
144
4.5
309
CONTENTFORMAT_END
171
     1
301
MARGIN
  1
CELLMARGIN_BEGIN
 40
1.5
 40
1.5
 40
1.5
 40
1.5
 40
4.5
 40
4.5
309
CELLMARGIN_END
 94
        6
 95
        1
302
GRIDFORMAT
  1
GRIDFORMAT_BEGIN
 90
        0
 91
        1
 62
     0
 92
       -2
340
14
 93
        0
 40
1.125
309
GRIDFORMAT_END
 95
        2
302
GRIDFORMAT
  1
GRIDFORMAT_BEGIN
 90
        0
 91
        1
 62
     0
 92
       -2
340
14
 93
        0
 40
1.125
309
GRIDFORMAT_END
 95
        4
302
GRIDFORMAT
  1
GRIDFORMAT_BEGIN
 90
        0
 91
        1
 62
     0
 92
       -2
340
14
 93
        0
 40
1.125
309
GRIDFORMAT_END
 95
        8
302
GRIDFORMAT
  1
GRIDFORMAT_BEGIN
 90
        0
 91
        1
 62
     0
 92
       -2
340
14
 93
        0
 40
1.125
309
GRIDFORMAT_END
 95
       16
302
GRIDFORMAT
  1
GRIDFORMAT_BEGIN
 90
        0
 91
        1
 62
     0
 92
       -2
340
14
 93
        0
 40
1.125
309
GRIDFORMAT_END
 95
       32
302
GRIDFORMAT
  1
GRIDFORMAT_BEGIN
 90
        0
 91
        1
 62
     0
 92
       -2
340
14
 93
        0
 40
1.125
309
GRIDFORMAT_END
309
TABLEFORMAT_END
  1
CELLSTYLE_BEGIN
 90
        3
 91
        2
300
_DATA
309
CELLSTYLE_END
  0
XRECORD
  5
3CD5
102
{ACAD_REACTORS
330
162
102
}
330
162
100
AcDbXrecord
280
     1
102
ACAD_ROUNDTRIP_PRE2007_TABLESTYLE
 90
      512
 91
        0
  1

 92
      512
 93
        0
  2

 94
      512
 95
        0
  3

  0
XRECORD
  5
3CE8
102
{ACAD_REACTORS
330
3CE7
102
}
330
3CE7
100
AcDbXrecord
280
     1
102
RTVSPost2010Prop28
280
     1
102
RTVSPost2010PropOp28
 70
     1
102
RTVSPost2010Prop29
280
     1
102
RTVSPost2010PropOp29
 70
     1
102
RTVSPost2010Prop30
280
     0
102
RTVSPost2010PropOp30
 70
     1
102
RTVSPost2010Prop31
280
     0
102
RTVSPost2010PropOp31
 70
     1
102
RTVSPost2010Prop32
280
     0
102
RTVSPost2010PropOp32
 70
     1
102
RTVSPost2010Prop33
280
     0
102
RTVSPost2010PropOp33
 70
     1
102
RTVSPost2010Prop34
280
     0
102
RTVSPost2010PropOp34
 70
     1
102
RTVSPost2010Prop35
280
     0
102
RTVSPost2010PropOp35
 70
     1
102
RTVSPost2010Prop36
280
     0
102
RTVSPost2010PropOp36
 70
     1
102
RTVSPost2010Prop37
 90
       50
102
RTVSPost2010PropOp37
 70
     1
102
RTVSPost2010Prop38
140
0.0
102
RTVSPost2010PropOp38
 70
     1
102
RTVSPost2010Prop39
140
1.0
102
RTVSPost2010PropOp39
 70
     1
102
RTVSPost2010Prop40
 90
        0
102
RTVSPost2010PropOp40
 70
     1
102
RTVSPost2010Prop41ColorIndex
 90
       18
102
RTVSPost2010Prop41ColorRGB
 90
        0
102
RTVSPost2010PropOp41
 70
     1
102
RTVSPost2010Prop42
 90
       50
102
RTVSPost2010PropOp42
 70
     1
102
RTVSPost2010Prop43
 90
        3
102
RTVSPost2010PropOp43
 70
     1
102
RTVSPost2010Prop44ColorIndex
 90
        5
102
RTVSPost2010Prop44ColorRGB
 90
      255
102
RTVSPost2010PropOp44
 70
     1
102
RTVSPost2010Prop45
280
     0
102
RTVSPost2010PropOp45
 70
     1
102
RTVSPost2010Prop46
 90
       50
102
RTVSPost2010PropOp46
 70
     1
102
RTVSPost2010Prop47
 90
       50
102
RTVSPost2010PropOp47
 70
     1
102
RTVSPost2010Prop48
 90
       50
102
RTVSPost2010PropOp48
 70
     1
102
RTVSPost2010Prop49
280
     0
102
RTVSPost2010PropOp49
 70
     1
102
RTVSPost2010Prop50
 90
       50
102
RTVSPost2010PropOp50
 70
     1
102
RTVSPost2010Prop51ColorIndex
 90
      256
102
RTVSPost2010Prop51ColorRGB
 90
-16777216
102
RTVSPost2010PropOp51
 70
     0
102
RTVSPost2010Prop52
140
1.0
102
RTVSPost2010PropOp52
 70
     0
102
RTVSPost2010Prop53
 90
        2
102
RTVSPost2010PropOp53
 70
     1
102
RTVSPost2010Prop54
  1
strokes_ogs.tif
102
RTVSPost2010PropOp54
 70
     1
102
RTVSPost2010Prop55
280
     0
102
RTVSPost2010PropOp55
 70
     1
102
RTVSPost2010Prop56
140
1.0
102
RTVSPost2010PropOp56
 70
     1
102
RTVSPost2010Prop57
140
1.0
102
RTVSPost2010PropOp57
 70
     1
102
RTVSPropertyOp0
 70
     1
102
RTVSPropertyOp1
 70
     1
102
RTVSPropertyOp2
 70
     1
102
RTVSPropertyOp3
 70
     1
102
RTVSPropertyOp4
 70
     1
102
RTVSPropertyOp5
 70
     1
102
RTVSPropertyOp6
 70
     1
102
RTVSPropertyOp7
 70
     1
102
RTVSPropertyOp8
 70
     1
102
RTVSPropertyOp9
 70
     1
102
RTVSPropertyOp10
 70
     1
102
RTVSPropertyOp11
 70
     1
102
RTVSPropertyOp12
 70
     1
102
RTVSPropertyOp13
 70
     1
102
RTVSPropertyOp14
 70
     1
102
RTVSPropertyOp15
 70
     1
102
RTVSPropertyOp16
 70
     1
102
RTVSPropertyOp17
 70
     1
102
RTVSPropertyOp18
 70
     1
102
RTVSPropertyOp19
 70
     1
102
RTVSPropertyOp20
 70
     1
102
RTVSPropertyOp21
 70
     1
102
RTVSPropertyOp22
 70
     1
102
RTVSPropertyOp23
 70
     1
102
RTVSPropertyOp24
 70
     1
102
RTVSPropertyOp25
 70
     1
102
RTVSPropertyOp26
 70
     1
102
RTVSPropertyOp27
 70
     1
102
RTVSPropertyOp28
 70
     1
102
RTVSPropertyOp29
 70
     1
102
RTVSPropertyOp30
 70
     1
102
RTVSPropertyOp31
 70
     1
102
RTVSPropertyOp32
 70
     1
102
RTVSPropertyOp33
 70
     1
102
RTVSPropertyOp34
 70
     1
102
RTVSPropertyOp35
 70
     1
102
RTVSPropertyOp36
 70
     1
102
RTVSPropertyOp37
 70
     1
102
RTVSPropertyOp38
 70
     1
102
RTVSPropertyOp39
 70
     1
102
RTVSPropertyOp40
 70
     1
102
RTVSPropertyOp41
 70
     1
102
RTVSPropertyOp42
 70
     1
102
RTVSPropertyOp43
 70
     1
102
RTVSPropertyOp44
 70
     1
102
RTVSPropertyOp45
 70
     1
102
RTVSPropertyOp46
 70
     1
102
RTVSPropertyOp47
 70
     1
102
RTVSPropertyOp48
 70
     1
102
RTVSPropertyOp49
 70
     1
102
RTVSPropertyOp50
 70
     1
102
RTVSPropertyOp51
 70
     0
102
RTVSPropertyOp52
 70
     0
102
RTVSPropertyOp53
 70
     1
102
RTVSPropertyOp54
 70
     1
102
RTVSPropertyOp55
 70
     1
102
RTVSPropertyOp56
 70
     1
102
RTVSPropertyOp57
 70
     1
102
RTVSPropertyOp58
 70
     1
102
RTVSPropertyOp59
 70
     1
102
RTVSPropertyOp60
 70
     1
102
RTVSPropertyOp61
 70
     1
102
RTVSPropertyOp62
 70
     1
  0
XRECORD
  5
3CE6
102
{ACAD_REACTORS
330
3CE5
102
}
330
3CE5
100
AcDbXrecord
280
     1
102
RTVSPost2010Prop28
280
     0
102
RTVSPost2010PropOp28
 70
     1
102
RTVSPost2010Prop29
280
     1
102
RTVSPost2010PropOp29
 70
     1
102
RTVSPost2010Prop30
280
     1
102
RTVSPost2010PropOp30
 70
     1
102
RTVSPost2010Prop31
280
     0
102
RTVSPost2010PropOp31
 70
     1
102
RTVSPost2010Prop32
280
     0
102
RTVSPost2010PropOp32
 70
     1
102
RTVSPost2010Prop33
280
     0
102
RTVSPost2010PropOp33
 70
     1
102
RTVSPost2010Prop34
280
     0
102
RTVSPost2010PropOp34
 70
     1
102
RTVSPost2010Prop35
280
     0
102
RTVSPost2010PropOp35
 70
     1
102
RTVSPost2010Prop36
280
     0
102
RTVSPost2010PropOp36
 70
     1
102
RTVSPost2010Prop37
 90
       50
102
RTVSPost2010PropOp37
 70
     1
102
RTVSPost2010Prop38
140
0.0
102
RTVSPost2010PropOp38
 70
     1
102
RTVSPost2010Prop39
140
1.0
102
RTVSPost2010PropOp39
 70
     1
102
RTVSPost2010Prop40
 90
        0
102
RTVSPost2010PropOp40
 70
     1
102
RTVSPost2010Prop41ColorIndex
 90
       18
102
RTVSPost2010Prop41ColorRGB
 90
        0
102
RTVSPost2010PropOp41
 70
     1
102
RTVSPost2010Prop42
 90
       50
102
RTVSPost2010PropOp42
 70
     1
102
RTVSPost2010Prop43
 90
        3
102
RTVSPost2010PropOp43
 70
     1
102
RTVSPost2010Prop44ColorIndex
 90
        5
102
RTVSPost2010Prop44ColorRGB
 90
      255
102
RTVSPost2010PropOp44
 70
     1
102
RTVSPost2010Prop45
280
     0
102
RTVSPost2010PropOp45
 70
     1
102
RTVSPost2010Prop46
 90
       50
102
RTVSPost2010PropOp46
 70
     1
102
RTVSPost2010Prop47
 90
       50
102
RTVSPost2010PropOp47
 70
     1
102
RTVSPost2010Prop48
 90
       50
102
RTVSPost2010PropOp48
 70
     1
102
RTVSPost2010Prop49
280
     0
102
RTVSPost2010PropOp49
 70
     1
102
RTVSPost2010Prop50
 90
       50
102
RTVSPost2010PropOp50
 70
     1
102
RTVSPost2010Prop51ColorIndex
 90
      256
102
RTVSPost2010Prop51ColorRGB
 90
-16777216
102
RTVSPost2010PropOp51
 70
     0
102
RTVSPost2010Prop52
140
1.0
102
RTVSPost2010PropOp52
 70
     0
102
RTVSPost2010Prop53
 90
        2
102
RTVSPost2010PropOp53
 70
     1
102
RTVSPost2010Prop54
  1
strokes_ogs.tif
102
RTVSPost2010PropOp54
 70
     1
102
RTVSPost2010Prop55
280
     0
102
RTVSPost2010PropOp55
 70
     1
102
RTVSPost2010Prop56
140
1.0
102
RTVSPost2010PropOp56
 70
     1
102
RTVSPost2010Prop57
140
1.0
102
RTVSPost2010PropOp57
 70
     1
102
RTVSPropertyOp0
 70
     1
102
RTVSPropertyOp1
 70
     1
102
RTVSPropertyOp2
 70
     1
102
RTVSPropertyOp3
 70
     1
102
RTVSPropertyOp4
 70
     1
102
RTVSPropertyOp5
 70
     1
102
RTVSPropertyOp6
 70
     1
102
RTVSPropertyOp7
 70
     1
102
RTVSPropertyOp8
 70
     1
102
RTVSPropertyOp9
 70
     1
102
RTVSPropertyOp10
 70
     1
102
RTVSPropertyOp11
 70
     1
102
RTVSPropertyOp12
 70
     1
102
RTVSPropertyOp13
 70
     1
102
RTVSPropertyOp14
 70
     1
102
RTVSPropertyOp15
 70
     1
102
RTVSPropertyOp16
 70
     1
102
RTVSPropertyOp17
 70
     1
102
RTVSPropertyOp18
 70
     1
102
RTVSPropertyOp19
 70
     1
102
RTVSPropertyOp20
 70
     1
102
RTVSPropertyOp21
 70
     1
102
RTVSPropertyOp22
 70
     1
102
RTVSPropertyOp23
 70
     1
102
RTVSPropertyOp24
 70
     1
102
RTVSPropertyOp25
 70
     1
102
RTVSPropertyOp26
 70
     1
102
RTVSPropertyOp27
 70
     1
102
RTVSPropertyOp28
 70
     1
102
RTVSPropertyOp29
 70
     1
102
RTVSPropertyOp30
 70
     1
102
RTVSPropertyOp31
 70
     1
102
RTVSPropertyOp32
 70
     1
102
RTVSPropertyOp33
 70
     1
102
RTVSPropertyOp34
 70
     1
102
RTVSPropertyOp35
 70
     1
102
RTVSPropertyOp36
 70
     1
102
RTVSPropertyOp37
 70
     1
102
RTVSPropertyOp38
 70
     1
102
RTVSPropertyOp39
 70
     1
102
RTVSPropertyOp40
 70
     1
102
RTVSPropertyOp41
 70
     1
102
RTVSPropertyOp42
 70
     1
102
RTVSPropertyOp43
 70
     1
102
RTVSPropertyOp44
 70
     1
102
RTVSPropertyOp45
 70
     1
102
RTVSPropertyOp46
 70
     1
102
RTVSPropertyOp47
 70
     1
102
RTVSPropertyOp48
 70
     1
102
RTVSPropertyOp49
 70
     1
102
RTVSPropertyOp50
 70
     1
102
RTVSPropertyOp51
 70
     0
102
RTVSPropertyOp52
 70
     0
102
RTVSPropertyOp53
 70
     1
102
RTVSPropertyOp54
 70
     1
102
RTVSPropertyOp55
 70
     1
102
RTVSPropertyOp56
 70
     1
102
RTVSPropertyOp57
 70
     1
102
RTVSPropertyOp58
 70
     1
102
RTVSPropertyOp59
 70
     1
102
RTVSPropertyOp60
 70
     1
102
RTVSPropertyOp61
 70
     1
102
RTVSPropertyOp62
 70
     1
  0
XRECORD
  5
3CF4
102
{ACAD_REACTORS
330
3CF3
102
}
330
3CF3
100
AcDbXrecord
280
     1
102
RTVSPost2010Prop28
280
     0
102
RTVSPost2010PropOp28
 70
     1
102
RTVSPost2010Prop29
280
     1
102
RTVSPost2010PropOp29
 70
     1
102
RTVSPost2010Prop30
280
     1
102
RTVSPost2010PropOp30
 70
     1
102
RTVSPost2010Prop31
280
     0
102
RTVSPost2010PropOp31
 70
     1
102
RTVSPost2010Prop32
280
     0
102
RTVSPost2010PropOp32
 70
     1
102
RTVSPost2010Prop33
280
     0
102
RTVSPost2010PropOp33
 70
     1
102
RTVSPost2010Prop34
280
     0
102
RTVSPost2010PropOp34
 70
     1
102
RTVSPost2010Prop35
280
     0
102
RTVSPost2010PropOp35
 70
     1
102
RTVSPost2010Prop36
280
     0
102
RTVSPost2010PropOp36
 70
     1
102
RTVSPost2010Prop37
 90
       50
102
RTVSPost2010PropOp37
 70
     1
102
RTVSPost2010Prop38
140
0.0
102
RTVSPost2010PropOp38
 70
     1
102
RTVSPost2010Prop39
140
1.0
102
RTVSPost2010PropOp39
 70
     1
102
RTVSPost2010Prop40
 90
        0
102
RTVSPost2010PropOp40
 70
     1
102
RTVSPost2010Prop41ColorIndex
 90
       18
102
RTVSPost2010Prop41ColorRGB
 90
        0
102
RTVSPost2010PropOp41
 70
     1
102
RTVSPost2010Prop42
 90
       50
102
RTVSPost2010PropOp42
 70
     1
102
RTVSPost2010Prop43
 90
        3
102
RTVSPost2010PropOp43
 70
     1
102
RTVSPost2010Prop44ColorIndex
 90
        5
102
RTVSPost2010Prop44ColorRGB
 90
      255
102
RTVSPost2010PropOp44
 70
     1
102
RTVSPost2010Prop45
280
     0
102
RTVSPost2010PropOp45
 70
     1
102
RTVSPost2010Prop46
 90
       50
102
RTVSPost2010PropOp46
 70
     1
102
RTVSPost2010Prop47
 90
       50
102
RTVSPost2010PropOp47
 70
     1
102
RTVSPost2010Prop48
 90
       50
102
RTVSPost2010PropOp48
 70
     1
102
RTVSPost2010Prop49
280
     0
102
RTVSPost2010PropOp49
 70
     1
102
RTVSPost2010Prop50
 90
       50
102
RTVSPost2010PropOp50
 70
     1
102
RTVSPost2010Prop51ColorIndex
 90
      256
102
RTVSPost2010Prop51ColorRGB
 90
-16777216
102
RTVSPost2010PropOp51
 70
     0
102
RTVSPost2010Prop52
140
1.0
102
RTVSPost2010PropOp52
 70
     0
102
RTVSPost2010Prop53
 90
        2
102
RTVSPost2010PropOp53
 70
     1
102
RTVSPost2010Prop54
  1
strokes_ogs.tif
102
RTVSPost2010PropOp54
 70
     1
102
RTVSPost2010Prop55
280
     0
102
RTVSPost2010PropOp55
 70
     1
102
RTVSPost2010Prop56
140
1.0
102
RTVSPost2010PropOp56
 70
     1
102
RTVSPost2010Prop57
140
1.0
102
RTVSPost2010PropOp57
 70
     1
102
RTVSPropertyOp0
 70
     1
102
RTVSPropertyOp1
 70
     1
102
RTVSPropertyOp2
 70
     1
102
RTVSPropertyOp3
 70
     1
102
RTVSPropertyOp4
 70
     1
102
RTVSPropertyOp5
 70
     1
102
RTVSPropertyOp6
 70
     1
102
RTVSPropertyOp7
 70
     1
102
RTVSPropertyOp8
 70
     1
102
RTVSPropertyOp9
 70
     1
102
RTVSPropertyOp10
 70
     1
102
RTVSPropertyOp11
 70
     1
102
RTVSPropertyOp12
 70
     1
102
RTVSPropertyOp13
 70
     1
102
RTVSPropertyOp14
 70
     1
102
RTVSPropertyOp15
 70
     1
102
RTVSPropertyOp16
 70
     1
102
RTVSPropertyOp17
 70
     1
102
RTVSPropertyOp18
 70
     1
102
RTVSPropertyOp19
 70
     1
102
RTVSPropertyOp20
 70
     1
102
RTVSPropertyOp21
 70
     1
102
RTVSPropertyOp22
 70
     1
102
RTVSPropertyOp23
 70
     1
102
RTVSPropertyOp24
 70
     1
102
RTVSPropertyOp25
 70
     1
102
RTVSPropertyOp26
 70
     1
102
RTVSPropertyOp27
 70
     1
102
RTVSPropertyOp28
 70
     1
102
RTVSPropertyOp29
 70
     1
102
RTVSPropertyOp30
 70
     1
102
RTVSPropertyOp31
 70
     1
102
RTVSPropertyOp32
 70
     1
102
RTVSPropertyOp33
 70
     1
102
RTVSPropertyOp34
 70
     1
102
RTVSPropertyOp35
 70
     1
102
RTVSPropertyOp36
 70
     1
102
RTVSPropertyOp37
 70
     1
102
RTVSPropertyOp38
 70
     1
102
RTVSPropertyOp39
 70
     1
102
RTVSPropertyOp40
 70
     1
102
RTVSPropertyOp41
 70
     1
102
RTVSPropertyOp42
 70
     1
102
RTVSPropertyOp43
 70
     1
102
RTVSPropertyOp44
 70
     1
102
RTVSPropertyOp45
 70
     1
102
RTVSPropertyOp46
 70
     1
102
RTVSPropertyOp47
 70
     1
102
RTVSPropertyOp48
 70
     1
102
RTVSPropertyOp49
 70
     1
102
RTVSPropertyOp50
 70
     1
102
RTVSPropertyOp51
 70
     0
102
RTVSPropertyOp52
 70
     0
102
RTVSPropertyOp53
 70
     1
102
RTVSPropertyOp54
 70
     1
102
RTVSPropertyOp55
 70
     1
102
RTVSPropertyOp56
 70
     1
102
RTVSPropertyOp57
 70
     1
102
RTVSPropertyOp58
 70
     1
102
RTVSPropertyOp59
 70
     1
102
RTVSPropertyOp60
 70
     1
102
RTVSPropertyOp61
 70
     1
102
RTVSPropertyOp62
 70
     1
  0
XRECORD
  5
3CFC
102
{ACAD_REACTORS
330
3CFB
102
}
330
3CFB
100
AcDbXrecord
280
     1
102
RTVSPost2010Prop28
280
     0
102
RTVSPost2010PropOp28
 70
     1
102
RTVSPost2010Prop29
280
     1
102
RTVSPost2010PropOp29
 70
     1
102
RTVSPost2010Prop30
280
     1
102
RTVSPost2010PropOp30
 70
     1
102
RTVSPost2010Prop31
280
     0
102
RTVSPost2010PropOp31
 70
     1
102
RTVSPost2010Prop32
280
     0
102
RTVSPost2010PropOp32
 70
     1
102
RTVSPost2010Prop33
280
     0
102
RTVSPost2010PropOp33
 70
     1
102
RTVSPost2010Prop34
280
     0
102
RTVSPost2010PropOp34
 70
     1
102
RTVSPost2010Prop35
280
     0
102
RTVSPost2010PropOp35
 70
     1
102
RTVSPost2010Prop36
280
     0
102
RTVSPost2010PropOp36
 70
     1
102
RTVSPost2010Prop37
 90
       50
102
RTVSPost2010PropOp37
 70
     1
102
RTVSPost2010Prop38
140
0.0
102
RTVSPost2010PropOp38
 70
     1
102
RTVSPost2010Prop39
140
1.0
102
RTVSPost2010PropOp39
 70
     1
102
RTVSPost2010Prop40
 90
        0
102
RTVSPost2010PropOp40
 70
     1
102
RTVSPost2010Prop41ColorIndex
 90
       18
102
RTVSPost2010Prop41ColorRGB
 90
        0
102
RTVSPost2010PropOp41
 70
     1
102
RTVSPost2010Prop42
 90
       50
102
RTVSPost2010PropOp42
 70
     1
102
RTVSPost2010Prop43
 90
        3
102
RTVSPost2010PropOp43
 70
     1
102
RTVSPost2010Prop44ColorIndex
 90
        5
102
RTVSPost2010Prop44ColorRGB
 90
      255
102
RTVSPost2010PropOp44
 70
     1
102
RTVSPost2010Prop45
280
     0
102
RTVSPost2010PropOp45
 70
     1
102
RTVSPost2010Prop46
 90
       50
102
RTVSPost2010PropOp46
 70
     1
102
RTVSPost2010Prop47
 90
       50
102
RTVSPost2010PropOp47
 70
     1
102
RTVSPost2010Prop48
 90
       50
102
RTVSPost2010PropOp48
 70
     1
102
RTVSPost2010Prop49
280
     0
102
RTVSPost2010PropOp49
 70
     1
102
RTVSPost2010Prop50
 90
       50
102
RTVSPost2010PropOp50
 70
     1
102
RTVSPost2010Prop51ColorIndex
 90
      256
102
RTVSPost2010Prop51ColorRGB
 90
-16777216
102
RTVSPost2010PropOp51
 70
     0
102
RTVSPost2010Prop52
140
1.0
102
RTVSPost2010PropOp52
 70
     0
102
RTVSPost2010Prop53
 90
        2
102
RTVSPost2010PropOp53
 70
     1
102
RTVSPost2010Prop54
  1
strokes_ogs.tif
102
RTVSPost2010PropOp54
 70
     1
102
RTVSPost2010Prop55
280
     0
102
RTVSPost2010PropOp55
 70
     1
102
RTVSPost2010Prop56
140
1.0
102
RTVSPost2010PropOp56
 70
     1
102
RTVSPost2010Prop57
140
1.0
102
RTVSPost2010PropOp57
 70
     1
102
RTVSPropertyOp0
 70
     1
102
RTVSPropertyOp1
 70
     1
102
RTVSPropertyOp2
 70
     1
102
RTVSPropertyOp3
 70
     1
102
RTVSPropertyOp4
 70
     1
102
RTVSPropertyOp5
 70
     1
102
RTVSPropertyOp6
 70
     1
102
RTVSPropertyOp7
 70
     1
102
RTVSPropertyOp8
 70
     1
102
RTVSPropertyOp9
 70
     1
102
RTVSPropertyOp10
 70
     1
102
RTVSPropertyOp11
 70
     1
102
RTVSPropertyOp12
 70
     1
102
RTVSPropertyOp13
 70
     1
102
RTVSPropertyOp14
 70
     1
102
RTVSPropertyOp15
 70
     1
102
RTVSPropertyOp16
 70
     1
102
RTVSPropertyOp17
 70
     1
102
RTVSPropertyOp18
 70
     1
102
RTVSPropertyOp19
 70
     1
102
RTVSPropertyOp20
 70
     1
102
RTVSPropertyOp21
 70
     1
102
RTVSPropertyOp22
 70
     1
102
RTVSPropertyOp23
 70
     1
102
RTVSPropertyOp24
 70
     1
102
RTVSPropertyOp25
 70
     1
102
RTVSPropertyOp26
 70
     1
102
RTVSPropertyOp27
 70
     1
102
RTVSPropertyOp28
 70
     1
102
RTVSPropertyOp29
 70
     1
102
RTVSPropertyOp30
 70
     1
102
RTVSPropertyOp31
 70
     1
102
RTVSPropertyOp32
 70
     1
102
RTVSPropertyOp33
 70
     1
102
RTVSPropertyOp34
 70
     1
102
RTVSPropertyOp35
 70
     1
102
RTVSPropertyOp36
 70
     1
102
RTVSPropertyOp37
 70
     1
102
RTVSPropertyOp38
 70
     1
102
RTVSPropertyOp39
 70
     1
102
RTVSPropertyOp40
 70
     1
102
RTVSPropertyOp41
 70
     1
102
RTVSPropertyOp42
 70
     1
102
RTVSPropertyOp43
 70
     1
102
RTVSPropertyOp44
 70
     1
102
RTVSPropertyOp45
 70
     1
102
RTVSPropertyOp46
 70
     1
102
RTVSPropertyOp47
 70
     1
102
RTVSPropertyOp48
 70
     1
102
RTVSPropertyOp49
 70
     1
102
RTVSPropertyOp50
 70
     1
102
RTVSPropertyOp51
 70
     0
102
RTVSPropertyOp52
 70
     0
102
RTVSPropertyOp53
 70
     1
102
RTVSPropertyOp54
 70
     1
102
RTVSPropertyOp55
 70
     1
102
RTVSPropertyOp56
 70
     1
102
RTVSPropertyOp57
 70
     1
102
RTVSPropertyOp58
 70
     1
102
RTVSPropertyOp59
 70
     1
102
RTVSPropertyOp60
 70
     1
102
RTVSPropertyOp61
 70
     1
102
RTVSPropertyOp62
 70
     1
  0
XRECORD
  5
3CEE
102
{ACAD_REACTORS
330
3CED
102
}
330
3CED
100
AcDbXrecord
280
     1
102
RTVSPost2010Prop28
280
     0
102
RTVSPost2010PropOp28
 70
     1
102
RTVSPost2010Prop29
280
     1
102
RTVSPost2010PropOp29
 70
     1
102
RTVSPost2010Prop30
280
     1
102
RTVSPost2010PropOp30
 70
     1
102
RTVSPost2010Prop31
280
     0
102
RTVSPost2010PropOp31
 70
     1
102
RTVSPost2010Prop32
280
     0
102
RTVSPost2010PropOp32
 70
     1
102
RTVSPost2010Prop33
280
     0
102
RTVSPost2010PropOp33
 70
     1
102
RTVSPost2010Prop34
280
     0
102
RTVSPost2010PropOp34
 70
     1
102
RTVSPost2010Prop35
280
     0
102
RTVSPost2010PropOp35
 70
     1
102
RTVSPost2010Prop36
280
     0
102
RTVSPost2010PropOp36
 70
     1
102
RTVSPost2010Prop37
 90
       50
102
RTVSPost2010PropOp37
 70
     1
102
RTVSPost2010Prop38
140
0.0
102
RTVSPost2010PropOp38
 70
     1
102
RTVSPost2010Prop39
140
1.0
102
RTVSPost2010PropOp39
 70
     1
102
RTVSPost2010Prop40
 90
        0
102
RTVSPost2010PropOp40
 70
     1
102
RTVSPost2010Prop41ColorIndex
 90
       18
102
RTVSPost2010Prop41ColorRGB
 90
        0
102
RTVSPost2010PropOp41
 70
     1
102
RTVSPost2010Prop42
 90
       50
102
RTVSPost2010PropOp42
 70
     1
102
RTVSPost2010Prop43
 90
        3
102
RTVSPost2010PropOp43
 70
     1
102
RTVSPost2010Prop44ColorIndex
 90
        5
102
RTVSPost2010Prop44ColorRGB
 90
      255
102
RTVSPost2010PropOp44
 70
     1
102
RTVSPost2010Prop45
280
     0
102
RTVSPost2010PropOp45
 70
     1
102
RTVSPost2010Prop46
 90
       50
102
RTVSPost2010PropOp46
 70
     1
102
RTVSPost2010Prop47
 90
       50
102
RTVSPost2010PropOp47
 70
     1
102
RTVSPost2010Prop48
 90
       50
102
RTVSPost2010PropOp48
 70
     1
102
RTVSPost2010Prop49
280
     0
102
RTVSPost2010PropOp49
 70
     1
102
RTVSPost2010Prop50
 90
       50
102
RTVSPost2010PropOp50
 70
     1
102
RTVSPost2010Prop51ColorIndex
 90
      256
102
RTVSPost2010Prop51ColorRGB
 90
-16777216
102
RTVSPost2010PropOp51
 70
     0
102
RTVSPost2010Prop52
140
1.0
102
RTVSPost2010PropOp52
 70
     0
102
RTVSPost2010Prop53
 90
        2
102
RTVSPost2010PropOp53
 70
     1
102
RTVSPost2010Prop54
  1
strokes_ogs.tif
102
RTVSPost2010PropOp54
 70
     1
102
RTVSPost2010Prop55
280
     0
102
RTVSPost2010PropOp55
 70
     1
102
RTVSPost2010Prop56
140
1.0
102
RTVSPost2010PropOp56
 70
     1
102
RTVSPost2010Prop57
140
1.0
102
RTVSPost2010PropOp57
 70
     1
102
RTVSPropertyOp0
 70
     1
102
RTVSPropertyOp1
 70
     1
102
RTVSPropertyOp2
 70
     1
102
RTVSPropertyOp3
 70
     1
102
RTVSPropertyOp4
 70
     1
102
RTVSPropertyOp5
 70
     1
102
RTVSPropertyOp6
 70
     1
102
RTVSPropertyOp7
 70
     1
102
RTVSPropertyOp8
 70
     1
102
RTVSPropertyOp9
 70
     1
102
RTVSPropertyOp10
 70
     1
102
RTVSPropertyOp11
 70
     1
102
RTVSPropertyOp12
 70
     1
102
RTVSPropertyOp13
 70
     1
102
RTVSPropertyOp14
 70
     1
102
RTVSPropertyOp15
 70
     1
102
RTVSPropertyOp16
 70
     1
102
RTVSPropertyOp17
 70
     1
102
RTVSPropertyOp18
 70
     1
102
RTVSPropertyOp19
 70
     1
102
RTVSPropertyOp20
 70
     1
102
RTVSPropertyOp21
 70
     1
102
RTVSPropertyOp22
 70
     1
102
RTVSPropertyOp23
 70
     1
102
RTVSPropertyOp24
 70
     1
102
RTVSPropertyOp25
 70
     1
102
RTVSPropertyOp26
 70
     1
102
RTVSPropertyOp27
 70
     1
102
RTVSPropertyOp28
 70
     1
102
RTVSPropertyOp29
 70
     1
102
RTVSPropertyOp30
 70
     1
102
RTVSPropertyOp31
 70
     1
102
RTVSPropertyOp32
 70
     1
102
RTVSPropertyOp33
 70
     1
102
RTVSPropertyOp34
 70
     1
102
RTVSPropertyOp35
 70
     1
102
RTVSPropertyOp36
 70
     1
102
RTVSPropertyOp37
 70
     1
102
RTVSPropertyOp38
 70
     1
102
RTVSPropertyOp39
 70
     1
102
RTVSPropertyOp40
 70
     1
102
RTVSPropertyOp41
 70
     1
102
RTVSPropertyOp42
 70
     1
102
RTVSPropertyOp43
 70
     1
102
RTVSPropertyOp44
 70
     1
102
RTVSPropertyOp45
 70
     1
102
RTVSPropertyOp46
 70
     1
102
RTVSPropertyOp47
 70
     1
102
RTVSPropertyOp48
 70
     1
102
RTVSPropertyOp49
 70
     1
102
RTVSPropertyOp50
 70
     1
102
RTVSPropertyOp51
 70
     0
102
RTVSPropertyOp52
 70
     0
102
RTVSPropertyOp53
 70
     1
102
RTVSPropertyOp54
 70
     1
102
RTVSPropertyOp55
 70
     1
102
RTVSPropertyOp56
 70
     1
102
RTVSPropertyOp57
 70
     1
102
RTVSPropertyOp58
 70
     1
102
RTVSPropertyOp59
 70
     1
102
RTVSPropertyOp60
 70
     1
102
RTVSPropertyOp61
 70
     1
102
RTVSPropertyOp62
 70
     1
  0
XRECORD
  5
3CF2
102
{ACAD_REACTORS
330
3CF1
102
}
330
3CF1
100
AcDbXrecord
280
     1
102
RTVSPost2010Prop28
280
     0
102
RTVSPost2010PropOp28
 70
     1
102
RTVSPost2010Prop29
280
     1
102
RTVSPost2010PropOp29
 70
     1
102
RTVSPost2010Prop30
280
     1
102
RTVSPost2010PropOp30
 70
     1
102
RTVSPost2010Prop31
280
     0
102
RTVSPost2010PropOp31
 70
     1
102
RTVSPost2010Prop32
280
     0
102
RTVSPost2010PropOp32
 70
     1
102
RTVSPost2010Prop33
280
     0
102
RTVSPost2010PropOp33
 70
     1
102
RTVSPost2010Prop34
280
     0
102
RTVSPost2010PropOp34
 70
     1
102
RTVSPost2010Prop35
280
     0
102
RTVSPost2010PropOp35
 70
     1
102
RTVSPost2010Prop36
280
     0
102
RTVSPost2010PropOp36
 70
     1
102
RTVSPost2010Prop37
 90
       50
102
RTVSPost2010PropOp37
 70
     1
102
RTVSPost2010Prop38
140
0.0
102
RTVSPost2010PropOp38
 70
     1
102
RTVSPost2010Prop39
140
1.0
102
RTVSPost2010PropOp39
 70
     1
102
RTVSPost2010Prop40
 90
        0
102
RTVSPost2010PropOp40
 70
     1
102
RTVSPost2010Prop41ColorIndex
 90
       18
102
RTVSPost2010Prop41ColorRGB
 90
        0
102
RTVSPost2010PropOp41
 70
     1
102
RTVSPost2010Prop42
 90
       50
102
RTVSPost2010PropOp42
 70
     1
102
RTVSPost2010Prop43
 90
        3
102
RTVSPost2010PropOp43
 70
     1
102
RTVSPost2010Prop44ColorIndex
 90
        5
102
RTVSPost2010Prop44ColorRGB
 90
      255
102
RTVSPost2010PropOp44
 70
     1
102
RTVSPost2010Prop45
280
     0
102
RTVSPost2010PropOp45
 70
     1
102
RTVSPost2010Prop46
 90
       50
102
RTVSPost2010PropOp46
 70
     1
102
RTVSPost2010Prop47
 90
       50
102
RTVSPost2010PropOp47
 70
     1
102
RTVSPost2010Prop48
 90
       50
102
RTVSPost2010PropOp48
 70
     1
102
RTVSPost2010Prop49
280
     0
102
RTVSPost2010PropOp49
 70
     1
102
RTVSPost2010Prop50
 90
       50
102
RTVSPost2010PropOp50
 70
     1
102
RTVSPost2010Prop51ColorIndex
 90
      256
102
RTVSPost2010Prop51ColorRGB
 90
-16777216
102
RTVSPost2010PropOp51
 70
     0
102
RTVSPost2010Prop52
140
1.0
102
RTVSPost2010PropOp52
 70
     0
102
RTVSPost2010Prop53
 90
        2
102
RTVSPost2010PropOp53
 70
     1
102
RTVSPost2010Prop54
  1
strokes_ogs.tif
102
RTVSPost2010PropOp54
 70
     1
102
RTVSPost2010Prop55
280
     0
102
RTVSPost2010PropOp55
 70
     1
102
RTVSPost2010Prop56
140
1.0
102
RTVSPost2010PropOp56
 70
     1
102
RTVSPost2010Prop57
140
1.0
102
RTVSPost2010PropOp57
 70
     1
102
RTVSPropertyOp0
 70
     1
102
RTVSPropertyOp1
 70
     1
102
RTVSPropertyOp2
 70
     1
102
RTVSPropertyOp3
 70
     1
102
RTVSPropertyOp4
 70
     1
102
RTVSPropertyOp5
 70
     1
102
RTVSPropertyOp6
 70
     1
102
RTVSPropertyOp7
 70
     1
102
RTVSPropertyOp8
 70
     1
102
RTVSPropertyOp9
 70
     1
102
RTVSPropertyOp10
 70
     1
102
RTVSPropertyOp11
 70
     1
102
RTVSPropertyOp12
 70
     1
102
RTVSPropertyOp13
 70
     1
102
RTVSPropertyOp14
 70
     1
102
RTVSPropertyOp15
 70
     1
102
RTVSPropertyOp16
 70
     1
102
RTVSPropertyOp17
 70
     1
102
RTVSPropertyOp18
 70
     1
102
RTVSPropertyOp19
 70
     1
102
RTVSPropertyOp20
 70
     1
102
RTVSPropertyOp21
 70
     1
102
RTVSPropertyOp22
 70
     1
102
RTVSPropertyOp23
 70
     1
102
RTVSPropertyOp24
 70
     1
102
RTVSPropertyOp25
 70
     1
102
RTVSPropertyOp26
 70
     1
102
RTVSPropertyOp27
 70
     1
102
RTVSPropertyOp28
 70
     1
102
RTVSPropertyOp29
 70
     1
102
RTVSPropertyOp30
 70
     1
102
RTVSPropertyOp31
 70
     1
102
RTVSPropertyOp32
 70
     1
102
RTVSPropertyOp33
 70
     1
102
RTVSPropertyOp34
 70
     1
102
RTVSPropertyOp35
 70
     1
102
RTVSPropertyOp36
 70
     1
102
RTVSPropertyOp37
 70
     1
102
RTVSPropertyOp38
 70
     1
102
RTVSPropertyOp39
 70
     1
102
RTVSPropertyOp40
 70
     1
102
RTVSPropertyOp41
 70
     1
102
RTVSPropertyOp42
 70
     1
102
RTVSPropertyOp43
 70
     1
102
RTVSPropertyOp44
 70
     1
102
RTVSPropertyOp45
 70
     1
102
RTVSPropertyOp46
 70
     1
102
RTVSPropertyOp47
 70
     1
102
RTVSPropertyOp48
 70
     1
102
RTVSPropertyOp49
 70
     1
102
RTVSPropertyOp50
 70
     1
102
RTVSPropertyOp51
 70
     0
102
RTVSPropertyOp52
 70
     0
102
RTVSPropertyOp53
 70
     1
102
RTVSPropertyOp54
 70
     1
102
RTVSPropertyOp55
 70
     1
102
RTVSPropertyOp56
 70
     1
102
RTVSPropertyOp57
 70
     1
102
RTVSPropertyOp58
 70
     1
102
RTVSPropertyOp59
 70
     1
102
RTVSPropertyOp60
 70
     1
102
RTVSPropertyOp61
 70
     1
102
RTVSPropertyOp62
 70
     1
  0
XRECORD
  5
3D04
102
{ACAD_REACTORS
330
3D03
102
}
330
3D03
100
AcDbXrecord
280
     1
102
RTVSPost2010Prop28
280
     0
102
RTVSPost2010PropOp28
 70
     1
102
RTVSPost2010Prop29
280
     1
102
RTVSPost2010PropOp29
 70
     1
102
RTVSPost2010Prop30
280
     1
102
RTVSPost2010PropOp30
 70
     1
102
RTVSPost2010Prop31
280
     0
102
RTVSPost2010PropOp31
 70
     1
102
RTVSPost2010Prop32
280
     0
102
RTVSPost2010PropOp32
 70
     1
102
RTVSPost2010Prop33
280
     0
102
RTVSPost2010PropOp33
 70
     1
102
RTVSPost2010Prop34
280
     0
102
RTVSPost2010PropOp34
 70
     1
102
RTVSPost2010Prop35
280
     0
102
RTVSPost2010PropOp35
 70
     1
102
RTVSPost2010Prop36
280
     0
102
RTVSPost2010PropOp36
 70
     1
102
RTVSPost2010Prop37
 90
       50
102
RTVSPost2010PropOp37
 70
     1
102
RTVSPost2010Prop38
140
0.0
102
RTVSPost2010PropOp38
 70
     1
102
RTVSPost2010Prop39
140
1.0
102
RTVSPost2010PropOp39
 70
     1
102
RTVSPost2010Prop40
 90
        0
102
RTVSPost2010PropOp40
 70
     1
102
RTVSPost2010Prop41ColorIndex
 90
       18
102
RTVSPost2010Prop41ColorRGB
 90
        0
102
RTVSPost2010PropOp41
 70
     1
102
RTVSPost2010Prop42
 90
       50
102
RTVSPost2010PropOp42
 70
     1
102
RTVSPost2010Prop43
 90
        3
102
RTVSPost2010PropOp43
 70
     1
102
RTVSPost2010Prop44ColorIndex
 90
        5
102
RTVSPost2010Prop44ColorRGB
 90
      255
102
RTVSPost2010PropOp44
 70
     1
102
RTVSPost2010Prop45
280
     0
102
RTVSPost2010PropOp45
 70
     1
102
RTVSPost2010Prop46
 90
       50
102
RTVSPost2010PropOp46
 70
     1
102
RTVSPost2010Prop47
 90
       50
102
RTVSPost2010PropOp47
 70
     1
102
RTVSPost2010Prop48
 90
       50
102
RTVSPost2010PropOp48
 70
     1
102
RTVSPost2010Prop49
280
     0
102
RTVSPost2010PropOp49
 70
     1
102
RTVSPost2010Prop50
 90
       50
102
RTVSPost2010PropOp50
 70
     1
102
RTVSPost2010Prop51ColorIndex
 90
      256
102
RTVSPost2010Prop51ColorRGB
 90
-16777216
102
RTVSPost2010PropOp51
 70
     0
102
RTVSPost2010Prop52
140
1.0
102
RTVSPost2010PropOp52
 70
     0
102
RTVSPost2010Prop53
 90
        2
102
RTVSPost2010PropOp53
 70
     1
102
RTVSPost2010Prop54
  1
strokes_ogs.tif
102
RTVSPost2010PropOp54
 70
     1
102
RTVSPost2010Prop55
280
     0
102
RTVSPost2010PropOp55
 70
     1
102
RTVSPost2010Prop56
140
1.0
102
RTVSPost2010PropOp56
 70
     1
102
RTVSPost2010Prop57
140
1.0
102
RTVSPost2010PropOp57
 70
     1
102
RTVSPropertyOp0
 70
     0
102
RTVSPropertyOp1
 70
     0
102
RTVSPropertyOp2
 70
     0
102
RTVSPropertyOp3
 70
     0
102
RTVSPropertyOp4
 70
     0
102
RTVSPropertyOp5
 70
     0
102
RTVSPropertyOp6
 70
     0
102
RTVSPropertyOp7
 70
     0
102
RTVSPropertyOp8
 70
     0
102
RTVSPropertyOp9
 70
     0
102
RTVSPropertyOp10
 70
     0
102
RTVSPropertyOp11
 70
     0
102
RTVSPropertyOp12
 70
     0
102
RTVSPropertyOp13
 70
     0
102
RTVSPropertyOp14
 70
     2
102
RTVSPropertyOp15
 70
     0
102
RTVSPropertyOp16
 70
     0
102
RTVSPropertyOp17
 70
     0
102
RTVSPropertyOp18
 70
     0
102
RTVSPropertyOp19
 70
     0
102
RTVSPropertyOp20
 70
     0
102
RTVSPropertyOp21
 70
     0
102
RTVSPropertyOp22
 70
     0
102
RTVSPropertyOp23
 70
     0
102
RTVSPropertyOp24
 70
     0
102
RTVSPropertyOp25
 70
     0
102
RTVSPropertyOp26
 70
     0
102
RTVSPropertyOp27
 70
     0
102
RTVSPropertyOp28
 70
     1
102
RTVSPropertyOp29
 70
     1
102
RTVSPropertyOp30
 70
     1
102
RTVSPropertyOp31
 70
     1
102
RTVSPropertyOp32
 70
     1
102
RTVSPropertyOp33
 70
     1
102
RTVSPropertyOp34
 70
     1
102
RTVSPropertyOp35
 70
     1
102
RTVSPropertyOp36
 70
     1
102
RTVSPropertyOp37
 70
     1
102
RTVSPropertyOp38
 70
     1
102
RTVSPropertyOp39
 70
     1
102
RTVSPropertyOp40
 70
     1
102
RTVSPropertyOp41
 70
     1
102
RTVSPropertyOp42
 70
     1
102
RTVSPropertyOp43
 70
     1
102
RTVSPropertyOp44
 70
     1
102
RTVSPropertyOp45
 70
     1
102
RTVSPropertyOp46
 70
     1
102
RTVSPropertyOp47
 70
     1
102
RTVSPropertyOp48
 70
     1
102
RTVSPropertyOp49
 70
     1
102
RTVSPropertyOp50
 70
     1
102
RTVSPropertyOp51
 70
     0
102
RTVSPropertyOp52
 70
     0
102
RTVSPropertyOp53
 70
     1
102
RTVSPropertyOp54
 70
     1
102
RTVSPropertyOp55
 70
     1
102
RTVSPropertyOp56
 70
     1
102
RTVSPropertyOp57
 70
     1
102
RTVSPropertyOp58
 70
     1
102
RTVSPropertyOp59
 70
     1
102
RTVSPropertyOp60
 70
     1
102
RTVSPropertyOp61
 70
     1
102
RTVSPropertyOp62
 70
     1
  0
XRECORD
  5
3CFA
102
{ACAD_REACTORS
330
3CF9
102
}
330
3CF9
100
AcDbXrecord
280
     1
102
RTVSPost2010Prop28
280
     0
102
RTVSPost2010PropOp28
 70
     1
102
RTVSPost2010Prop29
280
     1
102
RTVSPost2010PropOp29
 70
     1
102
RTVSPost2010Prop30
280
     1
102
RTVSPost2010PropOp30
 70
     1
102
RTVSPost2010Prop31
280
     0
102
RTVSPost2010PropOp31
 70
     1
102
RTVSPost2010Prop32
280
     0
102
RTVSPost2010PropOp32
 70
     1
102
RTVSPost2010Prop33
280
     0
102
RTVSPost2010PropOp33
 70
     1
102
RTVSPost2010Prop34
280
     0
102
RTVSPost2010PropOp34
 70
     1
102
RTVSPost2010Prop35
280
     0
102
RTVSPost2010PropOp35
 70
     1
102
RTVSPost2010Prop36
280
     0
102
RTVSPost2010PropOp36
 70
     1
102
RTVSPost2010Prop37
 90
       50
102
RTVSPost2010PropOp37
 70
     1
102
RTVSPost2010Prop38
140
0.0
102
RTVSPost2010PropOp38
 70
     1
102
RTVSPost2010Prop39
140
1.0
102
RTVSPost2010PropOp39
 70
     1
102
RTVSPost2010Prop40
 90
        0
102
RTVSPost2010PropOp40
 70
     1
102
RTVSPost2010Prop41ColorIndex
 90
       18
102
RTVSPost2010Prop41ColorRGB
 90
        0
102
RTVSPost2010PropOp41
 70
     1
102
RTVSPost2010Prop42
 90
       50
102
RTVSPost2010PropOp42
 70
     1
102
RTVSPost2010Prop43
 90
        3
102
RTVSPost2010PropOp43
 70
     1
102
RTVSPost2010Prop44ColorIndex
 90
        5
102
RTVSPost2010Prop44ColorRGB
 90
      255
102
RTVSPost2010PropOp44
 70
     1
102
RTVSPost2010Prop45
280
     0
102
RTVSPost2010PropOp45
 70
     1
102
RTVSPost2010Prop46
 90
       50
102
RTVSPost2010PropOp46
 70
     1
102
RTVSPost2010Prop47
 90
       50
102
RTVSPost2010PropOp47
 70
     1
102
RTVSPost2010Prop48
 90
       50
102
RTVSPost2010PropOp48
 70
     1
102
RTVSPost2010Prop49
280
     0
102
RTVSPost2010PropOp49
 70
     1
102
RTVSPost2010Prop50
 90
       50
102
RTVSPost2010PropOp50
 70
     1
102
RTVSPost2010Prop51ColorIndex
 90
      256
102
RTVSPost2010Prop51ColorRGB
 90
-16777216
102
RTVSPost2010PropOp51
 70
     0
102
RTVSPost2010Prop52
140
1.0
102
RTVSPost2010PropOp52
 70
     0
102
RTVSPost2010Prop53
 90
        2
102
RTVSPost2010PropOp53
 70
     1
102
RTVSPost2010Prop54
  1
strokes_ogs.tif
102
RTVSPost2010PropOp54
 70
     1
102
RTVSPost2010Prop55
280
     0
102
RTVSPost2010PropOp55
 70
     1
102
RTVSPost2010Prop56
140
1.0
102
RTVSPost2010PropOp56
 70
     1
102
RTVSPost2010Prop57
140
1.0
102
RTVSPost2010PropOp57
 70
     1
102
RTVSPropertyOp0
 70
     1
102
RTVSPropertyOp1
 70
     1
102
RTVSPropertyOp2
 70
     1
102
RTVSPropertyOp3
 70
     1
102
RTVSPropertyOp4
 70
     1
102
RTVSPropertyOp5
 70
     1
102
RTVSPropertyOp6
 70
     1
102
RTVSPropertyOp7
 70
     1
102
RTVSPropertyOp8
 70
     1
102
RTVSPropertyOp9
 70
     1
102
RTVSPropertyOp10
 70
     1
102
RTVSPropertyOp11
 70
     1
102
RTVSPropertyOp12
 70
     1
102
RTVSPropertyOp13
 70
     1
102
RTVSPropertyOp14
 70
     1
102
RTVSPropertyOp15
 70
     1
102
RTVSPropertyOp16
 70
     1
102
RTVSPropertyOp17
 70
     1
102
RTVSPropertyOp18
 70
     1
102
RTVSPropertyOp19
 70
     1
102
RTVSPropertyOp20
 70
     1
102
RTVSPropertyOp21
 70
     1
102
RTVSPropertyOp22
 70
     1
102
RTVSPropertyOp23
 70
     1
102
RTVSPropertyOp24
 70
     1
102
RTVSPropertyOp25
 70
     1
102
RTVSPropertyOp26
 70
     1
102
RTVSPropertyOp27
 70
     1
102
RTVSPropertyOp28
 70
     1
102
RTVSPropertyOp29
 70
     1
102
RTVSPropertyOp30
 70
     1
102
RTVSPropertyOp31
 70
     1
102
RTVSPropertyOp32
 70
     1
102
RTVSPropertyOp33
 70
     1
102
RTVSPropertyOp34
 70
     1
102
RTVSPropertyOp35
 70
     1
102
RTVSPropertyOp36
 70
     1
102
RTVSPropertyOp37
 70
     1
102
RTVSPropertyOp38
 70
     1
102
RTVSPropertyOp39
 70
     1
102
RTVSPropertyOp40
 70
     1
102
RTVSPropertyOp41
 70
     1
102
RTVSPropertyOp42
 70
     1
102
RTVSPropertyOp43
 70
     1
102
RTVSPropertyOp44
 70
     1
102
RTVSPropertyOp45
 70
     1
102
RTVSPropertyOp46
 70
     1
102
RTVSPropertyOp47
 70
     1
102
RTVSPropertyOp48
 70
     1
102
RTVSPropertyOp49
 70
     1
102
RTVSPropertyOp50
 70
     1
102
RTVSPropertyOp51
 70
     0
102
RTVSPropertyOp52
 70
     0
102
RTVSPropertyOp53
 70
     1
102
RTVSPropertyOp54
 70
     1
102
RTVSPropertyOp55
 70
     1
102
RTVSPropertyOp56
 70
     1
102
RTVSPropertyOp57
 70
     1
102
RTVSPropertyOp58
 70
     1
102
RTVSPropertyOp59
 70
     1
102
RTVSPropertyOp60
 70
     1
102
RTVSPropertyOp61
 70
     1
102
RTVSPropertyOp62
 70
     1
  0
XRECORD
  5
3CDE
102
{ACAD_REACTORS
330
3CDD
102
}
330
3CDD
100
AcDbXrecord
280
     1
102
RTVSPost2010Prop28
280
     0
102
RTVSPost2010PropOp28
 70
     1
102
RTVSPost2010Prop29
280
     1
102
RTVSPost2010PropOp29
 70
     1
102
RTVSPost2010Prop30
280
     1
102
RTVSPost2010PropOp30
 70
     1
102
RTVSPost2010Prop31
280
     0
102
RTVSPost2010PropOp31
 70
     1
102
RTVSPost2010Prop32
280
     0
102
RTVSPost2010PropOp32
 70
     1
102
RTVSPost2010Prop33
280
     0
102
RTVSPost2010PropOp33
 70
     1
102
RTVSPost2010Prop34
280
     0
102
RTVSPost2010PropOp34
 70
     1
102
RTVSPost2010Prop35
280
     0
102
RTVSPost2010PropOp35
 70
     1
102
RTVSPost2010Prop36
280
     0
102
RTVSPost2010PropOp36
 70
     1
102
RTVSPost2010Prop37
 90
       50
102
RTVSPost2010PropOp37
 70
     1
102
RTVSPost2010Prop38
140
0.0
102
RTVSPost2010PropOp38
 70
     1
102
RTVSPost2010Prop39
140
1.0
102
RTVSPost2010PropOp39
 70
     1
102
RTVSPost2010Prop40
 90
        0
102
RTVSPost2010PropOp40
 70
     1
102
RTVSPost2010Prop41ColorIndex
 90
       18
102
RTVSPost2010Prop41ColorRGB
 90
        0
102
RTVSPost2010PropOp41
 70
     1
102
RTVSPost2010Prop42
 90
       50
102
RTVSPost2010PropOp42
 70
     1
102
RTVSPost2010Prop43
 90
        3
102
RTVSPost2010PropOp43
 70
     1
102
RTVSPost2010Prop44ColorIndex
 90
        5
102
RTVSPost2010Prop44ColorRGB
 90
      255
102
RTVSPost2010PropOp44
 70
     1
102
RTVSPost2010Prop45
280
     0
102
RTVSPost2010PropOp45
 70
     1
102
RTVSPost2010Prop46
 90
       50
102
RTVSPost2010PropOp46
 70
     1
102
RTVSPost2010Prop47
 90
       50
102
RTVSPost2010PropOp47
 70
     1
102
RTVSPost2010Prop48
 90
       50
102
RTVSPost2010PropOp48
 70
     1
102
RTVSPost2010Prop49
280
     0
102
RTVSPost2010PropOp49
 70
     1
102
RTVSPost2010Prop50
 90
       50
102
RTVSPost2010PropOp50
 70
     1
102
RTVSPost2010Prop51ColorIndex
 90
      256
102
RTVSPost2010Prop51ColorRGB
 90
-16777216
102
RTVSPost2010PropOp51
 70
     0
102
RTVSPost2010Prop52
140
1.0
102
RTVSPost2010PropOp52
 70
     0
102
RTVSPost2010Prop53
 90
        2
102
RTVSPost2010PropOp53
 70
     1
102
RTVSPost2010Prop54
  1
strokes_ogs.tif
102
RTVSPost2010PropOp54
 70
     1
102
RTVSPost2010Prop55
280
     0
102
RTVSPost2010PropOp55
 70
     1
102
RTVSPost2010Prop56
140
1.0
102
RTVSPost2010PropOp56
 70
     1
102
RTVSPost2010Prop57
140
1.0
102
RTVSPost2010PropOp57
 70
     1
102
RTVSPropertyOp0
 70
     1
102
RTVSPropertyOp1
 70
     1
102
RTVSPropertyOp2
 70
     1
102
RTVSPropertyOp3
 70
     1
102
RTVSPropertyOp4
 70
     1
102
RTVSPropertyOp5
 70
     1
102
RTVSPropertyOp6
 70
     1
102
RTVSPropertyOp7
 70
     1
102
RTVSPropertyOp8
 70
     1
102
RTVSPropertyOp9
 70
     1
102
RTVSPropertyOp10
 70
     1
102
RTVSPropertyOp11
 70
     1
102
RTVSPropertyOp12
 70
     1
102
RTVSPropertyOp13
 70
     1
102
RTVSPropertyOp14
 70
     1
102
RTVSPropertyOp15
 70
     1
102
RTVSPropertyOp16
 70
     1
102
RTVSPropertyOp17
 70
     1
102
RTVSPropertyOp18
 70
     1
102
RTVSPropertyOp19
 70
     1
102
RTVSPropertyOp20
 70
     1
102
RTVSPropertyOp21
 70
     1
102
RTVSPropertyOp22
 70
     1
102
RTVSPropertyOp23
 70
     1
102
RTVSPropertyOp24
 70
     1
102
RTVSPropertyOp25
 70
     1
102
RTVSPropertyOp26
 70
     1
102
RTVSPropertyOp27
 70
     1
102
RTVSPropertyOp28
 70
     1
102
RTVSPropertyOp29
 70
     1
102
RTVSPropertyOp30
 70
     1
102
RTVSPropertyOp31
 70
     1
102
RTVSPropertyOp32
 70
     1
102
RTVSPropertyOp33
 70
     1
102
RTVSPropertyOp34
 70
     1
102
RTVSPropertyOp35
 70
     1
102
RTVSPropertyOp36
 70
     1
102
RTVSPropertyOp37
 70
     1
102
RTVSPropertyOp38
 70
     1
102
RTVSPropertyOp39
 70
     1
102
RTVSPropertyOp40
 70
     1
102
RTVSPropertyOp41
 70
     1
102
RTVSPropertyOp42
 70
     1
102
RTVSPropertyOp43
 70
     1
102
RTVSPropertyOp44
 70
     1
102
RTVSPropertyOp45
 70
     1
102
RTVSPropertyOp46
 70
     1
102
RTVSPropertyOp47
 70
     1
102
RTVSPropertyOp48
 70
     1
102
RTVSPropertyOp49
 70
     1
102
RTVSPropertyOp50
 70
     1
102
RTVSPropertyOp51
 70
     0
102
RTVSPropertyOp52
 70
     0
102
RTVSPropertyOp53
 70
     1
102
RTVSPropertyOp54
 70
     1
102
RTVSPropertyOp55
 70
     1
102
RTVSPropertyOp56
 70
     1
102
RTVSPropertyOp57
 70
     1
102
RTVSPropertyOp58
 70
     1
102
RTVSPropertyOp59
 70
     1
102
RTVSPropertyOp60
 70
     1
102
RTVSPropertyOp61
 70
     1
102
RTVSPropertyOp62
 70
     1
  0
XRECORD
  5
3CE0
102
{ACAD_REACTORS
330
3CDF
102
}
330
3CDF
100
AcDbXrecord
280
     1
102
RTVSPost2010Prop28
280
     0
102
RTVSPost2010PropOp28
 70
     1
102
RTVSPost2010Prop29
280
     1
102
RTVSPost2010PropOp29
 70
     1
102
RTVSPost2010Prop30
280
     1
102
RTVSPost2010PropOp30
 70
     1
102
RTVSPost2010Prop31
280
     0
102
RTVSPost2010PropOp31
 70
     1
102
RTVSPost2010Prop32
280
     0
102
RTVSPost2010PropOp32
 70
     1
102
RTVSPost2010Prop33
280
     0
102
RTVSPost2010PropOp33
 70
     1
102
RTVSPost2010Prop34
280
     0
102
RTVSPost2010PropOp34
 70
     1
102
RTVSPost2010Prop35
280
     0
102
RTVSPost2010PropOp35
 70
     1
102
RTVSPost2010Prop36
280
     0
102
RTVSPost2010PropOp36
 70
     1
102
RTVSPost2010Prop37
 90
       50
102
RTVSPost2010PropOp37
 70
     1
102
RTVSPost2010Prop38
140
0.0
102
RTVSPost2010PropOp38
 70
     1
102
RTVSPost2010Prop39
140
1.0
102
RTVSPost2010PropOp39
 70
     1
102
RTVSPost2010Prop40
 90
        0
102
RTVSPost2010PropOp40
 70
     1
102
RTVSPost2010Prop41ColorIndex
 90
       18
102
RTVSPost2010Prop41ColorRGB
 90
        0
102
RTVSPost2010PropOp41
 70
     1
102
RTVSPost2010Prop42
 90
       50
102
RTVSPost2010PropOp42
 70
     1
102
RTVSPost2010Prop43
 90
        3
102
RTVSPost2010PropOp43
 70
     1
102
RTVSPost2010Prop44ColorIndex
 90
        5
102
RTVSPost2010Prop44ColorRGB
 90
      255
102
RTVSPost2010PropOp44
 70
     1
102
RTVSPost2010Prop45
280
     0
102
RTVSPost2010PropOp45
 70
     1
102
RTVSPost2010Prop46
 90
       50
102
RTVSPost2010PropOp46
 70
     1
102
RTVSPost2010Prop47
 90
       50
102
RTVSPost2010PropOp47
 70
     1
102
RTVSPost2010Prop48
 90
       50
102
RTVSPost2010PropOp48
 70
     1
102
RTVSPost2010Prop49
280
     0
102
RTVSPost2010PropOp49
 70
     1
102
RTVSPost2010Prop50
 90
       50
102
RTVSPost2010PropOp50
 70
     1
102
RTVSPost2010Prop51ColorIndex
 90
      256
102
RTVSPost2010Prop51ColorRGB
 90
-16777216
102
RTVSPost2010PropOp51
 70
     0
102
RTVSPost2010Prop52
140
1.0
102
RTVSPost2010PropOp52
 70
     0
102
RTVSPost2010Prop53
 90
        2
102
RTVSPost2010PropOp53
 70
     1
102
RTVSPost2010Prop54
  1
strokes_ogs.tif
102
RTVSPost2010PropOp54
 70
     1
102
RTVSPost2010Prop55
280
     0
102
RTVSPost2010PropOp55
 70
     1
102
RTVSPost2010Prop56
140
1.0
102
RTVSPost2010PropOp56
 70
     1
102
RTVSPost2010Prop57
140
1.0
102
RTVSPost2010PropOp57
 70
     1
102
RTVSPropertyOp0
 70
     1
102
RTVSPropertyOp1
 70
     1
102
RTVSPropertyOp2
 70
     1
102
RTVSPropertyOp3
 70
     1
102
RTVSPropertyOp4
 70
     1
102
RTVSPropertyOp5
 70
     1
102
RTVSPropertyOp6
 70
     1
102
RTVSPropertyOp7
 70
     1
102
RTVSPropertyOp8
 70
     1
102
RTVSPropertyOp9
 70
     1
102
RTVSPropertyOp10
 70
     1
102
RTVSPropertyOp11
 70
     1
102
RTVSPropertyOp12
 70
     1
102
RTVSPropertyOp13
 70
     1
102
RTVSPropertyOp14
 70
     1
102
RTVSPropertyOp15
 70
     1
102
RTVSPropertyOp16
 70
     1
102
RTVSPropertyOp17
 70
     1
102
RTVSPropertyOp18
 70
     1
102
RTVSPropertyOp19
 70
     1
102
RTVSPropertyOp20
 70
     1
102
RTVSPropertyOp21
 70
     1
102
RTVSPropertyOp22
 70
     1
102
RTVSPropertyOp23
 70
     1
102
RTVSPropertyOp24
 70
     1
102
RTVSPropertyOp25
 70
     1
102
RTVSPropertyOp26
 70
     1
102
RTVSPropertyOp27
 70
     1
102
RTVSPropertyOp28
 70
     1
102
RTVSPropertyOp29
 70
     1
102
RTVSPropertyOp30
 70
     1
102
RTVSPropertyOp31
 70
     1
102
RTVSPropertyOp32
 70
     1
102
RTVSPropertyOp33
 70
     1
102
RTVSPropertyOp34
 70
     1
102
RTVSPropertyOp35
 70
     1
102
RTVSPropertyOp36
 70
     1
102
RTVSPropertyOp37
 70
     1
102
RTVSPropertyOp38
 70
     1
102
RTVSPropertyOp39
 70
     1
102
RTVSPropertyOp40
 70
     1
102
RTVSPropertyOp41
 70
     1
102
RTVSPropertyOp42
 70
     1
102
RTVSPropertyOp43
 70
     1
102
RTVSPropertyOp44
 70
     1
102
RTVSPropertyOp45
 70
     1
102
RTVSPropertyOp46
 70
     1
102
RTVSPropertyOp47
 70
     1
102
RTVSPropertyOp48
 70
     1
102
RTVSPropertyOp49
 70
     1
102
RTVSPropertyOp50
 70
     1
102
RTVSPropertyOp51
 70
     0
102
RTVSPropertyOp52
 70
     0
102
RTVSPropertyOp53
 70
     1
102
RTVSPropertyOp54
 70
     1
102
RTVSPropertyOp55
 70
     1
102
RTVSPropertyOp56
 70
     1
102
RTVSPropertyOp57
 70
     1
102
RTVSPropertyOp58
 70
     1
102
RTVSPropertyOp59
 70
     1
102
RTVSPropertyOp60
 70
     1
102
RTVSPropertyOp61
 70
     1
102
RTVSPropertyOp62
 70
     1
  0
XRECORD
  5
3CE2
102
{ACAD_REACTORS
330
3CE1
102
}
330
3CE1
100
AcDbXrecord
280
     1
102
RTVSPost2010Prop28
280
     0
102
RTVSPost2010PropOp28
 70
     1
102
RTVSPost2010Prop29
280
     1
102
RTVSPost2010PropOp29
 70
     1
102
RTVSPost2010Prop30
280
     1
102
RTVSPost2010PropOp30
 70
     1
102
RTVSPost2010Prop31
280
     0
102
RTVSPost2010PropOp31
 70
     1
102
RTVSPost2010Prop32
280
     0
102
RTVSPost2010PropOp32
 70
     1
102
RTVSPost2010Prop33
280
     0
102
RTVSPost2010PropOp33
 70
     1
102
RTVSPost2010Prop34
280
     0
102
RTVSPost2010PropOp34
 70
     1
102
RTVSPost2010Prop35
280
     0
102
RTVSPost2010PropOp35
 70
     1
102
RTVSPost2010Prop36
280
     0
102
RTVSPost2010PropOp36
 70
     1
102
RTVSPost2010Prop37
 90
       50
102
RTVSPost2010PropOp37
 70
     1
102
RTVSPost2010Prop38
140
0.0
102
RTVSPost2010PropOp38
 70
     1
102
RTVSPost2010Prop39
140
1.0
102
RTVSPost2010PropOp39
 70
     1
102
RTVSPost2010Prop40
 90
        0
102
RTVSPost2010PropOp40
 70
     1
102
RTVSPost2010Prop41ColorIndex
 90
       18
102
RTVSPost2010Prop41ColorRGB
 90
        0
102
RTVSPost2010PropOp41
 70
     1
102
RTVSPost2010Prop42
 90
       50
102
RTVSPost2010PropOp42
 70
     1
102
RTVSPost2010Prop43
 90
        3
102
RTVSPost2010PropOp43
 70
     1
102
RTVSPost2010Prop44ColorIndex
 90
        5
102
RTVSPost2010Prop44ColorRGB
 90
      255
102
RTVSPost2010PropOp44
 70
     1
102
RTVSPost2010Prop45
280
     0
102
RTVSPost2010PropOp45
 70
     1
102
RTVSPost2010Prop46
 90
       50
102
RTVSPost2010PropOp46
 70
     1
102
RTVSPost2010Prop47
 90
       50
102
RTVSPost2010PropOp47
 70
     1
102
RTVSPost2010Prop48
 90
       50
102
RTVSPost2010PropOp48
 70
     1
102
RTVSPost2010Prop49
280
     0
102
RTVSPost2010PropOp49
 70
     1
102
RTVSPost2010Prop50
 90
       50
102
RTVSPost2010PropOp50
 70
     1
102
RTVSPost2010Prop51ColorIndex
 90
      256
102
RTVSPost2010Prop51ColorRGB
 90
-16777216
102
RTVSPost2010PropOp51
 70
     0
102
RTVSPost2010Prop52
140
1.0
102
RTVSPost2010PropOp52
 70
     0
102
RTVSPost2010Prop53
 90
        2
102
RTVSPost2010PropOp53
 70
     1
102
RTVSPost2010Prop54
  1
strokes_ogs.tif
102
RTVSPost2010PropOp54
 70
     1
102
RTVSPost2010Prop55
280
     0
102
RTVSPost2010PropOp55
 70
     1
102
RTVSPost2010Prop56
140
1.0
102
RTVSPost2010PropOp56
 70
     1
102
RTVSPost2010Prop57
140
1.0
102
RTVSPost2010PropOp57
 70
     1
102
RTVSPropertyOp0
 70
     1
102
RTVSPropertyOp1
 70
     1
102
RTVSPropertyOp2
 70
     1
102
RTVSPropertyOp3
 70
     1
102
RTVSPropertyOp4
 70
     1
102
RTVSPropertyOp5
 70
     1
102
RTVSPropertyOp6
 70
     1
102
RTVSPropertyOp7
 70
     1
102
RTVSPropertyOp8
 70
     1
102
RTVSPropertyOp9
 70
     1
102
RTVSPropertyOp10
 70
     1
102
RTVSPropertyOp11
 70
     1
102
RTVSPropertyOp12
 70
     1
102
RTVSPropertyOp13
 70
     1
102
RTVSPropertyOp14
 70
     1
102
RTVSPropertyOp15
 70
     1
102
RTVSPropertyOp16
 70
     1
102
RTVSPropertyOp17
 70
     1
102
RTVSPropertyOp18
 70
     1
102
RTVSPropertyOp19
 70
     1
102
RTVSPropertyOp20
 70
     1
102
RTVSPropertyOp21
 70
     1
102
RTVSPropertyOp22
 70
     1
102
RTVSPropertyOp23
 70
     1
102
RTVSPropertyOp24
 70
     1
102
RTVSPropertyOp25
 70
     1
102
RTVSPropertyOp26
 70
     1
102
RTVSPropertyOp27
 70
     1
102
RTVSPropertyOp28
 70
     1
102
RTVSPropertyOp29
 70
     1
102
RTVSPropertyOp30
 70
     1
102
RTVSPropertyOp31
 70
     1
102
RTVSPropertyOp32
 70
     1
102
RTVSPropertyOp33
 70
     1
102
RTVSPropertyOp34
 70
     1
102
RTVSPropertyOp35
 70
     1
102
RTVSPropertyOp36
 70
     1
102
RTVSPropertyOp37
 70
     1
102
RTVSPropertyOp38
 70
     1
102
RTVSPropertyOp39
 70
     1
102
RTVSPropertyOp40
 70
     1
102
RTVSPropertyOp41
 70
     1
102
RTVSPropertyOp42
 70
     1
102
RTVSPropertyOp43
 70
     1
102
RTVSPropertyOp44
 70
     1
102
RTVSPropertyOp45
 70
     1
102
RTVSPropertyOp46
 70
     1
102
RTVSPropertyOp47
 70
     1
102
RTVSPropertyOp48
 70
     1
102
RTVSPropertyOp49
 70
     1
102
RTVSPropertyOp50
 70
     1
102
RTVSPropertyOp51
 70
     0
102
RTVSPropertyOp52
 70
     0
102
RTVSPropertyOp53
 70
     1
102
RTVSPropertyOp54
 70
     1
102
RTVSPropertyOp55
 70
     1
102
RTVSPropertyOp56
 70
     1
102
RTVSPropertyOp57
 70
     1
102
RTVSPropertyOp58
 70
     1
102
RTVSPropertyOp59
 70
     1
102
RTVSPropertyOp60
 70
     1
102
RTVSPropertyOp61
 70
     1
102
RTVSPropertyOp62
 70
     1
  0
XRECORD
  5
3CE4
102
{ACAD_REACTORS
330
3CE3
102
}
330
3CE3
100
AcDbXrecord
280
     1
102
RTVSPost2010Prop28
280
     0
102
RTVSPost2010PropOp28
 70
     1
102
RTVSPost2010Prop29
280
     1
102
RTVSPost2010PropOp29
 70
     1
102
RTVSPost2010Prop30
280
     1
102
RTVSPost2010PropOp30
 70
     1
102
RTVSPost2010Prop31
280
     0
102
RTVSPost2010PropOp31
 70
     1
102
RTVSPost2010Prop32
280
     0
102
RTVSPost2010PropOp32
 70
     1
102
RTVSPost2010Prop33
280
     0
102
RTVSPost2010PropOp33
 70
     1
102
RTVSPost2010Prop34
280
     0
102
RTVSPost2010PropOp34
 70
     1
102
RTVSPost2010Prop35
280
     0
102
RTVSPost2010PropOp35
 70
     1
102
RTVSPost2010Prop36
280
     0
102
RTVSPost2010PropOp36
 70
     1
102
RTVSPost2010Prop37
 90
       50
102
RTVSPost2010PropOp37
 70
     1
102
RTVSPost2010Prop38
140
0.0
102
RTVSPost2010PropOp38
 70
     1
102
RTVSPost2010Prop39
140
1.0
102
RTVSPost2010PropOp39
 70
     1
102
RTVSPost2010Prop40
 90
        0
102
RTVSPost2010PropOp40
 70
     1
102
RTVSPost2010Prop41ColorIndex
 90
       18
102
RTVSPost2010Prop41ColorRGB
 90
        0
102
RTVSPost2010PropOp41
 70
     1
102
RTVSPost2010Prop42
 90
       50
102
RTVSPost2010PropOp42
 70
     1
102
RTVSPost2010Prop43
 90
        3
102
RTVSPost2010PropOp43
 70
     1
102
RTVSPost2010Prop44ColorIndex
 90
        5
102
RTVSPost2010Prop44ColorRGB
 90
      255
102
RTVSPost2010PropOp44
 70
     1
102
RTVSPost2010Prop45
280
     0
102
RTVSPost2010PropOp45
 70
     1
102
RTVSPost2010Prop46
 90
       50
102
RTVSPost2010PropOp46
 70
     1
102
RTVSPost2010Prop47
 90
       50
102
RTVSPost2010PropOp47
 70
     1
102
RTVSPost2010Prop48
 90
       50
102
RTVSPost2010PropOp48
 70
     1
102
RTVSPost2010Prop49
280
     0
102
RTVSPost2010PropOp49
 70
     1
102
RTVSPost2010Prop50
 90
       50
102
RTVSPost2010PropOp50
 70
     1
102
RTVSPost2010Prop51ColorIndex
 90
      256
102
RTVSPost2010Prop51ColorRGB
 90
-16777216
102
RTVSPost2010PropOp51
 70
     0
102
RTVSPost2010Prop52
140
1.0
102
RTVSPost2010PropOp52
 70
     0
102
RTVSPost2010Prop53
 90
        2
102
RTVSPost2010PropOp53
 70
     1
102
RTVSPost2010Prop54
  1
strokes_ogs.tif
102
RTVSPost2010PropOp54
 70
     1
102
RTVSPost2010Prop55
280
     0
102
RTVSPost2010PropOp55
 70
     1
102
RTVSPost2010Prop56
140
1.0
102
RTVSPost2010PropOp56
 70
     1
102
RTVSPost2010Prop57
140
1.0
102
RTVSPost2010PropOp57
 70
     1
102
RTVSPropertyOp0
 70
     1
102
RTVSPropertyOp1
 70
     1
102
RTVSPropertyOp2
 70
     1
102
RTVSPropertyOp3
 70
     1
102
RTVSPropertyOp4
 70
     1
102
RTVSPropertyOp5
 70
     1
102
RTVSPropertyOp6
 70
     1
102
RTVSPropertyOp7
 70
     1
102
RTVSPropertyOp8
 70
     1
102
RTVSPropertyOp9
 70
     1
102
RTVSPropertyOp10
 70
     1
102
RTVSPropertyOp11
 70
     1
102
RTVSPropertyOp12
 70
     1
102
RTVSPropertyOp13
 70
     1
102
RTVSPropertyOp14
 70
     1
102
RTVSPropertyOp15
 70
     1
102
RTVSPropertyOp16
 70
     1
102
RTVSPropertyOp17
 70
     1
102
RTVSPropertyOp18
 70
     1
102
RTVSPropertyOp19
 70
     1
102
RTVSPropertyOp20
 70
     1
102
RTVSPropertyOp21
 70
     1
102
RTVSPropertyOp22
 70
     1
102
RTVSPropertyOp23
 70
     1
102
RTVSPropertyOp24
 70
     1
102
RTVSPropertyOp25
 70
     1
102
RTVSPropertyOp26
 70
     1
102
RTVSPropertyOp27
 70
     1
102
RTVSPropertyOp28
 70
     1
102
RTVSPropertyOp29
 70
     1
102
RTVSPropertyOp30
 70
     1
102
RTVSPropertyOp31
 70
     1
102
RTVSPropertyOp32
 70
     1
102
RTVSPropertyOp33
 70
     1
102
RTVSPropertyOp34
 70
     1
102
RTVSPropertyOp35
 70
     1
102
RTVSPropertyOp36
 70
     1
102
RTVSPropertyOp37
 70
     1
102
RTVSPropertyOp38
 70
     1
102
RTVSPropertyOp39
 70
     1
102
RTVSPropertyOp40
 70
     1
102
RTVSPropertyOp41
 70
     1
102
RTVSPropertyOp42
 70
     1
102
RTVSPropertyOp43
 70
     1
102
RTVSPropertyOp44
 70
     1
102
RTVSPropertyOp45
 70
     1
102
RTVSPropertyOp46
 70
     1
102
RTVSPropertyOp47
 70
     1
102
RTVSPropertyOp48
 70
     1
102
RTVSPropertyOp49
 70
     1
102
RTVSPropertyOp50
 70
     1
102
RTVSPropertyOp51
 70
     0
102
RTVSPropertyOp52
 70
     0
102
RTVSPropertyOp53
 70
     1
102
RTVSPropertyOp54
 70
     1
102
RTVSPropertyOp55
 70
     1
102
RTVSPropertyOp56
 70
     1
102
RTVSPropertyOp57
 70
     1
102
RTVSPropertyOp58
 70
     1
102
RTVSPropertyOp59
 70
     1
102
RTVSPropertyOp60
 70
     1
102
RTVSPropertyOp61
 70
     1
102
RTVSPropertyOp62
 70
     1
  0
XRECORD
  5
3CEC
102
{ACAD_REACTORS
330
3CEB
102
}
330
3CEB
100
AcDbXrecord
280
     1
102
RTVSPost2010Prop28
280
     0
102
RTVSPost2010PropOp28
 70
     1
102
RTVSPost2010Prop29
280
     1
102
RTVSPost2010PropOp29
 70
     1
102
RTVSPost2010Prop30
280
     1
102
RTVSPost2010PropOp30
 70
     1
102
RTVSPost2010Prop31
280
     0
102
RTVSPost2010PropOp31
 70
     1
102
RTVSPost2010Prop32
280
     0
102
RTVSPost2010PropOp32
 70
     1
102
RTVSPost2010Prop33
280
     0
102
RTVSPost2010PropOp33
 70
     1
102
RTVSPost2010Prop34
280
     0
102
RTVSPost2010PropOp34
 70
     1
102
RTVSPost2010Prop35
280
     0
102
RTVSPost2010PropOp35
 70
     1
102
RTVSPost2010Prop36
280
     0
102
RTVSPost2010PropOp36
 70
     1
102
RTVSPost2010Prop37
 90
       50
102
RTVSPost2010PropOp37
 70
     1
102
RTVSPost2010Prop38
140
0.0
102
RTVSPost2010PropOp38
 70
     1
102
RTVSPost2010Prop39
140
1.0
102
RTVSPost2010PropOp39
 70
     1
102
RTVSPost2010Prop40
 90
        0
102
RTVSPost2010PropOp40
 70
     1
102
RTVSPost2010Prop41ColorIndex
 90
       18
102
RTVSPost2010Prop41ColorRGB
 90
        0
102
RTVSPost2010PropOp41
 70
     1
102
RTVSPost2010Prop42
 90
       50
102
RTVSPost2010PropOp42
 70
     1
102
RTVSPost2010Prop43
 90
        3
102
RTVSPost2010PropOp43
 70
     1
102
RTVSPost2010Prop44ColorIndex
 90
        5
102
RTVSPost2010Prop44ColorRGB
 90
      255
102
RTVSPost2010PropOp44
 70
     1
102
RTVSPost2010Prop45
280
     0
102
RTVSPost2010PropOp45
 70
     1
102
RTVSPost2010Prop46
 90
       50
102
RTVSPost2010PropOp46
 70
     1
102
RTVSPost2010Prop47
 90
       50
102
RTVSPost2010PropOp47
 70
     1
102
RTVSPost2010Prop48
 90
       50
102
RTVSPost2010PropOp48
 70
     1
102
RTVSPost2010Prop49
280
     0
102
RTVSPost2010PropOp49
 70
     1
102
RTVSPost2010Prop50
 90
       50
102
RTVSPost2010PropOp50
 70
     1
102
RTVSPost2010Prop51ColorIndex
 90
      256
102
RTVSPost2010Prop51ColorRGB
 90
-16777216
102
RTVSPost2010PropOp51
 70
     0
102
RTVSPost2010Prop52
140
1.0
102
RTVSPost2010PropOp52
 70
     0
102
RTVSPost2010Prop53
 90
        2
102
RTVSPost2010PropOp53
 70
     1
102
RTVSPost2010Prop54
  1
strokes_ogs.tif
102
RTVSPost2010PropOp54
 70
     1
102
RTVSPost2010Prop55
280
     0
102
RTVSPost2010PropOp55
 70
     1
102
RTVSPost2010Prop56
140
1.0
102
RTVSPost2010PropOp56
 70
     1
102
RTVSPost2010Prop57
140
1.0
102
RTVSPost2010PropOp57
 70
     1
102
RTVSPropertyOp0
 70
     1
102
RTVSPropertyOp1
 70
     1
102
RTVSPropertyOp2
 70
     1
102
RTVSPropertyOp3
 70
     1
102
RTVSPropertyOp4
 70
     1
102
RTVSPropertyOp5
 70
     1
102
RTVSPropertyOp6
 70
     1
102
RTVSPropertyOp7
 70
     1
102
RTVSPropertyOp8
 70
     1
102
RTVSPropertyOp9
 70
     1
102
RTVSPropertyOp10
 70
     1
102
RTVSPropertyOp11
 70
     1
102
RTVSPropertyOp12
 70
     1
102
RTVSPropertyOp13
 70
     1
102
RTVSPropertyOp14
 70
     1
102
RTVSPropertyOp15
 70
     1
102
RTVSPropertyOp16
 70
     1
102
RTVSPropertyOp17
 70
     1
102
RTVSPropertyOp18
 70
     1
102
RTVSPropertyOp19
 70
     1
102
RTVSPropertyOp20
 70
     1
102
RTVSPropertyOp21
 70
     1
102
RTVSPropertyOp22
 70
     1
102
RTVSPropertyOp23
 70
     1
102
RTVSPropertyOp24
 70
     1
102
RTVSPropertyOp25
 70
     1
102
RTVSPropertyOp26
 70
     1
102
RTVSPropertyOp27
 70
     1
102
RTVSPropertyOp28
 70
     1
102
RTVSPropertyOp29
 70
     1
102
RTVSPropertyOp30
 70
     1
102
RTVSPropertyOp31
 70
     1
102
RTVSPropertyOp32
 70
     1
102
RTVSPropertyOp33
 70
     1
102
RTVSPropertyOp34
 70
     1
102
RTVSPropertyOp35
 70
     1
102
RTVSPropertyOp36
 70
     1
102
RTVSPropertyOp37
 70
     1
102
RTVSPropertyOp38
 70
     1
102
RTVSPropertyOp39
 70
     1
102
RTVSPropertyOp40
 70
     1
102
RTVSPropertyOp41
 70
     1
102
RTVSPropertyOp42
 70
     1
102
RTVSPropertyOp43
 70
     1
102
RTVSPropertyOp44
 70
     1
102
RTVSPropertyOp45
 70
     1
102
RTVSPropertyOp46
 70
     1
102
RTVSPropertyOp47
 70
     1
102
RTVSPropertyOp48
 70
     1
102
RTVSPropertyOp49
 70
     1
102
RTVSPropertyOp50
 70
     1
102
RTVSPropertyOp51
 70
     0
102
RTVSPropertyOp52
 70
     0
102
RTVSPropertyOp53
 70
     1
102
RTVSPropertyOp54
 70
     1
102
RTVSPropertyOp55
 70
     1
102
RTVSPropertyOp56
 70
     1
102
RTVSPropertyOp57
 70
     1
102
RTVSPropertyOp58
 70
     1
102
RTVSPropertyOp59
 70
     1
102
RTVSPropertyOp60
 70
     1
102
RTVSPropertyOp61
 70
     1
102
RTVSPropertyOp62
 70
     1
  0
XRECORD
  5
3D00
102
{ACAD_REACTORS
330
3CFF
102
}
330
3CFF
100
AcDbXrecord
280
     1
102
RTVSPost2010Prop28
280
     0
102
RTVSPost2010PropOp28
 70
     1
102
RTVSPost2010Prop29
280
     1
102
RTVSPost2010PropOp29
 70
     1
102
RTVSPost2010Prop30
280
     1
102
RTVSPost2010PropOp30
 70
     1
102
RTVSPost2010Prop31
280
     0
102
RTVSPost2010PropOp31
 70
     1
102
RTVSPost2010Prop32
280
     0
102
RTVSPost2010PropOp32
 70
     1
102
RTVSPost2010Prop33
280
     0
102
RTVSPost2010PropOp33
 70
     1
102
RTVSPost2010Prop34
280
     0
102
RTVSPost2010PropOp34
 70
     1
102
RTVSPost2010Prop35
280
     0
102
RTVSPost2010PropOp35
 70
     1
102
RTVSPost2010Prop36
280
     0
102
RTVSPost2010PropOp36
 70
     1
102
RTVSPost2010Prop37
 90
       50
102
RTVSPost2010PropOp37
 70
     1
102
RTVSPost2010Prop38
140
0.0
102
RTVSPost2010PropOp38
 70
     1
102
RTVSPost2010Prop39
140
1.0
102
RTVSPost2010PropOp39
 70
     1
102
RTVSPost2010Prop40
 90
        0
102
RTVSPost2010PropOp40
 70
     1
102
RTVSPost2010Prop41ColorIndex
 90
       18
102
RTVSPost2010Prop41ColorRGB
 90
        0
102
RTVSPost2010PropOp41
 70
     1
102
RTVSPost2010Prop42
 90
       50
102
RTVSPost2010PropOp42
 70
     1
102
RTVSPost2010Prop43
 90
        3
102
RTVSPost2010PropOp43
 70
     1
102
RTVSPost2010Prop44ColorIndex
 90
        5
102
RTVSPost2010Prop44ColorRGB
 90
      255
102
RTVSPost2010PropOp44
 70
     1
102
RTVSPost2010Prop45
280
     0
102
RTVSPost2010PropOp45
 70
     1
102
RTVSPost2010Prop46
 90
       50
102
RTVSPost2010PropOp46
 70
     1
102
RTVSPost2010Prop47
 90
       50
102
RTVSPost2010PropOp47
 70
     1
102
RTVSPost2010Prop48
 90
       50
102
RTVSPost2010PropOp48
 70
     1
102
RTVSPost2010Prop49
280
     0
102
RTVSPost2010PropOp49
 70
     1
102
RTVSPost2010Prop50
 90
       50
102
RTVSPost2010PropOp50
 70
     1
102
RTVSPost2010Prop51ColorIndex
 90
      256
102
RTVSPost2010Prop51ColorRGB
 90
-16777216
102
RTVSPost2010PropOp51
 70
     0
102
RTVSPost2010Prop52
140
1.0
102
RTVSPost2010PropOp52
 70
     0
102
RTVSPost2010Prop53
 90
        2
102
RTVSPost2010PropOp53
 70
     1
102
RTVSPost2010Prop54
  1
strokes_ogs.tif
102
RTVSPost2010PropOp54
 70
     1
102
RTVSPost2010Prop55
280
     0
102
RTVSPost2010PropOp55
 70
     1
102
RTVSPost2010Prop56
140
1.0
102
RTVSPost2010PropOp56
 70
     1
102
RTVSPost2010Prop57
140
1.0
102
RTVSPost2010PropOp57
 70
     1
102
RTVSPropertyOp0
 70
     0
102
RTVSPropertyOp1
 70
     0
102
RTVSPropertyOp2
 70
     0
102
RTVSPropertyOp3
 70
     0
102
RTVSPropertyOp4
 70
     0
102
RTVSPropertyOp5
 70
     0
102
RTVSPropertyOp6
 70
     0
102
RTVSPropertyOp7
 70
     0
102
RTVSPropertyOp8
 70
     0
102
RTVSPropertyOp9
 70
     0
102
RTVSPropertyOp10
 70
     0
102
RTVSPropertyOp11
 70
     0
102
RTVSPropertyOp12
 70
     0
102
RTVSPropertyOp13
 70
     0
102
RTVSPropertyOp14
 70
     2
102
RTVSPropertyOp15
 70
     0
102
RTVSPropertyOp16
 70
     0
102
RTVSPropertyOp17
 70
     0
102
RTVSPropertyOp18
 70
     0
102
RTVSPropertyOp19
 70
     0
102
RTVSPropertyOp20
 70
     0
102
RTVSPropertyOp21
 70
     0
102
RTVSPropertyOp22
 70
     0
102
RTVSPropertyOp23
 70
     0
102
RTVSPropertyOp24
 70
     0
102
RTVSPropertyOp25
 70
     0
102
RTVSPropertyOp26
 70
     0
102
RTVSPropertyOp27
 70
     0
102
RTVSPropertyOp28
 70
     1
102
RTVSPropertyOp29
 70
     1
102
RTVSPropertyOp30
 70
     1
102
RTVSPropertyOp31
 70
     1
102
RTVSPropertyOp32
 70
     1
102
RTVSPropertyOp33
 70
     1
102
RTVSPropertyOp34
 70
     1
102
RTVSPropertyOp35
 70
     1
102
RTVSPropertyOp36
 70
     1
102
RTVSPropertyOp37
 70
     1
102
RTVSPropertyOp38
 70
     1
102
RTVSPropertyOp39
 70
     1
102
RTVSPropertyOp40
 70
     1
102
RTVSPropertyOp41
 70
     1
102
RTVSPropertyOp42
 70
     1
102
RTVSPropertyOp43
 70
     1
102
RTVSPropertyOp44
 70
     1
102
RTVSPropertyOp45
 70
     1
102
RTVSPropertyOp46
 70
     1
102
RTVSPropertyOp47
 70
     1
102
RTVSPropertyOp48
 70
     1
102
RTVSPropertyOp49
 70
     1
102
RTVSPropertyOp50
 70
     1
102
RTVSPropertyOp51
 70
     0
102
RTVSPropertyOp52
 70
     0
102
RTVSPropertyOp53
 70
     1
102
RTVSPropertyOp54
 70
     1
102
RTVSPropertyOp55
 70
     1
102
RTVSPropertyOp56
 70
     1
102
RTVSPropertyOp57
 70
     1
102
RTVSPropertyOp58
 70
     1
102
RTVSPropertyOp59
 70
     1
102
RTVSPropertyOp60
 70
     1
102
RTVSPropertyOp61
 70
     1
102
RTVSPropertyOp62
 70
     1
  0
XRECORD
  5
3CF8
102
{ACAD_REACTORS
330
3CF7
102
}
330
3CF7
100
AcDbXrecord
280
     1
102
RTVSPost2010Prop28
280
     0
102
RTVSPost2010PropOp28
 70
     1
102
RTVSPost2010Prop29
280
     1
102
RTVSPost2010PropOp29
 70
     1
102
RTVSPost2010Prop30
280
     1
102
RTVSPost2010PropOp30
 70
     1
102
RTVSPost2010Prop31
280
     0
102
RTVSPost2010PropOp31
 70
     1
102
RTVSPost2010Prop32
280
     0
102
RTVSPost2010PropOp32
 70
     1
102
RTVSPost2010Prop33
280
     0
102
RTVSPost2010PropOp33
 70
     1
102
RTVSPost2010Prop34
280
     0
102
RTVSPost2010PropOp34
 70
     1
102
RTVSPost2010Prop35
280
     0
102
RTVSPost2010PropOp35
 70
     1
102
RTVSPost2010Prop36
280
     0
102
RTVSPost2010PropOp36
 70
     1
102
RTVSPost2010Prop37
 90
       50
102
RTVSPost2010PropOp37
 70
     1
102
RTVSPost2010Prop38
140
0.0
102
RTVSPost2010PropOp38
 70
     1
102
RTVSPost2010Prop39
140
1.0
102
RTVSPost2010PropOp39
 70
     1
102
RTVSPost2010Prop40
 90
        0
102
RTVSPost2010PropOp40
 70
     1
102
RTVSPost2010Prop41ColorIndex
 90
       18
102
RTVSPost2010Prop41ColorRGB
 90
        0
102
RTVSPost2010PropOp41
 70
     1
102
RTVSPost2010Prop42
 90
       50
102
RTVSPost2010PropOp42
 70
     1
102
RTVSPost2010Prop43
 90
        3
102
RTVSPost2010PropOp43
 70
     1
102
RTVSPost2010Prop44ColorIndex
 90
        5
102
RTVSPost2010Prop44ColorRGB
 90
      255
102
RTVSPost2010PropOp44
 70
     1
102
RTVSPost2010Prop45
280
     0
102
RTVSPost2010PropOp45
 70
     1
102
RTVSPost2010Prop46
 90
       50
102
RTVSPost2010PropOp46
 70
     1
102
RTVSPost2010Prop47
 90
       50
102
RTVSPost2010PropOp47
 70
     1
102
RTVSPost2010Prop48
 90
       50
102
RTVSPost2010PropOp48
 70
     1
102
RTVSPost2010Prop49
280
     0
102
RTVSPost2010PropOp49
 70
     1
102
RTVSPost2010Prop50
 90
       50
102
RTVSPost2010PropOp50
 70
     1
102
RTVSPost2010Prop51ColorIndex
 90
      256
102
RTVSPost2010Prop51ColorRGB
 90
-16777216
102
RTVSPost2010PropOp51
 70
     0
102
RTVSPost2010Prop52
140
1.0
102
RTVSPost2010PropOp52
 70
     0
102
RTVSPost2010Prop53
 90
        2
102
RTVSPost2010PropOp53
 70
     1
102
RTVSPost2010Prop54
  1
strokes_ogs.tif
102
RTVSPost2010PropOp54
 70
     1
102
RTVSPost2010Prop55
280
     0
102
RTVSPost2010PropOp55
 70
     1
102
RTVSPost2010Prop56
140
1.0
102
RTVSPost2010PropOp56
 70
     1
102
RTVSPost2010Prop57
140
1.0
102
RTVSPost2010PropOp57
 70
     1
102
RTVSPropertyOp0
 70
     1
102
RTVSPropertyOp1
 70
     1
102
RTVSPropertyOp2
 70
     1
102
RTVSPropertyOp3
 70
     1
102
RTVSPropertyOp4
 70
     1
102
RTVSPropertyOp5
 70
     1
102
RTVSPropertyOp6
 70
     1
102
RTVSPropertyOp7
 70
     1
102
RTVSPropertyOp8
 70
     1
102
RTVSPropertyOp9
 70
     1
102
RTVSPropertyOp10
 70
     1
102
RTVSPropertyOp11
 70
     1
102
RTVSPropertyOp12
 70
     1
102
RTVSPropertyOp13
 70
     1
102
RTVSPropertyOp14
 70
     1
102
RTVSPropertyOp15
 70
     1
102
RTVSPropertyOp16
 70
     1
102
RTVSPropertyOp17
 70
     1
102
RTVSPropertyOp18
 70
     1
102
RTVSPropertyOp19
 70
     1
102
RTVSPropertyOp20
 70
     1
102
RTVSPropertyOp21
 70
     1
102
RTVSPropertyOp22
 70
     1
102
RTVSPropertyOp23
 70
     1
102
RTVSPropertyOp24
 70
     1
102
RTVSPropertyOp25
 70
     1
102
RTVSPropertyOp26
 70
     1
102
RTVSPropertyOp27
 70
     1
102
RTVSPropertyOp28
 70
     1
102
RTVSPropertyOp29
 70
     1
102
RTVSPropertyOp30
 70
     1
102
RTVSPropertyOp31
 70
     1
102
RTVSPropertyOp32
 70
     1
102
RTVSPropertyOp33
 70
     1
102
RTVSPropertyOp34
 70
     1
102
RTVSPropertyOp35
 70
     1
102
RTVSPropertyOp36
 70
     1
102
RTVSPropertyOp37
 70
     1
102
RTVSPropertyOp38
 70
     1
102
RTVSPropertyOp39
 70
     1
102
RTVSPropertyOp40
 70
     1
102
RTVSPropertyOp41
 70
     1
102
RTVSPropertyOp42
 70
     1
102
RTVSPropertyOp43
 70
     1
102
RTVSPropertyOp44
 70
     1
102
RTVSPropertyOp45
 70
     1
102
RTVSPropertyOp46
 70
     1
102
RTVSPropertyOp47
 70
     1
102
RTVSPropertyOp48
 70
     1
102
RTVSPropertyOp49
 70
     1
102
RTVSPropertyOp50
 70
     1
102
RTVSPropertyOp51
 70
     0
102
RTVSPropertyOp52
 70
     0
102
RTVSPropertyOp53
 70
     1
102
RTVSPropertyOp54
 70
     1
102
RTVSPropertyOp55
 70
     1
102
RTVSPropertyOp56
 70
     1
102
RTVSPropertyOp57
 70
     1
102
RTVSPropertyOp58
 70
     1
102
RTVSPropertyOp59
 70
     1
102
RTVSPropertyOp60
 70
     1
102
RTVSPropertyOp61
 70
     1
102
RTVSPropertyOp62
 70
     1
  0
XRECORD
  5
3D02
102
{ACAD_REACTORS
330
3D01
102
}
330
3D01
100
AcDbXrecord
280
     1
102
RTVSPost2010Prop28
280
     0
102
RTVSPost2010PropOp28
 70
     1
102
RTVSPost2010Prop29
280
     1
102
RTVSPost2010PropOp29
 70
     1
102
RTVSPost2010Prop30
280
     1
102
RTVSPost2010PropOp30
 70
     1
102
RTVSPost2010Prop31
280
     0
102
RTVSPost2010PropOp31
 70
     1
102
RTVSPost2010Prop32
280
     0
102
RTVSPost2010PropOp32
 70
     1
102
RTVSPost2010Prop33
280
     0
102
RTVSPost2010PropOp33
 70
     1
102
RTVSPost2010Prop34
280
     0
102
RTVSPost2010PropOp34
 70
     1
102
RTVSPost2010Prop35
280
     0
102
RTVSPost2010PropOp35
 70
     1
102
RTVSPost2010Prop36
280
     0
102
RTVSPost2010PropOp36
 70
     1
102
RTVSPost2010Prop37
 90
       50
102
RTVSPost2010PropOp37
 70
     1
102
RTVSPost2010Prop38
140
0.0
102
RTVSPost2010PropOp38
 70
     1
102
RTVSPost2010Prop39
140
1.0
102
RTVSPost2010PropOp39
 70
     1
102
RTVSPost2010Prop40
 90
        0
102
RTVSPost2010PropOp40
 70
     1
102
RTVSPost2010Prop41ColorIndex
 90
       18
102
RTVSPost2010Prop41ColorRGB
 90
        0
102
RTVSPost2010PropOp41
 70
     1
102
RTVSPost2010Prop42
 90
       50
102
RTVSPost2010PropOp42
 70
     1
102
RTVSPost2010Prop43
 90
        3
102
RTVSPost2010PropOp43
 70
     1
102
RTVSPost2010Prop44ColorIndex
 90
        5
102
RTVSPost2010Prop44ColorRGB
 90
      255
102
RTVSPost2010PropOp44
 70
     1
102
RTVSPost2010Prop45
280
     0
102
RTVSPost2010PropOp45
 70
     1
102
RTVSPost2010Prop46
 90
       50
102
RTVSPost2010PropOp46
 70
     1
102
RTVSPost2010Prop47
 90
       50
102
RTVSPost2010PropOp47
 70
     1
102
RTVSPost2010Prop48
 90
       50
102
RTVSPost2010PropOp48
 70
     1
102
RTVSPost2010Prop49
280
     0
102
RTVSPost2010PropOp49
 70
     1
102
RTVSPost2010Prop50
 90
       50
102
RTVSPost2010PropOp50
 70
     1
102
RTVSPost2010Prop51ColorIndex
 90
      256
102
RTVSPost2010Prop51ColorRGB
 90
-16777216
102
RTVSPost2010PropOp51
 70
     0
102
RTVSPost2010Prop52
140
1.0
102
RTVSPost2010PropOp52
 70
     0
102
RTVSPost2010Prop53
 90
        2
102
RTVSPost2010PropOp53
 70
     1
102
RTVSPost2010Prop54
  1
strokes_ogs.tif
102
RTVSPost2010PropOp54
 70
     1
102
RTVSPost2010Prop55
280
     0
102
RTVSPost2010PropOp55
 70
     1
102
RTVSPost2010Prop56
140
1.0
102
RTVSPost2010PropOp56
 70
     1
102
RTVSPost2010Prop57
140
1.0
102
RTVSPost2010PropOp57
 70
     1
102
RTVSPropertyOp0
 70
     0
102
RTVSPropertyOp1
 70
     0
102
RTVSPropertyOp2
 70
     0
102
RTVSPropertyOp3
 70
     0
102
RTVSPropertyOp4
 70
     0
102
RTVSPropertyOp5
 70
     0
102
RTVSPropertyOp6
 70
     0
102
RTVSPropertyOp7
 70
     0
102
RTVSPropertyOp8
 70
     0
102
RTVSPropertyOp9
 70
     0
102
RTVSPropertyOp10
 70
     0
102
RTVSPropertyOp11
 70
     0
102
RTVSPropertyOp12
 70
     0
102
RTVSPropertyOp13
 70
     0
102
RTVSPropertyOp14
 70
     2
102
RTVSPropertyOp15
 70
     0
102
RTVSPropertyOp16
 70
     0
102
RTVSPropertyOp17
 70
     0
102
RTVSPropertyOp18
 70
     0
102
RTVSPropertyOp19
 70
     0
102
RTVSPropertyOp20
 70
     0
102
RTVSPropertyOp21
 70
     0
102
RTVSPropertyOp22
 70
     0
102
RTVSPropertyOp23
 70
     0
102
RTVSPropertyOp24
 70
     0
102
RTVSPropertyOp25
 70
     0
102
RTVSPropertyOp26
 70
     0
102
RTVSPropertyOp27
 70
     0
102
RTVSPropertyOp28
 70
     1
102
RTVSPropertyOp29
 70
     1
102
RTVSPropertyOp30
 70
     1
102
RTVSPropertyOp31
 70
     1
102
RTVSPropertyOp32
 70
     1
102
RTVSPropertyOp33
 70
     1
102
RTVSPropertyOp34
 70
     1
102
RTVSPropertyOp35
 70
     1
102
RTVSPropertyOp36
 70
     1
102
RTVSPropertyOp37
 70
     1
102
RTVSPropertyOp38
 70
     1
102
RTVSPropertyOp39
 70
     1
102
RTVSPropertyOp40
 70
     1
102
RTVSPropertyOp41
 70
     1
102
RTVSPropertyOp42
 70
     1
102
RTVSPropertyOp43
 70
     1
102
RTVSPropertyOp44
 70
     1
102
RTVSPropertyOp45
 70
     1
102
RTVSPropertyOp46
 70
     1
102
RTVSPropertyOp47
 70
     1
102
RTVSPropertyOp48
 70
     1
102
RTVSPropertyOp49
 70
     1
102
RTVSPropertyOp50
 70
     1
102
RTVSPropertyOp51
 70
     0
102
RTVSPropertyOp52
 70
     0
102
RTVSPropertyOp53
 70
     1
102
RTVSPropertyOp54
 70
     1
102
RTVSPropertyOp55
 70
     1
102
RTVSPropertyOp56
 70
     1
102
RTVSPropertyOp57
 70
     1
102
RTVSPropertyOp58
 70
     1
102
RTVSPropertyOp59
 70
     1
102
RTVSPropertyOp60
 70
     1
102
RTVSPropertyOp61
 70
     1
102
RTVSPropertyOp62
 70
     1
  0
XRECORD
  5
3CF0
102
{ACAD_REACTORS
330
3CEF
102
}
330
3CEF
100
AcDbXrecord
280
     1
102
RTVSPost2010Prop28
280
     0
102
RTVSPost2010PropOp28
 70
     1
102
RTVSPost2010Prop29
280
     1
102
RTVSPost2010PropOp29
 70
     1
102
RTVSPost2010Prop30
280
     1
102
RTVSPost2010PropOp30
 70
     1
102
RTVSPost2010Prop31
280
     0
102
RTVSPost2010PropOp31
 70
     1
102
RTVSPost2010Prop32
280
     0
102
RTVSPost2010PropOp32
 70
     1
102
RTVSPost2010Prop33
280
     0
102
RTVSPost2010PropOp33
 70
     1
102
RTVSPost2010Prop34
280
     0
102
RTVSPost2010PropOp34
 70
     1
102
RTVSPost2010Prop35
280
     0
102
RTVSPost2010PropOp35
 70
     1
102
RTVSPost2010Prop36
280
     0
102
RTVSPost2010PropOp36
 70
     1
102
RTVSPost2010Prop37
 90
       50
102
RTVSPost2010PropOp37
 70
     1
102
RTVSPost2010Prop38
140
0.0
102
RTVSPost2010PropOp38
 70
     1
102
RTVSPost2010Prop39
140
1.0
102
RTVSPost2010PropOp39
 70
     1
102
RTVSPost2010Prop40
 90
        0
102
RTVSPost2010PropOp40
 70
     1
102
RTVSPost2010Prop41ColorIndex
 90
       18
102
RTVSPost2010Prop41ColorRGB
 90
        0
102
RTVSPost2010PropOp41
 70
     1
102
RTVSPost2010Prop42
 90
       50
102
RTVSPost2010PropOp42
 70
     1
102
RTVSPost2010Prop43
 90
        3
102
RTVSPost2010PropOp43
 70
     1
102
RTVSPost2010Prop44ColorIndex
 90
        5
102
RTVSPost2010Prop44ColorRGB
 90
      255
102
RTVSPost2010PropOp44
 70
     1
102
RTVSPost2010Prop45
280
     0
102
RTVSPost2010PropOp45
 70
     1
102
RTVSPost2010Prop46
 90
       50
102
RTVSPost2010PropOp46
 70
     1
102
RTVSPost2010Prop47
 90
       50
102
RTVSPost2010PropOp47
 70
     1
102
RTVSPost2010Prop48
 90
       50
102
RTVSPost2010PropOp48
 70
     1
102
RTVSPost2010Prop49
280
     0
102
RTVSPost2010PropOp49
 70
     1
102
RTVSPost2010Prop50
 90
       50
102
RTVSPost2010PropOp50
 70
     1
102
RTVSPost2010Prop51ColorIndex
 90
      256
102
RTVSPost2010Prop51ColorRGB
 90
-16777216
102
RTVSPost2010PropOp51
 70
     0
102
RTVSPost2010Prop52
140
1.0
102
RTVSPost2010PropOp52
 70
     0
102
RTVSPost2010Prop53
 90
        2
102
RTVSPost2010PropOp53
 70
     1
102
RTVSPost2010Prop54
  1
strokes_ogs.tif
102
RTVSPost2010PropOp54
 70
     1
102
RTVSPost2010Prop55
280
     0
102
RTVSPost2010PropOp55
 70
     1
102
RTVSPost2010Prop56
140
1.0
102
RTVSPost2010PropOp56
 70
     1
102
RTVSPost2010Prop57
140
1.0
102
RTVSPost2010PropOp57
 70
     1
102
RTVSPropertyOp0
 70
     1
102
RTVSPropertyOp1
 70
     1
102
RTVSPropertyOp2
 70
     1
102
RTVSPropertyOp3
 70
     1
102
RTVSPropertyOp4
 70
     1
102
RTVSPropertyOp5
 70
     1
102
RTVSPropertyOp6
 70
     1
102
RTVSPropertyOp7
 70
     1
102
RTVSPropertyOp8
 70
     1
102
RTVSPropertyOp9
 70
     1
102
RTVSPropertyOp10
 70
     1
102
RTVSPropertyOp11
 70
     1
102
RTVSPropertyOp12
 70
     1
102
RTVSPropertyOp13
 70
     1
102
RTVSPropertyOp14
 70
     1
102
RTVSPropertyOp15
 70
     1
102
RTVSPropertyOp16
 70
     1
102
RTVSPropertyOp17
 70
     1
102
RTVSPropertyOp18
 70
     1
102
RTVSPropertyOp19
 70
     1
102
RTVSPropertyOp20
 70
     1
102
RTVSPropertyOp21
 70
     1
102
RTVSPropertyOp22
 70
     1
102
RTVSPropertyOp23
 70
     1
102
RTVSPropertyOp24
 70
     1
102
RTVSPropertyOp25
 70
     1
102
RTVSPropertyOp26
 70
     1
102
RTVSPropertyOp27
 70
     1
102
RTVSPropertyOp28
 70
     1
102
RTVSPropertyOp29
 70
     1
102
RTVSPropertyOp30
 70
     1
102
RTVSPropertyOp31
 70
     1
102
RTVSPropertyOp32
 70
     1
102
RTVSPropertyOp33
 70
     1
102
RTVSPropertyOp34
 70
     1
102
RTVSPropertyOp35
 70
     1
102
RTVSPropertyOp36
 70
     1
102
RTVSPropertyOp37
 70
     1
102
RTVSPropertyOp38
 70
     1
102
RTVSPropertyOp39
 70
     1
102
RTVSPropertyOp40
 70
     1
102
RTVSPropertyOp41
 70
     1
102
RTVSPropertyOp42
 70
     1
102
RTVSPropertyOp43
 70
     1
102
RTVSPropertyOp44
 70
     1
102
RTVSPropertyOp45
 70
     1
102
RTVSPropertyOp46
 70
     1
102
RTVSPropertyOp47
 70
     1
102
RTVSPropertyOp48
 70
     1
102
RTVSPropertyOp49
 70
     1
102
RTVSPropertyOp50
 70
     1
102
RTVSPropertyOp51
 70
     0
102
RTVSPropertyOp52
 70
     0
102
RTVSPropertyOp53
 70
     1
102
RTVSPropertyOp54
 70
     1
102
RTVSPropertyOp55
 70
     1
102
RTVSPropertyOp56
 70
     1
102
RTVSPropertyOp57
 70
     1
102
RTVSPropertyOp58
 70
     1
102
RTVSPropertyOp59
 70
     1
102
RTVSPropertyOp60
 70
     1
102
RTVSPropertyOp61
 70
     1
102
RTVSPropertyOp62
 70
     1
  0
XRECORD
  5
3D0E
102
{ACAD_REACTORS
330
3D0D
102
}
330
3D0D
100
AcDbXrecord
280
     1
102
RTVSPost2010Prop28
280
     0
102
RTVSPost2010PropOp28
 70
     1
102
RTVSPost2010Prop29
280
     1
102
RTVSPost2010PropOp29
 70
     1
102
RTVSPost2010Prop30
280
     1
102
RTVSPost2010PropOp30
 70
     1
102
RTVSPost2010Prop31
280
     0
102
RTVSPost2010PropOp31
 70
     1
102
RTVSPost2010Prop32
280
     0
102
RTVSPost2010PropOp32
 70
     1
102
RTVSPost2010Prop33
280
     0
102
RTVSPost2010PropOp33
 70
     1
102
RTVSPost2010Prop34
280
     0
102
RTVSPost2010PropOp34
 70
     1
102
RTVSPost2010Prop35
280
     0
102
RTVSPost2010PropOp35
 70
     1
102
RTVSPost2010Prop36
280
     0
102
RTVSPost2010PropOp36
 70
     1
102
RTVSPost2010Prop37
 90
       50
102
RTVSPost2010PropOp37
 70
     1
102
RTVSPost2010Prop38
140
0.0
102
RTVSPost2010PropOp38
 70
     1
102
RTVSPost2010Prop39
140
1.0
102
RTVSPost2010PropOp39
 70
     1
102
RTVSPost2010Prop40
 90
        0
102
RTVSPost2010PropOp40
 70
     1
102
RTVSPost2010Prop41ColorIndex
 90
       18
102
RTVSPost2010Prop41ColorRGB
 90
        0
102
RTVSPost2010PropOp41
 70
     1
102
RTVSPost2010Prop42
 90
       50
102
RTVSPost2010PropOp42
 70
     1
102
RTVSPost2010Prop43
 90
        3
102
RTVSPost2010PropOp43
 70
     1
102
RTVSPost2010Prop44ColorIndex
 90
        5
102
RTVSPost2010Prop44ColorRGB
 90
      255
102
RTVSPost2010PropOp44
 70
     1
102
RTVSPost2010Prop45
280
     0
102
RTVSPost2010PropOp45
 70
     1
102
RTVSPost2010Prop46
 90
       50
102
RTVSPost2010PropOp46
 70
     1
102
RTVSPost2010Prop47
 90
       50
102
RTVSPost2010PropOp47
 70
     1
102
RTVSPost2010Prop48
 90
       50
102
RTVSPost2010PropOp48
 70
     1
102
RTVSPost2010Prop49
280
     0
102
RTVSPost2010PropOp49
 70
     1
102
RTVSPost2010Prop50
 90
       50
102
RTVSPost2010PropOp50
 70
     1
102
RTVSPost2010Prop51ColorIndex
 90
      256
102
RTVSPost2010Prop51ColorRGB
 90
-16777216
102
RTVSPost2010PropOp51
 70
     0
102
RTVSPost2010Prop52
140
1.0
102
RTVSPost2010PropOp52
 70
     0
102
RTVSPost2010Prop53
 90
        2
102
RTVSPost2010PropOp53
 70
     1
102
RTVSPost2010Prop54
  1
strokes_ogs.tif
102
RTVSPost2010PropOp54
 70
     1
102
RTVSPost2010Prop55
280
     0
102
RTVSPost2010PropOp55
 70
     1
102
RTVSPost2010Prop56
140
1.0
102
RTVSPost2010PropOp56
 70
     1
102
RTVSPost2010Prop57
140
1.0
102
RTVSPost2010PropOp57
 70
     1
102
RTVSPropertyOp0
 70
     1
102
RTVSPropertyOp1
 70
     1
102
RTVSPropertyOp2
 70
     1
102
RTVSPropertyOp3
 70
     1
102
RTVSPropertyOp4
 70
     1
102
RTVSPropertyOp5
 70
     1
102
RTVSPropertyOp6
 70
     1
102
RTVSPropertyOp7
 70
     1
102
RTVSPropertyOp8
 70
     1
102
RTVSPropertyOp9
 70
     1
102
RTVSPropertyOp10
 70
     1
102
RTVSPropertyOp11
 70
     1
102
RTVSPropertyOp12
 70
     1
102
RTVSPropertyOp13
 70
     1
102
RTVSPropertyOp14
 70
     1
102
RTVSPropertyOp15
 70
     1
102
RTVSPropertyOp16
 70
     1
102
RTVSPropertyOp17
 70
     1
102
RTVSPropertyOp18
 70
     1
102
RTVSPropertyOp19
 70
     1
102
RTVSPropertyOp20
 70
     1
102
RTVSPropertyOp21
 70
     1
102
RTVSPropertyOp22
 70
     1
102
RTVSPropertyOp23
 70
     1
102
RTVSPropertyOp24
 70
     1
102
RTVSPropertyOp25
 70
     1
102
RTVSPropertyOp26
 70
     1
102
RTVSPropertyOp27
 70
     1
102
RTVSPropertyOp28
 70
     1
102
RTVSPropertyOp29
 70
     1
102
RTVSPropertyOp30
 70
     1
102
RTVSPropertyOp31
 70
     1
102
RTVSPropertyOp32
 70
     1
102
RTVSPropertyOp33
 70
     1
102
RTVSPropertyOp34
 70
     1
102
RTVSPropertyOp35
 70
     1
102
RTVSPropertyOp36
 70
     1
102
RTVSPropertyOp37
 70
     1
102
RTVSPropertyOp38
 70
     1
102
RTVSPropertyOp39
 70
     1
102
RTVSPropertyOp40
 70
     1
102
RTVSPropertyOp41
 70
     1
102
RTVSPropertyOp42
 70
     1
102
RTVSPropertyOp43
 70
     1
102
RTVSPropertyOp44
 70
     1
102
RTVSPropertyOp45
 70
     1
102
RTVSPropertyOp46
 70
     1
102
RTVSPropertyOp47
 70
     1
102
RTVSPropertyOp48
 70
     1
102
RTVSPropertyOp49
 70
     1
102
RTVSPropertyOp50
 70
     1
102
RTVSPropertyOp51
 70
     0
102
RTVSPropertyOp52
 70
     0
102
RTVSPropertyOp53
 70
     1
102
RTVSPropertyOp54
 70
     1
102
RTVSPropertyOp55
 70
     1
102
RTVSPropertyOp56
 70
     1
102
RTVSPropertyOp57
 70
     1
102
RTVSPropertyOp58
 70
     1
102
RTVSPropertyOp59
 70
     1
102
RTVSPropertyOp60
 70
     1
102
RTVSPropertyOp61
 70
     1
102
RTVSPropertyOp62
 70
     1
  0
XRECORD
  5
3D0C
102
{ACAD_REACTORS
330
3D0B
102
}
330
3D0B
100
AcDbXrecord
280
     1
102
RTVSPost2010Prop28
280
     0
102
RTVSPost2010PropOp28
 70
     1
102
RTVSPost2010Prop29
280
     1
102
RTVSPost2010PropOp29
 70
     1
102
RTVSPost2010Prop30
280
     1
102
RTVSPost2010PropOp30
 70
     1
102
RTVSPost2010Prop31
280
     0
102
RTVSPost2010PropOp31
 70
     1
102
RTVSPost2010Prop32
280
     0
102
RTVSPost2010PropOp32
 70
     1
102
RTVSPost2010Prop33
280
     0
102
RTVSPost2010PropOp33
 70
     1
102
RTVSPost2010Prop34
280
     0
102
RTVSPost2010PropOp34
 70
     1
102
RTVSPost2010Prop35
280
     0
102
RTVSPost2010PropOp35
 70
     1
102
RTVSPost2010Prop36
280
     0
102
RTVSPost2010PropOp36
 70
     1
102
RTVSPost2010Prop37
 90
       50
102
RTVSPost2010PropOp37
 70
     1
102
RTVSPost2010Prop38
140
0.0
102
RTVSPost2010PropOp38
 70
     1
102
RTVSPost2010Prop39
140
1.0
102
RTVSPost2010PropOp39
 70
     1
102
RTVSPost2010Prop40
 90
        0
102
RTVSPost2010PropOp40
 70
     1
102
RTVSPost2010Prop41ColorIndex
 90
       18
102
RTVSPost2010Prop41ColorRGB
 90
        0
102
RTVSPost2010PropOp41
 70
     1
102
RTVSPost2010Prop42
 90
       50
102
RTVSPost2010PropOp42
 70
     1
102
RTVSPost2010Prop43
 90
        3
102
RTVSPost2010PropOp43
 70
     1
102
RTVSPost2010Prop44ColorIndex
 90
        5
102
RTVSPost2010Prop44ColorRGB
 90
      255
102
RTVSPost2010PropOp44
 70
     1
102
RTVSPost2010Prop45
280
     0
102
RTVSPost2010PropOp45
 70
     1
102
RTVSPost2010Prop46
 90
       50
102
RTVSPost2010PropOp46
 70
     1
102
RTVSPost2010Prop47
 90
       50
102
RTVSPost2010PropOp47
 70
     1
102
RTVSPost2010Prop48
 90
       50
102
RTVSPost2010PropOp48
 70
     1
102
RTVSPost2010Prop49
280
     0
102
RTVSPost2010PropOp49
 70
     1
102
RTVSPost2010Prop50
 90
       50
102
RTVSPost2010PropOp50
 70
     1
102
RTVSPost2010Prop51ColorIndex
 90
      256
102
RTVSPost2010Prop51ColorRGB
 90
-16777216
102
RTVSPost2010PropOp51
 70
     0
102
RTVSPost2010Prop52
140
1.0
102
RTVSPost2010PropOp52
 70
     0
102
RTVSPost2010Prop53
 90
        2
102
RTVSPost2010PropOp53
 70
     1
102
RTVSPost2010Prop54
  1
strokes_ogs.tif
102
RTVSPost2010PropOp54
 70
     1
102
RTVSPost2010Prop55
280
     0
102
RTVSPost2010PropOp55
 70
     1
102
RTVSPost2010Prop56
140
1.0
102
RTVSPost2010PropOp56
 70
     1
102
RTVSPost2010Prop57
140
1.0
102
RTVSPost2010PropOp57
 70
     1
102
RTVSPropertyOp0
 70
     1
102
RTVSPropertyOp1
 70
     1
102
RTVSPropertyOp2
 70
     1
102
RTVSPropertyOp3
 70
     1
102
RTVSPropertyOp4
 70
     1
102
RTVSPropertyOp5
 70
     1
102
RTVSPropertyOp6
 70
     1
102
RTVSPropertyOp7
 70
     1
102
RTVSPropertyOp8
 70
     1
102
RTVSPropertyOp9
 70
     1
102
RTVSPropertyOp10
 70
     1
102
RTVSPropertyOp11
 70
     1
102
RTVSPropertyOp12
 70
     1
102
RTVSPropertyOp13
 70
     1
102
RTVSPropertyOp14
 70
     1
102
RTVSPropertyOp15
 70
     1
102
RTVSPropertyOp16
 70
     1
102
RTVSPropertyOp17
 70
     1
102
RTVSPropertyOp18
 70
     1
102
RTVSPropertyOp19
 70
     1
102
RTVSPropertyOp20
 70
     1
102
RTVSPropertyOp21
 70
     1
102
RTVSPropertyOp22
 70
     1
102
RTVSPropertyOp23
 70
     1
102
RTVSPropertyOp24
 70
     1
102
RTVSPropertyOp25
 70
     1
102
RTVSPropertyOp26
 70
     1
102
RTVSPropertyOp27
 70
     1
102
RTVSPropertyOp28
 70
     1
102
RTVSPropertyOp29
 70
     1
102
RTVSPropertyOp30
 70
     1
102
RTVSPropertyOp31
 70
     1
102
RTVSPropertyOp32
 70
     1
102
RTVSPropertyOp33
 70
     1
102
RTVSPropertyOp34
 70
     1
102
RTVSPropertyOp35
 70
     1
102
RTVSPropertyOp36
 70
     1
102
RTVSPropertyOp37
 70
     1
102
RTVSPropertyOp38
 70
     1
102
RTVSPropertyOp39
 70
     1
102
RTVSPropertyOp40
 70
     1
102
RTVSPropertyOp41
 70
     1
102
RTVSPropertyOp42
 70
     1
102
RTVSPropertyOp43
 70
     1
102
RTVSPropertyOp44
 70
     1
102
RTVSPropertyOp45
 70
     1
102
RTVSPropertyOp46
 70
     1
102
RTVSPropertyOp47
 70
     1
102
RTVSPropertyOp48
 70
     1
102
RTVSPropertyOp49
 70
     1
102
RTVSPropertyOp50
 70
     1
102
RTVSPropertyOp51
 70
     0
102
RTVSPropertyOp52
 70
     0
102
RTVSPropertyOp53
 70
     1
102
RTVSPropertyOp54
 70
     1
102
RTVSPropertyOp55
 70
     1
102
RTVSPropertyOp56
 70
     1
102
RTVSPropertyOp57
 70
     1
102
RTVSPropertyOp58
 70
     1
102
RTVSPropertyOp59
 70
     1
102
RTVSPropertyOp60
 70
     1
102
RTVSPropertyOp61
 70
     1
102
RTVSPropertyOp62
 70
     1
  0
XRECORD
  5
3D06
102
{ACAD_REACTORS
330
3D05
102
}
330
3D05
100
AcDbXrecord
280
     1
102
RTVSPost2010Prop28
280
     0
102
RTVSPost2010PropOp28
 70
     1
102
RTVSPost2010Prop29
280
     1
102
RTVSPost2010PropOp29
 70
     1
102
RTVSPost2010Prop30
280
     1
102
RTVSPost2010PropOp30
 70
     1
102
RTVSPost2010Prop31
280
     0
102
RTVSPost2010PropOp31
 70
     1
102
RTVSPost2010Prop32
280
     0
102
RTVSPost2010PropOp32
 70
     1
102
RTVSPost2010Prop33
280
     0
102
RTVSPost2010PropOp33
 70
     1
102
RTVSPost2010Prop34
280
     0
102
RTVSPost2010PropOp34
 70
     1
102
RTVSPost2010Prop35
280
     0
102
RTVSPost2010PropOp35
 70
     1
102
RTVSPost2010Prop36
280
     0
102
RTVSPost2010PropOp36
 70
     1
102
RTVSPost2010Prop37
 90
       50
102
RTVSPost2010PropOp37
 70
     1
102
RTVSPost2010Prop38
140
0.0
102
RTVSPost2010PropOp38
 70
     1
102
RTVSPost2010Prop39
140
1.0
102
RTVSPost2010PropOp39
 70
     1
102
RTVSPost2010Prop40
 90
        0
102
RTVSPost2010PropOp40
 70
     1
102
RTVSPost2010Prop41ColorIndex
 90
       18
102
RTVSPost2010Prop41ColorRGB
 90
        0
102
RTVSPost2010PropOp41
 70
     1
102
RTVSPost2010Prop42
 90
       50
102
RTVSPost2010PropOp42
 70
     1
102
RTVSPost2010Prop43
 90
        3
102
RTVSPost2010PropOp43
 70
     1
102
RTVSPost2010Prop44ColorIndex
 90
        5
102
RTVSPost2010Prop44ColorRGB
 90
      255
102
RTVSPost2010PropOp44
 70
     1
102
RTVSPost2010Prop45
280
     0
102
RTVSPost2010PropOp45
 70
     1
102
RTVSPost2010Prop46
 90
       50
102
RTVSPost2010PropOp46
 70
     1
102
RTVSPost2010Prop47
 90
       50
102
RTVSPost2010PropOp47
 70
     1
102
RTVSPost2010Prop48
 90
       50
102
RTVSPost2010PropOp48
 70
     1
102
RTVSPost2010Prop49
280
     0
102
RTVSPost2010PropOp49
 70
     1
102
RTVSPost2010Prop50
 90
       50
102
RTVSPost2010PropOp50
 70
     1
102
RTVSPost2010Prop51ColorIndex
 90
      256
102
RTVSPost2010Prop51ColorRGB
 90
-16777216
102
RTVSPost2010PropOp51
 70
     0
102
RTVSPost2010Prop52
140
1.0
102
RTVSPost2010PropOp52
 70
     0
102
RTVSPost2010Prop53
 90
        2
102
RTVSPost2010PropOp53
 70
     1
102
RTVSPost2010Prop54
  1
strokes_ogs.tif
102
RTVSPost2010PropOp54
 70
     1
102
RTVSPost2010Prop55
280
     0
102
RTVSPost2010PropOp55
 70
     1
102
RTVSPost2010Prop56
140
1.0
102
RTVSPost2010PropOp56
 70
     1
102
RTVSPost2010Prop57
140
1.0
102
RTVSPost2010PropOp57
 70
     1
102
RTVSPropertyOp0
 70
     1
102
RTVSPropertyOp1
 70
     1
102
RTVSPropertyOp2
 70
     1
102
RTVSPropertyOp3
 70
     1
102
RTVSPropertyOp4
 70
     1
102
RTVSPropertyOp5
 70
     1
102
RTVSPropertyOp6
 70
     1
102
RTVSPropertyOp7
 70
     1
102
RTVSPropertyOp8
 70
     1
102
RTVSPropertyOp9
 70
     1
102
RTVSPropertyOp10
 70
     1
102
RTVSPropertyOp11
 70
     1
102
RTVSPropertyOp12
 70
     1
102
RTVSPropertyOp13
 70
     1
102
RTVSPropertyOp14
 70
     1
102
RTVSPropertyOp15
 70
     1
102
RTVSPropertyOp16
 70
     1
102
RTVSPropertyOp17
 70
     1
102
RTVSPropertyOp18
 70
     1
102
RTVSPropertyOp19
 70
     1
102
RTVSPropertyOp20
 70
     1
102
RTVSPropertyOp21
 70
     1
102
RTVSPropertyOp22
 70
     1
102
RTVSPropertyOp23
 70
     1
102
RTVSPropertyOp24
 70
     1
102
RTVSPropertyOp25
 70
     1
102
RTVSPropertyOp26
 70
     1
102
RTVSPropertyOp27
 70
     1
102
RTVSPropertyOp28
 70
     1
102
RTVSPropertyOp29
 70
     1
102
RTVSPropertyOp30
 70
     1
102
RTVSPropertyOp31
 70
     1
102
RTVSPropertyOp32
 70
     1
102
RTVSPropertyOp33
 70
     1
102
RTVSPropertyOp34
 70
     1
102
RTVSPropertyOp35
 70
     1
102
RTVSPropertyOp36
 70
     1
102
RTVSPropertyOp37
 70
     1
102
RTVSPropertyOp38
 70
     1
102
RTVSPropertyOp39
 70
     1
102
RTVSPropertyOp40
 70
     1
102
RTVSPropertyOp41
 70
     1
102
RTVSPropertyOp42
 70
     1
102
RTVSPropertyOp43
 70
     1
102
RTVSPropertyOp44
 70
     1
102
RTVSPropertyOp45
 70
     1
102
RTVSPropertyOp46
 70
     1
102
RTVSPropertyOp47
 70
     1
102
RTVSPropertyOp48
 70
     1
102
RTVSPropertyOp49
 70
     1
102
RTVSPropertyOp50
 70
     1
102
RTVSPropertyOp51
 70
     0
102
RTVSPropertyOp52
 70
     0
102
RTVSPropertyOp53
 70
     1
102
RTVSPropertyOp54
 70
     1
102
RTVSPropertyOp55
 70
     1
102
RTVSPropertyOp56
 70
     1
102
RTVSPropertyOp57
 70
     1
102
RTVSPropertyOp58
 70
     1
102
RTVSPropertyOp59
 70
     1
102
RTVSPropertyOp60
 70
     1
102
RTVSPropertyOp61
 70
     1
102
RTVSPropertyOp62
 70
     1
  0
XRECORD
  5
3D08
102
{ACAD_REACTORS
330
3D07
102
}
330
3D07
100
AcDbXrecord
280
     1
102
RTVSPost2010Prop28
280
     0
102
RTVSPost2010PropOp28
 70
     1
102
RTVSPost2010Prop29
280
     1
102
RTVSPost2010PropOp29
 70
     1
102
RTVSPost2010Prop30
280
     1
102
RTVSPost2010PropOp30
 70
     1
102
RTVSPost2010Prop31
280
     0
102
RTVSPost2010PropOp31
 70
     1
102
RTVSPost2010Prop32
280
     0
102
RTVSPost2010PropOp32
 70
     1
102
RTVSPost2010Prop33
280
     0
102
RTVSPost2010PropOp33
 70
     1
102
RTVSPost2010Prop34
280
     0
102
RTVSPost2010PropOp34
 70
     1
102
RTVSPost2010Prop35
280
     0
102
RTVSPost2010PropOp35
 70
     1
102
RTVSPost2010Prop36
280
     0
102
RTVSPost2010PropOp36
 70
     1
102
RTVSPost2010Prop37
 90
       50
102
RTVSPost2010PropOp37
 70
     1
102
RTVSPost2010Prop38
140
0.0
102
RTVSPost2010PropOp38
 70
     1
102
RTVSPost2010Prop39
140
1.0
102
RTVSPost2010PropOp39
 70
     1
102
RTVSPost2010Prop40
 90
        0
102
RTVSPost2010PropOp40
 70
     1
102
RTVSPost2010Prop41ColorIndex
 90
       18
102
RTVSPost2010Prop41ColorRGB
 90
        0
102
RTVSPost2010PropOp41
 70
     1
102
RTVSPost2010Prop42
 90
       50
102
RTVSPost2010PropOp42
 70
     1
102
RTVSPost2010Prop43
 90
        3
102
RTVSPost2010PropOp43
 70
     1
102
RTVSPost2010Prop44ColorIndex
 90
        5
102
RTVSPost2010Prop44ColorRGB
 90
      255
102
RTVSPost2010PropOp44
 70
     1
102
RTVSPost2010Prop45
280
     0
102
RTVSPost2010PropOp45
 70
     1
102
RTVSPost2010Prop46
 90
       50
102
RTVSPost2010PropOp46
 70
     1
102
RTVSPost2010Prop47
 90
       50
102
RTVSPost2010PropOp47
 70
     1
102
RTVSPost2010Prop48
 90
       50
102
RTVSPost2010PropOp48
 70
     1
102
RTVSPost2010Prop49
280
     0
102
RTVSPost2010PropOp49
 70
     1
102
RTVSPost2010Prop50
 90
       50
102
RTVSPost2010PropOp50
 70
     1
102
RTVSPost2010Prop51ColorIndex
 90
      256
102
RTVSPost2010Prop51ColorRGB
 90
-16777216
102
RTVSPost2010PropOp51
 70
     0
102
RTVSPost2010Prop52
140
1.0
102
RTVSPost2010PropOp52
 70
     0
102
RTVSPost2010Prop53
 90
        2
102
RTVSPost2010PropOp53
 70
     1
102
RTVSPost2010Prop54
  1
strokes_ogs.tif
102
RTVSPost2010PropOp54
 70
     1
102
RTVSPost2010Prop55
280
     0
102
RTVSPost2010PropOp55
 70
     1
102
RTVSPost2010Prop56
140
1.0
102
RTVSPost2010PropOp56
 70
     1
102
RTVSPost2010Prop57
140
1.0
102
RTVSPost2010PropOp57
 70
     1
102
RTVSPropertyOp0
 70
     1
102
RTVSPropertyOp1
 70
     1
102
RTVSPropertyOp2
 70
     1
102
RTVSPropertyOp3
 70
     1
102
RTVSPropertyOp4
 70
     1
102
RTVSPropertyOp5
 70
     1
102
RTVSPropertyOp6
 70
     1
102
RTVSPropertyOp7
 70
     1
102
RTVSPropertyOp8
 70
     1
102
RTVSPropertyOp9
 70
     1
102
RTVSPropertyOp10
 70
     1
102
RTVSPropertyOp11
 70
     1
102
RTVSPropertyOp12
 70
     1
102
RTVSPropertyOp13
 70
     1
102
RTVSPropertyOp14
 70
     1
102
RTVSPropertyOp15
 70
     1
102
RTVSPropertyOp16
 70
     1
102
RTVSPropertyOp17
 70
     1
102
RTVSPropertyOp18
 70
     1
102
RTVSPropertyOp19
 70
     1
102
RTVSPropertyOp20
 70
     1
102
RTVSPropertyOp21
 70
     1
102
RTVSPropertyOp22
 70
     1
102
RTVSPropertyOp23
 70
     1
102
RTVSPropertyOp24
 70
     1
102
RTVSPropertyOp25
 70
     1
102
RTVSPropertyOp26
 70
     1
102
RTVSPropertyOp27
 70
     1
102
RTVSPropertyOp28
 70
     1
102
RTVSPropertyOp29
 70
     1
102
RTVSPropertyOp30
 70
     1
102
RTVSPropertyOp31
 70
     1
102
RTVSPropertyOp32
 70
     1
102
RTVSPropertyOp33
 70
     1
102
RTVSPropertyOp34
 70
     1
102
RTVSPropertyOp35
 70
     1
102
RTVSPropertyOp36
 70
     1
102
RTVSPropertyOp37
 70
     1
102
RTVSPropertyOp38
 70
     1
102
RTVSPropertyOp39
 70
     1
102
RTVSPropertyOp40
 70
     1
102
RTVSPropertyOp41
 70
     1
102
RTVSPropertyOp42
 70
     1
102
RTVSPropertyOp43
 70
     1
102
RTVSPropertyOp44
 70
     1
102
RTVSPropertyOp45
 70
     1
102
RTVSPropertyOp46
 70
     1
102
RTVSPropertyOp47
 70
     1
102
RTVSPropertyOp48
 70
     1
102
RTVSPropertyOp49
 70
     1
102
RTVSPropertyOp50
 70
     1
102
RTVSPropertyOp51
 70
     0
102
RTVSPropertyOp52
 70
     0
102
RTVSPropertyOp53
 70
     1
102
RTVSPropertyOp54
 70
     1
102
RTVSPropertyOp55
 70
     1
102
RTVSPropertyOp56
 70
     1
102
RTVSPropertyOp57
 70
     1
102
RTVSPropertyOp58
 70
     1
102
RTVSPropertyOp59
 70
     1
102
RTVSPropertyOp60
 70
     1
102
RTVSPropertyOp61
 70
     1
102
RTVSPropertyOp62
 70
     1
  0
XRECORD
  5
3CF6
102
{ACAD_REACTORS
330
3CF5
102
}
330
3CF5
100
AcDbXrecord
280
     1
102
RTVSPost2010Prop28
280
     0
102
RTVSPost2010PropOp28
 70
     1
102
RTVSPost2010Prop29
280
     1
102
RTVSPost2010PropOp29
 70
     1
102
RTVSPost2010Prop30
280
     1
102
RTVSPost2010PropOp30
 70
     1
102
RTVSPost2010Prop31
280
     0
102
RTVSPost2010PropOp31
 70
     1
102
RTVSPost2010Prop32
280
     0
102
RTVSPost2010PropOp32
 70
     1
102
RTVSPost2010Prop33
280
     0
102
RTVSPost2010PropOp33
 70
     1
102
RTVSPost2010Prop34
280
     0
102
RTVSPost2010PropOp34
 70
     1
102
RTVSPost2010Prop35
280
     0
102
RTVSPost2010PropOp35
 70
     1
102
RTVSPost2010Prop36
280
     0
102
RTVSPost2010PropOp36
 70
     1
102
RTVSPost2010Prop37
 90
       50
102
RTVSPost2010PropOp37
 70
     1
102
RTVSPost2010Prop38
140
0.0
102
RTVSPost2010PropOp38
 70
     1
102
RTVSPost2010Prop39
140
1.0
102
RTVSPost2010PropOp39
 70
     1
102
RTVSPost2010Prop40
 90
        0
102
RTVSPost2010PropOp40
 70
     1
102
RTVSPost2010Prop41ColorIndex
 90
       18
102
RTVSPost2010Prop41ColorRGB
 90
        0
102
RTVSPost2010PropOp41
 70
     1
102
RTVSPost2010Prop42
 90
       50
102
RTVSPost2010PropOp42
 70
     1
102
RTVSPost2010Prop43
 90
        3
102
RTVSPost2010PropOp43
 70
     1
102
RTVSPost2010Prop44ColorIndex
 90
        5
102
RTVSPost2010Prop44ColorRGB
 90
      255
102
RTVSPost2010PropOp44
 70
     1
102
RTVSPost2010Prop45
280
     0
102
RTVSPost2010PropOp45
 70
     1
102
RTVSPost2010Prop46
 90
       50
102
RTVSPost2010PropOp46
 70
     1
102
RTVSPost2010Prop47
 90
       50
102
RTVSPost2010PropOp47
 70
     1
102
RTVSPost2010Prop48
 90
       50
102
RTVSPost2010PropOp48
 70
     1
102
RTVSPost2010Prop49
280
     0
102
RTVSPost2010PropOp49
 70
     1
102
RTVSPost2010Prop50
 90
       50
102
RTVSPost2010PropOp50
 70
     1
102
RTVSPost2010Prop51ColorIndex
 90
      256
102
RTVSPost2010Prop51ColorRGB
 90
-16777216
102
RTVSPost2010PropOp51
 70
     0
102
RTVSPost2010Prop52
140
1.0
102
RTVSPost2010PropOp52
 70
     0
102
RTVSPost2010Prop53
 90
        2
102
RTVSPost2010PropOp53
 70
     1
102
RTVSPost2010Prop54
  1
strokes_ogs.tif
102
RTVSPost2010PropOp54
 70
     1
102
RTVSPost2010Prop55
280
     0
102
RTVSPost2010PropOp55
 70
     1
102
RTVSPost2010Prop56
140
1.0
102
RTVSPost2010PropOp56
 70
     1
102
RTVSPost2010Prop57
140
1.0
102
RTVSPost2010PropOp57
 70
     1
102
RTVSPropertyOp0
 70
     1
102
RTVSPropertyOp1
 70
     1
102
RTVSPropertyOp2
 70
     1
102
RTVSPropertyOp3
 70
     1
102
RTVSPropertyOp4
 70
     1
102
RTVSPropertyOp5
 70
     1
102
RTVSPropertyOp6
 70
     1
102
RTVSPropertyOp7
 70
     1
102
RTVSPropertyOp8
 70
     1
102
RTVSPropertyOp9
 70
     1
102
RTVSPropertyOp10
 70
     1
102
RTVSPropertyOp11
 70
     1
102
RTVSPropertyOp12
 70
     1
102
RTVSPropertyOp13
 70
     1
102
RTVSPropertyOp14
 70
     1
102
RTVSPropertyOp15
 70
     1
102
RTVSPropertyOp16
 70
     1
102
RTVSPropertyOp17
 70
     1
102
RTVSPropertyOp18
 70
     1
102
RTVSPropertyOp19
 70
     1
102
RTVSPropertyOp20
 70
     1
102
RTVSPropertyOp21
 70
     1
102
RTVSPropertyOp22
 70
     1
102
RTVSPropertyOp23
 70
     1
102
RTVSPropertyOp24
 70
     1
102
RTVSPropertyOp25
 70
     1
102
RTVSPropertyOp26
 70
     1
102
RTVSPropertyOp27
 70
     1
102
RTVSPropertyOp28
 70
     1
102
RTVSPropertyOp29
 70
     1
102
RTVSPropertyOp30
 70
     1
102
RTVSPropertyOp31
 70
     1
102
RTVSPropertyOp32
 70
     1
102
RTVSPropertyOp33
 70
     1
102
RTVSPropertyOp34
 70
     1
102
RTVSPropertyOp35
 70
     1
102
RTVSPropertyOp36
 70
     1
102
RTVSPropertyOp37
 70
     1
102
RTVSPropertyOp38
 70
     1
102
RTVSPropertyOp39
 70
     1
102
RTVSPropertyOp40
 70
     1
102
RTVSPropertyOp41
 70
     1
102
RTVSPropertyOp42
 70
     1
102
RTVSPropertyOp43
 70
     1
102
RTVSPropertyOp44
 70
     1
102
RTVSPropertyOp45
 70
     1
102
RTVSPropertyOp46
 70
     1
102
RTVSPropertyOp47
 70
     1
102
RTVSPropertyOp48
 70
     1
102
RTVSPropertyOp49
 70
     1
102
RTVSPropertyOp50
 70
     1
102
RTVSPropertyOp51
 70
     0
102
RTVSPropertyOp52
 70
     0
102
RTVSPropertyOp53
 70
     1
102
RTVSPropertyOp54
 70
     1
102
RTVSPropertyOp55
 70
     1
102
RTVSPropertyOp56
 70
     1
102
RTVSPropertyOp57
 70
     1
102
RTVSPropertyOp58
 70
     1
102
RTVSPropertyOp59
 70
     1
102
RTVSPropertyOp60
 70
     1
102
RTVSPropertyOp61
 70
     1
102
RTVSPropertyOp62
 70
     1
  0
XRECORD
  5
3CEA
102
{ACAD_REACTORS
330
3CE9
102
}
330
3CE9
100
AcDbXrecord
280
     1
102
RTVSPost2010Prop28
280
     0
102
RTVSPost2010PropOp28
 70
     1
102
RTVSPost2010Prop29
280
     1
102
RTVSPost2010PropOp29
 70
     1
102
RTVSPost2010Prop30
280
     1
102
RTVSPost2010PropOp30
 70
     1
102
RTVSPost2010Prop31
280
     0
102
RTVSPost2010PropOp31
 70
     1
102
RTVSPost2010Prop32
280
     0
102
RTVSPost2010PropOp32
 70
     1
102
RTVSPost2010Prop33
280
     0
102
RTVSPost2010PropOp33
 70
     1
102
RTVSPost2010Prop34
280
     0
102
RTVSPost2010PropOp34
 70
     1
102
RTVSPost2010Prop35
280
     0
102
RTVSPost2010PropOp35
 70
     1
102
RTVSPost2010Prop36
280
     0
102
RTVSPost2010PropOp36
 70
     1
102
RTVSPost2010Prop37
 90
       50
102
RTVSPost2010PropOp37
 70
     1
102
RTVSPost2010Prop38
140
0.0
102
RTVSPost2010PropOp38
 70
     1
102
RTVSPost2010Prop39
140
1.0
102
RTVSPost2010PropOp39
 70
     1
102
RTVSPost2010Prop40
 90
        0
102
RTVSPost2010PropOp40
 70
     1
102
RTVSPost2010Prop41ColorIndex
 90
       18
102
RTVSPost2010Prop41ColorRGB
 90
        0
102
RTVSPost2010PropOp41
 70
     1
102
RTVSPost2010Prop42
 90
       50
102
RTVSPost2010PropOp42
 70
     1
102
RTVSPost2010Prop43
 90
        3
102
RTVSPost2010PropOp43
 70
     1
102
RTVSPost2010Prop44ColorIndex
 90
        5
102
RTVSPost2010Prop44ColorRGB
 90
      255
102
RTVSPost2010PropOp44
 70
     1
102
RTVSPost2010Prop45
280
     0
102
RTVSPost2010PropOp45
 70
     1
102
RTVSPost2010Prop46
 90
       50
102
RTVSPost2010PropOp46
 70
     1
102
RTVSPost2010Prop47
 90
       50
102
RTVSPost2010PropOp47
 70
     1
102
RTVSPost2010Prop48
 90
       50
102
RTVSPost2010PropOp48
 70
     1
102
RTVSPost2010Prop49
280
     0
102
RTVSPost2010PropOp49
 70
     1
102
RTVSPost2010Prop50
 90
       50
102
RTVSPost2010PropOp50
 70
     1
102
RTVSPost2010Prop51ColorIndex
 90
      256
102
RTVSPost2010Prop51ColorRGB
 90
-16777216
102
RTVSPost2010PropOp51
 70
     0
102
RTVSPost2010Prop52
140
1.0
102
RTVSPost2010PropOp52
 70
     0
102
RTVSPost2010Prop53
 90
        2
102
RTVSPost2010PropOp53
 70
     1
102
RTVSPost2010Prop54
  1
strokes_ogs.tif
102
RTVSPost2010PropOp54
 70
     1
102
RTVSPost2010Prop55
280
     0
102
RTVSPost2010PropOp55
 70
     1
102
RTVSPost2010Prop56
140
1.0
102
RTVSPost2010PropOp56
 70
     1
102
RTVSPost2010Prop57
140
1.0
102
RTVSPost2010PropOp57
 70
     1
102
RTVSPropertyOp0
 70
     1
102
RTVSPropertyOp1
 70
     1
102
RTVSPropertyOp2
 70
     1
102
RTVSPropertyOp3
 70
     1
102
RTVSPropertyOp4
 70
     1
102
RTVSPropertyOp5
 70
     1
102
RTVSPropertyOp6
 70
     1
102
RTVSPropertyOp7
 70
     1
102
RTVSPropertyOp8
 70
     1
102
RTVSPropertyOp9
 70
     1
102
RTVSPropertyOp10
 70
     1
102
RTVSPropertyOp11
 70
     1
102
RTVSPropertyOp12
 70
     1
102
RTVSPropertyOp13
 70
     1
102
RTVSPropertyOp14
 70
     1
102
RTVSPropertyOp15
 70
     1
102
RTVSPropertyOp16
 70
     1
102
RTVSPropertyOp17
 70
     1
102
RTVSPropertyOp18
 70
     1
102
RTVSPropertyOp19
 70
     1
102
RTVSPropertyOp20
 70
     1
102
RTVSPropertyOp21
 70
     1
102
RTVSPropertyOp22
 70
     1
102
RTVSPropertyOp23
 70
     1
102
RTVSPropertyOp24
 70
     1
102
RTVSPropertyOp25
 70
     1
102
RTVSPropertyOp26
 70
     1
102
RTVSPropertyOp27
 70
     1
102
RTVSPropertyOp28
 70
     1
102
RTVSPropertyOp29
 70
     1
102
RTVSPropertyOp30
 70
     1
102
RTVSPropertyOp31
 70
     1
102
RTVSPropertyOp32
 70
     1
102
RTVSPropertyOp33
 70
     1
102
RTVSPropertyOp34
 70
     1
102
RTVSPropertyOp35
 70
     1
102
RTVSPropertyOp36
 70
     1
102
RTVSPropertyOp37
 70
     1
102
RTVSPropertyOp38
 70
     1
102
RTVSPropertyOp39
 70
     1
102
RTVSPropertyOp40
 70
     1
102
RTVSPropertyOp41
 70
     1
102
RTVSPropertyOp42
 70
     1
102
RTVSPropertyOp43
 70
     1
102
RTVSPropertyOp44
 70
     1
102
RTVSPropertyOp45
 70
     1
102
RTVSPropertyOp46
 70
     1
102
RTVSPropertyOp47
 70
     1
102
RTVSPropertyOp48
 70
     1
102
RTVSPropertyOp49
 70
     1
102
RTVSPropertyOp50
 70
     1
102
RTVSPropertyOp51
 70
     0
102
RTVSPropertyOp52
 70
     0
102
RTVSPropertyOp53
 70
     1
102
RTVSPropertyOp54
 70
     1
102
RTVSPropertyOp55
 70
     1
102
RTVSPropertyOp56
 70
     1
102
RTVSPropertyOp57
 70
     1
102
RTVSPropertyOp58
 70
     1
102
RTVSPropertyOp59
 70
     1
102
RTVSPropertyOp60
 70
     1
102
RTVSPropertyOp61
 70
     1
102
RTVSPropertyOp62
 70
     1
  0
XRECORD
  5
3D0A
102
{ACAD_REACTORS
330
3D09
102
}
330
3D09
100
AcDbXrecord
280
     1
102
RTVSPost2010Prop28
280
     0
102
RTVSPost2010PropOp28
 70
     1
102
RTVSPost2010Prop29
280
     1
102
RTVSPost2010PropOp29
 70
     1
102
RTVSPost2010Prop30
280
     1
102
RTVSPost2010PropOp30
 70
     1
102
RTVSPost2010Prop31
280
     0
102
RTVSPost2010PropOp31
 70
     1
102
RTVSPost2010Prop32
280
     0
102
RTVSPost2010PropOp32
 70
     1
102
RTVSPost2010Prop33
280
     0
102
RTVSPost2010PropOp33
 70
     1
102
RTVSPost2010Prop34
280
     0
102
RTVSPost2010PropOp34
 70
     1
102
RTVSPost2010Prop35
280
     0
102
RTVSPost2010PropOp35
 70
     1
102
RTVSPost2010Prop36
280
     0
102
RTVSPost2010PropOp36
 70
     1
102
RTVSPost2010Prop37
 90
       50
102
RTVSPost2010PropOp37
 70
     1
102
RTVSPost2010Prop38
140
0.0
102
RTVSPost2010PropOp38
 70
     1
102
RTVSPost2010Prop39
140
1.0
102
RTVSPost2010PropOp39
 70
     1
102
RTVSPost2010Prop40
 90
        0
102
RTVSPost2010PropOp40
 70
     1
102
RTVSPost2010Prop41ColorIndex
 90
       18
102
RTVSPost2010Prop41ColorRGB
 90
        0
102
RTVSPost2010PropOp41
 70
     1
102
RTVSPost2010Prop42
 90
       50
102
RTVSPost2010PropOp42
 70
     1
102
RTVSPost2010Prop43
 90
        3
102
RTVSPost2010PropOp43
 70
     1
102
RTVSPost2010Prop44ColorIndex
 90
        5
102
RTVSPost2010Prop44ColorRGB
 90
      255
102
RTVSPost2010PropOp44
 70
     1
102
RTVSPost2010Prop45
280
     0
102
RTVSPost2010PropOp45
 70
     1
102
RTVSPost2010Prop46
 90
       50
102
RTVSPost2010PropOp46
 70
     1
102
RTVSPost2010Prop47
 90
       50
102
RTVSPost2010PropOp47
 70
     1
102
RTVSPost2010Prop48
 90
       50
102
RTVSPost2010PropOp48
 70
     1
102
RTVSPost2010Prop49
280
     0
102
RTVSPost2010PropOp49
 70
     1
102
RTVSPost2010Prop50
 90
       50
102
RTVSPost2010PropOp50
 70
     1
102
RTVSPost2010Prop51ColorIndex
 90
      256
102
RTVSPost2010Prop51ColorRGB
 90
-16777216
102
RTVSPost2010PropOp51
 70
     0
102
RTVSPost2010Prop52
140
1.0
102
RTVSPost2010PropOp52
 70
     0
102
RTVSPost2010Prop53
 90
        2
102
RTVSPost2010PropOp53
 70
     1
102
RTVSPost2010Prop54
  1
strokes_ogs.tif
102
RTVSPost2010PropOp54
 70
     1
102
RTVSPost2010Prop55
280
     0
102
RTVSPost2010PropOp55
 70
     1
102
RTVSPost2010Prop56
140
1.0
102
RTVSPost2010PropOp56
 70
     1
102
RTVSPost2010Prop57
140
1.0
102
RTVSPost2010PropOp57
 70
     1
102
RTVSPropertyOp0
 70
     1
102
RTVSPropertyOp1
 70
     1
102
RTVSPropertyOp2
 70
     1
102
RTVSPropertyOp3
 70
     1
102
RTVSPropertyOp4
 70
     1
102
RTVSPropertyOp5
 70
     1
102
RTVSPropertyOp6
 70
     1
102
RTVSPropertyOp7
 70
     1
102
RTVSPropertyOp8
 70
     1
102
RTVSPropertyOp9
 70
     1
102
RTVSPropertyOp10
 70
     1
102
RTVSPropertyOp11
 70
     1
102
RTVSPropertyOp12
 70
     1
102
RTVSPropertyOp13
 70
     1
102
RTVSPropertyOp14
 70
     1
102
RTVSPropertyOp15
 70
     1
102
RTVSPropertyOp16
 70
     1
102
RTVSPropertyOp17
 70
     1
102
RTVSPropertyOp18
 70
     1
102
RTVSPropertyOp19
 70
     1
102
RTVSPropertyOp20
 70
     1
102
RTVSPropertyOp21
 70
     1
102
RTVSPropertyOp22
 70
     1
102
RTVSPropertyOp23
 70
     1
102
RTVSPropertyOp24
 70
     1
102
RTVSPropertyOp25
 70
     1
102
RTVSPropertyOp26
 70
     1
102
RTVSPropertyOp27
 70
     1
102
RTVSPropertyOp28
 70
     1
102
RTVSPropertyOp29
 70
     1
102
RTVSPropertyOp30
 70
     1
102
RTVSPropertyOp31
 70
     1
102
RTVSPropertyOp32
 70
     1
102
RTVSPropertyOp33
 70
     1
102
RTVSPropertyOp34
 70
     1
102
RTVSPropertyOp35
 70
     1
102
RTVSPropertyOp36
 70
     1
102
RTVSPropertyOp37
 70
     1
102
RTVSPropertyOp38
 70
     1
102
RTVSPropertyOp39
 70
     1
102
RTVSPropertyOp40
 70
     1
102
RTVSPropertyOp41
 70
     1
102
RTVSPropertyOp42
 70
     1
102
RTVSPropertyOp43
 70
     1
102
RTVSPropertyOp44
 70
     1
102
RTVSPropertyOp45
 70
     1
102
RTVSPropertyOp46
 70
     1
102
RTVSPropertyOp47
 70
     1
102
RTVSPropertyOp48
 70
     1
102
RTVSPropertyOp49
 70
     1
102
RTVSPropertyOp50
 70
     1
102
RTVSPropertyOp51
 70
     0
102
RTVSPropertyOp52
 70
     0
102
RTVSPropertyOp53
 70
     1
102
RTVSPropertyOp54
 70
     1
102
RTVSPropertyOp55
 70
     1
102
RTVSPropertyOp56
 70
     1
102
RTVSPropertyOp57
 70
     1
102
RTVSPropertyOp58
 70
     1
102
RTVSPropertyOp59
 70
     1
102
RTVSPropertyOp60
 70
     1
102
RTVSPropertyOp61
 70
     1
102
RTVSPropertyOp62
 70
     1
  0
ENDSEC
  0
EOF
