  0
SECTION
  2
HEADER
  9
$ACADVER
  1
AC1015
  9
$ACADMAINTVER
 70
    18
  9
$DWGCODEPAGE
  3
ANSI_1252
  9
$INSBASE
 10
0.0
 20
0.0
 30
0.0
  9
$EXTMIN
 10
-287.4426263098635
 20
-539.3231047947462
 30
-0.0015258207003583
  9
$EXTMAX
 10
365.2505502305583
 20
515.5806894225309
 30
0.0000000349246037
  9
$LIMMIN
 10
0.0
 20
0.0
  9
$LIMMAX
 10
420.0
 20
297.0
  9
$ORTHOMODE
 70
     0
  9
$REGENMODE
 70
     1
  9
$FILLMODE
 70
     1
  9
$QTEXTMODE
 70
     0
  9
$MIRRTEXT
 70
     0
  9
$LTSCALE
 40
1.0
  9
$ATTMODE
 70
     1
  9
$TEXTSIZE
 40
2.5
  9
$TRACEWID
 40
1.0
  9
$TEXTSTYLE
  7
Standard
  9
$CLAYER
  8
0
  9
$CELTYPE
  6
ByLayer
  9
$CECOLOR
 62
   256
  9
$CELTSCALE
 40
1.0
  9
$DISPSILH
 70
     0
  9
$DIMSCALE
 40
1.0
  9
$DIMASZ
 40
2.5
  9
$DIMEXO
 40
0.625
  9
$DIMDLI
 40
3.75
  9
$DIMRND
 40
0.0
  9
$DIMDLE
 40
0.0
  9
$DIMEXE
 40
1.25
  9
$DIMTP
 40
0.0
  9
$DIMTM
 40
0.0
  9
$DIMTXT
 40
2.5
  9
$DIMCEN
 40
2.5
  9
$DIMTSZ
 40
0.0
  9
$DIMTOL
 70
     0
  9
$DIMLIM
 70
     0
  9
$DIMTIH
 70
     0
  9
$DIMTOH
 70
     0
  9
$DIMSE1
 70
     0
  9
$DIMSE2
 70
     0
  9
$DIMTAD
 70
     1
  9
$DIMZIN
 70
     8
  9
$DIMBLK
  1

  9
$DIMASO
 70
     1
  9
$DIMSHO
 70
     1
  9
$DIMPOST
  1

  9
$DIMAPOST
  1

  9
$DIMALT
 70
     0
  9
$DIMALTD
 70
     3
  9
$DIMALTF
 40
0.03937007874016
  9
$DIMLFAC
 40
1.0
  9
$DIMTOFL
 70
     1
  9
$DIMTVP
 40
0.0
  9
$DIMTIX
 70
     0
  9
$DIMSOXD
 70
     0
  9
$DIMSAH
 70
     0
  9
$DIMBLK1
  1

  9
$DIMBLK2
  1

  9
$DIMSTYLE
  2
ISO-25
  9
$DIMCLRD
 70
     0
  9
$DIMCLRE
 70
     0
  9
$DIMCLRT
 70
     0
  9
$DIMTFAC
 40
1.0
  9
$DIMGAP
 40
0.625
  9
$DIMJUST
 70
     0
  9
$DIMSD1
 70
     0
  9
$DIMSD2
 70
     0
  9
$DIMTOLJ
 70
     0
  9
$DIMTZIN
 70
     8
  9
$DIMALTZ
 70
     0
  9
$DIMALTTZ
 70
     0
  9
$DIMUPT
 70
     0
  9
$DIMDEC
 70
     2
  9
$DIMTDEC
 70
     2
  9
$DIMALTU
 70
     2
  9
$DIMALTTD
 70
     3
  9
$DIMTXSTY
  7
Standard
  9
$DIMAUNIT
 70
     0
  9
$DIMADEC
 70
     0
  9
$DIMALTRND
 40
0.0
  9
$DIMAZIN
 70
     0
  9
$DIMDSEP
 70
    44
  9
$DIMATFIT
 70
     3
  9
$DIMFRAC
 70
     0
  9
$DIMLDRBLK
  1

  9
$DIMLUNIT
 70
     2
  9
$DIMLWD
 70
    -2
  9
$DIMLWE
 70
    -2
  9
$DIMTMOVE
 70
     0
  9
$LUNITS
 70
     2
  9
$LUPREC
 70
     4
  9
$SKETCHINC
 40
1.0
  9
$FILLETRAD
 40
0.0
  9
$AUNITS
 70
     0
  9
$AUPREC
 70
     0
  9
$MENU
  1
.
  9
$ELEVATION
 40
0.0
  9
$PELEVATION
 40
0.0
  9
$THICKNESS
 40
0.0
  9
$LIMCHECK
 70
     0
  9
$CHAMFERA
 40
0.0
  9
$CHAMFERB
 40
0.0
  9
$CHAMFERC
 40
0.0
  9
$CHAMFERD
 40
0.0
  9
$SKPOLY
 70
     0
  9
$TDCREATE
 40
2460719.406504630
  9
$TDUCREATE
 40
2460719.114837963
  9
$TDUPDATE
 40
2460719.410879630
  9
$TDUUPDATE
 40
2460719.119212964
  9
$TDINDWG
 40
0.0019675926
  9
$TDUSRTIMER
 40
0.0019675926
  9
$USRTIMER
 70
     1
  9
$ANGBASE
 50
0.0
  9
$ANGDIR
 70
     0
  9
$PDMODE
 70
     0
  9
$PDSIZE
 40
0.0
  9
$PLINEWID
 40
0.0
  9
$SPLFRAME
 70
     0
  9
$SPLINETYPE
 70
     6
  9
$SPLINESEGS
 70
     8
  9
$HANDSEED
  5
2A22
  9
$SURFTAB1
 70
     6
  9
$SURFTAB2
 70
     6
  9
$SURFTYPE
 70
     6
  9
$SURFU
 70
     6
  9
$SURFV
 70
     6
  9
$UCSBASE
  2

  9
$UCSNAME
  2

  9
$UCSORG
 10
0.0
 20
0.0
 30
0.0
  9
$UCSXDIR
 10
1.0
 20
0.0
 30
0.0
  9
$UCSYDIR
 10
0.0
 20
1.0
 30
0.0
  9
$UCSORTHOREF
  2

  9
$UCSORTHOVIEW
 70
     0
  9
$UCSORGTOP
 10
0.0
 20
0.0
 30
0.0
  9
$UCSORGBOTTOM
 10
0.0
 20
0.0
 30
0.0
  9
$UCSORGLEFT
 10
0.0
 20
0.0
 30
0.0
  9
$UCSORGRIGHT
 10
0.0
 20
0.0
 30
0.0
  9
$UCSORGFRONT
 10
0.0
 20
0.0
 30
0.0
  9
$UCSORGBACK
 10
0.0
 20
0.0
 30
0.0
  9
$PUCSBASE
  2

  9
$PUCSNAME
  2

  9
$PUCSORG
 10
0.0
 20
0.0
 30
0.0
  9
$PUCSXDIR
 10
1.0
 20
0.0
 30
0.0
  9
$PUCSYDIR
 10
0.0
 20
1.0
 30
0.0
  9
$PUCSORTHOREF
  2

  9
$PUCSORTHOVIEW
 70
     0
  9
$PUCSORGTOP
 10
0.0
 20
0.0
 30
0.0
  9
$PUCSORGBOTTOM
 10
0.0
 20
0.0
 30
0.0
  9
$PUCSORGLEFT
 10
0.0
 20
0.0
 30
0.0
  9
$PUCSORGRIGHT
 10
0.0
 20
0.0
 30
0.0
  9
$PUCSORGFRONT
 10
0.0
 20
0.0
 30
0.0
  9
$PUCSORGBACK
 10
0.0
 20
0.0
 30
0.0
  9
$USERI1
 70
     0
  9
$USERI2
 70
     0
  9
$USERI3
 70
     0
  9
$USERI4
 70
     0
  9
$USERI5
 70
     0
  9
$USERR1
 40
0.0
  9
$USERR2
 40
0.0
  9
$USERR3
 40
0.0
  9
$USERR4
 40
0.0
  9
$USERR5
 40
0.0
  9
$WORLDVIEW
 70
     1
  9
$SHADEDGE
 70
     3
  9
$SHADEDIF
 70
    70
  9
$TILEMODE
 70
     1
  9
$MAXACTVP
 70
    48
  9
$PINSBASE
 10
0.0
 20
0.0
 30
0.0
  9
$PLIMCHECK
 70
     0
  9
$PEXTMIN
 10
0.0
 20
0.0
 30
0.0
  9
$PEXTMAX
 10
0.0
 20
0.0
 30
0.0
  9
$PLIMMIN
 10
0.0
 20
0.0
  9
$PLIMMAX
 10
12.0
 20
9.0
  9
$UNITMODE
 70
     0
  9
$VISRETAIN
 70
     1
  9
$PLINEGEN
 70
     0
  9
$PSLTSCALE
 70
     1
  9
$TREEDEPTH
 70
  3020
  9
$CMLSTYLE
  2
Standard
  9
$CMLJUST
 70
     0
  9
$CMLSCALE
 40
20.0
  9
$PROXYGRAPHICS
 70
     1
  9
$MEASUREMENT
 70
     1
  9
$CELWEIGHT
370
    -1
  9
$ENDCAPS
280
     0
  9
$JOINSTYLE
280
     0
  9
$LWDISPLAY
290
     0
  9
$INSUNITS
 70
     4
  9
$HYPERLINKBASE
  1

  9
$STYLESHEET
  1

  9
$XEDIT
290
     1
  9
$CEPSNTYPE
380
     0
  9
$PSTYLEMODE
290
     1
  9
$FINGERPRINTGUID
  2
{375C693C-302E-BC42-B92A-19F6C371B7B0}
  9
$VERSIONGUID
  2
{B8A213BD-1E34-D742-AD4C-D0F0A6983F68}
  9
$EXTNAMES
290
     1
  9
$PSVPSCALE
 40
0.0
  9
$OLESTARTUP
290
     0
  0
ENDSEC
  0
SECTION
  2
CLASSES
  0
CLASS
  1
ACDBDICTIONARYWDFLT
  2
AcDbDictionaryWithDefault
  3
ObjectDBX Classes
 90
        0
280
     0
281
     0
  0
CLASS
  1
ACDBPLACEHOLDER
  2
AcDbPlaceHolder
  3
ObjectDBX Classes
 90
        0
280
     0
281
     0
  0
CLASS
  1
LAYOUT
  2
AcDbLayout
  3
ObjectDBX Classes
 90
        0
280
     0
281
     0
  0
CLASS
  1
DICTIONARYVAR
  2
AcDbDictionaryVar
  3
ObjectDBX Classes
 90
        0
280
     0
281
     0
  0
CLASS
  1
TABLESTYLE
  2
AcDbTableStyle
  3
ObjectDBX Classes
 90
     4095
280
     0
281
     0
  0
CLASS
  1
MATERIAL
  2
AcDbMaterial
  3
ObjectDBX Classes
 90
     1153
280
     0
281
     0
  0
CLASS
  1
VISUALSTYLE
  2
AcDbVisualStyle
  3
ObjectDBX Classes
 90
     4095
280
     0
281
     0
  0
CLASS
  1
SCALE
  2
AcDbScale
  3
ObjectDBX Classes
 90
     1153
280
     0
281
     0
  0
CLASS
  1
MLEADERSTYLE
  2
AcDbMLeaderStyle
  3
ACDB_MLEADERSTYLE_CLASS
 90
     4095
280
     0
281
     0
  0
CLASS
  1
CELLSTYLEMAP
  2
AcDbCellStyleMap
  3
ObjectDBX Classes
 90
     1152
280
     0
281
     0
  0
CLASS
  1
EXACXREFPANELOBJECT
  2
ExAcXREFPanelObject
  3
EXAC_ESW
 90
    33793
280
     0
281
     0
  0
CLASS
  1
NPOCOLLECTION
  2
AcDbImpNonPersistentObjectsCollection
  3
ObjectDBX Classes
 90
    33921
280
     0
281
     0
  0
CLASS
  1
LAYER_INDEX
  2
AcDbLayerIndex
  3
ObjectDBX Classes
 90
    32768
280
     0
281
     0
  0
CLASS
  1
SPATIAL_INDEX
  2
AcDbSpatialIndex
  3
ObjectDBX Classes
 90
    32768
280
     0
281
     0
  0
CLASS
  1
IDBUFFER
  2
AcDbIdBuffer
  3
ObjectDBX Classes
 90
    32768
280
     0
281
     0
  0
CLASS
  1
ACDBSECTIONVIEWSTYLE
  2
AcDbSectionViewStyle
  3
ObjectDBX Classes
 90
     1025
280
     0
281
     0
  0
CLASS
  1
ACDBDETAILVIEWSTYLE
  2
AcDbDetailViewStyle
  3
ObjectDBX Classes
 90
     1025
280
     0
281
     0
  0
CLASS
  1
XRECORD
  2
AcDbXrecord
  3
ObjectDBX Classes
 90
        0
280
     0
281
     0
  0
ENDSEC
  0
SECTION
  2
TABLES
  0
TABLE
  2
VPORT
  5
8
102
{ACAD_XDICTIONARY
360
2930
102
}
330
0
100
AcDbSymbolTable
 70
     1
  0
VPORT
  5
EA
330
8
100
AcDbSymbolTableRecord
100
AcDbViewportTableRecord
  2
*Active
 70
     0
 10
0.0
 20
0.0
 11
1.0
 21
1.0
 12
38.90396196034743
 22
-11.87120768610759
 13
0.0
 23
0.0
 14
10.0
 24
10.0
 15
10.0
 25
10.0
 16
0.0
 26
0.0
 36
1.0
 17
0.0
 27
0.0
 37
0.0
 40
1121.794586270214
 41
0.9846153846153846
 42
50.0
 43
0.0
 44
0.0
 50
0.0
 51
0.0
 71
     0
 72
  1000
 73
     1
 74
     3
 75
     0
 76
     1
 77
     0
 78
     0
281
     0
 65
     1
110
0.0
120
0.0
130
0.0
111
1.0
121
0.0
131
0.0
112
0.0
122
1.0
132
0.0
 79
     0
146
0.0
1001
ACAD_NAV_VCDISPLAY
1070
     3
  0
ENDTAB
  0
TABLE
  2
LTYPE
  5
5
330
0
100
AcDbSymbolTable
 70
     1
  0
LTYPE
  5
14
330
5
100
AcDbSymbolTableRecord
100
AcDbLinetypeTableRecord
  2
ByBlock
 70
     0
  3

 72
    65
 73
     0
 40
0.0
  0
LTYPE
  5
15
330
5
100
AcDbSymbolTableRecord
100
AcDbLinetypeTableRecord
  2
ByLayer
 70
     0
  3

 72
    65
 73
     0
 40
0.0
  0
LTYPE
  5
16
330
5
100
AcDbSymbolTableRecord
100
AcDbLinetypeTableRecord
  2
Continuous
 70
     0
  3
Solid line
 72
    65
 73
     0
 40
0.0
  0
ENDTAB
  0
TABLE
  2
LAYER
  5
2
102
{ACAD_XDICTIONARY
360
1FF
102
}
330
0
100
AcDbSymbolTable
 70
     1
  0
LAYER
  5
10
102
{ACAD_XDICTIONARY
360
13C
102
}
330
2
100
AcDbSymbolTableRecord
100
AcDbLayerTableRecord
  2
0
 70
     0
 62
     7
  6
Continuous
370
    -3
390
F
  0
ENDTAB
  0
TABLE
  2
STYLE
  5
3
330
0
100
AcDbSymbolTable
 70
     1
  0
STYLE
  5
11
330
3
100
AcDbSymbolTableRecord
100
AcDbTextStyleTableRecord
  2
Standard
 70
     0
 40
0.0
 41
1.0
 50
0.0
 71
     0
 42
2.5
  3
arial.ttf
  4

1001
ACAD
1000
Arial
1071
       34
  0
ENDTAB
  0
TABLE
  2
VIEW
  5
6
330
0
100
AcDbSymbolTable
 70
     0
  0
ENDTAB
  0
TABLE
  2
UCS
  5
7
330
0
100
AcDbSymbolTable
 70
     0
  0
ENDTAB
  0
TABLE
  2
APPID
  5
9
330
0
100
AcDbSymbolTable
 70
     8
  0
APPID
  5
12
330
9
100
AcDbSymbolTableRecord
100
AcDbRegAppTableRecord
  2
ACAD
 70
     0
  0
APPID
  5
9E
330
9
100
AcDbSymbolTableRecord
100
AcDbRegAppTableRecord
  2
ACAD_PSEXT
 70
     0
  0
APPID
  5
133
330
9
100
AcDbSymbolTableRecord
100
AcDbRegAppTableRecord
  2
AcadAnnoPO
 70
     0
  0
APPID
  5
134
330
9
100
AcDbSymbolTableRecord
100
AcDbRegAppTableRecord
  2
AcadAnnotative
 70
     0
  0
APPID
  5
135
330
9
100
AcDbSymbolTableRecord
100
AcDbRegAppTableRecord
  2
ACAD_DSTYLE_DIMJAG
 70
     0
  0
APPID
  5
136
330
9
100
AcDbSymbolTableRecord
100
AcDbRegAppTableRecord
  2
ACAD_DSTYLE_DIMTALN
 70
     0
  0
APPID
  5
165
330
9
100
AcDbSymbolTableRecord
100
AcDbRegAppTableRecord
  2
ACAD_MLEADERVER
 70
     0
  0
APPID
  5
217
330
9
100
AcDbSymbolTableRecord
100
AcDbRegAppTableRecord
  2
ACAD_NAV_VCDISPLAY
 70
     0
  0
ENDTAB
  0
TABLE
  2
DIMSTYLE
  5
A
330
0
100
AcDbSymbolTable
 70
     1
100
AcDbDimStyleTable
 71
     0
  0
DIMSTYLE
105
27
330
A
100
AcDbSymbolTableRecord
100
AcDbDimStyleTableRecord
  2
ISO-25
 70
     0
 41
2.5
 42
0.625
 43
3.75
 44
1.25
 73
     0
 74
     0
 77
     1
 78
     8
140
2.5
141
2.5
143
0.03937007874016
147
0.625
171
     3
172
     1
271
     2
272
     2
274
     3
278
    44
283
     0
284
     8
340
11
  0
ENDTAB
  0
TABLE
  2
BLOCK_RECORD
  5
1
330
0
100
AcDbSymbolTable
 70
     7
  0
BLOCK_RECORD
  5
1F
102
{ACAD_XDICTIONARY
360
1CE
102
}
330
1
100
AcDbSymbolTableRecord
100
AcDbBlockTableRecord
  2
*Model_Space
340
22
  0
BLOCK_RECORD
  5
D2
102
{ACAD_XDICTIONARY
360
28E3
102
}
330
1
100
AcDbSymbolTableRecord
100
AcDbBlockTableRecord
  2
*Paper_Space
340
D3
  0
BLOCK_RECORD
  5
D6
102
{ACAD_XDICTIONARY
360
28E5
102
}
330
1
100
AcDbSymbolTableRecord
100
AcDbBlockTableRecord
  2
*Paper_Space0
340
D7
  0
BLOCK_RECORD
  5
25D3
330
1
100
AcDbSymbolTableRecord
100
AcDbBlockTableRecord
  2
SPR100_320-Front
340
0
102
{BLKREFS
331
28D9
102
}
  0
BLOCK_RECORD
  5
265F
330
1
100
AcDbSymbolTableRecord
100
AcDbBlockTableRecord
  2
SPR100_320-Left
340
0
102
{BLKREFS
331
28DA
102
}
  0
BLOCK_RECORD
  5
26A1
330
1
100
AcDbSymbolTableRecord
100
AcDbBlockTableRecord
  2
SPR100_320-Right
340
0
102
{BLKREFS
331
28DB
102
}
  0
BLOCK_RECORD
  5
26E5
330
1
100
AcDbSymbolTableRecord
100
AcDbBlockTableRecord
  2
SPR100_320-Top
340
0
102
{BLKREFS
331
28DC
102
}
  0
BLOCK_RECORD
  5
274B
330
1
100
AcDbSymbolTableRecord
100
AcDbBlockTableRecord
  2
SPR100_320-Bottom
340
0
102
{BLKREFS
331
28DD
102
}
  0
BLOCK_RECORD
  5
27A9
330
1
100
AcDbSymbolTableRecord
100
AcDbBlockTableRecord
  2
SPR100_320-ISO
340
0
102
{BLKREFS
331
28DE
102
}
  0
ENDTAB
  0
ENDSEC
  0
SECTION
  2
BLOCKS
  0
BLOCK
  5
20
330
1F
100
AcDbEntity
  8
0
100
AcDbBlockBegin
  2
*Model_Space
 70
     0
 10
0.0
 20
0.0
 30
0.0
  3
*Model_Space
  1

  0
ENDBLK
  5
21
330
1F
100
AcDbEntity
  8
0
100
AcDbBlockEnd
  0
BLOCK
  5
D4
330
D2
100
AcDbEntity
 67
     1
  8
0
100
AcDbBlockBegin
  2
*Paper_Space
 70
     0
 10
0.0
 20
0.0
 30
0.0
  3
*Paper_Space
  1

  0
ENDBLK
  5
D5
330
D2
100
AcDbEntity
 67
     1
  8
0
100
AcDbBlockEnd
  0
BLOCK
  5
D8
330
D6
100
AcDbEntity
 67
     1
  8
0
100
AcDbBlockBegin
  2
*Paper_Space0
 70
     0
 10
0.0
 20
0.0
 30
0.0
  3
*Paper_Space0
  1

  0
ENDBLK
  5
D9
330
D6
100
AcDbEntity
 67
     1
  8
0
100
AcDbBlockEnd
  0
BLOCK
  5
25D4
330
25D3
100
AcDbEntity
  8
0
100
AcDbBlockBegin
  2
SPR100_320-Front
 70
     0
 10
0.0
 20
0.0
 30
0.0
  3
SPR100_320-Front
  1

  0
LINE
  5
25D6
330
25D3
100
AcDbEntity
  8
0
100
AcDbLine
 10
92.52709056099996
 20
6.269999999999996
 30
0.0
 11
87.52709056099996
 21
1.269999999999996
 31
0.0
  0
LINE
  5
25D7
330
25D3
100
AcDbEntity
  8
0
100
AcDbLine
 10
-87.527090561
 20
1.269999999999996
 30
0.0
 11
-92.527090561
 21
6.269999999999996
 31
0.0
  0
LINE
  5
25D8
330
25D3
100
AcDbEntity
  8
0
100
AcDbLine
 10
-92.527090561
 20
72.27
 30
0.0
 11
-87.52709056100002
 21
77.27
 31
0.0
  0
LINE
  5
25D9
330
25D3
100
AcDbEntity
  8
0
100
AcDbLine
 10
87.52709056099996
 20
77.27000000000001
 30
0.0
 11
92.527090561
 21
72.27000000000001
 31
0.0
  0
LINE
  5
25DA
330
25D3
100
AcDbEntity
  8
0
100
AcDbLine
 10
92.527090561
 20
72.27000000000001
 30
0.0
 11
92.52709056099996
 21
6.269999999999997
 31
0.0
  0
LINE
  5
25DB
330
25D3
100
AcDbEntity
  8
0
100
AcDbLine
 10
-92.527090561
 20
6.269999999999996
 30
0.0
 11
-92.527090561
 21
72.27
 31
0.0
  0
LINE
  5
25DC
330
25D3
100
AcDbEntity
  8
0
100
AcDbLine
 10
46.49999999999997
 20
77.27000000000001
 30
0.0
 11
87.52709056099996
 21
77.27000000000001
 31
0.0
  0
LINE
  5
25DD
330
25D3
100
AcDbEntity
  8
0
100
AcDbLine
 10
-46.50000000000002
 20
1.270000000000022
 30
0.0
 11
-87.527090561
 21
1.269999999999996
 31
0.0
  0
LINE
  5
25DE
330
25D3
100
AcDbEntity
  8
0
100
AcDbLine
 10
87.52709056099996
 20
1.269999999999996
 30
0.0
 11
46.49999999999997
 21
1.270000000000022
 31
0.0
  0
ARC
  5
25DF
330
25D3
100
AcDbEntity
  8
0
100
AcDbCircle
 10
46.49999999999997
 20
78.77000000000001
 30
0.0
 40
1.5
100
AcDbArc
 50
90.0
 51
270.0
  0
LINE
  5
25E0
330
25D3
100
AcDbEntity
  8
0
100
AcDbLine
 10
-87.52709056100002
 20
77.27
 30
0.0
 11
-46.50000000000002
 21
77.27
 31
0.0
  0
ARC
  5
25E1
330
25D3
100
AcDbEntity
  8
0
100
AcDbCircle
 10
-46.50000000000002
 20
78.76999999999999
 30
0.0
 40
1.5
100
AcDbArc
 50
270.0
 51
90.0
  0
LINE
  5
25E2
330
25D3
100
AcDbEntity
  8
0
100
AcDbLine
 10
51.50000000000019
 20
80.27000000000001
 30
0.0
 11
51.50000000000023
 21
85.27000000000001
 31
0.0
  0
LINE
  5
25E3
330
25D3
100
AcDbEntity
  8
0
100
AcDbLine
 10
51.50000000000023
 20
85.27000000000001
 30
0.0
 11
50.00000000000023
 21
85.27000000000001
 31
0.0
  0
LINE
  5
25E4
330
25D3
100
AcDbEntity
  8
0
100
AcDbLine
 10
50.00000000000023
 20
85.27000000000001
 30
0.0
 11
50.00000000000021
 21
80.27000000000001
 31
0.0
  0
LINE
  5
25E5
330
25D3
100
AcDbEntity
  8
0
100
AcDbLine
 10
50.00000000000021
 20
80.27000000000001
 30
0.0
 11
51.50000000000019
 21
80.27000000000001
 31
0.0
  0
LINE
  5
25E6
330
25D3
100
AcDbEntity
  8
0
100
AcDbLine
 10
50.00000000000023
 20
315.67
 30
0.0
 11
51.50000000000023
 21
315.67
 31
0.0
  0
LINE
  5
25E7
330
25D3
100
AcDbEntity
  8
0
100
AcDbLine
 10
51.50000000000023
 20
315.67
 30
0.0
 11
51.5000000000002
 21
320.67
 31
0.0
  0
LINE
  5
25E8
330
25D3
100
AcDbEntity
  8
0
100
AcDbLine
 10
-51.50000000000002
 20
85.27000000000001
 30
0.0
 11
-51.50000000000002
 21
80.27000000000001
 31
0.0
  0
LINE
  5
25E9
330
25D3
100
AcDbEntity
  8
0
100
AcDbLine
 10
-51.50000000000002
 20
80.27000000000001
 30
0.0
 11
-50.0
 21
80.27000000000001
 31
0.0
  0
LINE
  5
25EA
330
25D3
100
AcDbEntity
  8
0
100
AcDbLine
 10
-50.0
 20
80.27000000000001
 30
0.0
 11
-50.0
 21
85.27000000000001
 31
0.0
  0
LINE
  5
25EB
330
25D3
100
AcDbEntity
  8
0
100
AcDbLine
 10
-50.0
 20
85.27000000000001
 30
0.0
 11
-51.50000000000002
 21
85.27000000000001
 31
0.0
  0
LINE
  5
25EC
330
25D3
100
AcDbEntity
  8
0
100
AcDbLine
 10
-51.50000000000002
 20
320.67
 30
0.0
 11
-51.50000000000002
 21
315.67
 31
0.0
  0
LINE
  5
25ED
330
25D3
100
AcDbEntity
  8
0
100
AcDbLine
 10
-51.50000000000002
 20
315.67
 30
0.0
 11
-50.0
 21
315.67
 31
0.0
  0
LINE
  5
25EE
330
25D3
100
AcDbEntity
  8
0
100
AcDbLine
 10
51.5000000000002
 20
320.67
 30
0.0
 11
50.00000000000021
 21
320.67
 31
0.0
  0
LINE
  5
25EF
330
25D3
100
AcDbEntity
  8
0
100
AcDbLine
 10
50.00000000000021
 20
320.67
 30
0.0
 11
50.00000000000023
 21
315.67
 31
0.0
  0
LINE
  5
25F0
330
25D3
100
AcDbEntity
  8
0
100
AcDbLine
 10
-50.0
 20
315.67
 30
0.0
 11
-50.0
 21
320.67
 31
0.0
  0
LINE
  5
25F1
330
25D3
100
AcDbEntity
  8
0
100
AcDbLine
 10
-50.0
 20
320.67
 30
0.0
 11
-51.50000000000002
 21
320.67
 31
0.0
  0
LINE
  5
25F2
330
25D3
100
AcDbEntity
  8
0
100
AcDbLine
 10
51.49999999999997
 20
-28.42608254450011
 30
0.0
 11
51.49999999999999
 21
-21.35501473263468
 31
0.0
  0
LINE
  5
25F3
330
25D3
100
AcDbEntity
  8
0
100
AcDbLine
 10
51.49999999999999
 20
-21.35501473263468
 30
0.0
 11
50.0
 21
-21.35501473263467
 31
0.0
  0
LINE
  5
25F4
330
25D3
100
AcDbEntity
  8
0
100
AcDbLine
 10
50.0
 20
-21.35501473263467
 30
0.0
 11
50.0
 21
-28.42608254450011
 31
0.0
  0
LINE
  5
25F5
330
25D3
100
AcDbEntity
  8
0
100
AcDbLine
 10
50.0
 20
-28.42608254450011
 30
0.0
 11
51.49999999999997
 21
-28.42608254450011
 31
0.0
  0
LINE
  5
25F6
330
25D3
100
AcDbEntity
  8
0
100
AcDbLine
 10
-51.49999999999999
 20
-21.35501473263468
 30
0.0
 11
-51.49999999999997
 21
-28.42608254450011
 31
0.0
  0
LINE
  5
25F7
330
25D3
100
AcDbEntity
  8
0
100
AcDbLine
 10
-51.49999999999997
 20
-28.42608254450011
 30
0.0
 11
-50.0
 21
-28.42608254450011
 31
0.0
  0
LINE
  5
25F8
330
25D3
100
AcDbEntity
  8
0
100
AcDbLine
 10
-50.0
 20
-28.42608254450011
 30
0.0
 11
-50.0
 21
-21.35501473263467
 31
0.0
  0
LINE
  5
25F9
330
25D3
100
AcDbEntity
  8
0
100
AcDbLine
 10
-50.0
 20
-21.35501473263467
 30
0.0
 11
-51.49999999999999
 21
-21.35501473263468
 31
0.0
  0
LINE
  5
25FA
330
25D3
100
AcDbEntity
  8
0
100
AcDbLine
 10
51.50000000000023
 20
85.27000000000001
 30
0.0
 11
51.50000000000023
 21
315.67
 31
0.0
  0
LINE
  5
25FB
330
25D3
100
AcDbEntity
  8
0
100
AcDbLine
 10
50.00000000000023
 20
315.67
 30
0.0
 11
50.00000000000023
 21
85.27000000000001
 31
0.0
  0
LINE
  5
25FC
330
25D3
100
AcDbEntity
  8
0
100
AcDbLine
 10
-51.50000000000002
 20
315.67
 30
0.0
 11
-51.50000000000002
 21
85.27000000000001
 31
0.0
  0
LINE
  5
25FD
330
25D3
100
AcDbEntity
  8
0
100
AcDbLine
 10
-50.0
 20
315.67
 30
0.0
 11
-50.0
 21
85.27000000000001
 31
0.0
  0
LINE
  5
25FE
330
25D3
100
AcDbEntity
  8
0
100
AcDbLine
 10
46.49999999999997
 20
80.27000000000001
 30
0.0
 11
49.39999999999998
 21
80.27000000000001
 31
0.0
  0
LINE
  5
25FF
330
25D3
100
AcDbEntity
  8
0
100
AcDbLine
 10
-49.40000000000002
 20
80.27000000000001
 30
0.0
 11
-46.50000000000002
 21
80.26999999999999
 31
0.0
  0
LINE
  5
2600
330
25D3
100
AcDbEntity
  8
0
100
AcDbLine
 10
-49.40000000000002
 20
320.67
 30
0.0
 11
49.39999999999998
 21
320.67
 31
0.0
  0
LINE
  5
2601
330
25D3
100
AcDbEntity
  8
0
100
AcDbLine
 10
51.50000000000233
 20
-2.263131642256641
 30
0.0
 11
51.49999999999999
 21
-21.35501473263468
 31
0.0
  0
LINE
  5
2602
330
25D3
100
AcDbEntity
  8
0
100
AcDbLine
 10
50.00000000000193
 20
-2.263131642256641
 30
0.0
 11
50.0
 21
-21.35501473263467
 31
0.0
  0
ELLIPSE
  5
2603
330
25D3
100
AcDbEntity
  8
0
100
AcDbEllipse
 10
49.39999999999999
 20
-54.16476937947051
 30
0.0
 11
0.6000000000000089
 21
0.0000000000001113
 31
0.0
210
0.0
220
0.0
230
1.0
 40
0.7071067811865475
 41
4.712388980384544
 42
6.283185307179551
  0
ELLIPSE
  5
2604
330
25D3
100
AcDbEntity
  8
0
100
AcDbEllipse
 10
49.39999999999999
 20
-54.16476937947051
 30
0.0
 11
2.100000000000031
 21
0.0000000000002842
 31
0.0
210
0.0
220
0.0
230
1.0
 40
0.7071067811865435
 41
4.712388980384822
 42
6.283185307180016
  0
LINE
  5
2605
330
25D3
100
AcDbEntity
  8
0
100
AcDbLine
 10
51.50000000000233
 20
-2.263131642256641
 30
0.0
 11
50.00000000000193
 21
-2.263131642256641
 31
0.0
  0
ELLIPSE
  5
2606
330
25D3
100
AcDbEntity
  8
0
100
AcDbEllipse
 10
-46.50000000000002
 20
0.0236058844764815
 30
0.0
 11
-1.5
 21
0.0000000000001097
 31
0.0
210
0.0
220
0.0
230
1.0
 40
0.7071067811865479
 41
1.570796326795031
 42
2.705254581962062
  0
LINE
  5
2607
330
25D3
100
AcDbEntity
  8
0
100
AcDbLine
 10
-46.50000000000002
 20
-1.037054287303333
 30
0.0
 11
-48.79315533855966
 21
-1.037054287303333
 31
0.0
  0
LINE
  5
2608
330
25D3
100
AcDbEntity
  8
0
100
AcDbLine
 10
-48.79315533855966
 20
-1.037054287303333
 30
0.0
 11
-49.40000000000002
 21
-1.466158262545867
 31
0.0
  0
LINE
  5
2609
330
25D3
100
AcDbEntity
  8
0
100
AcDbLine
 10
49.39999999999998
 20
-1.466158262545871
 30
0.0
 11
48.79315533855963
 21
-1.037054287303338
 31
0.0
  0
LINE
  5
260A
330
25D3
100
AcDbEntity
  8
0
100
AcDbLine
 10
48.79315533855963
 20
-1.037054287303338
 30
0.0
 11
46.49999999999997
 21
-1.037054287303337
 31
0.0
  0
ELLIPSE
  5
260B
330
25D3
100
AcDbEntity
  8
0
100
AcDbEllipse
 10
46.49999999999997
 20
0.0236058844764815
 30
0.0
 11
-1.5
 21
0.0
 31
0.0
210
0.0
220
0.0
230
1.0
 40
0.7071067811865479
 41
0.4363380716279944
 42
1.570796326794896
  0
SPLINE
  5
260C
330
25D3
100
AcDbEntity
  8
0
100
AcDbSpline
210
0.0
220
0.0
230
1.0
 70
     8
 71
     3
 72
     8
 73
     4
 74
     0
 42
0.000000001
 43
0.0000000001
 40
-1.0
 40
-1.0
 40
-1.0
 40
-1.0
 40
0.0
 40
0.0
 40
0.0
 40
0.0
 10
45.14054197002045
 20
-0.42465400929288
 30
0.0
 10
45.0158647439039
 20
-0.3214850446752905
 30
0.0
 10
44.97251992073961
 20
-0.1594792109354454
 30
0.0
 10
45.01767776087191
 20
-0.0003899405809497
 30
0.0
  0
SPLINE
  5
260D
330
25D3
100
AcDbEntity
  8
0
100
AcDbSpline
210
0.0
220
0.0
230
1.0
 70
     8
 71
     3
 72
     8
 73
     4
 74
     0
 42
0.000000001
 43
0.0000000001
 40
-1.0
 40
-1.0
 40
-1.0
 40
-1.0
 40
0.0
 40
0.0
 40
0.0
 40
0.0
 10
-45.01767776087195
 20
-0.0003899405809502
 30
0.0
 10
-44.97251992074051
 20
-0.1594792109354393
 30
0.0
 10
-45.01586474390201
 20
-0.3214850446753012
 30
0.0
 10
-45.14054197002053
 20
-0.4246540092928797
 30
0.0
  0
LINE
  5
260E
330
25D3
100
AcDbEntity
  8
0
100
AcDbLine
 10
-50.0000000000017
 20
-2.263131642256627
 30
0.0
 11
-51.50000000000208
 21
-2.263131642256627
 31
0.0
  0
SPLINE
  5
260F
330
25D3
100
AcDbEntity
  8
0
100
AcDbSpline
210
0.0
220
0.0
230
1.0
 70
     8
 71
     3
 72
     8
 73
     4
 74
     0
 42
0.000000001
 43
0.0000000001
 40
-1.0
 40
-1.0
 40
-1.0
 40
-1.0
 40
0.0
 40
0.0
 40
0.0
 40
0.0
 10
-49.40000000000002
 20
-1.466158262545868
 30
0.0
 10
-49.714159265359
 20
-1.873237411765188
 30
0.0
 10
-50.00000000000003
 20
-2.078196639180529
 30
0.0
 10
-50.00000000000003
 20
-2.263131641492101
 30
0.0
  0
ARC
  5
2610
330
25D3
100
AcDbEntity
  8
0
100
AcDbCircle
 10
-46.50000000000002
 20
-0.229999999999892
 30
0.0
 40
1.5
100
AcDbArc
 50
8.80507525969732
 51
90.0
  0
SPLINE
  5
2611
330
25D3
100
AcDbEntity
  8
0
100
AcDbSpline
210
0.0
220
0.0
230
1.0
 70
     8
 71
     3
 72
     8
 73
     4
 74
     0
 42
0.000000001
 43
0.0000000001
 40
-1.0
 40
-1.0
 40
-1.0
 40
-1.0
 40
0.0
 40
0.0
 40
0.0
 40
0.0
 10
50.0
 20
-2.26313164149211
 30
0.0
 10
50.0
 20
-2.078196639180696
 30
0.0
 10
49.71415926535898
 20
-1.873237411764863
 30
0.0
 10
49.39999999999998
 20
-1.466158262545859
 30
0.0
  0
ARC
  5
2612
330
25D3
100
AcDbEntity
  8
0
100
AcDbCircle
 10
46.49999999999997
 20
-0.229999999999892
 30
0.0
 40
1.5
100
AcDbArc
 50
90.0
 51
171.1949247403027
  0
SPLINE
  5
2613
330
25D3
100
AcDbEntity
  8
0
100
AcDbSpline
210
0.0
220
0.0
230
1.0
 70
     8
 71
     3
 72
    16
 73
    12
 74
     0
 42
0.000000001
 43
0.0000000001
 40
0.0
 40
0.0
 40
0.0
 40
0.0
 40
0.0356537247223769
 40
0.0356537247223769
 40
0.070370495643736
 40
0.070370495643736
 40
0.1051345640101343
 40
0.1051345640101343
 40
0.1398962718674159
 40
0.1398962718674159
 40
0.1538885733138715
 40
0.1538885733138715
 40
0.1538885733138715
 40
0.1538885733138715
 10
-50.4995000000003
 20
-2.263131641492111
 30
0.0
 10
-50.49949999999995
 20
-2.263131641490559
 30
0.0
 10
-50.47955867540363
 20
-2.263059951014901
 30
0.0
 10
-50.40583172170369
 20
-2.250836451213862
 30
0.0
 10
-50.35213458028398
 20
-2.238741830464715
 30
0.0
 10
-50.22293730430104
 20
-2.194102190387461
 30
0.0
 10
-50.14591985434669
 20
-2.160888677228374
 30
0.0
 10
-49.98574064091345
 20
-2.069479202583443
 30
0.0
 10
-49.90073655258673
 20
-2.010107098248842
 30
0.0
 10
-49.78901418348385
 20
-1.909831885144799
 30
0.0
 10
-49.7575843799196
 20
-1.878943669870515
 30
0.0
 10
-49.72742155524378
 20
-1.846191951394051
 30
0.0
  0
SPLINE
  5
2614
330
25D3
100
AcDbEntity
  8
0
100
AcDbSpline
210
0.0
220
0.0
230
1.0
 70
     8
 71
     3
 72
    16
 73
    12
 74
     0
 42
0.000000001
 43
0.0000000001
 40
0.0
 40
0.0
 40
0.0
 40
0.0
 40
0.0356266149374593
 40
0.0356266149374593
 40
0.0703447701852295
 40
0.0703447701852295
 40
0.1051087695033488
 40
0.1051087695033488
 40
0.1398704808090625
 40
0.1398704808090625
 40
0.1538888647029765
 40
0.1538888647029765
 40
0.1538888647029765
 40
0.1538888647029765
 10
49.72742155524378
 20
-1.846191951394111
 30
0.0
 10
49.80422088266426
 20
-1.929583012340505
 30
0.0
 10
49.88999615132202
 20
-2.001172959749881
 30
0.0
 10
50.0556404664545
 20
-2.113266523283917
 30
0.0
 10
50.13750261652721
 20
-2.155953002294237
 30
0.0
 10
50.28182181893697
 20
-2.217016703000064
 30
0.0
 10
50.34591305091463
 20
-2.236189491817131
 30
0.0
 10
50.44238223266799
 20
-2.258395304189085
 30
0.0
 10
50.47587215058078
 20
-2.261811174868074
 30
0.0
 10
50.49650501536541
 20
-2.263130971916327
 30
0.0
 10
50.49949999999992
 20
-2.26313164149151
 30
0.0
 10
50.49949999999983
 20
-2.26313164149212
 30
0.0
  0
LINE
  5
2615
330
25D3
100
AcDbEntity
  8
0
100
AcDbLine
 10
51.49999999999999
 20
-54.16476937947052
 30
0.0
 11
51.49999999999997
 21
-28.42608254450011
 31
0.0
  0
LINE
  5
2616
330
25D3
100
AcDbEntity
  8
0
100
AcDbLine
 10
-51.49999999999997
 20
-28.42608254450011
 30
0.0
 11
-51.50000000000002
 21
-54.16476937947052
 31
0.0
  0
LINE
  5
2617
330
25D3
100
AcDbEntity
  8
0
100
AcDbLine
 10
-50.0
 20
-28.42608254450011
 30
0.0
 11
-50.0
 21
-54.16476937947052
 31
0.0
  0
LINE
  5
2618
330
25D3
100
AcDbEntity
  8
0
100
AcDbLine
 10
-49.40000000000001
 20
-54.58903344818243
 30
0.0
 11
49.39999999999999
 21
-54.58903344818243
 31
0.0
  0
LINE
  5
2619
330
25D3
100
AcDbEntity
  8
0
100
AcDbLine
 10
50.0
 20
-54.16476937947052
 30
0.0
 11
50.0
 21
-28.42608254450011
 31
0.0
  0
LINE
  5
261A
330
25D3
100
AcDbEntity
  8
0
100
AcDbLine
 10
-49.40000000000001
 20
-55.64969361996226
 30
0.0
 11
49.39999999999999
 21
-55.64969361996226
 31
0.0
  0
LINE
  5
261B
330
25D3
100
AcDbEntity
  8
0
100
AcDbLine
 10
-51.50000000000208
 20
-2.263131642256627
 30
0.0
 11
-51.49999999999999
 21
-21.35501473263468
 31
0.0
  0
LINE
  5
261C
330
25D3
100
AcDbEntity
  8
0
100
AcDbLine
 10
-50.0000000000017
 20
-2.263131642256627
 30
0.0
 11
-50.0
 21
-21.35501473263467
 31
0.0
  0
CIRCLE
  5
261D
330
25D3
100
AcDbEntity
  8
0
100
AcDbCircle
 10
39.99999999999998
 20
309.7700000000001
 30
0.0
 40
2.5
  0
CIRCLE
  5
261E
330
25D3
100
AcDbEntity
  8
0
100
AcDbCircle
 10
39.99999999999998
 20
269.7700000000001
 30
0.0
 40
2.5
  0
CIRCLE
  5
261F
330
25D3
100
AcDbEntity
  8
0
100
AcDbCircle
 10
39.99999999999998
 20
229.7700000000001
 30
0.0
 40
2.5
  0
CIRCLE
  5
2620
330
25D3
100
AcDbEntity
  8
0
100
AcDbCircle
 10
39.99999999999998
 20
189.77
 30
0.0
 40
2.5
  0
CIRCLE
  5
2621
330
25D3
100
AcDbEntity
  8
0
100
AcDbCircle
 10
39.99999999999998
 20
149.77
 30
0.0
 40
2.5
  0
CIRCLE
  5
2622
330
25D3
100
AcDbEntity
  8
0
100
AcDbCircle
 10
39.99999999999998
 20
109.7700000000001
 30
0.0
 40
2.5
  0
CIRCLE
  5
2623
330
25D3
100
AcDbEntity
  8
0
100
AcDbCircle
 10
39.99999999999998
 20
69.77000000000007
 30
0.0
 40
2.5
  0
CIRCLE
  5
2624
330
25D3
100
AcDbEntity
  8
0
100
AcDbCircle
 10
39.99999999999998
 20
29.77000000000007
 30
0.0
 40
2.5
  0
CIRCLE
  5
2625
330
25D3
100
AcDbEntity
  8
0
100
AcDbCircle
 10
29.99999999999997
 20
289.7700000000001
 30
0.0
 40
2.5
  0
CIRCLE
  5
2626
330
25D3
100
AcDbEntity
  8
0
100
AcDbCircle
 10
29.99999999999997
 20
249.7700000000001
 30
0.0
 40
2.5
  0
CIRCLE
  5
2627
330
25D3
100
AcDbEntity
  8
0
100
AcDbCircle
 10
29.99999999999997
 20
209.7700000000001
 30
0.0
 40
2.5
  0
CIRCLE
  5
2628
330
25D3
100
AcDbEntity
  8
0
100
AcDbCircle
 10
29.99999999999997
 20
169.77
 30
0.0
 40
2.5
  0
CIRCLE
  5
2629
330
25D3
100
AcDbEntity
  8
0
100
AcDbCircle
 10
29.99999999999997
 20
129.77
 30
0.0
 40
2.5
  0
CIRCLE
  5
262A
330
25D3
100
AcDbEntity
  8
0
100
AcDbCircle
 10
29.99999999999997
 20
89.77000000000007
 30
0.0
 40
2.5
  0
CIRCLE
  5
262B
330
25D3
100
AcDbEntity
  8
0
100
AcDbCircle
 10
29.99999999999997
 20
49.77000000000007
 30
0.0
 40
2.5
  0
CIRCLE
  5
262C
330
25D3
100
AcDbEntity
  8
0
100
AcDbCircle
 10
29.99999999999997
 20
9.770000000000063
 30
0.0
 40
2.5
  0
CIRCLE
  5
262D
330
25D3
100
AcDbEntity
  8
0
100
AcDbCircle
 10
-30.00000000000002
 20
309.7700000000001
 30
0.0
 40
2.5
  0
CIRCLE
  5
262E
330
25D3
100
AcDbEntity
  8
0
100
AcDbCircle
 10
-30.00000000000002
 20
269.7700000000001
 30
0.0
 40
2.5
  0
CIRCLE
  5
262F
330
25D3
100
AcDbEntity
  8
0
100
AcDbCircle
 10
-30.00000000000002
 20
229.77
 30
0.0
 40
2.5
  0
CIRCLE
  5
2630
330
25D3
100
AcDbEntity
  8
0
100
AcDbCircle
 10
-30.00000000000002
 20
189.77
 30
0.0
 40
2.5
  0
CIRCLE
  5
2631
330
25D3
100
AcDbEntity
  8
0
100
AcDbCircle
 10
-30.00000000000002
 20
149.77
 30
0.0
 40
2.5
  0
CIRCLE
  5
2632
330
25D3
100
AcDbEntity
  8
0
100
AcDbCircle
 10
-30.00000000000002
 20
109.77
 30
0.0
 40
2.5
  0
CIRCLE
  5
2633
330
25D3
100
AcDbEntity
  8
0
100
AcDbCircle
 10
-30.00000000000002
 20
69.77000000000003
 30
0.0
 40
2.5
  0
CIRCLE
  5
2634
330
25D3
100
AcDbEntity
  8
0
100
AcDbCircle
 10
-30.00000000000002
 20
29.77000000000004
 30
0.0
 40
2.5
  0
CIRCLE
  5
2635
330
25D3
100
AcDbEntity
  8
0
100
AcDbCircle
 10
-40.00000000000002
 20
289.77
 30
0.0
 40
2.5
  0
CIRCLE
  5
2636
330
25D3
100
AcDbEntity
  8
0
100
AcDbCircle
 10
-40.00000000000002
 20
249.77
 30
0.0
 40
2.5
  0
CIRCLE
  5
2637
330
25D3
100
AcDbEntity
  8
0
100
AcDbCircle
 10
-40.00000000000002
 20
209.7700000000001
 30
0.0
 40
2.5
  0
CIRCLE
  5
2638
330
25D3
100
AcDbEntity
  8
0
100
AcDbCircle
 10
-40.00000000000002
 20
169.77
 30
0.0
 40
2.5
  0
CIRCLE
  5
2639
330
25D3
100
AcDbEntity
  8
0
100
AcDbCircle
 10
-40.00000000000002
 20
129.77
 30
0.0
 40
2.5
  0
CIRCLE
  5
263A
330
25D3
100
AcDbEntity
  8
0
100
AcDbCircle
 10
-40.00000000000002
 20
89.77000000000002
 30
0.0
 40
2.5
  0
CIRCLE
  5
263B
330
25D3
100
AcDbEntity
  8
0
100
AcDbCircle
 10
-40.00000000000002
 20
49.77000000000002
 30
0.0
 40
2.5
  0
CIRCLE
  5
263C
330
25D3
100
AcDbEntity
  8
0
100
AcDbCircle
 10
-40.00000000000002
 20
9.770000000000019
 30
0.0
 40
2.5
  0
CIRCLE
  5
263D
330
25D3
100
AcDbEntity
  8
0
100
AcDbCircle
 10
-63.02709056100001
 20
69.77000000000001
 30
0.0
 40
2.5
  0
CIRCLE
  5
263E
330
25D3
100
AcDbEntity
  8
0
100
AcDbCircle
 10
57.02709056099995
 20
69.77000000000001
 30
0.0
 40
2.5
  0
CIRCLE
  5
263F
330
25D3
100
AcDbEntity
  8
0
100
AcDbCircle
 10
-57.02709056099999
 20
29.77000000000002
 30
0.0
 40
2.5
  0
CIRCLE
  5
2640
330
25D3
100
AcDbEntity
  8
0
100
AcDbCircle
 10
63.02709056099996
 20
29.77000000000002
 30
0.0
 40
2.5
  0
ELLIPSE
  5
2641
330
25D3
100
AcDbEntity
  8
0
100
AcDbEllipse
 10
-17.50000000000005
 20
0.0236058844764815
 30
0.0
 11
-2.5
 21
0.0
 31
0.0
210
0.0
220
0.0
230
1.0
 40
0.7071067811865479
 41
0.2563733270184931
 42
1.570796326794896
  0
LINE
  5
2642
330
25D3
100
AcDbEntity
  8
0
100
AcDbLine
 10
-12.50000000000001
 20
-1.744161068489892
 30
0.0
 11
-17.50000000000005
 21
-1.744161068489892
 31
0.0
  0
ELLIPSE
  5
2643
330
25D3
100
AcDbEntity
  8
0
100
AcDbEllipse
 10
-12.50000000000001
 20
0.0236058844764815
 30
0.0
 11
2.5
 21
-0.0000000000000008
 31
0.0
210
0.0
220
0.0
230
1.0
 40
0.7071067811865479
 41
4.712388980384689
 42
6.026811980161093
  0
SPLINE
  5
2644
330
25D3
100
AcDbEntity
  8
0
100
AcDbSpline
210
0.0
220
0.0
230
1.0
 70
     8
 71
     3
 72
     8
 73
     4
 74
     0
 42
0.000000001
 43
0.0000000001
 40
-1.0
 40
-1.0
 40
-1.0
 40
-1.0
 40
0.0
 40
0.0
 40
0.0
 40
0.0
 10
-19.91828991960765
 20
-0.4246540092928794
 30
0.0
 10
-19.99189972302045
 20
-0.3163012038325077
 30
0.0
 10
-20.01609483643948
 20
-0.1581319339738588
 30
0.0
 10
-19.98943351399748
 20
-0.0003899405809503
 30
0.0
  0
SPLINE
  5
2645
330
25D3
100
AcDbEntity
  8
0
100
AcDbSpline
210
0.0
220
0.0
230
1.0
 70
     8
 71
     3
 72
     8
 73
     4
 74
     0
 42
0.000000001
 43
0.0000000001
 40
-1.0
 40
-1.0
 40
-1.0
 40
-1.0
 40
0.0
 40
0.0
 40
0.0
 40
0.0
 10
-10.01056648600258
 20
-0.0003899405809504
 30
0.0
 10
-9.983905163560523
 20
-0.1581319339738657
 30
0.0
 10
-10.00810027697987
 20
-0.3163012038325164
 30
0.0
 10
-10.08171008039241
 20
-0.4246540092928793
 30
0.0
  0
ARC
  5
2646
330
25D3
100
AcDbEntity
  8
0
100
AcDbCircle
 10
-12.50000000000001
 20
-0.229999999999892
 30
0.0
 40
2.5
100
AcDbArc
 50
5.269701326162068
 51
90.0
  0
LINE
  5
2647
330
25D3
100
AcDbEntity
  8
0
100
AcDbLine
 10
-17.50000000000005
 20
2.270000000000072
 30
0.0
 11
-12.50000000000001
 21
2.270000000000107
 31
0.0
  0
ARC
  5
2648
330
25D3
100
AcDbEntity
  8
0
100
AcDbCircle
 10
-17.50000000000005
 20
-0.229999999999892
 30
0.0
 40
2.5
100
AcDbArc
 50
90.0
 51
174.7302986738379
  0
ELLIPSE
  5
2649
330
25D3
100
AcDbEntity
  8
0
100
AcDbEllipse
 10
12.49999999999998
 20
0.0236058844764815
 30
0.0
 11
-2.5
 21
0.0
 31
0.0
210
0.0
220
0.0
230
1.0
 40
0.7071067811865479
 41
0.2563733270184931
 42
1.570796326794896
  0
LINE
  5
264A
330
25D3
100
AcDbEntity
  8
0
100
AcDbLine
 10
17.50000000000001
 20
-1.744161068489894
 30
0.0
 11
12.49999999999998
 21
-1.744161068489893
 31
0.0
  0
ELLIPSE
  5
264B
330
25D3
100
AcDbEntity
  8
0
100
AcDbEllipse
 10
17.50000000000001
 20
0.0236058844764817
 30
0.0
 11
2.5
 21
-0.0000000000000005
 31
0.0
210
0.0
220
0.0
230
1.0
 40
0.7071067811865479
 41
4.712388980384689
 42
6.026811980161093
  0
SPLINE
  5
264C
330
25D3
100
AcDbEntity
  8
0
100
AcDbSpline
210
0.0
220
0.0
230
1.0
 70
     8
 71
     3
 72
     8
 73
     4
 74
     0
 42
0.000000001
 43
0.0000000001
 40
-1.0
 40
-1.0
 40
-1.0
 40
-1.0
 40
0.0
 40
0.0
 40
0.0
 40
0.0
 10
10.08171008039238
 20
-0.4246540092928796
 30
0.0
 10
10.00810027698007
 20
-0.3163012038325108
 30
0.0
 10
9.983905163560971
 20
-0.1581319339738706
 30
0.0
 10
10.01056648600253
 20
-0.0003899405809503
 30
0.0
  0
SPLINE
  5
264D
330
25D3
100
AcDbEntity
  8
0
100
AcDbSpline
210
0.0
220
0.0
230
1.0
 70
     8
 71
     3
 72
     8
 73
     4
 74
     0
 42
0.000000001
 43
0.0000000001
 40
-1.0
 40
-1.0
 40
-1.0
 40
-1.0
 40
0.0
 40
0.0
 40
0.0
 40
0.0
 10
19.98943351399746
 20
-0.0003899405809503
 30
0.0
 10
20.01609483643893
 20
-0.158131933973855
 30
0.0
 10
19.99189972301984
 20
-0.3163012038325037
 30
0.0
 10
19.91828991960764
 20
-0.4246540092928793
 30
0.0
  0
ARC
  5
264E
330
25D3
100
AcDbEntity
  8
0
100
AcDbCircle
 10
17.50000000000001
 20
-0.229999999999892
 30
0.0
 40
2.5
100
AcDbArc
 50
5.269701326162068
 51
90.0
  0
LINE
  5
264F
330
25D3
100
AcDbEntity
  8
0
100
AcDbLine
 10
12.49999999999998
 20
2.270000000000107
 30
0.0
 11
17.50000000000001
 21
2.270000000000072
 31
0.0
  0
ARC
  5
2650
330
25D3
100
AcDbEntity
  8
0
100
AcDbCircle
 10
12.49999999999998
 20
-0.229999999999892
 30
0.0
 40
2.5
100
AcDbArc
 50
90.0
 51
174.7302986738379
  0
ELLIPSE
  5
2651
330
25D3
100
AcDbEntity
  8
0
100
AcDbEllipse
 10
-32.50000000000002
 20
0.0236058844764817
 30
0.0
 11
2.499999999999999
 21
-0.0000000000000006
 31
0.0
210
0.0
220
0.0
230
1.0
 40
0.7071067811865479
 41
3.397965980608285
 42
6.026811980161093
  0
ELLIPSE
  5
2652
330
25D3
100
AcDbEntity
  8
0
100
AcDbEllipse
 10
32.5
 20
0.0236058844764817
 30
0.0
 11
2.5
 21
-0.0000000000000007
 31
0.0
210
0.0
220
0.0
230
1.0
 40
0.7071067811865478
 41
3.397965980608285
 42
6.026811980161093
  0
SPLINE
  5
2653
330
25D3
100
AcDbEntity
  8
0
100
AcDbSpline
210
0.0
220
0.0
230
1.0
 70
     8
 71
     3
 72
     8
 73
     4
 74
     0
 42
0.000000001
 43
0.0000000001
 40
-1.0
 40
-1.0
 40
-1.0
 40
-1.0
 40
0.0
 40
0.0
 40
0.0
 40
0.0
 10
30.08171008039241
 20
-0.4246540092928797
 30
0.0
 10
30.00810027697883
 20
-0.3163012038324876
 30
0.0
 10
29.98390516355922
 20
-0.1581319339738718
 30
0.0
 10
30.0105664860026
 20
-0.0003899405809504
 30
0.0
  0
SPLINE
  5
2654
330
25D3
100
AcDbEntity
  8
0
100
AcDbSpline
210
0.0
220
0.0
230
1.0
 70
     8
 71
     3
 72
     8
 73
     4
 74
     0
 42
0.000000001
 43
0.0000000001
 40
-1.0
 40
-1.0
 40
-1.0
 40
-1.0
 40
0.0
 40
0.0
 40
0.0
 40
0.0
 10
-30.01056648600259
 20
-0.0003899405809503
 30
0.0
 10
-29.9839051635602
 20
-0.15813193397387
 30
0.0
 10
-30.00810027698026
 20
-0.3163012038324567
 30
0.0
 10
-30.08171008039239
 20
-0.4246540092928792
 30
0.0
  0
SPLINE
  5
2655
330
25D3
100
AcDbEntity
  8
0
100
AcDbSpline
210
0.0
220
0.0
230
1.0
 70
     8
 71
     3
 72
     8
 73
     4
 74
     0
 42
0.000000001
 43
0.0000000001
 40
-1.0
 40
-1.0
 40
-1.0
 40
-1.0
 40
0.0
 40
0.0
 40
0.0
 40
0.0
 10
-34.91828991960764
 20
-0.4246540092928796
 30
0.0
 10
-34.99189972301991
 20
-0.3163012038324831
 30
0.0
 10
-35.01609483643977
 20
-0.1581319339738785
 30
0.0
 10
-34.98943351399745
 20
-0.0003899405809506
 30
0.0
  0
ARC
  5
2656
330
25D3
100
AcDbEntity
  8
0
100
AcDbCircle
 10
-32.50000000000002
 20
-0.229999999999892
 30
0.0
 40
2.499999999999999
100
AcDbArc
 50
5.269701326162068
 51
174.7302986738379
  0
SPLINE
  5
2657
330
25D3
100
AcDbEntity
  8
0
100
AcDbSpline
210
0.0
220
0.0
230
1.0
 70
     8
 71
     3
 72
     8
 73
     4
 74
     0
 42
0.000000001
 43
0.0000000001
 40
-1.0
 40
-1.0
 40
-1.0
 40
-1.0
 40
0.0
 40
0.0
 40
0.0
 40
0.0
 10
34.98943351399743
 20
-0.0003899405809503
 30
0.0
 10
35.01609483643974
 20
-0.1581319339738687
 30
0.0
 10
34.99189972302104
 20
-0.3163012038324611
 30
0.0
 10
34.91828991960759
 20
-0.4246540092928792
 30
0.0
  0
ARC
  5
2658
330
25D3
100
AcDbEntity
  8
0
100
AcDbCircle
 10
32.5
 20
-0.229999999999892
 30
0.0
 40
2.5
100
AcDbArc
 50
5.269701326162068
 51
174.7302986738379
  0
ELLIPSE
  5
2659
330
25D3
100
AcDbEntity
  8
0
100
AcDbEllipse
 10
-49.40000000000001
 20
-54.16476937947051
 30
0.0
 11
-2.100000000000031
 21
0.0000000000000056
 31
0.0
210
0.0
220
0.0
230
1.0
 40
0.7071067811864883
 41
0.0
 42
1.570796326794898
  0
ELLIPSE
  5
265A
330
25D3
100
AcDbEntity
  8
0
100
AcDbEllipse
 10
-49.40000000000001
 20
-54.16476937947051
 30
0.0
 11
-0.6000000000000087
 21
0.0
 31
0.0
210
0.0
220
0.0
230
1.0
 40
0.7071067811865506
 41
0.0
 42
1.570796326794882
  0
LINE
  5
265B
330
25D3
100
AcDbEntity
  8
0
100
AcDbLine
 10
49.39999999999998
 20
320.67
 30
0.0
 11
50.0
 21
320.67
 31
0.0
  0
LINE
  5
265C
330
25D3
100
AcDbEntity
  8
0
100
AcDbLine
 10
49.39999999999998
 20
80.27000000000001
 30
0.0
 11
50.0
 21
80.27000000000001
 31
0.0
  0
LINE
  5
265D
330
25D3
100
AcDbEntity
  8
0
100
AcDbLine
 10
-50.00000000000001
 20
320.67
 30
0.0
 11
-49.40000000000002
 21
320.67
 31
0.0
  0
LINE
  5
265E
330
25D3
100
AcDbEntity
  8
0
100
AcDbLine
 10
-50.00000000000001
 20
80.27000000000001
 30
0.0
 11
-49.40000000000002
 21
80.27000000000001
 31
0.0
  0
ENDBLK
  5
25D5
330
25D3
100
AcDbEntity
  8
0
100
AcDbBlockEnd
  0
BLOCK
  5
2660
330
265F
100
AcDbEntity
  8
0
100
AcDbBlockBegin
  2
SPR100_320-Left
 70
     0
 10
0.0
 20
0.0
 30
0.0
  3
SPR100_320-Left
  1

  0
LINE
  5
2662
330
265F
100
AcDbEntity
  8
0
100
AcDbLine
 10
0.0
 20
-0.0003899405809492
 30
0.0
 11
0.0
 21
1.270000000000108
 31
0.0
  0
LINE
  5
2663
330
265F
100
AcDbEntity
  8
0
100
AcDbLine
 10
62.91118318265855
 20
-2.263131642256627
 30
0.0
 11
4.362741700911154
 21
-2.263131641492132
 31
0.0
  0
LINE
  5
2664
330
265F
100
AcDbEntity
  8
0
100
AcDbLine
 10
1.675735931288091
 20
-0.4246540092928772
 30
0.0
 11
2.288136209298554
 21
-1.03705428730334
 31
0.0
  0
LINE
  5
2665
330
265F
100
AcDbEntity
  8
0
100
AcDbLine
 10
2.288136209298541
 20
-1.037054287303333
 30
0.0
 11
2.717240184541074
 21
-1.466158262545867
 31
0.0
  0
SPLINE
  5
2666
330
265F
100
AcDbEntity
  8
0
100
AcDbSpline
210
0.0
220
0.0
230
1.0
 70
     8
 71
     3
 72
     8
 73
     4
 74
     0
 42
0.000000001
 43
0.0000000001
 40
0.0
 40
0.0
 40
0.0
 40
0.0
 40
1.0
 40
1.0
 40
1.0
 40
1.0
 10
0.6150757595082731
 20
-1.485314181072701
 30
0.0
 10
0.2539843833467481
 20
-1.124222804911177
 30
0.0
 10
0.0000000000000214
 20
-0.5572023868216608
 30
0.0
 10
0.0000000000000218
 20
-0.0003899405809492
 30
0.0
  0
SPLINE
  5
2667
330
265F
100
AcDbEntity
  8
0
100
AcDbSpline
210
0.0
220
0.0
230
1.0
 70
     8
 71
     3
 72
     8
 73
     4
 74
     0
 42
0.000000001
 43
0.0000000001
 40
-1.0
 40
-1.0
 40
-1.0
 40
-1.0
 40
0.0
 40
0.0
 40
0.0
 40
0.0
 10
1.500000000000021
 20
-0.0003899405809502
 30
0.0
 10
1.500000000000021
 20
-0.1594792109354393
 30
0.0
 10
1.572566966670515
 20
-0.3214850446753012
 30
0.0
 10
1.675735931288093
 20
-0.4246540092928797
 30
0.0
  0
SPLINE
  5
2668
330
265F
100
AcDbEntity
  8
0
100
AcDbSpline
210
0.0
220
0.0
230
1.0
 70
     8
 71
     3
 72
     8
 73
     4
 74
     0
 42
0.000000001
 43
0.0000000001
 40
-1.0
 40
-1.0
 40
-1.0
 40
-1.0
 40
0.0
 40
0.0
 40
0.0
 40
0.0
 10
2.717240184541093
 20
-1.466158262545868
 30
0.0
 10
3.124319333760413
 20
-1.873237411765188
 30
0.0
 10
3.733518404783751
 20
-2.078196639180529
 30
0.0
 10
4.362741700911174
 20
-2.263131641492101
 30
0.0
  0
LINE
  5
2669
330
265F
100
AcDbEntity
  8
0
100
AcDbLine
 10
2.717240184541074
 20
-1.466158262545867
 30
0.0
 11
2.364040347338555
 21
-1.819358099748387
 31
0.0
  0
LINE
  5
266A
330
265F
100
AcDbEntity
  8
0
100
AcDbLine
 10
2.364040347338555
 20
-1.819358099748387
 30
0.0
 11
1.656580012761253
 21
-2.526818434325688
 31
0.0
  0
SPLINE
  5
266B
330
265F
100
AcDbEntity
  8
0
100
AcDbSpline
210
0.0
220
0.0
230
1.0
 70
     8
 71
     3
 72
     8
 73
     4
 74
     0
 42
0.000000001
 43
0.0000000001
 40
0.0
 40
0.0
 40
0.0
 40
0.0
 40
1.0
 40
1.0
 40
1.0
 40
1.0
 10
4.362741700911138
 20
-2.263131641492137
 30
0.0
 10
3.178158037513914
 20
-2.633557006450366
 30
0.0
 10
2.063659161980591
 20
-2.933897583545009
 30
0.0
 10
1.656580012761271
 20
-2.526818434325689
 30
0.0
  0
LINE
  5
266C
330
265F
100
AcDbEntity
  8
0
100
AcDbLine
 10
1.656580012761253
 20
-2.526818434325688
 30
0.0
 11
1.227476037518721
 21
-2.097714459083153
 31
0.0
  0
LINE
  5
266D
330
265F
100
AcDbEntity
  8
0
100
AcDbLine
 10
2.288136209298541
 20
-1.037054287303333
 30
0.0
 11
1.227476037518721
 21
-2.097714459083153
 31
0.0
  0
LINE
  5
266E
330
265F
100
AcDbEntity
  8
0
100
AcDbLine
 10
1.227476037518744
 20
-2.097714459083149
 30
0.0
 11
0.6150757595082834
 21
-1.485314181072687
 31
0.0
  0
LINE
  5
266F
330
265F
100
AcDbEntity
  8
0
100
AcDbLine
 10
1.675735931288093
 20
-0.4246540092928796
 30
0.0
 11
1.32253609280824
 21
-0.7778538477727332
 31
0.0
  0
LINE
  5
2670
330
265F
100
AcDbEntity
  8
0
100
AcDbLine
 10
1.32253609280824
 20
-0.7778538477727332
 30
0.0
 11
0.6150757595082722
 21
-1.485314181072701
 31
0.0
  0
LINE
  5
2671
330
265F
100
AcDbEntity
  8
0
100
AcDbLine
 10
1.500000000000015
 20
-0.0003899405809504
 30
0.0
 11
1.000499995450326
 21
-0.0003899405809504
 31
0.0
  0
LINE
  5
2672
330
265F
100
AcDbEntity
  8
0
100
AcDbLine
 10
1.000499995450326
 20
-0.0003899405809504
 30
0.0
 11
0.0
 21
-0.0003899405809504
 31
0.0
  0
LINE
  5
2673
330
265F
100
AcDbEntity
  8
0
100
AcDbLine
 10
1.500000000000013
 20
1.270000000000108
 30
0.0
 11
1.500000000000013
 21
-0.0003899405809499
 31
0.0
  0
LINE
  5
2674
330
265F
100
AcDbEntity
  8
0
100
AcDbLine
 10
0.0
 20
6.269999999999996
 30
0.0
 11
0.0
 21
1.269999999999996
 31
0.0
  0
LINE
  5
2675
330
265F
100
AcDbEntity
  8
0
100
AcDbLine
 10
0.0
 20
77.27
 30
0.0
 11
0.0
 21
72.27
 31
0.0
  0
LINE
  5
2676
330
265F
100
AcDbEntity
  8
0
100
AcDbLine
 10
1.500000000000024
 20
1.269999999999996
 30
0.0
 11
1.500000000000025
 21
6.269999999999996
 31
0.0
  0
LINE
  5
2677
330
265F
100
AcDbEntity
  8
0
100
AcDbLine
 10
1.500000000000025
 20
6.269999999999996
 30
0.0
 11
0.0
 21
6.269999999999996
 31
0.0
  0
LINE
  5
2678
330
265F
100
AcDbEntity
  8
0
100
AcDbLine
 10
0.0
 20
1.269999999999996
 30
0.0
 11
1.500000000000024
 21
1.269999999999996
 31
0.0
  0
LINE
  5
2679
330
265F
100
AcDbEntity
  8
0
100
AcDbLine
 10
0.0
 20
72.27
 30
0.0
 11
1.500000000000025
 21
72.27
 31
0.0
  0
LINE
  5
267A
330
265F
100
AcDbEntity
  8
0
100
AcDbLine
 10
1.500000000000025
 20
72.27
 30
0.0
 11
1.500000000000024
 21
77.27
 31
0.0
  0
LINE
  5
267B
330
265F
100
AcDbEntity
  8
0
100
AcDbLine
 10
1.500000000000024
 20
77.27
 30
0.0
 11
0.0
 21
77.27
 31
0.0
  0
LINE
  5
267C
330
265F
100
AcDbEntity
  8
0
100
AcDbLine
 10
0.0
 20
6.269999999999996
 30
0.0
 11
0.0
 21
72.27
 31
0.0
  0
LINE
  5
267D
330
265F
100
AcDbEntity
  8
0
100
AcDbLine
 10
0.0
 20
77.27
 30
0.0
 11
0.0
 21
80.26999999999999
 31
0.0
  0
LINE
  5
267E
330
265F
100
AcDbEntity
  8
0
100
AcDbLine
 10
1.500000000000025
 20
6.269999999999996
 30
0.0
 11
1.500000000000025
 21
72.27
 31
0.0
  0
LINE
  5
267F
330
265F
100
AcDbEntity
  8
0
100
AcDbLine
 10
1.500000000000013
 20
77.27
 30
0.0
 11
1.500000000000013
 21
80.26999999999999
 31
0.0
  0
LINE
  5
2680
330
265F
100
AcDbEntity
  8
0
100
AcDbLine
 10
0.0
 20
80.27000000000001
 30
0.0
 11
0.0
 21
320.67
 31
0.0
  0
LINE
  5
2681
330
265F
100
AcDbEntity
  8
0
100
AcDbLine
 10
2.100000000000011
 20
320.67
 30
0.0
 11
0.0
 21
320.67
 31
0.0
  0
LINE
  5
2682
330
265F
100
AcDbEntity
  8
0
100
AcDbLine
 10
0.0
 20
80.27000000000001
 30
0.0
 11
2.100000000000002
 21
80.27000000000001
 31
0.0
  0
LINE
  5
2683
330
265F
100
AcDbEntity
  8
0
100
AcDbLine
 10
43.50000000000001
 20
85.27000000000001
 30
0.0
 11
38.50000000000001
 21
80.27000000000001
 31
0.0
  0
LINE
  5
2684
330
265F
100
AcDbEntity
  8
0
100
AcDbLine
 10
38.50000000000002
 20
320.67
 30
0.0
 11
43.50000000000001
 21
315.67
 31
0.0
  0
LINE
  5
2685
330
265F
100
AcDbEntity
  8
0
100
AcDbLine
 10
82.00306627385998
 20
-21.35501473263468
 30
0.0
 11
82.00306627385996
 21
-28.42608254450011
 31
0.0
  0
CIRCLE
  5
2686
330
265F
100
AcDbEntity
  8
0
100
AcDbCircle
 10
35.50000000000002
 20
307.77
 30
0.0
 40
2.5
  0
CIRCLE
  5
2687
330
265F
100
AcDbEntity
  8
0
100
AcDbCircle
 10
35.50000000000002
 20
287.77
 30
0.0
 40
2.5
  0
CIRCLE
  5
2688
330
265F
100
AcDbEntity
  8
0
100
AcDbCircle
 10
35.50000000000002
 20
267.77
 30
0.0
 40
2.5
  0
CIRCLE
  5
2689
330
265F
100
AcDbEntity
  8
0
100
AcDbCircle
 10
35.50000000000002
 20
247.77
 30
0.0
 40
2.5
  0
CIRCLE
  5
268A
330
265F
100
AcDbEntity
  8
0
100
AcDbCircle
 10
35.50000000000002
 20
227.77
 30
0.0
 40
2.5
  0
CIRCLE
  5
268B
330
265F
100
AcDbEntity
  8
0
100
AcDbCircle
 10
35.50000000000002
 20
207.77
 30
0.0
 40
2.5
  0
CIRCLE
  5
268C
330
265F
100
AcDbEntity
  8
0
100
AcDbCircle
 10
35.50000000000002
 20
187.77
 30
0.0
 40
2.5
  0
CIRCLE
  5
268D
330
265F
100
AcDbEntity
  8
0
100
AcDbCircle
 10
35.50000000000002
 20
167.7699999999999
 30
0.0
 40
2.5
  0
CIRCLE
  5
268E
330
265F
100
AcDbEntity
  8
0
100
AcDbCircle
 10
35.50000000000002
 20
147.77
 30
0.0
 40
2.5
  0
CIRCLE
  5
268F
330
265F
100
AcDbEntity
  8
0
100
AcDbCircle
 10
35.50000000000002
 20
127.77
 30
0.0
 40
2.5
  0
CIRCLE
  5
2690
330
265F
100
AcDbEntity
  8
0
100
AcDbCircle
 10
35.50000000000002
 20
107.77
 30
0.0
 40
2.5
  0
CIRCLE
  5
2691
330
265F
100
AcDbEntity
  8
0
100
AcDbCircle
 10
35.50000000000002
 20
87.76999999999999
 30
0.0
 40
2.5
  0
LINE
  5
2692
330
265F
100
AcDbEntity
  8
0
100
AcDbLine
 10
43.50000000000001
 20
315.67
 30
0.0
 11
43.50000000000001
 21
85.27000000000001
 31
0.0
  0
LINE
  5
2693
330
265F
100
AcDbEntity
  8
0
100
AcDbLine
 10
2.10000000000001
 20
320.67
 30
0.0
 11
38.50000000000001
 21
320.67
 31
0.0
  0
LINE
  5
2694
330
265F
100
AcDbEntity
  8
0
100
AcDbLine
 10
38.50000000000001
 20
80.27000000000001
 30
0.0
 11
2.100000000000004
 21
80.27000000000001
 31
0.0
  0
LINE
  5
2695
330
265F
100
AcDbEntity
  8
0
100
AcDbLine
 10
82.00306627385996
 20
-28.42608254450011
 30
0.0
 11
56.26437943888955
 21
-54.16476937947052
 31
0.0
  0
LINE
  5
2696
330
265F
100
AcDbEntity
  8
0
100
AcDbLine
 10
62.91118318265855
 20
-2.263131642256627
 30
0.0
 11
82.00306627385998
 21
-21.35501473263468
 31
0.0
  0
CIRCLE
  5
2697
330
265F
100
AcDbEntity
  8
0
100
AcDbCircle
 10
74.57844507130477
 20
-25.24410202925711
 30
0.0
 40
2.5
  0
ARC
  5
2698
330
265F
100
AcDbEntity
  8
0
100
AcDbCircle
 10
59.31559010709463
 20
-13.990452698916
 30
0.0
 40
0.8000000000000012
100
AcDbArc
 50
315.000000001042
 51
75.00000000104186
  0
LINE
  5
2699
330
265F
100
AcDbEntity
  8
0
100
AcDbLine
 10
59.88127553205416
 20
-14.55613812385494
 30
0.0
 11
56.81941335363088
 21
-17.61800030238964
 31
0.0
  0
ARC
  5
269A
330
265F
100
AcDbEntity
  8
0
100
AcDbCircle
 10
56.25372792867135
 20
-17.0523148774507
 30
0.0
 40
0.8
100
AcDbArc
 50
195.0000000010428
 51
315.0000000010428
  0
LINE
  5
269B
330
265F
100
AcDbEntity
  8
0
100
AcDbLine
 10
55.48098726764387
 20
-17.25937011354677
 30
0.0
 11
54.36026792735771
 21
-13.07678859487811
 31
0.0
  0
ARC
  5
269C
330
265F
100
AcDbEntity
  8
0
100
AcDbCircle
 10
55.13300858838519
 20
-12.86973335878203
 30
0.0
 40
0.8000000000000014
100
AcDbArc
 50
75.00000000104188
 51
195.0000000010427
  0
LINE
  5
269D
330
265F
100
AcDbEntity
  8
0
100
AcDbLine
 10
55.34006382445316
 20
-12.096992697747
 30
0.0
 11
59.5226453431626
 21
-13.21771203788096
 31
0.0
  0
LINE
  5
269E
330
265F
100
AcDbEntity
  8
0
100
AcDbLine
 10
55.28251771018369
 20
-12.08382813389861
 30
0.0
 11
54.34710336350719
 21
-13.01924248060914
 31
0.0
  0
LINE
  5
269F
330
265F
100
AcDbEntity
  8
0
100
AcDbLine
 10
54.77945519839778
 20
-55.64969361996226
 30
0.0
 11
1.656580012761255
 21
-2.52681843432569
 31
0.0
  0
LINE
  5
26A0
330
265F
100
AcDbEntity
  8
0
100
AcDbLine
 10
56.26437943888955
 20
-54.1647693794705
 30
0.0
 11
54.77945519839767
 21
-55.64969361996215
 31
0.0
  0
ENDBLK
  5
2661
330
265F
100
AcDbEntity
  8
0
100
AcDbBlockEnd
  0
BLOCK
  5
26A2
330
26A1
100
AcDbEntity
  8
0
100
AcDbBlockBegin
  2
SPR100_320-Right
 70
     0
 10
0.0
 20
0.0
 30
0.0
  3
SPR100_320-Right
  1

  0
LINE
  5
26A4
330
26A1
100
AcDbEntity
  8
0
100
AcDbLine
 10
-1.499999999999974
 20
6.269999999999996
 30
0.0
 11
-1.499999999999975
 21
1.269999999999996
 31
0.0
  0
LINE
  5
26A5
330
26A1
100
AcDbEntity
  8
0
100
AcDbLine
 10
-1.499999999999975
 20
1.269999999999996
 30
0.0
 11
0.0
 21
1.269999999999987
 31
0.0
  0
LINE
  5
26A6
330
26A1
100
AcDbEntity
  8
0
100
AcDbLine
 10
0.0
 20
1.269999999999987
 30
0.0
 11
0.0
 21
6.269999999999996
 31
0.0
  0
LINE
  5
26A7
330
26A1
100
AcDbEntity
  8
0
100
AcDbLine
 10
0.0
 20
6.269999999999996
 30
0.0
 11
-1.499999999999974
 21
6.269999999999996
 31
0.0
  0
LINE
  5
26A8
330
26A1
100
AcDbEntity
  8
0
100
AcDbLine
 10
-1.499999999999974
 20
72.27000000000001
 30
0.0
 11
0.0
 21
72.27000000000001
 31
0.0
  0
LINE
  5
26A9
330
26A1
100
AcDbEntity
  8
0
100
AcDbLine
 10
0.0
 20
72.27000000000001
 30
0.0
 11
0.0
 21
77.27000000000001
 31
0.0
  0
LINE
  5
26AA
330
26A1
100
AcDbEntity
  8
0
100
AcDbLine
 10
-1.499999999999975
 20
77.27000000000001
 30
0.0
 11
-1.499999999999974
 21
72.27000000000001
 31
0.0
  0
LINE
  5
26AB
330
26A1
100
AcDbEntity
  8
0
100
AcDbLine
 10
0.0
 20
77.27000000000001
 30
0.0
 11
-1.499999999999975
 21
77.27000000000001
 31
0.0
  0
LINE
  5
26AC
330
26A1
100
AcDbEntity
  8
0
100
AcDbLine
 10
0.0
 20
72.27000000000001
 30
0.0
 11
0.0
 21
6.269999999999997
 31
0.0
  0
LINE
  5
26AD
330
26A1
100
AcDbEntity
  8
0
100
AcDbLine
 10
-1.499999999999974
 20
72.27000000000001
 30
0.0
 11
-1.499999999999974
 21
6.269999999999997
 31
0.0
  0
LINE
  5
26AE
330
26A1
100
AcDbEntity
  8
0
100
AcDbLine
 10
0.0
 20
80.27000000000001
 30
0.0
 11
0.0
 21
77.27000000000001
 31
0.0
  0
LINE
  5
26AF
330
26A1
100
AcDbEntity
  8
0
100
AcDbLine
 10
-1.499999999999987
 20
80.27000000000001
 30
0.0
 11
-1.499999999999987
 21
77.27000000000001
 31
0.0
  0
LINE
  5
26B0
330
26A1
100
AcDbEntity
  8
0
100
AcDbLine
 10
0.0
 20
1.270000000000108
 30
0.0
 11
0.0
 21
-0.0003899405809499
 31
0.0
  0
LINE
  5
26B1
330
26A1
100
AcDbEntity
  8
0
100
AcDbLine
 10
-4.362741700911123
 20
-2.263131641492148
 30
0.0
 11
-62.91118318265853
 21
-2.263131642256641
 31
0.0
  0
LINE
  5
26B2
330
26A1
100
AcDbEntity
  8
0
100
AcDbLine
 10
-2.717240184541049
 20
-1.466158262545871
 30
0.0
 11
-2.288136209298516
 21
-1.037054287303338
 31
0.0
  0
LINE
  5
26B3
330
26A1
100
AcDbEntity
  8
0
100
AcDbLine
 10
-2.288136209298534
 20
-1.03705428730334
 30
0.0
 11
-1.675735931288074
 21
-0.4246540092928805
 31
0.0
  0
SPLINE
  5
26B4
330
26A1
100
AcDbEntity
  8
0
100
AcDbSpline
210
0.0
220
0.0
230
1.0
 70
     8
 71
     3
 72
     8
 73
     4
 74
     0
 42
0.000000001
 43
0.0000000001
 40
0.0
 40
0.0
 40
0.0
 40
0.0
 40
1.0
 40
1.0
 40
1.0
 40
1.0
 10
-0.0000000000000021
 20
-0.0003899405809477
 30
0.0
 10
-0.0000000000000014
 20
-0.5572023868216824
 30
0.0
 10
-0.2539843833466906
 20
-1.12422280491114
 30
0.0
 10
-0.6150757595082544
 20
-1.485314181072702
 30
0.0
  0
SPLINE
  5
26B5
330
26A1
100
AcDbEntity
  8
0
100
AcDbSpline
210
0.0
220
0.0
230
1.0
 70
     8
 71
     3
 72
     8
 73
     4
 74
     0
 42
0.000000001
 43
0.0000000001
 40
-1.0
 40
-1.0
 40
-1.0
 40
-1.0
 40
0.0
 40
0.0
 40
0.0
 40
0.0
 10
-1.675735931288074
 20
-0.42465400929288
 30
0.0
 10
-1.572566966670485
 20
-0.3214850446752905
 30
0.0
 10
-1.500000000000002
 20
-0.1594792109354454
 30
0.0
 10
-1.500000000000002
 20
-0.0003899405809497
 30
0.0
  0
LINE
  5
26B6
330
26A1
100
AcDbEntity
  8
0
100
AcDbLine
 10
-2.717240184541049
 20
-1.466158262545871
 30
0.0
 11
-2.364040347339138
 21
-1.819358099747781
 31
0.0
  0
SPLINE
  5
26B7
330
26A1
100
AcDbEntity
  8
0
100
AcDbSpline
210
0.0
220
0.0
230
1.0
 70
     8
 71
     3
 72
     8
 73
     4
 74
     0
 42
0.000000001
 43
0.0000000001
 40
-1.0
 40
-1.0
 40
-1.0
 40
-1.0
 40
0.0
 40
0.0
 40
0.0
 40
0.0
 10
-4.362741700911152
 20
-2.26313164149211
 30
0.0
 10
-3.733518404783882
 20
-2.078196639180696
 30
0.0
 10
-3.124319333760058
 20
-1.873237411764863
 30
0.0
 10
-2.717240184541054
 20
-1.466158262545859
 30
0.0
  0
SPLINE
  5
26B8
330
26A1
100
AcDbEntity
  8
0
100
AcDbSpline
210
0.0
220
0.0
230
1.0
 70
     8
 71
     3
 72
     8
 73
     4
 74
     0
 42
0.000000001
 43
0.0000000001
 40
0.0
 40
0.0
 40
0.0
 40
0.0
 40
1.0
 40
1.0
 40
1.0
 40
1.0
 10
-1.656580012761232
 20
-2.52681843432568
 30
0.0
 10
-2.063659161980236
 20
-2.933897583544684
 30
0.0
 10
-3.178158037514037
 20
-2.633557006450541
 30
0.0
 10
-4.362741700911117
 20
-2.263131641492145
 30
0.0
  0
LINE
  5
26B9
330
26A1
100
AcDbEntity
  8
0
100
AcDbLine
 10
-2.364040347339138
 20
-1.819358099747781
 30
0.0
 11
-1.656580012761227
 21
-2.526818434325692
 31
0.0
  0
LINE
  5
26BA
330
26A1
100
AcDbEntity
  8
0
100
AcDbLine
 10
-0.6150757595082689
 20
-1.485314181072688
 30
0.0
 11
-1.227476037518726
 21
-2.097714459083146
 31
0.0
  0
LINE
  5
26BB
330
26A1
100
AcDbEntity
  8
0
100
AcDbLine
 10
-0.6150757595082523
 20
-1.4853141810727
 30
0.0
 11
-1.322536092820613
 21
-0.7778538477603416
 31
0.0
  0
LINE
  5
26BC
330
26A1
100
AcDbEntity
  8
0
100
AcDbLine
 10
-1.322536092820613
 20
-0.7778538477603416
 30
0.0
 11
-1.675735931288073
 21
-0.4246540092928794
 31
0.0
  0
LINE
  5
26BD
330
26A1
100
AcDbEntity
  8
0
100
AcDbLine
 10
-2.288136209298516
 20
-1.037054287303338
 30
0.0
 11
-1.227476037518696
 21
-2.097714459083156
 31
0.0
  0
LINE
  5
26BE
330
26A1
100
AcDbEntity
  8
0
100
AcDbLine
 10
-1.227476037518696
 20
-2.097714459083156
 30
0.0
 11
-1.656580012761227
 21
-2.526818434325692
 31
0.0
  0
LINE
  5
26BF
330
26A1
100
AcDbEntity
  8
0
100
AcDbLine
 10
-1.49999999999999
 20
-0.0003899405809504
 30
0.0
 11
-1.000499995429481
 21
-0.0003899405809504
 31
0.0
  0
LINE
  5
26C0
330
26A1
100
AcDbEntity
  8
0
100
AcDbLine
 10
-1.000499995429481
 20
-0.0003899405809504
 30
0.0
 11
0.0
 21
-0.0003899405809504
 31
0.0
  0
LINE
  5
26C1
330
26A1
100
AcDbEntity
  8
0
100
AcDbLine
 10
-1.499999999999993
 20
-0.0003899405809492
 30
0.0
 11
-1.499999999999993
 21
1.270000000000108
 31
0.0
  0
LINE
  5
26C2
330
26A1
100
AcDbEntity
  8
0
100
AcDbLine
 10
0.0
 20
80.27000000000001
 30
0.0
 11
0.0
 21
320.67
 31
0.0
  0
LINE
  5
26C3
330
26A1
100
AcDbEntity
  8
0
100
AcDbLine
 10
0.0
 20
320.67
 30
0.0
 11
-2.099999999999943
 21
320.67
 31
0.0
  0
LINE
  5
26C4
330
26A1
100
AcDbEntity
  8
0
100
AcDbLine
 10
-2.099999999999961
 20
80.27000000000001
 30
0.0
 11
0.0
 21
80.27000000000001
 31
0.0
  0
LINE
  5
26C5
330
26A1
100
AcDbEntity
  8
0
100
AcDbLine
 10
-38.49999999999996
 20
80.27000000000001
 30
0.0
 11
-43.49999999999995
 21
85.27000000000001
 31
0.0
  0
LINE
  5
26C6
330
26A1
100
AcDbEntity
  8
0
100
AcDbLine
 10
-43.49999999999995
 20
315.67
 30
0.0
 11
-38.49999999999996
 21
320.67
 31
0.0
  0
LINE
  5
26C7
330
26A1
100
AcDbEntity
  8
0
100
AcDbLine
 10
-82.00306627385993
 20
-28.42608254450011
 30
0.0
 11
-82.00306627385996
 21
-21.35501473263468
 31
0.0
  0
LINE
  5
26C8
330
26A1
100
AcDbEntity
  8
0
100
AcDbLine
 10
-43.49999999999995
 20
85.27000000000001
 30
0.0
 11
-43.49999999999995
 21
315.67
 31
0.0
  0
LINE
  5
26C9
330
26A1
100
AcDbEntity
  8
0
100
AcDbLine
 10
-2.099999999999961
 20
80.27000000000001
 30
0.0
 11
-38.49999999999996
 21
80.27000000000001
 31
0.0
  0
LINE
  5
26CA
330
26A1
100
AcDbEntity
  8
0
100
AcDbLine
 10
-38.49999999999996
 20
320.67
 30
0.0
 11
-2.099999999999941
 21
320.67
 31
0.0
  0
CIRCLE
  5
26CB
330
26A1
100
AcDbEntity
  8
0
100
AcDbCircle
 10
-35.49999999999999
 20
312.77
 30
0.0
 40
2.5
  0
CIRCLE
  5
26CC
330
26A1
100
AcDbEntity
  8
0
100
AcDbCircle
 10
-35.49999999999999
 20
292.77
 30
0.0
 40
2.5
  0
CIRCLE
  5
26CD
330
26A1
100
AcDbEntity
  8
0
100
AcDbCircle
 10
-35.49999999999999
 20
272.77
 30
0.0
 40
2.5
  0
CIRCLE
  5
26CE
330
26A1
100
AcDbEntity
  8
0
100
AcDbCircle
 10
-35.49999999999999
 20
252.77
 30
0.0
 40
2.5
  0
CIRCLE
  5
26CF
330
26A1
100
AcDbEntity
  8
0
100
AcDbCircle
 10
-35.49999999999999
 20
232.77
 30
0.0
 40
2.5
  0
CIRCLE
  5
26D0
330
26A1
100
AcDbEntity
  8
0
100
AcDbCircle
 10
-35.49999999999999
 20
212.77
 30
0.0
 40
2.5
  0
CIRCLE
  5
26D1
330
26A1
100
AcDbEntity
  8
0
100
AcDbCircle
 10
-35.49999999999999
 20
192.77
 30
0.0
 40
2.5
  0
CIRCLE
  5
26D2
330
26A1
100
AcDbEntity
  8
0
100
AcDbCircle
 10
-35.49999999999999
 20
172.77
 30
0.0
 40
2.5
  0
CIRCLE
  5
26D3
330
26A1
100
AcDbEntity
  8
0
100
AcDbCircle
 10
-35.49999999999999
 20
152.77
 30
0.0
 40
2.5
  0
CIRCLE
  5
26D4
330
26A1
100
AcDbEntity
  8
0
100
AcDbCircle
 10
-35.49999999999999
 20
132.77
 30
0.0
 40
2.5
  0
CIRCLE
  5
26D5
330
26A1
100
AcDbEntity
  8
0
100
AcDbCircle
 10
-35.49999999999999
 20
112.77
 30
0.0
 40
2.5
  0
CIRCLE
  5
26D6
330
26A1
100
AcDbEntity
  8
0
100
AcDbCircle
 10
-35.49999999999999
 20
92.76999999999999
 30
0.0
 40
2.5
  0
LINE
  5
26D7
330
26A1
100
AcDbEntity
  8
0
100
AcDbLine
 10
-62.91118318265855
 20
-2.263131642256641
 30
0.0
 11
-82.00306627385996
 21
-21.35501473263468
 31
0.0
  0
LINE
  5
26D8
330
26A1
100
AcDbEntity
  8
0
100
AcDbLine
 10
-1.656580012761227
 20
-2.526818434325692
 30
0.0
 11
-54.77945519839777
 21
-55.64969361996226
 31
0.0
  0
LINE
  5
26D9
330
26A1
100
AcDbEntity
  8
0
100
AcDbLine
 10
-54.77945519839777
 20
-55.64969361996227
 30
0.0
 11
-56.26437943888923
 21
-54.16476937947023
 31
0.0
  0
LINE
  5
26DA
330
26A1
100
AcDbEntity
  8
0
100
AcDbLine
 10
-56.26437943888952
 20
-54.16476937947052
 30
0.0
 11
-82.00306627385993
 21
-28.42608254450011
 31
0.0
  0
CIRCLE
  5
26DB
330
26A1
100
AcDbEntity
  8
0
100
AcDbCircle
 10
-71.04291116530767
 20
-21.70856812338872
 30
0.0
 40
2.5
  0
ARC
  5
26DC
330
26A1
100
AcDbEntity
  8
0
100
AcDbCircle
 10
-51.59747468238809
 20
-9.33419945291363
 30
0.0
 40
0.8000000000000015
100
AcDbArc
 50
344.9999999989572
 51
355.4526675359234
  0
LINE
  5
26DD
330
26A1
100
AcDbEntity
  8
0
100
AcDbLine
 10
-50.82473402136063
 20
-9.541254689009706
 30
0.0
 11
-51.94545336164679
 21
-13.72383620767836
 31
0.0
  0
ARC
  5
26DE
330
26A1
100
AcDbEntity
  8
0
100
AcDbCircle
 10
-52.71819402267426
 20
-13.51678097158229
 30
0.0
 40
0.8
100
AcDbArc
 50
224.9999999989572
 51
344.9999999989576
  0
LINE
  5
26DF
330
26A1
100
AcDbEntity
  8
0
100
AcDbLine
 10
-53.28387944763379
 20
-14.08246639652124
 30
0.0
 11
-56.34574162605708
 21
-11.02060421798654
 31
0.0
  0
ARC
  5
26E0
330
26A1
100
AcDbEntity
  8
0
100
AcDbCircle
 10
-55.78005620109753
 20
-10.45491879304759
 30
0.0
 40
0.8000000000000014
100
AcDbArc
 50
104.9999999989575
 51
224.9999999989572
  0
LINE
  5
26E1
330
26A1
100
AcDbEntity
  8
0
100
AcDbLine
 10
-55.9871114371655
 20
-9.682178132012559
 30
0.0
 11
-51.80452991845606
 21
-8.561458791878598
 31
0.0
  0
ARC
  5
26E2
330
26A1
100
AcDbEntity
  8
0
100
AcDbCircle
 10
-51.59747468238809
 20
-9.33419945291363
 30
0.0
 40
0.8000000000000014
100
AcDbArc
 50
49.59733246198601
 51
104.9999999989581
  0
LINE
  5
26E3
330
26A1
100
AcDbEntity
  8
0
100
AcDbLine
 10
-51.07895039795263
 20
-8.724992947325674
 30
0.0
 11
-50.79999294004348
 21
-9.397625556585486
 31
0.0
  0
ARC
  5
26E4
330
26A1
100
AcDbEntity
  8
0
100
AcDbCircle
 10
-55.13300858838519
 20
-12.86973335878203
 30
0.0
 40
0.8000000000000014
100
AcDbArc
 50
349.2288663267698
 51
100.7711336711449
  0
ENDBLK
  5
26A3
330
26A1
100
AcDbEntity
  8
0
100
AcDbBlockEnd
  0
BLOCK
  5
26E6
330
26E5
100
AcDbEntity
  8
0
100
AcDbBlockBegin
  2
SPR100_320-Top
 70
     0
 10
0.0
 20
0.0
 30
0.0
  3
SPR100_320-Top
  1

  0
LINE
  5
26E8
330
26E5
100
AcDbEntity
  8
0
100
AcDbLine
 10
92.527090561
 20
-1.499999999999974
 30
0.0
 11
92.527090561
 21
0.0
 31
0.0
  0
LINE
  5
26E9
330
26E5
100
AcDbEntity
  8
0
100
AcDbLine
 10
-87.52709056100002
 20
0.0
 30
0.0
 11
-92.527090561
 21
0.0
 31
0.0
  0
LINE
  5
26EA
330
26E5
100
AcDbEntity
  8
0
100
AcDbLine
 10
92.527090561
 20
0.0
 30
0.0
 11
87.52709056099996
 21
0.0
 31
0.0
  0
LINE
  5
26EB
330
26E5
100
AcDbEntity
  8
0
100
AcDbLine
 10
-92.527090561
 20
0.0
 30
0.0
 11
-92.527090561
 21
-1.500000000000026
 31
0.0
  0
LINE
  5
26EC
330
26E5
100
AcDbEntity
  8
0
100
AcDbLine
 10
-92.527090561
 20
-1.500000000000026
 30
0.0
 11
-87.52709056100002
 21
-1.500000000000024
 31
0.0
  0
LINE
  5
26ED
330
26E5
100
AcDbEntity
  8
0
100
AcDbLine
 10
-87.52709056100002
 20
-1.500000000000024
 30
0.0
 11
-87.52709056100002
 21
0.0
 31
0.0
  0
LINE
  5
26EE
330
26E5
100
AcDbEntity
  8
0
100
AcDbLine
 10
87.52709056099996
 20
-1.499999999999975
 30
0.0
 11
92.527090561
 21
-1.499999999999974
 31
0.0
  0
LINE
  5
26EF
330
26E5
100
AcDbEntity
  8
0
100
AcDbLine
 10
87.52709056099996
 20
0.0
 30
0.0
 11
87.52709056099996
 21
-1.499999999999975
 31
0.0
  0
LINE
  5
26F0
330
26E5
100
AcDbEntity
  8
0
100
AcDbLine
 10
-87.52709056100002
 20
0.0
 30
0.0
 11
-49.40000000000002
 21
0.0
 31
0.0
  0
LINE
  5
26F1
330
26E5
100
AcDbEntity
  8
0
100
AcDbLine
 10
49.39999999999998
 20
0.0
 30
0.0
 11
87.52709056099996
 21
0.0
 31
0.0
  0
LINE
  5
26F2
330
26E5
100
AcDbEntity
  8
0
100
AcDbLine
 10
51.4124611797498
 20
-1.499999999999985
 30
0.0
 11
87.52709056099996
 21
-1.499999999999975
 31
0.0
  0
LINE
  5
26F3
330
26E5
100
AcDbEntity
  8
0
100
AcDbLine
 10
-87.52709056100002
 20
-1.500000000000024
 30
0.0
 11
-51.41246117974983
 21
-1.500000000000014
 31
0.0
  0
LINE
  5
26F4
330
26E5
100
AcDbEntity
  8
0
100
AcDbLine
 10
49.39999999999998
 20
0.0
 30
0.0
 11
-49.40000000000002
 21
0.0
 31
0.0
  0
LINE
  5
26F5
330
26E5
100
AcDbEntity
  8
0
100
AcDbLine
 10
51.5000000000002
 20
-38.49999999999996
 30
0.0
 11
51.49999999999999
 21
-2.099999999999941
 31
0.0
  0
LINE
  5
26F6
330
26E5
100
AcDbEntity
  8
0
100
AcDbLine
 10
-51.50000000000002
 20
-2.100000000000011
 30
0.0
 11
-51.50000000000002
 21
-38.50000000000002
 31
0.0
  0
LINE
  5
26F7
330
26E5
100
AcDbEntity
  8
0
100
AcDbLine
 10
50.0
 20
-2.099999999999961
 30
0.0
 11
50.00000000000021
 21
-38.49999999999997
 31
0.0
  0
LINE
  5
26F8
330
26E5
100
AcDbEntity
  8
0
100
AcDbLine
 10
-49.40000000000002
 20
-1.500000000000014
 30
0.0
 11
49.39999999999998
 21
-1.499999999999983
 31
0.0
  0
LINE
  5
26F9
330
26E5
100
AcDbEntity
  8
0
100
AcDbLine
 10
-50.0
 20
-38.50000000000001
 30
0.0
 11
-50.00000000000001
 21
-2.100000000000008
 31
0.0
  0
LINE
  5
26FA
330
26E5
100
AcDbEntity
  8
0
100
AcDbLine
 10
50.00000000000023
 20
-43.49999999999996
 30
0.0
 11
51.50000000000023
 21
-43.49999999999995
 31
0.0
  0
LINE
  5
26FB
330
26E5
100
AcDbEntity
  8
0
100
AcDbLine
 10
51.50000000000023
 20
-43.49999999999995
 30
0.0
 11
51.5000000000002
 21
-38.49999999999996
 31
0.0
  0
LINE
  5
26FC
330
26E5
100
AcDbEntity
  8
0
100
AcDbLine
 10
-51.50000000000002
 20
-38.50000000000002
 30
0.0
 11
-51.50000000000002
 21
-43.50000000000001
 31
0.0
  0
LINE
  5
26FD
330
26E5
100
AcDbEntity
  8
0
100
AcDbLine
 10
-51.50000000000002
 20
-43.50000000000001
 30
0.0
 11
-50.0
 21
-43.50000000000001
 31
0.0
  0
LINE
  5
26FE
330
26E5
100
AcDbEntity
  8
0
100
AcDbLine
 10
51.5000000000002
 20
-38.49999999999996
 30
0.0
 11
50.00000000000021
 21
-38.49999999999996
 31
0.0
  0
LINE
  5
26FF
330
26E5
100
AcDbEntity
  8
0
100
AcDbLine
 10
50.00000000000021
 20
-38.49999999999996
 30
0.0
 11
50.00000000000023
 21
-43.49999999999996
 31
0.0
  0
LINE
  5
2700
330
26E5
100
AcDbEntity
  8
0
100
AcDbLine
 10
-50.0
 20
-43.50000000000001
 30
0.0
 11
-50.0
 21
-38.50000000000001
 31
0.0
  0
LINE
  5
2701
330
26E5
100
AcDbEntity
  8
0
100
AcDbLine
 10
-50.0
 20
-38.50000000000001
 30
0.0
 11
-51.50000000000002
 21
-38.50000000000002
 31
0.0
  0
LINE
  5
2702
330
26E5
100
AcDbEntity
  8
0
100
AcDbLine
 10
51.49999999999999
 20
-82.00306627385996
 30
0.0
 11
50.0
 21
-82.00306627385996
 31
0.0
  0
LINE
  5
2703
330
26E5
100
AcDbEntity
  8
0
100
AcDbLine
 10
-50.0
 20
-82.00306627385998
 30
0.0
 11
-51.49999999999999
 21
-82.00306627385998
 31
0.0
  0
LINE
  5
2704
330
26E5
100
AcDbEntity
  8
0
100
AcDbLine
 10
51.50000000000233
 20
-62.91118318265855
 30
0.0
 11
51.49999999999999
 21
-82.00306627385996
 31
0.0
  0
LINE
  5
2705
330
26E5
100
AcDbEntity
  8
0
100
AcDbLine
 10
50.00000000000193
 20
-62.91118318265855
 30
0.0
 11
50.0
 21
-82.00306627385996
 31
0.0
  0
ELLIPSE
  5
2706
330
26E5
100
AcDbEntity
  8
0
100
AcDbEllipse
 10
49.39999999999999
 20
-56.26437943888955
 30
0.0
 11
0.6000000000000089
 21
0.0000000000000612
 31
0.0
210
0.0
220
0.0
230
1.0
 40
0.7071067811865475
 41
0.0
 42
1.570796326794631
  0
LINE
  5
2707
330
26E5
100
AcDbEntity
  8
0
100
AcDbLine
 10
51.50000000000233
 20
-62.91118318265855
 30
0.0
 11
50.00000000000193
 21
-62.91118318265855
 31
0.0
  0
LINE
  5
2708
330
26E5
100
AcDbEntity
  8
0
100
AcDbLine
 10
51.5
 20
-43.49999999999995
 30
0.0
 11
51.50000000000233
 21
-62.91118318265855
 31
0.0
  0
LINE
  5
2709
330
26E5
100
AcDbEntity
  8
0
100
AcDbLine
 10
-51.50000000000208
 20
-62.91118318265855
 30
0.0
 11
-51.50000000000209
 21
-43.50000000000001
 31
0.0
  0
ELLIPSE
  5
270A
330
26E5
100
AcDbEntity
  8
0
100
AcDbEllipse
 10
-46.50000000000002
 20
-1.227476037518733
 30
0.0
 11
-1.5
 21
0.0000000000001094
 31
0.0
210
0.0
220
0.0
230
1.0
 40
0.7071067811865472
 41
1.570796326795031
 42
2.705254581962062
  0
LINE
  5
270B
330
26E5
100
AcDbEntity
  8
0
100
AcDbLine
 10
-46.50000000000002
 20
-2.28813620929854
 30
0.0
 11
-48.79315533855966
 21
-2.288136209298541
 31
0.0
  0
LINE
  5
270C
330
26E5
100
AcDbEntity
  8
0
100
AcDbLine
 10
-48.79315533855966
 20
-2.288136209298541
 30
0.0
 11
-49.40000000000002
 21
-2.717240184541075
 31
0.0
  0
LINE
  5
270D
330
26E5
100
AcDbEntity
  8
0
100
AcDbLine
 10
49.39999999999998
 20
-2.717240184541048
 30
0.0
 11
48.79315533855963
 21
-2.288136209298515
 31
0.0
  0
LINE
  5
270E
330
26E5
100
AcDbEntity
  8
0
100
AcDbLine
 10
48.79315533855963
 20
-2.288136209298515
 30
0.0
 11
46.49999999999997
 21
-2.288136209298516
 31
0.0
  0
ELLIPSE
  5
270F
330
26E5
100
AcDbEntity
  8
0
100
AcDbEllipse
 10
46.49999999999997
 20
-1.227476037518712
 30
0.0
 11
-1.5
 21
-0.0000000000000003
 31
0.0
210
0.0
220
0.0
230
1.0
 40
0.7071067811865474
 41
0.4363380716279944
 42
1.570796326794896
  0
SPLINE
  5
2710
330
26E5
100
AcDbEntity
  8
0
100
AcDbSpline
210
0.0
220
0.0
230
1.0
 70
     8
 71
     3
 72
     8
 73
     4
 74
     0
 42
0.000000001
 43
0.0000000001
 40
-1.0
 40
-1.0
 40
-1.0
 40
-1.0
 40
0.0
 40
0.0
 40
0.0
 40
0.0
 10
45.14054197002045
 20
-1.675735931288074
 30
0.0
 10
45.0158647439039
 20
-1.572566966670484
 30
0.0
 10
44.97251992073961
 20
-1.500000000000001
 30
0.0
 10
45.01767776087191
 20
-1.500000000000002
 30
0.0
  0
SPLINE
  5
2711
330
26E5
100
AcDbEntity
  8
0
100
AcDbSpline
210
0.0
220
0.0
230
1.0
 70
     8
 71
     3
 72
     8
 73
     4
 74
     0
 42
0.000000001
 43
0.0000000001
 40
-1.0
 40
-1.0
 40
-1.0
 40
-1.0
 40
0.0
 40
0.0
 40
0.0
 40
0.0
 10
-45.01767776087195
 20
-1.500000000000022
 30
0.0
 10
-44.97251992074051
 20
-1.500000000000022
 30
0.0
 10
-45.01586474390201
 20
-1.572566966670515
 30
0.0
 10
-45.14054197002053
 20
-1.675735931288093
 30
0.0
  0
LINE
  5
2712
330
26E5
100
AcDbEntity
  8
0
100
AcDbLine
 10
-50.0000000000017
 20
-62.91118318265855
 30
0.0
 11
-51.50000000000208
 21
-62.91118318265855
 31
0.0
  0
LINE
  5
2713
330
26E5
100
AcDbEntity
  8
0
100
AcDbLine
 10
-50.00000000000003
 20
-43.50000000000001
 30
0.0
 11
-50.0000000000017
 21
-62.91118318265855
 31
0.0
  0
SPLINE
  5
2714
330
26E5
100
AcDbEntity
  8
0
100
AcDbSpline
210
0.0
220
0.0
230
1.0
 70
     8
 71
     3
 72
     8
 73
     4
 74
     0
 42
0.000000001
 43
0.0000000001
 40
-1.0
 40
-1.0
 40
-1.0
 40
-1.0
 40
0.0
 40
0.0
 40
0.0
 40
0.0
 10
-49.40000000000002
 20
-2.717240184541094
 30
0.0
 10
-49.714159265359
 20
-3.124319333760413
 30
0.0
 10
-50.00000000000003
 20
-3.733518404783751
 30
0.0
 10
-50.00000000000003
 20
-4.362741700911174
 30
0.0
  0
LINE
  5
2715
330
26E5
100
AcDbEntity
  8
0
100
AcDbLine
 10
-49.40000000000002
 20
-2.717240184541075
 30
0.0
 11
-49.40000000000002
 21
-2.364040347338555
 31
0.0
  0
LINE
  5
2716
330
26E5
100
AcDbEntity
  8
0
100
AcDbLine
 10
-49.40000000000002
 20
-2.364040347338555
 30
0.0
 11
-49.40000000000002
 21
-1.656580012761253
 31
0.0
  0
SPLINE
  5
2717
330
26E5
100
AcDbEntity
  8
0
100
AcDbSpline
210
0.0
220
0.0
230
1.0
 70
     8
 71
     3
 72
     8
 73
     4
 74
     0
 42
0.000000001
 43
0.0000000001
 40
0.823392608386181
 40
0.823392608386181
 40
0.823392608386181
 40
0.823392608386181
 40
1.0
 40
1.0
 40
1.0
 40
1.0
 10
-49.96833079343947
 20
-1.934942494001835
 30
0.0
 10
-49.78528852951264
 20
-1.822430928280931
 30
0.0
 10
-49.59418996942229
 20
-1.728473199485268
 30
0.0
 10
-49.40000000000002
 20
-1.656580012761272
 30
0.0
  0
LINE
  5
2718
330
26E5
100
AcDbEntity
  8
0
100
AcDbLine
 10
-49.40000000000002
 20
-1.656580012761253
 30
0.0
 11
-49.1785624223623
 21
-1.50000000000001
 31
0.0
  0
LINE
  5
2719
330
26E5
100
AcDbEntity
  8
0
100
AcDbLine
 10
-48.79315533855966
 20
-2.288136209298541
 30
0.0
 11
-48.79315533855966
 21
-1.500000000000014
 31
0.0
  0
LINE
  5
271A
330
26E5
100
AcDbEntity
  8
0
100
AcDbLine
 10
-45.1405419700205
 20
-1.675735931288093
 30
0.0
 11
-45.1405419700205
 21
-1.500000000000012
 31
0.0
  0
LINE
  5
271B
330
26E5
100
AcDbEntity
  8
0
100
AcDbLine
 10
50.00000000000193
 20
-62.91118318265855
 30
0.0
 11
50.00000000000192
 21
-43.49999999999996
 31
0.0
  0
LINE
  5
271C
330
26E5
100
AcDbEntity
  8
0
100
AcDbLine
 10
49.39999999999998
 20
-2.717240184541048
 30
0.0
 11
49.39999999999998
 21
-2.364040347339138
 31
0.0
  0
SPLINE
  5
271D
330
26E5
100
AcDbEntity
  8
0
100
AcDbSpline
210
0.0
220
0.0
230
1.0
 70
     8
 71
     3
 72
     8
 73
     4
 74
     0
 42
0.000000001
 43
0.0000000001
 40
-1.0
 40
-1.0
 40
-1.0
 40
-1.0
 40
0.0
 40
0.0
 40
0.0
 40
0.0
 10
50.0
 20
-4.362741700911152
 30
0.0
 10
50.0
 20
-3.733518404783882
 30
0.0
 10
49.71415926535898
 20
-3.124319333760058
 30
0.0
 10
49.39999999999998
 20
-2.717240184541054
 30
0.0
  0
SPLINE
  5
271E
330
26E5
100
AcDbEntity
  8
0
100
AcDbSpline
210
0.0
220
0.0
230
1.0
 70
     8
 71
     3
 72
     8
 73
     4
 74
     0
 42
0.000000001
 43
0.0000000001
 40
0.0
 40
0.0
 40
0.0
 40
0.0
 40
0.1766073916138231
 40
0.1766073916138231
 40
0.1766073916138231
 40
0.1766073916138231
 10
49.39999999999998
 20
-1.656580012761232
 30
0.0
 10
49.59418996942226
 20
-1.728473199485174
 30
0.0
 10
49.78528852951261
 20
-1.822430928280809
 30
0.0
 10
49.96833079343947
 20
-1.934942494001703
 30
0.0
  0
LINE
  5
271F
330
26E5
100
AcDbEntity
  8
0
100
AcDbLine
 10
49.39999999999998
 20
-2.364040347339138
 30
0.0
 11
49.39999999999998
 21
-1.656580012761226
 31
0.0
  0
LINE
  5
2720
330
26E5
100
AcDbEntity
  8
0
100
AcDbLine
 10
45.14054197002045
 20
-1.499999999999987
 30
0.0
 11
45.14054197002047
 21
-1.675735931288073
 31
0.0
  0
LINE
  5
2721
330
26E5
100
AcDbEntity
  8
0
100
AcDbLine
 10
48.79315533855963
 20
-2.288136209298515
 30
0.0
 11
48.79315533855963
 21
-1.499999999999986
 31
0.0
  0
LINE
  5
2722
330
26E5
100
AcDbEntity
  8
0
100
AcDbLine
 10
49.17856242236226
 20
-1.499999999999977
 30
0.0
 11
49.39999999999998
 21
-1.656580012761226
 31
0.0
  0
LINE
  5
2723
330
26E5
100
AcDbEntity
  8
0
100
AcDbLine
 10
-51.50000000000208
 20
-62.91118318265855
 30
0.0
 11
-51.49999999999999
 21
-82.00306627385998
 31
0.0
  0
LINE
  5
2724
330
26E5
100
AcDbEntity
  8
0
100
AcDbLine
 10
-50.0000000000017
 20
-62.91118318265855
 30
0.0
 11
-50.0
 21
-82.00306627385998
 31
0.0
  0
ELLIPSE
  5
2725
330
26E5
100
AcDbEntity
  8
0
100
AcDbEllipse
 10
-17.50000000000005
 20
-0.1668158657389256
 30
0.0
 11
2.5
 21
0.0000000000001828
 31
0.0
210
0.0
220
0.0
230
1.0
 40
0.7071067811865472
 41
3.995971005725007
 42
4.712388980384622
  0
LINE
  5
2726
330
26E5
100
AcDbEntity
  8
0
100
AcDbLine
 10
-19.91828991960765
 20
-1.500000000000005
 30
0.0
 11
-19.91828991960765
 21
-1.675735931288088
 31
0.0
  0
ELLIPSE
  5
2727
330
26E5
100
AcDbEntity
  8
0
100
AcDbEllipse
 10
-17.50000000000005
 20
-1.227476037518727
 30
0.0
 11
-2.5
 21
-0.0000000000000006
 31
0.0
210
0.0
220
0.0
230
1.0
 40
0.7071067811865474
 41
0.2563733270184931
 42
1.570796326794896
  0
LINE
  5
2728
330
26E5
100
AcDbEntity
  8
0
100
AcDbLine
 10
-17.50000000000005
 20
-1.934582818705268
 30
0.0
 11
-12.50000000000001
 21
-1.934582818705267
 31
0.0
  0
LINE
  5
2729
330
26E5
100
AcDbEntity
  8
0
100
AcDbLine
 10
-12.50000000000001
 20
-2.995242990485089
 30
0.0
 11
-17.50000000000005
 21
-2.99524299048509
 31
0.0
  0
ELLIPSE
  5
272A
330
26E5
100
AcDbEntity
  8
0
100
AcDbEllipse
 10
-12.50000000000001
 20
-0.1668158657389245
 30
0.0
 11
2.5
 21
0.0000000000000006
 31
0.0
210
0.0
220
0.0
230
1.0
 40
0.7071067811865472
 41
4.712388980384689
 42
5.428806955044239
  0
ELLIPSE
  5
272B
330
26E5
100
AcDbEntity
  8
0
100
AcDbEllipse
 10
-12.50000000000001
 20
-1.227476037518726
 30
0.0
 11
2.5
 21
0.0000000000000008
 31
0.0
210
0.0
220
0.0
230
1.0
 40
0.7071067811865475
 41
4.712388980384689
 42
6.026811980161093
  0
LINE
  5
272C
330
26E5
100
AcDbEntity
  8
0
100
AcDbLine
 10
-10.08171008039241
 20
-1.675735931288086
 30
0.0
 11
-10.08171008039241
 21
-1.500000000000002
 31
0.0
  0
SPLINE
  5
272D
330
26E5
100
AcDbEntity
  8
0
100
AcDbSpline
210
0.0
220
0.0
230
1.0
 70
     8
 71
     3
 72
     8
 73
     4
 74
     0
 42
0.000000001
 43
0.0000000001
 40
-1.0
 40
-1.0
 40
-1.0
 40
-1.0
 40
0.0
 40
0.0
 40
0.0
 40
0.0
 10
-19.91828991960765
 20
-1.675735931288088
 30
0.0
 10
-19.99189972302045
 20
-1.567383125827716
 30
0.0
 10
-20.01609483643948
 20
-1.500000000000016
 30
0.0
 10
-19.98943351399748
 20
-1.500000000000016
 30
0.0
  0
SPLINE
  5
272E
330
26E5
100
AcDbEntity
  8
0
100
AcDbSpline
210
0.0
220
0.0
230
1.0
 70
     8
 71
     3
 72
     8
 73
     4
 74
     0
 42
0.000000001
 43
0.0000000001
 40
-1.0
 40
-1.0
 40
-1.0
 40
-1.0
 40
0.0
 40
0.0
 40
0.0
 40
0.0
 10
-10.01056648600258
 20
-1.500000000000014
 30
0.0
 10
-9.983905163560523
 20
-1.500000000000014
 30
0.0
 10
-10.00810027697987
 20
-1.567383125827723
 30
0.0
 10
-10.08171008039241
 20
-1.675735931288086
 30
0.0
  0
ELLIPSE
  5
272F
330
26E5
100
AcDbEntity
  8
0
100
AcDbEllipse
 10
12.49999999999998
 20
-0.1668158657389175
 30
0.0
 11
2.5
 21
0.000000000000183
 31
0.0
210
0.0
220
0.0
230
1.0
 40
0.7071067811865474
 41
3.995971005725007
 42
4.712388980384623
  0
LINE
  5
2730
330
26E5
100
AcDbEntity
  8
0
100
AcDbLine
 10
10.08171008039238
 20
-1.499999999999996
 30
0.0
 11
10.08171008039238
 21
-1.675735931288081
 31
0.0
  0
ELLIPSE
  5
2731
330
26E5
100
AcDbEntity
  8
0
100
AcDbEllipse
 10
12.49999999999998
 20
-1.22747603751872
 30
0.0
 11
-2.5
 21
-0.0000000000000006
 31
0.0
210
0.0
220
0.0
230
1.0
 40
0.7071067811865474
 41
0.2563733270184931
 42
1.570796326794896
  0
LINE
  5
2732
330
26E5
100
AcDbEntity
  8
0
100
AcDbLine
 10
12.49999999999998
 20
-1.93458281870526
 30
0.0
 11
17.50000000000001
 21
-1.934582818705259
 31
0.0
  0
LINE
  5
2733
330
26E5
100
AcDbEntity
  8
0
100
AcDbLine
 10
17.50000000000001
 20
-2.995242990485081
 30
0.0
 11
12.49999999999998
 21
-2.995242990485082
 31
0.0
  0
ELLIPSE
  5
2734
330
26E5
100
AcDbEntity
  8
0
100
AcDbEllipse
 10
17.50000000000001
 20
-0.1668158657389161
 30
0.0
 11
2.5
 21
0.0000000000000006
 31
0.0
210
0.0
220
0.0
230
1.0
 40
0.7071067811865472
 41
4.712388980384689
 42
5.428806955044239
  0
ELLIPSE
  5
2735
330
26E5
100
AcDbEntity
  8
0
100
AcDbEllipse
 10
17.50000000000001
 20
-1.227476037518719
 30
0.0
 11
2.5
 21
0.000000000000001
 31
0.0
210
0.0
220
0.0
230
1.0
 40
0.7071067811865476
 41
4.712388980384689
 42
6.026811980161092
  0
LINE
  5
2736
330
26E5
100
AcDbEntity
  8
0
100
AcDbLine
 10
19.91828991960762
 20
-1.675735931288079
 30
0.0
 11
19.91828991960762
 21
-1.499999999999992
 31
0.0
  0
SPLINE
  5
2737
330
26E5
100
AcDbEntity
  8
0
100
AcDbSpline
210
0.0
220
0.0
230
1.0
 70
     8
 71
     3
 72
     8
 73
     4
 74
     0
 42
0.000000001
 43
0.0000000001
 40
-1.0
 40
-1.0
 40
-1.0
 40
-1.0
 40
0.0
 40
0.0
 40
0.0
 40
0.0
 10
10.08171008039238
 20
-1.675735931288081
 30
0.0
 10
10.00810027698007
 20
-1.567383125827712
 30
0.0
 10
9.983905163560971
 20
-1.500000000000009
 30
0.0
 10
10.01056648600253
 20
-1.500000000000009
 30
0.0
  0
SPLINE
  5
2738
330
26E5
100
AcDbEntity
  8
0
100
AcDbSpline
210
0.0
220
0.0
230
1.0
 70
     8
 71
     3
 72
     8
 73
     4
 74
     0
 42
0.000000001
 43
0.0000000001
 40
-1.0
 40
-1.0
 40
-1.0
 40
-1.0
 40
0.0
 40
0.0
 40
0.0
 40
0.0
 10
19.98943351399746
 20
-1.500000000000007
 30
0.0
 10
20.01609483643893
 20
-1.500000000000007
 30
0.0
 10
19.99189972301984
 20
-1.567383125827703
 30
0.0
 10
19.91828991960764
 20
-1.675735931288079
 30
0.0
  0
ELLIPSE
  5
2739
330
26E5
100
AcDbEntity
  8
0
100
AcDbEllipse
 10
-32.50000000000002
 20
-1.22747603751873
 30
0.0
 11
2.499999999999999
 21
0.0000000000000003
 31
0.0
210
0.0
220
0.0
230
1.0
 40
0.7071067811865475
 41
3.397965980608285
 42
6.026811980161093
  0
ELLIPSE
  5
273A
330
26E5
100
AcDbEntity
  8
0
100
AcDbEllipse
 10
32.5
 20
-1.227476037518715
 30
0.0
 11
2.5
 21
0.0000000000000003
 31
0.0
210
0.0
220
0.0
230
1.0
 40
0.7071067811865472
 41
3.397965980608285
 42
6.026811980161092
  0
SPLINE
  5
273B
330
26E5
100
AcDbEntity
  8
0
100
AcDbSpline
210
0.0
220
0.0
230
1.0
 70
     8
 71
     3
 72
     8
 73
     4
 74
     0
 42
0.000000001
 43
0.0000000001
 40
-1.0
 40
-1.0
 40
-1.0
 40
-1.0
 40
0.0
 40
0.0
 40
0.0
 40
0.0
 10
30.08171008039241
 20
-1.675735931288077
 30
0.0
 10
30.00810027697883
 20
-1.567383125827685
 30
0.0
 10
29.98390516355922
 20
-1.500000000000005
 30
0.0
 10
30.0105664860026
 20
-1.500000000000005
 30
0.0
  0
SPLINE
  5
273C
330
26E5
100
AcDbEntity
  8
0
100
AcDbSpline
210
0.0
220
0.0
230
1.0
 70
     8
 71
     3
 72
     8
 73
     4
 74
     0
 42
0.000000001
 43
0.0000000001
 40
-1.0
 40
-1.0
 40
-1.0
 40
-1.0
 40
0.0
 40
0.0
 40
0.0
 40
0.0
 10
-30.01056648600259
 20
-1.500000000000018
 30
0.0
 10
-29.9839051635602
 20
-1.500000000000018
 30
0.0
 10
-30.00810027698026
 20
-1.567383125827667
 30
0.0
 10
-30.08171008039239
 20
-1.67573593128809
 30
0.0
  0
ELLIPSE
  5
273D
330
26E5
100
AcDbEntity
  8
0
100
AcDbEllipse
 10
-32.50000000000002
 20
-0.1668158657389231
 30
0.0
 11
2.499999999999999
 21
0.0000000000001828
 31
0.0
210
0.0
220
0.0
230
1.0
 40
0.7071067811865475
 41
3.995971005725014
 42
5.428806955044089
  0
LINE
  5
273E
330
26E5
100
AcDbEntity
  8
0
100
AcDbLine
 10
-34.91828991960764
 20
-1.500000000000009
 30
0.0
 11
-34.91828991960763
 21
-1.675735931288091
 31
0.0
  0
LINE
  5
273F
330
26E5
100
AcDbEntity
  8
0
100
AcDbLine
 10
-30.08171008039241
 20
-1.67573593128809
 30
0.0
 11
-30.08171008039241
 21
-1.50000000000001
 31
0.0
  0
SPLINE
  5
2740
330
26E5
100
AcDbEntity
  8
0
100
AcDbSpline
210
0.0
220
0.0
230
1.0
 70
     8
 71
     3
 72
     8
 73
     4
 74
     0
 42
0.000000001
 43
0.0000000001
 40
-1.0
 40
-1.0
 40
-1.0
 40
-1.0
 40
0.0
 40
0.0
 40
0.0
 40
0.0
 10
-34.91828991960764
 20
-1.675735931288091
 30
0.0
 10
-34.99189972301991
 20
-1.567383125827695
 30
0.0
 10
-35.01609483643977
 20
-1.500000000000019
 30
0.0
 10
-34.98943351399745
 20
-1.500000000000019
 30
0.0
  0
ELLIPSE
  5
2741
330
26E5
100
AcDbEntity
  8
0
100
AcDbEllipse
 10
32.5
 20
-0.1668158657389184
 30
0.0
 11
2.5
 21
0.000000000000183
 31
0.0
210
0.0
220
0.0
230
1.0
 40
0.7071067811865475
 41
3.995971005725014
 42
5.428806955044108
  0
LINE
  5
2742
330
26E5
100
AcDbEntity
  8
0
100
AcDbLine
 10
30.08171008039241
 20
-1.499999999999996
 30
0.0
 11
30.08171008039238
 21
-1.675735931288077
 31
0.0
  0
LINE
  5
2743
330
26E5
100
AcDbEntity
  8
0
100
AcDbLine
 10
34.9182899196076
 20
-1.675735931288075
 30
0.0
 11
34.9182899196076
 21
-1.499999999999988
 31
0.0
  0
SPLINE
  5
2744
330
26E5
100
AcDbEntity
  8
0
100
AcDbSpline
210
0.0
220
0.0
230
1.0
 70
     8
 71
     3
 72
     8
 73
     4
 74
     0
 42
0.000000001
 43
0.0000000001
 40
-1.0
 40
-1.0
 40
-1.0
 40
-1.0
 40
0.0
 40
0.0
 40
0.0
 40
0.0
 10
34.98943351399743
 20
-1.500000000000004
 30
0.0
 10
35.01609483643974
 20
-1.500000000000004
 30
0.0
 10
34.99189972302104
 20
-1.567383125827658
 30
0.0
 10
34.91828991960759
 20
-1.675735931288075
 30
0.0
  0
LINE
  5
2745
330
26E5
100
AcDbEntity
  8
0
100
AcDbLine
 10
-49.40000000000001
 20
-55.8401153701776
 30
0.0
 11
49.39999999999999
 21
-55.84011537017758
 31
0.0
  0
ELLIPSE
  5
2746
330
26E5
100
AcDbEntity
  8
0
100
AcDbEllipse
 10
-49.40000000000001
 20
-56.26437943888956
 30
0.0
 11
-0.6000000000000087
 21
0.0000000000000087
 31
0.0
210
0.0
220
0.0
230
1.0
 40
0.7071067811865445
 41
4.7123889803847
 42
6.283185307179586
  0
ARC
  5
2747
330
26E5
100
AcDbEntity
  8
0
100
AcDbCircle
 10
49.39999999999998
 20
-2.099999999999988
 30
0.0
 40
0.600000000000005
100
AcDbArc
 50
0.0
 51
90.0
  0
ARC
  5
2748
330
26E5
100
AcDbEntity
  8
0
100
AcDbCircle
 10
49.39999999999998
 20
-2.099999999999988
 30
0.0
 40
2.100000000000008
100
AcDbArc
 50
0.0
 51
90.0
  0
ARC
  5
2749
330
26E5
100
AcDbEntity
  8
0
100
AcDbCircle
 10
-49.40000000000002
 20
-2.10000000000001
 30
0.0
 40
0.5999999999999961
100
AcDbArc
 50
90.0
 51
180.0
  0
ARC
  5
274A
330
26E5
100
AcDbEntity
  8
0
100
AcDbCircle
 10
-49.40000000000002
 20
-2.10000000000001
 30
0.0
 40
2.099999999999999
100
AcDbArc
 50
90.0
 51
180.0
  0
ENDBLK
  5
26E7
330
26E5
100
AcDbEntity
  8
0
100
AcDbBlockEnd
  0
BLOCK
  5
274C
330
274B
100
AcDbEntity
  8
0
100
AcDbBlockBegin
  2
SPR100_320-Bottom
 70
     0
 10
0.0
 20
0.0
 30
0.0
  3
SPR100_320-Bottom
  1

  0
LINE
  5
274E
330
274B
100
AcDbEntity
  8
0
100
AcDbLine
 10
92.52709056099996
 20
1.499999999999974
 30
0.0
 11
87.52709056099996
 21
1.499999999999975
 31
0.0
  0
LINE
  5
274F
330
274B
100
AcDbEntity
  8
0
100
AcDbLine
 10
87.52709056099996
 20
1.499999999999975
 30
0.0
 11
87.52709056099996
 21
0.0
 31
0.0
  0
LINE
  5
2750
330
274B
100
AcDbEntity
  8
0
100
AcDbLine
 10
87.52709056099996
 20
0.0
 30
0.0
 11
92.52709056099996
 21
0.0
 31
0.0
  0
LINE
  5
2751
330
274B
100
AcDbEntity
  8
0
100
AcDbLine
 10
92.52709056099996
 20
0.0
 30
0.0
 11
92.52709056099996
 21
1.499999999999974
 31
0.0
  0
LINE
  5
2752
330
274B
100
AcDbEntity
  8
0
100
AcDbLine
 10
-92.527090561
 20
0.0
 30
0.0
 11
-87.527090561
 21
0.0
 31
0.0
  0
LINE
  5
2753
330
274B
100
AcDbEntity
  8
0
100
AcDbLine
 10
-87.527090561
 20
1.500000000000025
 30
0.0
 11
-92.527090561
 21
1.500000000000026
 31
0.0
  0
LINE
  5
2754
330
274B
100
AcDbEntity
  8
0
100
AcDbLine
 10
-92.527090561
 20
1.500000000000026
 30
0.0
 11
-92.527090561
 21
0.0
 31
0.0
  0
LINE
  5
2755
330
274B
100
AcDbEntity
  8
0
100
AcDbLine
 10
-87.527090561
 20
0.0
 30
0.0
 11
-87.527090561
 21
1.500000000000025
 31
0.0
  0
LINE
  5
2756
330
274B
100
AcDbEntity
  8
0
100
AcDbLine
 10
87.52709056099996
 20
0.0
 30
0.0
 11
46.49999999999997
 21
0.0
 31
0.0
  0
LINE
  5
2757
330
274B
100
AcDbEntity
  8
0
100
AcDbLine
 10
-46.50000000000002
 20
0.0
 30
0.0
 11
-87.527090561
 21
0.0
 31
0.0
  0
LINE
  5
2758
330
274B
100
AcDbEntity
  8
0
100
AcDbLine
 10
-49.17856242236232
 20
1.500000000000017
 30
0.0
 11
-87.527090561
 21
1.500000000000025
 31
0.0
  0
LINE
  5
2759
330
274B
100
AcDbEntity
  8
0
100
AcDbLine
 10
87.52709056099996
 20
1.499999999999975
 30
0.0
 11
49.17856242236227
 21
1.499999999999986
 31
0.0
  0
LINE
  5
275A
330
274B
100
AcDbEntity
  8
0
100
AcDbLine
 10
46.49999999999997
 20
0.0
 30
0.0
 11
45.01767776087191
 21
0.0
 31
0.0
  0
LINE
  5
275B
330
274B
100
AcDbEntity
  8
0
100
AcDbLine
 10
-45.01767776087196
 20
0.0
 30
0.0
 11
-46.50000000000002
 21
0.0
 31
0.0
  0
SPLINE
  5
275C
330
274B
100
AcDbEntity
  8
0
100
AcDbSpline
210
0.0
220
0.0
230
1.0
 70
     8
 71
     3
 72
     8
 73
     4
 74
     0
 42
0.000000001
 43
0.0000000001
 40
0.0
 40
0.0
 40
0.0
 40
0.0
 40
1.0
 40
1.0
 40
1.0
 40
1.0
 10
45.01767776087191
 20
0.0000000000000019
 30
0.0
 10
44.97251992073961
 20
0.0000000000000012
 30
0.0
 10
45.0158647439039
 20
0.2539843833466904
 30
0.0
 10
45.14054197002045
 20
0.6150757595082541
 30
0.0
  0
SPLINE
  5
275D
330
274B
100
AcDbEntity
  8
0
100
AcDbSpline
210
0.0
220
0.0
230
1.0
 70
     8
 71
     3
 72
     8
 73
     4
 74
     0
 42
0.000000001
 43
0.0000000001
 40
0.0
 40
0.0
 40
0.0
 40
0.0
 40
1.0
 40
1.0
 40
1.0
 40
1.0
 10
-45.14054197002053
 20
0.6150757595082732
 30
0.0
 10
-45.01586474390201
 20
0.2539843833467482
 30
0.0
 10
-44.97251992074051
 20
0.0000000000000215
 30
0.0
 10
-45.01767776087195
 20
0.0000000000000219
 30
0.0
  0
SPLINE
  5
275E
330
274B
100
AcDbEntity
  8
0
100
AcDbSpline
210
0.0
220
0.0
230
1.0
 70
     8
 71
     3
 72
     8
 73
     4
 74
     0
 42
0.000000001
 43
0.0000000001
 40
0.0
 40
0.0
 40
0.0
 40
0.0
 40
1.0
 40
1.0
 40
1.0
 40
1.0
 10
-51.50000000000004
 20
4.362741700911139
 30
0.0
 10
-51.5
 20
3.178158037513914
 30
0.0
 10
-50.49955742875646
 20
2.063659161980591
 30
0.0
 10
-49.40000000000002
 20
1.656580012761272
 30
0.0
  0
LINE
  5
275F
330
274B
100
AcDbEntity
  8
0
100
AcDbLine
 10
-49.40000000000002
 20
1.656580012761253
 30
0.0
 11
-48.79315533855966
 21
1.227476037518721
 31
0.0
  0
LINE
  5
2760
330
274B
100
AcDbEntity
  8
0
100
AcDbLine
 10
-48.79315533855966
 20
1.227476037518721
 30
0.0
 11
-46.50000000000002
 21
1.227476037518718
 31
0.0
  0
ELLIPSE
  5
2761
330
274B
100
AcDbEntity
  8
0
100
AcDbEllipse
 10
-46.50000000000002
 20
0.1668158657389237
 30
0.0
 11
1.5
 21
-0.0000000000000003
 31
0.0
210
0.0
220
0.0
230
1.0
 40
0.7071067811865474
 41
0.4363380716279926
 42
1.570796326794896
  0
LINE
  5
2762
330
274B
100
AcDbEntity
  8
0
100
AcDbLine
 10
-45.01767776087196
 20
0.1805170265380612
 30
0.0
 11
-45.01767776087196
 21
0.0
 31
0.0
  0
SPLINE
  5
2763
330
274B
100
AcDbEntity
  8
0
100
AcDbSpline
210
0.0
220
0.0
230
1.0
 70
     8
 71
     3
 72
     8
 73
     4
 74
     0
 42
0.000000001
 43
0.0000000001
 40
0.0
 40
0.0
 40
0.0
 40
0.0
 40
1.0
 40
1.0
 40
1.0
 40
1.0
 10
49.39999999999998
 20
1.656580012761232
 30
0.0
 10
50.49955742875645
 20
2.063659161980236
 30
0.0
 10
51.49999999999997
 20
3.178158037514037
 30
0.0
 10
51.5
 20
4.362741700911117
 30
0.0
  0
ELLIPSE
  5
2764
330
274B
100
AcDbEntity
  8
0
100
AcDbEllipse
 10
46.49999999999997
 20
0.1668158657389054
 30
0.0
 11
1.5
 21
-0.0000000000001105
 31
0.0
210
0.0
220
0.0
230
1.0
 40
0.7071067811865472
 41
1.570796326795019
 42
2.705254581962053
  0
LINE
  5
2765
330
274B
100
AcDbEntity
  8
0
100
AcDbLine
 10
46.49999999999997
 20
1.227476037518693
 30
0.0
 11
48.79315533855963
 21
1.227476037518696
 31
0.0
  0
LINE
  5
2766
330
274B
100
AcDbEntity
  8
0
100
AcDbLine
 10
48.79315533855963
 20
1.227476037518696
 30
0.0
 11
49.39999999999998
 21
1.656580012761226
 31
0.0
  0
LINE
  5
2767
330
274B
100
AcDbEntity
  8
0
100
AcDbLine
 10
45.01767776087191
 20
0.1805170265380246
 30
0.0
 11
45.01767776087191
 21
0.0
 31
0.0
  0
LINE
  5
2768
330
274B
100
AcDbEntity
  8
0
100
AcDbLine
 10
34.98943351399743
 20
0.0
 30
0.0
 11
45.01767776087191
 21
0.0
 31
0.0
  0
LINE
  5
2769
330
274B
100
AcDbEntity
  8
0
100
AcDbLine
 10
19.98943351399745
 20
0.0
 30
0.0
 11
30.01056648600255
 21
0.0
 31
0.0
  0
LINE
  5
276A
330
274B
100
AcDbEntity
  8
0
100
AcDbLine
 10
-10.01056648600258
 20
0.0
 30
0.0
 11
10.01056648600254
 21
0.0
 31
0.0
  0
LINE
  5
276B
330
274B
100
AcDbEntity
  8
0
100
AcDbLine
 10
-30.01056648600258
 20
0.0
 30
0.0
 11
-19.98943351399749
 21
0.0
 31
0.0
  0
LINE
  5
276C
330
274B
100
AcDbEntity
  8
0
100
AcDbLine
 10
-45.01767776087196
 20
0.0
 30
0.0
 11
-34.98943351399745
 21
0.0
 31
0.0
  0
LINE
  5
276D
330
274B
100
AcDbEntity
  8
0
100
AcDbLine
 10
51.49999999999999
 20
56.26437943888952
 30
0.0
 11
51.49999999999997
 21
82.00306627385993
 31
0.0
  0
LINE
  5
276E
330
274B
100
AcDbEntity
  8
0
100
AcDbLine
 10
-51.49999999999997
 20
82.00306627385996
 30
0.0
 11
-51.50000000000002
 21
56.26437943888955
 31
0.0
  0
LINE
  5
276F
330
274B
100
AcDbEntity
  8
0
100
AcDbLine
 10
-50.0
 20
82.00306627385996
 30
0.0
 11
-50.0
 21
56.26437943888955
 31
0.0
  0
LINE
  5
2770
330
274B
100
AcDbEntity
  8
0
100
AcDbLine
 10
-49.40000000000001
 20
55.8401153701776
 30
0.0
 11
49.39999999999999
 21
55.84011537017758
 31
0.0
  0
LINE
  5
2771
330
274B
100
AcDbEntity
  8
0
100
AcDbLine
 10
50.0
 20
56.26437943888952
 30
0.0
 11
50.0
 21
82.00306627385993
 31
0.0
  0
LINE
  5
2772
330
274B
100
AcDbEntity
  8
0
100
AcDbLine
 10
-49.40000000000001
 20
54.77945519839778
 30
0.0
 11
49.39999999999999
 21
54.77945519839777
 31
0.0
  0
LINE
  5
2773
330
274B
100
AcDbEntity
  8
0
100
AcDbLine
 10
34.98943351399743
 20
0.0
 30
0.0
 11
30.01056648600255
 21
0.0
 31
0.0
  0
LINE
  5
2774
330
274B
100
AcDbEntity
  8
0
100
AcDbLine
 10
-30.01056648600258
 20
0.0
 30
0.0
 11
-34.98943351399745
 21
0.0
 31
0.0
  0
SPLINE
  5
2775
330
274B
100
AcDbEntity
  8
0
100
AcDbSpline
210
0.0
220
0.0
230
1.0
 70
     8
 71
     3
 72
     8
 73
     4
 74
     0
 42
0.000000001
 43
0.0000000001
 40
0.0
 40
0.0
 40
0.0
 40
0.0
 40
1.0
 40
1.0
 40
1.0
 40
1.0
 10
-30.08171008039239
 20
0.6150757595082678
 30
0.0
 10
-30.00810027698026
 20
0.2358409403967902
 30
0.0
 10
-29.9839051635602
 20
0.0000000000000184
 30
0.0
 10
-30.01056648600259
 20
0.0000000000000186
 30
0.0
  0
SPLINE
  5
2776
330
274B
100
AcDbEntity
  8
0
100
AcDbSpline
210
0.0
220
0.0
230
1.0
 70
     8
 71
     3
 72
     8
 73
     4
 74
     0
 42
0.000000001
 43
0.0000000001
 40
0.0
 40
0.0
 40
0.0
 40
0.0
 40
1.0
 40
1.0
 40
1.0
 40
1.0
 10
30.0105664860026
 20
0.0000000000000053
 30
0.0
 10
29.98390516355922
 20
0.0000000000000051
 30
0.0
 10
30.00810027697883
 20
0.2358409403968845
 30
0.0
 10
30.08171008039241
 20
0.6150757595082565
 30
0.0
  0
ELLIPSE
  5
2777
330
274B
100
AcDbEntity
  8
0
100
AcDbEllipse
 10
-32.50000000000002
 20
0.1668158657389231
 30
0.0
 11
-2.5
 21
0.0000000000000005
 31
0.0
210
0.0
220
0.0
230
1.0
 40
0.7071067811865472
 41
3.397965980608285
 42
6.026811980161093
  0
SPLINE
  5
2778
330
274B
100
AcDbEntity
  8
0
100
AcDbSpline
210
0.0
220
0.0
230
1.0
 70
     8
 71
     3
 72
     8
 73
     4
 74
     0
 42
0.000000001
 43
0.0000000001
 40
0.0
 40
0.0
 40
0.0
 40
0.0
 40
1.0
 40
1.0
 40
1.0
 40
1.0
 10
-34.98943351399745
 20
0.0000000000000197
 30
0.0
 10
-35.01609483643977
 20
0.0000000000000197
 30
0.0
 10
-34.99189972301991
 20
0.2358409403968827
 30
0.0
 10
-34.91828991960764
 20
0.6150757595082699
 30
0.0
  0
LINE
  5
2779
330
274B
100
AcDbEntity
  8
0
100
AcDbLine
 10
-34.98943351399745
 20
0.180517026538301
 30
0.0
 11
-34.98943351399745
 21
0.0
 31
0.0
  0
LINE
  5
277A
330
274B
100
AcDbEntity
  8
0
100
AcDbLine
 10
-30.01056648600258
 20
0.1805170265380512
 30
0.0
 11
-30.01056648600258
 21
0.0
 31
0.0
  0
LINE
  5
277B
330
274B
100
AcDbEntity
  8
0
100
AcDbLine
 10
-34.14171865077701
 20
1.500000000000011
 30
0.0
 11
-30.85828134922302
 21
1.50000000000001
 31
0.0
  0
ELLIPSE
  5
277C
330
274B
100
AcDbEntity
  8
0
100
AcDbEllipse
 10
32.5
 20
0.1668158657389184
 30
0.0
 11
-2.5
 21
0.0000000000000008
 31
0.0
210
0.0
220
0.0
230
1.0
 40
0.7071067811865474
 41
3.397965980608286
 42
6.026811980161093
  0
LINE
  5
277D
330
274B
100
AcDbEntity
  8
0
100
AcDbLine
 10
30.01056648600255
 20
0.1805170265379133
 30
0.0
 11
30.01056648600255
 21
0.0
 31
0.0
  0
LINE
  5
277E
330
274B
100
AcDbEntity
  8
0
100
AcDbLine
 10
34.98943351399743
 20
0.1805170265380174
 30
0.0
 11
34.98943351399743
 21
0.0
 31
0.0
  0
SPLINE
  5
277F
330
274B
100
AcDbEntity
  8
0
100
AcDbSpline
210
0.0
220
0.0
230
1.0
 70
     8
 71
     3
 72
     8
 73
     4
 74
     0
 42
0.000000001
 43
0.0000000001
 40
0.0
 40
0.0
 40
0.0
 40
0.0
 40
1.0
 40
1.0
 40
1.0
 40
1.0
 10
34.91828991960759
 20
0.6150757595082533
 30
0.0
 10
34.99189972302104
 20
0.2358409403967915
 30
0.0
 10
35.01609483643974
 20
0.0000000000000039
 30
0.0
 10
34.98943351399743
 20
0.0000000000000042
 30
0.0
  0
LINE
  5
2780
330
274B
100
AcDbEntity
  8
0
100
AcDbLine
 10
30.85828134922298
 20
1.499999999999996
 30
0.0
 11
34.141718650777
 21
1.499999999999995
 31
0.0
  0
LINE
  5
2781
330
274B
100
AcDbEntity
  8
0
100
AcDbLine
 10
19.98943351399745
 20
0.0
 30
0.0
 11
17.50000000000001
 21
0.0
 31
0.0
  0
LINE
  5
2782
330
274B
100
AcDbEntity
  8
0
100
AcDbLine
 10
17.50000000000001
 20
0.0
 30
0.0
 11
12.49999999999998
 21
0.0
 31
0.0
  0
LINE
  5
2783
330
274B
100
AcDbEntity
  8
0
100
AcDbLine
 10
12.49999999999998
 20
0.0
 30
0.0
 11
10.01056648600254
 21
0.0
 31
0.0
  0
LINE
  5
2784
330
274B
100
AcDbEntity
  8
0
100
AcDbLine
 10
-10.01056648600258
 20
0.0
 30
0.0
 11
-12.50000000000001
 21
0.0
 31
0.0
  0
LINE
  5
2785
330
274B
100
AcDbEntity
  8
0
100
AcDbLine
 10
-12.50000000000001
 20
0.0
 30
0.0
 11
-17.50000000000005
 21
0.0
 31
0.0
  0
LINE
  5
2786
330
274B
100
AcDbEntity
  8
0
100
AcDbLine
 10
-17.50000000000005
 20
0.0
 30
0.0
 11
-19.98943351399749
 21
0.0
 31
0.0
  0
ELLIPSE
  5
2787
330
274B
100
AcDbEntity
  8
0
100
AcDbEllipse
 10
-17.50000000000005
 20
0.1668158657389256
 30
0.0
 11
-2.5
 21
0.0000000000000003
 31
0.0
210
0.0
220
0.0
230
1.0
 40
0.7071067811865471
 41
4.712388980384689
 42
6.026811980161092
  0
LINE
  5
2788
330
274B
100
AcDbEntity
  8
0
100
AcDbLine
 10
-17.50000000000005
 20
1.934582818705268
 30
0.0
 11
-12.50000000000001
 21
1.934582818705267
 31
0.0
  0
ELLIPSE
  5
2789
330
274B
100
AcDbEntity
  8
0
100
AcDbEllipse
 10
-12.50000000000001
 20
0.1668158657389245
 30
0.0
 11
2.5
 21
-0.0000000000000006
 31
0.0
210
0.0
220
0.0
230
1.0
 40
0.7071067811865472
 41
0.2563733270184931
 42
1.570796326794896
  0
SPLINE
  5
278A
330
274B
100
AcDbEntity
  8
0
100
AcDbSpline
210
0.0
220
0.0
230
1.0
 70
     8
 71
     3
 72
     8
 73
     4
 74
     0
 42
0.000000001
 43
0.0000000001
 40
0.0
 40
0.0
 40
0.0
 40
0.0
 40
1.0
 40
1.0
 40
1.0
 40
1.0
 10
-19.98943351399748
 20
0.0000000000000164
 30
0.0
 10
-20.01609483643948
 20
0.0000000000000161
 30
0.0
 10
-19.99189972302045
 20
0.2358409403969659
 30
0.0
 10
-19.91828991960765
 20
0.6150757595082666
 30
0.0
  0
LINE
  5
278B
330
274B
100
AcDbEntity
  8
0
100
AcDbLine
 10
-19.98943351399749
 20
0.1805170265380409
 30
0.0
 11
-19.98943351399749
 21
0.0
 31
0.0
  0
LINE
  5
278C
330
274B
100
AcDbEntity
  8
0
100
AcDbLine
 10
-10.01056648600258
 20
0.1805170265380984
 30
0.0
 11
-10.01056648600258
 21
0.0
 31
0.0
  0
SPLINE
  5
278D
330
274B
100
AcDbEntity
  8
0
100
AcDbSpline
210
0.0
220
0.0
230
1.0
 70
     8
 71
     3
 72
     8
 73
     4
 74
     0
 42
0.000000001
 43
0.0000000001
 40
0.0
 40
0.0
 40
0.0
 40
0.0
 40
1.0
 40
1.0
 40
1.0
 40
1.0
 10
-10.08171008039241
 20
0.6150757595082644
 30
0.0
 10
-10.00810027697987
 20
0.2358409403969946
 30
0.0
 10
-9.983905163560523
 20
0.000000000000014
 30
0.0
 10
-10.01056648600258
 20
0.0000000000000142
 30
0.0
  0
LINE
  5
278E
330
274B
100
AcDbEntity
  8
0
100
AcDbLine
 10
-12.50000000000001
 20
1.500000000000006
 30
0.0
 11
-10.85828134922302
 21
1.500000000000005
 31
0.0
  0
LINE
  5
278F
330
274B
100
AcDbEntity
  8
0
100
AcDbLine
 10
-17.50000000000005
 20
1.500000000000008
 30
0.0
 11
-12.50000000000001
 21
1.500000000000007
 31
0.0
  0
LINE
  5
2790
330
274B
100
AcDbEntity
  8
0
100
AcDbLine
 10
-19.14171865077705
 20
1.500000000000007
 30
0.0
 11
-17.50000000000005
 21
1.500000000000007
 31
0.0
  0
ELLIPSE
  5
2791
330
274B
100
AcDbEntity
  8
0
100
AcDbEllipse
 10
12.49999999999998
 20
0.1668158657389175
 30
0.0
 11
-2.5
 21
0.0000000000000003
 31
0.0
210
0.0
220
0.0
230
1.0
 40
0.7071067811865475
 41
4.712388980384689
 42
6.026811980161092
  0
LINE
  5
2792
330
274B
100
AcDbEntity
  8
0
100
AcDbLine
 10
12.49999999999998
 20
1.93458281870526
 30
0.0
 11
17.50000000000001
 21
1.934582818705259
 31
0.0
  0
ELLIPSE
  5
2793
330
274B
100
AcDbEntity
  8
0
100
AcDbEllipse
 10
17.50000000000001
 20
0.1668158657389161
 30
0.0
 11
2.5
 21
-0.0000000000000006
 31
0.0
210
0.0
220
0.0
230
1.0
 40
0.7071067811865472
 41
0.256373327018494
 42
1.570796326794896
  0
SPLINE
  5
2794
330
274B
100
AcDbEntity
  8
0
100
AcDbSpline
210
0.0
220
0.0
230
1.0
 70
     8
 71
     3
 72
     8
 73
     4
 74
     0
 42
0.000000001
 43
0.0000000001
 40
0.0
 40
0.0
 40
0.0
 40
0.0
 40
1.0
 40
1.0
 40
1.0
 40
1.0
 10
10.01056648600253
 20
0.0000000000000097
 30
0.0
 10
9.983905163560971
 20
0.0000000000000094
 30
0.0
 10
10.00810027698007
 20
0.2358409403969694
 30
0.0
 10
10.08171008039238
 20
0.6150757595082599
 30
0.0
  0
LINE
  5
2795
330
274B
100
AcDbEntity
  8
0
100
AcDbLine
 10
10.01056648600254
 20
0.1805170265380635
 30
0.0
 11
10.01056648600254
 21
0.0
 31
0.0
  0
LINE
  5
2796
330
274B
100
AcDbEntity
  8
0
100
AcDbLine
 10
19.98943351399745
 20
0.1805170265380052
 30
0.0
 11
19.98943351399745
 21
0.0
 31
0.0
  0
SPLINE
  5
2797
330
274B
100
AcDbEntity
  8
0
100
AcDbSpline
210
0.0
220
0.0
230
1.0
 70
     8
 71
     3
 72
     8
 73
     4
 74
     0
 42
0.000000001
 43
0.0000000001
 40
0.0
 40
0.0
 40
0.0
 40
0.0
 40
1.0
 40
1.0
 40
1.0
 40
1.0
 10
19.91828991960764
 20
0.6150757595082577
 30
0.0
 10
19.99189972301984
 20
0.2358409403969437
 30
0.0
 10
20.01609483643893
 20
0.0000000000000072
 30
0.0
 10
19.98943351399746
 20
0.0000000000000075
 30
0.0
  0
LINE
  5
2798
330
274B
100
AcDbEntity
  8
0
100
AcDbLine
 10
17.50000000000001
 20
1.499999999999999
 30
0.0
 11
19.14171865077702
 21
1.499999999999999
 31
0.0
  0
LINE
  5
2799
330
274B
100
AcDbEntity
  8
0
100
AcDbLine
 10
12.49999999999998
 20
1.5
 30
0.0
 11
17.50000000000001
 21
1.499999999999998
 31
0.0
  0
LINE
  5
279A
330
274B
100
AcDbEntity
  8
0
100
AcDbLine
 10
10.85828134922298
 20
1.500000000000001
 30
0.0
 11
12.49999999999998
 21
1.5
 31
0.0
  0
LINE
  5
279B
330
274B
100
AcDbEntity
  8
0
100
AcDbLine
 10
51.49999999999999
 20
2.099999999999961
 30
0.0
 11
51.5
 21
4.362741700911122
 31
0.0
  0
LINE
  5
279C
330
274B
100
AcDbEntity
  8
0
100
AcDbLine
 10
-51.50000000000002
 20
4.362741700911148
 30
0.0
 11
-51.50000000000002
 21
2.100000000000002
 31
0.0
  0
LINE
  5
279D
330
274B
100
AcDbEntity
  8
0
100
AcDbLine
 10
50.0
 20
82.00306627385993
 30
0.0
 11
51.49999999999997
 21
82.00306627385993
 31
0.0
  0
LINE
  5
279E
330
274B
100
AcDbEntity
  8
0
100
AcDbLine
 10
-51.49999999999997
 20
82.00306627385996
 30
0.0
 11
-50.0
 21
82.00306627385996
 31
0.0
  0
LINE
  5
279F
330
274B
100
AcDbEntity
  8
0
100
AcDbLine
 10
51.49999999999999
 20
56.26437943888952
 30
0.0
 11
51.5
 21
4.362741700911128
 31
0.0
  0
ELLIPSE
  5
27A0
330
274B
100
AcDbEntity
  8
0
100
AcDbEllipse
 10
49.39999999999999
 20
56.26437943888955
 30
0.0
 11
0.6000000000000089
 21
-0.0000000000000612
 31
0.0
210
0.0
220
0.0
230
1.0
 40
0.7071067811865475
 41
4.712388980384954
 42
6.283185307179342
  0
ELLIPSE
  5
27A1
330
274B
100
AcDbEntity
  8
0
100
AcDbEllipse
 10
49.39999999999999
 20
56.26437943888955
 30
0.0
 11
2.100000000000031
 21
-0.0000000000003202
 31
0.0
210
0.0
220
0.0
230
1.0
 40
0.7071067811865516
 41
4.712388980384615
 42
6.283185307179203
  0
LINE
  5
27A2
330
274B
100
AcDbEntity
  8
0
100
AcDbLine
 10
-51.50000000000004
 20
4.362741700911155
 30
0.0
 11
-51.50000000000002
 21
56.26437943888955
 31
0.0
  0
ELLIPSE
  5
27A3
330
274B
100
AcDbEntity
  8
0
100
AcDbEllipse
 10
-49.40000000000001
 20
56.26437943888956
 30
0.0
 11
-2.100000000000031
 21
-0.0000000000000051
 31
0.0
210
0.0
220
0.0
230
1.0
 40
0.7071067811866067
 41
0.0
 42
1.570796326794894
  0
ELLIPSE
  5
27A4
330
274B
100
AcDbEntity
  8
0
100
AcDbEllipse
 10
-49.40000000000001
 20
56.26437943888956
 30
0.0
 11
-0.6000000000000087
 21
-0.0000000000000087
 31
0.0
210
0.0
220
0.0
230
1.0
 40
0.7071067811865445
 41
0.0000000000000003
 42
1.570796326794886
  0
ARC
  5
27A5
330
274B
100
AcDbEntity
  8
0
100
AcDbCircle
 10
49.39999999999998
 20
2.099999999999988
 30
0.0
 40
0.600000000000005
100
AcDbArc
 50
270.0
 51
343.4444348564455
  0
ARC
  5
27A6
330
274B
100
AcDbEntity
  8
0
100
AcDbCircle
 10
49.39999999999998
 20
2.099999999999988
 30
0.0
 40
2.100000000000008
100
AcDbArc
 50
343.3984504009798
 51
0.0
  0
ARC
  5
27A7
330
274B
100
AcDbEntity
  8
0
100
AcDbCircle
 10
-49.40000000000002
 20
2.10000000000001
 30
0.0
 40
0.5999999999999961
100
AcDbArc
 50
196.5555651435546
 51
269.9999999999992
  0
ARC
  5
27A8
330
274B
100
AcDbEntity
  8
0
100
AcDbCircle
 10
-49.40000000000002
 20
2.10000000000001
 30
0.0
 40
2.099999999999999
100
AcDbArc
 50
180.0
 51
196.60154959902
  0
ENDBLK
  5
274D
330
274B
100
AcDbEntity
  8
0
100
AcDbBlockEnd
  0
BLOCK
  5
27AA
330
27A9
100
AcDbEntity
  8
0
100
AcDbBlockBegin
  2
SPR100_320-ISO
 70
     0
 10
0.0
 20
0.0
 30
0.0
  3
SPR100_320-ISO
  1

  0
LINE
  5
27AC
330
27A9
100
AcDbEntity
  8
0
100
AcDbLine
 10
93.35594368192346
 20
-124.7236273264793
 30
0.0
 11
89.82040977599071
 21
-126.7648687787986
 31
0.0
  0
LINE
  5
27AD
330
27A9
100
AcDbEntity
  8
0
100
AcDbLine
 10
94.41660385370326
 20
-124.1112548907835
 30
0.0
 11
93.35594368192346
 21
-124.7236273264793
 31
0.0
  0
LINE
  5
27AE
330
27A9
100
AcDbEntity
  8
0
100
AcDbLine
 10
93.35594368192346
 20
-70.83485298524937
 30
0.0
 11
94.41660385370328
 21
-70.22248054955356
 31
0.0
  0
LINE
  5
27AF
330
27A9
100
AcDbEntity
  8
0
100
AcDbLine
 10
94.41660385370328
 20
-70.22248054955356
 30
0.0
 11
90.88106994777053
 21
-64.09875619259563
 31
0.0
  0
LINE
  5
27B0
330
27A9
100
AcDbEntity
  8
0
100
AcDbLine
 10
-33.96158877043362
 20
-55.29929859719068
 30
0.0
 11
-37.49712267636635
 21
-49.17557424023273
 31
0.0
  0
LINE
  5
27B1
330
27A9
100
AcDbEntity
  8
0
100
AcDbLine
 10
89.82040977599071
 20
-64.71112862829142
 30
0.0
 11
93.35594368192346
 21
-70.83485298524937
 31
0.0
  0
LINE
  5
27B2
330
27A9
100
AcDbEntity
  8
0
100
AcDbLine
 10
90.88106994777053
 20
-64.09875619259563
 30
0.0
 11
89.82040977599071
 21
-64.71112862829142
 31
0.0
  0
LINE
  5
27B3
330
27A9
100
AcDbEntity
  8
0
100
AcDbLine
 10
94.41660385370328
 20
-70.22248054955356
 30
0.0
 11
94.41660385370326
 21
-124.1112548907835
 31
0.0
  0
LINE
  5
27B4
330
27A9
100
AcDbEntity
  8
0
100
AcDbLine
 10
93.35594368192346
 20
-70.83485298524937
 30
0.0
 11
93.35594368192346
 21
-124.7236273264793
 31
0.0
  0
LINE
  5
27B5
330
27A9
100
AcDbEntity
  8
0
100
AcDbLine
 10
-8.486588728328676
 20
-6.728811707206912
 30
0.0
 11
-3.890394650616091
 21
-9.382425595222034
 31
0.0
  0
LINE
  5
27B6
330
27A9
100
AcDbEntity
  8
0
100
AcDbLine
 10
63.28474956210595
 20
-48.16601318928902
 30
0.0
 11
90.88106994777053
 21
-64.09875619259563
 31
0.0
  0
LINE
  5
27B7
330
27A9
100
AcDbEntity
  8
0
100
AcDbLine
 10
-37.49712267636635
 20
-49.17557424023273
 30
0.0
 11
-37.49712267636635
 21
-18.96520074590687
 31
0.0
  0
LINE
  5
27B8
330
27A9
100
AcDbEntity
  8
0
100
AcDbLine
 10
62.22408939032613
 20
-48.77838562498482
 30
0.0
 11
89.82040977599071
 21
-64.71112862829142
 31
0.0
  0
LINE
  5
27B9
330
27A9
100
AcDbEntity
  8
0
100
AcDbLine
 10
-4.951054822395919
 20
-72.04853818142499
 30
0.0
 11
-33.96158877043362
 21
-55.29929859719068
 31
0.0
  0
LINE
  5
27BA
330
27A9
100
AcDbEntity
  8
0
100
AcDbLine
 10
89.82040977599071
 20
-126.7648687787986
 30
0.0
 11
60.80987582795302
 21
-110.0156291945642
 31
0.0
  0
LINE
  5
27BB
330
27A9
100
AcDbEntity
  8
0
100
AcDbLine
 10
-9.547248900108495
 20
-7.341184142902701
 30
0.0
 11
-4.951054822395914
 21
-9.994798030917824
 31
0.0
  0
LINE
  5
27BC
330
27A9
100
AcDbEntity
  8
0
100
AcDbLine
 10
-3.890394650616091
 20
-9.382425595222034
 30
0.0
 11
-4.951054822395914
 21
-9.994798030917824
 31
0.0
  0
ELLIPSE
  5
27BD
330
27A9
100
AcDbEntity
  8
0
100
AcDbEllipse
 10
-4.951054822395914
 20
-8.770053159526227
 30
0.0
 11
0.7500000000000004
 21
-1.299038105676658
 31
0.0
210
0.0
220
0.0
230
0.9999999999999998
 40
0.5773502691896259
 41
5.497787143782137
 42
8.63937979737193
  0
ELLIPSE
  5
27BE
330
27A9
100
AcDbEntity
  8
0
100
AcDbEllipse
 10
57.27434192202029
 20
145.1395523453502
 30
0.0
 11
1.250000000000129
 21
-2.165063509461022
 31
0.0
210
0.0
220
0.0
230
1.0
 40
0.577350269189626
 41
3.579741684173546
 42
4.454997905016245
  0
ELLIPSE
  5
27BF
330
27A9
100
AcDbEntity
  8
0
100
AcDbEllipse
 10
57.27434192202029
 20
-50.81962707730406
 30
0.0
 11
1.25
 21
-2.165063509461097
 31
0.0
210
0.0
220
0.0
230
1.0
 40
0.5773502691896259
 41
4.999145532596275
 42
5.845036276595413
  0
ELLIPSE
  5
27C0
330
27A9
100
AcDbEntity
  8
0
100
AcDbEllipse
 10
56.21368175024047
 20
144.5271799096544
 30
0.0
 11
-1.25
 21
2.165063509461096
 31
0.0
210
0.0
220
0.0
230
1.0
 40
0.577350269189626
 41
4.969780055752917
 42
7.596590558606269
  0
ELLIPSE
  5
27C1
330
27A9
100
AcDbEntity
  8
0
100
AcDbEllipse
 10
56.21368175024045
 20
-51.43199951299987
 30
0.0
 11
1.249999999999999
 21
-2.165063509461097
 31
0.0
210
0.0
220
0.0
230
0.9999999999999998
 40
0.5773502691896259
 41
4.99914553259628
 42
7.567225081762895
  0
ELLIPSE
  5
27C2
330
27A9
100
AcDbEntity
  8
0
100
AcDbEllipse
 10
57.27434192202027
 20
-83.47949031441311
 30
0.0
 11
1.250000000000129
 21
-2.165063509461022
 31
0.0
210
0.0
220
0.0
230
1.0
 40
0.5773502691896261
 41
3.579741684173544
 42
5.845036276594998
  0
ELLIPSE
  5
27C3
330
27A9
100
AcDbEntity
  8
0
100
AcDbEllipse
 10
56.21368175024045
 20
-84.0918627501089
 30
0.0
 11
1.25
 21
-2.165063509461097
 31
0.0
210
0.0
220
0.0
230
1.0
 40
0.5773502691896259
 41
0.0
 42
6.283185307179586
  0
ELLIPSE
  5
27C4
330
27A9
100
AcDbEntity
  8
0
100
AcDbEllipse
 10
50.2032741101548
 20
-63.06707579121996
 30
0.0
 11
1.250000000000129
 21
-2.165063509461022
 31
0.0
210
0.0
220
0.0
230
1.0
 40
0.577350269189626
 41
3.579741684173546
 42
5.845036276594999
  0
ELLIPSE
  5
27C5
330
27A9
100
AcDbEntity
  8
0
100
AcDbEllipse
 10
49.14261393837498
 20
-63.67944822691576
 30
0.0
 11
1.25
 21
-2.165063509461097
 31
0.0
210
0.0
220
0.0
230
1.0
 40
0.5773502691896259
 41
0.0
 42
6.283185307179586
  0
ELLIPSE
  5
27C6
330
27A9
100
AcDbEntity
  8
0
100
AcDbEllipse
 10
50.20327411015479
 20
-95.72693902832901
 30
0.0
 11
1.250000000000129
 21
-2.165063509461022
 31
0.0
210
0.0
220
0.0
230
1.0
 40
0.5773502691896261
 41
3.579741684173544
 42
5.845036276594998
  0
ELLIPSE
  5
27C7
330
27A9
100
AcDbEntity
  8
0
100
AcDbEllipse
 10
49.14261393837498
 20
-96.33931146402481
 30
0.0
 11
1.25
 21
-2.165063509461097
 31
0.0
210
0.0
220
0.0
230
1.0
 40
0.5773502691896259
 41
0.0
 42
6.283185307179586
  0
ELLIPSE
  5
27C8
330
27A9
100
AcDbEntity
  8
0
100
AcDbEllipse
 10
7.776867238961959
 20
173.7169326778206
 30
0.0
 11
1.250000000000129
 21
-2.165063509461022
 31
0.0
210
0.0
220
0.0
230
1.0
 40
0.577350269189626
 41
3.579741684173535
 42
5.84503627659499
  0
ELLIPSE
  5
27C9
330
27A9
100
AcDbEntity
  8
0
100
AcDbEllipse
 10
7.776867238961955
 20
141.0570694407115
 30
0.0
 11
1.250000000000129
 21
-2.165063509461022
 31
0.0
210
0.0
220
0.0
230
1.0
 40
0.577350269189626
 41
3.579741684173546
 42
5.845036276595002
  0
ELLIPSE
  5
27CA
330
27A9
100
AcDbEntity
  8
0
100
AcDbEllipse
 10
7.776867238961955
 20
108.3972062036025
 30
0.0
 11
1.250000000000129
 21
-2.165063509461022
 31
0.0
210
0.0
220
0.0
230
1.0
 40
0.577350269189626
 41
3.579741684173546
 42
5.845036276595002
  0
ELLIPSE
  5
27CB
330
27A9
100
AcDbEntity
  8
0
100
AcDbEllipse
 10
7.77686723896195
 20
75.73734296649345
 30
0.0
 11
1.250000000000129
 21
-2.165063509461022
 31
0.0
210
0.0
220
0.0
230
1.0
 40
0.577350269189626
 41
3.579741684173546
 42
5.845036276595002
  0
ELLIPSE
  5
27CC
330
27A9
100
AcDbEntity
  8
0
100
AcDbEllipse
 10
7.77686723896195
 20
43.07747972938442
 30
0.0
 11
1.250000000000129
 21
-2.165063509461022
 31
0.0
210
0.0
220
0.0
230
1.0
 40
0.577350269189626
 41
3.579741684173546
 42
5.845036276594999
  0
ELLIPSE
  5
27CD
330
27A9
100
AcDbEntity
  8
0
100
AcDbEllipse
 10
7.776867238961946
 20
10.41761649227537
 30
0.0
 11
1.250000000000129
 21
-2.165063509461022
 31
0.0
210
0.0
220
0.0
230
1.0
 40
0.577350269189626
 41
3.579741684173544
 42
5.845036276594997
  0
ELLIPSE
  5
27CE
330
27A9
100
AcDbEntity
  8
0
100
AcDbEllipse
 10
7.776867238961946
 20
-22.24224674483368
 30
0.0
 11
1.250000000000129
 21
-2.165063509461022
 31
0.0
210
0.0
220
0.0
230
1.0
 40
0.577350269189626
 41
3.579741684173546
 42
5.845036276594996
  0
ELLIPSE
  5
27CF
330
27A9
100
AcDbEntity
  8
0
100
AcDbEllipse
 10
6.716207067182136
 20
173.1045602421248
 30
0.0
 11
1.25
 21
-2.165063509461097
 31
0.0
210
0.0
220
0.0
230
1.0
 40
0.5773502691896259
 41
0.0
 42
6.283185307179586
  0
ELLIPSE
  5
27D0
330
27A9
100
AcDbEntity
  8
0
100
AcDbEllipse
 10
6.716207067182131
 20
140.4446970050157
 30
0.0
 11
1.25
 21
-2.165063509461097
 31
0.0
210
0.0
220
0.0
230
1.0
 40
0.5773502691896259
 41
0.0
 42
6.283185307179586
  0
ELLIPSE
  5
27D1
330
27A9
100
AcDbEntity
  8
0
100
AcDbEllipse
 10
6.716207067182131
 20
107.7848337679067
 30
0.0
 11
1.25
 21
-2.165063509461097
 31
0.0
210
0.0
220
0.0
230
1.0
 40
0.5773502691896259
 41
0.0
 42
6.283185307179586
  0
ELLIPSE
  5
27D2
330
27A9
100
AcDbEntity
  8
0
100
AcDbEllipse
 10
6.716207067182127
 20
75.12497053079767
 30
0.0
 11
1.25
 21
-2.165063509461097
 31
0.0
210
0.0
220
0.0
230
1.0
 40
0.5773502691896259
 41
0.0
 42
6.283185307179586
  0
ELLIPSE
  5
27D3
330
27A9
100
AcDbEntity
  8
0
100
AcDbEllipse
 10
6.716207067182127
 20
42.46510729368861
 30
0.0
 11
1.25
 21
-2.165063509461097
 31
0.0
210
0.0
220
0.0
230
1.0
 40
0.5773502691896259
 41
0.0
 42
6.283185307179586
  0
ELLIPSE
  5
27D4
330
27A9
100
AcDbEntity
  8
0
100
AcDbEllipse
 10
6.716207067182122
 20
9.80524405657956
 30
0.0
 11
1.25
 21
-2.165063509461097
 31
0.0
210
0.0
220
0.0
230
1.0
 40
0.5773502691896259
 41
0.0
 42
6.283185307179586
  0
ELLIPSE
  5
27D5
330
27A9
100
AcDbEntity
  8
0
100
AcDbEllipse
 10
6.716207067182122
 20
-22.85461918052948
 30
0.0
 11
1.25
 21
-2.165063509461097
 31
0.0
210
0.0
220
0.0
230
1.0
 40
0.5773502691896259
 41
0.0
 42
6.283185307179586
  0
ELLIPSE
  5
27D6
330
27A9
100
AcDbEntity
  8
0
100
AcDbEllipse
 10
7.776867238961941
 20
-54.90210998194273
 30
0.0
 11
1.250000000000129
 21
-2.165063509461022
 31
0.0
210
0.0
220
0.0
230
1.0
 40
0.5773502691896261
 41
3.579741684173546
 42
5.845036276594996
  0
ELLIPSE
  5
27D7
330
27A9
100
AcDbEntity
  8
0
100
AcDbEllipse
 10
6.716207067182118
 20
-55.51448241763852
 30
0.0
 11
1.25
 21
-2.165063509461097
 31
0.0
210
0.0
220
0.0
230
1.0
 40
0.5773502691896259
 41
0.0
 42
6.283185307179586
  0
ELLIPSE
  5
27D8
330
27A9
100
AcDbEntity
  8
0
100
AcDbEllipse
 10
0.7057994270964807
 20
161.4694839639047
 30
0.0
 11
1.250000000000129
 21
-2.165063509461021
 31
0.0
210
0.0
220
0.0
230
1.0
 40
0.577350269189626
 41
3.579741684173534
 42
5.845036276594992
  0
ELLIPSE
  5
27D9
330
27A9
100
AcDbEntity
  8
0
100
AcDbEllipse
 10
0.7057994270964763
 20
128.8096207267956
 30
0.0
 11
1.250000000000129
 21
-2.165063509461021
 31
0.0
210
0.0
220
0.0
230
1.0
 40
0.577350269189626
 41
3.579741684173544
 42
5.845036276595001
  0
ELLIPSE
  5
27DA
330
27A9
100
AcDbEntity
  8
0
100
AcDbEllipse
 10
0.7057994270964763
 20
96.1497574896866
 30
0.0
 11
1.250000000000129
 21
-2.165063509461021
 31
0.0
210
0.0
220
0.0
230
1.0
 40
0.577350269189626
 41
3.579741684173544
 42
5.845036276595001
  0
ELLIPSE
  5
27DB
330
27A9
100
AcDbEntity
  8
0
100
AcDbEllipse
 10
0.7057994270964718
 20
63.48989425257755
 30
0.0
 11
1.250000000000129
 21
-2.165063509461021
 31
0.0
210
0.0
220
0.0
230
1.0
 40
0.577350269189626
 41
3.579741684173544
 42
5.845036276595001
  0
ELLIPSE
  5
27DC
330
27A9
100
AcDbEntity
  8
0
100
AcDbEllipse
 10
0.7057994270964718
 20
30.83003101546851
 30
0.0
 11
1.250000000000129
 21
-2.165063509461021
 31
0.0
210
0.0
220
0.0
230
1.0
 40
0.577350269189626
 41
3.579741684173544
 42
5.845036276594997
  0
ELLIPSE
  5
27DD
330
27A9
100
AcDbEntity
  8
0
100
AcDbEllipse
 10
0.7057994270964674
 20
-1.829832221640543
 30
0.0
 11
1.250000000000129
 21
-2.165063509461021
 31
0.0
210
0.0
220
0.0
230
1.0
 40
0.577350269189626
 41
3.579741684173544
 42
5.845036276594997
  0
ELLIPSE
  5
27DE
330
27A9
100
AcDbEntity
  8
0
100
AcDbEllipse
 10
0.7057994270964674
 20
-34.48969545874959
 30
0.0
 11
1.250000000000129
 21
-2.165063509461021
 31
0.0
210
0.0
220
0.0
230
1.0
 40
0.577350269189626
 41
3.579741684173544
 42
5.845036276594996
  0
ELLIPSE
  5
27DF
330
27A9
100
AcDbEntity
  8
0
100
AcDbEllipse
 10
-0.3548607446833429
 20
160.8571115282089
 30
0.0
 11
1.25
 21
-2.165063509461097
 31
0.0
210
0.0
220
0.0
230
1.0
 40
0.5773502691896259
 41
0.0
 42
6.283185307179586
  0
ELLIPSE
  5
27E0
330
27A9
100
AcDbEntity
  8
0
100
AcDbEllipse
 10
-0.3548607446833474
 20
128.1972482910998
 30
0.0
 11
1.25
 21
-2.165063509461097
 31
0.0
210
0.0
220
0.0
230
1.0
 40
0.5773502691896259
 41
0.0
 42
6.283185307179586
  0
ELLIPSE
  5
27E1
330
27A9
100
AcDbEntity
  8
0
100
AcDbEllipse
 10
-0.3548607446833474
 20
95.53738505399081
 30
0.0
 11
1.25
 21
-2.165063509461097
 31
0.0
210
0.0
220
0.0
230
1.0
 40
0.5773502691896259
 41
0.0
 42
6.283185307179586
  0
ELLIPSE
  5
27E2
330
27A9
100
AcDbEntity
  8
0
100
AcDbEllipse
 10
-0.3548607446833518
 20
62.87752181688176
 30
0.0
 11
1.25
 21
-2.165063509461097
 31
0.0
210
0.0
220
0.0
230
1.0
 40
0.5773502691896259
 41
0.0
 42
6.283185307179586
  0
ELLIPSE
  5
27E3
330
27A9
100
AcDbEntity
  8
0
100
AcDbEllipse
 10
-0.3548607446833518
 20
30.21765857977272
 30
0.0
 11
1.25
 21
-2.165063509461097
 31
0.0
210
0.0
220
0.0
230
1.0
 40
0.5773502691896259
 41
0.0
 42
6.283185307179586
  0
ELLIPSE
  5
27E4
330
27A9
100
AcDbEntity
  8
0
100
AcDbEllipse
 10
-0.3548607446833563
 20
-2.442204657336333
 30
0.0
 11
1.25
 21
-2.165063509461097
 31
0.0
210
0.0
220
0.0
230
1.0
 40
0.5773502691896259
 41
0.0
 42
6.283185307179586
  0
ELLIPSE
  5
27E5
330
27A9
100
AcDbEntity
  8
0
100
AcDbEllipse
 10
-0.3548607446833563
 20
-35.10206789444538
 30
0.0
 11
1.25
 21
-2.165063509461097
 31
0.0
210
0.0
220
0.0
230
1.0
 40
0.5773502691896259
 41
0.0
 42
6.283185307179586
  0
ELLIPSE
  5
27E6
330
27A9
100
AcDbEntity
  8
0
100
AcDbEllipse
 10
0.705799427096463
 20
-67.14955869585863
 30
0.0
 11
1.25000000000013
 21
-2.165063509461022
 31
0.0
210
0.0
220
0.0
230
1.0
 40
0.5773502691896259
 41
3.579741684173544
 42
5.845036276594997
  0
ELLIPSE
  5
27E7
330
27A9
100
AcDbEntity
  8
0
100
AcDbEllipse
 10
-0.3548607446833607
 20
-67.76193113155443
 30
0.0
 11
1.25
 21
-2.165063509461097
 31
0.0
210
0.0
220
0.0
230
1.0
 40
0.5773502691896259
 41
0.0
 42
6.283185307179586
  0
ELLIPSE
  5
27E8
330
27A9
100
AcDbEntity
  8
0
100
AcDbEllipse
 10
-15.57681245958337
 20
-8.758993484310266
 30
0.0
 11
1.25
 21
-2.165063509461097
 31
0.0
210
0.0
220
0.0
230
1.0
 40
0.5773502691896259
 41
5.508682942396005
 42
5.845036276595415
  0
ELLIPSE
  5
27E9
330
27A9
100
AcDbEntity
  8
0
100
AcDbEllipse
 10
69.31431312158082
 20
-57.77090769040575
 30
0.0
 11
1.250000000000129
 21
-2.165063509461021
 31
0.0
210
0.0
220
0.0
230
1.0
 40
0.577350269189626
 41
3.579741684173544
 42
5.845036276594997
  0
ELLIPSE
  5
27EA
330
27A9
100
AcDbEntity
  8
0
100
AcDbEllipse
 10
-16.63747263136319
 20
-9.371365920006073
 30
0.0
 11
1.249999999999999
 21
-2.165063509461097
 31
0.0
210
0.0
220
0.0
230
0.9999999999999998
 40
0.577350269189626
 41
5.508682942396005
 42
7.057687671963167
  0
ELLIPSE
  5
27EB
330
27A9
100
AcDbEntity
  8
0
100
AcDbEllipse
 10
68.25365294980101
 20
-58.38328012610154
 30
0.0
 11
1.25
 21
-2.165063509461097
 31
0.0
210
0.0
220
0.0
230
1.0
 40
0.5773502691896259
 41
0.0
 42
6.283185307179586
  0
ELLIPSE
  5
27EC
330
27A9
100
AcDbEntity
  8
0
100
AcDbEllipse
 10
-11.33417177246407
 20
-43.86834646420249
 30
0.0
 11
1.250000000000129
 21
-2.165063509461022
 31
0.0
210
0.0
220
0.0
230
1.0
 40
0.577350269189626
 41
3.579741684173544
 42
5.845036276594997
  0
ELLIPSE
  5
27ED
330
27A9
100
AcDbEntity
  8
0
100
AcDbEllipse
 10
73.55695380870011
 20
-92.88026067029797
 30
0.0
 11
1.250000000000129
 21
-2.165063509461022
 31
0.0
210
0.0
220
0.0
230
1.0
 40
0.577350269189626
 41
3.579741684173544
 42
5.845036276594997
  0
ELLIPSE
  5
27EE
330
27A9
100
AcDbEntity
  8
0
100
AcDbEllipse
 10
-12.3948319442439
 20
-44.48071889989829
 30
0.0
 11
1.25
 21
-2.165063509461097
 31
0.0
210
0.0
220
0.0
230
1.0
 40
0.5773502691896259
 41
0.0
 42
6.283185307179586
  0
ELLIPSE
  5
27EF
330
27A9
100
AcDbEntity
  8
0
100
AcDbEllipse
 10
72.49629363692029
 20
-93.49263310599376
 30
0.0
 11
1.25
 21
-2.165063509461097
 31
0.0
210
0.0
220
0.0
230
1.0
 40
0.5773502691896259
 41
0.0
 42
6.283185307179586
  0
ELLIPSE
  5
27F0
330
27A9
100
AcDbEntity
  8
0
100
AcDbEllipse
 10
51.97104106312117
 20
-104.9125255637659
 30
0.0
 11
1.250000000000129
 21
-2.165063509461022
 31
0.0
210
0.0
220
0.0
230
0.9999999999999998
 40
0.577350269189626
 41
3.579741684173544
 42
3.835017178248642
  0
ELLIPSE
  5
27F1
330
27A9
100
AcDbEntity
  8
0
100
AcDbEllipse
 10
6.009100285995576
 20
-78.3763866836148
 30
0.0
 11
1.250000000000129
 21
-2.165063509461022
 31
0.0
210
0.0
220
0.0
230
1.0
 40
0.577350269189626
 41
3.579741684173544
 42
3.835017178248644
  0
SPLINE
  5
27F2
330
27A9
100
AcDbEntity
  8
0
100
AcDbSpline
210
0.0
220
0.0
230
1.0
 70
     8
 71
     3
 72
     8
 73
     4
 74
     0
 42
0.000000001
 43
0.0000000001
 40
0.0
 40
0.0
 40
0.0
 40
0.0
 40
1.0
 40
1.0
 40
1.0
 40
1.0
 10
50.21074574406056
 20
-103.7087427589908
 30
0.0
 10
50.19189334216545
 20
-104.148643613641
 30
0.0
 10
50.04223714269997
 20
-104.7068092262364
 30
0.0
 10
49.82612762159982
 20
-105.2013262024011
 30
0.0
  0
ELLIPSE
  5
27F3
330
27A9
100
AcDbEntity
  8
0
100
AcDbEllipse
 10
5.141143656122095
 20
-78.67043333993906
 30
0.0
 11
-1.249999999999998
 21
-2.165063509461097
 31
0.0
210
0.0
220
0.0
230
0.9999999999999998
 40
0.8164965809277262
 41
4.968762307403181
 42
7.59760830695599
  0
ELLIPSE
  5
27F4
330
27A9
100
AcDbEntity
  8
0
100
AcDbEllipse
 10
51.1030844332477
 20
-105.2065722200901
 30
0.0
 11
-1.249999999999997
 21
-2.165063509461097
 31
0.0
210
0.0
220
0.0
230
0.9999999999999998
 40
0.8164965809277262
 41
4.968762307403181
 42
7.597608306955988
  0
SPLINE
  5
27F5
330
27A9
100
AcDbEntity
  8
0
100
AcDbSpline
210
0.0
220
0.0
230
1.0
 70
     8
 71
     3
 72
     8
 73
     4
 74
     0
 42
0.000000001
 43
0.0000000001
 40
-1.0
 40
-1.0
 40
-1.0
 40
-1.0
 40
0.0
 40
0.0
 40
0.0
 40
0.0
 10
49.07612762159982
 20
-104.7683135005089
 30
0.0
 10
49.10069463394591
 20
-104.6055578813154
 30
0.0
 10
49.13123317038562
 20
-104.4390265536516
 30
0.0
 10
49.15008557228073
 20
-104.3211151946866
 30
0.0
  0
SPLINE
  5
27F6
330
27A9
100
AcDbEntity
  8
0
100
AcDbSpline
210
0.0
220
0.0
230
1.0
 70
     8
 71
     3
 72
     8
 73
     4
 74
     0
 42
0.000000001
 43
0.0000000001
 40
-1.0
 40
-1.0
 40
-1.0
 40
-1.0
 40
0.0
 40
0.0
 40
0.0
 40
0.0
 10
6.708735433276387
 20
-79.81759026716132
 30
0.0
 10
6.7275878351708
 20
-79.95727050474397
 30
0.0
 10
6.66283224118962
 20
-80.10404660502528
 30
0.0
 10
6.534165246533438
 20
-80.20670007140942
 30
0.0
  0
ELLIPSE
  5
27F7
330
27A9
100
AcDbEntity
  8
0
100
AcDbEllipse
 10
5.891143656122084
 20
-79.10344604183127
 30
0.0
 11
-1.249999999999999
 21
-2.165063509461097
 31
0.0
210
0.0
220
0.0
230
0.9999999999999998
 40
0.816496580927726
 41
4.968762307403181
 42
6.069429174707153
  0
LINE
  5
27F8
330
27A9
100
AcDbEntity
  8
0
100
AcDbLine
 10
3.8641868444742
 20
-78.66518732225005
 30
0.0
 11
3.363936844572705
 21
-78.3763678501448
 31
0.0
  0
LINE
  5
27F9
330
27A9
100
AcDbEntity
  8
0
100
AcDbLine
 10
3.363936844572705
 20
-78.3763678501448
 30
0.0
 11
3.114186844474198
 21
-78.23217462035782
 31
0.0
  0
LINE
  5
27FA
330
27A9
100
AcDbEntity
  8
0
100
AcDbLine
 10
3.188144795155105
 20
-77.78497631453551
 30
0.0
 11
3.541344632749967
 21
-77.58105629322239
 31
0.0
  0
SPLINE
  5
27FB
330
27A9
100
AcDbEntity
  8
0
100
AcDbSpline
210
0.0
220
0.0
230
1.0
 70
     8
 71
     3
 72
     8
 73
     4
 74
     0
 42
0.000000001
 43
0.0000000001
 40
-1.0
 40
-1.0
 40
-1.0
 40
-1.0
 40
0.0
 40
0.0
 40
0.0
 40
0.0
 10
3.114186844474193
 20
-78.23217462035782
 30
0.0
 10
3.138753856821208
 20
-78.06941900116488
 30
0.0
 10
3.169292393260745
 20
-77.902887673501
 30
0.0
 10
3.18814479515511
 20
-77.78497631453553
 30
0.0
  0
SPLINE
  5
27FC
330
27A9
100
AcDbEntity
  8
0
100
AcDbSpline
210
0.0
220
0.0
230
1.0
 70
     8
 71
     3
 72
     8
 73
     4
 74
     0
 42
0.000000001
 43
0.0000000001
 40
0.0
 40
0.0
 40
0.0
 40
0.0
 40
1.0
 40
1.0
 40
1.0
 40
1.0
 10
4.248804966934929
 20
-77.17260387883974
 30
0.0
 10
4.229952565040564
 20
-77.61250473349033
 30
0.0
 10
4.080296365575293
 20
-78.17067034608581
 30
0.0
 10
3.864186844474195
 20
-78.66518732225005
 30
0.0
  0
LINE
  5
27FD
330
27A9
100
AcDbEntity
  8
0
100
AcDbLine
 10
3.541344632749967
 20
-77.58105629322239
 30
0.0
 11
4.248804966934924
 21
-77.17260387883972
 31
0.0
  0
ELLIPSE
  5
27FE
330
27A9
100
AcDbEntity
  8
0
100
AcDbEllipse
 10
4.948440114215753
 20
-78.9887591193106
 30
0.0
 11
-1.25
 21
2.165063509461095
 31
0.0
210
0.0
220
0.0
230
1.0
 40
0.577350269189626
 41
4.018964455725487
 42
6.976609831838795
  0
ELLIPSE
  5
27FF
330
27A9
100
AcDbEntity
  8
0
100
AcDbEllipse
 10
51.85308443324768
 20
-105.6395849219823
 30
0.0
 11
-1.250000000000001
 21
-2.165063509461096
 31
0.0
210
0.0
220
0.0
230
0.9999999999999998
 40
0.8164965809277262
 41
4.968762307403183
 42
6.069429174707157
  0
LINE
  5
2800
330
27A9
100
AcDbEntity
  8
0
100
AcDbLine
 10
49.8261276215998
 20
-105.2013262024011
 30
0.0
 11
49.32587762170819
 21
-104.9125067303016
 31
0.0
  0
LINE
  5
2801
330
27A9
100
AcDbEntity
  8
0
100
AcDbLine
 10
49.32587762170819
 20
-104.9125067303016
 30
0.0
 11
49.07612762159979
 21
-104.7683135005089
 31
0.0
  0
LINE
  5
2802
330
27A9
100
AcDbEntity
  8
0
100
AcDbLine
 10
49.15008557228071
 20
-104.3211151946866
 30
0.0
 11
49.5032854099064
 21
-104.1171951733557
 31
0.0
  0
LINE
  5
2803
330
27A9
100
AcDbEntity
  8
0
100
AcDbLine
 10
49.5032854099064
 20
-104.1171951733557
 30
0.0
 11
50.21074574406053
 21
-103.7087427589908
 31
0.0
  0
SPLINE
  5
2804
330
27A9
100
AcDbEntity
  8
0
100
AcDbSpline
210
0.0
220
0.0
230
1.0
 70
     8
 71
     3
 72
     8
 73
     4
 74
     0
 42
0.000000001
 43
0.0000000001
 40
-1.0
 40
-1.0
 40
-1.0
 40
-1.0
 40
0.0
 40
0.0
 40
0.0
 40
0.0
 10
52.67067621040199
 20
-106.3537291473124
 30
0.0
 10
52.68952861229635
 20
-106.493409384895
 30
0.0
 10
52.62477301831612
 20
-106.6401854851769
 30
0.0
 10
52.49610602365902
 20
-106.7428389515605
 30
0.0
  0
ELLIPSE
  5
2805
330
27A9
100
AcDbEntity
  8
0
100
AcDbEllipse
 10
50.91038089134136
 20
-105.5248979994617
 30
0.0
 11
-1.25
 21
2.165063509461096
 31
0.0
210
0.0
220
0.0
230
1.0
 40
0.577350269189626
 41
4.018964455725479
 42
6.976609831838792
  0
ELLIPSE
  5
2806
330
27A9
100
AcDbEntity
  8
0
100
AcDbEllipse
 10
37.82890543939022
 20
-96.74755975448864
 30
0.0
 11
1.250000000000129
 21
-2.165063509461022
 31
0.0
210
0.0
220
0.0
230
1.0
 40
0.577350269189626
 41
3.579741684173544
 42
3.835017178248645
  0
ELLIPSE
  5
2807
330
27A9
100
AcDbEntity
  8
0
100
AcDbEllipse
 10
16.61570200379376
 20
-84.50011104057272
 30
0.0
 11
1.250000000000129
 21
-2.165063509461022
 31
0.0
210
0.0
220
0.0
230
1.0
 40
0.577350269189626
 41
3.579741684173546
 42
3.835017178248645
  0
ELLIPSE
  5
2808
330
27A9
100
AcDbEntity
  8
0
100
AcDbEllipse
 10
16.49774537392026
 20
-85.22717039878919
 30
0.0
 11
-1.25
 21
-2.165063509461097
 31
0.0
210
0.0
220
0.0
230
1.0
 40
0.816496580927726
 41
4.968762307403182
 42
6.283185307179588
  0
LINE
  5
2809
330
27A9
100
AcDbEntity
  8
0
100
AcDbLine
 10
14.4707885622724
 20
-84.78891167920798
 30
0.0
 11
13.97053856237496
 21
-84.5000922071051
 31
0.0
  0
LINE
  5
280A
330
27A9
100
AcDbEntity
  8
0
100
AcDbLine
 10
13.97053856237496
 20
-84.5000922071051
 30
0.0
 11
13.7207885622724
 21
-84.35589897731576
 31
0.0
  0
ELLIPSE
  5
280B
330
27A9
100
AcDbEntity
  8
0
100
AcDbEllipse
 10
15.74774537392028
 20
-84.79415769689699
 30
0.0
 11
-1.25
 21
-2.165063509461098
 31
0.0
210
0.0
220
0.0
230
0.9999999999999998
 40
0.8164965809277259
 41
4.968762307403181
 42
6.283185307179588
  0
LINE
  5
280C
330
27A9
100
AcDbEntity
  8
0
100
AcDbLine
 10
18.03327927985305
 20
-89.00046265867741
 30
0.0
 11
14.49774537392028
 21
-86.95922120635811
 31
0.0
  0
ELLIPSE
  5
280D
330
27A9
100
AcDbEntity
  8
0
100
AcDbEllipse
 10
19.28327927985304
 20
-86.83539914921633
 30
0.0
 11
-1.249999999999998
 21
-2.165063509461098
 31
0.0
210
0.0
220
0.0
230
0.9999999999999998
 40
0.8164965809277264
 41
0.0
 42
1.314422999776404
  0
LINE
  5
280E
330
27A9
100
AcDbEntity
  8
0
100
AcDbLine
 10
13.79474651295329
 20
-83.90870067149345
 30
0.0
 11
14.14794635053866
 21
-83.70478065018581
 31
0.0
  0
SPLINE
  5
280F
330
27A9
100
AcDbEntity
  8
0
100
AcDbSpline
210
0.0
220
0.0
230
1.0
 70
     8
 71
     3
 72
     8
 73
     4
 74
     0
 42
0.000000001
 43
0.0000000001
 40
-1.0
 40
-1.0
 40
-1.0
 40
-1.0
 40
0.0
 40
0.0
 40
0.0
 40
0.0
 10
13.7207885622724
 20
-84.35589897731576
 30
0.0
 10
13.74535557461902
 20
-84.19314335812263
 30
0.0
 10
13.77589411105916
 20
-84.02661203045903
 30
0.0
 10
13.79474651295329
 20
-83.90870067149345
 30
0.0
  0
SPLINE
  5
2810
330
27A9
100
AcDbEntity
  8
0
100
AcDbSpline
210
0.0
220
0.0
230
1.0
 70
     8
 71
     3
 72
     8
 73
     4
 74
     0
 42
0.000000001
 43
0.0000000001
 40
0.0
 40
0.0
 40
0.0
 40
0.0
 40
1.0
 40
1.0
 40
1.0
 40
1.0
 10
14.85540668473311
 20
-83.29632823579766
 30
0.0
 10
14.83655428283898
 20
-83.73622909044833
 30
0.0
 10
14.68689808337306
 20
-84.29439470304364
 30
0.0
 10
14.4707885622724
 20
-84.78891167920798
 30
0.0
  0
LINE
  5
2811
330
27A9
100
AcDbEntity
  8
0
100
AcDbLine
 10
14.14794635053866
 20
-83.70478065018581
 30
0.0
 11
14.85540668473312
 21
-83.29632823579766
 31
0.0
  0
SPLINE
  5
2812
330
27A9
100
AcDbEntity
  8
0
100
AcDbSpline
210
0.0
220
0.0
230
1.0
 70
     8
 71
     3
 72
     8
 73
     4
 74
     0
 42
0.000000001
 43
0.0000000001
 40
-1.0
 40
-1.0
 40
-1.0
 40
-1.0
 40
0.0
 40
0.0
 40
0.0
 40
0.0
 10
20.85087105700734
 20
-87.98255607643858
 30
0.0
 10
20.86972345890153
 20
-88.1222363140211
 30
0.0
 10
20.8049678649208
 20
-88.26901241430276
 30
0.0
 10
20.67630087026438
 20
-88.37166588068669
 30
0.0
  0
ELLIPSE
  5
2813
330
27A9
100
AcDbEntity
  8
0
100
AcDbEllipse
 10
19.0905757379467
 20
-87.15372492858785
 30
0.0
 11
1.24999999999987
 21
-2.165063509461171
 31
0.0
210
0.0
220
0.0
230
1.0
 40
0.5773502691896259
 41
0.877371802135908
 42
2.356194490192587
  0
LINE
  5
2814
330
27A9
100
AcDbEntity
  8
0
100
AcDbLine
 10
15.55504183201394
 20
-83.07124202394923
 30
0.0
 11
19.0905757379467
 21
-85.11248347626853
 31
0.0
  0
ELLIPSE
  5
2815
330
27A9
100
AcDbEntity
  8
0
100
AcDbEllipse
 10
15.55504183201394
 20
-85.11248347626853
 30
0.0
 11
-1.25
 21
2.165063509461097
 31
0.0
210
0.0
220
0.0
230
1.0
 40
0.577350269189626
 41
5.497787143782135
 42
6.976609831838791
  0
ELLIPSE
  5
2816
330
27A9
100
AcDbEntity
  8
0
100
AcDbEllipse
 10
37.71094880951673
 20
-97.47461911270512
 30
0.0
 11
-1.25
 21
-2.165063509461097
 31
0.0
210
0.0
220
0.0
230
1.0
 40
0.8164965809277259
 41
4.968762307403174
 42
6.283185307179585
  0
LINE
  5
2817
330
27A9
100
AcDbEntity
  8
0
100
AcDbLine
 10
35.68399199786886
 20
-97.03636039312389
 30
0.0
 11
35.18374199796776
 21
-96.74754092101887
 31
0.0
  0
LINE
  5
2818
330
27A9
100
AcDbEntity
  8
0
100
AcDbLine
 10
35.18374199796776
 20
-96.74754092101887
 30
0.0
 11
34.93399199786885
 21
-96.60334769123167
 31
0.0
  0
ELLIPSE
  5
2819
330
27A9
100
AcDbEntity
  8
0
100
AcDbEllipse
 10
36.96094880951674
 20
-97.04160641081289
 30
0.0
 11
-1.25
 21
-2.165063509461098
 31
0.0
210
0.0
220
0.0
230
0.9999999999999998
 40
0.8164965809277259
 41
4.968762307403181
 42
6.283185307179587
  0
LINE
  5
281A
330
27A9
100
AcDbEntity
  8
0
100
AcDbLine
 10
39.24648271544951
 20
-101.2479113725933
 30
0.0
 11
35.71094880951675
 21
-99.20666992027399
 31
0.0
  0
ELLIPSE
  5
281B
330
27A9
100
AcDbEntity
  8
0
100
AcDbEllipse
 10
40.4964827154495
 20
-99.08284786313224
 30
0.0
 11
-1.249999999999999
 21
-2.165063509461097
 31
0.0
210
0.0
220
0.0
230
1.0
 40
0.8164965809277262
 41
0.0
 42
1.314422999776398
  0
LINE
  5
281C
330
27A9
100
AcDbEntity
  8
0
100
AcDbLine
 10
35.00794994854975
 20
-96.15614938540936
 30
0.0
 11
35.36114978612253
 21
-95.95222936410896
 31
0.0
  0
SPLINE
  5
281D
330
27A9
100
AcDbEntity
  8
0
100
AcDbSpline
210
0.0
220
0.0
230
1.0
 70
     8
 71
     3
 72
     8
 73
     4
 74
     0
 42
0.000000001
 43
0.0000000001
 40
-1.0
 40
-1.0
 40
-1.0
 40
-1.0
 40
0.0
 40
0.0
 40
0.0
 40
0.0
 10
34.93399199786885
 20
-96.60334769123167
 30
0.0
 10
34.95855901021582
 20
-96.44059207203873
 30
0.0
 10
34.98909754665591
 20
-96.27406074437514
 30
0.0
 10
35.00794994854974
 20
-96.15614938540936
 30
0.0
  0
SPLINE
  5
281E
330
27A9
100
AcDbEntity
  8
0
100
AcDbSpline
210
0.0
220
0.0
230
1.0
 70
     8
 71
     3
 72
     8
 73
     4
 74
     0
 42
0.000000001
 43
0.0000000001
 40
0.0
 40
0.0
 40
0.0
 40
0.0
 40
1.0
 40
1.0
 40
1.0
 40
1.0
 10
36.06861012032957
 20
-95.54377694971355
 30
0.0
 10
36.04975771843573
 20
-95.98367780436445
 30
0.0
 10
35.90010151896986
 20
-96.54184341695978
 30
0.0
 10
35.68399199786886
 20
-97.03636039312389
 30
0.0
  0
LINE
  5
281F
330
27A9
100
AcDbEntity
  8
0
100
AcDbLine
 10
35.36114978612253
 20
-95.95222936410896
 30
0.0
 11
36.06861012032958
 21
-95.54377694971355
 31
0.0
  0
SPLINE
  5
2820
330
27A9
100
AcDbEntity
  8
0
100
AcDbSpline
210
0.0
220
0.0
230
1.0
 70
     8
 71
     3
 72
     8
 73
     4
 74
     0
 42
0.000000001
 43
0.0000000001
 40
-1.0
 40
-1.0
 40
-1.0
 40
-1.0
 40
0.0
 40
0.0
 40
0.0
 40
0.0
 10
42.06407449260381
 20
-100.2300047903545
 30
0.0
 10
42.08292689449756
 20
-100.3696850279367
 30
0.0
 10
42.01817130051703
 20
-100.5164611282185
 30
0.0
 10
41.88950430586084
 20
-100.6191145946026
 30
0.0
  0
ELLIPSE
  5
2821
330
27A9
100
AcDbEntity
  8
0
100
AcDbEllipse
 10
40.30377917354316
 20
-99.40117364250376
 30
0.0
 11
1.24999999999987
 21
-2.165063509461171
 31
0.0
210
0.0
220
0.0
230
1.0
 40
0.5773502691896259
 41
0.8773718021358991
 42
2.356194490192587
  0
LINE
  5
2822
330
27A9
100
AcDbEntity
  8
0
100
AcDbLine
 10
36.7682452676104
 20
-95.31869073786511
 30
0.0
 11
40.30377917354316
 21
-97.35993219018446
 31
0.0
  0
ELLIPSE
  5
2823
330
27A9
100
AcDbEntity
  8
0
100
AcDbEllipse
 10
36.7682452676104
 20
-97.35993219018443
 30
0.0
 11
-1.25
 21
2.165063509461096
 31
0.0
210
0.0
220
0.0
230
1.0
 40
0.577350269189626
 41
5.497787143782135
 42
6.97660983183879
  0
LINE
  5
2824
330
27A9
100
AcDbEntity
  8
0
100
AcDbLine
 10
63.92114566517385
 20
150.201831147102
 30
0.0
 11
-5.941004316057068
 21
190.5367622449317
 31
0.0
  0
LINE
  5
2825
330
27A9
100
AcDbEntity
  8
0
100
AcDbLine
 10
34.64692492405097
 20
-60.6175860484369
 30
0.0
 11
34.64692492405099
 21
127.5032261973112
 31
0.0
  0
LINE
  5
2826
330
27A9
100
AcDbEntity
  8
0
100
AcDbLine
 10
33.58626475227115
 20
128.115598633007
 30
0.0
 11
33.58626475227114
 21
-60.00521361274113
 31
0.0
  0
LINE
  5
2827
330
27A9
100
AcDbEntity
  8
0
100
AcDbLine
 10
63.92114566517386
 20
-47.79858972787152
 30
0.0
 11
38.18245882998367
 21
-62.65882750075622
 31
0.0
  0
LINE
  5
2828
330
27A9
100
AcDbEntity
  8
0
100
AcDbLine
 10
38.1824588299837
 20
133.6269505542691
 30
0.0
 11
63.92114566517388
 21
148.4871883271538
 31
0.0
  0
LINE
  5
2829
330
27A9
100
AcDbEntity
  8
0
100
AcDbLine
 10
-38.18507353816364
 20
169.5528001150892
 30
0.0
 11
-38.18507353816364
 21
-18.56801213065893
 31
0.0
  0
LINE
  5
282A
330
27A9
100
AcDbEntity
  8
0
100
AcDbLine
 10
-8.910852797040567
 20
190.5367622449317
 30
0.0
 11
-34.6495396322309
 21
175.6765244720471
 31
0.0
  0
LINE
  5
282B
330
27A9
100
AcDbEntity
  8
0
100
AcDbLine
 10
-37.12441336638381
 20
168.9404276793934
 30
0.0
 11
-37.12441336638382
 21
-19.18038456635471
 31
0.0
  0
LINE
  5
282C
330
27A9
100
AcDbEntity
  8
0
100
AcDbLine
 10
63.92114566517388
 20
148.4871883271538
 30
0.0
 11
62.86048549339405
 21
149.0995607628496
 31
0.0
  0
LINE
  5
282D
330
27A9
100
AcDbEntity
  8
0
100
AcDbLine
 10
62.86048549339405
 20
149.0995607628496
 30
0.0
 11
37.12179865820387
 21
134.2393229899649
 31
0.0
  0
LINE
  5
282E
330
27A9
100
AcDbEntity
  8
0
100
AcDbLine
 10
-7.001664487836904
 20
-6.361388245789427
 30
0.0
 11
-4.951054822395914
 21
-7.545308288134648
 31
0.0
  0
LINE
  5
282F
330
27A9
100
AcDbEntity
  8
0
100
AcDbLine
 10
63.92114566517385
 20
150.201831147102
 30
0.0
 11
62.86048549339404
 21
149.5894587114062
 31
0.0
  0
LINE
  5
2830
330
27A9
100
AcDbEntity
  8
0
100
AcDbLine
 10
-5.941004316057068
 20
190.5367622449317
 30
0.0
 11
-7.001664487836891
 21
189.9243898092359
 31
0.0
  0
LINE
  5
2831
330
27A9
100
AcDbEntity
  8
0
100
AcDbLine
 10
-8.910852797040567
 20
190.5367622449317
 30
0.0
 11
-7.850192625260743
 21
189.9243898092359
 31
0.0
  0
LINE
  5
2832
330
27A9
100
AcDbEntity
  8
0
100
AcDbLine
 10
-7.001664487836891
 20
189.9243898092359
 30
0.0
 11
62.86048549339404
 21
149.5894587114062
 31
0.0
  0
LINE
  5
2833
330
27A9
100
AcDbEntity
  8
0
100
AcDbLine
 10
-33.58887946045108
 20
-21.22162601867405
 30
0.0
 11
-7.850192625260756
 21
-6.361388245789427
 31
0.0
  0
LINE
  5
2834
330
27A9
100
AcDbEntity
  8
0
100
AcDbLine
 10
-33.58887946045108
 20
175.0641520363513
 30
0.0
 11
-7.850192625260743
 21
189.9243898092359
 31
0.0
  0
LINE
  5
2835
330
27A9
100
AcDbEntity
  8
0
100
AcDbLine
 10
38.18245882998367
 20
-62.65882750075622
 30
0.0
 11
34.64692492405097
 21
-60.6175860484369
 31
0.0
  0
LINE
  5
2836
330
27A9
100
AcDbEntity
  8
0
100
AcDbLine
 10
34.64692492405097
 20
-60.6175860484369
 30
0.0
 11
33.58626475227114
 21
-60.00521361274113
 31
0.0
  0
LINE
  5
2837
330
27A9
100
AcDbEntity
  8
0
100
AcDbLine
 10
33.58626475227115
 20
128.115598633007
 30
0.0
 11
34.64692492405099
 21
127.5032261973112
 31
0.0
  0
LINE
  5
2838
330
27A9
100
AcDbEntity
  8
0
100
AcDbLine
 10
34.64692492405099
 20
127.5032261973112
 30
0.0
 11
38.1824588299837
 21
133.6269505542691
 31
0.0
  0
LINE
  5
2839
330
27A9
100
AcDbEntity
  8
0
100
AcDbLine
 10
-33.58887946045108
 20
-21.22162601867405
 30
0.0
 11
-37.12441336638382
 21
-19.18038456635473
 31
0.0
  0
LINE
  5
283A
330
27A9
100
AcDbEntity
  8
0
100
AcDbLine
 10
-37.12441336638382
 20
-19.18038456635473
 30
0.0
 11
-38.18507353816364
 21
-18.56801213065893
 31
0.0
  0
LINE
  5
283B
330
27A9
100
AcDbEntity
  8
0
100
AcDbLine
 10
-34.6495396322309
 20
175.6765244720471
 30
0.0
 11
-38.18507353816364
 21
169.5528001150892
 31
0.0
  0
LINE
  5
283C
330
27A9
100
AcDbEntity
  8
0
100
AcDbLine
 10
-38.18507353816364
 20
169.5528001150892
 30
0.0
 11
-37.12441336638381
 21
168.9404276793934
 31
0.0
  0
LINE
  5
283D
330
27A9
100
AcDbEntity
  8
0
100
AcDbLine
 10
38.1824588299837
 20
133.6269505542691
 30
0.0
 11
37.12179865820387
 21
134.2393229899649
 31
0.0
  0
LINE
  5
283E
330
27A9
100
AcDbEntity
  8
0
100
AcDbLine
 10
37.12179865820387
 20
134.2393229899649
 30
0.0
 11
33.58626475227115
 21
128.115598633007
 31
0.0
  0
LINE
  5
283F
330
27A9
100
AcDbEntity
  8
0
100
AcDbLine
 10
-37.12441336638381
 20
168.9404276793934
 30
0.0
 11
-33.58887946045108
 21
175.0641520363513
 31
0.0
  0
LINE
  5
2840
330
27A9
100
AcDbEntity
  8
0
100
AcDbLine
 10
-33.58887946045108
 20
175.0641520363513
 30
0.0
 11
-34.6495396322309
 21
175.6765244720471
 31
0.0
  0
LINE
  5
2841
330
27A9
100
AcDbEntity
  8
0
100
AcDbLine
 10
7.42114566532932
 20
-169.1688596948178
 30
0.0
 11
7.421145665329329
 21
-163.3953570029216
 31
0.0
  0
LINE
  5
2842
330
27A9
100
AcDbEntity
  8
0
100
AcDbLine
 10
7.421145665329329
 20
-163.3953570029216
 30
0.0
 11
6.360485493549505
 21
-162.7829845672258
 31
0.0
  0
LINE
  5
2843
330
27A9
100
AcDbEntity
  8
0
100
AcDbLine
 10
6.360485493549505
 20
-162.7829845672258
 30
0.0
 11
6.360485493549523
 21
-168.556487259122
 31
0.0
  0
LINE
  5
2844
330
27A9
100
AcDbEntity
  8
0
100
AcDbLine
 10
6.360485493549523
 20
-168.556487259122
 30
0.0
 11
7.42114566532932
 21
-169.1688596948178
 31
0.0
  0
LINE
  5
2845
330
27A9
100
AcDbEntity
  8
0
100
AcDbLine
 10
-65.41085279688508
 20
-121.3457830851437
 30
0.0
 11
-65.41085279688504
 21
-127.1192857770399
 31
0.0
  0
LINE
  5
2846
330
27A9
100
AcDbEntity
  8
0
100
AcDbLine
 10
-65.41085279688504
 20
-127.1192857770399
 30
0.0
 11
-64.35019262510525
 21
-127.7316582127357
 31
0.0
  0
LINE
  5
2847
330
27A9
100
AcDbEntity
  8
0
100
AcDbLine
 10
-64.35019262510525
 20
-127.7316582127357
 30
0.0
 11
-64.35019262510525
 21
-121.9581555208395
 31
0.0
  0
LINE
  5
2848
330
27A9
100
AcDbEntity
  8
0
100
AcDbLine
 10
-64.35019262510525
 20
-121.9581555208395
 30
0.0
 11
-65.41085279688508
 21
-121.3457830851437
 31
0.0
  0
ELLIPSE
  5
2849
330
27A9
100
AcDbEntity
  8
0
100
AcDbEllipse
 10
40.30377917354297
 20
128.4013724363319
 30
0.0
 11
1.250000000000128
 21
2.165063509461022
 31
0.0
210
0.0
220
0.0
230
1.0
 40
0.5773502691896258
 41
0.0
 42
6.283185307179586
  0
ELLIPSE
  5
284A
330
27A9
100
AcDbEntity
  8
0
100
AcDbEllipse
 10
40.30377917354297
 20
112.0714408177773
 30
0.0
 11
1.250000000000128
 21
2.165063509461022
 31
0.0
210
0.0
220
0.0
230
1.0
 40
0.5773502691896258
 41
0.0
 42
6.283185307179586
  0
ELLIPSE
  5
284B
330
27A9
100
AcDbEntity
  8
0
100
AcDbEllipse
 10
40.30377917354297
 20
95.74150919922281
 30
0.0
 11
1.250000000000128
 21
2.165063509461022
 31
0.0
210
0.0
220
0.0
230
1.0
 40
0.5773502691896258
 41
0.0
 42
6.283185307179586
  0
ELLIPSE
  5
284C
330
27A9
100
AcDbEntity
  8
0
100
AcDbEllipse
 10
40.30377917354297
 20
79.41157758066829
 30
0.0
 11
1.250000000000128
 21
2.165063509461022
 31
0.0
210
0.0
220
0.0
230
1.0
 40
0.5773502691896258
 41
0.0
 42
6.283185307179586
  0
ELLIPSE
  5
284D
330
27A9
100
AcDbEntity
  8
0
100
AcDbEllipse
 10
40.30377917354297
 20
63.08164596211375
 30
0.0
 11
1.250000000000128
 21
2.165063509461022
 31
0.0
210
0.0
220
0.0
230
1.0
 40
0.5773502691896258
 41
0.0
 42
6.283185307179586
  0
ELLIPSE
  5
284E
330
27A9
100
AcDbEntity
  8
0
100
AcDbEllipse
 10
40.30377917354296
 20
46.75171434355923
 30
0.0
 11
1.250000000000128
 21
2.165063509461022
 31
0.0
210
0.0
220
0.0
230
1.0
 40
0.5773502691896258
 41
0.0
 42
6.283185307179586
  0
ELLIPSE
  5
284F
330
27A9
100
AcDbEntity
  8
0
100
AcDbEllipse
 10
40.30377917354296
 20
30.42178272500472
 30
0.0
 11
1.250000000000128
 21
2.165063509461022
 31
0.0
210
0.0
220
0.0
230
1.0
 40
0.5773502691896258
 41
0.0
 42
6.283185307179586
  0
ELLIPSE
  5
2850
330
27A9
100
AcDbEntity
  8
0
100
AcDbEllipse
 10
40.30377917354296
 20
14.09185110645019
 30
0.0
 11
1.250000000000128
 21
2.165063509461022
 31
0.0
210
0.0
220
0.0
230
1.0
 40
0.5773502691896258
 41
0.0
 42
6.283185307179586
  0
ELLIPSE
  5
2851
330
27A9
100
AcDbEntity
  8
0
100
AcDbEllipse
 10
40.30377917354296
 20
-2.238080512104332
 30
0.0
 11
1.250000000000128
 21
2.165063509461022
 31
0.0
210
0.0
220
0.0
230
1.0
 40
0.5773502691896258
 41
0.0
 42
6.283185307179586
  0
ELLIPSE
  5
2852
330
27A9
100
AcDbEntity
  8
0
100
AcDbEllipse
 10
40.30377917354296
 20
-18.56801213065885
 30
0.0
 11
1.250000000000128
 21
2.165063509461022
 31
0.0
210
0.0
220
0.0
230
1.0
 40
0.5773502691896258
 41
0.0
 42
6.283185307179586
  0
ELLIPSE
  5
2853
330
27A9
100
AcDbEntity
  8
0
100
AcDbEllipse
 10
40.30377917354296
 20
-34.89794374921338
 30
0.0
 11
1.250000000000128
 21
2.165063509461022
 31
0.0
210
0.0
220
0.0
230
1.0
 40
0.5773502691896258
 41
0.0
 42
6.283185307179586
  0
ELLIPSE
  5
2854
330
27A9
100
AcDbEntity
  8
0
100
AcDbEllipse
 10
39.24311900176315
 20
129.0137448720276
 30
0.0
 11
1.249999999999864
 21
2.165063509461174
 31
0.0
210
0.0
220
0.0
230
1.0
 40
0.5773502691896219
 41
3.579741684173542
 42
5.845036276595
  0
ELLIPSE
  5
2855
330
27A9
100
AcDbEntity
  8
0
100
AcDbEllipse
 10
39.24311900176314
 20
112.6838132534731
 30
0.0
 11
1.249999999999864
 21
2.165063509461174
 31
0.0
210
0.0
220
0.0
230
1.0
 40
0.5773502691896219
 41
3.579741684173542
 42
5.845036276594998
  0
ELLIPSE
  5
2856
330
27A9
100
AcDbEntity
  8
0
100
AcDbEllipse
 10
39.24311900176314
 20
96.3538816349186
 30
0.0
 11
1.249999999999864
 21
2.165063509461174
 31
0.0
210
0.0
220
0.0
230
1.0
 40
0.5773502691896219
 41
3.579741684173542
 42
5.845036276594998
  0
ELLIPSE
  5
2857
330
27A9
100
AcDbEntity
  8
0
100
AcDbEllipse
 10
39.24311900176314
 20
80.02395001636408
 30
0.0
 11
1.249999999999864
 21
2.165063509461174
 31
0.0
210
0.0
220
0.0
230
1.0
 40
0.5773502691896219
 41
3.579741684173542
 42
5.845036276594998
  0
ELLIPSE
  5
2858
330
27A9
100
AcDbEntity
  8
0
100
AcDbEllipse
 10
39.24311900176314
 20
63.69401839780955
 30
0.0
 11
1.249999999999864
 21
2.165063509461174
 31
0.0
210
0.0
220
0.0
230
1.0
 40
0.5773502691896219
 41
3.579741684173542
 42
5.845036276594989
  0
ELLIPSE
  5
2859
330
27A9
100
AcDbEntity
  8
0
100
AcDbEllipse
 10
39.24311900176314
 20
47.36408677925503
 30
0.0
 11
1.249999999999864
 21
2.165063509461174
 31
0.0
210
0.0
220
0.0
230
1.0
 40
0.5773502691896219
 41
3.579741684173542
 42
5.845036276594989
  0
ELLIPSE
  5
285A
330
27A9
100
AcDbEntity
  8
0
100
AcDbEllipse
 10
39.24311900176314
 20
31.03415516070051
 30
0.0
 11
1.249999999999864
 21
2.165063509461174
 31
0.0
210
0.0
220
0.0
230
1.0
 40
0.5773502691896219
 41
3.579741684173542
 42
5.845036276594992
  0
ELLIPSE
  5
285B
330
27A9
100
AcDbEntity
  8
0
100
AcDbEllipse
 10
39.24311900176314
 20
14.70422354214598
 30
0.0
 11
1.249999999999864
 21
2.165063509461174
 31
0.0
210
0.0
220
0.0
230
1.0
 40
0.5773502691896219
 41
3.579741684173542
 42
5.845036276594995
  0
ELLIPSE
  5
285C
330
27A9
100
AcDbEntity
  8
0
100
AcDbEllipse
 10
39.24311900176314
 20
-1.625708076408542
 30
0.0
 11
1.249999999999864
 21
2.165063509461174
 31
0.0
210
0.0
220
0.0
230
1.0
 40
0.5773502691896219
 41
3.579741684173548
 42
5.84503627659499
  0
ELLIPSE
  5
285D
330
27A9
100
AcDbEntity
  8
0
100
AcDbEllipse
 10
39.24311900176313
 20
-17.95563969496306
 30
0.0
 11
1.249999999999864
 21
2.165063509461174
 31
0.0
210
0.0
220
0.0
230
1.0
 40
0.5773502691896219
 41
3.579741684173548
 42
5.845036276594989
  0
ELLIPSE
  5
285E
330
27A9
100
AcDbEntity
  8
0
100
AcDbEllipse
 10
39.24311900176313
 20
-34.28557131351759
 30
0.0
 11
1.249999999999864
 21
2.165063509461174
 31
0.0
210
0.0
220
0.0
230
1.0
 40
0.5773502691896219
 41
3.579741684173548
 42
5.845036276594988
  0
ELLIPSE
  5
285F
330
27A9
100
AcDbEntity
  8
0
100
AcDbEllipse
 10
40.30377917354295
 20
-51.2278753677679
 30
0.0
 11
1.250000000000128
 21
2.165063509461022
 31
0.0
210
0.0
220
0.0
230
1.0
 40
0.5773502691896258
 41
0.0
 42
6.283185307179586
  0
ELLIPSE
  5
2860
330
27A9
100
AcDbEntity
  8
0
100
AcDbEllipse
 10
39.24311900176313
 20
-50.61550293207211
 30
0.0
 11
1.249999999999864
 21
2.165063509461174
 31
0.0
210
0.0
220
0.0
230
1.0
 40
0.5773502691896219
 41
3.579741684173548
 42
5.845036276594989
  0
LINE
  5
2861
330
27A9
100
AcDbEntity
  8
0
100
AcDbLine
 10
63.92114566517386
 20
-47.79858972787152
 30
0.0
 11
63.92114566517388
 21
148.4871883271538
 31
0.0
  0
ELLIPSE
  5
2862
330
27A9
100
AcDbEntity
  8
0
100
AcDbEllipse
 10
62.4362214246821
 20
149.3445097371279
 30
0.0
 11
0.6000000000000049
 21
0.0
 31
0.0
210
0.0
220
0.0
230
1.0
 40
0.5773502691896259
 41
5.497787143782192
 42
7.068583470577037
  0
LINE
  5
2863
330
27A9
100
AcDbEntity
  8
0
100
AcDbLine
 10
62.86048549339404
 20
149.5894587114062
 30
0.0
 11
62.86048549339404
 21
149.0995607628496
 31
0.0
  0
ELLIPSE
  5
2864
330
27A9
100
AcDbEntity
  8
0
100
AcDbEllipse
 10
62.4362214246821
 20
149.3445097371279
 30
0.0
 11
2.100000000000008
 21
-0.0000000000000001
 31
0.0
210
0.0
220
0.0
230
1.0
 40
0.5773502691896257
 41
5.497787143782161
 42
7.068583470577032
  0
ELLIPSE
  5
2865
330
27A9
100
AcDbEntity
  8
0
100
AcDbEllipse
 10
62.43622142468209
 20
-46.94126831789741
 30
0.0
 11
2.100000000000008
 21
0.0000000000000013
 31
0.0
210
0.0
220
0.0
230
1.0
 40
0.5773502691896259
 41
5.49778714378214
 42
6.283185307179582
  0
LINE
  5
2866
330
27A9
100
AcDbEntity
  8
0
100
AcDbLine
 10
-7.001664487836891
 20
189.9243898092359
 30
0.0
 11
-7.001664487836904
 21
-6.361388245789427
 31
0.0
  0
ELLIPSE
  5
2867
330
27A9
100
AcDbEntity
  8
0
100
AcDbEllipse
 10
-7.425928556548817
 20
189.6794408349576
 30
0.0
 11
0.5999999999999961
 21
-0.0000000000000359
 31
0.0
210
0.0
220
0.0
230
1.0
 40
0.5773502691896259
 41
0.7853981633976624
 42
2.356194490192532
  0
LINE
  5
2868
330
27A9
100
AcDbEntity
  8
0
100
AcDbLine
 10
-7.850192625260743
 20
189.9243898092359
 30
0.0
 11
-7.850192625260756
 21
-6.361388245789427
 31
0.0
  0
ELLIPSE
  5
2869
330
27A9
100
AcDbEntity
  8
0
100
AcDbEllipse
 10
-7.42592855654883
 20
-6.60633722006775
 30
0.0
 11
0.5999999999999961
 21
-0.0000000000000359
 31
0.0
210
0.0
220
0.0
230
1.0
 40
0.5773502691896259
 41
0.785398163397689
 42
2.356194490192585
  0
ELLIPSE
  5
286A
330
27A9
100
AcDbEntity
  8
0
100
AcDbEllipse
 10
-7.425928556548817
 20
189.6794408349576
 30
0.0
 11
-2.099999999999999
 21
-0.0000000000001255
 31
0.0
210
0.0
220
0.0
230
1.0
 40
0.5773502691896259
 41
3.926990816986993
 42
5.497787143781889
  0
LINE
  5
286B
330
27A9
100
AcDbEntity
  8
0
100
AcDbLine
 10
64.53622142468211
 20
149.3445097371279
 30
0.0
 11
64.53622142468208
 21
-46.94126831789741
 31
0.0
  0
ELLIPSE
  5
286C
330
27A9
100
AcDbEntity
  8
0
100
AcDbEllipse
 10
-32.52821928867127
 20
166.368463449471
 30
0.0
 11
1.249999999999871
 21
2.165063509461171
 31
0.0
210
0.0
220
0.0
230
1.0
 40
0.5773502691896257
 41
3.579741684173546
 42
5.845036276595004
  0
ELLIPSE
  5
286D
330
27A9
100
AcDbEntity
  8
0
100
AcDbEllipse
 10
-32.52821928867127
 20
150.0385318309164
 30
0.0
 11
1.249999999999871
 21
2.165063509461171
 31
0.0
210
0.0
220
0.0
230
1.0
 40
0.5773502691896257
 41
3.579741684173542
 42
5.845036276594988
  0
ELLIPSE
  5
286E
330
27A9
100
AcDbEntity
  8
0
100
AcDbEllipse
 10
-32.52821928867127
 20
133.7086002123619
 30
0.0
 11
1.249999999999871
 21
2.165063509461171
 31
0.0
210
0.0
220
0.0
230
1.0
 40
0.5773502691896257
 41
3.579741684173542
 42
5.845036276594988
  0
ELLIPSE
  5
286F
330
27A9
100
AcDbEntity
  8
0
100
AcDbEllipse
 10
-32.52821928867127
 20
117.3786685938074
 30
0.0
 11
1.249999999999871
 21
2.165063509461171
 31
0.0
210
0.0
220
0.0
230
1.0
 40
0.5773502691896257
 41
3.579741684173542
 42
5.845036276594988
  0
ELLIPSE
  5
2870
330
27A9
100
AcDbEntity
  8
0
100
AcDbEllipse
 10
-32.52821928867128
 20
101.0487369752529
 30
0.0
 11
1.249999999999871
 21
2.165063509461171
 31
0.0
210
0.0
220
0.0
230
1.0
 40
0.5773502691896257
 41
3.579741684173542
 42
5.845036276594988
  0
ELLIPSE
  5
2871
330
27A9
100
AcDbEntity
  8
0
100
AcDbEllipse
 10
-32.52821928867128
 20
84.71880535669837
 30
0.0
 11
1.249999999999871
 21
2.165063509461171
 31
0.0
210
0.0
220
0.0
230
1.0
 40
0.5773502691896257
 41
3.579741684173542
 42
5.845036276594988
  0
ELLIPSE
  5
2872
330
27A9
100
AcDbEntity
  8
0
100
AcDbEllipse
 10
-32.52821928867128
 20
68.38887373814387
 30
0.0
 11
1.249999999999871
 21
2.165063509461171
 31
0.0
210
0.0
220
0.0
230
1.0
 40
0.5773502691896257
 41
3.579741684173541
 42
5.845036276594996
  0
ELLIPSE
  5
2873
330
27A9
100
AcDbEntity
  8
0
100
AcDbEllipse
 10
-32.52821928867128
 20
52.05894211958934
 30
0.0
 11
1.249999999999871
 21
2.165063509461171
 31
0.0
210
0.0
220
0.0
230
1.0
 40
0.5773502691896257
 41
3.579741684173541
 42
5.845036276594996
  0
ELLIPSE
  5
2874
330
27A9
100
AcDbEntity
  8
0
100
AcDbEllipse
 10
-32.52821928867128
 20
35.72901050103482
 30
0.0
 11
1.24999999999987
 21
2.165063509461171
 31
0.0
210
0.0
220
0.0
230
1.0
 40
0.5773502691896259
 41
3.579741684173546
 42
5.84503627659499
  0
ELLIPSE
  5
2875
330
27A9
100
AcDbEntity
  8
0
100
AcDbEllipse
 10
-32.52821928867128
 20
19.39907888248029
 30
0.0
 11
1.24999999999987
 21
2.165063509461171
 31
0.0
210
0.0
220
0.0
230
1.0
 40
0.5773502691896259
 41
3.579741684173546
 42
5.84503627659499
  0
ELLIPSE
  5
2876
330
27A9
100
AcDbEntity
  8
0
100
AcDbEllipse
 10
-32.52821928867128
 20
3.069147263925771
 30
0.0
 11
1.24999999999987
 21
2.165063509461171
 31
0.0
210
0.0
220
0.0
230
1.0
 40
0.5773502691896259
 41
3.579741684173546
 42
5.84503627659499
  0
ELLIPSE
  5
2877
330
27A9
100
AcDbEntity
  8
0
100
AcDbEllipse
 10
-31.46755911689144
 20
165.7560910137752
 30
0.0
 11
1.250000000000128
 21
2.165063509461022
 31
0.0
210
0.0
220
0.0
230
1.0
 40
0.5773502691896258
 41
0.0
 42
6.283185307179586
  0
ELLIPSE
  5
2878
330
27A9
100
AcDbEntity
  8
0
100
AcDbEllipse
 10
-31.46755911689144
 20
149.4261593952207
 30
0.0
 11
1.250000000000128
 21
2.165063509461022
 31
0.0
210
0.0
220
0.0
230
1.0
 40
0.5773502691896258
 41
0.0
 42
6.283185307179586
  0
ELLIPSE
  5
2879
330
27A9
100
AcDbEntity
  8
0
100
AcDbEllipse
 10
-31.46755911689144
 20
133.0962277766661
 30
0.0
 11
1.250000000000128
 21
2.165063509461022
 31
0.0
210
0.0
220
0.0
230
1.0
 40
0.5773502691896258
 41
0.0
 42
6.283185307179586
  0
ELLIPSE
  5
287A
330
27A9
100
AcDbEntity
  8
0
100
AcDbEllipse
 10
-31.46755911689144
 20
116.7662961581116
 30
0.0
 11
1.250000000000128
 21
2.165063509461022
 31
0.0
210
0.0
220
0.0
230
1.0
 40
0.5773502691896258
 41
0.0
 42
6.283185307179586
  0
ELLIPSE
  5
287B
330
27A9
100
AcDbEntity
  8
0
100
AcDbEllipse
 10
-31.46755911689144
 20
100.4363645395571
 30
0.0
 11
1.250000000000128
 21
2.165063509461022
 31
0.0
210
0.0
220
0.0
230
1.0
 40
0.5773502691896258
 41
0.0
 42
6.283185307179586
  0
ELLIPSE
  5
287C
330
27A9
100
AcDbEntity
  8
0
100
AcDbEllipse
 10
-31.46755911689144
 20
84.10643292100258
 30
0.0
 11
1.250000000000128
 21
2.165063509461022
 31
0.0
210
0.0
220
0.0
230
1.0
 40
0.5773502691896258
 41
0.0
 42
6.283185307179586
  0
ELLIPSE
  5
287D
330
27A9
100
AcDbEntity
  8
0
100
AcDbEllipse
 10
-31.46755911689144
 20
67.77650130244808
 30
0.0
 11
1.250000000000128
 21
2.165063509461022
 31
0.0
210
0.0
220
0.0
230
1.0
 40
0.5773502691896258
 41
0.0
 42
6.283185307179586
  0
ELLIPSE
  5
287E
330
27A9
100
AcDbEntity
  8
0
100
AcDbEllipse
 10
-31.46755911689144
 20
51.44656968389355
 30
0.0
 11
1.250000000000128
 21
2.165063509461022
 31
0.0
210
0.0
220
0.0
230
1.0
 40
0.5773502691896258
 41
0.0
 42
6.283185307179586
  0
ELLIPSE
  5
287F
330
27A9
100
AcDbEntity
  8
0
100
AcDbEllipse
 10
-31.46755911689144
 20
35.11663806533903
 30
0.0
 11
1.250000000000128
 21
2.165063509461022
 31
0.0
210
0.0
220
0.0
230
1.0
 40
0.5773502691896258
 41
0.0
 42
6.283185307179586
  0
ELLIPSE
  5
2880
330
27A9
100
AcDbEntity
  8
0
100
AcDbEllipse
 10
-31.46755911689144
 20
18.7867064467845
 30
0.0
 11
1.250000000000128
 21
2.165063509461022
 31
0.0
210
0.0
220
0.0
230
1.0
 40
0.5773502691896258
 41
0.0
 42
6.283185307179586
  0
ELLIPSE
  5
2881
330
27A9
100
AcDbEntity
  8
0
100
AcDbEllipse
 10
-31.46755911689144
 20
2.456774828229981
 30
0.0
 11
1.250000000000128
 21
2.165063509461022
 31
0.0
210
0.0
220
0.0
230
1.0
 40
0.5773502691896258
 41
0.0
 42
6.283185307179586
  0
ELLIPSE
  5
2882
330
27A9
100
AcDbEntity
  8
0
100
AcDbEllipse
 10
-32.52821928867128
 20
-13.26078435462875
 30
0.0
 11
1.24999999999987
 21
2.165063509461171
 31
0.0
210
0.0
220
0.0
230
1.0
 40
0.5773502691896259
 41
3.579741684173546
 42
5.845036276594989
  0
ELLIPSE
  5
2883
330
27A9
100
AcDbEntity
  8
0
100
AcDbEllipse
 10
-31.46755911689144
 20
-13.87315679032455
 30
0.0
 11
1.250000000000128
 21
2.165063509461022
 31
0.0
210
0.0
220
0.0
230
1.0
 40
0.5773502691896258
 41
0.0
 42
6.283185307179586
  0
LINE
  5
2884
330
27A9
100
AcDbEntity
  8
0
100
AcDbLine
 10
20.92114566474028
 20
-140.0126711024381
 30
0.0
 11
7.421145665329329
 21
-163.3953570029216
 31
0.0
  0
LINE
  5
2885
330
27A9
100
AcDbEntity
  8
0
100
AcDbLine
 10
19.86048549296018
 20
-139.4002986667422
 30
0.0
 11
6.360485493549505
 21
-162.7829845672258
 31
0.0
  0
LINE
  5
2886
330
27A9
100
AcDbEntity
  8
0
100
AcDbLine
 10
25.62114566517383
 20
-179.6766345939792
 30
0.0
 11
62.321145664386
 21
-116.110369957566
 31
0.0
  0
LINE
  5
2887
330
27A9
100
AcDbEntity
  8
0
100
AcDbLine
 10
61.01195735517901
 20
-115.6414853089188
 30
0.0
 11
61.99976670457227
 21
-113.9305493275781
 31
0.0
  0
LINE
  5
2888
330
27A9
100
AcDbEntity
  8
0
100
AcDbLine
 10
25.9548747726296
 20
-179.8693131840048
 30
0.0
 11
25.62114566517407
 21
-179.6766345939789
 31
0.0
  0
LINE
  5
2889
330
27A9
100
AcDbEntity
  8
0
100
AcDbLine
 10
62.99323474169192
 20
-115.7169918885636
 30
0.0
 11
25.9548747726296
 21
-179.8693131840048
 31
0.0
  0
LINE
  5
288A
330
27A9
100
AcDbEntity
  8
0
100
AcDbLine
 10
20.92114566474028
 20
-140.0126711024381
 30
0.0
 11
19.86048549296018
 21
-139.4002986667422
 31
0.0
  0
LINE
  5
288B
330
27A9
100
AcDbEntity
  8
0
100
AcDbLine
 10
62.321145664386
 20
-116.110369957566
 30
0.0
 11
20.92114566474027
 21
-140.0126711024381
 31
0.0
  0
LINE
  5
288C
330
27A9
100
AcDbEntity
  8
0
100
AcDbLine
 10
-51.91085279747724
 20
-97.96309718465842
 30
0.0
 11
-10.51085279782844
 21
-74.06079603978816
 31
0.0
  0
ELLIPSE
  5
288D
330
27A9
100
AcDbEntity
  8
0
100
AcDbEllipse
 10
-4.758351280489576
 20
-72.95495727344499
 30
0.0
 11
-0.7499999999999988
 21
-1.299038105676659
 31
0.0
210
0.0
220
0.0
230
1.0
 40
0.8164965809277259
 41
0.0
 42
1.134458255166908
  0
LINE
  5
288E
330
27A9
100
AcDbEntity
  8
0
100
AcDbLine
 10
-5.508351280489569
 20
-74.25399537912163
 30
0.0
 11
-7.129856970699228
 21
-73.31781863238657
 31
0.0
  0
LINE
  5
288F
330
27A9
100
AcDbEntity
  8
0
100
AcDbLine
 10
-7.129856970699228
 20
-73.31781863238657
 30
0.0
 11
-7.862383276658659
 21
-73.59561822974846
 31
0.0
  0
LINE
  5
2890
330
27A9
100
AcDbEntity
  8
0
100
AcDbLine
 10
61.99976670457227
 20
-113.9305493275781
 30
0.0
 11
61.87408506006903
 21
-113.1572631389959
 31
0.0
  0
LINE
  5
2891
330
27A9
100
AcDbEntity
  8
0
100
AcDbLine
 10
61.87408506006903
 20
-113.1572631389959
 30
0.0
 11
60.25257936985937
 21
-112.2210863922609
 31
0.0
  0
ELLIPSE
  5
2892
330
27A9
100
AcDbEntity
  8
0
100
AcDbEllipse
 10
61.00257936985935
 20
-110.9220482865842
 30
0.0
 11
-0.7500000000000002
 21
-1.299038105676658
 31
0.0
210
0.0
220
0.0
230
1.0
 40
0.8164965809277259
 41
5.148727052012677
 42
6.283185307179575
  0
SPLINE
  5
2893
330
27A9
100
AcDbEntity
  8
0
100
AcDbSpline
210
0.0
220
0.0
230
1.0
 70
     8
 71
     3
 72
     8
 73
     4
 74
     0
 42
0.000000001
 43
0.0000000001
 40
0.130246360654211
 40
0.130246360654211
 40
0.130246360654211
 40
0.130246360654211
 40
1.0
 40
1.0
 40
1.0
 40
1.0
 10
60.80416223562325
 20
-110.0128216607507
 30
0.0
 10
60.75133629983446
 20
-110.4222428881872
 30
0.0
 10
60.6197265257203
 20
-110.9201547233544
 30
0.0
 10
60.47432976750404
 20
-111.3490685777245
 30
0.0
  0
SPLINE
  5
2894
330
27A9
100
AcDbEntity
  8
0
100
AcDbSpline
210
0.0
220
0.0
230
1.0
 70
     8
 71
     3
 72
     8
 73
     4
 74
     0
 42
0.000000001
 43
0.0000000001
 40
-1.0
 40
-1.0
 40
-1.0
 40
-1.0
 40
0.0
 40
0.0
 40
0.0
 40
0.0
 10
59.72432976750404
 20
-110.9160558758323
 30
0.0
 10
59.7091211299466
 20
-110.7388009511082
 30
0.0
 10
59.72978430578064
 20
-110.5592029517246
 30
0.0
 10
59.76171572076193
 20
-110.447742717453
 30
0.0
  0
SPLINE
  5
2895
330
27A9
100
AcDbEntity
  8
0
100
AcDbSpline
210
0.0
220
0.0
230
1.0
 70
     8
 71
     3
 72
     8
 73
     4
 74
     0
 42
0.000000001
 43
0.0000000001
 40
-1.0
 40
-1.0
 40
-1.0
 40
-1.0
 40
0.0
 40
0.0
 40
0.0
 40
0.0
 10
-3.90289471520484
 20
-73.69096274439494
 30
0.0
 10
-3.870963300224161
 20
-73.83929420073636
 30
0.0
 10
-3.952925312833834
 20
-73.98350130020654
 30
0.0
 10
-4.114036899370856
 20
-74.05895769608604
 30
0.0
  0
LINE
  5
2896
330
27A9
100
AcDbEntity
  8
0
100
AcDbLine
 10
-50.85019262569715
 20
-98.57546962035437
 30
0.0
 11
-51.91085279747724
 21
-97.96309718465842
 31
0.0
  0
LINE
  5
2897
330
27A9
100
AcDbEntity
  8
0
100
AcDbLine
 10
-9.450192626048643
 20
-74.67316847548396
 30
0.0
 11
-50.85019262569715
 21
-98.57546962035437
 31
0.0
  0
LINE
  5
2898
330
27A9
100
AcDbEntity
  8
0
100
AcDbLine
 10
-9.450192626048643
 20
-74.67316847548396
 30
0.0
 11
-9.803392463251494
 21
-74.46924845439713
 31
0.0
  0
LINE
  5
2899
330
27A9
100
AcDbEntity
  8
0
100
AcDbLine
 10
-9.803392463251494
 20
-74.46924845439713
 30
0.0
 11
-10.51085279782844
 21
-74.06079603978816
 31
0.0
  0
SPLINE
  5
289A
330
27A9
100
AcDbEntity
  8
0
100
AcDbSpline
210
0.0
220
0.0
230
1.0
 70
     8
 71
     3
 72
     8
 73
     4
 74
     0
 42
0.000000001
 43
0.0000000001
 40
-1.0
 40
-1.0
 40
-1.0
 40
-1.0
 40
0.0
 40
0.0
 40
0.0
 40
0.0
 10
-7.862383276658673
 20
-73.59561822974846
 30
0.0
 10
-8.372375850459224
 20
-73.96593134698909
 30
0.0
 10
-9.00526456647638
 20
-74.26529034343864
 30
0.0
 10
-9.450192626048634
 20
-74.67316847548395
 30
0.0
  0
SPLINE
  5
289B
330
27A9
100
AcDbEntity
  8
0
100
AcDbSpline
210
0.0
220
0.0
230
1.0
 70
     8
 71
     3
 72
     8
 73
     4
 74
     0
 42
0.000000001
 43
0.0000000001
 40
0.0
 40
0.0
 40
0.0
 40
0.0
 40
0.6081734479693832
 40
0.6081734479693832
 40
0.6081734479693832
 40
0.6081734479693832
 10
-10.51085279782843
 20
-74.06079603978816
 30
0.0
 10
-10.00143021120891
 20
-73.95062346652974
 30
0.0
 10
-9.248680844900221
 20
-73.98093567502598
 30
0.0
 10
-8.497347981697549
 20
-74.01043006507271
 30
0.0
  0
ELLIPSE
  5
289C
330
27A9
100
AcDbEntity
  8
0
100
AcDbEllipse
 10
-4.951054822395919
 20
-73.27328305281651
 30
0.0
 11
0.7499999999999226
 21
-1.299038105676702
 31
0.0
210
0.0
220
0.0
230
0.9999999999999998
 40
0.577350269189626
 41
0.9390757175652577
 42
2.356194490192585
  0
LINE
  5
289D
330
27A9
100
AcDbEntity
  8
0
100
AcDbLine
 10
62.321145664386
 20
-116.110369957566
 30
0.0
 11
61.61368532980872
 21
-115.7019175429569
 31
0.0
  0
LINE
  5
289E
330
27A9
100
AcDbEntity
  8
0
100
AcDbLine
 10
61.61368532980872
 20
-115.7019175429569
 30
0.0
 11
61.26048549260615
 21
-115.4979975218703
 31
0.0
  0
LINE
  5
289F
330
27A9
100
AcDbEntity
  8
0
100
AcDbLine
 10
19.86048549296018
 20
-139.4002986667422
 30
0.0
 11
61.26048549260615
 21
-115.4979975218703
 31
0.0
  0
LINE
  5
28A0
330
27A9
100
AcDbEntity
  8
0
100
AcDbLine
 10
61.99976670457227
 20
-113.9305493275781
 30
0.0
 11
62.24951670457173
 21
-114.0747425573079
 31
0.0
  0
SPLINE
  5
28A1
330
27A9
100
AcDbEntity
  8
0
100
AcDbSpline
210
0.0
220
0.0
230
1.0
 70
     8
 71
     3
 72
     8
 73
     4
 74
     0
 42
0.000000001
 43
0.0000000001
 40
-1.0
 40
-1.0
 40
-1.0
 40
-1.0
 40
0.0
 40
0.0
 40
0.0
 40
0.0
 10
61.26048549260616
 20
-115.4979975218703
 30
0.0
 10
61.70541355217829
 20
-115.0901193898251
 30
0.0
 10
61.93406242458777
 20
-114.5573724108507
 30
0.0
 10
61.99976670457226
 20
-113.9305493275781
 30
0.0
  0
SPLINE
  5
28A2
330
27A9
100
AcDbEntity
  8
0
100
AcDbSpline
210
0.0
220
0.0
230
1.0
 70
     8
 71
     3
 72
     8
 73
     4
 74
     0
 42
0.000000001
 43
0.0000000001
 40
0.0
 40
0.0
 40
0.0
 40
0.0
 40
1.0
 40
1.0
 40
1.0
 40
1.0
 10
62.74976670457227
 20
-114.3635620294703
 30
0.0
 10
63.23942279185758
 20
-115.3110225702834
 30
0.0
 10
63.15877280565686
 20
-115.9292167460502
 30
0.0
 10
62.321145664386
 20
-116.110369957566
 30
0.0
  0
LINE
  5
28A3
330
27A9
100
AcDbEntity
  8
0
100
AcDbLine
 10
62.24951670457173
 20
-114.0747425573079
 30
0.0
 11
62.74976670457227
 21
-114.3635620294703
 31
0.0
  0
ELLIPSE
  5
28A4
330
27A9
100
AcDbEntity
  8
0
100
AcDbEllipse
 10
61.75257936985935
 20
-111.3550609884764
 30
0.0
 11
-0.7499999999999992
 21
-1.299038105676658
 31
0.0
210
0.0
220
0.0
230
0.9999999999999998
 40
0.816496580927726
 41
5.14872705201269
 42
6.283185307179587
  0
LINE
  5
28A5
330
27A9
100
AcDbEntity
  8
0
100
AcDbLine
 10
60.47432976750407
 20
-111.3490685777245
 30
0.0
 11
59.97407976839838
 21
-111.0602491060787
 31
0.0
  0
LINE
  5
28A6
330
27A9
100
AcDbEntity
  8
0
100
AcDbLine
 10
59.97407976839838
 20
-111.0602491060787
 30
0.0
 11
59.72432976750406
 21
-110.9160558758323
 31
0.0
  0
LINE
  5
28A7
330
27A9
100
AcDbEntity
  8
0
100
AcDbLine
 10
61.87408506006903
 20
-113.1572631389959
 30
0.0
 11
62.62408506006902
 21
-113.5902758408882
 31
0.0
  0
LINE
  5
28A8
330
27A9
100
AcDbEntity
  8
0
100
AcDbLine
 10
62.62408506006902
 20
-113.5902758408882
 30
0.0
 11
62.74976670457227
 21
-114.3635620294703
 31
0.0
  0
LINE
  5
28A9
330
27A9
100
AcDbEntity
  8
0
100
AcDbLine
 10
59.76171572076193
 20
-110.447742717453
 30
0.0
 11
60.11491556119645
 21
-110.2438226945004
 31
0.0
  0
LINE
  5
28AA
330
27A9
100
AcDbEntity
  8
0
100
AcDbLine
 10
60.11491556119645
 20
-110.2438226945004
 30
0.0
 11
60.64751699790924
 21
-109.9363251116435
 31
0.0
  0
ELLIPSE
  5
28AB
330
27A9
100
AcDbEntity
  8
0
100
AcDbEllipse
 10
60.80987582795302
 20
-111.2403740659557
 30
0.0
 11
-0.7500000000000004
 21
1.299038105676658
 31
0.0
210
0.0
220
0.0
230
0.9999999999999998
 40
0.5773502691896259
 41
5.497787143782137
 42
6.914905916409419
  0
LINE
  5
28AC
330
27A9
100
AcDbEntity
  8
0
100
AcDbLine
 10
25.62114566517383
 20
-179.6766345939792
 30
0.0
 11
7.42114566532932
 21
-169.1688596948178
 31
0.0
  0
LINE
  5
28AD
330
27A9
100
AcDbEntity
  8
0
100
AcDbLine
 10
-64.35019262510525
 20
-127.7316582127357
 30
0.0
 11
-46.15019262526075
 21
-138.2394331118971
 31
0.0
  0
LINE
  5
28AE
330
27A9
100
AcDbEntity
  8
0
100
AcDbLine
 10
13.7207885622724
 20
-84.35589897731576
 30
0.0
 11
6.534165246533425
 21
-80.20670007140942
 31
0.0
  0
LINE
  5
28AF
330
27A9
100
AcDbEntity
  8
0
100
AcDbLine
 10
3.114186844474198
 20
-78.23217462035782
 30
0.0
 11
-4.114036899370838
 21
-74.05895769608605
 31
0.0
  0
LINE
  5
28B0
330
27A9
100
AcDbEntity
  8
0
100
AcDbLine
 10
-45.42592855654882
 20
-138.6575871669323
 30
0.0
 11
6.360485493549505
 21
-168.556487259122
 31
0.0
  0
LINE
  5
28B1
330
27A9
100
AcDbEntity
  8
0
100
AcDbLine
 10
59.72432976750406
 20
-110.9160558758323
 30
0.0
 11
52.49610602365902
 21
-106.7428389515605
 31
0.0
  0
LINE
  5
28B2
330
27A9
100
AcDbEntity
  8
0
100
AcDbLine
 10
49.07612762159979
 20
-104.7683135005089
 30
0.0
 11
41.88950430586083
 21
-100.6191145946026
 31
0.0
  0
LINE
  5
28B3
330
27A9
100
AcDbEntity
  8
0
100
AcDbLine
 10
34.93399199786885
 20
-96.60334769123167
 30
0.0
 11
20.67630087026438
 21
-88.37166588068669
 31
0.0
  0
LINE
  5
28B4
330
27A9
100
AcDbEntity
  8
0
100
AcDbLine
 10
42.06407449260381
 20
-100.2300047903545
 30
0.0
 11
49.15008557228071
 21
-104.3211151946866
 31
0.0
  0
LINE
  5
28B5
330
27A9
100
AcDbEntity
  8
0
100
AcDbLine
 10
6.708735433276395
 20
-79.81759026716132
 30
0.0
 11
13.79474651295329
 21
-83.90870067149345
 31
0.0
  0
LINE
  5
28B6
330
27A9
100
AcDbEntity
  8
0
100
AcDbLine
 10
20.85087105700735
 20
-87.98255607643858
 30
0.0
 11
35.00794994854975
 21
-96.15614938540936
 31
0.0
  0
LINE
  5
28B7
330
27A9
100
AcDbEntity
  8
0
100
AcDbLine
 10
52.67067621040199
 20
-106.3537291473124
 30
0.0
 11
59.76171572076193
 21
-110.447742717453
 31
0.0
  0
LINE
  5
28B8
330
27A9
100
AcDbEntity
  8
0
100
AcDbLine
 10
-3.90289471520484
 20
-73.69096274439494
 30
0.0
 11
3.188144795155105
 21
-77.78497631453551
 31
0.0
  0
ELLIPSE
  5
28B9
330
27A9
100
AcDbEntity
  8
0
100
AcDbEllipse
 10
15.17114566544301
 20
-159.2095675513624
 30
0.0
 11
1.250000000000129
 21
2.165063509461022
 31
0.0
210
0.0
220
0.0
230
1.0
 40
0.5773502691896257
 41
0.0
 42
6.283185307179586
  0
ELLIPSE
  5
28BA
330
27A9
100
AcDbEntity
  8
0
100
AcDbEllipse
 10
28.92114566564773
 20
-141.1673716393048
 30
0.0
 11
-0.4000000000000423
 21
-0.6928203230275285
 31
0.0
210
0.0
220
0.0
230
1.0
 40
0.5773502691896257
 41
2.094395102375157
 42
2.276828566511568
  0
LINE
  5
28BB
330
27A9
100
AcDbEntity
  8
0
100
AcDbLine
 10
29.46755582715884
 20
-141.020961477804
 30
0.0
 11
28.67508758183558
 21
-144.8935567420101
 31
0.0
  0
ELLIPSE
  5
28BC
330
27A9
100
AcDbEntity
  8
0
100
AcDbEllipse
 10
28.12867742032447
 20
-145.0399669035109
 30
0.0
 11
-0.4000000000000415
 21
-0.6928203230275272
 31
0.0
210
0.0
220
0.0
230
1.0
 40
0.5773502691896257
 41
0.0
 42
2.094395102375107
  0
LINE
  5
28BD
330
27A9
100
AcDbEntity
  8
0
100
AcDbLine
 10
27.72867742031719
 20
-145.7327872265342
 30
0.0
 11
25.56361391089548
 21
-144.482787226466
 31
0.0
  0
ELLIPSE
  5
28BE
330
27A9
100
AcDbEntity
  8
0
100
AcDbEllipse
 10
25.96361391090276
 20
-143.7899669034426
 30
0.0
 11
-0.4000000000072804
 21
-0.6928203230233495
 31
0.0
210
0.0
220
0.0
230
1.0
 40
0.5773502691896255
 41
4.188790204822794
 42
6.283185307252373
  0
LINE
  5
28BF
330
27A9
100
AcDbEntity
  8
0
100
AcDbLine
 10
25.81720374939893
 20
-143.2435567419201
 30
0.0
 11
28.7747355041439
 21
-140.6209614777822
 31
0.0
  0
ELLIPSE
  5
28C0
330
27A9
100
AcDbEntity
  8
0
100
AcDbEllipse
 10
28.92114566564773
 20
-141.1673716393048
 30
0.0
 11
0.400000000000001
 21
0.6928203230275524
 31
0.0
210
0.0
220
0.0
230
1.0
 40
0.5773502691896258
 41
0.0802385882704737
 42
1.047197551178412
  0
LINE
  5
28C1
330
27A9
100
AcDbEntity
  8
0
100
AcDbLine
 10
29.28779770338196
 20
-140.4582699577285
 30
0.0
 11
29.48505041353208
 21
-140.8935882781061
 31
0.0
  0
ELLIPSE
  5
28C2
330
27A9
100
AcDbEntity
  8
0
100
AcDbEllipse
 10
27.06801724854467
 20
-144.4275944678151
 30
0.0
 11
-0.4000000000072798
 21
-0.6928203230233483
 31
0.0
210
0.0
220
0.0
230
1.0
 40
0.5773502691896255
 41
0.000000000072787
 42
2.094395102429601
  0
LINE
  5
28C3
330
27A9
100
AcDbEntity
  8
0
100
AcDbLine
 10
27.61442741005576
 20
-144.2811843063143
 30
0.0
 11
28.67508758183558
 21
-144.8935567420101
 31
0.0
  0
LINE
  5
28C4
330
27A9
100
AcDbEntity
  8
0
100
AcDbLine
 10
27.61442741005576
 20
-144.2811843063143
 30
0.0
 11
28.27225692620641
 21
-141.0665350330671
 31
0.0
  0
LINE
  5
28C5
330
27A9
100
AcDbEntity
  8
0
100
AcDbLine
 10
28.77473550413128
 20
-140.620961477804
 30
0.0
 11
29.46755582715884
 21
-141.020961477804
 31
0.0
  0
LINE
  5
28C6
330
27A9
100
AcDbEntity
  8
0
100
AcDbLine
 10
28.8762966376371
 20
-140.5421241217229
 30
0.0
 11
29.48505041353208
 21
-140.8935882781061
 31
0.0
  0
ELLIPSE
  5
28C7
330
27A9
100
AcDbEntity
  8
0
100
AcDbEllipse
 10
14.11048549366321
 20
-158.5971951156667
 30
0.0
 11
1.24999999999987
 21
2.165063509461172
 31
0.0
210
0.0
220
0.0
230
1.0
 40
0.5773502691896257
 41
3.579741684173535
 42
5.845036276595006
  0
LINE
  5
28C8
330
27A9
100
AcDbEntity
  8
0
100
AcDbLine
 10
-51.91085279747724
 20
-97.96309718465842
 30
0.0
 11
-65.41085279688508
 21
-121.3457830851437
 31
0.0
  0
LINE
  5
28C9
330
27A9
100
AcDbEntity
  8
0
100
AcDbLine
 10
-50.85019262569715
 20
-98.57546962035437
 30
0.0
 11
-64.35019262510525
 21
-121.9581555208395
 31
0.0
  0
ELLIPSE
  5
28CA
330
27A9
100
AcDbEntity
  8
0
100
AcDbEllipse
 10
-60.16085279681684
 20
-121.4901206524805
 30
0.0
 11
1.24999999999987
 21
2.165063509461172
 31
0.0
210
0.0
220
0.0
230
1.0
 40
0.5773502691896255
 41
3.579741684173528
 42
5.845036276595005
  0
ELLIPSE
  5
28CB
330
27A9
100
AcDbEntity
  8
0
100
AcDbEllipse
 10
-47.20332104193539
 20
-107.3205200046289
 30
0.0
 11
-0.4000000000072798
 21
-0.6928203230233483
 31
0.0
210
0.0
220
0.0
230
1.0
 40
0.5773502691896258
 41
0.0000000000727783
 42
2.094395102429599
  0
LINE
  5
28CC
330
27A9
100
AcDbEntity
  8
0
100
AcDbLine
 10
-46.65691088042429
 20
-107.1741098431282
 30
0.0
 11
-45.99908136427365
 21
-103.9594605698809
 31
0.0
  0
LINE
  5
28CD
330
27A9
100
AcDbEntity
  8
0
100
AcDbLine
 10
-45.59625070864448
 20
-107.786482278824
 30
0.0
 11
-46.65691088042429
 21
-107.1741098431282
 31
0.0
  0
LINE
  5
28CE
330
27A9
100
AcDbEntity
  8
0
100
AcDbLine
 10
-44.80378246332122
 20
-103.9138870146179
 30
0.0
 11
-45.59625070864448
 21
-107.786482278824
 31
0.0
  0
LINE
  5
28CF
330
27A9
100
AcDbEntity
  8
0
100
AcDbLine
 10
-44.80378246332122
 20
-103.9138870146179
 30
0.0
 11
-45.49660278635605
 21
-103.5138870146137
 31
0.0
  0
ELLIPSE
  5
28D0
330
27A9
100
AcDbEntity
  8
0
100
AcDbEllipse
 10
-45.35019262483233
 20
-104.0602971761186
 30
0.0
 11
0.4000000000000005
 21
0.6928203230275525
 31
0.0
210
0.0
220
0.0
230
1.0
 40
0.5773502691896257
 41
5.235987755964825
 42
7.330382858358005
  0
LINE
  5
28D1
330
27A9
100
AcDbEntity
  8
0
100
AcDbLine
 10
-48.45413454108113
 20
-106.1364822787339
 30
0.0
 11
-45.49660278633616
 21
-103.5138870145961
 31
0.0
  0
ELLIPSE
  5
28D2
330
27A9
100
AcDbEntity
  8
0
100
AcDbEllipse
 10
-48.3077243795773
 20
-106.6828924402565
 30
0.0
 11
-0.4000000000072796
 21
-0.6928203230233496
 31
0.0
210
0.0
220
0.0
230
1.0
 40
0.5773502691896258
 41
4.188790204822786
 42
6.283185307252342
  0
LINE
  5
28D3
330
27A9
100
AcDbEntity
  8
0
100
AcDbLine
 10
-46.54266087016286
 20
-108.6257127633481
 30
0.0
 11
-48.70772437958457
 21
-107.3757127632798
 31
0.0
  0
ELLIPSE
  5
28D4
330
27A9
100
AcDbEntity
  8
0
100
AcDbEllipse
 10
-46.14266087015559
 20
-107.9328924403247
 30
0.0
 11
-0.4000000000000413
 21
-0.6928203230275273
 31
0.0
210
0.0
220
0.0
230
1.0
 40
0.5773502691896257
 41
0.0
 42
2.094395102375109
  0
ELLIPSE
  5
28D5
330
27A9
100
AcDbEntity
  8
0
100
AcDbEllipse
 10
-59.10019262503706
 20
-122.1024930881763
 30
0.0
 11
1.250000000000128
 21
2.165063509461022
 31
0.0
210
0.0
220
0.0
230
1.0
 40
0.5773502691896258
 41
0.0
 42
6.283185307179586
  0
LINE
  5
28D6
330
27A9
100
AcDbEntity
  8
0
100
AcDbLine
 10
-7.862383276658659
 20
-73.59561822974846
 30
0.0
 11
-45.42592855654882
 21
-138.6575871669323
 31
0.0
  0
LINE
  5
28D7
330
27A9
100
AcDbEntity
  8
0
100
AcDbLine
 10
-46.15019262526076
 20
-138.2394331118971
 30
0.0
 11
-45.42592855654883
 21
-138.6575871669324
 31
0.0
  0
LINE
  5
28D8
330
27A9
100
AcDbEntity
  8
0
100
AcDbLine
 10
-46.15019262526075
 20
-138.2394331118971
 30
0.0
 11
-9.450192626048643
 21
-74.67316847548395
 31
0.0
  0
ENDBLK
  5
27AB
330
27A9
100
AcDbEntity
  8
0
100
AcDbBlockEnd
  0
ENDSEC
  0
SECTION
  2
ENTITIES
  0
INSERT
  5
28D9
330
1F
100
AcDbEntity
  8
0
100
AcDbBlockReference
  2
SPR100_320-Front
 10
0.0
 20
0.0
 30
0.0
  0
INSERT
  5
28DA
330
1F
100
AcDbEntity
  8
0
100
AcDbBlockReference
  2
SPR100_320-Left
 10
205.4229986469887
 20
0.0
 30
0.0
  0
INSERT
  5
28DB
330
1F
100
AcDbEntity
  8
0
100
AcDbBlockReference
  2
SPR100_320-Right
 10
-205.4229986469887
 20
0.0
 30
0.0
  0
INSERT
  5
28DC
330
1F
100
AcDbEntity
  8
0
100
AcDbBlockReference
  2
SPR100_320-Top
 10
0.0
 20
-168.545601705951
 30
0.0
  0
INSERT
  5
28DD
330
1F
100
AcDbEntity
  8
0
100
AcDbBlockReference
  2
SPR100_320-Bottom
 10
0.0
 20
433.5659080859887
 30
0.0
  0
INSERT
  5
28DE
330
1F
100
AcDbEntity
  8
0
100
AcDbBlockReference
  2
SPR100_320-ISO
 10
270.8338514438738
 20
-359.4374781062068
 30
0.0
  0
MTEXT
  5
28DF
330
1F
100
AcDbEntity
  8
0
100
AcDbMText
 10
0.0
 20
-363.4445760657996
 30
0.0
 40
27.38973315293182
 41
0.0
 71
     5
 72
     5
  1
SPR100/320
 73
     1
 44
1.0
1001
ACAD
1000
MTEXTBEGIN
1070
    73
1070
     1
1070
    44
1040
1.0
1070
    74
1070
     0
1000
MTEXTEND
  0
ENDSEC
  0
SECTION
  2
OBJECTS
  0
DICTIONARY
  5
C
330
0
100
AcDbDictionary
281
     1
  3
ACAD_CIP_PREVIOUS_PRODUCT_INFO
350
216
  3
ACAD_COLOR
350
6B
  3
ACAD_DETAILVIEWSTYLE
350
21B
  3
ACAD_GROUP
350
D
  3
ACAD_LAYOUT
350
1A
  3
ACAD_MATERIAL
350
6A
  3
ACAD_MLEADERSTYLE
350
12D
  3
ACAD_MLINESTYLE
350
17
  3
ACAD_PLOTSETTINGS
350
19
  3
ACAD_PLOTSTYLENAME
350
E
  3
ACAD_SCALELIST
350
10C
  3
ACAD_SECTIONVIEWSTYLE
350
219
  3
ACAD_TABLESTYLE
350
7E
  3
ACAD_VISUALSTYLE
350
EF
  3
ACDB_RECOMPOSE_DATA
350
29E0
  3
AcDbVariableDictionary
350
5E
  3
DWGPROPS
350
29E1
  0
DICTIONARY
  5
2930
330
8
100
AcDbDictionary
280
     1
281
     1
  0
DICTIONARY
  5
1FF
330
2
100
AcDbDictionary
280
     1
281
     1
  3
ACAD_LAYERSTATES
360
200
  0
DICTIONARY
  5
13C
330
10
100
AcDbDictionary
280
     1
281
     1
  0
DICTIONARY
  5
1CE
330
1F
100
AcDbDictionary
280
     1
281
     1
  3
ACAD_LAYOUTSELFREF
360
2938
  0
DICTIONARY
  5
28E3
330
D2
100
AcDbDictionary
280
     1
281
     1
  3
ACAD_LAYOUTSELFREF
360
2941
  0
DICTIONARY
  5
28E5
330
D6
100
AcDbDictionary
280
     1
281
     1
  3
ACAD_LAYOUTSELFREF
360
2944
  0
XRECORD
  5
216
102
{ACAD_REACTORS
330
C
102
}
330
C
100
AcDbXrecord
280
     1
300
ACD
300
2021
300
87393ACD_2021_0F
  0
DICTIONARY
  5
6B
102
{ACAD_REACTORS
330
C
102
}
330
C
100
AcDbDictionary
281
     1
  0
DICTIONARY
  5
21B
102
{ACAD_REACTORS
330
C
102
}
330
C
100
AcDbDictionary
281
     1
  3
Metric50
350
21C
  0
DICTIONARY
  5
D
102
{ACAD_REACTORS
330
C
102
}
330
C
100
AcDbDictionary
281
     1
  0
DICTIONARY
  5
1A
102
{ACAD_REACTORS
330
C
102
}
330
C
100
AcDbDictionary
281
     1
  3
Layout1
350
D3
  3
Layout2
350
D7
  3
Model
350
22
  0
DICTIONARY
  5
6A
102
{ACAD_REACTORS
330
C
102
}
330
C
100
AcDbDictionary
281
     1
  3
ByBlock
350
ED
  3
ByLayer
350
EC
  3
Global
350
EE
  0
DICTIONARY
  5
12D
102
{ACAD_REACTORS
330
C
102
}
330
C
100
AcDbDictionary
281
     1
  3
Standard
350
12E
  0
DICTIONARY
  5
17
102
{ACAD_REACTORS
330
C
102
}
330
C
100
AcDbDictionary
281
     1
  3
Standard
350
18
  0
DICTIONARY
  5
19
102
{ACAD_REACTORS
330
C
102
}
330
C
100
AcDbDictionary
281
     1
  0
ACDBDICTIONARYWDFLT
  5
E
102
{ACAD_REACTORS
330
C
102
}
330
C
100
AcDbDictionary
281
     1
  3
Normal
350
F
100
AcDbDictionaryWithDefault
340
F
  0
DICTIONARY
  5
10C
102
{ACAD_REACTORS
330
C
102
}
330
C
100
AcDbDictionary
281
     1
  3
A0
350
10D
  3
A1
350
1BE
  3
A2
350
1BF
  3
A3
350
1C0
  3
A4
350
1C1
  3
A5
350
1C2
  3
A6
350
1C3
  3
A7
350
1C4
  3
A8
350
1C5
  3
A9
350
1C6
  3
B0
350
1C7
  3
B1
350
1C8
  3
B2
350
1C9
  3
B3
350
1CA
  3
B4
350
1CB
  3
B5
350
1CC
  3
B6
350
1CD
  0
DICTIONARY
  5
219
102
{ACAD_REACTORS
330
C
102
}
330
C
100
AcDbDictionary
281
     1
  3
Metric50
350
21A
  0
DICTIONARY
  5
7E
102
{ACAD_REACTORS
330
C
102
}
330
C
100
AcDbDictionary
281
     1
  3
Standard
350
7F
  0
DICTIONARY
  5
EF
102
{ACAD_REACTORS
330
C
102
}
330
C
100
AcDbDictionary
281
     1
  3
2dWireframe
350
F5
  3
Basic
350
F4
  3
Brighten
350
FB
  3
ColorChange
350
FF
  3
Conceptual
350
F8
  3
Dim
350
FA
  3
EdgeColorOff
350
1E6
  3
Facepattern
350
FE
  3
Flat
350
F0
  3
FlatWithEdges
350
F1
  3
Gouraud
350
F2
  3
GouraudWithEdges
350
F3
  3
Hidden
350
F7
  3
JitterOff
350
1E4
  3
Linepattern
350
FD
  3
OverhangOff
350
1E5
  3
Realistic
350
F9
  3
Shaded
350
1F3
  3
Shaded with edges
350
1F2
  3
Shades of Gray
350
1EF
  3
Sketchy
350
1F0
  3
Thicken
350
FC
  3
Wireframe
350
F6
  3
X-Ray
350
1F1
  0
XRECORD
  5
29E0
102
{ACAD_REACTORS
330
C
102
}
330
C
100
AcDbXrecord
280
     1
 90
        1
330
7F
  0
DICTIONARY
  5
5E
102
{ACAD_REACTORS
330
C
102
}
330
C
100
AcDbDictionary
281
     1
  3
CANNOSCALE
350
146
  3
CENTEREXE
350
259
  3
CENTERLTYPEFILE
350
25A
  3
CMLEADERSTYLE
350
145
  3
CTABLESTYLE
350
84
  3
CVIEWDETAILSTYLE
350
227
  3
CVIEWSECTIONSTYLE
350
228
  3
DIMASSOC
350
5F
  3
HIDETEXT
350
63
  3
INDEXCTL
350
298D
  3
LAYEREVAL
350
1AE
  3
LAYERNOTIFY
350
1AF
  3
LIGHTINGUNITS
350
298B
  3
MSLTSCALE
350
298A
  3
PSOLHEIGHT
350
29DD
  3
PSOLWIDTH
350
29DC
  3
SORTENTS
350
298C
  3
XCLIPFRAME
350
29DE
  0
XRECORD
  5
29E1
102
{ACAD_REACTORS
330
C
102
}
330
C
100
AcDbXrecord
280
     1
  1
DWGPROPS COOKIE
  2

  3

  4

  6

  7

  8
truole
  9

300
=
301
=
302
=
303
=
304
=
305
=
306
=
307
=
308
=
309
=
 40
0.0019675925925926
 41
2460719.40650463
 42
2460719.41087963
  1

 90
        0
  0
DICTIONARY
  5
200
102
{ACAD_REACTORS
330
1FF
102
}
330
1FF
100
AcDbDictionary
281
     1
  0
XRECORD
  5
2938
102
{ACAD_REACTORS
330
1CE
102
}
330
1CE
100
AcDbXrecord
280
     1
340
1F
  0
XRECORD
  5
2941
102
{ACAD_REACTORS
330
28E3
102
}
330
28E3
100
AcDbXrecord
280
     1
340
D2
  0
XRECORD
  5
2944
102
{ACAD_REACTORS
330
28E5
102
}
330
28E5
100
AcDbXrecord
280
     1
340
D6
  0
ACDBDETAILVIEWSTYLE
  5
21C
102
{ACAD_XDICTIONARY
360
2A20
102
}
102
{ACAD_REACTORS
330
21B
102
}
330
21B
100
AcDbModelDocViewStyle
 70
     0
  3
Metric50
290
     0
100
AcDbDetailViewStyle
 70
     0
 71
     0
 90
        3
 71
     1
340
11
 40
5.0
340
0
 40
5.0
300

 40
0.0
280
     1
 71
     2
340
16
 90
       25
 71
     3
340
11
 40
5.0
 90
        0
 40
15.0
 90
        1
300
%<\AcVar ViewDetailId>% (%<\AcVar ViewScale \f "%sn">%)
 71
     4
340
16
 90
       25
340
16
 90
       25
280
     0
  0
LAYOUT
  5
D3
102
{ACAD_XDICTIONARY
360
29E5
102
}
102
{ACAD_REACTORS
330
1A
102
}
330
1A
100
AcDbPlotSettings
  1

  2
C:\Documents and Settings\basas\Application Data\Autodesk\AutoCAD 2005\R16.1\enu\plotters\Default Windows System Printer.pc3
  4

  6

 40
0.0
 41
0.0
 42
0.0
 43
0.0
 44
0.0
 45
0.0
 46
0.0
 47
0.0
 48
0.0
 49
0.0
140
0.0
141
0.0
142
1.0
143
1.0
 70
   688
 72
     0
 73
     0
 74
     5
  7

 75
    16
147
1.0
148
0.0
149
0.0
100
AcDbLayout
  1
Layout1
 70
     1
 71
     1
 10
0.0
 20
0.0
 11
12.0
 21
9.0
 12
0.0
 22
0.0
 32
0.0
 14
0.0
 24
0.0
 34
0.0
 15
0.0
 25
0.0
 35
0.0
146
0.0
 13
0.0
 23
0.0
 33
0.0
 16
1.0
 26
0.0
 36
0.0
 17
0.0
 27
1.0
 37
0.0
 76
     0
330
D2
  0
LAYOUT
  5
D7
102
{ACAD_XDICTIONARY
360
29E7
102
}
102
{ACAD_REACTORS
330
1A
102
}
330
1A
100
AcDbPlotSettings
  1

  2
C:\Documents and Settings\basas\Application Data\Autodesk\AutoCAD 2005\R16.1\enu\plotters\Default Windows System Printer.pc3
  4

  6

 40
0.0
 41
0.0
 42
0.0
 43
0.0
 44
0.0
 45
0.0
 46
0.0
 47
0.0
 48
0.0
 49
0.0
140
0.0
141
0.0
142
1.0
143
1.0
 70
   688
 72
     0
 73
     0
 74
     5
  7

 75
    16
147
1.0
148
0.0
149
0.0
100
AcDbLayout
  1
Layout2
 70
     1
 71
     2
 10
0.0
 20
0.0
 11
12.0
 21
9.0
 12
0.0
 22
0.0
 32
0.0
 14
0.0
 24
0.0
 34
0.0
 15
0.0
 25
0.0
 35
0.0
146
0.0
 13
0.0
 23
0.0
 33
0.0
 16
1.0
 26
0.0
 36
0.0
 17
0.0
 27
1.0
 37
0.0
 76
     0
330
D6
  0
LAYOUT
  5
22
102
{ACAD_XDICTIONARY
360
29E2
102
}
102
{ACAD_REACTORS
330
1A
102
}
330
1A
100
AcDbPlotSettings
  1

  2
none_device
  4
ISO_A4_(210.00_x_297.00_MM)
  6

 40
7.5
 41
20.0
 42
7.5
 43
20.0
 44
210.0
 45
297.0
 46
11.54999923706054
 47
-13.65000009536743
 48
0.0
 49
0.0
140
0.0
141
0.0
142
1.0
143
8.704084754739808
 70
 11952
 72
     1
 73
     0
 74
     0
  7

 75
     0
147
0.1148885871608098
148
0.0
149
0.0
100
AcDbLayout
  1
Model
 70
     1
 71
     0
 10
0.0
 20
0.0
 11
12.0
 21
9.0
 12
0.0
 22
0.0
 32
0.0
 14
0.0
 24
0.0
 34
0.0
 15
0.0
 25
0.0
 35
0.0
146
0.0
 13
0.0
 23
0.0
 33
0.0
 16
1.0
 26
0.0
 36
0.0
 17
0.0
 27
1.0
 37
0.0
 76
     0
330
1F
331
EA
1001
ACAD_PSEXT
1000
None
1000
None
1000
Not applicable
1000
The layout will not be plotted unless a new plotter configuration name is selected.
1070
     0
  0
MATERIAL
  5
ED
102
{ACAD_XDICTIONARY
360
1F9
102
}
102
{ACAD_REACTORS
330
6A
102
}
330
6A
100
AcDbMaterial
  1
ByBlock
  0
MATERIAL
  5
EC
102
{ACAD_XDICTIONARY
360
1F7
102
}
102
{ACAD_REACTORS
330
6A
102
}
330
6A
100
AcDbMaterial
  1
ByLayer
  0
MATERIAL
  5
EE
102
{ACAD_XDICTIONARY
360
173
102
}
102
{ACAD_REACTORS
330
6A
102
}
330
6A
100
AcDbMaterial
  1
Global
 43
0.0007999999797903
 43
0.0
 43
0.0
 43
0.0
 43
0.0
 43
0.0007999999797903
 43
0.0
 43
0.0
 43
0.0
 43
0.0
 43
1.0
 43
0.0
 43
0.0
 43
0.0
 43
0.0
 43
1.0
 49
0.0007999999797903
 49
0.0
 49
0.0
 49
0.0
 49
0.0
 49
0.0007999999797903
 49
0.0
 49
0.0
 49
0.0
 49
0.0
 49
1.0
 49
0.0
 49
0.0
 49
0.0
 49
0.0
 49
1.0
142
0.0007999999797903
142
0.0
142
0.0
142
0.0
142
0.0
142
0.0007999999797903
142
0.0
142
0.0
142
0.0
142
0.0
142
1.0
142
0.0
142
0.0
142
0.0
142
0.0
142
1.0
144
0.0007999999797903
144
0.0
144
0.0
144
0.0
144
0.0
144
0.0007999999797903
144
0.0
144
0.0
144
0.0
144
0.0
144
1.0
144
0.0
144
0.0
144
0.0
144
0.0
144
1.0
1001
ACAD
1070
    -1
1070
     3
1070
     0
1000

1071
        0
1070
     0
  0
MLEADERSTYLE
  5
12E
102
{ACAD_XDICTIONARY
360
2A0C
102
}
102
{ACAD_REACTORS
330
12D
102
}
330
12D
100
AcDbMLeaderStyle
170
     2
171
     1
172
     0
 90
        2
 40
0.0
 41
0.0
173
     1
 91
-1056964608
340
14
 92
       -2
290
     1
 42
2.0
291
     1
 43
8.0
  3
Standard
 44
4.0
300

342
11
174
     1
178
     1
175
     1
176
     0
 93
-1056964608
 45
4.0
292
     0
297
     0
 46
4.0
 94
-1056964608
 47
1.0
 49
1.0
140
1.0
293
     1
141
0.0
294
     1
177
     0
142
1.0
295
     0
296
     0
143
3.75
1001
ACAD_MLEADERVER
1070
     2
  0
MLINESTYLE
  5
18
102
{ACAD_REACTORS
330
17
102
}
330
17
100
AcDbMlineStyle
  2
STANDARD
 70
     0
  3

 62
   256
 51
90.0
 52
90.0
 71
     2
 49
0.5
 62
   256
  6
BYLAYER
 49
-0.5
 62
   256
  6
BYLAYER
  0
ACDBPLACEHOLDER
  5
F
102
{ACAD_REACTORS
330
E
102
}
330
E
  0
SCALE
  5
10D
102
{ACAD_REACTORS
330
10C
102
}
330
10C
100
AcDbScale
 70
     0
300
1:1
140
1.0
141
1.0
290
     1
  0
SCALE
  5
1BE
102
{ACAD_REACTORS
330
10C
102
}
330
10C
100
AcDbScale
 70
     0
300
1:2
140
1.0
141
2.0
290
     0
  0
SCALE
  5
1BF
102
{ACAD_REACTORS
330
10C
102
}
330
10C
100
AcDbScale
 70
     0
300
1:4
140
1.0
141
4.0
290
     0
  0
SCALE
  5
1C0
102
{ACAD_REACTORS
330
10C
102
}
330
10C
100
AcDbScale
 70
     0
300
1:5
140
1.0
141
5.0
290
     0
  0
SCALE
  5
1C1
102
{ACAD_REACTORS
330
10C
102
}
330
10C
100
AcDbScale
 70
     0
300
1:8
140
1.0
141
8.0
290
     0
  0
SCALE
  5
1C2
102
{ACAD_REACTORS
330
10C
102
}
330
10C
100
AcDbScale
 70
     0
300
1:10
140
1.0
141
10.0
290
     0
  0
SCALE
  5
1C3
102
{ACAD_REACTORS
330
10C
102
}
330
10C
100
AcDbScale
 70
     0
300
1:16
140
1.0
141
16.0
290
     0
  0
SCALE
  5
1C4
102
{ACAD_REACTORS
330
10C
102
}
330
10C
100
AcDbScale
 70
     0
300
1:20
140
1.0
141
20.0
290
     0
  0
SCALE
  5
1C5
102
{ACAD_REACTORS
330
10C
102
}
330
10C
100
AcDbScale
 70
     0
300
1:30
140
1.0
141
30.0
290
     0
  0
SCALE
  5
1C6
102
{ACAD_REACTORS
330
10C
102
}
330
10C
100
AcDbScale
 70
     0
300
1:40
140
1.0
141
40.0
290
     0
  0
SCALE
  5
1C7
102
{ACAD_REACTORS
330
10C
102
}
330
10C
100
AcDbScale
 70
     0
300
1:50
140
1.0
141
50.0
290
     0
  0
SCALE
  5
1C8
102
{ACAD_REACTORS
330
10C
102
}
330
10C
100
AcDbScale
 70
     0
300
1:100
140
1.0
141
100.0
290
     0
  0
SCALE
  5
1C9
102
{ACAD_REACTORS
330
10C
102
}
330
10C
100
AcDbScale
 70
     0
300
2:1
140
2.0
141
1.0
290
     0
  0
SCALE
  5
1CA
102
{ACAD_REACTORS
330
10C
102
}
330
10C
100
AcDbScale
 70
     0
300
4:1
140
4.0
141
1.0
290
     0
  0
SCALE
  5
1CB
102
{ACAD_REACTORS
330
10C
102
}
330
10C
100
AcDbScale
 70
     0
300
8:1
140
8.0
141
1.0
290
     0
  0
SCALE
  5
1CC
102
{ACAD_REACTORS
330
10C
102
}
330
10C
100
AcDbScale
 70
     0
300
10:1
140
10.0
141
1.0
290
     0
  0
SCALE
  5
1CD
102
{ACAD_REACTORS
330
10C
102
}
330
10C
100
AcDbScale
 70
     0
300
100:1
140
100.0
141
1.0
290
     0
  0
ACDBSECTIONVIEWSTYLE
  5
21A
102
{ACAD_XDICTIONARY
360
2A1E
102
}
102
{ACAD_REACTORS
330
219
102
}
330
219
100
AcDbModelDocViewStyle
 70
     0
  3
Metric50
290
     0
100
AcDbSectionViewStyle
 70
     0
 71
     0
 90
      102
 71
     1
340
11
 40
5.0
340
0
340
0
 40
5.0
300
I, O, Q, S, X, Z
 40
10.0
 90
        0
 40
2.5
 90
        0
 71
     2
340
16
 90
       25
340
16
 90
       50
 40
5.0
 40
2.5
 40
5.0
 71
     3
340
11
 40
5.0
 90
        0
 40
15.0
 90
        1
300
%<\AcVar ViewSectionStartId>%-%<\AcVar ViewSectionEndId>% (%<\AcVar ViewScale \f "%sn">%)
 71
     4
300
ANSI31
 40
1.0
 90
        0
290
     0
290
     0
 90
        6
 40
0.0
 40
1.570796326794896
 40
0.2617993877991494
 40
1.308996938995747
 40
-0.2617993877991494
 40
1.832595714594046
  0
TABLESTYLE
  5
7F
102
{ACAD_XDICTIONARY
360
162
102
}
102
{ACAD_REACTORS
330
7E
102
}
330
7E
100
AcDbTableStyle
  3
Standard
 70
     0
 71
     0
 40
1.5
 41
1.5
280
     0
281
     0
  7
Standard
140
4.5
170
     2
 62
     0
 63
     7
283
     0
274
    -2
284
     1
 64
     0
275
    -2
285
     1
 65
     0
276
    -2
286
     1
 66
     0
277
    -2
287
     1
 67
     0
278
    -2
288
     1
 68
     0
279
    -2
289
     1
 69
     0
  7
Standard
140
6.0
170
     5
 62
     0
 63
     7
283
     0
274
    -2
284
     1
 64
     0
275
    -2
285
     1
 65
     0
276
    -2
286
     1
 66
     0
277
    -2
287
     1
 67
     0
278
    -2
288
     1
 68
     0
279
    -2
289
     1
 69
     0
  7
Standard
140
4.5
170
     5
 62
     0
 63
     7
283
     0
274
    -2
284
     1
 64
     0
275
    -2
285
     1
 65
     0
276
    -2
286
     1
 66
     0
277
    -2
287
     1
 67
     0
278
    -2
288
     1
 68
     0
279
    -2
289
     1
 69
     0
  0
VISUALSTYLE
  5
F5
102
{ACAD_XDICTIONARY
360
29F6
102
}
102
{ACAD_REACTORS
330
EF
102
}
330
EF
100
AcDbVisualStyle
  2
2dWireframe
 70
     4
 71
     0
 72
     2
 73
     1
 90
        0
 40
-0.6
 41
-30.0
 62
     5
 63
     7
 74
     1
 91
        4
 64
     7
 65
   257
 75
     1
175
     1
 42
1.0
 92
        0
 66
   257
 43
1.0
 76
     1
 77
     6
 78
     2
 67
     7
 79
     5
170
     0
171
     0
290
     0
174
     0
 93
        1
 44
0.0
173
     0
291
     0
 45
0.0
1001
ACAD
1000
AcDbSavedByObjectVersion
1070
     0
  0
VISUALSTYLE
  5
F4
102
{ACAD_XDICTIONARY
360
29F4
102
}
102
{ACAD_REACTORS
330
EF
102
}
330
EF
100
AcDbVisualStyle
  2
Basic
 70
     7
 71
     1
 72
     0
 73
     1
 90
        0
 40
-0.6
 41
-30.0
 62
     5
 63
     7
 74
     0
 91
        4
 64
     7
 65
   257
 75
     1
175
     1
 42
1.0
 92
        8
 66
     7
 43
1.0
 76
     1
 77
     6
 78
     2
 67
     7
 79
     5
170
     0
171
     0
290
     0
174
     0
 93
        1
 44
0.0
173
     0
291
     1
 45
0.0
1001
ACAD
1000
AcDbSavedByObjectVersion
1070
     0
  0
VISUALSTYLE
  5
FB
102
{ACAD_XDICTIONARY
360
2A02
102
}
102
{ACAD_REACTORS
330
EF
102
}
330
EF
100
AcDbVisualStyle
  2
Brighten
 70
    12
 71
     2
 72
     2
 73
     1
 90
        0
 40
-0.6
 41
-30.0
 62
     5
 63
     7
 74
     1
 91
        4
 64
     7
 65
   257
 75
     1
175
     1
 42
1.0
 92
        8
 66
     7
 43
1.0
 76
     1
 77
     6
 78
     2
 67
     7
 79
     5
170
     0
171
     0
290
     0
174
     0
 93
        1
 44
50.0
173
     0
291
     1
 45
0.0
1001
ACAD
1000
AcDbSavedByObjectVersion
1070
     0
  0
VISUALSTYLE
  5
FF
102
{ACAD_XDICTIONARY
360
2A0A
102
}
102
{ACAD_REACTORS
330
EF
102
}
330
EF
100
AcDbVisualStyle
  2
ColorChange
 70
    16
 71
     2
 72
     2
 73
     3
 90
        0
 40
-0.6
 41
-30.0
 62
     5
 63
     8
 74
     1
 91
        4
 64
     7
 65
   257
 75
     1
175
     1
 42
1.0
 92
        8
 66
     8
 43
1.0
 76
     1
 77
     6
 78
     2
 67
     7
 79
     5
170
     0
171
     0
290
     0
174
     0
 93
        1
 44
0.0
173
     0
291
     1
 45
0.0
1001
ACAD
1000
AcDbSavedByObjectVersion
1070
     0
  0
VISUALSTYLE
  5
F8
102
{ACAD_XDICTIONARY
360
29FC
102
}
102
{ACAD_REACTORS
330
EF
102
}
330
EF
100
AcDbVisualStyle
  2
Conceptual
 70
     9
 71
     3
 72
     2
 73
     1
 90
        0
 40
-0.6
 41
-30.0
 62
     5
 63
     7
 74
     2
 91
        2
 64
     7
 65
   257
 75
     1
175
     1
 42
40.0
 92
        8
 66
     7
 43
1.0
 76
     1
 77
     6
 78
     2
 67
     7
 79
     3
170
     0
171
     0
290
     0
174
     0
 93
        1
 44
0.0
173
     0
291
     0
 45
0.0
1001
ACAD
1000
AcDbSavedByObjectVersion
1070
     0
  0
VISUALSTYLE
  5
FA
102
{ACAD_XDICTIONARY
360
2A00
102
}
102
{ACAD_REACTORS
330
EF
102
}
330
EF
100
AcDbVisualStyle
  2
Dim
 70
    11
 71
     2
 72
     2
 73
     1
 90
        0
 40
-0.6
 41
-30.0
 62
     5
 63
     7
 74
     1
 91
        4
 64
     7
 65
   257
 75
     1
175
     1
 42
1.0
 92
        8
 66
     7
 43
1.0
 76
     1
 77
     6
 78
     2
 67
     7
 79
     5
170
     0
171
     0
290
     0
174
     0
 93
        1
 44
-50.0
173
     0
291
     1
 45
0.0
1001
ACAD
1000
AcDbSavedByObjectVersion
1070
     0
  0
VISUALSTYLE
  5
1E6
102
{ACAD_XDICTIONARY
360
2A12
102
}
102
{ACAD_REACTORS
330
EF
102
}
330
EF
100
AcDbVisualStyle
  2
EdgeColorOff
 70
    22
 71
     2
 72
     2
 73
     0
 90
        0
 40
-0.6
 41
-30.0
 62
     5
 63
     7
 74
     1
 91
        4
 64
     7
 65
   257
 75
     1
175
     1
 42
1.0
 92
        8
 66
     7
 43
1.0
 76
     1
 77
     6
 78
     2
 67
     7
 79
     5
170
     0
171
     0
290
     0
174
     0
 93
        1
 44
0.0
173
     0
291
     1
 45
0.0
1001
ACAD
1000
AcDbSavedByObjectVersion
1070
     0
  0
VISUALSTYLE
  5
FE
102
{ACAD_XDICTIONARY
360
2A08
102
}
102
{ACAD_REACTORS
330
EF
102
}
330
EF
100
AcDbVisualStyle
  2
Facepattern
 70
    15
 71
     2
 72
     2
 73
     1
 90
        0
 40
-0.6
 41
-30.0
 62
     5
 63
     7
 74
     1
 91
        4
 64
     7
 65
   257
 75
     1
175
     1
 42
1.0
 92
        8
 66
     7
 43
1.0
 76
     1
 77
     6
 78
     2
 67
     7
 79
     5
170
     0
171
     0
290
     0
174
     0
 93
        1
 44
0.0
173
     0
291
     1
 45
0.0
1001
ACAD
1000
AcDbSavedByObjectVersion
1070
     0
  0
VISUALSTYLE
  5
F0
102
{ACAD_XDICTIONARY
360
29EC
102
}
102
{ACAD_REACTORS
330
EF
102
}
330
EF
100
AcDbVisualStyle
  2
Flat
 70
     0
 71
     2
 72
     1
 73
     1
 90
        2
 40
-0.6
 41
30.0
 62
     5
 63
     7
 74
     0
 91
        0
 64
     7
 65
   257
 75
     1
175
     1
 42
1.0
 92
        8
 66
     7
 43
1.0
 76
     1
 77
     6
 78
     2
 67
     7
 79
     5
170
     0
171
     0
290
     0
174
     0
 93
       13
 44
0.0
173
     0
291
     1
 45
0.0
1001
ACAD
1000
AcDbSavedByObjectVersion
1070
     0
  0
VISUALSTYLE
  5
F1
102
{ACAD_XDICTIONARY
360
29EE
102
}
102
{ACAD_REACTORS
330
EF
102
}
330
EF
100
AcDbVisualStyle
  2
FlatWithEdges
 70
     1
 71
     2
 72
     1
 73
     1
 90
        2
 40
-0.6
 41
30.0
 62
     5
 63
     7
 74
     1
 91
        0
 64
     7
 65
   257
 75
     1
175
     1
 42
1.0
 92
        0
 66
   257
 43
1.0
 76
     1
 77
     6
 78
     2
 67
     7
 79
     5
170
     0
171
     0
290
     0
174
     0
 93
       13
 44
0.0
173
     0
291
     1
 45
0.0
1001
ACAD
1000
AcDbSavedByObjectVersion
1070
     0
  0
VISUALSTYLE
  5
F2
102
{ACAD_XDICTIONARY
360
29F0
102
}
102
{ACAD_REACTORS
330
EF
102
}
330
EF
100
AcDbVisualStyle
  2
Gouraud
 70
     2
 71
     2
 72
     2
 73
     1
 90
        2
 40
-0.6
 41
30.0
 62
     5
 63
     7
 74
     0
 91
        0
 64
     7
 65
   257
 75
     1
175
     1
 42
1.0
 92
        0
 66
     7
 43
1.0
 76
     1
 77
     6
 78
     2
 67
     7
 79
     5
170
     0
171
     0
290
     0
174
     0
 93
       13
 44
0.0
173
     0
291
     1
 45
0.0
1001
ACAD
1000
AcDbSavedByObjectVersion
1070
     0
  0
VISUALSTYLE
  5
F3
102
{ACAD_XDICTIONARY
360
29F2
102
}
102
{ACAD_REACTORS
330
EF
102
}
330
EF
100
AcDbVisualStyle
  2
GouraudWithEdges
 70
     3
 71
     2
 72
     2
 73
     1
 90
        2
 40
-0.6
 41
30.0
 62
     5
 63
     7
 74
     1
 91
        0
 64
     7
 65
   257
 75
     1
175
     1
 42
1.0
 92
        0
 66
   257
 43
1.0
 76
     1
 77
     6
 78
     2
 67
     7
 79
     5
170
     0
171
     0
290
     0
174
     0
 93
       13
 44
0.0
173
     0
291
     1
 45
0.0
1001
ACAD
1000
AcDbSavedByObjectVersion
1070
     0
  0
VISUALSTYLE
  5
F7
102
{ACAD_XDICTIONARY
360
29FA
102
}
102
{ACAD_REACTORS
330
EF
102
}
330
EF
100
AcDbVisualStyle
  2
Hidden
 70
     6
 71
     1
 72
     2
 73
     2
 90
        0
 40
-0.6
 41
-30.0
 62
     5
 63
     7
 74
     2
 91
        2
 64
     7
 65
   257
 75
     2
175
     1
 42
40.0
 92
        0
 66
   257
 43
1.0
 76
     1
 77
     6
 78
     2
 67
     7
 79
     3
170
     0
171
     0
290
     0
174
     0
 93
        1
 44
0.0
173
     0
291
     0
 45
0.0
1001
ACAD
1000
AcDbSavedByObjectVersion
1070
     0
  0
VISUALSTYLE
  5
1E4
102
{ACAD_XDICTIONARY
360
2A0E
102
}
102
{ACAD_REACTORS
330
EF
102
}
330
EF
100
AcDbVisualStyle
  2
JitterOff
 70
    20
 71
     2
 72
     2
 73
     0
 90
        0
 40
-0.6
 41
-30.0
 62
     5
 63
     7
 74
     1
 91
        4
 64
     7
 65
   257
 75
     1
175
     1
 42
1.0
 92
       10
 66
     7
 43
1.0
 76
     1
 77
     6
 78
     2
 67
     7
 79
     5
170
     0
171
     0
290
     0
174
     0
 93
        1
 44
0.0
173
     0
291
     1
 45
0.0
1001
ACAD
1000
AcDbSavedByObjectVersion
1070
     0
  0
VISUALSTYLE
  5
FD
102
{ACAD_XDICTIONARY
360
2A06
102
}
102
{ACAD_REACTORS
330
EF
102
}
330
EF
100
AcDbVisualStyle
  2
Linepattern
 70
    14
 71
     2
 72
     2
 73
     1
 90
        0
 40
-0.6
 41
-30.0
 62
     5
 63
     7
 74
     1
 91
        4
 64
     7
 65
   257
 75
     7
175
     7
 42
1.0
 92
        8
 66
     7
 43
1.0
 76
     1
 77
     6
 78
     2
 67
     7
 79
     5
170
     0
171
     0
290
     0
174
     0
 93
        1
 44
0.0
173
     0
291
     1
 45
0.0
1001
ACAD
1000
AcDbSavedByObjectVersion
1070
     0
  0
VISUALSTYLE
  5
1E5
102
{ACAD_XDICTIONARY
360
2A10
102
}
102
{ACAD_REACTORS
330
EF
102
}
330
EF
100
AcDbVisualStyle
  2
OverhangOff
 70
    21
 71
     2
 72
     2
 73
     0
 90
        0
 40
-0.6
 41
-30.0
 62
     5
 63
     7
 74
     1
 91
        4
 64
     7
 65
   257
 75
     1
175
     1
 42
1.0
 92
        9
 66
     7
 43
1.0
 76
     1
 77
     6
 78
     2
 67
     7
 79
     5
170
     0
171
     0
290
     0
174
     0
 93
        1
 44
0.0
173
     0
291
     1
 45
0.0
1001
ACAD
1000
AcDbSavedByObjectVersion
1070
     0
  0
VISUALSTYLE
  5
F9
102
{ACAD_XDICTIONARY
360
29FE
102
}
102
{ACAD_REACTORS
330
EF
102
}
330
EF
100
AcDbVisualStyle
  2
Realistic
 70
     8
 71
     2
 72
     2
 73
     0
 90
        2
 40
-0.6
 41
30.0
 62
     5
 63
     7
 74
     0
 91
        0
 64
     7
 65
   257
 75
     1
175
     1
 42
1.0
 92
        8
 66
   257
 43
1.0
 76
     1
 77
     6
 78
     2
 67
     7
 79
     3
170
     0
171
     0
290
     0
174
     0
 93
       13
 44
0.0
173
     0
291
     0
 45
0.0
1001
ACAD
1000
AcDbSavedByObjectVersion
1070
     0
  0
VISUALSTYLE
  5
1F3
102
{ACAD_XDICTIONARY
360
2A1C
102
}
102
{ACAD_REACTORS
330
EF
102
}
330
EF
100
AcDbVisualStyle
  2
Shaded
 70
    27
 71
     2
 72
     2
 73
     1
 90
        2
 40
-0.6
 41
30.0
 62
     5
 63
     7
 74
     0
 91
        4
 64
     7
 65
   257
 75
     1
175
     1
 42
1.0
 92
        8
 66
   257
 43
1.0
 76
     1
 77
     6
 78
     2
 67
     8
 79
     3
170
     0
171
     0
290
     0
174
     0
 93
        5
 44
0.0
173
     0
291
     0
 45
0.0
1001
ACAD
1000
AcDbSavedByObjectVersion
1070
     0
  0
VISUALSTYLE
  5
1F2
102
{ACAD_XDICTIONARY
360
2A1A
102
}
102
{ACAD_REACTORS
330
EF
102
}
330
EF
100
AcDbVisualStyle
  2
Shaded with edges
 70
    26
 71
     2
 72
     2
 73
     1
 90
        2
 40
-0.6
 41
30.0
 62
     5
 63
     7
 74
     1
 91
        2
 64
     7
 65
   257
 75
     2
175
     1
 42
1.0
 92
        8
 66
   257
 43
1.0
 76
     1
 77
     6
 78
     2
 67
     7
 79
     3
170
     0
171
     0
290
     0
174
     0
 93
        5
 44
0.0
173
     0
291
     0
 45
0.0
1001
ACAD
1000
AcDbSavedByObjectVersion
1070
     0
  0
VISUALSTYLE
  5
1EF
102
{ACAD_XDICTIONARY
360
2A14
102
}
102
{ACAD_REACTORS
330
EF
102
}
330
EF
100
AcDbVisualStyle
  2
Shades of Gray
 70
    23
 71
     2
 72
     2
 73
     3
 90
        0
 40
-0.6
 41
-30.0
 62
     5
 63
     7
 74
     2
 91
        2
 64
     7
 65
     7
 75
     1
175
     1
 42
40.0
 92
        8
 66
     7
 43
1.0
 76
     1
 77
     6
 78
     2
 67
     7
 79
     3
170
     0
171
     0
290
     0
174
     0
 93
        1
 44
0.0
173
     0
291
     0
 45
0.0
1001
ACAD
1000
AcDbSavedByObjectVersion
1070
     0
  0
VISUALSTYLE
  5
1F0
102
{ACAD_XDICTIONARY
360
2A16
102
}
102
{ACAD_REACTORS
330
EF
102
}
330
EF
100
AcDbVisualStyle
  2
Sketchy
 70
    24
 71
     1
 72
     2
 73
     2
 90
        0
 40
-0.6
 41
-30.0
 62
     5
 63
     7
 74
     2
 91
        2
 64
     7
 65
     7
 75
     1
175
     1
 42
40.0
 92
       11
 66
     7
 43
1.0
 76
     1
 77
     6
 78
     2
 67
     7
 79
     6
170
     0
171
     0
290
     0
174
     0
 93
        1
 44
0.0
173
     0
291
     0
 45
0.0
1001
ACAD
1000
AcDbSavedByObjectVersion
1070
     0
  0
VISUALSTYLE
  5
FC
102
{ACAD_XDICTIONARY
360
2A04
102
}
102
{ACAD_REACTORS
330
EF
102
}
330
EF
100
AcDbVisualStyle
  2
Thicken
 70
    13
 71
     2
 72
     2
 73
     1
 90
        0
 40
-0.6
 41
-30.0
 62
     5
 63
     7
 74
     1
 91
        4
 64
     7
 65
   257
 75
     1
175
     1
 42
1.0
 92
       12
 66
     7
 43
1.0
 76
     1
 77
     6
 78
     2
 67
     7
 79
     5
170
     0
171
     0
290
     0
174
     0
 93
        1
 44
0.0
173
     0
291
     1
 45
0.0
1001
ACAD
1000
AcDbSavedByObjectVersion
1070
     0
  0
VISUALSTYLE
  5
F6
102
{ACAD_XDICTIONARY
360
29F8
102
}
102
{ACAD_REACTORS
330
EF
102
}
330
EF
100
AcDbVisualStyle
  2
Wireframe
 70
     5
 71
     0
 72
     2
 73
     0
 90
        0
 40
-0.6
 41
-30.0
 62
     5
 63
     7
 74
     1
 91
        4
 64
     7
 65
   257
 75
     1
175
     1
 42
1.0
 92
        0
 66
   257
 43
1.0
 76
     1
 77
     6
 78
     2
 67
     7
 79
     3
170
     0
171
     0
290
     0
174
     0
 93
        1
 44
0.0
173
     0
291
     0
 45
0.0
1001
ACAD
1000
AcDbSavedByObjectVersion
1070
     0
  0
VISUALSTYLE
  5
1F1
102
{ACAD_XDICTIONARY
360
2A18
102
}
102
{ACAD_REACTORS
330
EF
102
}
330
EF
100
AcDbVisualStyle
  2
X-Ray
 70
    25
 71
     2
 72
     2
 73
     1
 90
        1
 40
0.5
 41
-30.0
 62
     5
 63
     7
 74
     1
 91
        0
 64
     7
 65
   257
 75
     1
175
     1
 42
1.0
 92
        8
 66
     7
 43
1.0
 76
     1
 77
     6
 78
     2
 67
     7
 79
     3
170
     0
171
     0
290
     0
174
     0
 93
       13
 44
0.0
173
     0
291
     0
 45
0.0
1001
ACAD
1000
AcDbSavedByObjectVersion
1070
     0
  0
DICTIONARYVAR
  5
146
102
{ACAD_REACTORS
330
5E
102
}
330
5E
100
DictionaryVariables
280
     0
  1
1:1
  0
DICTIONARYVAR
  5
259
102
{ACAD_REACTORS
330
5E
102
}
330
5E
100
DictionaryVariables
280
     0
  1
3.500000
  0
DICTIONARYVAR
  5
25A
102
{ACAD_REACTORS
330
5E
102
}
330
5E
100
DictionaryVariables
280
     0
  1
acadiso.lin
  0
DICTIONARYVAR
  5
145
102
{ACAD_REACTORS
330
5E
102
}
330
5E
100
DictionaryVariables
280
     0
  1
STANDARD
  0
DICTIONARYVAR
  5
84
102
{ACAD_REACTORS
330
5E
102
}
330
5E
100
DictionaryVariables
280
     0
  1
STANDARD
  0
DICTIONARYVAR
  5
227
102
{ACAD_REACTORS
330
5E
102
}
330
5E
100
DictionaryVariables
280
     0
  1
Metric50
  0
DICTIONARYVAR
  5
228
102
{ACAD_REACTORS
330
5E
102
}
330
5E
100
DictionaryVariables
280
     0
  1
Metric50
  0
DICTIONARYVAR
  5
5F
102
{ACAD_REACTORS
330
5E
102
}
330
5E
100
DictionaryVariables
280
     0
  1
2
  0
DICTIONARYVAR
  5
63
102
{ACAD_REACTORS
330
5E
102
}
330
5E
100
DictionaryVariables
280
     0
  1
1
  0
DICTIONARYVAR
  5
298D
102
{ACAD_REACTORS
330
5E
102
}
330
5E
100
DictionaryVariables
280
     0
  1
0
  0
DICTIONARYVAR
  5
1AE
102
{ACAD_REACTORS
330
5E
102
}
330
5E
100
DictionaryVariables
280
     0
  1
0
  0
DICTIONARYVAR
  5
1AF
102
{ACAD_REACTORS
330
5E
102
}
330
5E
100
DictionaryVariables
280
     0
  1
0
  0
DICTIONARYVAR
  5
298B
102
{ACAD_REACTORS
330
5E
102
}
330
5E
100
DictionaryVariables
280
     0
  1
2
  0
DICTIONARYVAR
  5
298A
102
{ACAD_REACTORS
330
5E
102
}
330
5E
100
DictionaryVariables
280
     0
  1
1
  0
DICTIONARYVAR
  5
29DD
102
{ACAD_REACTORS
330
5E
102
}
330
5E
100
DictionaryVariables
280
     0
  1
80.000000
  0
DICTIONARYVAR
  5
29DC
102
{ACAD_REACTORS
330
5E
102
}
330
5E
100
DictionaryVariables
280
     0
  1
5.000000
  0
DICTIONARYVAR
  5
298C
102
{ACAD_REACTORS
330
5E
102
}
330
5E
100
DictionaryVariables
280
     0
  1
127
  0
DICTIONARYVAR
  5
29DE
102
{ACAD_REACTORS
330
5E
102
}
330
5E
100
DictionaryVariables
280
     0
  1
2
  0
DICTIONARY
  5
2A20
330
21C
100
AcDbDictionary
280
     1
281
     1
  3
ACAD_XREC_ROUNDTRIP
360
2A21
  0
DICTIONARY
  5
29E5
330
D3
100
AcDbDictionary
280
     1
281
     1
  3
ACAD_XREC_ROUNDTRIP
360
29E6
  0
DICTIONARY
  5
29E7
330
D7
100
AcDbDictionary
280
     1
281
     1
  3
ACAD_XREC_ROUNDTRIP
360
29E8
  0
DICTIONARY
  5
29E2
330
22
100
AcDbDictionary
280
     1
281
     1
  3
ACAD_XREC_ROUNDTRIP
360
29E3
  0
DICTIONARY
  5
1F9
330
ED
100
AcDbDictionary
280
     1
281
     1
  3
ACAD_XREC_ROUNDTRIP
360
29EA
  3
FBXASSET
360
1FA
  0
DICTIONARY
  5
1F7
330
EC
100
AcDbDictionary
280
     1
281
     1
  3
ACAD_XREC_ROUNDTRIP
360
29E9
  3
FBXASSET
360
1F8
  0
DICTIONARY
  5
173
330
EE
100
AcDbDictionary
280
     1
281
     1
  3
ACAD_XREC_ROUNDTRIP
360
29EB
  3
BUMPTILE
360
175
  3
DIFFUSETILE
360
174
  3
FBXASSET
360
1FB
  3
OPACITYTILE
360
176
  3
REFLECTIONTILE
360
177
  0
DICTIONARY
  5
2A0C
330
12E
100
AcDbDictionary
280
     1
281
     1
  3
ACAD_XREC_ROUNDTRIP
360
2A0D
  0
DICTIONARY
  5
2A1E
330
21A
100
AcDbDictionary
280
     1
281
     1
  3
ACAD_XREC_ROUNDTRIP
360
2A1F
  0
DICTIONARY
  5
162
330
7F
100
AcDbDictionary
280
     1
281
     1
  3
ACAD_ROUNDTRIP_2008_TABLESTYLE_CELLSTYLEMAP
360
29DF
  3
ACAD_XREC_ROUNDTRIP
360
29E4
  0
DICTIONARY
  5
29F6
330
F5
100
AcDbDictionary
280
     1
281
     1
  3
ACAD_XREC_ROUNDTRIP
360
29F7
  0
DICTIONARY
  5
29F4
330
F4
100
AcDbDictionary
280
     1
281
     1
  3
ACAD_XREC_ROUNDTRIP
360
29F5
  0
DICTIONARY
  5
2A02
330
FB
100
AcDbDictionary
280
     1
281
     1
  3
ACAD_XREC_ROUNDTRIP
360
2A03
  0
DICTIONARY
  5
2A0A
330
FF
100
AcDbDictionary
280
     1
281
     1
  3
ACAD_XREC_ROUNDTRIP
360
2A0B
  0
DICTIONARY
  5
29FC
330
F8
100
AcDbDictionary
280
     1
281
     1
  3
ACAD_XREC_ROUNDTRIP
360
29FD
  0
DICTIONARY
  5
2A00
330
FA
100
AcDbDictionary
280
     1
281
     1
  3
ACAD_XREC_ROUNDTRIP
360
2A01
  0
DICTIONARY
  5
2A12
330
1E6
100
AcDbDictionary
280
     1
281
     1
  3
ACAD_XREC_ROUNDTRIP
360
2A13
  0
DICTIONARY
  5
2A08
330
FE
100
AcDbDictionary
280
     1
281
     1
  3
ACAD_XREC_ROUNDTRIP
360
2A09
  0
DICTIONARY
  5
29EC
330
F0
100
AcDbDictionary
280
     1
281
     1
  3
ACAD_XREC_ROUNDTRIP
360
29ED
  0
DICTIONARY
  5
29EE
330
F1
100
AcDbDictionary
280
     1
281
     1
  3
ACAD_XREC_ROUNDTRIP
360
29EF
  0
DICTIONARY
  5
29F0
330
F2
100
AcDbDictionary
280
     1
281
     1
  3
ACAD_XREC_ROUNDTRIP
360
29F1
  0
DICTIONARY
  5
29F2
330
F3
100
AcDbDictionary
280
     1
281
     1
  3
ACAD_XREC_ROUNDTRIP
360
29F3
  0
DICTIONARY
  5
29FA
330
F7
100
AcDbDictionary
280
     1
281
     1
  3
ACAD_XREC_ROUNDTRIP
360
29FB
  0
DICTIONARY
  5
2A0E
330
1E4
100
AcDbDictionary
280
     1
281
     1
  3
ACAD_XREC_ROUNDTRIP
360
2A0F
  0
DICTIONARY
  5
2A06
330
FD
100
AcDbDictionary
280
     1
281
     1
  3
ACAD_XREC_ROUNDTRIP
360
2A07
  0
DICTIONARY
  5
2A10
330
1E5
100
AcDbDictionary
280
     1
281
     1
  3
ACAD_XREC_ROUNDTRIP
360
2A11
  0
DICTIONARY
  5
29FE
330
F9
100
AcDbDictionary
280
     1
281
     1
  3
ACAD_XREC_ROUNDTRIP
360
29FF
  0
DICTIONARY
  5
2A1C
330
1F3
100
AcDbDictionary
280
     1
281
     1
  3
ACAD_XREC_ROUNDTRIP
360
2A1D
  0
DICTIONARY
  5
2A1A
330
1F2
100
AcDbDictionary
280
     1
281
     1
  3
ACAD_XREC_ROUNDTRIP
360
2A1B
  0
DICTIONARY
  5
2A14
330
1EF
100
AcDbDictionary
280
     1
281
     1
  3
ACAD_XREC_ROUNDTRIP
360
2A15
  0
DICTIONARY
  5
2A16
330
1F0
100
AcDbDictionary
280
     1
281
     1
  3
ACAD_XREC_ROUNDTRIP
360
2A17
  0
DICTIONARY
  5
2A04
330
FC
100
AcDbDictionary
280
     1
281
     1
  3
ACAD_XREC_ROUNDTRIP
360
2A05
  0
DICTIONARY
  5
29F8
330
F6
100
AcDbDictionary
280
     1
281
     1
  3
ACAD_XREC_ROUNDTRIP
360
29F9
  0
DICTIONARY
  5
2A18
330
1F1
100
AcDbDictionary
280
     1
281
     1
  3
ACAD_XREC_ROUNDTRIP
360
2A19
  0
XRECORD
  5
2A21
102
{ACAD_REACTORS
330
2A20
102
}
330
2A20
100
AcDbXrecord
280
     1
102
DISPLAYNAME
  1
Metric50
102
FLAGS
 90
        0
  0
XRECORD
  5
29E6
102
{ACAD_REACTORS
330
29E5
102
}
330
29E5
100
AcDbXrecord
280
     1
102
SHADEPLOT
 70
     0
102
SHADEPLOTRESLEVEL
 70
     2
102
SHADEPLOTCUSTOMDPI
 70
   300
  0
XRECORD
  5
29E8
102
{ACAD_REACTORS
330
29E7
102
}
330
29E7
100
AcDbXrecord
280
     1
102
SHADEPLOT
 70
     0
102
SHADEPLOTRESLEVEL
 70
     2
102
SHADEPLOTCUSTOMDPI
 70
   300
  0
XRECORD
  5
29E3
102
{ACAD_REACTORS
330
29E2
102
}
330
29E2
100
AcDbXrecord
280
     1
102
SHADEPLOT
 70
     0
102
SHADEPLOTRESLEVEL
 70
     2
102
SHADEPLOTCUSTOMDPI
 70
   300
  0
XRECORD
  5
29EA
102
{ACAD_REACTORS
330
1F9
102
}
330
1F9
100
AcDbXrecord
280
     1
102
MATERIAL
148
0.0
149
0.0
149
0.0
 93
        0
 94
       63
282
     0
 72
     1
 77
     1
171
     1
175
     1
179
     1
273
     0
  0
XRECORD
  5
1FA
102
{ACAD_REACTORS
330
1F9
102
}
330
1F9
100
AcDbXrecord
280
     1
 70
     1
 90
429727718
  1
D62C5603-E3A1-4AEA-B7FB-FE5D8D0755AF
310
504B03040A0000080000CC70623B3DEE336E79000000790000001B0000006175746F6465736B2D64657369676E2D7061636B6167652E786D6C3C3F786D6C2076657273696F6E3D22312E302220656E636F64696E673D227574662D3822203F3E3C666F726D6174733E3C666F726D61743E687474703A2F2F736368656D612E
310
6175746F6465736B2E636F6D2F64657369676E2D7061636B6167652F323030393C2F666F726D61743E3C2F666F726D6174733E504B0304140006080800CC70623BD486FD9CA0000000F4000000130000005B436F6E74656E745F54797065735D2E786D6C7D8EC10E82300C865F65E91D8A1E8C310C0EEA1BF002731658846E
310
D98AC1B77784ABF1D8FE5FBFBF75BBCE937A534CCEB38643598122B6FEE978D0B0485F9C41B54DDD7D022595594E1A469170414C76A4D9A4D207E29CF43ECE46F218070CC6BECC4078ACAA135ACF422C856C0E68EA1BF5669944DDD7BCDE7B1F8E415D77AECB980613C2E4AC91FC167A2B244592486606FC29C8FD7F045B9A
310
EF7053A7E60B504B0304140006080800CC70623B853B8169EB0000007C01000008000000636F72652E786D6C8D90416EC3201045AF62CDB6C206821CC7C244919D9CA01740401C94182C03558F5F9C3852BBEB6A467FFE9B197D7EFC9E1EC5975982F5AE035262288C535E5B377690E21535501C055FBC8FBF6C503839990E
310
5619041F179FE64D52DE45E362569DD7661365082642A11EB9E920A89B99642953CC8E702F67A9EE7234257977194EC9EAE275C4EABCCF5EAD5940D4AC6F0E35A568B8F43562CD7046CD199FD07E60174276A7BE677B5EADB0E0D14EEFFB6A31321A0D82627C4084204C3F096B71DD52F6819B16635EADF63F509AF53FA164
310
5DDCD1EDDD17164090FCC8732078B56691CB33A85CD7DCC40F504B0304140006080800CC70623B55019EA25F0000007C00000007000000636E782E786D6C4DCB3B0E80201045D1AD90E915ED2CF8AC45050C11660C8261F98AB1B07AC9C97D42D718D865D3E909258CFD00CCE24AC6E326A164D74DC0B4128928FF32603847
310
2BA13128B1252AC747C6BAB984FC68F0B87FE8960A5C09FE86CFB69FBA01504B0304140006080800CC70623BDBABAAF470010000D40300000C0000006662782F636F72652E786D6CC553D16E823014FD95A6AF4B694182CC941A83FA05FB810A9511A125A5257EFE2E82712ECEB8A7F100CD39F7F69E734AF9FADC366850B6
310
AF8DCE7018308C942E4C59EB2AC3DE1D498AD15A706B8CFB56869196ADCAF00863C12B6B7C374385D14E6907A836A59A41D9F7CA615434B0C8705F7CAA5606D23BA8E84F41278B93AC54100640439DE0BDB320004D43C63716C7C399D30917DCFBBA9CD9BA8469F5B156168B24CED3F7248AC8769F27244EB73B92EED8862C
310
B7F13E0C179B3C8F979C8ECD82BBBABDAA2BAC924E9558448CBD9330242CFA08E3154B5651FCC6D215639C8EE5774DBE2B5F6CF2B5768B68963BB5F5588420E442FC700B1139D4CB01F450C1E918227C2E09DF070D8140C84E1E9AAB8F1340832A9CB13130A5F1376A908D57309505ECF2A0DF179C4E9D30F5B239B87E3823
310
7A79C6F31DE1A8A5AEC08474B03C7837EAE4938639B44E5932B833D2C6B6B279CDC613877FA26EE21F4A2A4C63EC7F29A2F301D1F9F7A0E37D145F504B0304140006080800CC70623B9C113CC27E0000009D0000000B0000006662782F636E782E786D6C4DCCDF0A83201C86E15B91DFB94BFB330DD428C8FB886521330DA7
310
6397BF1A1DECE883878F57749FCDA1B7892F1BBC047A23808C7F84D9FA55424E0BE6803A256208E9EF06C84F9B91703228B1C690F78B66B34CD9A5439DF5CF0BFBF65E35BCA1B8D6A5C6F540381E886698B5741C695F9503EBA150A2F8958E3DC3EA0B504B0304140006080800CC70623B7DF2F77C2A010000120200003100
310
00006662782F41393633353835312D344632462D344230382D423046372D3739314545314133324237412F636F72652E786D6C8D51DB8EC22014FC15C2939B0D2DB4B45643319AE817EC0F6041255A68B86CFCFC856D4D76DF7CE190393373060EDB3DC707F856CE6B6B7A480A0C81328395DA5C7B18C3057510EC3873D686
310
3F34088C18550F330C39BB3A1BA7051AAC09CA84841A2BD5020AEF55806078A44B0FFD7053A328440C89E1EFC52486BBB8AA8214A99D789CF9E05200300FC927E4FB4D5B375D43103D5527440FB843077C5AA3F5861C8F645F5787F59E95B390B318B55CE45AA638FAA2957BD7248B390B7A7CC51F9C124149C82B8C378810
310
84AB2F42B7B8DD56F413775B8C5999E9FF4471926F8AA236A1AE96B8B3CC434E5839373893369E1FAF30EA395917409EB7F26AF8801C171837A4A6AC9C89E9F9C9B1A58BA30FD6A5EF5DDDCF894B9AD9B6A59C957943A9FCAE2FD5BC4DFE03504B0304140006080800CC70623BAD7543B64E01000033030000300000006662
310
782F41393633353835312D344632462D344230382D423046372D3739314545314133324237412F636E782E786D6CD593CD6EC32010845F0571AD6CE3D48AD20813A9873E410FBD12D82434182C7EAAE6EDBB2424CD25871E7B41D6EC30B3FA84F9E67BB2E40B4234DE8DB46F1925E094D7C6ED479AD3AE5951B2113C789FEE
310
6C943839C1488B4C05DF079FE72A69D8C96C13AAD6B8631503449F83828872B949AC57D26200B826A308D316B4064D6E46FCDA41C05550DC9E483A00797BFD207EFB092A45DE9514C1BBD22178396BD39D891265658C238DEA00936C654E5E433CB65A26D9F6EDB5EBC14EBF49A45CB856E66048291F6939A9A81BB5C89177
310
38143CA680F4AA299D66A042CEB3354A2684DC9D8D178FE0D9B8B41CAAD720F880EE7EF93C0C18769E099ECC04D5A102C8049A8A05632F4DDF376CF1DE0F6BB65C2F8627B65A33C6BB62177CEBBDAD973006829F89F22E814B54F4BC2BE347F8AA8F681390B50FA73F804400B5F542E796F19FF974E7F78DB802FE05E20750
310
4B0304140006080800CC70623BE75B7789680500003C100000340000006662782F41393633353835312D344632462D344230382D423046372D3739314545314133324237412F6F626A656374732E786D6CAD575B8F9B3818FD2B887D06C22499CB8AA1CA655245D5B455A356FB305264C061D8018C6C3393D95FBFC7600890
310
A4CD5EF210B0B1BFEBF98E3F7B1FF6596ABC522E1296DF9BAE3D320D9A872C4AF2F8DE2CE5CEBA358D0FBEC719939D65A691938CDE9B6ADAF4BD98B3B2D05311DD91329583D9D5FC0F438434A7A611A644887B5384CF34233629258BA878B12322891DEFF6B66BD70BFB62634E8AE781D082709A4B588AF91C528CDA28B73F
310
1C998EEF39EABBEFA97FBD6A7C7E9553F9D3D79FE442923C3C523610337627CB87ABE99D359D4CC6D6E4FACAB5E6ABF9D2726FC6A3C5F56271377BB88362213924694B38DD99FE47C48627A1E7D49F5A8BB5E1A74C0A599ED3B0F21F1E56366B89112D681E218F0915D0D6F17AD41FBA2A369DCF6335D62ABBD39779D5DDD1
310
11D4D8DE3CBB96B2E04FB8202E41051754A1AA8E8F76B4C6DFE810B580B1547F4B84911149794252234D024EF8BBE963A95AE27B3D310A9D5C215C7960FAEE415ED75694C6AFB17BCACA5D99A60A9AA65F217B0BFC53292ACB92BF283FAD0D3621576592CB5BED907C2FA8E9DF794E35E97BEA31BED21FEB401ABB94C44839
310
DCACBF0E1C5DA8DA5B2F4DFFD32AD86F543D9E565E7056502E157C00AD2671CD534549AB752FCA9CDA00677A313F04E51B22FF19E57B300579E3C97EB29F682D92935CEC18CF901B7B54FD8C51F362B56FC72FE0B3C1EAE335EDCCBF5AEC39ADB17DC238973F804BA5E6F6BFE7AF1FB32E523BE9F3BD571418E3631DCA4D48
310
5250CF639223210A9446CA30052EDF057BD35F8329C1ECD84552BF0DC8D18BE7BCE23BFE6BD960AB4A7DE79923A103BEBD80F911CBAA2C60DB19B01CF164A5583B772EE6D3FFA56666CBCDA74DC97724A48F9A58967497E489C4D979006FD7A05E227A1EBDD0F737C623387A9C844D3709995625106D157315F8B8392CD4E0
310
A0B9A720C4BE9829CEF37EA1E13111214D53925356365ADA634861B52519DD27A00AEB808EAF0628E6F435519D446F45CF2C9CF5214F0A15B2F6D06B79DA3EE3CBF7F56780D2F4E7EF73A0F5E5B02A38D07DC852C6B7C1FBB6664213E0C39E3EBA7FF4E1AD23EA2829407C85E586727488B751B2DB9502BC7B228A3FD68B6E
310
A65A22397E690AA8D158D7E404EC8CDA235CC3B7D1898680131CEC2CDF2638C65196279577750F15884AEE19F94199155B92B13297978469D4F8D358DF0AEF7631E28DC8F0D9F437D5D39A83B2231A1D52D543813A824EF8D44BCFF2FA6A31BD1E8DAD87F1CCB526B3879935BF59CDADD5C37479BB1CDD4CA7B3556B516589
310
EF352754B706114D9C885EC9131DE6EFEB43D99AFE2391C2F958179413D7CFEF6B1B6DB1E7600F00DE6E5C67454A339A4BA2E0FBA85ED26F045D454F463DBFCE484C2F90F2E5E3666003662ED8F755951A7D1BECD5B30B550B2785C8E7320B7292A4838DDA71BBC863ED7613CAF659337A3354231D4FF4A182A54904C2898C
310
98B28C4AD0CE056CCF332A80986E571EE9DBC305BB5FEB7E509220A58D25CF042D712A806AC0AD0C657FDEF80D2D9CEAA2EE4D1C76F60BFE74219A06527D6F82DF6412526107381E55E353090704D085B52408A8913C4ED159D79BDA71BB4BC506F4831350EB6F975CD22D69BF7AC49B91A2C0A9DDA3D5CA36AD20FC478E37
310
E61844E2352865EBCB61A275A65283CAAA9DD27703B4102F5AF51EF5F573B75CBB5AD38BC845F7A49F82A0966A49C2E3EA5EA0ECD326CD965F1DB402C6FA8B51A4658C5C5E2EC9E214602E55810345408596591009A82E7E7FFACA19EEA299B14A0081A705CB3296EBC14CDF658DCD336EA6D1136881AAEB87B81AB9EE53D5
310
F5EB8BC8362082DA24122F98680A4E7930C01A0079749CEA14382A0783E5EBA5A10F8C098456A03D6A4AEB6BB881E2513747552A5DB22C7EDAF83BD5528081A365F7FF06504B0304140006080000CC70623B000000000000000000000000350000006662782F41393633353835312D344632462D344230382D423046372D37
310
39314545314133324237412F76657274696365732E62696E504B0304140006080800CC70623BF270F1330600000004000000360000006662782F41393633353835312D344632462D344230382D423046372D3739314545314133324237412F747269616E676C65732E62696E636660600000504B0304140006080000CC7062
310
3B000000000000000000000000370000006662782F41393633353835312D344632462D344230382D423046372D3739314545314133324237412F617474726962757465732E62696E504B0304140006080800CC70623B08DA0BD19000000041010000360000006662782F41393633353835312D344632462D344230382D4230
310
46372D3739314545314133324237412F6469726563746F72792E786D6C858F410AC3201045AF22B36F53E9A60B35CBEEBAE80D244E44489C6234F4F835464A48035D0DF398FF9F8AF63D0E6CC63039F212F8F9020C7D47C6792B21C5FE7403D62A1188E2E60C98D7234A5830286103A55745067B9D86B8A3CF9C7F90C11DE6
310
07FB144396D7B6A82D282E9A152AD114D5EF2CB866EEE831B8EEA07A7BB5A8D7D61A2BAAEB7FD5F70921FF497D00504B0304140006080800CC70623BEDD1DC58FD000000A00100003B0000006662782F41393633353835312D344632462D344230382D423046372D3739314545314133324237412F7265736F75726365732F
310
636F72652E786D6C8D504B6E833010BD0A9A6D65B00922041947112427E8052C33A156828DFCA97AFC9A40A576D7CDCCE87D344F8F9FBFE667F689CE6B6B3A6039850C8DB2A336530731DC4903D95970676DF82583CCC8193B5861107C72362E3BA4AC096842428D1D7107A5F7182053CF7474E0D507CE32973124857FE48B
310
540F3961CEF244279DE03EB81420DB9EAC1384436FA353E879B1B182C7A8C75DA3C7F453DF353A1075D537A7BA6464B8F535A99AE14A9A2BBD90E350DD183B5CFABE3AF262350B1EF4FC9351399401471025A527C218A1E53BAB5A5AB765F5469B96525EACF23FA6B88CFF34456DC2A1DCE36E360F82A5202F42F062ED2BAD
310
579969AFDD8A6F504B010214000A0000080000CC70623B3DEE336E79000000790000001B00000000000000000000000000000000006175746F6465736B2D64657369676E2D7061636B6167652E786D6C504B01021400140006080800CC70623BD486FD9CA0000000F40000001300000000000000000000000000B20000005B
310
436F6E74656E745F54797065735D2E786D6C504B01021400140006080800CC70623B853B8169EB0000007C010000080000000000000000000000000083010000636F72652E786D6C504B01021400140006080800CC70623B55019EA25F0000007C000000070000000000000000000000000094020000636E782E786D6C504B
310
01021400140006080800CC70623BDBABAAF470010000D40300000C00000000000000000000000000180300006662782F636F72652E786D6C504B01021400140006080800CC70623B9C113CC27E0000009D0000000B00000000000000000000000000B20400006662782F636E782E786D6C504B01021400140006080800CC70
310
623B7DF2F77C2A010000120200003100000000000000000000000000590500006662782F41393633353835312D344632462D344230382D423046372D3739314545314133324237412F636F72652E786D6C504B01021400140006080800CC70623BAD7543B64E010000330300003000000000000000000000000000D2060000
310
6662782F41393633353835312D344632462D344230382D423046372D3739314545314133324237412F636E782E786D6C504B01021400140006080800CC70623BE75B7789680500003C10000034000000000000000000000000006E0800006662782F41393633353835312D344632462D344230382D423046372D3739314545
310
314133324237412F6F626A656374732E786D6C504B01021400140006080000CC70623B0000000000000000000000003500000000000000000000000000280E00006662782F41393633353835312D344632462D344230382D423046372D3739314545314133324237412F76657274696365732E62696E504B01021400140006
310
080800CC70623BF270F133060000000400000036000000000000000000000000007B0E00006662782F41393633353835312D344632462D344230382D423046372D3739314545314133324237412F747269616E676C65732E62696E504B01021400140006080000CC70623B0000000000000000000000003700000000000000
310
000000000000D50E00006662782F41393633353835312D344632462D344230382D423046372D3739314545314133324237412F617474726962757465732E62696E504B01021400140006080800CC70623B08DA0BD1900000004101000036000000000000000000000000002A0F00006662782F41393633353835312D344632
310
462D344230382D423046372D3739314545314133324237412F6469726563746F72792E786D6C504B01021400140006080800CC70623BEDD1DC58FD000000A00100003B000000000000000000000000000E1000006662782F41393633353835312D344632462D344230382D423046372D3739314545314133324237412F7265
310
736F75726365732F636F72652E786D6C504B0506000000000E000E0080040000641100000000
  0
XRECORD
  5
29E9
102
{ACAD_REACTORS
330
1F7
102
}
330
1F7
100
AcDbXrecord
280
     1
102
MATERIAL
148
0.0
149
0.0
149
0.0
 93
        0
 94
       63
282
     0
 72
     1
 77
     1
171
     1
175
     1
179
     1
273
     0
  0
XRECORD
  5
1F8
102
{ACAD_REACTORS
330
1F7
102
}
330
1F7
100
AcDbXrecord
280
     1
 70
     1
 90
429727718
  1
30362254-06B7-45E0-A893-8CFA70E3D6BC
310
504B03040A0000080000CC70623B3DEE336E79000000790000001B0000006175746F6465736B2D64657369676E2D7061636B6167652E786D6C3C3F786D6C2076657273696F6E3D22312E302220656E636F64696E673D227574662D3822203F3E3C666F726D6174733E3C666F726D61743E687474703A2F2F736368656D612E
310
6175746F6465736B2E636F6D2F64657369676E2D7061636B6167652F323030393C2F666F726D61743E3C2F666F726D6174733E504B0304140006080800CC70623BD486FD9CA0000000F4000000130000005B436F6E74656E745F54797065735D2E786D6C7D8EC10E82300C865F65E91D8A1E8C310C0EEA1BF002731658846E
310
D98AC1B77784ABF1D8FE5FBFBF75BBCE937A534CCEB38643598122B6FEE978D0B0485F9C41B54DDD7D022595594E1A469170414C76A4D9A4D207E29CF43ECE46F218070CC6BECC4078ACAA135ACF422C856C0E68EA1BF5669944DDD7BCDE7B1F8E415D77AECB980613C2E4AC91FC167A2B244592486606FC29C8FD7F045B9A
310
EF7053A7E60B504B0304140006080800CC70623B1EC5D7A3EB0000007C01000008000000636F72652E786D6C8D90416EC3201045AF82665B6103C6756C6122AB4D4ED00B204C5C94182C03558F5F9C3852BBEB6A467FFE9B197D71FC9E6FE8CBACC17AD7032D0820E3B41FAD9B7A48F1820F808E52ACDEC75F36404ECDA687
310
4D0629A6D5A76597B477D1B89855E747B38B2A041301E95B6E7A08FAD3CCAA50296647B8168BD2573599823EBB0CA76447F43862C7BCCF5EAC59410E4DDD9C7973C2755553CCCFA4C603E3040F1565ED3B1FDE4E432BCA0D9622DAF9795FAF464533826484B498524CD807E51D79ED187F21878E10516EF63F505AC67F42C9
310
BA58B1FDDD071640D2FCC87D2045B96591CB3DA85CB7DCE40F504B0304140006080800CC70623B55019EA25F0000007C00000007000000636E782E786D6C4DCB3B0E80201045D1AD90E915ED2CF8AC45050C11660C8261F98AB1B07AC9C97D42D718D865D3E909258CFD00CCE24AC6E326A164D74DC0B4128928FF32603847
310
2BA13128B1252AC747C6BAB984FC68F0B87FE8960A5C09FE86CFB69FBA01504B0304140006080800CC70623B8C9102E971010000D40300000C0000006662782F636F72652E786D6CC5535B6E833010BC8AE5DF0A6C08340F1947A84D4ED00B38C6A128602363A31CBFCB234A53A551FA553EC09AD9F5CE8C31DB9E9B1AF5CA
310
7695D1198E428A91D2D214952E33ECDD315861B4E5CC1AE3BE9561A445A3323CC098B3D21ADFCE9034DA29ED00D5A6503328BA4E398C640D8B0C77F253352214DE4145770A5B214FA2546114020D759C75CE8200340D19DE981F0F6746269C33EFAB6266AB02A655C74A59CCF365BADC27CB5D902ED22848F6340DF238A141
310
BE88E2F57B92BFEDF23523433367AE6A2EEAA455C2A902F398D2751045018D3FA264435F3771F242571B4A1919CA6F9A7C5B3CD9E42BED16F12C776AEB308F40C848FC700B1139D4891EF410CEC810227CC6846F8386402064270EF5C5C709A05E49676C024C61FC95EA45ED154CA5211D1FF4FB8291A913A68E9B83EBBB33
310
E2A7673CDE118E5AE8124C0807CB8377834E366998436B950D7A7746DAD846D4CFD978E0F04FD455FC5D49D2D4C6FE9722321F10997F0F32DC47FE05504B0304140006080800CC70623BFFEA85907E0000009D0000000B0000006662782F636E782E786D6C4DCCD10A83201886E15B91FFDC95D95A811AB6F23E625948A6C3
310
E9D8E5AF46073BFAE0E1E365ED67B3E8ADC3CB78C7815C7240DA3DFC64DCC221C519D7805AC182F7F1EF06C88D9BE6703008B6049F9E274D7A1E938DBB5AE3D6131B2589BA0D3D965551E0B2EA732C9B9A624AAEB41E3A557677029960D9AFB4EF11165F504B0304140006080800CC70623B4FEEA4082C0100001202000031
310
0000006662782F39464131463745442D413632322D343644302D413938332D3331353338454246344243312F636F72652E786D6C8D515B6EC32010BC0AE2AB55850DD871ED0813254D72825EC00192A2C460F1A872FC42ED48ED5F7E00CDCECCCEB26C731F6FE05B39AFADE921293004CA082BB5B9F43086336A21D870E6AC
310
0D7F68109861543DCC30E4ECE26C9C164858139409093556AA051CBC570102714B8F1E7AF1A5C6A11862480C7F2DA6415C878B2A4891CA89C7990F2E050073937C42DE1DB7E4F87ED8A36D4329AA9B3D46DBAEAD504556557BD81DEBDD0761E52CE42C462D17B996298E3E6BE59E35C962CE821E1FF18553435012728A7187
310
0841987E927A8D9B35ADDF70BBC6989599FE4F1427F9A4286A132ABAC49D651EF234CD5CE04CDA78BA3DC2A8FB645D00B9DF8B57E215725C60BCA2A463E54C4CE327C7A65E1C7DB02E7DEFCBF594B864C5CA6CDBD49C957943E9FA5D5FBAF336F90F504B0304140006080800CC70623BAD7543B64E01000033030000300000
310
006662782F39464131463745442D413632322D343644302D413938332D3331353338454246344243312F636E782E786D6CD593CD6EC32010845F0571AD6CE3D48AD20813A9873E410FBD12D82434182C7EAAE6EDBB2424CD25871E7B41D6EC30B3FA84F9E67BB2E40B4234DE8DB46F1925E094D7C6ED479AD3AE5951B2113C
310
789FEE6C943839C1488B4C05DF079FE72A69D8C96C13AAD6B8631503449F83828872B949AC57D26200B826A308D316B4064D6E46FCDA41C05550DC9E483A00797BFD207EFB092A45DE9514C1BBD22178396BD39D891265658C238DEA00936C654E5E433CB65A26D9F6EDB5EBC14EBF49A45CB856E66048291F6939A9A81BB5
310
C8917738143CA680F4AA299D66A042CEB3354A2684DC9D8D178FE0D9B8B41CAAD720F880EE7EF93C0C18769E099ECC04D5A102C8049A8A05632F4DDF376CF1DE0F6BB65C2F8627B65A33C6BB62177CEBBDAD973006829F89F22E814B54F4BC2BE347F8AA8F681390B50FA73F804400B5F542E796F19FF974E7F78DB802FE05
310
E207504B0304140006080800CC70623B16AB87BA640500003C100000340000006662782F39464131463745442D413632322D343644302D413938332D3331353338454246344243312F6F626A656374732E786D6CAD575B6FA33818FD2B887DE6924B3BED8A326A92B68A663B534DD4D13E548A0C38942D60649B369D5FBFC7
310
600890A493BDE42160637FD7F31D7FF63E6FB3D478A55C242CBF3247B66B1A340F5994E4F19559CA8D75611A9F7D8F33263BCB4C232719BD32D5B4E97B316765A1A722BA21652A07B3B7B33F0D11D29C9A46981221AE4C113ED38CD8A4942CA2E2C58E882476BCD9DA23BB5ED8171B73523C0F841684D35CC252CCE79062D4
310
468DFA43D7747CCF51DF7D4FFDEB5593E3AB9CCA9FBEFE241792E4E19EB28198C968BAB8199F5D5A67D3E9C49A9E8F47D6EC76B6B0469F26EEFC7C3EBFBCBEB98462213924694B38DD98FE1D62C393D073EA4FADC5DAF04326852CCF6958F90F0F2B9BB5C48816348F90C7840A68EB78EDF68723159BCEE7891A6B95DDE9D3
310
BCEAEEE8086A6C6F9E5D4B59F0175C10A7A0820BAA5055C7473B5AE3CFDD452D602CD5DF12616444529E90D448938013FE6EFA58AA96F85E4F8C42275708571E98FE6827AF6B2B4AE3D7D83D64E5A64C53054DD3AF90BD06FEA9149565C94FCA0F6B834DC85599E4F2423B24DF0B6AFA979E534DFA9E7A4CC6FA631D486393
310
921829879BF5D781A373557BCB85E97FB90DB62B558F8795179C15944B051F40AB495CF35451D26A4727654E6D8033BD98EF82F21D91FF8AF2DD9982BCF1643BDD4EB516C9492E368C67C88DED563FC36D5EACF66DFF057C3658BDBFA69DF9578B3DA735B64F18C7F20770A9D45CFCF7FCF563D6456A277DBEF78A02637CA2
310
43B90A490AEAB94F72244481D24819A6C0E59B606BFA4B3025981DBB48EAB701D97BF19C577CC77F2D1B6C55A9EF3C732474C0B727303F625995056C3B02963D9EAC146BE78EC5FCEC7FA999EBC5EACBAAE41B12D27B4D2C0BBA49F244E2ECDC81B76B502F113D8F5EE8FB1BE3111CDD4FC2AA9B844CAB1288B68AB90A7CDC
310
1C166AB0D3DC5310625FCC14E779BFD0709F8890A629C9292B1B2DED31A4B0DA928CEE135085754027E3018A397D4D5427D15BD1330B677DC8934285AC3DF45A9EB68FF8F2B8FC0A509AFEECFD0FF2DE25CC6047F7214B195F07EFEB9A094D800F7BFAE8FED187B78EA8A3A400F115961BCAD1215E47C966530AF0EE8128FE
310
58CEBB996A8964FFA529A046635D9353B0336A8F700DDF46271A024E70B0B37C9DE01847591E54DED53D54202AB947E4076556AC49C6CA5C9E1226B7F1A7B1BE15DEED62C41B91E1B3E9AFAAA735036547343A925075041DF0A9979E893B391F8FCFA6967B3EFB644DCF6E5CEBFAE272625DCC6FAF3FB93793C5F90CE1EF57
310
407342756B10D1C489E8953CD1617E5CEECAD6F4EF8914CE5D5D504E5C3F1F9736DA62CFC11E00BCDDB8CC8A9466349744C1F75EBDA4DF09BA8A9E8C7A7E9991989E20E5DBDD6A6003664ED8F7A04A8DBE0DF6EAD9B9AA858342E47399053949D2C146EDB85DE4B176BB0965FBAC19BD19AA918E27FA50C1D22402E144464C
310
59462568E704B6E71915404CB72B8FF4EDE184DDAF753F284990D2C6926782963815403548A70C657FDEF80D2D9CEAA2AE4C1C76F60BFE74219A06527D6582DF6412526107381E55E353090704D085B52408D0933C4ED159D79BDA71BB4BC506F4831350EB6F979CD22D69BF7AC49B91A2C0A9DDA3D5CA36AD20FC478E37E6
310
1844E2352865EBCB6EA275A652E3836BE04EFB400BF1A2556F515F1FBB35B2AB35BD889C744FFA1004B5544B121E57F70215746DD2F5E2C1412B602CBF19455AC6C8E5E9922C4E01E65215385004546899059180EAFCF7A707CE7017CD8CDB0410789AB32C63B91E5CEBBBACB17AC6CD347A022D5075FD106377347AAABA7E
310
7D11590744509B44E205134DC1290F06580320F78E537D3D73540E06CB970B431F185308AD40BBD794D6D77003C5A36E8EAA54BA64597CD8F83BD552A080A365F7FF06504B0304140006080000CC70623B000000000000000000000000350000006662782F39464131463745442D413632322D343644302D413938332D3331
310
353338454246344243312F76657274696365732E62696E504B0304140006080800CC70623BF270F1330600000004000000360000006662782F39464131463745442D413632322D343644302D413938332D3331353338454246344243312F747269616E676C65732E62696E636660600000504B0304140006080000CC70623B
310
000000000000000000000000370000006662782F39464131463745442D413632322D343644302D413938332D3331353338454246344243312F617474726962757465732E62696E504B0304140006080800CC70623B08DA0BD19000000041010000360000006662782F39464131463745442D413632322D343644302D413938
310
332D3331353338454246344243312F6469726563746F72792E786D6C858F410AC3201045AF22B36F53E9A60B35CBEEBAE80D244E44489C6234F4F835464A48035D0DF398FF9F8AF63D0E6CC63039F212F8F9020C7D47C6792B21C5FE7403D62A1188E2E60C98D7234A5830286103A55745067B9D86B8A3CF9C7F90C11DE607
310
FB144396D7B6A82D282E9A152AD114D5EF2CB866EEE831B8EEA07A7BB5A8D7D61A2BAAEB7FD5F70921FF497D00504B0304140006080800CC70623B0D6EF93BFE000000A00100003B0000006662782F39464131463745442D413632322D343644302D413938332D3331353338454246344243312F7265736F75726365732F63
310
6F72652E786D6C8D50596E833010BD0A9ADFCA60B334011947A8694ED00B586642AC041B79A97AFC9A40A5F6AF3F33A3B7689E1E3F7DCD8FEC139DD7D6F4C0720A191A65476DA61E62B892236427C19DB5E1970C322367EC618541F0C9D9B8EC90B226A009093576C41D94DE63804C3DD2D18357379C652E63480A7FCF17A9
310
EE72C29CE5894E3AC17D702940B63D59270887DE46A7D0F36263058F518FBB468FE9A7BE6A7420864373B8D4873369AA8691FA421B3294352543C5CAF65C0F6FEF43CB8BD52C78D0F34F46E550061C419494B6843142CB0F5677F4B52BEB177AEC28E5C52AFF638ACBF84F53D42654E51E77B379102C05791282176B5F693D
310
CB4C7BED567C03504B010214000A0000080000CC70623B3DEE336E79000000790000001B00000000000000000000000000000000006175746F6465736B2D64657369676E2D7061636B6167652E786D6C504B01021400140006080800CC70623BD486FD9CA0000000F40000001300000000000000000000000000B20000005B
310
436F6E74656E745F54797065735D2E786D6C504B01021400140006080800CC70623B1EC5D7A3EB0000007C010000080000000000000000000000000083010000636F72652E786D6C504B01021400140006080800CC70623B55019EA25F0000007C000000070000000000000000000000000094020000636E782E786D6C504B
310
01021400140006080800CC70623B8C9102E971010000D40300000C00000000000000000000000000180300006662782F636F72652E786D6C504B01021400140006080800CC70623BFFEA85907E0000009D0000000B00000000000000000000000000B30400006662782F636E782E786D6C504B01021400140006080800CC70
310
623B4FEEA4082C0100001202000031000000000000000000000000005A0500006662782F39464131463745442D413632322D343644302D413938332D3331353338454246344243312F636F72652E786D6C504B01021400140006080800CC70623BAD7543B64E010000330300003000000000000000000000000000D5060000
310
6662782F39464131463745442D413632322D343644302D413938332D3331353338454246344243312F636E782E786D6C504B01021400140006080800CC70623B16AB87BA640500003C1000003400000000000000000000000000710800006662782F39464131463745442D413632322D343644302D413938332D3331353338
310
454246344243312F6F626A656374732E786D6C504B01021400140006080000CC70623B0000000000000000000000003500000000000000000000000000270E00006662782F39464131463745442D413632322D343644302D413938332D3331353338454246344243312F76657274696365732E62696E504B01021400140006
310
080800CC70623BF270F133060000000400000036000000000000000000000000007A0E00006662782F39464131463745442D413632322D343644302D413938332D3331353338454246344243312F747269616E676C65732E62696E504B01021400140006080000CC70623B0000000000000000000000003700000000000000
310
000000000000D40E00006662782F39464131463745442D413632322D343644302D413938332D3331353338454246344243312F617474726962757465732E62696E504B01021400140006080800CC70623B08DA0BD190000000410100003600000000000000000000000000290F00006662782F39464131463745442D413632
310
322D343644302D413938332D3331353338454246344243312F6469726563746F72792E786D6C504B01021400140006080800CC70623B0D6EF93BFE000000A00100003B000000000000000000000000000D1000006662782F39464131463745442D413632322D343644302D413938332D3331353338454246344243312F7265
310
736F75726365732F636F72652E786D6C504B0506000000000E000E0080040000641100000000
  0
XRECORD
  5
29EB
102
{ACAD_REACTORS
330
173
102
}
330
173
100
AcDbXrecord
280
     1
102
MATERIAL
148
0.0
149
0.0
149
0.0
 93
        0
 94
       63
282
     0
 72
     1
 77
     1
171
     1
175
     1
179
     1
273
     0
  0
XRECORD
  5
175
102
{ACAD_REACTORS
330
173
102
}
330
173
100
AcDbXrecord
280
     1
270
     1
271
     1
  0
XRECORD
  5
174
102
{ACAD_REACTORS
330
173
102
}
330
173
100
AcDbXrecord
280
     1
270
     1
271
     1
  0
XRECORD
  5
1FB
102
{ACAD_REACTORS
330
173
102
}
330
173
100
AcDbXrecord
280
     1
 70
     0
 90
1673772943
  1
ECE7A1D2-D628-4531-984C-D00F80459256
310
504B03040A0000080000CC70623B3DEE336E79000000790000001B0000006175746F6465736B2D64657369676E2D7061636B6167652E786D6C3C3F786D6C2076657273696F6E3D22312E302220656E636F64696E673D227574662D3822203F3E3C666F726D6174733E3C666F726D61743E687474703A2F2F736368656D612E
310
6175746F6465736B2E636F6D2F64657369676E2D7061636B6167652F323030393C2F666F726D61743E3C2F666F726D6174733E504B0304140006080800CC70623BD486FD9CA0000000F4000000130000005B436F6E74656E745F54797065735D2E786D6C7D8EC10E82300C865F65E91D8A1E8C310C0EEA1BF002731658846E
310
D98AC1B77784ABF1D8FE5FBFBF75BBCE937A534CCEB38643598122B6FEE978D0B0485F9C41B54DDD7D022595594E1A469170414C76A4D9A4D207E29CF43ECE46F218070CC6BECC4078ACAA135ACF422C856C0E68EA1BF5669944DDD7BCDE7B1F8E415D77AECB980613C2E4AC91FC167A2B244592486606FC29C8FD7F045B9A
310
EF7053A7E60B504B0304140006080800CC70623BD9DDAED0EC0000007C01000008000000636F72652E786D6C8D90416EC3201045AF82665B61836D9CD8C2444DD39CA01740405C94182C03558F5F9C3852BBEB6A467FFE9B197D7EF89E6EE8CB2CC17A37002D0820E394D7D68D03A478C17B4007C117EFE32F1B20272733C0
310
2A83E0E3E2D3BC49CABB685CCCAAF3DA6CA20CC14440EA969B0182FA34932C648AD911AEC52CD5558EA6A0CF2EC329598D1E47ACCEFBECC59A050463A7EA5833865FEBDD0E37353BE3EE8DBDE3F6786A48D375FBF6CC78B9C282473B3DEFABC5C86834888A900E538A49F5419B9EB47DD5BC907D4F082F57FB1F28CDFA9F50
310
B22ED6D5F6EE030B20687EE43E10BC5CB3C8E51E54AE6B6EE207504B0304140006080800CC70623B55019EA25F0000007C00000007000000636E782E786D6C4DCB3B0E80201045D1AD90E915ED2CF8AC45050C11660C8261F98AB1B07AC9C97D42D718D865D3E909258CFD00CCE24AC6E326A164D74DC0B4128928FF326038
310
472BA13128B1252AC747C6BAB984FC68F0B87FE8960A5C09FE86CFB69FBA01504B0304140006080800CC70623BA24EB22D72010000D40300000C0000006662782F636F72652E786D6CC5535B6E833010BC8AE5DF0A6C5E49888CA3A6694ED00B38E05014B091B1518EDFE511A5A9D228FD2A1F60CDEC7A67C6986DCE4D8D7A
310
69BA4AAB0C073EC548AA5C17952A33ECECD15B61B4E1CC686DBF9561A44423333CC098B3D268D7CE50AE9595CA02AA74216750749DB418E5352C32DCE59FB211BE70162ABA93DF8AFC244AE9073ED050C759670D0840D390E18DF9F1706664C23973AE2A66B62A605A75ACA4C13C4976E1364A12EF355A2EBD384AF65EFA96
310
BC7B8BED2EA6719AAE16FB8491A199335B351775B991C2CA02F390D2D40B028F861F41BCA68B7518BFD0D59A524686F29B26D7164F36B94AD9289CE54E6D1DE6010819891F6E21228B3AD1831EC219194284CF98F06DD01008846CC5A1BEF83801D4CBDC6A1303536877A57A513B0953A94FC707FDBE6064EA84A9E3E6E0FA
310
EE8CF0E9198F7784A316AA0413C2C2F2E0ECA0934D1AE6D05A69BCDE9E91D2A611F573361E38FC1375157F5752AE6B6DFE4B11990F88CCBF0719EE23FF02504B0304140006080800CC70623B408A7D3B7C0000009D0000000B0000006662782F636E782E786D6C4DCCD10A83201886E15B91FFDC552A92A0064DBC8F581632
310
D3703A76F9ABD1C18E3E78F878E5F0D9027ABBFCF2292AE86E2D20171F69F6715550CB827B40839639A5F2770314A7CD293819B45C73AAFB45B35BA61ACAA1C1C7E7855C58C15BC331339661262CC762340413D68D77DA5B42298546CBE6573AF60CEB2F504B0304140006080800CC70623B449FB9BD290100001202000031
310
0000006662782F36394639363044362D344446342D343946362D394244322D3234314243333846323333332F636F72652E786D6C8D515B6EC32010BC0AE22B55850D98B871848994463E412FE002495162B07854397EA176A4F62F3F2C9A9D991D587EB84F37F0AD7D30CEF6905418026DA553C65E7A98E219ED203808EE9D
310
8B7F6810D871D23D2C3014FCE25D9A57483A1BB58D19B54EE9151C43D0110279CB971E06F9A5A7B11A53CC8C70ADE6515EC78BAE4895DB992778883E0700CB907242D17643D7E2538BD869608875438BBAE38922CAC8F1BDD90DB4691A5E2F42C153326A951B95E398B3D1FE599322163C9AE9115F7A3D46ADA0A018778810
310
84E907617BDCEE297BC5BB3DC6BC2EF47FA234AB2745C9D8D8D035EE220B50105E2F0DC1954B9FB747187D9F9D8FA0CCDB042D5FA0C015C65B42DF78BD10F3F3B363CB56C7109DCFDFBBB97E662ED92EB62D13BC2E1BCAE5777DB9966D8A1F504B0304140006080800CC70623BAD7543B64E01000033030000300000006662
310
782F36394639363044362D344446342D343946362D394244322D3234314243333846323333332F636E782E786D6CD593CD6EC32010845F0571AD6CE3D48AD20813A9873E410FBD12D82434182C7EAAE6EDBB2424CD25871E7B41D6EC30B3FA84F9E67BB2E40B4234DE8DB46F1925E094D7C6ED479AD3AE5951B2113C789FEE
310
6C943839C1488B4C05DF079FE72A69D8C96C13AAD6B8631503449F83828872B949AC57D26200B826A308D316B4064D6E46FCDA41C05550DC9E483A00797BFD207EFB092A45DE9514C1BBD22178396BD39D891265658C238DEA00936C654E5E433CB65A26D9F6EDB5EBC14EBF49A45CB856E66048291F6939A9A81BB5C89177
310
38143CA680F4AA299D66A042CEB3354A2684DC9D8D178FE0D9B8B41CAAD720F880EE7EF93C0C18769E099ECC04D5A102C8049A8A05632F4DDF376CF1DE0F6BB65C2F8627B65A33C6BB62177CEBBDAD973006829F89F22E814B54F4BC2BE347F8AA8F681390B50FA73F804400B5F542E796F19FF974E7F78DB802FE05E20750
310
4B0304140006080800CC70623B8D05915C650500003B100000340000006662782F36394639363044362D344446342D343946362D394244322D3234314243333846323333332F6F626A656374732E786D6CAD575B6FA33814FE2B887D06429276DA1565D4266D158D3A339A6846FB502932E050B66023DB74D2FDF5FB190C01
310
9276B2973C046C8ECFF53B17071F77456EBD502133CEAE6CDF9DD81665314F32965ED995DA3A17B6F5310C04E7AA47665B8C14F4CAD6DB7618A48257A5D94AE89654B91AEDDEDDFC61C998326A5B714EA4BCB265FC440BE2924AF184CA6737218AB8E976E7FA6E4338649B0A523E8D98964450A6A029F619B8588D52FE7039
310
B1BD30F0F4F730D0FF866AF6369557DB33949F31A9088B0F848DD8CCFCF9F2767A76E99CCDE733677E3EF59D9BBB9BA5E37F984D16E78BC5E5F5ED25044B25C0C96822E8D60EEFE11B91C581D77CEA34368A1F5329E68CD1B8B61F16D63A1B8E092D294B10C78C4A48EB593D192E7DED9BDEE7995E1B91FDEDD3ACEA9FE831
310
6A756F9F7D4D79F4274C90A7A04248AA51D5F8C718DAE06FB2F75AC4796EBE65D22A88A22223B995679120E2D50E41AA49C260C046A35368846B0BECD0DFF3EBEB8AD4F835768F69B9ADF25C43D30E6B646F807FAA64AD59F61715C7A54127C4AACA98BA3006A9D792DAE165E0D59B61A01FB3A9F9D838D2DAE62445C86166
310
F37564E842E7DE6A69879FEEA2DD5AE7E371E1A5E025154AC307D06A03D73EB5978C58FFA4C8E9033066E0F3BD53BEC1F39F91BE7B55103791EDE6BBB991A2046172CB4581D8B893FA674DDA17A77B3B7C413D1B511FD2743BFF8A38F03A658705E3ADF8015C3A3417FF3D7E439FF591DA0B5F18BC20C1B8981957AE6392A3
310
F43C640C01D1A0B4728E2DD4F26DB4B3C3152A252A3B4E913CEC1C72F012782FF88EFF8637AA552DBEF76408E8A8DE9E50F9E1CB3A2DA0DB1B6039A893B56063DC5B3E3FFB5F72E67AB9FEB4AEC496C4F4C1149625DD662C53E89D7BF0F6151A046260D1337DFDC94502430F83B0EE07A130A224BCAD7DAE1D9FB6CD422FF6
310
920702629C4BB9AE79C12F243C6432A6794E18E5552BA56B431AAB5D91317302B2B071E86C3A42B1A02F999E24061403B5D0EB639195DA655DD3EBEAB4FB862DDF579F014AD0E73C22F99E28DA57FB98E75C6CA2D74D53086D600F4786E0FE3144B771A8A7B900F03594DB8A633CBC49B2EDB69228BB479CF863B5E807AAAB
310
23872F6DFEB4129B949CA33823F58830E86D65621E10047D9DB34D862E8EAC3C2ABC2F7B2C40D67CDFE01F5545B92105AF983AC54D93D69E56FB8E797F88913F898A9FEC705D3F9D1B54EC8426FB500D40A03BD0119B06E1B95DDC7EB8F6975367793EBD70E66733DFB9BC982F9CE564727731999F5D4ECFCE3B8D6A4DC2A0
310
6D50FD148437D110834A64C6CDDF57FBACB5C307A2A477DFE4939736CFEF2B175371E0E10CF0DD1D5C15654E0BCA14D1E87DD02FF93782A162C0A3D95F1524A52770F972BF1EE9809D13CE7DD599467F8ECE9ADD85CE85A34CD45355448C64F9E8A031DC2D596ACC6E5DD93D9B82DE2EF5CAF81363A8E47996A0DE24564A79
310
4115AACE09C55E14540231FDA13C319787134EBF34E3A022514E5B4D9E0826E25C02D5805B15ABE1BEF51B26383D445DD9E875EE33FE4C22DA16427D65A3BCA92CA6D28DD01DF5DC53330704308475351050232CCD31583787BA75774AFB06E5070DD0C8EF484E19968C5D83BA5B90B244D31E54D55A372320FE4786B7EA58
310
44E135AA5467CB7EA333A61683CC6A8C3257034C10CF46F40EF9F5BE59BE5BD30C3C72D235E95D10345C1D45445A5F0BB47E46A5EBE5570F9380B5FA629579952296A773720405982B9DE04011506178964401AA8BDF1FBF0A8EAB6861DD6580C0E38217056766716DAEB2D6FA0917D3E4116581EADB879C4E7CFFB11EFACD
310
3D641311495D92C8676CB409A72D18610D803CE8A626049E8EC1887CB5B44CC39883690DDA8399B4B9855B481E7D71D4A9D22F96E5BB73BF5793020C02137BF837504B0304140006080000CC70623B000000000000000000000000350000006662782F36394639363044362D344446342D343946362D394244322D32343142
310
43333846323333332F76657274696365732E62696E504B0304140006080800CC70623BF270F1330600000004000000360000006662782F36394639363044362D344446342D343946362D394244322D3234314243333846323333332F747269616E676C65732E62696E636660600000504B0304140006080000CC70623B0000
310
00000000000000000000370000006662782F36394639363044362D344446342D343946362D394244322D3234314243333846323333332F617474726962757465732E62696E504B0304140006080800CC70623B08DA0BD19000000041010000360000006662782F36394639363044362D344446342D343946362D394244322D
310
3234314243333846323333332F6469726563746F72792E786D6C858F410AC3201045AF22B36F53E9A60B35CBEEBAE80D244E44489C6234F4F835464A48035D0DF398FF9F8AF63D0E6CC63039F212F8F9020C7D47C6792B21C5FE7403D62A1188E2E60C98D7234A5830286103A55745067B9D86B8A3CF9C7F90C11DE607FB14
310
4396D7B6A82D282E9A152AD114D5EF2CB866EEE831B8EEA07A7BB5A8D7D61A2BAAEB7FD5F70921FF497D00504B0304140006080800CC70623BCA768048FE000000A00100003B0000006662782F36394639363044362D344446342D343946362D394244322D3234314243333846323333332F7265736F75726365732F636F72
310
652E786D6C8D50596E833010BD0A9ADFCA60D600328E9AA639412F609909B1126CE4A5EAF16B0295DABFFECC8CDEA2797AECF8353F924FB44E193D409E5248504B332A3D0D10FC95B4901C39B3C6F85F3248B49871801506CE266BC2B243D2688FDA47549B11775038871E12F988C7004EDE7016A9083E2ADC3D5D84BC8B09
310
D33C8D74D471E6BC8D0192EDC93A815B742658898E651BCB59086ADC356A8C3FD555A1055ED7E7E254D615792D0F075295F585746FF53B694EE78A565DD736979A65AB9933AFE69F8CD2A2F038022F28ED489E135A7CE4554F9BBEA85E68DB53CAB255FEC71496F19FA6A0B42F8B3DEE6673C0F318E4497096AD7DC5F52C33
310
EEB55BFE0D504B010214000A0000080000CC70623B3DEE336E79000000790000001B00000000000000000000000000000000006175746F6465736B2D64657369676E2D7061636B6167652E786D6C504B01021400140006080800CC70623BD486FD9CA0000000F40000001300000000000000000000000000B20000005B436F
310
6E74656E745F54797065735D2E786D6C504B01021400140006080800CC70623BD9DDAED0EC0000007C010000080000000000000000000000000083010000636F72652E786D6C504B01021400140006080800CC70623B55019EA25F0000007C000000070000000000000000000000000095020000636E782E786D6C504B0102
310
1400140006080800CC70623BA24EB22D72010000D40300000C00000000000000000000000000190300006662782F636F72652E786D6C504B01021400140006080800CC70623B408A7D3B7C0000009D0000000B00000000000000000000000000B50400006662782F636E782E786D6C504B01021400140006080800CC70623B
310
449FB9BD290100001202000031000000000000000000000000005A0500006662782F36394639363044362D344446342D343946362D394244322D3234314243333846323333332F636F72652E786D6C504B01021400140006080800CC70623BAD7543B64E010000330300003000000000000000000000000000D20600006662
310
782F36394639363044362D344446342D343946362D394244322D3234314243333846323333332F636E782E786D6C504B01021400140006080800CC70623B8D05915C650500003B10000034000000000000000000000000006E0800006662782F36394639363044362D344446342D343946362D394244322D32343142433338
310
46323333332F6F626A656374732E786D6C504B01021400140006080000CC70623B0000000000000000000000003500000000000000000000000000250E00006662782F36394639363044362D344446342D343946362D394244322D3234314243333846323333332F76657274696365732E62696E504B010214001400060808
310
00CC70623BF270F13306000000040000003600000000000000000000000000780E00006662782F36394639363044362D344446342D343946362D394244322D3234314243333846323333332F747269616E676C65732E62696E504B01021400140006080000CC70623B00000000000000000000000037000000000000000000
310
00000000D20E00006662782F36394639363044362D344446342D343946362D394244322D3234314243333846323333332F617474726962757465732E62696E504B01021400140006080800CC70623B08DA0BD190000000410100003600000000000000000000000000270F00006662782F36394639363044362D344446342D
310
343946362D394244322D3234314243333846323333332F6469726563746F72792E786D6C504B01021400140006080800CC70623BCA768048FE000000A00100003B000000000000000000000000000B1000006662782F36394639363044362D344446342D343946362D394244322D3234314243333846323333332F7265736F
310
75726365732F636F72652E786D6C504B0506000000000E000E0080040000621100000000
  0
XRECORD
  5
176
102
{ACAD_REACTORS
330
173
102
}
330
173
100
AcDbXrecord
280
     1
270
     1
271
     1
  0
XRECORD
  5
177
102
{ACAD_REACTORS
330
173
102
}
330
173
100
AcDbXrecord
280
     1
270
     1
271
     1
  0
XRECORD
  5
2A0D
102
{ACAD_REACTORS
330
2A0C
102
}
330
2A0C
100
AcDbXrecord
280
     1
102
ACAD_ROUNDTRIP_2012_MLEADER_STYLE
298
     1
  0
XRECORD
  5
2A1F
102
{ACAD_REACTORS
330
2A1E
102
}
330
2A1E
100
AcDbXrecord
280
     1
102
DISPLAYNAME
  1
Metric50
102
FLAGS
 90
        0
  0
CELLSTYLEMAP
  5
29DF
102
{ACAD_REACTORS
330
162
102
}
330
162
100
AcDbCellStyleMap
 90
        3
300
CELLSTYLE
  1
TABLEFORMAT_BEGIN
 90
        5
170
     1
 91
        0
 92
    32768
 62
   257
 93
        1
300
CONTENTFORMAT
  1
CONTENTFORMAT_BEGIN
 90
        0
 91
        0
 92
      512
 93
        0
300

 40
0.0
140
1.0
 94
        5
 62
     0
340
11
144
6.0
309
CONTENTFORMAT_END
171
     1
301
MARGIN
  1
CELLMARGIN_BEGIN
 40
1.5
 40
1.5
 40
1.5
 40
1.5
 40
4.5
 40
4.5
309
CELLMARGIN_END
 94
        6
 95
        1
302
GRIDFORMAT
  1
GRIDFORMAT_BEGIN
 90
        0
 91
        1
 62
     0
 92
       -2
340
14
 93
        0
 40
1.125
309
GRIDFORMAT_END
 95
        2
302
GRIDFORMAT
  1
GRIDFORMAT_BEGIN
 90
        0
 91
        1
 62
     0
 92
       -2
340
14
 93
        0
 40
1.125
309
GRIDFORMAT_END
 95
        4
302
GRIDFORMAT
  1
GRIDFORMAT_BEGIN
 90
        0
 91
        1
 62
     0
 92
       -2
340
14
 93
        0
 40
1.125
309
GRIDFORMAT_END
 95
        8
302
GRIDFORMAT
  1
GRIDFORMAT_BEGIN
 90
        0
 91
        1
 62
     0
 92
       -2
340
14
 93
        0
 40
1.125
309
GRIDFORMAT_END
 95
       16
302
GRIDFORMAT
  1
GRIDFORMAT_BEGIN
 90
        0
 91
        1
 62
     0
 92
       -2
340
14
 93
        0
 40
1.125
309
GRIDFORMAT_END
 95
       32
302
GRIDFORMAT
  1
GRIDFORMAT_BEGIN
 90
        0
 91
        1
 62
     0
 92
       -2
340
14
 93
        0
 40
1.125
309
GRIDFORMAT_END
309
TABLEFORMAT_END
  1
CELLSTYLE_BEGIN
 90
        1
 91
        1
300
_TITLE
309
CELLSTYLE_END
300
CELLSTYLE
  1
TABLEFORMAT_BEGIN
 90
        5
170
     1
 91
        0
 92
        0
 62
   257
 93
        1
300
CONTENTFORMAT
  1
CONTENTFORMAT_BEGIN
 90
        0
 91
        0
 92
      512
 93
        0
300

 40
0.0
140
1.0
 94
        5
 62
     0
340
11
144
4.5
309
CONTENTFORMAT_END
171
     1
301
MARGIN
  1
CELLMARGIN_BEGIN
 40
1.5
 40
1.5
 40
1.5
 40
1.5
 40
4.5
 40
4.5
309
CELLMARGIN_END
 94
        6
 95
        1
302
GRIDFORMAT
  1
GRIDFORMAT_BEGIN
 90
        0
 91
        1
 62
     0
 92
       -2
340
14
 93
        0
 40
1.125
309
GRIDFORMAT_END
 95
        2
302
GRIDFORMAT
  1
GRIDFORMAT_BEGIN
 90
        0
 91
        1
 62
     0
 92
       -2
340
14
 93
        0
 40
1.125
309
GRIDFORMAT_END
 95
        4
302
GRIDFORMAT
  1
GRIDFORMAT_BEGIN
 90
        0
 91
        1
 62
     0
 92
       -2
340
14
 93
        0
 40
1.125
309
GRIDFORMAT_END
 95
        8
302
GRIDFORMAT
  1
GRIDFORMAT_BEGIN
 90
        0
 91
        1
 62
     0
 92
       -2
340
14
 93
        0
 40
1.125
309
GRIDFORMAT_END
 95
       16
302
GRIDFORMAT
  1
GRIDFORMAT_BEGIN
 90
        0
 91
        1
 62
     0
 92
       -2
340
14
 93
        0
 40
1.125
309
GRIDFORMAT_END
 95
       32
302
GRIDFORMAT
  1
GRIDFORMAT_BEGIN
 90
        0
 91
        1
 62
     0
 92
       -2
340
14
 93
        0
 40
1.125
309
GRIDFORMAT_END
309
TABLEFORMAT_END
  1
CELLSTYLE_BEGIN
 90
        2
 91
        1
300
_HEADER
309
CELLSTYLE_END
300
CELLSTYLE
  1
TABLEFORMAT_BEGIN
 90
        5
170
     1
 91
        0
 92
        0
 62
   257
 93
        1
300
CONTENTFORMAT
  1
CONTENTFORMAT_BEGIN
 90
        0
 91
        0
 92
      512
 93
        0
300

 40
0.0
140
1.0
 94
        2
 62
     0
340
11
144
4.5
309
CONTENTFORMAT_END
171
     1
301
MARGIN
  1
CELLMARGIN_BEGIN
 40
1.5
 40
1.5
 40
1.5
 40
1.5
 40
4.5
 40
4.5
309
CELLMARGIN_END
 94
        6
 95
        1
302
GRIDFORMAT
  1
GRIDFORMAT_BEGIN
 90
        0
 91
        1
 62
     0
 92
       -2
340
14
 93
        0
 40
1.125
309
GRIDFORMAT_END
 95
        2
302
GRIDFORMAT
  1
GRIDFORMAT_BEGIN
 90
        0
 91
        1
 62
     0
 92
       -2
340
14
 93
        0
 40
1.125
309
GRIDFORMAT_END
 95
        4
302
GRIDFORMAT
  1
GRIDFORMAT_BEGIN
 90
        0
 91
        1
 62
     0
 92
       -2
340
14
 93
        0
 40
1.125
309
GRIDFORMAT_END
 95
        8
302
GRIDFORMAT
  1
GRIDFORMAT_BEGIN
 90
        0
 91
        1
 62
     0
 92
       -2
340
14
 93
        0
 40
1.125
309
GRIDFORMAT_END
 95
       16
302
GRIDFORMAT
  1
GRIDFORMAT_BEGIN
 90
        0
 91
        1
 62
     0
 92
       -2
340
14
 93
        0
 40
1.125
309
GRIDFORMAT_END
 95
       32
302
GRIDFORMAT
  1
GRIDFORMAT_BEGIN
 90
        0
 91
        1
 62
     0
 92
       -2
340
14
 93
        0
 40
1.125
309
GRIDFORMAT_END
309
TABLEFORMAT_END
  1
CELLSTYLE_BEGIN
 90
        3
 91
        2
300
_DATA
309
CELLSTYLE_END
  0
XRECORD
  5
29E4
102
{ACAD_REACTORS
330
162
102
}
330
162
100
AcDbXrecord
280
     1
102
ACAD_ROUNDTRIP_PRE2007_TABLESTYLE
 90
      512
 91
        0
  1

 92
      512
 93
        0
  2

 94
      512
 95
        0
  3

  0
XRECORD
  5
29F7
102
{ACAD_REACTORS
330
29F6
102
}
330
29F6
100
AcDbXrecord
280
     1
102
RTVSPost2010Prop28
280
     1
102
RTVSPost2010PropOp28
 70
     1
102
RTVSPost2010Prop29
280
     1
102
RTVSPost2010PropOp29
 70
     1
102
RTVSPost2010Prop30
280
     0
102
RTVSPost2010PropOp30
 70
     1
102
RTVSPost2010Prop31
280
     0
102
RTVSPost2010PropOp31
 70
     1
102
RTVSPost2010Prop32
280
     0
102
RTVSPost2010PropOp32
 70
     1
102
RTVSPost2010Prop33
280
     0
102
RTVSPost2010PropOp33
 70
     1
102
RTVSPost2010Prop34
280
     0
102
RTVSPost2010PropOp34
 70
     1
102
RTVSPost2010Prop35
280
     0
102
RTVSPost2010PropOp35
 70
     1
102
RTVSPost2010Prop36
280
     0
102
RTVSPost2010PropOp36
 70
     1
102
RTVSPost2010Prop37
 90
       50
102
RTVSPost2010PropOp37
 70
     1
102
RTVSPost2010Prop38
140
0.0
102
RTVSPost2010PropOp38
 70
     1
102
RTVSPost2010Prop39
140
1.0
102
RTVSPost2010PropOp39
 70
     1
102
RTVSPost2010Prop40
 90
        0
102
RTVSPost2010PropOp40
 70
     1
102
RTVSPost2010Prop41ColorIndex
 90
       18
102
RTVSPost2010Prop41ColorRGB
 90
        0
102
RTVSPost2010PropOp41
 70
     1
102
RTVSPost2010Prop42
 90
       50
102
RTVSPost2010PropOp42
 70
     1
102
RTVSPost2010Prop43
 90
        3
102
RTVSPost2010PropOp43
 70
     1
102
RTVSPost2010Prop44ColorIndex
 90
        5
102
RTVSPost2010Prop44ColorRGB
 90
      255
102
RTVSPost2010PropOp44
 70
     1
102
RTVSPost2010Prop45
280
     0
102
RTVSPost2010PropOp45
 70
     1
102
RTVSPost2010Prop46
 90
       50
102
RTVSPost2010PropOp46
 70
     1
102
RTVSPost2010Prop47
 90
       50
102
RTVSPost2010PropOp47
 70
     1
102
RTVSPost2010Prop48
 90
       50
102
RTVSPost2010PropOp48
 70
     1
102
RTVSPost2010Prop49
280
     0
102
RTVSPost2010PropOp49
 70
     1
102
RTVSPost2010Prop50
 90
       50
102
RTVSPost2010PropOp50
 70
     1
102
RTVSPost2010Prop51ColorIndex
 90
      256
102
RTVSPost2010Prop51ColorRGB
 90
-16777216
102
RTVSPost2010PropOp51
 70
     0
102
RTVSPost2010Prop52
140
1.0
102
RTVSPost2010PropOp52
 70
     0
102
RTVSPost2010Prop53
 90
        2
102
RTVSPost2010PropOp53
 70
     1
102
RTVSPost2010Prop54
  1
strokes_ogs.tif
102
RTVSPost2010PropOp54
 70
     1
102
RTVSPost2010Prop55
280
     0
102
RTVSPost2010PropOp55
 70
     1
102
RTVSPost2010Prop56
140
1.0
102
RTVSPost2010PropOp56
 70
     1
102
RTVSPost2010Prop57
140
1.0
102
RTVSPost2010PropOp57
 70
     1
102
RTVSPropertyOp0
 70
     1
102
RTVSPropertyOp1
 70
     1
102
RTVSPropertyOp2
 70
     1
102
RTVSPropertyOp3
 70
     1
102
RTVSPropertyOp4
 70
     1
102
RTVSPropertyOp5
 70
     1
102
RTVSPropertyOp6
 70
     1
102
RTVSPropertyOp7
 70
     1
102
RTVSPropertyOp8
 70
     1
102
RTVSPropertyOp9
 70
     1
102
RTVSPropertyOp10
 70
     1
102
RTVSPropertyOp11
 70
     1
102
RTVSPropertyOp12
 70
     1
102
RTVSPropertyOp13
 70
     1
102
RTVSPropertyOp14
 70
     1
102
RTVSPropertyOp15
 70
     1
102
RTVSPropertyOp16
 70
     1
102
RTVSPropertyOp17
 70
     1
102
RTVSPropertyOp18
 70
     1
102
RTVSPropertyOp19
 70
     1
102
RTVSPropertyOp20
 70
     1
102
RTVSPropertyOp21
 70
     1
102
RTVSPropertyOp22
 70
     1
102
RTVSPropertyOp23
 70
     1
102
RTVSPropertyOp24
 70
     1
102
RTVSPropertyOp25
 70
     1
102
RTVSPropertyOp26
 70
     1
102
RTVSPropertyOp27
 70
     1
102
RTVSPropertyOp28
 70
     1
102
RTVSPropertyOp29
 70
     1
102
RTVSPropertyOp30
 70
     1
102
RTVSPropertyOp31
 70
     1
102
RTVSPropertyOp32
 70
     1
102
RTVSPropertyOp33
 70
     1
102
RTVSPropertyOp34
 70
     1
102
RTVSPropertyOp35
 70
     1
102
RTVSPropertyOp36
 70
     1
102
RTVSPropertyOp37
 70
     1
102
RTVSPropertyOp38
 70
     1
102
RTVSPropertyOp39
 70
     1
102
RTVSPropertyOp40
 70
     1
102
RTVSPropertyOp41
 70
     1
102
RTVSPropertyOp42
 70
     1
102
RTVSPropertyOp43
 70
     1
102
RTVSPropertyOp44
 70
     1
102
RTVSPropertyOp45
 70
     1
102
RTVSPropertyOp46
 70
     1
102
RTVSPropertyOp47
 70
     1
102
RTVSPropertyOp48
 70
     1
102
RTVSPropertyOp49
 70
     1
102
RTVSPropertyOp50
 70
     1
102
RTVSPropertyOp51
 70
     0
102
RTVSPropertyOp52
 70
     0
102
RTVSPropertyOp53
 70
     1
102
RTVSPropertyOp54
 70
     1
102
RTVSPropertyOp55
 70
     1
102
RTVSPropertyOp56
 70
     1
102
RTVSPropertyOp57
 70
     1
102
RTVSPropertyOp58
 70
     1
102
RTVSPropertyOp59
 70
     1
102
RTVSPropertyOp60
 70
     1
102
RTVSPropertyOp61
 70
     1
102
RTVSPropertyOp62
 70
     1
  0
XRECORD
  5
29F5
102
{ACAD_REACTORS
330
29F4
102
}
330
29F4
100
AcDbXrecord
280
     1
102
RTVSPost2010Prop28
280
     0
102
RTVSPost2010PropOp28
 70
     1
102
RTVSPost2010Prop29
280
     1
102
RTVSPost2010PropOp29
 70
     1
102
RTVSPost2010Prop30
280
     1
102
RTVSPost2010PropOp30
 70
     1
102
RTVSPost2010Prop31
280
     0
102
RTVSPost2010PropOp31
 70
     1
102
RTVSPost2010Prop32
280
     0
102
RTVSPost2010PropOp32
 70
     1
102
RTVSPost2010Prop33
280
     0
102
RTVSPost2010PropOp33
 70
     1
102
RTVSPost2010Prop34
280
     0
102
RTVSPost2010PropOp34
 70
     1
102
RTVSPost2010Prop35
280
     0
102
RTVSPost2010PropOp35
 70
     1
102
RTVSPost2010Prop36
280
     0
102
RTVSPost2010PropOp36
 70
     1
102
RTVSPost2010Prop37
 90
       50
102
RTVSPost2010PropOp37
 70
     1
102
RTVSPost2010Prop38
140
0.0
102
RTVSPost2010PropOp38
 70
     1
102
RTVSPost2010Prop39
140
1.0
102
RTVSPost2010PropOp39
 70
     1
102
RTVSPost2010Prop40
 90
        0
102
RTVSPost2010PropOp40
 70
     1
102
RTVSPost2010Prop41ColorIndex
 90
       18
102
RTVSPost2010Prop41ColorRGB
 90
        0
102
RTVSPost2010PropOp41
 70
     1
102
RTVSPost2010Prop42
 90
       50
102
RTVSPost2010PropOp42
 70
     1
102
RTVSPost2010Prop43
 90
        3
102
RTVSPost2010PropOp43
 70
     1
102
RTVSPost2010Prop44ColorIndex
 90
        5
102
RTVSPost2010Prop44ColorRGB
 90
      255
102
RTVSPost2010PropOp44
 70
     1
102
RTVSPost2010Prop45
280
     0
102
RTVSPost2010PropOp45
 70
     1
102
RTVSPost2010Prop46
 90
       50
102
RTVSPost2010PropOp46
 70
     1
102
RTVSPost2010Prop47
 90
       50
102
RTVSPost2010PropOp47
 70
     1
102
RTVSPost2010Prop48
 90
       50
102
RTVSPost2010PropOp48
 70
     1
102
RTVSPost2010Prop49
280
     0
102
RTVSPost2010PropOp49
 70
     1
102
RTVSPost2010Prop50
 90
       50
102
RTVSPost2010PropOp50
 70
     1
102
RTVSPost2010Prop51ColorIndex
 90
      256
102
RTVSPost2010Prop51ColorRGB
 90
-16777216
102
RTVSPost2010PropOp51
 70
     0
102
RTVSPost2010Prop52
140
1.0
102
RTVSPost2010PropOp52
 70
     0
102
RTVSPost2010Prop53
 90
        2
102
RTVSPost2010PropOp53
 70
     1
102
RTVSPost2010Prop54
  1
strokes_ogs.tif
102
RTVSPost2010PropOp54
 70
     1
102
RTVSPost2010Prop55
280
     0
102
RTVSPost2010PropOp55
 70
     1
102
RTVSPost2010Prop56
140
1.0
102
RTVSPost2010PropOp56
 70
     1
102
RTVSPost2010Prop57
140
1.0
102
RTVSPost2010PropOp57
 70
     1
102
RTVSPropertyOp0
 70
     1
102
RTVSPropertyOp1
 70
     1
102
RTVSPropertyOp2
 70
     1
102
RTVSPropertyOp3
 70
     1
102
RTVSPropertyOp4
 70
     1
102
RTVSPropertyOp5
 70
     1
102
RTVSPropertyOp6
 70
     1
102
RTVSPropertyOp7
 70
     1
102
RTVSPropertyOp8
 70
     1
102
RTVSPropertyOp9
 70
     1
102
RTVSPropertyOp10
 70
     1
102
RTVSPropertyOp11
 70
     1
102
RTVSPropertyOp12
 70
     1
102
RTVSPropertyOp13
 70
     1
102
RTVSPropertyOp14
 70
     1
102
RTVSPropertyOp15
 70
     1
102
RTVSPropertyOp16
 70
     1
102
RTVSPropertyOp17
 70
     1
102
RTVSPropertyOp18
 70
     1
102
RTVSPropertyOp19
 70
     1
102
RTVSPropertyOp20
 70
     1
102
RTVSPropertyOp21
 70
     1
102
RTVSPropertyOp22
 70
     1
102
RTVSPropertyOp23
 70
     1
102
RTVSPropertyOp24
 70
     1
102
RTVSPropertyOp25
 70
     1
102
RTVSPropertyOp26
 70
     1
102
RTVSPropertyOp27
 70
     1
102
RTVSPropertyOp28
 70
     1
102
RTVSPropertyOp29
 70
     1
102
RTVSPropertyOp30
 70
     1
102
RTVSPropertyOp31
 70
     1
102
RTVSPropertyOp32
 70
     1
102
RTVSPropertyOp33
 70
     1
102
RTVSPropertyOp34
 70
     1
102
RTVSPropertyOp35
 70
     1
102
RTVSPropertyOp36
 70
     1
102
RTVSPropertyOp37
 70
     1
102
RTVSPropertyOp38
 70
     1
102
RTVSPropertyOp39
 70
     1
102
RTVSPropertyOp40
 70
     1
102
RTVSPropertyOp41
 70
     1
102
RTVSPropertyOp42
 70
     1
102
RTVSPropertyOp43
 70
     1
102
RTVSPropertyOp44
 70
     1
102
RTVSPropertyOp45
 70
     1
102
RTVSPropertyOp46
 70
     1
102
RTVSPropertyOp47
 70
     1
102
RTVSPropertyOp48
 70
     1
102
RTVSPropertyOp49
 70
     1
102
RTVSPropertyOp50
 70
     1
102
RTVSPropertyOp51
 70
     0
102
RTVSPropertyOp52
 70
     0
102
RTVSPropertyOp53
 70
     1
102
RTVSPropertyOp54
 70
     1
102
RTVSPropertyOp55
 70
     1
102
RTVSPropertyOp56
 70
     1
102
RTVSPropertyOp57
 70
     1
102
RTVSPropertyOp58
 70
     1
102
RTVSPropertyOp59
 70
     1
102
RTVSPropertyOp60
 70
     1
102
RTVSPropertyOp61
 70
     1
102
RTVSPropertyOp62
 70
     1
  0
XRECORD
  5
2A03
102
{ACAD_REACTORS
330
2A02
102
}
330
2A02
100
AcDbXrecord
280
     1
102
RTVSPost2010Prop28
280
     0
102
RTVSPost2010PropOp28
 70
     1
102
RTVSPost2010Prop29
280
     1
102
RTVSPost2010PropOp29
 70
     1
102
RTVSPost2010Prop30
280
     1
102
RTVSPost2010PropOp30
 70
     1
102
RTVSPost2010Prop31
280
     0
102
RTVSPost2010PropOp31
 70
     1
102
RTVSPost2010Prop32
280
     0
102
RTVSPost2010PropOp32
 70
     1
102
RTVSPost2010Prop33
280
     0
102
RTVSPost2010PropOp33
 70
     1
102
RTVSPost2010Prop34
280
     0
102
RTVSPost2010PropOp34
 70
     1
102
RTVSPost2010Prop35
280
     0
102
RTVSPost2010PropOp35
 70
     1
102
RTVSPost2010Prop36
280
     0
102
RTVSPost2010PropOp36
 70
     1
102
RTVSPost2010Prop37
 90
       50
102
RTVSPost2010PropOp37
 70
     1
102
RTVSPost2010Prop38
140
0.0
102
RTVSPost2010PropOp38
 70
     1
102
RTVSPost2010Prop39
140
1.0
102
RTVSPost2010PropOp39
 70
     1
102
RTVSPost2010Prop40
 90
        0
102
RTVSPost2010PropOp40
 70
     1
102
RTVSPost2010Prop41ColorIndex
 90
       18
102
RTVSPost2010Prop41ColorRGB
 90
        0
102
RTVSPost2010PropOp41
 70
     1
102
RTVSPost2010Prop42
 90
       50
102
RTVSPost2010PropOp42
 70
     1
102
RTVSPost2010Prop43
 90
        3
102
RTVSPost2010PropOp43
 70
     1
102
RTVSPost2010Prop44ColorIndex
 90
        5
102
RTVSPost2010Prop44ColorRGB
 90
      255
102
RTVSPost2010PropOp44
 70
     1
102
RTVSPost2010Prop45
280
     0
102
RTVSPost2010PropOp45
 70
     1
102
RTVSPost2010Prop46
 90
       50
102
RTVSPost2010PropOp46
 70
     1
102
RTVSPost2010Prop47
 90
       50
102
RTVSPost2010PropOp47
 70
     1
102
RTVSPost2010Prop48
 90
       50
102
RTVSPost2010PropOp48
 70
     1
102
RTVSPost2010Prop49
280
     0
102
RTVSPost2010PropOp49
 70
     1
102
RTVSPost2010Prop50
 90
       50
102
RTVSPost2010PropOp50
 70
     1
102
RTVSPost2010Prop51ColorIndex
 90
      256
102
RTVSPost2010Prop51ColorRGB
 90
-16777216
102
RTVSPost2010PropOp51
 70
     0
102
RTVSPost2010Prop52
140
1.0
102
RTVSPost2010PropOp52
 70
     0
102
RTVSPost2010Prop53
 90
        2
102
RTVSPost2010PropOp53
 70
     1
102
RTVSPost2010Prop54
  1
strokes_ogs.tif
102
RTVSPost2010PropOp54
 70
     1
102
RTVSPost2010Prop55
280
     0
102
RTVSPost2010PropOp55
 70
     1
102
RTVSPost2010Prop56
140
1.0
102
RTVSPost2010PropOp56
 70
     1
102
RTVSPost2010Prop57
140
1.0
102
RTVSPost2010PropOp57
 70
     1
102
RTVSPropertyOp0
 70
     1
102
RTVSPropertyOp1
 70
     1
102
RTVSPropertyOp2
 70
     1
102
RTVSPropertyOp3
 70
     1
102
RTVSPropertyOp4
 70
     1
102
RTVSPropertyOp5
 70
     1
102
RTVSPropertyOp6
 70
     1
102
RTVSPropertyOp7
 70
     1
102
RTVSPropertyOp8
 70
     1
102
RTVSPropertyOp9
 70
     1
102
RTVSPropertyOp10
 70
     1
102
RTVSPropertyOp11
 70
     1
102
RTVSPropertyOp12
 70
     1
102
RTVSPropertyOp13
 70
     1
102
RTVSPropertyOp14
 70
     1
102
RTVSPropertyOp15
 70
     1
102
RTVSPropertyOp16
 70
     1
102
RTVSPropertyOp17
 70
     1
102
RTVSPropertyOp18
 70
     1
102
RTVSPropertyOp19
 70
     1
102
RTVSPropertyOp20
 70
     1
102
RTVSPropertyOp21
 70
     1
102
RTVSPropertyOp22
 70
     1
102
RTVSPropertyOp23
 70
     1
102
RTVSPropertyOp24
 70
     1
102
RTVSPropertyOp25
 70
     1
102
RTVSPropertyOp26
 70
     1
102
RTVSPropertyOp27
 70
     1
102
RTVSPropertyOp28
 70
     1
102
RTVSPropertyOp29
 70
     1
102
RTVSPropertyOp30
 70
     1
102
RTVSPropertyOp31
 70
     1
102
RTVSPropertyOp32
 70
     1
102
RTVSPropertyOp33
 70
     1
102
RTVSPropertyOp34
 70
     1
102
RTVSPropertyOp35
 70
     1
102
RTVSPropertyOp36
 70
     1
102
RTVSPropertyOp37
 70
     1
102
RTVSPropertyOp38
 70
     1
102
RTVSPropertyOp39
 70
     1
102
RTVSPropertyOp40
 70
     1
102
RTVSPropertyOp41
 70
     1
102
RTVSPropertyOp42
 70
     1
102
RTVSPropertyOp43
 70
     1
102
RTVSPropertyOp44
 70
     1
102
RTVSPropertyOp45
 70
     1
102
RTVSPropertyOp46
 70
     1
102
RTVSPropertyOp47
 70
     1
102
RTVSPropertyOp48
 70
     1
102
RTVSPropertyOp49
 70
     1
102
RTVSPropertyOp50
 70
     1
102
RTVSPropertyOp51
 70
     0
102
RTVSPropertyOp52
 70
     0
102
RTVSPropertyOp53
 70
     1
102
RTVSPropertyOp54
 70
     1
102
RTVSPropertyOp55
 70
     1
102
RTVSPropertyOp56
 70
     1
102
RTVSPropertyOp57
 70
     1
102
RTVSPropertyOp58
 70
     1
102
RTVSPropertyOp59
 70
     1
102
RTVSPropertyOp60
 70
     1
102
RTVSPropertyOp61
 70
     1
102
RTVSPropertyOp62
 70
     1
  0
XRECORD
  5
2A0B
102
{ACAD_REACTORS
330
2A0A
102
}
330
2A0A
100
AcDbXrecord
280
     1
102
RTVSPost2010Prop28
280
     0
102
RTVSPost2010PropOp28
 70
     1
102
RTVSPost2010Prop29
280
     1
102
RTVSPost2010PropOp29
 70
     1
102
RTVSPost2010Prop30
280
     1
102
RTVSPost2010PropOp30
 70
     1
102
RTVSPost2010Prop31
280
     0
102
RTVSPost2010PropOp31
 70
     1
102
RTVSPost2010Prop32
280
     0
102
RTVSPost2010PropOp32
 70
     1
102
RTVSPost2010Prop33
280
     0
102
RTVSPost2010PropOp33
 70
     1
102
RTVSPost2010Prop34
280
     0
102
RTVSPost2010PropOp34
 70
     1
102
RTVSPost2010Prop35
280
     0
102
RTVSPost2010PropOp35
 70
     1
102
RTVSPost2010Prop36
280
     0
102
RTVSPost2010PropOp36
 70
     1
102
RTVSPost2010Prop37
 90
       50
102
RTVSPost2010PropOp37
 70
     1
102
RTVSPost2010Prop38
140
0.0
102
RTVSPost2010PropOp38
 70
     1
102
RTVSPost2010Prop39
140
1.0
102
RTVSPost2010PropOp39
 70
     1
102
RTVSPost2010Prop40
 90
        0
102
RTVSPost2010PropOp40
 70
     1
102
RTVSPost2010Prop41ColorIndex
 90
       18
102
RTVSPost2010Prop41ColorRGB
 90
        0
102
RTVSPost2010PropOp41
 70
     1
102
RTVSPost2010Prop42
 90
       50
102
RTVSPost2010PropOp42
 70
     1
102
RTVSPost2010Prop43
 90
        3
102
RTVSPost2010PropOp43
 70
     1
102
RTVSPost2010Prop44ColorIndex
 90
        5
102
RTVSPost2010Prop44ColorRGB
 90
      255
102
RTVSPost2010PropOp44
 70
     1
102
RTVSPost2010Prop45
280
     0
102
RTVSPost2010PropOp45
 70
     1
102
RTVSPost2010Prop46
 90
       50
102
RTVSPost2010PropOp46
 70
     1
102
RTVSPost2010Prop47
 90
       50
102
RTVSPost2010PropOp47
 70
     1
102
RTVSPost2010Prop48
 90
       50
102
RTVSPost2010PropOp48
 70
     1
102
RTVSPost2010Prop49
280
     0
102
RTVSPost2010PropOp49
 70
     1
102
RTVSPost2010Prop50
 90
       50
102
RTVSPost2010PropOp50
 70
     1
102
RTVSPost2010Prop51ColorIndex
 90
      256
102
RTVSPost2010Prop51ColorRGB
 90
-16777216
102
RTVSPost2010PropOp51
 70
     0
102
RTVSPost2010Prop52
140
1.0
102
RTVSPost2010PropOp52
 70
     0
102
RTVSPost2010Prop53
 90
        2
102
RTVSPost2010PropOp53
 70
     1
102
RTVSPost2010Prop54
  1
strokes_ogs.tif
102
RTVSPost2010PropOp54
 70
     1
102
RTVSPost2010Prop55
280
     0
102
RTVSPost2010PropOp55
 70
     1
102
RTVSPost2010Prop56
140
1.0
102
RTVSPost2010PropOp56
 70
     1
102
RTVSPost2010Prop57
140
1.0
102
RTVSPost2010PropOp57
 70
     1
102
RTVSPropertyOp0
 70
     1
102
RTVSPropertyOp1
 70
     1
102
RTVSPropertyOp2
 70
     1
102
RTVSPropertyOp3
 70
     1
102
RTVSPropertyOp4
 70
     1
102
RTVSPropertyOp5
 70
     1
102
RTVSPropertyOp6
 70
     1
102
RTVSPropertyOp7
 70
     1
102
RTVSPropertyOp8
 70
     1
102
RTVSPropertyOp9
 70
     1
102
RTVSPropertyOp10
 70
     1
102
RTVSPropertyOp11
 70
     1
102
RTVSPropertyOp12
 70
     1
102
RTVSPropertyOp13
 70
     1
102
RTVSPropertyOp14
 70
     1
102
RTVSPropertyOp15
 70
     1
102
RTVSPropertyOp16
 70
     1
102
RTVSPropertyOp17
 70
     1
102
RTVSPropertyOp18
 70
     1
102
RTVSPropertyOp19
 70
     1
102
RTVSPropertyOp20
 70
     1
102
RTVSPropertyOp21
 70
     1
102
RTVSPropertyOp22
 70
     1
102
RTVSPropertyOp23
 70
     1
102
RTVSPropertyOp24
 70
     1
102
RTVSPropertyOp25
 70
     1
102
RTVSPropertyOp26
 70
     1
102
RTVSPropertyOp27
 70
     1
102
RTVSPropertyOp28
 70
     1
102
RTVSPropertyOp29
 70
     1
102
RTVSPropertyOp30
 70
     1
102
RTVSPropertyOp31
 70
     1
102
RTVSPropertyOp32
 70
     1
102
RTVSPropertyOp33
 70
     1
102
RTVSPropertyOp34
 70
     1
102
RTVSPropertyOp35
 70
     1
102
RTVSPropertyOp36
 70
     1
102
RTVSPropertyOp37
 70
     1
102
RTVSPropertyOp38
 70
     1
102
RTVSPropertyOp39
 70
     1
102
RTVSPropertyOp40
 70
     1
102
RTVSPropertyOp41
 70
     1
102
RTVSPropertyOp42
 70
     1
102
RTVSPropertyOp43
 70
     1
102
RTVSPropertyOp44
 70
     1
102
RTVSPropertyOp45
 70
     1
102
RTVSPropertyOp46
 70
     1
102
RTVSPropertyOp47
 70
     1
102
RTVSPropertyOp48
 70
     1
102
RTVSPropertyOp49
 70
     1
102
RTVSPropertyOp50
 70
     1
102
RTVSPropertyOp51
 70
     0
102
RTVSPropertyOp52
 70
     0
102
RTVSPropertyOp53
 70
     1
102
RTVSPropertyOp54
 70
     1
102
RTVSPropertyOp55
 70
     1
102
RTVSPropertyOp56
 70
     1
102
RTVSPropertyOp57
 70
     1
102
RTVSPropertyOp58
 70
     1
102
RTVSPropertyOp59
 70
     1
102
RTVSPropertyOp60
 70
     1
102
RTVSPropertyOp61
 70
     1
102
RTVSPropertyOp62
 70
     1
  0
XRECORD
  5
29FD
102
{ACAD_REACTORS
330
29FC
102
}
330
29FC
100
AcDbXrecord
280
     1
102
RTVSPost2010Prop28
280
     0
102
RTVSPost2010PropOp28
 70
     1
102
RTVSPost2010Prop29
280
     1
102
RTVSPost2010PropOp29
 70
     1
102
RTVSPost2010Prop30
280
     1
102
RTVSPost2010PropOp30
 70
     1
102
RTVSPost2010Prop31
280
     0
102
RTVSPost2010PropOp31
 70
     1
102
RTVSPost2010Prop32
280
     0
102
RTVSPost2010PropOp32
 70
     1
102
RTVSPost2010Prop33
280
     0
102
RTVSPost2010PropOp33
 70
     1
102
RTVSPost2010Prop34
280
     0
102
RTVSPost2010PropOp34
 70
     1
102
RTVSPost2010Prop35
280
     0
102
RTVSPost2010PropOp35
 70
     1
102
RTVSPost2010Prop36
280
     0
102
RTVSPost2010PropOp36
 70
     1
102
RTVSPost2010Prop37
 90
       50
102
RTVSPost2010PropOp37
 70
     1
102
RTVSPost2010Prop38
140
0.0
102
RTVSPost2010PropOp38
 70
     1
102
RTVSPost2010Prop39
140
1.0
102
RTVSPost2010PropOp39
 70
     1
102
RTVSPost2010Prop40
 90
        0
102
RTVSPost2010PropOp40
 70
     1
102
RTVSPost2010Prop41ColorIndex
 90
       18
102
RTVSPost2010Prop41ColorRGB
 90
        0
102
RTVSPost2010PropOp41
 70
     1
102
RTVSPost2010Prop42
 90
       50
102
RTVSPost2010PropOp42
 70
     1
102
RTVSPost2010Prop43
 90
        3
102
RTVSPost2010PropOp43
 70
     1
102
RTVSPost2010Prop44ColorIndex
 90
        5
102
RTVSPost2010Prop44ColorRGB
 90
      255
102
RTVSPost2010PropOp44
 70
     1
102
RTVSPost2010Prop45
280
     0
102
RTVSPost2010PropOp45
 70
     1
102
RTVSPost2010Prop46
 90
       50
102
RTVSPost2010PropOp46
 70
     1
102
RTVSPost2010Prop47
 90
       50
102
RTVSPost2010PropOp47
 70
     1
102
RTVSPost2010Prop48
 90
       50
102
RTVSPost2010PropOp48
 70
     1
102
RTVSPost2010Prop49
280
     0
102
RTVSPost2010PropOp49
 70
     1
102
RTVSPost2010Prop50
 90
       50
102
RTVSPost2010PropOp50
 70
     1
102
RTVSPost2010Prop51ColorIndex
 90
      256
102
RTVSPost2010Prop51ColorRGB
 90
-16777216
102
RTVSPost2010PropOp51
 70
     0
102
RTVSPost2010Prop52
140
1.0
102
RTVSPost2010PropOp52
 70
     0
102
RTVSPost2010Prop53
 90
        2
102
RTVSPost2010PropOp53
 70
     1
102
RTVSPost2010Prop54
  1
strokes_ogs.tif
102
RTVSPost2010PropOp54
 70
     1
102
RTVSPost2010Prop55
280
     0
102
RTVSPost2010PropOp55
 70
     1
102
RTVSPost2010Prop56
140
1.0
102
RTVSPost2010PropOp56
 70
     1
102
RTVSPost2010Prop57
140
1.0
102
RTVSPost2010PropOp57
 70
     1
102
RTVSPropertyOp0
 70
     1
102
RTVSPropertyOp1
 70
     1
102
RTVSPropertyOp2
 70
     1
102
RTVSPropertyOp3
 70
     1
102
RTVSPropertyOp4
 70
     1
102
RTVSPropertyOp5
 70
     1
102
RTVSPropertyOp6
 70
     1
102
RTVSPropertyOp7
 70
     1
102
RTVSPropertyOp8
 70
     1
102
RTVSPropertyOp9
 70
     1
102
RTVSPropertyOp10
 70
     1
102
RTVSPropertyOp11
 70
     1
102
RTVSPropertyOp12
 70
     1
102
RTVSPropertyOp13
 70
     1
102
RTVSPropertyOp14
 70
     1
102
RTVSPropertyOp15
 70
     1
102
RTVSPropertyOp16
 70
     1
102
RTVSPropertyOp17
 70
     1
102
RTVSPropertyOp18
 70
     1
102
RTVSPropertyOp19
 70
     1
102
RTVSPropertyOp20
 70
     1
102
RTVSPropertyOp21
 70
     1
102
RTVSPropertyOp22
 70
     1
102
RTVSPropertyOp23
 70
     1
102
RTVSPropertyOp24
 70
     1
102
RTVSPropertyOp25
 70
     1
102
RTVSPropertyOp26
 70
     1
102
RTVSPropertyOp27
 70
     1
102
RTVSPropertyOp28
 70
     1
102
RTVSPropertyOp29
 70
     1
102
RTVSPropertyOp30
 70
     1
102
RTVSPropertyOp31
 70
     1
102
RTVSPropertyOp32
 70
     1
102
RTVSPropertyOp33
 70
     1
102
RTVSPropertyOp34
 70
     1
102
RTVSPropertyOp35
 70
     1
102
RTVSPropertyOp36
 70
     1
102
RTVSPropertyOp37
 70
     1
102
RTVSPropertyOp38
 70
     1
102
RTVSPropertyOp39
 70
     1
102
RTVSPropertyOp40
 70
     1
102
RTVSPropertyOp41
 70
     1
102
RTVSPropertyOp42
 70
     1
102
RTVSPropertyOp43
 70
     1
102
RTVSPropertyOp44
 70
     1
102
RTVSPropertyOp45
 70
     1
102
RTVSPropertyOp46
 70
     1
102
RTVSPropertyOp47
 70
     1
102
RTVSPropertyOp48
 70
     1
102
RTVSPropertyOp49
 70
     1
102
RTVSPropertyOp50
 70
     1
102
RTVSPropertyOp51
 70
     0
102
RTVSPropertyOp52
 70
     0
102
RTVSPropertyOp53
 70
     1
102
RTVSPropertyOp54
 70
     1
102
RTVSPropertyOp55
 70
     1
102
RTVSPropertyOp56
 70
     1
102
RTVSPropertyOp57
 70
     1
102
RTVSPropertyOp58
 70
     1
102
RTVSPropertyOp59
 70
     1
102
RTVSPropertyOp60
 70
     1
102
RTVSPropertyOp61
 70
     1
102
RTVSPropertyOp62
 70
     1
  0
XRECORD
  5
2A01
102
{ACAD_REACTORS
330
2A00
102
}
330
2A00
100
AcDbXrecord
280
     1
102
RTVSPost2010Prop28
280
     0
102
RTVSPost2010PropOp28
 70
     1
102
RTVSPost2010Prop29
280
     1
102
RTVSPost2010PropOp29
 70
     1
102
RTVSPost2010Prop30
280
     1
102
RTVSPost2010PropOp30
 70
     1
102
RTVSPost2010Prop31
280
     0
102
RTVSPost2010PropOp31
 70
     1
102
RTVSPost2010Prop32
280
     0
102
RTVSPost2010PropOp32
 70
     1
102
RTVSPost2010Prop33
280
     0
102
RTVSPost2010PropOp33
 70
     1
102
RTVSPost2010Prop34
280
     0
102
RTVSPost2010PropOp34
 70
     1
102
RTVSPost2010Prop35
280
     0
102
RTVSPost2010PropOp35
 70
     1
102
RTVSPost2010Prop36
280
     0
102
RTVSPost2010PropOp36
 70
     1
102
RTVSPost2010Prop37
 90
       50
102
RTVSPost2010PropOp37
 70
     1
102
RTVSPost2010Prop38
140
0.0
102
RTVSPost2010PropOp38
 70
     1
102
RTVSPost2010Prop39
140
1.0
102
RTVSPost2010PropOp39
 70
     1
102
RTVSPost2010Prop40
 90
        0
102
RTVSPost2010PropOp40
 70
     1
102
RTVSPost2010Prop41ColorIndex
 90
       18
102
RTVSPost2010Prop41ColorRGB
 90
        0
102
RTVSPost2010PropOp41
 70
     1
102
RTVSPost2010Prop42
 90
       50
102
RTVSPost2010PropOp42
 70
     1
102
RTVSPost2010Prop43
 90
        3
102
RTVSPost2010PropOp43
 70
     1
102
RTVSPost2010Prop44ColorIndex
 90
        5
102
RTVSPost2010Prop44ColorRGB
 90
      255
102
RTVSPost2010PropOp44
 70
     1
102
RTVSPost2010Prop45
280
     0
102
RTVSPost2010PropOp45
 70
     1
102
RTVSPost2010Prop46
 90
       50
102
RTVSPost2010PropOp46
 70
     1
102
RTVSPost2010Prop47
 90
       50
102
RTVSPost2010PropOp47
 70
     1
102
RTVSPost2010Prop48
 90
       50
102
RTVSPost2010PropOp48
 70
     1
102
RTVSPost2010Prop49
280
     0
102
RTVSPost2010PropOp49
 70
     1
102
RTVSPost2010Prop50
 90
       50
102
RTVSPost2010PropOp50
 70
     1
102
RTVSPost2010Prop51ColorIndex
 90
      256
102
RTVSPost2010Prop51ColorRGB
 90
-16777216
102
RTVSPost2010PropOp51
 70
     0
102
RTVSPost2010Prop52
140
1.0
102
RTVSPost2010PropOp52
 70
     0
102
RTVSPost2010Prop53
 90
        2
102
RTVSPost2010PropOp53
 70
     1
102
RTVSPost2010Prop54
  1
strokes_ogs.tif
102
RTVSPost2010PropOp54
 70
     1
102
RTVSPost2010Prop55
280
     0
102
RTVSPost2010PropOp55
 70
     1
102
RTVSPost2010Prop56
140
1.0
102
RTVSPost2010PropOp56
 70
     1
102
RTVSPost2010Prop57
140
1.0
102
RTVSPost2010PropOp57
 70
     1
102
RTVSPropertyOp0
 70
     1
102
RTVSPropertyOp1
 70
     1
102
RTVSPropertyOp2
 70
     1
102
RTVSPropertyOp3
 70
     1
102
RTVSPropertyOp4
 70
     1
102
RTVSPropertyOp5
 70
     1
102
RTVSPropertyOp6
 70
     1
102
RTVSPropertyOp7
 70
     1
102
RTVSPropertyOp8
 70
     1
102
RTVSPropertyOp9
 70
     1
102
RTVSPropertyOp10
 70
     1
102
RTVSPropertyOp11
 70
     1
102
RTVSPropertyOp12
 70
     1
102
RTVSPropertyOp13
 70
     1
102
RTVSPropertyOp14
 70
     1
102
RTVSPropertyOp15
 70
     1
102
RTVSPropertyOp16
 70
     1
102
RTVSPropertyOp17
 70
     1
102
RTVSPropertyOp18
 70
     1
102
RTVSPropertyOp19
 70
     1
102
RTVSPropertyOp20
 70
     1
102
RTVSPropertyOp21
 70
     1
102
RTVSPropertyOp22
 70
     1
102
RTVSPropertyOp23
 70
     1
102
RTVSPropertyOp24
 70
     1
102
RTVSPropertyOp25
 70
     1
102
RTVSPropertyOp26
 70
     1
102
RTVSPropertyOp27
 70
     1
102
RTVSPropertyOp28
 70
     1
102
RTVSPropertyOp29
 70
     1
102
RTVSPropertyOp30
 70
     1
102
RTVSPropertyOp31
 70
     1
102
RTVSPropertyOp32
 70
     1
102
RTVSPropertyOp33
 70
     1
102
RTVSPropertyOp34
 70
     1
102
RTVSPropertyOp35
 70
     1
102
RTVSPropertyOp36
 70
     1
102
RTVSPropertyOp37
 70
     1
102
RTVSPropertyOp38
 70
     1
102
RTVSPropertyOp39
 70
     1
102
RTVSPropertyOp40
 70
     1
102
RTVSPropertyOp41
 70
     1
102
RTVSPropertyOp42
 70
     1
102
RTVSPropertyOp43
 70
     1
102
RTVSPropertyOp44
 70
     1
102
RTVSPropertyOp45
 70
     1
102
RTVSPropertyOp46
 70
     1
102
RTVSPropertyOp47
 70
     1
102
RTVSPropertyOp48
 70
     1
102
RTVSPropertyOp49
 70
     1
102
RTVSPropertyOp50
 70
     1
102
RTVSPropertyOp51
 70
     0
102
RTVSPropertyOp52
 70
     0
102
RTVSPropertyOp53
 70
     1
102
RTVSPropertyOp54
 70
     1
102
RTVSPropertyOp55
 70
     1
102
RTVSPropertyOp56
 70
     1
102
RTVSPropertyOp57
 70
     1
102
RTVSPropertyOp58
 70
     1
102
RTVSPropertyOp59
 70
     1
102
RTVSPropertyOp60
 70
     1
102
RTVSPropertyOp61
 70
     1
102
RTVSPropertyOp62
 70
     1
  0
XRECORD
  5
2A13
102
{ACAD_REACTORS
330
2A12
102
}
330
2A12
100
AcDbXrecord
280
     1
102
RTVSPost2010Prop28
280
     0
102
RTVSPost2010PropOp28
 70
     1
102
RTVSPost2010Prop29
280
     1
102
RTVSPost2010PropOp29
 70
     1
102
RTVSPost2010Prop30
280
     1
102
RTVSPost2010PropOp30
 70
     1
102
RTVSPost2010Prop31
280
     0
102
RTVSPost2010PropOp31
 70
     1
102
RTVSPost2010Prop32
280
     0
102
RTVSPost2010PropOp32
 70
     1
102
RTVSPost2010Prop33
280
     0
102
RTVSPost2010PropOp33
 70
     1
102
RTVSPost2010Prop34
280
     0
102
RTVSPost2010PropOp34
 70
     1
102
RTVSPost2010Prop35
280
     0
102
RTVSPost2010PropOp35
 70
     1
102
RTVSPost2010Prop36
280
     0
102
RTVSPost2010PropOp36
 70
     1
102
RTVSPost2010Prop37
 90
       50
102
RTVSPost2010PropOp37
 70
     1
102
RTVSPost2010Prop38
140
0.0
102
RTVSPost2010PropOp38
 70
     1
102
RTVSPost2010Prop39
140
1.0
102
RTVSPost2010PropOp39
 70
     1
102
RTVSPost2010Prop40
 90
        0
102
RTVSPost2010PropOp40
 70
     1
102
RTVSPost2010Prop41ColorIndex
 90
       18
102
RTVSPost2010Prop41ColorRGB
 90
        0
102
RTVSPost2010PropOp41
 70
     1
102
RTVSPost2010Prop42
 90
       50
102
RTVSPost2010PropOp42
 70
     1
102
RTVSPost2010Prop43
 90
        3
102
RTVSPost2010PropOp43
 70
     1
102
RTVSPost2010Prop44ColorIndex
 90
        5
102
RTVSPost2010Prop44ColorRGB
 90
      255
102
RTVSPost2010PropOp44
 70
     1
102
RTVSPost2010Prop45
280
     0
102
RTVSPost2010PropOp45
 70
     1
102
RTVSPost2010Prop46
 90
       50
102
RTVSPost2010PropOp46
 70
     1
102
RTVSPost2010Prop47
 90
       50
102
RTVSPost2010PropOp47
 70
     1
102
RTVSPost2010Prop48
 90
       50
102
RTVSPost2010PropOp48
 70
     1
102
RTVSPost2010Prop49
280
     0
102
RTVSPost2010PropOp49
 70
     1
102
RTVSPost2010Prop50
 90
       50
102
RTVSPost2010PropOp50
 70
     1
102
RTVSPost2010Prop51ColorIndex
 90
      256
102
RTVSPost2010Prop51ColorRGB
 90
-16777216
102
RTVSPost2010PropOp51
 70
     0
102
RTVSPost2010Prop52
140
1.0
102
RTVSPost2010PropOp52
 70
     0
102
RTVSPost2010Prop53
 90
        2
102
RTVSPost2010PropOp53
 70
     1
102
RTVSPost2010Prop54
  1
strokes_ogs.tif
102
RTVSPost2010PropOp54
 70
     1
102
RTVSPost2010Prop55
280
     0
102
RTVSPost2010PropOp55
 70
     1
102
RTVSPost2010Prop56
140
1.0
102
RTVSPost2010PropOp56
 70
     1
102
RTVSPost2010Prop57
140
1.0
102
RTVSPost2010PropOp57
 70
     1
102
RTVSPropertyOp0
 70
     0
102
RTVSPropertyOp1
 70
     0
102
RTVSPropertyOp2
 70
     0
102
RTVSPropertyOp3
 70
     0
102
RTVSPropertyOp4
 70
     0
102
RTVSPropertyOp5
 70
     0
102
RTVSPropertyOp6
 70
     0
102
RTVSPropertyOp7
 70
     0
102
RTVSPropertyOp8
 70
     0
102
RTVSPropertyOp9
 70
     0
102
RTVSPropertyOp10
 70
     0
102
RTVSPropertyOp11
 70
     0
102
RTVSPropertyOp12
 70
     0
102
RTVSPropertyOp13
 70
     0
102
RTVSPropertyOp14
 70
     2
102
RTVSPropertyOp15
 70
     0
102
RTVSPropertyOp16
 70
     0
102
RTVSPropertyOp17
 70
     0
102
RTVSPropertyOp18
 70
     0
102
RTVSPropertyOp19
 70
     0
102
RTVSPropertyOp20
 70
     0
102
RTVSPropertyOp21
 70
     0
102
RTVSPropertyOp22
 70
     0
102
RTVSPropertyOp23
 70
     0
102
RTVSPropertyOp24
 70
     0
102
RTVSPropertyOp25
 70
     0
102
RTVSPropertyOp26
 70
     0
102
RTVSPropertyOp27
 70
     0
102
RTVSPropertyOp28
 70
     1
102
RTVSPropertyOp29
 70
     1
102
RTVSPropertyOp30
 70
     1
102
RTVSPropertyOp31
 70
     1
102
RTVSPropertyOp32
 70
     1
102
RTVSPropertyOp33
 70
     1
102
RTVSPropertyOp34
 70
     1
102
RTVSPropertyOp35
 70
     1
102
RTVSPropertyOp36
 70
     1
102
RTVSPropertyOp37
 70
     1
102
RTVSPropertyOp38
 70
     1
102
RTVSPropertyOp39
 70
     1
102
RTVSPropertyOp40
 70
     1
102
RTVSPropertyOp41
 70
     1
102
RTVSPropertyOp42
 70
     1
102
RTVSPropertyOp43
 70
     1
102
RTVSPropertyOp44
 70
     1
102
RTVSPropertyOp45
 70
     1
102
RTVSPropertyOp46
 70
     1
102
RTVSPropertyOp47
 70
     1
102
RTVSPropertyOp48
 70
     1
102
RTVSPropertyOp49
 70
     1
102
RTVSPropertyOp50
 70
     1
102
RTVSPropertyOp51
 70
     0
102
RTVSPropertyOp52
 70
     0
102
RTVSPropertyOp53
 70
     1
102
RTVSPropertyOp54
 70
     1
102
RTVSPropertyOp55
 70
     1
102
RTVSPropertyOp56
 70
     1
102
RTVSPropertyOp57
 70
     1
102
RTVSPropertyOp58
 70
     1
102
RTVSPropertyOp59
 70
     1
102
RTVSPropertyOp60
 70
     1
102
RTVSPropertyOp61
 70
     1
102
RTVSPropertyOp62
 70
     1
  0
XRECORD
  5
2A09
102
{ACAD_REACTORS
330
2A08
102
}
330
2A08
100
AcDbXrecord
280
     1
102
RTVSPost2010Prop28
280
     0
102
RTVSPost2010PropOp28
 70
     1
102
RTVSPost2010Prop29
280
     1
102
RTVSPost2010PropOp29
 70
     1
102
RTVSPost2010Prop30
280
     1
102
RTVSPost2010PropOp30
 70
     1
102
RTVSPost2010Prop31
280
     0
102
RTVSPost2010PropOp31
 70
     1
102
RTVSPost2010Prop32
280
     0
102
RTVSPost2010PropOp32
 70
     1
102
RTVSPost2010Prop33
280
     0
102
RTVSPost2010PropOp33
 70
     1
102
RTVSPost2010Prop34
280
     0
102
RTVSPost2010PropOp34
 70
     1
102
RTVSPost2010Prop35
280
     0
102
RTVSPost2010PropOp35
 70
     1
102
RTVSPost2010Prop36
280
     0
102
RTVSPost2010PropOp36
 70
     1
102
RTVSPost2010Prop37
 90
       50
102
RTVSPost2010PropOp37
 70
     1
102
RTVSPost2010Prop38
140
0.0
102
RTVSPost2010PropOp38
 70
     1
102
RTVSPost2010Prop39
140
1.0
102
RTVSPost2010PropOp39
 70
     1
102
RTVSPost2010Prop40
 90
        0
102
RTVSPost2010PropOp40
 70
     1
102
RTVSPost2010Prop41ColorIndex
 90
       18
102
RTVSPost2010Prop41ColorRGB
 90
        0
102
RTVSPost2010PropOp41
 70
     1
102
RTVSPost2010Prop42
 90
       50
102
RTVSPost2010PropOp42
 70
     1
102
RTVSPost2010Prop43
 90
        3
102
RTVSPost2010PropOp43
 70
     1
102
RTVSPost2010Prop44ColorIndex
 90
        5
102
RTVSPost2010Prop44ColorRGB
 90
      255
102
RTVSPost2010PropOp44
 70
     1
102
RTVSPost2010Prop45
280
     0
102
RTVSPost2010PropOp45
 70
     1
102
RTVSPost2010Prop46
 90
       50
102
RTVSPost2010PropOp46
 70
     1
102
RTVSPost2010Prop47
 90
       50
102
RTVSPost2010PropOp47
 70
     1
102
RTVSPost2010Prop48
 90
       50
102
RTVSPost2010PropOp48
 70
     1
102
RTVSPost2010Prop49
280
     0
102
RTVSPost2010PropOp49
 70
     1
102
RTVSPost2010Prop50
 90
       50
102
RTVSPost2010PropOp50
 70
     1
102
RTVSPost2010Prop51ColorIndex
 90
      256
102
RTVSPost2010Prop51ColorRGB
 90
-16777216
102
RTVSPost2010PropOp51
 70
     0
102
RTVSPost2010Prop52
140
1.0
102
RTVSPost2010PropOp52
 70
     0
102
RTVSPost2010Prop53
 90
        2
102
RTVSPost2010PropOp53
 70
     1
102
RTVSPost2010Prop54
  1
strokes_ogs.tif
102
RTVSPost2010PropOp54
 70
     1
102
RTVSPost2010Prop55
280
     0
102
RTVSPost2010PropOp55
 70
     1
102
RTVSPost2010Prop56
140
1.0
102
RTVSPost2010PropOp56
 70
     1
102
RTVSPost2010Prop57
140
1.0
102
RTVSPost2010PropOp57
 70
     1
102
RTVSPropertyOp0
 70
     1
102
RTVSPropertyOp1
 70
     1
102
RTVSPropertyOp2
 70
     1
102
RTVSPropertyOp3
 70
     1
102
RTVSPropertyOp4
 70
     1
102
RTVSPropertyOp5
 70
     1
102
RTVSPropertyOp6
 70
     1
102
RTVSPropertyOp7
 70
     1
102
RTVSPropertyOp8
 70
     1
102
RTVSPropertyOp9
 70
     1
102
RTVSPropertyOp10
 70
     1
102
RTVSPropertyOp11
 70
     1
102
RTVSPropertyOp12
 70
     1
102
RTVSPropertyOp13
 70
     1
102
RTVSPropertyOp14
 70
     1
102
RTVSPropertyOp15
 70
     1
102
RTVSPropertyOp16
 70
     1
102
RTVSPropertyOp17
 70
     1
102
RTVSPropertyOp18
 70
     1
102
RTVSPropertyOp19
 70
     1
102
RTVSPropertyOp20
 70
     1
102
RTVSPropertyOp21
 70
     1
102
RTVSPropertyOp22
 70
     1
102
RTVSPropertyOp23
 70
     1
102
RTVSPropertyOp24
 70
     1
102
RTVSPropertyOp25
 70
     1
102
RTVSPropertyOp26
 70
     1
102
RTVSPropertyOp27
 70
     1
102
RTVSPropertyOp28
 70
     1
102
RTVSPropertyOp29
 70
     1
102
RTVSPropertyOp30
 70
     1
102
RTVSPropertyOp31
 70
     1
102
RTVSPropertyOp32
 70
     1
102
RTVSPropertyOp33
 70
     1
102
RTVSPropertyOp34
 70
     1
102
RTVSPropertyOp35
 70
     1
102
RTVSPropertyOp36
 70
     1
102
RTVSPropertyOp37
 70
     1
102
RTVSPropertyOp38
 70
     1
102
RTVSPropertyOp39
 70
     1
102
RTVSPropertyOp40
 70
     1
102
RTVSPropertyOp41
 70
     1
102
RTVSPropertyOp42
 70
     1
102
RTVSPropertyOp43
 70
     1
102
RTVSPropertyOp44
 70
     1
102
RTVSPropertyOp45
 70
     1
102
RTVSPropertyOp46
 70
     1
102
RTVSPropertyOp47
 70
     1
102
RTVSPropertyOp48
 70
     1
102
RTVSPropertyOp49
 70
     1
102
RTVSPropertyOp50
 70
     1
102
RTVSPropertyOp51
 70
     0
102
RTVSPropertyOp52
 70
     0
102
RTVSPropertyOp53
 70
     1
102
RTVSPropertyOp54
 70
     1
102
RTVSPropertyOp55
 70
     1
102
RTVSPropertyOp56
 70
     1
102
RTVSPropertyOp57
 70
     1
102
RTVSPropertyOp58
 70
     1
102
RTVSPropertyOp59
 70
     1
102
RTVSPropertyOp60
 70
     1
102
RTVSPropertyOp61
 70
     1
102
RTVSPropertyOp62
 70
     1
  0
XRECORD
  5
29ED
102
{ACAD_REACTORS
330
29EC
102
}
330
29EC
100
AcDbXrecord
280
     1
102
RTVSPost2010Prop28
280
     0
102
RTVSPost2010PropOp28
 70
     1
102
RTVSPost2010Prop29
280
     1
102
RTVSPost2010PropOp29
 70
     1
102
RTVSPost2010Prop30
280
     1
102
RTVSPost2010PropOp30
 70
     1
102
RTVSPost2010Prop31
280
     0
102
RTVSPost2010PropOp31
 70
     1
102
RTVSPost2010Prop32
280
     0
102
RTVSPost2010PropOp32
 70
     1
102
RTVSPost2010Prop33
280
     0
102
RTVSPost2010PropOp33
 70
     1
102
RTVSPost2010Prop34
280
     0
102
RTVSPost2010PropOp34
 70
     1
102
RTVSPost2010Prop35
280
     0
102
RTVSPost2010PropOp35
 70
     1
102
RTVSPost2010Prop36
280
     0
102
RTVSPost2010PropOp36
 70
     1
102
RTVSPost2010Prop37
 90
       50
102
RTVSPost2010PropOp37
 70
     1
102
RTVSPost2010Prop38
140
0.0
102
RTVSPost2010PropOp38
 70
     1
102
RTVSPost2010Prop39
140
1.0
102
RTVSPost2010PropOp39
 70
     1
102
RTVSPost2010Prop40
 90
        0
102
RTVSPost2010PropOp40
 70
     1
102
RTVSPost2010Prop41ColorIndex
 90
       18
102
RTVSPost2010Prop41ColorRGB
 90
        0
102
RTVSPost2010PropOp41
 70
     1
102
RTVSPost2010Prop42
 90
       50
102
RTVSPost2010PropOp42
 70
     1
102
RTVSPost2010Prop43
 90
        3
102
RTVSPost2010PropOp43
 70
     1
102
RTVSPost2010Prop44ColorIndex
 90
        5
102
RTVSPost2010Prop44ColorRGB
 90
      255
102
RTVSPost2010PropOp44
 70
     1
102
RTVSPost2010Prop45
280
     0
102
RTVSPost2010PropOp45
 70
     1
102
RTVSPost2010Prop46
 90
       50
102
RTVSPost2010PropOp46
 70
     1
102
RTVSPost2010Prop47
 90
       50
102
RTVSPost2010PropOp47
 70
     1
102
RTVSPost2010Prop48
 90
       50
102
RTVSPost2010PropOp48
 70
     1
102
RTVSPost2010Prop49
280
     0
102
RTVSPost2010PropOp49
 70
     1
102
RTVSPost2010Prop50
 90
       50
102
RTVSPost2010PropOp50
 70
     1
102
RTVSPost2010Prop51ColorIndex
 90
      256
102
RTVSPost2010Prop51ColorRGB
 90
-16777216
102
RTVSPost2010PropOp51
 70
     0
102
RTVSPost2010Prop52
140
1.0
102
RTVSPost2010PropOp52
 70
     0
102
RTVSPost2010Prop53
 90
        2
102
RTVSPost2010PropOp53
 70
     1
102
RTVSPost2010Prop54
  1
strokes_ogs.tif
102
RTVSPost2010PropOp54
 70
     1
102
RTVSPost2010Prop55
280
     0
102
RTVSPost2010PropOp55
 70
     1
102
RTVSPost2010Prop56
140
1.0
102
RTVSPost2010PropOp56
 70
     1
102
RTVSPost2010Prop57
140
1.0
102
RTVSPost2010PropOp57
 70
     1
102
RTVSPropertyOp0
 70
     1
102
RTVSPropertyOp1
 70
     1
102
RTVSPropertyOp2
 70
     1
102
RTVSPropertyOp3
 70
     1
102
RTVSPropertyOp4
 70
     1
102
RTVSPropertyOp5
 70
     1
102
RTVSPropertyOp6
 70
     1
102
RTVSPropertyOp7
 70
     1
102
RTVSPropertyOp8
 70
     1
102
RTVSPropertyOp9
 70
     1
102
RTVSPropertyOp10
 70
     1
102
RTVSPropertyOp11
 70
     1
102
RTVSPropertyOp12
 70
     1
102
RTVSPropertyOp13
 70
     1
102
RTVSPropertyOp14
 70
     1
102
RTVSPropertyOp15
 70
     1
102
RTVSPropertyOp16
 70
     1
102
RTVSPropertyOp17
 70
     1
102
RTVSPropertyOp18
 70
     1
102
RTVSPropertyOp19
 70
     1
102
RTVSPropertyOp20
 70
     1
102
RTVSPropertyOp21
 70
     1
102
RTVSPropertyOp22
 70
     1
102
RTVSPropertyOp23
 70
     1
102
RTVSPropertyOp24
 70
     1
102
RTVSPropertyOp25
 70
     1
102
RTVSPropertyOp26
 70
     1
102
RTVSPropertyOp27
 70
     1
102
RTVSPropertyOp28
 70
     1
102
RTVSPropertyOp29
 70
     1
102
RTVSPropertyOp30
 70
     1
102
RTVSPropertyOp31
 70
     1
102
RTVSPropertyOp32
 70
     1
102
RTVSPropertyOp33
 70
     1
102
RTVSPropertyOp34
 70
     1
102
RTVSPropertyOp35
 70
     1
102
RTVSPropertyOp36
 70
     1
102
RTVSPropertyOp37
 70
     1
102
RTVSPropertyOp38
 70
     1
102
RTVSPropertyOp39
 70
     1
102
RTVSPropertyOp40
 70
     1
102
RTVSPropertyOp41
 70
     1
102
RTVSPropertyOp42
 70
     1
102
RTVSPropertyOp43
 70
     1
102
RTVSPropertyOp44
 70
     1
102
RTVSPropertyOp45
 70
     1
102
RTVSPropertyOp46
 70
     1
102
RTVSPropertyOp47
 70
     1
102
RTVSPropertyOp48
 70
     1
102
RTVSPropertyOp49
 70
     1
102
RTVSPropertyOp50
 70
     1
102
RTVSPropertyOp51
 70
     0
102
RTVSPropertyOp52
 70
     0
102
RTVSPropertyOp53
 70
     1
102
RTVSPropertyOp54
 70
     1
102
RTVSPropertyOp55
 70
     1
102
RTVSPropertyOp56
 70
     1
102
RTVSPropertyOp57
 70
     1
102
RTVSPropertyOp58
 70
     1
102
RTVSPropertyOp59
 70
     1
102
RTVSPropertyOp60
 70
     1
102
RTVSPropertyOp61
 70
     1
102
RTVSPropertyOp62
 70
     1
  0
XRECORD
  5
29EF
102
{ACAD_REACTORS
330
29EE
102
}
330
29EE
100
AcDbXrecord
280
     1
102
RTVSPost2010Prop28
280
     0
102
RTVSPost2010PropOp28
 70
     1
102
RTVSPost2010Prop29
280
     1
102
RTVSPost2010PropOp29
 70
     1
102
RTVSPost2010Prop30
280
     1
102
RTVSPost2010PropOp30
 70
     1
102
RTVSPost2010Prop31
280
     0
102
RTVSPost2010PropOp31
 70
     1
102
RTVSPost2010Prop32
280
     0
102
RTVSPost2010PropOp32
 70
     1
102
RTVSPost2010Prop33
280
     0
102
RTVSPost2010PropOp33
 70
     1
102
RTVSPost2010Prop34
280
     0
102
RTVSPost2010PropOp34
 70
     1
102
RTVSPost2010Prop35
280
     0
102
RTVSPost2010PropOp35
 70
     1
102
RTVSPost2010Prop36
280
     0
102
RTVSPost2010PropOp36
 70
     1
102
RTVSPost2010Prop37
 90
       50
102
RTVSPost2010PropOp37
 70
     1
102
RTVSPost2010Prop38
140
0.0
102
RTVSPost2010PropOp38
 70
     1
102
RTVSPost2010Prop39
140
1.0
102
RTVSPost2010PropOp39
 70
     1
102
RTVSPost2010Prop40
 90
        0
102
RTVSPost2010PropOp40
 70
     1
102
RTVSPost2010Prop41ColorIndex
 90
       18
102
RTVSPost2010Prop41ColorRGB
 90
        0
102
RTVSPost2010PropOp41
 70
     1
102
RTVSPost2010Prop42
 90
       50
102
RTVSPost2010PropOp42
 70
     1
102
RTVSPost2010Prop43
 90
        3
102
RTVSPost2010PropOp43
 70
     1
102
RTVSPost2010Prop44ColorIndex
 90
        5
102
RTVSPost2010Prop44ColorRGB
 90
      255
102
RTVSPost2010PropOp44
 70
     1
102
RTVSPost2010Prop45
280
     0
102
RTVSPost2010PropOp45
 70
     1
102
RTVSPost2010Prop46
 90
       50
102
RTVSPost2010PropOp46
 70
     1
102
RTVSPost2010Prop47
 90
       50
102
RTVSPost2010PropOp47
 70
     1
102
RTVSPost2010Prop48
 90
       50
102
RTVSPost2010PropOp48
 70
     1
102
RTVSPost2010Prop49
280
     0
102
RTVSPost2010PropOp49
 70
     1
102
RTVSPost2010Prop50
 90
       50
102
RTVSPost2010PropOp50
 70
     1
102
RTVSPost2010Prop51ColorIndex
 90
      256
102
RTVSPost2010Prop51ColorRGB
 90
-16777216
102
RTVSPost2010PropOp51
 70
     0
102
RTVSPost2010Prop52
140
1.0
102
RTVSPost2010PropOp52
 70
     0
102
RTVSPost2010Prop53
 90
        2
102
RTVSPost2010PropOp53
 70
     1
102
RTVSPost2010Prop54
  1
strokes_ogs.tif
102
RTVSPost2010PropOp54
 70
     1
102
RTVSPost2010Prop55
280
     0
102
RTVSPost2010PropOp55
 70
     1
102
RTVSPost2010Prop56
140
1.0
102
RTVSPost2010PropOp56
 70
     1
102
RTVSPost2010Prop57
140
1.0
102
RTVSPost2010PropOp57
 70
     1
102
RTVSPropertyOp0
 70
     1
102
RTVSPropertyOp1
 70
     1
102
RTVSPropertyOp2
 70
     1
102
RTVSPropertyOp3
 70
     1
102
RTVSPropertyOp4
 70
     1
102
RTVSPropertyOp5
 70
     1
102
RTVSPropertyOp6
 70
     1
102
RTVSPropertyOp7
 70
     1
102
RTVSPropertyOp8
 70
     1
102
RTVSPropertyOp9
 70
     1
102
RTVSPropertyOp10
 70
     1
102
RTVSPropertyOp11
 70
     1
102
RTVSPropertyOp12
 70
     1
102
RTVSPropertyOp13
 70
     1
102
RTVSPropertyOp14
 70
     1
102
RTVSPropertyOp15
 70
     1
102
RTVSPropertyOp16
 70
     1
102
RTVSPropertyOp17
 70
     1
102
RTVSPropertyOp18
 70
     1
102
RTVSPropertyOp19
 70
     1
102
RTVSPropertyOp20
 70
     1
102
RTVSPropertyOp21
 70
     1
102
RTVSPropertyOp22
 70
     1
102
RTVSPropertyOp23
 70
     1
102
RTVSPropertyOp24
 70
     1
102
RTVSPropertyOp25
 70
     1
102
RTVSPropertyOp26
 70
     1
102
RTVSPropertyOp27
 70
     1
102
RTVSPropertyOp28
 70
     1
102
RTVSPropertyOp29
 70
     1
102
RTVSPropertyOp30
 70
     1
102
RTVSPropertyOp31
 70
     1
102
RTVSPropertyOp32
 70
     1
102
RTVSPropertyOp33
 70
     1
102
RTVSPropertyOp34
 70
     1
102
RTVSPropertyOp35
 70
     1
102
RTVSPropertyOp36
 70
     1
102
RTVSPropertyOp37
 70
     1
102
RTVSPropertyOp38
 70
     1
102
RTVSPropertyOp39
 70
     1
102
RTVSPropertyOp40
 70
     1
102
RTVSPropertyOp41
 70
     1
102
RTVSPropertyOp42
 70
     1
102
RTVSPropertyOp43
 70
     1
102
RTVSPropertyOp44
 70
     1
102
RTVSPropertyOp45
 70
     1
102
RTVSPropertyOp46
 70
     1
102
RTVSPropertyOp47
 70
     1
102
RTVSPropertyOp48
 70
     1
102
RTVSPropertyOp49
 70
     1
102
RTVSPropertyOp50
 70
     1
102
RTVSPropertyOp51
 70
     0
102
RTVSPropertyOp52
 70
     0
102
RTVSPropertyOp53
 70
     1
102
RTVSPropertyOp54
 70
     1
102
RTVSPropertyOp55
 70
     1
102
RTVSPropertyOp56
 70
     1
102
RTVSPropertyOp57
 70
     1
102
RTVSPropertyOp58
 70
     1
102
RTVSPropertyOp59
 70
     1
102
RTVSPropertyOp60
 70
     1
102
RTVSPropertyOp61
 70
     1
102
RTVSPropertyOp62
 70
     1
  0
XRECORD
  5
29F1
102
{ACAD_REACTORS
330
29F0
102
}
330
29F0
100
AcDbXrecord
280
     1
102
RTVSPost2010Prop28
280
     0
102
RTVSPost2010PropOp28
 70
     1
102
RTVSPost2010Prop29
280
     1
102
RTVSPost2010PropOp29
 70
     1
102
RTVSPost2010Prop30
280
     1
102
RTVSPost2010PropOp30
 70
     1
102
RTVSPost2010Prop31
280
     0
102
RTVSPost2010PropOp31
 70
     1
102
RTVSPost2010Prop32
280
     0
102
RTVSPost2010PropOp32
 70
     1
102
RTVSPost2010Prop33
280
     0
102
RTVSPost2010PropOp33
 70
     1
102
RTVSPost2010Prop34
280
     0
102
RTVSPost2010PropOp34
 70
     1
102
RTVSPost2010Prop35
280
     0
102
RTVSPost2010PropOp35
 70
     1
102
RTVSPost2010Prop36
280
     0
102
RTVSPost2010PropOp36
 70
     1
102
RTVSPost2010Prop37
 90
       50
102
RTVSPost2010PropOp37
 70
     1
102
RTVSPost2010Prop38
140
0.0
102
RTVSPost2010PropOp38
 70
     1
102
RTVSPost2010Prop39
140
1.0
102
RTVSPost2010PropOp39
 70
     1
102
RTVSPost2010Prop40
 90
        0
102
RTVSPost2010PropOp40
 70
     1
102
RTVSPost2010Prop41ColorIndex
 90
       18
102
RTVSPost2010Prop41ColorRGB
 90
        0
102
RTVSPost2010PropOp41
 70
     1
102
RTVSPost2010Prop42
 90
       50
102
RTVSPost2010PropOp42
 70
     1
102
RTVSPost2010Prop43
 90
        3
102
RTVSPost2010PropOp43
 70
     1
102
RTVSPost2010Prop44ColorIndex
 90
        5
102
RTVSPost2010Prop44ColorRGB
 90
      255
102
RTVSPost2010PropOp44
 70
     1
102
RTVSPost2010Prop45
280
     0
102
RTVSPost2010PropOp45
 70
     1
102
RTVSPost2010Prop46
 90
       50
102
RTVSPost2010PropOp46
 70
     1
102
RTVSPost2010Prop47
 90
       50
102
RTVSPost2010PropOp47
 70
     1
102
RTVSPost2010Prop48
 90
       50
102
RTVSPost2010PropOp48
 70
     1
102
RTVSPost2010Prop49
280
     0
102
RTVSPost2010PropOp49
 70
     1
102
RTVSPost2010Prop50
 90
       50
102
RTVSPost2010PropOp50
 70
     1
102
RTVSPost2010Prop51ColorIndex
 90
      256
102
RTVSPost2010Prop51ColorRGB
 90
-16777216
102
RTVSPost2010PropOp51
 70
     0
102
RTVSPost2010Prop52
140
1.0
102
RTVSPost2010PropOp52
 70
     0
102
RTVSPost2010Prop53
 90
        2
102
RTVSPost2010PropOp53
 70
     1
102
RTVSPost2010Prop54
  1
strokes_ogs.tif
102
RTVSPost2010PropOp54
 70
     1
102
RTVSPost2010Prop55
280
     0
102
RTVSPost2010PropOp55
 70
     1
102
RTVSPost2010Prop56
140
1.0
102
RTVSPost2010PropOp56
 70
     1
102
RTVSPost2010Prop57
140
1.0
102
RTVSPost2010PropOp57
 70
     1
102
RTVSPropertyOp0
 70
     1
102
RTVSPropertyOp1
 70
     1
102
RTVSPropertyOp2
 70
     1
102
RTVSPropertyOp3
 70
     1
102
RTVSPropertyOp4
 70
     1
102
RTVSPropertyOp5
 70
     1
102
RTVSPropertyOp6
 70
     1
102
RTVSPropertyOp7
 70
     1
102
RTVSPropertyOp8
 70
     1
102
RTVSPropertyOp9
 70
     1
102
RTVSPropertyOp10
 70
     1
102
RTVSPropertyOp11
 70
     1
102
RTVSPropertyOp12
 70
     1
102
RTVSPropertyOp13
 70
     1
102
RTVSPropertyOp14
 70
     1
102
RTVSPropertyOp15
 70
     1
102
RTVSPropertyOp16
 70
     1
102
RTVSPropertyOp17
 70
     1
102
RTVSPropertyOp18
 70
     1
102
RTVSPropertyOp19
 70
     1
102
RTVSPropertyOp20
 70
     1
102
RTVSPropertyOp21
 70
     1
102
RTVSPropertyOp22
 70
     1
102
RTVSPropertyOp23
 70
     1
102
RTVSPropertyOp24
 70
     1
102
RTVSPropertyOp25
 70
     1
102
RTVSPropertyOp26
 70
     1
102
RTVSPropertyOp27
 70
     1
102
RTVSPropertyOp28
 70
     1
102
RTVSPropertyOp29
 70
     1
102
RTVSPropertyOp30
 70
     1
102
RTVSPropertyOp31
 70
     1
102
RTVSPropertyOp32
 70
     1
102
RTVSPropertyOp33
 70
     1
102
RTVSPropertyOp34
 70
     1
102
RTVSPropertyOp35
 70
     1
102
RTVSPropertyOp36
 70
     1
102
RTVSPropertyOp37
 70
     1
102
RTVSPropertyOp38
 70
     1
102
RTVSPropertyOp39
 70
     1
102
RTVSPropertyOp40
 70
     1
102
RTVSPropertyOp41
 70
     1
102
RTVSPropertyOp42
 70
     1
102
RTVSPropertyOp43
 70
     1
102
RTVSPropertyOp44
 70
     1
102
RTVSPropertyOp45
 70
     1
102
RTVSPropertyOp46
 70
     1
102
RTVSPropertyOp47
 70
     1
102
RTVSPropertyOp48
 70
     1
102
RTVSPropertyOp49
 70
     1
102
RTVSPropertyOp50
 70
     1
102
RTVSPropertyOp51
 70
     0
102
RTVSPropertyOp52
 70
     0
102
RTVSPropertyOp53
 70
     1
102
RTVSPropertyOp54
 70
     1
102
RTVSPropertyOp55
 70
     1
102
RTVSPropertyOp56
 70
     1
102
RTVSPropertyOp57
 70
     1
102
RTVSPropertyOp58
 70
     1
102
RTVSPropertyOp59
 70
     1
102
RTVSPropertyOp60
 70
     1
102
RTVSPropertyOp61
 70
     1
102
RTVSPropertyOp62
 70
     1
  0
XRECORD
  5
29F3
102
{ACAD_REACTORS
330
29F2
102
}
330
29F2
100
AcDbXrecord
280
     1
102
RTVSPost2010Prop28
280
     0
102
RTVSPost2010PropOp28
 70
     1
102
RTVSPost2010Prop29
280
     1
102
RTVSPost2010PropOp29
 70
     1
102
RTVSPost2010Prop30
280
     1
102
RTVSPost2010PropOp30
 70
     1
102
RTVSPost2010Prop31
280
     0
102
RTVSPost2010PropOp31
 70
     1
102
RTVSPost2010Prop32
280
     0
102
RTVSPost2010PropOp32
 70
     1
102
RTVSPost2010Prop33
280
     0
102
RTVSPost2010PropOp33
 70
     1
102
RTVSPost2010Prop34
280
     0
102
RTVSPost2010PropOp34
 70
     1
102
RTVSPost2010Prop35
280
     0
102
RTVSPost2010PropOp35
 70
     1
102
RTVSPost2010Prop36
280
     0
102
RTVSPost2010PropOp36
 70
     1
102
RTVSPost2010Prop37
 90
       50
102
RTVSPost2010PropOp37
 70
     1
102
RTVSPost2010Prop38
140
0.0
102
RTVSPost2010PropOp38
 70
     1
102
RTVSPost2010Prop39
140
1.0
102
RTVSPost2010PropOp39
 70
     1
102
RTVSPost2010Prop40
 90
        0
102
RTVSPost2010PropOp40
 70
     1
102
RTVSPost2010Prop41ColorIndex
 90
       18
102
RTVSPost2010Prop41ColorRGB
 90
        0
102
RTVSPost2010PropOp41
 70
     1
102
RTVSPost2010Prop42
 90
       50
102
RTVSPost2010PropOp42
 70
     1
102
RTVSPost2010Prop43
 90
        3
102
RTVSPost2010PropOp43
 70
     1
102
RTVSPost2010Prop44ColorIndex
 90
        5
102
RTVSPost2010Prop44ColorRGB
 90
      255
102
RTVSPost2010PropOp44
 70
     1
102
RTVSPost2010Prop45
280
     0
102
RTVSPost2010PropOp45
 70
     1
102
RTVSPost2010Prop46
 90
       50
102
RTVSPost2010PropOp46
 70
     1
102
RTVSPost2010Prop47
 90
       50
102
RTVSPost2010PropOp47
 70
     1
102
RTVSPost2010Prop48
 90
       50
102
RTVSPost2010PropOp48
 70
     1
102
RTVSPost2010Prop49
280
     0
102
RTVSPost2010PropOp49
 70
     1
102
RTVSPost2010Prop50
 90
       50
102
RTVSPost2010PropOp50
 70
     1
102
RTVSPost2010Prop51ColorIndex
 90
      256
102
RTVSPost2010Prop51ColorRGB
 90
-16777216
102
RTVSPost2010PropOp51
 70
     0
102
RTVSPost2010Prop52
140
1.0
102
RTVSPost2010PropOp52
 70
     0
102
RTVSPost2010Prop53
 90
        2
102
RTVSPost2010PropOp53
 70
     1
102
RTVSPost2010Prop54
  1
strokes_ogs.tif
102
RTVSPost2010PropOp54
 70
     1
102
RTVSPost2010Prop55
280
     0
102
RTVSPost2010PropOp55
 70
     1
102
RTVSPost2010Prop56
140
1.0
102
RTVSPost2010PropOp56
 70
     1
102
RTVSPost2010Prop57
140
1.0
102
RTVSPost2010PropOp57
 70
     1
102
RTVSPropertyOp0
 70
     1
102
RTVSPropertyOp1
 70
     1
102
RTVSPropertyOp2
 70
     1
102
RTVSPropertyOp3
 70
     1
102
RTVSPropertyOp4
 70
     1
102
RTVSPropertyOp5
 70
     1
102
RTVSPropertyOp6
 70
     1
102
RTVSPropertyOp7
 70
     1
102
RTVSPropertyOp8
 70
     1
102
RTVSPropertyOp9
 70
     1
102
RTVSPropertyOp10
 70
     1
102
RTVSPropertyOp11
 70
     1
102
RTVSPropertyOp12
 70
     1
102
RTVSPropertyOp13
 70
     1
102
RTVSPropertyOp14
 70
     1
102
RTVSPropertyOp15
 70
     1
102
RTVSPropertyOp16
 70
     1
102
RTVSPropertyOp17
 70
     1
102
RTVSPropertyOp18
 70
     1
102
RTVSPropertyOp19
 70
     1
102
RTVSPropertyOp20
 70
     1
102
RTVSPropertyOp21
 70
     1
102
RTVSPropertyOp22
 70
     1
102
RTVSPropertyOp23
 70
     1
102
RTVSPropertyOp24
 70
     1
102
RTVSPropertyOp25
 70
     1
102
RTVSPropertyOp26
 70
     1
102
RTVSPropertyOp27
 70
     1
102
RTVSPropertyOp28
 70
     1
102
RTVSPropertyOp29
 70
     1
102
RTVSPropertyOp30
 70
     1
102
RTVSPropertyOp31
 70
     1
102
RTVSPropertyOp32
 70
     1
102
RTVSPropertyOp33
 70
     1
102
RTVSPropertyOp34
 70
     1
102
RTVSPropertyOp35
 70
     1
102
RTVSPropertyOp36
 70
     1
102
RTVSPropertyOp37
 70
     1
102
RTVSPropertyOp38
 70
     1
102
RTVSPropertyOp39
 70
     1
102
RTVSPropertyOp40
 70
     1
102
RTVSPropertyOp41
 70
     1
102
RTVSPropertyOp42
 70
     1
102
RTVSPropertyOp43
 70
     1
102
RTVSPropertyOp44
 70
     1
102
RTVSPropertyOp45
 70
     1
102
RTVSPropertyOp46
 70
     1
102
RTVSPropertyOp47
 70
     1
102
RTVSPropertyOp48
 70
     1
102
RTVSPropertyOp49
 70
     1
102
RTVSPropertyOp50
 70
     1
102
RTVSPropertyOp51
 70
     0
102
RTVSPropertyOp52
 70
     0
102
RTVSPropertyOp53
 70
     1
102
RTVSPropertyOp54
 70
     1
102
RTVSPropertyOp55
 70
     1
102
RTVSPropertyOp56
 70
     1
102
RTVSPropertyOp57
 70
     1
102
RTVSPropertyOp58
 70
     1
102
RTVSPropertyOp59
 70
     1
102
RTVSPropertyOp60
 70
     1
102
RTVSPropertyOp61
 70
     1
102
RTVSPropertyOp62
 70
     1
  0
XRECORD
  5
29FB
102
{ACAD_REACTORS
330
29FA
102
}
330
29FA
100
AcDbXrecord
280
     1
102
RTVSPost2010Prop28
280
     0
102
RTVSPost2010PropOp28
 70
     1
102
RTVSPost2010Prop29
280
     1
102
RTVSPost2010PropOp29
 70
     1
102
RTVSPost2010Prop30
280
     1
102
RTVSPost2010PropOp30
 70
     1
102
RTVSPost2010Prop31
280
     0
102
RTVSPost2010PropOp31
 70
     1
102
RTVSPost2010Prop32
280
     0
102
RTVSPost2010PropOp32
 70
     1
102
RTVSPost2010Prop33
280
     0
102
RTVSPost2010PropOp33
 70
     1
102
RTVSPost2010Prop34
280
     0
102
RTVSPost2010PropOp34
 70
     1
102
RTVSPost2010Prop35
280
     0
102
RTVSPost2010PropOp35
 70
     1
102
RTVSPost2010Prop36
280
     0
102
RTVSPost2010PropOp36
 70
     1
102
RTVSPost2010Prop37
 90
       50
102
RTVSPost2010PropOp37
 70
     1
102
RTVSPost2010Prop38
140
0.0
102
RTVSPost2010PropOp38
 70
     1
102
RTVSPost2010Prop39
140
1.0
102
RTVSPost2010PropOp39
 70
     1
102
RTVSPost2010Prop40
 90
        0
102
RTVSPost2010PropOp40
 70
     1
102
RTVSPost2010Prop41ColorIndex
 90
       18
102
RTVSPost2010Prop41ColorRGB
 90
        0
102
RTVSPost2010PropOp41
 70
     1
102
RTVSPost2010Prop42
 90
       50
102
RTVSPost2010PropOp42
 70
     1
102
RTVSPost2010Prop43
 90
        3
102
RTVSPost2010PropOp43
 70
     1
102
RTVSPost2010Prop44ColorIndex
 90
        5
102
RTVSPost2010Prop44ColorRGB
 90
      255
102
RTVSPost2010PropOp44
 70
     1
102
RTVSPost2010Prop45
280
     0
102
RTVSPost2010PropOp45
 70
     1
102
RTVSPost2010Prop46
 90
       50
102
RTVSPost2010PropOp46
 70
     1
102
RTVSPost2010Prop47
 90
       50
102
RTVSPost2010PropOp47
 70
     1
102
RTVSPost2010Prop48
 90
       50
102
RTVSPost2010PropOp48
 70
     1
102
RTVSPost2010Prop49
280
     0
102
RTVSPost2010PropOp49
 70
     1
102
RTVSPost2010Prop50
 90
       50
102
RTVSPost2010PropOp50
 70
     1
102
RTVSPost2010Prop51ColorIndex
 90
      256
102
RTVSPost2010Prop51ColorRGB
 90
-16777216
102
RTVSPost2010PropOp51
 70
     0
102
RTVSPost2010Prop52
140
1.0
102
RTVSPost2010PropOp52
 70
     0
102
RTVSPost2010Prop53
 90
        2
102
RTVSPost2010PropOp53
 70
     1
102
RTVSPost2010Prop54
  1
strokes_ogs.tif
102
RTVSPost2010PropOp54
 70
     1
102
RTVSPost2010Prop55
280
     0
102
RTVSPost2010PropOp55
 70
     1
102
RTVSPost2010Prop56
140
1.0
102
RTVSPost2010PropOp56
 70
     1
102
RTVSPost2010Prop57
140
1.0
102
RTVSPost2010PropOp57
 70
     1
102
RTVSPropertyOp0
 70
     1
102
RTVSPropertyOp1
 70
     1
102
RTVSPropertyOp2
 70
     1
102
RTVSPropertyOp3
 70
     1
102
RTVSPropertyOp4
 70
     1
102
RTVSPropertyOp5
 70
     1
102
RTVSPropertyOp6
 70
     1
102
RTVSPropertyOp7
 70
     1
102
RTVSPropertyOp8
 70
     1
102
RTVSPropertyOp9
 70
     1
102
RTVSPropertyOp10
 70
     1
102
RTVSPropertyOp11
 70
     1
102
RTVSPropertyOp12
 70
     1
102
RTVSPropertyOp13
 70
     1
102
RTVSPropertyOp14
 70
     1
102
RTVSPropertyOp15
 70
     1
102
RTVSPropertyOp16
 70
     1
102
RTVSPropertyOp17
 70
     1
102
RTVSPropertyOp18
 70
     1
102
RTVSPropertyOp19
 70
     1
102
RTVSPropertyOp20
 70
     1
102
RTVSPropertyOp21
 70
     1
102
RTVSPropertyOp22
 70
     1
102
RTVSPropertyOp23
 70
     1
102
RTVSPropertyOp24
 70
     1
102
RTVSPropertyOp25
 70
     1
102
RTVSPropertyOp26
 70
     1
102
RTVSPropertyOp27
 70
     1
102
RTVSPropertyOp28
 70
     1
102
RTVSPropertyOp29
 70
     1
102
RTVSPropertyOp30
 70
     1
102
RTVSPropertyOp31
 70
     1
102
RTVSPropertyOp32
 70
     1
102
RTVSPropertyOp33
 70
     1
102
RTVSPropertyOp34
 70
     1
102
RTVSPropertyOp35
 70
     1
102
RTVSPropertyOp36
 70
     1
102
RTVSPropertyOp37
 70
     1
102
RTVSPropertyOp38
 70
     1
102
RTVSPropertyOp39
 70
     1
102
RTVSPropertyOp40
 70
     1
102
RTVSPropertyOp41
 70
     1
102
RTVSPropertyOp42
 70
     1
102
RTVSPropertyOp43
 70
     1
102
RTVSPropertyOp44
 70
     1
102
RTVSPropertyOp45
 70
     1
102
RTVSPropertyOp46
 70
     1
102
RTVSPropertyOp47
 70
     1
102
RTVSPropertyOp48
 70
     1
102
RTVSPropertyOp49
 70
     1
102
RTVSPropertyOp50
 70
     1
102
RTVSPropertyOp51
 70
     0
102
RTVSPropertyOp52
 70
     0
102
RTVSPropertyOp53
 70
     1
102
RTVSPropertyOp54
 70
     1
102
RTVSPropertyOp55
 70
     1
102
RTVSPropertyOp56
 70
     1
102
RTVSPropertyOp57
 70
     1
102
RTVSPropertyOp58
 70
     1
102
RTVSPropertyOp59
 70
     1
102
RTVSPropertyOp60
 70
     1
102
RTVSPropertyOp61
 70
     1
102
RTVSPropertyOp62
 70
     1
  0
XRECORD
  5
2A0F
102
{ACAD_REACTORS
330
2A0E
102
}
330
2A0E
100
AcDbXrecord
280
     1
102
RTVSPost2010Prop28
280
     0
102
RTVSPost2010PropOp28
 70
     1
102
RTVSPost2010Prop29
280
     1
102
RTVSPost2010PropOp29
 70
     1
102
RTVSPost2010Prop30
280
     1
102
RTVSPost2010PropOp30
 70
     1
102
RTVSPost2010Prop31
280
     0
102
RTVSPost2010PropOp31
 70
     1
102
RTVSPost2010Prop32
280
     0
102
RTVSPost2010PropOp32
 70
     1
102
RTVSPost2010Prop33
280
     0
102
RTVSPost2010PropOp33
 70
     1
102
RTVSPost2010Prop34
280
     0
102
RTVSPost2010PropOp34
 70
     1
102
RTVSPost2010Prop35
280
     0
102
RTVSPost2010PropOp35
 70
     1
102
RTVSPost2010Prop36
280
     0
102
RTVSPost2010PropOp36
 70
     1
102
RTVSPost2010Prop37
 90
       50
102
RTVSPost2010PropOp37
 70
     1
102
RTVSPost2010Prop38
140
0.0
102
RTVSPost2010PropOp38
 70
     1
102
RTVSPost2010Prop39
140
1.0
102
RTVSPost2010PropOp39
 70
     1
102
RTVSPost2010Prop40
 90
        0
102
RTVSPost2010PropOp40
 70
     1
102
RTVSPost2010Prop41ColorIndex
 90
       18
102
RTVSPost2010Prop41ColorRGB
 90
        0
102
RTVSPost2010PropOp41
 70
     1
102
RTVSPost2010Prop42
 90
       50
102
RTVSPost2010PropOp42
 70
     1
102
RTVSPost2010Prop43
 90
        3
102
RTVSPost2010PropOp43
 70
     1
102
RTVSPost2010Prop44ColorIndex
 90
        5
102
RTVSPost2010Prop44ColorRGB
 90
      255
102
RTVSPost2010PropOp44
 70
     1
102
RTVSPost2010Prop45
280
     0
102
RTVSPost2010PropOp45
 70
     1
102
RTVSPost2010Prop46
 90
       50
102
RTVSPost2010PropOp46
 70
     1
102
RTVSPost2010Prop47
 90
       50
102
RTVSPost2010PropOp47
 70
     1
102
RTVSPost2010Prop48
 90
       50
102
RTVSPost2010PropOp48
 70
     1
102
RTVSPost2010Prop49
280
     0
102
RTVSPost2010PropOp49
 70
     1
102
RTVSPost2010Prop50
 90
       50
102
RTVSPost2010PropOp50
 70
     1
102
RTVSPost2010Prop51ColorIndex
 90
      256
102
RTVSPost2010Prop51ColorRGB
 90
-16777216
102
RTVSPost2010PropOp51
 70
     0
102
RTVSPost2010Prop52
140
1.0
102
RTVSPost2010PropOp52
 70
     0
102
RTVSPost2010Prop53
 90
        2
102
RTVSPost2010PropOp53
 70
     1
102
RTVSPost2010Prop54
  1
strokes_ogs.tif
102
RTVSPost2010PropOp54
 70
     1
102
RTVSPost2010Prop55
280
     0
102
RTVSPost2010PropOp55
 70
     1
102
RTVSPost2010Prop56
140
1.0
102
RTVSPost2010PropOp56
 70
     1
102
RTVSPost2010Prop57
140
1.0
102
RTVSPost2010PropOp57
 70
     1
102
RTVSPropertyOp0
 70
     0
102
RTVSPropertyOp1
 70
     0
102
RTVSPropertyOp2
 70
     0
102
RTVSPropertyOp3
 70
     0
102
RTVSPropertyOp4
 70
     0
102
RTVSPropertyOp5
 70
     0
102
RTVSPropertyOp6
 70
     0
102
RTVSPropertyOp7
 70
     0
102
RTVSPropertyOp8
 70
     0
102
RTVSPropertyOp9
 70
     0
102
RTVSPropertyOp10
 70
     0
102
RTVSPropertyOp11
 70
     0
102
RTVSPropertyOp12
 70
     0
102
RTVSPropertyOp13
 70
     0
102
RTVSPropertyOp14
 70
     2
102
RTVSPropertyOp15
 70
     0
102
RTVSPropertyOp16
 70
     0
102
RTVSPropertyOp17
 70
     0
102
RTVSPropertyOp18
 70
     0
102
RTVSPropertyOp19
 70
     0
102
RTVSPropertyOp20
 70
     0
102
RTVSPropertyOp21
 70
     0
102
RTVSPropertyOp22
 70
     0
102
RTVSPropertyOp23
 70
     0
102
RTVSPropertyOp24
 70
     0
102
RTVSPropertyOp25
 70
     0
102
RTVSPropertyOp26
 70
     0
102
RTVSPropertyOp27
 70
     0
102
RTVSPropertyOp28
 70
     1
102
RTVSPropertyOp29
 70
     1
102
RTVSPropertyOp30
 70
     1
102
RTVSPropertyOp31
 70
     1
102
RTVSPropertyOp32
 70
     1
102
RTVSPropertyOp33
 70
     1
102
RTVSPropertyOp34
 70
     1
102
RTVSPropertyOp35
 70
     1
102
RTVSPropertyOp36
 70
     1
102
RTVSPropertyOp37
 70
     1
102
RTVSPropertyOp38
 70
     1
102
RTVSPropertyOp39
 70
     1
102
RTVSPropertyOp40
 70
     1
102
RTVSPropertyOp41
 70
     1
102
RTVSPropertyOp42
 70
     1
102
RTVSPropertyOp43
 70
     1
102
RTVSPropertyOp44
 70
     1
102
RTVSPropertyOp45
 70
     1
102
RTVSPropertyOp46
 70
     1
102
RTVSPropertyOp47
 70
     1
102
RTVSPropertyOp48
 70
     1
102
RTVSPropertyOp49
 70
     1
102
RTVSPropertyOp50
 70
     1
102
RTVSPropertyOp51
 70
     0
102
RTVSPropertyOp52
 70
     0
102
RTVSPropertyOp53
 70
     1
102
RTVSPropertyOp54
 70
     1
102
RTVSPropertyOp55
 70
     1
102
RTVSPropertyOp56
 70
     1
102
RTVSPropertyOp57
 70
     1
102
RTVSPropertyOp58
 70
     1
102
RTVSPropertyOp59
 70
     1
102
RTVSPropertyOp60
 70
     1
102
RTVSPropertyOp61
 70
     1
102
RTVSPropertyOp62
 70
     1
  0
XRECORD
  5
2A07
102
{ACAD_REACTORS
330
2A06
102
}
330
2A06
100
AcDbXrecord
280
     1
102
RTVSPost2010Prop28
280
     0
102
RTVSPost2010PropOp28
 70
     1
102
RTVSPost2010Prop29
280
     1
102
RTVSPost2010PropOp29
 70
     1
102
RTVSPost2010Prop30
280
     1
102
RTVSPost2010PropOp30
 70
     1
102
RTVSPost2010Prop31
280
     0
102
RTVSPost2010PropOp31
 70
     1
102
RTVSPost2010Prop32
280
     0
102
RTVSPost2010PropOp32
 70
     1
102
RTVSPost2010Prop33
280
     0
102
RTVSPost2010PropOp33
 70
     1
102
RTVSPost2010Prop34
280
     0
102
RTVSPost2010PropOp34
 70
     1
102
RTVSPost2010Prop35
280
     0
102
RTVSPost2010PropOp35
 70
     1
102
RTVSPost2010Prop36
280
     0
102
RTVSPost2010PropOp36
 70
     1
102
RTVSPost2010Prop37
 90
       50
102
RTVSPost2010PropOp37
 70
     1
102
RTVSPost2010Prop38
140
0.0
102
RTVSPost2010PropOp38
 70
     1
102
RTVSPost2010Prop39
140
1.0
102
RTVSPost2010PropOp39
 70
     1
102
RTVSPost2010Prop40
 90
        0
102
RTVSPost2010PropOp40
 70
     1
102
RTVSPost2010Prop41ColorIndex
 90
       18
102
RTVSPost2010Prop41ColorRGB
 90
        0
102
RTVSPost2010PropOp41
 70
     1
102
RTVSPost2010Prop42
 90
       50
102
RTVSPost2010PropOp42
 70
     1
102
RTVSPost2010Prop43
 90
        3
102
RTVSPost2010PropOp43
 70
     1
102
RTVSPost2010Prop44ColorIndex
 90
        5
102
RTVSPost2010Prop44ColorRGB
 90
      255
102
RTVSPost2010PropOp44
 70
     1
102
RTVSPost2010Prop45
280
     0
102
RTVSPost2010PropOp45
 70
     1
102
RTVSPost2010Prop46
 90
       50
102
RTVSPost2010PropOp46
 70
     1
102
RTVSPost2010Prop47
 90
       50
102
RTVSPost2010PropOp47
 70
     1
102
RTVSPost2010Prop48
 90
       50
102
RTVSPost2010PropOp48
 70
     1
102
RTVSPost2010Prop49
280
     0
102
RTVSPost2010PropOp49
 70
     1
102
RTVSPost2010Prop50
 90
       50
102
RTVSPost2010PropOp50
 70
     1
102
RTVSPost2010Prop51ColorIndex
 90
      256
102
RTVSPost2010Prop51ColorRGB
 90
-16777216
102
RTVSPost2010PropOp51
 70
     0
102
RTVSPost2010Prop52
140
1.0
102
RTVSPost2010PropOp52
 70
     0
102
RTVSPost2010Prop53
 90
        2
102
RTVSPost2010PropOp53
 70
     1
102
RTVSPost2010Prop54
  1
strokes_ogs.tif
102
RTVSPost2010PropOp54
 70
     1
102
RTVSPost2010Prop55
280
     0
102
RTVSPost2010PropOp55
 70
     1
102
RTVSPost2010Prop56
140
1.0
102
RTVSPost2010PropOp56
 70
     1
102
RTVSPost2010Prop57
140
1.0
102
RTVSPost2010PropOp57
 70
     1
102
RTVSPropertyOp0
 70
     1
102
RTVSPropertyOp1
 70
     1
102
RTVSPropertyOp2
 70
     1
102
RTVSPropertyOp3
 70
     1
102
RTVSPropertyOp4
 70
     1
102
RTVSPropertyOp5
 70
     1
102
RTVSPropertyOp6
 70
     1
102
RTVSPropertyOp7
 70
     1
102
RTVSPropertyOp8
 70
     1
102
RTVSPropertyOp9
 70
     1
102
RTVSPropertyOp10
 70
     1
102
RTVSPropertyOp11
 70
     1
102
RTVSPropertyOp12
 70
     1
102
RTVSPropertyOp13
 70
     1
102
RTVSPropertyOp14
 70
     1
102
RTVSPropertyOp15
 70
     1
102
RTVSPropertyOp16
 70
     1
102
RTVSPropertyOp17
 70
     1
102
RTVSPropertyOp18
 70
     1
102
RTVSPropertyOp19
 70
     1
102
RTVSPropertyOp20
 70
     1
102
RTVSPropertyOp21
 70
     1
102
RTVSPropertyOp22
 70
     1
102
RTVSPropertyOp23
 70
     1
102
RTVSPropertyOp24
 70
     1
102
RTVSPropertyOp25
 70
     1
102
RTVSPropertyOp26
 70
     1
102
RTVSPropertyOp27
 70
     1
102
RTVSPropertyOp28
 70
     1
102
RTVSPropertyOp29
 70
     1
102
RTVSPropertyOp30
 70
     1
102
RTVSPropertyOp31
 70
     1
102
RTVSPropertyOp32
 70
     1
102
RTVSPropertyOp33
 70
     1
102
RTVSPropertyOp34
 70
     1
102
RTVSPropertyOp35
 70
     1
102
RTVSPropertyOp36
 70
     1
102
RTVSPropertyOp37
 70
     1
102
RTVSPropertyOp38
 70
     1
102
RTVSPropertyOp39
 70
     1
102
RTVSPropertyOp40
 70
     1
102
RTVSPropertyOp41
 70
     1
102
RTVSPropertyOp42
 70
     1
102
RTVSPropertyOp43
 70
     1
102
RTVSPropertyOp44
 70
     1
102
RTVSPropertyOp45
 70
     1
102
RTVSPropertyOp46
 70
     1
102
RTVSPropertyOp47
 70
     1
102
RTVSPropertyOp48
 70
     1
102
RTVSPropertyOp49
 70
     1
102
RTVSPropertyOp50
 70
     1
102
RTVSPropertyOp51
 70
     0
102
RTVSPropertyOp52
 70
     0
102
RTVSPropertyOp53
 70
     1
102
RTVSPropertyOp54
 70
     1
102
RTVSPropertyOp55
 70
     1
102
RTVSPropertyOp56
 70
     1
102
RTVSPropertyOp57
 70
     1
102
RTVSPropertyOp58
 70
     1
102
RTVSPropertyOp59
 70
     1
102
RTVSPropertyOp60
 70
     1
102
RTVSPropertyOp61
 70
     1
102
RTVSPropertyOp62
 70
     1
  0
XRECORD
  5
2A11
102
{ACAD_REACTORS
330
2A10
102
}
330
2A10
100
AcDbXrecord
280
     1
102
RTVSPost2010Prop28
280
     0
102
RTVSPost2010PropOp28
 70
     1
102
RTVSPost2010Prop29
280
     1
102
RTVSPost2010PropOp29
 70
     1
102
RTVSPost2010Prop30
280
     1
102
RTVSPost2010PropOp30
 70
     1
102
RTVSPost2010Prop31
280
     0
102
RTVSPost2010PropOp31
 70
     1
102
RTVSPost2010Prop32
280
     0
102
RTVSPost2010PropOp32
 70
     1
102
RTVSPost2010Prop33
280
     0
102
RTVSPost2010PropOp33
 70
     1
102
RTVSPost2010Prop34
280
     0
102
RTVSPost2010PropOp34
 70
     1
102
RTVSPost2010Prop35
280
     0
102
RTVSPost2010PropOp35
 70
     1
102
RTVSPost2010Prop36
280
     0
102
RTVSPost2010PropOp36
 70
     1
102
RTVSPost2010Prop37
 90
       50
102
RTVSPost2010PropOp37
 70
     1
102
RTVSPost2010Prop38
140
0.0
102
RTVSPost2010PropOp38
 70
     1
102
RTVSPost2010Prop39
140
1.0
102
RTVSPost2010PropOp39
 70
     1
102
RTVSPost2010Prop40
 90
        0
102
RTVSPost2010PropOp40
 70
     1
102
RTVSPost2010Prop41ColorIndex
 90
       18
102
RTVSPost2010Prop41ColorRGB
 90
        0
102
RTVSPost2010PropOp41
 70
     1
102
RTVSPost2010Prop42
 90
       50
102
RTVSPost2010PropOp42
 70
     1
102
RTVSPost2010Prop43
 90
        3
102
RTVSPost2010PropOp43
 70
     1
102
RTVSPost2010Prop44ColorIndex
 90
        5
102
RTVSPost2010Prop44ColorRGB
 90
      255
102
RTVSPost2010PropOp44
 70
     1
102
RTVSPost2010Prop45
280
     0
102
RTVSPost2010PropOp45
 70
     1
102
RTVSPost2010Prop46
 90
       50
102
RTVSPost2010PropOp46
 70
     1
102
RTVSPost2010Prop47
 90
       50
102
RTVSPost2010PropOp47
 70
     1
102
RTVSPost2010Prop48
 90
       50
102
RTVSPost2010PropOp48
 70
     1
102
RTVSPost2010Prop49
280
     0
102
RTVSPost2010PropOp49
 70
     1
102
RTVSPost2010Prop50
 90
       50
102
RTVSPost2010PropOp50
 70
     1
102
RTVSPost2010Prop51ColorIndex
 90
      256
102
RTVSPost2010Prop51ColorRGB
 90
-16777216
102
RTVSPost2010PropOp51
 70
     0
102
RTVSPost2010Prop52
140
1.0
102
RTVSPost2010PropOp52
 70
     0
102
RTVSPost2010Prop53
 90
        2
102
RTVSPost2010PropOp53
 70
     1
102
RTVSPost2010Prop54
  1
strokes_ogs.tif
102
RTVSPost2010PropOp54
 70
     1
102
RTVSPost2010Prop55
280
     0
102
RTVSPost2010PropOp55
 70
     1
102
RTVSPost2010Prop56
140
1.0
102
RTVSPost2010PropOp56
 70
     1
102
RTVSPost2010Prop57
140
1.0
102
RTVSPost2010PropOp57
 70
     1
102
RTVSPropertyOp0
 70
     0
102
RTVSPropertyOp1
 70
     0
102
RTVSPropertyOp2
 70
     0
102
RTVSPropertyOp3
 70
     0
102
RTVSPropertyOp4
 70
     0
102
RTVSPropertyOp5
 70
     0
102
RTVSPropertyOp6
 70
     0
102
RTVSPropertyOp7
 70
     0
102
RTVSPropertyOp8
 70
     0
102
RTVSPropertyOp9
 70
     0
102
RTVSPropertyOp10
 70
     0
102
RTVSPropertyOp11
 70
     0
102
RTVSPropertyOp12
 70
     0
102
RTVSPropertyOp13
 70
     0
102
RTVSPropertyOp14
 70
     2
102
RTVSPropertyOp15
 70
     0
102
RTVSPropertyOp16
 70
     0
102
RTVSPropertyOp17
 70
     0
102
RTVSPropertyOp18
 70
     0
102
RTVSPropertyOp19
 70
     0
102
RTVSPropertyOp20
 70
     0
102
RTVSPropertyOp21
 70
     0
102
RTVSPropertyOp22
 70
     0
102
RTVSPropertyOp23
 70
     0
102
RTVSPropertyOp24
 70
     0
102
RTVSPropertyOp25
 70
     0
102
RTVSPropertyOp26
 70
     0
102
RTVSPropertyOp27
 70
     0
102
RTVSPropertyOp28
 70
     1
102
RTVSPropertyOp29
 70
     1
102
RTVSPropertyOp30
 70
     1
102
RTVSPropertyOp31
 70
     1
102
RTVSPropertyOp32
 70
     1
102
RTVSPropertyOp33
 70
     1
102
RTVSPropertyOp34
 70
     1
102
RTVSPropertyOp35
 70
     1
102
RTVSPropertyOp36
 70
     1
102
RTVSPropertyOp37
 70
     1
102
RTVSPropertyOp38
 70
     1
102
RTVSPropertyOp39
 70
     1
102
RTVSPropertyOp40
 70
     1
102
RTVSPropertyOp41
 70
     1
102
RTVSPropertyOp42
 70
     1
102
RTVSPropertyOp43
 70
     1
102
RTVSPropertyOp44
 70
     1
102
RTVSPropertyOp45
 70
     1
102
RTVSPropertyOp46
 70
     1
102
RTVSPropertyOp47
 70
     1
102
RTVSPropertyOp48
 70
     1
102
RTVSPropertyOp49
 70
     1
102
RTVSPropertyOp50
 70
     1
102
RTVSPropertyOp51
 70
     0
102
RTVSPropertyOp52
 70
     0
102
RTVSPropertyOp53
 70
     1
102
RTVSPropertyOp54
 70
     1
102
RTVSPropertyOp55
 70
     1
102
RTVSPropertyOp56
 70
     1
102
RTVSPropertyOp57
 70
     1
102
RTVSPropertyOp58
 70
     1
102
RTVSPropertyOp59
 70
     1
102
RTVSPropertyOp60
 70
     1
102
RTVSPropertyOp61
 70
     1
102
RTVSPropertyOp62
 70
     1
  0
XRECORD
  5
29FF
102
{ACAD_REACTORS
330
29FE
102
}
330
29FE
100
AcDbXrecord
280
     1
102
RTVSPost2010Prop28
280
     0
102
RTVSPost2010PropOp28
 70
     1
102
RTVSPost2010Prop29
280
     1
102
RTVSPost2010PropOp29
 70
     1
102
RTVSPost2010Prop30
280
     1
102
RTVSPost2010PropOp30
 70
     1
102
RTVSPost2010Prop31
280
     0
102
RTVSPost2010PropOp31
 70
     1
102
RTVSPost2010Prop32
280
     0
102
RTVSPost2010PropOp32
 70
     1
102
RTVSPost2010Prop33
280
     0
102
RTVSPost2010PropOp33
 70
     1
102
RTVSPost2010Prop34
280
     0
102
RTVSPost2010PropOp34
 70
     1
102
RTVSPost2010Prop35
280
     0
102
RTVSPost2010PropOp35
 70
     1
102
RTVSPost2010Prop36
280
     0
102
RTVSPost2010PropOp36
 70
     1
102
RTVSPost2010Prop37
 90
       50
102
RTVSPost2010PropOp37
 70
     1
102
RTVSPost2010Prop38
140
0.0
102
RTVSPost2010PropOp38
 70
     1
102
RTVSPost2010Prop39
140
1.0
102
RTVSPost2010PropOp39
 70
     1
102
RTVSPost2010Prop40
 90
        0
102
RTVSPost2010PropOp40
 70
     1
102
RTVSPost2010Prop41ColorIndex
 90
       18
102
RTVSPost2010Prop41ColorRGB
 90
        0
102
RTVSPost2010PropOp41
 70
     1
102
RTVSPost2010Prop42
 90
       50
102
RTVSPost2010PropOp42
 70
     1
102
RTVSPost2010Prop43
 90
        3
102
RTVSPost2010PropOp43
 70
     1
102
RTVSPost2010Prop44ColorIndex
 90
        5
102
RTVSPost2010Prop44ColorRGB
 90
      255
102
RTVSPost2010PropOp44
 70
     1
102
RTVSPost2010Prop45
280
     0
102
RTVSPost2010PropOp45
 70
     1
102
RTVSPost2010Prop46
 90
       50
102
RTVSPost2010PropOp46
 70
     1
102
RTVSPost2010Prop47
 90
       50
102
RTVSPost2010PropOp47
 70
     1
102
RTVSPost2010Prop48
 90
       50
102
RTVSPost2010PropOp48
 70
     1
102
RTVSPost2010Prop49
280
     0
102
RTVSPost2010PropOp49
 70
     1
102
RTVSPost2010Prop50
 90
       50
102
RTVSPost2010PropOp50
 70
     1
102
RTVSPost2010Prop51ColorIndex
 90
      256
102
RTVSPost2010Prop51ColorRGB
 90
-16777216
102
RTVSPost2010PropOp51
 70
     0
102
RTVSPost2010Prop52
140
1.0
102
RTVSPost2010PropOp52
 70
     0
102
RTVSPost2010Prop53
 90
        2
102
RTVSPost2010PropOp53
 70
     1
102
RTVSPost2010Prop54
  1
strokes_ogs.tif
102
RTVSPost2010PropOp54
 70
     1
102
RTVSPost2010Prop55
280
     0
102
RTVSPost2010PropOp55
 70
     1
102
RTVSPost2010Prop56
140
1.0
102
RTVSPost2010PropOp56
 70
     1
102
RTVSPost2010Prop57
140
1.0
102
RTVSPost2010PropOp57
 70
     1
102
RTVSPropertyOp0
 70
     1
102
RTVSPropertyOp1
 70
     1
102
RTVSPropertyOp2
 70
     1
102
RTVSPropertyOp3
 70
     1
102
RTVSPropertyOp4
 70
     1
102
RTVSPropertyOp5
 70
     1
102
RTVSPropertyOp6
 70
     1
102
RTVSPropertyOp7
 70
     1
102
RTVSPropertyOp8
 70
     1
102
RTVSPropertyOp9
 70
     1
102
RTVSPropertyOp10
 70
     1
102
RTVSPropertyOp11
 70
     1
102
RTVSPropertyOp12
 70
     1
102
RTVSPropertyOp13
 70
     1
102
RTVSPropertyOp14
 70
     1
102
RTVSPropertyOp15
 70
     1
102
RTVSPropertyOp16
 70
     1
102
RTVSPropertyOp17
 70
     1
102
RTVSPropertyOp18
 70
     1
102
RTVSPropertyOp19
 70
     1
102
RTVSPropertyOp20
 70
     1
102
RTVSPropertyOp21
 70
     1
102
RTVSPropertyOp22
 70
     1
102
RTVSPropertyOp23
 70
     1
102
RTVSPropertyOp24
 70
     1
102
RTVSPropertyOp25
 70
     1
102
RTVSPropertyOp26
 70
     1
102
RTVSPropertyOp27
 70
     1
102
RTVSPropertyOp28
 70
     1
102
RTVSPropertyOp29
 70
     1
102
RTVSPropertyOp30
 70
     1
102
RTVSPropertyOp31
 70
     1
102
RTVSPropertyOp32
 70
     1
102
RTVSPropertyOp33
 70
     1
102
RTVSPropertyOp34
 70
     1
102
RTVSPropertyOp35
 70
     1
102
RTVSPropertyOp36
 70
     1
102
RTVSPropertyOp37
 70
     1
102
RTVSPropertyOp38
 70
     1
102
RTVSPropertyOp39
 70
     1
102
RTVSPropertyOp40
 70
     1
102
RTVSPropertyOp41
 70
     1
102
RTVSPropertyOp42
 70
     1
102
RTVSPropertyOp43
 70
     1
102
RTVSPropertyOp44
 70
     1
102
RTVSPropertyOp45
 70
     1
102
RTVSPropertyOp46
 70
     1
102
RTVSPropertyOp47
 70
     1
102
RTVSPropertyOp48
 70
     1
102
RTVSPropertyOp49
 70
     1
102
RTVSPropertyOp50
 70
     1
102
RTVSPropertyOp51
 70
     0
102
RTVSPropertyOp52
 70
     0
102
RTVSPropertyOp53
 70
     1
102
RTVSPropertyOp54
 70
     1
102
RTVSPropertyOp55
 70
     1
102
RTVSPropertyOp56
 70
     1
102
RTVSPropertyOp57
 70
     1
102
RTVSPropertyOp58
 70
     1
102
RTVSPropertyOp59
 70
     1
102
RTVSPropertyOp60
 70
     1
102
RTVSPropertyOp61
 70
     1
102
RTVSPropertyOp62
 70
     1
  0
XRECORD
  5
2A1D
102
{ACAD_REACTORS
330
2A1C
102
}
330
2A1C
100
AcDbXrecord
280
     1
102
RTVSPost2010Prop28
280
     0
102
RTVSPost2010PropOp28
 70
     1
102
RTVSPost2010Prop29
280
     1
102
RTVSPost2010PropOp29
 70
     1
102
RTVSPost2010Prop30
280
     1
102
RTVSPost2010PropOp30
 70
     1
102
RTVSPost2010Prop31
280
     0
102
RTVSPost2010PropOp31
 70
     1
102
RTVSPost2010Prop32
280
     0
102
RTVSPost2010PropOp32
 70
     1
102
RTVSPost2010Prop33
280
     0
102
RTVSPost2010PropOp33
 70
     1
102
RTVSPost2010Prop34
280
     0
102
RTVSPost2010PropOp34
 70
     1
102
RTVSPost2010Prop35
280
     0
102
RTVSPost2010PropOp35
 70
     1
102
RTVSPost2010Prop36
280
     0
102
RTVSPost2010PropOp36
 70
     1
102
RTVSPost2010Prop37
 90
       50
102
RTVSPost2010PropOp37
 70
     1
102
RTVSPost2010Prop38
140
0.0
102
RTVSPost2010PropOp38
 70
     1
102
RTVSPost2010Prop39
140
1.0
102
RTVSPost2010PropOp39
 70
     1
102
RTVSPost2010Prop40
 90
        0
102
RTVSPost2010PropOp40
 70
     1
102
RTVSPost2010Prop41ColorIndex
 90
       18
102
RTVSPost2010Prop41ColorRGB
 90
        0
102
RTVSPost2010PropOp41
 70
     1
102
RTVSPost2010Prop42
 90
       50
102
RTVSPost2010PropOp42
 70
     1
102
RTVSPost2010Prop43
 90
        3
102
RTVSPost2010PropOp43
 70
     1
102
RTVSPost2010Prop44ColorIndex
 90
        5
102
RTVSPost2010Prop44ColorRGB
 90
      255
102
RTVSPost2010PropOp44
 70
     1
102
RTVSPost2010Prop45
280
     0
102
RTVSPost2010PropOp45
 70
     1
102
RTVSPost2010Prop46
 90
       50
102
RTVSPost2010PropOp46
 70
     1
102
RTVSPost2010Prop47
 90
       50
102
RTVSPost2010PropOp47
 70
     1
102
RTVSPost2010Prop48
 90
       50
102
RTVSPost2010PropOp48
 70
     1
102
RTVSPost2010Prop49
280
     0
102
RTVSPost2010PropOp49
 70
     1
102
RTVSPost2010Prop50
 90
       50
102
RTVSPost2010PropOp50
 70
     1
102
RTVSPost2010Prop51ColorIndex
 90
      256
102
RTVSPost2010Prop51ColorRGB
 90
-16777216
102
RTVSPost2010PropOp51
 70
     0
102
RTVSPost2010Prop52
140
1.0
102
RTVSPost2010PropOp52
 70
     0
102
RTVSPost2010Prop53
 90
        2
102
RTVSPost2010PropOp53
 70
     1
102
RTVSPost2010Prop54
  1
strokes_ogs.tif
102
RTVSPost2010PropOp54
 70
     1
102
RTVSPost2010Prop55
280
     0
102
RTVSPost2010PropOp55
 70
     1
102
RTVSPost2010Prop56
140
1.0
102
RTVSPost2010PropOp56
 70
     1
102
RTVSPost2010Prop57
140
1.0
102
RTVSPost2010PropOp57
 70
     1
102
RTVSPropertyOp0
 70
     1
102
RTVSPropertyOp1
 70
     1
102
RTVSPropertyOp2
 70
     1
102
RTVSPropertyOp3
 70
     1
102
RTVSPropertyOp4
 70
     1
102
RTVSPropertyOp5
 70
     1
102
RTVSPropertyOp6
 70
     1
102
RTVSPropertyOp7
 70
     1
102
RTVSPropertyOp8
 70
     1
102
RTVSPropertyOp9
 70
     1
102
RTVSPropertyOp10
 70
     1
102
RTVSPropertyOp11
 70
     1
102
RTVSPropertyOp12
 70
     1
102
RTVSPropertyOp13
 70
     1
102
RTVSPropertyOp14
 70
     1
102
RTVSPropertyOp15
 70
     1
102
RTVSPropertyOp16
 70
     1
102
RTVSPropertyOp17
 70
     1
102
RTVSPropertyOp18
 70
     1
102
RTVSPropertyOp19
 70
     1
102
RTVSPropertyOp20
 70
     1
102
RTVSPropertyOp21
 70
     1
102
RTVSPropertyOp22
 70
     1
102
RTVSPropertyOp23
 70
     1
102
RTVSPropertyOp24
 70
     1
102
RTVSPropertyOp25
 70
     1
102
RTVSPropertyOp26
 70
     1
102
RTVSPropertyOp27
 70
     1
102
RTVSPropertyOp28
 70
     1
102
RTVSPropertyOp29
 70
     1
102
RTVSPropertyOp30
 70
     1
102
RTVSPropertyOp31
 70
     1
102
RTVSPropertyOp32
 70
     1
102
RTVSPropertyOp33
 70
     1
102
RTVSPropertyOp34
 70
     1
102
RTVSPropertyOp35
 70
     1
102
RTVSPropertyOp36
 70
     1
102
RTVSPropertyOp37
 70
     1
102
RTVSPropertyOp38
 70
     1
102
RTVSPropertyOp39
 70
     1
102
RTVSPropertyOp40
 70
     1
102
RTVSPropertyOp41
 70
     1
102
RTVSPropertyOp42
 70
     1
102
RTVSPropertyOp43
 70
     1
102
RTVSPropertyOp44
 70
     1
102
RTVSPropertyOp45
 70
     1
102
RTVSPropertyOp46
 70
     1
102
RTVSPropertyOp47
 70
     1
102
RTVSPropertyOp48
 70
     1
102
RTVSPropertyOp49
 70
     1
102
RTVSPropertyOp50
 70
     1
102
RTVSPropertyOp51
 70
     0
102
RTVSPropertyOp52
 70
     0
102
RTVSPropertyOp53
 70
     1
102
RTVSPropertyOp54
 70
     1
102
RTVSPropertyOp55
 70
     1
102
RTVSPropertyOp56
 70
     1
102
RTVSPropertyOp57
 70
     1
102
RTVSPropertyOp58
 70
     1
102
RTVSPropertyOp59
 70
     1
102
RTVSPropertyOp60
 70
     1
102
RTVSPropertyOp61
 70
     1
102
RTVSPropertyOp62
 70
     1
  0
XRECORD
  5
2A1B
102
{ACAD_REACTORS
330
2A1A
102
}
330
2A1A
100
AcDbXrecord
280
     1
102
RTVSPost2010Prop28
280
     0
102
RTVSPost2010PropOp28
 70
     1
102
RTVSPost2010Prop29
280
     1
102
RTVSPost2010PropOp29
 70
     1
102
RTVSPost2010Prop30
280
     1
102
RTVSPost2010PropOp30
 70
     1
102
RTVSPost2010Prop31
280
     0
102
RTVSPost2010PropOp31
 70
     1
102
RTVSPost2010Prop32
280
     0
102
RTVSPost2010PropOp32
 70
     1
102
RTVSPost2010Prop33
280
     0
102
RTVSPost2010PropOp33
 70
     1
102
RTVSPost2010Prop34
280
     0
102
RTVSPost2010PropOp34
 70
     1
102
RTVSPost2010Prop35
280
     0
102
RTVSPost2010PropOp35
 70
     1
102
RTVSPost2010Prop36
280
     0
102
RTVSPost2010PropOp36
 70
     1
102
RTVSPost2010Prop37
 90
       50
102
RTVSPost2010PropOp37
 70
     1
102
RTVSPost2010Prop38
140
0.0
102
RTVSPost2010PropOp38
 70
     1
102
RTVSPost2010Prop39
140
1.0
102
RTVSPost2010PropOp39
 70
     1
102
RTVSPost2010Prop40
 90
        0
102
RTVSPost2010PropOp40
 70
     1
102
RTVSPost2010Prop41ColorIndex
 90
       18
102
RTVSPost2010Prop41ColorRGB
 90
        0
102
RTVSPost2010PropOp41
 70
     1
102
RTVSPost2010Prop42
 90
       50
102
RTVSPost2010PropOp42
 70
     1
102
RTVSPost2010Prop43
 90
        3
102
RTVSPost2010PropOp43
 70
     1
102
RTVSPost2010Prop44ColorIndex
 90
        5
102
RTVSPost2010Prop44ColorRGB
 90
      255
102
RTVSPost2010PropOp44
 70
     1
102
RTVSPost2010Prop45
280
     0
102
RTVSPost2010PropOp45
 70
     1
102
RTVSPost2010Prop46
 90
       50
102
RTVSPost2010PropOp46
 70
     1
102
RTVSPost2010Prop47
 90
       50
102
RTVSPost2010PropOp47
 70
     1
102
RTVSPost2010Prop48
 90
       50
102
RTVSPost2010PropOp48
 70
     1
102
RTVSPost2010Prop49
280
     0
102
RTVSPost2010PropOp49
 70
     1
102
RTVSPost2010Prop50
 90
       50
102
RTVSPost2010PropOp50
 70
     1
102
RTVSPost2010Prop51ColorIndex
 90
      256
102
RTVSPost2010Prop51ColorRGB
 90
-16777216
102
RTVSPost2010PropOp51
 70
     0
102
RTVSPost2010Prop52
140
1.0
102
RTVSPost2010PropOp52
 70
     0
102
RTVSPost2010Prop53
 90
        2
102
RTVSPost2010PropOp53
 70
     1
102
RTVSPost2010Prop54
  1
strokes_ogs.tif
102
RTVSPost2010PropOp54
 70
     1
102
RTVSPost2010Prop55
280
     0
102
RTVSPost2010PropOp55
 70
     1
102
RTVSPost2010Prop56
140
1.0
102
RTVSPost2010PropOp56
 70
     1
102
RTVSPost2010Prop57
140
1.0
102
RTVSPost2010PropOp57
 70
     1
102
RTVSPropertyOp0
 70
     1
102
RTVSPropertyOp1
 70
     1
102
RTVSPropertyOp2
 70
     1
102
RTVSPropertyOp3
 70
     1
102
RTVSPropertyOp4
 70
     1
102
RTVSPropertyOp5
 70
     1
102
RTVSPropertyOp6
 70
     1
102
RTVSPropertyOp7
 70
     1
102
RTVSPropertyOp8
 70
     1
102
RTVSPropertyOp9
 70
     1
102
RTVSPropertyOp10
 70
     1
102
RTVSPropertyOp11
 70
     1
102
RTVSPropertyOp12
 70
     1
102
RTVSPropertyOp13
 70
     1
102
RTVSPropertyOp14
 70
     1
102
RTVSPropertyOp15
 70
     1
102
RTVSPropertyOp16
 70
     1
102
RTVSPropertyOp17
 70
     1
102
RTVSPropertyOp18
 70
     1
102
RTVSPropertyOp19
 70
     1
102
RTVSPropertyOp20
 70
     1
102
RTVSPropertyOp21
 70
     1
102
RTVSPropertyOp22
 70
     1
102
RTVSPropertyOp23
 70
     1
102
RTVSPropertyOp24
 70
     1
102
RTVSPropertyOp25
 70
     1
102
RTVSPropertyOp26
 70
     1
102
RTVSPropertyOp27
 70
     1
102
RTVSPropertyOp28
 70
     1
102
RTVSPropertyOp29
 70
     1
102
RTVSPropertyOp30
 70
     1
102
RTVSPropertyOp31
 70
     1
102
RTVSPropertyOp32
 70
     1
102
RTVSPropertyOp33
 70
     1
102
RTVSPropertyOp34
 70
     1
102
RTVSPropertyOp35
 70
     1
102
RTVSPropertyOp36
 70
     1
102
RTVSPropertyOp37
 70
     1
102
RTVSPropertyOp38
 70
     1
102
RTVSPropertyOp39
 70
     1
102
RTVSPropertyOp40
 70
     1
102
RTVSPropertyOp41
 70
     1
102
RTVSPropertyOp42
 70
     1
102
RTVSPropertyOp43
 70
     1
102
RTVSPropertyOp44
 70
     1
102
RTVSPropertyOp45
 70
     1
102
RTVSPropertyOp46
 70
     1
102
RTVSPropertyOp47
 70
     1
102
RTVSPropertyOp48
 70
     1
102
RTVSPropertyOp49
 70
     1
102
RTVSPropertyOp50
 70
     1
102
RTVSPropertyOp51
 70
     0
102
RTVSPropertyOp52
 70
     0
102
RTVSPropertyOp53
 70
     1
102
RTVSPropertyOp54
 70
     1
102
RTVSPropertyOp55
 70
     1
102
RTVSPropertyOp56
 70
     1
102
RTVSPropertyOp57
 70
     1
102
RTVSPropertyOp58
 70
     1
102
RTVSPropertyOp59
 70
     1
102
RTVSPropertyOp60
 70
     1
102
RTVSPropertyOp61
 70
     1
102
RTVSPropertyOp62
 70
     1
  0
XRECORD
  5
2A15
102
{ACAD_REACTORS
330
2A14
102
}
330
2A14
100
AcDbXrecord
280
     1
102
RTVSPost2010Prop28
280
     0
102
RTVSPost2010PropOp28
 70
     1
102
RTVSPost2010Prop29
280
     1
102
RTVSPost2010PropOp29
 70
     1
102
RTVSPost2010Prop30
280
     1
102
RTVSPost2010PropOp30
 70
     1
102
RTVSPost2010Prop31
280
     0
102
RTVSPost2010PropOp31
 70
     1
102
RTVSPost2010Prop32
280
     0
102
RTVSPost2010PropOp32
 70
     1
102
RTVSPost2010Prop33
280
     0
102
RTVSPost2010PropOp33
 70
     1
102
RTVSPost2010Prop34
280
     0
102
RTVSPost2010PropOp34
 70
     1
102
RTVSPost2010Prop35
280
     0
102
RTVSPost2010PropOp35
 70
     1
102
RTVSPost2010Prop36
280
     0
102
RTVSPost2010PropOp36
 70
     1
102
RTVSPost2010Prop37
 90
       50
102
RTVSPost2010PropOp37
 70
     1
102
RTVSPost2010Prop38
140
0.0
102
RTVSPost2010PropOp38
 70
     1
102
RTVSPost2010Prop39
140
1.0
102
RTVSPost2010PropOp39
 70
     1
102
RTVSPost2010Prop40
 90
        0
102
RTVSPost2010PropOp40
 70
     1
102
RTVSPost2010Prop41ColorIndex
 90
       18
102
RTVSPost2010Prop41ColorRGB
 90
        0
102
RTVSPost2010PropOp41
 70
     1
102
RTVSPost2010Prop42
 90
       50
102
RTVSPost2010PropOp42
 70
     1
102
RTVSPost2010Prop43
 90
        3
102
RTVSPost2010PropOp43
 70
     1
102
RTVSPost2010Prop44ColorIndex
 90
        5
102
RTVSPost2010Prop44ColorRGB
 90
      255
102
RTVSPost2010PropOp44
 70
     1
102
RTVSPost2010Prop45
280
     0
102
RTVSPost2010PropOp45
 70
     1
102
RTVSPost2010Prop46
 90
       50
102
RTVSPost2010PropOp46
 70
     1
102
RTVSPost2010Prop47
 90
       50
102
RTVSPost2010PropOp47
 70
     1
102
RTVSPost2010Prop48
 90
       50
102
RTVSPost2010PropOp48
 70
     1
102
RTVSPost2010Prop49
280
     0
102
RTVSPost2010PropOp49
 70
     1
102
RTVSPost2010Prop50
 90
       50
102
RTVSPost2010PropOp50
 70
     1
102
RTVSPost2010Prop51ColorIndex
 90
      256
102
RTVSPost2010Prop51ColorRGB
 90
-16777216
102
RTVSPost2010PropOp51
 70
     0
102
RTVSPost2010Prop52
140
1.0
102
RTVSPost2010PropOp52
 70
     0
102
RTVSPost2010Prop53
 90
        2
102
RTVSPost2010PropOp53
 70
     1
102
RTVSPost2010Prop54
  1
strokes_ogs.tif
102
RTVSPost2010PropOp54
 70
     1
102
RTVSPost2010Prop55
280
     0
102
RTVSPost2010PropOp55
 70
     1
102
RTVSPost2010Prop56
140
1.0
102
RTVSPost2010PropOp56
 70
     1
102
RTVSPost2010Prop57
140
1.0
102
RTVSPost2010PropOp57
 70
     1
102
RTVSPropertyOp0
 70
     1
102
RTVSPropertyOp1
 70
     1
102
RTVSPropertyOp2
 70
     1
102
RTVSPropertyOp3
 70
     1
102
RTVSPropertyOp4
 70
     1
102
RTVSPropertyOp5
 70
     1
102
RTVSPropertyOp6
 70
     1
102
RTVSPropertyOp7
 70
     1
102
RTVSPropertyOp8
 70
     1
102
RTVSPropertyOp9
 70
     1
102
RTVSPropertyOp10
 70
     1
102
RTVSPropertyOp11
 70
     1
102
RTVSPropertyOp12
 70
     1
102
RTVSPropertyOp13
 70
     1
102
RTVSPropertyOp14
 70
     1
102
RTVSPropertyOp15
 70
     1
102
RTVSPropertyOp16
 70
     1
102
RTVSPropertyOp17
 70
     1
102
RTVSPropertyOp18
 70
     1
102
RTVSPropertyOp19
 70
     1
102
RTVSPropertyOp20
 70
     1
102
RTVSPropertyOp21
 70
     1
102
RTVSPropertyOp22
 70
     1
102
RTVSPropertyOp23
 70
     1
102
RTVSPropertyOp24
 70
     1
102
RTVSPropertyOp25
 70
     1
102
RTVSPropertyOp26
 70
     1
102
RTVSPropertyOp27
 70
     1
102
RTVSPropertyOp28
 70
     1
102
RTVSPropertyOp29
 70
     1
102
RTVSPropertyOp30
 70
     1
102
RTVSPropertyOp31
 70
     1
102
RTVSPropertyOp32
 70
     1
102
RTVSPropertyOp33
 70
     1
102
RTVSPropertyOp34
 70
     1
102
RTVSPropertyOp35
 70
     1
102
RTVSPropertyOp36
 70
     1
102
RTVSPropertyOp37
 70
     1
102
RTVSPropertyOp38
 70
     1
102
RTVSPropertyOp39
 70
     1
102
RTVSPropertyOp40
 70
     1
102
RTVSPropertyOp41
 70
     1
102
RTVSPropertyOp42
 70
     1
102
RTVSPropertyOp43
 70
     1
102
RTVSPropertyOp44
 70
     1
102
RTVSPropertyOp45
 70
     1
102
RTVSPropertyOp46
 70
     1
102
RTVSPropertyOp47
 70
     1
102
RTVSPropertyOp48
 70
     1
102
RTVSPropertyOp49
 70
     1
102
RTVSPropertyOp50
 70
     1
102
RTVSPropertyOp51
 70
     0
102
RTVSPropertyOp52
 70
     0
102
RTVSPropertyOp53
 70
     1
102
RTVSPropertyOp54
 70
     1
102
RTVSPropertyOp55
 70
     1
102
RTVSPropertyOp56
 70
     1
102
RTVSPropertyOp57
 70
     1
102
RTVSPropertyOp58
 70
     1
102
RTVSPropertyOp59
 70
     1
102
RTVSPropertyOp60
 70
     1
102
RTVSPropertyOp61
 70
     1
102
RTVSPropertyOp62
 70
     1
  0
XRECORD
  5
2A17
102
{ACAD_REACTORS
330
2A16
102
}
330
2A16
100
AcDbXrecord
280
     1
102
RTVSPost2010Prop28
280
     0
102
RTVSPost2010PropOp28
 70
     1
102
RTVSPost2010Prop29
280
     1
102
RTVSPost2010PropOp29
 70
     1
102
RTVSPost2010Prop30
280
     1
102
RTVSPost2010PropOp30
 70
     1
102
RTVSPost2010Prop31
280
     0
102
RTVSPost2010PropOp31
 70
     1
102
RTVSPost2010Prop32
280
     0
102
RTVSPost2010PropOp32
 70
     1
102
RTVSPost2010Prop33
280
     0
102
RTVSPost2010PropOp33
 70
     1
102
RTVSPost2010Prop34
280
     0
102
RTVSPost2010PropOp34
 70
     1
102
RTVSPost2010Prop35
280
     0
102
RTVSPost2010PropOp35
 70
     1
102
RTVSPost2010Prop36
280
     0
102
RTVSPost2010PropOp36
 70
     1
102
RTVSPost2010Prop37
 90
       50
102
RTVSPost2010PropOp37
 70
     1
102
RTVSPost2010Prop38
140
0.0
102
RTVSPost2010PropOp38
 70
     1
102
RTVSPost2010Prop39
140
1.0
102
RTVSPost2010PropOp39
 70
     1
102
RTVSPost2010Prop40
 90
        0
102
RTVSPost2010PropOp40
 70
     1
102
RTVSPost2010Prop41ColorIndex
 90
       18
102
RTVSPost2010Prop41ColorRGB
 90
        0
102
RTVSPost2010PropOp41
 70
     1
102
RTVSPost2010Prop42
 90
       50
102
RTVSPost2010PropOp42
 70
     1
102
RTVSPost2010Prop43
 90
        3
102
RTVSPost2010PropOp43
 70
     1
102
RTVSPost2010Prop44ColorIndex
 90
        5
102
RTVSPost2010Prop44ColorRGB
 90
      255
102
RTVSPost2010PropOp44
 70
     1
102
RTVSPost2010Prop45
280
     0
102
RTVSPost2010PropOp45
 70
     1
102
RTVSPost2010Prop46
 90
       50
102
RTVSPost2010PropOp46
 70
     1
102
RTVSPost2010Prop47
 90
       50
102
RTVSPost2010PropOp47
 70
     1
102
RTVSPost2010Prop48
 90
       50
102
RTVSPost2010PropOp48
 70
     1
102
RTVSPost2010Prop49
280
     0
102
RTVSPost2010PropOp49
 70
     1
102
RTVSPost2010Prop50
 90
       50
102
RTVSPost2010PropOp50
 70
     1
102
RTVSPost2010Prop51ColorIndex
 90
      256
102
RTVSPost2010Prop51ColorRGB
 90
-16777216
102
RTVSPost2010PropOp51
 70
     0
102
RTVSPost2010Prop52
140
1.0
102
RTVSPost2010PropOp52
 70
     0
102
RTVSPost2010Prop53
 90
        2
102
RTVSPost2010PropOp53
 70
     1
102
RTVSPost2010Prop54
  1
strokes_ogs.tif
102
RTVSPost2010PropOp54
 70
     1
102
RTVSPost2010Prop55
280
     0
102
RTVSPost2010PropOp55
 70
     1
102
RTVSPost2010Prop56
140
1.0
102
RTVSPost2010PropOp56
 70
     1
102
RTVSPost2010Prop57
140
1.0
102
RTVSPost2010PropOp57
 70
     1
102
RTVSPropertyOp0
 70
     1
102
RTVSPropertyOp1
 70
     1
102
RTVSPropertyOp2
 70
     1
102
RTVSPropertyOp3
 70
     1
102
RTVSPropertyOp4
 70
     1
102
RTVSPropertyOp5
 70
     1
102
RTVSPropertyOp6
 70
     1
102
RTVSPropertyOp7
 70
     1
102
RTVSPropertyOp8
 70
     1
102
RTVSPropertyOp9
 70
     1
102
RTVSPropertyOp10
 70
     1
102
RTVSPropertyOp11
 70
     1
102
RTVSPropertyOp12
 70
     1
102
RTVSPropertyOp13
 70
     1
102
RTVSPropertyOp14
 70
     1
102
RTVSPropertyOp15
 70
     1
102
RTVSPropertyOp16
 70
     1
102
RTVSPropertyOp17
 70
     1
102
RTVSPropertyOp18
 70
     1
102
RTVSPropertyOp19
 70
     1
102
RTVSPropertyOp20
 70
     1
102
RTVSPropertyOp21
 70
     1
102
RTVSPropertyOp22
 70
     1
102
RTVSPropertyOp23
 70
     1
102
RTVSPropertyOp24
 70
     1
102
RTVSPropertyOp25
 70
     1
102
RTVSPropertyOp26
 70
     1
102
RTVSPropertyOp27
 70
     1
102
RTVSPropertyOp28
 70
     1
102
RTVSPropertyOp29
 70
     1
102
RTVSPropertyOp30
 70
     1
102
RTVSPropertyOp31
 70
     1
102
RTVSPropertyOp32
 70
     1
102
RTVSPropertyOp33
 70
     1
102
RTVSPropertyOp34
 70
     1
102
RTVSPropertyOp35
 70
     1
102
RTVSPropertyOp36
 70
     1
102
RTVSPropertyOp37
 70
     1
102
RTVSPropertyOp38
 70
     1
102
RTVSPropertyOp39
 70
     1
102
RTVSPropertyOp40
 70
     1
102
RTVSPropertyOp41
 70
     1
102
RTVSPropertyOp42
 70
     1
102
RTVSPropertyOp43
 70
     1
102
RTVSPropertyOp44
 70
     1
102
RTVSPropertyOp45
 70
     1
102
RTVSPropertyOp46
 70
     1
102
RTVSPropertyOp47
 70
     1
102
RTVSPropertyOp48
 70
     1
102
RTVSPropertyOp49
 70
     1
102
RTVSPropertyOp50
 70
     1
102
RTVSPropertyOp51
 70
     0
102
RTVSPropertyOp52
 70
     0
102
RTVSPropertyOp53
 70
     1
102
RTVSPropertyOp54
 70
     1
102
RTVSPropertyOp55
 70
     1
102
RTVSPropertyOp56
 70
     1
102
RTVSPropertyOp57
 70
     1
102
RTVSPropertyOp58
 70
     1
102
RTVSPropertyOp59
 70
     1
102
RTVSPropertyOp60
 70
     1
102
RTVSPropertyOp61
 70
     1
102
RTVSPropertyOp62
 70
     1
  0
XRECORD
  5
2A05
102
{ACAD_REACTORS
330
2A04
102
}
330
2A04
100
AcDbXrecord
280
     1
102
RTVSPost2010Prop28
280
     0
102
RTVSPost2010PropOp28
 70
     1
102
RTVSPost2010Prop29
280
     1
102
RTVSPost2010PropOp29
 70
     1
102
RTVSPost2010Prop30
280
     1
102
RTVSPost2010PropOp30
 70
     1
102
RTVSPost2010Prop31
280
     0
102
RTVSPost2010PropOp31
 70
     1
102
RTVSPost2010Prop32
280
     0
102
RTVSPost2010PropOp32
 70
     1
102
RTVSPost2010Prop33
280
     0
102
RTVSPost2010PropOp33
 70
     1
102
RTVSPost2010Prop34
280
     0
102
RTVSPost2010PropOp34
 70
     1
102
RTVSPost2010Prop35
280
     0
102
RTVSPost2010PropOp35
 70
     1
102
RTVSPost2010Prop36
280
     0
102
RTVSPost2010PropOp36
 70
     1
102
RTVSPost2010Prop37
 90
       50
102
RTVSPost2010PropOp37
 70
     1
102
RTVSPost2010Prop38
140
0.0
102
RTVSPost2010PropOp38
 70
     1
102
RTVSPost2010Prop39
140
1.0
102
RTVSPost2010PropOp39
 70
     1
102
RTVSPost2010Prop40
 90
        0
102
RTVSPost2010PropOp40
 70
     1
102
RTVSPost2010Prop41ColorIndex
 90
       18
102
RTVSPost2010Prop41ColorRGB
 90
        0
102
RTVSPost2010PropOp41
 70
     1
102
RTVSPost2010Prop42
 90
       50
102
RTVSPost2010PropOp42
 70
     1
102
RTVSPost2010Prop43
 90
        3
102
RTVSPost2010PropOp43
 70
     1
102
RTVSPost2010Prop44ColorIndex
 90
        5
102
RTVSPost2010Prop44ColorRGB
 90
      255
102
RTVSPost2010PropOp44
 70
     1
102
RTVSPost2010Prop45
280
     0
102
RTVSPost2010PropOp45
 70
     1
102
RTVSPost2010Prop46
 90
       50
102
RTVSPost2010PropOp46
 70
     1
102
RTVSPost2010Prop47
 90
       50
102
RTVSPost2010PropOp47
 70
     1
102
RTVSPost2010Prop48
 90
       50
102
RTVSPost2010PropOp48
 70
     1
102
RTVSPost2010Prop49
280
     0
102
RTVSPost2010PropOp49
 70
     1
102
RTVSPost2010Prop50
 90
       50
102
RTVSPost2010PropOp50
 70
     1
102
RTVSPost2010Prop51ColorIndex
 90
      256
102
RTVSPost2010Prop51ColorRGB
 90
-16777216
102
RTVSPost2010PropOp51
 70
     0
102
RTVSPost2010Prop52
140
1.0
102
RTVSPost2010PropOp52
 70
     0
102
RTVSPost2010Prop53
 90
        2
102
RTVSPost2010PropOp53
 70
     1
102
RTVSPost2010Prop54
  1
strokes_ogs.tif
102
RTVSPost2010PropOp54
 70
     1
102
RTVSPost2010Prop55
280
     0
102
RTVSPost2010PropOp55
 70
     1
102
RTVSPost2010Prop56
140
1.0
102
RTVSPost2010PropOp56
 70
     1
102
RTVSPost2010Prop57
140
1.0
102
RTVSPost2010PropOp57
 70
     1
102
RTVSPropertyOp0
 70
     1
102
RTVSPropertyOp1
 70
     1
102
RTVSPropertyOp2
 70
     1
102
RTVSPropertyOp3
 70
     1
102
RTVSPropertyOp4
 70
     1
102
RTVSPropertyOp5
 70
     1
102
RTVSPropertyOp6
 70
     1
102
RTVSPropertyOp7
 70
     1
102
RTVSPropertyOp8
 70
     1
102
RTVSPropertyOp9
 70
     1
102
RTVSPropertyOp10
 70
     1
102
RTVSPropertyOp11
 70
     1
102
RTVSPropertyOp12
 70
     1
102
RTVSPropertyOp13
 70
     1
102
RTVSPropertyOp14
 70
     1
102
RTVSPropertyOp15
 70
     1
102
RTVSPropertyOp16
 70
     1
102
RTVSPropertyOp17
 70
     1
102
RTVSPropertyOp18
 70
     1
102
RTVSPropertyOp19
 70
     1
102
RTVSPropertyOp20
 70
     1
102
RTVSPropertyOp21
 70
     1
102
RTVSPropertyOp22
 70
     1
102
RTVSPropertyOp23
 70
     1
102
RTVSPropertyOp24
 70
     1
102
RTVSPropertyOp25
 70
     1
102
RTVSPropertyOp26
 70
     1
102
RTVSPropertyOp27
 70
     1
102
RTVSPropertyOp28
 70
     1
102
RTVSPropertyOp29
 70
     1
102
RTVSPropertyOp30
 70
     1
102
RTVSPropertyOp31
 70
     1
102
RTVSPropertyOp32
 70
     1
102
RTVSPropertyOp33
 70
     1
102
RTVSPropertyOp34
 70
     1
102
RTVSPropertyOp35
 70
     1
102
RTVSPropertyOp36
 70
     1
102
RTVSPropertyOp37
 70
     1
102
RTVSPropertyOp38
 70
     1
102
RTVSPropertyOp39
 70
     1
102
RTVSPropertyOp40
 70
     1
102
RTVSPropertyOp41
 70
     1
102
RTVSPropertyOp42
 70
     1
102
RTVSPropertyOp43
 70
     1
102
RTVSPropertyOp44
 70
     1
102
RTVSPropertyOp45
 70
     1
102
RTVSPropertyOp46
 70
     1
102
RTVSPropertyOp47
 70
     1
102
RTVSPropertyOp48
 70
     1
102
RTVSPropertyOp49
 70
     1
102
RTVSPropertyOp50
 70
     1
102
RTVSPropertyOp51
 70
     0
102
RTVSPropertyOp52
 70
     0
102
RTVSPropertyOp53
 70
     1
102
RTVSPropertyOp54
 70
     1
102
RTVSPropertyOp55
 70
     1
102
RTVSPropertyOp56
 70
     1
102
RTVSPropertyOp57
 70
     1
102
RTVSPropertyOp58
 70
     1
102
RTVSPropertyOp59
 70
     1
102
RTVSPropertyOp60
 70
     1
102
RTVSPropertyOp61
 70
     1
102
RTVSPropertyOp62
 70
     1
  0
XRECORD
  5
29F9
102
{ACAD_REACTORS
330
29F8
102
}
330
29F8
100
AcDbXrecord
280
     1
102
RTVSPost2010Prop28
280
     0
102
RTVSPost2010PropOp28
 70
     1
102
RTVSPost2010Prop29
280
     1
102
RTVSPost2010PropOp29
 70
     1
102
RTVSPost2010Prop30
280
     1
102
RTVSPost2010PropOp30
 70
     1
102
RTVSPost2010Prop31
280
     0
102
RTVSPost2010PropOp31
 70
     1
102
RTVSPost2010Prop32
280
     0
102
RTVSPost2010PropOp32
 70
     1
102
RTVSPost2010Prop33
280
     0
102
RTVSPost2010PropOp33
 70
     1
102
RTVSPost2010Prop34
280
     0
102
RTVSPost2010PropOp34
 70
     1
102
RTVSPost2010Prop35
280
     0
102
RTVSPost2010PropOp35
 70
     1
102
RTVSPost2010Prop36
280
     0
102
RTVSPost2010PropOp36
 70
     1
102
RTVSPost2010Prop37
 90
       50
102
RTVSPost2010PropOp37
 70
     1
102
RTVSPost2010Prop38
140
0.0
102
RTVSPost2010PropOp38
 70
     1
102
RTVSPost2010Prop39
140
1.0
102
RTVSPost2010PropOp39
 70
     1
102
RTVSPost2010Prop40
 90
        0
102
RTVSPost2010PropOp40
 70
     1
102
RTVSPost2010Prop41ColorIndex
 90
       18
102
RTVSPost2010Prop41ColorRGB
 90
        0
102
RTVSPost2010PropOp41
 70
     1
102
RTVSPost2010Prop42
 90
       50
102
RTVSPost2010PropOp42
 70
     1
102
RTVSPost2010Prop43
 90
        3
102
RTVSPost2010PropOp43
 70
     1
102
RTVSPost2010Prop44ColorIndex
 90
        5
102
RTVSPost2010Prop44ColorRGB
 90
      255
102
RTVSPost2010PropOp44
 70
     1
102
RTVSPost2010Prop45
280
     0
102
RTVSPost2010PropOp45
 70
     1
102
RTVSPost2010Prop46
 90
       50
102
RTVSPost2010PropOp46
 70
     1
102
RTVSPost2010Prop47
 90
       50
102
RTVSPost2010PropOp47
 70
     1
102
RTVSPost2010Prop48
 90
       50
102
RTVSPost2010PropOp48
 70
     1
102
RTVSPost2010Prop49
280
     0
102
RTVSPost2010PropOp49
 70
     1
102
RTVSPost2010Prop50
 90
       50
102
RTVSPost2010PropOp50
 70
     1
102
RTVSPost2010Prop51ColorIndex
 90
      256
102
RTVSPost2010Prop51ColorRGB
 90
-16777216
102
RTVSPost2010PropOp51
 70
     0
102
RTVSPost2010Prop52
140
1.0
102
RTVSPost2010PropOp52
 70
     0
102
RTVSPost2010Prop53
 90
        2
102
RTVSPost2010PropOp53
 70
     1
102
RTVSPost2010Prop54
  1
strokes_ogs.tif
102
RTVSPost2010PropOp54
 70
     1
102
RTVSPost2010Prop55
280
     0
102
RTVSPost2010PropOp55
 70
     1
102
RTVSPost2010Prop56
140
1.0
102
RTVSPost2010PropOp56
 70
     1
102
RTVSPost2010Prop57
140
1.0
102
RTVSPost2010PropOp57
 70
     1
102
RTVSPropertyOp0
 70
     1
102
RTVSPropertyOp1
 70
     1
102
RTVSPropertyOp2
 70
     1
102
RTVSPropertyOp3
 70
     1
102
RTVSPropertyOp4
 70
     1
102
RTVSPropertyOp5
 70
     1
102
RTVSPropertyOp6
 70
     1
102
RTVSPropertyOp7
 70
     1
102
RTVSPropertyOp8
 70
     1
102
RTVSPropertyOp9
 70
     1
102
RTVSPropertyOp10
 70
     1
102
RTVSPropertyOp11
 70
     1
102
RTVSPropertyOp12
 70
     1
102
RTVSPropertyOp13
 70
     1
102
RTVSPropertyOp14
 70
     1
102
RTVSPropertyOp15
 70
     1
102
RTVSPropertyOp16
 70
     1
102
RTVSPropertyOp17
 70
     1
102
RTVSPropertyOp18
 70
     1
102
RTVSPropertyOp19
 70
     1
102
RTVSPropertyOp20
 70
     1
102
RTVSPropertyOp21
 70
     1
102
RTVSPropertyOp22
 70
     1
102
RTVSPropertyOp23
 70
     1
102
RTVSPropertyOp24
 70
     1
102
RTVSPropertyOp25
 70
     1
102
RTVSPropertyOp26
 70
     1
102
RTVSPropertyOp27
 70
     1
102
RTVSPropertyOp28
 70
     1
102
RTVSPropertyOp29
 70
     1
102
RTVSPropertyOp30
 70
     1
102
RTVSPropertyOp31
 70
     1
102
RTVSPropertyOp32
 70
     1
102
RTVSPropertyOp33
 70
     1
102
RTVSPropertyOp34
 70
     1
102
RTVSPropertyOp35
 70
     1
102
RTVSPropertyOp36
 70
     1
102
RTVSPropertyOp37
 70
     1
102
RTVSPropertyOp38
 70
     1
102
RTVSPropertyOp39
 70
     1
102
RTVSPropertyOp40
 70
     1
102
RTVSPropertyOp41
 70
     1
102
RTVSPropertyOp42
 70
     1
102
RTVSPropertyOp43
 70
     1
102
RTVSPropertyOp44
 70
     1
102
RTVSPropertyOp45
 70
     1
102
RTVSPropertyOp46
 70
     1
102
RTVSPropertyOp47
 70
     1
102
RTVSPropertyOp48
 70
     1
102
RTVSPropertyOp49
 70
     1
102
RTVSPropertyOp50
 70
     1
102
RTVSPropertyOp51
 70
     0
102
RTVSPropertyOp52
 70
     0
102
RTVSPropertyOp53
 70
     1
102
RTVSPropertyOp54
 70
     1
102
RTVSPropertyOp55
 70
     1
102
RTVSPropertyOp56
 70
     1
102
RTVSPropertyOp57
 70
     1
102
RTVSPropertyOp58
 70
     1
102
RTVSPropertyOp59
 70
     1
102
RTVSPropertyOp60
 70
     1
102
RTVSPropertyOp61
 70
     1
102
RTVSPropertyOp62
 70
     1
  0
XRECORD
  5
2A19
102
{ACAD_REACTORS
330
2A18
102
}
330
2A18
100
AcDbXrecord
280
     1
102
RTVSPost2010Prop28
280
     0
102
RTVSPost2010PropOp28
 70
     1
102
RTVSPost2010Prop29
280
     1
102
RTVSPost2010PropOp29
 70
     1
102
RTVSPost2010Prop30
280
     1
102
RTVSPost2010PropOp30
 70
     1
102
RTVSPost2010Prop31
280
     0
102
RTVSPost2010PropOp31
 70
     1
102
RTVSPost2010Prop32
280
     0
102
RTVSPost2010PropOp32
 70
     1
102
RTVSPost2010Prop33
280
     0
102
RTVSPost2010PropOp33
 70
     1
102
RTVSPost2010Prop34
280
     0
102
RTVSPost2010PropOp34
 70
     1
102
RTVSPost2010Prop35
280
     0
102
RTVSPost2010PropOp35
 70
     1
102
RTVSPost2010Prop36
280
     0
102
RTVSPost2010PropOp36
 70
     1
102
RTVSPost2010Prop37
 90
       50
102
RTVSPost2010PropOp37
 70
     1
102
RTVSPost2010Prop38
140
0.0
102
RTVSPost2010PropOp38
 70
     1
102
RTVSPost2010Prop39
140
1.0
102
RTVSPost2010PropOp39
 70
     1
102
RTVSPost2010Prop40
 90
        0
102
RTVSPost2010PropOp40
 70
     1
102
RTVSPost2010Prop41ColorIndex
 90
       18
102
RTVSPost2010Prop41ColorRGB
 90
        0
102
RTVSPost2010PropOp41
 70
     1
102
RTVSPost2010Prop42
 90
       50
102
RTVSPost2010PropOp42
 70
     1
102
RTVSPost2010Prop43
 90
        3
102
RTVSPost2010PropOp43
 70
     1
102
RTVSPost2010Prop44ColorIndex
 90
        5
102
RTVSPost2010Prop44ColorRGB
 90
      255
102
RTVSPost2010PropOp44
 70
     1
102
RTVSPost2010Prop45
280
     0
102
RTVSPost2010PropOp45
 70
     1
102
RTVSPost2010Prop46
 90
       50
102
RTVSPost2010PropOp46
 70
     1
102
RTVSPost2010Prop47
 90
       50
102
RTVSPost2010PropOp47
 70
     1
102
RTVSPost2010Prop48
 90
       50
102
RTVSPost2010PropOp48
 70
     1
102
RTVSPost2010Prop49
280
     0
102
RTVSPost2010PropOp49
 70
     1
102
RTVSPost2010Prop50
 90
       50
102
RTVSPost2010PropOp50
 70
     1
102
RTVSPost2010Prop51ColorIndex
 90
      256
102
RTVSPost2010Prop51ColorRGB
 90
-16777216
102
RTVSPost2010PropOp51
 70
     0
102
RTVSPost2010Prop52
140
1.0
102
RTVSPost2010PropOp52
 70
     0
102
RTVSPost2010Prop53
 90
        2
102
RTVSPost2010PropOp53
 70
     1
102
RTVSPost2010Prop54
  1
strokes_ogs.tif
102
RTVSPost2010PropOp54
 70
     1
102
RTVSPost2010Prop55
280
     0
102
RTVSPost2010PropOp55
 70
     1
102
RTVSPost2010Prop56
140
1.0
102
RTVSPost2010PropOp56
 70
     1
102
RTVSPost2010Prop57
140
1.0
102
RTVSPost2010PropOp57
 70
     1
102
RTVSPropertyOp0
 70
     1
102
RTVSPropertyOp1
 70
     1
102
RTVSPropertyOp2
 70
     1
102
RTVSPropertyOp3
 70
     1
102
RTVSPropertyOp4
 70
     1
102
RTVSPropertyOp5
 70
     1
102
RTVSPropertyOp6
 70
     1
102
RTVSPropertyOp7
 70
     1
102
RTVSPropertyOp8
 70
     1
102
RTVSPropertyOp9
 70
     1
102
RTVSPropertyOp10
 70
     1
102
RTVSPropertyOp11
 70
     1
102
RTVSPropertyOp12
 70
     1
102
RTVSPropertyOp13
 70
     1
102
RTVSPropertyOp14
 70
     1
102
RTVSPropertyOp15
 70
     1
102
RTVSPropertyOp16
 70
     1
102
RTVSPropertyOp17
 70
     1
102
RTVSPropertyOp18
 70
     1
102
RTVSPropertyOp19
 70
     1
102
RTVSPropertyOp20
 70
     1
102
RTVSPropertyOp21
 70
     1
102
RTVSPropertyOp22
 70
     1
102
RTVSPropertyOp23
 70
     1
102
RTVSPropertyOp24
 70
     1
102
RTVSPropertyOp25
 70
     1
102
RTVSPropertyOp26
 70
     1
102
RTVSPropertyOp27
 70
     1
102
RTVSPropertyOp28
 70
     1
102
RTVSPropertyOp29
 70
     1
102
RTVSPropertyOp30
 70
     1
102
RTVSPropertyOp31
 70
     1
102
RTVSPropertyOp32
 70
     1
102
RTVSPropertyOp33
 70
     1
102
RTVSPropertyOp34
 70
     1
102
RTVSPropertyOp35
 70
     1
102
RTVSPropertyOp36
 70
     1
102
RTVSPropertyOp37
 70
     1
102
RTVSPropertyOp38
 70
     1
102
RTVSPropertyOp39
 70
     1
102
RTVSPropertyOp40
 70
     1
102
RTVSPropertyOp41
 70
     1
102
RTVSPropertyOp42
 70
     1
102
RTVSPropertyOp43
 70
     1
102
RTVSPropertyOp44
 70
     1
102
RTVSPropertyOp45
 70
     1
102
RTVSPropertyOp46
 70
     1
102
RTVSPropertyOp47
 70
     1
102
RTVSPropertyOp48
 70
     1
102
RTVSPropertyOp49
 70
     1
102
RTVSPropertyOp50
 70
     1
102
RTVSPropertyOp51
 70
     0
102
RTVSPropertyOp52
 70
     0
102
RTVSPropertyOp53
 70
     1
102
RTVSPropertyOp54
 70
     1
102
RTVSPropertyOp55
 70
     1
102
RTVSPropertyOp56
 70
     1
102
RTVSPropertyOp57
 70
     1
102
RTVSPropertyOp58
 70
     1
102
RTVSPropertyOp59
 70
     1
102
RTVSPropertyOp60
 70
     1
102
RTVSPropertyOp61
 70
     1
102
RTVSPropertyOp62
 70
     1
  0
ENDSEC
  0
EOF
