  0
SECTION
  2
HEADER
  9
$ACADVER
  1
AC1015
  9
$ACADMAINTVER
 70
    18
  9
$DWGCODEPAGE
  3
ANSI_1252
  9
$INSBASE
 10
0.0
 20
0.0
 30
0.0
  9
$EXTMIN
 10
-281.450499838044
 20
-516.9810332355334
 30
-0.0015258207003583
  9
$EXTMAX
 10
359.2584237587387
 20
489.5904702760633
 30
0.0000000349246037
  9
$LIMMIN
 10
0.0
 20
0.0
  9
$LIMMAX
 10
420.0
 20
297.0
  9
$ORTHOMODE
 70
     0
  9
$REGENMODE
 70
     1
  9
$FILLMODE
 70
     1
  9
$QTEXTMODE
 70
     0
  9
$MIRRTEXT
 70
     0
  9
$LTSCALE
 40
1.0
  9
$ATTMODE
 70
     1
  9
$TEXTSIZE
 40
2.5
  9
$TRACEWID
 40
1.0
  9
$TEXTSTYLE
  7
Standard
  9
$CLAYER
  8
0
  9
$CELTYPE
  6
ByLayer
  9
$CECOLOR
 62
   256
  9
$CELTSCALE
 40
1.0
  9
$DISPSILH
 70
     0
  9
$DIMSCALE
 40
1.0
  9
$DIMASZ
 40
2.5
  9
$DIMEXO
 40
0.625
  9
$DIMDLI
 40
3.75
  9
$DIMRND
 40
0.0
  9
$DIMDLE
 40
0.0
  9
$DIMEXE
 40
1.25
  9
$DIMTP
 40
0.0
  9
$DIMTM
 40
0.0
  9
$DIMTXT
 40
2.5
  9
$DIMCEN
 40
2.5
  9
$DIMTSZ
 40
0.0
  9
$DIMTOL
 70
     0
  9
$DIMLIM
 70
     0
  9
$DIMTIH
 70
     0
  9
$DIMTOH
 70
     0
  9
$DIMSE1
 70
     0
  9
$DIMSE2
 70
     0
  9
$DIMTAD
 70
     1
  9
$DIMZIN
 70
     8
  9
$DIMBLK
  1

  9
$DIMASO
 70
     1
  9
$DIMSHO
 70
     1
  9
$DIMPOST
  1

  9
$DIMAPOST
  1

  9
$DIMALT
 70
     0
  9
$DIMALTD
 70
     3
  9
$DIMALTF
 40
0.03937007874016
  9
$DIMLFAC
 40
1.0
  9
$DIMTOFL
 70
     1
  9
$DIMTVP
 40
0.0
  9
$DIMTIX
 70
     0
  9
$DIMSOXD
 70
     0
  9
$DIMSAH
 70
     0
  9
$DIMBLK1
  1

  9
$DIMBLK2
  1

  9
$DIMSTYLE
  2
ISO-25
  9
$DIMCLRD
 70
     0
  9
$DIMCLRE
 70
     0
  9
$DIMCLRT
 70
     0
  9
$DIMTFAC
 40
1.0
  9
$DIMGAP
 40
0.625
  9
$DIMJUST
 70
     0
  9
$DIMSD1
 70
     0
  9
$DIMSD2
 70
     0
  9
$DIMTOLJ
 70
     0
  9
$DIMTZIN
 70
     8
  9
$DIMALTZ
 70
     0
  9
$DIMALTTZ
 70
     0
  9
$DIMUPT
 70
     0
  9
$DIMDEC
 70
     2
  9
$DIMTDEC
 70
     2
  9
$DIMALTU
 70
     2
  9
$DIMALTTD
 70
     3
  9
$DIMTXSTY
  7
Standard
  9
$DIMAUNIT
 70
     0
  9
$DIMADEC
 70
     0
  9
$DIMALTRND
 40
0.0
  9
$DIMAZIN
 70
     0
  9
$DIMDSEP
 70
    44
  9
$DIMATFIT
 70
     3
  9
$DIMFRAC
 70
     0
  9
$DIMLDRBLK
  1

  9
$DIMLUNIT
 70
     2
  9
$DIMLWD
 70
    -2
  9
$DIMLWE
 70
    -2
  9
$DIMTMOVE
 70
     0
  9
$LUNITS
 70
     2
  9
$LUPREC
 70
     4
  9
$SKETCHINC
 40
1.0
  9
$FILLETRAD
 40
0.0
  9
$AUNITS
 70
     0
  9
$AUPREC
 70
     0
  9
$MENU
  1
.
  9
$ELEVATION
 40
0.0
  9
$PELEVATION
 40
0.0
  9
$THICKNESS
 40
0.0
  9
$LIMCHECK
 70
     0
  9
$CHAMFERA
 40
0.0
  9
$CHAMFERB
 40
0.0
  9
$CHAMFERC
 40
0.0
  9
$CHAMFERD
 40
0.0
  9
$SKPOLY
 70
     0
  9
$TDCREATE
 40
2460719.406504630
  9
$TDUCREATE
 40
2460719.114837963
  9
$TDUPDATE
 40
2460719.410810185
  9
$TDUUPDATE
 40
2460719.119143519
  9
$TDINDWG
 40
0.0019560185
  9
$TDUSRTIMER
 40
0.0019560185
  9
$USRTIMER
 70
     1
  9
$ANGBASE
 50
0.0
  9
$ANGDIR
 70
     0
  9
$PDMODE
 70
     0
  9
$PDSIZE
 40
0.0
  9
$PLINEWID
 40
0.0
  9
$SPLFRAME
 70
     0
  9
$SPLINETYPE
 70
     6
  9
$SPLINESEGS
 70
     8
  9
$HANDSEED
  5
2664
  9
$SURFTAB1
 70
     6
  9
$SURFTAB2
 70
     6
  9
$SURFTYPE
 70
     6
  9
$SURFU
 70
     6
  9
$SURFV
 70
     6
  9
$UCSBASE
  2

  9
$UCSNAME
  2

  9
$UCSORG
 10
0.0
 20
0.0
 30
0.0
  9
$UCSXDIR
 10
1.0
 20
0.0
 30
0.0
  9
$UCSYDIR
 10
0.0
 20
1.0
 30
0.0
  9
$UCSORTHOREF
  2

  9
$UCSORTHOVIEW
 70
     0
  9
$UCSORGTOP
 10
0.0
 20
0.0
 30
0.0
  9
$UCSORGBOTTOM
 10
0.0
 20
0.0
 30
0.0
  9
$UCSORGLEFT
 10
0.0
 20
0.0
 30
0.0
  9
$UCSORGRIGHT
 10
0.0
 20
0.0
 30
0.0
  9
$UCSORGFRONT
 10
0.0
 20
0.0
 30
0.0
  9
$UCSORGBACK
 10
0.0
 20
0.0
 30
0.0
  9
$PUCSBASE
  2

  9
$PUCSNAME
  2

  9
$PUCSORG
 10
0.0
 20
0.0
 30
0.0
  9
$PUCSXDIR
 10
1.0
 20
0.0
 30
0.0
  9
$PUCSYDIR
 10
0.0
 20
1.0
 30
0.0
  9
$PUCSORTHOREF
  2

  9
$PUCSORTHOVIEW
 70
     0
  9
$PUCSORGTOP
 10
0.0
 20
0.0
 30
0.0
  9
$PUCSORGBOTTOM
 10
0.0
 20
0.0
 30
0.0
  9
$PUCSORGLEFT
 10
0.0
 20
0.0
 30
0.0
  9
$PUCSORGRIGHT
 10
0.0
 20
0.0
 30
0.0
  9
$PUCSORGFRONT
 10
0.0
 20
0.0
 30
0.0
  9
$PUCSORGBACK
 10
0.0
 20
0.0
 30
0.0
  9
$USERI1
 70
     0
  9
$USERI2
 70
     0
  9
$USERI3
 70
     0
  9
$USERI4
 70
     0
  9
$USERI5
 70
     0
  9
$USERR1
 40
0.0
  9
$USERR2
 40
0.0
  9
$USERR3
 40
0.0
  9
$USERR4
 40
0.0
  9
$USERR5
 40
0.0
  9
$WORLDVIEW
 70
     1
  9
$SHADEDGE
 70
     3
  9
$SHADEDIF
 70
    70
  9
$TILEMODE
 70
     1
  9
$MAXACTVP
 70
    48
  9
$PINSBASE
 10
0.0
 20
0.0
 30
0.0
  9
$PLIMCHECK
 70
     0
  9
$PEXTMIN
 10
0.0
 20
0.0
 30
0.0
  9
$PEXTMAX
 10
0.0
 20
0.0
 30
0.0
  9
$PLIMMIN
 10
0.0
 20
0.0
  9
$PLIMMAX
 10
12.0
 20
9.0
  9
$UNITMODE
 70
     0
  9
$VISRETAIN
 70
     1
  9
$PLINEGEN
 70
     0
  9
$PSLTSCALE
 70
     1
  9
$TREEDEPTH
 70
  3020
  9
$CMLSTYLE
  2
Standard
  9
$CMLJUST
 70
     0
  9
$CMLSCALE
 40
20.0
  9
$PROXYGRAPHICS
 70
     1
  9
$MEASUREMENT
 70
     1
  9
$CELWEIGHT
370
    -1
  9
$ENDCAPS
280
     0
  9
$JOINSTYLE
280
     0
  9
$LWDISPLAY
290
     0
  9
$INSUNITS
 70
     4
  9
$HYPERLINKBASE
  1

  9
$STYLESHEET
  1

  9
$XEDIT
290
     1
  9
$CEPSNTYPE
380
     0
  9
$PSTYLEMODE
290
     1
  9
$FINGERPRINTGUID
  2
{375C693C-302E-BC42-B92A-19F6C371B7B0}
  9
$VERSIONGUID
  2
{950C2454-2297-A34E-8777-DC42377AE02C}
  9
$EXTNAMES
290
     1
  9
$PSVPSCALE
 40
0.0
  9
$OLESTARTUP
290
     0
  0
ENDSEC
  0
SECTION
  2
CLASSES
  0
CLASS
  1
ACDBDICTIONARYWDFLT
  2
AcDbDictionaryWithDefault
  3
ObjectDBX Classes
 90
        0
280
     0
281
     0
  0
CLASS
  1
ACDBPLACEHOLDER
  2
AcDbPlaceHolder
  3
ObjectDBX Classes
 90
        0
280
     0
281
     0
  0
CLASS
  1
LAYOUT
  2
AcDbLayout
  3
ObjectDBX Classes
 90
        0
280
     0
281
     0
  0
CLASS
  1
DICTIONARYVAR
  2
AcDbDictionaryVar
  3
ObjectDBX Classes
 90
        0
280
     0
281
     0
  0
CLASS
  1
TABLESTYLE
  2
AcDbTableStyle
  3
ObjectDBX Classes
 90
     4095
280
     0
281
     0
  0
CLASS
  1
MATERIAL
  2
AcDbMaterial
  3
ObjectDBX Classes
 90
     1153
280
     0
281
     0
  0
CLASS
  1
VISUALSTYLE
  2
AcDbVisualStyle
  3
ObjectDBX Classes
 90
     4095
280
     0
281
     0
  0
CLASS
  1
SCALE
  2
AcDbScale
  3
ObjectDBX Classes
 90
     1153
280
     0
281
     0
  0
CLASS
  1
MLEADERSTYLE
  2
AcDbMLeaderStyle
  3
ACDB_MLEADERSTYLE_CLASS
 90
     4095
280
     0
281
     0
  0
CLASS
  1
CELLSTYLEMAP
  2
AcDbCellStyleMap
  3
ObjectDBX Classes
 90
     1152
280
     0
281
     0
  0
CLASS
  1
EXACXREFPANELOBJECT
  2
ExAcXREFPanelObject
  3
EXAC_ESW
 90
    33793
280
     0
281
     0
  0
CLASS
  1
NPOCOLLECTION
  2
AcDbImpNonPersistentObjectsCollection
  3
ObjectDBX Classes
 90
    33921
280
     0
281
     0
  0
CLASS
  1
LAYER_INDEX
  2
AcDbLayerIndex
  3
ObjectDBX Classes
 90
    32768
280
     0
281
     0
  0
CLASS
  1
SPATIAL_INDEX
  2
AcDbSpatialIndex
  3
ObjectDBX Classes
 90
    32768
280
     0
281
     0
  0
CLASS
  1
IDBUFFER
  2
AcDbIdBuffer
  3
ObjectDBX Classes
 90
    32768
280
     0
281
     0
  0
CLASS
  1
ACDBSECTIONVIEWSTYLE
  2
AcDbSectionViewStyle
  3
ObjectDBX Classes
 90
     1025
280
     0
281
     0
  0
CLASS
  1
ACDBDETAILVIEWSTYLE
  2
AcDbDetailViewStyle
  3
ObjectDBX Classes
 90
     1025
280
     0
281
     0
  0
CLASS
  1
XRECORD
  2
AcDbXrecord
  3
ObjectDBX Classes
 90
        0
280
     0
281
     0
  0
ENDSEC
  0
SECTION
  2
TABLES
  0
TABLE
  2
VPORT
  5
8
102
{ACAD_XDICTIONARY
360
2572
102
}
330
0
100
AcDbSymbolTable
 70
     1
  0
VPORT
  5
EA
330
8
100
AcDbSymbolTableRecord
100
AcDbViewportTableRecord
  2
*Active
 70
     0
 10
0.0
 20
0.0
 11
1.0
 21
1.0
 12
38.90396196034726
 22
-13.69528147973506
 13
0.0
 23
0.0
 14
10.0
 24
10.0
 15
10.0
 25
10.0
 16
0.0
 26
0.0
 36
1.0
 17
0.0
 27
0.0
 37
0.0
 40
1070.397575137175
 41
0.9846153846153844
 42
50.0
 43
0.0
 44
0.0
 50
0.0
 51
0.0
 71
     0
 72
  1000
 73
     1
 74
     3
 75
     0
 76
     1
 77
     0
 78
     0
281
     0
 65
     1
110
0.0
120
0.0
130
0.0
111
1.0
121
0.0
131
0.0
112
0.0
122
1.0
132
0.0
 79
     0
146
0.0
1001
ACAD_NAV_VCDISPLAY
1070
     3
  0
ENDTAB
  0
TABLE
  2
LTYPE
  5
5
330
0
100
AcDbSymbolTable
 70
     1
  0
LTYPE
  5
14
330
5
100
AcDbSymbolTableRecord
100
AcDbLinetypeTableRecord
  2
ByBlock
 70
     0
  3

 72
    65
 73
     0
 40
0.0
  0
LTYPE
  5
15
330
5
100
AcDbSymbolTableRecord
100
AcDbLinetypeTableRecord
  2
ByLayer
 70
     0
  3

 72
    65
 73
     0
 40
0.0
  0
LTYPE
  5
16
330
5
100
AcDbSymbolTableRecord
100
AcDbLinetypeTableRecord
  2
Continuous
 70
     0
  3
Solid line
 72
    65
 73
     0
 40
0.0
  0
ENDTAB
  0
TABLE
  2
LAYER
  5
2
102
{ACAD_XDICTIONARY
360
1FF
102
}
330
0
100
AcDbSymbolTable
 70
     1
  0
LAYER
  5
10
102
{ACAD_XDICTIONARY
360
13C
102
}
330
2
100
AcDbSymbolTableRecord
100
AcDbLayerTableRecord
  2
0
 70
     0
 62
     7
  6
Continuous
370
    -3
390
F
  0
ENDTAB
  0
TABLE
  2
STYLE
  5
3
330
0
100
AcDbSymbolTable
 70
     1
  0
STYLE
  5
11
330
3
100
AcDbSymbolTableRecord
100
AcDbTextStyleTableRecord
  2
Standard
 70
     0
 40
0.0
 41
1.0
 50
0.0
 71
     0
 42
2.5
  3
arial.ttf
  4

1001
ACAD
1000
Arial
1071
       34
  0
ENDTAB
  0
TABLE
  2
VIEW
  5
6
330
0
100
AcDbSymbolTable
 70
     0
  0
ENDTAB
  0
TABLE
  2
UCS
  5
7
330
0
100
AcDbSymbolTable
 70
     0
  0
ENDTAB
  0
TABLE
  2
APPID
  5
9
330
0
100
AcDbSymbolTable
 70
     8
  0
APPID
  5
12
330
9
100
AcDbSymbolTableRecord
100
AcDbRegAppTableRecord
  2
ACAD
 70
     0
  0
APPID
  5
9E
330
9
100
AcDbSymbolTableRecord
100
AcDbRegAppTableRecord
  2
ACAD_PSEXT
 70
     0
  0
APPID
  5
133
330
9
100
AcDbSymbolTableRecord
100
AcDbRegAppTableRecord
  2
AcadAnnoPO
 70
     0
  0
APPID
  5
134
330
9
100
AcDbSymbolTableRecord
100
AcDbRegAppTableRecord
  2
AcadAnnotative
 70
     0
  0
APPID
  5
135
330
9
100
AcDbSymbolTableRecord
100
AcDbRegAppTableRecord
  2
ACAD_DSTYLE_DIMJAG
 70
     0
  0
APPID
  5
136
330
9
100
AcDbSymbolTableRecord
100
AcDbRegAppTableRecord
  2
ACAD_DSTYLE_DIMTALN
 70
     0
  0
APPID
  5
165
330
9
100
AcDbSymbolTableRecord
100
AcDbRegAppTableRecord
  2
ACAD_MLEADERVER
 70
     0
  0
APPID
  5
217
330
9
100
AcDbSymbolTableRecord
100
AcDbRegAppTableRecord
  2
ACAD_NAV_VCDISPLAY
 70
     0
  0
ENDTAB
  0
TABLE
  2
DIMSTYLE
  5
A
330
0
100
AcDbSymbolTable
 70
     1
100
AcDbDimStyleTable
 71
     0
  0
DIMSTYLE
105
27
330
A
100
AcDbSymbolTableRecord
100
AcDbDimStyleTableRecord
  2
ISO-25
 70
     0
 41
2.5
 42
0.625
 43
3.75
 44
1.25
 73
     0
 74
     0
 77
     1
 78
     8
140
2.5
141
2.5
143
0.03937007874016
147
0.625
171
     3
172
     1
271
     2
272
     2
274
     3
278
    44
283
     0
284
     8
340
11
  0
ENDTAB
  0
TABLE
  2
BLOCK_RECORD
  5
1
330
0
100
AcDbSymbolTable
 70
     7
  0
BLOCK_RECORD
  5
1F
102
{ACAD_XDICTIONARY
360
1CE
102
}
330
1
100
AcDbSymbolTableRecord
100
AcDbBlockTableRecord
  2
*Model_Space
340
22
  0
BLOCK_RECORD
  5
D2
102
{ACAD_XDICTIONARY
360
2525
102
}
330
1
100
AcDbSymbolTableRecord
100
AcDbBlockTableRecord
  2
*Paper_Space
340
D3
  0
BLOCK_RECORD
  5
D6
102
{ACAD_XDICTIONARY
360
2527
102
}
330
1
100
AcDbSymbolTableRecord
100
AcDbBlockTableRecord
  2
*Paper_Space0
340
D7
  0
BLOCK_RECORD
  5
221F
330
1
100
AcDbSymbolTableRecord
100
AcDbBlockTableRecord
  2
SPR100_300-Front
340
0
102
{BLKREFS
331
251B
102
}
  0
BLOCK_RECORD
  5
22A9
330
1
100
AcDbSymbolTableRecord
100
AcDbBlockTableRecord
  2
SPR100_300-Left
340
0
102
{BLKREFS
331
251C
102
}
  0
BLOCK_RECORD
  5
22EA
330
1
100
AcDbSymbolTableRecord
100
AcDbBlockTableRecord
  2
SPR100_300-Right
340
0
102
{BLKREFS
331
251D
102
}
  0
BLOCK_RECORD
  5
232D
330
1
100
AcDbSymbolTableRecord
100
AcDbBlockTableRecord
  2
SPR100_300-Top
340
0
102
{BLKREFS
331
251E
102
}
  0
BLOCK_RECORD
  5
2393
330
1
100
AcDbSymbolTableRecord
100
AcDbBlockTableRecord
  2
SPR100_300-Bottom
340
0
102
{BLKREFS
331
251F
102
}
  0
BLOCK_RECORD
  5
23F1
330
1
100
AcDbSymbolTableRecord
100
AcDbBlockTableRecord
  2
SPR100_300-ISO
340
0
102
{BLKREFS
331
2520
102
}
  0
ENDTAB
  0
ENDSEC
  0
SECTION
  2
BLOCKS
  0
BLOCK
  5
20
330
1F
100
AcDbEntity
  8
0
100
AcDbBlockBegin
  2
*Model_Space
 70
     0
 10
0.0
 20
0.0
 30
0.0
  3
*Model_Space
  1

  0
ENDBLK
  5
21
330
1F
100
AcDbEntity
  8
0
100
AcDbBlockEnd
  0
BLOCK
  5
D4
330
D2
100
AcDbEntity
 67
     1
  8
0
100
AcDbBlockBegin
  2
*Paper_Space
 70
     0
 10
0.0
 20
0.0
 30
0.0
  3
*Paper_Space
  1

  0
ENDBLK
  5
D5
330
D2
100
AcDbEntity
 67
     1
  8
0
100
AcDbBlockEnd
  0
BLOCK
  5
D8
330
D6
100
AcDbEntity
 67
     1
  8
0
100
AcDbBlockBegin
  2
*Paper_Space0
 70
     0
 10
0.0
 20
0.0
 30
0.0
  3
*Paper_Space0
  1

  0
ENDBLK
  5
D9
330
D6
100
AcDbEntity
 67
     1
  8
0
100
AcDbBlockEnd
  0
BLOCK
  5
2220
330
221F
100
AcDbEntity
  8
0
100
AcDbBlockBegin
  2
SPR100_300-Front
 70
     0
 10
0.0
 20
0.0
 30
0.0
  3
SPR100_300-Front
  1

  0
LINE
  5
2222
330
221F
100
AcDbEntity
  8
0
100
AcDbLine
 10
92.52709056099996
 20
6.269999999999996
 30
0.0
 11
87.52709056099996
 21
1.269999999999996
 31
0.0
  0
LINE
  5
2223
330
221F
100
AcDbEntity
  8
0
100
AcDbLine
 10
-87.527090561
 20
1.269999999999996
 30
0.0
 11
-92.527090561
 21
6.269999999999996
 31
0.0
  0
LINE
  5
2224
330
221F
100
AcDbEntity
  8
0
100
AcDbLine
 10
-92.527090561
 20
72.27
 30
0.0
 11
-87.52709056100002
 21
77.27
 31
0.0
  0
LINE
  5
2225
330
221F
100
AcDbEntity
  8
0
100
AcDbLine
 10
87.52709056099996
 20
77.27000000000001
 30
0.0
 11
92.527090561
 21
72.27000000000001
 31
0.0
  0
LINE
  5
2226
330
221F
100
AcDbEntity
  8
0
100
AcDbLine
 10
92.527090561
 20
72.27000000000001
 30
0.0
 11
92.52709056099996
 21
6.269999999999997
 31
0.0
  0
LINE
  5
2227
330
221F
100
AcDbEntity
  8
0
100
AcDbLine
 10
-92.527090561
 20
6.269999999999996
 30
0.0
 11
-92.527090561
 21
72.27
 31
0.0
  0
LINE
  5
2228
330
221F
100
AcDbEntity
  8
0
100
AcDbLine
 10
46.49999999999998
 20
77.27000000000001
 30
0.0
 11
87.52709056099996
 21
77.27000000000001
 31
0.0
  0
LINE
  5
2229
330
221F
100
AcDbEntity
  8
0
100
AcDbLine
 10
-46.50000000000001
 20
1.270000000000058
 30
0.0
 11
-87.527090561
 21
1.269999999999996
 31
0.0
  0
LINE
  5
222A
330
221F
100
AcDbEntity
  8
0
100
AcDbLine
 10
87.52709056099996
 20
1.269999999999996
 30
0.0
 11
46.49999999999998
 21
1.270000000000058
 31
0.0
  0
ARC
  5
222B
330
221F
100
AcDbEntity
  8
0
100
AcDbCircle
 10
46.49999999999998
 20
78.77000000000001
 30
0.0
 40
1.5
100
AcDbArc
 50
90.0
 51
270.0
  0
LINE
  5
222C
330
221F
100
AcDbEntity
  8
0
100
AcDbLine
 10
-87.52709056100002
 20
77.27
 30
0.0
 11
-46.50000000000001
 21
77.27
 31
0.0
  0
ARC
  5
222D
330
221F
100
AcDbEntity
  8
0
100
AcDbCircle
 10
-46.50000000000001
 20
78.76999999999999
 30
0.0
 40
1.5
100
AcDbArc
 50
270.0
 51
90.0
  0
LINE
  5
222E
330
221F
100
AcDbEntity
  8
0
100
AcDbLine
 10
51.5000000000002
 20
80.27000000000001
 30
0.0
 11
51.50000000000024
 21
85.27000000000001
 31
0.0
  0
LINE
  5
222F
330
221F
100
AcDbEntity
  8
0
100
AcDbLine
 10
51.50000000000024
 20
85.27000000000001
 30
0.0
 11
50.00000000000024
 21
85.27000000000001
 31
0.0
  0
LINE
  5
2230
330
221F
100
AcDbEntity
  8
0
100
AcDbLine
 10
50.00000000000024
 20
85.27000000000001
 30
0.0
 11
50.00000000000021
 21
80.27000000000001
 31
0.0
  0
LINE
  5
2231
330
221F
100
AcDbEntity
  8
0
100
AcDbLine
 10
50.00000000000021
 20
80.27000000000001
 30
0.0
 11
51.5000000000002
 21
80.27000000000001
 31
0.0
  0
LINE
  5
2232
330
221F
100
AcDbEntity
  8
0
100
AcDbLine
 10
50.00000000000024
 20
295.67
 30
0.0
 11
51.50000000000024
 21
295.67
 31
0.0
  0
LINE
  5
2233
330
221F
100
AcDbEntity
  8
0
100
AcDbLine
 10
51.50000000000024
 20
295.67
 30
0.0
 11
51.50000000000021
 21
300.67
 31
0.0
  0
LINE
  5
2234
330
221F
100
AcDbEntity
  8
0
100
AcDbLine
 10
-51.5
 20
85.27000000000001
 30
0.0
 11
-51.5
 21
80.27000000000001
 31
0.0
  0
LINE
  5
2235
330
221F
100
AcDbEntity
  8
0
100
AcDbLine
 10
-51.5
 20
80.27000000000001
 30
0.0
 11
-50.0
 21
80.27000000000001
 31
0.0
  0
LINE
  5
2236
330
221F
100
AcDbEntity
  8
0
100
AcDbLine
 10
-50.0
 20
80.27000000000001
 30
0.0
 11
-50.0
 21
85.27000000000001
 31
0.0
  0
LINE
  5
2237
330
221F
100
AcDbEntity
  8
0
100
AcDbLine
 10
-50.0
 20
85.27000000000001
 30
0.0
 11
-51.5
 21
85.27000000000001
 31
0.0
  0
LINE
  5
2238
330
221F
100
AcDbEntity
  8
0
100
AcDbLine
 10
-51.5
 20
300.67
 30
0.0
 11
-51.5
 21
295.67
 31
0.0
  0
LINE
  5
2239
330
221F
100
AcDbEntity
  8
0
100
AcDbLine
 10
-51.5
 20
295.67
 30
0.0
 11
-50.0
 21
295.67
 31
0.0
  0
LINE
  5
223A
330
221F
100
AcDbEntity
  8
0
100
AcDbLine
 10
51.50000000000021
 20
300.67
 30
0.0
 11
50.00000000000021
 21
300.67
 31
0.0
  0
LINE
  5
223B
330
221F
100
AcDbEntity
  8
0
100
AcDbLine
 10
50.00000000000021
 20
300.67
 30
0.0
 11
50.00000000000024
 21
295.67
 31
0.0
  0
LINE
  5
223C
330
221F
100
AcDbEntity
  8
0
100
AcDbLine
 10
-50.0
 20
295.67
 30
0.0
 11
-50.0
 21
300.67
 31
0.0
  0
LINE
  5
223D
330
221F
100
AcDbEntity
  8
0
100
AcDbLine
 10
-50.0
 20
300.67
 30
0.0
 11
-51.5
 21
300.67
 31
0.0
  0
LINE
  5
223E
330
221F
100
AcDbEntity
  8
0
100
AcDbLine
 10
51.49999999999998
 20
-28.42608254450011
 30
0.0
 11
51.5
 21
-21.35501473263468
 31
0.0
  0
LINE
  5
223F
330
221F
100
AcDbEntity
  8
0
100
AcDbLine
 10
51.5
 20
-21.35501473263468
 30
0.0
 11
50.0
 21
-21.35501473263467
 31
0.0
  0
LINE
  5
2240
330
221F
100
AcDbEntity
  8
0
100
AcDbLine
 10
50.0
 20
-21.35501473263467
 30
0.0
 11
50.0
 21
-28.42608254450011
 31
0.0
  0
LINE
  5
2241
330
221F
100
AcDbEntity
  8
0
100
AcDbLine
 10
50.0
 20
-28.42608254450011
 30
0.0
 11
51.49999999999998
 21
-28.42608254450011
 31
0.0
  0
LINE
  5
2242
330
221F
100
AcDbEntity
  8
0
100
AcDbLine
 10
-51.49999999999998
 20
-21.35501473263468
 30
0.0
 11
-51.49999999999995
 21
-28.42608254450011
 31
0.0
  0
LINE
  5
2243
330
221F
100
AcDbEntity
  8
0
100
AcDbLine
 10
-51.49999999999995
 20
-28.42608254450011
 30
0.0
 11
-50.0
 21
-28.42608254450011
 31
0.0
  0
LINE
  5
2244
330
221F
100
AcDbEntity
  8
0
100
AcDbLine
 10
-50.0
 20
-28.42608254450011
 30
0.0
 11
-49.99999999999999
 21
-21.35501473263467
 31
0.0
  0
LINE
  5
2245
330
221F
100
AcDbEntity
  8
0
100
AcDbLine
 10
-49.99999999999999
 20
-21.35501473263467
 30
0.0
 11
-51.49999999999998
 21
-21.35501473263468
 31
0.0
  0
LINE
  5
2246
330
221F
100
AcDbEntity
  8
0
100
AcDbLine
 10
51.50000000000024
 20
85.27000000000001
 30
0.0
 11
51.50000000000024
 21
295.67
 31
0.0
  0
LINE
  5
2247
330
221F
100
AcDbEntity
  8
0
100
AcDbLine
 10
50.00000000000024
 20
295.67
 30
0.0
 11
50.00000000000024
 21
85.27000000000001
 31
0.0
  0
LINE
  5
2248
330
221F
100
AcDbEntity
  8
0
100
AcDbLine
 10
-51.5
 20
295.67
 30
0.0
 11
-51.5
 21
85.27000000000001
 31
0.0
  0
LINE
  5
2249
330
221F
100
AcDbEntity
  8
0
100
AcDbLine
 10
-50.0
 20
295.67
 30
0.0
 11
-50.0
 21
85.27000000000001
 31
0.0
  0
LINE
  5
224A
330
221F
100
AcDbEntity
  8
0
100
AcDbLine
 10
46.49999999999998
 20
80.27000000000001
 30
0.0
 11
49.39999999999999
 21
80.27000000000001
 31
0.0
  0
LINE
  5
224B
330
221F
100
AcDbEntity
  8
0
100
AcDbLine
 10
-49.40000000000001
 20
80.27000000000001
 30
0.0
 11
-46.50000000000001
 21
80.26999999999999
 31
0.0
  0
LINE
  5
224C
330
221F
100
AcDbEntity
  8
0
100
AcDbLine
 10
-49.40000000000001
 20
300.67
 30
0.0
 11
49.39999999999999
 21
300.67
 31
0.0
  0
LINE
  5
224D
330
221F
100
AcDbEntity
  8
0
100
AcDbLine
 10
51.50000000000234
 20
-2.263131642256645
 30
0.0
 11
51.5
 21
-21.35501473263468
 31
0.0
  0
LINE
  5
224E
330
221F
100
AcDbEntity
  8
0
100
AcDbLine
 10
50.00000000000195
 20
-2.263131642256645
 30
0.0
 11
50.0
 21
-21.35501473263467
 31
0.0
  0
ELLIPSE
  5
224F
330
221F
100
AcDbEntity
  8
0
100
AcDbEllipse
 10
49.40000000000001
 20
-54.16476937947051
 30
0.0
 11
0.6000000000000089
 21
0.0000000000001113
 31
0.0
210
0.0
220
0.0
230
1.0
 40
0.7071067811865475
 41
4.712388980384544
 42
6.283185307179551
  0
ELLIPSE
  5
2250
330
221F
100
AcDbEntity
  8
0
100
AcDbEllipse
 10
49.40000000000001
 20
-54.16476937947051
 30
0.0
 11
2.100000000000031
 21
0.0000000000002842
 31
0.0
210
0.0
220
0.0
230
1.0
 40
0.7071067811865435
 41
4.712388980384822
 42
6.283185307180016
  0
LINE
  5
2251
330
221F
100
AcDbEntity
  8
0
100
AcDbLine
 10
51.50000000000234
 20
-2.263131642256645
 30
0.0
 11
50.00000000000195
 21
-2.263131642256645
 31
0.0
  0
ELLIPSE
  5
2252
330
221F
100
AcDbEntity
  8
0
100
AcDbEllipse
 10
-46.50000000000001
 20
0.0236058844764314
 30
0.0
 11
-1.5
 21
0.0000000000001099
 31
0.0
210
0.0
220
0.0
230
1.0
 40
0.7071067811865483
 41
1.570796326795026
 42
2.705254581962106
  0
LINE
  5
2253
330
221F
100
AcDbEntity
  8
0
100
AcDbLine
 10
-46.50000000000001
 20
-1.03705428730339
 30
0.0
 11
-48.79315533855972
 21
-1.03705428730339
 31
0.0
  0
LINE
  5
2254
330
221F
100
AcDbEntity
  8
0
100
AcDbLine
 10
-48.79315533855972
 20
-1.03705428730339
 30
0.0
 11
-49.40000000000001
 21
-1.466158262545873
 31
0.0
  0
LINE
  5
2255
330
221F
100
AcDbEntity
  8
0
100
AcDbLine
 10
49.39999999999999
 20
-1.466158262545877
 30
0.0
 11
48.79315533855971
 21
-1.037054287303394
 31
0.0
  0
LINE
  5
2256
330
221F
100
AcDbEntity
  8
0
100
AcDbLine
 10
48.79315533855971
 20
-1.037054287303394
 30
0.0
 11
46.49999999999998
 21
-1.037054287303394
 31
0.0
  0
ELLIPSE
  5
2257
330
221F
100
AcDbEntity
  8
0
100
AcDbEllipse
 10
46.49999999999998
 20
0.0236058844764313
 30
0.0
 11
-1.5
 21
0.0
 31
0.0
210
0.0
220
0.0
230
1.0
 40
0.7071067811865479
 41
0.4363380716279393
 42
1.570796326794896
  0
SPLINE
  5
2258
330
221F
100
AcDbEntity
  8
0
100
AcDbSpline
210
0.0
220
0.0
230
1.0
 70
     8
 71
     3
 72
     8
 73
     4
 74
     0
 42
0.000000001
 43
0.0000000001
 40
-1.0
 40
-1.0
 40
-1.0
 40
-1.0
 40
0.0
 40
0.0
 40
0.0
 40
0.0
 10
45.14054197002043
 20
-0.4246540092928796
 30
0.0
 10
45.01586474390237
 20
-0.3214850446753106
 30
0.0
 10
44.97251992074088
 20
-0.159479210935433
 30
0.0
 10
45.01767776087192
 20
-0.0003899405809504
 30
0.0
  0
SPLINE
  5
2259
330
221F
100
AcDbEntity
  8
0
100
AcDbSpline
210
0.0
220
0.0
230
1.0
 70
     8
 71
     3
 72
     8
 73
     4
 74
     0
 42
0.000000001
 43
0.0000000001
 40
-1.0
 40
-1.0
 40
-1.0
 40
-1.0
 40
0.0
 40
0.0
 40
0.0
 40
0.0
 10
-45.01767776087196
 20
-0.0003899405809502
 30
0.0
 10
-44.972519920739
 20
-0.1594792109354395
 30
0.0
 10
-45.01586474390337
 20
-0.3214850446753204
 30
0.0
 10
-45.14054197002045
 20
-0.4246540092928793
 30
0.0
  0
LINE
  5
225A
330
221F
100
AcDbEntity
  8
0
100
AcDbLine
 10
-50.0000000000017
 20
-2.263131642256627
 30
0.0
 11
-51.50000000000208
 21
-2.263131642256627
 31
0.0
  0
SPLINE
  5
225B
330
221F
100
AcDbEntity
  8
0
100
AcDbSpline
210
0.0
220
0.0
230
1.0
 70
     8
 71
     3
 72
     8
 73
     4
 74
     0
 42
0.000000001
 43
0.0000000001
 40
-1.0
 40
-1.0
 40
-1.0
 40
-1.0
 40
0.0
 40
0.0
 40
0.0
 40
0.0
 10
-49.40000000000001
 20
-1.466158262545868
 30
0.0
 10
-49.714159265359
 20
-1.873237411765231
 30
0.0
 10
-50.00000000000001
 20
-2.078196639179899
 30
0.0
 10
-50.00000000000003
 20
-2.263131641492137
 30
0.0
  0
ARC
  5
225C
330
221F
100
AcDbEntity
  8
0
100
AcDbCircle
 10
-46.50000000000001
 20
-0.229999999999963
 30
0.0
 40
1.5
100
AcDbArc
 50
8.805075259700021
 51
90.0
  0
SPLINE
  5
225D
330
221F
100
AcDbEntity
  8
0
100
AcDbSpline
210
0.0
220
0.0
230
1.0
 70
     8
 71
     3
 72
     8
 73
     4
 74
     0
 42
0.000000001
 43
0.0000000001
 40
-1.0
 40
-1.0
 40
-1.0
 40
-1.0
 40
0.0
 40
0.0
 40
0.0
 40
0.0
 10
50.0
 20
-2.263131641492123
 30
0.0
 10
50.0
 20
-2.078196639180437
 30
0.0
 10
49.71415926535897
 20
-1.873237411764876
 30
0.0
 10
49.39999999999999
 20
-1.466158262545873
 30
0.0
  0
ARC
  5
225E
330
221F
100
AcDbEntity
  8
0
100
AcDbCircle
 10
46.49999999999998
 20
-0.229999999999963
 30
0.0
 40
1.5
100
AcDbArc
 50
90.0
 51
171.1949247403
  0
SPLINE
  5
225F
330
221F
100
AcDbEntity
  8
0
100
AcDbSpline
210
0.0
220
0.0
230
1.0
 70
     8
 71
     3
 72
    16
 73
    12
 74
     0
 42
0.000000001
 43
0.0000000001
 40
0.0
 40
0.0
 40
0.0
 40
0.0
 40
0.0356537247291694
 40
0.0356537247291694
 40
0.0703704956537104
 40
0.0703704956537104
 40
0.105134564018704
 40
0.105134564018704
 40
0.1398962718763591
 40
0.1398962718763591
 40
0.1538885733137683
 40
0.1538885733137683
 40
0.1538885733137683
 40
0.1538885733137683
 10
-50.4995000000021
 20
-2.263131641492146
 30
0.0
 10
-50.49949999999867
 20
-2.263131641490593
 30
0.0
 10
-50.47955867539553
 20
-2.263059951014803
 30
0.0
 10
-50.40583172167299
 20
-2.250836451207591
 30
0.0
 10
-50.35213458024069
 20
-2.238741830453408
 30
0.0
 10
-50.22293730424024
 20
-2.194102190362814
 30
0.0
 10
-50.14591985428602
 20
-2.160888677198971
 30
0.0
 10
-49.98574064085055
 20
-2.069479202542368
 30
0.0
 10
-49.90073655252328
 20
-2.010107098200431
 30
0.0
 10
-49.78901418344334
 20
-1.909831885105021
 30
0.0
 10
-49.75758437990023
 20
-1.87894366984947
 30
0.0
 10
-49.72742155524394
 20
-1.846191951394257
 30
0.0
  0
SPLINE
  5
2260
330
221F
100
AcDbEntity
  8
0
100
AcDbSpline
210
0.0
220
0.0
230
1.0
 70
     8
 71
     3
 72
    16
 73
    12
 74
     0
 42
0.000000001
 43
0.0000000001
 40
0.0
 40
0.0
 40
0.0
 40
0.0
 40
0.0356266149292943
 40
0.0356266149292943
 40
0.0703447701760314
 40
0.0703447701760314
 40
0.1051087694954806
 40
0.1051087694954806
 40
0.1398704808014563
 40
0.1398704808014563
 40
0.1538888647030721
 40
0.1538888647030721
 40
0.1538888647030721
 40
0.1538888647030721
 10
49.72742155524386
 20
-1.84619195139418
 30
0.0
 10
49.80422088264685
 20
-1.929583012321573
 30
0.0
 10
49.88999615128307
 20
-2.001172959717506
 30
0.0
 10
50.0556404663937
 20
-2.113266523248647
 30
0.0
 10
50.13750261646659
 20
-2.155953002264424
 30
0.0
 10
50.28182181888684
 20
-2.217016702982982
 30
0.0
 10
50.34591305087243
 20
-2.236189491805477
 30
0.0
 10
50.44238223264271
 20
-2.2583953041852
 30
0.0
 10
50.4758721505625
 20
-2.261811174866376
 30
0.0
 10
50.49650501536229
 20
-2.263130971916337
 30
0.0
 10
50.49950000000024
 20
-2.263131641491523
 30
0.0
 10
50.49950000000059
 20
-2.263131641492133
 30
0.0
  0
LINE
  5
2261
330
221F
100
AcDbEntity
  8
0
100
AcDbLine
 10
51.5
 20
-54.16476937947052
 30
0.0
 11
51.49999999999998
 21
-28.42608254450011
 31
0.0
  0
LINE
  5
2262
330
221F
100
AcDbEntity
  8
0
100
AcDbLine
 10
-51.49999999999995
 20
-28.42608254450011
 30
0.0
 11
-51.5
 21
-54.16476937947052
 31
0.0
  0
LINE
  5
2263
330
221F
100
AcDbEntity
  8
0
100
AcDbLine
 10
-50.0
 20
-28.42608254450011
 30
0.0
 11
-50.0
 21
-54.16476937947052
 31
0.0
  0
LINE
  5
2264
330
221F
100
AcDbEntity
  8
0
100
AcDbLine
 10
-49.40000000000001
 20
-54.58903344818243
 30
0.0
 11
49.40000000000001
 21
-54.58903344818243
 31
0.0
  0
LINE
  5
2265
330
221F
100
AcDbEntity
  8
0
100
AcDbLine
 10
50.0
 20
-54.16476937947052
 30
0.0
 11
50.0
 21
-28.42608254450011
 31
0.0
  0
LINE
  5
2266
330
221F
100
AcDbEntity
  8
0
100
AcDbLine
 10
-49.40000000000001
 20
-55.64969361996226
 30
0.0
 11
49.40000000000001
 21
-55.64969361996226
 31
0.0
  0
LINE
  5
2267
330
221F
100
AcDbEntity
  8
0
100
AcDbLine
 10
-51.50000000000208
 20
-2.263131642256627
 30
0.0
 11
-51.49999999999998
 21
-21.35501473263468
 31
0.0
  0
LINE
  5
2268
330
221F
100
AcDbEntity
  8
0
100
AcDbLine
 10
-50.0000000000017
 20
-2.263131642256627
 30
0.0
 11
-49.99999999999999
 21
-21.35501473263467
 31
0.0
  0
CIRCLE
  5
2269
330
221F
100
AcDbEntity
  8
0
100
AcDbCircle
 10
39.99999999999999
 20
269.7700000000002
 30
0.0
 40
2.5
  0
CIRCLE
  5
226A
330
221F
100
AcDbEntity
  8
0
100
AcDbCircle
 10
39.99999999999999
 20
229.7700000000002
 30
0.0
 40
2.5
  0
CIRCLE
  5
226B
330
221F
100
AcDbEntity
  8
0
100
AcDbCircle
 10
39.99999999999999
 20
189.7700000000002
 30
0.0
 40
2.5
  0
CIRCLE
  5
226C
330
221F
100
AcDbEntity
  8
0
100
AcDbCircle
 10
39.99999999999999
 20
149.7700000000001
 30
0.0
 40
2.5
  0
CIRCLE
  5
226D
330
221F
100
AcDbEntity
  8
0
100
AcDbCircle
 10
39.99999999999999
 20
109.7700000000002
 30
0.0
 40
2.5
  0
CIRCLE
  5
226E
330
221F
100
AcDbEntity
  8
0
100
AcDbCircle
 10
39.99999999999999
 20
69.77000000000018
 30
0.0
 40
2.5
  0
CIRCLE
  5
226F
330
221F
100
AcDbEntity
  8
0
100
AcDbCircle
 10
39.99999999999999
 20
29.77000000000018
 30
0.0
 40
2.5
  0
CIRCLE
  5
2270
330
221F
100
AcDbEntity
  8
0
100
AcDbCircle
 10
29.99999999999998
 20
289.7700000000002
 30
0.0
 40
2.5
  0
CIRCLE
  5
2271
330
221F
100
AcDbEntity
  8
0
100
AcDbCircle
 10
29.99999999999998
 20
249.7700000000002
 30
0.0
 40
2.5
  0
CIRCLE
  5
2272
330
221F
100
AcDbEntity
  8
0
100
AcDbCircle
 10
29.99999999999998
 20
209.7700000000002
 30
0.0
 40
2.5
  0
CIRCLE
  5
2273
330
221F
100
AcDbEntity
  8
0
100
AcDbCircle
 10
29.99999999999998
 20
169.7700000000001
 30
0.0
 40
2.5
  0
CIRCLE
  5
2274
330
221F
100
AcDbEntity
  8
0
100
AcDbCircle
 10
29.99999999999998
 20
129.7700000000001
 30
0.0
 40
2.5
  0
CIRCLE
  5
2275
330
221F
100
AcDbEntity
  8
0
100
AcDbCircle
 10
29.99999999999998
 20
89.77000000000016
 30
0.0
 40
2.5
  0
CIRCLE
  5
2276
330
221F
100
AcDbEntity
  8
0
100
AcDbCircle
 10
29.99999999999998
 20
49.77000000000017
 30
0.0
 40
2.5
  0
CIRCLE
  5
2277
330
221F
100
AcDbEntity
  8
0
100
AcDbCircle
 10
29.99999999999998
 20
9.770000000000161
 30
0.0
 40
2.5
  0
CIRCLE
  5
2278
330
221F
100
AcDbEntity
  8
0
100
AcDbCircle
 10
-30.00000000000002
 20
269.7700000000001
 30
0.0
 40
2.5
  0
CIRCLE
  5
2279
330
221F
100
AcDbEntity
  8
0
100
AcDbCircle
 10
-30.00000000000002
 20
229.7700000000001
 30
0.0
 40
2.5
  0
CIRCLE
  5
227A
330
221F
100
AcDbEntity
  8
0
100
AcDbCircle
 10
-30.00000000000002
 20
189.77
 30
0.0
 40
2.5
  0
CIRCLE
  5
227B
330
221F
100
AcDbEntity
  8
0
100
AcDbCircle
 10
-30.00000000000002
 20
149.77
 30
0.0
 40
2.5
  0
CIRCLE
  5
227C
330
221F
100
AcDbEntity
  8
0
100
AcDbCircle
 10
-30.00000000000002
 20
109.7700000000001
 30
0.0
 40
2.5
  0
CIRCLE
  5
227D
330
221F
100
AcDbEntity
  8
0
100
AcDbCircle
 10
-30.00000000000002
 20
69.77000000000008
 30
0.0
 40
2.5
  0
CIRCLE
  5
227E
330
221F
100
AcDbEntity
  8
0
100
AcDbCircle
 10
-30.00000000000002
 20
29.77000000000008
 30
0.0
 40
2.5
  0
CIRCLE
  5
227F
330
221F
100
AcDbEntity
  8
0
100
AcDbCircle
 10
-40.00000000000001
 20
289.7700000000001
 30
0.0
 40
2.5
  0
CIRCLE
  5
2280
330
221F
100
AcDbEntity
  8
0
100
AcDbCircle
 10
-40.00000000000001
 20
249.7700000000001
 30
0.0
 40
2.5
  0
CIRCLE
  5
2281
330
221F
100
AcDbEntity
  8
0
100
AcDbCircle
 10
-40.00000000000001
 20
209.7700000000001
 30
0.0
 40
2.5
  0
CIRCLE
  5
2282
330
221F
100
AcDbEntity
  8
0
100
AcDbCircle
 10
-40.00000000000001
 20
169.77
 30
0.0
 40
2.5
  0
CIRCLE
  5
2283
330
221F
100
AcDbEntity
  8
0
100
AcDbCircle
 10
-40.00000000000001
 20
129.77
 30
0.0
 40
2.5
  0
CIRCLE
  5
2284
330
221F
100
AcDbEntity
  8
0
100
AcDbCircle
 10
-40.00000000000001
 20
89.77000000000007
 30
0.0
 40
2.5
  0
CIRCLE
  5
2285
330
221F
100
AcDbEntity
  8
0
100
AcDbCircle
 10
-40.00000000000001
 20
49.77000000000007
 30
0.0
 40
2.5
  0
CIRCLE
  5
2286
330
221F
100
AcDbEntity
  8
0
100
AcDbCircle
 10
-40.00000000000001
 20
9.770000000000063
 30
0.0
 40
2.5
  0
CIRCLE
  5
2287
330
221F
100
AcDbEntity
  8
0
100
AcDbCircle
 10
-63.027090561
 20
69.77000000000003
 30
0.0
 40
2.5
  0
CIRCLE
  5
2288
330
221F
100
AcDbEntity
  8
0
100
AcDbCircle
 10
57.02709056099997
 20
69.77000000000003
 30
0.0
 40
2.5
  0
CIRCLE
  5
2289
330
221F
100
AcDbEntity
  8
0
100
AcDbCircle
 10
-57.02709056099998
 20
29.77000000000005
 30
0.0
 40
2.5
  0
CIRCLE
  5
228A
330
221F
100
AcDbEntity
  8
0
100
AcDbCircle
 10
63.02709056099998
 20
29.77000000000004
 30
0.0
 40
2.5
  0
ELLIPSE
  5
228B
330
221F
100
AcDbEntity
  8
0
100
AcDbEllipse
 10
-17.50000000000001
 20
0.0236058844764062
 30
0.0
 11
-2.5
 21
0.0
 31
0.0
210
0.0
220
0.0
230
1.0
 40
0.7071067811865479
 41
0.2563733270184487
 42
1.570796326794896
  0
LINE
  5
228C
330
221F
100
AcDbEntity
  8
0
100
AcDbLine
 10
-12.50000000000001
 20
-1.744161068489974
 30
0.0
 11
-17.50000000000001
 21
-1.744161068489974
 31
0.0
  0
ELLIPSE
  5
228D
330
221F
100
AcDbEntity
  8
0
100
AcDbEllipse
 10
-12.50000000000001
 20
0.0236058844764063
 30
0.0
 11
2.5
 21
-0.0000000000000006
 31
0.0
210
0.0
220
0.0
230
1.0
 40
0.7071067811865479
 41
4.712388980384689
 42
6.026811980161138
  0
SPLINE
  5
228E
330
221F
100
AcDbEntity
  8
0
100
AcDbSpline
210
0.0
220
0.0
230
1.0
 70
     8
 71
     3
 72
     8
 73
     4
 74
     0
 42
0.000000001
 43
0.0000000001
 40
-1.0
 40
-1.0
 40
-1.0
 40
-1.0
 40
0.0
 40
0.0
 40
0.0
 40
0.0
 10
-19.91828991960765
 20
-0.4246540092928793
 30
0.0
 10
-19.99189972301985
 20
-0.3163012038324994
 30
0.0
 10
-20.01609483643937
 20
-0.1581319339738438
 30
0.0
 10
-19.98943351399744
 20
-0.0003899405809506
 30
0.0
  0
SPLINE
  5
228F
330
221F
100
AcDbEntity
  8
0
100
AcDbSpline
210
0.0
220
0.0
230
1.0
 70
     8
 71
     3
 72
     8
 73
     4
 74
     0
 42
0.000000001
 43
0.0000000001
 40
-1.0
 40
-1.0
 40
-1.0
 40
-1.0
 40
0.0
 40
0.0
 40
0.0
 40
0.0
 10
-10.01056648600258
 20
-0.0003899405809504
 30
0.0
 10
-9.983905163560523
 20
-0.1581319339738713
 30
0.0
 10
-10.00810027698006
 20
-0.3163012038325279
 30
0.0
 10
-10.08171008039237
 20
-0.4246540092928794
 30
0.0
  0
ARC
  5
2290
330
221F
100
AcDbEntity
  8
0
100
AcDbCircle
 10
-12.50000000000001
 20
-0.2299999999999986
 30
0.0
 40
2.5
100
AcDbArc
 50
5.269701326164559
 51
90.0
  0
LINE
  5
2291
330
221F
100
AcDbEntity
  8
0
100
AcDbLine
 10
-17.50000000000001
 20
2.270000000000001
 30
0.0
 11
-12.50000000000001
 21
2.270000000000001
 31
0.0
  0
ARC
  5
2292
330
221F
100
AcDbEntity
  8
0
100
AcDbCircle
 10
-17.50000000000001
 20
-0.2299999999999986
 30
0.0
 40
2.5
100
AcDbArc
 50
90.0
 51
174.7302986738354
  0
ELLIPSE
  5
2293
330
221F
100
AcDbEntity
  8
0
100
AcDbEllipse
 10
12.49999999999999
 20
0.0236058844764062
 30
0.0
 11
-2.5
 21
0.0
 31
0.0
210
0.0
220
0.0
230
1.0
 40
0.7071067811865479
 41
0.2563733270184487
 42
1.570796326794896
  0
LINE
  5
2294
330
221F
100
AcDbEntity
  8
0
100
AcDbLine
 10
17.49999999999999
 20
-1.744161068489975
 30
0.0
 11
12.49999999999999
 21
-1.744161068489975
 31
0.0
  0
ELLIPSE
  5
2295
330
221F
100
AcDbEntity
  8
0
100
AcDbEllipse
 10
17.49999999999999
 20
0.023605884476406
 30
0.0
 11
2.499999999999999
 21
-0.0000000000000005
 31
0.0
210
0.0
220
0.0
230
1.0
 40
0.7071067811865479
 41
4.712388980384689
 42
6.026811980161137
  0
SPLINE
  5
2296
330
221F
100
AcDbEntity
  8
0
100
AcDbSpline
210
0.0
220
0.0
230
1.0
 70
     8
 71
     3
 72
     8
 73
     4
 74
     0
 42
0.000000001
 43
0.0000000001
 40
-1.0
 40
-1.0
 40
-1.0
 40
-1.0
 40
0.0
 40
0.0
 40
0.0
 40
0.0
 10
10.08171008039235
 20
-0.4246540092928794
 30
0.0
 10
10.00810027697995
 20
-0.3163012038325243
 30
0.0
 10
9.983905163560512
 20
-0.1581319339738665
 30
0.0
 10
10.01056648600257
 20
-0.0003899405809504
 30
0.0
  0
SPLINE
  5
2297
330
221F
100
AcDbEntity
  8
0
100
AcDbSpline
210
0.0
220
0.0
230
1.0
 70
     8
 71
     3
 72
     8
 73
     4
 74
     0
 42
0.000000001
 43
0.0000000001
 40
-1.0
 40
-1.0
 40
-1.0
 40
-1.0
 40
0.0
 40
0.0
 40
0.0
 40
0.0
 10
19.98943351399742
 20
-0.0003899405809506
 30
0.0
 10
20.01609483643915
 20
-0.1581319339738321
 30
0.0
 10
19.99189972302028
 20
-0.3163012038325029
 30
0.0
 10
19.91828991960762
 20
-0.4246540092928792
 30
0.0
  0
ARC
  5
2298
330
221F
100
AcDbEntity
  8
0
100
AcDbCircle
 10
17.49999999999999
 20
-0.2299999999999986
 30
0.0
 40
2.5
100
AcDbArc
 50
5.269701326164559
 51
90.0
  0
LINE
  5
2299
330
221F
100
AcDbEntity
  8
0
100
AcDbLine
 10
12.49999999999999
 20
2.270000000000001
 30
0.0
 11
17.49999999999999
 21
2.270000000000001
 31
0.0
  0
ARC
  5
229A
330
221F
100
AcDbEntity
  8
0
100
AcDbCircle
 10
12.49999999999999
 20
-0.2299999999999986
 30
0.0
 40
2.5
100
AcDbArc
 50
90.0
 51
174.7302986738354
  0
ELLIPSE
  5
229B
330
221F
100
AcDbEntity
  8
0
100
AcDbEllipse
 10
-32.50000000000001
 20
0.0236058844764062
 30
0.0
 11
2.5
 21
-0.0000000000000011
 31
0.0
210
0.0
220
0.0
230
1.0
 40
0.7071067811865478
 41
3.397965980608243
 42
6.026811980161136
  0
ELLIPSE
  5
229C
330
221F
100
AcDbEntity
  8
0
100
AcDbEllipse
 10
32.5
 20
0.0236058844764063
 30
0.0
 11
2.5
 21
-0.0000000000000006
 31
0.0
210
0.0
220
0.0
230
1.0
 40
0.7071067811865479
 41
3.397965980608241
 42
6.026811980161137
  0
SPLINE
  5
229D
330
221F
100
AcDbEntity
  8
0
100
AcDbSpline
210
0.0
220
0.0
230
1.0
 70
     8
 71
     3
 72
     8
 73
     4
 74
     0
 42
0.000000001
 43
0.0000000001
 40
-1.0
 40
-1.0
 40
-1.0
 40
-1.0
 40
0.0
 40
0.0
 40
0.0
 40
0.0
 10
30.08171008039237
 20
-0.4246540092928802
 30
0.0
 10
30.00810027698003
 20
-0.316301203832513
 30
0.0
 10
29.98390516356053
 20
-0.1581319339738749
 30
0.0
 10
30.01056648600259
 20
-0.0003899405809507
 30
0.0
  0
SPLINE
  5
229E
330
221F
100
AcDbEntity
  8
0
100
AcDbSpline
210
0.0
220
0.0
230
1.0
 70
     8
 71
     3
 72
     8
 73
     4
 74
     0
 42
0.000000001
 43
0.0000000001
 40
-1.0
 40
-1.0
 40
-1.0
 40
-1.0
 40
0.0
 40
0.0
 40
0.0
 40
0.0
 10
-30.01056648600258
 20
-0.0003899405809506
 30
0.0
 10
-29.98390516356039
 20
-0.1581319339738686
 30
0.0
 10
-30.00810027697977
 20
-0.3163012038324636
 30
0.0
 10
-30.08171008039236
 20
-0.4246540092928794
 30
0.0
  0
SPLINE
  5
229F
330
221F
100
AcDbEntity
  8
0
100
AcDbSpline
210
0.0
220
0.0
230
1.0
 70
     8
 71
     3
 72
     8
 73
     4
 74
     0
 42
0.000000001
 43
0.0000000001
 40
-1.0
 40
-1.0
 40
-1.0
 40
-1.0
 40
0.0
 40
0.0
 40
0.0
 40
0.0
 10
-34.91828991960765
 20
-0.4246540092928802
 30
0.0
 10
-34.99189972302044
 20
-0.3163012038325055
 30
0.0
 10
-35.0160948364391
 20
-0.1581319339738682
 30
0.0
 10
-34.98943351399744
 20
-0.0003899405809504
 30
0.0
  0
ARC
  5
22A0
330
221F
100
AcDbEntity
  8
0
100
AcDbCircle
 10
-32.50000000000001
 20
-0.2299999999999986
 30
0.0
 40
2.499999999999999
100
AcDbArc
 50
5.269701326164559
 51
174.7302986738354
  0
SPLINE
  5
22A1
330
221F
100
AcDbEntity
  8
0
100
AcDbSpline
210
0.0
220
0.0
230
1.0
 70
     8
 71
     3
 72
     8
 73
     4
 74
     0
 42
0.000000001
 43
0.0000000001
 40
-1.0
 40
-1.0
 40
-1.0
 40
-1.0
 40
0.0
 40
0.0
 40
0.0
 40
0.0
 10
34.9894335139974
 20
-0.0003899405809506
 30
0.0
 10
35.0160948364394
 20
-0.1581319339738738
 30
0.0
 10
34.99189972301839
 20
-0.3163012038324565
 30
0.0
 10
34.91828991960772
 20
-0.4246540092928796
 30
0.0
  0
ARC
  5
22A2
330
221F
100
AcDbEntity
  8
0
100
AcDbCircle
 10
32.5
 20
-0.2299999999999986
 30
0.0
 40
2.5
100
AcDbArc
 50
5.269701326164559
 51
174.7302986738354
  0
ELLIPSE
  5
22A3
330
221F
100
AcDbEntity
  8
0
100
AcDbEllipse
 10
-49.40000000000001
 20
-54.16476937947051
 30
0.0
 11
-2.100000000000031
 21
0.0000000000000056
 31
0.0
210
0.0
220
0.0
230
1.0
 40
0.707106781186429
 41
0.0
 42
1.570796326794898
  0
ELLIPSE
  5
22A4
330
221F
100
AcDbEntity
  8
0
100
AcDbEllipse
 10
-49.40000000000001
 20
-54.16476937947051
 30
0.0
 11
-0.6000000000000087
 21
0.0
 31
0.0
210
0.0
220
0.0
230
1.0
 40
0.7071067811865506
 41
0.0
 42
1.570796326794882
  0
LINE
  5
22A5
330
221F
100
AcDbEntity
  8
0
100
AcDbLine
 10
49.39999999999999
 20
300.67
 30
0.0
 11
50.0
 21
300.67
 31
0.0
  0
LINE
  5
22A6
330
221F
100
AcDbEntity
  8
0
100
AcDbLine
 10
49.39999999999999
 20
80.27000000000001
 30
0.0
 11
50.0
 21
80.27000000000001
 31
0.0
  0
LINE
  5
22A7
330
221F
100
AcDbEntity
  8
0
100
AcDbLine
 10
-50.0
 20
300.67
 30
0.0
 11
-49.40000000000001
 21
300.67
 31
0.0
  0
LINE
  5
22A8
330
221F
100
AcDbEntity
  8
0
100
AcDbLine
 10
-50.0
 20
80.27000000000001
 30
0.0
 11
-49.40000000000001
 21
80.27000000000001
 31
0.0
  0
ENDBLK
  5
2221
330
221F
100
AcDbEntity
  8
0
100
AcDbBlockEnd
  0
BLOCK
  5
22AA
330
22A9
100
AcDbEntity
  8
0
100
AcDbBlockBegin
  2
SPR100_300-Left
 70
     0
 10
0.0
 20
0.0
 30
0.0
  3
SPR100_300-Left
  1

  0
LINE
  5
22AC
330
22A9
100
AcDbEntity
  8
0
100
AcDbLine
 10
0.0
 20
-0.0003899405809498
 30
0.0
 11
0.0
 21
1.270000000000037
 31
0.0
  0
LINE
  5
22AD
330
22A9
100
AcDbEntity
  8
0
100
AcDbLine
 10
62.91118318265855
 20
-2.263131642256627
 30
0.0
 11
4.362741700911136
 21
-2.263131641492148
 31
0.0
  0
LINE
  5
22AE
330
22A9
100
AcDbEntity
  8
0
100
AcDbLine
 10
1.675735931288094
 20
-0.4246540092928802
 30
0.0
 11
2.288136209298604
 21
-1.03705428730339
 31
0.0
  0
LINE
  5
22AF
330
22A9
100
AcDbEntity
  8
0
100
AcDbLine
 10
2.288136209298585
 20
-1.03705428730339
 30
0.0
 11
2.717240184541068
 21
-1.466158262545873
 31
0.0
  0
SPLINE
  5
22B0
330
22A9
100
AcDbEntity
  8
0
100
AcDbSpline
210
0.0
220
0.0
230
1.0
 70
     8
 71
     3
 72
     8
 73
     4
 74
     0
 42
0.000000001
 43
0.0000000001
 40
0.0
 40
0.0
 40
0.0
 40
0.0
 40
1.0
 40
1.0
 40
1.0
 40
1.0
 10
0.6150757595082719
 20
-1.4853141810727
 30
0.0
 10
0.2539843833468168
 20
-1.124222804911245
 30
0.0
 10
0.0000000000000213
 20
-0.557202386821662
 30
0.0
 10
0.0000000000000217
 20
-0.0003899405809492
 30
0.0
  0
SPLINE
  5
22B1
330
22A9
100
AcDbEntity
  8
0
100
AcDbSpline
210
0.0
220
0.0
230
1.0
 70
     8
 71
     3
 72
     8
 73
     4
 74
     0
 42
0.000000001
 43
0.0000000001
 40
-1.0
 40
-1.0
 40
-1.0
 40
-1.0
 40
0.0
 40
0.0
 40
0.0
 40
0.0
 10
1.500000000000021
 20
-0.0003899405809502
 30
0.0
 10
1.500000000000021
 20
-0.1594792109354395
 30
0.0
 10
1.572566966670534
 20
-0.3214850446753204
 30
0.0
 10
1.675735931288093
 20
-0.4246540092928793
 30
0.0
  0
SPLINE
  5
22B2
330
22A9
100
AcDbEntity
  8
0
100
AcDbSpline
210
0.0
220
0.0
230
1.0
 70
     8
 71
     3
 72
     8
 73
     4
 74
     0
 42
0.000000001
 43
0.0000000001
 40
-1.0
 40
-1.0
 40
-1.0
 40
-1.0
 40
0.0
 40
0.0
 40
0.0
 40
0.0
 10
2.717240184541076
 20
-1.466158262545868
 30
0.0
 10
3.124319333760438
 20
-1.873237411765231
 30
0.0
 10
3.733518404783125
 20
-2.078196639179899
 30
0.0
 10
4.362741700911191
 20
-2.263131641492137
 30
0.0
  0
LINE
  5
22B3
330
22A9
100
AcDbEntity
  8
0
100
AcDbLine
 10
2.717240184541068
 20
-1.466158262545873
 30
0.0
 11
2.364040347338455
 21
-1.819358099748486
 31
0.0
  0
LINE
  5
22B4
330
22A9
100
AcDbEntity
  8
0
100
AcDbLine
 10
2.364040347338455
 20
-1.819358099748486
 30
0.0
 11
1.656580012761247
 21
-2.526818434325694
 31
0.0
  0
SPLINE
  5
22B5
330
22A9
100
AcDbEntity
  8
0
100
AcDbSpline
210
0.0
220
0.0
230
1.0
 70
     8
 71
     3
 72
     8
 73
     4
 74
     0
 42
0.000000001
 43
0.0000000001
 40
0.0
 40
0.0
 40
0.0
 40
0.0
 40
1.0
 40
1.0
 40
1.0
 40
1.0
 10
4.36274170091116
 20
-2.263131641492168
 30
0.0
 10
3.178158037513318
 20
-2.633557006449706
 30
0.0
 10
2.063659161980617
 20
-2.933897583545052
 30
0.0
 10
1.656580012761254
 20
-2.526818434325689
 30
0.0
  0
LINE
  5
22B6
330
22A9
100
AcDbEntity
  8
0
100
AcDbLine
 10
1.656580012761247
 20
-2.526818434325694
 30
0.0
 11
1.227476037518767
 21
-2.097714459083206
 31
0.0
  0
LINE
  5
22B7
330
22A9
100
AcDbEntity
  8
0
100
AcDbLine
 10
2.288136209298585
 20
-1.03705428730339
 30
0.0
 11
1.227476037518767
 21
-2.097714459083206
 31
0.0
  0
LINE
  5
22B8
330
22A9
100
AcDbEntity
  8
0
100
AcDbLine
 10
1.227476037518797
 20
-2.097714459083196
 30
0.0
 11
0.6150757595082878
 21
-1.485314181072685
 31
0.0
  0
LINE
  5
22B9
330
22A9
100
AcDbEntity
  8
0
100
AcDbLine
 10
1.675735931288093
 20
-0.4246540092928796
 30
0.0
 11
1.322536092817006
 21
-0.7778538477639657
 31
0.0
  0
LINE
  5
22BA
330
22A9
100
AcDbEntity
  8
0
100
AcDbLine
 10
1.322536092817006
 20
-0.7778538477639657
 30
0.0
 11
0.6150757595082722
 21
-1.485314181072701
 31
0.0
  0
LINE
  5
22BB
330
22A9
100
AcDbEntity
  8
0
100
AcDbLine
 10
1.500000000000007
 20
-0.0003899405809504
 30
0.0
 11
1.00049999540892
 21
-0.0003899405809504
 31
0.0
  0
LINE
  5
22BC
330
22A9
100
AcDbEntity
  8
0
100
AcDbLine
 10
1.00049999540892
 20
-0.0003899405809504
 30
0.0
 11
0.0
 21
-0.0003899405809504
 31
0.0
  0
LINE
  5
22BD
330
22A9
100
AcDbEntity
  8
0
100
AcDbLine
 10
1.500000000000004
 20
1.270000000000037
 30
0.0
 11
1.500000000000004
 21
-0.0003899405809502
 31
0.0
  0
LINE
  5
22BE
330
22A9
100
AcDbEntity
  8
0
100
AcDbLine
 10
0.0
 20
6.269999999999996
 30
0.0
 11
0.0
 21
1.269999999999996
 31
0.0
  0
LINE
  5
22BF
330
22A9
100
AcDbEntity
  8
0
100
AcDbLine
 10
0.0
 20
77.27
 30
0.0
 11
0.0
 21
72.27
 31
0.0
  0
LINE
  5
22C0
330
22A9
100
AcDbEntity
  8
0
100
AcDbLine
 10
1.500000000000015
 20
1.269999999999996
 30
0.0
 11
1.500000000000016
 21
6.269999999999996
 31
0.0
  0
LINE
  5
22C1
330
22A9
100
AcDbEntity
  8
0
100
AcDbLine
 10
1.500000000000016
 20
6.269999999999996
 30
0.0
 11
0.0
 21
6.269999999999996
 31
0.0
  0
LINE
  5
22C2
330
22A9
100
AcDbEntity
  8
0
100
AcDbLine
 10
0.0
 20
1.269999999999996
 30
0.0
 11
1.500000000000015
 21
1.269999999999996
 31
0.0
  0
LINE
  5
22C3
330
22A9
100
AcDbEntity
  8
0
100
AcDbLine
 10
0.0
 20
72.27
 30
0.0
 11
1.500000000000016
 21
72.27
 31
0.0
  0
LINE
  5
22C4
330
22A9
100
AcDbEntity
  8
0
100
AcDbLine
 10
1.500000000000016
 20
72.27
 30
0.0
 11
1.500000000000015
 21
77.27
 31
0.0
  0
LINE
  5
22C5
330
22A9
100
AcDbEntity
  8
0
100
AcDbLine
 10
1.500000000000015
 20
77.27
 30
0.0
 11
0.0
 21
77.27
 31
0.0
  0
LINE
  5
22C6
330
22A9
100
AcDbEntity
  8
0
100
AcDbLine
 10
0.0
 20
6.269999999999996
 30
0.0
 11
0.0
 21
72.27
 31
0.0
  0
LINE
  5
22C7
330
22A9
100
AcDbEntity
  8
0
100
AcDbLine
 10
0.0
 20
77.27
 30
0.0
 11
0.0
 21
80.26999999999999
 31
0.0
  0
LINE
  5
22C8
330
22A9
100
AcDbEntity
  8
0
100
AcDbLine
 10
1.500000000000016
 20
6.269999999999996
 30
0.0
 11
1.500000000000016
 21
72.27
 31
0.0
  0
LINE
  5
22C9
330
22A9
100
AcDbEntity
  8
0
100
AcDbLine
 10
1.500000000000003
 20
77.27
 30
0.0
 11
1.500000000000003
 21
80.26999999999999
 31
0.0
  0
LINE
  5
22CA
330
22A9
100
AcDbEntity
  8
0
100
AcDbLine
 10
0.0
 20
80.27000000000001
 30
0.0
 11
0.0
 21
300.67
 31
0.0
  0
LINE
  5
22CB
330
22A9
100
AcDbEntity
  8
0
100
AcDbLine
 10
2.100000000000011
 20
300.67
 30
0.0
 11
0.0
 21
300.67
 31
0.0
  0
LINE
  5
22CC
330
22A9
100
AcDbEntity
  8
0
100
AcDbLine
 10
0.0
 20
80.27000000000001
 30
0.0
 11
2.100000000000002
 21
80.27000000000001
 31
0.0
  0
LINE
  5
22CD
330
22A9
100
AcDbEntity
  8
0
100
AcDbLine
 10
43.50000000000001
 20
85.27000000000001
 30
0.0
 11
38.50000000000001
 21
80.27000000000001
 31
0.0
  0
LINE
  5
22CE
330
22A9
100
AcDbEntity
  8
0
100
AcDbLine
 10
38.50000000000002
 20
300.67
 30
0.0
 11
43.50000000000001
 21
295.67
 31
0.0
  0
LINE
  5
22CF
330
22A9
100
AcDbEntity
  8
0
100
AcDbLine
 10
82.00306627385998
 20
-21.35501473263468
 30
0.0
 11
82.00306627385996
 21
-28.42608254450011
 31
0.0
  0
CIRCLE
  5
22D0
330
22A9
100
AcDbEntity
  8
0
100
AcDbCircle
 10
35.50000000000002
 20
287.77
 30
0.0
 40
2.5
  0
CIRCLE
  5
22D1
330
22A9
100
AcDbEntity
  8
0
100
AcDbCircle
 10
35.50000000000002
 20
267.77
 30
0.0
 40
2.5
  0
CIRCLE
  5
22D2
330
22A9
100
AcDbEntity
  8
0
100
AcDbCircle
 10
35.50000000000002
 20
247.77
 30
0.0
 40
2.5
  0
CIRCLE
  5
22D3
330
22A9
100
AcDbEntity
  8
0
100
AcDbCircle
 10
35.50000000000002
 20
227.77
 30
0.0
 40
2.5
  0
CIRCLE
  5
22D4
330
22A9
100
AcDbEntity
  8
0
100
AcDbCircle
 10
35.50000000000002
 20
207.77
 30
0.0
 40
2.5
  0
CIRCLE
  5
22D5
330
22A9
100
AcDbEntity
  8
0
100
AcDbCircle
 10
35.50000000000002
 20
187.77
 30
0.0
 40
2.5
  0
CIRCLE
  5
22D6
330
22A9
100
AcDbEntity
  8
0
100
AcDbCircle
 10
35.50000000000002
 20
167.7699999999999
 30
0.0
 40
2.5
  0
CIRCLE
  5
22D7
330
22A9
100
AcDbEntity
  8
0
100
AcDbCircle
 10
35.50000000000002
 20
147.77
 30
0.0
 40
2.5
  0
CIRCLE
  5
22D8
330
22A9
100
AcDbEntity
  8
0
100
AcDbCircle
 10
35.50000000000002
 20
127.77
 30
0.0
 40
2.5
  0
CIRCLE
  5
22D9
330
22A9
100
AcDbEntity
  8
0
100
AcDbCircle
 10
35.50000000000002
 20
107.77
 30
0.0
 40
2.5
  0
CIRCLE
  5
22DA
330
22A9
100
AcDbEntity
  8
0
100
AcDbCircle
 10
35.50000000000002
 20
87.76999999999999
 30
0.0
 40
2.5
  0
LINE
  5
22DB
330
22A9
100
AcDbEntity
  8
0
100
AcDbLine
 10
43.50000000000001
 20
295.67
 30
0.0
 11
43.50000000000001
 21
85.27000000000001
 31
0.0
  0
LINE
  5
22DC
330
22A9
100
AcDbEntity
  8
0
100
AcDbLine
 10
2.10000000000001
 20
300.67
 30
0.0
 11
38.50000000000001
 21
300.67
 31
0.0
  0
LINE
  5
22DD
330
22A9
100
AcDbEntity
  8
0
100
AcDbLine
 10
38.50000000000001
 20
80.27000000000001
 30
0.0
 11
2.100000000000004
 21
80.27000000000001
 31
0.0
  0
LINE
  5
22DE
330
22A9
100
AcDbEntity
  8
0
100
AcDbLine
 10
82.00306627385996
 20
-28.42608254450011
 30
0.0
 11
56.26437943888955
 21
-54.16476937947052
 31
0.0
  0
LINE
  5
22DF
330
22A9
100
AcDbEntity
  8
0
100
AcDbLine
 10
62.91118318265855
 20
-2.263131642256627
 30
0.0
 11
82.00306627385998
 21
-21.35501473263468
 31
0.0
  0
CIRCLE
  5
22E0
330
22A9
100
AcDbEntity
  8
0
100
AcDbCircle
 10
74.57844507130477
 20
-25.24410202925711
 30
0.0
 40
2.5
  0
ARC
  5
22E1
330
22A9
100
AcDbEntity
  8
0
100
AcDbCircle
 10
59.31559010709463
 20
-13.990452698916
 30
0.0
 40
0.8000000000000012
100
AcDbArc
 50
315.000000001042
 51
75.00000000104186
  0
LINE
  5
22E2
330
22A9
100
AcDbEntity
  8
0
100
AcDbLine
 10
59.88127553205416
 20
-14.55613812385494
 30
0.0
 11
56.81941335363088
 21
-17.61800030238964
 31
0.0
  0
ARC
  5
22E3
330
22A9
100
AcDbEntity
  8
0
100
AcDbCircle
 10
56.25372792867135
 20
-17.0523148774507
 30
0.0
 40
0.8
100
AcDbArc
 50
195.0000000010428
 51
315.0000000010428
  0
LINE
  5
22E4
330
22A9
100
AcDbEntity
  8
0
100
AcDbLine
 10
55.48098726764387
 20
-17.25937011354677
 30
0.0
 11
54.36026792735771
 21
-13.07678859487811
 31
0.0
  0
ARC
  5
22E5
330
22A9
100
AcDbEntity
  8
0
100
AcDbCircle
 10
55.13300858838519
 20
-12.86973335878203
 30
0.0
 40
0.8000000000000014
100
AcDbArc
 50
75.00000000104188
 51
195.0000000010427
  0
LINE
  5
22E6
330
22A9
100
AcDbEntity
  8
0
100
AcDbLine
 10
55.34006382445316
 20
-12.096992697747
 30
0.0
 11
59.5226453431626
 21
-13.21771203788096
 31
0.0
  0
LINE
  5
22E7
330
22A9
100
AcDbEntity
  8
0
100
AcDbLine
 10
55.28251771018369
 20
-12.08382813389861
 30
0.0
 11
54.34710336350719
 21
-13.01924248060914
 31
0.0
  0
LINE
  5
22E8
330
22A9
100
AcDbEntity
  8
0
100
AcDbLine
 10
54.77945519839778
 20
-55.64969361996226
 30
0.0
 11
1.656580012761246
 21
-2.52681843432569
 31
0.0
  0
LINE
  5
22E9
330
22A9
100
AcDbEntity
  8
0
100
AcDbLine
 10
56.26437943888955
 20
-54.1647693794705
 30
0.0
 11
54.77945519839754
 21
-55.64969361996204
 31
0.0
  0
ENDBLK
  5
22AB
330
22A9
100
AcDbEntity
  8
0
100
AcDbBlockEnd
  0
BLOCK
  5
22EB
330
22EA
100
AcDbEntity
  8
0
100
AcDbBlockBegin
  2
SPR100_300-Right
 70
     0
 10
0.0
 20
0.0
 30
0.0
  3
SPR100_300-Right
  1

  0
LINE
  5
22ED
330
22EA
100
AcDbEntity
  8
0
100
AcDbLine
 10
-1.499999999999965
 20
6.269999999999996
 30
0.0
 11
-1.499999999999967
 21
1.269999999999996
 31
0.0
  0
LINE
  5
22EE
330
22EA
100
AcDbEntity
  8
0
100
AcDbLine
 10
-1.499999999999967
 20
1.269999999999996
 30
0.0
 11
0.0
 21
1.269999999999956
 31
0.0
  0
LINE
  5
22EF
330
22EA
100
AcDbEntity
  8
0
100
AcDbLine
 10
0.0
 20
1.269999999999956
 30
0.0
 11
0.0
 21
6.269999999999996
 31
0.0
  0
LINE
  5
22F0
330
22EA
100
AcDbEntity
  8
0
100
AcDbLine
 10
0.0
 20
6.269999999999996
 30
0.0
 11
-1.499999999999965
 21
6.269999999999996
 31
0.0
  0
LINE
  5
22F1
330
22EA
100
AcDbEntity
  8
0
100
AcDbLine
 10
-1.499999999999965
 20
72.27000000000001
 30
0.0
 11
0.0
 21
72.27000000000001
 31
0.0
  0
LINE
  5
22F2
330
22EA
100
AcDbEntity
  8
0
100
AcDbLine
 10
0.0
 20
72.27000000000001
 30
0.0
 11
0.0
 21
77.27000000000001
 31
0.0
  0
LINE
  5
22F3
330
22EA
100
AcDbEntity
  8
0
100
AcDbLine
 10
-1.499999999999967
 20
77.27000000000001
 30
0.0
 11
-1.499999999999965
 21
72.27000000000001
 31
0.0
  0
LINE
  5
22F4
330
22EA
100
AcDbEntity
  8
0
100
AcDbLine
 10
0.0
 20
77.27000000000001
 30
0.0
 11
-1.499999999999967
 21
77.27000000000001
 31
0.0
  0
LINE
  5
22F5
330
22EA
100
AcDbEntity
  8
0
100
AcDbLine
 10
0.0
 20
72.27000000000001
 30
0.0
 11
0.0
 21
6.269999999999997
 31
0.0
  0
LINE
  5
22F6
330
22EA
100
AcDbEntity
  8
0
100
AcDbLine
 10
-1.499999999999965
 20
72.27000000000001
 30
0.0
 11
-1.499999999999965
 21
6.269999999999997
 31
0.0
  0
LINE
  5
22F7
330
22EA
100
AcDbEntity
  8
0
100
AcDbLine
 10
0.0
 20
80.27000000000001
 30
0.0
 11
0.0
 21
77.27000000000001
 31
0.0
  0
LINE
  5
22F8
330
22EA
100
AcDbEntity
  8
0
100
AcDbLine
 10
-1.499999999999978
 20
80.27000000000001
 30
0.0
 11
-1.499999999999978
 21
77.27000000000001
 31
0.0
  0
LINE
  5
22F9
330
22EA
100
AcDbEntity
  8
0
100
AcDbLine
 10
0.0
 20
1.270000000000037
 30
0.0
 11
0.0
 21
-0.0003899405809502
 31
0.0
  0
LINE
  5
22FA
330
22EA
100
AcDbEntity
  8
0
100
AcDbLine
 10
-4.362741700911099
 20
-2.263131641492123
 30
0.0
 11
-62.91118318265855
 21
-2.263131642256645
 31
0.0
  0
LINE
  5
22FB
330
22EA
100
AcDbEntity
  8
0
100
AcDbLine
 10
-2.717240184541043
 20
-1.466158262545877
 30
0.0
 11
-2.288136209298559
 21
-1.037054287303394
 31
0.0
  0
LINE
  5
22FC
330
22EA
100
AcDbEntity
  8
0
100
AcDbLine
 10
-2.288136209298583
 20
-1.03705428730339
 30
0.0
 11
-1.675735931288072
 21
-0.4246540092928779
 31
0.0
  0
SPLINE
  5
22FD
330
22EA
100
AcDbEntity
  8
0
100
AcDbSpline
210
0.0
220
0.0
230
1.0
 70
     8
 71
     3
 72
     8
 73
     4
 74
     0
 42
0.000000001
 43
0.0000000001
 40
0.0
 40
0.0
 40
0.0
 40
0.0
 40
1.0
 40
1.0
 40
1.0
 40
1.0
 10
-0.0000000000000022
 20
-0.0003899405809502
 30
0.0
 10
-0.0000000000000021
 20
-0.557202386821639
 30
0.0
 10
-0.2539843833467615
 20
-1.12422280491121
 30
0.0
 10
-0.6150757595082523
 20
-1.485314181072701
 30
0.0
  0
SPLINE
  5
22FE
330
22EA
100
AcDbEntity
  8
0
100
AcDbSpline
210
0.0
220
0.0
230
1.0
 70
     8
 71
     3
 72
     8
 73
     4
 74
     0
 42
0.000000001
 43
0.0000000001
 40
-1.0
 40
-1.0
 40
-1.0
 40
-1.0
 40
0.0
 40
0.0
 40
0.0
 40
0.0
 10
-1.675735931288073
 20
-0.4246540092928796
 30
0.0
 10
-1.572566966670505
 20
-0.3214850446753106
 30
0.0
 10
-1.500000000000002
 20
-0.159479210935433
 30
0.0
 10
-1.500000000000002
 20
-0.0003899405809504
 30
0.0
  0
LINE
  5
22FF
330
22EA
100
AcDbEntity
  8
0
100
AcDbLine
 10
-2.717240184541043
 20
-1.466158262545877
 30
0.0
 11
-2.364040347339098
 21
-1.819358099747821
 31
0.0
  0
SPLINE
  5
2300
330
22EA
100
AcDbEntity
  8
0
100
AcDbSpline
210
0.0
220
0.0
230
1.0
 70
     8
 71
     3
 72
     8
 73
     4
 74
     0
 42
0.000000001
 43
0.0000000001
 40
-1.0
 40
-1.0
 40
-1.0
 40
-1.0
 40
0.0
 40
0.0
 40
0.0
 40
0.0
 10
-4.362741700911165
 20
-2.263131641492123
 30
0.0
 10
-3.733518404783628
 20
-2.078196639180437
 30
0.0
 10
-3.124319333760071
 20
-1.873237411764876
 30
0.0
 10
-2.717240184541068
 20
-1.466158262545873
 30
0.0
  0
SPLINE
  5
2301
330
22EA
100
AcDbEntity
  8
0
100
AcDbSpline
210
0.0
220
0.0
230
1.0
 70
     8
 71
     3
 72
     8
 73
     4
 74
     0
 42
0.000000001
 43
0.0000000001
 40
0.0
 40
0.0
 40
0.0
 40
0.0
 40
1.0
 40
1.0
 40
1.0
 40
1.0
 10
-1.656580012761246
 20
-2.526818434325694
 30
0.0
 10
-2.063659161980249
 20
-2.933897583544697
 30
0.0
 10
-3.178158037513791
 20
-2.633557006450273
 30
0.0
 10
-4.36274170091113
 20
-2.263131641492158
 30
0.0
  0
LINE
  5
2302
330
22EA
100
AcDbEntity
  8
0
100
AcDbLine
 10
-2.364040347339098
 20
-1.819358099747821
 30
0.0
 11
-1.656580012761221
 21
-2.526818434325698
 31
0.0
  0
LINE
  5
2303
330
22EA
100
AcDbEntity
  8
0
100
AcDbLine
 10
-0.6150757595082657
 20
-1.485314181072685
 30
0.0
 11
-1.227476037518777
 21
-2.097714459083197
 31
0.0
  0
LINE
  5
2304
330
22EA
100
AcDbEntity
  8
0
100
AcDbLine
 10
-0.6150757595082523
 20
-1.4853141810727
 30
0.0
 11
-1.32253609281091
 21
-0.7778538477700426
 31
0.0
  0
LINE
  5
2305
330
22EA
100
AcDbEntity
  8
0
100
AcDbLine
 10
-1.32253609281091
 20
-0.7778538477700426
 30
0.0
 11
-1.675735931288073
 21
-0.4246540092928794
 31
0.0
  0
LINE
  5
2306
330
22EA
100
AcDbEntity
  8
0
100
AcDbLine
 10
-2.288136209298559
 20
-1.037054287303394
 30
0.0
 11
-1.227476037518743
 21
-2.097714459083209
 31
0.0
  0
LINE
  5
2307
330
22EA
100
AcDbEntity
  8
0
100
AcDbLine
 10
-1.227476037518743
 20
-2.097714459083209
 30
0.0
 11
-1.656580012761221
 21
-2.526818434325698
 31
0.0
  0
LINE
  5
2308
330
22EA
100
AcDbEntity
  8
0
100
AcDbLine
 10
-1.499999999999981
 20
-0.0003899405809504
 30
0.0
 11
-1.000499995460238
 21
-0.0003899405809504
 31
0.0
  0
LINE
  5
2309
330
22EA
100
AcDbEntity
  8
0
100
AcDbLine
 10
-1.000499995460238
 20
-0.0003899405809504
 30
0.0
 11
0.0
 21
-0.0003899405809504
 31
0.0
  0
LINE
  5
230A
330
22EA
100
AcDbEntity
  8
0
100
AcDbLine
 10
-1.499999999999984
 20
-0.0003899405809498
 30
0.0
 11
-1.499999999999984
 21
1.270000000000037
 31
0.0
  0
LINE
  5
230B
330
22EA
100
AcDbEntity
  8
0
100
AcDbLine
 10
0.0
 20
80.27000000000001
 30
0.0
 11
0.0
 21
300.67
 31
0.0
  0
LINE
  5
230C
330
22EA
100
AcDbEntity
  8
0
100
AcDbLine
 10
0.0
 20
300.67
 30
0.0
 11
-2.099999999999943
 21
300.67
 31
0.0
  0
LINE
  5
230D
330
22EA
100
AcDbEntity
  8
0
100
AcDbLine
 10
-2.099999999999961
 20
80.27000000000001
 30
0.0
 11
0.0
 21
80.27000000000001
 31
0.0
  0
LINE
  5
230E
330
22EA
100
AcDbEntity
  8
0
100
AcDbLine
 10
-38.49999999999996
 20
80.27000000000001
 30
0.0
 11
-43.49999999999995
 21
85.27000000000001
 31
0.0
  0
LINE
  5
230F
330
22EA
100
AcDbEntity
  8
0
100
AcDbLine
 10
-43.49999999999995
 20
295.67
 30
0.0
 11
-38.49999999999996
 21
300.67
 31
0.0
  0
LINE
  5
2310
330
22EA
100
AcDbEntity
  8
0
100
AcDbLine
 10
-82.00306627385993
 20
-28.42608254450011
 30
0.0
 11
-82.00306627385996
 21
-21.35501473263468
 31
0.0
  0
LINE
  5
2311
330
22EA
100
AcDbEntity
  8
0
100
AcDbLine
 10
-43.49999999999995
 20
85.27000000000001
 30
0.0
 11
-43.49999999999995
 21
295.67
 31
0.0
  0
LINE
  5
2312
330
22EA
100
AcDbEntity
  8
0
100
AcDbLine
 10
-2.099999999999961
 20
80.27000000000001
 30
0.0
 11
-38.49999999999996
 21
80.27000000000001
 31
0.0
  0
LINE
  5
2313
330
22EA
100
AcDbEntity
  8
0
100
AcDbLine
 10
-38.49999999999996
 20
300.67
 30
0.0
 11
-2.099999999999941
 21
300.67
 31
0.0
  0
CIRCLE
  5
2314
330
22EA
100
AcDbEntity
  8
0
100
AcDbCircle
 10
-35.49999999999999
 20
292.77
 30
0.0
 40
2.5
  0
CIRCLE
  5
2315
330
22EA
100
AcDbEntity
  8
0
100
AcDbCircle
 10
-35.49999999999999
 20
272.77
 30
0.0
 40
2.5
  0
CIRCLE
  5
2316
330
22EA
100
AcDbEntity
  8
0
100
AcDbCircle
 10
-35.49999999999999
 20
252.77
 30
0.0
 40
2.5
  0
CIRCLE
  5
2317
330
22EA
100
AcDbEntity
  8
0
100
AcDbCircle
 10
-35.49999999999999
 20
232.77
 30
0.0
 40
2.5
  0
CIRCLE
  5
2318
330
22EA
100
AcDbEntity
  8
0
100
AcDbCircle
 10
-35.49999999999999
 20
212.77
 30
0.0
 40
2.5
  0
CIRCLE
  5
2319
330
22EA
100
AcDbEntity
  8
0
100
AcDbCircle
 10
-35.49999999999999
 20
192.77
 30
0.0
 40
2.5
  0
CIRCLE
  5
231A
330
22EA
100
AcDbEntity
  8
0
100
AcDbCircle
 10
-35.49999999999999
 20
172.77
 30
0.0
 40
2.5
  0
CIRCLE
  5
231B
330
22EA
100
AcDbEntity
  8
0
100
AcDbCircle
 10
-35.49999999999999
 20
152.77
 30
0.0
 40
2.5
  0
CIRCLE
  5
231C
330
22EA
100
AcDbEntity
  8
0
100
AcDbCircle
 10
-35.49999999999999
 20
132.77
 30
0.0
 40
2.5
  0
CIRCLE
  5
231D
330
22EA
100
AcDbEntity
  8
0
100
AcDbCircle
 10
-35.49999999999999
 20
112.77
 30
0.0
 40
2.5
  0
CIRCLE
  5
231E
330
22EA
100
AcDbEntity
  8
0
100
AcDbCircle
 10
-35.49999999999999
 20
92.76999999999999
 30
0.0
 40
2.5
  0
LINE
  5
231F
330
22EA
100
AcDbEntity
  8
0
100
AcDbLine
 10
-62.91118318265855
 20
-2.263131642256645
 30
0.0
 11
-82.00306627385996
 21
-21.35501473263468
 31
0.0
  0
LINE
  5
2320
330
22EA
100
AcDbEntity
  8
0
100
AcDbLine
 10
-1.656580012761221
 20
-2.526818434325698
 30
0.0
 11
-54.77945519839777
 21
-55.64969361996226
 31
0.0
  0
LINE
  5
2321
330
22EA
100
AcDbEntity
  8
0
100
AcDbLine
 10
-54.77945519839777
 20
-55.64969361996227
 30
0.0
 11
-56.26437943888923
 21
-54.16476937947023
 31
0.0
  0
LINE
  5
2322
330
22EA
100
AcDbEntity
  8
0
100
AcDbLine
 10
-56.26437943888952
 20
-54.16476937947052
 30
0.0
 11
-82.00306627385993
 21
-28.42608254450011
 31
0.0
  0
CIRCLE
  5
2323
330
22EA
100
AcDbEntity
  8
0
100
AcDbCircle
 10
-71.04291116530767
 20
-21.70856812338872
 30
0.0
 40
2.5
  0
ARC
  5
2324
330
22EA
100
AcDbEntity
  8
0
100
AcDbCircle
 10
-51.59747468238809
 20
-9.33419945291363
 30
0.0
 40
0.8000000000000015
100
AcDbArc
 50
344.9999999989572
 51
355.4526675359234
  0
LINE
  5
2325
330
22EA
100
AcDbEntity
  8
0
100
AcDbLine
 10
-50.82473402136063
 20
-9.541254689009706
 30
0.0
 11
-51.94545336164679
 21
-13.72383620767836
 31
0.0
  0
ARC
  5
2326
330
22EA
100
AcDbEntity
  8
0
100
AcDbCircle
 10
-52.71819402267426
 20
-13.51678097158229
 30
0.0
 40
0.8
100
AcDbArc
 50
224.9999999989572
 51
344.9999999989576
  0
LINE
  5
2327
330
22EA
100
AcDbEntity
  8
0
100
AcDbLine
 10
-53.28387944763379
 20
-14.08246639652124
 30
0.0
 11
-56.34574162605708
 21
-11.02060421798654
 31
0.0
  0
ARC
  5
2328
330
22EA
100
AcDbEntity
  8
0
100
AcDbCircle
 10
-55.78005620109753
 20
-10.45491879304759
 30
0.0
 40
0.8000000000000014
100
AcDbArc
 50
104.9999999989575
 51
224.9999999989572
  0
LINE
  5
2329
330
22EA
100
AcDbEntity
  8
0
100
AcDbLine
 10
-55.9871114371655
 20
-9.682178132012559
 30
0.0
 11
-51.80452991845606
 21
-8.561458791878598
 31
0.0
  0
ARC
  5
232A
330
22EA
100
AcDbEntity
  8
0
100
AcDbCircle
 10
-51.59747468238809
 20
-9.33419945291363
 30
0.0
 40
0.8000000000000014
100
AcDbArc
 50
49.59733246198601
 51
104.9999999989581
  0
LINE
  5
232B
330
22EA
100
AcDbEntity
  8
0
100
AcDbLine
 10
-51.07895039795263
 20
-8.724992947325674
 30
0.0
 11
-50.79999294004348
 21
-9.397625556585486
 31
0.0
  0
ARC
  5
232C
330
22EA
100
AcDbEntity
  8
0
100
AcDbCircle
 10
-55.13300858838519
 20
-12.86973335878203
 30
0.0
 40
0.8000000000000014
100
AcDbArc
 50
349.2288663267698
 51
100.7711336711449
  0
ENDBLK
  5
22EC
330
22EA
100
AcDbEntity
  8
0
100
AcDbBlockEnd
  0
BLOCK
  5
232E
330
232D
100
AcDbEntity
  8
0
100
AcDbBlockBegin
  2
SPR100_300-Top
 70
     0
 10
0.0
 20
0.0
 30
0.0
  3
SPR100_300-Top
  1

  0
LINE
  5
2330
330
232D
100
AcDbEntity
  8
0
100
AcDbLine
 10
92.527090561
 20
-1.499999999999965
 30
0.0
 11
92.527090561
 21
0.0
 31
0.0
  0
LINE
  5
2331
330
232D
100
AcDbEntity
  8
0
100
AcDbLine
 10
-87.52709056100002
 20
0.0
 30
0.0
 11
-92.527090561
 21
0.0
 31
0.0
  0
LINE
  5
2332
330
232D
100
AcDbEntity
  8
0
100
AcDbLine
 10
92.527090561
 20
0.0
 30
0.0
 11
87.52709056099996
 21
0.0
 31
0.0
  0
LINE
  5
2333
330
232D
100
AcDbEntity
  8
0
100
AcDbLine
 10
-92.527090561
 20
0.0
 30
0.0
 11
-92.527090561
 21
-1.500000000000017
 31
0.0
  0
LINE
  5
2334
330
232D
100
AcDbEntity
  8
0
100
AcDbLine
 10
-92.527090561
 20
-1.500000000000017
 30
0.0
 11
-87.52709056100002
 21
-1.500000000000015
 31
0.0
  0
LINE
  5
2335
330
232D
100
AcDbEntity
  8
0
100
AcDbLine
 10
-87.52709056100002
 20
-1.500000000000015
 30
0.0
 11
-87.52709056100002
 21
0.0
 31
0.0
  0
LINE
  5
2336
330
232D
100
AcDbEntity
  8
0
100
AcDbLine
 10
87.52709056099996
 20
-1.499999999999966
 30
0.0
 11
92.527090561
 21
-1.499999999999965
 31
0.0
  0
LINE
  5
2337
330
232D
100
AcDbEntity
  8
0
100
AcDbLine
 10
87.52709056099996
 20
0.0
 30
0.0
 11
87.52709056099996
 21
-1.499999999999966
 31
0.0
  0
LINE
  5
2338
330
232D
100
AcDbEntity
  8
0
100
AcDbLine
 10
-87.52709056100002
 20
0.0
 30
0.0
 11
-49.40000000000001
 21
0.0
 31
0.0
  0
LINE
  5
2339
330
232D
100
AcDbEntity
  8
0
100
AcDbLine
 10
49.39999999999999
 20
0.0
 30
0.0
 11
87.52709056099996
 21
0.0
 31
0.0
  0
LINE
  5
233A
330
232D
100
AcDbEntity
  8
0
100
AcDbLine
 10
51.4124611797498
 20
-1.499999999999976
 30
0.0
 11
87.52709056099996
 21
-1.499999999999966
 31
0.0
  0
LINE
  5
233B
330
232D
100
AcDbEntity
  8
0
100
AcDbLine
 10
-87.52709056100002
 20
-1.500000000000015
 30
0.0
 11
-51.41246117974983
 21
-1.500000000000005
 31
0.0
  0
LINE
  5
233C
330
232D
100
AcDbEntity
  8
0
100
AcDbLine
 10
49.39999999999999
 20
0.0
 30
0.0
 11
-49.40000000000001
 21
0.0
 31
0.0
  0
LINE
  5
233D
330
232D
100
AcDbEntity
  8
0
100
AcDbLine
 10
51.50000000000021
 20
-38.49999999999996
 30
0.0
 11
51.5
 21
-2.099999999999941
 31
0.0
  0
LINE
  5
233E
330
232D
100
AcDbEntity
  8
0
100
AcDbLine
 10
-51.50000000000002
 20
-2.100000000000011
 30
0.0
 11
-51.5
 21
-38.50000000000002
 31
0.0
  0
LINE
  5
233F
330
232D
100
AcDbEntity
  8
0
100
AcDbLine
 10
50.0
 20
-2.099999999999961
 30
0.0
 11
50.00000000000021
 21
-38.49999999999997
 31
0.0
  0
LINE
  5
2340
330
232D
100
AcDbEntity
  8
0
100
AcDbLine
 10
-49.40000000000001
 20
-1.500000000000014
 30
0.0
 11
49.39999999999999
 21
-1.499999999999983
 31
0.0
  0
LINE
  5
2341
330
232D
100
AcDbEntity
  8
0
100
AcDbLine
 10
-50.0
 20
-38.50000000000001
 30
0.0
 11
-50.0
 21
-2.100000000000008
 31
0.0
  0
LINE
  5
2342
330
232D
100
AcDbEntity
  8
0
100
AcDbLine
 10
50.00000000000024
 20
-43.49999999999996
 30
0.0
 11
51.50000000000024
 21
-43.49999999999995
 31
0.0
  0
LINE
  5
2343
330
232D
100
AcDbEntity
  8
0
100
AcDbLine
 10
51.50000000000024
 20
-43.49999999999995
 30
0.0
 11
51.50000000000021
 21
-38.49999999999996
 31
0.0
  0
LINE
  5
2344
330
232D
100
AcDbEntity
  8
0
100
AcDbLine
 10
-51.5
 20
-38.50000000000002
 30
0.0
 11
-51.5
 21
-43.50000000000001
 31
0.0
  0
LINE
  5
2345
330
232D
100
AcDbEntity
  8
0
100
AcDbLine
 10
-51.5
 20
-43.50000000000001
 30
0.0
 11
-50.0
 21
-43.50000000000001
 31
0.0
  0
LINE
  5
2346
330
232D
100
AcDbEntity
  8
0
100
AcDbLine
 10
51.50000000000021
 20
-38.49999999999996
 30
0.0
 11
50.00000000000021
 21
-38.49999999999996
 31
0.0
  0
LINE
  5
2347
330
232D
100
AcDbEntity
  8
0
100
AcDbLine
 10
50.00000000000021
 20
-38.49999999999996
 30
0.0
 11
50.00000000000024
 21
-43.49999999999996
 31
0.0
  0
LINE
  5
2348
330
232D
100
AcDbEntity
  8
0
100
AcDbLine
 10
-50.0
 20
-43.50000000000001
 30
0.0
 11
-50.0
 21
-38.50000000000001
 31
0.0
  0
LINE
  5
2349
330
232D
100
AcDbEntity
  8
0
100
AcDbLine
 10
-50.0
 20
-38.50000000000001
 30
0.0
 11
-51.5
 21
-38.50000000000002
 31
0.0
  0
LINE
  5
234A
330
232D
100
AcDbEntity
  8
0
100
AcDbLine
 10
51.5
 20
-82.00306627385996
 30
0.0
 11
50.0
 21
-82.00306627385996
 31
0.0
  0
LINE
  5
234B
330
232D
100
AcDbEntity
  8
0
100
AcDbLine
 10
-49.99999999999999
 20
-82.00306627385998
 30
0.0
 11
-51.49999999999998
 21
-82.00306627385998
 31
0.0
  0
LINE
  5
234C
330
232D
100
AcDbEntity
  8
0
100
AcDbLine
 10
51.50000000000234
 20
-62.91118318265855
 30
0.0
 11
51.5
 21
-82.00306627385996
 31
0.0
  0
LINE
  5
234D
330
232D
100
AcDbEntity
  8
0
100
AcDbLine
 10
50.00000000000195
 20
-62.91118318265855
 30
0.0
 11
50.0
 21
-82.00306627385996
 31
0.0
  0
ELLIPSE
  5
234E
330
232D
100
AcDbEntity
  8
0
100
AcDbEllipse
 10
49.40000000000001
 20
-56.26437943888955
 30
0.0
 11
0.6000000000000089
 21
0.0000000000000612
 31
0.0
210
0.0
220
0.0
230
1.0
 40
0.7071067811865475
 41
0.0
 42
1.570796326794631
  0
LINE
  5
234F
330
232D
100
AcDbEntity
  8
0
100
AcDbLine
 10
51.50000000000234
 20
-62.91118318265855
 30
0.0
 11
50.00000000000195
 21
-62.91118318265855
 31
0.0
  0
LINE
  5
2350
330
232D
100
AcDbEntity
  8
0
100
AcDbLine
 10
51.50000000000002
 20
-43.49999999999995
 30
0.0
 11
51.50000000000234
 21
-62.91118318265855
 31
0.0
  0
LINE
  5
2351
330
232D
100
AcDbEntity
  8
0
100
AcDbLine
 10
-51.50000000000208
 20
-62.91118318265855
 30
0.0
 11
-51.50000000000208
 21
-43.50000000000001
 31
0.0
  0
ELLIPSE
  5
2352
330
232D
100
AcDbEntity
  8
0
100
AcDbEllipse
 10
-46.50000000000001
 20
-1.227476037518783
 30
0.0
 11
-1.5
 21
0.0000000000001096
 31
0.0
210
0.0
220
0.0
230
1.0
 40
0.7071067811865474
 41
1.570796326795026
 42
2.705254581962108
  0
LINE
  5
2353
330
232D
100
AcDbEntity
  8
0
100
AcDbLine
 10
-46.50000000000001
 20
-2.288136209298584
 30
0.0
 11
-48.79315533855972
 21
-2.288136209298585
 31
0.0
  0
LINE
  5
2354
330
232D
100
AcDbEntity
  8
0
100
AcDbLine
 10
-48.79315533855972
 20
-2.288136209298585
 30
0.0
 11
-49.40000000000001
 21
-2.717240184541069
 31
0.0
  0
LINE
  5
2355
330
232D
100
AcDbEntity
  8
0
100
AcDbLine
 10
49.39999999999999
 20
-2.717240184541042
 30
0.0
 11
48.79315533855971
 21
-2.288136209298559
 31
0.0
  0
LINE
  5
2356
330
232D
100
AcDbEntity
  8
0
100
AcDbLine
 10
48.79315533855971
 20
-2.288136209298559
 30
0.0
 11
46.49999999999998
 21
-2.288136209298559
 31
0.0
  0
ELLIPSE
  5
2357
330
232D
100
AcDbEntity
  8
0
100
AcDbEllipse
 10
46.49999999999998
 20
-1.227476037518762
 30
0.0
 11
-1.5
 21
-0.0000000000000003
 31
0.0
210
0.0
220
0.0
230
1.0
 40
0.7071067811865474
 41
0.4363380716279393
 42
1.570796326794896
  0
SPLINE
  5
2358
330
232D
100
AcDbEntity
  8
0
100
AcDbSpline
210
0.0
220
0.0
230
1.0
 70
     8
 71
     3
 72
     8
 73
     4
 74
     0
 42
0.000000001
 43
0.0000000001
 40
-1.0
 40
-1.0
 40
-1.0
 40
-1.0
 40
0.0
 40
0.0
 40
0.0
 40
0.0
 10
45.14054197002043
 20
-1.675735931288073
 30
0.0
 10
45.01586474390237
 20
-1.572566966670505
 30
0.0
 10
44.97251992074088
 20
-1.500000000000002
 30
0.0
 10
45.01767776087192
 20
-1.500000000000002
 30
0.0
  0
SPLINE
  5
2359
330
232D
100
AcDbEntity
  8
0
100
AcDbSpline
210
0.0
220
0.0
230
1.0
 70
     8
 71
     3
 72
     8
 73
     4
 74
     0
 42
0.000000001
 43
0.0000000001
 40
-1.0
 40
-1.0
 40
-1.0
 40
-1.0
 40
0.0
 40
0.0
 40
0.0
 40
0.0
 10
-45.01767776087196
 20
-1.500000000000022
 30
0.0
 10
-44.972519920739
 20
-1.500000000000022
 30
0.0
 10
-45.01586474390337
 20
-1.572566966670534
 30
0.0
 10
-45.14054197002045
 20
-1.675735931288093
 30
0.0
  0
LINE
  5
235A
330
232D
100
AcDbEntity
  8
0
100
AcDbLine
 10
-50.0000000000017
 20
-62.91118318265855
 30
0.0
 11
-51.50000000000208
 21
-62.91118318265855
 31
0.0
  0
LINE
  5
235B
330
232D
100
AcDbEntity
  8
0
100
AcDbLine
 10
-50.00000000000001
 20
-43.50000000000001
 30
0.0
 11
-50.0000000000017
 21
-62.91118318265855
 31
0.0
  0
SPLINE
  5
235C
330
232D
100
AcDbEntity
  8
0
100
AcDbSpline
210
0.0
220
0.0
230
1.0
 70
     8
 71
     3
 72
     8
 73
     4
 74
     0
 42
0.000000001
 43
0.0000000001
 40
-1.0
 40
-1.0
 40
-1.0
 40
-1.0
 40
0.0
 40
0.0
 40
0.0
 40
0.0
 10
-49.40000000000001
 20
-2.717240184541076
 30
0.0
 10
-49.714159265359
 20
-3.124319333760439
 30
0.0
 10
-50.00000000000001
 20
-3.733518404783125
 30
0.0
 10
-50.00000000000003
 20
-4.362741700911191
 30
0.0
  0
LINE
  5
235D
330
232D
100
AcDbEntity
  8
0
100
AcDbLine
 10
-49.40000000000001
 20
-2.717240184541069
 30
0.0
 11
-49.40000000000001
 21
-2.364040347338455
 31
0.0
  0
LINE
  5
235E
330
232D
100
AcDbEntity
  8
0
100
AcDbLine
 10
-49.40000000000001
 20
-2.364040347338455
 30
0.0
 11
-49.40000000000001
 21
-1.656580012761247
 31
0.0
  0
SPLINE
  5
235F
330
232D
100
AcDbEntity
  8
0
100
AcDbSpline
210
0.0
220
0.0
230
1.0
 70
     8
 71
     3
 72
     8
 73
     4
 74
     0
 42
0.000000001
 43
0.0000000001
 40
0.823392608386176
 40
0.823392608386176
 40
0.823392608386176
 40
0.823392608386176
 40
1.0
 40
1.0
 40
1.0
 40
1.0
 10
-49.96833079343947
 20
-1.934942494001798
 30
0.0
 10
-49.78528852951264
 20
-1.822430928280913
 30
0.0
 10
-49.59418996942229
 20
-1.72847319948526
 30
0.0
 10
-49.40000000000001
 20
-1.656580012761254
 30
0.0
  0
LINE
  5
2360
330
232D
100
AcDbEntity
  8
0
100
AcDbLine
 10
-49.40000000000001
 20
-1.656580012761247
 30
0.0
 11
-49.17856242236229
 21
-1.500000000000004
 31
0.0
  0
LINE
  5
2361
330
232D
100
AcDbEntity
  8
0
100
AcDbLine
 10
-48.79315533855972
 20
-2.288136209298585
 30
0.0
 11
-48.79315533855972
 21
-1.500000000000014
 31
0.0
  0
LINE
  5
2362
330
232D
100
AcDbEntity
  8
0
100
AcDbLine
 10
-45.14054197002047
 20
-1.675735931288093
 30
0.0
 11
-45.14054197002047
 21
-1.500000000000013
 31
0.0
  0
LINE
  5
2363
330
232D
100
AcDbEntity
  8
0
100
AcDbLine
 10
50.00000000000195
 20
-62.91118318265855
 30
0.0
 11
50.00000000000195
 21
-43.49999999999996
 31
0.0
  0
LINE
  5
2364
330
232D
100
AcDbEntity
  8
0
100
AcDbLine
 10
49.39999999999999
 20
-2.717240184541042
 30
0.0
 11
49.39999999999999
 21
-2.364040347339098
 31
0.0
  0
SPLINE
  5
2365
330
232D
100
AcDbEntity
  8
0
100
AcDbSpline
210
0.0
220
0.0
230
1.0
 70
     8
 71
     3
 72
     8
 73
     4
 74
     0
 42
0.000000001
 43
0.0000000001
 40
-1.0
 40
-1.0
 40
-1.0
 40
-1.0
 40
0.0
 40
0.0
 40
0.0
 40
0.0
 10
50.0
 20
-4.362741700911165
 30
0.0
 10
50.0
 20
-3.733518404783628
 30
0.0
 10
49.71415926535897
 20
-3.12431933376007
 30
0.0
 10
49.39999999999999
 20
-2.717240184541067
 30
0.0
  0
SPLINE
  5
2366
330
232D
100
AcDbEntity
  8
0
100
AcDbSpline
210
0.0
220
0.0
230
1.0
 70
     8
 71
     3
 72
     8
 73
     4
 74
     0
 42
0.000000001
 43
0.0000000001
 40
0.0
 40
0.0
 40
0.0
 40
0.0
 40
0.1766073916138231
 40
0.1766073916138231
 40
0.1766073916138231
 40
0.1766073916138231
 10
49.39999999999999
 20
-1.656580012761245
 30
0.0
 10
49.59418996942226
 20
-1.728473199485188
 30
0.0
 10
49.7852885295126
 20
-1.822430928280813
 30
0.0
 10
49.96833079343944
 20
-1.934942494001695
 30
0.0
  0
LINE
  5
2367
330
232D
100
AcDbEntity
  8
0
100
AcDbLine
 10
49.39999999999999
 20
-2.364040347339098
 30
0.0
 11
49.39999999999999
 21
-1.656580012761221
 31
0.0
  0
LINE
  5
2368
330
232D
100
AcDbEntity
  8
0
100
AcDbLine
 10
45.14054197002043
 20
-1.499999999999985
 30
0.0
 11
45.14054197002043
 21
-1.675735931288073
 31
0.0
  0
LINE
  5
2369
330
232D
100
AcDbEntity
  8
0
100
AcDbLine
 10
48.79315533855971
 20
-2.288136209298559
 30
0.0
 11
48.79315533855971
 21
-1.499999999999983
 31
0.0
  0
LINE
  5
236A
330
232D
100
AcDbEntity
  8
0
100
AcDbLine
 10
49.17856242236226
 20
-1.499999999999968
 30
0.0
 11
49.39999999999999
 21
-1.656580012761221
 31
0.0
  0
LINE
  5
236B
330
232D
100
AcDbEntity
  8
0
100
AcDbLine
 10
-51.50000000000208
 20
-62.91118318265855
 30
0.0
 11
-51.49999999999998
 21
-82.00306627385998
 31
0.0
  0
LINE
  5
236C
330
232D
100
AcDbEntity
  8
0
100
AcDbLine
 10
-50.0000000000017
 20
-62.91118318265855
 30
0.0
 11
-49.99999999999999
 21
-82.00306627385998
 31
0.0
  0
ELLIPSE
  5
236D
330
232D
100
AcDbEntity
  8
0
100
AcDbEllipse
 10
-17.50000000000001
 20
-0.1668158657389947
 30
0.0
 11
2.5
 21
0.0000000000001822
 31
0.0
210
0.0
220
0.0
230
1.0
 40
0.7071067811865472
 41
3.995971005724948
 42
4.712388980384623
  0
LINE
  5
236E
330
232D
100
AcDbEntity
  8
0
100
AcDbLine
 10
-19.91828991960765
 20
-1.500000000000005
 30
0.0
 11
-19.91828991960765
 21
-1.675735931288088
 31
0.0
  0
ELLIPSE
  5
236F
330
232D
100
AcDbEntity
  8
0
100
AcDbEllipse
 10
-17.50000000000001
 20
-1.227476037518802
 30
0.0
 11
-2.5
 21
-0.0000000000000006
 31
0.0
210
0.0
220
0.0
230
1.0
 40
0.7071067811865472
 41
0.2563733270184487
 42
1.570796326794896
  0
LINE
  5
2370
330
232D
100
AcDbEntity
  8
0
100
AcDbLine
 10
-17.50000000000001
 20
-1.934582818705337
 30
0.0
 11
-12.50000000000001
 21
-1.934582818705336
 31
0.0
  0
LINE
  5
2371
330
232D
100
AcDbEntity
  8
0
100
AcDbLine
 10
-12.50000000000001
 20
-2.995242990485158
 30
0.0
 11
-17.50000000000001
 21
-2.995242990485159
 31
0.0
  0
ELLIPSE
  5
2372
330
232D
100
AcDbEntity
  8
0
100
AcDbEllipse
 10
-12.50000000000001
 20
-0.1668158657389995
 30
0.0
 11
2.5
 21
0.0000000000000006
 31
0.0
210
0.0
220
0.0
230
1.0
 40
0.7071067811865474
 41
4.712388980384689
 42
5.428806955044302
  0
ELLIPSE
  5
2373
330
232D
100
AcDbEntity
  8
0
100
AcDbEllipse
 10
-12.50000000000001
 20
-1.227476037518801
 30
0.0
 11
2.5
 21
0.0000000000000007
 31
0.0
210
0.0
220
0.0
230
1.0
 40
0.7071067811865474
 41
4.712388980384689
 42
6.026811980161137
  0
LINE
  5
2374
330
232D
100
AcDbEntity
  8
0
100
AcDbLine
 10
-10.08171008039237
 20
-1.675735931288086
 30
0.0
 11
-10.08171008039237
 21
-1.500000000000002
 31
0.0
  0
SPLINE
  5
2375
330
232D
100
AcDbEntity
  8
0
100
AcDbSpline
210
0.0
220
0.0
230
1.0
 70
     8
 71
     3
 72
     8
 73
     4
 74
     0
 42
0.000000001
 43
0.0000000001
 40
-1.0
 40
-1.0
 40
-1.0
 40
-1.0
 40
0.0
 40
0.0
 40
0.0
 40
0.0
 10
-19.91828991960765
 20
-1.675735931288088
 30
0.0
 10
-19.99189972301985
 20
-1.567383125827708
 30
0.0
 10
-20.01609483643937
 20
-1.500000000000016
 30
0.0
 10
-19.98943351399744
 20
-1.500000000000016
 30
0.0
  0
SPLINE
  5
2376
330
232D
100
AcDbEntity
  8
0
100
AcDbSpline
210
0.0
220
0.0
230
1.0
 70
     8
 71
     3
 72
     8
 73
     4
 74
     0
 42
0.000000001
 43
0.0000000001
 40
-1.0
 40
-1.0
 40
-1.0
 40
-1.0
 40
0.0
 40
0.0
 40
0.0
 40
0.0
 10
-10.01056648600258
 20
-1.500000000000014
 30
0.0
 10
-9.983905163560523
 20
-1.500000000000014
 30
0.0
 10
-10.00810027698006
 20
-1.567383125827734
 30
0.0
 10
-10.08171008039237
 20
-1.675735931288086
 30
0.0
  0
ELLIPSE
  5
2377
330
232D
100
AcDbEntity
  8
0
100
AcDbEllipse
 10
12.49999999999999
 20
-0.1668158657389929
 30
0.0
 11
2.5
 21
0.0000000000001822
 31
0.0
210
0.0
220
0.0
230
1.0
 40
0.7071067811865474
 41
3.995971005724943
 42
4.712388980384623
  0
LINE
  5
2378
330
232D
100
AcDbEntity
  8
0
100
AcDbLine
 10
10.08171008039235
 20
-1.499999999999996
 30
0.0
 11
10.08171008039235
 21
-1.675735931288081
 31
0.0
  0
ELLIPSE
  5
2379
330
232D
100
AcDbEntity
  8
0
100
AcDbEllipse
 10
12.49999999999999
 20
-1.227476037518795
 30
0.0
 11
-2.5
 21
-0.0000000000000006
 31
0.0
210
0.0
220
0.0
230
1.0
 40
0.7071067811865472
 41
0.2563733270184487
 42
1.570796326794896
  0
LINE
  5
237A
330
232D
100
AcDbEntity
  8
0
100
AcDbLine
 10
12.49999999999999
 20
-1.934582818705329
 30
0.0
 11
17.49999999999999
 21
-1.934582818705328
 31
0.0
  0
LINE
  5
237B
330
232D
100
AcDbEntity
  8
0
100
AcDbLine
 10
17.49999999999999
 20
-2.99524299048515
 30
0.0
 11
12.49999999999999
 21
-2.995242990485151
 31
0.0
  0
ELLIPSE
  5
237C
330
232D
100
AcDbEntity
  8
0
100
AcDbEllipse
 10
17.49999999999999
 20
-0.1668158657389918
 30
0.0
 11
2.5
 21
0.0000000000000006
 31
0.0
210
0.0
220
0.0
230
1.0
 40
0.7071067811865472
 41
4.712388980384689
 42
5.428806955044303
  0
ELLIPSE
  5
237D
330
232D
100
AcDbEntity
  8
0
100
AcDbEllipse
 10
17.49999999999999
 20
-1.227476037518794
 30
0.0
 11
2.5
 21
0.0000000000000005
 31
0.0
210
0.0
220
0.0
230
1.0
 40
0.7071067811865472
 41
4.712388980384689
 42
6.026811980161137
  0
LINE
  5
237E
330
232D
100
AcDbEntity
  8
0
100
AcDbLine
 10
19.91828991960763
 20
-1.675735931288079
 30
0.0
 11
19.91828991960763
 21
-1.499999999999993
 31
0.0
  0
SPLINE
  5
237F
330
232D
100
AcDbEntity
  8
0
100
AcDbSpline
210
0.0
220
0.0
230
1.0
 70
     8
 71
     3
 72
     8
 73
     4
 74
     0
 42
0.000000001
 43
0.0000000001
 40
-1.0
 40
-1.0
 40
-1.0
 40
-1.0
 40
0.0
 40
0.0
 40
0.0
 40
0.0
 10
10.08171008039235
 20
-1.675735931288081
 30
0.0
 10
10.00810027697995
 20
-1.567383125827726
 30
0.0
 10
9.983905163560512
 20
-1.500000000000009
 30
0.0
 10
10.01056648600257
 20
-1.500000000000009
 30
0.0
  0
SPLINE
  5
2380
330
232D
100
AcDbEntity
  8
0
100
AcDbSpline
210
0.0
220
0.0
230
1.0
 70
     8
 71
     3
 72
     8
 73
     4
 74
     0
 42
0.000000001
 43
0.0000000001
 40
-1.0
 40
-1.0
 40
-1.0
 40
-1.0
 40
0.0
 40
0.0
 40
0.0
 40
0.0
 10
19.98943351399742
 20
-1.500000000000007
 30
0.0
 10
20.01609483643915
 20
-1.500000000000007
 30
0.0
 10
19.99189972302028
 20
-1.567383125827702
 30
0.0
 10
19.91828991960762
 20
-1.675735931288079
 30
0.0
  0
ELLIPSE
  5
2381
330
232D
100
AcDbEntity
  8
0
100
AcDbEllipse
 10
-32.50000000000001
 20
-1.227476037518805
 30
0.0
 11
2.5
 21
0.0000000000000006
 31
0.0
210
0.0
220
0.0
230
1.0
 40
0.7071067811865472
 41
3.397965980608242
 42
6.026811980161136
  0
ELLIPSE
  5
2382
330
232D
100
AcDbEntity
  8
0
100
AcDbEllipse
 10
32.5
 20
-1.227476037518791
 30
0.0
 11
2.5
 21
0.0000000000000009
 31
0.0
210
0.0
220
0.0
230
1.0
 40
0.7071067811865475
 41
3.397965980608241
 42
6.026811980161135
  0
SPLINE
  5
2383
330
232D
100
AcDbEntity
  8
0
100
AcDbSpline
210
0.0
220
0.0
230
1.0
 70
     8
 71
     3
 72
     8
 73
     4
 74
     0
 42
0.000000001
 43
0.0000000001
 40
-1.0
 40
-1.0
 40
-1.0
 40
-1.0
 40
0.0
 40
0.0
 40
0.0
 40
0.0
 10
30.08171008039237
 20
-1.675735931288078
 30
0.0
 10
30.00810027698003
 20
-1.56738312582771
 30
0.0
 10
29.98390516356053
 20
-1.500000000000005
 30
0.0
 10
30.01056648600259
 20
-1.500000000000005
 30
0.0
  0
SPLINE
  5
2384
330
232D
100
AcDbEntity
  8
0
100
AcDbSpline
210
0.0
220
0.0
230
1.0
 70
     8
 71
     3
 72
     8
 73
     4
 74
     0
 42
0.000000001
 43
0.0000000001
 40
-1.0
 40
-1.0
 40
-1.0
 40
-1.0
 40
0.0
 40
0.0
 40
0.0
 40
0.0
 10
-30.01056648600258
 20
-1.500000000000018
 30
0.0
 10
-29.98390516356039
 20
-1.500000000000018
 30
0.0
 10
-30.00810027697977
 20
-1.567383125827674
 30
0.0
 10
-30.08171008039236
 20
-1.67573593128809
 30
0.0
  0
ELLIPSE
  5
2385
330
232D
100
AcDbEntity
  8
0
100
AcDbEllipse
 10
-32.50000000000001
 20
-0.1668158657389986
 30
0.0
 11
2.499999999999999
 21
0.0000000000001832
 31
0.0
210
0.0
220
0.0
230
1.0
 40
0.7071067811865474
 41
3.995971005724948
 42
5.428806955044162
  0
LINE
  5
2386
330
232D
100
AcDbEntity
  8
0
100
AcDbLine
 10
-34.91828991960765
 20
-1.500000000000009
 30
0.0
 11
-34.91828991960763
 21
-1.675735931288091
 31
0.0
  0
LINE
  5
2387
330
232D
100
AcDbEntity
  8
0
100
AcDbLine
 10
-30.08171008039238
 20
-1.67573593128809
 30
0.0
 11
-30.08171008039238
 21
-1.500000000000008
 31
0.0
  0
SPLINE
  5
2388
330
232D
100
AcDbEntity
  8
0
100
AcDbSpline
210
0.0
220
0.0
230
1.0
 70
     8
 71
     3
 72
     8
 73
     4
 74
     0
 42
0.000000001
 43
0.0000000001
 40
-1.0
 40
-1.0
 40
-1.0
 40
-1.0
 40
0.0
 40
0.0
 40
0.0
 40
0.0
 10
-34.91828991960765
 20
-1.675735931288092
 30
0.0
 10
-34.99189972302044
 20
-1.567383125827717
 30
0.0
 10
-35.0160948364391
 20
-1.500000000000019
 30
0.0
 10
-34.98943351399744
 20
-1.500000000000019
 30
0.0
  0
ELLIPSE
  5
2389
330
232D
100
AcDbEntity
  8
0
100
AcDbEllipse
 10
32.5
 20
-0.1668158657389876
 30
0.0
 11
2.5
 21
0.0000000000001833
 31
0.0
210
0.0
220
0.0
230
1.0
 40
0.7071067811865474
 41
3.995971005724948
 42
5.428806955044168
  0
LINE
  5
238A
330
232D
100
AcDbEntity
  8
0
100
AcDbLine
 10
30.08171008039237
 20
-1.49999999999999
 30
0.0
 11
30.08171008039236
 21
-1.675735931288077
 31
0.0
  0
LINE
  5
238B
330
232D
100
AcDbEntity
  8
0
100
AcDbLine
 10
34.91828991960764
 20
-1.675735931288075
 30
0.0
 11
34.91828991960764
 21
-1.499999999999988
 31
0.0
  0
SPLINE
  5
238C
330
232D
100
AcDbEntity
  8
0
100
AcDbSpline
210
0.0
220
0.0
230
1.0
 70
     8
 71
     3
 72
     8
 73
     4
 74
     0
 42
0.000000001
 43
0.0000000001
 40
-1.0
 40
-1.0
 40
-1.0
 40
-1.0
 40
0.0
 40
0.0
 40
0.0
 40
0.0
 10
34.9894335139974
 20
-1.500000000000004
 30
0.0
 10
35.0160948364394
 20
-1.500000000000004
 30
0.0
 10
34.99189972301839
 20
-1.567383125827652
 30
0.0
 10
34.91828991960772
 20
-1.675735931288075
 30
0.0
  0
LINE
  5
238D
330
232D
100
AcDbEntity
  8
0
100
AcDbLine
 10
-49.40000000000001
 20
-55.8401153701776
 30
0.0
 11
49.40000000000001
 21
-55.84011537017758
 31
0.0
  0
ELLIPSE
  5
238E
330
232D
100
AcDbEntity
  8
0
100
AcDbEllipse
 10
-49.40000000000001
 20
-56.26437943888956
 30
0.0
 11
-0.6000000000000087
 21
0.0000000000000087
 31
0.0
210
0.0
220
0.0
230
1.0
 40
0.7071067811865445
 41
4.7123889803847
 42
6.283185307179586
  0
ARC
  5
238F
330
232D
100
AcDbEntity
  8
0
100
AcDbCircle
 10
49.39999999999999
 20
-2.099999999999988
 30
0.0
 40
0.600000000000005
100
AcDbArc
 50
0.0
 51
90.0
  0
ARC
  5
2390
330
232D
100
AcDbEntity
  8
0
100
AcDbCircle
 10
49.39999999999999
 20
-2.099999999999988
 30
0.0
 40
2.100000000000008
100
AcDbArc
 50
0.0
 51
90.0
  0
ARC
  5
2391
330
232D
100
AcDbEntity
  8
0
100
AcDbCircle
 10
-49.40000000000001
 20
-2.10000000000001
 30
0.0
 40
0.5999999999999961
100
AcDbArc
 50
90.0
 51
180.0
  0
ARC
  5
2392
330
232D
100
AcDbEntity
  8
0
100
AcDbCircle
 10
-49.40000000000001
 20
-2.10000000000001
 30
0.0
 40
2.099999999999999
100
AcDbArc
 50
90.0
 51
180.0
  0
ENDBLK
  5
232F
330
232D
100
AcDbEntity
  8
0
100
AcDbBlockEnd
  0
BLOCK
  5
2394
330
2393
100
AcDbEntity
  8
0
100
AcDbBlockBegin
  2
SPR100_300-Bottom
 70
     0
 10
0.0
 20
0.0
 30
0.0
  3
SPR100_300-Bottom
  1

  0
LINE
  5
2396
330
2393
100
AcDbEntity
  8
0
100
AcDbLine
 10
92.52709056099996
 20
1.499999999999965
 30
0.0
 11
87.52709056099996
 21
1.499999999999966
 31
0.0
  0
LINE
  5
2397
330
2393
100
AcDbEntity
  8
0
100
AcDbLine
 10
87.52709056099996
 20
1.499999999999966
 30
0.0
 11
87.52709056099996
 21
0.0
 31
0.0
  0
LINE
  5
2398
330
2393
100
AcDbEntity
  8
0
100
AcDbLine
 10
87.52709056099996
 20
0.0
 30
0.0
 11
92.52709056099996
 21
0.0
 31
0.0
  0
LINE
  5
2399
330
2393
100
AcDbEntity
  8
0
100
AcDbLine
 10
92.52709056099996
 20
0.0
 30
0.0
 11
92.52709056099996
 21
1.499999999999965
 31
0.0
  0
LINE
  5
239A
330
2393
100
AcDbEntity
  8
0
100
AcDbLine
 10
-92.527090561
 20
0.0
 30
0.0
 11
-87.527090561
 21
0.0
 31
0.0
  0
LINE
  5
239B
330
2393
100
AcDbEntity
  8
0
100
AcDbLine
 10
-87.527090561
 20
1.500000000000016
 30
0.0
 11
-92.527090561
 21
1.500000000000017
 31
0.0
  0
LINE
  5
239C
330
2393
100
AcDbEntity
  8
0
100
AcDbLine
 10
-92.527090561
 20
1.500000000000017
 30
0.0
 11
-92.527090561
 21
0.0
 31
0.0
  0
LINE
  5
239D
330
2393
100
AcDbEntity
  8
0
100
AcDbLine
 10
-87.527090561
 20
0.0
 30
0.0
 11
-87.527090561
 21
1.500000000000016
 31
0.0
  0
LINE
  5
239E
330
2393
100
AcDbEntity
  8
0
100
AcDbLine
 10
87.52709056099996
 20
0.0
 30
0.0
 11
46.49999999999998
 21
0.0
 31
0.0
  0
LINE
  5
239F
330
2393
100
AcDbEntity
  8
0
100
AcDbLine
 10
-46.50000000000001
 20
0.0
 30
0.0
 11
-87.527090561
 21
0.0
 31
0.0
  0
LINE
  5
23A0
330
2393
100
AcDbEntity
  8
0
100
AcDbLine
 10
-49.17856242236227
 20
1.500000000000008
 30
0.0
 11
-87.527090561
 21
1.500000000000016
 31
0.0
  0
LINE
  5
23A1
330
2393
100
AcDbEntity
  8
0
100
AcDbLine
 10
87.52709056099996
 20
1.499999999999966
 30
0.0
 11
49.17856242236227
 21
1.499999999999977
 31
0.0
  0
LINE
  5
23A2
330
2393
100
AcDbEntity
  8
0
100
AcDbLine
 10
46.49999999999998
 20
0.0
 30
0.0
 11
45.01767776087193
 21
0.0
 31
0.0
  0
LINE
  5
23A3
330
2393
100
AcDbEntity
  8
0
100
AcDbLine
 10
-45.01767776087196
 20
0.0
 30
0.0
 11
-46.50000000000001
 21
0.0
 31
0.0
  0
SPLINE
  5
23A4
330
2393
100
AcDbEntity
  8
0
100
AcDbSpline
210
0.0
220
0.0
230
1.0
 70
     8
 71
     3
 72
     8
 73
     4
 74
     0
 42
0.000000001
 43
0.0000000001
 40
0.0
 40
0.0
 40
0.0
 40
0.0
 40
1.0
 40
1.0
 40
1.0
 40
1.0
 10
45.01767776087192
 20
0.0000000000000019
 30
0.0
 10
44.97251992074088
 20
0.0000000000000018
 30
0.0
 10
45.01586474390237
 20
0.2539843833467613
 30
0.0
 10
45.14054197002043
 20
0.6150757595082521
 30
0.0
  0
SPLINE
  5
23A5
330
2393
100
AcDbEntity
  8
0
100
AcDbSpline
210
0.0
220
0.0
230
1.0
 70
     8
 71
     3
 72
     8
 73
     4
 74
     0
 42
0.000000001
 43
0.0000000001
 40
0.0
 40
0.0
 40
0.0
 40
0.0
 40
1.0
 40
1.0
 40
1.0
 40
1.0
 10
-45.14054197002045
 20
0.6150757595082722
 30
0.0
 10
-45.01586474390337
 20
0.253984383346817
 30
0.0
 10
-44.972519920739
 20
0.0000000000000215
 30
0.0
 10
-45.01767776087196
 20
0.0000000000000219
 30
0.0
  0
SPLINE
  5
23A6
330
2393
100
AcDbEntity
  8
0
100
AcDbSpline
210
0.0
220
0.0
230
1.0
 70
     8
 71
     3
 72
     8
 73
     4
 74
     0
 42
0.000000001
 43
0.0000000001
 40
0.0
 40
0.0
 40
0.0
 40
0.0
 40
1.0
 40
1.0
 40
1.0
 40
1.0
 10
-51.50000000000003
 20
4.362741700911161
 30
0.0
 10
-51.49999999999999
 20
3.178158037513319
 30
0.0
 10
-50.49955742875646
 20
2.063659161980617
 30
0.0
 10
-49.40000000000001
 20
1.656580012761254
 30
0.0
  0
LINE
  5
23A7
330
2393
100
AcDbEntity
  8
0
100
AcDbLine
 10
-49.40000000000001
 20
1.656580012761247
 30
0.0
 11
-48.79315533855972
 21
1.227476037518768
 31
0.0
  0
LINE
  5
23A8
330
2393
100
AcDbEntity
  8
0
100
AcDbLine
 10
-48.79315533855972
 20
1.227476037518768
 30
0.0
 11
-46.50000000000001
 21
1.227476037518762
 31
0.0
  0
ELLIPSE
  5
23A9
330
2393
100
AcDbEntity
  8
0
100
AcDbEllipse
 10
-46.50000000000001
 20
0.166815865738977
 30
0.0
 11
1.5
 21
-0.0000000000000003
 31
0.0
210
0.0
220
0.0
230
1.0
 40
0.7071067811865474
 41
0.4363380716279402
 42
1.570796326794896
  0
LINE
  5
23AA
330
2393
100
AcDbEntity
  8
0
100
AcDbLine
 10
-45.01767776087196
 20
0.1805170265381736
 30
0.0
 11
-45.01767776087196
 21
0.0
 31
0.0
  0
SPLINE
  5
23AB
330
2393
100
AcDbEntity
  8
0
100
AcDbSpline
210
0.0
220
0.0
230
1.0
 70
     8
 71
     3
 72
     8
 73
     4
 74
     0
 42
0.000000001
 43
0.0000000001
 40
0.0
 40
0.0
 40
0.0
 40
0.0
 40
1.0
 40
1.0
 40
1.0
 40
1.0
 10
49.39999999999999
 20
1.656580012761245
 30
0.0
 10
50.49955742875639
 20
2.063659161980249
 30
0.0
 10
51.49999999999998
 20
3.178158037513791
 30
0.0
 10
51.50000000000002
 20
4.362741700911129
 30
0.0
  0
ELLIPSE
  5
23AC
330
2393
100
AcDbEntity
  8
0
100
AcDbEllipse
 10
46.49999999999998
 20
0.1668158657389555
 30
0.0
 11
1.5
 21
-0.0000000000001103
 31
0.0
210
0.0
220
0.0
230
1.0
 40
0.7071067811865475
 41
1.570796326795019
 42
2.70525458196211
  0
LINE
  5
23AD
330
2393
100
AcDbEntity
  8
0
100
AcDbLine
 10
46.49999999999998
 20
1.227476037518737
 30
0.0
 11
48.79315533855971
 21
1.227476037518743
 31
0.0
  0
LINE
  5
23AE
330
2393
100
AcDbEntity
  8
0
100
AcDbLine
 10
48.79315533855971
 20
1.227476037518743
 30
0.0
 11
49.39999999999999
 21
1.656580012761221
 31
0.0
  0
LINE
  5
23AF
330
2393
100
AcDbEntity
  8
0
100
AcDbLine
 10
45.01767776087193
 20
0.1805170265382863
 30
0.0
 11
45.01767776087193
 21
0.0
 31
0.0
  0
LINE
  5
23B0
330
2393
100
AcDbEntity
  8
0
100
AcDbLine
 10
34.98943351399743
 20
0.0
 30
0.0
 11
45.01767776087193
 21
0.0
 31
0.0
  0
LINE
  5
23B1
330
2393
100
AcDbEntity
  8
0
100
AcDbLine
 10
19.98943351399742
 20
0.0
 30
0.0
 11
30.01056648600258
 21
0.0
 31
0.0
  0
LINE
  5
23B2
330
2393
100
AcDbEntity
  8
0
100
AcDbLine
 10
-10.01056648600258
 20
0.0
 30
0.0
 11
10.01056648600256
 21
0.0
 31
0.0
  0
LINE
  5
23B3
330
2393
100
AcDbEntity
  8
0
100
AcDbLine
 10
-30.01056648600258
 20
0.0
 30
0.0
 11
-19.98943351399743
 21
0.0
 31
0.0
  0
LINE
  5
23B4
330
2393
100
AcDbEntity
  8
0
100
AcDbLine
 10
-45.01767776087196
 20
0.0
 30
0.0
 11
-34.98943351399744
 21
0.0
 31
0.0
  0
LINE
  5
23B5
330
2393
100
AcDbEntity
  8
0
100
AcDbLine
 10
51.5
 20
56.26437943888952
 30
0.0
 11
51.49999999999998
 21
82.00306627385993
 31
0.0
  0
LINE
  5
23B6
330
2393
100
AcDbEntity
  8
0
100
AcDbLine
 10
-51.49999999999995
 20
82.00306627385996
 30
0.0
 11
-51.5
 21
56.26437943888955
 31
0.0
  0
LINE
  5
23B7
330
2393
100
AcDbEntity
  8
0
100
AcDbLine
 10
-50.0
 20
82.00306627385996
 30
0.0
 11
-50.0
 21
56.26437943888955
 31
0.0
  0
LINE
  5
23B8
330
2393
100
AcDbEntity
  8
0
100
AcDbLine
 10
-49.40000000000001
 20
55.8401153701776
 30
0.0
 11
49.40000000000001
 21
55.84011537017758
 31
0.0
  0
LINE
  5
23B9
330
2393
100
AcDbEntity
  8
0
100
AcDbLine
 10
50.0
 20
56.26437943888952
 30
0.0
 11
50.0
 21
82.00306627385993
 31
0.0
  0
LINE
  5
23BA
330
2393
100
AcDbEntity
  8
0
100
AcDbLine
 10
-49.40000000000001
 20
54.77945519839778
 30
0.0
 11
49.40000000000001
 21
54.77945519839777
 31
0.0
  0
LINE
  5
23BB
330
2393
100
AcDbEntity
  8
0
100
AcDbLine
 10
34.98943351399743
 20
0.0
 30
0.0
 11
30.01056648600258
 21
0.0
 31
0.0
  0
LINE
  5
23BC
330
2393
100
AcDbEntity
  8
0
100
AcDbLine
 10
-30.01056648600258
 20
0.0
 30
0.0
 11
-34.98943351399744
 21
0.0
 31
0.0
  0
SPLINE
  5
23BD
330
2393
100
AcDbEntity
  8
0
100
AcDbSpline
210
0.0
220
0.0
230
1.0
 70
     8
 71
     3
 72
     8
 73
     4
 74
     0
 42
0.000000001
 43
0.0000000001
 40
0.0
 40
0.0
 40
0.0
 40
0.0
 40
1.0
 40
1.0
 40
1.0
 40
1.0
 10
-30.08171008039236
 20
0.6150757595082688
 30
0.0
 10
-30.00810027697977
 20
0.235840940396814
 30
0.0
 10
-29.98390516356039
 20
0.0000000000000186
 30
0.0
 10
-30.01056648600258
 20
0.0000000000000186
 30
0.0
  0
SPLINE
  5
23BE
330
2393
100
AcDbEntity
  8
0
100
AcDbSpline
210
0.0
220
0.0
230
1.0
 70
     8
 71
     3
 72
     8
 73
     4
 74
     0
 42
0.000000001
 43
0.0000000001
 40
0.0
 40
0.0
 40
0.0
 40
0.0
 40
1.0
 40
1.0
 40
1.0
 40
1.0
 10
30.01056648600259
 20
0.0000000000000053
 30
0.0
 10
29.98390516356053
 20
0.0000000000000054
 30
0.0
 10
30.00810027698003
 20
0.235840940396972
 30
0.0
 10
30.08171008039237
 20
0.6150757595082581
 30
0.0
  0
ELLIPSE
  5
23BF
330
2393
100
AcDbEntity
  8
0
100
AcDbEllipse
 10
-32.50000000000001
 20
0.1668158657389986
 30
0.0
 11
-2.5
 21
0.000000000000001
 31
0.0
210
0.0
220
0.0
230
1.0
 40
0.7071067811865472
 41
3.397965980608241
 42
6.026811980161136
  0
SPLINE
  5
23C0
330
2393
100
AcDbEntity
  8
0
100
AcDbSpline
210
0.0
220
0.0
230
1.0
 70
     8
 71
     3
 72
     8
 73
     4
 74
     0
 42
0.000000001
 43
0.0000000001
 40
0.0
 40
0.0
 40
0.0
 40
0.0
 40
1.0
 40
1.0
 40
1.0
 40
1.0
 10
-34.98943351399744
 20
0.0000000000000197
 30
0.0
 10
-35.0160948364391
 20
0.0000000000000196
 30
0.0
 10
-34.99189972302044
 20
0.2358409403969599
 30
0.0
 10
-34.91828991960765
 20
0.6150757595082725
 30
0.0
  0
LINE
  5
23C1
330
2393
100
AcDbEntity
  8
0
100
AcDbLine
 10
-34.98943351399744
 20
0.180517026538172
 30
0.0
 11
-34.98943351399744
 21
0.0
 31
0.0
  0
LINE
  5
23C2
330
2393
100
AcDbEntity
  8
0
100
AcDbLine
 10
-30.01056648600258
 20
0.1805170265382192
 30
0.0
 11
-30.01056648600258
 21
0.0
 31
0.0
  0
LINE
  5
23C3
330
2393
100
AcDbEntity
  8
0
100
AcDbLine
 10
-34.14171865077714
 20
1.500000000000002
 30
0.0
 11
-30.85828134922288
 21
1.500000000000001
 31
0.0
  0
ELLIPSE
  5
23C4
330
2393
100
AcDbEntity
  8
0
100
AcDbEllipse
 10
32.5
 20
0.1668158657389876
 30
0.0
 11
-2.5
 21
0.0000000000000005
 31
0.0
210
0.0
220
0.0
230
1.0
 40
0.7071067811865474
 41
3.39796598060824
 42
6.026811980161135
  0
LINE
  5
23C5
330
2393
100
AcDbEntity
  8
0
100
AcDbLine
 10
30.01056648600258
 20
0.1805170265382436
 30
0.0
 11
30.01056648600258
 21
0.0
 31
0.0
  0
LINE
  5
23C6
330
2393
100
AcDbEntity
  8
0
100
AcDbLine
 10
34.98943351399743
 20
0.1805170265382808
 30
0.0
 11
34.98943351399743
 21
0.0
 31
0.0
  0
SPLINE
  5
23C7
330
2393
100
AcDbEntity
  8
0
100
AcDbSpline
210
0.0
220
0.0
230
1.0
 70
     8
 71
     3
 72
     8
 73
     4
 74
     0
 42
0.000000001
 43
0.0000000001
 40
0.0
 40
0.0
 40
0.0
 40
0.0
 40
1.0
 40
1.0
 40
1.0
 40
1.0
 10
34.91828991960772
 20
0.6150757595082544
 30
0.0
 10
34.99189972301839
 20
0.2358409403967741
 30
0.0
 10
35.0160948364394
 20
0.0000000000000042
 30
0.0
 10
34.9894335139974
 20
0.0000000000000042
 30
0.0
  0
LINE
  5
23C8
330
2393
100
AcDbEntity
  8
0
100
AcDbLine
 10
30.85828134922286
 20
1.499999999999987
 30
0.0
 11
34.14171865077714
 21
1.499999999999986
 31
0.0
  0
LINE
  5
23C9
330
2393
100
AcDbEntity
  8
0
100
AcDbLine
 10
19.98943351399742
 20
0.0
 30
0.0
 11
17.49999999999999
 21
0.0
 31
0.0
  0
LINE
  5
23CA
330
2393
100
AcDbEntity
  8
0
100
AcDbLine
 10
17.49999999999999
 20
0.0
 30
0.0
 11
12.49999999999999
 21
0.0
 31
0.0
  0
LINE
  5
23CB
330
2393
100
AcDbEntity
  8
0
100
AcDbLine
 10
12.49999999999999
 20
0.0
 30
0.0
 11
10.01056648600256
 21
0.0
 31
0.0
  0
LINE
  5
23CC
330
2393
100
AcDbEntity
  8
0
100
AcDbLine
 10
-10.01056648600258
 20
0.0
 30
0.0
 11
-12.50000000000001
 21
0.0
 31
0.0
  0
LINE
  5
23CD
330
2393
100
AcDbEntity
  8
0
100
AcDbLine
 10
-12.50000000000001
 20
0.0
 30
0.0
 11
-17.50000000000001
 21
0.0
 31
0.0
  0
LINE
  5
23CE
330
2393
100
AcDbEntity
  8
0
100
AcDbLine
 10
-17.50000000000001
 20
0.0
 30
0.0
 11
-19.98943351399743
 21
0.0
 31
0.0
  0
ELLIPSE
  5
23CF
330
2393
100
AcDbEntity
  8
0
100
AcDbEllipse
 10
-17.50000000000001
 20
0.1668158657389947
 30
0.0
 11
-2.5
 21
0.0000000000000006
 31
0.0
210
0.0
220
0.0
230
1.0
 40
0.7071067811865472
 41
4.712388980384689
 42
6.026811980161137
  0
LINE
  5
23D0
330
2393
100
AcDbEntity
  8
0
100
AcDbLine
 10
-17.50000000000001
 20
1.934582818705337
 30
0.0
 11
-12.50000000000001
 21
1.934582818705336
 31
0.0
  0
ELLIPSE
  5
23D1
330
2393
100
AcDbEntity
  8
0
100
AcDbEllipse
 10
-12.50000000000001
 20
0.1668158657389995
 30
0.0
 11
2.5
 21
-0.0000000000000006
 31
0.0
210
0.0
220
0.0
230
1.0
 40
0.7071067811865474
 41
0.2563733270184487
 42
1.570796326794896
  0
SPLINE
  5
23D2
330
2393
100
AcDbEntity
  8
0
100
AcDbSpline
210
0.0
220
0.0
230
1.0
 70
     8
 71
     3
 72
     8
 73
     4
 74
     0
 42
0.000000001
 43
0.0000000001
 40
0.0
 40
0.0
 40
0.0
 40
0.0
 40
1.0
 40
1.0
 40
1.0
 40
1.0
 10
-19.98943351399744
 20
0.0000000000000164
 30
0.0
 10
-20.01609483643937
 20
0.0000000000000164
 30
0.0
 10
-19.99189972301985
 20
0.2358409403969374
 30
0.0
 10
-19.91828991960765
 20
0.6150757595082666
 30
0.0
  0
LINE
  5
23D3
330
2393
100
AcDbEntity
  8
0
100
AcDbLine
 10
-19.98943351399743
 20
0.1805170265381761
 30
0.0
 11
-19.98943351399743
 21
0.0
 31
0.0
  0
LINE
  5
23D4
330
2393
100
AcDbEntity
  8
0
100
AcDbLine
 10
-10.01056648600258
 20
0.1805170265382339
 30
0.0
 11
-10.01056648600258
 21
0.0
 31
0.0
  0
SPLINE
  5
23D5
330
2393
100
AcDbEntity
  8
0
100
AcDbSpline
210
0.0
220
0.0
230
1.0
 70
     8
 71
     3
 72
     8
 73
     4
 74
     0
 42
0.000000001
 43
0.0000000001
 40
0.0
 40
0.0
 40
0.0
 40
0.0
 40
1.0
 40
1.0
 40
1.0
 40
1.0
 10
-10.08171008039237
 20
0.6150757595082644
 30
0.0
 10
-10.00810027698006
 20
0.2358409403970346
 30
0.0
 10
-9.983905163560523
 20
0.000000000000014
 30
0.0
 10
-10.01056648600258
 20
0.0000000000000142
 30
0.0
  0
LINE
  5
23D6
330
2393
100
AcDbEntity
  8
0
100
AcDbLine
 10
-12.50000000000001
 20
1.499999999999997
 30
0.0
 11
-10.85828134922287
 21
1.499999999999996
 31
0.0
  0
LINE
  5
23D7
330
2393
100
AcDbEntity
  8
0
100
AcDbLine
 10
-17.50000000000001
 20
1.499999999999999
 30
0.0
 11
-12.50000000000001
 21
1.499999999999998
 31
0.0
  0
LINE
  5
23D8
330
2393
100
AcDbEntity
  8
0
100
AcDbLine
 10
-19.14171865077713
 20
1.499999999999998
 30
0.0
 11
-17.50000000000001
 21
1.499999999999998
 31
0.0
  0
ELLIPSE
  5
23D9
330
2393
100
AcDbEntity
  8
0
100
AcDbEllipse
 10
12.49999999999999
 20
0.1668158657389929
 30
0.0
 11
-2.5
 21
0.0000000000000008
 31
0.0
210
0.0
220
0.0
230
1.0
 40
0.7071067811865474
 41
4.712388980384689
 42
6.026811980161137
  0
LINE
  5
23DA
330
2393
100
AcDbEntity
  8
0
100
AcDbLine
 10
12.49999999999999
 20
1.934582818705329
 30
0.0
 11
17.49999999999999
 21
1.934582818705328
 31
0.0
  0
ELLIPSE
  5
23DB
330
2393
100
AcDbEntity
  8
0
100
AcDbEllipse
 10
17.49999999999999
 20
0.1668158657389918
 30
0.0
 11
2.5
 21
-0.0000000000000006
 31
0.0
210
0.0
220
0.0
230
1.0
 40
0.7071067811865472
 41
0.2563733270184496
 42
1.570796326794896
  0
SPLINE
  5
23DC
330
2393
100
AcDbEntity
  8
0
100
AcDbSpline
210
0.0
220
0.0
230
1.0
 70
     8
 71
     3
 72
     8
 73
     4
 74
     0
 42
0.000000001
 43
0.0000000001
 40
0.0
 40
0.0
 40
0.0
 40
0.0
 40
1.0
 40
1.0
 40
1.0
 40
1.0
 10
10.01056648600257
 20
0.0000000000000097
 30
0.0
 10
9.983905163560512
 20
0.0000000000000096
 30
0.0
 10
10.00810027697995
 20
0.2358409403970171
 30
0.0
 10
10.08171008039235
 20
0.6150757595082599
 30
0.0
  0
LINE
  5
23DD
330
2393
100
AcDbEntity
  8
0
100
AcDbLine
 10
10.01056648600256
 20
0.1805170265382363
 30
0.0
 11
10.01056648600256
 21
0.0
 31
0.0
  0
LINE
  5
23DE
330
2393
100
AcDbEntity
  8
0
100
AcDbLine
 10
19.98943351399742
 20
0.1805170265381495
 30
0.0
 11
19.98943351399742
 21
0.0
 31
0.0
  0
SPLINE
  5
23DF
330
2393
100
AcDbEntity
  8
0
100
AcDbSpline
210
0.0
220
0.0
230
1.0
 70
     8
 71
     3
 72
     8
 73
     4
 74
     0
 42
0.000000001
 43
0.0000000001
 40
0.0
 40
0.0
 40
0.0
 40
0.0
 40
1.0
 40
1.0
 40
1.0
 40
1.0
 10
19.91828991960762
 20
0.6150757595082567
 30
0.0
 10
19.99189972302028
 20
0.2358409403969405
 30
0.0
 10
20.01609483643915
 20
0.0000000000000075
 30
0.0
 10
19.98943351399742
 20
0.0000000000000075
 30
0.0
  0
LINE
  5
23E0
330
2393
100
AcDbEntity
  8
0
100
AcDbLine
 10
17.49999999999999
 20
1.49999999999999
 30
0.0
 11
19.14171865077712
 21
1.49999999999999
 31
0.0
  0
LINE
  5
23E1
330
2393
100
AcDbEntity
  8
0
100
AcDbLine
 10
12.49999999999999
 20
1.499999999999991
 30
0.0
 11
17.49999999999999
 21
1.499999999999989
 31
0.0
  0
LINE
  5
23E2
330
2393
100
AcDbEntity
  8
0
100
AcDbLine
 10
10.85828134922286
 20
1.499999999999992
 30
0.0
 11
12.49999999999999
 21
1.499999999999992
 31
0.0
  0
LINE
  5
23E3
330
2393
100
AcDbEntity
  8
0
100
AcDbLine
 10
51.5
 20
2.099999999999961
 30
0.0
 11
51.50000000000002
 21
4.362741700911098
 31
0.0
  0
LINE
  5
23E4
330
2393
100
AcDbEntity
  8
0
100
AcDbLine
 10
-51.50000000000002
 20
4.36274170091113
 30
0.0
 11
-51.50000000000002
 21
2.100000000000002
 31
0.0
  0
LINE
  5
23E5
330
2393
100
AcDbEntity
  8
0
100
AcDbLine
 10
50.0
 20
82.00306627385993
 30
0.0
 11
51.49999999999998
 21
82.00306627385993
 31
0.0
  0
LINE
  5
23E6
330
2393
100
AcDbEntity
  8
0
100
AcDbLine
 10
-51.49999999999995
 20
82.00306627385996
 30
0.0
 11
-50.0
 21
82.00306627385996
 31
0.0
  0
LINE
  5
23E7
330
2393
100
AcDbEntity
  8
0
100
AcDbLine
 10
51.5
 20
56.26437943888952
 30
0.0
 11
51.50000000000002
 21
4.362741700911101
 31
0.0
  0
ELLIPSE
  5
23E8
330
2393
100
AcDbEntity
  8
0
100
AcDbEllipse
 10
49.40000000000001
 20
56.26437943888955
 30
0.0
 11
0.6000000000000089
 21
-0.0000000000000612
 31
0.0
210
0.0
220
0.0
230
1.0
 40
0.7071067811865475
 41
4.712388980384954
 42
6.283185307179342
  0
ELLIPSE
  5
23E9
330
2393
100
AcDbEntity
  8
0
100
AcDbEllipse
 10
49.40000000000001
 20
56.26437943888955
 30
0.0
 11
2.100000000000031
 21
-0.0000000000003202
 31
0.0
210
0.0
220
0.0
230
1.0
 40
0.7071067811865516
 41
4.712388980384615
 42
6.283185307179203
  0
LINE
  5
23EA
330
2393
100
AcDbEntity
  8
0
100
AcDbLine
 10
-51.50000000000003
 20
4.362741700911137
 30
0.0
 11
-51.5
 21
56.26437943888955
 31
0.0
  0
ELLIPSE
  5
23EB
330
2393
100
AcDbEntity
  8
0
100
AcDbEllipse
 10
-49.40000000000001
 20
56.26437943888956
 30
0.0
 11
-2.100000000000031
 21
-0.0000000000000051
 31
0.0
210
0.0
220
0.0
230
1.0
 40
0.707106781186666
 41
0.0
 42
1.570796326794894
  0
ELLIPSE
  5
23EC
330
2393
100
AcDbEntity
  8
0
100
AcDbEllipse
 10
-49.40000000000001
 20
56.26437943888956
 30
0.0
 11
-0.6000000000000087
 21
-0.0000000000000087
 31
0.0
210
0.0
220
0.0
230
1.0
 40
0.7071067811865445
 41
0.0000000000000003
 42
1.570796326794886
  0
ARC
  5
23ED
330
2393
100
AcDbEntity
  8
0
100
AcDbCircle
 10
49.39999999999999
 20
2.099999999999988
 30
0.0
 40
0.600000000000005
100
AcDbArc
 50
270.0
 51
343.4444348564459
  0
ARC
  5
23EE
330
2393
100
AcDbEntity
  8
0
100
AcDbCircle
 10
49.39999999999999
 20
2.099999999999988
 30
0.0
 40
2.100000000000008
100
AcDbArc
 50
343.3984504009796
 51
0.0
  0
ARC
  5
23EF
330
2393
100
AcDbEntity
  8
0
100
AcDbCircle
 10
-49.40000000000001
 20
2.10000000000001
 30
0.0
 40
0.5999999999999961
100
AcDbArc
 50
196.5555651435566
 51
270.0
  0
ARC
  5
23F0
330
2393
100
AcDbEntity
  8
0
100
AcDbCircle
 10
-49.40000000000001
 20
2.10000000000001
 30
0.0
 40
2.099999999999999
100
AcDbArc
 50
180.0
 51
196.6015495990203
  0
ENDBLK
  5
2395
330
2393
100
AcDbEntity
  8
0
100
AcDbBlockEnd
  0
BLOCK
  5
23F2
330
23F1
100
AcDbEntity
  8
0
100
AcDbBlockBegin
  2
SPR100_300-ISO
 70
     0
 10
0.0
 20
0.0
 30
0.0
  3
SPR100_300-ISO
  1

  0
LINE
  5
23F4
330
23F1
100
AcDbEntity
  8
0
100
AcDbLine
 10
93.35594368192351
 20
-116.558661517202
 30
0.0
 11
89.82040977599076
 21
-118.5999029695212
 31
0.0
  0
LINE
  5
23F5
330
23F1
100
AcDbEntity
  8
0
100
AcDbLine
 10
94.41660385370333
 20
-115.9462890815062
 30
0.0
 11
93.35594368192351
 21
-116.558661517202
 31
0.0
  0
LINE
  5
23F6
330
23F1
100
AcDbEntity
  8
0
100
AcDbLine
 10
93.35594368192353
 20
-62.66988717597205
 30
0.0
 11
94.41660385370335
 21
-62.05751474027625
 31
0.0
  0
LINE
  5
23F7
330
23F1
100
AcDbEntity
  8
0
100
AcDbLine
 10
94.41660385370335
 20
-62.05751474027625
 30
0.0
 11
90.88106994777058
 21
-55.93379038331831
 31
0.0
  0
LINE
  5
23F8
330
23F1
100
AcDbEntity
  8
0
100
AcDbLine
 10
-33.96158877043357
 20
-47.13433278791336
 30
0.0
 11
-37.49712267636631
 21
-41.01060843095542
 31
0.0
  0
LINE
  5
23F9
330
23F1
100
AcDbEntity
  8
0
100
AcDbLine
 10
89.82040977599076
 20
-56.5461628190141
 30
0.0
 11
93.35594368192353
 21
-62.66988717597205
 31
0.0
  0
LINE
  5
23FA
330
23F1
100
AcDbEntity
  8
0
100
AcDbLine
 10
90.88106994777058
 20
-55.93379038331831
 30
0.0
 11
89.82040977599076
 21
-56.5461628190141
 31
0.0
  0
LINE
  5
23FB
330
23F1
100
AcDbEntity
  8
0
100
AcDbLine
 10
94.41660385370335
 20
-62.05751474027625
 30
0.0
 11
94.41660385370333
 21
-115.9462890815062
 31
0.0
  0
LINE
  5
23FC
330
23F1
100
AcDbEntity
  8
0
100
AcDbLine
 10
93.35594368192353
 20
-62.66988717597205
 30
0.0
 11
93.35594368192351
 21
-116.558661517202
 31
0.0
  0
LINE
  5
23FD
330
23F1
100
AcDbEntity
  8
0
100
AcDbLine
 10
-8.486588728328632
 20
1.436154102070386
 30
0.0
 11
-3.890394650616055
 21
-1.217459785944718
 31
0.0
  0
LINE
  5
23FE
330
23F1
100
AcDbEntity
  8
0
100
AcDbLine
 10
63.284749562106
 20
-40.0010473800117
 30
0.0
 11
90.88106994777058
 21
-55.93379038331831
 31
0.0
  0
LINE
  5
23FF
330
23F1
100
AcDbEntity
  8
0
100
AcDbLine
 10
-37.49712267636631
 20
-41.01060843095542
 30
0.0
 11
-37.49712267636631
 21
-10.80023493662958
 31
0.0
  0
LINE
  5
2400
330
23F1
100
AcDbEntity
  8
0
100
AcDbLine
 10
62.22408939032618
 20
-40.6134198157075
 30
0.0
 11
89.82040977599076
 21
-56.5461628190141
 31
0.0
  0
LINE
  5
2401
330
23F1
100
AcDbEntity
  8
0
100
AcDbLine
 10
-4.951054822395879
 20
-63.88357237214764
 30
0.0
 11
-33.96158877043357
 21
-47.13433278791336
 31
0.0
  0
LINE
  5
2402
330
23F1
100
AcDbEntity
  8
0
100
AcDbLine
 10
89.82040977599076
 20
-118.5999029695212
 30
0.0
 11
60.80987582795308
 21
-101.8506633852869
 31
0.0
  0
LINE
  5
2403
330
23F1
100
AcDbEntity
  8
0
100
AcDbLine
 10
-9.54724890010846
 20
0.8237816663745967
 30
0.0
 11
-4.951054822395879
 21
-1.829832221640526
 31
0.0
  0
LINE
  5
2404
330
23F1
100
AcDbEntity
  8
0
100
AcDbLine
 10
-3.890394650616055
 20
-1.217459785944718
 30
0.0
 11
-4.951054822395879
 21
-1.829832221640526
 31
0.0
  0
ELLIPSE
  5
2405
330
23F1
100
AcDbEntity
  8
0
100
AcDbEllipse
 10
-4.951054822395879
 20
-0.6050873502489296
 30
0.0
 11
0.750000000000001
 21
-1.299038105676658
 31
0.0
210
0.0
220
0.0
230
1.0
 40
0.5773502691896259
 41
5.497787143782137
 42
8.63937979737193
  0
ELLIPSE
  5
2406
330
23F1
100
AcDbEntity
  8
0
100
AcDbEllipse
 10
57.27434192202032
 20
-42.65466126802666
 30
0.0
 11
1.25
 21
-2.165063509461096
 31
0.0
210
0.0
220
0.0
230
0.9999999999999998
 40
0.5773502691896261
 41
4.999145532596309
 42
5.84503627659542
  0
ELLIPSE
  5
2407
330
23F1
100
AcDbEntity
  8
0
100
AcDbEllipse
 10
56.21368175024051
 20
-43.26703370372245
 30
0.0
 11
1.25
 21
-2.165063509461096
 31
0.0
210
0.0
220
0.0
230
0.9999999999999998
 40
0.577350269189626
 41
4.999145532596312
 42
7.567225081762864
  0
ELLIPSE
  5
2408
330
23F1
100
AcDbEntity
  8
0
100
AcDbEllipse
 10
57.27434192202032
 20
-75.31452450513571
 30
0.0
 11
1.25000000000013
 21
-2.165063509461021
 31
0.0
210
0.0
220
0.0
230
1.0
 40
0.5773502691896261
 41
3.579741684173544
 42
5.845036276594997
  0
ELLIPSE
  5
2409
330
23F1
100
AcDbEntity
  8
0
100
AcDbEllipse
 10
56.21368175024051
 20
-75.9268969408315
 30
0.0
 11
1.25
 21
-2.165063509461096
 31
0.0
210
0.0
220
0.0
230
0.9999999999999998
 40
0.577350269189626
 41
0.0
 42
6.283185307179586
  0
ELLIPSE
  5
240A
330
23F1
100
AcDbEntity
  8
0
100
AcDbEllipse
 10
50.20327411015485
 20
141.0570694407117
 30
0.0
 11
1.25000000000013
 21
-2.165063509461022
 31
0.0
210
0.0
220
0.0
230
1.0
 40
0.577350269189626
 41
3.579741684173544
 42
5.845036276595009
  0
ELLIPSE
  5
240B
330
23F1
100
AcDbEntity
  8
0
100
AcDbEllipse
 10
50.20327411015485
 20
-54.90210998194257
 30
0.0
 11
1.25000000000013
 21
-2.165063509461022
 31
0.0
210
0.0
220
0.0
230
1.0
 40
0.577350269189626
 41
3.579741684173544
 42
5.845036276594997
  0
ELLIPSE
  5
240C
330
23F1
100
AcDbEntity
  8
0
100
AcDbEllipse
 10
49.14261393837502
 20
140.4446970050159
 30
0.0
 11
1.25
 21
-2.165063509461096
 31
0.0
210
0.0
220
0.0
230
0.9999999999999998
 40
0.577350269189626
 41
0.0
 42
6.283185307179586
  0
ELLIPSE
  5
240D
330
23F1
100
AcDbEntity
  8
0
100
AcDbEllipse
 10
49.14261393837502
 20
-55.51448241763836
 30
0.0
 11
1.25
 21
-2.165063509461096
 31
0.0
210
0.0
220
0.0
230
0.9999999999999998
 40
0.577350269189626
 41
0.0
 42
6.283185307179586
  0
ELLIPSE
  5
240E
330
23F1
100
AcDbEntity
  8
0
100
AcDbEllipse
 10
50.20327411015485
 20
-87.5619732190516
 30
0.0
 11
1.250000000000129
 21
-2.165063509461021
 31
0.0
210
0.0
220
0.0
230
1.0
 40
0.5773502691896261
 41
3.579741684173544
 42
5.845036276594998
  0
ELLIPSE
  5
240F
330
23F1
100
AcDbEntity
  8
0
100
AcDbEllipse
 10
49.14261393837502
 20
-88.17434565474741
 30
0.0
 11
1.25
 21
-2.165063509461096
 31
0.0
210
0.0
220
0.0
230
0.9999999999999998
 40
0.577350269189626
 41
0.0
 42
6.283185307179586
  0
ELLIPSE
  5
2410
330
23F1
100
AcDbEntity
  8
0
100
AcDbEllipse
 10
7.776867238961981
 20
149.2220352499888
 30
0.0
 11
1.25000000000013
 21
-2.165063509461022
 31
0.0
210
0.0
220
0.0
230
1.0
 40
0.577350269189626
 41
3.579741684173546
 42
5.845036276595001
  0
ELLIPSE
  5
2411
330
23F1
100
AcDbEntity
  8
0
100
AcDbEllipse
 10
7.776867238961981
 20
116.5621720128798
 30
0.0
 11
1.25000000000013
 21
-2.165063509461022
 31
0.0
210
0.0
220
0.0
230
1.0
 40
0.577350269189626
 41
3.579741684173546
 42
5.845036276595001
  0
ELLIPSE
  5
2412
330
23F1
100
AcDbEntity
  8
0
100
AcDbEllipse
 10
7.776867238961981
 20
83.9023087757708
 30
0.0
 11
1.25000000000013
 21
-2.165063509461022
 31
0.0
210
0.0
220
0.0
230
1.0
 40
0.577350269189626
 41
3.579741684173546
 42
5.845036276595001
  0
ELLIPSE
  5
2413
330
23F1
100
AcDbEntity
  8
0
100
AcDbEllipse
 10
7.776867238961981
 20
51.24244553866173
 30
0.0
 11
1.25000000000013
 21
-2.165063509461022
 31
0.0
210
0.0
220
0.0
230
1.0
 40
0.577350269189626
 41
3.579741684173546
 42
5.845036276594998
  0
ELLIPSE
  5
2414
330
23F1
100
AcDbEntity
  8
0
100
AcDbEllipse
 10
7.776867238961981
 20
18.5825823015527
 30
0.0
 11
1.25000000000013
 21
-2.165063509461022
 31
0.0
210
0.0
220
0.0
230
1.0
 40
0.577350269189626
 41
3.579741684173546
 42
5.845036276594998
  0
ELLIPSE
  5
2415
330
23F1
100
AcDbEntity
  8
0
100
AcDbEllipse
 10
7.776867238961981
 20
-14.07728093555634
 30
0.0
 11
1.25000000000013
 21
-2.165063509461022
 31
0.0
210
0.0
220
0.0
230
1.0
 40
0.577350269189626
 41
3.579741684173544
 42
5.845036276594995
  0
ELLIPSE
  5
2416
330
23F1
100
AcDbEntity
  8
0
100
AcDbEllipse
 10
6.716207067182158
 20
148.6096628142931
 30
0.0
 11
1.25
 21
-2.165063509461096
 31
0.0
210
0.0
220
0.0
230
0.9999999999999998
 40
0.577350269189626
 41
0.0
 42
6.283185307179586
  0
ELLIPSE
  5
2417
330
23F1
100
AcDbEntity
  8
0
100
AcDbEllipse
 10
6.716207067182158
 20
115.949799577184
 30
0.0
 11
1.25
 21
-2.165063509461096
 31
0.0
210
0.0
220
0.0
230
0.9999999999999998
 40
0.577350269189626
 41
0.0
 42
6.283185307179586
  0
ELLIPSE
  5
2418
330
23F1
100
AcDbEntity
  8
0
100
AcDbEllipse
 10
6.716207067182158
 20
83.28993634007497
 30
0.0
 11
1.25
 21
-2.165063509461096
 31
0.0
210
0.0
220
0.0
230
0.9999999999999998
 40
0.577350269189626
 41
0.0
 42
6.283185307179586
  0
ELLIPSE
  5
2419
330
23F1
100
AcDbEntity
  8
0
100
AcDbEllipse
 10
6.716207067182158
 20
50.63007310296594
 30
0.0
 11
1.25
 21
-2.165063509461096
 31
0.0
210
0.0
220
0.0
230
0.9999999999999998
 40
0.577350269189626
 41
0.0
 42
6.283185307179586
  0
ELLIPSE
  5
241A
330
23F1
100
AcDbEntity
  8
0
100
AcDbEllipse
 10
6.716207067182158
 20
17.97020986585691
 30
0.0
 11
1.25
 21
-2.165063509461096
 31
0.0
210
0.0
220
0.0
230
0.9999999999999998
 40
0.577350269189626
 41
0.0
 42
6.283185307179586
  0
ELLIPSE
  5
241B
330
23F1
100
AcDbEntity
  8
0
100
AcDbEllipse
 10
6.716207067182158
 20
-14.68965337125213
 30
0.0
 11
1.25
 21
-2.165063509461096
 31
0.0
210
0.0
220
0.0
230
0.9999999999999998
 40
0.577350269189626
 41
0.0
 42
6.283185307179586
  0
ELLIPSE
  5
241C
330
23F1
100
AcDbEntity
  8
0
100
AcDbEllipse
 10
7.776867238961981
 20
-46.73714417266537
 30
0.0
 11
1.25000000000013
 21
-2.165063509461021
 31
0.0
210
0.0
220
0.0
230
1.0
 40
0.5773502691896261
 41
3.579741684173544
 42
5.845036276594994
  0
ELLIPSE
  5
241D
330
23F1
100
AcDbEntity
  8
0
100
AcDbEllipse
 10
6.716207067182158
 20
-47.34951660836117
 30
0.0
 11
1.25
 21
-2.165063509461096
 31
0.0
210
0.0
220
0.0
230
0.9999999999999998
 40
0.577350269189626
 41
0.0
 42
6.283185307179586
  0
ELLIPSE
  5
241E
330
23F1
100
AcDbEntity
  8
0
100
AcDbEllipse
 10
0.7057994270965029
 20
169.634449773182
 30
0.0
 11
1.25000000000013
 21
-2.165063509461021
 31
0.0
210
0.0
220
0.0
230
1.0
 40
0.577350269189626
 41
3.579741684173534
 42
5.845036276594989
  0
ELLIPSE
  5
241F
330
23F1
100
AcDbEntity
  8
0
100
AcDbEllipse
 10
0.7057994270965029
 20
136.9745865360729
 30
0.0
 11
1.25000000000013
 21
-2.165063509461021
 31
0.0
210
0.0
220
0.0
230
1.0
 40
0.577350269189626
 41
3.579741684173544
 42
5.845036276595002
  0
ELLIPSE
  5
2420
330
23F1
100
AcDbEntity
  8
0
100
AcDbEllipse
 10
0.7057994270965029
 20
104.3147232989639
 30
0.0
 11
1.25000000000013
 21
-2.165063509461021
 31
0.0
210
0.0
220
0.0
230
1.0
 40
0.577350269189626
 41
3.579741684173544
 42
5.845036276595002
  0
ELLIPSE
  5
2421
330
23F1
100
AcDbEntity
  8
0
100
AcDbEllipse
 10
0.7057994270965029
 20
71.65486006185489
 30
0.0
 11
1.25000000000013
 21
-2.165063509461021
 31
0.0
210
0.0
220
0.0
230
1.0
 40
0.577350269189626
 41
3.579741684173544
 42
5.845036276595002
  0
ELLIPSE
  5
2422
330
23F1
100
AcDbEntity
  8
0
100
AcDbEllipse
 10
0.7057994270965029
 20
38.99499682474586
 30
0.0
 11
1.25000000000013
 21
-2.165063509461021
 31
0.0
210
0.0
220
0.0
230
1.0
 40
0.577350269189626
 41
3.579741684173544
 42
5.845036276594998
  0
ELLIPSE
  5
2423
330
23F1
100
AcDbEntity
  8
0
100
AcDbEllipse
 10
0.7057994270965029
 20
6.335133587636807
 30
0.0
 11
1.25000000000013
 21
-2.165063509461021
 31
0.0
210
0.0
220
0.0
230
1.0
 40
0.577350269189626
 41
3.579741684173544
 42
5.845036276594997
  0
ELLIPSE
  5
2424
330
23F1
100
AcDbEntity
  8
0
100
AcDbEllipse
 10
0.7057994270965029
 20
-26.32472964947224
 30
0.0
 11
1.25000000000013
 21
-2.165063509461021
 31
0.0
210
0.0
220
0.0
230
1.0
 40
0.577350269189626
 41
3.579741684173544
 42
5.845036276594996
  0
ELLIPSE
  5
2425
330
23F1
100
AcDbEntity
  8
0
100
AcDbEllipse
 10
-0.3548607446833207
 20
169.0220773374862
 30
0.0
 11
1.25
 21
-2.165063509461096
 31
0.0
210
0.0
220
0.0
230
0.9999999999999998
 40
0.577350269189626
 41
0.0
 42
6.283185307179586
  0
ELLIPSE
  5
2426
330
23F1
100
AcDbEntity
  8
0
100
AcDbEllipse
 10
-0.3548607446833207
 20
136.3622141003771
 30
0.0
 11
1.25
 21
-2.165063509461096
 31
0.0
210
0.0
220
0.0
230
0.9999999999999998
 40
0.577350269189626
 41
0.0
 42
6.283185307179586
  0
ELLIPSE
  5
2427
330
23F1
100
AcDbEntity
  8
0
100
AcDbEllipse
 10
-0.3548607446833207
 20
103.7023508632681
 30
0.0
 11
1.25
 21
-2.165063509461096
 31
0.0
210
0.0
220
0.0
230
0.9999999999999998
 40
0.577350269189626
 41
0.0
 42
6.283185307179586
  0
ELLIPSE
  5
2428
330
23F1
100
AcDbEntity
  8
0
100
AcDbEllipse
 10
-0.3548607446833207
 20
71.0424876261591
 30
0.0
 11
1.25
 21
-2.165063509461096
 31
0.0
210
0.0
220
0.0
230
0.9999999999999998
 40
0.577350269189626
 41
0.0
 42
6.283185307179586
  0
ELLIPSE
  5
2429
330
23F1
100
AcDbEntity
  8
0
100
AcDbEllipse
 10
-0.3548607446833207
 20
38.38262438905007
 30
0.0
 11
1.25
 21
-2.165063509461096
 31
0.0
210
0.0
220
0.0
230
0.9999999999999998
 40
0.577350269189626
 41
0.0
 42
6.283185307179586
  0
ELLIPSE
  5
242A
330
23F1
100
AcDbEntity
  8
0
100
AcDbEllipse
 10
-0.3548607446833207
 20
5.722761151941018
 30
0.0
 11
1.25
 21
-2.165063509461096
 31
0.0
210
0.0
220
0.0
230
0.9999999999999998
 40
0.577350269189626
 41
0.0
 42
6.283185307179586
  0
ELLIPSE
  5
242B
330
23F1
100
AcDbEntity
  8
0
100
AcDbEllipse
 10
-0.3548607446833207
 20
-26.93710208516803
 30
0.0
 11
1.25
 21
-2.165063509461096
 31
0.0
210
0.0
220
0.0
230
0.9999999999999998
 40
0.577350269189626
 41
0.0
 42
6.283185307179586
  0
ELLIPSE
  5
242C
330
23F1
100
AcDbEntity
  8
0
100
AcDbEllipse
 10
0.7057994270965029
 20
-58.98459288658128
 30
0.0
 11
1.25000000000013
 21
-2.165063509461021
 31
0.0
210
0.0
220
0.0
230
1.0
 40
0.577350269189626
 41
3.579741684173546
 42
5.845036276594997
  0
ELLIPSE
  5
242D
330
23F1
100
AcDbEntity
  8
0
100
AcDbEllipse
 10
-0.3548607446833207
 20
-59.59696532227709
 30
0.0
 11
1.25
 21
-2.165063509461096
 31
0.0
210
0.0
220
0.0
230
0.9999999999999998
 40
0.577350269189626
 41
0.0
 42
6.283185307179586
  0
ELLIPSE
  5
242E
330
23F1
100
AcDbEntity
  8
0
100
AcDbEllipse
 10
-15.57681245958333
 20
-0.594027675032951
 30
0.0
 11
1.250000000000001
 21
-2.165063509461097
 31
0.0
210
0.0
220
0.0
230
1.0
 40
0.577350269189626
 41
5.508682942396012
 42
5.845036276595415
  0
ELLIPSE
  5
242F
330
23F1
100
AcDbEntity
  8
0
100
AcDbEllipse
 10
69.31431312158088
 20
-49.60594188112839
 30
0.0
 11
1.25000000000013
 21
-2.165063509461021
 31
0.0
210
0.0
220
0.0
230
1.0
 40
0.577350269189626
 41
3.579741684173544
 42
5.845036276594997
  0
ELLIPSE
  5
2430
330
23F1
100
AcDbEntity
  8
0
100
AcDbEllipse
 10
-16.63747263136315
 20
-1.20640011072874
 30
0.0
 11
1.25
 21
-2.165063509461096
 31
0.0
210
0.0
220
0.0
230
0.9999999999999998
 40
0.577350269189626
 41
5.508682942396012
 42
7.057687671963158
  0
ELLIPSE
  5
2431
330
23F1
100
AcDbEntity
  8
0
100
AcDbEllipse
 10
68.25365294980104
 20
-50.21831431682421
 30
0.0
 11
1.25
 21
-2.165063509461096
 31
0.0
210
0.0
220
0.0
230
0.9999999999999998
 40
0.577350269189626
 41
0.0
 42
6.283185307179586
  0
ELLIPSE
  5
2432
330
23F1
100
AcDbEntity
  8
0
100
AcDbEllipse
 10
-11.33417177246403
 20
-35.70338065492516
 30
0.0
 11
1.250000000000129
 21
-2.165063509461021
 31
0.0
210
0.0
220
0.0
230
1.0
 40
0.577350269189626
 41
3.579741684173548
 42
5.845036276594996
  0
ELLIPSE
  5
2433
330
23F1
100
AcDbEntity
  8
0
100
AcDbEllipse
 10
73.55695380870017
 20
-84.71529486102062
 30
0.0
 11
1.250000000000129
 21
-2.165063509461021
 31
0.0
210
0.0
220
0.0
230
1.0
 40
0.577350269189626
 41
3.579741684173544
 42
5.845036276594997
  0
ELLIPSE
  5
2434
330
23F1
100
AcDbEntity
  8
0
100
AcDbEllipse
 10
-12.39483194424386
 20
-36.31575309062096
 30
0.0
 11
1.25
 21
-2.165063509461096
 31
0.0
210
0.0
220
0.0
230
0.9999999999999998
 40
0.577350269189626
 41
0.0
 42
6.283185307179586
  0
ELLIPSE
  5
2435
330
23F1
100
AcDbEntity
  8
0
100
AcDbEllipse
 10
72.49629363692036
 20
-85.32766729671642
 30
0.0
 11
1.25
 21
-2.165063509461096
 31
0.0
210
0.0
220
0.0
230
0.9999999999999998
 40
0.577350269189626
 41
0.0
 42
6.283185307179586
  0
ELLIPSE
  5
2436
330
23F1
100
AcDbEntity
  8
0
100
AcDbEllipse
 10
51.97104106312123
 20
-96.74755975448867
 30
0.0
 11
1.250000000000129
 21
-2.165063509461021
 31
0.0
210
0.0
220
0.0
230
1.0
 40
0.577350269189626
 41
3.579741684173544
 42
3.835017178248607
  0
ELLIPSE
  5
2437
330
23F1
100
AcDbEntity
  8
0
100
AcDbEllipse
 10
6.009100285995616
 20
-70.21142087433756
 30
0.0
 11
1.25000000000013
 21
-2.165063509461021
 31
0.0
210
0.0
220
0.0
230
1.0
 40
0.5773502691896259
 41
3.579741684173544
 42
3.835017178248603
  0
SPLINE
  5
2438
330
23F1
100
AcDbEntity
  8
0
100
AcDbSpline
210
0.0
220
0.0
230
1.0
 70
     8
 71
     3
 72
     8
 73
     4
 74
     0
 42
0.000000001
 43
0.0000000001
 40
0.0
 40
0.0
 40
0.0
 40
0.0
 40
1.0
 40
1.0
 40
1.0
 40
1.0
 10
50.21074574406059
 20
-95.54377694971352
 30
0.0
 10
50.1918933421664
 20
-95.9836778043642
 30
0.0
 10
50.04223714270081
 20
-96.5418434169597
 30
0.0
 10
49.82612762159984
 20
-97.03636039312383
 30
0.0
  0
ELLIPSE
  5
2439
330
23F1
100
AcDbEntity
  8
0
100
AcDbEllipse
 10
5.141143656122078
 20
-70.50546753066185
 30
0.0
 11
-1.249999999999999
 21
-2.165063509461096
 31
0.0
210
0.0
220
0.0
230
1.0
 40
0.8164965809277266
 41
4.968762307403141
 42
7.597608306956034
  0
ELLIPSE
  5
243A
330
23F1
100
AcDbEntity
  8
0
100
AcDbEllipse
 10
51.10308443324768
 20
-97.04160641081294
 30
0.0
 11
-1.25
 21
-2.165063509461096
 31
0.0
210
0.0
220
0.0
230
1.0
 40
0.816496580927726
 41
4.968762307403135
 42
7.597608306956034
  0
SPLINE
  5
243B
330
23F1
100
AcDbEntity
  8
0
100
AcDbSpline
210
0.0
220
0.0
230
1.0
 70
     8
 71
     3
 72
     8
 73
     4
 74
     0
 42
0.000000001
 43
0.0000000001
 40
-1.0
 40
-1.0
 40
-1.0
 40
-1.0
 40
0.0
 40
0.0
 40
0.0
 40
0.0
 10
49.07612762159984
 20
-96.6033476912316
 30
0.0
 10
49.10069463394678
 20
-96.44059207203866
 30
0.0
 10
49.13123317038659
 20
-96.27406074437487
 30
0.0
 10
49.15008557228077
 20
-96.15614938540931
 30
0.0
  0
SPLINE
  5
243C
330
23F1
100
AcDbEntity
  8
0
100
AcDbSpline
210
0.0
220
0.0
230
1.0
 70
     8
 71
     3
 72
     8
 73
     4
 74
     0
 42
0.000000001
 43
0.0000000001
 40
-1.0
 40
-1.0
 40
-1.0
 40
-1.0
 40
0.0
 40
0.0
 40
0.0
 40
0.0
 10
6.708735433276422
 20
-71.652624457884
 30
0.0
 10
6.727587835170694
 20
-71.79230469546658
 30
0.0
 10
6.662832241189993
 20
-71.93908079574817
 30
0.0
 10
6.534165246533496
 20
-72.04173426213213
 30
0.0
  0
ELLIPSE
  5
243D
330
23F1
100
AcDbEntity
  8
0
100
AcDbEllipse
 10
5.891143656122066
 20
-70.93848023255405
 30
0.0
 11
-1.25
 21
-2.165063509461096
 31
0.0
210
0.0
220
0.0
230
1.0
 40
0.816496580927726
 41
4.968762307403141
 42
6.069429174707154
  0
LINE
  5
243E
330
23F1
100
AcDbEntity
  8
0
100
AcDbLine
 10
3.864186844474231
 20
-70.50022151297273
 30
0.0
 11
3.363936844576866
 21
-70.21140204086989
 31
0.0
  0
LINE
  5
243F
330
23F1
100
AcDbEntity
  8
0
100
AcDbLine
 10
3.363936844576866
 20
-70.21140204086989
 30
0.0
 11
3.114186844474229
 21
-70.06720881108051
 31
0.0
  0
LINE
  5
2440
330
23F1
100
AcDbEntity
  8
0
100
AcDbLine
 10
3.188144795155154
 20
-69.6200105052582
 30
0.0
 11
3.541344632730472
 21
-69.41609048395637
 31
0.0
  0
SPLINE
  5
2441
330
23F1
100
AcDbEntity
  8
0
100
AcDbSpline
210
0.0
220
0.0
230
1.0
 70
     8
 71
     3
 72
     8
 73
     4
 74
     0
 42
0.000000001
 43
0.0000000001
 40
-1.0
 40
-1.0
 40
-1.0
 40
-1.0
 40
0.0
 40
0.0
 40
0.0
 40
0.0
 10
3.11418684447422
 20
-70.06720881108051
 30
0.0
 10
3.138753856820843
 20
-69.90445319188736
 30
0.0
 10
3.169292393261242
 20
-69.73792186422393
 30
0.0
 10
3.188144795155145
 20
-69.6200105052582
 30
0.0
  0
SPLINE
  5
2442
330
23F1
100
AcDbEntity
  8
0
100
AcDbSpline
210
0.0
220
0.0
230
1.0
 70
     8
 71
     3
 72
     8
 73
     4
 74
     0
 42
0.000000001
 43
0.0000000001
 40
0.0
 40
0.0
 40
0.0
 40
0.0
 40
1.0
 40
1.0
 40
1.0
 40
1.0
 10
4.248804966934964
 20
-69.00763806956241
 30
0.0
 10
4.229952565041061
 20
-69.44753892421324
 30
0.0
 10
4.080296365574889
 20
-70.00570453680838
 30
0.0
 10
3.864186844474222
 20
-70.50022151297273
 30
0.0
  0
LINE
  5
2443
330
23F1
100
AcDbEntity
  8
0
100
AcDbLine
 10
3.541344632730472
 20
-69.41609048395637
 30
0.0
 11
4.248804966934973
 21
-69.0076380695624
 31
0.0
  0
ELLIPSE
  5
2444
330
23F1
100
AcDbEntity
  8
0
100
AcDbEllipse
 10
4.948440114215792
 20
-70.82379331003337
 30
0.0
 11
-1.25
 21
2.165063509461095
 31
0.0
210
0.0
220
0.0
230
1.0
 40
0.577350269189626
 41
4.018964455725525
 42
6.976609831838749
  0
ELLIPSE
  5
2445
330
23F1
100
AcDbEntity
  8
0
100
AcDbEllipse
 10
51.85308443324768
 20
-97.47461911270514
 30
0.0
 11
-1.25
 21
-2.165063509461096
 31
0.0
210
0.0
220
0.0
230
1.0
 40
0.8164965809277264
 41
4.968762307403137
 42
6.069429174707152
  0
LINE
  5
2446
330
23F1
100
AcDbEntity
  8
0
100
AcDbLine
 10
49.82612762159984
 20
-97.03636039312383
 30
0.0
 11
49.32587762169908
 21
-96.74754092101901
 31
0.0
  0
LINE
  5
2447
330
23F1
100
AcDbEntity
  8
0
100
AcDbLine
 10
49.32587762169908
 20
-96.74754092101901
 30
0.0
 11
49.07612762159984
 21
-96.6033476912316
 31
0.0
  0
LINE
  5
2448
330
23F1
100
AcDbEntity
  8
0
100
AcDbLine
 10
49.15008557228077
 20
-96.15614938540929
 30
0.0
 11
49.5032854098676
 21
-95.95222936410081
 31
0.0
  0
LINE
  5
2449
330
23F1
100
AcDbEntity
  8
0
100
AcDbLine
 10
49.5032854098676
 20
-95.95222936410081
 30
0.0
 11
50.21074574406059
 21
-95.5437769497135
 31
0.0
  0
SPLINE
  5
244A
330
23F1
100
AcDbEntity
  8
0
100
AcDbSpline
210
0.0
220
0.0
230
1.0
 70
     8
 71
     3
 72
     8
 73
     4
 74
     0
 42
0.000000001
 43
0.0000000001
 40
-1.0
 40
-1.0
 40
-1.0
 40
-1.0
 40
0.0
 40
0.0
 40
0.0
 40
0.0
 10
52.67067621040201
 20
-98.18876333803508
 30
0.0
 10
52.68952861229615
 20
-98.32844357561761
 30
0.0
 10
52.62477301831431
 20
-98.4752196758985
 30
0.0
 10
52.49610602365915
 20
-98.57787314228325
 30
0.0
  0
ELLIPSE
  5
244B
330
23F1
100
AcDbEntity
  8
0
100
AcDbEllipse
 10
50.91038089134141
 20
-97.35993219018446
 30
0.0
 11
-1.25
 21
2.165063509461096
 31
0.0
210
0.0
220
0.0
230
0.9999999999999998
 40
0.5773502691896259
 41
4.018964455725519
 42
6.976609831838754
  0
ELLIPSE
  5
244C
330
23F1
100
AcDbEntity
  8
0
100
AcDbEllipse
 10
37.82890543939027
 20
-88.58259394521139
 30
0.0
 11
1.250000000000129
 21
-2.165063509461021
 31
0.0
210
0.0
220
0.0
230
1.0
 40
0.577350269189626
 41
3.579741684173548
 42
3.835017178248607
  0
ELLIPSE
  5
244D
330
23F1
100
AcDbEntity
  8
0
100
AcDbEllipse
 10
16.61570200379383
 20
-76.33514523129552
 30
0.0
 11
1.250000000000129
 21
-2.165063509461021
 31
0.0
210
0.0
220
0.0
230
1.0
 40
0.5773502691896261
 41
3.579741684173546
 42
3.835017178248603
  0
ELLIPSE
  5
244E
330
23F1
100
AcDbEntity
  8
0
100
AcDbEllipse
 10
16.49774537392028
 20
-77.06220458951199
 30
0.0
 11
-1.25
 21
-2.165063509461098
 31
0.0
210
0.0
220
0.0
230
0.9999999999999998
 40
0.8164965809277259
 41
4.968762307403137
 42
6.283185307179584
  0
LINE
  5
244F
330
23F1
100
AcDbEntity
  8
0
100
AcDbLine
 10
14.47078856227243
 20
-76.62394586993066
 30
0.0
 11
13.97053856237063
 21
-76.33512639782525
 31
0.0
  0
LINE
  5
2450
330
23F1
100
AcDbEntity
  8
0
100
AcDbLine
 10
13.97053856237063
 20
-76.33512639782525
 30
0.0
 11
13.72078856227244
 21
-76.19093316803844
 31
0.0
  0
ELLIPSE
  5
2451
330
23F1
100
AcDbEntity
  8
0
100
AcDbEllipse
 10
15.74774537392029
 20
-76.62919188761978
 30
0.0
 11
-1.249999999999999
 21
-2.165063509461097
 31
0.0
210
0.0
220
0.0
230
1.0
 40
0.8164965809277262
 41
4.968762307403137
 42
6.283185307179584
  0
LINE
  5
2452
330
23F1
100
AcDbEntity
  8
0
100
AcDbLine
 10
18.03327927985304
 20
-80.83549684940022
 30
0.0
 11
14.4977453739203
 21
-78.79425539708089
 31
0.0
  0
ELLIPSE
  5
2453
330
23F1
100
AcDbEntity
  8
0
100
AcDbEllipse
 10
19.28327927985303
 20
-78.67043333993911
 30
0.0
 11
-1.249999999999999
 21
-2.165063509461097
 31
0.0
210
0.0
220
0.0
230
1.0
 40
0.8164965809277264
 41
0.0
 42
1.314422999776445
  0
LINE
  5
2454
330
23F1
100
AcDbEntity
  8
0
100
AcDbLine
 10
13.79474651295337
 20
-75.74373486221614
 30
0.0
 11
14.14794635053653
 21
-75.53981484090979
 31
0.0
  0
SPLINE
  5
2455
330
23F1
100
AcDbEntity
  8
0
100
AcDbSpline
210
0.0
220
0.0
230
1.0
 70
     8
 71
     3
 72
     8
 73
     4
 74
     0
 42
0.000000001
 43
0.0000000001
 40
-1.0
 40
-1.0
 40
-1.0
 40
-1.0
 40
0.0
 40
0.0
 40
0.0
 40
0.0
 10
13.72078856227244
 20
-76.19093316803844
 30
0.0
 10
13.74535557461948
 20
-76.02817754884554
 30
0.0
 10
13.77589411105927
 20
-75.86164622118174
 30
0.0
 10
13.79474651295336
 20
-75.74373486221616
 30
0.0
  0
SPLINE
  5
2456
330
23F1
100
AcDbEntity
  8
0
100
AcDbSpline
210
0.0
220
0.0
230
1.0
 70
     8
 71
     3
 72
     8
 73
     4
 74
     0
 42
0.000000001
 43
0.0000000001
 40
0.0
 40
0.0
 40
0.0
 40
0.0
 40
1.0
 40
1.0
 40
1.0
 40
1.0
 10
14.85540668473318
 20
-75.13136242652035
 30
0.0
 10
14.83655428283909
 20
-75.57126328117101
 30
0.0
 10
14.68689808337354
 20
-76.12942889376653
 30
0.0
 10
14.47078856227243
 20
-76.62394586993066
 30
0.0
  0
LINE
  5
2457
330
23F1
100
AcDbEntity
  8
0
100
AcDbLine
 10
14.14794635053653
 20
-75.53981484090979
 30
0.0
 11
14.85540668473319
 21
-75.13136242652035
 31
0.0
  0
SPLINE
  5
2458
330
23F1
100
AcDbEntity
  8
0
100
AcDbSpline
210
0.0
220
0.0
230
1.0
 70
     8
 71
     3
 72
     8
 73
     4
 74
     0
 42
0.000000001
 43
0.0000000001
 40
-1.0
 40
-1.0
 40
-1.0
 40
-1.0
 40
0.0
 40
0.0
 40
0.0
 40
0.0
 10
20.85087105700738
 20
-79.81759026716126
 30
0.0
 10
20.86972345890155
 20
-79.95727050474378
 30
0.0
 10
20.80496786492069
 20
-80.10404660502537
 30
0.0
 10
20.67630087026444
 20
-80.20670007140937
 30
0.0
  0
ELLIPSE
  5
2459
330
23F1
100
AcDbEntity
  8
0
100
AcDbEllipse
 10
19.09057573794675
 20
-78.98875911931063
 30
0.0
 11
1.249999999999871
 21
-2.16506350946117
 31
0.0
210
0.0
220
0.0
230
1.0
 40
0.5773502691896259
 41
0.8773718021359417
 42
2.356194490192583
  0
LINE
  5
245A
330
23F1
100
AcDbEntity
  8
0
100
AcDbLine
 10
15.55504183201401
 20
-74.90627621467199
 30
0.0
 11
19.09057573794675
 21
-76.9475176669913
 31
0.0
  0
ELLIPSE
  5
245B
330
23F1
100
AcDbEntity
  8
0
100
AcDbEllipse
 10
15.55504183201401
 20
-76.9475176669913
 30
0.0
 11
-1.250000000000001
 21
2.165063509461095
 31
0.0
210
0.0
220
0.0
230
1.0
 40
0.5773502691896261
 41
5.497787143782135
 42
6.976609831838748
  0
ELLIPSE
  5
245C
330
23F1
100
AcDbEntity
  8
0
100
AcDbEllipse
 10
37.71094880951672
 20
-89.30965330342788
 30
0.0
 11
-1.25
 21
-2.165063509461097
 31
0.0
210
0.0
220
0.0
230
0.9999999999999998
 40
0.816496580927726
 41
4.968762307403137
 42
6.283185307179588
  0
LINE
  5
245D
330
23F1
100
AcDbEntity
  8
0
100
AcDbLine
 10
35.68399199786887
 20
-88.87139458384655
 30
0.0
 11
35.1837419979687
 21
-88.58257511174207
 31
0.0
  0
LINE
  5
245E
330
23F1
100
AcDbEntity
  8
0
100
AcDbLine
 10
35.1837419979687
 20
-88.58257511174207
 30
0.0
 11
34.93399199786888
 21
-88.43838188195434
 31
0.0
  0
ELLIPSE
  5
245F
330
23F1
100
AcDbEntity
  8
0
100
AcDbEllipse
 10
36.96094880951673
 20
-88.87664060153568
 30
0.0
 11
-1.249999999999999
 21
-2.165063509461097
 31
0.0
210
0.0
220
0.0
230
1.0
 40
0.8164965809277262
 41
4.968762307403137
 42
6.283185307179587
  0
LINE
  5
2460
330
23F1
100
AcDbEntity
  8
0
100
AcDbLine
 10
39.24648271544948
 20
-93.0829455633161
 30
0.0
 11
35.71094880951674
 21
-91.04170411099678
 31
0.0
  0
ELLIPSE
  5
2461
330
23F1
100
AcDbEntity
  8
0
100
AcDbEllipse
 10
40.49648271544945
 20
-90.91788205385498
 30
0.0
 11
-1.249999999999999
 21
-2.165063509461096
 31
0.0
210
0.0
220
0.0
230
1.0
 40
0.8164965809277262
 41
0.0
 42
1.314422999776448
  0
LINE
  5
2462
330
23F1
100
AcDbEntity
  8
0
100
AcDbLine
 10
35.00794994854981
 20
-87.99118357613203
 30
0.0
 11
35.36114978613666
 21
-87.78726355482353
 31
0.0
  0
SPLINE
  5
2463
330
23F1
100
AcDbEntity
  8
0
100
AcDbSpline
210
0.0
220
0.0
230
1.0
 70
     8
 71
     3
 72
     8
 73
     4
 74
     0
 42
0.000000001
 43
0.0000000001
 40
-1.0
 40
-1.0
 40
-1.0
 40
-1.0
 40
0.0
 40
0.0
 40
0.0
 40
0.0
 10
34.93399199786888
 20
-88.43838188195434
 30
0.0
 10
34.95855901021576
 20
-88.27562626276138
 30
0.0
 10
34.98909754665562
 20
-88.10909493509761
 30
0.0
 10
35.0079499485498
 20
-87.99118357613204
 30
0.0
  0
SPLINE
  5
2464
330
23F1
100
AcDbEntity
  8
0
100
AcDbSpline
210
0.0
220
0.0
230
1.0
 70
     8
 71
     3
 72
     8
 73
     4
 74
     0
 42
0.000000001
 43
0.0000000001
 40
0.0
 40
0.0
 40
0.0
 40
0.0
 40
1.0
 40
1.0
 40
1.0
 40
1.0
 10
36.06861012032962
 20
-87.37881114043625
 30
0.0
 10
36.04975771843545
 20
-87.81871199508691
 30
0.0
 10
35.90010151896977
 20
-88.37687760768245
 30
0.0
 10
35.68399199786887
 20
-88.87139458384655
 30
0.0
  0
LINE
  5
2465
330
23F1
100
AcDbEntity
  8
0
100
AcDbLine
 10
35.36114978613666
 20
-87.78726355482353
 30
0.0
 11
36.06861012032963
 21
-87.37881114043624
 31
0.0
  0
SPLINE
  5
2466
330
23F1
100
AcDbEntity
  8
0
100
AcDbSpline
210
0.0
220
0.0
230
1.0
 70
     8
 71
     3
 72
     8
 73
     4
 74
     0
 42
0.000000001
 43
0.0000000001
 40
-1.0
 40
-1.0
 40
-1.0
 40
-1.0
 40
0.0
 40
0.0
 40
0.0
 40
0.0
 10
42.06407449260381
 20
-92.06503898107715
 30
0.0
 10
42.08292689449776
 20
-92.2047192186595
 30
0.0
 10
42.01817130051738
 20
-92.35149531894137
 30
0.0
 10
41.88950430586086
 20
-92.45414878532526
 30
0.0
  0
ELLIPSE
  5
2467
330
23F1
100
AcDbEntity
  8
0
100
AcDbEllipse
 10
40.30377917354318
 20
-91.23620783322651
 30
0.0
 11
1.249999999999871
 21
-2.16506350946117
 31
0.0
210
0.0
220
0.0
230
1.0
 40
0.5773502691896259
 41
0.87737180213594
 42
2.356194490192587
  0
LINE
  5
2468
330
23F1
100
AcDbEntity
  8
0
100
AcDbLine
 10
36.76824526761045
 20
-87.15372492858788
 30
0.0
 11
40.30377917354318
 21
-89.1949663809072
 31
0.0
  0
ELLIPSE
  5
2469
330
23F1
100
AcDbEntity
  8
0
100
AcDbEllipse
 10
36.76824526761045
 20
-89.1949663809072
 30
0.0
 11
-1.250000000000001
 21
2.165063509461096
 31
0.0
210
0.0
220
0.0
230
1.0
 40
0.577350269189626
 41
5.49778714378214
 42
6.976609831838754
  0
LINE
  5
246A
330
23F1
100
AcDbEntity
  8
0
100
AcDbLine
 10
63.92114566517388
 20
142.0368653378248
 30
0.0
 11
-5.94100431605705
 21
182.3717964356544
 31
0.0
  0
LINE
  5
246B
330
23F1
100
AcDbEntity
  8
0
100
AcDbLine
 10
34.64692492405101
 20
-52.45262023915961
 30
0.0
 11
34.64692492405101
 21
119.3382603880339
 31
0.0
  0
LINE
  5
246C
330
23F1
100
AcDbEntity
  8
0
100
AcDbLine
 10
33.58626475227117
 20
119.9506328237297
 30
0.0
 11
33.58626475227117
 21
-51.84024780346383
 31
0.0
  0
LINE
  5
246D
330
23F1
100
AcDbEntity
  8
0
100
AcDbLine
 10
63.92114566517391
 20
-39.63362391859421
 30
0.0
 11
38.18245882998371
 21
-54.49386169147891
 31
0.0
  0
LINE
  5
246E
330
23F1
100
AcDbEntity
  8
0
100
AcDbLine
 10
38.18245882998372
 20
125.4619847449919
 30
0.0
 11
63.92114566517392
 21
140.3222225178766
 31
0.0
  0
LINE
  5
246F
330
23F1
100
AcDbEntity
  8
0
100
AcDbLine
 10
-38.18507353816363
 20
161.3878343058119
 30
0.0
 11
-38.18507353816363
 21
-10.40304632138163
 31
0.0
  0
LINE
  5
2470
330
23F1
100
AcDbEntity
  8
0
100
AcDbLine
 10
-8.910852797040549
 20
182.3717964356544
 30
0.0
 11
-34.64953963223088
 21
167.5115586627699
 31
0.0
  0
LINE
  5
2471
330
23F1
100
AcDbEntity
  8
0
100
AcDbLine
 10
-37.1244133663838
 20
160.7754618701161
 30
0.0
 11
-37.1244133663838
 21
-11.01541875707745
 31
0.0
  0
LINE
  5
2472
330
23F1
100
AcDbEntity
  8
0
100
AcDbLine
 10
63.92114566517392
 20
140.3222225178766
 30
0.0
 11
62.86048549339408
 21
140.9345949535724
 31
0.0
  0
LINE
  5
2473
330
23F1
100
AcDbEntity
  8
0
100
AcDbLine
 10
62.86048549339408
 20
140.9345949535724
 30
0.0
 11
37.12179865820389
 21
126.0743571806877
 31
0.0
  0
LINE
  5
2474
330
23F1
100
AcDbEntity
  8
0
100
AcDbLine
 10
-7.001664487836873
 20
1.80357756348787
 30
0.0
 11
-4.951054822395879
 21
0.6196575211426492
 31
0.0
  0
LINE
  5
2475
330
23F1
100
AcDbEntity
  8
0
100
AcDbLine
 10
63.92114566517388
 20
142.0368653378248
 30
0.0
 11
62.86048549339406
 21
141.424492902129
 31
0.0
  0
LINE
  5
2476
330
23F1
100
AcDbEntity
  8
0
100
AcDbLine
 10
-5.94100431605705
 20
182.3717964356544
 30
0.0
 11
-7.001664487836873
 21
181.7594239999587
 31
0.0
  0
LINE
  5
2477
330
23F1
100
AcDbEntity
  8
0
100
AcDbLine
 10
-8.910852797040549
 20
182.3717964356544
 30
0.0
 11
-7.850192625260725
 21
181.7594239999587
 31
0.0
  0
LINE
  5
2478
330
23F1
100
AcDbEntity
  8
0
100
AcDbLine
 10
-7.001664487836873
 20
181.7594239999587
 30
0.0
 11
62.86048549339406
 21
141.424492902129
 31
0.0
  0
LINE
  5
2479
330
23F1
100
AcDbEntity
  8
0
100
AcDbLine
 10
-33.58887946045106
 20
-13.05666020939675
 30
0.0
 11
-7.850192625260725
 21
1.80357756348787
 31
0.0
  0
LINE
  5
247A
330
23F1
100
AcDbEntity
  8
0
100
AcDbLine
 10
-33.58887946045106
 20
166.8991862270741
 30
0.0
 11
-7.850192625260725
 21
181.7594239999587
 31
0.0
  0
LINE
  5
247B
330
23F1
100
AcDbEntity
  8
0
100
AcDbLine
 10
38.18245882998371
 20
-54.49386169147891
 30
0.0
 11
34.64692492405101
 21
-52.45262023915961
 31
0.0
  0
LINE
  5
247C
330
23F1
100
AcDbEntity
  8
0
100
AcDbLine
 10
34.64692492405101
 20
-52.45262023915961
 30
0.0
 11
33.58626475227117
 21
-51.84024780346383
 31
0.0
  0
LINE
  5
247D
330
23F1
100
AcDbEntity
  8
0
100
AcDbLine
 10
33.58626475227117
 20
119.9506328237297
 30
0.0
 11
34.64692492405101
 21
119.3382603880339
 31
0.0
  0
LINE
  5
247E
330
23F1
100
AcDbEntity
  8
0
100
AcDbLine
 10
34.64692492405101
 20
119.3382603880339
 30
0.0
 11
38.18245882998372
 21
125.4619847449919
 31
0.0
  0
LINE
  5
247F
330
23F1
100
AcDbEntity
  8
0
100
AcDbLine
 10
-33.58887946045106
 20
-13.05666020939675
 30
0.0
 11
-37.1244133663838
 21
-11.01541875707743
 31
0.0
  0
LINE
  5
2480
330
23F1
100
AcDbEntity
  8
0
100
AcDbLine
 10
-37.1244133663838
 20
-11.01541875707743
 30
0.0
 11
-38.18507353816363
 21
-10.40304632138164
 31
0.0
  0
LINE
  5
2481
330
23F1
100
AcDbEntity
  8
0
100
AcDbLine
 10
-34.64953963223088
 20
167.5115586627699
 30
0.0
 11
-38.18507353816363
 21
161.3878343058119
 31
0.0
  0
LINE
  5
2482
330
23F1
100
AcDbEntity
  8
0
100
AcDbLine
 10
-38.18507353816363
 20
161.3878343058119
 30
0.0
 11
-37.1244133663838
 21
160.7754618701161
 31
0.0
  0
LINE
  5
2483
330
23F1
100
AcDbEntity
  8
0
100
AcDbLine
 10
38.18245882998372
 20
125.4619847449919
 30
0.0
 11
37.12179865820389
 21
126.0743571806877
 31
0.0
  0
LINE
  5
2484
330
23F1
100
AcDbEntity
  8
0
100
AcDbLine
 10
37.12179865820389
 20
126.0743571806877
 30
0.0
 11
33.58626475227117
 21
119.9506328237297
 31
0.0
  0
LINE
  5
2485
330
23F1
100
AcDbEntity
  8
0
100
AcDbLine
 10
-37.1244133663838
 20
160.7754618701161
 30
0.0
 11
-33.58887946045106
 21
166.8991862270741
 31
0.0
  0
LINE
  5
2486
330
23F1
100
AcDbEntity
  8
0
100
AcDbLine
 10
-33.58887946045106
 20
166.8991862270741
 30
0.0
 11
-34.64953963223088
 21
167.5115586627699
 31
0.0
  0
LINE
  5
2487
330
23F1
100
AcDbEntity
  8
0
100
AcDbLine
 10
7.421145665329356
 20
-161.0038938855405
 30
0.0
 11
7.421145665329365
 21
-155.2303911936443
 31
0.0
  0
LINE
  5
2488
330
23F1
100
AcDbEntity
  8
0
100
AcDbLine
 10
7.421145665329365
 20
-155.2303911936443
 30
0.0
 11
6.360485493549541
 21
-154.6180187579485
 31
0.0
  0
LINE
  5
2489
330
23F1
100
AcDbEntity
  8
0
100
AcDbLine
 10
6.360485493549541
 20
-154.6180187579485
 30
0.0
 11
6.360485493549559
 21
-160.3915214498448
 31
0.0
  0
LINE
  5
248A
330
23F1
100
AcDbEntity
  8
0
100
AcDbLine
 10
6.360485493549559
 20
-160.3915214498448
 30
0.0
 11
7.421145665329356
 21
-161.0038938855405
 31
0.0
  0
LINE
  5
248B
330
23F1
100
AcDbEntity
  8
0
100
AcDbLine
 10
-65.41085279688505
 20
-113.1808172758664
 30
0.0
 11
-65.41085279688502
 21
-118.9543199677626
 31
0.0
  0
LINE
  5
248C
330
23F1
100
AcDbEntity
  8
0
100
AcDbLine
 10
-65.41085279688502
 20
-118.9543199677626
 30
0.0
 11
-64.35019262510522
 21
-119.5666924034584
 31
0.0
  0
LINE
  5
248D
330
23F1
100
AcDbEntity
  8
0
100
AcDbLine
 10
-64.35019262510522
 20
-119.5666924034584
 30
0.0
 11
-64.35019262510522
 21
-113.7931897115622
 31
0.0
  0
LINE
  5
248E
330
23F1
100
AcDbEntity
  8
0
100
AcDbLine
 10
-64.35019262510522
 20
-113.7931897115622
 30
0.0
 11
-65.41085279688505
 21
-113.1808172758664
 31
0.0
  0
ELLIPSE
  5
248F
330
23F1
100
AcDbEntity
  8
0
100
AcDbEllipse
 10
40.303779173543
 20
120.2364066270546
 30
0.0
 11
1.250000000000129
 21
2.165063509461021
 31
0.0
210
0.0
220
0.0
230
1.0
 40
0.5773502691896258
 41
0.0
 42
6.283185307179586
  0
ELLIPSE
  5
2490
330
23F1
100
AcDbEntity
  8
0
100
AcDbEllipse
 10
40.303779173543
 20
103.9064750085
 30
0.0
 11
1.250000000000129
 21
2.165063509461021
 31
0.0
210
0.0
220
0.0
230
1.0
 40
0.5773502691896258
 41
0.0
 42
6.283185307179586
  0
ELLIPSE
  5
2491
330
23F1
100
AcDbEntity
  8
0
100
AcDbEllipse
 10
40.303779173543
 20
87.57654338994553
 30
0.0
 11
1.250000000000129
 21
2.165063509461021
 31
0.0
210
0.0
220
0.0
230
1.0
 40
0.5773502691896258
 41
0.0
 42
6.283185307179586
  0
ELLIPSE
  5
2492
330
23F1
100
AcDbEntity
  8
0
100
AcDbEllipse
 10
40.303779173543
 20
71.24661177139103
 30
0.0
 11
1.250000000000129
 21
2.165063509461021
 31
0.0
210
0.0
220
0.0
230
1.0
 40
0.5773502691896258
 41
0.0
 42
6.283185307179586
  0
ELLIPSE
  5
2493
330
23F1
100
AcDbEntity
  8
0
100
AcDbEllipse
 10
40.303779173543
 20
54.91668015283654
 30
0.0
 11
1.250000000000129
 21
2.165063509461021
 31
0.0
210
0.0
220
0.0
230
1.0
 40
0.5773502691896258
 41
0.0
 42
6.283185307179586
  0
ELLIPSE
  5
2494
330
23F1
100
AcDbEntity
  8
0
100
AcDbEllipse
 10
40.303779173543
 20
38.586748534282
 30
0.0
 11
1.250000000000129
 21
2.165063509461021
 31
0.0
210
0.0
220
0.0
230
1.0
 40
0.5773502691896258
 41
0.0
 42
6.283185307179586
  0
ELLIPSE
  5
2495
330
23F1
100
AcDbEntity
  8
0
100
AcDbEllipse
 10
40.303779173543
 20
22.25681691572749
 30
0.0
 11
1.250000000000129
 21
2.165063509461021
 31
0.0
210
0.0
220
0.0
230
1.0
 40
0.5773502691896258
 41
0.0
 42
6.283185307179586
  0
ELLIPSE
  5
2496
330
23F1
100
AcDbEntity
  8
0
100
AcDbEllipse
 10
40.303779173543
 20
5.926885297172965
 30
0.0
 11
1.250000000000129
 21
2.165063509461021
 31
0.0
210
0.0
220
0.0
230
1.0
 40
0.5773502691896258
 41
0.0
 42
6.283185307179586
  0
ELLIPSE
  5
2497
330
23F1
100
AcDbEntity
  8
0
100
AcDbEllipse
 10
40.303779173543
 20
-10.40304632138156
 30
0.0
 11
1.250000000000129
 21
2.165063509461021
 31
0.0
210
0.0
220
0.0
230
1.0
 40
0.5773502691896258
 41
0.0
 42
6.283185307179586
  0
ELLIPSE
  5
2498
330
23F1
100
AcDbEntity
  8
0
100
AcDbEllipse
 10
40.303779173543
 20
-26.73297793993608
 30
0.0
 11
1.250000000000129
 21
2.165063509461021
 31
0.0
210
0.0
220
0.0
230
1.0
 40
0.5773502691896258
 41
0.0
 42
6.283185307179586
  0
ELLIPSE
  5
2499
330
23F1
100
AcDbEntity
  8
0
100
AcDbEllipse
 10
39.24311900176318
 20
120.8487790627504
 30
0.0
 11
1.249999999999864
 21
2.165063509461174
 31
0.0
210
0.0
220
0.0
230
1.0
 40
0.577350269189622
 41
3.579741684173544
 42
5.845036276594998
  0
ELLIPSE
  5
249A
330
23F1
100
AcDbEntity
  8
0
100
AcDbEllipse
 10
39.24311900176318
 20
104.5188474441959
 30
0.0
 11
1.249999999999864
 21
2.165063509461174
 31
0.0
210
0.0
220
0.0
230
1.0
 40
0.577350269189622
 41
3.579741684173544
 42
5.845036276594998
  0
ELLIPSE
  5
249B
330
23F1
100
AcDbEntity
  8
0
100
AcDbEllipse
 10
39.24311900176318
 20
88.18891582564136
 30
0.0
 11
1.249999999999864
 21
2.165063509461174
 31
0.0
210
0.0
220
0.0
230
1.0
 40
0.577350269189622
 41
3.579741684173544
 42
5.845036276594998
  0
ELLIPSE
  5
249C
330
23F1
100
AcDbEntity
  8
0
100
AcDbEllipse
 10
39.24311900176318
 20
71.85898420708682
 30
0.0
 11
1.249999999999864
 21
2.165063509461174
 31
0.0
210
0.0
220
0.0
230
1.0
 40
0.577350269189622
 41
3.579741684173544
 42
5.845036276594995
  0
ELLIPSE
  5
249D
330
23F1
100
AcDbEntity
  8
0
100
AcDbEllipse
 10
39.24311900176318
 20
55.52905258853233
 30
0.0
 11
1.249999999999864
 21
2.165063509461174
 31
0.0
210
0.0
220
0.0
230
1.0
 40
0.577350269189622
 41
3.579741684173544
 42
5.845036276594995
  0
ELLIPSE
  5
249E
330
23F1
100
AcDbEntity
  8
0
100
AcDbEllipse
 10
39.24311900176318
 20
39.19912096997779
 30
0.0
 11
1.249999999999864
 21
2.165063509461174
 31
0.0
210
0.0
220
0.0
230
1.0
 40
0.577350269189622
 41
3.579741684173542
 42
5.845036276594995
  0
ELLIPSE
  5
249F
330
23F1
100
AcDbEntity
  8
0
100
AcDbEllipse
 10
39.24311900176318
 20
22.86918935142328
 30
0.0
 11
1.249999999999864
 21
2.165063509461174
 31
0.0
210
0.0
220
0.0
230
1.0
 40
0.577350269189622
 41
3.579741684173542
 42
5.845036276594997
  0
ELLIPSE
  5
24A0
330
23F1
100
AcDbEntity
  8
0
100
AcDbEllipse
 10
39.24311900176318
 20
6.539257732868755
 30
0.0
 11
1.249999999999865
 21
2.165063509461175
 31
0.0
210
0.0
220
0.0
230
1.0
 40
0.5773502691896219
 41
3.579741684173548
 42
5.845036276594989
  0
ELLIPSE
  5
24A1
330
23F1
100
AcDbEntity
  8
0
100
AcDbEllipse
 10
39.24311900176318
 20
-9.79067388568577
 30
0.0
 11
1.249999999999865
 21
2.165063509461175
 31
0.0
210
0.0
220
0.0
230
1.0
 40
0.5773502691896219
 41
3.579741684173548
 42
5.845036276594989
  0
ELLIPSE
  5
24A2
330
23F1
100
AcDbEntity
  8
0
100
AcDbEllipse
 10
39.24311900176318
 20
-26.12060550424029
 30
0.0
 11
1.249999999999865
 21
2.165063509461175
 31
0.0
210
0.0
220
0.0
230
1.0
 40
0.5773502691896219
 41
3.579741684173548
 42
5.845036276594989
  0
ELLIPSE
  5
24A3
330
23F1
100
AcDbEntity
  8
0
100
AcDbEllipse
 10
40.303779173543
 20
-43.0629095584906
 30
0.0
 11
1.250000000000129
 21
2.165063509461021
 31
0.0
210
0.0
220
0.0
230
1.0
 40
0.5773502691896258
 41
0.0
 42
6.283185307179586
  0
ELLIPSE
  5
24A4
330
23F1
100
AcDbEntity
  8
0
100
AcDbEllipse
 10
39.24311900176318
 20
-42.4505371227948
 30
0.0
 11
1.249999999999865
 21
2.165063509461175
 31
0.0
210
0.0
220
0.0
230
1.0
 40
0.5773502691896219
 41
3.579741684173548
 42
5.84503627659499
  0
LINE
  5
24A5
330
23F1
100
AcDbEntity
  8
0
100
AcDbLine
 10
63.92114566517391
 20
-39.63362391859421
 30
0.0
 11
63.92114566517392
 21
140.3222225178766
 31
0.0
  0
ELLIPSE
  5
24A6
330
23F1
100
AcDbEntity
  8
0
100
AcDbEllipse
 10
62.43622142468213
 20
141.1795439278507
 30
0.0
 11
0.6000000000000051
 21
0.0
 31
0.0
210
0.0
220
0.0
230
1.0
 40
0.5773502691896258
 41
5.497787143782192
 42
7.068583470577037
  0
LINE
  5
24A7
330
23F1
100
AcDbEntity
  8
0
100
AcDbLine
 10
62.86048549339406
 20
141.424492902129
 30
0.0
 11
62.86048549339406
 21
140.9345949535723
 31
0.0
  0
ELLIPSE
  5
24A8
330
23F1
100
AcDbEntity
  8
0
100
AcDbEllipse
 10
62.43622142468213
 20
141.1795439278507
 30
0.0
 11
2.100000000000008
 21
0.0000000000000002
 31
0.0
210
0.0
220
0.0
230
1.0
 40
0.5773502691896257
 41
5.497787143782161
 42
7.068583470577032
  0
ELLIPSE
  5
24A9
330
23F1
100
AcDbEntity
  8
0
100
AcDbEllipse
 10
62.43622142468213
 20
-38.77630250862011
 30
0.0
 11
2.100000000000008
 21
0.0000000000000015
 31
0.0
210
0.0
220
0.0
230
1.0
 40
0.5773502691896257
 41
5.497787143782145
 42
6.283185307179579
  0
LINE
  5
24AA
330
23F1
100
AcDbEntity
  8
0
100
AcDbLine
 10
-7.001664487836873
 20
181.7594239999587
 30
0.0
 11
-7.001664487836873
 21
1.80357756348787
 31
0.0
  0
ELLIPSE
  5
24AB
330
23F1
100
AcDbEntity
  8
0
100
AcDbEllipse
 10
-7.425928556548799
 20
181.5144750256804
 30
0.0
 11
0.5999999999999962
 21
-0.0000000000000357
 31
0.0
210
0.0
220
0.0
230
1.0
 40
0.5773502691896258
 41
0.7853981633976624
 42
2.356194490192532
  0
LINE
  5
24AC
330
23F1
100
AcDbEntity
  8
0
100
AcDbLine
 10
-7.850192625260725
 20
181.7594239999587
 30
0.0
 11
-7.850192625260725
 21
1.80357756348787
 31
0.0
  0
ELLIPSE
  5
24AD
330
23F1
100
AcDbEntity
  8
0
100
AcDbEllipse
 10
-7.425928556548799
 20
1.558628589209565
 30
0.0
 11
0.5999999999999962
 21
-0.0000000000000357
 31
0.0
210
0.0
220
0.0
230
1.0
 40
0.5773502691896258
 41
0.7853981633976899
 42
2.356194490192587
  0
ELLIPSE
  5
24AE
330
23F1
100
AcDbEntity
  8
0
100
AcDbEllipse
 10
-7.425928556548799
 20
181.5144750256804
 30
0.0
 11
-2.1
 21
-0.000000000000125
 31
0.0
210
0.0
220
0.0
230
1.0
 40
0.5773502691896257
 41
3.926990816986993
 42
5.49778714378189
  0
LINE
  5
24AF
330
23F1
100
AcDbEntity
  8
0
100
AcDbLine
 10
64.53622142468214
 20
141.1795439278507
 30
0.0
 11
64.53622142468214
 21
-38.77630250862011
 31
0.0
  0
ELLIPSE
  5
24B0
330
23F1
100
AcDbEntity
  8
0
100
AcDbEllipse
 10
-32.52821928867125
 20
158.2034976401937
 30
0.0
 11
1.249999999999871
 21
2.165063509461171
 31
0.0
210
0.0
220
0.0
230
1.0
 40
0.5773502691896259
 41
3.579741684173542
 42
5.845036276594988
  0
ELLIPSE
  5
24B1
330
23F1
100
AcDbEntity
  8
0
100
AcDbEllipse
 10
-32.52821928867125
 20
141.8735660216392
 30
0.0
 11
1.249999999999871
 21
2.165063509461171
 31
0.0
210
0.0
220
0.0
230
1.0
 40
0.5773502691896259
 41
3.579741684173542
 42
5.845036276594988
  0
ELLIPSE
  5
24B2
330
23F1
100
AcDbEntity
  8
0
100
AcDbEllipse
 10
-32.52821928867125
 20
125.5436344030847
 30
0.0
 11
1.249999999999871
 21
2.165063509461171
 31
0.0
210
0.0
220
0.0
230
1.0
 40
0.5773502691896259
 41
3.579741684173542
 42
5.845036276594988
  0
ELLIPSE
  5
24B3
330
23F1
100
AcDbEntity
  8
0
100
AcDbEllipse
 10
-32.52821928867125
 20
109.2137027845301
 30
0.0
 11
1.249999999999871
 21
2.165063509461171
 31
0.0
210
0.0
220
0.0
230
1.0
 40
0.5773502691896259
 41
3.579741684173542
 42
5.845036276594988
  0
ELLIPSE
  5
24B4
330
23F1
100
AcDbEntity
  8
0
100
AcDbEllipse
 10
-32.52821928867125
 20
92.88377116597567
 30
0.0
 11
1.249999999999871
 21
2.165063509461171
 31
0.0
210
0.0
220
0.0
230
1.0
 40
0.5773502691896259
 41
3.579741684173542
 42
5.845036276594988
  0
ELLIPSE
  5
24B5
330
23F1
100
AcDbEntity
  8
0
100
AcDbEllipse
 10
-32.52821928867125
 20
76.55383954742115
 30
0.0
 11
1.249999999999871
 21
2.165063509461171
 31
0.0
210
0.0
220
0.0
230
1.0
 40
0.5773502691896259
 41
3.579741684173541
 42
5.845036276594996
  0
ELLIPSE
  5
24B6
330
23F1
100
AcDbEntity
  8
0
100
AcDbEllipse
 10
-32.52821928867125
 20
60.22390792886664
 30
0.0
 11
1.249999999999871
 21
2.165063509461171
 31
0.0
210
0.0
220
0.0
230
1.0
 40
0.5773502691896259
 41
3.579741684173541
 42
5.845036276594996
  0
ELLIPSE
  5
24B7
330
23F1
100
AcDbEntity
  8
0
100
AcDbEllipse
 10
-32.52821928867125
 20
43.89397631031211
 30
0.0
 11
1.249999999999871
 21
2.165063509461171
 31
0.0
210
0.0
220
0.0
230
1.0
 40
0.5773502691896259
 41
3.579741684173548
 42
5.845036276594994
  0
ELLIPSE
  5
24B8
330
23F1
100
AcDbEntity
  8
0
100
AcDbEllipse
 10
-32.52821928867125
 20
27.56404469175759
 30
0.0
 11
1.249999999999871
 21
2.165063509461171
 31
0.0
210
0.0
220
0.0
230
1.0
 40
0.5773502691896259
 41
3.579741684173548
 42
5.845036276594989
  0
ELLIPSE
  5
24B9
330
23F1
100
AcDbEntity
  8
0
100
AcDbEllipse
 10
-32.52821928867125
 20
11.23411307320307
 30
0.0
 11
1.249999999999871
 21
2.165063509461171
 31
0.0
210
0.0
220
0.0
230
1.0
 40
0.5773502691896259
 41
3.579741684173548
 42
5.84503627659499
  0
ELLIPSE
  5
24BA
330
23F1
100
AcDbEntity
  8
0
100
AcDbEllipse
 10
-31.46755911689143
 20
157.5911252044979
 30
0.0
 11
1.250000000000129
 21
2.165063509461021
 31
0.0
210
0.0
220
0.0
230
1.0
 40
0.5773502691896258
 41
0.0
 42
6.283185307179586
  0
ELLIPSE
  5
24BB
330
23F1
100
AcDbEntity
  8
0
100
AcDbEllipse
 10
-31.46755911689143
 20
141.2611935859434
 30
0.0
 11
1.250000000000129
 21
2.165063509461021
 31
0.0
210
0.0
220
0.0
230
1.0
 40
0.5773502691896258
 41
0.0
 42
6.283185307179586
  0
ELLIPSE
  5
24BC
330
23F1
100
AcDbEntity
  8
0
100
AcDbEllipse
 10
-31.46755911689143
 20
124.9312619673889
 30
0.0
 11
1.250000000000129
 21
2.165063509461021
 31
0.0
210
0.0
220
0.0
230
1.0
 40
0.5773502691896258
 41
0.0
 42
6.283185307179586
  0
ELLIPSE
  5
24BD
330
23F1
100
AcDbEntity
  8
0
100
AcDbEllipse
 10
-31.46755911689143
 20
108.6013303488344
 30
0.0
 11
1.250000000000129
 21
2.165063509461021
 31
0.0
210
0.0
220
0.0
230
1.0
 40
0.5773502691896258
 41
0.0
 42
6.283185307179586
  0
ELLIPSE
  5
24BE
330
23F1
100
AcDbEntity
  8
0
100
AcDbEllipse
 10
-31.46755911689143
 20
92.27139873027988
 30
0.0
 11
1.250000000000129
 21
2.165063509461021
 31
0.0
210
0.0
220
0.0
230
1.0
 40
0.5773502691896258
 41
0.0
 42
6.283185307179586
  0
ELLIPSE
  5
24BF
330
23F1
100
AcDbEntity
  8
0
100
AcDbEllipse
 10
-31.46755911689143
 20
75.94146711172536
 30
0.0
 11
1.250000000000129
 21
2.165063509461021
 31
0.0
210
0.0
220
0.0
230
1.0
 40
0.5773502691896258
 41
0.0
 42
6.283185307179586
  0
ELLIPSE
  5
24C0
330
23F1
100
AcDbEntity
  8
0
100
AcDbEllipse
 10
-31.46755911689143
 20
59.61153549317083
 30
0.0
 11
1.250000000000129
 21
2.165063509461021
 31
0.0
210
0.0
220
0.0
230
1.0
 40
0.5773502691896258
 41
0.0
 42
6.283185307179586
  0
ELLIPSE
  5
24C1
330
23F1
100
AcDbEntity
  8
0
100
AcDbEllipse
 10
-31.46755911689143
 20
43.28160387461631
 30
0.0
 11
1.250000000000129
 21
2.165063509461021
 31
0.0
210
0.0
220
0.0
230
1.0
 40
0.5773502691896258
 41
0.0
 42
6.283185307179586
  0
ELLIPSE
  5
24C2
330
23F1
100
AcDbEntity
  8
0
100
AcDbEllipse
 10
-31.46755911689143
 20
26.95167225606179
 30
0.0
 11
1.250000000000129
 21
2.165063509461021
 31
0.0
210
0.0
220
0.0
230
1.0
 40
0.5773502691896258
 41
0.0
 42
6.283185307179586
  0
ELLIPSE
  5
24C3
330
23F1
100
AcDbEntity
  8
0
100
AcDbEllipse
 10
-31.46755911689143
 20
10.62174063750726
 30
0.0
 11
1.250000000000129
 21
2.165063509461021
 31
0.0
210
0.0
220
0.0
230
1.0
 40
0.5773502691896258
 41
0.0
 42
6.283185307179586
  0
ELLIPSE
  5
24C4
330
23F1
100
AcDbEntity
  8
0
100
AcDbEllipse
 10
-32.52821928867125
 20
-5.095818545351455
 30
0.0
 11
1.249999999999871
 21
2.165063509461171
 31
0.0
210
0.0
220
0.0
230
1.0
 40
0.5773502691896259
 41
3.579741684173548
 42
5.84503627659499
  0
ELLIPSE
  5
24C5
330
23F1
100
AcDbEntity
  8
0
100
AcDbEllipse
 10
-31.46755911689143
 20
-5.708190981047245
 30
0.0
 11
1.250000000000129
 21
2.165063509461021
 31
0.0
210
0.0
220
0.0
230
1.0
 40
0.5773502691896258
 41
0.0
 42
6.283185307179586
  0
LINE
  5
24C6
330
23F1
100
AcDbEntity
  8
0
100
AcDbLine
 10
20.92114566474033
 20
-131.8477052931608
 30
0.0
 11
7.421145665329365
 21
-155.2303911936443
 31
0.0
  0
LINE
  5
24C7
330
23F1
100
AcDbEntity
  8
0
100
AcDbLine
 10
19.86048549296022
 20
-131.2353328574648
 30
0.0
 11
6.360485493549541
 21
-154.6180187579485
 31
0.0
  0
LINE
  5
24C8
330
23F1
100
AcDbEntity
  8
0
100
AcDbLine
 10
25.62114566517388
 20
-171.5116687847019
 30
0.0
 11
62.32114566438607
 21
-107.9454041482887
 31
0.0
  0
LINE
  5
24C9
330
23F1
100
AcDbEntity
  8
0
100
AcDbLine
 10
61.01195735517906
 20
-107.4765194996414
 30
0.0
 11
61.99976670457232
 21
-105.7655835183008
 31
0.0
  0
LINE
  5
24CA
330
23F1
100
AcDbEntity
  8
0
100
AcDbLine
 10
25.95487477262964
 20
-171.7043473747275
 30
0.0
 11
25.62114566517412
 21
-171.5116687847016
 31
0.0
  0
LINE
  5
24CB
330
23F1
100
AcDbEntity
  8
0
100
AcDbLine
 10
62.99323474169198
 20
-107.5520260792863
 30
0.0
 11
25.95487477262965
 21
-171.7043473747275
 31
0.0
  0
LINE
  5
24CC
330
23F1
100
AcDbEntity
  8
0
100
AcDbLine
 10
20.92114566474033
 20
-131.8477052931608
 30
0.0
 11
19.86048549296022
 21
-131.2353328574648
 31
0.0
  0
LINE
  5
24CD
330
23F1
100
AcDbEntity
  8
0
100
AcDbLine
 10
62.32114566438607
 20
-107.9454041482887
 30
0.0
 11
20.92114566474034
 21
-131.8477052931608
 31
0.0
  0
LINE
  5
24CE
330
23F1
100
AcDbEntity
  8
0
100
AcDbLine
 10
-51.91085279747721
 20
-89.79813137538114
 30
0.0
 11
-10.51085279782841
 21
-65.89583023051085
 31
0.0
  0
ELLIPSE
  5
24CF
330
23F1
100
AcDbEntity
  8
0
100
AcDbEllipse
 10
-4.758351280489576
 20
-64.78999146416772
 30
0.0
 11
-0.749999999999999
 21
-1.299038105676659
 31
0.0
210
0.0
220
0.0
230
1.0
 40
0.816496580927726
 41
0.0
 42
1.134458255166956
  0
LINE
  5
24D0
330
23F1
100
AcDbEntity
  8
0
100
AcDbLine
 10
-5.508351280489565
 20
-66.08902956984438
 30
0.0
 11
-7.129856970699273
 21
-65.15285282310928
 31
0.0
  0
LINE
  5
24D1
330
23F1
100
AcDbEntity
  8
0
100
AcDbLine
 10
-7.129856970699273
 20
-65.15285282310928
 30
0.0
 11
-7.862383276658619
 21
-65.43065242047115
 31
0.0
  0
LINE
  5
24D2
330
23F1
100
AcDbEntity
  8
0
100
AcDbLine
 10
61.99976670457232
 20
-105.7655835183008
 30
0.0
 11
61.8740850600691
 21
-104.9922973297187
 31
0.0
  0
LINE
  5
24D3
330
23F1
100
AcDbEntity
  8
0
100
AcDbLine
 10
61.8740850600691
 20
-104.9922973297187
 30
0.0
 11
60.25257936985938
 21
-104.0561205829836
 31
0.0
  0
ELLIPSE
  5
24D4
330
23F1
100
AcDbEntity
  8
0
100
AcDbEllipse
 10
61.00257936985936
 20
-102.7570824773069
 30
0.0
 11
-0.7500000000000002
 21
-1.299038105676658
 31
0.0
210
0.0
220
0.0
230
1.0
 40
0.816496580927726
 41
5.148727052012628
 42
6.283185307179575
  0
SPLINE
  5
24D5
330
23F1
100
AcDbEntity
  8
0
100
AcDbSpline
210
0.0
220
0.0
230
1.0
 70
     8
 71
     3
 72
     8
 73
     4
 74
     0
 42
0.000000001
 43
0.0000000001
 40
0.1302463606542465
 40
0.1302463606542465
 40
0.1302463606542465
 40
0.1302463606542465
 40
1.0
 40
1.0
 40
1.0
 40
1.0
 10
60.80416223562351
 20
-101.8478558514735
 30
0.0
 10
60.75133629983491
 20
-102.2572770789101
 30
0.0
 10
60.61972652571935
 20
-102.7551889140766
 30
0.0
 10
60.47432976750408
 20
-103.1841027684472
 30
0.0
  0
SPLINE
  5
24D6
330
23F1
100
AcDbEntity
  8
0
100
AcDbSpline
210
0.0
220
0.0
230
1.0
 70
     8
 71
     3
 72
     8
 73
     4
 74
     0
 42
0.000000001
 43
0.0000000001
 40
-1.0
 40
-1.0
 40
-1.0
 40
-1.0
 40
0.0
 40
0.0
 40
0.0
 40
0.0
 10
59.72432976750408
 20
-102.7510900665549
 30
0.0
 10
59.70912112994554
 20
-102.5738351418303
 30
0.0
 10
59.72978430578158
 20
-102.3942371424478
 30
0.0
 10
59.76171572076197
 20
-102.2827769081757
 30
0.0
  0
SPLINE
  5
24D7
330
23F1
100
AcDbEntity
  8
0
100
AcDbSpline
210
0.0
220
0.0
230
1.0
 70
     8
 71
     3
 72
     8
 73
     4
 74
     0
 42
0.000000001
 43
0.0000000001
 40
-1.0
 40
-1.0
 40
-1.0
 40
-1.0
 40
0.0
 40
0.0
 40
0.0
 40
0.0
 10
-3.902894715204818
 20
-65.52599693511762
 30
0.0
 10
-3.870963300223064
 20
-65.67432839145967
 30
0.0
 10
-3.95292531283478
 20
-65.81853549092869
 30
0.0
 10
-4.114036899370763
 20
-65.89399188680875
 30
0.0
  0
LINE
  5
24D8
330
23F1
100
AcDbEntity
  8
0
100
AcDbLine
 10
-50.85019262569712
 20
-90.41050381107707
 30
0.0
 11
-51.91085279747721
 21
-89.79813137538114
 31
0.0
  0
LINE
  5
24D9
330
23F1
100
AcDbEntity
  8
0
100
AcDbLine
 10
-9.450192626048604
 20
-66.50820266620664
 30
0.0
 11
-50.85019262569712
 21
-90.41050381107707
 31
0.0
  0
LINE
  5
24DA
330
23F1
100
AcDbEntity
  8
0
100
AcDbLine
 10
-9.450192626048604
 20
-66.50820266620664
 30
0.0
 11
-9.803392463252759
 21
-66.30428264511912
 31
0.0
  0
LINE
  5
24DB
330
23F1
100
AcDbEntity
  8
0
100
AcDbLine
 10
-9.803392463252759
 20
-66.30428264511912
 30
0.0
 11
-10.5108527978284
 21
-65.89583023051085
 31
0.0
  0
SPLINE
  5
24DC
330
23F1
100
AcDbEntity
  8
0
100
AcDbSpline
210
0.0
220
0.0
230
1.0
 70
     8
 71
     3
 72
     8
 73
     4
 74
     0
 42
0.000000001
 43
0.0000000001
 40
-1.0
 40
-1.0
 40
-1.0
 40
-1.0
 40
0.0
 40
0.0
 40
0.0
 40
0.0
 10
-7.862383276658624
 20
-65.43065242047115
 30
0.0
 10
-8.37237585045921
 20
-65.80096553771183
 30
0.0
 10
-9.005264566475901
 20
-66.10032453416055
 30
0.0
 10
-9.450192626048616
 20
-66.50820266620667
 30
0.0
  0
SPLINE
  5
24DD
330
23F1
100
AcDbEntity
  8
0
100
AcDbSpline
210
0.0
220
0.0
230
1.0
 70
     8
 71
     3
 72
     8
 73
     4
 74
     0
 42
0.000000001
 43
0.0000000001
 40
0.0
 40
0.0
 40
0.0
 40
0.0
 40
0.6081734479693827
 40
0.6081734479693827
 40
0.6081734479693827
 40
0.6081734479693827
 10
-10.51085279782842
 20
-65.89583023051088
 30
0.0
 10
-10.00143021120863
 20
-65.78565765725196
 30
0.0
 10
-9.248680844899993
 20
-65.81596986574833
 30
0.0
 10
-8.497347981697402
 20
-65.84546425579521
 30
0.0
  0
ELLIPSE
  5
24DE
330
23F1
100
AcDbEntity
  8
0
100
AcDbEllipse
 10
-4.951054822395879
 20
-65.10831724353924
 30
0.0
 11
0.7499999999999233
 21
-1.299038105676702
 31
0.0
210
0.0
220
0.0
230
1.0
 40
0.577350269189626
 41
0.9390757175653119
 42
2.356194490192585
  0
LINE
  5
24DF
330
23F1
100
AcDbEntity
  8
0
100
AcDbLine
 10
62.32114566438607
 20
-107.9454041482887
 30
0.0
 11
61.61368532980929
 21
-107.5369517336799
 31
0.0
  0
LINE
  5
24E0
330
23F1
100
AcDbEntity
  8
0
100
AcDbLine
 10
61.61368532980929
 20
-107.5369517336799
 30
0.0
 11
61.2604854926062
 21
-107.3330317125929
 31
0.0
  0
LINE
  5
24E1
330
23F1
100
AcDbEntity
  8
0
100
AcDbLine
 10
19.86048549296022
 20
-131.2353328574648
 30
0.0
 11
61.2604854926062
 21
-107.3330317125929
 31
0.0
  0
LINE
  5
24E2
330
23F1
100
AcDbEntity
  8
0
100
AcDbLine
 10
61.99976670457232
 20
-105.7655835183008
 30
0.0
 11
62.2495167045718
 21
-105.9097767480306
 31
0.0
  0
SPLINE
  5
24E3
330
23F1
100
AcDbEntity
  8
0
100
AcDbSpline
210
0.0
220
0.0
230
1.0
 70
     8
 71
     3
 72
     8
 73
     4
 74
     0
 42
0.000000001
 43
0.0000000001
 40
-1.0
 40
-1.0
 40
-1.0
 40
-1.0
 40
0.0
 40
0.0
 40
0.0
 40
0.0
 10
61.2604854926062
 20
-107.3330317125929
 30
0.0
 10
61.70541355217851
 20
-106.9251535805475
 30
0.0
 10
61.93406242458779
 20
-106.3924066015734
 30
0.0
 10
61.99976670457229
 20
-105.7655835183008
 30
0.0
  0
SPLINE
  5
24E4
330
23F1
100
AcDbEntity
  8
0
100
AcDbSpline
210
0.0
220
0.0
230
1.0
 70
     8
 71
     3
 72
     8
 73
     4
 74
     0
 42
0.000000001
 43
0.0000000001
 40
0.0
 40
0.0
 40
0.0
 40
0.0
 40
1.0
 40
1.0
 40
1.0
 40
1.0
 10
62.74976670457229
 20
-106.198596220193
 30
0.0
 10
63.23942279185758
 20
-107.1460567610061
 30
0.0
 10
63.15877280565707
 20
-107.7642509367725
 30
0.0
 10
62.32114566438603
 20
-107.9454041482887
 30
0.0
  0
LINE
  5
24E5
330
23F1
100
AcDbEntity
  8
0
100
AcDbLine
 10
62.2495167045718
 20
-105.9097767480306
 30
0.0
 11
62.74976670457231
 21
-106.198596220193
 31
0.0
  0
ELLIPSE
  5
24E6
330
23F1
100
AcDbEntity
  8
0
100
AcDbEllipse
 10
61.75257936985936
 20
-103.1900951791992
 30
0.0
 11
-0.7500000000000007
 21
-1.299038105676658
 31
0.0
210
0.0
220
0.0
230
0.9999999999999998
 40
0.816496580927726
 41
5.148727052012628
 42
6.283185307179581
  0
LINE
  5
24E7
330
23F1
100
AcDbEntity
  8
0
100
AcDbLine
 10
60.47432976750408
 20
-103.1841027684472
 30
0.0
 11
59.97407976840527
 21
-102.8952832968053
 31
0.0
  0
LINE
  5
24E8
330
23F1
100
AcDbEntity
  8
0
100
AcDbLine
 10
59.97407976840527
 20
-102.8952832968053
 30
0.0
 11
59.72432976750408
 21
-102.7510900665549
 31
0.0
  0
LINE
  5
24E9
330
23F1
100
AcDbEntity
  8
0
100
AcDbLine
 10
61.8740850600691
 20
-104.9922973297187
 30
0.0
 11
62.62408506006909
 21
-105.4253100316109
 31
0.0
  0
LINE
  5
24EA
330
23F1
100
AcDbEntity
  8
0
100
AcDbLine
 10
62.62408506006909
 20
-105.4253100316109
 30
0.0
 11
62.74976670457231
 21
-106.198596220193
 31
0.0
  0
LINE
  5
24EB
330
23F1
100
AcDbEntity
  8
0
100
AcDbLine
 10
59.761715720762
 20
-102.2827769081756
 30
0.0
 11
60.11491556117476
 21
-102.0788568852356
 31
0.0
  0
LINE
  5
24EC
330
23F1
100
AcDbEntity
  8
0
100
AcDbLine
 10
60.11491556117476
 20
-102.0788568852356
 30
0.0
 11
60.64751699790924
 21
-101.7713593023662
 31
0.0
  0
ELLIPSE
  5
24ED
330
23F1
100
AcDbEntity
  8
0
100
AcDbEllipse
 10
60.80987582795306
 20
-103.0754082566785
 30
0.0
 11
-0.7500000000000009
 21
1.299038105676658
 31
0.0
210
0.0
220
0.0
230
1.0
 40
0.5773502691896261
 41
5.497787143782137
 42
6.914905916409376
  0
LINE
  5
24EE
330
23F1
100
AcDbEntity
  8
0
100
AcDbLine
 10
25.62114566517388
 20
-171.5116687847019
 30
0.0
 11
7.421145665329356
 21
-161.0038938855405
 31
0.0
  0
LINE
  5
24EF
330
23F1
100
AcDbEntity
  8
0
100
AcDbLine
 10
-64.35019262510522
 20
-119.5666924034584
 30
0.0
 11
-46.15019262526072
 21
-130.0744673026198
 31
0.0
  0
LINE
  5
24F0
330
23F1
100
AcDbEntity
  8
0
100
AcDbLine
 10
13.72078856227244
 20
-76.19093316803844
 30
0.0
 11
6.534165246533483
 21
-72.04173426213213
 31
0.0
  0
LINE
  5
24F1
330
23F1
100
AcDbEntity
  8
0
100
AcDbLine
 10
3.114186844474229
 20
-70.06720881108051
 30
0.0
 11
-4.114036899370785
 21
-65.89399188680875
 31
0.0
  0
LINE
  5
24F2
330
23F1
100
AcDbEntity
  8
0
100
AcDbLine
 10
-45.4259285565488
 20
-130.492621357655
 30
0.0
 11
6.36048549354955
 21
-160.3915214498447
 31
0.0
  0
LINE
  5
24F3
330
23F1
100
AcDbEntity
  8
0
100
AcDbLine
 10
59.72432976750408
 20
-102.7510900665549
 30
0.0
 11
52.49610602365909
 21
-98.57787314228321
 31
0.0
  0
LINE
  5
24F4
330
23F1
100
AcDbEntity
  8
0
100
AcDbLine
 10
49.07612762159984
 20
-96.6033476912316
 30
0.0
 11
41.88950430586086
 21
-92.45414878532526
 31
0.0
  0
LINE
  5
24F5
330
23F1
100
AcDbEntity
  8
0
100
AcDbLine
 10
34.93399199786888
 20
-88.43838188195434
 30
0.0
 11
20.67630087026444
 21
-80.20670007140937
 31
0.0
  0
LINE
  5
24F6
330
23F1
100
AcDbEntity
  8
0
100
AcDbLine
 10
42.06407449260382
 20
-92.06503898107714
 30
0.0
 11
49.15008557228077
 21
-96.15614938540929
 31
0.0
  0
LINE
  5
24F7
330
23F1
100
AcDbEntity
  8
0
100
AcDbLine
 10
6.708735433276431
 20
-71.652624457884
 30
0.0
 11
13.79474651295337
 21
-75.74373486221614
 31
0.0
  0
LINE
  5
24F8
330
23F1
100
AcDbEntity
  8
0
100
AcDbLine
 10
20.85087105700738
 20
-79.81759026716125
 30
0.0
 11
35.00794994854981
 21
-87.99118357613203
 31
0.0
  0
LINE
  5
24F9
330
23F1
100
AcDbEntity
  8
0
100
AcDbLine
 10
52.67067621040204
 20
-98.18876333803508
 30
0.0
 11
59.761715720762
 21
-102.2827769081756
 31
0.0
  0
LINE
  5
24FA
330
23F1
100
AcDbEntity
  8
0
100
AcDbLine
 10
-3.902894715204809
 20
-65.5259969351176
 30
0.0
 11
3.188144795155154
 21
-69.6200105052582
 31
0.0
  0
ELLIPSE
  5
24FB
330
23F1
100
AcDbEntity
  8
0
100
AcDbEllipse
 10
15.17114566544304
 20
-151.0446017420851
 30
0.0
 11
1.25000000000013
 21
2.165063509461021
 31
0.0
210
0.0
220
0.0
230
1.0
 40
0.5773502691896255
 41
0.0
 42
6.283185307179586
  0
ELLIPSE
  5
24FC
330
23F1
100
AcDbEntity
  8
0
100
AcDbEllipse
 10
28.92114566564777
 20
-133.0024058300275
 30
0.0
 11
-0.4000000000000425
 21
-0.6928203230275284
 31
0.0
210
0.0
220
0.0
230
1.0
 40
0.5773502691896258
 41
2.094395102375157
 42
2.276828566511568
  0
LINE
  5
24FD
330
23F1
100
AcDbEntity
  8
0
100
AcDbLine
 10
29.46755582715888
 20
-132.8559956685267
 30
0.0
 11
28.67508758183562
 21
-136.7285909327328
 31
0.0
  0
ELLIPSE
  5
24FE
330
23F1
100
AcDbEntity
  8
0
100
AcDbEllipse
 10
28.12867742032451
 20
-136.8750010942335
 30
0.0
 11
-0.4000000000000419
 21
-0.6928203230275269
 31
0.0
210
0.0
220
0.0
230
1.0
 40
0.5773502691896257
 41
0.0
 42
2.094395102375107
  0
LINE
  5
24FF
330
23F1
100
AcDbEntity
  8
0
100
AcDbLine
 10
27.72867742031723
 20
-137.5678214172569
 30
0.0
 11
25.56361391089553
 21
-136.3178214171887
 31
0.0
  0
ELLIPSE
  5
2500
330
23F1
100
AcDbEntity
  8
0
100
AcDbEllipse
 10
25.9636139109028
 20
-135.6250010941653
 30
0.0
 11
-0.4000000000072804
 21
-0.6928203230233495
 31
0.0
210
0.0
220
0.0
230
1.0
 40
0.5773502691896255
 41
4.188790204822794
 42
6.283185307252372
  0
LINE
  5
2501
330
23F1
100
AcDbEntity
  8
0
100
AcDbLine
 10
25.81720374939897
 20
-135.0785909326427
 30
0.0
 11
28.77473550414394
 21
-132.4559956685049
 31
0.0
  0
ELLIPSE
  5
2502
330
23F1
100
AcDbEntity
  8
0
100
AcDbEllipse
 10
28.92114566564777
 20
-133.0024058300275
 30
0.0
 11
0.4000000000000011
 21
0.6928203230275521
 31
0.0
210
0.0
220
0.0
230
1.0
 40
0.5773502691896259
 41
0.0802385882704746
 42
1.047197551178412
  0
LINE
  5
2503
330
23F1
100
AcDbEntity
  8
0
100
AcDbLine
 10
29.287797703382
 20
-132.2933041484512
 30
0.0
 11
29.48505041353212
 21
-132.7286224688288
 31
0.0
  0
ELLIPSE
  5
2504
330
23F1
100
AcDbEntity
  8
0
100
AcDbEllipse
 10
27.06801724854472
 20
-136.2626286585378
 30
0.0
 11
-0.4000000000072798
 21
-0.6928203230233483
 31
0.0
210
0.0
220
0.0
230
1.0
 40
0.5773502691896258
 41
0.0000000000727865
 42
2.094395102429601
  0
LINE
  5
2505
330
23F1
100
AcDbEntity
  8
0
100
AcDbLine
 10
27.61442741005581
 20
-136.116218497037
 30
0.0
 11
28.67508758183562
 21
-136.7285909327328
 31
0.0
  0
LINE
  5
2506
330
23F1
100
AcDbEntity
  8
0
100
AcDbLine
 10
27.61442741005581
 20
-136.116218497037
 30
0.0
 11
28.27225692620645
 21
-132.9015692237897
 31
0.0
  0
LINE
  5
2507
330
23F1
100
AcDbEntity
  8
0
100
AcDbLine
 10
28.77473550413132
 20
-132.4559956685267
 30
0.0
 11
29.46755582715888
 21
-132.8559956685267
 31
0.0
  0
LINE
  5
2508
330
23F1
100
AcDbEntity
  8
0
100
AcDbLine
 10
28.87629663763715
 20
-132.3771583124456
 30
0.0
 11
29.48505041353212
 21
-132.7286224688288
 31
0.0
  0
ELLIPSE
  5
2509
330
23F1
100
AcDbEntity
  8
0
100
AcDbEllipse
 10
14.11048549366325
 20
-150.4322293063893
 30
0.0
 11
1.24999999999987
 21
2.165063509461171
 31
0.0
210
0.0
220
0.0
230
1.0
 40
0.5773502691896258
 41
3.579741684173535
 42
5.845036276595007
  0
LINE
  5
250A
330
23F1
100
AcDbEntity
  8
0
100
AcDbLine
 10
-51.91085279747721
 20
-89.79813137538114
 30
0.0
 11
-65.41085279688505
 21
-113.1808172758664
 31
0.0
  0
LINE
  5
250B
330
23F1
100
AcDbEntity
  8
0
100
AcDbLine
 10
-50.85019262569712
 20
-90.41050381107707
 30
0.0
 11
-64.35019262510522
 21
-113.7931897115622
 31
0.0
  0
ELLIPSE
  5
250C
330
23F1
100
AcDbEntity
  8
0
100
AcDbEllipse
 10
-60.16085279681682
 20
-113.3251548432032
 30
0.0
 11
1.24999999999987
 21
2.165063509461172
 31
0.0
210
0.0
220
0.0
230
1.0
 40
0.5773502691896255
 41
3.579741684173528
 42
5.845036276595005
  0
ELLIPSE
  5
250D
330
23F1
100
AcDbEntity
  8
0
100
AcDbEllipse
 10
-47.20332104193537
 20
-99.15555419535166
 30
0.0
 11
-0.4000000000072798
 21
-0.6928203230233483
 31
0.0
210
0.0
220
0.0
230
1.0
 40
0.5773502691896258
 41
0.0000000000727778
 42
2.094395102429599
  0
LINE
  5
250E
330
23F1
100
AcDbEntity
  8
0
100
AcDbLine
 10
-46.65691088042428
 20
-99.00914403385089
 30
0.0
 11
-45.99908136427362
 21
-95.79449476060363
 31
0.0
  0
LINE
  5
250F
330
23F1
100
AcDbEntity
  8
0
100
AcDbLine
 10
-45.59625070864445
 20
-99.62151646954668
 30
0.0
 11
-46.65691088042428
 21
-99.00914403385089
 31
0.0
  0
LINE
  5
2510
330
23F1
100
AcDbEntity
  8
0
100
AcDbLine
 10
-44.80378246332119
 20
-95.74892120534061
 30
0.0
 11
-45.59625070864445
 21
-99.62151646954668
 31
0.0
  0
LINE
  5
2511
330
23F1
100
AcDbEntity
  8
0
100
AcDbLine
 10
-44.80378246332119
 20
-95.74892120534061
 30
0.0
 11
-45.49660278635601
 21
-95.3489212053364
 31
0.0
  0
ELLIPSE
  5
2512
330
23F1
100
AcDbEntity
  8
0
100
AcDbEllipse
 10
-45.3501926248323
 20
-95.89533136684137
 30
0.0
 11
0.4000000000000007
 21
0.6928203230275525
 31
0.0
210
0.0
220
0.0
230
1.0
 40
0.5773502691896257
 41
5.235987755964799
 42
7.330382858358005
  0
LINE
  5
2513
330
23F1
100
AcDbEntity
  8
0
100
AcDbLine
 10
-48.45413454108111
 20
-97.97151646945662
 30
0.0
 11
-45.49660278633613
 21
-95.34892120531877
 31
0.0
  0
ELLIPSE
  5
2514
330
23F1
100
AcDbEntity
  8
0
100
AcDbEllipse
 10
-48.30772437957728
 20
-98.51792663097919
 30
0.0
 11
-0.4000000000072796
 21
-0.6928203230233496
 31
0.0
210
0.0
220
0.0
230
1.0
 40
0.577350269189626
 41
4.188790204822792
 42
6.283185307252341
  0
LINE
  5
2515
330
23F1
100
AcDbEntity
  8
0
100
AcDbLine
 10
-46.54266087016283
 20
-100.4607469540708
 30
0.0
 11
-48.70772437958456
 21
-99.21074695400257
 31
0.0
  0
ELLIPSE
  5
2516
330
23F1
100
AcDbEntity
  8
0
100
AcDbEllipse
 10
-46.14266087015557
 20
-99.76792663104745
 30
0.0
 11
-0.4000000000000413
 21
-0.6928203230275272
 31
0.0
210
0.0
220
0.0
230
1.0
 40
0.5773502691896257
 41
0.0
 42
2.094395102375109
  0
ELLIPSE
  5
2517
330
23F1
100
AcDbEntity
  8
0
100
AcDbEllipse
 10
-59.10019262503702
 20
-113.937527278899
 30
0.0
 11
1.250000000000129
 21
2.165063509461021
 31
0.0
210
0.0
220
0.0
230
1.0
 40
0.5773502691896258
 41
0.0
 42
6.283185307179586
  0
LINE
  5
2518
330
23F1
100
AcDbEntity
  8
0
100
AcDbLine
 10
-7.862383276658619
 20
-65.43065242047115
 30
0.0
 11
-45.4259285565488
 21
-130.492621357655
 31
0.0
  0
LINE
  5
2519
330
23F1
100
AcDbEntity
  8
0
100
AcDbLine
 10
-46.15019262526074
 20
-130.0744673026198
 30
0.0
 11
-45.42592855654882
 21
-130.492621357655
 31
0.0
  0
LINE
  5
251A
330
23F1
100
AcDbEntity
  8
0
100
AcDbLine
 10
-46.15019262526072
 20
-130.0744673026198
 30
0.0
 11
-9.450192626048599
 21
-66.50820266620664
 31
0.0
  0
ENDBLK
  5
23F3
330
23F1
100
AcDbEntity
  8
0
100
AcDbBlockEnd
  0
ENDSEC
  0
SECTION
  2
ENTITIES
  0
INSERT
  5
251B
330
1F
100
AcDbEntity
  8
0
100
AcDbBlockReference
  2
SPR100_300-Front
 10
0.0
 20
0.0
 30
0.0
  0
INSERT
  5
251C
330
1F
100
AcDbEntity
  8
0
100
AcDbBlockReference
  2
SPR100_300-Left
 10
199.4229986469886
 20
0.0
 30
0.0
  0
INSERT
  5
251D
330
1F
100
AcDbEntity
  8
0
100
AcDbBlockReference
  2
SPR100_300-Right
 10
-199.4229986469887
 20
0.0
 30
0.0
  0
INSERT
  5
251E
330
1F
100
AcDbEntity
  8
0
100
AcDbBlockReference
  2
SPR100_300-Top
 10
0.0
 20
-162.545601705951
 30
0.0
  0
INSERT
  5
251F
330
1F
100
AcDbEntity
  8
0
100
AcDbBlockReference
  2
SPR100_300-Bottom
 10
0.0
 20
407.5659080859887
 30
0.0
  0
INSERT
  5
2520
330
1F
100
AcDbEntity
  8
0
100
AcDbBlockReference
  2
SPR100_300-ISO
 10
264.8338514438738
 20
-345.2725122969296
 30
0.0
  0
MTEXT
  5
2521
330
1F
100
AcDbEntity
  8
0
100
AcDbMText
 10
0.0
 20
-351.4445760657996
 30
0.0
 40
26.58973315293183
 41
0.0
 71
     5
 72
     5
  1
SPR100/300
 73
     1
 44
1.0
1001
ACAD
1000
MTEXTBEGIN
1070
    73
1070
     1
1070
    44
1040
1.0
1070
    74
1070
     0
1000
MTEXTEND
  0
ENDSEC
  0
SECTION
  2
OBJECTS
  0
DICTIONARY
  5
C
330
0
100
AcDbDictionary
281
     1
  3
ACAD_CIP_PREVIOUS_PRODUCT_INFO
350
216
  3
ACAD_COLOR
350
6B
  3
ACAD_DETAILVIEWSTYLE
350
21B
  3
ACAD_GROUP
350
D
  3
ACAD_LAYOUT
350
1A
  3
ACAD_MATERIAL
350
6A
  3
ACAD_MLEADERSTYLE
350
12D
  3
ACAD_MLINESTYLE
350
17
  3
ACAD_PLOTSETTINGS
350
19
  3
ACAD_PLOTSTYLENAME
350
E
  3
ACAD_SCALELIST
350
10C
  3
ACAD_SECTIONVIEWSTYLE
350
219
  3
ACAD_TABLESTYLE
350
7E
  3
ACAD_VISUALSTYLE
350
EF
  3
ACDB_RECOMPOSE_DATA
350
2622
  3
AcDbVariableDictionary
350
5E
  3
DWGPROPS
350
2623
  0
DICTIONARY
  5
2572
330
8
100
AcDbDictionary
280
     1
281
     1
  0
DICTIONARY
  5
1FF
330
2
100
AcDbDictionary
280
     1
281
     1
  3
ACAD_LAYERSTATES
360
200
  0
DICTIONARY
  5
13C
330
10
100
AcDbDictionary
280
     1
281
     1
  0
DICTIONARY
  5
1CE
330
1F
100
AcDbDictionary
280
     1
281
     1
  3
ACAD_LAYOUTSELFREF
360
257A
  0
DICTIONARY
  5
2525
330
D2
100
AcDbDictionary
280
     1
281
     1
  3
ACAD_LAYOUTSELFREF
360
2583
  0
DICTIONARY
  5
2527
330
D6
100
AcDbDictionary
280
     1
281
     1
  3
ACAD_LAYOUTSELFREF
360
2586
  0
XRECORD
  5
216
102
{ACAD_REACTORS
330
C
102
}
330
C
100
AcDbXrecord
280
     1
300
ACD
300
2021
300
87393ACD_2021_0F
  0
DICTIONARY
  5
6B
102
{ACAD_REACTORS
330
C
102
}
330
C
100
AcDbDictionary
281
     1
  0
DICTIONARY
  5
21B
102
{ACAD_REACTORS
330
C
102
}
330
C
100
AcDbDictionary
281
     1
  3
Metric50
350
21C
  0
DICTIONARY
  5
D
102
{ACAD_REACTORS
330
C
102
}
330
C
100
AcDbDictionary
281
     1
  0
DICTIONARY
  5
1A
102
{ACAD_REACTORS
330
C
102
}
330
C
100
AcDbDictionary
281
     1
  3
Layout1
350
D3
  3
Layout2
350
D7
  3
Model
350
22
  0
DICTIONARY
  5
6A
102
{ACAD_REACTORS
330
C
102
}
330
C
100
AcDbDictionary
281
     1
  3
ByBlock
350
ED
  3
ByLayer
350
EC
  3
Global
350
EE
  0
DICTIONARY
  5
12D
102
{ACAD_REACTORS
330
C
102
}
330
C
100
AcDbDictionary
281
     1
  3
Standard
350
12E
  0
DICTIONARY
  5
17
102
{ACAD_REACTORS
330
C
102
}
330
C
100
AcDbDictionary
281
     1
  3
Standard
350
18
  0
DICTIONARY
  5
19
102
{ACAD_REACTORS
330
C
102
}
330
C
100
AcDbDictionary
281
     1
  0
ACDBDICTIONARYWDFLT
  5
E
102
{ACAD_REACTORS
330
C
102
}
330
C
100
AcDbDictionary
281
     1
  3
Normal
350
F
100
AcDbDictionaryWithDefault
340
F
  0
DICTIONARY
  5
10C
102
{ACAD_REACTORS
330
C
102
}
330
C
100
AcDbDictionary
281
     1
  3
A0
350
10D
  3
A1
350
1BE
  3
A2
350
1BF
  3
A3
350
1C0
  3
A4
350
1C1
  3
A5
350
1C2
  3
A6
350
1C3
  3
A7
350
1C4
  3
A8
350
1C5
  3
A9
350
1C6
  3
B0
350
1C7
  3
B1
350
1C8
  3
B2
350
1C9
  3
B3
350
1CA
  3
B4
350
1CB
  3
B5
350
1CC
  3
B6
350
1CD
  0
DICTIONARY
  5
219
102
{ACAD_REACTORS
330
C
102
}
330
C
100
AcDbDictionary
281
     1
  3
Metric50
350
21A
  0
DICTIONARY
  5
7E
102
{ACAD_REACTORS
330
C
102
}
330
C
100
AcDbDictionary
281
     1
  3
Standard
350
7F
  0
DICTIONARY
  5
EF
102
{ACAD_REACTORS
330
C
102
}
330
C
100
AcDbDictionary
281
     1
  3
2dWireframe
350
F5
  3
Basic
350
F4
  3
Brighten
350
FB
  3
ColorChange
350
FF
  3
Conceptual
350
F8
  3
Dim
350
FA
  3
EdgeColorOff
350
1E6
  3
Facepattern
350
FE
  3
Flat
350
F0
  3
FlatWithEdges
350
F1
  3
Gouraud
350
F2
  3
GouraudWithEdges
350
F3
  3
Hidden
350
F7
  3
JitterOff
350
1E4
  3
Linepattern
350
FD
  3
OverhangOff
350
1E5
  3
Realistic
350
F9
  3
Shaded
350
1F3
  3
Shaded with edges
350
1F2
  3
Shades of Gray
350
1EF
  3
Sketchy
350
1F0
  3
Thicken
350
FC
  3
Wireframe
350
F6
  3
X-Ray
350
1F1
  0
XRECORD
  5
2622
102
{ACAD_REACTORS
330
C
102
}
330
C
100
AcDbXrecord
280
     1
 90
        1
330
7F
  0
DICTIONARY
  5
5E
102
{ACAD_REACTORS
330
C
102
}
330
C
100
AcDbDictionary
281
     1
  3
CANNOSCALE
350
146
  3
CENTEREXE
350
259
  3
CENTERLTYPEFILE
350
25A
  3
CMLEADERSTYLE
350
145
  3
CTABLESTYLE
350
84
  3
CVIEWDETAILSTYLE
350
227
  3
CVIEWSECTIONSTYLE
350
228
  3
DIMASSOC
350
5F
  3
HIDETEXT
350
63
  3
INDEXCTL
350
25CF
  3
LAYEREVAL
350
1AE
  3
LAYERNOTIFY
350
1AF
  3
LIGHTINGUNITS
350
25CD
  3
MSLTSCALE
350
25CC
  3
PSOLHEIGHT
350
261F
  3
PSOLWIDTH
350
261E
  3
SORTENTS
350
25CE
  3
XCLIPFRAME
350
2620
  0
XRECORD
  5
2623
102
{ACAD_REACTORS
330
C
102
}
330
C
100
AcDbXrecord
280
     1
  1
DWGPROPS COOKIE
  2

  3

  4

  6

  7

  8
truole
  9

300
=
301
=
302
=
303
=
304
=
305
=
306
=
307
=
308
=
309
=
 40
0.0019560185185185
 41
2460719.40650463
 42
2460719.410810185
  1

 90
        0
  0
DICTIONARY
  5
200
102
{ACAD_REACTORS
330
1FF
102
}
330
1FF
100
AcDbDictionary
281
     1
  0
XRECORD
  5
257A
102
{ACAD_REACTORS
330
1CE
102
}
330
1CE
100
AcDbXrecord
280
     1
340
1F
  0
XRECORD
  5
2583
102
{ACAD_REACTORS
330
2525
102
}
330
2525
100
AcDbXrecord
280
     1
340
D2
  0
XRECORD
  5
2586
102
{ACAD_REACTORS
330
2527
102
}
330
2527
100
AcDbXrecord
280
     1
340
D6
  0
ACDBDETAILVIEWSTYLE
  5
21C
102
{ACAD_XDICTIONARY
360
2662
102
}
102
{ACAD_REACTORS
330
21B
102
}
330
21B
100
AcDbModelDocViewStyle
 70
     0
  3
Metric50
290
     0
100
AcDbDetailViewStyle
 70
     0
 71
     0
 90
        3
 71
     1
340
11
 40
5.0
340
0
 40
5.0
300

 40
0.0
280
     1
 71
     2
340
16
 90
       25
 71
     3
340
11
 40
5.0
 90
        0
 40
15.0
 90
        1
300
%<\AcVar ViewDetailId>% (%<\AcVar ViewScale \f "%sn">%)
 71
     4
340
16
 90
       25
340
16
 90
       25
280
     0
  0
LAYOUT
  5
D3
102
{ACAD_XDICTIONARY
360
2627
102
}
102
{ACAD_REACTORS
330
1A
102
}
330
1A
100
AcDbPlotSettings
  1

  2
C:\Documents and Settings\basas\Application Data\Autodesk\AutoCAD 2005\R16.1\enu\plotters\Default Windows System Printer.pc3
  4

  6

 40
0.0
 41
0.0
 42
0.0
 43
0.0
 44
0.0
 45
0.0
 46
0.0
 47
0.0
 48
0.0
 49
0.0
140
0.0
141
0.0
142
1.0
143
1.0
 70
   688
 72
     0
 73
     0
 74
     5
  7

 75
    16
147
1.0
148
0.0
149
0.0
100
AcDbLayout
  1
Layout1
 70
     1
 71
     1
 10
0.0
 20
0.0
 11
12.0
 21
9.0
 12
0.0
 22
0.0
 32
0.0
 14
0.0
 24
0.0
 34
0.0
 15
0.0
 25
0.0
 35
0.0
146
0.0
 13
0.0
 23
0.0
 33
0.0
 16
1.0
 26
0.0
 36
0.0
 17
0.0
 27
1.0
 37
0.0
 76
     0
330
D2
  0
LAYOUT
  5
D7
102
{ACAD_XDICTIONARY
360
2629
102
}
102
{ACAD_REACTORS
330
1A
102
}
330
1A
100
AcDbPlotSettings
  1

  2
C:\Documents and Settings\basas\Application Data\Autodesk\AutoCAD 2005\R16.1\enu\plotters\Default Windows System Printer.pc3
  4

  6

 40
0.0
 41
0.0
 42
0.0
 43
0.0
 44
0.0
 45
0.0
 46
0.0
 47
0.0
 48
0.0
 49
0.0
140
0.0
141
0.0
142
1.0
143
1.0
 70
   688
 72
     0
 73
     0
 74
     5
  7

 75
    16
147
1.0
148
0.0
149
0.0
100
AcDbLayout
  1
Layout2
 70
     1
 71
     2
 10
0.0
 20
0.0
 11
12.0
 21
9.0
 12
0.0
 22
0.0
 32
0.0
 14
0.0
 24
0.0
 34
0.0
 15
0.0
 25
0.0
 35
0.0
146
0.0
 13
0.0
 23
0.0
 33
0.0
 16
1.0
 26
0.0
 36
0.0
 17
0.0
 27
1.0
 37
0.0
 76
     0
330
D6
  0
LAYOUT
  5
22
102
{ACAD_XDICTIONARY
360
2624
102
}
102
{ACAD_REACTORS
330
1A
102
}
330
1A
100
AcDbPlotSettings
  1

  2
none_device
  4
ISO_A4_(210.00_x_297.00_MM)
  6

 40
7.5
 41
20.0
 42
7.5
 43
20.0
 44
210.0
 45
297.0
 46
11.54999923706054
 47
-13.65000009536743
 48
0.0
 49
0.0
140
0.0
141
0.0
142
1.0
143
8.704084754739808
 70
 11952
 72
     1
 73
     0
 74
     0
  7

 75
     0
147
0.1148885871608098
148
0.0
149
0.0
100
AcDbLayout
  1
Model
 70
     1
 71
     0
 10
0.0
 20
0.0
 11
12.0
 21
9.0
 12
0.0
 22
0.0
 32
0.0
 14
0.0
 24
0.0
 34
0.0
 15
0.0
 25
0.0
 35
0.0
146
0.0
 13
0.0
 23
0.0
 33
0.0
 16
1.0
 26
0.0
 36
0.0
 17
0.0
 27
1.0
 37
0.0
 76
     0
330
1F
331
EA
1001
ACAD_PSEXT
1000
None
1000
None
1000
Not applicable
1000
The layout will not be plotted unless a new plotter configuration name is selected.
1070
     0
  0
MATERIAL
  5
ED
102
{ACAD_XDICTIONARY
360
1F9
102
}
102
{ACAD_REACTORS
330
6A
102
}
330
6A
100
AcDbMaterial
  1
ByBlock
  0
MATERIAL
  5
EC
102
{ACAD_XDICTIONARY
360
1F7
102
}
102
{ACAD_REACTORS
330
6A
102
}
330
6A
100
AcDbMaterial
  1
ByLayer
  0
MATERIAL
  5
EE
102
{ACAD_XDICTIONARY
360
173
102
}
102
{ACAD_REACTORS
330
6A
102
}
330
6A
100
AcDbMaterial
  1
Global
 43
0.0007999999797903
 43
0.0
 43
0.0
 43
0.0
 43
0.0
 43
0.0007999999797903
 43
0.0
 43
0.0
 43
0.0
 43
0.0
 43
1.0
 43
0.0
 43
0.0
 43
0.0
 43
0.0
 43
1.0
 49
0.0007999999797903
 49
0.0
 49
0.0
 49
0.0
 49
0.0
 49
0.0007999999797903
 49
0.0
 49
0.0
 49
0.0
 49
0.0
 49
1.0
 49
0.0
 49
0.0
 49
0.0
 49
0.0
 49
1.0
142
0.0007999999797903
142
0.0
142
0.0
142
0.0
142
0.0
142
0.0007999999797903
142
0.0
142
0.0
142
0.0
142
0.0
142
1.0
142
0.0
142
0.0
142
0.0
142
0.0
142
1.0
144
0.0007999999797903
144
0.0
144
0.0
144
0.0
144
0.0
144
0.0007999999797903
144
0.0
144
0.0
144
0.0
144
0.0
144
1.0
144
0.0
144
0.0
144
0.0
144
0.0
144
1.0
1001
ACAD
1070
    -1
1070
     3
1070
     0
1000

1071
        0
1070
     0
  0
MLEADERSTYLE
  5
12E
102
{ACAD_XDICTIONARY
360
264E
102
}
102
{ACAD_REACTORS
330
12D
102
}
330
12D
100
AcDbMLeaderStyle
170
     2
171
     1
172
     0
 90
        2
 40
0.0
 41
0.0
173
     1
 91
-1056964608
340
14
 92
       -2
290
     1
 42
2.0
291
     1
 43
8.0
  3
Standard
 44
4.0
300

342
11
174
     1
178
     1
175
     1
176
     0
 93
-1056964608
 45
4.0
292
     0
297
     0
 46
4.0
 94
-1056964608
 47
1.0
 49
1.0
140
1.0
293
     1
141
0.0
294
     1
177
     0
142
1.0
295
     0
296
     0
143
3.75
1001
ACAD_MLEADERVER
1070
     2
  0
MLINESTYLE
  5
18
102
{ACAD_REACTORS
330
17
102
}
330
17
100
AcDbMlineStyle
  2
STANDARD
 70
     0
  3

 62
   256
 51
90.0
 52
90.0
 71
     2
 49
0.5
 62
   256
  6
BYLAYER
 49
-0.5
 62
   256
  6
BYLAYER
  0
ACDBPLACEHOLDER
  5
F
102
{ACAD_REACTORS
330
E
102
}
330
E
  0
SCALE
  5
10D
102
{ACAD_REACTORS
330
10C
102
}
330
10C
100
AcDbScale
 70
     0
300
1:1
140
1.0
141
1.0
290
     1
  0
SCALE
  5
1BE
102
{ACAD_REACTORS
330
10C
102
}
330
10C
100
AcDbScale
 70
     0
300
1:2
140
1.0
141
2.0
290
     0
  0
SCALE
  5
1BF
102
{ACAD_REACTORS
330
10C
102
}
330
10C
100
AcDbScale
 70
     0
300
1:4
140
1.0
141
4.0
290
     0
  0
SCALE
  5
1C0
102
{ACAD_REACTORS
330
10C
102
}
330
10C
100
AcDbScale
 70
     0
300
1:5
140
1.0
141
5.0
290
     0
  0
SCALE
  5
1C1
102
{ACAD_REACTORS
330
10C
102
}
330
10C
100
AcDbScale
 70
     0
300
1:8
140
1.0
141
8.0
290
     0
  0
SCALE
  5
1C2
102
{ACAD_REACTORS
330
10C
102
}
330
10C
100
AcDbScale
 70
     0
300
1:10
140
1.0
141
10.0
290
     0
  0
SCALE
  5
1C3
102
{ACAD_REACTORS
330
10C
102
}
330
10C
100
AcDbScale
 70
     0
300
1:16
140
1.0
141
16.0
290
     0
  0
SCALE
  5
1C4
102
{ACAD_REACTORS
330
10C
102
}
330
10C
100
AcDbScale
 70
     0
300
1:20
140
1.0
141
20.0
290
     0
  0
SCALE
  5
1C5
102
{ACAD_REACTORS
330
10C
102
}
330
10C
100
AcDbScale
 70
     0
300
1:30
140
1.0
141
30.0
290
     0
  0
SCALE
  5
1C6
102
{ACAD_REACTORS
330
10C
102
}
330
10C
100
AcDbScale
 70
     0
300
1:40
140
1.0
141
40.0
290
     0
  0
SCALE
  5
1C7
102
{ACAD_REACTORS
330
10C
102
}
330
10C
100
AcDbScale
 70
     0
300
1:50
140
1.0
141
50.0
290
     0
  0
SCALE
  5
1C8
102
{ACAD_REACTORS
330
10C
102
}
330
10C
100
AcDbScale
 70
     0
300
1:100
140
1.0
141
100.0
290
     0
  0
SCALE
  5
1C9
102
{ACAD_REACTORS
330
10C
102
}
330
10C
100
AcDbScale
 70
     0
300
2:1
140
2.0
141
1.0
290
     0
  0
SCALE
  5
1CA
102
{ACAD_REACTORS
330
10C
102
}
330
10C
100
AcDbScale
 70
     0
300
4:1
140
4.0
141
1.0
290
     0
  0
SCALE
  5
1CB
102
{ACAD_REACTORS
330
10C
102
}
330
10C
100
AcDbScale
 70
     0
300
8:1
140
8.0
141
1.0
290
     0
  0
SCALE
  5
1CC
102
{ACAD_REACTORS
330
10C
102
}
330
10C
100
AcDbScale
 70
     0
300
10:1
140
10.0
141
1.0
290
     0
  0
SCALE
  5
1CD
102
{ACAD_REACTORS
330
10C
102
}
330
10C
100
AcDbScale
 70
     0
300
100:1
140
100.0
141
1.0
290
     0
  0
ACDBSECTIONVIEWSTYLE
  5
21A
102
{ACAD_XDICTIONARY
360
2660
102
}
102
{ACAD_REACTORS
330
219
102
}
330
219
100
AcDbModelDocViewStyle
 70
     0
  3
Metric50
290
     0
100
AcDbSectionViewStyle
 70
     0
 71
     0
 90
      102
 71
     1
340
11
 40
5.0
340
0
340
0
 40
5.0
300
I, O, Q, S, X, Z
 40
10.0
 90
        0
 40
2.5
 90
        0
 71
     2
340
16
 90
       25
340
16
 90
       50
 40
5.0
 40
2.5
 40
5.0
 71
     3
340
11
 40
5.0
 90
        0
 40
15.0
 90
        1
300
%<\AcVar ViewSectionStartId>%-%<\AcVar ViewSectionEndId>% (%<\AcVar ViewScale \f "%sn">%)
 71
     4
300
ANSI31
 40
1.0
 90
        0
290
     0
290
     0
 90
        6
 40
0.0
 40
1.570796326794896
 40
0.2617993877991494
 40
1.308996938995747
 40
-0.2617993877991494
 40
1.832595714594046
  0
TABLESTYLE
  5
7F
102
{ACAD_XDICTIONARY
360
162
102
}
102
{ACAD_REACTORS
330
7E
102
}
330
7E
100
AcDbTableStyle
  3
Standard
 70
     0
 71
     0
 40
1.5
 41
1.5
280
     0
281
     0
  7
Standard
140
4.5
170
     2
 62
     0
 63
     7
283
     0
274
    -2
284
     1
 64
     0
275
    -2
285
     1
 65
     0
276
    -2
286
     1
 66
     0
277
    -2
287
     1
 67
     0
278
    -2
288
     1
 68
     0
279
    -2
289
     1
 69
     0
  7
Standard
140
6.0
170
     5
 62
     0
 63
     7
283
     0
274
    -2
284
     1
 64
     0
275
    -2
285
     1
 65
     0
276
    -2
286
     1
 66
     0
277
    -2
287
     1
 67
     0
278
    -2
288
     1
 68
     0
279
    -2
289
     1
 69
     0
  7
Standard
140
4.5
170
     5
 62
     0
 63
     7
283
     0
274
    -2
284
     1
 64
     0
275
    -2
285
     1
 65
     0
276
    -2
286
     1
 66
     0
277
    -2
287
     1
 67
     0
278
    -2
288
     1
 68
     0
279
    -2
289
     1
 69
     0
  0
VISUALSTYLE
  5
F5
102
{ACAD_XDICTIONARY
360
2638
102
}
102
{ACAD_REACTORS
330
EF
102
}
330
EF
100
AcDbVisualStyle
  2
2dWireframe
 70
     4
 71
     0
 72
     2
 73
     1
 90
        0
 40
-0.6
 41
-30.0
 62
     5
 63
     7
 74
     1
 91
        4
 64
     7
 65
   257
 75
     1
175
     1
 42
1.0
 92
        0
 66
   257
 43
1.0
 76
     1
 77
     6
 78
     2
 67
     7
 79
     5
170
     0
171
     0
290
     0
174
     0
 93
        1
 44
0.0
173
     0
291
     0
 45
0.0
1001
ACAD
1000
AcDbSavedByObjectVersion
1070
     0
  0
VISUALSTYLE
  5
F4
102
{ACAD_XDICTIONARY
360
2636
102
}
102
{ACAD_REACTORS
330
EF
102
}
330
EF
100
AcDbVisualStyle
  2
Basic
 70
     7
 71
     1
 72
     0
 73
     1
 90
        0
 40
-0.6
 41
-30.0
 62
     5
 63
     7
 74
     0
 91
        4
 64
     7
 65
   257
 75
     1
175
     1
 42
1.0
 92
        8
 66
     7
 43
1.0
 76
     1
 77
     6
 78
     2
 67
     7
 79
     5
170
     0
171
     0
290
     0
174
     0
 93
        1
 44
0.0
173
     0
291
     1
 45
0.0
1001
ACAD
1000
AcDbSavedByObjectVersion
1070
     0
  0
VISUALSTYLE
  5
FB
102
{ACAD_XDICTIONARY
360
2644
102
}
102
{ACAD_REACTORS
330
EF
102
}
330
EF
100
AcDbVisualStyle
  2
Brighten
 70
    12
 71
     2
 72
     2
 73
     1
 90
        0
 40
-0.6
 41
-30.0
 62
     5
 63
     7
 74
     1
 91
        4
 64
     7
 65
   257
 75
     1
175
     1
 42
1.0
 92
        8
 66
     7
 43
1.0
 76
     1
 77
     6
 78
     2
 67
     7
 79
     5
170
     0
171
     0
290
     0
174
     0
 93
        1
 44
50.0
173
     0
291
     1
 45
0.0
1001
ACAD
1000
AcDbSavedByObjectVersion
1070
     0
  0
VISUALSTYLE
  5
FF
102
{ACAD_XDICTIONARY
360
264C
102
}
102
{ACAD_REACTORS
330
EF
102
}
330
EF
100
AcDbVisualStyle
  2
ColorChange
 70
    16
 71
     2
 72
     2
 73
     3
 90
        0
 40
-0.6
 41
-30.0
 62
     5
 63
     8
 74
     1
 91
        4
 64
     7
 65
   257
 75
     1
175
     1
 42
1.0
 92
        8
 66
     8
 43
1.0
 76
     1
 77
     6
 78
     2
 67
     7
 79
     5
170
     0
171
     0
290
     0
174
     0
 93
        1
 44
0.0
173
     0
291
     1
 45
0.0
1001
ACAD
1000
AcDbSavedByObjectVersion
1070
     0
  0
VISUALSTYLE
  5
F8
102
{ACAD_XDICTIONARY
360
263E
102
}
102
{ACAD_REACTORS
330
EF
102
}
330
EF
100
AcDbVisualStyle
  2
Conceptual
 70
     9
 71
     3
 72
     2
 73
     1
 90
        0
 40
-0.6
 41
-30.0
 62
     5
 63
     7
 74
     2
 91
        2
 64
     7
 65
   257
 75
     1
175
     1
 42
40.0
 92
        8
 66
     7
 43
1.0
 76
     1
 77
     6
 78
     2
 67
     7
 79
     3
170
     0
171
     0
290
     0
174
     0
 93
        1
 44
0.0
173
     0
291
     0
 45
0.0
1001
ACAD
1000
AcDbSavedByObjectVersion
1070
     0
  0
VISUALSTYLE
  5
FA
102
{ACAD_XDICTIONARY
360
2642
102
}
102
{ACAD_REACTORS
330
EF
102
}
330
EF
100
AcDbVisualStyle
  2
Dim
 70
    11
 71
     2
 72
     2
 73
     1
 90
        0
 40
-0.6
 41
-30.0
 62
     5
 63
     7
 74
     1
 91
        4
 64
     7
 65
   257
 75
     1
175
     1
 42
1.0
 92
        8
 66
     7
 43
1.0
 76
     1
 77
     6
 78
     2
 67
     7
 79
     5
170
     0
171
     0
290
     0
174
     0
 93
        1
 44
-50.0
173
     0
291
     1
 45
0.0
1001
ACAD
1000
AcDbSavedByObjectVersion
1070
     0
  0
VISUALSTYLE
  5
1E6
102
{ACAD_XDICTIONARY
360
2654
102
}
102
{ACAD_REACTORS
330
EF
102
}
330
EF
100
AcDbVisualStyle
  2
EdgeColorOff
 70
    22
 71
     2
 72
     2
 73
     0
 90
        0
 40
-0.6
 41
-30.0
 62
     5
 63
     7
 74
     1
 91
        4
 64
     7
 65
   257
 75
     1
175
     1
 42
1.0
 92
        8
 66
     7
 43
1.0
 76
     1
 77
     6
 78
     2
 67
     7
 79
     5
170
     0
171
     0
290
     0
174
     0
 93
        1
 44
0.0
173
     0
291
     1
 45
0.0
1001
ACAD
1000
AcDbSavedByObjectVersion
1070
     0
  0
VISUALSTYLE
  5
FE
102
{ACAD_XDICTIONARY
360
264A
102
}
102
{ACAD_REACTORS
330
EF
102
}
330
EF
100
AcDbVisualStyle
  2
Facepattern
 70
    15
 71
     2
 72
     2
 73
     1
 90
        0
 40
-0.6
 41
-30.0
 62
     5
 63
     7
 74
     1
 91
        4
 64
     7
 65
   257
 75
     1
175
     1
 42
1.0
 92
        8
 66
     7
 43
1.0
 76
     1
 77
     6
 78
     2
 67
     7
 79
     5
170
     0
171
     0
290
     0
174
     0
 93
        1
 44
0.0
173
     0
291
     1
 45
0.0
1001
ACAD
1000
AcDbSavedByObjectVersion
1070
     0
  0
VISUALSTYLE
  5
F0
102
{ACAD_XDICTIONARY
360
262E
102
}
102
{ACAD_REACTORS
330
EF
102
}
330
EF
100
AcDbVisualStyle
  2
Flat
 70
     0
 71
     2
 72
     1
 73
     1
 90
        2
 40
-0.6
 41
30.0
 62
     5
 63
     7
 74
     0
 91
        0
 64
     7
 65
   257
 75
     1
175
     1
 42
1.0
 92
        8
 66
     7
 43
1.0
 76
     1
 77
     6
 78
     2
 67
     7
 79
     5
170
     0
171
     0
290
     0
174
     0
 93
       13
 44
0.0
173
     0
291
     1
 45
0.0
1001
ACAD
1000
AcDbSavedByObjectVersion
1070
     0
  0
VISUALSTYLE
  5
F1
102
{ACAD_XDICTIONARY
360
2630
102
}
102
{ACAD_REACTORS
330
EF
102
}
330
EF
100
AcDbVisualStyle
  2
FlatWithEdges
 70
     1
 71
     2
 72
     1
 73
     1
 90
        2
 40
-0.6
 41
30.0
 62
     5
 63
     7
 74
     1
 91
        0
 64
     7
 65
   257
 75
     1
175
     1
 42
1.0
 92
        0
 66
   257
 43
1.0
 76
     1
 77
     6
 78
     2
 67
     7
 79
     5
170
     0
171
     0
290
     0
174
     0
 93
       13
 44
0.0
173
     0
291
     1
 45
0.0
1001
ACAD
1000
AcDbSavedByObjectVersion
1070
     0
  0
VISUALSTYLE
  5
F2
102
{ACAD_XDICTIONARY
360
2632
102
}
102
{ACAD_REACTORS
330
EF
102
}
330
EF
100
AcDbVisualStyle
  2
Gouraud
 70
     2
 71
     2
 72
     2
 73
     1
 90
        2
 40
-0.6
 41
30.0
 62
     5
 63
     7
 74
     0
 91
        0
 64
     7
 65
   257
 75
     1
175
     1
 42
1.0
 92
        0
 66
     7
 43
1.0
 76
     1
 77
     6
 78
     2
 67
     7
 79
     5
170
     0
171
     0
290
     0
174
     0
 93
       13
 44
0.0
173
     0
291
     1
 45
0.0
1001
ACAD
1000
AcDbSavedByObjectVersion
1070
     0
  0
VISUALSTYLE
  5
F3
102
{ACAD_XDICTIONARY
360
2634
102
}
102
{ACAD_REACTORS
330
EF
102
}
330
EF
100
AcDbVisualStyle
  2
GouraudWithEdges
 70
     3
 71
     2
 72
     2
 73
     1
 90
        2
 40
-0.6
 41
30.0
 62
     5
 63
     7
 74
     1
 91
        0
 64
     7
 65
   257
 75
     1
175
     1
 42
1.0
 92
        0
 66
   257
 43
1.0
 76
     1
 77
     6
 78
     2
 67
     7
 79
     5
170
     0
171
     0
290
     0
174
     0
 93
       13
 44
0.0
173
     0
291
     1
 45
0.0
1001
ACAD
1000
AcDbSavedByObjectVersion
1070
     0
  0
VISUALSTYLE
  5
F7
102
{ACAD_XDICTIONARY
360
263C
102
}
102
{ACAD_REACTORS
330
EF
102
}
330
EF
100
AcDbVisualStyle
  2
Hidden
 70
     6
 71
     1
 72
     2
 73
     2
 90
        0
 40
-0.6
 41
-30.0
 62
     5
 63
     7
 74
     2
 91
        2
 64
     7
 65
   257
 75
     2
175
     1
 42
40.0
 92
        0
 66
   257
 43
1.0
 76
     1
 77
     6
 78
     2
 67
     7
 79
     3
170
     0
171
     0
290
     0
174
     0
 93
        1
 44
0.0
173
     0
291
     0
 45
0.0
1001
ACAD
1000
AcDbSavedByObjectVersion
1070
     0
  0
VISUALSTYLE
  5
1E4
102
{ACAD_XDICTIONARY
360
2650
102
}
102
{ACAD_REACTORS
330
EF
102
}
330
EF
100
AcDbVisualStyle
  2
JitterOff
 70
    20
 71
     2
 72
     2
 73
     0
 90
        0
 40
-0.6
 41
-30.0
 62
     5
 63
     7
 74
     1
 91
        4
 64
     7
 65
   257
 75
     1
175
     1
 42
1.0
 92
       10
 66
     7
 43
1.0
 76
     1
 77
     6
 78
     2
 67
     7
 79
     5
170
     0
171
     0
290
     0
174
     0
 93
        1
 44
0.0
173
     0
291
     1
 45
0.0
1001
ACAD
1000
AcDbSavedByObjectVersion
1070
     0
  0
VISUALSTYLE
  5
FD
102
{ACAD_XDICTIONARY
360
2648
102
}
102
{ACAD_REACTORS
330
EF
102
}
330
EF
100
AcDbVisualStyle
  2
Linepattern
 70
    14
 71
     2
 72
     2
 73
     1
 90
        0
 40
-0.6
 41
-30.0
 62
     5
 63
     7
 74
     1
 91
        4
 64
     7
 65
   257
 75
     7
175
     7
 42
1.0
 92
        8
 66
     7
 43
1.0
 76
     1
 77
     6
 78
     2
 67
     7
 79
     5
170
     0
171
     0
290
     0
174
     0
 93
        1
 44
0.0
173
     0
291
     1
 45
0.0
1001
ACAD
1000
AcDbSavedByObjectVersion
1070
     0
  0
VISUALSTYLE
  5
1E5
102
{ACAD_XDICTIONARY
360
2652
102
}
102
{ACAD_REACTORS
330
EF
102
}
330
EF
100
AcDbVisualStyle
  2
OverhangOff
 70
    21
 71
     2
 72
     2
 73
     0
 90
        0
 40
-0.6
 41
-30.0
 62
     5
 63
     7
 74
     1
 91
        4
 64
     7
 65
   257
 75
     1
175
     1
 42
1.0
 92
        9
 66
     7
 43
1.0
 76
     1
 77
     6
 78
     2
 67
     7
 79
     5
170
     0
171
     0
290
     0
174
     0
 93
        1
 44
0.0
173
     0
291
     1
 45
0.0
1001
ACAD
1000
AcDbSavedByObjectVersion
1070
     0
  0
VISUALSTYLE
  5
F9
102
{ACAD_XDICTIONARY
360
2640
102
}
102
{ACAD_REACTORS
330
EF
102
}
330
EF
100
AcDbVisualStyle
  2
Realistic
 70
     8
 71
     2
 72
     2
 73
     0
 90
        2
 40
-0.6
 41
30.0
 62
     5
 63
     7
 74
     0
 91
        0
 64
     7
 65
   257
 75
     1
175
     1
 42
1.0
 92
        8
 66
   257
 43
1.0
 76
     1
 77
     6
 78
     2
 67
     7
 79
     3
170
     0
171
     0
290
     0
174
     0
 93
       13
 44
0.0
173
     0
291
     0
 45
0.0
1001
ACAD
1000
AcDbSavedByObjectVersion
1070
     0
  0
VISUALSTYLE
  5
1F3
102
{ACAD_XDICTIONARY
360
265E
102
}
102
{ACAD_REACTORS
330
EF
102
}
330
EF
100
AcDbVisualStyle
  2
Shaded
 70
    27
 71
     2
 72
     2
 73
     1
 90
        2
 40
-0.6
 41
30.0
 62
     5
 63
     7
 74
     0
 91
        4
 64
     7
 65
   257
 75
     1
175
     1
 42
1.0
 92
        8
 66
   257
 43
1.0
 76
     1
 77
     6
 78
     2
 67
     8
 79
     3
170
     0
171
     0
290
     0
174
     0
 93
        5
 44
0.0
173
     0
291
     0
 45
0.0
1001
ACAD
1000
AcDbSavedByObjectVersion
1070
     0
  0
VISUALSTYLE
  5
1F2
102
{ACAD_XDICTIONARY
360
265C
102
}
102
{ACAD_REACTORS
330
EF
102
}
330
EF
100
AcDbVisualStyle
  2
Shaded with edges
 70
    26
 71
     2
 72
     2
 73
     1
 90
        2
 40
-0.6
 41
30.0
 62
     5
 63
     7
 74
     1
 91
        2
 64
     7
 65
   257
 75
     2
175
     1
 42
1.0
 92
        8
 66
   257
 43
1.0
 76
     1
 77
     6
 78
     2
 67
     7
 79
     3
170
     0
171
     0
290
     0
174
     0
 93
        5
 44
0.0
173
     0
291
     0
 45
0.0
1001
ACAD
1000
AcDbSavedByObjectVersion
1070
     0
  0
VISUALSTYLE
  5
1EF
102
{ACAD_XDICTIONARY
360
2656
102
}
102
{ACAD_REACTORS
330
EF
102
}
330
EF
100
AcDbVisualStyle
  2
Shades of Gray
 70
    23
 71
     2
 72
     2
 73
     3
 90
        0
 40
-0.6
 41
-30.0
 62
     5
 63
     7
 74
     2
 91
        2
 64
     7
 65
     7
 75
     1
175
     1
 42
40.0
 92
        8
 66
     7
 43
1.0
 76
     1
 77
     6
 78
     2
 67
     7
 79
     3
170
     0
171
     0
290
     0
174
     0
 93
        1
 44
0.0
173
     0
291
     0
 45
0.0
1001
ACAD
1000
AcDbSavedByObjectVersion
1070
     0
  0
VISUALSTYLE
  5
1F0
102
{ACAD_XDICTIONARY
360
2658
102
}
102
{ACAD_REACTORS
330
EF
102
}
330
EF
100
AcDbVisualStyle
  2
Sketchy
 70
    24
 71
     1
 72
     2
 73
     2
 90
        0
 40
-0.6
 41
-30.0
 62
     5
 63
     7
 74
     2
 91
        2
 64
     7
 65
     7
 75
     1
175
     1
 42
40.0
 92
       11
 66
     7
 43
1.0
 76
     1
 77
     6
 78
     2
 67
     7
 79
     6
170
     0
171
     0
290
     0
174
     0
 93
        1
 44
0.0
173
     0
291
     0
 45
0.0
1001
ACAD
1000
AcDbSavedByObjectVersion
1070
     0
  0
VISUALSTYLE
  5
FC
102
{ACAD_XDICTIONARY
360
2646
102
}
102
{ACAD_REACTORS
330
EF
102
}
330
EF
100
AcDbVisualStyle
  2
Thicken
 70
    13
 71
     2
 72
     2
 73
     1
 90
        0
 40
-0.6
 41
-30.0
 62
     5
 63
     7
 74
     1
 91
        4
 64
     7
 65
   257
 75
     1
175
     1
 42
1.0
 92
       12
 66
     7
 43
1.0
 76
     1
 77
     6
 78
     2
 67
     7
 79
     5
170
     0
171
     0
290
     0
174
     0
 93
        1
 44
0.0
173
     0
291
     1
 45
0.0
1001
ACAD
1000
AcDbSavedByObjectVersion
1070
     0
  0
VISUALSTYLE
  5
F6
102
{ACAD_XDICTIONARY
360
263A
102
}
102
{ACAD_REACTORS
330
EF
102
}
330
EF
100
AcDbVisualStyle
  2
Wireframe
 70
     5
 71
     0
 72
     2
 73
     0
 90
        0
 40
-0.6
 41
-30.0
 62
     5
 63
     7
 74
     1
 91
        4
 64
     7
 65
   257
 75
     1
175
     1
 42
1.0
 92
        0
 66
   257
 43
1.0
 76
     1
 77
     6
 78
     2
 67
     7
 79
     3
170
     0
171
     0
290
     0
174
     0
 93
        1
 44
0.0
173
     0
291
     0
 45
0.0
1001
ACAD
1000
AcDbSavedByObjectVersion
1070
     0
  0
VISUALSTYLE
  5
1F1
102
{ACAD_XDICTIONARY
360
265A
102
}
102
{ACAD_REACTORS
330
EF
102
}
330
EF
100
AcDbVisualStyle
  2
X-Ray
 70
    25
 71
     2
 72
     2
 73
     1
 90
        1
 40
0.5
 41
-30.0
 62
     5
 63
     7
 74
     1
 91
        0
 64
     7
 65
   257
 75
     1
175
     1
 42
1.0
 92
        8
 66
     7
 43
1.0
 76
     1
 77
     6
 78
     2
 67
     7
 79
     3
170
     0
171
     0
290
     0
174
     0
 93
       13
 44
0.0
173
     0
291
     0
 45
0.0
1001
ACAD
1000
AcDbSavedByObjectVersion
1070
     0
  0
DICTIONARYVAR
  5
146
102
{ACAD_REACTORS
330
5E
102
}
330
5E
100
DictionaryVariables
280
     0
  1
1:1
  0
DICTIONARYVAR
  5
259
102
{ACAD_REACTORS
330
5E
102
}
330
5E
100
DictionaryVariables
280
     0
  1
3.500000
  0
DICTIONARYVAR
  5
25A
102
{ACAD_REACTORS
330
5E
102
}
330
5E
100
DictionaryVariables
280
     0
  1
acadiso.lin
  0
DICTIONARYVAR
  5
145
102
{ACAD_REACTORS
330
5E
102
}
330
5E
100
DictionaryVariables
280
     0
  1
STANDARD
  0
DICTIONARYVAR
  5
84
102
{ACAD_REACTORS
330
5E
102
}
330
5E
100
DictionaryVariables
280
     0
  1
STANDARD
  0
DICTIONARYVAR
  5
227
102
{ACAD_REACTORS
330
5E
102
}
330
5E
100
DictionaryVariables
280
     0
  1
Metric50
  0
DICTIONARYVAR
  5
228
102
{ACAD_REACTORS
330
5E
102
}
330
5E
100
DictionaryVariables
280
     0
  1
Metric50
  0
DICTIONARYVAR
  5
5F
102
{ACAD_REACTORS
330
5E
102
}
330
5E
100
DictionaryVariables
280
     0
  1
2
  0
DICTIONARYVAR
  5
63
102
{ACAD_REACTORS
330
5E
102
}
330
5E
100
DictionaryVariables
280
     0
  1
1
  0
DICTIONARYVAR
  5
25CF
102
{ACAD_REACTORS
330
5E
102
}
330
5E
100
DictionaryVariables
280
     0
  1
0
  0
DICTIONARYVAR
  5
1AE
102
{ACAD_REACTORS
330
5E
102
}
330
5E
100
DictionaryVariables
280
     0
  1
0
  0
DICTIONARYVAR
  5
1AF
102
{ACAD_REACTORS
330
5E
102
}
330
5E
100
DictionaryVariables
280
     0
  1
0
  0
DICTIONARYVAR
  5
25CD
102
{ACAD_REACTORS
330
5E
102
}
330
5E
100
DictionaryVariables
280
     0
  1
2
  0
DICTIONARYVAR
  5
25CC
102
{ACAD_REACTORS
330
5E
102
}
330
5E
100
DictionaryVariables
280
     0
  1
1
  0
DICTIONARYVAR
  5
261F
102
{ACAD_REACTORS
330
5E
102
}
330
5E
100
DictionaryVariables
280
     0
  1
80.000000
  0
DICTIONARYVAR
  5
261E
102
{ACAD_REACTORS
330
5E
102
}
330
5E
100
DictionaryVariables
280
     0
  1
5.000000
  0
DICTIONARYVAR
  5
25CE
102
{ACAD_REACTORS
330
5E
102
}
330
5E
100
DictionaryVariables
280
     0
  1
127
  0
DICTIONARYVAR
  5
2620
102
{ACAD_REACTORS
330
5E
102
}
330
5E
100
DictionaryVariables
280
     0
  1
2
  0
DICTIONARY
  5
2662
330
21C
100
AcDbDictionary
280
     1
281
     1
  3
ACAD_XREC_ROUNDTRIP
360
2663
  0
DICTIONARY
  5
2627
330
D3
100
AcDbDictionary
280
     1
281
     1
  3
ACAD_XREC_ROUNDTRIP
360
2628
  0
DICTIONARY
  5
2629
330
D7
100
AcDbDictionary
280
     1
281
     1
  3
ACAD_XREC_ROUNDTRIP
360
262A
  0
DICTIONARY
  5
2624
330
22
100
AcDbDictionary
280
     1
281
     1
  3
ACAD_XREC_ROUNDTRIP
360
2625
  0
DICTIONARY
  5
1F9
330
ED
100
AcDbDictionary
280
     1
281
     1
  3
ACAD_XREC_ROUNDTRIP
360
262C
  3
FBXASSET
360
1FA
  0
DICTIONARY
  5
1F7
330
EC
100
AcDbDictionary
280
     1
281
     1
  3
ACAD_XREC_ROUNDTRIP
360
262B
  3
FBXASSET
360
1F8
  0
DICTIONARY
  5
173
330
EE
100
AcDbDictionary
280
     1
281
     1
  3
ACAD_XREC_ROUNDTRIP
360
262D
  3
BUMPTILE
360
175
  3
DIFFUSETILE
360
174
  3
FBXASSET
360
1FB
  3
OPACITYTILE
360
176
  3
REFLECTIONTILE
360
177
  0
DICTIONARY
  5
264E
330
12E
100
AcDbDictionary
280
     1
281
     1
  3
ACAD_XREC_ROUNDTRIP
360
264F
  0
DICTIONARY
  5
2660
330
21A
100
AcDbDictionary
280
     1
281
     1
  3
ACAD_XREC_ROUNDTRIP
360
2661
  0
DICTIONARY
  5
162
330
7F
100
AcDbDictionary
280
     1
281
     1
  3
ACAD_ROUNDTRIP_2008_TABLESTYLE_CELLSTYLEMAP
360
2621
  3
ACAD_XREC_ROUNDTRIP
360
2626
  0
DICTIONARY
  5
2638
330
F5
100
AcDbDictionary
280
     1
281
     1
  3
ACAD_XREC_ROUNDTRIP
360
2639
  0
DICTIONARY
  5
2636
330
F4
100
AcDbDictionary
280
     1
281
     1
  3
ACAD_XREC_ROUNDTRIP
360
2637
  0
DICTIONARY
  5
2644
330
FB
100
AcDbDictionary
280
     1
281
     1
  3
ACAD_XREC_ROUNDTRIP
360
2645
  0
DICTIONARY
  5
264C
330
FF
100
AcDbDictionary
280
     1
281
     1
  3
ACAD_XREC_ROUNDTRIP
360
264D
  0
DICTIONARY
  5
263E
330
F8
100
AcDbDictionary
280
     1
281
     1
  3
ACAD_XREC_ROUNDTRIP
360
263F
  0
DICTIONARY
  5
2642
330
FA
100
AcDbDictionary
280
     1
281
     1
  3
ACAD_XREC_ROUNDTRIP
360
2643
  0
DICTIONARY
  5
2654
330
1E6
100
AcDbDictionary
280
     1
281
     1
  3
ACAD_XREC_ROUNDTRIP
360
2655
  0
DICTIONARY
  5
264A
330
FE
100
AcDbDictionary
280
     1
281
     1
  3
ACAD_XREC_ROUNDTRIP
360
264B
  0
DICTIONARY
  5
262E
330
F0
100
AcDbDictionary
280
     1
281
     1
  3
ACAD_XREC_ROUNDTRIP
360
262F
  0
DICTIONARY
  5
2630
330
F1
100
AcDbDictionary
280
     1
281
     1
  3
ACAD_XREC_ROUNDTRIP
360
2631
  0
DICTIONARY
  5
2632
330
F2
100
AcDbDictionary
280
     1
281
     1
  3
ACAD_XREC_ROUNDTRIP
360
2633
  0
DICTIONARY
  5
2634
330
F3
100
AcDbDictionary
280
     1
281
     1
  3
ACAD_XREC_ROUNDTRIP
360
2635
  0
DICTIONARY
  5
263C
330
F7
100
AcDbDictionary
280
     1
281
     1
  3
ACAD_XREC_ROUNDTRIP
360
263D
  0
DICTIONARY
  5
2650
330
1E4
100
AcDbDictionary
280
     1
281
     1
  3
ACAD_XREC_ROUNDTRIP
360
2651
  0
DICTIONARY
  5
2648
330
FD
100
AcDbDictionary
280
     1
281
     1
  3
ACAD_XREC_ROUNDTRIP
360
2649
  0
DICTIONARY
  5
2652
330
1E5
100
AcDbDictionary
280
     1
281
     1
  3
ACAD_XREC_ROUNDTRIP
360
2653
  0
DICTIONARY
  5
2640
330
F9
100
AcDbDictionary
280
     1
281
     1
  3
ACAD_XREC_ROUNDTRIP
360
2641
  0
DICTIONARY
  5
265E
330
1F3
100
AcDbDictionary
280
     1
281
     1
  3
ACAD_XREC_ROUNDTRIP
360
265F
  0
DICTIONARY
  5
265C
330
1F2
100
AcDbDictionary
280
     1
281
     1
  3
ACAD_XREC_ROUNDTRIP
360
265D
  0
DICTIONARY
  5
2656
330
1EF
100
AcDbDictionary
280
     1
281
     1
  3
ACAD_XREC_ROUNDTRIP
360
2657
  0
DICTIONARY
  5
2658
330
1F0
100
AcDbDictionary
280
     1
281
     1
  3
ACAD_XREC_ROUNDTRIP
360
2659
  0
DICTIONARY
  5
2646
330
FC
100
AcDbDictionary
280
     1
281
     1
  3
ACAD_XREC_ROUNDTRIP
360
2647
  0
DICTIONARY
  5
263A
330
F6
100
AcDbDictionary
280
     1
281
     1
  3
ACAD_XREC_ROUNDTRIP
360
263B
  0
DICTIONARY
  5
265A
330
1F1
100
AcDbDictionary
280
     1
281
     1
  3
ACAD_XREC_ROUNDTRIP
360
265B
  0
XRECORD
  5
2663
102
{ACAD_REACTORS
330
2662
102
}
330
2662
100
AcDbXrecord
280
     1
102
DISPLAYNAME
  1
Metric50
102
FLAGS
 90
        0
  0
XRECORD
  5
2628
102
{ACAD_REACTORS
330
2627
102
}
330
2627
100
AcDbXrecord
280
     1
102
SHADEPLOT
 70
     0
102
SHADEPLOTRESLEVEL
 70
     2
102
SHADEPLOTCUSTOMDPI
 70
   300
  0
XRECORD
  5
262A
102
{ACAD_REACTORS
330
2629
102
}
330
2629
100
AcDbXrecord
280
     1
102
SHADEPLOT
 70
     0
102
SHADEPLOTRESLEVEL
 70
     2
102
SHADEPLOTCUSTOMDPI
 70
   300
  0
XRECORD
  5
2625
102
{ACAD_REACTORS
330
2624
102
}
330
2624
100
AcDbXrecord
280
     1
102
SHADEPLOT
 70
     0
102
SHADEPLOTRESLEVEL
 70
     2
102
SHADEPLOTCUSTOMDPI
 70
   300
  0
XRECORD
  5
262C
102
{ACAD_REACTORS
330
1F9
102
}
330
1F9
100
AcDbXrecord
280
     1
102
MATERIAL
148
0.0
149
0.0
149
0.0
 93
        0
 94
       63
282
     0
 72
     1
 77
     1
171
     1
175
     1
179
     1
273
     0
  0
XRECORD
  5
1FA
102
{ACAD_REACTORS
330
1F9
102
}
330
1F9
100
AcDbXrecord
280
     1
 70
     1
 90
429727718
  1
D62C5603-E3A1-4AEA-B7FB-FE5D8D0755AF
310
504B03040A0000080000CC70623B3DEE336E79000000790000001B0000006175746F6465736B2D64657369676E2D7061636B6167652E786D6C3C3F786D6C2076657273696F6E3D22312E302220656E636F64696E673D227574662D3822203F3E3C666F726D6174733E3C666F726D61743E687474703A2F2F736368656D612E
310
6175746F6465736B2E636F6D2F64657369676E2D7061636B6167652F323030393C2F666F726D61743E3C2F666F726D6174733E504B0304140006080800CC70623BD486FD9CA0000000F4000000130000005B436F6E74656E745F54797065735D2E786D6C7D8EC10E82300C865F65E91D8A1E8C310C0EEA1BF002731658846E
310
D98AC1B77784ABF1D8FE5FBFBF75BBCE937A534CCEB38643598122B6FEE978D0B0485F9C41B54DDD7D022595594E1A469170414C76A4D9A4D207E29CF43ECE46F218070CC6BECC4078ACAA135ACF422C856C0E68EA1BF5669944DDD7BCDE7B1F8E415D77AECB980613C2E4AC91FC167A2B244592486606FC29C8FD7F045B9A
310
EF7053A7E60B504B0304140006080800CC70623B853B8169EB0000007C01000008000000636F72652E786D6C8D90416EC3201045AF62CDB6C206821CC7C244919D9CA01740401C94182C03558F5F9C3852BBEB6A467FFE9B197D7EFC9E1EC5975982F5AE035262288C535E5B377690E21535501C055FBC8FBF6C503839990E
310
5619041F179FE64D52DE45E362569DD7661365082642A11EB9E920A89B99642953CC8E702F67A9EE7234257977194EC9EAE275C4EABCCF5EAD5940D4AC6F0E35A568B8F43562CD7046CD199FD07E60174276A7BE677B5EADB0E0D14EEFFB6A31321A0D82627C4084204C3F096B71DD52F6819B16635EADF63F509AF53FA164
310
5DDCD1EDDD17164090FCC8732078B56691CB33A85CD7DCC40F504B0304140006080800CC70623B55019EA25F0000007C00000007000000636E782E786D6C4DCB3B0E80201045D1AD90E915ED2CF8AC45050C11660C8261F98AB1B07AC9C97D42D718D865D3E909258CFD00CCE24AC6E326A164D74DC0B4128928FF32603847
310
2BA13128B1252AC747C6BAB984FC68F0B87FE8960A5C09FE86CFB69FBA01504B0304140006080800CC70623BDBABAAF470010000D40300000C0000006662782F636F72652E786D6CC553D16E823014FD95A6AF4B694182CC941A83FA05FB810A9511A125A5257EFE2E82712ECEB8A7F100CD39F7F69E734AF9FADC366850B6
310
AF8DCE7018308C942E4C59EB2AC3DE1D498AD15A706B8CFB56869196ADCAF00863C12B6B7C374385D14E6907A836A59A41D9F7CA615434B0C8705F7CAA5606D23BA8E84F41278B93AC54100640439DE0BDB320004D43C63716C7C399D30917DCFBBA9CD9BA8469F5B156168B24CED3F7248AC8769F27244EB73B92EED8862C
310
B7F13E0C179B3C8F979C8ECD82BBBABDAA2BAC924E9558448CBD9330242CFA08E3154B5651FCC6D215639C8EE5774DBE2B5F6CF2B5768B68963BB5F5588420E442FC700B1139D4CB01F450C1E918227C2E09DF070D8140C84E1E9AAB8F1340832A9CB13130A5F1376A908D57309505ECF2A0DF179C4E9D30F5B239B87E3823
310
7A79C6F31DE1A8A5AEC08474B03C7837EAE4938639B44E5932B833D2C6B6B279CDC613877FA26EE21F4A2A4C63EC7F29A2F301D1F9F7A0E37D145F504B0304140006080800CC70623B9C113CC27E0000009D0000000B0000006662782F636E782E786D6C4DCCDF0A83201C86E15B91DFB94BFB330DD428C8FB886521330DA7
310
6397BF1A1DECE883878F57749FCDA1B7892F1BBC047A23808C7F84D9FA55424E0BE6803A256208E9EF06C84F9B91703228B1C690F78B66B34CD9A5439DF5CF0BFBF65E35BCA1B8D6A5C6F540381E886698B5741C695F9503EBA150A2F8958E3DC3EA0B504B0304140006080800CC70623B7DF2F77C2A010000120200003100
310
00006662782F41393633353835312D344632462D344230382D423046372D3739314545314133324237412F636F72652E786D6C8D51DB8EC22014FC15C2939B0D2DB4B45643319AE817EC0F6041255A68B86CFCFC856D4D76DF7CE190393373060EDB3DC707F856CE6B6B7A480A0C81328395DA5C7B18C3057510EC3873D686
310
3F34088C18550F330C39BB3A1BA7051AAC09CA84841A2BD5020AEF55806078A44B0FFD7053A328440C89E1EFC52486BBB8AA8214A99D789CF9E05200300FC927E4FB4D5B375D43103D5527440FB843077C5AA3F5861C8F645F5787F59E95B390B318B55CE45AA638FAA2957BD7248B390B7A7CC51F9C124149C82B8C378810
310
84AB2F42B7B8DD56F413775B8C5999E9FF4471926F8AA236A1AE96B8B3CC434E5839373893369E1FAF30EA395917409EB7F26AF8801C171837A4A6AC9C89E9F9C9B1A58BA30FD6A5EF5DDDCF894B9AD9B6A59C957943A9FCAE2FD5BC4DFE03504B0304140006080800CC70623BAD7543B64E01000033030000300000006662
310
782F41393633353835312D344632462D344230382D423046372D3739314545314133324237412F636E782E786D6CD593CD6EC32010845F0571AD6CE3D48AD20813A9873E410FBD12D82434182C7EAAE6EDBB2424CD25871E7B41D6EC30B3FA84F9E67BB2E40B4234DE8DB46F1925E094D7C6ED479AD3AE5951B2113C789FEE
310
6C943839C1488B4C05DF079FE72A69D8C96C13AAD6B8631503449F83828872B949AC57D26200B826A308D316B4064D6E46FCDA41C05550DC9E483A00797BFD207EFB092A45DE9514C1BBD22178396BD39D891265658C238DEA00936C654E5E433CB65A26D9F6EDB5EBC14EBF49A45CB856E66048291F6939A9A81BB5C89177
310
38143CA680F4AA299D66A042CEB3354A2684DC9D8D178FE0D9B8B41CAAD720F880EE7EF93C0C18769E099ECC04D5A102C8049A8A05632F4DDF376CF1DE0F6BB65C2F8627B65A33C6BB62177CEBBDAD973006829F89F22E814B54F4BC2BE347F8AA8F681390B50FA73F804400B5F542E796F19FF974E7F78DB802FE05E20750
310
4B0304140006080800CC70623BE75B7789680500003C100000340000006662782F41393633353835312D344632462D344230382D423046372D3739314545314133324237412F6F626A656374732E786D6CAD575B8F9B3818FD2B887D06C22499CB8AA1CA655245D5B455A356FB305264C061D8018C6C3393D95FBFC7600890
310
A4CD5EF210B0B1BFEBF98E3F7B1FF6596ABC522E1296DF9BAE3D320D9A872C4AF2F8DE2CE5CEBA358D0FBEC719939D65A691938CDE9B6ADAF4BD98B3B2D05311DD91329583D9D5FC0F438434A7A611A644887B5384CF34233629258BA878B12322891DEFF6B66BD70BFB62634E8AE781D082709A4B588AF91C528CDA28B73F
310
1C998EEF39EABBEFA97FBD6A7C7E9553F9D3D79FE442923C3C523610337627CB87ABE99D359D4CC6D6E4FACAB5E6ABF9D2726FC6A3C5F56271377BB88362213924694B38DD99FE47C48627A1E7D49F5A8BB5E1A74C0A599ED3B0F21F1E56366B89112D681E218F0915D0D6F17AD41FBA2A369DCF6335D62ABBD39779D5DDD1
310
11D4D8DE3CBB96B2E04FB8202E41051754A1AA8E8F76B4C6DFE810B580B1547F4B84911149794252234D024EF8BBE963A95AE27B3D310A9D5C215C7960FAEE415ED75694C6AFB17BCACA5D99A60A9AA65F217B0BFC53292ACB92BF283FAD0D3621576592CB5BED907C2FA8E9DF794E35E97BEA31BED21FEB401ABB94C44839
310
DCACBF0E1C5DA8DA5B2F4DFFD32AD86F543D9E565E7056502E157C00AD2671CD534549AB752FCA9CDA00677A313F04E51B22FF19E57B300579E3C97EB29F682D92935CEC18CF901B7B54FD8C51F362B56FC72FE0B3C1EAE335EDCCBF5AEC39ADB17DC238973F804BA5E6F6BFE7AF1FB32E523BE9F3BD571418E3631DCA4D48
310
5250CF639223210A9446CA30052EDF057BD35F8329C1ECD84552BF0DC8D18BE7BCE23BFE6BD960AB4A7DE79923A103BEBD80F911CBAA2C60DB19B01CF164A5583B772EE6D3FFA56666CBCDA74DC97724A48F9A58967497E489C4D979006FD7A05E227A1EBDD0F737C623387A9C844D3709995625106D157315F8B8392CD4E0
310
A0B9A720C4BE9829CEF37EA1E13111214D53925356365ADA634861B52519DD27A00AEB808EAF0628E6F435519D446F45CF2C9CF5214F0A15B2F6D06B79DA3EE3CBF7F56780D2F4E7EF73A0F5E5B02A38D07DC852C6B7C1FBB6664213E0C39E3EBA7FF4E1AD23EA2829407C85E586727488B751B2DB9502BC7B228A3FD68B6E
310
A65A22397E690AA8D158D7E404EC8CDA235CC3B7D1898680131CEC2CDF2638C65196279577750F15884AEE19F94199155B92B13297978469D4F8D358DF0AEF7631E28DC8F0D9F437D5D39A83B2231A1D52D543813A824EF8D44BCFF2FA6A31BD1E8DAD87F1CCB526B3879935BF59CDADD5C37479BB1CDD4CA7B3556B516589
310
EF352754B706114D9C885EC9131DE6EFEB43D99AFE2391C2F958179413D7CFEF6B1B6DB1E7600F00DE6E5C67454A339A4BA2E0FBA85ED26F045D454F463DBFCE484C2F90F2E5E3666003662ED8F755951A7D1BECD5B30B550B2785C8E7320B7292A4838DDA71BBC863ED7613CAF659337A3354231D4FF4A182A54904C2898C
310
98B28C4AD0CE056CCF332A80986E571EE9DBC305BB5FEB7E509220A58D25CF042D712A806AC0AD0C657FDEF80D2D9CEAA2EE4D1C76F60BFE74219A06527D6F82DF6412526107381E55E353090704D085B52408A8913C4ED159D79BDA71BB4BC506F4831350EB6F975CD22D69BF7AC49B91A2C0A9DDA3D5CA36AD20FC478E37
310
E61844E2352865EBCB61A275A65283CAAA9DD27703B4102F5AF51EF5F573B75CBB5AD38BC845F7A49F82A0966A49C2E3EA5EA0ECD326CD965F1DB402C6FA8B51A4658C5C5E2EC9E214602E55810345408596591009A82E7E7FFACA19EEA299B14A0081A705CB3296EBC14CDF658DCD336EA6D1136881AAEB87B81AB9EE53D5
310
F5EB8BC8362082DA24122F98680A4E7930C01A0079749CEA14382A0783E5EBA5A10F8C098456A03D6A4AEB6BB881E2513747552A5DB22C7EDAF83BD5528081A365F7FF06504B0304140006080000CC70623B000000000000000000000000350000006662782F41393633353835312D344632462D344230382D423046372D37
310
39314545314133324237412F76657274696365732E62696E504B0304140006080800CC70623BF270F1330600000004000000360000006662782F41393633353835312D344632462D344230382D423046372D3739314545314133324237412F747269616E676C65732E62696E636660600000504B0304140006080000CC7062
310
3B000000000000000000000000370000006662782F41393633353835312D344632462D344230382D423046372D3739314545314133324237412F617474726962757465732E62696E504B0304140006080800CC70623B08DA0BD19000000041010000360000006662782F41393633353835312D344632462D344230382D4230
310
46372D3739314545314133324237412F6469726563746F72792E786D6C858F410AC3201045AF22B36F53E9A60B35CBEEBAE80D244E44489C6234F4F835464A48035D0DF398FF9F8AF63D0E6CC63039F212F8F9020C7D47C6792B21C5FE7403D62A1188E2E60C98D7234A5830286103A55745067B9D86B8A3CF9C7F90C11DE6
310
07FB144396D7B6A82D282E9A152AD114D5EF2CB866EEE831B8EEA07A7BB5A8D7D61A2BAAEB7FD5F70921FF497D00504B0304140006080800CC70623BEDD1DC58FD000000A00100003B0000006662782F41393633353835312D344632462D344230382D423046372D3739314545314133324237412F7265736F75726365732F
310
636F72652E786D6C8D504B6E833010BD0A9A6D65B00922041947112427E8052C33A156828DFCA97AFC9A40A576D7CDCCE87D344F8F9FBFE667F689CE6B6B3A6039850C8DB2A336530731DC4903D95970676DF82583CCC8193B5861107C72362E3BA4AC096842428D1D7107A5F7182053CF7474E0D507CE32973124857FE48B
310
540F3961CEF244279DE03EB81420DB9EAC1384436FA353E879B1B182C7A8C75DA3C7F453DF353A1075D537A7BA6464B8F535A99AE14A9A2BBD90E350DD183B5CFABE3AF262350B1EF4FC9351399401471025A527C218A1E53BAB5A5AB765F5469B96525EACF23FA6B88CFF34456DC2A1DCE36E360F82A5202F42F062ED2BAD
310
579969AFDD8A6F504B010214000A0000080000CC70623B3DEE336E79000000790000001B00000000000000000000000000000000006175746F6465736B2D64657369676E2D7061636B6167652E786D6C504B01021400140006080800CC70623BD486FD9CA0000000F40000001300000000000000000000000000B20000005B
310
436F6E74656E745F54797065735D2E786D6C504B01021400140006080800CC70623B853B8169EB0000007C010000080000000000000000000000000083010000636F72652E786D6C504B01021400140006080800CC70623B55019EA25F0000007C000000070000000000000000000000000094020000636E782E786D6C504B
310
01021400140006080800CC70623BDBABAAF470010000D40300000C00000000000000000000000000180300006662782F636F72652E786D6C504B01021400140006080800CC70623B9C113CC27E0000009D0000000B00000000000000000000000000B20400006662782F636E782E786D6C504B01021400140006080800CC70
310
623B7DF2F77C2A010000120200003100000000000000000000000000590500006662782F41393633353835312D344632462D344230382D423046372D3739314545314133324237412F636F72652E786D6C504B01021400140006080800CC70623BAD7543B64E010000330300003000000000000000000000000000D2060000
310
6662782F41393633353835312D344632462D344230382D423046372D3739314545314133324237412F636E782E786D6C504B01021400140006080800CC70623BE75B7789680500003C10000034000000000000000000000000006E0800006662782F41393633353835312D344632462D344230382D423046372D3739314545
310
314133324237412F6F626A656374732E786D6C504B01021400140006080000CC70623B0000000000000000000000003500000000000000000000000000280E00006662782F41393633353835312D344632462D344230382D423046372D3739314545314133324237412F76657274696365732E62696E504B01021400140006
310
080800CC70623BF270F133060000000400000036000000000000000000000000007B0E00006662782F41393633353835312D344632462D344230382D423046372D3739314545314133324237412F747269616E676C65732E62696E504B01021400140006080000CC70623B0000000000000000000000003700000000000000
310
000000000000D50E00006662782F41393633353835312D344632462D344230382D423046372D3739314545314133324237412F617474726962757465732E62696E504B01021400140006080800CC70623B08DA0BD1900000004101000036000000000000000000000000002A0F00006662782F41393633353835312D344632
310
462D344230382D423046372D3739314545314133324237412F6469726563746F72792E786D6C504B01021400140006080800CC70623BEDD1DC58FD000000A00100003B000000000000000000000000000E1000006662782F41393633353835312D344632462D344230382D423046372D3739314545314133324237412F7265
310
736F75726365732F636F72652E786D6C504B0506000000000E000E0080040000641100000000
  0
XRECORD
  5
262B
102
{ACAD_REACTORS
330
1F7
102
}
330
1F7
100
AcDbXrecord
280
     1
102
MATERIAL
148
0.0
149
0.0
149
0.0
 93
        0
 94
       63
282
     0
 72
     1
 77
     1
171
     1
175
     1
179
     1
273
     0
  0
XRECORD
  5
1F8
102
{ACAD_REACTORS
330
1F7
102
}
330
1F7
100
AcDbXrecord
280
     1
 70
     1
 90
429727718
  1
30362254-06B7-45E0-A893-8CFA70E3D6BC
310
504B03040A0000080000CC70623B3DEE336E79000000790000001B0000006175746F6465736B2D64657369676E2D7061636B6167652E786D6C3C3F786D6C2076657273696F6E3D22312E302220656E636F64696E673D227574662D3822203F3E3C666F726D6174733E3C666F726D61743E687474703A2F2F736368656D612E
310
6175746F6465736B2E636F6D2F64657369676E2D7061636B6167652F323030393C2F666F726D61743E3C2F666F726D6174733E504B0304140006080800CC70623BD486FD9CA0000000F4000000130000005B436F6E74656E745F54797065735D2E786D6C7D8EC10E82300C865F65E91D8A1E8C310C0EEA1BF002731658846E
310
D98AC1B77784ABF1D8FE5FBFBF75BBCE937A534CCEB38643598122B6FEE978D0B0485F9C41B54DDD7D022595594E1A469170414C76A4D9A4D207E29CF43ECE46F218070CC6BECC4078ACAA135ACF422C856C0E68EA1BF5669944DDD7BCDE7B1F8E415D77AECB980613C2E4AC91FC167A2B244592486606FC29C8FD7F045B9A
310
EF7053A7E60B504B0304140006080800CC70623B1EC5D7A3EB0000007C01000008000000636F72652E786D6C8D90416EC3201045AF82665B6103C6756C6122AB4D4ED00B204C5C94182C03558F5F9C3852BBEB6A467FFE9B197D71FC9E6FE8CBACC17AD7032D0820E3B41FAD9B7A48F1820F808E52ACDEC75F36404ECDA687
310
4D0629A6D5A76597B477D1B89855E747B38B2A041301E95B6E7A08FAD3CCAA50296647B8168BD2573599823EBB0CA76447F43862C7BCCF5EAC59410E4DDD9C7973C2755553CCCFA4C603E3040F1565ED3B1FDE4E432BCA0D9622DAF9795FAF464533826484B498524CD807E51D79ED187F21878E10516EF63F505AC67F42C9
310
BA58B1FDDD071640D2FCC87D2045B96591CB3DA85CB7DCE40F504B0304140006080800CC70623B55019EA25F0000007C00000007000000636E782E786D6C4DCB3B0E80201045D1AD90E915ED2CF8AC45050C11660C8261F98AB1B07AC9C97D42D718D865D3E909258CFD00CCE24AC6E326A164D74DC0B4128928FF32603847
310
2BA13128B1252AC747C6BAB984FC68F0B87FE8960A5C09FE86CFB69FBA01504B0304140006080800CC70623B8C9102E971010000D40300000C0000006662782F636F72652E786D6CC5535B6E833010BC8AE5DF0A6C08340F1947A84D4ED00B38C6A128602363A31CBFCB234A53A551FA553EC09AD9F5CE8C31DB9E9B1AF5CA
310
7695D1198E428A91D2D214952E33ECDD315861B4E5CC1AE3BE9561A445A3323CC098B3D21ADFCE9034DA29ED00D5A6503328BA4E398C640D8B0C77F253352214DE4145770A5B214FA2546114020D759C75CE8200340D19DE981F0F6746269C33EFAB6266AB02A655C74A59CCF365BADC27CB5D902ED22848F6340DF238A141
310
BE88E2F57B92BFEDF23523433367AE6A2EEAA455C2A902F398D2751045018D3FA264435F3771F242571B4A1919CA6F9A7C5B3CD9E42BED16F12C776AEB308F40C848FC700B1139D4891EF410CEC810227CC6846F8386402064270EF5C5C709A05E49676C024C61FC95EA45ED154CA5211D1FF4FB8291A913A68E9B83EBBB33
310
E2A7673CDE118E5AE8124C0807CB8377834E366998436B950D7A7746DAD846D4CFD978E0F04FD455FC5D49D2D4C6FE9722321F10997F0F32DC47FE05504B0304140006080800CC70623BFFEA85907E0000009D0000000B0000006662782F636E782E786D6C4DCCD10A83201886E15B91FFDC95D95A811AB6F23E625948A6C3
310
E9D8E5AF46073BFAE0E1E365ED67B3E8ADC3CB78C7815C7240DA3DFC64DCC221C519D7805AC182F7F1EF06C88D9BE6703008B6049F9E274D7A1E938DBB5AE3D6131B2589BA0D3D965551E0B2EA732C9B9A624AAEB41E3A557677029960D9AFB4EF11165F504B0304140006080800CC70623B4FEEA4082C0100001202000031
310
0000006662782F39464131463745442D413632322D343644302D413938332D3331353338454246344243312F636F72652E786D6C8D515B6EC32010BC0AE2AB55850DD871ED0813254D72825EC00192A2C460F1A872FC42ED48ED5F7E00CDCECCCEB26C731F6FE05B39AFADE921293004CA082BB5B9F43086336A21D870E6AC
310
0D7F68109861543DCC30E4ECE26C9C164858139409093556AA051CBC570102714B8F1E7AF1A5C6A11862480C7F2DA6415C878B2A4891CA89C7990F2E050073937C42DE1DB7E4F87ED8A36D4329AA9B3D46DBAEAD504556557BD81DEBDD0761E52CE42C462D17B996298E3E6BE59E35C962CE821E1FF18553435012728A7187
310
0841987E927A8D9B35ADDF70BBC6989599FE4F1427F9A4286A132ABAC49D651EF234CD5CE04CDA78BA3DC2A8FB645D00B9DF8B57E215725C60BCA2A463E54C4CE327C7A65E1C7DB02E7DEFCBF594B864C5CA6CDBD49C957943E9FA5D5FBAF336F90F504B0304140006080800CC70623BAD7543B64E01000033030000300000
310
006662782F39464131463745442D413632322D343644302D413938332D3331353338454246344243312F636E782E786D6CD593CD6EC32010845F0571AD6CE3D48AD20813A9873E410FBD12D82434182C7EAAE6EDBB2424CD25871E7B41D6EC30B3FA84F9E67BB2E40B4234DE8DB46F1925E094D7C6ED479AD3AE5951B2113C
310
789FEE6C943839C1488B4C05DF079FE72A69D8C96C13AAD6B8631503449F83828872B949AC57D26200B826A308D316B4064D6E46FCDA41C05550DC9E483A00797BFD207EFB092A45DE9514C1BBD22178396BD39D891265658C238DEA00936C654E5E433CB65A26D9F6EDB5EBC14EBF49A45CB856E66048291F6939A9A81BB5
310
C8917738143CA680F4AA299D66A042CEB3354A2684DC9D8D178FE0D9B8B41CAAD720F880EE7EF93C0C18769E099ECC04D5A102C8049A8A05632F4DDF376CF1DE0F6BB65C2F8627B65A33C6BB62177CEBBDAD973006829F89F22E814B54F4BC2BE347F8AA8F681390B50FA73F804400B5F542E796F19FF974E7F78DB802FE05
310
E207504B0304140006080800CC70623B16AB87BA640500003C100000340000006662782F39464131463745442D413632322D343644302D413938332D3331353338454246344243312F6F626A656374732E786D6CAD575B6FA33818FD2B887DE6924B3BED8A326A92B68A663B534DD4D13E548A0C38942D60649B369D5FBFC7
310
600890A493BDE42160637FD7F31D7FF63E6FB3D478A55C242CBF3247B66B1A340F5994E4F19559CA8D75611A9F7D8F33263BCB4C232719BD32D5B4E97B316765A1A722BA21652A07B3B7B33F0D11D29C9A46981221AE4C113ED38CD8A4942CA2E2C58E882476BCD9DA23BB5ED8171B73523C0F841684D35CC252CCE79062D4
310
468DFA43D7747CCF51DF7D4FFDEB5593E3AB9CCA9FBEFE241792E4E19EB28198C968BAB8199F5D5A67D3E9C49A9E8F47D6EC76B6B0469F26EEFC7C3EBFBCBEB98462213924694B38DD98FE1D62C393D073EA4FADC5DAF04326852CCF6958F90F0F2B9BB5C48816348F90C7840A68EB78EDF68723159BCEE7891A6B95DDE9D3
310
BCEAEEE8086A6C6F9E5D4B59F0175C10A7A0820BAA5055C7473B5AE3CFDD452D602CD5DF12616444529E90D448938013FE6EFA58AA96F85E4F8C42275708571E98FE6827AF6B2B4AE3D7D83D64E5A64C53054DD3AF90BD06FEA9149565C94FCA0F6B834DC85599E4F2423B24DF0B6AFA979E534DFA9E7A4CC6FA631D486393
310
921829879BF5D781A373557BCB85E97FB90DB62B558F8795179C15944B051F40AB495CF35451D26A4727654E6D8033BD98EF82F21D91FF8AF2DD9982BCF1643BDD4EB516C9492E368C67C88DED563FC36D5EACF66DFF057C3658BDBFA69DF9578B3DA735B64F18C7F20770A9D45CFCF7FCF563D6456A277DBEF78A02637CA2
310
43B90A490AEAB94F72244481D24819A6C0E59B606BFA4B3025981DBB48EAB701D97BF19C577CC77F2D1B6C55A9EF3C732474C0B727303F625995056C3B02963D9EAC146BE78EC5FCEC7FA999EBC5EACBAAE41B12D27B4D2C0BBA49F244E2ECDC81B76B502F113D8F5EE8FB1BE3111CDD4FC2AA9B844CAB1288B68AB90A7CDC
310
1C166AB0D3DC5310625FCC14E779BFD0709F8890A629C9292B1B2DED31A4B0DA928CEE135085754027E3018A397D4D5427D15BD1330B677DC8934285AC3DF45A9EB68FF8F2B8FC0A509AFEECFD0FF2DE25CC6047F7214B195F07EFEB9A094D800F7BFAE8FED187B78EA8A3A400F115961BCAD1215E47C966530AF0EE8128FE
310
58CEBB996A8964FFA529A046635D9353B0336A8F700DDF46271A024E70B0B37C9DE01847591E54DED53D54202AB947E4076556AC49C6CA5C9E1226B7F1A7B1BE15DEED62C41B91E1B3E9AFAAA735036547343A925075041DF0A9979E893B391F8FCFA6967B3EFB644DCF6E5CEBFAE272625DCC6FAF3FB93793C5F90CE1EF57
310
407342756B10D1C489E8953CD1617E5CEECAD6F4EF8914CE5D5D504E5C3F1F9736DA62CFC11E00BCDDB8CC8A9466349744C1F75EBDA4DF09BA8A9E8C7A7E9991989E20E5DBDD6A6003664ED8F7A04A8DBE0DF6EAD9B9AA858342E47399053949D2C146EDB85DE4B176BB0965FBAC19BD19AA918E27FA50C1D22402E144464C
310
59462568E704B6E71915404CB72B8FF4EDE184DDAF753F284990D2C6926782963815403548A70C657FDEF80D2D9CEAA2AE4C1C76F60BFE74219A06527D6582DF6412526107381E55E353090704D085B52408D0933C4ED159D79BDA71BB4BC506F4831350EB6F979CD22D69BF7AC49B91A2C0A9DDA3D5CA36AD20FC478E37E6
310
1844E2352865EBCB6EA275A652E3836BE04EFB400BF1A2556F515F1FBB35B2AB35BD889C744FFA1004B5544B121E57F70215746DD2F5E2C1412B602CBF19455AC6C8E5E9922C4E01E65215385004546899059180EAFCF7A707CE7017CD8CDB0410789AB32C63B91E5CEBBBACB17AC6CD347A022D5075FD106377347AAABA7E
310
7D11590744509B44E205134DC1290F06580320F78E537D3D73540E06CB970B431F185308AD40BBD794D6D77003C5A36E8EAA54BA64597CD8F83BD552A080A365F7FF06504B0304140006080000CC70623B000000000000000000000000350000006662782F39464131463745442D413632322D343644302D413938332D3331
310
353338454246344243312F76657274696365732E62696E504B0304140006080800CC70623BF270F1330600000004000000360000006662782F39464131463745442D413632322D343644302D413938332D3331353338454246344243312F747269616E676C65732E62696E636660600000504B0304140006080000CC70623B
310
000000000000000000000000370000006662782F39464131463745442D413632322D343644302D413938332D3331353338454246344243312F617474726962757465732E62696E504B0304140006080800CC70623B08DA0BD19000000041010000360000006662782F39464131463745442D413632322D343644302D413938
310
332D3331353338454246344243312F6469726563746F72792E786D6C858F410AC3201045AF22B36F53E9A60B35CBEEBAE80D244E44489C6234F4F835464A48035D0DF398FF9F8AF63D0E6CC63039F212F8F9020C7D47C6792B21C5FE7403D62A1188E2E60C98D7234A5830286103A55745067B9D86B8A3CF9C7F90C11DE607
310
FB144396D7B6A82D282E9A152AD114D5EF2CB866EEE831B8EEA07A7BB5A8D7D61A2BAAEB7FD5F70921FF497D00504B0304140006080800CC70623B0D6EF93BFE000000A00100003B0000006662782F39464131463745442D413632322D343644302D413938332D3331353338454246344243312F7265736F75726365732F63
310
6F72652E786D6C8D50596E833010BD0A9ADFCA60B334011947A8694ED00B586642AC041B79A97AFC9A40A5F6AF3F33A3B7689E1E3F7DCD8FEC139DD7D6F4C0720A191A65476DA61E62B892236427C19DB5E1970C322367EC618541F0C9D9B8EC90B226A009093576C41D94DE63804C3DD2D18357379C652E63480A7FCF17A9
310
EE72C29CE5894E3AC17D702940B63D59270887DE46A7D0F36263058F518FBB468FE9A7BE6A7420864373B8D4873369AA8691FA421B3294352543C5CAF65C0F6FEF43CB8BD52C78D0F34F46E550061C419494B6843142CB0F5677F4B52BEB177AEC28E5C52AFF638ACBF84F53D42654E51E77B379102C05791282176B5F693D
310
CB4C7BED567C03504B010214000A0000080000CC70623B3DEE336E79000000790000001B00000000000000000000000000000000006175746F6465736B2D64657369676E2D7061636B6167652E786D6C504B01021400140006080800CC70623BD486FD9CA0000000F40000001300000000000000000000000000B20000005B
310
436F6E74656E745F54797065735D2E786D6C504B01021400140006080800CC70623B1EC5D7A3EB0000007C010000080000000000000000000000000083010000636F72652E786D6C504B01021400140006080800CC70623B55019EA25F0000007C000000070000000000000000000000000094020000636E782E786D6C504B
310
01021400140006080800CC70623B8C9102E971010000D40300000C00000000000000000000000000180300006662782F636F72652E786D6C504B01021400140006080800CC70623BFFEA85907E0000009D0000000B00000000000000000000000000B30400006662782F636E782E786D6C504B01021400140006080800CC70
310
623B4FEEA4082C0100001202000031000000000000000000000000005A0500006662782F39464131463745442D413632322D343644302D413938332D3331353338454246344243312F636F72652E786D6C504B01021400140006080800CC70623BAD7543B64E010000330300003000000000000000000000000000D5060000
310
6662782F39464131463745442D413632322D343644302D413938332D3331353338454246344243312F636E782E786D6C504B01021400140006080800CC70623B16AB87BA640500003C1000003400000000000000000000000000710800006662782F39464131463745442D413632322D343644302D413938332D3331353338
310
454246344243312F6F626A656374732E786D6C504B01021400140006080000CC70623B0000000000000000000000003500000000000000000000000000270E00006662782F39464131463745442D413632322D343644302D413938332D3331353338454246344243312F76657274696365732E62696E504B01021400140006
310
080800CC70623BF270F133060000000400000036000000000000000000000000007A0E00006662782F39464131463745442D413632322D343644302D413938332D3331353338454246344243312F747269616E676C65732E62696E504B01021400140006080000CC70623B0000000000000000000000003700000000000000
310
000000000000D40E00006662782F39464131463745442D413632322D343644302D413938332D3331353338454246344243312F617474726962757465732E62696E504B01021400140006080800CC70623B08DA0BD190000000410100003600000000000000000000000000290F00006662782F39464131463745442D413632
310
322D343644302D413938332D3331353338454246344243312F6469726563746F72792E786D6C504B01021400140006080800CC70623B0D6EF93BFE000000A00100003B000000000000000000000000000D1000006662782F39464131463745442D413632322D343644302D413938332D3331353338454246344243312F7265
310
736F75726365732F636F72652E786D6C504B0506000000000E000E0080040000641100000000
  0
XRECORD
  5
262D
102
{ACAD_REACTORS
330
173
102
}
330
173
100
AcDbXrecord
280
     1
102
MATERIAL
148
0.0
149
0.0
149
0.0
 93
        0
 94
       63
282
     0
 72
     1
 77
     1
171
     1
175
     1
179
     1
273
     0
  0
XRECORD
  5
175
102
{ACAD_REACTORS
330
173
102
}
330
173
100
AcDbXrecord
280
     1
270
     1
271
     1
  0
XRECORD
  5
174
102
{ACAD_REACTORS
330
173
102
}
330
173
100
AcDbXrecord
280
     1
270
     1
271
     1
  0
XRECORD
  5
1FB
102
{ACAD_REACTORS
330
173
102
}
330
173
100
AcDbXrecord
280
     1
 70
     0
 90
1673772943
  1
ECE7A1D2-D628-4531-984C-D00F80459256
310
504B03040A0000080000CC70623B3DEE336E79000000790000001B0000006175746F6465736B2D64657369676E2D7061636B6167652E786D6C3C3F786D6C2076657273696F6E3D22312E302220656E636F64696E673D227574662D3822203F3E3C666F726D6174733E3C666F726D61743E687474703A2F2F736368656D612E
310
6175746F6465736B2E636F6D2F64657369676E2D7061636B6167652F323030393C2F666F726D61743E3C2F666F726D6174733E504B0304140006080800CC70623BD486FD9CA0000000F4000000130000005B436F6E74656E745F54797065735D2E786D6C7D8EC10E82300C865F65E91D8A1E8C310C0EEA1BF002731658846E
310
D98AC1B77784ABF1D8FE5FBFBF75BBCE937A534CCEB38643598122B6FEE978D0B0485F9C41B54DDD7D022595594E1A469170414C76A4D9A4D207E29CF43ECE46F218070CC6BECC4078ACAA135ACF422C856C0E68EA1BF5669944DDD7BCDE7B1F8E415D77AECB980613C2E4AC91FC167A2B244592486606FC29C8FD7F045B9A
310
EF7053A7E60B504B0304140006080800CC70623BD9DDAED0EC0000007C01000008000000636F72652E786D6C8D90416EC3201045AF82665B61836D9CD8C2444DD39CA01740405C94182C03558F5F9C3852BBEB6A467FFE9B197D7EF89E6EE8CB2CC17A37002D0820E394D7D68D03A478C17B4007C117EFE32F1B20272733C0
310
2A83E0E3E2D3BC49CABB685CCCAAF3DA6CA20CC14440EA969B0182FA34932C648AD911AEC52CD5558EA6A0CF2EC329598D1E47ACCEFBECC59A050463A7EA5833865FEBDD0E37353BE3EE8DBDE3F6786A48D375FBF6CC78B9C282473B3DEFABC5C86834888A900E538A49F5419B9EB47DD5BC907D4F082F57FB1F28CDFA9F50
310
B22ED6D5F6EE030B20687EE43E10BC5CB3C8E51E54AE6B6EE207504B0304140006080800CC70623B55019EA25F0000007C00000007000000636E782E786D6C4DCB3B0E80201045D1AD90E915ED2CF8AC45050C11660C8261F98AB1B07AC9C97D42D718D865D3E909258CFD00CCE24AC6E326A164D74DC0B4128928FF326038
310
472BA13128B1252AC747C6BAB984FC68F0B87FE8960A5C09FE86CFB69FBA01504B0304140006080800CC70623BA24EB22D72010000D40300000C0000006662782F636F72652E786D6CC5535B6E833010BC8AE5DF0A6C5E49888CA3A6694ED00B38E05014B091B1518EDFE511A5A9D228FD2A1F60CDEC7A67C6986DCE4D8D7A
310
69BA4AAB0C073EC548AA5C17952A33ECECD15B61B4E1CC686DBF9561A44423333CC098B3D268D7CE50AE9595CA02AA74216750749DB418E5352C32DCE59FB211BE70162ABA93DF8AFC244AE9073ED050C759670D0840D390E18DF9F1706664C23973AE2A66B62A605A75ACA4C13C4976E1364A12EF355A2EBD384AF65EFA96
310
BC7B8BED2EA6719AAE16FB8491A199335B351775B991C2CA02F390D2D40B028F861F41BCA68B7518BFD0D59A524686F29B26D7164F36B94AD9289CE54E6D1DE6010819891F6E21228B3AD1831EC219194284CF98F06DD01008846CC5A1BEF83801D4CBDC6A1303536877A57A513B0953A94FC707FDBE6064EA84A9E3E6E0FA
310
EE8CF0E9198F7784A316AA0413C2C2F2E0ECA0934D1AE6D05A69BCDE9E91D2A611F573361E38FC1375157F5752AE6B6DFE4B11990F88CCBF0719EE23FF02504B0304140006080800CC70623B408A7D3B7C0000009D0000000B0000006662782F636E782E786D6C4DCCD10A83201886E15B91FFDC552A92A0064DBC8F581632
310
D3703A76F9ABD1C18E3E78F878E5F0D9027ABBFCF2292AE86E2D20171F69F6715550CB827B40839639A5F2770314A7CD293819B45C73AAFB45B35BA61ACAA1C1C7E7855C58C15BC331339661262CC762340413D68D77DA5B42298546CBE6573AF60CEB2F504B0304140006080800CC70623B449FB9BD290100001202000031
310
0000006662782F36394639363044362D344446342D343946362D394244322D3234314243333846323333332F636F72652E786D6C8D515B6EC32010BC0AE22B55850D98B871848994463E412FE002495162B07854397EA176A4F62F3F2C9A9D991D587EB84F37F0AD7D30CEF6905418026DA553C65E7A98E219ED203808EE9D
310
8B7F6810D871D23D2C3014FCE25D9A57483A1BB58D19B54EE9151C43D0110279CB971E06F9A5A7B11A53CC8C70ADE6515EC78BAE4895DB992778883E0700CB907242D17643D7E2538BD869608875438BBAE38922CAC8F1BDD90DB4691A5E2F42C153326A951B95E398B3D1FE599322163C9AE9115F7A3D46ADA0A018778810
310
84E907617BDCEE297BC5BB3DC6BC2EF47FA234AB2745C9D8D8D035EE220B50105E2F0DC1954B9FB747187D9F9D8FA0CCDB042D5FA0C015C65B42DF78BD10F3F3B363CB56C7109DCFDFBBB97E662ED92EB62D13BC2E1BCAE5777DB9966D8A1F504B0304140006080800CC70623BAD7543B64E01000033030000300000006662
310
782F36394639363044362D344446342D343946362D394244322D3234314243333846323333332F636E782E786D6CD593CD6EC32010845F0571AD6CE3D48AD20813A9873E410FBD12D82434182C7EAAE6EDBB2424CD25871E7B41D6EC30B3FA84F9E67BB2E40B4234DE8DB46F1925E094D7C6ED479AD3AE5951B2113C789FEE
310
6C943839C1488B4C05DF079FE72A69D8C96C13AAD6B8631503449F83828872B949AC57D26200B826A308D316B4064D6E46FCDA41C05550DC9E483A00797BFD207EFB092A45DE9514C1BBD22178396BD39D891265658C238DEA00936C654E5E433CB65A26D9F6EDB5EBC14EBF49A45CB856E66048291F6939A9A81BB5C89177
310
38143CA680F4AA299D66A042CEB3354A2684DC9D8D178FE0D9B8B41CAAD720F880EE7EF93C0C18769E099ECC04D5A102C8049A8A05632F4DDF376CF1DE0F6BB65C2F8627B65A33C6BB62177CEBBDAD973006829F89F22E814B54F4BC2BE347F8AA8F681390B50FA73F804400B5F542E796F19FF974E7F78DB802FE05E20750
310
4B0304140006080800CC70623B8D05915C650500003B100000340000006662782F36394639363044362D344446342D343946362D394244322D3234314243333846323333332F6F626A656374732E786D6CAD575B6FA33814FE2B887D06429276DA1565D4266D158D3A339A6846FB502932E050B66023DB74D2FDF5FB190C01
310
9276B2973C046C8ECFF53B17071F77456EBD502133CEAE6CDF9DD81665314F32965ED995DA3A17B6F5310C04E7AA47665B8C14F4CAD6DB7618A48257A5D94AE89654B91AEDDEDDFC61C998326A5B714EA4BCB265FC440BE2924AF184CA6737218AB8E976E7FA6E4338649B0A523E8D98964450A6A029F619B8588D52FE7039
310
B1BD30F0F4F730D0FF866AF6369557DB33949F31A9088B0F848DD8CCFCF9F2767A76E99CCDE733677E3EF59D9BBB9BA5E37F984D16E78BC5E5F5ED25044B25C0C96822E8D60EEFE11B91C581D77CEA34368A1F5329E68CD1B8B61F16D63A1B8E092D294B10C78C4A48EB593D192E7DED9BDEE7995E1B91FDEDD3ACEA9FE831
310
6A756F9F7D4D79F4274C90A7A04248AA51D5F8C718DAE06FB2F75AC4796EBE65D22A88A22223B995679120E2D50E41AA49C260C046A35368846B0BECD0DFF3EBEB8AD4F835768F69B9ADF25C43D30E6B646F807FAA64AD59F61715C7A54127C4AACA98BA3006A9D792DAE165E0D59B61A01FB3A9F9D838D2DAE62445C86166
310
F37564E842E7DE6A69879FEEA2DD5AE7E371E1A5E025154AC307D06A03D73EB5978C58FFA4C8E9033066E0F3BD53BEC1F39F91BE7B55103791EDE6BBB991A2046172CB4581D8B893FA674DDA17A77B3B7C413D1B511FD2743BFF8A38F03A658705E3ADF8015C3A3417FF3D7E439FF591DA0B5F18BC20C1B8981957AE6392A3
310
F43C640C01D1A0B4728E2DD4F26DB4B3C3152A252A3B4E913CEC1C72F012782FF88EFF8637AA552DBEF76408E8A8DE9E50F9E1CB3A2DA0DB1B6039A893B56063DC5B3E3FFB5F72E67AB9FEB4AEC496C4F4C1149625DD662C53E89D7BF0F6151A046260D1337DFDC94502430F83B0EE07A130A224BCAD7DAE1D9FB6CD422FF6
310
920702629C4BB9AE79C12F243C6432A6794E18E5552BA56B431AAB5D91317302B2B071E86C3A42B1A02F999E24061403B5D0EB639195DA655DD3EBEAB4FB862DDF579F014AD0E73C22F99E28DA57FB98E75C6CA2D74D53086D600F4786E0FE3144B771A8A7B900F03594DB8A633CBC49B2EDB69228BB479CF863B5E807AAAB
310
23872F6DFEB4129B949CA33823F58830E86D65621E10047D9DB34D862E8EAC3C2ABC2F7B2C40D67CDFE01F5545B92105AF983AC54D93D69E56FB8E797F88913F898A9FEC705D3F9D1B54EC8426FB500D40A03BD0119B06E1B95DDC7EB8F6975367793EBD70E66733DFB9BC982F9CE564727731999F5D4ECFCE3B8D6A4DC2A0
310
6D50FD148437D110834A64C6CDDF57FBACB5C307A2A477DFE4939736CFEF2B175371E0E10CF0DD1D5C15654E0BCA14D1E87DD02FF93782A162C0A3D95F1524A52770F972BF1EE9809D13CE7DD599467F8ECE9ADD85CE85A34CD45355448C64F9E8A031DC2D596ACC6E5DD93D9B82DE2EF5CAF81363A8E47996A0DE24564A79
310
4115AACE09C55E14540231FDA13C319787134EBF34E3A022514E5B4D9E0826E25C02D5805B15ABE1BEF51B26383D445DD9E875EE33FE4C22DA16427D65A3BCA92CA6D28DD01DF5DC53330704308475351050232CCD31583787BA75774AFB06E5070DD0C8EF484E19968C5D83BA5B90B244D31E54D55A372320FE4786B7EA58
310
44E135AA5467CB7EA333A61683CC6A8C3257034C10CF46F40EF9F5BE59BE5BD30C3C72D235E95D10345C1D45445A5F0BB47E46A5EBE5570F9380B5FA629579952296A773720405982B9DE04011506178964401AA8BDF1FBF0A8EAB6861DD6580C0E38217056766716DAEB2D6FA0917D3E4116581EADB879C4E7CFFB11EFACD
310
3D641311495D92C8676CB409A72D18610D803CE8A626049E8EC1887CB5B44CC39883690DDA8399B4B9855B481E7D71D4A9D22F96E5BB73BF5793020C02137BF837504B0304140006080000CC70623B000000000000000000000000350000006662782F36394639363044362D344446342D343946362D394244322D32343142
310
43333846323333332F76657274696365732E62696E504B0304140006080800CC70623BF270F1330600000004000000360000006662782F36394639363044362D344446342D343946362D394244322D3234314243333846323333332F747269616E676C65732E62696E636660600000504B0304140006080000CC70623B0000
310
00000000000000000000370000006662782F36394639363044362D344446342D343946362D394244322D3234314243333846323333332F617474726962757465732E62696E504B0304140006080800CC70623B08DA0BD19000000041010000360000006662782F36394639363044362D344446342D343946362D394244322D
310
3234314243333846323333332F6469726563746F72792E786D6C858F410AC3201045AF22B36F53E9A60B35CBEEBAE80D244E44489C6234F4F835464A48035D0DF398FF9F8AF63D0E6CC63039F212F8F9020C7D47C6792B21C5FE7403D62A1188E2E60C98D7234A5830286103A55745067B9D86B8A3CF9C7F90C11DE607FB14
310
4396D7B6A82D282E9A152AD114D5EF2CB866EEE831B8EEA07A7BB5A8D7D61A2BAAEB7FD5F70921FF497D00504B0304140006080800CC70623BCA768048FE000000A00100003B0000006662782F36394639363044362D344446342D343946362D394244322D3234314243333846323333332F7265736F75726365732F636F72
310
652E786D6C8D50596E833010BD0A9ADFCA60D600328E9AA639412F609909B1126CE4A5EAF16B0295DABFFECC8CDEA2797AECF8353F924FB44E193D409E5248504B332A3D0D10FC95B4901C39B3C6F85F3248B49871801506CE266BC2B243D2688FDA47549B11775038871E12F988C7004EDE7016A9083E2ADC3D5D84BC8B09
310
D33C8D74D471E6BC8D0192EDC93A815B742658898E651BCB59086ADC356A8C3FD555A1055ED7E7E254D615792D0F075295F585746FF53B694EE78A565DD736979A65AB9933AFE69F8CD2A2F038022F28ED489E135A7CE4554F9BBEA85E68DB53CAB255FEC71496F19FA6A0B42F8B3DEE6673C0F318E4497096AD7DC5F52C33
310
EEB55BFE0D504B010214000A0000080000CC70623B3DEE336E79000000790000001B00000000000000000000000000000000006175746F6465736B2D64657369676E2D7061636B6167652E786D6C504B01021400140006080800CC70623BD486FD9CA0000000F40000001300000000000000000000000000B20000005B436F
310
6E74656E745F54797065735D2E786D6C504B01021400140006080800CC70623BD9DDAED0EC0000007C010000080000000000000000000000000083010000636F72652E786D6C504B01021400140006080800CC70623B55019EA25F0000007C000000070000000000000000000000000095020000636E782E786D6C504B0102
310
1400140006080800CC70623BA24EB22D72010000D40300000C00000000000000000000000000190300006662782F636F72652E786D6C504B01021400140006080800CC70623B408A7D3B7C0000009D0000000B00000000000000000000000000B50400006662782F636E782E786D6C504B01021400140006080800CC70623B
310
449FB9BD290100001202000031000000000000000000000000005A0500006662782F36394639363044362D344446342D343946362D394244322D3234314243333846323333332F636F72652E786D6C504B01021400140006080800CC70623BAD7543B64E010000330300003000000000000000000000000000D20600006662
310
782F36394639363044362D344446342D343946362D394244322D3234314243333846323333332F636E782E786D6C504B01021400140006080800CC70623B8D05915C650500003B10000034000000000000000000000000006E0800006662782F36394639363044362D344446342D343946362D394244322D32343142433338
310
46323333332F6F626A656374732E786D6C504B01021400140006080000CC70623B0000000000000000000000003500000000000000000000000000250E00006662782F36394639363044362D344446342D343946362D394244322D3234314243333846323333332F76657274696365732E62696E504B010214001400060808
310
00CC70623BF270F13306000000040000003600000000000000000000000000780E00006662782F36394639363044362D344446342D343946362D394244322D3234314243333846323333332F747269616E676C65732E62696E504B01021400140006080000CC70623B00000000000000000000000037000000000000000000
310
00000000D20E00006662782F36394639363044362D344446342D343946362D394244322D3234314243333846323333332F617474726962757465732E62696E504B01021400140006080800CC70623B08DA0BD190000000410100003600000000000000000000000000270F00006662782F36394639363044362D344446342D
310
343946362D394244322D3234314243333846323333332F6469726563746F72792E786D6C504B01021400140006080800CC70623BCA768048FE000000A00100003B000000000000000000000000000B1000006662782F36394639363044362D344446342D343946362D394244322D3234314243333846323333332F7265736F
310
75726365732F636F72652E786D6C504B0506000000000E000E0080040000621100000000
  0
XRECORD
  5
176
102
{ACAD_REACTORS
330
173
102
}
330
173
100
AcDbXrecord
280
     1
270
     1
271
     1
  0
XRECORD
  5
177
102
{ACAD_REACTORS
330
173
102
}
330
173
100
AcDbXrecord
280
     1
270
     1
271
     1
  0
XRECORD
  5
264F
102
{ACAD_REACTORS
330
264E
102
}
330
264E
100
AcDbXrecord
280
     1
102
ACAD_ROUNDTRIP_2012_MLEADER_STYLE
298
     1
  0
XRECORD
  5
2661
102
{ACAD_REACTORS
330
2660
102
}
330
2660
100
AcDbXrecord
280
     1
102
DISPLAYNAME
  1
Metric50
102
FLAGS
 90
        0
  0
CELLSTYLEMAP
  5
2621
102
{ACAD_REACTORS
330
162
102
}
330
162
100
AcDbCellStyleMap
 90
        3
300
CELLSTYLE
  1
TABLEFORMAT_BEGIN
 90
        5
170
     1
 91
        0
 92
    32768
 62
   257
 93
        1
300
CONTENTFORMAT
  1
CONTENTFORMAT_BEGIN
 90
        0
 91
        0
 92
      512
 93
        0
300

 40
0.0
140
1.0
 94
        5
 62
     0
340
11
144
6.0
309
CONTENTFORMAT_END
171
     1
301
MARGIN
  1
CELLMARGIN_BEGIN
 40
1.5
 40
1.5
 40
1.5
 40
1.5
 40
4.5
 40
4.5
309
CELLMARGIN_END
 94
        6
 95
        1
302
GRIDFORMAT
  1
GRIDFORMAT_BEGIN
 90
        0
 91
        1
 62
     0
 92
       -2
340
14
 93
        0
 40
1.125
309
GRIDFORMAT_END
 95
        2
302
GRIDFORMAT
  1
GRIDFORMAT_BEGIN
 90
        0
 91
        1
 62
     0
 92
       -2
340
14
 93
        0
 40
1.125
309
GRIDFORMAT_END
 95
        4
302
GRIDFORMAT
  1
GRIDFORMAT_BEGIN
 90
        0
 91
        1
 62
     0
 92
       -2
340
14
 93
        0
 40
1.125
309
GRIDFORMAT_END
 95
        8
302
GRIDFORMAT
  1
GRIDFORMAT_BEGIN
 90
        0
 91
        1
 62
     0
 92
       -2
340
14
 93
        0
 40
1.125
309
GRIDFORMAT_END
 95
       16
302
GRIDFORMAT
  1
GRIDFORMAT_BEGIN
 90
        0
 91
        1
 62
     0
 92
       -2
340
14
 93
        0
 40
1.125
309
GRIDFORMAT_END
 95
       32
302
GRIDFORMAT
  1
GRIDFORMAT_BEGIN
 90
        0
 91
        1
 62
     0
 92
       -2
340
14
 93
        0
 40
1.125
309
GRIDFORMAT_END
309
TABLEFORMAT_END
  1
CELLSTYLE_BEGIN
 90
        1
 91
        1
300
_TITLE
309
CELLSTYLE_END
300
CELLSTYLE
  1
TABLEFORMAT_BEGIN
 90
        5
170
     1
 91
        0
 92
        0
 62
   257
 93
        1
300
CONTENTFORMAT
  1
CONTENTFORMAT_BEGIN
 90
        0
 91
        0
 92
      512
 93
        0
300

 40
0.0
140
1.0
 94
        5
 62
     0
340
11
144
4.5
309
CONTENTFORMAT_END
171
     1
301
MARGIN
  1
CELLMARGIN_BEGIN
 40
1.5
 40
1.5
 40
1.5
 40
1.5
 40
4.5
 40
4.5
309
CELLMARGIN_END
 94
        6
 95
        1
302
GRIDFORMAT
  1
GRIDFORMAT_BEGIN
 90
        0
 91
        1
 62
     0
 92
       -2
340
14
 93
        0
 40
1.125
309
GRIDFORMAT_END
 95
        2
302
GRIDFORMAT
  1
GRIDFORMAT_BEGIN
 90
        0
 91
        1
 62
     0
 92
       -2
340
14
 93
        0
 40
1.125
309
GRIDFORMAT_END
 95
        4
302
GRIDFORMAT
  1
GRIDFORMAT_BEGIN
 90
        0
 91
        1
 62
     0
 92
       -2
340
14
 93
        0
 40
1.125
309
GRIDFORMAT_END
 95
        8
302
GRIDFORMAT
  1
GRIDFORMAT_BEGIN
 90
        0
 91
        1
 62
     0
 92
       -2
340
14
 93
        0
 40
1.125
309
GRIDFORMAT_END
 95
       16
302
GRIDFORMAT
  1
GRIDFORMAT_BEGIN
 90
        0
 91
        1
 62
     0
 92
       -2
340
14
 93
        0
 40
1.125
309
GRIDFORMAT_END
 95
       32
302
GRIDFORMAT
  1
GRIDFORMAT_BEGIN
 90
        0
 91
        1
 62
     0
 92
       -2
340
14
 93
        0
 40
1.125
309
GRIDFORMAT_END
309
TABLEFORMAT_END
  1
CELLSTYLE_BEGIN
 90
        2
 91
        1
300
_HEADER
309
CELLSTYLE_END
300
CELLSTYLE
  1
TABLEFORMAT_BEGIN
 90
        5
170
     1
 91
        0
 92
        0
 62
   257
 93
        1
300
CONTENTFORMAT
  1
CONTENTFORMAT_BEGIN
 90
        0
 91
        0
 92
      512
 93
        0
300

 40
0.0
140
1.0
 94
        2
 62
     0
340
11
144
4.5
309
CONTENTFORMAT_END
171
     1
301
MARGIN
  1
CELLMARGIN_BEGIN
 40
1.5
 40
1.5
 40
1.5
 40
1.5
 40
4.5
 40
4.5
309
CELLMARGIN_END
 94
        6
 95
        1
302
GRIDFORMAT
  1
GRIDFORMAT_BEGIN
 90
        0
 91
        1
 62
     0
 92
       -2
340
14
 93
        0
 40
1.125
309
GRIDFORMAT_END
 95
        2
302
GRIDFORMAT
  1
GRIDFORMAT_BEGIN
 90
        0
 91
        1
 62
     0
 92
       -2
340
14
 93
        0
 40
1.125
309
GRIDFORMAT_END
 95
        4
302
GRIDFORMAT
  1
GRIDFORMAT_BEGIN
 90
        0
 91
        1
 62
     0
 92
       -2
340
14
 93
        0
 40
1.125
309
GRIDFORMAT_END
 95
        8
302
GRIDFORMAT
  1
GRIDFORMAT_BEGIN
 90
        0
 91
        1
 62
     0
 92
       -2
340
14
 93
        0
 40
1.125
309
GRIDFORMAT_END
 95
       16
302
GRIDFORMAT
  1
GRIDFORMAT_BEGIN
 90
        0
 91
        1
 62
     0
 92
       -2
340
14
 93
        0
 40
1.125
309
GRIDFORMAT_END
 95
       32
302
GRIDFORMAT
  1
GRIDFORMAT_BEGIN
 90
        0
 91
        1
 62
     0
 92
       -2
340
14
 93
        0
 40
1.125
309
GRIDFORMAT_END
309
TABLEFORMAT_END
  1
CELLSTYLE_BEGIN
 90
        3
 91
        2
300
_DATA
309
CELLSTYLE_END
  0
XRECORD
  5
2626
102
{ACAD_REACTORS
330
162
102
}
330
162
100
AcDbXrecord
280
     1
102
ACAD_ROUNDTRIP_PRE2007_TABLESTYLE
 90
      512
 91
        0
  1

 92
      512
 93
        0
  2

 94
      512
 95
        0
  3

  0
XRECORD
  5
2639
102
{ACAD_REACTORS
330
2638
102
}
330
2638
100
AcDbXrecord
280
     1
102
RTVSPost2010Prop28
280
     1
102
RTVSPost2010PropOp28
 70
     1
102
RTVSPost2010Prop29
280
     1
102
RTVSPost2010PropOp29
 70
     1
102
RTVSPost2010Prop30
280
     0
102
RTVSPost2010PropOp30
 70
     1
102
RTVSPost2010Prop31
280
     0
102
RTVSPost2010PropOp31
 70
     1
102
RTVSPost2010Prop32
280
     0
102
RTVSPost2010PropOp32
 70
     1
102
RTVSPost2010Prop33
280
     0
102
RTVSPost2010PropOp33
 70
     1
102
RTVSPost2010Prop34
280
     0
102
RTVSPost2010PropOp34
 70
     1
102
RTVSPost2010Prop35
280
     0
102
RTVSPost2010PropOp35
 70
     1
102
RTVSPost2010Prop36
280
     0
102
RTVSPost2010PropOp36
 70
     1
102
RTVSPost2010Prop37
 90
       50
102
RTVSPost2010PropOp37
 70
     1
102
RTVSPost2010Prop38
140
0.0
102
RTVSPost2010PropOp38
 70
     1
102
RTVSPost2010Prop39
140
1.0
102
RTVSPost2010PropOp39
 70
     1
102
RTVSPost2010Prop40
 90
        0
102
RTVSPost2010PropOp40
 70
     1
102
RTVSPost2010Prop41ColorIndex
 90
       18
102
RTVSPost2010Prop41ColorRGB
 90
        0
102
RTVSPost2010PropOp41
 70
     1
102
RTVSPost2010Prop42
 90
       50
102
RTVSPost2010PropOp42
 70
     1
102
RTVSPost2010Prop43
 90
        3
102
RTVSPost2010PropOp43
 70
     1
102
RTVSPost2010Prop44ColorIndex
 90
        5
102
RTVSPost2010Prop44ColorRGB
 90
      255
102
RTVSPost2010PropOp44
 70
     1
102
RTVSPost2010Prop45
280
     0
102
RTVSPost2010PropOp45
 70
     1
102
RTVSPost2010Prop46
 90
       50
102
RTVSPost2010PropOp46
 70
     1
102
RTVSPost2010Prop47
 90
       50
102
RTVSPost2010PropOp47
 70
     1
102
RTVSPost2010Prop48
 90
       50
102
RTVSPost2010PropOp48
 70
     1
102
RTVSPost2010Prop49
280
     0
102
RTVSPost2010PropOp49
 70
     1
102
RTVSPost2010Prop50
 90
       50
102
RTVSPost2010PropOp50
 70
     1
102
RTVSPost2010Prop51ColorIndex
 90
      256
102
RTVSPost2010Prop51ColorRGB
 90
-16777216
102
RTVSPost2010PropOp51
 70
     0
102
RTVSPost2010Prop52
140
1.0
102
RTVSPost2010PropOp52
 70
     0
102
RTVSPost2010Prop53
 90
        2
102
RTVSPost2010PropOp53
 70
     1
102
RTVSPost2010Prop54
  1
strokes_ogs.tif
102
RTVSPost2010PropOp54
 70
     1
102
RTVSPost2010Prop55
280
     0
102
RTVSPost2010PropOp55
 70
     1
102
RTVSPost2010Prop56
140
1.0
102
RTVSPost2010PropOp56
 70
     1
102
RTVSPost2010Prop57
140
1.0
102
RTVSPost2010PropOp57
 70
     1
102
RTVSPropertyOp0
 70
     1
102
RTVSPropertyOp1
 70
     1
102
RTVSPropertyOp2
 70
     1
102
RTVSPropertyOp3
 70
     1
102
RTVSPropertyOp4
 70
     1
102
RTVSPropertyOp5
 70
     1
102
RTVSPropertyOp6
 70
     1
102
RTVSPropertyOp7
 70
     1
102
RTVSPropertyOp8
 70
     1
102
RTVSPropertyOp9
 70
     1
102
RTVSPropertyOp10
 70
     1
102
RTVSPropertyOp11
 70
     1
102
RTVSPropertyOp12
 70
     1
102
RTVSPropertyOp13
 70
     1
102
RTVSPropertyOp14
 70
     1
102
RTVSPropertyOp15
 70
     1
102
RTVSPropertyOp16
 70
     1
102
RTVSPropertyOp17
 70
     1
102
RTVSPropertyOp18
 70
     1
102
RTVSPropertyOp19
 70
     1
102
RTVSPropertyOp20
 70
     1
102
RTVSPropertyOp21
 70
     1
102
RTVSPropertyOp22
 70
     1
102
RTVSPropertyOp23
 70
     1
102
RTVSPropertyOp24
 70
     1
102
RTVSPropertyOp25
 70
     1
102
RTVSPropertyOp26
 70
     1
102
RTVSPropertyOp27
 70
     1
102
RTVSPropertyOp28
 70
     1
102
RTVSPropertyOp29
 70
     1
102
RTVSPropertyOp30
 70
     1
102
RTVSPropertyOp31
 70
     1
102
RTVSPropertyOp32
 70
     1
102
RTVSPropertyOp33
 70
     1
102
RTVSPropertyOp34
 70
     1
102
RTVSPropertyOp35
 70
     1
102
RTVSPropertyOp36
 70
     1
102
RTVSPropertyOp37
 70
     1
102
RTVSPropertyOp38
 70
     1
102
RTVSPropertyOp39
 70
     1
102
RTVSPropertyOp40
 70
     1
102
RTVSPropertyOp41
 70
     1
102
RTVSPropertyOp42
 70
     1
102
RTVSPropertyOp43
 70
     1
102
RTVSPropertyOp44
 70
     1
102
RTVSPropertyOp45
 70
     1
102
RTVSPropertyOp46
 70
     1
102
RTVSPropertyOp47
 70
     1
102
RTVSPropertyOp48
 70
     1
102
RTVSPropertyOp49
 70
     1
102
RTVSPropertyOp50
 70
     1
102
RTVSPropertyOp51
 70
     0
102
RTVSPropertyOp52
 70
     0
102
RTVSPropertyOp53
 70
     1
102
RTVSPropertyOp54
 70
     1
102
RTVSPropertyOp55
 70
     1
102
RTVSPropertyOp56
 70
     1
102
RTVSPropertyOp57
 70
     1
102
RTVSPropertyOp58
 70
     1
102
RTVSPropertyOp59
 70
     1
102
RTVSPropertyOp60
 70
     1
102
RTVSPropertyOp61
 70
     1
102
RTVSPropertyOp62
 70
     1
  0
XRECORD
  5
2637
102
{ACAD_REACTORS
330
2636
102
}
330
2636
100
AcDbXrecord
280
     1
102
RTVSPost2010Prop28
280
     0
102
RTVSPost2010PropOp28
 70
     1
102
RTVSPost2010Prop29
280
     1
102
RTVSPost2010PropOp29
 70
     1
102
RTVSPost2010Prop30
280
     1
102
RTVSPost2010PropOp30
 70
     1
102
RTVSPost2010Prop31
280
     0
102
RTVSPost2010PropOp31
 70
     1
102
RTVSPost2010Prop32
280
     0
102
RTVSPost2010PropOp32
 70
     1
102
RTVSPost2010Prop33
280
     0
102
RTVSPost2010PropOp33
 70
     1
102
RTVSPost2010Prop34
280
     0
102
RTVSPost2010PropOp34
 70
     1
102
RTVSPost2010Prop35
280
     0
102
RTVSPost2010PropOp35
 70
     1
102
RTVSPost2010Prop36
280
     0
102
RTVSPost2010PropOp36
 70
     1
102
RTVSPost2010Prop37
 90
       50
102
RTVSPost2010PropOp37
 70
     1
102
RTVSPost2010Prop38
140
0.0
102
RTVSPost2010PropOp38
 70
     1
102
RTVSPost2010Prop39
140
1.0
102
RTVSPost2010PropOp39
 70
     1
102
RTVSPost2010Prop40
 90
        0
102
RTVSPost2010PropOp40
 70
     1
102
RTVSPost2010Prop41ColorIndex
 90
       18
102
RTVSPost2010Prop41ColorRGB
 90
        0
102
RTVSPost2010PropOp41
 70
     1
102
RTVSPost2010Prop42
 90
       50
102
RTVSPost2010PropOp42
 70
     1
102
RTVSPost2010Prop43
 90
        3
102
RTVSPost2010PropOp43
 70
     1
102
RTVSPost2010Prop44ColorIndex
 90
        5
102
RTVSPost2010Prop44ColorRGB
 90
      255
102
RTVSPost2010PropOp44
 70
     1
102
RTVSPost2010Prop45
280
     0
102
RTVSPost2010PropOp45
 70
     1
102
RTVSPost2010Prop46
 90
       50
102
RTVSPost2010PropOp46
 70
     1
102
RTVSPost2010Prop47
 90
       50
102
RTVSPost2010PropOp47
 70
     1
102
RTVSPost2010Prop48
 90
       50
102
RTVSPost2010PropOp48
 70
     1
102
RTVSPost2010Prop49
280
     0
102
RTVSPost2010PropOp49
 70
     1
102
RTVSPost2010Prop50
 90
       50
102
RTVSPost2010PropOp50
 70
     1
102
RTVSPost2010Prop51ColorIndex
 90
      256
102
RTVSPost2010Prop51ColorRGB
 90
-16777216
102
RTVSPost2010PropOp51
 70
     0
102
RTVSPost2010Prop52
140
1.0
102
RTVSPost2010PropOp52
 70
     0
102
RTVSPost2010Prop53
 90
        2
102
RTVSPost2010PropOp53
 70
     1
102
RTVSPost2010Prop54
  1
strokes_ogs.tif
102
RTVSPost2010PropOp54
 70
     1
102
RTVSPost2010Prop55
280
     0
102
RTVSPost2010PropOp55
 70
     1
102
RTVSPost2010Prop56
140
1.0
102
RTVSPost2010PropOp56
 70
     1
102
RTVSPost2010Prop57
140
1.0
102
RTVSPost2010PropOp57
 70
     1
102
RTVSPropertyOp0
 70
     1
102
RTVSPropertyOp1
 70
     1
102
RTVSPropertyOp2
 70
     1
102
RTVSPropertyOp3
 70
     1
102
RTVSPropertyOp4
 70
     1
102
RTVSPropertyOp5
 70
     1
102
RTVSPropertyOp6
 70
     1
102
RTVSPropertyOp7
 70
     1
102
RTVSPropertyOp8
 70
     1
102
RTVSPropertyOp9
 70
     1
102
RTVSPropertyOp10
 70
     1
102
RTVSPropertyOp11
 70
     1
102
RTVSPropertyOp12
 70
     1
102
RTVSPropertyOp13
 70
     1
102
RTVSPropertyOp14
 70
     1
102
RTVSPropertyOp15
 70
     1
102
RTVSPropertyOp16
 70
     1
102
RTVSPropertyOp17
 70
     1
102
RTVSPropertyOp18
 70
     1
102
RTVSPropertyOp19
 70
     1
102
RTVSPropertyOp20
 70
     1
102
RTVSPropertyOp21
 70
     1
102
RTVSPropertyOp22
 70
     1
102
RTVSPropertyOp23
 70
     1
102
RTVSPropertyOp24
 70
     1
102
RTVSPropertyOp25
 70
     1
102
RTVSPropertyOp26
 70
     1
102
RTVSPropertyOp27
 70
     1
102
RTVSPropertyOp28
 70
     1
102
RTVSPropertyOp29
 70
     1
102
RTVSPropertyOp30
 70
     1
102
RTVSPropertyOp31
 70
     1
102
RTVSPropertyOp32
 70
     1
102
RTVSPropertyOp33
 70
     1
102
RTVSPropertyOp34
 70
     1
102
RTVSPropertyOp35
 70
     1
102
RTVSPropertyOp36
 70
     1
102
RTVSPropertyOp37
 70
     1
102
RTVSPropertyOp38
 70
     1
102
RTVSPropertyOp39
 70
     1
102
RTVSPropertyOp40
 70
     1
102
RTVSPropertyOp41
 70
     1
102
RTVSPropertyOp42
 70
     1
102
RTVSPropertyOp43
 70
     1
102
RTVSPropertyOp44
 70
     1
102
RTVSPropertyOp45
 70
     1
102
RTVSPropertyOp46
 70
     1
102
RTVSPropertyOp47
 70
     1
102
RTVSPropertyOp48
 70
     1
102
RTVSPropertyOp49
 70
     1
102
RTVSPropertyOp50
 70
     1
102
RTVSPropertyOp51
 70
     0
102
RTVSPropertyOp52
 70
     0
102
RTVSPropertyOp53
 70
     1
102
RTVSPropertyOp54
 70
     1
102
RTVSPropertyOp55
 70
     1
102
RTVSPropertyOp56
 70
     1
102
RTVSPropertyOp57
 70
     1
102
RTVSPropertyOp58
 70
     1
102
RTVSPropertyOp59
 70
     1
102
RTVSPropertyOp60
 70
     1
102
RTVSPropertyOp61
 70
     1
102
RTVSPropertyOp62
 70
     1
  0
XRECORD
  5
2645
102
{ACAD_REACTORS
330
2644
102
}
330
2644
100
AcDbXrecord
280
     1
102
RTVSPost2010Prop28
280
     0
102
RTVSPost2010PropOp28
 70
     1
102
RTVSPost2010Prop29
280
     1
102
RTVSPost2010PropOp29
 70
     1
102
RTVSPost2010Prop30
280
     1
102
RTVSPost2010PropOp30
 70
     1
102
RTVSPost2010Prop31
280
     0
102
RTVSPost2010PropOp31
 70
     1
102
RTVSPost2010Prop32
280
     0
102
RTVSPost2010PropOp32
 70
     1
102
RTVSPost2010Prop33
280
     0
102
RTVSPost2010PropOp33
 70
     1
102
RTVSPost2010Prop34
280
     0
102
RTVSPost2010PropOp34
 70
     1
102
RTVSPost2010Prop35
280
     0
102
RTVSPost2010PropOp35
 70
     1
102
RTVSPost2010Prop36
280
     0
102
RTVSPost2010PropOp36
 70
     1
102
RTVSPost2010Prop37
 90
       50
102
RTVSPost2010PropOp37
 70
     1
102
RTVSPost2010Prop38
140
0.0
102
RTVSPost2010PropOp38
 70
     1
102
RTVSPost2010Prop39
140
1.0
102
RTVSPost2010PropOp39
 70
     1
102
RTVSPost2010Prop40
 90
        0
102
RTVSPost2010PropOp40
 70
     1
102
RTVSPost2010Prop41ColorIndex
 90
       18
102
RTVSPost2010Prop41ColorRGB
 90
        0
102
RTVSPost2010PropOp41
 70
     1
102
RTVSPost2010Prop42
 90
       50
102
RTVSPost2010PropOp42
 70
     1
102
RTVSPost2010Prop43
 90
        3
102
RTVSPost2010PropOp43
 70
     1
102
RTVSPost2010Prop44ColorIndex
 90
        5
102
RTVSPost2010Prop44ColorRGB
 90
      255
102
RTVSPost2010PropOp44
 70
     1
102
RTVSPost2010Prop45
280
     0
102
RTVSPost2010PropOp45
 70
     1
102
RTVSPost2010Prop46
 90
       50
102
RTVSPost2010PropOp46
 70
     1
102
RTVSPost2010Prop47
 90
       50
102
RTVSPost2010PropOp47
 70
     1
102
RTVSPost2010Prop48
 90
       50
102
RTVSPost2010PropOp48
 70
     1
102
RTVSPost2010Prop49
280
     0
102
RTVSPost2010PropOp49
 70
     1
102
RTVSPost2010Prop50
 90
       50
102
RTVSPost2010PropOp50
 70
     1
102
RTVSPost2010Prop51ColorIndex
 90
      256
102
RTVSPost2010Prop51ColorRGB
 90
-16777216
102
RTVSPost2010PropOp51
 70
     0
102
RTVSPost2010Prop52
140
1.0
102
RTVSPost2010PropOp52
 70
     0
102
RTVSPost2010Prop53
 90
        2
102
RTVSPost2010PropOp53
 70
     1
102
RTVSPost2010Prop54
  1
strokes_ogs.tif
102
RTVSPost2010PropOp54
 70
     1
102
RTVSPost2010Prop55
280
     0
102
RTVSPost2010PropOp55
 70
     1
102
RTVSPost2010Prop56
140
1.0
102
RTVSPost2010PropOp56
 70
     1
102
RTVSPost2010Prop57
140
1.0
102
RTVSPost2010PropOp57
 70
     1
102
RTVSPropertyOp0
 70
     1
102
RTVSPropertyOp1
 70
     1
102
RTVSPropertyOp2
 70
     1
102
RTVSPropertyOp3
 70
     1
102
RTVSPropertyOp4
 70
     1
102
RTVSPropertyOp5
 70
     1
102
RTVSPropertyOp6
 70
     1
102
RTVSPropertyOp7
 70
     1
102
RTVSPropertyOp8
 70
     1
102
RTVSPropertyOp9
 70
     1
102
RTVSPropertyOp10
 70
     1
102
RTVSPropertyOp11
 70
     1
102
RTVSPropertyOp12
 70
     1
102
RTVSPropertyOp13
 70
     1
102
RTVSPropertyOp14
 70
     1
102
RTVSPropertyOp15
 70
     1
102
RTVSPropertyOp16
 70
     1
102
RTVSPropertyOp17
 70
     1
102
RTVSPropertyOp18
 70
     1
102
RTVSPropertyOp19
 70
     1
102
RTVSPropertyOp20
 70
     1
102
RTVSPropertyOp21
 70
     1
102
RTVSPropertyOp22
 70
     1
102
RTVSPropertyOp23
 70
     1
102
RTVSPropertyOp24
 70
     1
102
RTVSPropertyOp25
 70
     1
102
RTVSPropertyOp26
 70
     1
102
RTVSPropertyOp27
 70
     1
102
RTVSPropertyOp28
 70
     1
102
RTVSPropertyOp29
 70
     1
102
RTVSPropertyOp30
 70
     1
102
RTVSPropertyOp31
 70
     1
102
RTVSPropertyOp32
 70
     1
102
RTVSPropertyOp33
 70
     1
102
RTVSPropertyOp34
 70
     1
102
RTVSPropertyOp35
 70
     1
102
RTVSPropertyOp36
 70
     1
102
RTVSPropertyOp37
 70
     1
102
RTVSPropertyOp38
 70
     1
102
RTVSPropertyOp39
 70
     1
102
RTVSPropertyOp40
 70
     1
102
RTVSPropertyOp41
 70
     1
102
RTVSPropertyOp42
 70
     1
102
RTVSPropertyOp43
 70
     1
102
RTVSPropertyOp44
 70
     1
102
RTVSPropertyOp45
 70
     1
102
RTVSPropertyOp46
 70
     1
102
RTVSPropertyOp47
 70
     1
102
RTVSPropertyOp48
 70
     1
102
RTVSPropertyOp49
 70
     1
102
RTVSPropertyOp50
 70
     1
102
RTVSPropertyOp51
 70
     0
102
RTVSPropertyOp52
 70
     0
102
RTVSPropertyOp53
 70
     1
102
RTVSPropertyOp54
 70
     1
102
RTVSPropertyOp55
 70
     1
102
RTVSPropertyOp56
 70
     1
102
RTVSPropertyOp57
 70
     1
102
RTVSPropertyOp58
 70
     1
102
RTVSPropertyOp59
 70
     1
102
RTVSPropertyOp60
 70
     1
102
RTVSPropertyOp61
 70
     1
102
RTVSPropertyOp62
 70
     1
  0
XRECORD
  5
264D
102
{ACAD_REACTORS
330
264C
102
}
330
264C
100
AcDbXrecord
280
     1
102
RTVSPost2010Prop28
280
     0
102
RTVSPost2010PropOp28
 70
     1
102
RTVSPost2010Prop29
280
     1
102
RTVSPost2010PropOp29
 70
     1
102
RTVSPost2010Prop30
280
     1
102
RTVSPost2010PropOp30
 70
     1
102
RTVSPost2010Prop31
280
     0
102
RTVSPost2010PropOp31
 70
     1
102
RTVSPost2010Prop32
280
     0
102
RTVSPost2010PropOp32
 70
     1
102
RTVSPost2010Prop33
280
     0
102
RTVSPost2010PropOp33
 70
     1
102
RTVSPost2010Prop34
280
     0
102
RTVSPost2010PropOp34
 70
     1
102
RTVSPost2010Prop35
280
     0
102
RTVSPost2010PropOp35
 70
     1
102
RTVSPost2010Prop36
280
     0
102
RTVSPost2010PropOp36
 70
     1
102
RTVSPost2010Prop37
 90
       50
102
RTVSPost2010PropOp37
 70
     1
102
RTVSPost2010Prop38
140
0.0
102
RTVSPost2010PropOp38
 70
     1
102
RTVSPost2010Prop39
140
1.0
102
RTVSPost2010PropOp39
 70
     1
102
RTVSPost2010Prop40
 90
        0
102
RTVSPost2010PropOp40
 70
     1
102
RTVSPost2010Prop41ColorIndex
 90
       18
102
RTVSPost2010Prop41ColorRGB
 90
        0
102
RTVSPost2010PropOp41
 70
     1
102
RTVSPost2010Prop42
 90
       50
102
RTVSPost2010PropOp42
 70
     1
102
RTVSPost2010Prop43
 90
        3
102
RTVSPost2010PropOp43
 70
     1
102
RTVSPost2010Prop44ColorIndex
 90
        5
102
RTVSPost2010Prop44ColorRGB
 90
      255
102
RTVSPost2010PropOp44
 70
     1
102
RTVSPost2010Prop45
280
     0
102
RTVSPost2010PropOp45
 70
     1
102
RTVSPost2010Prop46
 90
       50
102
RTVSPost2010PropOp46
 70
     1
102
RTVSPost2010Prop47
 90
       50
102
RTVSPost2010PropOp47
 70
     1
102
RTVSPost2010Prop48
 90
       50
102
RTVSPost2010PropOp48
 70
     1
102
RTVSPost2010Prop49
280
     0
102
RTVSPost2010PropOp49
 70
     1
102
RTVSPost2010Prop50
 90
       50
102
RTVSPost2010PropOp50
 70
     1
102
RTVSPost2010Prop51ColorIndex
 90
      256
102
RTVSPost2010Prop51ColorRGB
 90
-16777216
102
RTVSPost2010PropOp51
 70
     0
102
RTVSPost2010Prop52
140
1.0
102
RTVSPost2010PropOp52
 70
     0
102
RTVSPost2010Prop53
 90
        2
102
RTVSPost2010PropOp53
 70
     1
102
RTVSPost2010Prop54
  1
strokes_ogs.tif
102
RTVSPost2010PropOp54
 70
     1
102
RTVSPost2010Prop55
280
     0
102
RTVSPost2010PropOp55
 70
     1
102
RTVSPost2010Prop56
140
1.0
102
RTVSPost2010PropOp56
 70
     1
102
RTVSPost2010Prop57
140
1.0
102
RTVSPost2010PropOp57
 70
     1
102
RTVSPropertyOp0
 70
     1
102
RTVSPropertyOp1
 70
     1
102
RTVSPropertyOp2
 70
     1
102
RTVSPropertyOp3
 70
     1
102
RTVSPropertyOp4
 70
     1
102
RTVSPropertyOp5
 70
     1
102
RTVSPropertyOp6
 70
     1
102
RTVSPropertyOp7
 70
     1
102
RTVSPropertyOp8
 70
     1
102
RTVSPropertyOp9
 70
     1
102
RTVSPropertyOp10
 70
     1
102
RTVSPropertyOp11
 70
     1
102
RTVSPropertyOp12
 70
     1
102
RTVSPropertyOp13
 70
     1
102
RTVSPropertyOp14
 70
     1
102
RTVSPropertyOp15
 70
     1
102
RTVSPropertyOp16
 70
     1
102
RTVSPropertyOp17
 70
     1
102
RTVSPropertyOp18
 70
     1
102
RTVSPropertyOp19
 70
     1
102
RTVSPropertyOp20
 70
     1
102
RTVSPropertyOp21
 70
     1
102
RTVSPropertyOp22
 70
     1
102
RTVSPropertyOp23
 70
     1
102
RTVSPropertyOp24
 70
     1
102
RTVSPropertyOp25
 70
     1
102
RTVSPropertyOp26
 70
     1
102
RTVSPropertyOp27
 70
     1
102
RTVSPropertyOp28
 70
     1
102
RTVSPropertyOp29
 70
     1
102
RTVSPropertyOp30
 70
     1
102
RTVSPropertyOp31
 70
     1
102
RTVSPropertyOp32
 70
     1
102
RTVSPropertyOp33
 70
     1
102
RTVSPropertyOp34
 70
     1
102
RTVSPropertyOp35
 70
     1
102
RTVSPropertyOp36
 70
     1
102
RTVSPropertyOp37
 70
     1
102
RTVSPropertyOp38
 70
     1
102
RTVSPropertyOp39
 70
     1
102
RTVSPropertyOp40
 70
     1
102
RTVSPropertyOp41
 70
     1
102
RTVSPropertyOp42
 70
     1
102
RTVSPropertyOp43
 70
     1
102
RTVSPropertyOp44
 70
     1
102
RTVSPropertyOp45
 70
     1
102
RTVSPropertyOp46
 70
     1
102
RTVSPropertyOp47
 70
     1
102
RTVSPropertyOp48
 70
     1
102
RTVSPropertyOp49
 70
     1
102
RTVSPropertyOp50
 70
     1
102
RTVSPropertyOp51
 70
     0
102
RTVSPropertyOp52
 70
     0
102
RTVSPropertyOp53
 70
     1
102
RTVSPropertyOp54
 70
     1
102
RTVSPropertyOp55
 70
     1
102
RTVSPropertyOp56
 70
     1
102
RTVSPropertyOp57
 70
     1
102
RTVSPropertyOp58
 70
     1
102
RTVSPropertyOp59
 70
     1
102
RTVSPropertyOp60
 70
     1
102
RTVSPropertyOp61
 70
     1
102
RTVSPropertyOp62
 70
     1
  0
XRECORD
  5
263F
102
{ACAD_REACTORS
330
263E
102
}
330
263E
100
AcDbXrecord
280
     1
102
RTVSPost2010Prop28
280
     0
102
RTVSPost2010PropOp28
 70
     1
102
RTVSPost2010Prop29
280
     1
102
RTVSPost2010PropOp29
 70
     1
102
RTVSPost2010Prop30
280
     1
102
RTVSPost2010PropOp30
 70
     1
102
RTVSPost2010Prop31
280
     0
102
RTVSPost2010PropOp31
 70
     1
102
RTVSPost2010Prop32
280
     0
102
RTVSPost2010PropOp32
 70
     1
102
RTVSPost2010Prop33
280
     0
102
RTVSPost2010PropOp33
 70
     1
102
RTVSPost2010Prop34
280
     0
102
RTVSPost2010PropOp34
 70
     1
102
RTVSPost2010Prop35
280
     0
102
RTVSPost2010PropOp35
 70
     1
102
RTVSPost2010Prop36
280
     0
102
RTVSPost2010PropOp36
 70
     1
102
RTVSPost2010Prop37
 90
       50
102
RTVSPost2010PropOp37
 70
     1
102
RTVSPost2010Prop38
140
0.0
102
RTVSPost2010PropOp38
 70
     1
102
RTVSPost2010Prop39
140
1.0
102
RTVSPost2010PropOp39
 70
     1
102
RTVSPost2010Prop40
 90
        0
102
RTVSPost2010PropOp40
 70
     1
102
RTVSPost2010Prop41ColorIndex
 90
       18
102
RTVSPost2010Prop41ColorRGB
 90
        0
102
RTVSPost2010PropOp41
 70
     1
102
RTVSPost2010Prop42
 90
       50
102
RTVSPost2010PropOp42
 70
     1
102
RTVSPost2010Prop43
 90
        3
102
RTVSPost2010PropOp43
 70
     1
102
RTVSPost2010Prop44ColorIndex
 90
        5
102
RTVSPost2010Prop44ColorRGB
 90
      255
102
RTVSPost2010PropOp44
 70
     1
102
RTVSPost2010Prop45
280
     0
102
RTVSPost2010PropOp45
 70
     1
102
RTVSPost2010Prop46
 90
       50
102
RTVSPost2010PropOp46
 70
     1
102
RTVSPost2010Prop47
 90
       50
102
RTVSPost2010PropOp47
 70
     1
102
RTVSPost2010Prop48
 90
       50
102
RTVSPost2010PropOp48
 70
     1
102
RTVSPost2010Prop49
280
     0
102
RTVSPost2010PropOp49
 70
     1
102
RTVSPost2010Prop50
 90
       50
102
RTVSPost2010PropOp50
 70
     1
102
RTVSPost2010Prop51ColorIndex
 90
      256
102
RTVSPost2010Prop51ColorRGB
 90
-16777216
102
RTVSPost2010PropOp51
 70
     0
102
RTVSPost2010Prop52
140
1.0
102
RTVSPost2010PropOp52
 70
     0
102
RTVSPost2010Prop53
 90
        2
102
RTVSPost2010PropOp53
 70
     1
102
RTVSPost2010Prop54
  1
strokes_ogs.tif
102
RTVSPost2010PropOp54
 70
     1
102
RTVSPost2010Prop55
280
     0
102
RTVSPost2010PropOp55
 70
     1
102
RTVSPost2010Prop56
140
1.0
102
RTVSPost2010PropOp56
 70
     1
102
RTVSPost2010Prop57
140
1.0
102
RTVSPost2010PropOp57
 70
     1
102
RTVSPropertyOp0
 70
     1
102
RTVSPropertyOp1
 70
     1
102
RTVSPropertyOp2
 70
     1
102
RTVSPropertyOp3
 70
     1
102
RTVSPropertyOp4
 70
     1
102
RTVSPropertyOp5
 70
     1
102
RTVSPropertyOp6
 70
     1
102
RTVSPropertyOp7
 70
     1
102
RTVSPropertyOp8
 70
     1
102
RTVSPropertyOp9
 70
     1
102
RTVSPropertyOp10
 70
     1
102
RTVSPropertyOp11
 70
     1
102
RTVSPropertyOp12
 70
     1
102
RTVSPropertyOp13
 70
     1
102
RTVSPropertyOp14
 70
     1
102
RTVSPropertyOp15
 70
     1
102
RTVSPropertyOp16
 70
     1
102
RTVSPropertyOp17
 70
     1
102
RTVSPropertyOp18
 70
     1
102
RTVSPropertyOp19
 70
     1
102
RTVSPropertyOp20
 70
     1
102
RTVSPropertyOp21
 70
     1
102
RTVSPropertyOp22
 70
     1
102
RTVSPropertyOp23
 70
     1
102
RTVSPropertyOp24
 70
     1
102
RTVSPropertyOp25
 70
     1
102
RTVSPropertyOp26
 70
     1
102
RTVSPropertyOp27
 70
     1
102
RTVSPropertyOp28
 70
     1
102
RTVSPropertyOp29
 70
     1
102
RTVSPropertyOp30
 70
     1
102
RTVSPropertyOp31
 70
     1
102
RTVSPropertyOp32
 70
     1
102
RTVSPropertyOp33
 70
     1
102
RTVSPropertyOp34
 70
     1
102
RTVSPropertyOp35
 70
     1
102
RTVSPropertyOp36
 70
     1
102
RTVSPropertyOp37
 70
     1
102
RTVSPropertyOp38
 70
     1
102
RTVSPropertyOp39
 70
     1
102
RTVSPropertyOp40
 70
     1
102
RTVSPropertyOp41
 70
     1
102
RTVSPropertyOp42
 70
     1
102
RTVSPropertyOp43
 70
     1
102
RTVSPropertyOp44
 70
     1
102
RTVSPropertyOp45
 70
     1
102
RTVSPropertyOp46
 70
     1
102
RTVSPropertyOp47
 70
     1
102
RTVSPropertyOp48
 70
     1
102
RTVSPropertyOp49
 70
     1
102
RTVSPropertyOp50
 70
     1
102
RTVSPropertyOp51
 70
     0
102
RTVSPropertyOp52
 70
     0
102
RTVSPropertyOp53
 70
     1
102
RTVSPropertyOp54
 70
     1
102
RTVSPropertyOp55
 70
     1
102
RTVSPropertyOp56
 70
     1
102
RTVSPropertyOp57
 70
     1
102
RTVSPropertyOp58
 70
     1
102
RTVSPropertyOp59
 70
     1
102
RTVSPropertyOp60
 70
     1
102
RTVSPropertyOp61
 70
     1
102
RTVSPropertyOp62
 70
     1
  0
XRECORD
  5
2643
102
{ACAD_REACTORS
330
2642
102
}
330
2642
100
AcDbXrecord
280
     1
102
RTVSPost2010Prop28
280
     0
102
RTVSPost2010PropOp28
 70
     1
102
RTVSPost2010Prop29
280
     1
102
RTVSPost2010PropOp29
 70
     1
102
RTVSPost2010Prop30
280
     1
102
RTVSPost2010PropOp30
 70
     1
102
RTVSPost2010Prop31
280
     0
102
RTVSPost2010PropOp31
 70
     1
102
RTVSPost2010Prop32
280
     0
102
RTVSPost2010PropOp32
 70
     1
102
RTVSPost2010Prop33
280
     0
102
RTVSPost2010PropOp33
 70
     1
102
RTVSPost2010Prop34
280
     0
102
RTVSPost2010PropOp34
 70
     1
102
RTVSPost2010Prop35
280
     0
102
RTVSPost2010PropOp35
 70
     1
102
RTVSPost2010Prop36
280
     0
102
RTVSPost2010PropOp36
 70
     1
102
RTVSPost2010Prop37
 90
       50
102
RTVSPost2010PropOp37
 70
     1
102
RTVSPost2010Prop38
140
0.0
102
RTVSPost2010PropOp38
 70
     1
102
RTVSPost2010Prop39
140
1.0
102
RTVSPost2010PropOp39
 70
     1
102
RTVSPost2010Prop40
 90
        0
102
RTVSPost2010PropOp40
 70
     1
102
RTVSPost2010Prop41ColorIndex
 90
       18
102
RTVSPost2010Prop41ColorRGB
 90
        0
102
RTVSPost2010PropOp41
 70
     1
102
RTVSPost2010Prop42
 90
       50
102
RTVSPost2010PropOp42
 70
     1
102
RTVSPost2010Prop43
 90
        3
102
RTVSPost2010PropOp43
 70
     1
102
RTVSPost2010Prop44ColorIndex
 90
        5
102
RTVSPost2010Prop44ColorRGB
 90
      255
102
RTVSPost2010PropOp44
 70
     1
102
RTVSPost2010Prop45
280
     0
102
RTVSPost2010PropOp45
 70
     1
102
RTVSPost2010Prop46
 90
       50
102
RTVSPost2010PropOp46
 70
     1
102
RTVSPost2010Prop47
 90
       50
102
RTVSPost2010PropOp47
 70
     1
102
RTVSPost2010Prop48
 90
       50
102
RTVSPost2010PropOp48
 70
     1
102
RTVSPost2010Prop49
280
     0
102
RTVSPost2010PropOp49
 70
     1
102
RTVSPost2010Prop50
 90
       50
102
RTVSPost2010PropOp50
 70
     1
102
RTVSPost2010Prop51ColorIndex
 90
      256
102
RTVSPost2010Prop51ColorRGB
 90
-16777216
102
RTVSPost2010PropOp51
 70
     0
102
RTVSPost2010Prop52
140
1.0
102
RTVSPost2010PropOp52
 70
     0
102
RTVSPost2010Prop53
 90
        2
102
RTVSPost2010PropOp53
 70
     1
102
RTVSPost2010Prop54
  1
strokes_ogs.tif
102
RTVSPost2010PropOp54
 70
     1
102
RTVSPost2010Prop55
280
     0
102
RTVSPost2010PropOp55
 70
     1
102
RTVSPost2010Prop56
140
1.0
102
RTVSPost2010PropOp56
 70
     1
102
RTVSPost2010Prop57
140
1.0
102
RTVSPost2010PropOp57
 70
     1
102
RTVSPropertyOp0
 70
     1
102
RTVSPropertyOp1
 70
     1
102
RTVSPropertyOp2
 70
     1
102
RTVSPropertyOp3
 70
     1
102
RTVSPropertyOp4
 70
     1
102
RTVSPropertyOp5
 70
     1
102
RTVSPropertyOp6
 70
     1
102
RTVSPropertyOp7
 70
     1
102
RTVSPropertyOp8
 70
     1
102
RTVSPropertyOp9
 70
     1
102
RTVSPropertyOp10
 70
     1
102
RTVSPropertyOp11
 70
     1
102
RTVSPropertyOp12
 70
     1
102
RTVSPropertyOp13
 70
     1
102
RTVSPropertyOp14
 70
     1
102
RTVSPropertyOp15
 70
     1
102
RTVSPropertyOp16
 70
     1
102
RTVSPropertyOp17
 70
     1
102
RTVSPropertyOp18
 70
     1
102
RTVSPropertyOp19
 70
     1
102
RTVSPropertyOp20
 70
     1
102
RTVSPropertyOp21
 70
     1
102
RTVSPropertyOp22
 70
     1
102
RTVSPropertyOp23
 70
     1
102
RTVSPropertyOp24
 70
     1
102
RTVSPropertyOp25
 70
     1
102
RTVSPropertyOp26
 70
     1
102
RTVSPropertyOp27
 70
     1
102
RTVSPropertyOp28
 70
     1
102
RTVSPropertyOp29
 70
     1
102
RTVSPropertyOp30
 70
     1
102
RTVSPropertyOp31
 70
     1
102
RTVSPropertyOp32
 70
     1
102
RTVSPropertyOp33
 70
     1
102
RTVSPropertyOp34
 70
     1
102
RTVSPropertyOp35
 70
     1
102
RTVSPropertyOp36
 70
     1
102
RTVSPropertyOp37
 70
     1
102
RTVSPropertyOp38
 70
     1
102
RTVSPropertyOp39
 70
     1
102
RTVSPropertyOp40
 70
     1
102
RTVSPropertyOp41
 70
     1
102
RTVSPropertyOp42
 70
     1
102
RTVSPropertyOp43
 70
     1
102
RTVSPropertyOp44
 70
     1
102
RTVSPropertyOp45
 70
     1
102
RTVSPropertyOp46
 70
     1
102
RTVSPropertyOp47
 70
     1
102
RTVSPropertyOp48
 70
     1
102
RTVSPropertyOp49
 70
     1
102
RTVSPropertyOp50
 70
     1
102
RTVSPropertyOp51
 70
     0
102
RTVSPropertyOp52
 70
     0
102
RTVSPropertyOp53
 70
     1
102
RTVSPropertyOp54
 70
     1
102
RTVSPropertyOp55
 70
     1
102
RTVSPropertyOp56
 70
     1
102
RTVSPropertyOp57
 70
     1
102
RTVSPropertyOp58
 70
     1
102
RTVSPropertyOp59
 70
     1
102
RTVSPropertyOp60
 70
     1
102
RTVSPropertyOp61
 70
     1
102
RTVSPropertyOp62
 70
     1
  0
XRECORD
  5
2655
102
{ACAD_REACTORS
330
2654
102
}
330
2654
100
AcDbXrecord
280
     1
102
RTVSPost2010Prop28
280
     0
102
RTVSPost2010PropOp28
 70
     1
102
RTVSPost2010Prop29
280
     1
102
RTVSPost2010PropOp29
 70
     1
102
RTVSPost2010Prop30
280
     1
102
RTVSPost2010PropOp30
 70
     1
102
RTVSPost2010Prop31
280
     0
102
RTVSPost2010PropOp31
 70
     1
102
RTVSPost2010Prop32
280
     0
102
RTVSPost2010PropOp32
 70
     1
102
RTVSPost2010Prop33
280
     0
102
RTVSPost2010PropOp33
 70
     1
102
RTVSPost2010Prop34
280
     0
102
RTVSPost2010PropOp34
 70
     1
102
RTVSPost2010Prop35
280
     0
102
RTVSPost2010PropOp35
 70
     1
102
RTVSPost2010Prop36
280
     0
102
RTVSPost2010PropOp36
 70
     1
102
RTVSPost2010Prop37
 90
       50
102
RTVSPost2010PropOp37
 70
     1
102
RTVSPost2010Prop38
140
0.0
102
RTVSPost2010PropOp38
 70
     1
102
RTVSPost2010Prop39
140
1.0
102
RTVSPost2010PropOp39
 70
     1
102
RTVSPost2010Prop40
 90
        0
102
RTVSPost2010PropOp40
 70
     1
102
RTVSPost2010Prop41ColorIndex
 90
       18
102
RTVSPost2010Prop41ColorRGB
 90
        0
102
RTVSPost2010PropOp41
 70
     1
102
RTVSPost2010Prop42
 90
       50
102
RTVSPost2010PropOp42
 70
     1
102
RTVSPost2010Prop43
 90
        3
102
RTVSPost2010PropOp43
 70
     1
102
RTVSPost2010Prop44ColorIndex
 90
        5
102
RTVSPost2010Prop44ColorRGB
 90
      255
102
RTVSPost2010PropOp44
 70
     1
102
RTVSPost2010Prop45
280
     0
102
RTVSPost2010PropOp45
 70
     1
102
RTVSPost2010Prop46
 90
       50
102
RTVSPost2010PropOp46
 70
     1
102
RTVSPost2010Prop47
 90
       50
102
RTVSPost2010PropOp47
 70
     1
102
RTVSPost2010Prop48
 90
       50
102
RTVSPost2010PropOp48
 70
     1
102
RTVSPost2010Prop49
280
     0
102
RTVSPost2010PropOp49
 70
     1
102
RTVSPost2010Prop50
 90
       50
102
RTVSPost2010PropOp50
 70
     1
102
RTVSPost2010Prop51ColorIndex
 90
      256
102
RTVSPost2010Prop51ColorRGB
 90
-16777216
102
RTVSPost2010PropOp51
 70
     0
102
RTVSPost2010Prop52
140
1.0
102
RTVSPost2010PropOp52
 70
     0
102
RTVSPost2010Prop53
 90
        2
102
RTVSPost2010PropOp53
 70
     1
102
RTVSPost2010Prop54
  1
strokes_ogs.tif
102
RTVSPost2010PropOp54
 70
     1
102
RTVSPost2010Prop55
280
     0
102
RTVSPost2010PropOp55
 70
     1
102
RTVSPost2010Prop56
140
1.0
102
RTVSPost2010PropOp56
 70
     1
102
RTVSPost2010Prop57
140
1.0
102
RTVSPost2010PropOp57
 70
     1
102
RTVSPropertyOp0
 70
     0
102
RTVSPropertyOp1
 70
     0
102
RTVSPropertyOp2
 70
     0
102
RTVSPropertyOp3
 70
     0
102
RTVSPropertyOp4
 70
     0
102
RTVSPropertyOp5
 70
     0
102
RTVSPropertyOp6
 70
     0
102
RTVSPropertyOp7
 70
     0
102
RTVSPropertyOp8
 70
     0
102
RTVSPropertyOp9
 70
     0
102
RTVSPropertyOp10
 70
     0
102
RTVSPropertyOp11
 70
     0
102
RTVSPropertyOp12
 70
     0
102
RTVSPropertyOp13
 70
     0
102
RTVSPropertyOp14
 70
     2
102
RTVSPropertyOp15
 70
     0
102
RTVSPropertyOp16
 70
     0
102
RTVSPropertyOp17
 70
     0
102
RTVSPropertyOp18
 70
     0
102
RTVSPropertyOp19
 70
     0
102
RTVSPropertyOp20
 70
     0
102
RTVSPropertyOp21
 70
     0
102
RTVSPropertyOp22
 70
     0
102
RTVSPropertyOp23
 70
     0
102
RTVSPropertyOp24
 70
     0
102
RTVSPropertyOp25
 70
     0
102
RTVSPropertyOp26
 70
     0
102
RTVSPropertyOp27
 70
     0
102
RTVSPropertyOp28
 70
     1
102
RTVSPropertyOp29
 70
     1
102
RTVSPropertyOp30
 70
     1
102
RTVSPropertyOp31
 70
     1
102
RTVSPropertyOp32
 70
     1
102
RTVSPropertyOp33
 70
     1
102
RTVSPropertyOp34
 70
     1
102
RTVSPropertyOp35
 70
     1
102
RTVSPropertyOp36
 70
     1
102
RTVSPropertyOp37
 70
     1
102
RTVSPropertyOp38
 70
     1
102
RTVSPropertyOp39
 70
     1
102
RTVSPropertyOp40
 70
     1
102
RTVSPropertyOp41
 70
     1
102
RTVSPropertyOp42
 70
     1
102
RTVSPropertyOp43
 70
     1
102
RTVSPropertyOp44
 70
     1
102
RTVSPropertyOp45
 70
     1
102
RTVSPropertyOp46
 70
     1
102
RTVSPropertyOp47
 70
     1
102
RTVSPropertyOp48
 70
     1
102
RTVSPropertyOp49
 70
     1
102
RTVSPropertyOp50
 70
     1
102
RTVSPropertyOp51
 70
     0
102
RTVSPropertyOp52
 70
     0
102
RTVSPropertyOp53
 70
     1
102
RTVSPropertyOp54
 70
     1
102
RTVSPropertyOp55
 70
     1
102
RTVSPropertyOp56
 70
     1
102
RTVSPropertyOp57
 70
     1
102
RTVSPropertyOp58
 70
     1
102
RTVSPropertyOp59
 70
     1
102
RTVSPropertyOp60
 70
     1
102
RTVSPropertyOp61
 70
     1
102
RTVSPropertyOp62
 70
     1
  0
XRECORD
  5
264B
102
{ACAD_REACTORS
330
264A
102
}
330
264A
100
AcDbXrecord
280
     1
102
RTVSPost2010Prop28
280
     0
102
RTVSPost2010PropOp28
 70
     1
102
RTVSPost2010Prop29
280
     1
102
RTVSPost2010PropOp29
 70
     1
102
RTVSPost2010Prop30
280
     1
102
RTVSPost2010PropOp30
 70
     1
102
RTVSPost2010Prop31
280
     0
102
RTVSPost2010PropOp31
 70
     1
102
RTVSPost2010Prop32
280
     0
102
RTVSPost2010PropOp32
 70
     1
102
RTVSPost2010Prop33
280
     0
102
RTVSPost2010PropOp33
 70
     1
102
RTVSPost2010Prop34
280
     0
102
RTVSPost2010PropOp34
 70
     1
102
RTVSPost2010Prop35
280
     0
102
RTVSPost2010PropOp35
 70
     1
102
RTVSPost2010Prop36
280
     0
102
RTVSPost2010PropOp36
 70
     1
102
RTVSPost2010Prop37
 90
       50
102
RTVSPost2010PropOp37
 70
     1
102
RTVSPost2010Prop38
140
0.0
102
RTVSPost2010PropOp38
 70
     1
102
RTVSPost2010Prop39
140
1.0
102
RTVSPost2010PropOp39
 70
     1
102
RTVSPost2010Prop40
 90
        0
102
RTVSPost2010PropOp40
 70
     1
102
RTVSPost2010Prop41ColorIndex
 90
       18
102
RTVSPost2010Prop41ColorRGB
 90
        0
102
RTVSPost2010PropOp41
 70
     1
102
RTVSPost2010Prop42
 90
       50
102
RTVSPost2010PropOp42
 70
     1
102
RTVSPost2010Prop43
 90
        3
102
RTVSPost2010PropOp43
 70
     1
102
RTVSPost2010Prop44ColorIndex
 90
        5
102
RTVSPost2010Prop44ColorRGB
 90
      255
102
RTVSPost2010PropOp44
 70
     1
102
RTVSPost2010Prop45
280
     0
102
RTVSPost2010PropOp45
 70
     1
102
RTVSPost2010Prop46
 90
       50
102
RTVSPost2010PropOp46
 70
     1
102
RTVSPost2010Prop47
 90
       50
102
RTVSPost2010PropOp47
 70
     1
102
RTVSPost2010Prop48
 90
       50
102
RTVSPost2010PropOp48
 70
     1
102
RTVSPost2010Prop49
280
     0
102
RTVSPost2010PropOp49
 70
     1
102
RTVSPost2010Prop50
 90
       50
102
RTVSPost2010PropOp50
 70
     1
102
RTVSPost2010Prop51ColorIndex
 90
      256
102
RTVSPost2010Prop51ColorRGB
 90
-16777216
102
RTVSPost2010PropOp51
 70
     0
102
RTVSPost2010Prop52
140
1.0
102
RTVSPost2010PropOp52
 70
     0
102
RTVSPost2010Prop53
 90
        2
102
RTVSPost2010PropOp53
 70
     1
102
RTVSPost2010Prop54
  1
strokes_ogs.tif
102
RTVSPost2010PropOp54
 70
     1
102
RTVSPost2010Prop55
280
     0
102
RTVSPost2010PropOp55
 70
     1
102
RTVSPost2010Prop56
140
1.0
102
RTVSPost2010PropOp56
 70
     1
102
RTVSPost2010Prop57
140
1.0
102
RTVSPost2010PropOp57
 70
     1
102
RTVSPropertyOp0
 70
     1
102
RTVSPropertyOp1
 70
     1
102
RTVSPropertyOp2
 70
     1
102
RTVSPropertyOp3
 70
     1
102
RTVSPropertyOp4
 70
     1
102
RTVSPropertyOp5
 70
     1
102
RTVSPropertyOp6
 70
     1
102
RTVSPropertyOp7
 70
     1
102
RTVSPropertyOp8
 70
     1
102
RTVSPropertyOp9
 70
     1
102
RTVSPropertyOp10
 70
     1
102
RTVSPropertyOp11
 70
     1
102
RTVSPropertyOp12
 70
     1
102
RTVSPropertyOp13
 70
     1
102
RTVSPropertyOp14
 70
     1
102
RTVSPropertyOp15
 70
     1
102
RTVSPropertyOp16
 70
     1
102
RTVSPropertyOp17
 70
     1
102
RTVSPropertyOp18
 70
     1
102
RTVSPropertyOp19
 70
     1
102
RTVSPropertyOp20
 70
     1
102
RTVSPropertyOp21
 70
     1
102
RTVSPropertyOp22
 70
     1
102
RTVSPropertyOp23
 70
     1
102
RTVSPropertyOp24
 70
     1
102
RTVSPropertyOp25
 70
     1
102
RTVSPropertyOp26
 70
     1
102
RTVSPropertyOp27
 70
     1
102
RTVSPropertyOp28
 70
     1
102
RTVSPropertyOp29
 70
     1
102
RTVSPropertyOp30
 70
     1
102
RTVSPropertyOp31
 70
     1
102
RTVSPropertyOp32
 70
     1
102
RTVSPropertyOp33
 70
     1
102
RTVSPropertyOp34
 70
     1
102
RTVSPropertyOp35
 70
     1
102
RTVSPropertyOp36
 70
     1
102
RTVSPropertyOp37
 70
     1
102
RTVSPropertyOp38
 70
     1
102
RTVSPropertyOp39
 70
     1
102
RTVSPropertyOp40
 70
     1
102
RTVSPropertyOp41
 70
     1
102
RTVSPropertyOp42
 70
     1
102
RTVSPropertyOp43
 70
     1
102
RTVSPropertyOp44
 70
     1
102
RTVSPropertyOp45
 70
     1
102
RTVSPropertyOp46
 70
     1
102
RTVSPropertyOp47
 70
     1
102
RTVSPropertyOp48
 70
     1
102
RTVSPropertyOp49
 70
     1
102
RTVSPropertyOp50
 70
     1
102
RTVSPropertyOp51
 70
     0
102
RTVSPropertyOp52
 70
     0
102
RTVSPropertyOp53
 70
     1
102
RTVSPropertyOp54
 70
     1
102
RTVSPropertyOp55
 70
     1
102
RTVSPropertyOp56
 70
     1
102
RTVSPropertyOp57
 70
     1
102
RTVSPropertyOp58
 70
     1
102
RTVSPropertyOp59
 70
     1
102
RTVSPropertyOp60
 70
     1
102
RTVSPropertyOp61
 70
     1
102
RTVSPropertyOp62
 70
     1
  0
XRECORD
  5
262F
102
{ACAD_REACTORS
330
262E
102
}
330
262E
100
AcDbXrecord
280
     1
102
RTVSPost2010Prop28
280
     0
102
RTVSPost2010PropOp28
 70
     1
102
RTVSPost2010Prop29
280
     1
102
RTVSPost2010PropOp29
 70
     1
102
RTVSPost2010Prop30
280
     1
102
RTVSPost2010PropOp30
 70
     1
102
RTVSPost2010Prop31
280
     0
102
RTVSPost2010PropOp31
 70
     1
102
RTVSPost2010Prop32
280
     0
102
RTVSPost2010PropOp32
 70
     1
102
RTVSPost2010Prop33
280
     0
102
RTVSPost2010PropOp33
 70
     1
102
RTVSPost2010Prop34
280
     0
102
RTVSPost2010PropOp34
 70
     1
102
RTVSPost2010Prop35
280
     0
102
RTVSPost2010PropOp35
 70
     1
102
RTVSPost2010Prop36
280
     0
102
RTVSPost2010PropOp36
 70
     1
102
RTVSPost2010Prop37
 90
       50
102
RTVSPost2010PropOp37
 70
     1
102
RTVSPost2010Prop38
140
0.0
102
RTVSPost2010PropOp38
 70
     1
102
RTVSPost2010Prop39
140
1.0
102
RTVSPost2010PropOp39
 70
     1
102
RTVSPost2010Prop40
 90
        0
102
RTVSPost2010PropOp40
 70
     1
102
RTVSPost2010Prop41ColorIndex
 90
       18
102
RTVSPost2010Prop41ColorRGB
 90
        0
102
RTVSPost2010PropOp41
 70
     1
102
RTVSPost2010Prop42
 90
       50
102
RTVSPost2010PropOp42
 70
     1
102
RTVSPost2010Prop43
 90
        3
102
RTVSPost2010PropOp43
 70
     1
102
RTVSPost2010Prop44ColorIndex
 90
        5
102
RTVSPost2010Prop44ColorRGB
 90
      255
102
RTVSPost2010PropOp44
 70
     1
102
RTVSPost2010Prop45
280
     0
102
RTVSPost2010PropOp45
 70
     1
102
RTVSPost2010Prop46
 90
       50
102
RTVSPost2010PropOp46
 70
     1
102
RTVSPost2010Prop47
 90
       50
102
RTVSPost2010PropOp47
 70
     1
102
RTVSPost2010Prop48
 90
       50
102
RTVSPost2010PropOp48
 70
     1
102
RTVSPost2010Prop49
280
     0
102
RTVSPost2010PropOp49
 70
     1
102
RTVSPost2010Prop50
 90
       50
102
RTVSPost2010PropOp50
 70
     1
102
RTVSPost2010Prop51ColorIndex
 90
      256
102
RTVSPost2010Prop51ColorRGB
 90
-16777216
102
RTVSPost2010PropOp51
 70
     0
102
RTVSPost2010Prop52
140
1.0
102
RTVSPost2010PropOp52
 70
     0
102
RTVSPost2010Prop53
 90
        2
102
RTVSPost2010PropOp53
 70
     1
102
RTVSPost2010Prop54
  1
strokes_ogs.tif
102
RTVSPost2010PropOp54
 70
     1
102
RTVSPost2010Prop55
280
     0
102
RTVSPost2010PropOp55
 70
     1
102
RTVSPost2010Prop56
140
1.0
102
RTVSPost2010PropOp56
 70
     1
102
RTVSPost2010Prop57
140
1.0
102
RTVSPost2010PropOp57
 70
     1
102
RTVSPropertyOp0
 70
     1
102
RTVSPropertyOp1
 70
     1
102
RTVSPropertyOp2
 70
     1
102
RTVSPropertyOp3
 70
     1
102
RTVSPropertyOp4
 70
     1
102
RTVSPropertyOp5
 70
     1
102
RTVSPropertyOp6
 70
     1
102
RTVSPropertyOp7
 70
     1
102
RTVSPropertyOp8
 70
     1
102
RTVSPropertyOp9
 70
     1
102
RTVSPropertyOp10
 70
     1
102
RTVSPropertyOp11
 70
     1
102
RTVSPropertyOp12
 70
     1
102
RTVSPropertyOp13
 70
     1
102
RTVSPropertyOp14
 70
     1
102
RTVSPropertyOp15
 70
     1
102
RTVSPropertyOp16
 70
     1
102
RTVSPropertyOp17
 70
     1
102
RTVSPropertyOp18
 70
     1
102
RTVSPropertyOp19
 70
     1
102
RTVSPropertyOp20
 70
     1
102
RTVSPropertyOp21
 70
     1
102
RTVSPropertyOp22
 70
     1
102
RTVSPropertyOp23
 70
     1
102
RTVSPropertyOp24
 70
     1
102
RTVSPropertyOp25
 70
     1
102
RTVSPropertyOp26
 70
     1
102
RTVSPropertyOp27
 70
     1
102
RTVSPropertyOp28
 70
     1
102
RTVSPropertyOp29
 70
     1
102
RTVSPropertyOp30
 70
     1
102
RTVSPropertyOp31
 70
     1
102
RTVSPropertyOp32
 70
     1
102
RTVSPropertyOp33
 70
     1
102
RTVSPropertyOp34
 70
     1
102
RTVSPropertyOp35
 70
     1
102
RTVSPropertyOp36
 70
     1
102
RTVSPropertyOp37
 70
     1
102
RTVSPropertyOp38
 70
     1
102
RTVSPropertyOp39
 70
     1
102
RTVSPropertyOp40
 70
     1
102
RTVSPropertyOp41
 70
     1
102
RTVSPropertyOp42
 70
     1
102
RTVSPropertyOp43
 70
     1
102
RTVSPropertyOp44
 70
     1
102
RTVSPropertyOp45
 70
     1
102
RTVSPropertyOp46
 70
     1
102
RTVSPropertyOp47
 70
     1
102
RTVSPropertyOp48
 70
     1
102
RTVSPropertyOp49
 70
     1
102
RTVSPropertyOp50
 70
     1
102
RTVSPropertyOp51
 70
     0
102
RTVSPropertyOp52
 70
     0
102
RTVSPropertyOp53
 70
     1
102
RTVSPropertyOp54
 70
     1
102
RTVSPropertyOp55
 70
     1
102
RTVSPropertyOp56
 70
     1
102
RTVSPropertyOp57
 70
     1
102
RTVSPropertyOp58
 70
     1
102
RTVSPropertyOp59
 70
     1
102
RTVSPropertyOp60
 70
     1
102
RTVSPropertyOp61
 70
     1
102
RTVSPropertyOp62
 70
     1
  0
XRECORD
  5
2631
102
{ACAD_REACTORS
330
2630
102
}
330
2630
100
AcDbXrecord
280
     1
102
RTVSPost2010Prop28
280
     0
102
RTVSPost2010PropOp28
 70
     1
102
RTVSPost2010Prop29
280
     1
102
RTVSPost2010PropOp29
 70
     1
102
RTVSPost2010Prop30
280
     1
102
RTVSPost2010PropOp30
 70
     1
102
RTVSPost2010Prop31
280
     0
102
RTVSPost2010PropOp31
 70
     1
102
RTVSPost2010Prop32
280
     0
102
RTVSPost2010PropOp32
 70
     1
102
RTVSPost2010Prop33
280
     0
102
RTVSPost2010PropOp33
 70
     1
102
RTVSPost2010Prop34
280
     0
102
RTVSPost2010PropOp34
 70
     1
102
RTVSPost2010Prop35
280
     0
102
RTVSPost2010PropOp35
 70
     1
102
RTVSPost2010Prop36
280
     0
102
RTVSPost2010PropOp36
 70
     1
102
RTVSPost2010Prop37
 90
       50
102
RTVSPost2010PropOp37
 70
     1
102
RTVSPost2010Prop38
140
0.0
102
RTVSPost2010PropOp38
 70
     1
102
RTVSPost2010Prop39
140
1.0
102
RTVSPost2010PropOp39
 70
     1
102
RTVSPost2010Prop40
 90
        0
102
RTVSPost2010PropOp40
 70
     1
102
RTVSPost2010Prop41ColorIndex
 90
       18
102
RTVSPost2010Prop41ColorRGB
 90
        0
102
RTVSPost2010PropOp41
 70
     1
102
RTVSPost2010Prop42
 90
       50
102
RTVSPost2010PropOp42
 70
     1
102
RTVSPost2010Prop43
 90
        3
102
RTVSPost2010PropOp43
 70
     1
102
RTVSPost2010Prop44ColorIndex
 90
        5
102
RTVSPost2010Prop44ColorRGB
 90
      255
102
RTVSPost2010PropOp44
 70
     1
102
RTVSPost2010Prop45
280
     0
102
RTVSPost2010PropOp45
 70
     1
102
RTVSPost2010Prop46
 90
       50
102
RTVSPost2010PropOp46
 70
     1
102
RTVSPost2010Prop47
 90
       50
102
RTVSPost2010PropOp47
 70
     1
102
RTVSPost2010Prop48
 90
       50
102
RTVSPost2010PropOp48
 70
     1
102
RTVSPost2010Prop49
280
     0
102
RTVSPost2010PropOp49
 70
     1
102
RTVSPost2010Prop50
 90
       50
102
RTVSPost2010PropOp50
 70
     1
102
RTVSPost2010Prop51ColorIndex
 90
      256
102
RTVSPost2010Prop51ColorRGB
 90
-16777216
102
RTVSPost2010PropOp51
 70
     0
102
RTVSPost2010Prop52
140
1.0
102
RTVSPost2010PropOp52
 70
     0
102
RTVSPost2010Prop53
 90
        2
102
RTVSPost2010PropOp53
 70
     1
102
RTVSPost2010Prop54
  1
strokes_ogs.tif
102
RTVSPost2010PropOp54
 70
     1
102
RTVSPost2010Prop55
280
     0
102
RTVSPost2010PropOp55
 70
     1
102
RTVSPost2010Prop56
140
1.0
102
RTVSPost2010PropOp56
 70
     1
102
RTVSPost2010Prop57
140
1.0
102
RTVSPost2010PropOp57
 70
     1
102
RTVSPropertyOp0
 70
     1
102
RTVSPropertyOp1
 70
     1
102
RTVSPropertyOp2
 70
     1
102
RTVSPropertyOp3
 70
     1
102
RTVSPropertyOp4
 70
     1
102
RTVSPropertyOp5
 70
     1
102
RTVSPropertyOp6
 70
     1
102
RTVSPropertyOp7
 70
     1
102
RTVSPropertyOp8
 70
     1
102
RTVSPropertyOp9
 70
     1
102
RTVSPropertyOp10
 70
     1
102
RTVSPropertyOp11
 70
     1
102
RTVSPropertyOp12
 70
     1
102
RTVSPropertyOp13
 70
     1
102
RTVSPropertyOp14
 70
     1
102
RTVSPropertyOp15
 70
     1
102
RTVSPropertyOp16
 70
     1
102
RTVSPropertyOp17
 70
     1
102
RTVSPropertyOp18
 70
     1
102
RTVSPropertyOp19
 70
     1
102
RTVSPropertyOp20
 70
     1
102
RTVSPropertyOp21
 70
     1
102
RTVSPropertyOp22
 70
     1
102
RTVSPropertyOp23
 70
     1
102
RTVSPropertyOp24
 70
     1
102
RTVSPropertyOp25
 70
     1
102
RTVSPropertyOp26
 70
     1
102
RTVSPropertyOp27
 70
     1
102
RTVSPropertyOp28
 70
     1
102
RTVSPropertyOp29
 70
     1
102
RTVSPropertyOp30
 70
     1
102
RTVSPropertyOp31
 70
     1
102
RTVSPropertyOp32
 70
     1
102
RTVSPropertyOp33
 70
     1
102
RTVSPropertyOp34
 70
     1
102
RTVSPropertyOp35
 70
     1
102
RTVSPropertyOp36
 70
     1
102
RTVSPropertyOp37
 70
     1
102
RTVSPropertyOp38
 70
     1
102
RTVSPropertyOp39
 70
     1
102
RTVSPropertyOp40
 70
     1
102
RTVSPropertyOp41
 70
     1
102
RTVSPropertyOp42
 70
     1
102
RTVSPropertyOp43
 70
     1
102
RTVSPropertyOp44
 70
     1
102
RTVSPropertyOp45
 70
     1
102
RTVSPropertyOp46
 70
     1
102
RTVSPropertyOp47
 70
     1
102
RTVSPropertyOp48
 70
     1
102
RTVSPropertyOp49
 70
     1
102
RTVSPropertyOp50
 70
     1
102
RTVSPropertyOp51
 70
     0
102
RTVSPropertyOp52
 70
     0
102
RTVSPropertyOp53
 70
     1
102
RTVSPropertyOp54
 70
     1
102
RTVSPropertyOp55
 70
     1
102
RTVSPropertyOp56
 70
     1
102
RTVSPropertyOp57
 70
     1
102
RTVSPropertyOp58
 70
     1
102
RTVSPropertyOp59
 70
     1
102
RTVSPropertyOp60
 70
     1
102
RTVSPropertyOp61
 70
     1
102
RTVSPropertyOp62
 70
     1
  0
XRECORD
  5
2633
102
{ACAD_REACTORS
330
2632
102
}
330
2632
100
AcDbXrecord
280
     1
102
RTVSPost2010Prop28
280
     0
102
RTVSPost2010PropOp28
 70
     1
102
RTVSPost2010Prop29
280
     1
102
RTVSPost2010PropOp29
 70
     1
102
RTVSPost2010Prop30
280
     1
102
RTVSPost2010PropOp30
 70
     1
102
RTVSPost2010Prop31
280
     0
102
RTVSPost2010PropOp31
 70
     1
102
RTVSPost2010Prop32
280
     0
102
RTVSPost2010PropOp32
 70
     1
102
RTVSPost2010Prop33
280
     0
102
RTVSPost2010PropOp33
 70
     1
102
RTVSPost2010Prop34
280
     0
102
RTVSPost2010PropOp34
 70
     1
102
RTVSPost2010Prop35
280
     0
102
RTVSPost2010PropOp35
 70
     1
102
RTVSPost2010Prop36
280
     0
102
RTVSPost2010PropOp36
 70
     1
102
RTVSPost2010Prop37
 90
       50
102
RTVSPost2010PropOp37
 70
     1
102
RTVSPost2010Prop38
140
0.0
102
RTVSPost2010PropOp38
 70
     1
102
RTVSPost2010Prop39
140
1.0
102
RTVSPost2010PropOp39
 70
     1
102
RTVSPost2010Prop40
 90
        0
102
RTVSPost2010PropOp40
 70
     1
102
RTVSPost2010Prop41ColorIndex
 90
       18
102
RTVSPost2010Prop41ColorRGB
 90
        0
102
RTVSPost2010PropOp41
 70
     1
102
RTVSPost2010Prop42
 90
       50
102
RTVSPost2010PropOp42
 70
     1
102
RTVSPost2010Prop43
 90
        3
102
RTVSPost2010PropOp43
 70
     1
102
RTVSPost2010Prop44ColorIndex
 90
        5
102
RTVSPost2010Prop44ColorRGB
 90
      255
102
RTVSPost2010PropOp44
 70
     1
102
RTVSPost2010Prop45
280
     0
102
RTVSPost2010PropOp45
 70
     1
102
RTVSPost2010Prop46
 90
       50
102
RTVSPost2010PropOp46
 70
     1
102
RTVSPost2010Prop47
 90
       50
102
RTVSPost2010PropOp47
 70
     1
102
RTVSPost2010Prop48
 90
       50
102
RTVSPost2010PropOp48
 70
     1
102
RTVSPost2010Prop49
280
     0
102
RTVSPost2010PropOp49
 70
     1
102
RTVSPost2010Prop50
 90
       50
102
RTVSPost2010PropOp50
 70
     1
102
RTVSPost2010Prop51ColorIndex
 90
      256
102
RTVSPost2010Prop51ColorRGB
 90
-16777216
102
RTVSPost2010PropOp51
 70
     0
102
RTVSPost2010Prop52
140
1.0
102
RTVSPost2010PropOp52
 70
     0
102
RTVSPost2010Prop53
 90
        2
102
RTVSPost2010PropOp53
 70
     1
102
RTVSPost2010Prop54
  1
strokes_ogs.tif
102
RTVSPost2010PropOp54
 70
     1
102
RTVSPost2010Prop55
280
     0
102
RTVSPost2010PropOp55
 70
     1
102
RTVSPost2010Prop56
140
1.0
102
RTVSPost2010PropOp56
 70
     1
102
RTVSPost2010Prop57
140
1.0
102
RTVSPost2010PropOp57
 70
     1
102
RTVSPropertyOp0
 70
     1
102
RTVSPropertyOp1
 70
     1
102
RTVSPropertyOp2
 70
     1
102
RTVSPropertyOp3
 70
     1
102
RTVSPropertyOp4
 70
     1
102
RTVSPropertyOp5
 70
     1
102
RTVSPropertyOp6
 70
     1
102
RTVSPropertyOp7
 70
     1
102
RTVSPropertyOp8
 70
     1
102
RTVSPropertyOp9
 70
     1
102
RTVSPropertyOp10
 70
     1
102
RTVSPropertyOp11
 70
     1
102
RTVSPropertyOp12
 70
     1
102
RTVSPropertyOp13
 70
     1
102
RTVSPropertyOp14
 70
     1
102
RTVSPropertyOp15
 70
     1
102
RTVSPropertyOp16
 70
     1
102
RTVSPropertyOp17
 70
     1
102
RTVSPropertyOp18
 70
     1
102
RTVSPropertyOp19
 70
     1
102
RTVSPropertyOp20
 70
     1
102
RTVSPropertyOp21
 70
     1
102
RTVSPropertyOp22
 70
     1
102
RTVSPropertyOp23
 70
     1
102
RTVSPropertyOp24
 70
     1
102
RTVSPropertyOp25
 70
     1
102
RTVSPropertyOp26
 70
     1
102
RTVSPropertyOp27
 70
     1
102
RTVSPropertyOp28
 70
     1
102
RTVSPropertyOp29
 70
     1
102
RTVSPropertyOp30
 70
     1
102
RTVSPropertyOp31
 70
     1
102
RTVSPropertyOp32
 70
     1
102
RTVSPropertyOp33
 70
     1
102
RTVSPropertyOp34
 70
     1
102
RTVSPropertyOp35
 70
     1
102
RTVSPropertyOp36
 70
     1
102
RTVSPropertyOp37
 70
     1
102
RTVSPropertyOp38
 70
     1
102
RTVSPropertyOp39
 70
     1
102
RTVSPropertyOp40
 70
     1
102
RTVSPropertyOp41
 70
     1
102
RTVSPropertyOp42
 70
     1
102
RTVSPropertyOp43
 70
     1
102
RTVSPropertyOp44
 70
     1
102
RTVSPropertyOp45
 70
     1
102
RTVSPropertyOp46
 70
     1
102
RTVSPropertyOp47
 70
     1
102
RTVSPropertyOp48
 70
     1
102
RTVSPropertyOp49
 70
     1
102
RTVSPropertyOp50
 70
     1
102
RTVSPropertyOp51
 70
     0
102
RTVSPropertyOp52
 70
     0
102
RTVSPropertyOp53
 70
     1
102
RTVSPropertyOp54
 70
     1
102
RTVSPropertyOp55
 70
     1
102
RTVSPropertyOp56
 70
     1
102
RTVSPropertyOp57
 70
     1
102
RTVSPropertyOp58
 70
     1
102
RTVSPropertyOp59
 70
     1
102
RTVSPropertyOp60
 70
     1
102
RTVSPropertyOp61
 70
     1
102
RTVSPropertyOp62
 70
     1
  0
XRECORD
  5
2635
102
{ACAD_REACTORS
330
2634
102
}
330
2634
100
AcDbXrecord
280
     1
102
RTVSPost2010Prop28
280
     0
102
RTVSPost2010PropOp28
 70
     1
102
RTVSPost2010Prop29
280
     1
102
RTVSPost2010PropOp29
 70
     1
102
RTVSPost2010Prop30
280
     1
102
RTVSPost2010PropOp30
 70
     1
102
RTVSPost2010Prop31
280
     0
102
RTVSPost2010PropOp31
 70
     1
102
RTVSPost2010Prop32
280
     0
102
RTVSPost2010PropOp32
 70
     1
102
RTVSPost2010Prop33
280
     0
102
RTVSPost2010PropOp33
 70
     1
102
RTVSPost2010Prop34
280
     0
102
RTVSPost2010PropOp34
 70
     1
102
RTVSPost2010Prop35
280
     0
102
RTVSPost2010PropOp35
 70
     1
102
RTVSPost2010Prop36
280
     0
102
RTVSPost2010PropOp36
 70
     1
102
RTVSPost2010Prop37
 90
       50
102
RTVSPost2010PropOp37
 70
     1
102
RTVSPost2010Prop38
140
0.0
102
RTVSPost2010PropOp38
 70
     1
102
RTVSPost2010Prop39
140
1.0
102
RTVSPost2010PropOp39
 70
     1
102
RTVSPost2010Prop40
 90
        0
102
RTVSPost2010PropOp40
 70
     1
102
RTVSPost2010Prop41ColorIndex
 90
       18
102
RTVSPost2010Prop41ColorRGB
 90
        0
102
RTVSPost2010PropOp41
 70
     1
102
RTVSPost2010Prop42
 90
       50
102
RTVSPost2010PropOp42
 70
     1
102
RTVSPost2010Prop43
 90
        3
102
RTVSPost2010PropOp43
 70
     1
102
RTVSPost2010Prop44ColorIndex
 90
        5
102
RTVSPost2010Prop44ColorRGB
 90
      255
102
RTVSPost2010PropOp44
 70
     1
102
RTVSPost2010Prop45
280
     0
102
RTVSPost2010PropOp45
 70
     1
102
RTVSPost2010Prop46
 90
       50
102
RTVSPost2010PropOp46
 70
     1
102
RTVSPost2010Prop47
 90
       50
102
RTVSPost2010PropOp47
 70
     1
102
RTVSPost2010Prop48
 90
       50
102
RTVSPost2010PropOp48
 70
     1
102
RTVSPost2010Prop49
280
     0
102
RTVSPost2010PropOp49
 70
     1
102
RTVSPost2010Prop50
 90
       50
102
RTVSPost2010PropOp50
 70
     1
102
RTVSPost2010Prop51ColorIndex
 90
      256
102
RTVSPost2010Prop51ColorRGB
 90
-16777216
102
RTVSPost2010PropOp51
 70
     0
102
RTVSPost2010Prop52
140
1.0
102
RTVSPost2010PropOp52
 70
     0
102
RTVSPost2010Prop53
 90
        2
102
RTVSPost2010PropOp53
 70
     1
102
RTVSPost2010Prop54
  1
strokes_ogs.tif
102
RTVSPost2010PropOp54
 70
     1
102
RTVSPost2010Prop55
280
     0
102
RTVSPost2010PropOp55
 70
     1
102
RTVSPost2010Prop56
140
1.0
102
RTVSPost2010PropOp56
 70
     1
102
RTVSPost2010Prop57
140
1.0
102
RTVSPost2010PropOp57
 70
     1
102
RTVSPropertyOp0
 70
     1
102
RTVSPropertyOp1
 70
     1
102
RTVSPropertyOp2
 70
     1
102
RTVSPropertyOp3
 70
     1
102
RTVSPropertyOp4
 70
     1
102
RTVSPropertyOp5
 70
     1
102
RTVSPropertyOp6
 70
     1
102
RTVSPropertyOp7
 70
     1
102
RTVSPropertyOp8
 70
     1
102
RTVSPropertyOp9
 70
     1
102
RTVSPropertyOp10
 70
     1
102
RTVSPropertyOp11
 70
     1
102
RTVSPropertyOp12
 70
     1
102
RTVSPropertyOp13
 70
     1
102
RTVSPropertyOp14
 70
     1
102
RTVSPropertyOp15
 70
     1
102
RTVSPropertyOp16
 70
     1
102
RTVSPropertyOp17
 70
     1
102
RTVSPropertyOp18
 70
     1
102
RTVSPropertyOp19
 70
     1
102
RTVSPropertyOp20
 70
     1
102
RTVSPropertyOp21
 70
     1
102
RTVSPropertyOp22
 70
     1
102
RTVSPropertyOp23
 70
     1
102
RTVSPropertyOp24
 70
     1
102
RTVSPropertyOp25
 70
     1
102
RTVSPropertyOp26
 70
     1
102
RTVSPropertyOp27
 70
     1
102
RTVSPropertyOp28
 70
     1
102
RTVSPropertyOp29
 70
     1
102
RTVSPropertyOp30
 70
     1
102
RTVSPropertyOp31
 70
     1
102
RTVSPropertyOp32
 70
     1
102
RTVSPropertyOp33
 70
     1
102
RTVSPropertyOp34
 70
     1
102
RTVSPropertyOp35
 70
     1
102
RTVSPropertyOp36
 70
     1
102
RTVSPropertyOp37
 70
     1
102
RTVSPropertyOp38
 70
     1
102
RTVSPropertyOp39
 70
     1
102
RTVSPropertyOp40
 70
     1
102
RTVSPropertyOp41
 70
     1
102
RTVSPropertyOp42
 70
     1
102
RTVSPropertyOp43
 70
     1
102
RTVSPropertyOp44
 70
     1
102
RTVSPropertyOp45
 70
     1
102
RTVSPropertyOp46
 70
     1
102
RTVSPropertyOp47
 70
     1
102
RTVSPropertyOp48
 70
     1
102
RTVSPropertyOp49
 70
     1
102
RTVSPropertyOp50
 70
     1
102
RTVSPropertyOp51
 70
     0
102
RTVSPropertyOp52
 70
     0
102
RTVSPropertyOp53
 70
     1
102
RTVSPropertyOp54
 70
     1
102
RTVSPropertyOp55
 70
     1
102
RTVSPropertyOp56
 70
     1
102
RTVSPropertyOp57
 70
     1
102
RTVSPropertyOp58
 70
     1
102
RTVSPropertyOp59
 70
     1
102
RTVSPropertyOp60
 70
     1
102
RTVSPropertyOp61
 70
     1
102
RTVSPropertyOp62
 70
     1
  0
XRECORD
  5
263D
102
{ACAD_REACTORS
330
263C
102
}
330
263C
100
AcDbXrecord
280
     1
102
RTVSPost2010Prop28
280
     0
102
RTVSPost2010PropOp28
 70
     1
102
RTVSPost2010Prop29
280
     1
102
RTVSPost2010PropOp29
 70
     1
102
RTVSPost2010Prop30
280
     1
102
RTVSPost2010PropOp30
 70
     1
102
RTVSPost2010Prop31
280
     0
102
RTVSPost2010PropOp31
 70
     1
102
RTVSPost2010Prop32
280
     0
102
RTVSPost2010PropOp32
 70
     1
102
RTVSPost2010Prop33
280
     0
102
RTVSPost2010PropOp33
 70
     1
102
RTVSPost2010Prop34
280
     0
102
RTVSPost2010PropOp34
 70
     1
102
RTVSPost2010Prop35
280
     0
102
RTVSPost2010PropOp35
 70
     1
102
RTVSPost2010Prop36
280
     0
102
RTVSPost2010PropOp36
 70
     1
102
RTVSPost2010Prop37
 90
       50
102
RTVSPost2010PropOp37
 70
     1
102
RTVSPost2010Prop38
140
0.0
102
RTVSPost2010PropOp38
 70
     1
102
RTVSPost2010Prop39
140
1.0
102
RTVSPost2010PropOp39
 70
     1
102
RTVSPost2010Prop40
 90
        0
102
RTVSPost2010PropOp40
 70
     1
102
RTVSPost2010Prop41ColorIndex
 90
       18
102
RTVSPost2010Prop41ColorRGB
 90
        0
102
RTVSPost2010PropOp41
 70
     1
102
RTVSPost2010Prop42
 90
       50
102
RTVSPost2010PropOp42
 70
     1
102
RTVSPost2010Prop43
 90
        3
102
RTVSPost2010PropOp43
 70
     1
102
RTVSPost2010Prop44ColorIndex
 90
        5
102
RTVSPost2010Prop44ColorRGB
 90
      255
102
RTVSPost2010PropOp44
 70
     1
102
RTVSPost2010Prop45
280
     0
102
RTVSPost2010PropOp45
 70
     1
102
RTVSPost2010Prop46
 90
       50
102
RTVSPost2010PropOp46
 70
     1
102
RTVSPost2010Prop47
 90
       50
102
RTVSPost2010PropOp47
 70
     1
102
RTVSPost2010Prop48
 90
       50
102
RTVSPost2010PropOp48
 70
     1
102
RTVSPost2010Prop49
280
     0
102
RTVSPost2010PropOp49
 70
     1
102
RTVSPost2010Prop50
 90
       50
102
RTVSPost2010PropOp50
 70
     1
102
RTVSPost2010Prop51ColorIndex
 90
      256
102
RTVSPost2010Prop51ColorRGB
 90
-16777216
102
RTVSPost2010PropOp51
 70
     0
102
RTVSPost2010Prop52
140
1.0
102
RTVSPost2010PropOp52
 70
     0
102
RTVSPost2010Prop53
 90
        2
102
RTVSPost2010PropOp53
 70
     1
102
RTVSPost2010Prop54
  1
strokes_ogs.tif
102
RTVSPost2010PropOp54
 70
     1
102
RTVSPost2010Prop55
280
     0
102
RTVSPost2010PropOp55
 70
     1
102
RTVSPost2010Prop56
140
1.0
102
RTVSPost2010PropOp56
 70
     1
102
RTVSPost2010Prop57
140
1.0
102
RTVSPost2010PropOp57
 70
     1
102
RTVSPropertyOp0
 70
     1
102
RTVSPropertyOp1
 70
     1
102
RTVSPropertyOp2
 70
     1
102
RTVSPropertyOp3
 70
     1
102
RTVSPropertyOp4
 70
     1
102
RTVSPropertyOp5
 70
     1
102
RTVSPropertyOp6
 70
     1
102
RTVSPropertyOp7
 70
     1
102
RTVSPropertyOp8
 70
     1
102
RTVSPropertyOp9
 70
     1
102
RTVSPropertyOp10
 70
     1
102
RTVSPropertyOp11
 70
     1
102
RTVSPropertyOp12
 70
     1
102
RTVSPropertyOp13
 70
     1
102
RTVSPropertyOp14
 70
     1
102
RTVSPropertyOp15
 70
     1
102
RTVSPropertyOp16
 70
     1
102
RTVSPropertyOp17
 70
     1
102
RTVSPropertyOp18
 70
     1
102
RTVSPropertyOp19
 70
     1
102
RTVSPropertyOp20
 70
     1
102
RTVSPropertyOp21
 70
     1
102
RTVSPropertyOp22
 70
     1
102
RTVSPropertyOp23
 70
     1
102
RTVSPropertyOp24
 70
     1
102
RTVSPropertyOp25
 70
     1
102
RTVSPropertyOp26
 70
     1
102
RTVSPropertyOp27
 70
     1
102
RTVSPropertyOp28
 70
     1
102
RTVSPropertyOp29
 70
     1
102
RTVSPropertyOp30
 70
     1
102
RTVSPropertyOp31
 70
     1
102
RTVSPropertyOp32
 70
     1
102
RTVSPropertyOp33
 70
     1
102
RTVSPropertyOp34
 70
     1
102
RTVSPropertyOp35
 70
     1
102
RTVSPropertyOp36
 70
     1
102
RTVSPropertyOp37
 70
     1
102
RTVSPropertyOp38
 70
     1
102
RTVSPropertyOp39
 70
     1
102
RTVSPropertyOp40
 70
     1
102
RTVSPropertyOp41
 70
     1
102
RTVSPropertyOp42
 70
     1
102
RTVSPropertyOp43
 70
     1
102
RTVSPropertyOp44
 70
     1
102
RTVSPropertyOp45
 70
     1
102
RTVSPropertyOp46
 70
     1
102
RTVSPropertyOp47
 70
     1
102
RTVSPropertyOp48
 70
     1
102
RTVSPropertyOp49
 70
     1
102
RTVSPropertyOp50
 70
     1
102
RTVSPropertyOp51
 70
     0
102
RTVSPropertyOp52
 70
     0
102
RTVSPropertyOp53
 70
     1
102
RTVSPropertyOp54
 70
     1
102
RTVSPropertyOp55
 70
     1
102
RTVSPropertyOp56
 70
     1
102
RTVSPropertyOp57
 70
     1
102
RTVSPropertyOp58
 70
     1
102
RTVSPropertyOp59
 70
     1
102
RTVSPropertyOp60
 70
     1
102
RTVSPropertyOp61
 70
     1
102
RTVSPropertyOp62
 70
     1
  0
XRECORD
  5
2651
102
{ACAD_REACTORS
330
2650
102
}
330
2650
100
AcDbXrecord
280
     1
102
RTVSPost2010Prop28
280
     0
102
RTVSPost2010PropOp28
 70
     1
102
RTVSPost2010Prop29
280
     1
102
RTVSPost2010PropOp29
 70
     1
102
RTVSPost2010Prop30
280
     1
102
RTVSPost2010PropOp30
 70
     1
102
RTVSPost2010Prop31
280
     0
102
RTVSPost2010PropOp31
 70
     1
102
RTVSPost2010Prop32
280
     0
102
RTVSPost2010PropOp32
 70
     1
102
RTVSPost2010Prop33
280
     0
102
RTVSPost2010PropOp33
 70
     1
102
RTVSPost2010Prop34
280
     0
102
RTVSPost2010PropOp34
 70
     1
102
RTVSPost2010Prop35
280
     0
102
RTVSPost2010PropOp35
 70
     1
102
RTVSPost2010Prop36
280
     0
102
RTVSPost2010PropOp36
 70
     1
102
RTVSPost2010Prop37
 90
       50
102
RTVSPost2010PropOp37
 70
     1
102
RTVSPost2010Prop38
140
0.0
102
RTVSPost2010PropOp38
 70
     1
102
RTVSPost2010Prop39
140
1.0
102
RTVSPost2010PropOp39
 70
     1
102
RTVSPost2010Prop40
 90
        0
102
RTVSPost2010PropOp40
 70
     1
102
RTVSPost2010Prop41ColorIndex
 90
       18
102
RTVSPost2010Prop41ColorRGB
 90
        0
102
RTVSPost2010PropOp41
 70
     1
102
RTVSPost2010Prop42
 90
       50
102
RTVSPost2010PropOp42
 70
     1
102
RTVSPost2010Prop43
 90
        3
102
RTVSPost2010PropOp43
 70
     1
102
RTVSPost2010Prop44ColorIndex
 90
        5
102
RTVSPost2010Prop44ColorRGB
 90
      255
102
RTVSPost2010PropOp44
 70
     1
102
RTVSPost2010Prop45
280
     0
102
RTVSPost2010PropOp45
 70
     1
102
RTVSPost2010Prop46
 90
       50
102
RTVSPost2010PropOp46
 70
     1
102
RTVSPost2010Prop47
 90
       50
102
RTVSPost2010PropOp47
 70
     1
102
RTVSPost2010Prop48
 90
       50
102
RTVSPost2010PropOp48
 70
     1
102
RTVSPost2010Prop49
280
     0
102
RTVSPost2010PropOp49
 70
     1
102
RTVSPost2010Prop50
 90
       50
102
RTVSPost2010PropOp50
 70
     1
102
RTVSPost2010Prop51ColorIndex
 90
      256
102
RTVSPost2010Prop51ColorRGB
 90
-16777216
102
RTVSPost2010PropOp51
 70
     0
102
RTVSPost2010Prop52
140
1.0
102
RTVSPost2010PropOp52
 70
     0
102
RTVSPost2010Prop53
 90
        2
102
RTVSPost2010PropOp53
 70
     1
102
RTVSPost2010Prop54
  1
strokes_ogs.tif
102
RTVSPost2010PropOp54
 70
     1
102
RTVSPost2010Prop55
280
     0
102
RTVSPost2010PropOp55
 70
     1
102
RTVSPost2010Prop56
140
1.0
102
RTVSPost2010PropOp56
 70
     1
102
RTVSPost2010Prop57
140
1.0
102
RTVSPost2010PropOp57
 70
     1
102
RTVSPropertyOp0
 70
     0
102
RTVSPropertyOp1
 70
     0
102
RTVSPropertyOp2
 70
     0
102
RTVSPropertyOp3
 70
     0
102
RTVSPropertyOp4
 70
     0
102
RTVSPropertyOp5
 70
     0
102
RTVSPropertyOp6
 70
     0
102
RTVSPropertyOp7
 70
     0
102
RTVSPropertyOp8
 70
     0
102
RTVSPropertyOp9
 70
     0
102
RTVSPropertyOp10
 70
     0
102
RTVSPropertyOp11
 70
     0
102
RTVSPropertyOp12
 70
     0
102
RTVSPropertyOp13
 70
     0
102
RTVSPropertyOp14
 70
     2
102
RTVSPropertyOp15
 70
     0
102
RTVSPropertyOp16
 70
     0
102
RTVSPropertyOp17
 70
     0
102
RTVSPropertyOp18
 70
     0
102
RTVSPropertyOp19
 70
     0
102
RTVSPropertyOp20
 70
     0
102
RTVSPropertyOp21
 70
     0
102
RTVSPropertyOp22
 70
     0
102
RTVSPropertyOp23
 70
     0
102
RTVSPropertyOp24
 70
     0
102
RTVSPropertyOp25
 70
     0
102
RTVSPropertyOp26
 70
     0
102
RTVSPropertyOp27
 70
     0
102
RTVSPropertyOp28
 70
     1
102
RTVSPropertyOp29
 70
     1
102
RTVSPropertyOp30
 70
     1
102
RTVSPropertyOp31
 70
     1
102
RTVSPropertyOp32
 70
     1
102
RTVSPropertyOp33
 70
     1
102
RTVSPropertyOp34
 70
     1
102
RTVSPropertyOp35
 70
     1
102
RTVSPropertyOp36
 70
     1
102
RTVSPropertyOp37
 70
     1
102
RTVSPropertyOp38
 70
     1
102
RTVSPropertyOp39
 70
     1
102
RTVSPropertyOp40
 70
     1
102
RTVSPropertyOp41
 70
     1
102
RTVSPropertyOp42
 70
     1
102
RTVSPropertyOp43
 70
     1
102
RTVSPropertyOp44
 70
     1
102
RTVSPropertyOp45
 70
     1
102
RTVSPropertyOp46
 70
     1
102
RTVSPropertyOp47
 70
     1
102
RTVSPropertyOp48
 70
     1
102
RTVSPropertyOp49
 70
     1
102
RTVSPropertyOp50
 70
     1
102
RTVSPropertyOp51
 70
     0
102
RTVSPropertyOp52
 70
     0
102
RTVSPropertyOp53
 70
     1
102
RTVSPropertyOp54
 70
     1
102
RTVSPropertyOp55
 70
     1
102
RTVSPropertyOp56
 70
     1
102
RTVSPropertyOp57
 70
     1
102
RTVSPropertyOp58
 70
     1
102
RTVSPropertyOp59
 70
     1
102
RTVSPropertyOp60
 70
     1
102
RTVSPropertyOp61
 70
     1
102
RTVSPropertyOp62
 70
     1
  0
XRECORD
  5
2649
102
{ACAD_REACTORS
330
2648
102
}
330
2648
100
AcDbXrecord
280
     1
102
RTVSPost2010Prop28
280
     0
102
RTVSPost2010PropOp28
 70
     1
102
RTVSPost2010Prop29
280
     1
102
RTVSPost2010PropOp29
 70
     1
102
RTVSPost2010Prop30
280
     1
102
RTVSPost2010PropOp30
 70
     1
102
RTVSPost2010Prop31
280
     0
102
RTVSPost2010PropOp31
 70
     1
102
RTVSPost2010Prop32
280
     0
102
RTVSPost2010PropOp32
 70
     1
102
RTVSPost2010Prop33
280
     0
102
RTVSPost2010PropOp33
 70
     1
102
RTVSPost2010Prop34
280
     0
102
RTVSPost2010PropOp34
 70
     1
102
RTVSPost2010Prop35
280
     0
102
RTVSPost2010PropOp35
 70
     1
102
RTVSPost2010Prop36
280
     0
102
RTVSPost2010PropOp36
 70
     1
102
RTVSPost2010Prop37
 90
       50
102
RTVSPost2010PropOp37
 70
     1
102
RTVSPost2010Prop38
140
0.0
102
RTVSPost2010PropOp38
 70
     1
102
RTVSPost2010Prop39
140
1.0
102
RTVSPost2010PropOp39
 70
     1
102
RTVSPost2010Prop40
 90
        0
102
RTVSPost2010PropOp40
 70
     1
102
RTVSPost2010Prop41ColorIndex
 90
       18
102
RTVSPost2010Prop41ColorRGB
 90
        0
102
RTVSPost2010PropOp41
 70
     1
102
RTVSPost2010Prop42
 90
       50
102
RTVSPost2010PropOp42
 70
     1
102
RTVSPost2010Prop43
 90
        3
102
RTVSPost2010PropOp43
 70
     1
102
RTVSPost2010Prop44ColorIndex
 90
        5
102
RTVSPost2010Prop44ColorRGB
 90
      255
102
RTVSPost2010PropOp44
 70
     1
102
RTVSPost2010Prop45
280
     0
102
RTVSPost2010PropOp45
 70
     1
102
RTVSPost2010Prop46
 90
       50
102
RTVSPost2010PropOp46
 70
     1
102
RTVSPost2010Prop47
 90
       50
102
RTVSPost2010PropOp47
 70
     1
102
RTVSPost2010Prop48
 90
       50
102
RTVSPost2010PropOp48
 70
     1
102
RTVSPost2010Prop49
280
     0
102
RTVSPost2010PropOp49
 70
     1
102
RTVSPost2010Prop50
 90
       50
102
RTVSPost2010PropOp50
 70
     1
102
RTVSPost2010Prop51ColorIndex
 90
      256
102
RTVSPost2010Prop51ColorRGB
 90
-16777216
102
RTVSPost2010PropOp51
 70
     0
102
RTVSPost2010Prop52
140
1.0
102
RTVSPost2010PropOp52
 70
     0
102
RTVSPost2010Prop53
 90
        2
102
RTVSPost2010PropOp53
 70
     1
102
RTVSPost2010Prop54
  1
strokes_ogs.tif
102
RTVSPost2010PropOp54
 70
     1
102
RTVSPost2010Prop55
280
     0
102
RTVSPost2010PropOp55
 70
     1
102
RTVSPost2010Prop56
140
1.0
102
RTVSPost2010PropOp56
 70
     1
102
RTVSPost2010Prop57
140
1.0
102
RTVSPost2010PropOp57
 70
     1
102
RTVSPropertyOp0
 70
     1
102
RTVSPropertyOp1
 70
     1
102
RTVSPropertyOp2
 70
     1
102
RTVSPropertyOp3
 70
     1
102
RTVSPropertyOp4
 70
     1
102
RTVSPropertyOp5
 70
     1
102
RTVSPropertyOp6
 70
     1
102
RTVSPropertyOp7
 70
     1
102
RTVSPropertyOp8
 70
     1
102
RTVSPropertyOp9
 70
     1
102
RTVSPropertyOp10
 70
     1
102
RTVSPropertyOp11
 70
     1
102
RTVSPropertyOp12
 70
     1
102
RTVSPropertyOp13
 70
     1
102
RTVSPropertyOp14
 70
     1
102
RTVSPropertyOp15
 70
     1
102
RTVSPropertyOp16
 70
     1
102
RTVSPropertyOp17
 70
     1
102
RTVSPropertyOp18
 70
     1
102
RTVSPropertyOp19
 70
     1
102
RTVSPropertyOp20
 70
     1
102
RTVSPropertyOp21
 70
     1
102
RTVSPropertyOp22
 70
     1
102
RTVSPropertyOp23
 70
     1
102
RTVSPropertyOp24
 70
     1
102
RTVSPropertyOp25
 70
     1
102
RTVSPropertyOp26
 70
     1
102
RTVSPropertyOp27
 70
     1
102
RTVSPropertyOp28
 70
     1
102
RTVSPropertyOp29
 70
     1
102
RTVSPropertyOp30
 70
     1
102
RTVSPropertyOp31
 70
     1
102
RTVSPropertyOp32
 70
     1
102
RTVSPropertyOp33
 70
     1
102
RTVSPropertyOp34
 70
     1
102
RTVSPropertyOp35
 70
     1
102
RTVSPropertyOp36
 70
     1
102
RTVSPropertyOp37
 70
     1
102
RTVSPropertyOp38
 70
     1
102
RTVSPropertyOp39
 70
     1
102
RTVSPropertyOp40
 70
     1
102
RTVSPropertyOp41
 70
     1
102
RTVSPropertyOp42
 70
     1
102
RTVSPropertyOp43
 70
     1
102
RTVSPropertyOp44
 70
     1
102
RTVSPropertyOp45
 70
     1
102
RTVSPropertyOp46
 70
     1
102
RTVSPropertyOp47
 70
     1
102
RTVSPropertyOp48
 70
     1
102
RTVSPropertyOp49
 70
     1
102
RTVSPropertyOp50
 70
     1
102
RTVSPropertyOp51
 70
     0
102
RTVSPropertyOp52
 70
     0
102
RTVSPropertyOp53
 70
     1
102
RTVSPropertyOp54
 70
     1
102
RTVSPropertyOp55
 70
     1
102
RTVSPropertyOp56
 70
     1
102
RTVSPropertyOp57
 70
     1
102
RTVSPropertyOp58
 70
     1
102
RTVSPropertyOp59
 70
     1
102
RTVSPropertyOp60
 70
     1
102
RTVSPropertyOp61
 70
     1
102
RTVSPropertyOp62
 70
     1
  0
XRECORD
  5
2653
102
{ACAD_REACTORS
330
2652
102
}
330
2652
100
AcDbXrecord
280
     1
102
RTVSPost2010Prop28
280
     0
102
RTVSPost2010PropOp28
 70
     1
102
RTVSPost2010Prop29
280
     1
102
RTVSPost2010PropOp29
 70
     1
102
RTVSPost2010Prop30
280
     1
102
RTVSPost2010PropOp30
 70
     1
102
RTVSPost2010Prop31
280
     0
102
RTVSPost2010PropOp31
 70
     1
102
RTVSPost2010Prop32
280
     0
102
RTVSPost2010PropOp32
 70
     1
102
RTVSPost2010Prop33
280
     0
102
RTVSPost2010PropOp33
 70
     1
102
RTVSPost2010Prop34
280
     0
102
RTVSPost2010PropOp34
 70
     1
102
RTVSPost2010Prop35
280
     0
102
RTVSPost2010PropOp35
 70
     1
102
RTVSPost2010Prop36
280
     0
102
RTVSPost2010PropOp36
 70
     1
102
RTVSPost2010Prop37
 90
       50
102
RTVSPost2010PropOp37
 70
     1
102
RTVSPost2010Prop38
140
0.0
102
RTVSPost2010PropOp38
 70
     1
102
RTVSPost2010Prop39
140
1.0
102
RTVSPost2010PropOp39
 70
     1
102
RTVSPost2010Prop40
 90
        0
102
RTVSPost2010PropOp40
 70
     1
102
RTVSPost2010Prop41ColorIndex
 90
       18
102
RTVSPost2010Prop41ColorRGB
 90
        0
102
RTVSPost2010PropOp41
 70
     1
102
RTVSPost2010Prop42
 90
       50
102
RTVSPost2010PropOp42
 70
     1
102
RTVSPost2010Prop43
 90
        3
102
RTVSPost2010PropOp43
 70
     1
102
RTVSPost2010Prop44ColorIndex
 90
        5
102
RTVSPost2010Prop44ColorRGB
 90
      255
102
RTVSPost2010PropOp44
 70
     1
102
RTVSPost2010Prop45
280
     0
102
RTVSPost2010PropOp45
 70
     1
102
RTVSPost2010Prop46
 90
       50
102
RTVSPost2010PropOp46
 70
     1
102
RTVSPost2010Prop47
 90
       50
102
RTVSPost2010PropOp47
 70
     1
102
RTVSPost2010Prop48
 90
       50
102
RTVSPost2010PropOp48
 70
     1
102
RTVSPost2010Prop49
280
     0
102
RTVSPost2010PropOp49
 70
     1
102
RTVSPost2010Prop50
 90
       50
102
RTVSPost2010PropOp50
 70
     1
102
RTVSPost2010Prop51ColorIndex
 90
      256
102
RTVSPost2010Prop51ColorRGB
 90
-16777216
102
RTVSPost2010PropOp51
 70
     0
102
RTVSPost2010Prop52
140
1.0
102
RTVSPost2010PropOp52
 70
     0
102
RTVSPost2010Prop53
 90
        2
102
RTVSPost2010PropOp53
 70
     1
102
RTVSPost2010Prop54
  1
strokes_ogs.tif
102
RTVSPost2010PropOp54
 70
     1
102
RTVSPost2010Prop55
280
     0
102
RTVSPost2010PropOp55
 70
     1
102
RTVSPost2010Prop56
140
1.0
102
RTVSPost2010PropOp56
 70
     1
102
RTVSPost2010Prop57
140
1.0
102
RTVSPost2010PropOp57
 70
     1
102
RTVSPropertyOp0
 70
     0
102
RTVSPropertyOp1
 70
     0
102
RTVSPropertyOp2
 70
     0
102
RTVSPropertyOp3
 70
     0
102
RTVSPropertyOp4
 70
     0
102
RTVSPropertyOp5
 70
     0
102
RTVSPropertyOp6
 70
     0
102
RTVSPropertyOp7
 70
     0
102
RTVSPropertyOp8
 70
     0
102
RTVSPropertyOp9
 70
     0
102
RTVSPropertyOp10
 70
     0
102
RTVSPropertyOp11
 70
     0
102
RTVSPropertyOp12
 70
     0
102
RTVSPropertyOp13
 70
     0
102
RTVSPropertyOp14
 70
     2
102
RTVSPropertyOp15
 70
     0
102
RTVSPropertyOp16
 70
     0
102
RTVSPropertyOp17
 70
     0
102
RTVSPropertyOp18
 70
     0
102
RTVSPropertyOp19
 70
     0
102
RTVSPropertyOp20
 70
     0
102
RTVSPropertyOp21
 70
     0
102
RTVSPropertyOp22
 70
     0
102
RTVSPropertyOp23
 70
     0
102
RTVSPropertyOp24
 70
     0
102
RTVSPropertyOp25
 70
     0
102
RTVSPropertyOp26
 70
     0
102
RTVSPropertyOp27
 70
     0
102
RTVSPropertyOp28
 70
     1
102
RTVSPropertyOp29
 70
     1
102
RTVSPropertyOp30
 70
     1
102
RTVSPropertyOp31
 70
     1
102
RTVSPropertyOp32
 70
     1
102
RTVSPropertyOp33
 70
     1
102
RTVSPropertyOp34
 70
     1
102
RTVSPropertyOp35
 70
     1
102
RTVSPropertyOp36
 70
     1
102
RTVSPropertyOp37
 70
     1
102
RTVSPropertyOp38
 70
     1
102
RTVSPropertyOp39
 70
     1
102
RTVSPropertyOp40
 70
     1
102
RTVSPropertyOp41
 70
     1
102
RTVSPropertyOp42
 70
     1
102
RTVSPropertyOp43
 70
     1
102
RTVSPropertyOp44
 70
     1
102
RTVSPropertyOp45
 70
     1
102
RTVSPropertyOp46
 70
     1
102
RTVSPropertyOp47
 70
     1
102
RTVSPropertyOp48
 70
     1
102
RTVSPropertyOp49
 70
     1
102
RTVSPropertyOp50
 70
     1
102
RTVSPropertyOp51
 70
     0
102
RTVSPropertyOp52
 70
     0
102
RTVSPropertyOp53
 70
     1
102
RTVSPropertyOp54
 70
     1
102
RTVSPropertyOp55
 70
     1
102
RTVSPropertyOp56
 70
     1
102
RTVSPropertyOp57
 70
     1
102
RTVSPropertyOp58
 70
     1
102
RTVSPropertyOp59
 70
     1
102
RTVSPropertyOp60
 70
     1
102
RTVSPropertyOp61
 70
     1
102
RTVSPropertyOp62
 70
     1
  0
XRECORD
  5
2641
102
{ACAD_REACTORS
330
2640
102
}
330
2640
100
AcDbXrecord
280
     1
102
RTVSPost2010Prop28
280
     0
102
RTVSPost2010PropOp28
 70
     1
102
RTVSPost2010Prop29
280
     1
102
RTVSPost2010PropOp29
 70
     1
102
RTVSPost2010Prop30
280
     1
102
RTVSPost2010PropOp30
 70
     1
102
RTVSPost2010Prop31
280
     0
102
RTVSPost2010PropOp31
 70
     1
102
RTVSPost2010Prop32
280
     0
102
RTVSPost2010PropOp32
 70
     1
102
RTVSPost2010Prop33
280
     0
102
RTVSPost2010PropOp33
 70
     1
102
RTVSPost2010Prop34
280
     0
102
RTVSPost2010PropOp34
 70
     1
102
RTVSPost2010Prop35
280
     0
102
RTVSPost2010PropOp35
 70
     1
102
RTVSPost2010Prop36
280
     0
102
RTVSPost2010PropOp36
 70
     1
102
RTVSPost2010Prop37
 90
       50
102
RTVSPost2010PropOp37
 70
     1
102
RTVSPost2010Prop38
140
0.0
102
RTVSPost2010PropOp38
 70
     1
102
RTVSPost2010Prop39
140
1.0
102
RTVSPost2010PropOp39
 70
     1
102
RTVSPost2010Prop40
 90
        0
102
RTVSPost2010PropOp40
 70
     1
102
RTVSPost2010Prop41ColorIndex
 90
       18
102
RTVSPost2010Prop41ColorRGB
 90
        0
102
RTVSPost2010PropOp41
 70
     1
102
RTVSPost2010Prop42
 90
       50
102
RTVSPost2010PropOp42
 70
     1
102
RTVSPost2010Prop43
 90
        3
102
RTVSPost2010PropOp43
 70
     1
102
RTVSPost2010Prop44ColorIndex
 90
        5
102
RTVSPost2010Prop44ColorRGB
 90
      255
102
RTVSPost2010PropOp44
 70
     1
102
RTVSPost2010Prop45
280
     0
102
RTVSPost2010PropOp45
 70
     1
102
RTVSPost2010Prop46
 90
       50
102
RTVSPost2010PropOp46
 70
     1
102
RTVSPost2010Prop47
 90
       50
102
RTVSPost2010PropOp47
 70
     1
102
RTVSPost2010Prop48
 90
       50
102
RTVSPost2010PropOp48
 70
     1
102
RTVSPost2010Prop49
280
     0
102
RTVSPost2010PropOp49
 70
     1
102
RTVSPost2010Prop50
 90
       50
102
RTVSPost2010PropOp50
 70
     1
102
RTVSPost2010Prop51ColorIndex
 90
      256
102
RTVSPost2010Prop51ColorRGB
 90
-16777216
102
RTVSPost2010PropOp51
 70
     0
102
RTVSPost2010Prop52
140
1.0
102
RTVSPost2010PropOp52
 70
     0
102
RTVSPost2010Prop53
 90
        2
102
RTVSPost2010PropOp53
 70
     1
102
RTVSPost2010Prop54
  1
strokes_ogs.tif
102
RTVSPost2010PropOp54
 70
     1
102
RTVSPost2010Prop55
280
     0
102
RTVSPost2010PropOp55
 70
     1
102
RTVSPost2010Prop56
140
1.0
102
RTVSPost2010PropOp56
 70
     1
102
RTVSPost2010Prop57
140
1.0
102
RTVSPost2010PropOp57
 70
     1
102
RTVSPropertyOp0
 70
     1
102
RTVSPropertyOp1
 70
     1
102
RTVSPropertyOp2
 70
     1
102
RTVSPropertyOp3
 70
     1
102
RTVSPropertyOp4
 70
     1
102
RTVSPropertyOp5
 70
     1
102
RTVSPropertyOp6
 70
     1
102
RTVSPropertyOp7
 70
     1
102
RTVSPropertyOp8
 70
     1
102
RTVSPropertyOp9
 70
     1
102
RTVSPropertyOp10
 70
     1
102
RTVSPropertyOp11
 70
     1
102
RTVSPropertyOp12
 70
     1
102
RTVSPropertyOp13
 70
     1
102
RTVSPropertyOp14
 70
     1
102
RTVSPropertyOp15
 70
     1
102
RTVSPropertyOp16
 70
     1
102
RTVSPropertyOp17
 70
     1
102
RTVSPropertyOp18
 70
     1
102
RTVSPropertyOp19
 70
     1
102
RTVSPropertyOp20
 70
     1
102
RTVSPropertyOp21
 70
     1
102
RTVSPropertyOp22
 70
     1
102
RTVSPropertyOp23
 70
     1
102
RTVSPropertyOp24
 70
     1
102
RTVSPropertyOp25
 70
     1
102
RTVSPropertyOp26
 70
     1
102
RTVSPropertyOp27
 70
     1
102
RTVSPropertyOp28
 70
     1
102
RTVSPropertyOp29
 70
     1
102
RTVSPropertyOp30
 70
     1
102
RTVSPropertyOp31
 70
     1
102
RTVSPropertyOp32
 70
     1
102
RTVSPropertyOp33
 70
     1
102
RTVSPropertyOp34
 70
     1
102
RTVSPropertyOp35
 70
     1
102
RTVSPropertyOp36
 70
     1
102
RTVSPropertyOp37
 70
     1
102
RTVSPropertyOp38
 70
     1
102
RTVSPropertyOp39
 70
     1
102
RTVSPropertyOp40
 70
     1
102
RTVSPropertyOp41
 70
     1
102
RTVSPropertyOp42
 70
     1
102
RTVSPropertyOp43
 70
     1
102
RTVSPropertyOp44
 70
     1
102
RTVSPropertyOp45
 70
     1
102
RTVSPropertyOp46
 70
     1
102
RTVSPropertyOp47
 70
     1
102
RTVSPropertyOp48
 70
     1
102
RTVSPropertyOp49
 70
     1
102
RTVSPropertyOp50
 70
     1
102
RTVSPropertyOp51
 70
     0
102
RTVSPropertyOp52
 70
     0
102
RTVSPropertyOp53
 70
     1
102
RTVSPropertyOp54
 70
     1
102
RTVSPropertyOp55
 70
     1
102
RTVSPropertyOp56
 70
     1
102
RTVSPropertyOp57
 70
     1
102
RTVSPropertyOp58
 70
     1
102
RTVSPropertyOp59
 70
     1
102
RTVSPropertyOp60
 70
     1
102
RTVSPropertyOp61
 70
     1
102
RTVSPropertyOp62
 70
     1
  0
XRECORD
  5
265F
102
{ACAD_REACTORS
330
265E
102
}
330
265E
100
AcDbXrecord
280
     1
102
RTVSPost2010Prop28
280
     0
102
RTVSPost2010PropOp28
 70
     1
102
RTVSPost2010Prop29
280
     1
102
RTVSPost2010PropOp29
 70
     1
102
RTVSPost2010Prop30
280
     1
102
RTVSPost2010PropOp30
 70
     1
102
RTVSPost2010Prop31
280
     0
102
RTVSPost2010PropOp31
 70
     1
102
RTVSPost2010Prop32
280
     0
102
RTVSPost2010PropOp32
 70
     1
102
RTVSPost2010Prop33
280
     0
102
RTVSPost2010PropOp33
 70
     1
102
RTVSPost2010Prop34
280
     0
102
RTVSPost2010PropOp34
 70
     1
102
RTVSPost2010Prop35
280
     0
102
RTVSPost2010PropOp35
 70
     1
102
RTVSPost2010Prop36
280
     0
102
RTVSPost2010PropOp36
 70
     1
102
RTVSPost2010Prop37
 90
       50
102
RTVSPost2010PropOp37
 70
     1
102
RTVSPost2010Prop38
140
0.0
102
RTVSPost2010PropOp38
 70
     1
102
RTVSPost2010Prop39
140
1.0
102
RTVSPost2010PropOp39
 70
     1
102
RTVSPost2010Prop40
 90
        0
102
RTVSPost2010PropOp40
 70
     1
102
RTVSPost2010Prop41ColorIndex
 90
       18
102
RTVSPost2010Prop41ColorRGB
 90
        0
102
RTVSPost2010PropOp41
 70
     1
102
RTVSPost2010Prop42
 90
       50
102
RTVSPost2010PropOp42
 70
     1
102
RTVSPost2010Prop43
 90
        3
102
RTVSPost2010PropOp43
 70
     1
102
RTVSPost2010Prop44ColorIndex
 90
        5
102
RTVSPost2010Prop44ColorRGB
 90
      255
102
RTVSPost2010PropOp44
 70
     1
102
RTVSPost2010Prop45
280
     0
102
RTVSPost2010PropOp45
 70
     1
102
RTVSPost2010Prop46
 90
       50
102
RTVSPost2010PropOp46
 70
     1
102
RTVSPost2010Prop47
 90
       50
102
RTVSPost2010PropOp47
 70
     1
102
RTVSPost2010Prop48
 90
       50
102
RTVSPost2010PropOp48
 70
     1
102
RTVSPost2010Prop49
280
     0
102
RTVSPost2010PropOp49
 70
     1
102
RTVSPost2010Prop50
 90
       50
102
RTVSPost2010PropOp50
 70
     1
102
RTVSPost2010Prop51ColorIndex
 90
      256
102
RTVSPost2010Prop51ColorRGB
 90
-16777216
102
RTVSPost2010PropOp51
 70
     0
102
RTVSPost2010Prop52
140
1.0
102
RTVSPost2010PropOp52
 70
     0
102
RTVSPost2010Prop53
 90
        2
102
RTVSPost2010PropOp53
 70
     1
102
RTVSPost2010Prop54
  1
strokes_ogs.tif
102
RTVSPost2010PropOp54
 70
     1
102
RTVSPost2010Prop55
280
     0
102
RTVSPost2010PropOp55
 70
     1
102
RTVSPost2010Prop56
140
1.0
102
RTVSPost2010PropOp56
 70
     1
102
RTVSPost2010Prop57
140
1.0
102
RTVSPost2010PropOp57
 70
     1
102
RTVSPropertyOp0
 70
     1
102
RTVSPropertyOp1
 70
     1
102
RTVSPropertyOp2
 70
     1
102
RTVSPropertyOp3
 70
     1
102
RTVSPropertyOp4
 70
     1
102
RTVSPropertyOp5
 70
     1
102
RTVSPropertyOp6
 70
     1
102
RTVSPropertyOp7
 70
     1
102
RTVSPropertyOp8
 70
     1
102
RTVSPropertyOp9
 70
     1
102
RTVSPropertyOp10
 70
     1
102
RTVSPropertyOp11
 70
     1
102
RTVSPropertyOp12
 70
     1
102
RTVSPropertyOp13
 70
     1
102
RTVSPropertyOp14
 70
     1
102
RTVSPropertyOp15
 70
     1
102
RTVSPropertyOp16
 70
     1
102
RTVSPropertyOp17
 70
     1
102
RTVSPropertyOp18
 70
     1
102
RTVSPropertyOp19
 70
     1
102
RTVSPropertyOp20
 70
     1
102
RTVSPropertyOp21
 70
     1
102
RTVSPropertyOp22
 70
     1
102
RTVSPropertyOp23
 70
     1
102
RTVSPropertyOp24
 70
     1
102
RTVSPropertyOp25
 70
     1
102
RTVSPropertyOp26
 70
     1
102
RTVSPropertyOp27
 70
     1
102
RTVSPropertyOp28
 70
     1
102
RTVSPropertyOp29
 70
     1
102
RTVSPropertyOp30
 70
     1
102
RTVSPropertyOp31
 70
     1
102
RTVSPropertyOp32
 70
     1
102
RTVSPropertyOp33
 70
     1
102
RTVSPropertyOp34
 70
     1
102
RTVSPropertyOp35
 70
     1
102
RTVSPropertyOp36
 70
     1
102
RTVSPropertyOp37
 70
     1
102
RTVSPropertyOp38
 70
     1
102
RTVSPropertyOp39
 70
     1
102
RTVSPropertyOp40
 70
     1
102
RTVSPropertyOp41
 70
     1
102
RTVSPropertyOp42
 70
     1
102
RTVSPropertyOp43
 70
     1
102
RTVSPropertyOp44
 70
     1
102
RTVSPropertyOp45
 70
     1
102
RTVSPropertyOp46
 70
     1
102
RTVSPropertyOp47
 70
     1
102
RTVSPropertyOp48
 70
     1
102
RTVSPropertyOp49
 70
     1
102
RTVSPropertyOp50
 70
     1
102
RTVSPropertyOp51
 70
     0
102
RTVSPropertyOp52
 70
     0
102
RTVSPropertyOp53
 70
     1
102
RTVSPropertyOp54
 70
     1
102
RTVSPropertyOp55
 70
     1
102
RTVSPropertyOp56
 70
     1
102
RTVSPropertyOp57
 70
     1
102
RTVSPropertyOp58
 70
     1
102
RTVSPropertyOp59
 70
     1
102
RTVSPropertyOp60
 70
     1
102
RTVSPropertyOp61
 70
     1
102
RTVSPropertyOp62
 70
     1
  0
XRECORD
  5
265D
102
{ACAD_REACTORS
330
265C
102
}
330
265C
100
AcDbXrecord
280
     1
102
RTVSPost2010Prop28
280
     0
102
RTVSPost2010PropOp28
 70
     1
102
RTVSPost2010Prop29
280
     1
102
RTVSPost2010PropOp29
 70
     1
102
RTVSPost2010Prop30
280
     1
102
RTVSPost2010PropOp30
 70
     1
102
RTVSPost2010Prop31
280
     0
102
RTVSPost2010PropOp31
 70
     1
102
RTVSPost2010Prop32
280
     0
102
RTVSPost2010PropOp32
 70
     1
102
RTVSPost2010Prop33
280
     0
102
RTVSPost2010PropOp33
 70
     1
102
RTVSPost2010Prop34
280
     0
102
RTVSPost2010PropOp34
 70
     1
102
RTVSPost2010Prop35
280
     0
102
RTVSPost2010PropOp35
 70
     1
102
RTVSPost2010Prop36
280
     0
102
RTVSPost2010PropOp36
 70
     1
102
RTVSPost2010Prop37
 90
       50
102
RTVSPost2010PropOp37
 70
     1
102
RTVSPost2010Prop38
140
0.0
102
RTVSPost2010PropOp38
 70
     1
102
RTVSPost2010Prop39
140
1.0
102
RTVSPost2010PropOp39
 70
     1
102
RTVSPost2010Prop40
 90
        0
102
RTVSPost2010PropOp40
 70
     1
102
RTVSPost2010Prop41ColorIndex
 90
       18
102
RTVSPost2010Prop41ColorRGB
 90
        0
102
RTVSPost2010PropOp41
 70
     1
102
RTVSPost2010Prop42
 90
       50
102
RTVSPost2010PropOp42
 70
     1
102
RTVSPost2010Prop43
 90
        3
102
RTVSPost2010PropOp43
 70
     1
102
RTVSPost2010Prop44ColorIndex
 90
        5
102
RTVSPost2010Prop44ColorRGB
 90
      255
102
RTVSPost2010PropOp44
 70
     1
102
RTVSPost2010Prop45
280
     0
102
RTVSPost2010PropOp45
 70
     1
102
RTVSPost2010Prop46
 90
       50
102
RTVSPost2010PropOp46
 70
     1
102
RTVSPost2010Prop47
 90
       50
102
RTVSPost2010PropOp47
 70
     1
102
RTVSPost2010Prop48
 90
       50
102
RTVSPost2010PropOp48
 70
     1
102
RTVSPost2010Prop49
280
     0
102
RTVSPost2010PropOp49
 70
     1
102
RTVSPost2010Prop50
 90
       50
102
RTVSPost2010PropOp50
 70
     1
102
RTVSPost2010Prop51ColorIndex
 90
      256
102
RTVSPost2010Prop51ColorRGB
 90
-16777216
102
RTVSPost2010PropOp51
 70
     0
102
RTVSPost2010Prop52
140
1.0
102
RTVSPost2010PropOp52
 70
     0
102
RTVSPost2010Prop53
 90
        2
102
RTVSPost2010PropOp53
 70
     1
102
RTVSPost2010Prop54
  1
strokes_ogs.tif
102
RTVSPost2010PropOp54
 70
     1
102
RTVSPost2010Prop55
280
     0
102
RTVSPost2010PropOp55
 70
     1
102
RTVSPost2010Prop56
140
1.0
102
RTVSPost2010PropOp56
 70
     1
102
RTVSPost2010Prop57
140
1.0
102
RTVSPost2010PropOp57
 70
     1
102
RTVSPropertyOp0
 70
     1
102
RTVSPropertyOp1
 70
     1
102
RTVSPropertyOp2
 70
     1
102
RTVSPropertyOp3
 70
     1
102
RTVSPropertyOp4
 70
     1
102
RTVSPropertyOp5
 70
     1
102
RTVSPropertyOp6
 70
     1
102
RTVSPropertyOp7
 70
     1
102
RTVSPropertyOp8
 70
     1
102
RTVSPropertyOp9
 70
     1
102
RTVSPropertyOp10
 70
     1
102
RTVSPropertyOp11
 70
     1
102
RTVSPropertyOp12
 70
     1
102
RTVSPropertyOp13
 70
     1
102
RTVSPropertyOp14
 70
     1
102
RTVSPropertyOp15
 70
     1
102
RTVSPropertyOp16
 70
     1
102
RTVSPropertyOp17
 70
     1
102
RTVSPropertyOp18
 70
     1
102
RTVSPropertyOp19
 70
     1
102
RTVSPropertyOp20
 70
     1
102
RTVSPropertyOp21
 70
     1
102
RTVSPropertyOp22
 70
     1
102
RTVSPropertyOp23
 70
     1
102
RTVSPropertyOp24
 70
     1
102
RTVSPropertyOp25
 70
     1
102
RTVSPropertyOp26
 70
     1
102
RTVSPropertyOp27
 70
     1
102
RTVSPropertyOp28
 70
     1
102
RTVSPropertyOp29
 70
     1
102
RTVSPropertyOp30
 70
     1
102
RTVSPropertyOp31
 70
     1
102
RTVSPropertyOp32
 70
     1
102
RTVSPropertyOp33
 70
     1
102
RTVSPropertyOp34
 70
     1
102
RTVSPropertyOp35
 70
     1
102
RTVSPropertyOp36
 70
     1
102
RTVSPropertyOp37
 70
     1
102
RTVSPropertyOp38
 70
     1
102
RTVSPropertyOp39
 70
     1
102
RTVSPropertyOp40
 70
     1
102
RTVSPropertyOp41
 70
     1
102
RTVSPropertyOp42
 70
     1
102
RTVSPropertyOp43
 70
     1
102
RTVSPropertyOp44
 70
     1
102
RTVSPropertyOp45
 70
     1
102
RTVSPropertyOp46
 70
     1
102
RTVSPropertyOp47
 70
     1
102
RTVSPropertyOp48
 70
     1
102
RTVSPropertyOp49
 70
     1
102
RTVSPropertyOp50
 70
     1
102
RTVSPropertyOp51
 70
     0
102
RTVSPropertyOp52
 70
     0
102
RTVSPropertyOp53
 70
     1
102
RTVSPropertyOp54
 70
     1
102
RTVSPropertyOp55
 70
     1
102
RTVSPropertyOp56
 70
     1
102
RTVSPropertyOp57
 70
     1
102
RTVSPropertyOp58
 70
     1
102
RTVSPropertyOp59
 70
     1
102
RTVSPropertyOp60
 70
     1
102
RTVSPropertyOp61
 70
     1
102
RTVSPropertyOp62
 70
     1
  0
XRECORD
  5
2657
102
{ACAD_REACTORS
330
2656
102
}
330
2656
100
AcDbXrecord
280
     1
102
RTVSPost2010Prop28
280
     0
102
RTVSPost2010PropOp28
 70
     1
102
RTVSPost2010Prop29
280
     1
102
RTVSPost2010PropOp29
 70
     1
102
RTVSPost2010Prop30
280
     1
102
RTVSPost2010PropOp30
 70
     1
102
RTVSPost2010Prop31
280
     0
102
RTVSPost2010PropOp31
 70
     1
102
RTVSPost2010Prop32
280
     0
102
RTVSPost2010PropOp32
 70
     1
102
RTVSPost2010Prop33
280
     0
102
RTVSPost2010PropOp33
 70
     1
102
RTVSPost2010Prop34
280
     0
102
RTVSPost2010PropOp34
 70
     1
102
RTVSPost2010Prop35
280
     0
102
RTVSPost2010PropOp35
 70
     1
102
RTVSPost2010Prop36
280
     0
102
RTVSPost2010PropOp36
 70
     1
102
RTVSPost2010Prop37
 90
       50
102
RTVSPost2010PropOp37
 70
     1
102
RTVSPost2010Prop38
140
0.0
102
RTVSPost2010PropOp38
 70
     1
102
RTVSPost2010Prop39
140
1.0
102
RTVSPost2010PropOp39
 70
     1
102
RTVSPost2010Prop40
 90
        0
102
RTVSPost2010PropOp40
 70
     1
102
RTVSPost2010Prop41ColorIndex
 90
       18
102
RTVSPost2010Prop41ColorRGB
 90
        0
102
RTVSPost2010PropOp41
 70
     1
102
RTVSPost2010Prop42
 90
       50
102
RTVSPost2010PropOp42
 70
     1
102
RTVSPost2010Prop43
 90
        3
102
RTVSPost2010PropOp43
 70
     1
102
RTVSPost2010Prop44ColorIndex
 90
        5
102
RTVSPost2010Prop44ColorRGB
 90
      255
102
RTVSPost2010PropOp44
 70
     1
102
RTVSPost2010Prop45
280
     0
102
RTVSPost2010PropOp45
 70
     1
102
RTVSPost2010Prop46
 90
       50
102
RTVSPost2010PropOp46
 70
     1
102
RTVSPost2010Prop47
 90
       50
102
RTVSPost2010PropOp47
 70
     1
102
RTVSPost2010Prop48
 90
       50
102
RTVSPost2010PropOp48
 70
     1
102
RTVSPost2010Prop49
280
     0
102
RTVSPost2010PropOp49
 70
     1
102
RTVSPost2010Prop50
 90
       50
102
RTVSPost2010PropOp50
 70
     1
102
RTVSPost2010Prop51ColorIndex
 90
      256
102
RTVSPost2010Prop51ColorRGB
 90
-16777216
102
RTVSPost2010PropOp51
 70
     0
102
RTVSPost2010Prop52
140
1.0
102
RTVSPost2010PropOp52
 70
     0
102
RTVSPost2010Prop53
 90
        2
102
RTVSPost2010PropOp53
 70
     1
102
RTVSPost2010Prop54
  1
strokes_ogs.tif
102
RTVSPost2010PropOp54
 70
     1
102
RTVSPost2010Prop55
280
     0
102
RTVSPost2010PropOp55
 70
     1
102
RTVSPost2010Prop56
140
1.0
102
RTVSPost2010PropOp56
 70
     1
102
RTVSPost2010Prop57
140
1.0
102
RTVSPost2010PropOp57
 70
     1
102
RTVSPropertyOp0
 70
     1
102
RTVSPropertyOp1
 70
     1
102
RTVSPropertyOp2
 70
     1
102
RTVSPropertyOp3
 70
     1
102
RTVSPropertyOp4
 70
     1
102
RTVSPropertyOp5
 70
     1
102
RTVSPropertyOp6
 70
     1
102
RTVSPropertyOp7
 70
     1
102
RTVSPropertyOp8
 70
     1
102
RTVSPropertyOp9
 70
     1
102
RTVSPropertyOp10
 70
     1
102
RTVSPropertyOp11
 70
     1
102
RTVSPropertyOp12
 70
     1
102
RTVSPropertyOp13
 70
     1
102
RTVSPropertyOp14
 70
     1
102
RTVSPropertyOp15
 70
     1
102
RTVSPropertyOp16
 70
     1
102
RTVSPropertyOp17
 70
     1
102
RTVSPropertyOp18
 70
     1
102
RTVSPropertyOp19
 70
     1
102
RTVSPropertyOp20
 70
     1
102
RTVSPropertyOp21
 70
     1
102
RTVSPropertyOp22
 70
     1
102
RTVSPropertyOp23
 70
     1
102
RTVSPropertyOp24
 70
     1
102
RTVSPropertyOp25
 70
     1
102
RTVSPropertyOp26
 70
     1
102
RTVSPropertyOp27
 70
     1
102
RTVSPropertyOp28
 70
     1
102
RTVSPropertyOp29
 70
     1
102
RTVSPropertyOp30
 70
     1
102
RTVSPropertyOp31
 70
     1
102
RTVSPropertyOp32
 70
     1
102
RTVSPropertyOp33
 70
     1
102
RTVSPropertyOp34
 70
     1
102
RTVSPropertyOp35
 70
     1
102
RTVSPropertyOp36
 70
     1
102
RTVSPropertyOp37
 70
     1
102
RTVSPropertyOp38
 70
     1
102
RTVSPropertyOp39
 70
     1
102
RTVSPropertyOp40
 70
     1
102
RTVSPropertyOp41
 70
     1
102
RTVSPropertyOp42
 70
     1
102
RTVSPropertyOp43
 70
     1
102
RTVSPropertyOp44
 70
     1
102
RTVSPropertyOp45
 70
     1
102
RTVSPropertyOp46
 70
     1
102
RTVSPropertyOp47
 70
     1
102
RTVSPropertyOp48
 70
     1
102
RTVSPropertyOp49
 70
     1
102
RTVSPropertyOp50
 70
     1
102
RTVSPropertyOp51
 70
     0
102
RTVSPropertyOp52
 70
     0
102
RTVSPropertyOp53
 70
     1
102
RTVSPropertyOp54
 70
     1
102
RTVSPropertyOp55
 70
     1
102
RTVSPropertyOp56
 70
     1
102
RTVSPropertyOp57
 70
     1
102
RTVSPropertyOp58
 70
     1
102
RTVSPropertyOp59
 70
     1
102
RTVSPropertyOp60
 70
     1
102
RTVSPropertyOp61
 70
     1
102
RTVSPropertyOp62
 70
     1
  0
XRECORD
  5
2659
102
{ACAD_REACTORS
330
2658
102
}
330
2658
100
AcDbXrecord
280
     1
102
RTVSPost2010Prop28
280
     0
102
RTVSPost2010PropOp28
 70
     1
102
RTVSPost2010Prop29
280
     1
102
RTVSPost2010PropOp29
 70
     1
102
RTVSPost2010Prop30
280
     1
102
RTVSPost2010PropOp30
 70
     1
102
RTVSPost2010Prop31
280
     0
102
RTVSPost2010PropOp31
 70
     1
102
RTVSPost2010Prop32
280
     0
102
RTVSPost2010PropOp32
 70
     1
102
RTVSPost2010Prop33
280
     0
102
RTVSPost2010PropOp33
 70
     1
102
RTVSPost2010Prop34
280
     0
102
RTVSPost2010PropOp34
 70
     1
102
RTVSPost2010Prop35
280
     0
102
RTVSPost2010PropOp35
 70
     1
102
RTVSPost2010Prop36
280
     0
102
RTVSPost2010PropOp36
 70
     1
102
RTVSPost2010Prop37
 90
       50
102
RTVSPost2010PropOp37
 70
     1
102
RTVSPost2010Prop38
140
0.0
102
RTVSPost2010PropOp38
 70
     1
102
RTVSPost2010Prop39
140
1.0
102
RTVSPost2010PropOp39
 70
     1
102
RTVSPost2010Prop40
 90
        0
102
RTVSPost2010PropOp40
 70
     1
102
RTVSPost2010Prop41ColorIndex
 90
       18
102
RTVSPost2010Prop41ColorRGB
 90
        0
102
RTVSPost2010PropOp41
 70
     1
102
RTVSPost2010Prop42
 90
       50
102
RTVSPost2010PropOp42
 70
     1
102
RTVSPost2010Prop43
 90
        3
102
RTVSPost2010PropOp43
 70
     1
102
RTVSPost2010Prop44ColorIndex
 90
        5
102
RTVSPost2010Prop44ColorRGB
 90
      255
102
RTVSPost2010PropOp44
 70
     1
102
RTVSPost2010Prop45
280
     0
102
RTVSPost2010PropOp45
 70
     1
102
RTVSPost2010Prop46
 90
       50
102
RTVSPost2010PropOp46
 70
     1
102
RTVSPost2010Prop47
 90
       50
102
RTVSPost2010PropOp47
 70
     1
102
RTVSPost2010Prop48
 90
       50
102
RTVSPost2010PropOp48
 70
     1
102
RTVSPost2010Prop49
280
     0
102
RTVSPost2010PropOp49
 70
     1
102
RTVSPost2010Prop50
 90
       50
102
RTVSPost2010PropOp50
 70
     1
102
RTVSPost2010Prop51ColorIndex
 90
      256
102
RTVSPost2010Prop51ColorRGB
 90
-16777216
102
RTVSPost2010PropOp51
 70
     0
102
RTVSPost2010Prop52
140
1.0
102
RTVSPost2010PropOp52
 70
     0
102
RTVSPost2010Prop53
 90
        2
102
RTVSPost2010PropOp53
 70
     1
102
RTVSPost2010Prop54
  1
strokes_ogs.tif
102
RTVSPost2010PropOp54
 70
     1
102
RTVSPost2010Prop55
280
     0
102
RTVSPost2010PropOp55
 70
     1
102
RTVSPost2010Prop56
140
1.0
102
RTVSPost2010PropOp56
 70
     1
102
RTVSPost2010Prop57
140
1.0
102
RTVSPost2010PropOp57
 70
     1
102
RTVSPropertyOp0
 70
     1
102
RTVSPropertyOp1
 70
     1
102
RTVSPropertyOp2
 70
     1
102
RTVSPropertyOp3
 70
     1
102
RTVSPropertyOp4
 70
     1
102
RTVSPropertyOp5
 70
     1
102
RTVSPropertyOp6
 70
     1
102
RTVSPropertyOp7
 70
     1
102
RTVSPropertyOp8
 70
     1
102
RTVSPropertyOp9
 70
     1
102
RTVSPropertyOp10
 70
     1
102
RTVSPropertyOp11
 70
     1
102
RTVSPropertyOp12
 70
     1
102
RTVSPropertyOp13
 70
     1
102
RTVSPropertyOp14
 70
     1
102
RTVSPropertyOp15
 70
     1
102
RTVSPropertyOp16
 70
     1
102
RTVSPropertyOp17
 70
     1
102
RTVSPropertyOp18
 70
     1
102
RTVSPropertyOp19
 70
     1
102
RTVSPropertyOp20
 70
     1
102
RTVSPropertyOp21
 70
     1
102
RTVSPropertyOp22
 70
     1
102
RTVSPropertyOp23
 70
     1
102
RTVSPropertyOp24
 70
     1
102
RTVSPropertyOp25
 70
     1
102
RTVSPropertyOp26
 70
     1
102
RTVSPropertyOp27
 70
     1
102
RTVSPropertyOp28
 70
     1
102
RTVSPropertyOp29
 70
     1
102
RTVSPropertyOp30
 70
     1
102
RTVSPropertyOp31
 70
     1
102
RTVSPropertyOp32
 70
     1
102
RTVSPropertyOp33
 70
     1
102
RTVSPropertyOp34
 70
     1
102
RTVSPropertyOp35
 70
     1
102
RTVSPropertyOp36
 70
     1
102
RTVSPropertyOp37
 70
     1
102
RTVSPropertyOp38
 70
     1
102
RTVSPropertyOp39
 70
     1
102
RTVSPropertyOp40
 70
     1
102
RTVSPropertyOp41
 70
     1
102
RTVSPropertyOp42
 70
     1
102
RTVSPropertyOp43
 70
     1
102
RTVSPropertyOp44
 70
     1
102
RTVSPropertyOp45
 70
     1
102
RTVSPropertyOp46
 70
     1
102
RTVSPropertyOp47
 70
     1
102
RTVSPropertyOp48
 70
     1
102
RTVSPropertyOp49
 70
     1
102
RTVSPropertyOp50
 70
     1
102
RTVSPropertyOp51
 70
     0
102
RTVSPropertyOp52
 70
     0
102
RTVSPropertyOp53
 70
     1
102
RTVSPropertyOp54
 70
     1
102
RTVSPropertyOp55
 70
     1
102
RTVSPropertyOp56
 70
     1
102
RTVSPropertyOp57
 70
     1
102
RTVSPropertyOp58
 70
     1
102
RTVSPropertyOp59
 70
     1
102
RTVSPropertyOp60
 70
     1
102
RTVSPropertyOp61
 70
     1
102
RTVSPropertyOp62
 70
     1
  0
XRECORD
  5
2647
102
{ACAD_REACTORS
330
2646
102
}
330
2646
100
AcDbXrecord
280
     1
102
RTVSPost2010Prop28
280
     0
102
RTVSPost2010PropOp28
 70
     1
102
RTVSPost2010Prop29
280
     1
102
RTVSPost2010PropOp29
 70
     1
102
RTVSPost2010Prop30
280
     1
102
RTVSPost2010PropOp30
 70
     1
102
RTVSPost2010Prop31
280
     0
102
RTVSPost2010PropOp31
 70
     1
102
RTVSPost2010Prop32
280
     0
102
RTVSPost2010PropOp32
 70
     1
102
RTVSPost2010Prop33
280
     0
102
RTVSPost2010PropOp33
 70
     1
102
RTVSPost2010Prop34
280
     0
102
RTVSPost2010PropOp34
 70
     1
102
RTVSPost2010Prop35
280
     0
102
RTVSPost2010PropOp35
 70
     1
102
RTVSPost2010Prop36
280
     0
102
RTVSPost2010PropOp36
 70
     1
102
RTVSPost2010Prop37
 90
       50
102
RTVSPost2010PropOp37
 70
     1
102
RTVSPost2010Prop38
140
0.0
102
RTVSPost2010PropOp38
 70
     1
102
RTVSPost2010Prop39
140
1.0
102
RTVSPost2010PropOp39
 70
     1
102
RTVSPost2010Prop40
 90
        0
102
RTVSPost2010PropOp40
 70
     1
102
RTVSPost2010Prop41ColorIndex
 90
       18
102
RTVSPost2010Prop41ColorRGB
 90
        0
102
RTVSPost2010PropOp41
 70
     1
102
RTVSPost2010Prop42
 90
       50
102
RTVSPost2010PropOp42
 70
     1
102
RTVSPost2010Prop43
 90
        3
102
RTVSPost2010PropOp43
 70
     1
102
RTVSPost2010Prop44ColorIndex
 90
        5
102
RTVSPost2010Prop44ColorRGB
 90
      255
102
RTVSPost2010PropOp44
 70
     1
102
RTVSPost2010Prop45
280
     0
102
RTVSPost2010PropOp45
 70
     1
102
RTVSPost2010Prop46
 90
       50
102
RTVSPost2010PropOp46
 70
     1
102
RTVSPost2010Prop47
 90
       50
102
RTVSPost2010PropOp47
 70
     1
102
RTVSPost2010Prop48
 90
       50
102
RTVSPost2010PropOp48
 70
     1
102
RTVSPost2010Prop49
280
     0
102
RTVSPost2010PropOp49
 70
     1
102
RTVSPost2010Prop50
 90
       50
102
RTVSPost2010PropOp50
 70
     1
102
RTVSPost2010Prop51ColorIndex
 90
      256
102
RTVSPost2010Prop51ColorRGB
 90
-16777216
102
RTVSPost2010PropOp51
 70
     0
102
RTVSPost2010Prop52
140
1.0
102
RTVSPost2010PropOp52
 70
     0
102
RTVSPost2010Prop53
 90
        2
102
RTVSPost2010PropOp53
 70
     1
102
RTVSPost2010Prop54
  1
strokes_ogs.tif
102
RTVSPost2010PropOp54
 70
     1
102
RTVSPost2010Prop55
280
     0
102
RTVSPost2010PropOp55
 70
     1
102
RTVSPost2010Prop56
140
1.0
102
RTVSPost2010PropOp56
 70
     1
102
RTVSPost2010Prop57
140
1.0
102
RTVSPost2010PropOp57
 70
     1
102
RTVSPropertyOp0
 70
     1
102
RTVSPropertyOp1
 70
     1
102
RTVSPropertyOp2
 70
     1
102
RTVSPropertyOp3
 70
     1
102
RTVSPropertyOp4
 70
     1
102
RTVSPropertyOp5
 70
     1
102
RTVSPropertyOp6
 70
     1
102
RTVSPropertyOp7
 70
     1
102
RTVSPropertyOp8
 70
     1
102
RTVSPropertyOp9
 70
     1
102
RTVSPropertyOp10
 70
     1
102
RTVSPropertyOp11
 70
     1
102
RTVSPropertyOp12
 70
     1
102
RTVSPropertyOp13
 70
     1
102
RTVSPropertyOp14
 70
     1
102
RTVSPropertyOp15
 70
     1
102
RTVSPropertyOp16
 70
     1
102
RTVSPropertyOp17
 70
     1
102
RTVSPropertyOp18
 70
     1
102
RTVSPropertyOp19
 70
     1
102
RTVSPropertyOp20
 70
     1
102
RTVSPropertyOp21
 70
     1
102
RTVSPropertyOp22
 70
     1
102
RTVSPropertyOp23
 70
     1
102
RTVSPropertyOp24
 70
     1
102
RTVSPropertyOp25
 70
     1
102
RTVSPropertyOp26
 70
     1
102
RTVSPropertyOp27
 70
     1
102
RTVSPropertyOp28
 70
     1
102
RTVSPropertyOp29
 70
     1
102
RTVSPropertyOp30
 70
     1
102
RTVSPropertyOp31
 70
     1
102
RTVSPropertyOp32
 70
     1
102
RTVSPropertyOp33
 70
     1
102
RTVSPropertyOp34
 70
     1
102
RTVSPropertyOp35
 70
     1
102
RTVSPropertyOp36
 70
     1
102
RTVSPropertyOp37
 70
     1
102
RTVSPropertyOp38
 70
     1
102
RTVSPropertyOp39
 70
     1
102
RTVSPropertyOp40
 70
     1
102
RTVSPropertyOp41
 70
     1
102
RTVSPropertyOp42
 70
     1
102
RTVSPropertyOp43
 70
     1
102
RTVSPropertyOp44
 70
     1
102
RTVSPropertyOp45
 70
     1
102
RTVSPropertyOp46
 70
     1
102
RTVSPropertyOp47
 70
     1
102
RTVSPropertyOp48
 70
     1
102
RTVSPropertyOp49
 70
     1
102
RTVSPropertyOp50
 70
     1
102
RTVSPropertyOp51
 70
     0
102
RTVSPropertyOp52
 70
     0
102
RTVSPropertyOp53
 70
     1
102
RTVSPropertyOp54
 70
     1
102
RTVSPropertyOp55
 70
     1
102
RTVSPropertyOp56
 70
     1
102
RTVSPropertyOp57
 70
     1
102
RTVSPropertyOp58
 70
     1
102
RTVSPropertyOp59
 70
     1
102
RTVSPropertyOp60
 70
     1
102
RTVSPropertyOp61
 70
     1
102
RTVSPropertyOp62
 70
     1
  0
XRECORD
  5
263B
102
{ACAD_REACTORS
330
263A
102
}
330
263A
100
AcDbXrecord
280
     1
102
RTVSPost2010Prop28
280
     0
102
RTVSPost2010PropOp28
 70
     1
102
RTVSPost2010Prop29
280
     1
102
RTVSPost2010PropOp29
 70
     1
102
RTVSPost2010Prop30
280
     1
102
RTVSPost2010PropOp30
 70
     1
102
RTVSPost2010Prop31
280
     0
102
RTVSPost2010PropOp31
 70
     1
102
RTVSPost2010Prop32
280
     0
102
RTVSPost2010PropOp32
 70
     1
102
RTVSPost2010Prop33
280
     0
102
RTVSPost2010PropOp33
 70
     1
102
RTVSPost2010Prop34
280
     0
102
RTVSPost2010PropOp34
 70
     1
102
RTVSPost2010Prop35
280
     0
102
RTVSPost2010PropOp35
 70
     1
102
RTVSPost2010Prop36
280
     0
102
RTVSPost2010PropOp36
 70
     1
102
RTVSPost2010Prop37
 90
       50
102
RTVSPost2010PropOp37
 70
     1
102
RTVSPost2010Prop38
140
0.0
102
RTVSPost2010PropOp38
 70
     1
102
RTVSPost2010Prop39
140
1.0
102
RTVSPost2010PropOp39
 70
     1
102
RTVSPost2010Prop40
 90
        0
102
RTVSPost2010PropOp40
 70
     1
102
RTVSPost2010Prop41ColorIndex
 90
       18
102
RTVSPost2010Prop41ColorRGB
 90
        0
102
RTVSPost2010PropOp41
 70
     1
102
RTVSPost2010Prop42
 90
       50
102
RTVSPost2010PropOp42
 70
     1
102
RTVSPost2010Prop43
 90
        3
102
RTVSPost2010PropOp43
 70
     1
102
RTVSPost2010Prop44ColorIndex
 90
        5
102
RTVSPost2010Prop44ColorRGB
 90
      255
102
RTVSPost2010PropOp44
 70
     1
102
RTVSPost2010Prop45
280
     0
102
RTVSPost2010PropOp45
 70
     1
102
RTVSPost2010Prop46
 90
       50
102
RTVSPost2010PropOp46
 70
     1
102
RTVSPost2010Prop47
 90
       50
102
RTVSPost2010PropOp47
 70
     1
102
RTVSPost2010Prop48
 90
       50
102
RTVSPost2010PropOp48
 70
     1
102
RTVSPost2010Prop49
280
     0
102
RTVSPost2010PropOp49
 70
     1
102
RTVSPost2010Prop50
 90
       50
102
RTVSPost2010PropOp50
 70
     1
102
RTVSPost2010Prop51ColorIndex
 90
      256
102
RTVSPost2010Prop51ColorRGB
 90
-16777216
102
RTVSPost2010PropOp51
 70
     0
102
RTVSPost2010Prop52
140
1.0
102
RTVSPost2010PropOp52
 70
     0
102
RTVSPost2010Prop53
 90
        2
102
RTVSPost2010PropOp53
 70
     1
102
RTVSPost2010Prop54
  1
strokes_ogs.tif
102
RTVSPost2010PropOp54
 70
     1
102
RTVSPost2010Prop55
280
     0
102
RTVSPost2010PropOp55
 70
     1
102
RTVSPost2010Prop56
140
1.0
102
RTVSPost2010PropOp56
 70
     1
102
RTVSPost2010Prop57
140
1.0
102
RTVSPost2010PropOp57
 70
     1
102
RTVSPropertyOp0
 70
     1
102
RTVSPropertyOp1
 70
     1
102
RTVSPropertyOp2
 70
     1
102
RTVSPropertyOp3
 70
     1
102
RTVSPropertyOp4
 70
     1
102
RTVSPropertyOp5
 70
     1
102
RTVSPropertyOp6
 70
     1
102
RTVSPropertyOp7
 70
     1
102
RTVSPropertyOp8
 70
     1
102
RTVSPropertyOp9
 70
     1
102
RTVSPropertyOp10
 70
     1
102
RTVSPropertyOp11
 70
     1
102
RTVSPropertyOp12
 70
     1
102
RTVSPropertyOp13
 70
     1
102
RTVSPropertyOp14
 70
     1
102
RTVSPropertyOp15
 70
     1
102
RTVSPropertyOp16
 70
     1
102
RTVSPropertyOp17
 70
     1
102
RTVSPropertyOp18
 70
     1
102
RTVSPropertyOp19
 70
     1
102
RTVSPropertyOp20
 70
     1
102
RTVSPropertyOp21
 70
     1
102
RTVSPropertyOp22
 70
     1
102
RTVSPropertyOp23
 70
     1
102
RTVSPropertyOp24
 70
     1
102
RTVSPropertyOp25
 70
     1
102
RTVSPropertyOp26
 70
     1
102
RTVSPropertyOp27
 70
     1
102
RTVSPropertyOp28
 70
     1
102
RTVSPropertyOp29
 70
     1
102
RTVSPropertyOp30
 70
     1
102
RTVSPropertyOp31
 70
     1
102
RTVSPropertyOp32
 70
     1
102
RTVSPropertyOp33
 70
     1
102
RTVSPropertyOp34
 70
     1
102
RTVSPropertyOp35
 70
     1
102
RTVSPropertyOp36
 70
     1
102
RTVSPropertyOp37
 70
     1
102
RTVSPropertyOp38
 70
     1
102
RTVSPropertyOp39
 70
     1
102
RTVSPropertyOp40
 70
     1
102
RTVSPropertyOp41
 70
     1
102
RTVSPropertyOp42
 70
     1
102
RTVSPropertyOp43
 70
     1
102
RTVSPropertyOp44
 70
     1
102
RTVSPropertyOp45
 70
     1
102
RTVSPropertyOp46
 70
     1
102
RTVSPropertyOp47
 70
     1
102
RTVSPropertyOp48
 70
     1
102
RTVSPropertyOp49
 70
     1
102
RTVSPropertyOp50
 70
     1
102
RTVSPropertyOp51
 70
     0
102
RTVSPropertyOp52
 70
     0
102
RTVSPropertyOp53
 70
     1
102
RTVSPropertyOp54
 70
     1
102
RTVSPropertyOp55
 70
     1
102
RTVSPropertyOp56
 70
     1
102
RTVSPropertyOp57
 70
     1
102
RTVSPropertyOp58
 70
     1
102
RTVSPropertyOp59
 70
     1
102
RTVSPropertyOp60
 70
     1
102
RTVSPropertyOp61
 70
     1
102
RTVSPropertyOp62
 70
     1
  0
XRECORD
  5
265B
102
{ACAD_REACTORS
330
265A
102
}
330
265A
100
AcDbXrecord
280
     1
102
RTVSPost2010Prop28
280
     0
102
RTVSPost2010PropOp28
 70
     1
102
RTVSPost2010Prop29
280
     1
102
RTVSPost2010PropOp29
 70
     1
102
RTVSPost2010Prop30
280
     1
102
RTVSPost2010PropOp30
 70
     1
102
RTVSPost2010Prop31
280
     0
102
RTVSPost2010PropOp31
 70
     1
102
RTVSPost2010Prop32
280
     0
102
RTVSPost2010PropOp32
 70
     1
102
RTVSPost2010Prop33
280
     0
102
RTVSPost2010PropOp33
 70
     1
102
RTVSPost2010Prop34
280
     0
102
RTVSPost2010PropOp34
 70
     1
102
RTVSPost2010Prop35
280
     0
102
RTVSPost2010PropOp35
 70
     1
102
RTVSPost2010Prop36
280
     0
102
RTVSPost2010PropOp36
 70
     1
102
RTVSPost2010Prop37
 90
       50
102
RTVSPost2010PropOp37
 70
     1
102
RTVSPost2010Prop38
140
0.0
102
RTVSPost2010PropOp38
 70
     1
102
RTVSPost2010Prop39
140
1.0
102
RTVSPost2010PropOp39
 70
     1
102
RTVSPost2010Prop40
 90
        0
102
RTVSPost2010PropOp40
 70
     1
102
RTVSPost2010Prop41ColorIndex
 90
       18
102
RTVSPost2010Prop41ColorRGB
 90
        0
102
RTVSPost2010PropOp41
 70
     1
102
RTVSPost2010Prop42
 90
       50
102
RTVSPost2010PropOp42
 70
     1
102
RTVSPost2010Prop43
 90
        3
102
RTVSPost2010PropOp43
 70
     1
102
RTVSPost2010Prop44ColorIndex
 90
        5
102
RTVSPost2010Prop44ColorRGB
 90
      255
102
RTVSPost2010PropOp44
 70
     1
102
RTVSPost2010Prop45
280
     0
102
RTVSPost2010PropOp45
 70
     1
102
RTVSPost2010Prop46
 90
       50
102
RTVSPost2010PropOp46
 70
     1
102
RTVSPost2010Prop47
 90
       50
102
RTVSPost2010PropOp47
 70
     1
102
RTVSPost2010Prop48
 90
       50
102
RTVSPost2010PropOp48
 70
     1
102
RTVSPost2010Prop49
280
     0
102
RTVSPost2010PropOp49
 70
     1
102
RTVSPost2010Prop50
 90
       50
102
RTVSPost2010PropOp50
 70
     1
102
RTVSPost2010Prop51ColorIndex
 90
      256
102
RTVSPost2010Prop51ColorRGB
 90
-16777216
102
RTVSPost2010PropOp51
 70
     0
102
RTVSPost2010Prop52
140
1.0
102
RTVSPost2010PropOp52
 70
     0
102
RTVSPost2010Prop53
 90
        2
102
RTVSPost2010PropOp53
 70
     1
102
RTVSPost2010Prop54
  1
strokes_ogs.tif
102
RTVSPost2010PropOp54
 70
     1
102
RTVSPost2010Prop55
280
     0
102
RTVSPost2010PropOp55
 70
     1
102
RTVSPost2010Prop56
140
1.0
102
RTVSPost2010PropOp56
 70
     1
102
RTVSPost2010Prop57
140
1.0
102
RTVSPost2010PropOp57
 70
     1
102
RTVSPropertyOp0
 70
     1
102
RTVSPropertyOp1
 70
     1
102
RTVSPropertyOp2
 70
     1
102
RTVSPropertyOp3
 70
     1
102
RTVSPropertyOp4
 70
     1
102
RTVSPropertyOp5
 70
     1
102
RTVSPropertyOp6
 70
     1
102
RTVSPropertyOp7
 70
     1
102
RTVSPropertyOp8
 70
     1
102
RTVSPropertyOp9
 70
     1
102
RTVSPropertyOp10
 70
     1
102
RTVSPropertyOp11
 70
     1
102
RTVSPropertyOp12
 70
     1
102
RTVSPropertyOp13
 70
     1
102
RTVSPropertyOp14
 70
     1
102
RTVSPropertyOp15
 70
     1
102
RTVSPropertyOp16
 70
     1
102
RTVSPropertyOp17
 70
     1
102
RTVSPropertyOp18
 70
     1
102
RTVSPropertyOp19
 70
     1
102
RTVSPropertyOp20
 70
     1
102
RTVSPropertyOp21
 70
     1
102
RTVSPropertyOp22
 70
     1
102
RTVSPropertyOp23
 70
     1
102
RTVSPropertyOp24
 70
     1
102
RTVSPropertyOp25
 70
     1
102
RTVSPropertyOp26
 70
     1
102
RTVSPropertyOp27
 70
     1
102
RTVSPropertyOp28
 70
     1
102
RTVSPropertyOp29
 70
     1
102
RTVSPropertyOp30
 70
     1
102
RTVSPropertyOp31
 70
     1
102
RTVSPropertyOp32
 70
     1
102
RTVSPropertyOp33
 70
     1
102
RTVSPropertyOp34
 70
     1
102
RTVSPropertyOp35
 70
     1
102
RTVSPropertyOp36
 70
     1
102
RTVSPropertyOp37
 70
     1
102
RTVSPropertyOp38
 70
     1
102
RTVSPropertyOp39
 70
     1
102
RTVSPropertyOp40
 70
     1
102
RTVSPropertyOp41
 70
     1
102
RTVSPropertyOp42
 70
     1
102
RTVSPropertyOp43
 70
     1
102
RTVSPropertyOp44
 70
     1
102
RTVSPropertyOp45
 70
     1
102
RTVSPropertyOp46
 70
     1
102
RTVSPropertyOp47
 70
     1
102
RTVSPropertyOp48
 70
     1
102
RTVSPropertyOp49
 70
     1
102
RTVSPropertyOp50
 70
     1
102
RTVSPropertyOp51
 70
     0
102
RTVSPropertyOp52
 70
     0
102
RTVSPropertyOp53
 70
     1
102
RTVSPropertyOp54
 70
     1
102
RTVSPropertyOp55
 70
     1
102
RTVSPropertyOp56
 70
     1
102
RTVSPropertyOp57
 70
     1
102
RTVSPropertyOp58
 70
     1
102
RTVSPropertyOp59
 70
     1
102
RTVSPropertyOp60
 70
     1
102
RTVSPropertyOp61
 70
     1
102
RTVSPropertyOp62
 70
     1
  0
ENDSEC
  0
EOF
