  0
SECTION
  2
HEADER
  9
$ACADVER
  1
AC1015
  9
$ACADMAINTVER
 70
    18
  9
$DWGCODEPAGE
  3
ANSI_1252
  9
$INSBASE
 10
0.0
 20
0.0
 30
0.0
  9
$EXTMIN
 10
-263.442076965517
 20
-450.0001371614636
 30
-0.0015258207003583
  9
$EXTMAX
 10
341.2820443432802
 20
411.5744942330924
 30
0.0000000349246037
  9
$LIMMIN
 10
0.0
 20
0.0
  9
$LIMMAX
 10
420.0
 20
297.0
  9
$ORTHOMODE
 70
     0
  9
$REGENMODE
 70
     1
  9
$FILLMODE
 70
     1
  9
$QTEXTMODE
 70
     0
  9
$MIRRTEXT
 70
     0
  9
$LTSCALE
 40
1.0
  9
$ATTMODE
 70
     1
  9
$TEXTSIZE
 40
2.5
  9
$TRACEWID
 40
1.0
  9
$TEXTSTYLE
  7
Standard
  9
$CLAYER
  8
0
  9
$CELTYPE
  6
ByLayer
  9
$CECOLOR
 62
   256
  9
$CELTSCALE
 40
1.0
  9
$DISPSILH
 70
     0
  9
$DIMSCALE
 40
1.0
  9
$DIMASZ
 40
2.5
  9
$DIMEXO
 40
0.625
  9
$DIMDLI
 40
3.75
  9
$DIMRND
 40
0.0
  9
$DIMDLE
 40
0.0
  9
$DIMEXE
 40
1.25
  9
$DIMTP
 40
0.0
  9
$DIMTM
 40
0.0
  9
$DIMTXT
 40
2.5
  9
$DIMCEN
 40
2.5
  9
$DIMTSZ
 40
0.0
  9
$DIMTOL
 70
     0
  9
$DIMLIM
 70
     0
  9
$DIMTIH
 70
     0
  9
$DIMTOH
 70
     0
  9
$DIMSE1
 70
     0
  9
$DIMSE2
 70
     0
  9
$DIMTAD
 70
     1
  9
$DIMZIN
 70
     8
  9
$DIMBLK
  1

  9
$DIMASO
 70
     1
  9
$DIMSHO
 70
     1
  9
$DIMPOST
  1

  9
$DIMAPOST
  1

  9
$DIMALT
 70
     0
  9
$DIMALTD
 70
     3
  9
$DIMALTF
 40
0.03937007874016
  9
$DIMLFAC
 40
1.0
  9
$DIMTOFL
 70
     1
  9
$DIMTVP
 40
0.0
  9
$DIMTIX
 70
     0
  9
$DIMSOXD
 70
     0
  9
$DIMSAH
 70
     0
  9
$DIMBLK1
  1

  9
$DIMBLK2
  1

  9
$DIMSTYLE
  2
ISO-25
  9
$DIMCLRD
 70
     0
  9
$DIMCLRE
 70
     0
  9
$DIMCLRT
 70
     0
  9
$DIMTFAC
 40
1.0
  9
$DIMGAP
 40
0.625
  9
$DIMJUST
 70
     0
  9
$DIMSD1
 70
     0
  9
$DIMSD2
 70
     0
  9
$DIMTOLJ
 70
     0
  9
$DIMTZIN
 70
     8
  9
$DIMALTZ
 70
     0
  9
$DIMALTTZ
 70
     0
  9
$DIMUPT
 70
     0
  9
$DIMDEC
 70
     2
  9
$DIMTDEC
 70
     2
  9
$DIMALTU
 70
     2
  9
$DIMALTTD
 70
     3
  9
$DIMTXSTY
  7
Standard
  9
$DIMAUNIT
 70
     0
  9
$DIMADEC
 70
     0
  9
$DIMALTRND
 40
0.0
  9
$DIMAZIN
 70
     0
  9
$DIMDSEP
 70
    44
  9
$DIMATFIT
 70
     3
  9
$DIMFRAC
 70
     0
  9
$DIMLDRBLK
  1

  9
$DIMLUNIT
 70
     2
  9
$DIMLWD
 70
    -2
  9
$DIMLWE
 70
    -2
  9
$DIMTMOVE
 70
     0
  9
$LUNITS
 70
     2
  9
$LUPREC
 70
     4
  9
$SKETCHINC
 40
1.0
  9
$FILLETRAD
 40
0.0
  9
$AUNITS
 70
     0
  9
$AUPREC
 70
     0
  9
$MENU
  1
.
  9
$ELEVATION
 40
0.0
  9
$PELEVATION
 40
0.0
  9
$THICKNESS
 40
0.0
  9
$LIMCHECK
 70
     0
  9
$CHAMFERA
 40
0.0
  9
$CHAMFERB
 40
0.0
  9
$CHAMFERC
 40
0.0
  9
$CHAMFERD
 40
0.0
  9
$SKPOLY
 70
     0
  9
$TDCREATE
 40
2460719.406504630
  9
$TDUCREATE
 40
2460719.114837963
  9
$TDUPDATE
 40
2460719.410590278
  9
$TDUUPDATE
 40
2460719.118923611
  9
$TDINDWG
 40
0.0019328704
  9
$TDUSRTIMER
 40
0.0019328704
  9
$USRTIMER
 70
     1
  9
$ANGBASE
 50
0.0
  9
$ANGDIR
 70
     0
  9
$PDMODE
 70
     0
  9
$PDSIZE
 40
0.0
  9
$PLINEWID
 40
0.0
  9
$SPLFRAME
 70
     0
  9
$SPLINETYPE
 70
     6
  9
$SPLINESEGS
 70
     8
  9
$HANDSEED
  5
1B66
  9
$SURFTAB1
 70
     6
  9
$SURFTAB2
 70
     6
  9
$SURFTYPE
 70
     6
  9
$SURFU
 70
     6
  9
$SURFV
 70
     6
  9
$UCSBASE
  2

  9
$UCSNAME
  2

  9
$UCSORG
 10
0.0
 20
0.0
 30
0.0
  9
$UCSXDIR
 10
1.0
 20
0.0
 30
0.0
  9
$UCSYDIR
 10
0.0
 20
1.0
 30
0.0
  9
$UCSORTHOREF
  2

  9
$UCSORTHOVIEW
 70
     0
  9
$UCSORGTOP
 10
0.0
 20
0.0
 30
0.0
  9
$UCSORGBOTTOM
 10
0.0
 20
0.0
 30
0.0
  9
$UCSORGLEFT
 10
0.0
 20
0.0
 30
0.0
  9
$UCSORGRIGHT
 10
0.0
 20
0.0
 30
0.0
  9
$UCSORGFRONT
 10
0.0
 20
0.0
 30
0.0
  9
$UCSORGBACK
 10
0.0
 20
0.0
 30
0.0
  9
$PUCSBASE
  2

  9
$PUCSNAME
  2

  9
$PUCSORG
 10
0.0
 20
0.0
 30
0.0
  9
$PUCSXDIR
 10
1.0
 20
0.0
 30
0.0
  9
$PUCSYDIR
 10
0.0
 20
1.0
 30
0.0
  9
$PUCSORTHOREF
  2

  9
$PUCSORTHOVIEW
 70
     0
  9
$PUCSORGTOP
 10
0.0
 20
0.0
 30
0.0
  9
$PUCSORGBOTTOM
 10
0.0
 20
0.0
 30
0.0
  9
$PUCSORGLEFT
 10
0.0
 20
0.0
 30
0.0
  9
$PUCSORGRIGHT
 10
0.0
 20
0.0
 30
0.0
  9
$PUCSORGFRONT
 10
0.0
 20
0.0
 30
0.0
  9
$PUCSORGBACK
 10
0.0
 20
0.0
 30
0.0
  9
$USERI1
 70
     0
  9
$USERI2
 70
     0
  9
$USERI3
 70
     0
  9
$USERI4
 70
     0
  9
$USERI5
 70
     0
  9
$USERR1
 40
0.0
  9
$USERR2
 40
0.0
  9
$USERR3
 40
0.0
  9
$USERR4
 40
0.0
  9
$USERR5
 40
0.0
  9
$WORLDVIEW
 70
     1
  9
$SHADEDGE
 70
     3
  9
$SHADEDIF
 70
    70
  9
$TILEMODE
 70
     1
  9
$MAXACTVP
 70
    48
  9
$PINSBASE
 10
0.0
 20
0.0
 30
0.0
  9
$PLIMCHECK
 70
     0
  9
$PEXTMIN
 10
0.0
 20
0.0
 30
0.0
  9
$PEXTMAX
 10
0.0
 20
0.0
 30
0.0
  9
$PLIMMIN
 10
0.0
 20
0.0
  9
$PLIMMAX
 10
12.0
 20
9.0
  9
$UNITMODE
 70
     0
  9
$VISRETAIN
 70
     1
  9
$PLINEGEN
 70
     0
  9
$PSLTSCALE
 70
     1
  9
$TREEDEPTH
 70
  3020
  9
$CMLSTYLE
  2
Standard
  9
$CMLJUST
 70
     0
  9
$CMLSCALE
 40
20.0
  9
$PROXYGRAPHICS
 70
     1
  9
$MEASUREMENT
 70
     1
  9
$CELWEIGHT
370
    -1
  9
$ENDCAPS
280
     0
  9
$JOINSTYLE
280
     0
  9
$LWDISPLAY
290
     0
  9
$INSUNITS
 70
     4
  9
$HYPERLINKBASE
  1

  9
$STYLESHEET
  1

  9
$XEDIT
290
     1
  9
$CEPSNTYPE
380
     0
  9
$PSTYLEMODE
290
     1
  9
$FINGERPRINTGUID
  2
{375C693C-302E-BC42-B92A-19F6C371B7B0}
  9
$VERSIONGUID
  2
{D4A79BCB-5A01-C048-AE70-1A81513099A7}
  9
$EXTNAMES
290
     1
  9
$PSVPSCALE
 40
0.0
  9
$OLESTARTUP
290
     0
  0
ENDSEC
  0
SECTION
  2
CLASSES
  0
CLASS
  1
ACDBDICTIONARYWDFLT
  2
AcDbDictionaryWithDefault
  3
ObjectDBX Classes
 90
        0
280
     0
281
     0
  0
CLASS
  1
ACDBPLACEHOLDER
  2
AcDbPlaceHolder
  3
ObjectDBX Classes
 90
        0
280
     0
281
     0
  0
CLASS
  1
LAYOUT
  2
AcDbLayout
  3
ObjectDBX Classes
 90
        0
280
     0
281
     0
  0
CLASS
  1
DICTIONARYVAR
  2
AcDbDictionaryVar
  3
ObjectDBX Classes
 90
        0
280
     0
281
     0
  0
CLASS
  1
TABLESTYLE
  2
AcDbTableStyle
  3
ObjectDBX Classes
 90
     4095
280
     0
281
     0
  0
CLASS
  1
MATERIAL
  2
AcDbMaterial
  3
ObjectDBX Classes
 90
     1153
280
     0
281
     0
  0
CLASS
  1
VISUALSTYLE
  2
AcDbVisualStyle
  3
ObjectDBX Classes
 90
     4095
280
     0
281
     0
  0
CLASS
  1
SCALE
  2
AcDbScale
  3
ObjectDBX Classes
 90
     1153
280
     0
281
     0
  0
CLASS
  1
MLEADERSTYLE
  2
AcDbMLeaderStyle
  3
ACDB_MLEADERSTYLE_CLASS
 90
     4095
280
     0
281
     0
  0
CLASS
  1
CELLSTYLEMAP
  2
AcDbCellStyleMap
  3
ObjectDBX Classes
 90
     1152
280
     0
281
     0
  0
CLASS
  1
EXACXREFPANELOBJECT
  2
ExAcXREFPanelObject
  3
EXAC_ESW
 90
    33793
280
     0
281
     0
  0
CLASS
  1
NPOCOLLECTION
  2
AcDbImpNonPersistentObjectsCollection
  3
ObjectDBX Classes
 90
    33921
280
     0
281
     0
  0
CLASS
  1
LAYER_INDEX
  2
AcDbLayerIndex
  3
ObjectDBX Classes
 90
    32768
280
     0
281
     0
  0
CLASS
  1
SPATIAL_INDEX
  2
AcDbSpatialIndex
  3
ObjectDBX Classes
 90
    32768
280
     0
281
     0
  0
CLASS
  1
IDBUFFER
  2
AcDbIdBuffer
  3
ObjectDBX Classes
 90
    32768
280
     0
281
     0
  0
CLASS
  1
ACDBSECTIONVIEWSTYLE
  2
AcDbSectionViewStyle
  3
ObjectDBX Classes
 90
     1025
280
     0
281
     0
  0
CLASS
  1
ACDBDETAILVIEWSTYLE
  2
AcDbDetailViewStyle
  3
ObjectDBX Classes
 90
     1025
280
     0
281
     0
  0
CLASS
  1
XRECORD
  2
AcDbXrecord
  3
ObjectDBX Classes
 90
        0
280
     0
281
     0
  0
ENDSEC
  0
SECTION
  2
TABLES
  0
TABLE
  2
VPORT
  5
8
102
{ACAD_XDICTIONARY
360
1A74
102
}
330
0
100
AcDbSymbolTable
 70
     1
  0
VPORT
  5
EA
330
8
100
AcDbSymbolTableRecord
100
AcDbViewportTableRecord
  2
*Active
 70
     0
 10
0.0
 20
0.0
 11
1.0
 21
1.0
 12
38.91998368888162
 22
-19.21282146418565
 13
0.0
 23
0.0
 14
10.0
 24
10.0
 15
10.0
 25
10.0
 16
0.0
 26
0.0
 36
1.0
 17
0.0
 27
0.0
 37
0.0
 40
916.2065417380585
 41
0.9846153846153846
 42
50.0
 43
0.0
 44
0.0
 50
0.0
 51
0.0
 71
     0
 72
  1000
 73
     1
 74
     3
 75
     0
 76
     1
 77
     0
 78
     0
281
     0
 65
     1
110
0.0
120
0.0
130
0.0
111
1.0
121
0.0
131
0.0
112
0.0
122
1.0
132
0.0
 79
     0
146
0.0
1001
ACAD_NAV_VCDISPLAY
1070
     3
  0
ENDTAB
  0
TABLE
  2
LTYPE
  5
5
330
0
100
AcDbSymbolTable
 70
     1
  0
LTYPE
  5
14
330
5
100
AcDbSymbolTableRecord
100
AcDbLinetypeTableRecord
  2
ByBlock
 70
     0
  3

 72
    65
 73
     0
 40
0.0
  0
LTYPE
  5
15
330
5
100
AcDbSymbolTableRecord
100
AcDbLinetypeTableRecord
  2
ByLayer
 70
     0
  3

 72
    65
 73
     0
 40
0.0
  0
LTYPE
  5
16
330
5
100
AcDbSymbolTableRecord
100
AcDbLinetypeTableRecord
  2
Continuous
 70
     0
  3
Solid line
 72
    65
 73
     0
 40
0.0
  0
ENDTAB
  0
TABLE
  2
LAYER
  5
2
102
{ACAD_XDICTIONARY
360
1FF
102
}
330
0
100
AcDbSymbolTable
 70
     1
  0
LAYER
  5
10
102
{ACAD_XDICTIONARY
360
13C
102
}
330
2
100
AcDbSymbolTableRecord
100
AcDbLayerTableRecord
  2
0
 70
     0
 62
     7
  6
Continuous
370
    -3
390
F
  0
ENDTAB
  0
TABLE
  2
STYLE
  5
3
330
0
100
AcDbSymbolTable
 70
     1
  0
STYLE
  5
11
330
3
100
AcDbSymbolTableRecord
100
AcDbTextStyleTableRecord
  2
Standard
 70
     0
 40
0.0
 41
1.0
 50
0.0
 71
     0
 42
2.5
  3
arial.ttf
  4

1001
ACAD
1000
Arial
1071
       34
  0
ENDTAB
  0
TABLE
  2
VIEW
  5
6
330
0
100
AcDbSymbolTable
 70
     0
  0
ENDTAB
  0
TABLE
  2
UCS
  5
7
330
0
100
AcDbSymbolTable
 70
     0
  0
ENDTAB
  0
TABLE
  2
APPID
  5
9
330
0
100
AcDbSymbolTable
 70
     8
  0
APPID
  5
12
330
9
100
AcDbSymbolTableRecord
100
AcDbRegAppTableRecord
  2
ACAD
 70
     0
  0
APPID
  5
9E
330
9
100
AcDbSymbolTableRecord
100
AcDbRegAppTableRecord
  2
ACAD_PSEXT
 70
     0
  0
APPID
  5
133
330
9
100
AcDbSymbolTableRecord
100
AcDbRegAppTableRecord
  2
AcadAnnoPO
 70
     0
  0
APPID
  5
134
330
9
100
AcDbSymbolTableRecord
100
AcDbRegAppTableRecord
  2
AcadAnnotative
 70
     0
  0
APPID
  5
135
330
9
100
AcDbSymbolTableRecord
100
AcDbRegAppTableRecord
  2
ACAD_DSTYLE_DIMJAG
 70
     0
  0
APPID
  5
136
330
9
100
AcDbSymbolTableRecord
100
AcDbRegAppTableRecord
  2
ACAD_DSTYLE_DIMTALN
 70
     0
  0
APPID
  5
165
330
9
100
AcDbSymbolTableRecord
100
AcDbRegAppTableRecord
  2
ACAD_MLEADERVER
 70
     0
  0
APPID
  5
217
330
9
100
AcDbSymbolTableRecord
100
AcDbRegAppTableRecord
  2
ACAD_NAV_VCDISPLAY
 70
     0
  0
ENDTAB
  0
TABLE
  2
DIMSTYLE
  5
A
330
0
100
AcDbSymbolTable
 70
     1
100
AcDbDimStyleTable
 71
     0
  0
DIMSTYLE
105
27
330
A
100
AcDbSymbolTableRecord
100
AcDbDimStyleTableRecord
  2
ISO-25
 70
     0
 41
2.5
 42
0.625
 43
3.75
 44
1.25
 73
     0
 74
     0
 77
     1
 78
     8
140
2.5
141
2.5
143
0.03937007874016
147
0.625
171
     3
172
     1
271
     2
272
     2
274
     3
278
    44
283
     0
284
     8
340
11
  0
ENDTAB
  0
TABLE
  2
BLOCK_RECORD
  5
1
330
0
100
AcDbSymbolTable
 70
     7
  0
BLOCK_RECORD
  5
1F
102
{ACAD_XDICTIONARY
360
1CE
102
}
330
1
100
AcDbSymbolTableRecord
100
AcDbBlockTableRecord
  2
*Model_Space
340
22
  0
BLOCK_RECORD
  5
D2
102
{ACAD_XDICTIONARY
360
1A27
102
}
330
1
100
AcDbSymbolTableRecord
100
AcDbBlockTableRecord
  2
*Paper_Space
340
D3
  0
BLOCK_RECORD
  5
D6
102
{ACAD_XDICTIONARY
360
1A29
102
}
330
1
100
AcDbSymbolTableRecord
100
AcDbBlockTableRecord
  2
*Paper_Space0
340
D7
  0
BLOCK_RECORD
  5
173F
330
1
100
AcDbSymbolTableRecord
100
AcDbBlockTableRecord
  2
SPR100_240-Front
340
0
102
{BLKREFS
331
1A1D
102
}
  0
BLOCK_RECORD
  5
17C3
330
1
100
AcDbSymbolTableRecord
100
AcDbBlockTableRecord
  2
SPR100_240-Left
340
0
102
{BLKREFS
331
1A1E
102
}
  0
BLOCK_RECORD
  5
1801
330
1
100
AcDbSymbolTableRecord
100
AcDbBlockTableRecord
  2
SPR100_240-Right
340
0
102
{BLKREFS
331
1A1F
102
}
  0
BLOCK_RECORD
  5
1841
330
1
100
AcDbSymbolTableRecord
100
AcDbBlockTableRecord
  2
SPR100_240-Top
340
0
102
{BLKREFS
331
1A20
102
}
  0
BLOCK_RECORD
  5
18A7
330
1
100
AcDbSymbolTableRecord
100
AcDbBlockTableRecord
  2
SPR100_240-Bottom
340
0
102
{BLKREFS
331
1A21
102
}
  0
BLOCK_RECORD
  5
1905
330
1
100
AcDbSymbolTableRecord
100
AcDbBlockTableRecord
  2
SPR100_240-ISO
340
0
102
{BLKREFS
331
1A22
102
}
  0
ENDTAB
  0
ENDSEC
  0
SECTION
  2
BLOCKS
  0
BLOCK
  5
20
330
1F
100
AcDbEntity
  8
0
100
AcDbBlockBegin
  2
*Model_Space
 70
     0
 10
0.0
 20
0.0
 30
0.0
  3
*Model_Space
  1

  0
ENDBLK
  5
21
330
1F
100
AcDbEntity
  8
0
100
AcDbBlockEnd
  0
BLOCK
  5
D4
330
D2
100
AcDbEntity
 67
     1
  8
0
100
AcDbBlockBegin
  2
*Paper_Space
 70
     0
 10
0.0
 20
0.0
 30
0.0
  3
*Paper_Space
  1

  0
ENDBLK
  5
D5
330
D2
100
AcDbEntity
 67
     1
  8
0
100
AcDbBlockEnd
  0
BLOCK
  5
D8
330
D6
100
AcDbEntity
 67
     1
  8
0
100
AcDbBlockBegin
  2
*Paper_Space0
 70
     0
 10
0.0
 20
0.0
 30
0.0
  3
*Paper_Space0
  1

  0
ENDBLK
  5
D9
330
D6
100
AcDbEntity
 67
     1
  8
0
100
AcDbBlockEnd
  0
BLOCK
  5
1740
330
173F
100
AcDbEntity
  8
0
100
AcDbBlockBegin
  2
SPR100_240-Front
 70
     0
 10
0.0
 20
0.0
 30
0.0
  3
SPR100_240-Front
  1

  0
LINE
  5
1742
330
173F
100
AcDbEntity
  8
0
100
AcDbLine
 10
92.52709056099996
 20
6.269999999999996
 30
0.0
 11
87.52709056099996
 21
1.269999999999996
 31
0.0
  0
LINE
  5
1743
330
173F
100
AcDbEntity
  8
0
100
AcDbLine
 10
-87.527090561
 20
1.269999999999996
 30
0.0
 11
-92.527090561
 21
6.269999999999996
 31
0.0
  0
LINE
  5
1744
330
173F
100
AcDbEntity
  8
0
100
AcDbLine
 10
-92.527090561
 20
72.27
 30
0.0
 11
-87.52709056100002
 21
77.27
 31
0.0
  0
LINE
  5
1745
330
173F
100
AcDbEntity
  8
0
100
AcDbLine
 10
87.52709056099996
 20
77.27000000000001
 30
0.0
 11
92.527090561
 21
72.27000000000001
 31
0.0
  0
LINE
  5
1746
330
173F
100
AcDbEntity
  8
0
100
AcDbLine
 10
92.527090561
 20
72.27000000000001
 30
0.0
 11
92.52709056099996
 21
6.269999999999997
 31
0.0
  0
LINE
  5
1747
330
173F
100
AcDbEntity
  8
0
100
AcDbLine
 10
-92.527090561
 20
6.269999999999996
 30
0.0
 11
-92.527090561
 21
72.27
 31
0.0
  0
LINE
  5
1748
330
173F
100
AcDbEntity
  8
0
100
AcDbLine
 10
46.49999999999998
 20
77.27000000000001
 30
0.0
 11
87.52709056099996
 21
77.27000000000001
 31
0.0
  0
LINE
  5
1749
330
173F
100
AcDbEntity
  8
0
100
AcDbLine
 10
-46.50000000000001
 20
1.269999999999987
 30
0.0
 11
-87.527090561
 21
1.269999999999996
 31
0.0
  0
LINE
  5
174A
330
173F
100
AcDbEntity
  8
0
100
AcDbLine
 10
87.52709056099996
 20
1.269999999999996
 30
0.0
 11
46.49999999999998
 21
1.269999999999987
 31
0.0
  0
ARC
  5
174B
330
173F
100
AcDbEntity
  8
0
100
AcDbCircle
 10
46.49999999999998
 20
78.77000000000001
 30
0.0
 40
1.5
100
AcDbArc
 50
90.0
 51
270.0
  0
LINE
  5
174C
330
173F
100
AcDbEntity
  8
0
100
AcDbLine
 10
-87.52709056100002
 20
77.27
 30
0.0
 11
-46.50000000000001
 21
77.27
 31
0.0
  0
ARC
  5
174D
330
173F
100
AcDbEntity
  8
0
100
AcDbCircle
 10
-46.50000000000001
 20
78.76999999999999
 30
0.0
 40
1.5
100
AcDbArc
 50
270.0
 51
90.0
  0
LINE
  5
174E
330
173F
100
AcDbEntity
  8
0
100
AcDbLine
 10
51.5000000000002
 20
80.27000000000001
 30
0.0
 11
51.50000000000024
 21
85.27000000000001
 31
0.0
  0
LINE
  5
174F
330
173F
100
AcDbEntity
  8
0
100
AcDbLine
 10
51.50000000000024
 20
85.27000000000001
 30
0.0
 11
50.00000000000024
 21
85.27000000000001
 31
0.0
  0
LINE
  5
1750
330
173F
100
AcDbEntity
  8
0
100
AcDbLine
 10
50.00000000000024
 20
85.27000000000001
 30
0.0
 11
50.00000000000021
 21
80.27000000000001
 31
0.0
  0
LINE
  5
1751
330
173F
100
AcDbEntity
  8
0
100
AcDbLine
 10
50.00000000000021
 20
80.27000000000001
 30
0.0
 11
51.5000000000002
 21
80.27000000000001
 31
0.0
  0
LINE
  5
1752
330
173F
100
AcDbEntity
  8
0
100
AcDbLine
 10
50.00000000000024
 20
235.67
 30
0.0
 11
51.50000000000024
 21
235.67
 31
0.0
  0
LINE
  5
1753
330
173F
100
AcDbEntity
  8
0
100
AcDbLine
 10
51.50000000000024
 20
235.67
 30
0.0
 11
51.50000000000021
 21
240.67
 31
0.0
  0
LINE
  5
1754
330
173F
100
AcDbEntity
  8
0
100
AcDbLine
 10
-51.5
 20
85.27000000000001
 30
0.0
 11
-51.5
 21
80.27000000000001
 31
0.0
  0
LINE
  5
1755
330
173F
100
AcDbEntity
  8
0
100
AcDbLine
 10
-51.5
 20
80.27000000000001
 30
0.0
 11
-50.0
 21
80.27000000000001
 31
0.0
  0
LINE
  5
1756
330
173F
100
AcDbEntity
  8
0
100
AcDbLine
 10
-50.0
 20
80.27000000000001
 30
0.0
 11
-50.0
 21
85.27000000000001
 31
0.0
  0
LINE
  5
1757
330
173F
100
AcDbEntity
  8
0
100
AcDbLine
 10
-50.0
 20
85.27000000000001
 30
0.0
 11
-51.5
 21
85.27000000000001
 31
0.0
  0
LINE
  5
1758
330
173F
100
AcDbEntity
  8
0
100
AcDbLine
 10
-51.5
 20
240.67
 30
0.0
 11
-51.5
 21
235.67
 31
0.0
  0
LINE
  5
1759
330
173F
100
AcDbEntity
  8
0
100
AcDbLine
 10
-51.5
 20
235.67
 30
0.0
 11
-50.0
 21
235.67
 31
0.0
  0
LINE
  5
175A
330
173F
100
AcDbEntity
  8
0
100
AcDbLine
 10
51.50000000000021
 20
240.67
 30
0.0
 11
50.00000000000021
 21
240.67
 31
0.0
  0
LINE
  5
175B
330
173F
100
AcDbEntity
  8
0
100
AcDbLine
 10
50.00000000000021
 20
240.67
 30
0.0
 11
50.00000000000024
 21
235.67
 31
0.0
  0
LINE
  5
175C
330
173F
100
AcDbEntity
  8
0
100
AcDbLine
 10
-50.0
 20
235.67
 30
0.0
 11
-50.0
 21
240.67
 31
0.0
  0
LINE
  5
175D
330
173F
100
AcDbEntity
  8
0
100
AcDbLine
 10
-50.0
 20
240.67
 30
0.0
 11
-51.5
 21
240.67
 31
0.0
  0
LINE
  5
175E
330
173F
100
AcDbEntity
  8
0
100
AcDbLine
 10
51.49999999999998
 20
-28.42608254450011
 30
0.0
 11
51.5
 21
-21.35501473263468
 31
0.0
  0
LINE
  5
175F
330
173F
100
AcDbEntity
  8
0
100
AcDbLine
 10
51.5
 20
-21.35501473263468
 30
0.0
 11
50.0
 21
-21.35501473263467
 31
0.0
  0
LINE
  5
1760
330
173F
100
AcDbEntity
  8
0
100
AcDbLine
 10
50.0
 20
-21.35501473263467
 30
0.0
 11
50.0
 21
-28.42608254450011
 31
0.0
  0
LINE
  5
1761
330
173F
100
AcDbEntity
  8
0
100
AcDbLine
 10
50.0
 20
-28.42608254450011
 30
0.0
 11
51.49999999999998
 21
-28.42608254450011
 31
0.0
  0
LINE
  5
1762
330
173F
100
AcDbEntity
  8
0
100
AcDbLine
 10
-51.49999999999998
 20
-21.35501473263468
 30
0.0
 11
-51.49999999999995
 21
-28.42608254450011
 31
0.0
  0
LINE
  5
1763
330
173F
100
AcDbEntity
  8
0
100
AcDbLine
 10
-51.49999999999995
 20
-28.42608254450011
 30
0.0
 11
-50.0
 21
-28.42608254450011
 31
0.0
  0
LINE
  5
1764
330
173F
100
AcDbEntity
  8
0
100
AcDbLine
 10
-50.0
 20
-28.42608254450011
 30
0.0
 11
-49.99999999999999
 21
-21.35501473263467
 31
0.0
  0
LINE
  5
1765
330
173F
100
AcDbEntity
  8
0
100
AcDbLine
 10
-49.99999999999999
 20
-21.35501473263467
 30
0.0
 11
-51.49999999999998
 21
-21.35501473263468
 31
0.0
  0
LINE
  5
1766
330
173F
100
AcDbEntity
  8
0
100
AcDbLine
 10
51.50000000000024
 20
85.27000000000001
 30
0.0
 11
51.50000000000024
 21
235.67
 31
0.0
  0
LINE
  5
1767
330
173F
100
AcDbEntity
  8
0
100
AcDbLine
 10
50.00000000000024
 20
235.67
 30
0.0
 11
50.00000000000024
 21
85.27000000000001
 31
0.0
  0
LINE
  5
1768
330
173F
100
AcDbEntity
  8
0
100
AcDbLine
 10
-51.5
 20
235.67
 30
0.0
 11
-51.5
 21
85.27000000000001
 31
0.0
  0
LINE
  5
1769
330
173F
100
AcDbEntity
  8
0
100
AcDbLine
 10
-50.0
 20
235.67
 30
0.0
 11
-50.0
 21
85.27000000000001
 31
0.0
  0
LINE
  5
176A
330
173F
100
AcDbEntity
  8
0
100
AcDbLine
 10
46.49999999999998
 20
80.27000000000001
 30
0.0
 11
49.39999999999999
 21
80.27000000000001
 31
0.0
  0
LINE
  5
176B
330
173F
100
AcDbEntity
  8
0
100
AcDbLine
 10
-49.40000000000001
 20
80.27000000000001
 30
0.0
 11
-46.50000000000001
 21
80.26999999999999
 31
0.0
  0
LINE
  5
176C
330
173F
100
AcDbEntity
  8
0
100
AcDbLine
 10
-49.40000000000001
 20
240.67
 30
0.0
 11
49.39999999999999
 21
240.67
 31
0.0
  0
LINE
  5
176D
330
173F
100
AcDbEntity
  8
0
100
AcDbLine
 10
51.50000000000236
 20
-2.263131642256747
 30
0.0
 11
51.5
 21
-21.35501473263468
 31
0.0
  0
LINE
  5
176E
330
173F
100
AcDbEntity
  8
0
100
AcDbLine
 10
50.00000000000195
 20
-2.263131642256747
 30
0.0
 11
50.0
 21
-21.35501473263467
 31
0.0
  0
ELLIPSE
  5
176F
330
173F
100
AcDbEntity
  8
0
100
AcDbEllipse
 10
49.40000000000001
 20
-54.16476937947051
 30
0.0
 11
0.6000000000000087
 21
0.0000000000001113
 31
0.0
210
0.0
220
0.0
230
1.0
 40
0.7071067811864884
 41
4.712388980384544
 42
6.283185307179551
  0
ELLIPSE
  5
1770
330
173F
100
AcDbEntity
  8
0
100
AcDbEllipse
 10
49.40000000000001
 20
-54.16476937947047
 30
0.0
 11
2.100000000000081
 21
0.0000000000002487
 31
0.0
210
0.0
220
0.0
230
1.0
 40
0.7071067811865434
 41
4.712388980384854
 42
6.283185307180064
  0
LINE
  5
1771
330
173F
100
AcDbEntity
  8
0
100
AcDbLine
 10
51.50000000000236
 20
-2.263131642256747
 30
0.0
 11
50.00000000000195
 21
-2.263131642256747
 31
0.0
  0
ELLIPSE
  5
1772
330
173F
100
AcDbEntity
  8
0
100
AcDbEllipse
 10
-46.50000000000001
 20
0.0236058844764062
 30
0.0
 11
-1.5
 21
0.0000000000001095
 31
0.0
210
0.0
220
0.0
230
1.0
 40
0.7071067811865479
 41
1.570796326795026
 42
2.705254581962137
  0
LINE
  5
1773
330
173F
100
AcDbEntity
  8
0
100
AcDbLine
 10
-46.50000000000001
 20
-1.037054287303415
 30
0.0
 11
-48.79315533855962
 21
-1.03705428730339
 31
0.0
  0
LINE
  5
1774
330
173F
100
AcDbEntity
  8
0
100
AcDbLine
 10
-48.79315533855962
 20
-1.03705428730339
 30
0.0
 11
-49.40000000000001
 21
-1.466158262545949
 31
0.0
  0
LINE
  5
1775
330
173F
100
AcDbEntity
  8
0
100
AcDbLine
 10
49.39999999999999
 20
-1.466158262545953
 30
0.0
 11
48.7931553385596
 21
-1.037054287303394
 31
0.0
  0
LINE
  5
1776
330
173F
100
AcDbEntity
  8
0
100
AcDbLine
 10
48.7931553385596
 20
-1.037054287303394
 30
0.0
 11
46.49999999999998
 21
-1.037054287303419
 31
0.0
  0
ELLIPSE
  5
1777
330
173F
100
AcDbEntity
  8
0
100
AcDbEllipse
 10
46.49999999999998
 20
0.0236058844764062
 30
0.0
 11
-1.5
 21
0.0
 31
0.0
210
0.0
220
0.0
230
1.0
 40
0.7071067811865479
 41
0.4363380716279029
 42
1.570796326794896
  0
SPLINE
  5
1778
330
173F
100
AcDbEntity
  8
0
100
AcDbSpline
210
0.0
220
0.0
230
1.0
 70
     8
 71
     3
 72
     8
 73
     4
 74
     0
 42
0.000000001
 43
0.0000000001
 40
-1.0
 40
-1.0
 40
-1.0
 40
-1.0
 40
0.0
 40
0.0
 40
0.0
 40
0.0
 10
45.14054197002045
 20
-0.4246540092928796
 30
0.0
 10
45.01586474390285
 20
-0.3214850446752982
 30
0.0
 10
44.97251992074146
 20
-0.1594792109354491
 30
0.0
 10
45.01767776087191
 20
-0.0003899405809508
 30
0.0
  0
SPLINE
  5
1779
330
173F
100
AcDbEntity
  8
0
100
AcDbSpline
210
0.0
220
0.0
230
1.0
 70
     8
 71
     3
 72
     8
 73
     4
 74
     0
 42
0.000000001
 43
0.0000000001
 40
-1.0
 40
-1.0
 40
-1.0
 40
-1.0
 40
0.0
 40
0.0
 40
0.0
 40
0.0
 10
-45.01767776087198
 20
-0.0003899405809507
 30
0.0
 10
-44.97251992073876
 20
-0.1594792109354459
 30
0.0
 10
-45.0158647439014
 20
-0.3214850446752977
 30
0.0
 10
-45.14054197002045
 20
-0.4246540092928796
 30
0.0
  0
LINE
  5
177A
330
173F
100
AcDbEntity
  8
0
100
AcDbLine
 10
-50.0000000000017
 20
-2.263131642256734
 30
0.0
 11
-51.50000000000208
 21
-2.263131642256734
 31
0.0
  0
SPLINE
  5
177B
330
173F
100
AcDbEntity
  8
0
100
AcDbSpline
210
0.0
220
0.0
230
1.0
 70
     8
 71
     3
 72
     8
 73
     4
 74
     0
 42
0.000000001
 43
0.0000000001
 40
-1.0
 40
-1.0
 40
-1.0
 40
-1.0
 40
0.0
 40
0.0
 40
0.0
 40
0.0
 10
-49.40000000000001
 20
-1.46615826254593
 30
0.0
 10
-49.714159265359
 20
-1.873237411765294
 30
0.0
 10
-50.00000000000001
 20
-2.07819663918104
 30
0.0
 10
-50.00000000000003
 20
-2.26313164149215
 30
0.0
  0
ARC
  5
177C
330
173F
100
AcDbEntity
  8
0
100
AcDbCircle
 10
-46.50000000000001
 20
-0.2299999999999986
 30
0.0
 40
1.5
100
AcDbArc
 50
8.805075259701309
 51
90.0
  0
SPLINE
  5
177D
330
173F
100
AcDbEntity
  8
0
100
AcDbSpline
210
0.0
220
0.0
230
1.0
 70
     8
 71
     3
 72
     8
 73
     4
 74
     0
 42
0.000000001
 43
0.0000000001
 40
-1.0
 40
-1.0
 40
-1.0
 40
-1.0
 40
0.0
 40
0.0
 40
0.0
 40
0.0
 10
50.0
 20
-2.263131641492168
 30
0.0
 10
50.0
 20
-2.078196639180907
 30
0.0
 10
49.71415926535898
 20
-1.873237411765442
 30
0.0
 10
49.39999999999999
 20
-1.466158262545921
 30
0.0
  0
ARC
  5
177E
330
173F
100
AcDbEntity
  8
0
100
AcDbCircle
 10
46.49999999999998
 20
-0.2299999999999986
 30
0.0
 40
1.5
100
AcDbArc
 50
90.0
 51
171.1949247402987
  0
SPLINE
  5
177F
330
173F
100
AcDbEntity
  8
0
100
AcDbSpline
210
0.0
220
0.0
230
1.0
 70
     8
 71
     3
 72
    16
 73
    12
 74
     0
 42
0.000000001
 43
0.0000000001
 40
0.0
 40
0.0
 40
0.0
 40
0.0
 40
0.0356537247142194
 40
0.0356537247142194
 40
0.0703704956339896
 40
0.0703704956339896
 40
0.1051345640011123
 40
0.1051345640011123
 40
0.1398962718576584
 40
0.1398962718576584
 40
0.1538885733139383
 40
0.1538885733139383
 40
0.1538885733139383
 40
0.1538885733139383
 10
-50.49949999999906
 20
-2.263131641492145
 30
0.0
 10
-50.49950000000049
 20
-2.263131641490606
 30
0.0
 10
-50.47955867541333
 20
-2.263059951015109
 30
0.0
 10
-50.40583172173885
 20
-2.250836451221217
 30
0.0
 10
-50.35213458032913
 20
-2.238741830476839
 30
0.0
 10
-50.22293730436121
 20
-2.194102190411899
 30
0.0
 10
-50.14591985440926
 20
-2.160888677258687
 30
0.0
 10
-49.98574064097981
 20
-2.069479202626867
 30
0.0
 10
-49.90073655265502
 20
-2.010107098300899
 30
0.0
 10
-49.78901418352819
 20
-1.909831885188417
 30
0.0
 10
-49.75758437994082
 20
-1.878943669893635
 30
0.0
 10
-49.72742155524381
 20
-1.846191951394167
 30
0.0
  0
SPLINE
  5
1780
330
173F
100
AcDbEntity
  8
0
100
AcDbSpline
210
0.0
220
0.0
230
1.0
 70
     8
 71
     3
 72
    16
 73
    12
 74
     0
 42
0.000000001
 43
0.0000000001
 40
0.0
 40
0.0
 40
0.0
 40
0.0
 40
0.0356266149486235
 40
0.0356266149486235
 40
0.0703447701947155
 40
0.0703447701947155
 40
0.1051087695143817
 40
0.1051087695143817
 40
0.1398704808195471
 40
0.1398704808195471
 40
0.153888864702851
 40
0.153888864702851
 40
0.153888864702851
 40
0.153888864702851
 10
49.72742155524386
 20
-1.846191951394255
 30
0.0
 10
49.80422088268832
 20
-1.92958301236664
 30
0.0
 10
49.88999615137692
 20
-2.001172959795419
 30
0.0
 10
50.05564046652953
 20
-2.113266523326684
 30
0.0
 10
50.1375026165952
 20
-2.155953002327324
 30
0.0
 10
50.28182181899571
 20
-2.21701670302066
 30
0.0
 10
50.34591305096888
 20
-2.236189491832411
 30
0.0
 10
50.44238223270443
 20
-2.258395304194826
 30
0.0
 10
50.47587215060598
 20
-2.261811174870473
 30
0.0
 10
50.49650501536999
 20
-2.263130971916379
 30
0.0
 10
50.49949999999984
 20
-2.263131641491567
 30
0.0
 10
50.49949999999943
 20
-2.263131641492178
 30
0.0
  0
LINE
  5
1781
330
173F
100
AcDbEntity
  8
0
100
AcDbLine
 10
51.5
 20
-54.16476937947052
 30
0.0
 11
51.49999999999998
 21
-28.42608254450011
 31
0.0
  0
LINE
  5
1782
330
173F
100
AcDbEntity
  8
0
100
AcDbLine
 10
-51.49999999999995
 20
-28.42608254450011
 30
0.0
 11
-51.5
 21
-54.16476937947052
 31
0.0
  0
LINE
  5
1783
330
173F
100
AcDbEntity
  8
0
100
AcDbLine
 10
-50.0
 20
-28.42608254450011
 30
0.0
 11
-50.0
 21
-54.16476937947052
 31
0.0
  0
LINE
  5
1784
330
173F
100
AcDbEntity
  8
0
100
AcDbLine
 10
-49.40000000000001
 20
-54.58903344818243
 30
0.0
 11
49.40000000000001
 21
-54.58903344818243
 31
0.0
  0
LINE
  5
1785
330
173F
100
AcDbEntity
  8
0
100
AcDbLine
 10
50.0
 20
-54.16476937947052
 30
0.0
 11
50.0
 21
-28.42608254450011
 31
0.0
  0
LINE
  5
1786
330
173F
100
AcDbEntity
  8
0
100
AcDbLine
 10
-49.40000000000001
 20
-55.64969361996226
 30
0.0
 11
49.40000000000001
 21
-55.64969361996226
 31
0.0
  0
LINE
  5
1787
330
173F
100
AcDbEntity
  8
0
100
AcDbLine
 10
-51.50000000000208
 20
-2.263131642256734
 30
0.0
 11
-51.49999999999998
 21
-21.35501473263468
 31
0.0
  0
LINE
  5
1788
330
173F
100
AcDbEntity
  8
0
100
AcDbLine
 10
-50.0000000000017
 20
-2.263131642256734
 30
0.0
 11
-49.99999999999999
 21
-21.35501473263467
 31
0.0
  0
CIRCLE
  5
1789
330
173F
100
AcDbEntity
  8
0
100
AcDbCircle
 10
39.99999999999999
 20
229.77
 30
0.0
 40
2.5
  0
CIRCLE
  5
178A
330
173F
100
AcDbEntity
  8
0
100
AcDbCircle
 10
39.99999999999999
 20
189.77
 30
0.0
 40
2.5
  0
CIRCLE
  5
178B
330
173F
100
AcDbEntity
  8
0
100
AcDbCircle
 10
39.99999999999999
 20
149.77
 30
0.0
 40
2.5
  0
CIRCLE
  5
178C
330
173F
100
AcDbEntity
  8
0
100
AcDbCircle
 10
39.99999999999999
 20
109.7699999999999
 30
0.0
 40
2.5
  0
CIRCLE
  5
178D
330
173F
100
AcDbEntity
  8
0
100
AcDbCircle
 10
39.99999999999999
 20
69.76999999999996
 30
0.0
 40
2.5
  0
CIRCLE
  5
178E
330
173F
100
AcDbEntity
  8
0
100
AcDbCircle
 10
39.99999999999999
 20
29.76999999999997
 30
0.0
 40
2.5
  0
CIRCLE
  5
178F
330
173F
100
AcDbEntity
  8
0
100
AcDbCircle
 10
29.99999999999998
 20
209.77
 30
0.0
 40
2.5
  0
CIRCLE
  5
1790
330
173F
100
AcDbEntity
  8
0
100
AcDbCircle
 10
29.99999999999998
 20
169.77
 30
0.0
 40
2.5
  0
CIRCLE
  5
1791
330
173F
100
AcDbEntity
  8
0
100
AcDbCircle
 10
29.99999999999998
 20
129.77
 30
0.0
 40
2.5
  0
CIRCLE
  5
1792
330
173F
100
AcDbEntity
  8
0
100
AcDbCircle
 10
29.99999999999998
 20
89.76999999999996
 30
0.0
 40
2.5
  0
CIRCLE
  5
1793
330
173F
100
AcDbEntity
  8
0
100
AcDbCircle
 10
29.99999999999998
 20
49.76999999999996
 30
0.0
 40
2.5
  0
CIRCLE
  5
1794
330
173F
100
AcDbEntity
  8
0
100
AcDbCircle
 10
29.99999999999998
 20
9.769999999999965
 30
0.0
 40
2.5
  0
CIRCLE
  5
1795
330
173F
100
AcDbEntity
  8
0
100
AcDbCircle
 10
-30.00000000000002
 20
229.77
 30
0.0
 40
2.5
  0
CIRCLE
  5
1796
330
173F
100
AcDbEntity
  8
0
100
AcDbCircle
 10
-30.00000000000002
 20
189.77
 30
0.0
 40
2.5
  0
CIRCLE
  5
1797
330
173F
100
AcDbEntity
  8
0
100
AcDbCircle
 10
-30.00000000000002
 20
149.77
 30
0.0
 40
2.5
  0
CIRCLE
  5
1798
330
173F
100
AcDbEntity
  8
0
100
AcDbCircle
 10
-30.00000000000002
 20
109.77
 30
0.0
 40
2.5
  0
CIRCLE
  5
1799
330
173F
100
AcDbEntity
  8
0
100
AcDbCircle
 10
-30.00000000000002
 20
69.76999999999998
 30
0.0
 40
2.5
  0
CIRCLE
  5
179A
330
173F
100
AcDbEntity
  8
0
100
AcDbCircle
 10
-30.00000000000002
 20
29.76999999999998
 30
0.0
 40
2.5
  0
CIRCLE
  5
179B
330
173F
100
AcDbEntity
  8
0
100
AcDbCircle
 10
-40.00000000000001
 20
209.77
 30
0.0
 40
2.5
  0
CIRCLE
  5
179C
330
173F
100
AcDbEntity
  8
0
100
AcDbCircle
 10
-40.00000000000001
 20
169.77
 30
0.0
 40
2.5
  0
CIRCLE
  5
179D
330
173F
100
AcDbEntity
  8
0
100
AcDbCircle
 10
-40.00000000000001
 20
129.77
 30
0.0
 40
2.5
  0
CIRCLE
  5
179E
330
173F
100
AcDbEntity
  8
0
100
AcDbCircle
 10
-40.00000000000001
 20
89.76999999999998
 30
0.0
 40
2.5
  0
CIRCLE
  5
179F
330
173F
100
AcDbEntity
  8
0
100
AcDbCircle
 10
-40.00000000000001
 20
49.76999999999998
 30
0.0
 40
2.5
  0
CIRCLE
  5
17A0
330
173F
100
AcDbEntity
  8
0
100
AcDbCircle
 10
-40.00000000000001
 20
9.769999999999983
 30
0.0
 40
2.5
  0
CIRCLE
  5
17A1
330
173F
100
AcDbEntity
  8
0
100
AcDbCircle
 10
-63.027090561
 20
69.76999999999998
 30
0.0
 40
2.5
  0
CIRCLE
  5
17A2
330
173F
100
AcDbEntity
  8
0
100
AcDbCircle
 10
57.02709056099997
 20
69.76999999999996
 30
0.0
 40
2.5
  0
CIRCLE
  5
17A3
330
173F
100
AcDbEntity
  8
0
100
AcDbCircle
 10
-57.02709056099998
 20
29.76999999999999
 30
0.0
 40
2.5
  0
CIRCLE
  5
17A4
330
173F
100
AcDbEntity
  8
0
100
AcDbCircle
 10
63.02709056099998
 20
29.76999999999998
 30
0.0
 40
2.5
  0
ELLIPSE
  5
17A5
330
173F
100
AcDbEntity
  8
0
100
AcDbEllipse
 10
-17.50000000000001
 20
0.0236058844764314
 30
0.0
 11
-2.5
 21
0.0
 31
0.0
210
0.0
220
0.0
230
1.0
 40
0.7071067811865479
 41
0.2563733270184629
 42
1.570796326794896
  0
LINE
  5
17A6
330
173F
100
AcDbEntity
  8
0
100
AcDbLine
 10
-12.50000000000001
 20
-1.744161068489949
 30
0.0
 11
-17.50000000000001
 21
-1.744161068489949
 31
0.0
  0
ELLIPSE
  5
17A7
330
173F
100
AcDbEntity
  8
0
100
AcDbEllipse
 10
-12.50000000000001
 20
0.0236058844764313
 30
0.0
 11
2.5
 21
-0.0000000000000005
 31
0.0
210
0.0
220
0.0
230
1.0
 40
0.7071067811865479
 41
4.712388980384689
 42
6.026811980161122
  0
SPLINE
  5
17A8
330
173F
100
AcDbEntity
  8
0
100
AcDbSpline
210
0.0
220
0.0
230
1.0
 70
     8
 71
     3
 72
     8
 73
     4
 74
     0
 42
0.000000001
 43
0.0000000001
 40
-1.0
 40
-1.0
 40
-1.0
 40
-1.0
 40
0.0
 40
0.0
 40
0.0
 40
0.0
 10
-19.91828991960763
 20
-0.4246540092928794
 30
0.0
 10
-19.99189972302056
 20
-0.3163012038324942
 30
0.0
 10
-20.01609483643931
 20
-0.1581319339738441
 30
0.0
 10
-19.98943351399745
 20
-0.0003899405809504
 30
0.0
  0
SPLINE
  5
17A9
330
173F
100
AcDbEntity
  8
0
100
AcDbSpline
210
0.0
220
0.0
230
1.0
 70
     8
 71
     3
 72
     8
 73
     4
 74
     0
 42
0.000000001
 43
0.0000000001
 40
-1.0
 40
-1.0
 40
-1.0
 40
-1.0
 40
0.0
 40
0.0
 40
0.0
 40
0.0
 10
-10.01056648600257
 20
-0.0003899405809506
 30
0.0
 10
-9.983905163560711
 20
-0.1581319339738751
 30
0.0
 10
-10.00810027698017
 20
-0.316301203832524
 30
0.0
 10
-10.08171008039238
 20
-0.4246540092928792
 30
0.0
  0
ARC
  5
17AA
330
173F
100
AcDbEntity
  8
0
100
AcDbCircle
 10
-12.50000000000001
 20
-0.229999999999963
 30
0.0
 40
2.5
100
AcDbArc
 50
5.269701326163729
 51
90.0
  0
LINE
  5
17AB
330
173F
100
AcDbEntity
  8
0
100
AcDbLine
 10
-17.50000000000001
 20
2.270000000000036
 30
0.0
 11
-12.50000000000001
 21
2.270000000000036
 31
0.0
  0
ARC
  5
17AC
330
173F
100
AcDbEntity
  8
0
100
AcDbCircle
 10
-17.50000000000001
 20
-0.229999999999963
 30
0.0
 40
2.5
100
AcDbArc
 50
90.0
 51
174.7302986738363
  0
ELLIPSE
  5
17AD
330
173F
100
AcDbEntity
  8
0
100
AcDbEllipse
 10
12.49999999999999
 20
0.0236058844764313
 30
0.0
 11
-2.5
 21
0.0
 31
0.0
210
0.0
220
0.0
230
1.0
 40
0.7071067811865479
 41
0.2563733270184629
 42
1.570796326794896
  0
LINE
  5
17AE
330
173F
100
AcDbEntity
  8
0
100
AcDbLine
 10
17.49999999999999
 20
-1.74416106848995
 30
0.0
 11
12.49999999999999
 21
-1.74416106848995
 31
0.0
  0
ELLIPSE
  5
17AF
330
173F
100
AcDbEntity
  8
0
100
AcDbEllipse
 10
17.49999999999999
 20
0.0236058844764313
 30
0.0
 11
2.5
 21
-0.0000000000000003
 31
0.0
210
0.0
220
0.0
230
1.0
 40
0.7071067811865479
 41
4.712388980384689
 42
6.026811980161122
  0
SPLINE
  5
17B0
330
173F
100
AcDbEntity
  8
0
100
AcDbSpline
210
0.0
220
0.0
230
1.0
 70
     8
 71
     3
 72
     8
 73
     4
 74
     0
 42
0.000000001
 43
0.0000000001
 40
-1.0
 40
-1.0
 40
-1.0
 40
-1.0
 40
0.0
 40
0.0
 40
0.0
 40
0.0
 10
10.08171008039237
 20
-0.4246540092928794
 30
0.0
 10
10.00810027697964
 20
-0.3163012038325117
 30
0.0
 10
9.983905163560763
 20
-0.1581319339738799
 30
0.0
 10
10.01056648600255
 20
-0.0003899405809506
 30
0.0
  0
SPLINE
  5
17B1
330
173F
100
AcDbEntity
  8
0
100
AcDbSpline
210
0.0
220
0.0
230
1.0
 70
     8
 71
     3
 72
     8
 73
     4
 74
     0
 42
0.000000001
 43
0.0000000001
 40
-1.0
 40
-1.0
 40
-1.0
 40
-1.0
 40
0.0
 40
0.0
 40
0.0
 40
0.0
 10
19.98943351399742
 20
-0.0003899405809504
 30
0.0
 10
20.01609483643941
 20
-0.1581319339738405
 30
0.0
 10
19.99189972301987
 20
-0.3163012038324922
 30
0.0
 10
19.9182899196076
 20
-0.4246540092928794
 30
0.0
  0
ARC
  5
17B2
330
173F
100
AcDbEntity
  8
0
100
AcDbCircle
 10
17.49999999999999
 20
-0.229999999999963
 30
0.0
 40
2.5
100
AcDbArc
 50
5.269701326163729
 51
90.0
  0
LINE
  5
17B3
330
173F
100
AcDbEntity
  8
0
100
AcDbLine
 10
12.49999999999999
 20
2.270000000000036
 30
0.0
 11
17.49999999999999
 21
2.270000000000036
 31
0.0
  0
ARC
  5
17B4
330
173F
100
AcDbEntity
  8
0
100
AcDbCircle
 10
12.49999999999999
 20
-0.229999999999963
 30
0.0
 40
2.5
100
AcDbArc
 50
90.0
 51
174.7302986738363
  0
ELLIPSE
  5
17B5
330
173F
100
AcDbEntity
  8
0
100
AcDbEllipse
 10
-32.50000000000001
 20
0.0236058844764314
 30
0.0
 11
2.499999999999999
 21
-0.0000000000000003
 31
0.0
210
0.0
220
0.0
230
1.0
 40
0.707106781186548
 41
3.397965980608258
 42
6.026811980161122
  0
ELLIPSE
  5
17B6
330
173F
100
AcDbEntity
  8
0
100
AcDbEllipse
 10
32.5
 20
0.0236058844764314
 30
0.0
 11
2.5
 21
-0.0000000000000005
 31
0.0
210
0.0
220
0.0
230
1.0
 40
0.7071067811865479
 41
3.397965980608255
 42
6.026811980161121
  0
SPLINE
  5
17B7
330
173F
100
AcDbEntity
  8
0
100
AcDbSpline
210
0.0
220
0.0
230
1.0
 70
     8
 71
     3
 72
     8
 73
     4
 74
     0
 42
0.000000001
 43
0.0000000001
 40
-1.0
 40
-1.0
 40
-1.0
 40
-1.0
 40
0.0
 40
0.0
 40
0.0
 40
0.0
 10
30.08171008039238
 20
-0.4246540092928798
 30
0.0
 10
30.00810027698018
 20
-0.3163012038324937
 30
0.0
 10
29.98390516356094
 20
-0.1581319339738729
 30
0.0
 10
30.0105664860026
 20
-0.0003899405809506
 30
0.0
  0
SPLINE
  5
17B8
330
173F
100
AcDbEntity
  8
0
100
AcDbSpline
210
0.0
220
0.0
230
1.0
 70
     8
 71
     3
 72
     8
 73
     4
 74
     0
 42
0.000000001
 43
0.0000000001
 40
-1.0
 40
-1.0
 40
-1.0
 40
-1.0
 40
0.0
 40
0.0
 40
0.0
 40
0.0
 10
-30.01056648600256
 20
-0.0003899405809504
 30
0.0
 10
-29.9839051635611
 20
-0.1581319339738704
 30
0.0
 10
-30.00810027698042
 20
-0.3163012038324556
 30
0.0
 10
-30.08171008039236
 20
-0.4246540092928793
 30
0.0
  0
SPLINE
  5
17B9
330
173F
100
AcDbEntity
  8
0
100
AcDbSpline
210
0.0
220
0.0
230
1.0
 70
     8
 71
     3
 72
     8
 73
     4
 74
     0
 42
0.000000001
 43
0.0000000001
 40
-1.0
 40
-1.0
 40
-1.0
 40
-1.0
 40
0.0
 40
0.0
 40
0.0
 40
0.0
 10
-34.91828991960762
 20
-0.4246540092928796
 30
0.0
 10
-34.99189972302121
 20
-0.316301203832503
 30
0.0
 10
-35.0160948364389
 20
-0.1581319339738682
 30
0.0
 10
-34.98943351399744
 20
-0.0003899405809507
 30
0.0
  0
ARC
  5
17BA
330
173F
100
AcDbEntity
  8
0
100
AcDbCircle
 10
-32.50000000000001
 20
-0.229999999999963
 30
0.0
 40
2.499999999999999
100
AcDbArc
 50
5.269701326163729
 51
174.7302986738363
  0
SPLINE
  5
17BB
330
173F
100
AcDbEntity
  8
0
100
AcDbSpline
210
0.0
220
0.0
230
1.0
 70
     8
 71
     3
 72
     8
 73
     4
 74
     0
 42
0.000000001
 43
0.0000000001
 40
-1.0
 40
-1.0
 40
-1.0
 40
-1.0
 40
0.0
 40
0.0
 40
0.0
 40
0.0
 10
34.98943351399743
 20
-0.0003899405809506
 30
0.0
 10
35.01609483643922
 20
-0.1581319339738732
 30
0.0
 10
34.99189972301866
 20
-0.3163012038324524
 30
0.0
 10
34.91828991960765
 20
-0.4246540092928796
 30
0.0
  0
ARC
  5
17BC
330
173F
100
AcDbEntity
  8
0
100
AcDbCircle
 10
32.5
 20
-0.229999999999963
 30
0.0
 40
2.5
100
AcDbArc
 50
5.269701326163729
 51
174.7302986738363
  0
ELLIPSE
  5
17BD
330
173F
100
AcDbEntity
  8
0
100
AcDbEllipse
 10
-49.40000000000001
 20
-54.16476937947051
 30
0.0
 11
-2.100000000000031
 21
0.0000000000000056
 31
0.0
210
0.0
220
0.0
230
1.0
 40
0.7071067811864883
 41
0.0
 42
1.570796326794898
  0
ELLIPSE
  5
17BE
330
173F
100
AcDbEntity
  8
0
100
AcDbEllipse
 10
-49.40000000000001
 20
-54.16476937947051
 30
0.0
 11
-0.6000000000000087
 21
0.0
 31
0.0
210
0.0
220
0.0
230
1.0
 40
0.7071067811865506
 41
0.0
 42
1.570796326794882
  0
LINE
  5
17BF
330
173F
100
AcDbEntity
  8
0
100
AcDbLine
 10
49.39999999999999
 20
240.67
 30
0.0
 11
50.0
 21
240.67
 31
0.0
  0
LINE
  5
17C0
330
173F
100
AcDbEntity
  8
0
100
AcDbLine
 10
49.39999999999999
 20
80.27000000000001
 30
0.0
 11
50.0
 21
80.27000000000001
 31
0.0
  0
LINE
  5
17C1
330
173F
100
AcDbEntity
  8
0
100
AcDbLine
 10
-50.0
 20
240.67
 30
0.0
 11
-49.40000000000001
 21
240.67
 31
0.0
  0
LINE
  5
17C2
330
173F
100
AcDbEntity
  8
0
100
AcDbLine
 10
-50.0
 20
80.27000000000001
 30
0.0
 11
-49.40000000000001
 21
80.27000000000001
 31
0.0
  0
ENDBLK
  5
1741
330
173F
100
AcDbEntity
  8
0
100
AcDbBlockEnd
  0
BLOCK
  5
17C4
330
17C3
100
AcDbEntity
  8
0
100
AcDbBlockBegin
  2
SPR100_240-Left
 70
     0
 10
0.0
 20
0.0
 30
0.0
  3
SPR100_240-Left
  1

  0
LINE
  5
17C6
330
17C3
100
AcDbEntity
  8
0
100
AcDbLine
 10
0.0
 20
-0.0003899405809516
 30
0.0
 11
0.0
 21
1.270000000000001
 31
0.0
  0
LINE
  5
17C7
330
17C3
100
AcDbEntity
  8
0
100
AcDbLine
 10
62.91118318265866
 20
-2.263131642256734
 30
0.0
 11
4.362741700911225
 21
-2.263131641492214
 31
0.0
  0
LINE
  5
17C8
330
17C3
100
AcDbEntity
  8
0
100
AcDbLine
 10
1.675735931288091
 20
-0.4246540092928777
 30
0.0
 11
2.288136209298629
 21
-1.037054287303415
 31
0.0
  0
LINE
  5
17C9
330
17C3
100
AcDbEntity
  8
0
100
AcDbLine
 10
2.288136209298585
 20
-1.03705428730339
 30
0.0
 11
2.717240184541144
 21
-1.466158262545949
 31
0.0
  0
SPLINE
  5
17CA
330
17C3
100
AcDbEntity
  8
0
100
AcDbSpline
210
0.0
220
0.0
230
1.0
 70
     8
 71
     3
 72
     8
 73
     4
 74
     0
 42
0.000000001
 43
0.0000000001
 40
0.0
 40
0.0
 40
0.0
 40
0.0
 40
1.0
 40
1.0
 40
1.0
 40
1.0
 10
0.6150757595082722
 20
-1.485314181072701
 30
0.0
 10
0.2539843833467359
 20
-1.124222804911164
 30
0.0
 10
0.0000000000000221
 20
-0.5572023868216841
 30
0.0
 10
0.000000000000022
 20
-0.000389940580951
 30
0.0
  0
SPLINE
  5
17CB
330
17C3
100
AcDbEntity
  8
0
100
AcDbSpline
210
0.0
220
0.0
230
1.0
 70
     8
 71
     3
 72
     8
 73
     4
 74
     0
 42
0.000000001
 43
0.0000000001
 40
-1.0
 40
-1.0
 40
-1.0
 40
-1.0
 40
0.0
 40
0.0
 40
0.0
 40
0.0
 10
1.500000000000022
 20
-0.0003899405809507
 30
0.0
 10
1.500000000000022
 20
-0.1594792109354459
 30
0.0
 10
1.572566966670511
 20
-0.3214850446752977
 30
0.0
 10
1.675735931288093
 20
-0.4246540092928796
 30
0.0
  0
SPLINE
  5
17CC
330
17C3
100
AcDbEntity
  8
0
100
AcDbSpline
210
0.0
220
0.0
230
1.0
 70
     8
 71
     3
 72
     8
 73
     4
 74
     0
 42
0.000000001
 43
0.0000000001
 40
-1.0
 40
-1.0
 40
-1.0
 40
-1.0
 40
0.0
 40
0.0
 40
0.0
 40
0.0
 10
2.717240184541156
 20
-1.46615826254593
 30
0.0
 10
3.124319333760519
 20
-1.873237411765294
 30
0.0
 10
3.733518404784288
 20
-2.07819663918104
 30
0.0
 10
4.362741700911227
 20
-2.26313164149215
 30
0.0
  0
LINE
  5
17CD
330
17C3
100
AcDbEntity
  8
0
100
AcDbLine
 10
2.717240184541144
 20
-1.466158262545949
 30
0.0
 11
2.364040347338555
 21
-1.819358099748538
 31
0.0
  0
LINE
  5
17CE
330
17C3
100
AcDbEntity
  8
0
100
AcDbLine
 10
2.364040347338555
 20
-1.819358099748538
 30
0.0
 11
1.656580012761323
 21
-2.52681843432577
 31
0.0
  0
SPLINE
  5
17CF
330
17C3
100
AcDbEntity
  8
0
100
AcDbSpline
210
0.0
220
0.0
230
1.0
 70
     8
 71
     3
 72
     8
 73
     4
 74
     0
 42
0.000000001
 43
0.0000000001
 40
0.0
 40
0.0
 40
0.0
 40
0.0
 40
1.0
 40
1.0
 40
1.0
 40
1.0
 10
4.3627417009112
 20
-2.263131641492178
 30
0.0
 10
3.178158037514487
 20
-2.633557006450841
 30
0.0
 10
2.063659161980698
 20
-2.933897583545115
 30
0.0
 10
1.656580012761334
 20
-2.526818434325751
 30
0.0
  0
LINE
  5
17D0
330
17C3
100
AcDbEntity
  8
0
100
AcDbLine
 10
1.656580012761323
 20
-2.52681843432577
 30
0.0
 11
1.227476037518767
 21
-2.097714459083206
 31
0.0
  0
LINE
  5
17D1
330
17C3
100
AcDbEntity
  8
0
100
AcDbLine
 10
2.288136209298585
 20
-1.03705428730339
 30
0.0
 11
1.227476037518767
 21
-2.097714459083206
 31
0.0
  0
LINE
  5
17D2
330
17C3
100
AcDbEntity
  8
0
100
AcDbLine
 10
1.22747603751882
 20
-2.097714459083224
 30
0.0
 11
0.6150757595082825
 21
-1.485314181072686
 31
0.0
  0
LINE
  5
17D3
330
17C3
100
AcDbEntity
  8
0
100
AcDbLine
 10
1.675735931288093
 20
-0.4246540092928796
 30
0.0
 11
1.322536092804783
 21
-0.7778538477761893
 31
0.0
  0
LINE
  5
17D4
330
17C3
100
AcDbEntity
  8
0
100
AcDbLine
 10
1.322536092804783
 20
-0.7778538477761893
 30
0.0
 11
0.6150757595082724
 21
-1.485314181072701
 31
0.0
  0
LINE
  5
17D5
330
17C3
100
AcDbEntity
  8
0
100
AcDbLine
 10
1.500000000000007
 20
-0.0003899405809504
 30
0.0
 11
1.000499995402682
 21
-0.0003899405809504
 31
0.0
  0
LINE
  5
17D6
330
17C3
100
AcDbEntity
  8
0
100
AcDbLine
 10
1.000499995402682
 20
-0.0003899405809504
 30
0.0
 11
0.0
 21
-0.0003899405809504
 31
0.0
  0
LINE
  5
17D7
330
17C3
100
AcDbEntity
  8
0
100
AcDbLine
 10
1.500000000000004
 20
1.270000000000001
 30
0.0
 11
1.500000000000004
 21
-0.000389940580951
 31
0.0
  0
LINE
  5
17D8
330
17C3
100
AcDbEntity
  8
0
100
AcDbLine
 10
0.0
 20
6.269999999999996
 30
0.0
 11
0.0
 21
1.269999999999996
 31
0.0
  0
LINE
  5
17D9
330
17C3
100
AcDbEntity
  8
0
100
AcDbLine
 10
0.0
 20
77.27
 30
0.0
 11
0.0
 21
72.27
 31
0.0
  0
LINE
  5
17DA
330
17C3
100
AcDbEntity
  8
0
100
AcDbLine
 10
1.500000000000016
 20
1.269999999999996
 30
0.0
 11
1.500000000000017
 21
6.269999999999996
 31
0.0
  0
LINE
  5
17DB
330
17C3
100
AcDbEntity
  8
0
100
AcDbLine
 10
1.500000000000017
 20
6.269999999999996
 30
0.0
 11
0.0
 21
6.269999999999996
 31
0.0
  0
LINE
  5
17DC
330
17C3
100
AcDbEntity
  8
0
100
AcDbLine
 10
0.0
 20
1.269999999999996
 30
0.0
 11
1.500000000000016
 21
1.269999999999996
 31
0.0
  0
LINE
  5
17DD
330
17C3
100
AcDbEntity
  8
0
100
AcDbLine
 10
0.0
 20
72.27
 30
0.0
 11
1.500000000000017
 21
72.27
 31
0.0
  0
LINE
  5
17DE
330
17C3
100
AcDbEntity
  8
0
100
AcDbLine
 10
1.500000000000017
 20
72.27
 30
0.0
 11
1.500000000000015
 21
77.27
 31
0.0
  0
LINE
  5
17DF
330
17C3
100
AcDbEntity
  8
0
100
AcDbLine
 10
1.500000000000015
 20
77.27
 30
0.0
 11
0.0
 21
77.27
 31
0.0
  0
LINE
  5
17E0
330
17C3
100
AcDbEntity
  8
0
100
AcDbLine
 10
0.0
 20
6.269999999999996
 30
0.0
 11
0.0
 21
72.27
 31
0.0
  0
LINE
  5
17E1
330
17C3
100
AcDbEntity
  8
0
100
AcDbLine
 10
0.0
 20
77.27
 30
0.0
 11
0.0
 21
80.26999999999999
 31
0.0
  0
LINE
  5
17E2
330
17C3
100
AcDbEntity
  8
0
100
AcDbLine
 10
1.500000000000017
 20
6.269999999999996
 30
0.0
 11
1.500000000000017
 21
72.27
 31
0.0
  0
LINE
  5
17E3
330
17C3
100
AcDbEntity
  8
0
100
AcDbLine
 10
1.500000000000004
 20
77.27
 30
0.0
 11
1.500000000000004
 21
80.26999999999999
 31
0.0
  0
LINE
  5
17E4
330
17C3
100
AcDbEntity
  8
0
100
AcDbLine
 10
0.0
 20
80.27000000000001
 30
0.0
 11
0.0
 21
240.67
 31
0.0
  0
LINE
  5
17E5
330
17C3
100
AcDbEntity
  8
0
100
AcDbLine
 10
2.100000000000011
 20
240.67
 30
0.0
 11
0.0
 21
240.67
 31
0.0
  0
LINE
  5
17E6
330
17C3
100
AcDbEntity
  8
0
100
AcDbLine
 10
0.0
 20
80.27000000000001
 30
0.0
 11
2.100000000000002
 21
80.27000000000001
 31
0.0
  0
LINE
  5
17E7
330
17C3
100
AcDbEntity
  8
0
100
AcDbLine
 10
43.50000000000001
 20
85.27000000000001
 30
0.0
 11
38.50000000000001
 21
80.27000000000001
 31
0.0
  0
LINE
  5
17E8
330
17C3
100
AcDbEntity
  8
0
100
AcDbLine
 10
38.50000000000002
 20
240.67
 30
0.0
 11
43.50000000000001
 21
235.67
 31
0.0
  0
LINE
  5
17E9
330
17C3
100
AcDbEntity
  8
0
100
AcDbLine
 10
82.00306627385998
 20
-21.35501473263468
 30
0.0
 11
82.00306627385996
 21
-28.42608254450011
 31
0.0
  0
CIRCLE
  5
17EA
330
17C3
100
AcDbEntity
  8
0
100
AcDbCircle
 10
35.50000000000002
 20
227.77
 30
0.0
 40
2.5
  0
CIRCLE
  5
17EB
330
17C3
100
AcDbEntity
  8
0
100
AcDbCircle
 10
35.50000000000002
 20
207.77
 30
0.0
 40
2.5
  0
CIRCLE
  5
17EC
330
17C3
100
AcDbEntity
  8
0
100
AcDbCircle
 10
35.50000000000002
 20
187.77
 30
0.0
 40
2.5
  0
CIRCLE
  5
17ED
330
17C3
100
AcDbEntity
  8
0
100
AcDbCircle
 10
35.50000000000002
 20
167.7699999999999
 30
0.0
 40
2.5
  0
CIRCLE
  5
17EE
330
17C3
100
AcDbEntity
  8
0
100
AcDbCircle
 10
35.50000000000002
 20
147.77
 30
0.0
 40
2.5
  0
CIRCLE
  5
17EF
330
17C3
100
AcDbEntity
  8
0
100
AcDbCircle
 10
35.50000000000002
 20
127.77
 30
0.0
 40
2.5
  0
CIRCLE
  5
17F0
330
17C3
100
AcDbEntity
  8
0
100
AcDbCircle
 10
35.50000000000002
 20
107.77
 30
0.0
 40
2.5
  0
CIRCLE
  5
17F1
330
17C3
100
AcDbEntity
  8
0
100
AcDbCircle
 10
35.50000000000002
 20
87.76999999999999
 30
0.0
 40
2.5
  0
LINE
  5
17F2
330
17C3
100
AcDbEntity
  8
0
100
AcDbLine
 10
43.50000000000001
 20
235.67
 30
0.0
 11
43.50000000000001
 21
85.27000000000001
 31
0.0
  0
LINE
  5
17F3
330
17C3
100
AcDbEntity
  8
0
100
AcDbLine
 10
2.100000000000011
 20
240.67
 30
0.0
 11
38.50000000000002
 21
240.67
 31
0.0
  0
LINE
  5
17F4
330
17C3
100
AcDbEntity
  8
0
100
AcDbLine
 10
38.50000000000001
 20
80.27000000000001
 30
0.0
 11
2.100000000000004
 21
80.27000000000001
 31
0.0
  0
LINE
  5
17F5
330
17C3
100
AcDbEntity
  8
0
100
AcDbLine
 10
82.00306627385996
 20
-28.42608254450011
 30
0.0
 11
56.26437943888955
 21
-54.16476937947052
 31
0.0
  0
LINE
  5
17F6
330
17C3
100
AcDbEntity
  8
0
100
AcDbLine
 10
62.91118318265866
 20
-2.263131642256734
 30
0.0
 11
82.00306627385998
 21
-21.35501473263468
 31
0.0
  0
CIRCLE
  5
17F7
330
17C3
100
AcDbEntity
  8
0
100
AcDbCircle
 10
74.57844507130477
 20
-25.24410202925711
 30
0.0
 40
2.5
  0
ARC
  5
17F8
330
17C3
100
AcDbEntity
  8
0
100
AcDbCircle
 10
59.31559010709463
 20
-13.990452698916
 30
0.0
 40
0.8000000000000012
100
AcDbArc
 50
315.000000001042
 51
75.00000000104186
  0
LINE
  5
17F9
330
17C3
100
AcDbEntity
  8
0
100
AcDbLine
 10
59.88127553205416
 20
-14.55613812385494
 30
0.0
 11
56.81941335363088
 21
-17.61800030238964
 31
0.0
  0
ARC
  5
17FA
330
17C3
100
AcDbEntity
  8
0
100
AcDbCircle
 10
56.25372792867135
 20
-17.0523148774507
 30
0.0
 40
0.8
100
AcDbArc
 50
195.0000000010428
 51
315.0000000010428
  0
LINE
  5
17FB
330
17C3
100
AcDbEntity
  8
0
100
AcDbLine
 10
55.48098726764387
 20
-17.25937011354677
 30
0.0
 11
54.36026792735771
 21
-13.07678859487811
 31
0.0
  0
ARC
  5
17FC
330
17C3
100
AcDbEntity
  8
0
100
AcDbCircle
 10
55.13300858838519
 20
-12.86973335878203
 30
0.0
 40
0.8000000000000014
100
AcDbArc
 50
75.00000000104188
 51
195.0000000010427
  0
LINE
  5
17FD
330
17C3
100
AcDbEntity
  8
0
100
AcDbLine
 10
55.34006382445316
 20
-12.096992697747
 30
0.0
 11
59.5226453431626
 21
-13.21771203788096
 31
0.0
  0
LINE
  5
17FE
330
17C3
100
AcDbEntity
  8
0
100
AcDbLine
 10
55.28251771018369
 20
-12.08382813389861
 30
0.0
 11
54.34710336350719
 21
-13.01924248060914
 31
0.0
  0
LINE
  5
17FF
330
17C3
100
AcDbEntity
  8
0
100
AcDbLine
 10
54.77945519839778
 20
-55.64969361996226
 30
0.0
 11
1.656580012761317
 21
-2.52681843432577
 31
0.0
  0
LINE
  5
1800
330
17C3
100
AcDbEntity
  8
0
100
AcDbLine
 10
56.26437943888955
 20
-54.1647693794705
 30
0.0
 11
54.77945519839767
 21
-55.64969361996215
 31
0.0
  0
ENDBLK
  5
17C5
330
17C3
100
AcDbEntity
  8
0
100
AcDbBlockEnd
  0
BLOCK
  5
1802
330
1801
100
AcDbEntity
  8
0
100
AcDbBlockBegin
  2
SPR100_240-Right
 70
     0
 10
0.0
 20
0.0
 30
0.0
  3
SPR100_240-Right
  1

  0
LINE
  5
1804
330
1801
100
AcDbEntity
  8
0
100
AcDbLine
 10
-1.499999999999965
 20
6.269999999999996
 30
0.0
 11
-1.499999999999966
 21
1.269999999999996
 31
0.0
  0
LINE
  5
1805
330
1801
100
AcDbEntity
  8
0
100
AcDbLine
 10
-1.499999999999966
 20
1.269999999999996
 30
0.0
 11
0.0
 21
1.269999999999987
 31
0.0
  0
LINE
  5
1806
330
1801
100
AcDbEntity
  8
0
100
AcDbLine
 10
0.0
 20
1.269999999999987
 30
0.0
 11
0.0
 21
6.269999999999996
 31
0.0
  0
LINE
  5
1807
330
1801
100
AcDbEntity
  8
0
100
AcDbLine
 10
0.0
 20
6.269999999999996
 30
0.0
 11
-1.499999999999965
 21
6.269999999999996
 31
0.0
  0
LINE
  5
1808
330
1801
100
AcDbEntity
  8
0
100
AcDbLine
 10
-1.499999999999965
 20
72.27000000000001
 30
0.0
 11
0.0
 21
72.27000000000001
 31
0.0
  0
LINE
  5
1809
330
1801
100
AcDbEntity
  8
0
100
AcDbLine
 10
0.0
 20
72.27000000000001
 30
0.0
 11
0.0
 21
77.27000000000001
 31
0.0
  0
LINE
  5
180A
330
1801
100
AcDbEntity
  8
0
100
AcDbLine
 10
-1.499999999999966
 20
77.27000000000001
 30
0.0
 11
-1.499999999999965
 21
72.27000000000001
 31
0.0
  0
LINE
  5
180B
330
1801
100
AcDbEntity
  8
0
100
AcDbLine
 10
0.0
 20
77.27000000000001
 30
0.0
 11
-1.499999999999966
 21
77.27000000000001
 31
0.0
  0
LINE
  5
180C
330
1801
100
AcDbEntity
  8
0
100
AcDbLine
 10
0.0
 20
72.27000000000001
 30
0.0
 11
0.0
 21
6.269999999999997
 31
0.0
  0
LINE
  5
180D
330
1801
100
AcDbEntity
  8
0
100
AcDbLine
 10
-1.499999999999965
 20
72.27000000000001
 30
0.0
 11
-1.499999999999965
 21
6.269999999999997
 31
0.0
  0
LINE
  5
180E
330
1801
100
AcDbEntity
  8
0
100
AcDbLine
 10
0.0
 20
80.27000000000001
 30
0.0
 11
0.0
 21
77.27000000000001
 31
0.0
  0
LINE
  5
180F
330
1801
100
AcDbEntity
  8
0
100
AcDbLine
 10
-1.499999999999978
 20
80.27000000000001
 30
0.0
 11
-1.499999999999978
 21
77.27000000000001
 31
0.0
  0
LINE
  5
1810
330
1801
100
AcDbEntity
  8
0
100
AcDbLine
 10
0.0
 20
1.270000000000001
 30
0.0
 11
0.0
 21
-0.000389940580951
 31
0.0
  0
LINE
  5
1811
330
1801
100
AcDbEntity
  8
0
100
AcDbLine
 10
-4.36274170091118
 20
-2.263131641492201
 30
0.0
 11
-62.91118318265866
 21
-2.263131642256747
 31
0.0
  0
LINE
  5
1812
330
1801
100
AcDbEntity
  8
0
100
AcDbLine
 10
-2.717240184541118
 20
-1.466158262545953
 30
0.0
 11
-2.288136209298559
 21
-1.037054287303394
 31
0.0
  0
LINE
  5
1813
330
1801
100
AcDbEntity
  8
0
100
AcDbLine
 10
-2.288136209298609
 20
-1.037054287303415
 30
0.0
 11
-1.675735931288064
 21
-0.42465400929287
 31
0.0
  0
SPLINE
  5
1814
330
1801
100
AcDbEntity
  8
0
100
AcDbSpline
210
0.0
220
0.0
230
1.0
 70
     8
 71
     3
 72
     8
 73
     4
 74
     0
 42
0.000000001
 43
0.0000000001
 40
0.0
 40
0.0
 40
0.0
 40
0.0
 40
1.0
 40
1.0
 40
1.0
 40
1.0
 10
-0.0000000000000019
 20
-0.0003899405809515
 30
0.0
 10
-0.0000000000000022
 20
-0.5572023868216953
 30
0.0
 10
-0.2539843833467177
 20
-1.124222804911166
 30
0.0
 10
-0.615075759508252
 20
-1.485314181072701
 30
0.0
  0
SPLINE
  5
1815
330
1801
100
AcDbEntity
  8
0
100
AcDbSpline
210
0.0
220
0.0
230
1.0
 70
     8
 71
     3
 72
     8
 73
     4
 74
     0
 42
0.000000001
 43
0.0000000001
 40
-1.0
 40
-1.0
 40
-1.0
 40
-1.0
 40
0.0
 40
0.0
 40
0.0
 40
0.0
 10
-1.675735931288073
 20
-0.4246540092928796
 30
0.0
 10
-1.572566966670492
 20
-0.3214850446752982
 30
0.0
 10
-1.500000000000002
 20
-0.1594792109354491
 30
0.0
 10
-1.500000000000002
 20
-0.0003899405809508
 30
0.0
  0
LINE
  5
1816
330
1801
100
AcDbEntity
  8
0
100
AcDbLine
 10
-2.717240184541118
 20
-1.466158262545953
 30
0.0
 11
-2.364040347338216
 21
-1.819358099748854
 31
0.0
  0
SPLINE
  5
1817
330
1801
100
AcDbEntity
  8
0
100
AcDbSpline
210
0.0
220
0.0
230
1.0
 70
     8
 71
     3
 72
     8
 73
     4
 74
     0
 42
0.000000001
 43
0.0000000001
 40
-1.0
 40
-1.0
 40
-1.0
 40
-1.0
 40
0.0
 40
0.0
 40
0.0
 40
0.0
 10
-4.362741700911215
 20
-2.263131641492168
 30
0.0
 10
-3.733518404784107
 20
-2.078196639180907
 30
0.0
 10
-3.124319333760636
 20
-1.873237411765442
 30
0.0
 10
-2.717240184541116
 20
-1.466158262545921
 30
0.0
  0
SPLINE
  5
1818
330
1801
100
AcDbEntity
  8
0
100
AcDbSpline
210
0.0
220
0.0
230
1.0
 70
     8
 71
     3
 72
     8
 73
     4
 74
     0
 42
0.000000001
 43
0.0000000001
 40
0.0
 40
0.0
 40
0.0
 40
0.0
 40
1.0
 40
1.0
 40
1.0
 40
1.0
 10
-1.656580012761294
 20
-2.526818434325742
 30
0.0
 10
-2.063659161980814
 20
-2.933897583545262
 30
0.0
 10
-3.178158037514276
 20
-2.633557006450736
 30
0.0
 10
-4.362741700911179
 20
-2.263131641492202
 30
0.0
  0
LINE
  5
1819
330
1801
100
AcDbEntity
  8
0
100
AcDbLine
 10
-2.364040347338216
 20
-1.819358099748854
 30
0.0
 11
-1.656580012761297
 21
-2.526818434325774
 31
0.0
  0
LINE
  5
181A
330
1801
100
AcDbEntity
  8
0
100
AcDbLine
 10
-0.6150757595082564
 20
-1.485314181072676
 30
0.0
 11
-1.227476037518801
 21
-2.097714459083222
 31
0.0
  0
LINE
  5
181B
330
1801
100
AcDbEntity
  8
0
100
AcDbLine
 10
-0.6150757595082519
 20
-1.4853141810727
 30
0.0
 11
-1.322536092813821
 21
-0.7778538477671316
 31
0.0
  0
LINE
  5
181C
330
1801
100
AcDbEntity
  8
0
100
AcDbLine
 10
-1.322536092813821
 20
-0.7778538477671316
 30
0.0
 11
-1.675735931288073
 21
-0.4246540092928793
 31
0.0
  0
LINE
  5
181D
330
1801
100
AcDbEntity
  8
0
100
AcDbLine
 10
-2.288136209298559
 20
-1.037054287303394
 30
0.0
 11
-1.227476037518743
 21
-2.097714459083209
 31
0.0
  0
LINE
  5
181E
330
1801
100
AcDbEntity
  8
0
100
AcDbLine
 10
-1.227476037518743
 20
-2.097714459083209
 30
0.0
 11
-1.656580012761297
 21
-2.526818434325774
 31
0.0
  0
LINE
  5
181F
330
1801
100
AcDbEntity
  8
0
100
AcDbLine
 10
-1.499999999999981
 20
-0.0003899405809504
 30
0.0
 11
-1.00049999547496
 21
-0.0003899405809504
 31
0.0
  0
LINE
  5
1820
330
1801
100
AcDbEntity
  8
0
100
AcDbLine
 10
-1.00049999547496
 20
-0.0003899405809504
 30
0.0
 11
0.0
 21
-0.0003899405809504
 31
0.0
  0
LINE
  5
1821
330
1801
100
AcDbEntity
  8
0
100
AcDbLine
 10
-1.499999999999984
 20
-0.0003899405809516
 30
0.0
 11
-1.499999999999984
 21
1.270000000000001
 31
0.0
  0
LINE
  5
1822
330
1801
100
AcDbEntity
  8
0
100
AcDbLine
 10
0.0
 20
80.27000000000001
 30
0.0
 11
0.0
 21
240.67
 31
0.0
  0
LINE
  5
1823
330
1801
100
AcDbEntity
  8
0
100
AcDbLine
 10
0.0
 20
240.67
 30
0.0
 11
-2.099999999999943
 21
240.67
 31
0.0
  0
LINE
  5
1824
330
1801
100
AcDbEntity
  8
0
100
AcDbLine
 10
-2.099999999999961
 20
80.27000000000001
 30
0.0
 11
0.0
 21
80.27000000000001
 31
0.0
  0
LINE
  5
1825
330
1801
100
AcDbEntity
  8
0
100
AcDbLine
 10
-38.49999999999996
 20
80.27000000000001
 30
0.0
 11
-43.49999999999995
 21
85.27000000000001
 31
0.0
  0
LINE
  5
1826
330
1801
100
AcDbEntity
  8
0
100
AcDbLine
 10
-43.49999999999995
 20
235.67
 30
0.0
 11
-38.49999999999996
 21
240.67
 31
0.0
  0
LINE
  5
1827
330
1801
100
AcDbEntity
  8
0
100
AcDbLine
 10
-82.00306627385993
 20
-28.42608254450011
 30
0.0
 11
-82.00306627385996
 21
-21.35501473263468
 31
0.0
  0
LINE
  5
1828
330
1801
100
AcDbEntity
  8
0
100
AcDbLine
 10
-43.49999999999995
 20
85.27000000000001
 30
0.0
 11
-43.49999999999995
 21
235.67
 31
0.0
  0
LINE
  5
1829
330
1801
100
AcDbEntity
  8
0
100
AcDbLine
 10
-2.099999999999961
 20
80.27000000000001
 30
0.0
 11
-38.49999999999996
 21
80.27000000000001
 31
0.0
  0
LINE
  5
182A
330
1801
100
AcDbEntity
  8
0
100
AcDbLine
 10
-38.49999999999996
 20
240.67
 30
0.0
 11
-2.099999999999941
 21
240.67
 31
0.0
  0
CIRCLE
  5
182B
330
1801
100
AcDbEntity
  8
0
100
AcDbCircle
 10
-35.49999999999999
 20
232.77
 30
0.0
 40
2.5
  0
CIRCLE
  5
182C
330
1801
100
AcDbEntity
  8
0
100
AcDbCircle
 10
-35.49999999999999
 20
212.77
 30
0.0
 40
2.5
  0
CIRCLE
  5
182D
330
1801
100
AcDbEntity
  8
0
100
AcDbCircle
 10
-35.49999999999999
 20
192.77
 30
0.0
 40
2.5
  0
CIRCLE
  5
182E
330
1801
100
AcDbEntity
  8
0
100
AcDbCircle
 10
-35.49999999999999
 20
172.77
 30
0.0
 40
2.5
  0
CIRCLE
  5
182F
330
1801
100
AcDbEntity
  8
0
100
AcDbCircle
 10
-35.49999999999999
 20
152.77
 30
0.0
 40
2.5
  0
CIRCLE
  5
1830
330
1801
100
AcDbEntity
  8
0
100
AcDbCircle
 10
-35.49999999999999
 20
132.77
 30
0.0
 40
2.5
  0
CIRCLE
  5
1831
330
1801
100
AcDbEntity
  8
0
100
AcDbCircle
 10
-35.49999999999999
 20
112.77
 30
0.0
 40
2.5
  0
CIRCLE
  5
1832
330
1801
100
AcDbEntity
  8
0
100
AcDbCircle
 10
-35.49999999999999
 20
92.76999999999999
 30
0.0
 40
2.5
  0
LINE
  5
1833
330
1801
100
AcDbEntity
  8
0
100
AcDbLine
 10
-62.91118318265866
 20
-2.263131642256747
 30
0.0
 11
-82.00306627385996
 21
-21.35501473263468
 31
0.0
  0
LINE
  5
1834
330
1801
100
AcDbEntity
  8
0
100
AcDbLine
 10
-1.656580012761297
 20
-2.526818434325774
 30
0.0
 11
-54.77945519839777
 21
-55.64969361996226
 31
0.0
  0
LINE
  5
1835
330
1801
100
AcDbEntity
  8
0
100
AcDbLine
 10
-54.77945519839777
 20
-55.64969361996227
 30
0.0
 11
-56.26437943888923
 21
-54.16476937947023
 31
0.0
  0
LINE
  5
1836
330
1801
100
AcDbEntity
  8
0
100
AcDbLine
 10
-56.26437943888952
 20
-54.16476937947052
 30
0.0
 11
-82.00306627385993
 21
-28.42608254450011
 31
0.0
  0
CIRCLE
  5
1837
330
1801
100
AcDbEntity
  8
0
100
AcDbCircle
 10
-71.04291116530767
 20
-21.70856812338872
 30
0.0
 40
2.5
  0
ARC
  5
1838
330
1801
100
AcDbEntity
  8
0
100
AcDbCircle
 10
-51.59747468238809
 20
-9.33419945291363
 30
0.0
 40
0.8000000000000015
100
AcDbArc
 50
344.9999999989572
 51
355.4526675359234
  0
LINE
  5
1839
330
1801
100
AcDbEntity
  8
0
100
AcDbLine
 10
-50.82473402136063
 20
-9.541254689009706
 30
0.0
 11
-51.94545336164679
 21
-13.72383620767836
 31
0.0
  0
ARC
  5
183A
330
1801
100
AcDbEntity
  8
0
100
AcDbCircle
 10
-52.71819402267426
 20
-13.51678097158229
 30
0.0
 40
0.8
100
AcDbArc
 50
224.9999999989572
 51
344.9999999989576
  0
LINE
  5
183B
330
1801
100
AcDbEntity
  8
0
100
AcDbLine
 10
-53.28387944763379
 20
-14.08246639652124
 30
0.0
 11
-56.34574162605708
 21
-11.02060421798654
 31
0.0
  0
ARC
  5
183C
330
1801
100
AcDbEntity
  8
0
100
AcDbCircle
 10
-55.78005620109753
 20
-10.45491879304759
 30
0.0
 40
0.8000000000000014
100
AcDbArc
 50
104.9999999989575
 51
224.9999999989572
  0
LINE
  5
183D
330
1801
100
AcDbEntity
  8
0
100
AcDbLine
 10
-55.9871114371655
 20
-9.682178132012559
 30
0.0
 11
-51.80452991845606
 21
-8.561458791878598
 31
0.0
  0
ARC
  5
183E
330
1801
100
AcDbEntity
  8
0
100
AcDbCircle
 10
-51.59747468238809
 20
-9.33419945291363
 30
0.0
 40
0.8000000000000014
100
AcDbArc
 50
49.59733246198601
 51
104.9999999989581
  0
LINE
  5
183F
330
1801
100
AcDbEntity
  8
0
100
AcDbLine
 10
-51.07895039795263
 20
-8.724992947325674
 30
0.0
 11
-50.79999294004348
 21
-9.397625556585486
 31
0.0
  0
ARC
  5
1840
330
1801
100
AcDbEntity
  8
0
100
AcDbCircle
 10
-55.13300858838519
 20
-12.86973335878203
 30
0.0
 40
0.8000000000000014
100
AcDbArc
 50
349.2288663267698
 51
100.7711336711449
  0
ENDBLK
  5
1803
330
1801
100
AcDbEntity
  8
0
100
AcDbBlockEnd
  0
BLOCK
  5
1842
330
1841
100
AcDbEntity
  8
0
100
AcDbBlockBegin
  2
SPR100_240-Top
 70
     0
 10
0.0
 20
0.0
 30
0.0
  3
SPR100_240-Top
  1

  0
LINE
  5
1844
330
1841
100
AcDbEntity
  8
0
100
AcDbLine
 10
92.527090561
 20
-1.499999999999965
 30
0.0
 11
92.527090561
 21
0.0
 31
0.0
  0
LINE
  5
1845
330
1841
100
AcDbEntity
  8
0
100
AcDbLine
 10
-87.52709056100002
 20
0.0
 30
0.0
 11
-92.527090561
 21
0.0
 31
0.0
  0
LINE
  5
1846
330
1841
100
AcDbEntity
  8
0
100
AcDbLine
 10
92.527090561
 20
0.0
 30
0.0
 11
87.52709056099996
 21
0.0
 31
0.0
  0
LINE
  5
1847
330
1841
100
AcDbEntity
  8
0
100
AcDbLine
 10
-92.527090561
 20
0.0
 30
0.0
 11
-92.527090561
 21
-1.500000000000017
 31
0.0
  0
LINE
  5
1848
330
1841
100
AcDbEntity
  8
0
100
AcDbLine
 10
-92.527090561
 20
-1.500000000000017
 30
0.0
 11
-87.52709056100002
 21
-1.500000000000015
 31
0.0
  0
LINE
  5
1849
330
1841
100
AcDbEntity
  8
0
100
AcDbLine
 10
-87.52709056100002
 20
-1.500000000000015
 30
0.0
 11
-87.52709056100002
 21
0.0
 31
0.0
  0
LINE
  5
184A
330
1841
100
AcDbEntity
  8
0
100
AcDbLine
 10
87.52709056099996
 20
-1.499999999999966
 30
0.0
 11
92.527090561
 21
-1.499999999999965
 31
0.0
  0
LINE
  5
184B
330
1841
100
AcDbEntity
  8
0
100
AcDbLine
 10
87.52709056099996
 20
0.0
 30
0.0
 11
87.52709056099996
 21
-1.499999999999966
 31
0.0
  0
LINE
  5
184C
330
1841
100
AcDbEntity
  8
0
100
AcDbLine
 10
-87.52709056100002
 20
0.0
 30
0.0
 11
-49.40000000000001
 21
0.0
 31
0.0
  0
LINE
  5
184D
330
1841
100
AcDbEntity
  8
0
100
AcDbLine
 10
49.39999999999999
 20
0.0
 30
0.0
 11
87.52709056099996
 21
0.0
 31
0.0
  0
LINE
  5
184E
330
1841
100
AcDbEntity
  8
0
100
AcDbLine
 10
51.4124611797498
 20
-1.499999999999976
 30
0.0
 11
87.52709056099996
 21
-1.499999999999966
 31
0.0
  0
LINE
  5
184F
330
1841
100
AcDbEntity
  8
0
100
AcDbLine
 10
-87.52709056100002
 20
-1.500000000000015
 30
0.0
 11
-51.41246117974983
 21
-1.500000000000005
 31
0.0
  0
LINE
  5
1850
330
1841
100
AcDbEntity
  8
0
100
AcDbLine
 10
49.39999999999999
 20
0.0
 30
0.0
 11
-49.40000000000001
 21
0.0
 31
0.0
  0
LINE
  5
1851
330
1841
100
AcDbEntity
  8
0
100
AcDbLine
 10
51.50000000000021
 20
-38.49999999999996
 30
0.0
 11
51.5
 21
-2.099999999999941
 31
0.0
  0
LINE
  5
1852
330
1841
100
AcDbEntity
  8
0
100
AcDbLine
 10
-51.50000000000002
 20
-2.100000000000011
 30
0.0
 11
-51.5
 21
-38.50000000000002
 31
0.0
  0
LINE
  5
1853
330
1841
100
AcDbEntity
  8
0
100
AcDbLine
 10
50.0
 20
-2.099999999999961
 30
0.0
 11
50.00000000000021
 21
-38.49999999999997
 31
0.0
  0
LINE
  5
1854
330
1841
100
AcDbEntity
  8
0
100
AcDbLine
 10
-49.40000000000001
 20
-1.500000000000014
 30
0.0
 11
49.39999999999999
 21
-1.499999999999983
 31
0.0
  0
LINE
  5
1855
330
1841
100
AcDbEntity
  8
0
100
AcDbLine
 10
-50.0
 20
-38.50000000000001
 30
0.0
 11
-50.0
 21
-2.100000000000008
 31
0.0
  0
LINE
  5
1856
330
1841
100
AcDbEntity
  8
0
100
AcDbLine
 10
50.00000000000024
 20
-43.49999999999996
 30
0.0
 11
51.50000000000024
 21
-43.49999999999995
 31
0.0
  0
LINE
  5
1857
330
1841
100
AcDbEntity
  8
0
100
AcDbLine
 10
51.50000000000024
 20
-43.49999999999995
 30
0.0
 11
51.50000000000021
 21
-38.49999999999996
 31
0.0
  0
LINE
  5
1858
330
1841
100
AcDbEntity
  8
0
100
AcDbLine
 10
-51.5
 20
-38.50000000000002
 30
0.0
 11
-51.5
 21
-43.50000000000001
 31
0.0
  0
LINE
  5
1859
330
1841
100
AcDbEntity
  8
0
100
AcDbLine
 10
-51.5
 20
-43.50000000000001
 30
0.0
 11
-50.0
 21
-43.50000000000001
 31
0.0
  0
LINE
  5
185A
330
1841
100
AcDbEntity
  8
0
100
AcDbLine
 10
51.50000000000021
 20
-38.49999999999996
 30
0.0
 11
50.00000000000021
 21
-38.49999999999996
 31
0.0
  0
LINE
  5
185B
330
1841
100
AcDbEntity
  8
0
100
AcDbLine
 10
50.00000000000021
 20
-38.49999999999996
 30
0.0
 11
50.00000000000024
 21
-43.49999999999996
 31
0.0
  0
LINE
  5
185C
330
1841
100
AcDbEntity
  8
0
100
AcDbLine
 10
-50.0
 20
-43.50000000000001
 30
0.0
 11
-50.0
 21
-38.50000000000001
 31
0.0
  0
LINE
  5
185D
330
1841
100
AcDbEntity
  8
0
100
AcDbLine
 10
-50.0
 20
-38.50000000000001
 30
0.0
 11
-51.5
 21
-38.50000000000002
 31
0.0
  0
LINE
  5
185E
330
1841
100
AcDbEntity
  8
0
100
AcDbLine
 10
51.5
 20
-82.00306627385996
 30
0.0
 11
50.0
 21
-82.00306627385996
 31
0.0
  0
LINE
  5
185F
330
1841
100
AcDbEntity
  8
0
100
AcDbLine
 10
-49.99999999999999
 20
-82.00306627385998
 30
0.0
 11
-51.49999999999998
 21
-82.00306627385998
 31
0.0
  0
LINE
  5
1860
330
1841
100
AcDbEntity
  8
0
100
AcDbLine
 10
51.50000000000236
 20
-62.91118318265866
 30
0.0
 11
51.5
 21
-82.00306627385996
 31
0.0
  0
LINE
  5
1861
330
1841
100
AcDbEntity
  8
0
100
AcDbLine
 10
50.00000000000195
 20
-62.91118318265866
 30
0.0
 11
50.0
 21
-82.00306627385996
 31
0.0
  0
ELLIPSE
  5
1862
330
1841
100
AcDbEntity
  8
0
100
AcDbEllipse
 10
49.40000000000001
 20
-56.26437943888955
 30
0.0
 11
0.6000000000000087
 21
0.0000000000000612
 31
0.0
210
0.0
220
0.0
230
1.0
 40
0.7071067811866067
 41
0.0
 42
1.570796326794631
  0
LINE
  5
1863
330
1841
100
AcDbEntity
  8
0
100
AcDbLine
 10
51.50000000000236
 20
-62.91118318265866
 30
0.0
 11
50.00000000000195
 21
-62.91118318265866
 31
0.0
  0
LINE
  5
1864
330
1841
100
AcDbEntity
  8
0
100
AcDbLine
 10
51.50000000000002
 20
-43.49999999999995
 30
0.0
 11
51.50000000000236
 21
-62.91118318265866
 31
0.0
  0
LINE
  5
1865
330
1841
100
AcDbEntity
  8
0
100
AcDbLine
 10
-51.50000000000208
 20
-62.91118318265866
 30
0.0
 11
-51.50000000000208
 21
-43.50000000000001
 31
0.0
  0
ELLIPSE
  5
1866
330
1841
100
AcDbEntity
  8
0
100
AcDbEllipse
 10
-46.50000000000001
 20
-1.227476037518808
 30
0.0
 11
-1.5
 21
0.0000000000001088
 31
0.0
210
0.0
220
0.0
230
1.0
 40
0.7071067811865475
 41
1.570796326795024
 42
2.705254581962135
  0
LINE
  5
1867
330
1841
100
AcDbEntity
  8
0
100
AcDbLine
 10
-46.50000000000001
 20
-2.288136209298609
 30
0.0
 11
-48.79315533855962
 21
-2.288136209298585
 31
0.0
  0
LINE
  5
1868
330
1841
100
AcDbEntity
  8
0
100
AcDbLine
 10
-48.79315533855962
 20
-2.288136209298585
 30
0.0
 11
-49.40000000000001
 21
-2.717240184541144
 31
0.0
  0
LINE
  5
1869
330
1841
100
AcDbEntity
  8
0
100
AcDbLine
 10
49.39999999999999
 20
-2.717240184541118
 30
0.0
 11
48.7931553385596
 21
-2.288136209298559
 31
0.0
  0
LINE
  5
186A
330
1841
100
AcDbEntity
  8
0
100
AcDbLine
 10
48.7931553385596
 20
-2.288136209298559
 30
0.0
 11
46.49999999999998
 21
-2.288136209298584
 31
0.0
  0
ELLIPSE
  5
186B
330
1841
100
AcDbEntity
  8
0
100
AcDbEllipse
 10
46.49999999999998
 20
-1.227476037518788
 30
0.0
 11
-1.5
 21
-0.0000000000000003
 31
0.0
210
0.0
220
0.0
230
1.0
 40
0.7071067811865474
 41
0.4363380716279029
 42
1.570796326794896
  0
SPLINE
  5
186C
330
1841
100
AcDbEntity
  8
0
100
AcDbSpline
210
0.0
220
0.0
230
1.0
 70
     8
 71
     3
 72
     8
 73
     4
 74
     0
 42
0.000000001
 43
0.0000000001
 40
-1.0
 40
-1.0
 40
-1.0
 40
-1.0
 40
0.0
 40
0.0
 40
0.0
 40
0.0
 10
45.14054197002045
 20
-1.675735931288073
 30
0.0
 10
45.01586474390285
 20
-1.572566966670492
 30
0.0
 10
44.97251992074146
 20
-1.500000000000002
 30
0.0
 10
45.01767776087191
 20
-1.500000000000002
 30
0.0
  0
SPLINE
  5
186D
330
1841
100
AcDbEntity
  8
0
100
AcDbSpline
210
0.0
220
0.0
230
1.0
 70
     8
 71
     3
 72
     8
 73
     4
 74
     0
 42
0.000000001
 43
0.0000000001
 40
-1.0
 40
-1.0
 40
-1.0
 40
-1.0
 40
0.0
 40
0.0
 40
0.0
 40
0.0
 10
-45.01767776087198
 20
-1.500000000000022
 30
0.0
 10
-44.97251992073876
 20
-1.500000000000022
 30
0.0
 10
-45.0158647439014
 20
-1.572566966670511
 30
0.0
 10
-45.14054197002045
 20
-1.675735931288093
 30
0.0
  0
LINE
  5
186E
330
1841
100
AcDbEntity
  8
0
100
AcDbLine
 10
-50.0000000000017
 20
-62.91118318265866
 30
0.0
 11
-51.50000000000208
 21
-62.91118318265866
 31
0.0
  0
LINE
  5
186F
330
1841
100
AcDbEntity
  8
0
100
AcDbLine
 10
-50.00000000000001
 20
-43.50000000000001
 30
0.0
 11
-50.0000000000017
 21
-62.91118318265866
 31
0.0
  0
SPLINE
  5
1870
330
1841
100
AcDbEntity
  8
0
100
AcDbSpline
210
0.0
220
0.0
230
1.0
 70
     8
 71
     3
 72
     8
 73
     4
 74
     0
 42
0.000000001
 43
0.0000000001
 40
-1.0
 40
-1.0
 40
-1.0
 40
-1.0
 40
0.0
 40
0.0
 40
0.0
 40
0.0
 10
-49.40000000000001
 20
-2.717240184541156
 30
0.0
 10
-49.714159265359
 20
-3.124319333760519
 30
0.0
 10
-50.00000000000001
 20
-3.733518404784288
 30
0.0
 10
-50.00000000000003
 20
-4.362741700911227
 30
0.0
  0
LINE
  5
1871
330
1841
100
AcDbEntity
  8
0
100
AcDbLine
 10
-49.40000000000001
 20
-2.717240184541144
 30
0.0
 11
-49.40000000000001
 21
-2.364040347338555
 31
0.0
  0
LINE
  5
1872
330
1841
100
AcDbEntity
  8
0
100
AcDbLine
 10
-49.40000000000001
 20
-2.364040347338555
 30
0.0
 11
-49.40000000000001
 21
-1.656580012761323
 31
0.0
  0
SPLINE
  5
1873
330
1841
100
AcDbEntity
  8
0
100
AcDbSpline
210
0.0
220
0.0
230
1.0
 70
     8
 71
     3
 72
     8
 73
     4
 74
     0
 42
0.000000001
 43
0.0000000001
 40
0.8233926083861732
 40
0.8233926083861732
 40
0.8233926083861732
 40
0.8233926083861732
 40
1.0
 40
1.0
 40
1.0
 40
1.0
 10
-49.9683307934395
 20
-1.934942494001967
 30
0.0
 10
-49.78528852951265
 20
-1.82243092828103
 30
0.0
 10
-49.5941899694223
 20
-1.728473199485341
 30
0.0
 10
-49.40000000000001
 20
-1.656580012761334
 30
0.0
  0
LINE
  5
1874
330
1841
100
AcDbEntity
  8
0
100
AcDbLine
 10
-49.40000000000001
 20
-1.656580012761323
 30
0.0
 11
-49.17856242236219
 21
-1.5
 31
0.0
  0
LINE
  5
1875
330
1841
100
AcDbEntity
  8
0
100
AcDbLine
 10
-48.79315533855962
 20
-2.288136209298585
 30
0.0
 11
-48.79315533855962
 21
-1.500000000000014
 31
0.0
  0
LINE
  5
1876
330
1841
100
AcDbEntity
  8
0
100
AcDbLine
 10
-45.14054197002045
 20
-1.675735931288093
 30
0.0
 11
-45.14054197002045
 21
-1.500000000000013
 31
0.0
  0
LINE
  5
1877
330
1841
100
AcDbEntity
  8
0
100
AcDbLine
 10
50.00000000000195
 20
-62.91118318265866
 30
0.0
 11
50.00000000000195
 21
-43.49999999999996
 31
0.0
  0
LINE
  5
1878
330
1841
100
AcDbEntity
  8
0
100
AcDbLine
 10
49.39999999999999
 20
-2.717240184541118
 30
0.0
 11
49.39999999999999
 21
-2.364040347338216
 31
0.0
  0
SPLINE
  5
1879
330
1841
100
AcDbEntity
  8
0
100
AcDbSpline
210
0.0
220
0.0
230
1.0
 70
     8
 71
     3
 72
     8
 73
     4
 74
     0
 42
0.000000001
 43
0.0000000001
 40
-1.0
 40
-1.0
 40
-1.0
 40
-1.0
 40
0.0
 40
0.0
 40
0.0
 40
0.0
 10
50.0
 20
-4.362741700911215
 30
0.0
 10
50.0
 20
-3.733518404784107
 30
0.0
 10
49.71415926535898
 20
-3.124319333760636
 30
0.0
 10
49.39999999999999
 20
-2.717240184541116
 30
0.0
  0
SPLINE
  5
187A
330
1841
100
AcDbEntity
  8
0
100
AcDbSpline
210
0.0
220
0.0
230
1.0
 70
     8
 71
     3
 72
     8
 73
     4
 74
     0
 42
0.000000001
 43
0.0000000001
 40
0.0
 40
0.0
 40
0.0
 40
0.0
 40
0.1766073916138374
 40
0.1766073916138374
 40
0.1766073916138374
 40
0.1766073916138374
 10
49.39999999999999
 20
-1.656580012761294
 30
0.0
 10
49.59418996942229
 20
-1.728473199485334
 30
0.0
 10
49.78528852951264
 20
-1.822430928281042
 30
0.0
 10
49.9683307934395
 20
-1.934942494001991
 30
0.0
  0
LINE
  5
187B
330
1841
100
AcDbEntity
  8
0
100
AcDbLine
 10
49.39999999999999
 20
-2.364040347338216
 30
0.0
 11
49.39999999999999
 21
-1.656580012761297
 31
0.0
  0
LINE
  5
187C
330
1841
100
AcDbEntity
  8
0
100
AcDbLine
 10
45.14054197002045
 20
-1.499999999999984
 30
0.0
 11
45.14054197002039
 21
-1.675735931288073
 31
0.0
  0
LINE
  5
187D
330
1841
100
AcDbEntity
  8
0
100
AcDbLine
 10
48.7931553385596
 20
-2.288136209298559
 30
0.0
 11
48.7931553385596
 21
-1.499999999999983
 31
0.0
  0
LINE
  5
187E
330
1841
100
AcDbEntity
  8
0
100
AcDbLine
 10
49.17856242236215
 20
-1.499999999999973
 30
0.0
 11
49.39999999999999
 21
-1.656580012761297
 31
0.0
  0
LINE
  5
187F
330
1841
100
AcDbEntity
  8
0
100
AcDbLine
 10
-51.50000000000208
 20
-62.91118318265866
 30
0.0
 11
-51.49999999999998
 21
-82.00306627385998
 31
0.0
  0
LINE
  5
1880
330
1841
100
AcDbEntity
  8
0
100
AcDbLine
 10
-50.0000000000017
 20
-62.91118318265866
 30
0.0
 11
-49.99999999999999
 21
-82.00306627385998
 31
0.0
  0
ELLIPSE
  5
1881
330
1841
100
AcDbEntity
  8
0
100
AcDbEllipse
 10
-17.50000000000001
 20
-0.1668158657389725
 30
0.0
 11
2.5
 21
0.0000000000001826
 31
0.0
210
0.0
220
0.0
230
1.0
 40
0.7071067811865472
 41
3.995971005724966
 42
4.712388980384622
  0
LINE
  5
1882
330
1841
100
AcDbEntity
  8
0
100
AcDbLine
 10
-19.91828991960763
 20
-1.500000000000005
 30
0.0
 11
-19.91828991960764
 21
-1.675735931288088
 31
0.0
  0
ELLIPSE
  5
1883
330
1841
100
AcDbEntity
  8
0
100
AcDbEllipse
 10
-17.50000000000001
 20
-1.227476037518777
 30
0.0
 11
-2.5
 21
-0.0000000000000006
 31
0.0
210
0.0
220
0.0
230
1.0
 40
0.7071067811865472
 41
0.2563733270184629
 42
1.570796326794896
  0
LINE
  5
1884
330
1841
100
AcDbEntity
  8
0
100
AcDbLine
 10
-17.50000000000001
 20
-1.934582818705311
 30
0.0
 11
-12.50000000000001
 21
-1.93458281870531
 31
0.0
  0
LINE
  5
1885
330
1841
100
AcDbEntity
  8
0
100
AcDbLine
 10
-12.50000000000001
 20
-2.995242990485133
 30
0.0
 11
-17.50000000000001
 21
-2.995242990485134
 31
0.0
  0
ELLIPSE
  5
1886
330
1841
100
AcDbEntity
  8
0
100
AcDbEllipse
 10
-12.50000000000001
 20
-0.1668158657389714
 30
0.0
 11
2.5
 21
0.0000000000000006
 31
0.0
210
0.0
220
0.0
230
1.0
 40
0.7071067811865472
 41
4.712388980384689
 42
5.428806955044278
  0
ELLIPSE
  5
1887
330
1841
100
AcDbEntity
  8
0
100
AcDbEllipse
 10
-12.50000000000001
 20
-1.227476037518776
 30
0.0
 11
2.5
 21
0.0000000000000006
 31
0.0
210
0.0
220
0.0
230
1.0
 40
0.7071067811865475
 41
4.712388980384689
 42
6.026811980161122
  0
LINE
  5
1888
330
1841
100
AcDbEntity
  8
0
100
AcDbLine
 10
-10.08171008039238
 20
-1.675735931288086
 30
0.0
 11
-10.08171008039238
 21
-1.500000000000002
 31
0.0
  0
SPLINE
  5
1889
330
1841
100
AcDbEntity
  8
0
100
AcDbSpline
210
0.0
220
0.0
230
1.0
 70
     8
 71
     3
 72
     8
 73
     4
 74
     0
 42
0.000000001
 43
0.0000000001
 40
-1.0
 40
-1.0
 40
-1.0
 40
-1.0
 40
0.0
 40
0.0
 40
0.0
 40
0.0
 10
-19.91828991960763
 20
-1.675735931288088
 30
0.0
 10
-19.99189972302056
 20
-1.567383125827703
 30
0.0
 10
-20.01609483643931
 20
-1.500000000000016
 30
0.0
 10
-19.98943351399745
 20
-1.500000000000016
 30
0.0
  0
SPLINE
  5
188A
330
1841
100
AcDbEntity
  8
0
100
AcDbSpline
210
0.0
220
0.0
230
1.0
 70
     8
 71
     3
 72
     8
 73
     4
 74
     0
 42
0.000000001
 43
0.0000000001
 40
-1.0
 40
-1.0
 40
-1.0
 40
-1.0
 40
0.0
 40
0.0
 40
0.0
 40
0.0
 10
-10.01056648600257
 20
-1.500000000000014
 30
0.0
 10
-9.983905163560711
 20
-1.500000000000014
 30
0.0
 10
-10.00810027698017
 20
-1.56738312582773
 30
0.0
 10
-10.08171008039238
 20
-1.675735931288085
 30
0.0
  0
ELLIPSE
  5
188B
330
1841
100
AcDbEntity
  8
0
100
AcDbEllipse
 10
12.49999999999999
 20
-0.1668158657389647
 30
0.0
 11
2.5
 21
0.0000000000001826
 31
0.0
210
0.0
220
0.0
230
1.0
 40
0.7071067811865472
 41
3.995971005724966
 42
4.712388980384622
  0
LINE
  5
188C
330
1841
100
AcDbEntity
  8
0
100
AcDbLine
 10
10.08171008039237
 20
-1.499999999999996
 30
0.0
 11
10.08171008039236
 21
-1.675735931288081
 31
0.0
  0
ELLIPSE
  5
188D
330
1841
100
AcDbEntity
  8
0
100
AcDbEllipse
 10
12.49999999999999
 20
-1.22747603751877
 30
0.0
 11
-2.5
 21
-0.0000000000000006
 31
0.0
210
0.0
220
0.0
230
1.0
 40
0.7071067811865472
 41
0.2563733270184629
 42
1.570796326794896
  0
LINE
  5
188E
330
1841
100
AcDbEntity
  8
0
100
AcDbLine
 10
12.49999999999999
 20
-1.934582818705303
 30
0.0
 11
17.49999999999999
 21
-1.934582818705302
 31
0.0
  0
LINE
  5
188F
330
1841
100
AcDbEntity
  8
0
100
AcDbLine
 10
17.49999999999999
 20
-2.995242990485125
 30
0.0
 11
12.49999999999999
 21
-2.995242990485126
 31
0.0
  0
ELLIPSE
  5
1890
330
1841
100
AcDbEntity
  8
0
100
AcDbEllipse
 10
17.49999999999999
 20
-0.1668158657389633
 30
0.0
 11
2.5
 21
0.0000000000000006
 31
0.0
210
0.0
220
0.0
230
1.0
 40
0.7071067811865472
 41
4.712388980384689
 42
5.428806955044279
  0
ELLIPSE
  5
1891
330
1841
100
AcDbEntity
  8
0
100
AcDbEllipse
 10
17.49999999999999
 20
-1.227476037518769
 30
0.0
 11
2.5
 21
0.0000000000000006
 31
0.0
210
0.0
220
0.0
230
1.0
 40
0.7071067811865475
 41
4.712388980384689
 42
6.026811980161122
  0
LINE
  5
1892
330
1841
100
AcDbEntity
  8
0
100
AcDbLine
 10
19.91828991960761
 20
-1.675735931288079
 30
0.0
 11
19.91828991960761
 21
-1.499999999999992
 31
0.0
  0
SPLINE
  5
1893
330
1841
100
AcDbEntity
  8
0
100
AcDbSpline
210
0.0
220
0.0
230
1.0
 70
     8
 71
     3
 72
     8
 73
     4
 74
     0
 42
0.000000001
 43
0.0000000001
 40
-1.0
 40
-1.0
 40
-1.0
 40
-1.0
 40
0.0
 40
0.0
 40
0.0
 40
0.0
 10
10.08171008039237
 20
-1.675735931288081
 30
0.0
 10
10.00810027697964
 20
-1.567383125827713
 30
0.0
 10
9.983905163560763
 20
-1.500000000000009
 30
0.0
 10
10.01056648600255
 20
-1.500000000000009
 30
0.0
  0
SPLINE
  5
1894
330
1841
100
AcDbEntity
  8
0
100
AcDbSpline
210
0.0
220
0.0
230
1.0
 70
     8
 71
     3
 72
     8
 73
     4
 74
     0
 42
0.000000001
 43
0.0000000001
 40
-1.0
 40
-1.0
 40
-1.0
 40
-1.0
 40
0.0
 40
0.0
 40
0.0
 40
0.0
 10
19.98943351399742
 20
-1.500000000000007
 30
0.0
 10
20.01609483643941
 20
-1.500000000000007
 30
0.0
 10
19.99189972301987
 20
-1.567383125827692
 30
0.0
 10
19.9182899196076
 20
-1.675735931288079
 30
0.0
  0
ELLIPSE
  5
1895
330
1841
100
AcDbEntity
  8
0
100
AcDbEllipse
 10
-32.50000000000001
 20
-1.22747603751878
 30
0.0
 11
2.499999999999999
 21
0.0000000000000012
 31
0.0
210
0.0
220
0.0
230
1.0
 40
0.7071067811865476
 41
3.397965980608257
 42
6.026811980161121
  0
ELLIPSE
  5
1896
330
1841
100
AcDbEntity
  8
0
100
AcDbEllipse
 10
32.5
 20
-1.227476037518766
 30
0.0
 11
2.5
 21
0.000000000000001
 31
0.0
210
0.0
220
0.0
230
1.0
 40
0.7071067811865475
 41
3.397965980608255
 42
6.026811980161121
  0
SPLINE
  5
1897
330
1841
100
AcDbEntity
  8
0
100
AcDbSpline
210
0.0
220
0.0
230
1.0
 70
     8
 71
     3
 72
     8
 73
     4
 74
     0
 42
0.000000001
 43
0.0000000001
 40
-1.0
 40
-1.0
 40
-1.0
 40
-1.0
 40
0.0
 40
0.0
 40
0.0
 40
0.0
 10
30.08171008039238
 20
-1.675735931288077
 30
0.0
 10
30.00810027698018
 20
-1.567383125827691
 30
0.0
 10
29.98390516356094
 20
-1.500000000000005
 30
0.0
 10
30.0105664860026
 20
-1.500000000000005
 30
0.0
  0
SPLINE
  5
1898
330
1841
100
AcDbEntity
  8
0
100
AcDbSpline
210
0.0
220
0.0
230
1.0
 70
     8
 71
     3
 72
     8
 73
     4
 74
     0
 42
0.000000001
 43
0.0000000001
 40
-1.0
 40
-1.0
 40
-1.0
 40
-1.0
 40
0.0
 40
0.0
 40
0.0
 40
0.0
 10
-30.01056648600256
 20
-1.500000000000018
 30
0.0
 10
-29.9839051635611
 20
-1.500000000000018
 30
0.0
 10
-30.00810027698042
 20
-1.567383125827666
 30
0.0
 10
-30.08171008039236
 20
-1.67573593128809
 30
0.0
  0
ELLIPSE
  5
1899
330
1841
100
AcDbEntity
  8
0
100
AcDbEllipse
 10
-32.50000000000001
 20
-0.1668158657389763
 30
0.0
 11
2.499999999999999
 21
0.0000000000001824
 31
0.0
210
0.0
220
0.0
230
1.0
 40
0.7071067811865475
 41
3.995971005724969
 42
5.428806955044144
  0
LINE
  5
189A
330
1841
100
AcDbEntity
  8
0
100
AcDbLine
 10
-34.91828991960762
 20
-1.500000000000009
 30
0.0
 11
-34.91828991960762
 21
-1.675735931288091
 31
0.0
  0
LINE
  5
189B
330
1841
100
AcDbEntity
  8
0
100
AcDbLine
 10
-30.08171008039238
 20
-1.67573593128809
 30
0.0
 11
-30.08171008039238
 21
-1.500000000000008
 31
0.0
  0
SPLINE
  5
189C
330
1841
100
AcDbEntity
  8
0
100
AcDbSpline
210
0.0
220
0.0
230
1.0
 70
     8
 71
     3
 72
     8
 73
     4
 74
     0
 42
0.000000001
 43
0.0000000001
 40
-1.0
 40
-1.0
 40
-1.0
 40
-1.0
 40
0.0
 40
0.0
 40
0.0
 40
0.0
 10
-34.91828991960762
 20
-1.675735931288091
 30
0.0
 10
-34.99189972302121
 20
-1.567383125827714
 30
0.0
 10
-35.0160948364389
 20
-1.500000000000019
 30
0.0
 10
-34.98943351399744
 20
-1.500000000000019
 30
0.0
  0
ELLIPSE
  5
189D
330
1841
100
AcDbEntity
  8
0
100
AcDbEllipse
 10
32.5
 20
-0.1668158657389591
 30
0.0
 11
2.5
 21
0.0000000000001833
 31
0.0
210
0.0
220
0.0
230
1.0
 40
0.7071067811865475
 41
3.995971005724967
 42
5.428806955044144
  0
LINE
  5
189E
330
1841
100
AcDbEntity
  8
0
100
AcDbLine
 10
30.08171008039238
 20
-1.499999999999989
 30
0.0
 11
30.08171008039238
 21
-1.675735931288077
 31
0.0
  0
LINE
  5
189F
330
1841
100
AcDbEntity
  8
0
100
AcDbLine
 10
34.91828991960763
 20
-1.675735931288075
 30
0.0
 11
34.91828991960763
 21
-1.499999999999988
 31
0.0
  0
SPLINE
  5
18A0
330
1841
100
AcDbEntity
  8
0
100
AcDbSpline
210
0.0
220
0.0
230
1.0
 70
     8
 71
     3
 72
     8
 73
     4
 74
     0
 42
0.000000001
 43
0.0000000001
 40
-1.0
 40
-1.0
 40
-1.0
 40
-1.0
 40
0.0
 40
0.0
 40
0.0
 40
0.0
 10
34.98943351399743
 20
-1.500000000000004
 30
0.0
 10
35.01609483643922
 20
-1.500000000000004
 30
0.0
 10
34.99189972301866
 20
-1.567383125827648
 30
0.0
 10
34.91828991960765
 20
-1.675735931288075
 30
0.0
  0
LINE
  5
18A1
330
1841
100
AcDbEntity
  8
0
100
AcDbLine
 10
-49.40000000000001
 20
-55.8401153701776
 30
0.0
 11
49.40000000000001
 21
-55.84011537017758
 31
0.0
  0
ELLIPSE
  5
18A2
330
1841
100
AcDbEntity
  8
0
100
AcDbEllipse
 10
-49.40000000000001
 20
-56.26437943888956
 30
0.0
 11
-0.6000000000000087
 21
0.0000000000000087
 31
0.0
210
0.0
220
0.0
230
1.0
 40
0.7071067811865445
 41
4.7123889803847
 42
6.283185307179586
  0
ARC
  5
18A3
330
1841
100
AcDbEntity
  8
0
100
AcDbCircle
 10
49.39999999999999
 20
-2.099999999999988
 30
0.0
 40
0.600000000000005
100
AcDbArc
 50
0.0
 51
90.0
  0
ARC
  5
18A4
330
1841
100
AcDbEntity
  8
0
100
AcDbCircle
 10
49.39999999999999
 20
-2.099999999999988
 30
0.0
 40
2.100000000000008
100
AcDbArc
 50
0.0
 51
90.0
  0
ARC
  5
18A5
330
1841
100
AcDbEntity
  8
0
100
AcDbCircle
 10
-49.40000000000001
 20
-2.10000000000001
 30
0.0
 40
0.5999999999999961
100
AcDbArc
 50
90.0
 51
180.0
  0
ARC
  5
18A6
330
1841
100
AcDbEntity
  8
0
100
AcDbCircle
 10
-49.40000000000001
 20
-2.10000000000001
 30
0.0
 40
2.099999999999999
100
AcDbArc
 50
90.0
 51
180.0
  0
ENDBLK
  5
1843
330
1841
100
AcDbEntity
  8
0
100
AcDbBlockEnd
  0
BLOCK
  5
18A8
330
18A7
100
AcDbEntity
  8
0
100
AcDbBlockBegin
  2
SPR100_240-Bottom
 70
     0
 10
0.0
 20
0.0
 30
0.0
  3
SPR100_240-Bottom
  1

  0
LINE
  5
18AA
330
18A7
100
AcDbEntity
  8
0
100
AcDbLine
 10
92.52709056099996
 20
1.499999999999965
 30
0.0
 11
87.52709056099996
 21
1.499999999999966
 31
0.0
  0
LINE
  5
18AB
330
18A7
100
AcDbEntity
  8
0
100
AcDbLine
 10
87.52709056099996
 20
1.499999999999966
 30
0.0
 11
87.52709056099996
 21
0.0
 31
0.0
  0
LINE
  5
18AC
330
18A7
100
AcDbEntity
  8
0
100
AcDbLine
 10
87.52709056099996
 20
0.0
 30
0.0
 11
92.52709056099996
 21
0.0
 31
0.0
  0
LINE
  5
18AD
330
18A7
100
AcDbEntity
  8
0
100
AcDbLine
 10
92.52709056099996
 20
0.0
 30
0.0
 11
92.52709056099996
 21
1.499999999999965
 31
0.0
  0
LINE
  5
18AE
330
18A7
100
AcDbEntity
  8
0
100
AcDbLine
 10
-92.527090561
 20
0.0
 30
0.0
 11
-87.527090561
 21
0.0
 31
0.0
  0
LINE
  5
18AF
330
18A7
100
AcDbEntity
  8
0
100
AcDbLine
 10
-87.527090561
 20
1.500000000000016
 30
0.0
 11
-92.527090561
 21
1.500000000000017
 31
0.0
  0
LINE
  5
18B0
330
18A7
100
AcDbEntity
  8
0
100
AcDbLine
 10
-92.527090561
 20
1.500000000000017
 30
0.0
 11
-92.527090561
 21
0.0
 31
0.0
  0
LINE
  5
18B1
330
18A7
100
AcDbEntity
  8
0
100
AcDbLine
 10
-87.527090561
 20
0.0
 30
0.0
 11
-87.527090561
 21
1.500000000000016
 31
0.0
  0
LINE
  5
18B2
330
18A7
100
AcDbEntity
  8
0
100
AcDbLine
 10
87.52709056099996
 20
0.0
 30
0.0
 11
46.49999999999998
 21
0.0
 31
0.0
  0
LINE
  5
18B3
330
18A7
100
AcDbEntity
  8
0
100
AcDbLine
 10
-46.50000000000001
 20
0.0
 30
0.0
 11
-87.527090561
 21
0.0
 31
0.0
  0
LINE
  5
18B4
330
18A7
100
AcDbEntity
  8
0
100
AcDbLine
 10
-49.17856242236219
 20
1.500000000000008
 30
0.0
 11
-87.527090561
 21
1.500000000000016
 31
0.0
  0
LINE
  5
18B5
330
18A7
100
AcDbEntity
  8
0
100
AcDbLine
 10
87.52709056099996
 20
1.499999999999966
 30
0.0
 11
49.17856242236216
 21
1.499999999999977
 31
0.0
  0
LINE
  5
18B6
330
18A7
100
AcDbEntity
  8
0
100
AcDbLine
 10
46.49999999999998
 20
0.0
 30
0.0
 11
45.01767776087193
 21
0.0
 31
0.0
  0
LINE
  5
18B7
330
18A7
100
AcDbEntity
  8
0
100
AcDbLine
 10
-45.01767776087196
 20
0.0
 30
0.0
 11
-46.50000000000001
 21
0.0
 31
0.0
  0
SPLINE
  5
18B8
330
18A7
100
AcDbEntity
  8
0
100
AcDbSpline
210
0.0
220
0.0
230
1.0
 70
     8
 71
     3
 72
     8
 73
     4
 74
     0
 42
0.000000001
 43
0.0000000001
 40
0.0
 40
0.0
 40
0.0
 40
0.0
 40
1.0
 40
1.0
 40
1.0
 40
1.0
 10
45.01767776087191
 20
0.0000000000000019
 30
0.0
 10
44.97251992074146
 20
0.0000000000000022
 30
0.0
 10
45.01586474390285
 20
0.2539843833467178
 30
0.0
 10
45.14054197002045
 20
0.6150757595082521
 30
0.0
  0
SPLINE
  5
18B9
330
18A7
100
AcDbEntity
  8
0
100
AcDbSpline
210
0.0
220
0.0
230
1.0
 70
     8
 71
     3
 72
     8
 73
     4
 74
     0
 42
0.000000001
 43
0.0000000001
 40
0.0
 40
0.0
 40
0.0
 40
0.0
 40
1.0
 40
1.0
 40
1.0
 40
1.0
 10
-45.14054197002045
 20
0.6150757595082722
 30
0.0
 10
-45.0158647439014
 20
0.2539843833467359
 30
0.0
 10
-44.97251992073876
 20
0.0000000000000221
 30
0.0
 10
-45.01767776087198
 20
0.0000000000000219
 30
0.0
  0
SPLINE
  5
18BA
330
18A7
100
AcDbEntity
  8
0
100
AcDbSpline
210
0.0
220
0.0
230
1.0
 70
     8
 71
     3
 72
     8
 73
     4
 74
     0
 42
0.000000001
 43
0.0000000001
 40
0.0
 40
0.0
 40
0.0
 40
0.0
 40
1.0
 40
1.0
 40
1.0
 40
1.0
 10
-51.50000000000003
 20
4.3627417009112
 30
0.0
 10
-51.5
 20
3.178158037514487
 30
0.0
 10
-50.49955742875646
 20
2.063659161980697
 30
0.0
 10
-49.40000000000001
 20
1.656580012761334
 30
0.0
  0
LINE
  5
18BB
330
18A7
100
AcDbEntity
  8
0
100
AcDbLine
 10
-49.40000000000001
 20
1.656580012761323
 30
0.0
 11
-48.79315533855962
 21
1.227476037518767
 31
0.0
  0
LINE
  5
18BC
330
18A7
100
AcDbEntity
  8
0
100
AcDbLine
 10
-48.79315533855962
 20
1.227476037518767
 30
0.0
 11
-46.50000000000001
 21
1.227476037518787
 31
0.0
  0
ELLIPSE
  5
18BD
330
18A7
100
AcDbEntity
  8
0
100
AcDbEllipse
 10
-46.50000000000001
 20
0.166815865738999
 30
0.0
 11
1.5
 21
-0.0000000000000003
 31
0.0
210
0.0
220
0.0
230
1.0
 40
0.7071067811865474
 41
0.4363380716279126
 42
1.570796326794896
  0
LINE
  5
18BE
330
18A7
100
AcDbEntity
  8
0
100
AcDbLine
 10
-45.01767776087196
 20
0.1805170265383174
 30
0.0
 11
-45.01767776087196
 21
0.0
 31
0.0
  0
SPLINE
  5
18BF
330
18A7
100
AcDbEntity
  8
0
100
AcDbSpline
210
0.0
220
0.0
230
1.0
 70
     8
 71
     3
 72
     8
 73
     4
 74
     0
 42
0.000000001
 43
0.0000000001
 40
0.0
 40
0.0
 40
0.0
 40
0.0
 40
1.0
 40
1.0
 40
1.0
 40
1.0
 10
49.39999999999999
 20
1.656580012761294
 30
0.0
 10
50.49955742875643
 20
2.063659161980814
 30
0.0
 10
51.49999999999998
 20
3.178158037514276
 30
0.0
 10
51.50000000000002
 20
4.362741700911179
 30
0.0
  0
ELLIPSE
  5
18C0
330
18A7
100
AcDbEntity
  8
0
100
AcDbEllipse
 10
46.49999999999998
 20
0.1668158657389807
 30
0.0
 11
1.5
 21
-0.0000000000001098
 31
0.0
210
0.0
220
0.0
230
1.0
 40
0.7071067811865474
 41
1.570796326795026
 42
2.705254581962147
  0
LINE
  5
18C1
330
18A7
100
AcDbEntity
  8
0
100
AcDbLine
 10
46.49999999999998
 20
1.227476037518762
 30
0.0
 11
48.7931553385596
 21
1.227476037518743
 31
0.0
  0
LINE
  5
18C2
330
18A7
100
AcDbEntity
  8
0
100
AcDbLine
 10
48.7931553385596
 20
1.227476037518743
 30
0.0
 11
49.39999999999999
 21
1.656580012761297
 31
0.0
  0
LINE
  5
18C3
330
18A7
100
AcDbEntity
  8
0
100
AcDbLine
 10
45.01767776087193
 20
0.1805170265382922
 30
0.0
 11
45.01767776087193
 21
0.0
 31
0.0
  0
LINE
  5
18C4
330
18A7
100
AcDbEntity
  8
0
100
AcDbLine
 10
34.98943351399744
 20
0.0
 30
0.0
 11
45.01767776087193
 21
0.0
 31
0.0
  0
LINE
  5
18C5
330
18A7
100
AcDbEntity
  8
0
100
AcDbLine
 10
19.98943351399742
 20
0.0
 30
0.0
 11
30.01056648600257
 21
0.0
 31
0.0
  0
LINE
  5
18C6
330
18A7
100
AcDbEntity
  8
0
100
AcDbLine
 10
-10.01056648600258
 20
0.0
 30
0.0
 11
10.01056648600256
 21
0.0
 31
0.0
  0
LINE
  5
18C7
330
18A7
100
AcDbEntity
  8
0
100
AcDbLine
 10
-30.01056648600258
 20
0.0
 30
0.0
 11
-19.98943351399744
 21
0.0
 31
0.0
  0
LINE
  5
18C8
330
18A7
100
AcDbEntity
  8
0
100
AcDbLine
 10
-45.01767776087196
 20
0.0
 30
0.0
 11
-34.98943351399744
 21
0.0
 31
0.0
  0
LINE
  5
18C9
330
18A7
100
AcDbEntity
  8
0
100
AcDbLine
 10
51.5
 20
56.26437943888952
 30
0.0
 11
51.49999999999998
 21
82.00306627385993
 31
0.0
  0
LINE
  5
18CA
330
18A7
100
AcDbEntity
  8
0
100
AcDbLine
 10
-51.49999999999995
 20
82.00306627385996
 30
0.0
 11
-51.5
 21
56.26437943888955
 31
0.0
  0
LINE
  5
18CB
330
18A7
100
AcDbEntity
  8
0
100
AcDbLine
 10
-50.0
 20
82.00306627385996
 30
0.0
 11
-50.0
 21
56.26437943888955
 31
0.0
  0
LINE
  5
18CC
330
18A7
100
AcDbEntity
  8
0
100
AcDbLine
 10
-49.40000000000001
 20
55.8401153701776
 30
0.0
 11
49.40000000000001
 21
55.84011537017758
 31
0.0
  0
LINE
  5
18CD
330
18A7
100
AcDbEntity
  8
0
100
AcDbLine
 10
50.0
 20
56.26437943888952
 30
0.0
 11
50.0
 21
82.00306627385993
 31
0.0
  0
LINE
  5
18CE
330
18A7
100
AcDbEntity
  8
0
100
AcDbLine
 10
-49.40000000000001
 20
54.77945519839778
 30
0.0
 11
49.40000000000001
 21
54.77945519839777
 31
0.0
  0
LINE
  5
18CF
330
18A7
100
AcDbEntity
  8
0
100
AcDbLine
 10
34.98943351399744
 20
0.0
 30
0.0
 11
30.01056648600257
 21
0.0
 31
0.0
  0
LINE
  5
18D0
330
18A7
100
AcDbEntity
  8
0
100
AcDbLine
 10
-30.01056648600258
 20
0.0
 30
0.0
 11
-34.98943351399744
 21
0.0
 31
0.0
  0
SPLINE
  5
18D1
330
18A7
100
AcDbEntity
  8
0
100
AcDbSpline
210
0.0
220
0.0
230
1.0
 70
     8
 71
     3
 72
     8
 73
     4
 74
     0
 42
0.000000001
 43
0.0000000001
 40
0.0
 40
0.0
 40
0.0
 40
0.0
 40
1.0
 40
1.0
 40
1.0
 40
1.0
 10
-30.08171008039236
 20
0.6150757595082688
 30
0.0
 10
-30.00810027698042
 20
0.2358409403967862
 30
0.0
 10
-29.9839051635611
 20
0.0000000000000185
 30
0.0
 10
-30.01056648600256
 20
0.0000000000000186
 30
0.0
  0
SPLINE
  5
18D2
330
18A7
100
AcDbEntity
  8
0
100
AcDbSpline
210
0.0
220
0.0
230
1.0
 70
     8
 71
     3
 72
     8
 73
     4
 74
     0
 42
0.000000001
 43
0.0000000001
 40
0.0
 40
0.0
 40
0.0
 40
0.0
 40
1.0
 40
1.0
 40
1.0
 40
1.0
 10
30.0105664860026
 20
0.0000000000000053
 30
0.0
 10
29.98390516356094
 20
0.0000000000000053
 30
0.0
 10
30.00810027698018
 20
0.2358409403969058
 30
0.0
 10
30.08171008039238
 20
0.6150757595082574
 30
0.0
  0
ELLIPSE
  5
18D3
330
18A7
100
AcDbEntity
  8
0
100
AcDbEllipse
 10
-32.50000000000001
 20
0.1668158657389763
 30
0.0
 11
-2.5
 21
0.0000000000000008
 31
0.0
210
0.0
220
0.0
230
1.0
 40
0.7071067811865474
 41
3.397965980608256
 42
6.02681198016112
  0
SPLINE
  5
18D4
330
18A7
100
AcDbEntity
  8
0
100
AcDbSpline
210
0.0
220
0.0
230
1.0
 70
     8
 71
     3
 72
     8
 73
     4
 74
     0
 42
0.000000001
 43
0.0000000001
 40
0.0
 40
0.0
 40
0.0
 40
0.0
 40
1.0
 40
1.0
 40
1.0
 40
1.0
 10
-34.98943351399744
 20
0.0000000000000197
 30
0.0
 10
-35.0160948364389
 20
0.0000000000000198
 30
0.0
 10
-34.99189972302121
 20
0.2358409403969523
 30
0.0
 10
-34.91828991960762
 20
0.6150757595082699
 30
0.0
  0
LINE
  5
18D5
330
18A7
100
AcDbEntity
  8
0
100
AcDbLine
 10
-34.98943351399744
 20
0.1805170265381356
 30
0.0
 11
-34.98943351399744
 21
0.0
 31
0.0
  0
LINE
  5
18D6
330
18A7
100
AcDbEntity
  8
0
100
AcDbLine
 10
-30.01056648600258
 20
0.1805170265380529
 30
0.0
 11
-30.01056648600258
 21
0.0
 31
0.0
  0
LINE
  5
18D7
330
18A7
100
AcDbEntity
  8
0
100
AcDbLine
 10
-34.1417186507771
 20
1.500000000000002
 30
0.0
 11
-30.85828134922292
 21
1.500000000000001
 31
0.0
  0
ELLIPSE
  5
18D8
330
18A7
100
AcDbEntity
  8
0
100
AcDbEllipse
 10
32.5
 20
0.1668158657389591
 30
0.0
 11
-2.5
 21
0.0000000000000006
 31
0.0
210
0.0
220
0.0
230
1.0
 40
0.7071067811865474
 41
3.397965980608255
 42
6.026811980161121
  0
LINE
  5
18D9
330
18A7
100
AcDbEntity
  8
0
100
AcDbLine
 10
30.01056648600257
 20
0.1805170265383332
 30
0.0
 11
30.01056648600257
 21
0.0
 31
0.0
  0
LINE
  5
18DA
330
18A7
100
AcDbEntity
  8
0
100
AcDbLine
 10
34.98943351399744
 20
0.1805170265382144
 30
0.0
 11
34.98943351399744
 21
0.0
 31
0.0
  0
SPLINE
  5
18DB
330
18A7
100
AcDbEntity
  8
0
100
AcDbSpline
210
0.0
220
0.0
230
1.0
 70
     8
 71
     3
 72
     8
 73
     4
 74
     0
 42
0.000000001
 43
0.0000000001
 40
0.0
 40
0.0
 40
0.0
 40
0.0
 40
1.0
 40
1.0
 40
1.0
 40
1.0
 10
34.91828991960765
 20
0.6150757595082544
 30
0.0
 10
34.99189972301866
 20
0.2358409403967595
 30
0.0
 10
35.01609483643922
 20
0.0000000000000042
 30
0.0
 10
34.98943351399743
 20
0.0000000000000042
 30
0.0
  0
LINE
  5
18DC
330
18A7
100
AcDbEntity
  8
0
100
AcDbLine
 10
30.85828134922291
 20
1.499999999999987
 30
0.0
 11
34.14171865077709
 21
1.499999999999986
 31
0.0
  0
LINE
  5
18DD
330
18A7
100
AcDbEntity
  8
0
100
AcDbLine
 10
19.98943351399742
 20
0.0
 30
0.0
 11
17.49999999999999
 21
0.0
 31
0.0
  0
LINE
  5
18DE
330
18A7
100
AcDbEntity
  8
0
100
AcDbLine
 10
17.49999999999999
 20
0.0
 30
0.0
 11
12.49999999999999
 21
0.0
 31
0.0
  0
LINE
  5
18DF
330
18A7
100
AcDbEntity
  8
0
100
AcDbLine
 10
12.49999999999999
 20
0.0
 30
0.0
 11
10.01056648600256
 21
0.0
 31
0.0
  0
LINE
  5
18E0
330
18A7
100
AcDbEntity
  8
0
100
AcDbLine
 10
-10.01056648600258
 20
0.0
 30
0.0
 11
-12.50000000000001
 21
0.0
 31
0.0
  0
LINE
  5
18E1
330
18A7
100
AcDbEntity
  8
0
100
AcDbLine
 10
-12.50000000000001
 20
0.0
 30
0.0
 11
-17.50000000000001
 21
0.0
 31
0.0
  0
LINE
  5
18E2
330
18A7
100
AcDbEntity
  8
0
100
AcDbLine
 10
-17.50000000000001
 20
0.0
 30
0.0
 11
-19.98943351399744
 21
0.0
 31
0.0
  0
ELLIPSE
  5
18E3
330
18A7
100
AcDbEntity
  8
0
100
AcDbEllipse
 10
-17.50000000000001
 20
0.1668158657389725
 30
0.0
 11
-2.5
 21
0.0000000000000005
 31
0.0
210
0.0
220
0.0
230
1.0
 40
0.7071067811865474
 41
4.712388980384689
 42
6.026811980161123
  0
LINE
  5
18E4
330
18A7
100
AcDbEntity
  8
0
100
AcDbLine
 10
-17.50000000000001
 20
1.934582818705311
 30
0.0
 11
-12.50000000000001
 21
1.93458281870531
 31
0.0
  0
ELLIPSE
  5
18E5
330
18A7
100
AcDbEntity
  8
0
100
AcDbEllipse
 10
-12.50000000000001
 20
0.1668158657389714
 30
0.0
 11
2.5
 21
-0.0000000000000006
 31
0.0
210
0.0
220
0.0
230
1.0
 40
0.7071067811865472
 41
0.2563733270184638
 42
1.570796326794896
  0
SPLINE
  5
18E6
330
18A7
100
AcDbEntity
  8
0
100
AcDbSpline
210
0.0
220
0.0
230
1.0
 70
     8
 71
     3
 72
     8
 73
     4
 74
     0
 42
0.000000001
 43
0.0000000001
 40
0.0
 40
0.0
 40
0.0
 40
0.0
 40
1.0
 40
1.0
 40
1.0
 40
1.0
 10
-19.98943351399745
 20
0.0000000000000164
 30
0.0
 10
-20.01609483643931
 20
0.0000000000000163
 30
0.0
 10
-19.99189972302056
 20
0.2358409403969191
 30
0.0
 10
-19.91828991960763
 20
0.6150757595082666
 30
0.0
  0
LINE
  5
18E7
330
18A7
100
AcDbEntity
  8
0
100
AcDbLine
 10
-19.98943351399744
 20
0.1805170265382036
 30
0.0
 11
-19.98943351399744
 21
0.0
 31
0.0
  0
LINE
  5
18E8
330
18A7
100
AcDbEntity
  8
0
100
AcDbLine
 10
-10.01056648600258
 20
0.1805170265382119
 30
0.0
 11
-10.01056648600258
 21
0.0
 31
0.0
  0
SPLINE
  5
18E9
330
18A7
100
AcDbEntity
  8
0
100
AcDbSpline
210
0.0
220
0.0
230
1.0
 70
     8
 71
     3
 72
     8
 73
     4
 74
     0
 42
0.000000001
 43
0.0000000001
 40
0.0
 40
0.0
 40
0.0
 40
0.0
 40
1.0
 40
1.0
 40
1.0
 40
1.0
 10
-10.08171008039238
 20
0.6150757595082634
 30
0.0
 10
-10.00810027698017
 20
0.2358409403970213
 30
0.0
 10
-9.983905163560711
 20
0.0000000000000142
 30
0.0
 10
-10.01056648600257
 20
0.0000000000000142
 30
0.0
  0
LINE
  5
18EA
330
18A7
100
AcDbEntity
  8
0
100
AcDbLine
 10
-12.50000000000001
 20
1.499999999999997
 30
0.0
 11
-10.85828134922292
 21
1.499999999999996
 31
0.0
  0
LINE
  5
18EB
330
18A7
100
AcDbEntity
  8
0
100
AcDbLine
 10
-17.50000000000001
 20
1.499999999999999
 30
0.0
 11
-12.50000000000001
 21
1.499999999999998
 31
0.0
  0
LINE
  5
18EC
330
18A7
100
AcDbEntity
  8
0
100
AcDbLine
 10
-19.1417186507771
 20
1.499999999999998
 30
0.0
 11
-17.50000000000001
 21
1.499999999999998
 31
0.0
  0
ELLIPSE
  5
18ED
330
18A7
100
AcDbEntity
  8
0
100
AcDbEllipse
 10
12.49999999999999
 20
0.1668158657389647
 30
0.0
 11
-2.5
 21
0.0000000000000002
 31
0.0
210
0.0
220
0.0
230
1.0
 40
0.7071067811865474
 41
4.712388980384689
 42
6.026811980161121
  0
LINE
  5
18EE
330
18A7
100
AcDbEntity
  8
0
100
AcDbLine
 10
12.49999999999999
 20
1.934582818705303
 30
0.0
 11
17.49999999999999
 21
1.934582818705302
 31
0.0
  0
ELLIPSE
  5
18EF
330
18A7
100
AcDbEntity
  8
0
100
AcDbEllipse
 10
17.49999999999999
 20
0.1668158657389633
 30
0.0
 11
2.5
 21
-0.0000000000000006
 31
0.0
210
0.0
220
0.0
230
1.0
 40
0.7071067811865472
 41
0.2563733270184638
 42
1.570796326794896
  0
SPLINE
  5
18F0
330
18A7
100
AcDbEntity
  8
0
100
AcDbSpline
210
0.0
220
0.0
230
1.0
 70
     8
 71
     3
 72
     8
 73
     4
 74
     0
 42
0.000000001
 43
0.0000000001
 40
0.0
 40
0.0
 40
0.0
 40
0.0
 40
1.0
 40
1.0
 40
1.0
 40
1.0
 10
10.01056648600255
 20
0.0000000000000097
 30
0.0
 10
9.983905163560763
 20
0.0000000000000097
 30
0.0
 10
10.00810027697964
 20
0.2358409403969733
 30
0.0
 10
10.08171008039237
 20
0.6150757595082599
 30
0.0
  0
LINE
  5
18F1
330
18A7
100
AcDbEntity
  8
0
100
AcDbLine
 10
10.01056648600256
 20
0.1805170265382083
 30
0.0
 11
10.01056648600256
 21
0.0
 31
0.0
  0
LINE
  5
18F2
330
18A7
100
AcDbEntity
  8
0
100
AcDbLine
 10
19.98943351399742
 20
0.1805170265382414
 30
0.0
 11
19.98943351399742
 21
0.0
 31
0.0
  0
SPLINE
  5
18F3
330
18A7
100
AcDbEntity
  8
0
100
AcDbSpline
210
0.0
220
0.0
230
1.0
 70
     8
 71
     3
 72
     8
 73
     4
 74
     0
 42
0.000000001
 43
0.0000000001
 40
0.0
 40
0.0
 40
0.0
 40
0.0
 40
1.0
 40
1.0
 40
1.0
 40
1.0
 10
19.9182899196076
 20
0.6150757595082577
 30
0.0
 10
19.99189972301987
 20
0.235840940396903
 30
0.0
 10
20.01609483643941
 20
0.0000000000000073
 30
0.0
 10
19.98943351399742
 20
0.0000000000000075
 30
0.0
  0
LINE
  5
18F4
330
18A7
100
AcDbEntity
  8
0
100
AcDbLine
 10
17.49999999999999
 20
1.49999999999999
 30
0.0
 11
19.14171865077708
 21
1.49999999999999
 31
0.0
  0
LINE
  5
18F5
330
18A7
100
AcDbEntity
  8
0
100
AcDbLine
 10
12.49999999999999
 20
1.499999999999991
 30
0.0
 11
17.49999999999999
 21
1.499999999999989
 31
0.0
  0
LINE
  5
18F6
330
18A7
100
AcDbEntity
  8
0
100
AcDbLine
 10
10.8582813492229
 20
1.499999999999992
 30
0.0
 11
12.49999999999999
 21
1.499999999999992
 31
0.0
  0
LINE
  5
18F7
330
18A7
100
AcDbEntity
  8
0
100
AcDbLine
 10
51.5
 20
2.099999999999961
 30
0.0
 11
51.50000000000002
 21
4.36274170091118
 31
0.0
  0
LINE
  5
18F8
330
18A7
100
AcDbEntity
  8
0
100
AcDbLine
 10
-51.50000000000002
 20
4.362741700911219
 30
0.0
 11
-51.50000000000002
 21
2.100000000000002
 31
0.0
  0
LINE
  5
18F9
330
18A7
100
AcDbEntity
  8
0
100
AcDbLine
 10
50.0
 20
82.00306627385993
 30
0.0
 11
51.49999999999998
 21
82.00306627385993
 31
0.0
  0
LINE
  5
18FA
330
18A7
100
AcDbEntity
  8
0
100
AcDbLine
 10
-51.49999999999995
 20
82.00306627385996
 30
0.0
 11
-50.0
 21
82.00306627385996
 31
0.0
  0
LINE
  5
18FB
330
18A7
100
AcDbEntity
  8
0
100
AcDbLine
 10
51.5
 20
56.26437943888952
 30
0.0
 11
51.50000000000002
 21
4.362741700911181
 31
0.0
  0
ELLIPSE
  5
18FC
330
18A7
100
AcDbEntity
  8
0
100
AcDbEllipse
 10
49.40000000000001
 20
56.26437943888955
 30
0.0
 11
0.6000000000000087
 21
-0.0000000000000612
 31
0.0
210
0.0
220
0.0
230
1.0
 40
0.7071067811866067
 41
4.712388980384954
 42
6.283185307179342
  0
ELLIPSE
  5
18FD
330
18A7
100
AcDbEntity
  8
0
100
AcDbEllipse
 10
49.40000000000001
 20
56.26437943888959
 30
0.0
 11
2.100000000000081
 21
-0.0000000000003557
 31
0.0
210
0.0
220
0.0
230
1.0
 40
0.7071067811865516
 41
4.712388980384652
 42
6.283185307179251
  0
LINE
  5
18FE
330
18A7
100
AcDbEntity
  8
0
100
AcDbLine
 10
-51.50000000000003
 20
4.362741700911226
 30
0.0
 11
-51.5
 21
56.26437943888955
 31
0.0
  0
ELLIPSE
  5
18FF
330
18A7
100
AcDbEntity
  8
0
100
AcDbEllipse
 10
-49.40000000000001
 20
56.26437943888956
 30
0.0
 11
-2.100000000000031
 21
-0.0000000000000051
 31
0.0
210
0.0
220
0.0
230
1.0
 40
0.7071067811866067
 41
0.0
 42
1.570796326794894
  0
ELLIPSE
  5
1900
330
18A7
100
AcDbEntity
  8
0
100
AcDbEllipse
 10
-49.40000000000001
 20
56.26437943888956
 30
0.0
 11
-0.6000000000000087
 21
-0.0000000000000087
 31
0.0
210
0.0
220
0.0
230
1.0
 40
0.7071067811865445
 41
0.0000000000000003
 42
1.570796326794886
  0
ARC
  5
1901
330
18A7
100
AcDbEntity
  8
0
100
AcDbCircle
 10
49.39999999999999
 20
2.099999999999988
 30
0.0
 40
0.600000000000005
100
AcDbArc
 50
270.0
 51
343.4444348564546
  0
ARC
  5
1902
330
18A7
100
AcDbEntity
  8
0
100
AcDbCircle
 10
49.39999999999999
 20
2.099999999999988
 30
0.0
 40
2.100000000000008
100
AcDbArc
 50
343.3984504009796
 51
0.0
  0
ARC
  5
1903
330
18A7
100
AcDbEntity
  8
0
100
AcDbCircle
 10
-49.40000000000001
 20
2.10000000000001
 30
0.0
 40
0.5999999999999962
100
AcDbArc
 50
196.5555651435468
 51
270.0
  0
ARC
  5
1904
330
18A7
100
AcDbEntity
  8
0
100
AcDbCircle
 10
-49.40000000000001
 20
2.10000000000001
 30
0.0
 40
2.099999999999999
100
AcDbArc
 50
180.0
 51
196.6015495990203
  0
ENDBLK
  5
18A9
330
18A7
100
AcDbEntity
  8
0
100
AcDbBlockEnd
  0
BLOCK
  5
1906
330
1905
100
AcDbEntity
  8
0
100
AcDbBlockBegin
  2
SPR100_240-ISO
 70
     0
 10
0.0
 20
0.0
 30
0.0
  3
SPR100_240-ISO
  1

  0
LINE
  5
1908
330
1905
100
AcDbEntity
  8
0
100
AcDbLine
 10
93.35594368192353
 20
-92.06376408937019
 30
0.0
 11
89.82040977599078
 21
-94.10500554168951
 31
0.0
  0
LINE
  5
1909
330
1905
100
AcDbEntity
  8
0
100
AcDbLine
 10
94.41660385370335
 20
-91.4513916536744
 30
0.0
 11
93.35594368192353
 21
-92.06376408937019
 31
0.0
  0
LINE
  5
190A
330
1905
100
AcDbEntity
  8
0
100
AcDbLine
 10
93.35594368192355
 20
-38.1749897481403
 30
0.0
 11
94.41660385370338
 21
-37.5626173124445
 31
0.0
  0
LINE
  5
190B
330
1905
100
AcDbEntity
  8
0
100
AcDbLine
 10
94.41660385370338
 20
-37.5626173124445
 30
0.0
 11
90.88106994777062
 21
-31.43889295548655
 31
0.0
  0
LINE
  5
190C
330
1905
100
AcDbEntity
  8
0
100
AcDbLine
 10
-33.9615887704335
 20
-22.63943536008161
 30
0.0
 11
-37.49712267636624
 21
-16.51571100312367
 31
0.0
  0
LINE
  5
190D
330
1905
100
AcDbEntity
  8
0
100
AcDbLine
 10
89.82040977599082
 20
-32.05126539118234
 30
0.0
 11
93.35594368192355
 21
-38.1749897481403
 31
0.0
  0
LINE
  5
190E
330
1905
100
AcDbEntity
  8
0
100
AcDbLine
 10
90.88106994777062
 20
-31.43889295548655
 30
0.0
 11
89.82040977599082
 21
-32.05126539118234
 31
0.0
  0
LINE
  5
190F
330
1905
100
AcDbEntity
  8
0
100
AcDbLine
 10
94.41660385370338
 20
-37.5626173124445
 30
0.0
 11
94.41660385370335
 21
-91.4513916536744
 31
0.0
  0
LINE
  5
1910
330
1905
100
AcDbEntity
  8
0
100
AcDbLine
 10
93.35594368192355
 20
-38.1749897481403
 30
0.0
 11
93.35594368192353
 21
-92.06376408937019
 31
0.0
  0
LINE
  5
1911
330
1905
100
AcDbEntity
  8
0
100
AcDbLine
 10
-8.486588728328566
 20
25.93105152990215
 30
0.0
 11
-3.890394650615993
 21
23.27743764188703
 31
0.0
  0
LINE
  5
1912
330
1905
100
AcDbEntity
  8
0
100
AcDbLine
 10
63.28474956210604
 20
-15.50614995217994
 30
0.0
 11
90.88106994777062
 21
-31.43889295548655
 31
0.0
  0
LINE
  5
1913
330
1905
100
AcDbEntity
  8
0
100
AcDbLine
 10
-37.49712267636624
 20
-16.51571100312367
 30
0.0
 11
-37.49712267636624
 21
13.69466249120217
 31
0.0
  0
LINE
  5
1914
330
1905
100
AcDbEntity
  8
0
100
AcDbLine
 10
62.22408939032622
 20
-16.11852238787574
 30
0.0
 11
89.82040977599082
 21
-32.05126539118234
 31
0.0
  0
LINE
  5
1915
330
1905
100
AcDbEntity
  8
0
100
AcDbLine
 10
-4.951054822395821
 20
-39.38867494431595
 30
0.0
 11
-33.9615887704335
 21
-22.63943536008161
 31
0.0
  0
LINE
  5
1916
330
1905
100
AcDbEntity
  8
0
100
AcDbLine
 10
89.82040977599078
 20
-94.10500554168951
 30
0.0
 11
60.80987582795309
 21
-77.35576595745519
 31
0.0
  0
LINE
  5
1917
330
1905
100
AcDbEntity
  8
0
100
AcDbLine
 10
-9.547248900108392
 20
25.31867909420636
 30
0.0
 11
-4.951054822395812
 21
22.66506520619124
 31
0.0
  0
LINE
  5
1918
330
1905
100
AcDbEntity
  8
0
100
AcDbLine
 10
-3.890394650615993
 20
23.27743764188703
 30
0.0
 11
-4.951054822395812
 21
22.66506520619124
 31
0.0
  0
ELLIPSE
  5
1919
330
1905
100
AcDbEntity
  8
0
100
AcDbEllipse
 10
-4.951054822395812
 20
23.88981007758283
 30
0.0
 11
0.75
 21
-1.299038105676658
 31
0.0
210
0.0
220
0.0
230
0.9999999999999998
 40
0.577350269189626
 41
5.497787143782137
 42
8.63937979737193
  0
ELLIPSE
  5
191A
330
1905
100
AcDbEntity
  8
0
100
AcDbEllipse
 10
57.27434192202038
 20
112.479689108241
 30
0.0
 11
1.250000000000128
 21
-2.165063509461021
 31
0.0
210
0.0
220
0.0
230
1.0
 40
0.5773502691896261
 41
3.579741684173546
 42
4.454997905016229
  0
ELLIPSE
  5
191B
330
1905
100
AcDbEntity
  8
0
100
AcDbEllipse
 10
57.27434192202036
 20
-18.15976384019507
 30
0.0
 11
1.25
 21
-2.165063509461096
 31
0.0
210
0.0
220
0.0
230
1.0
 40
0.577350269189626
 41
4.999145532596246
 42
5.845036276595413
  0
ELLIPSE
  5
191C
330
1905
100
AcDbEntity
  8
0
100
AcDbEllipse
 10
56.21368175024056
 20
111.8673166725453
 30
0.0
 11
-1.249999999999999
 21
2.165063509461097
 31
0.0
210
0.0
220
0.0
230
0.9999999999999998
 40
0.5773502691896258
 41
4.969780055752957
 42
7.59659055860623
  0
ELLIPSE
  5
191D
330
1905
100
AcDbEntity
  8
0
100
AcDbEllipse
 10
56.21368175024054
 20
-18.77213627589087
 30
0.0
 11
1.25
 21
-2.165063509461096
 31
0.0
210
0.0
220
0.0
230
1.0
 40
0.5773502691896259
 41
4.999145532596251
 42
7.567225081762925
  0
ELLIPSE
  5
191E
330
1905
100
AcDbEntity
  8
0
100
AcDbEllipse
 10
57.27434192202036
 20
-50.81962707730411
 30
0.0
 11
1.250000000000129
 21
-2.165063509461021
 31
0.0
210
0.0
220
0.0
230
1.0
 40
0.577350269189626
 41
3.579741684173544
 42
5.845036276594998
  0
ELLIPSE
  5
191F
330
1905
100
AcDbEntity
  8
0
100
AcDbEllipse
 10
56.21368175024054
 20
-51.4319995129999
 30
0.0
 11
1.249999999999999
 21
-2.165063509461096
 31
0.0
210
0.0
220
0.0
230
1.0
 40
0.577350269189626
 41
0.0
 42
6.283185307179586
  0
ELLIPSE
  5
1920
330
1905
100
AcDbEntity
  8
0
100
AcDbEllipse
 10
50.20327411015488
 20
-30.40721255411096
 30
0.0
 11
1.250000000000128
 21
-2.165063509461021
 31
0.0
210
0.0
220
0.0
230
1.0
 40
0.5773502691896261
 41
3.579741684173548
 42
5.845036276594999
  0
ELLIPSE
  5
1921
330
1905
100
AcDbEntity
  8
0
100
AcDbEllipse
 10
49.14261393837506
 20
-31.01958498980676
 30
0.0
 11
1.249999999999999
 21
-2.165063509461096
 31
0.0
210
0.0
220
0.0
230
1.0
 40
0.577350269189626
 41
0.0
 42
6.283185307179586
  0
ELLIPSE
  5
1922
330
1905
100
AcDbEntity
  8
0
100
AcDbEllipse
 10
50.20327411015488
 20
-63.06707579122001
 30
0.0
 11
1.250000000000129
 21
-2.165063509461021
 31
0.0
210
0.0
220
0.0
230
1.0
 40
0.577350269189626
 41
3.579741684173544
 42
5.845036276594998
  0
ELLIPSE
  5
1923
330
1905
100
AcDbEntity
  8
0
100
AcDbEllipse
 10
49.14261393837506
 20
-63.6794482269158
 30
0.0
 11
1.249999999999999
 21
-2.165063509461096
 31
0.0
210
0.0
220
0.0
230
1.0
 40
0.577350269189626
 41
0.0
 42
6.283185307179586
  0
ELLIPSE
  5
1924
330
1905
100
AcDbEntity
  8
0
100
AcDbEllipse
 10
7.776867238962053
 20
141.0570694407114
 30
0.0
 11
1.250000000000128
 21
-2.165063509461021
 31
0.0
210
0.0
220
0.0
230
1.0
 40
0.5773502691896261
 41
3.579741684173546
 42
5.845036276595002
  0
ELLIPSE
  5
1925
330
1905
100
AcDbEntity
  8
0
100
AcDbEllipse
 10
7.776867238962053
 20
108.3972062036024
 30
0.0
 11
1.250000000000128
 21
-2.165063509461021
 31
0.0
210
0.0
220
0.0
230
1.0
 40
0.5773502691896261
 41
3.579741684173546
 42
5.845036276595002
  0
ELLIPSE
  5
1926
330
1905
100
AcDbEntity
  8
0
100
AcDbEllipse
 10
7.776867238962048
 20
75.7373429664934
 30
0.0
 11
1.250000000000128
 21
-2.165063509461021
 31
0.0
210
0.0
220
0.0
230
1.0
 40
0.5773502691896261
 41
3.579741684173546
 42
5.845036276594999
  0
ELLIPSE
  5
1927
330
1905
100
AcDbEntity
  8
0
100
AcDbEllipse
 10
7.776867238962044
 20
43.07747972938437
 30
0.0
 11
1.250000000000128
 21
-2.165063509461021
 31
0.0
210
0.0
220
0.0
230
1.0
 40
0.5773502691896261
 41
3.579741684173546
 42
5.845036276594999
  0
ELLIPSE
  5
1928
330
1905
100
AcDbEntity
  8
0
100
AcDbEllipse
 10
7.776867238962039
 20
10.41761649227534
 30
0.0
 11
1.250000000000128
 21
-2.165063509461021
 31
0.0
210
0.0
220
0.0
230
1.0
 40
0.5773502691896261
 41
3.579741684173546
 42
5.845036276594995
  0
ELLIPSE
  5
1929
330
1905
100
AcDbEntity
  8
0
100
AcDbEllipse
 10
6.716207067182229
 20
140.4446970050157
 30
0.0
 11
1.249999999999999
 21
-2.165063509461096
 31
0.0
210
0.0
220
0.0
230
1.0
 40
0.577350269189626
 41
0.0
 42
6.283185307179586
  0
ELLIPSE
  5
192A
330
1905
100
AcDbEntity
  8
0
100
AcDbEllipse
 10
6.716207067182229
 20
107.7848337679066
 30
0.0
 11
1.249999999999999
 21
-2.165063509461096
 31
0.0
210
0.0
220
0.0
230
1.0
 40
0.577350269189626
 41
0.0
 42
6.283185307179586
  0
ELLIPSE
  5
192B
330
1905
100
AcDbEntity
  8
0
100
AcDbEllipse
 10
6.716207067182224
 20
75.12497053079761
 30
0.0
 11
1.249999999999999
 21
-2.165063509461096
 31
0.0
210
0.0
220
0.0
230
1.0
 40
0.577350269189626
 41
0.0
 42
6.283185307179586
  0
ELLIPSE
  5
192C
330
1905
100
AcDbEntity
  8
0
100
AcDbEllipse
 10
6.71620706718222
 20
42.46510729368858
 30
0.0
 11
1.249999999999999
 21
-2.165063509461096
 31
0.0
210
0.0
220
0.0
230
1.0
 40
0.577350269189626
 41
0.0
 42
6.283185307179586
  0
ELLIPSE
  5
192D
330
1905
100
AcDbEntity
  8
0
100
AcDbEllipse
 10
6.716207067182216
 20
9.805244056579542
 30
0.0
 11
1.249999999999999
 21
-2.165063509461096
 31
0.0
210
0.0
220
0.0
230
1.0
 40
0.577350269189626
 41
0.0
 42
6.283185307179586
  0
ELLIPSE
  5
192E
330
1905
100
AcDbEntity
  8
0
100
AcDbEllipse
 10
7.776867238962039
 20
-22.2422467448337
 30
0.0
 11
1.250000000000129
 21
-2.165063509461021
 31
0.0
210
0.0
220
0.0
230
1.0
 40
0.577350269189626
 41
3.579741684173548
 42
5.845036276594994
  0
ELLIPSE
  5
192F
330
1905
100
AcDbEntity
  8
0
100
AcDbEllipse
 10
6.716207067182216
 20
-22.8546191805295
 30
0.0
 11
1.249999999999999
 21
-2.165063509461096
 31
0.0
210
0.0
220
0.0
230
1.0
 40
0.577350269189626
 41
0.0
 42
6.283185307179586
  0
ELLIPSE
  5
1930
330
1905
100
AcDbEntity
  8
0
100
AcDbEllipse
 10
0.7057994270965784
 20
128.8096207267956
 30
0.0
 11
1.250000000000129
 21
-2.165063509461021
 31
0.0
210
0.0
220
0.0
230
1.0
 40
0.577350269189626
 41
3.579741684173544
 42
5.845036276594999
  0
ELLIPSE
  5
1931
330
1905
100
AcDbEntity
  8
0
100
AcDbEllipse
 10
0.705799427096574
 20
96.14975748968653
 30
0.0
 11
1.250000000000129
 21
-2.165063509461021
 31
0.0
210
0.0
220
0.0
230
1.0
 40
0.577350269189626
 41
3.579741684173544
 42
5.845036276594999
  0
ELLIPSE
  5
1932
330
1905
100
AcDbEntity
  8
0
100
AcDbEllipse
 10
0.7057994270965695
 20
63.48989425257753
 30
0.0
 11
1.250000000000129
 21
-2.165063509461021
 31
0.0
210
0.0
220
0.0
230
1.0
 40
0.577350269189626
 41
3.579741684173544
 42
5.845036276594997
  0
ELLIPSE
  5
1933
330
1905
100
AcDbEntity
  8
0
100
AcDbEllipse
 10
0.7057994270965695
 20
30.8300310154685
 30
0.0
 11
1.250000000000129
 21
-2.165063509461021
 31
0.0
210
0.0
220
0.0
230
1.0
 40
0.577350269189626
 41
3.579741684173544
 42
5.845036276594997
  0
ELLIPSE
  5
1934
330
1905
100
AcDbEntity
  8
0
100
AcDbEllipse
 10
0.7057994270965651
 20
-1.829832221640552
 30
0.0
 11
1.250000000000129
 21
-2.165063509461021
 31
0.0
210
0.0
220
0.0
230
1.0
 40
0.577350269189626
 41
3.579741684173544
 42
5.845036276594996
  0
ELLIPSE
  5
1935
330
1905
100
AcDbEntity
  8
0
100
AcDbEllipse
 10
-0.3548607446832452
 20
128.1972482910998
 30
0.0
 11
1.249999999999999
 21
-2.165063509461096
 31
0.0
210
0.0
220
0.0
230
1.0
 40
0.577350269189626
 41
0.0
 42
6.283185307179586
  0
ELLIPSE
  5
1936
330
1905
100
AcDbEntity
  8
0
100
AcDbEllipse
 10
-0.3548607446832497
 20
95.53738505399074
 30
0.0
 11
1.249999999999999
 21
-2.165063509461096
 31
0.0
210
0.0
220
0.0
230
1.0
 40
0.577350269189626
 41
0.0
 42
6.283185307179586
  0
ELLIPSE
  5
1937
330
1905
100
AcDbEntity
  8
0
100
AcDbEllipse
 10
-0.3548607446832541
 20
62.87752181688174
 30
0.0
 11
1.249999999999999
 21
-2.165063509461096
 31
0.0
210
0.0
220
0.0
230
1.0
 40
0.577350269189626
 41
0.0
 42
6.283185307179586
  0
ELLIPSE
  5
1938
330
1905
100
AcDbEntity
  8
0
100
AcDbEllipse
 10
-0.3548607446832541
 20
30.21765857977269
 30
0.0
 11
1.249999999999999
 21
-2.165063509461096
 31
0.0
210
0.0
220
0.0
230
1.0
 40
0.577350269189626
 41
0.0
 42
6.283185307179586
  0
ELLIPSE
  5
1939
330
1905
100
AcDbEntity
  8
0
100
AcDbEllipse
 10
-0.3548607446832586
 20
-2.44220465733635
 30
0.0
 11
1.249999999999999
 21
-2.165063509461096
 31
0.0
210
0.0
220
0.0
230
1.0
 40
0.577350269189626
 41
0.0
 42
6.283185307179586
  0
ELLIPSE
  5
193A
330
1905
100
AcDbEntity
  8
0
100
AcDbEllipse
 10
0.7057994270965607
 20
-34.48969545874959
 30
0.0
 11
1.250000000000129
 21
-2.165063509461021
 31
0.0
210
0.0
220
0.0
230
1.0
 40
0.577350269189626
 41
3.579741684173548
 42
5.845036276594997
  0
ELLIPSE
  5
193B
330
1905
100
AcDbEntity
  8
0
100
AcDbEllipse
 10
-0.354860744683263
 20
-35.10206789444538
 30
0.0
 11
1.249999999999999
 21
-2.165063509461096
 31
0.0
210
0.0
220
0.0
230
1.0
 40
0.577350269189626
 41
0.0
 42
6.283185307179586
  0
ELLIPSE
  5
193C
330
1905
100
AcDbEntity
  8
0
100
AcDbEllipse
 10
-15.57681245958326
 20
23.90086975279878
 30
0.0
 11
1.249999999999999
 21
-2.165063509461096
 31
0.0
210
0.0
220
0.0
230
1.0
 40
0.5773502691896259
 41
5.50868294239599
 42
5.845036276595415
  0
ELLIPSE
  5
193D
330
1905
100
AcDbEntity
  8
0
100
AcDbEllipse
 10
69.31431312158091
 20
-25.1110444532967
 30
0.0
 11
1.250000000000129
 21
-2.165063509461021
 31
0.0
210
0.0
220
0.0
230
1.0
 40
0.577350269189626
 41
3.579741684173546
 42
5.845036276594997
  0
ELLIPSE
  5
193E
330
1905
100
AcDbEntity
  8
0
100
AcDbEllipse
 10
-16.63747263136308
 20
23.28849731710297
 30
0.0
 11
1.249999999999999
 21
-2.165063509461096
 31
0.0
210
0.0
220
0.0
230
1.0
 40
0.577350269189626
 41
5.508682942395989
 42
7.057687671963181
  0
ELLIPSE
  5
193F
330
1905
100
AcDbEntity
  8
0
100
AcDbEllipse
 10
68.25365294980108
 20
-25.7234168889925
 30
0.0
 11
1.249999999999999
 21
-2.165063509461096
 31
0.0
210
0.0
220
0.0
230
1.0
 40
0.577350269189626
 41
0.0
 42
6.283185307179586
  0
ELLIPSE
  5
1940
330
1905
100
AcDbEntity
  8
0
100
AcDbEllipse
 10
-11.33417177246397
 20
-11.20848322709345
 30
0.0
 11
1.250000000000129
 21
-2.165063509461021
 31
0.0
210
0.0
220
0.0
230
1.0
 40
0.577350269189626
 41
3.579741684173548
 42
5.845036276594996
  0
ELLIPSE
  5
1941
330
1905
100
AcDbEntity
  8
0
100
AcDbEllipse
 10
73.55695380870018
 20
-60.22039743318891
 30
0.0
 11
1.250000000000129
 21
-2.165063509461021
 31
0.0
210
0.0
220
0.0
230
1.0
 40
0.577350269189626
 41
3.579741684173544
 42
5.845036276594997
  0
ELLIPSE
  5
1942
330
1905
100
AcDbEntity
  8
0
100
AcDbEllipse
 10
-12.3948319442438
 20
-11.82085566278925
 30
0.0
 11
1.249999999999999
 21
-2.165063509461096
 31
0.0
210
0.0
220
0.0
230
1.0
 40
0.577350269189626
 41
0.0
 42
6.283185307179586
  0
ELLIPSE
  5
1943
330
1905
100
AcDbEntity
  8
0
100
AcDbEllipse
 10
72.49629363692037
 20
-60.83276986888471
 30
0.0
 11
1.249999999999999
 21
-2.165063509461096
 31
0.0
210
0.0
220
0.0
230
1.0
 40
0.577350269189626
 41
0.0
 42
6.283185307179586
  0
ELLIPSE
  5
1944
330
1905
100
AcDbEntity
  8
0
100
AcDbEllipse
 10
51.97104106312126
 20
-72.25266232665688
 30
0.0
 11
1.250000000000129
 21
-2.165063509461021
 31
0.0
210
0.0
220
0.0
230
1.0
 40
0.577350269189626
 41
3.579741684173544
 42
3.835017178248616
  0
ELLIPSE
  5
1945
330
1905
100
AcDbEntity
  8
0
100
AcDbEllipse
 10
6.009100285995669
 20
-45.71652344650577
 30
0.0
 11
1.250000000000129
 21
-2.165063509461021
 31
0.0
210
0.0
220
0.0
230
1.0
 40
0.577350269189626
 41
3.579741684173544
 42
3.835017178248616
  0
SPLINE
  5
1946
330
1905
100
AcDbEntity
  8
0
100
AcDbSpline
210
0.0
220
0.0
230
1.0
 70
     8
 71
     3
 72
     8
 73
     4
 74
     0
 42
0.000000001
 43
0.0000000001
 40
0.0
 40
0.0
 40
0.0
 40
0.0
 40
1.0
 40
1.0
 40
1.0
 40
1.0
 10
50.21074574406063
 20
-71.04887952188176
 30
0.0
 10
50.19189334216672
 20
-71.4887803765326
 30
0.0
 10
50.042237142701
 20
-72.04694598912792
 30
0.0
 10
49.82612762159988
 20
-72.54146296529206
 30
0.0
  0
ELLIPSE
  5
1947
330
1905
100
AcDbEntity
  8
0
100
AcDbEllipse
 10
5.141143656122149
 20
-46.01057010283006
 30
0.0
 11
-1.249999999999999
 21
-2.165063509461095
 31
0.0
210
0.0
220
0.0
230
1.0
 40
0.816496580927726
 41
4.968762307403156
 42
7.597608306956018
  0
ELLIPSE
  5
1948
330
1905
100
AcDbEntity
  8
0
100
AcDbEllipse
 10
51.10308443324774
 20
-72.54670898298114
 30
0.0
 11
-1.249999999999999
 21
-2.165063509461097
 31
0.0
210
0.0
220
0.0
230
1.0
 40
0.816496580927726
 41
4.968762307403153
 42
7.597608306956019
  0
SPLINE
  5
1949
330
1905
100
AcDbEntity
  8
0
100
AcDbSpline
210
0.0
220
0.0
230
1.0
 70
     8
 71
     3
 72
     8
 73
     4
 74
     0
 42
0.000000001
 43
0.0000000001
 40
-1.0
 40
-1.0
 40
-1.0
 40
-1.0
 40
0.0
 40
0.0
 40
0.0
 40
0.0
 10
49.07612762159988
 20
-72.10845026339985
 30
0.0
 10
49.10069463394693
 20
-71.94569464420694
 30
0.0
 10
49.1312331703869
 20
-71.77916331654329
 30
0.0
 10
49.1500855722808
 20
-71.66125195757756
 30
0.0
  0
SPLINE
  5
194A
330
1905
100
AcDbEntity
  8
0
100
AcDbSpline
210
0.0
220
0.0
230
1.0
 70
     8
 71
     3
 72
     8
 73
     4
 74
     0
 42
0.000000001
 43
0.0000000001
 40
-1.0
 40
-1.0
 40
-1.0
 40
-1.0
 40
0.0
 40
0.0
 40
0.0
 40
0.0
 10
6.708735433276489
 20
-47.15772703005224
 30
0.0
 10
6.72758783517025
 20
-47.29740726763452
 30
0.0
 10
6.662832241189589
 20
-47.44418336791612
 30
0.0
 10
6.534165246533549
 20
-47.54683683430037
 30
0.0
  0
ELLIPSE
  5
194B
330
1905
100
AcDbEntity
  8
0
100
AcDbEllipse
 10
5.891143656122137
 20
-46.44358280472226
 30
0.0
 11
-1.249999999999999
 21
-2.165063509461097
 31
0.0
210
0.0
220
0.0
230
0.9999999999999998
 40
0.8164965809277259
 41
4.968762307403156
 42
6.069429174707154
  0
LINE
  5
194C
330
1905
100
AcDbEntity
  8
0
100
AcDbLine
 10
3.864186844474297
 20
-46.00532408514097
 30
0.0
 11
3.363936844582808
 21
-45.71650461304151
 31
0.0
  0
LINE
  5
194D
330
1905
100
AcDbEntity
  8
0
100
AcDbLine
 10
3.363936844582808
 20
-45.71650461304151
 30
0.0
 11
3.114186844474295
 21
-45.57231138324875
 31
0.0
  0
LINE
  5
194E
330
1905
100
AcDbEntity
  8
0
100
AcDbLine
 10
3.188144795155207
 20
-45.12511307742644
 30
0.0
 11
3.541344632726808
 21
-44.92119305612674
 31
0.0
  0
SPLINE
  5
194F
330
1905
100
AcDbEntity
  8
0
100
AcDbSpline
210
0.0
220
0.0
230
1.0
 70
     8
 71
     3
 72
     8
 73
     4
 74
     0
 42
0.000000001
 43
0.0000000001
 40
-1.0
 40
-1.0
 40
-1.0
 40
-1.0
 40
0.0
 40
0.0
 40
0.0
 40
0.0
 10
3.114186844474295
 20
-45.57231138324874
 30
0.0
 10
3.138753856820355
 20
-45.40955576405528
 30
0.0
 10
3.169292393261438
 20
-45.24302443639225
 30
0.0
 10
3.188144795155198
 20
-45.12511307742645
 30
0.0
  0
SPLINE
  5
1950
330
1905
100
AcDbEntity
  8
0
100
AcDbSpline
210
0.0
220
0.0
230
1.0
 70
     8
 71
     3
 72
     8
 73
     4
 74
     0
 42
0.000000001
 43
0.0000000001
 40
0.0
 40
0.0
 40
0.0
 40
0.0
 40
1.0
 40
1.0
 40
1.0
 40
1.0
 10
4.248804966935018
 20
-44.51274064173065
 30
0.0
 10
4.229952565041257
 20
-44.95264149638156
 30
0.0
 10
4.080296365574405
 20
-45.51080710897629
 30
0.0
 10
3.864186844474293
 20
-46.00532408514097
 30
0.0
  0
LINE
  5
1951
330
1905
100
AcDbEntity
  8
0
100
AcDbLine
 10
3.541344632726808
 20
-44.92119305612674
 30
0.0
 11
4.248804966935026
 21
-44.51274064173064
 31
0.0
  0
ELLIPSE
  5
1952
330
1905
100
AcDbEntity
  8
0
100
AcDbEllipse
 10
4.948440114215846
 20
-46.32889588220158
 30
0.0
 11
-1.249999999999999
 21
2.165063509461095
 31
0.0
210
0.0
220
0.0
230
0.9999999999999998
 40
0.577350269189626
 41
4.018964455725507
 42
6.976609831838763
  0
ELLIPSE
  5
1953
330
1905
100
AcDbEntity
  8
0
100
AcDbEllipse
 10
51.85308443324773
 20
-72.97972168487335
 30
0.0
 11
-1.249999999999999
 21
-2.165063509461097
 31
0.0
210
0.0
220
0.0
230
0.9999999999999998
 40
0.816496580927726
 41
4.968762307403151
 42
6.069429174707154
  0
LINE
  5
1954
330
1905
100
AcDbEntity
  8
0
100
AcDbLine
 10
49.82612762159988
 20
-72.54146296529206
 30
0.0
 11
49.32587762169801
 21
-72.25264349318661
 31
0.0
  0
LINE
  5
1955
330
1905
100
AcDbEntity
  8
0
100
AcDbLine
 10
49.32587762169801
 20
-72.25264349318661
 30
0.0
 11
49.07612762159986
 21
-72.10845026339985
 31
0.0
  0
LINE
  5
1956
330
1905
100
AcDbEntity
  8
0
100
AcDbLine
 10
49.1500855722808
 20
-71.66125195757754
 30
0.0
 11
49.50328540985623
 21
-71.45733193627562
 31
0.0
  0
LINE
  5
1957
330
1905
100
AcDbEntity
  8
0
100
AcDbLine
 10
49.50328540985623
 20
-71.45733193627562
 30
0.0
 11
50.21074574406063
 21
-71.04887952188175
 31
0.0
  0
SPLINE
  5
1958
330
1905
100
AcDbEntity
  8
0
100
AcDbSpline
210
0.0
220
0.0
230
1.0
 70
     8
 71
     3
 72
     8
 73
     4
 74
     0
 42
0.000000001
 43
0.0000000001
 40
-1.0
 40
-1.0
 40
-1.0
 40
-1.0
 40
0.0
 40
0.0
 40
0.0
 40
0.0
 10
52.67067621040206
 20
-73.69386591020333
 30
0.0
 10
52.68952861229606
 20
-73.83354614778575
 30
0.0
 10
52.62477301831452
 20
-73.98032224806684
 30
0.0
 10
52.49610602365914
 20
-74.08297571445146
 30
0.0
  0
ELLIPSE
  5
1959
330
1905
100
AcDbEntity
  8
0
100
AcDbEllipse
 10
50.91038089134144
 20
-72.86503476235266
 30
0.0
 11
-1.249999999999999
 21
2.165063509461096
 31
0.0
210
0.0
220
0.0
230
1.0
 40
0.577350269189626
 41
4.018964455725508
 42
6.976609831838766
  0
ELLIPSE
  5
195A
330
1905
100
AcDbEntity
  8
0
100
AcDbEllipse
 10
37.82890543939031
 20
-64.08769651737961
 30
0.0
 11
1.250000000000128
 21
-2.165063509461021
 31
0.0
210
0.0
220
0.0
230
1.0
 40
0.5773502691896259
 41
3.579741684173546
 42
3.835017178248618
  0
ELLIPSE
  5
195B
330
1905
100
AcDbEntity
  8
0
100
AcDbEllipse
 10
16.61570200379388
 20
-51.84024780346373
 30
0.0
 11
1.250000000000128
 21
-2.165063509461021
 31
0.0
210
0.0
220
0.0
230
1.0
 40
0.577350269189626
 41
3.579741684173546
 42
3.835017178248617
  0
ELLIPSE
  5
195C
330
1905
100
AcDbEntity
  8
0
100
AcDbEllipse
 10
16.49774537392035
 20
-52.56730716168021
 30
0.0
 11
-1.249999999999999
 21
-2.165063509461097
 31
0.0
210
0.0
220
0.0
230
1.0
 40
0.816496580927726
 41
4.968762307403151
 42
6.283185307179585
  0
LINE
  5
195D
330
1905
100
AcDbEntity
  8
0
100
AcDbLine
 10
14.47078856227249
 20
-52.12904844209891
 30
0.0
 11
13.97053856237605
 21
-51.84022896999659
 31
0.0
  0
LINE
  5
195E
330
1905
100
AcDbEntity
  8
0
100
AcDbLine
 10
13.97053856237605
 20
-51.84022896999659
 30
0.0
 11
13.72078856227249
 21
-51.69603574020669
 31
0.0
  0
ELLIPSE
  5
195F
330
1905
100
AcDbEntity
  8
0
100
AcDbEllipse
 10
15.74774537392036
 20
-52.134294459788
 30
0.0
 11
-1.249999999999999
 21
-2.165063509461097
 31
0.0
210
0.0
220
0.0
230
1.0
 40
0.816496580927726
 41
4.968762307403151
 42
6.283185307179584
  0
LINE
  5
1960
330
1905
100
AcDbEntity
  8
0
100
AcDbLine
 10
18.03327927985311
 20
-56.34059942156842
 30
0.0
 11
14.49774537392037
 21
-54.29935796924909
 31
0.0
  0
ELLIPSE
  5
1961
330
1905
100
AcDbEntity
  8
0
100
AcDbEllipse
 10
19.2832792798531
 20
-54.1755359121073
 30
0.0
 11
-1.249999999999998
 21
-2.165063509461097
 31
0.0
210
0.0
220
0.0
230
0.9999999999999998
 40
0.816496580927726
 41
0.0
 42
1.314422999776432
  0
LINE
  5
1962
330
1905
100
AcDbEntity
  8
0
100
AcDbLine
 10
13.79474651295342
 20
-51.24883743438438
 30
0.0
 11
14.14794635053477
 21
-51.04491741307906
 31
0.0
  0
SPLINE
  5
1963
330
1905
100
AcDbEntity
  8
0
100
AcDbSpline
210
0.0
220
0.0
230
1.0
 70
     8
 71
     3
 72
     8
 73
     4
 74
     0
 42
0.000000001
 43
0.0000000001
 40
-1.0
 40
-1.0
 40
-1.0
 40
-1.0
 40
0.0
 40
0.0
 40
0.0
 40
0.0
 10
13.72078856227249
 20
-51.69603574020669
 30
0.0
 10
13.74535557461903
 20
-51.53328012101348
 30
0.0
 10
13.77589411105936
 20
-51.36674879335001
 30
0.0
 10
13.7947465129534
 20
-51.24883743438439
 30
0.0
  0
SPLINE
  5
1964
330
1905
100
AcDbEntity
  8
0
100
AcDbSpline
210
0.0
220
0.0
230
1.0
 70
     8
 71
     3
 72
     8
 73
     4
 74
     0
 42
0.000000001
 43
0.0000000001
 40
0.0
 40
0.0
 40
0.0
 40
0.0
 40
1.0
 40
1.0
 40
1.0
 40
1.0
 10
14.85540668473322
 20
-50.63646499868859
 30
0.0
 10
14.83655428283918
 20
-51.07636585333928
 30
0.0
 10
14.68689808337309
 20
-51.63453146593447
 30
0.0
 10
14.47078856227249
 20
-52.12904844209891
 30
0.0
  0
LINE
  5
1965
330
1905
100
AcDbEntity
  8
0
100
AcDbLine
 10
14.14794635053477
 20
-51.04491741307906
 30
0.0
 11
14.85540668473324
 21
-50.63646499868859
 31
0.0
  0
SPLINE
  5
1966
330
1905
100
AcDbEntity
  8
0
100
AcDbSpline
210
0.0
220
0.0
230
1.0
 70
     8
 71
     3
 72
     8
 73
     4
 74
     0
 42
0.000000001
 43
0.0000000001
 40
-1.0
 40
-1.0
 40
-1.0
 40
-1.0
 40
0.0
 40
0.0
 40
0.0
 40
0.0
 10
20.85087105700743
 20
-55.32269283932951
 30
0.0
 10
20.86972345890147
 20
-55.46237307691194
 30
0.0
 10
20.80496786492067
 20
-55.60914917719357
 30
0.0
 10
20.67630087026449
 20
-55.71180264357763
 30
0.0
  0
ELLIPSE
  5
1967
330
1905
100
AcDbEntity
  8
0
100
AcDbEllipse
 10
19.0905757379468
 20
-54.49386169147884
 30
0.0
 11
1.24999999999987
 21
-2.16506350946117
 31
0.0
210
0.0
220
0.0
230
1.0
 40
0.577350269189626
 41
0.8773718021359337
 42
2.356194490192585
  0
LINE
  5
1968
330
1905
100
AcDbEntity
  8
0
100
AcDbLine
 10
15.55504183201406
 20
-50.4113787868402
 30
0.0
 11
19.09057573794679
 21
-52.45262023915952
 31
0.0
  0
ELLIPSE
  5
1969
330
1905
100
AcDbEntity
  8
0
100
AcDbEllipse
 10
15.55504183201406
 20
-52.45262023915952
 30
0.0
 11
-1.25
 21
2.165063509461095
 31
0.0
210
0.0
220
0.0
230
1.0
 40
0.577350269189626
 41
5.497787143782135
 42
6.976609831838763
  0
ELLIPSE
  5
196A
330
1905
100
AcDbEntity
  8
0
100
AcDbEllipse
 10
37.71094880951678
 20
-64.81475587559609
 30
0.0
 11
-1.249999999999999
 21
-2.165063509461096
 31
0.0
210
0.0
220
0.0
230
1.0
 40
0.816496580927726
 41
4.968762307403152
 42
6.283185307179585
  0
LINE
  5
196B
330
1905
100
AcDbEntity
  8
0
100
AcDbLine
 10
35.68399199786892
 20
-64.37649715601479
 30
0.0
 11
35.18374199797111
 21
-64.08767768391169
 31
0.0
  0
LINE
  5
196C
330
1905
100
AcDbEntity
  8
0
100
AcDbLine
 10
35.18374199797111
 20
-64.08767768391169
 30
0.0
 11
34.93399199786892
 21
-63.94348445412258
 31
0.0
  0
ELLIPSE
  5
196D
330
1905
100
AcDbEntity
  8
0
100
AcDbEllipse
 10
36.96094880951678
 20
-64.38174317370388
 30
0.0
 11
-1.249999999999999
 21
-2.165063509461097
 31
0.0
210
0.0
220
0.0
230
1.0
 40
0.816496580927726
 41
4.968762307403151
 42
6.283185307179585
  0
LINE
  5
196E
330
1905
100
AcDbEntity
  8
0
100
AcDbLine
 10
39.24648271544953
 20
-68.5880481354843
 30
0.0
 11
35.7109488095168
 21
-66.54680668316498
 31
0.0
  0
ELLIPSE
  5
196F
330
1905
100
AcDbEntity
  8
0
100
AcDbEllipse
 10
40.49648271544952
 20
-66.42298462602319
 30
0.0
 11
-1.249999999999999
 21
-2.165063509461097
 31
0.0
210
0.0
220
0.0
230
1.0
 40
0.816496580927726
 41
0.0
 42
1.314422999776433
  0
LINE
  5
1970
330
1905
100
AcDbEntity
  8
0
100
AcDbLine
 10
35.00794994854985
 20
-63.49628614830027
 30
0.0
 11
35.36114978612906
 21
-63.29236612699618
 31
0.0
  0
SPLINE
  5
1971
330
1905
100
AcDbEntity
  8
0
100
AcDbSpline
210
0.0
220
0.0
230
1.0
 70
     8
 71
     3
 72
     8
 73
     4
 74
     0
 42
0.000000001
 43
0.0000000001
 40
-1.0
 40
-1.0
 40
-1.0
 40
-1.0
 40
0.0
 40
0.0
 40
0.0
 40
0.0
 10
34.93399199786892
 20
-63.94348445412258
 30
0.0
 10
34.95855901021558
 20
-63.78072883492947
 30
0.0
 10
34.98909754665584
 20
-63.61419750726597
 30
0.0
 10
35.00794994854984
 20
-63.49628614830027
 30
0.0
  0
SPLINE
  5
1972
330
1905
100
AcDbEntity
  8
0
100
AcDbSpline
210
0.0
220
0.0
230
1.0
 70
     8
 71
     3
 72
     8
 73
     4
 74
     0
 42
0.000000001
 43
0.0000000001
 40
0.0
 40
0.0
 40
0.0
 40
0.0
 40
1.0
 40
1.0
 40
1.0
 40
1.0
 10
36.06861012032965
 20
-62.88391371260448
 30
0.0
 10
36.04975771843566
 20
-63.32381456725529
 30
0.0
 10
35.90010151896962
 20
-63.8819801798505
 30
0.0
 10
35.68399199786892
 20
-64.37649715601479
 30
0.0
  0
LINE
  5
1973
330
1905
100
AcDbEntity
  8
0
100
AcDbLine
 10
35.36114978612906
 20
-63.29236612699618
 30
0.0
 11
36.06861012032967
 21
-62.88391371260448
 31
0.0
  0
SPLINE
  5
1974
330
1905
100
AcDbEntity
  8
0
100
AcDbSpline
210
0.0
220
0.0
230
1.0
 70
     8
 71
     3
 72
     8
 73
     4
 74
     0
 42
0.000000001
 43
0.0000000001
 40
-1.0
 40
-1.0
 40
-1.0
 40
-1.0
 40
0.0
 40
0.0
 40
0.0
 40
0.0
 10
42.06407449260384
 20
-67.57014155324539
 30
0.0
 10
42.08292689449797
 20
-67.70982179082785
 30
0.0
 10
42.01817130051714
 20
-67.85659789110943
 30
0.0
 10
41.88950430586089
 20
-67.95925135749349
 30
0.0
  0
ELLIPSE
  5
1975
330
1905
100
AcDbEntity
  8
0
100
AcDbEllipse
 10
40.30377917354321
 20
-66.74131040539473
 30
0.0
 11
1.24999999999987
 21
-2.16506350946117
 31
0.0
210
0.0
220
0.0
230
1.0
 40
0.577350269189626
 41
0.8773718021359382
 42
2.356194490192587
  0
LINE
  5
1976
330
1905
100
AcDbEntity
  8
0
100
AcDbLine
 10
36.76824526761048
 20
-62.65882750075609
 30
0.0
 11
40.30377917354321
 21
-64.7000689530754
 31
0.0
  0
ELLIPSE
  5
1977
330
1905
100
AcDbEntity
  8
0
100
AcDbEllipse
 10
36.76824526761048
 20
-64.7000689530754
 30
0.0
 11
-1.249999999999999
 21
2.165063509461096
 31
0.0
210
0.0
220
0.0
230
1.0
 40
0.577350269189626
 41
5.497787143782135
 42
6.976609831838763
  0
LINE
  5
1978
330
1905
100
AcDbEntity
  8
0
100
AcDbLine
 10
63.92114566517393
 20
117.541967909993
 30
0.0
 11
-5.94100431605697
 21
157.8768990078226
 31
0.0
  0
LINE
  5
1979
330
1905
100
AcDbEntity
  8
0
100
AcDbLine
 10
34.64692492405105
 20
-27.95772281132784
 30
0.0
 11
34.64692492405106
 21
94.84336296020215
 31
0.0
  0
LINE
  5
197A
330
1905
100
AcDbEntity
  8
0
100
AcDbLine
 10
33.58626475227122
 20
95.45573539589788
 30
0.0
 11
33.58626475227121
 21
-27.34535037563205
 31
0.0
  0
LINE
  5
197B
330
1905
100
AcDbEntity
  8
0
100
AcDbLine
 10
63.92114566517394
 20
-15.13872649076246
 30
0.0
 11
38.18245882998376
 21
-29.99896426364715
 31
0.0
  0
LINE
  5
197C
330
1905
100
AcDbEntity
  8
0
100
AcDbLine
 10
38.18245882998377
 20
100.96708731716
 30
0.0
 11
63.92114566517395
 21
115.8273250900447
 31
0.0
  0
LINE
  5
197D
330
1905
100
AcDbEntity
  8
0
100
AcDbLine
 10
-38.18507353816353
 20
136.8929368779801
 30
0.0
 11
-38.18507353816354
 21
14.09185110645012
 31
0.0
  0
LINE
  5
197E
330
1905
100
AcDbEntity
  8
0
100
AcDbLine
 10
-8.910852797040465
 20
157.8768990078226
 30
0.0
 11
-34.6495396322308
 21
143.016661234938
 31
0.0
  0
LINE
  5
197F
330
1905
100
AcDbEntity
  8
0
100
AcDbLine
 10
-37.12441336638371
 20
136.2805644422843
 30
0.0
 11
-37.12441336638372
 21
13.47947867075433
 31
0.0
  0
LINE
  5
1980
330
1905
100
AcDbEntity
  8
0
100
AcDbLine
 10
63.92114566517395
 20
115.8273250900447
 30
0.0
 11
62.86048549339412
 21
116.4396975257405
 31
0.0
  0
LINE
  5
1981
330
1905
100
AcDbEntity
  8
0
100
AcDbLine
 10
62.86048549339412
 20
116.4396975257405
 30
0.0
 11
37.12179865820395
 21
101.5794597528559
 31
0.0
  0
LINE
  5
1982
330
1905
100
AcDbEntity
  8
0
100
AcDbLine
 10
-7.001664487836802
 20
26.29847499131962
 30
0.0
 11
-4.951054822395808
 21
25.11455494897441
 31
0.0
  0
LINE
  5
1983
330
1905
100
AcDbEntity
  8
0
100
AcDbLine
 10
63.92114566517393
 20
117.541967909993
 30
0.0
 11
62.86048549339411
 21
116.9295954742972
 31
0.0
  0
LINE
  5
1984
330
1905
100
AcDbEntity
  8
0
100
AcDbLine
 10
-5.941004316056965
 20
157.8768990078226
 30
0.0
 11
-7.001664487836789
 21
157.2645265721268
 31
0.0
  0
LINE
  5
1985
330
1905
100
AcDbEntity
  8
0
100
AcDbLine
 10
-8.910852797040465
 20
157.8768990078226
 30
0.0
 11
-7.850192625260641
 21
157.2645265721268
 31
0.0
  0
LINE
  5
1986
330
1905
100
AcDbEntity
  8
0
100
AcDbLine
 10
-7.001664487836789
 20
157.2645265721268
 30
0.0
 11
62.86048549339411
 21
116.9295954742972
 31
0.0
  0
LINE
  5
1987
330
1905
100
AcDbEntity
  8
0
100
AcDbLine
 10
-33.58887946045098
 20
11.43823721843501
 30
0.0
 11
-7.850192625260654
 21
26.29847499131962
 31
0.0
  0
LINE
  5
1988
330
1905
100
AcDbEntity
  8
0
100
AcDbLine
 10
-33.58887946045097
 20
142.4042887992422
 30
0.0
 11
-7.850192625260641
 21
157.2645265721268
 31
0.0
  0
LINE
  5
1989
330
1905
100
AcDbEntity
  8
0
100
AcDbLine
 10
38.18245882998376
 20
-29.99896426364715
 30
0.0
 11
34.64692492405105
 21
-27.95772281132784
 31
0.0
  0
LINE
  5
198A
330
1905
100
AcDbEntity
  8
0
100
AcDbLine
 10
34.64692492405105
 20
-27.95772281132784
 30
0.0
 11
33.58626475227121
 21
-27.34535037563206
 31
0.0
  0
LINE
  5
198B
330
1905
100
AcDbEntity
  8
0
100
AcDbLine
 10
33.58626475227122
 20
95.45573539589788
 30
0.0
 11
34.64692492405106
 21
94.84336296020215
 31
0.0
  0
LINE
  5
198C
330
1905
100
AcDbEntity
  8
0
100
AcDbLine
 10
34.64692492405106
 20
94.84336296020215
 30
0.0
 11
38.18245882998377
 21
100.96708731716
 31
0.0
  0
LINE
  5
198D
330
1905
100
AcDbEntity
  8
0
100
AcDbLine
 10
-33.58887946045098
 20
11.43823721843501
 30
0.0
 11
-37.12441336638372
 21
13.47947867075432
 31
0.0
  0
LINE
  5
198E
330
1905
100
AcDbEntity
  8
0
100
AcDbLine
 10
-37.12441336638372
 20
13.47947867075432
 30
0.0
 11
-38.18507353816354
 21
14.09185110645012
 31
0.0
  0
LINE
  5
198F
330
1905
100
AcDbEntity
  8
0
100
AcDbLine
 10
-34.6495396322308
 20
143.016661234938
 30
0.0
 11
-38.18507353816353
 21
136.8929368779801
 31
0.0
  0
LINE
  5
1990
330
1905
100
AcDbEntity
  8
0
100
AcDbLine
 10
-38.18507353816353
 20
136.8929368779801
 30
0.0
 11
-37.12441336638371
 21
136.2805644422843
 31
0.0
  0
LINE
  5
1991
330
1905
100
AcDbEntity
  8
0
100
AcDbLine
 10
38.18245882998377
 20
100.96708731716
 30
0.0
 11
37.12179865820395
 21
101.5794597528559
 31
0.0
  0
LINE
  5
1992
330
1905
100
AcDbEntity
  8
0
100
AcDbLine
 10
37.12179865820395
 20
101.5794597528559
 30
0.0
 11
33.58626475227122
 21
95.45573539589788
 31
0.0
  0
LINE
  5
1993
330
1905
100
AcDbEntity
  8
0
100
AcDbLine
 10
-37.12441336638371
 20
136.2805644422843
 30
0.0
 11
-33.58887946045097
 21
142.4042887992422
 31
0.0
  0
LINE
  5
1994
330
1905
100
AcDbEntity
  8
0
100
AcDbLine
 10
-33.58887946045097
 20
142.4042887992422
 30
0.0
 11
-34.6495396322308
 21
143.016661234938
 31
0.0
  0
LINE
  5
1995
330
1905
100
AcDbEntity
  8
0
100
AcDbLine
 10
7.421145665329396
 20
-136.5089964577087
 30
0.0
 11
7.421145665329413
 21
-130.7354937658125
 31
0.0
  0
LINE
  5
1996
330
1905
100
AcDbEntity
  8
0
100
AcDbLine
 10
7.421145665329413
 20
-130.7354937658125
 30
0.0
 11
6.36048549354959
 21
-130.1231213301167
 31
0.0
  0
LINE
  5
1997
330
1905
100
AcDbEntity
  8
0
100
AcDbLine
 10
6.36048549354959
 20
-130.1231213301167
 30
0.0
 11
6.360485493549599
 21
-135.8966240220129
 31
0.0
  0
LINE
  5
1998
330
1905
100
AcDbEntity
  8
0
100
AcDbLine
 10
6.360485493549599
 20
-135.8966240220129
 30
0.0
 11
7.421145665329396
 21
-136.5089964577087
 31
0.0
  0
LINE
  5
1999
330
1905
100
AcDbEntity
  8
0
100
AcDbLine
 10
-65.41085279688497
 20
-88.68591984803465
 30
0.0
 11
-65.41085279688494
 21
-94.45942253993088
 31
0.0
  0
LINE
  5
199A
330
1905
100
AcDbEntity
  8
0
100
AcDbLine
 10
-65.41085279688494
 20
-94.45942253993088
 30
0.0
 11
-64.35019262510514
 21
-95.07179497562667
 31
0.0
  0
LINE
  5
199B
330
1905
100
AcDbEntity
  8
0
100
AcDbLine
 10
-64.35019262510514
 20
-95.07179497562667
 30
0.0
 11
-64.35019262510514
 21
-89.29829228373044
 31
0.0
  0
LINE
  5
199C
330
1905
100
AcDbEntity
  8
0
100
AcDbLine
 10
-64.35019262510514
 20
-89.29829228373044
 30
0.0
 11
-65.41085279688497
 21
-88.68591984803465
 31
0.0
  0
ELLIPSE
  5
199D
330
1905
100
AcDbEntity
  8
0
100
AcDbEllipse
 10
40.30377917354306
 20
95.74150919922281
 30
0.0
 11
1.250000000000129
 21
2.165063509461021
 31
0.0
210
0.0
220
0.0
230
1.0
 40
0.5773502691896257
 41
0.0
 42
6.283185307179586
  0
ELLIPSE
  5
199E
330
1905
100
AcDbEntity
  8
0
100
AcDbEllipse
 10
40.30377917354306
 20
79.41157758066828
 30
0.0
 11
1.250000000000129
 21
2.165063509461021
 31
0.0
210
0.0
220
0.0
230
1.0
 40
0.5773502691896257
 41
0.0
 42
6.283185307179586
  0
ELLIPSE
  5
199F
330
1905
100
AcDbEntity
  8
0
100
AcDbEllipse
 10
40.30377917354305
 20
63.08164596211376
 30
0.0
 11
1.250000000000129
 21
2.165063509461021
 31
0.0
210
0.0
220
0.0
230
1.0
 40
0.5773502691896257
 41
0.0
 42
6.283185307179586
  0
ELLIPSE
  5
19A0
330
1905
100
AcDbEntity
  8
0
100
AcDbEllipse
 10
40.30377917354305
 20
46.75171434355923
 30
0.0
 11
1.250000000000129
 21
2.165063509461021
 31
0.0
210
0.0
220
0.0
230
1.0
 40
0.5773502691896257
 41
0.0
 42
6.283185307179586
  0
ELLIPSE
  5
19A1
330
1905
100
AcDbEntity
  8
0
100
AcDbEllipse
 10
40.30377917354305
 20
30.42178272500471
 30
0.0
 11
1.250000000000129
 21
2.165063509461021
 31
0.0
210
0.0
220
0.0
230
1.0
 40
0.5773502691896257
 41
0.0
 42
6.283185307179586
  0
ELLIPSE
  5
19A2
330
1905
100
AcDbEntity
  8
0
100
AcDbEllipse
 10
40.30377917354305
 20
14.09185110645019
 30
0.0
 11
1.250000000000129
 21
2.165063509461021
 31
0.0
210
0.0
220
0.0
230
1.0
 40
0.5773502691896257
 41
0.0
 42
6.283185307179586
  0
ELLIPSE
  5
19A3
330
1905
100
AcDbEntity
  8
0
100
AcDbEllipse
 10
40.30377917354304
 20
-2.238080512104314
 30
0.0
 11
1.250000000000129
 21
2.165063509461021
 31
0.0
210
0.0
220
0.0
230
1.0
 40
0.5773502691896257
 41
0.0
 42
6.283185307179586
  0
ELLIPSE
  5
19A4
330
1905
100
AcDbEntity
  8
0
100
AcDbEllipse
 10
39.24311900176324
 20
96.3538816349186
 30
0.0
 11
1.249999999999865
 21
2.165063509461173
 31
0.0
210
0.0
220
0.0
230
1.0
 40
0.577350269189622
 41
3.579741684173544
 42
5.845036276594999
  0
ELLIPSE
  5
19A5
330
1905
100
AcDbEntity
  8
0
100
AcDbEllipse
 10
39.24311900176324
 20
80.02395001636408
 30
0.0
 11
1.249999999999865
 21
2.165063509461173
 31
0.0
210
0.0
220
0.0
230
1.0
 40
0.577350269189622
 41
3.579741684173542
 42
5.845036276595003
  0
ELLIPSE
  5
19A6
330
1905
100
AcDbEntity
  8
0
100
AcDbEllipse
 10
39.24311900176324
 20
63.69401839780955
 30
0.0
 11
1.249999999999865
 21
2.165063509461173
 31
0.0
210
0.0
220
0.0
230
1.0
 40
0.577350269189622
 41
3.579741684173542
 42
5.845036276594999
  0
ELLIPSE
  5
19A7
330
1905
100
AcDbEntity
  8
0
100
AcDbEllipse
 10
39.24311900176323
 20
47.36408677925502
 30
0.0
 11
1.249999999999865
 21
2.165063509461173
 31
0.0
210
0.0
220
0.0
230
1.0
 40
0.577350269189622
 41
3.579741684173542
 42
5.845036276594997
  0
ELLIPSE
  5
19A8
330
1905
100
AcDbEntity
  8
0
100
AcDbEllipse
 10
39.24311900176323
 20
31.0341551607005
 30
0.0
 11
1.249999999999864
 21
2.165063509461174
 31
0.0
210
0.0
220
0.0
230
1.0
 40
0.5773502691896219
 41
3.579741684173548
 42
5.84503627659499
  0
ELLIPSE
  5
19A9
330
1905
100
AcDbEntity
  8
0
100
AcDbEllipse
 10
39.24311900176322
 20
14.70422354214598
 30
0.0
 11
1.249999999999864
 21
2.165063509461174
 31
0.0
210
0.0
220
0.0
230
1.0
 40
0.5773502691896219
 41
3.579741684173548
 42
5.845036276594989
  0
ELLIPSE
  5
19AA
330
1905
100
AcDbEntity
  8
0
100
AcDbEllipse
 10
39.24311900176322
 20
-1.625708076408525
 30
0.0
 11
1.249999999999864
 21
2.165063509461174
 31
0.0
210
0.0
220
0.0
230
1.0
 40
0.5773502691896219
 41
3.579741684173548
 42
5.845036276594989
  0
ELLIPSE
  5
19AB
330
1905
100
AcDbEntity
  8
0
100
AcDbEllipse
 10
40.30377917354304
 20
-18.56801213065884
 30
0.0
 11
1.250000000000129
 21
2.165063509461021
 31
0.0
210
0.0
220
0.0
230
1.0
 40
0.5773502691896257
 41
0.0
 42
6.283185307179586
  0
ELLIPSE
  5
19AC
330
1905
100
AcDbEntity
  8
0
100
AcDbEllipse
 10
39.24311900176322
 20
-17.95563969496305
 30
0.0
 11
1.249999999999864
 21
2.165063509461174
 31
0.0
210
0.0
220
0.0
230
1.0
 40
0.5773502691896219
 41
3.579741684173548
 42
5.845036276594989
  0
LINE
  5
19AD
330
1905
100
AcDbEntity
  8
0
100
AcDbLine
 10
63.92114566517394
 20
-15.13872649076246
 30
0.0
 11
63.92114566517395
 21
115.8273250900447
 31
0.0
  0
ELLIPSE
  5
19AE
330
1905
100
AcDbEntity
  8
0
100
AcDbEllipse
 10
62.43622142468218
 20
116.6846465000189
 30
0.0
 11
0.6000000000000049
 21
0.0
 31
0.0
210
0.0
220
0.0
230
1.0
 40
0.5773502691896258
 41
5.497787143782192
 42
7.068583470577037
  0
LINE
  5
19AF
330
1905
100
AcDbEntity
  8
0
100
AcDbLine
 10
62.86048549339411
 20
116.9295954742972
 30
0.0
 11
62.86048549339411
 21
116.4396975257405
 31
0.0
  0
ELLIPSE
  5
19B0
330
1905
100
AcDbEntity
  8
0
100
AcDbEllipse
 10
62.43622142468218
 20
116.6846465000189
 30
0.0
 11
2.100000000000008
 21
0.0
 31
0.0
210
0.0
220
0.0
230
1.0
 40
0.5773502691896258
 41
5.497787143782161
 42
7.068583470577032
  0
ELLIPSE
  5
19B1
330
1905
100
AcDbEntity
  8
0
100
AcDbEllipse
 10
62.43622142468217
 20
-14.28140508078836
 30
0.0
 11
2.100000000000008
 21
0.0000000000000013
 31
0.0
210
0.0
220
0.0
230
1.0
 40
0.5773502691896258
 41
5.497787143782145
 42
6.283185307179582
  0
LINE
  5
19B2
330
1905
100
AcDbEntity
  8
0
100
AcDbLine
 10
-7.001664487836789
 20
157.2645265721268
 30
0.0
 11
-7.001664487836802
 21
26.29847499131962
 31
0.0
  0
ELLIPSE
  5
19B3
330
1905
100
AcDbEntity
  8
0
100
AcDbEllipse
 10
-7.425928556548715
 20
157.0195775978485
 30
0.0
 11
0.599999999999996
 21
-0.000000000000036
 31
0.0
210
0.0
220
0.0
230
1.0
 40
0.5773502691896257
 41
0.7853981633976988
 42
2.356194490192603
  0
LINE
  5
19B4
330
1905
100
AcDbEntity
  8
0
100
AcDbLine
 10
-7.850192625260641
 20
157.2645265721268
 30
0.0
 11
-7.850192625260654
 21
26.29847499131962
 31
0.0
  0
ELLIPSE
  5
19B5
330
1905
100
AcDbEntity
  8
0
100
AcDbEllipse
 10
-7.425928556548728
 20
26.05352601704131
 30
0.0
 11
0.599999999999996
 21
-0.000000000000036
 31
0.0
210
0.0
220
0.0
230
1.0
 40
0.5773502691896257
 41
0.785398163397689
 42
2.356194490192585
  0
ELLIPSE
  5
19B6
330
1905
100
AcDbEntity
  8
0
100
AcDbEllipse
 10
-7.425928556548715
 20
157.0195775978485
 30
0.0
 11
-2.099999999999999
 21
-0.0000000000001248
 31
0.0
210
0.0
220
0.0
230
1.0
 40
0.5773502691896259
 41
3.926990816987004
 42
5.4977871437819
  0
LINE
  5
19B7
330
1905
100
AcDbEntity
  8
0
100
AcDbLine
 10
64.53622142468219
 20
116.6846465000189
 30
0.0
 11
64.53622142468218
 21
-14.28140508078836
 31
0.0
  0
ELLIPSE
  5
19B8
330
1905
100
AcDbEntity
  8
0
100
AcDbEllipse
 10
-32.52821928867116
 20
133.7086002123619
 30
0.0
 11
1.24999999999987
 21
2.16506350946117
 31
0.0
210
0.0
220
0.0
230
1.0
 40
0.5773502691896258
 41
3.579741684173542
 42
5.845036276594988
  0
ELLIPSE
  5
19B9
330
1905
100
AcDbEntity
  8
0
100
AcDbEllipse
 10
-32.52821928867116
 20
117.3786685938074
 30
0.0
 11
1.24999999999987
 21
2.16506350946117
 31
0.0
210
0.0
220
0.0
230
1.0
 40
0.5773502691896258
 41
3.579741684173542
 42
5.845036276594988
  0
ELLIPSE
  5
19BA
330
1905
100
AcDbEntity
  8
0
100
AcDbEllipse
 10
-32.52821928867116
 20
101.0487369752529
 30
0.0
 11
1.24999999999987
 21
2.16506350946117
 31
0.0
210
0.0
220
0.0
230
1.0
 40
0.5773502691896258
 41
3.579741684173542
 42
5.845036276594988
  0
ELLIPSE
  5
19BB
330
1905
100
AcDbEntity
  8
0
100
AcDbEllipse
 10
-32.52821928867116
 20
84.71880535669839
 30
0.0
 11
1.24999999999987
 21
2.16506350946117
 31
0.0
210
0.0
220
0.0
230
1.0
 40
0.5773502691896258
 41
3.579741684173542
 42
5.845036276594988
  0
ELLIPSE
  5
19BC
330
1905
100
AcDbEntity
  8
0
100
AcDbEllipse
 10
-32.52821928867117
 20
68.38887373814386
 30
0.0
 11
1.24999999999987
 21
2.16506350946117
 31
0.0
210
0.0
220
0.0
230
1.0
 40
0.5773502691896259
 41
3.579741684173548
 42
5.84503627659499
  0
ELLIPSE
  5
19BD
330
1905
100
AcDbEntity
  8
0
100
AcDbEllipse
 10
-32.52821928867117
 20
52.05894211958934
 30
0.0
 11
1.24999999999987
 21
2.16506350946117
 31
0.0
210
0.0
220
0.0
230
1.0
 40
0.5773502691896259
 41
3.579741684173548
 42
5.84503627659499
  0
ELLIPSE
  5
19BE
330
1905
100
AcDbEntity
  8
0
100
AcDbEllipse
 10
-32.52821928867117
 20
35.72901050103483
 30
0.0
 11
1.24999999999987
 21
2.16506350946117
 31
0.0
210
0.0
220
0.0
230
1.0
 40
0.5773502691896259
 41
3.579741684173544
 42
5.845036276594989
  0
ELLIPSE
  5
19BF
330
1905
100
AcDbEntity
  8
0
100
AcDbEllipse
 10
-31.46755911689134
 20
133.0962277766661
 30
0.0
 11
1.250000000000129
 21
2.165063509461021
 31
0.0
210
0.0
220
0.0
230
1.0
 40
0.5773502691896257
 41
0.0
 42
6.283185307179586
  0
ELLIPSE
  5
19C0
330
1905
100
AcDbEntity
  8
0
100
AcDbEllipse
 10
-31.46755911689134
 20
116.7662961581116
 30
0.0
 11
1.250000000000129
 21
2.165063509461021
 31
0.0
210
0.0
220
0.0
230
1.0
 40
0.5773502691896257
 41
0.0
 42
6.283185307179586
  0
ELLIPSE
  5
19C1
330
1905
100
AcDbEntity
  8
0
100
AcDbEllipse
 10
-31.46755911689134
 20
100.4363645395571
 30
0.0
 11
1.250000000000129
 21
2.165063509461021
 31
0.0
210
0.0
220
0.0
230
1.0
 40
0.5773502691896257
 41
0.0
 42
6.283185307179586
  0
ELLIPSE
  5
19C2
330
1905
100
AcDbEntity
  8
0
100
AcDbEllipse
 10
-31.46755911689134
 20
84.1064329210026
 30
0.0
 11
1.250000000000129
 21
2.165063509461021
 31
0.0
210
0.0
220
0.0
230
1.0
 40
0.5773502691896257
 41
0.0
 42
6.283185307179586
  0
ELLIPSE
  5
19C3
330
1905
100
AcDbEntity
  8
0
100
AcDbEllipse
 10
-31.46755911689135
 20
67.77650130244807
 30
0.0
 11
1.250000000000129
 21
2.165063509461021
 31
0.0
210
0.0
220
0.0
230
1.0
 40
0.5773502691896257
 41
0.0
 42
6.283185307179586
  0
ELLIPSE
  5
19C4
330
1905
100
AcDbEntity
  8
0
100
AcDbEllipse
 10
-31.46755911689135
 20
51.44656968389355
 30
0.0
 11
1.250000000000129
 21
2.165063509461021
 31
0.0
210
0.0
220
0.0
230
1.0
 40
0.5773502691896257
 41
0.0
 42
6.283185307179586
  0
ELLIPSE
  5
19C5
330
1905
100
AcDbEntity
  8
0
100
AcDbEllipse
 10
-31.46755911689135
 20
35.11663806533904
 30
0.0
 11
1.250000000000129
 21
2.165063509461021
 31
0.0
210
0.0
220
0.0
230
1.0
 40
0.5773502691896257
 41
0.0
 42
6.283185307179586
  0
ELLIPSE
  5
19C6
330
1905
100
AcDbEntity
  8
0
100
AcDbEllipse
 10
-32.52821928867117
 20
19.3990788824803
 30
0.0
 11
1.24999999999987
 21
2.16506350946117
 31
0.0
210
0.0
220
0.0
230
1.0
 40
0.5773502691896259
 41
3.579741684173548
 42
5.845036276594989
  0
ELLIPSE
  5
19C7
330
1905
100
AcDbEntity
  8
0
100
AcDbEllipse
 10
-31.46755911689135
 20
18.7867064467845
 30
0.0
 11
1.250000000000129
 21
2.165063509461021
 31
0.0
210
0.0
220
0.0
230
1.0
 40
0.5773502691896257
 41
0.0
 42
6.283185307179586
  0
LINE
  5
19C8
330
1905
100
AcDbEntity
  8
0
100
AcDbLine
 10
20.9211456647403
 20
-107.3528078653292
 30
0.0
 11
7.421145665329413
 21
-130.7354937658125
 31
0.0
  0
LINE
  5
19C9
330
1905
100
AcDbEntity
  8
0
100
AcDbLine
 10
19.86048549296019
 20
-106.7404354296332
 30
0.0
 11
6.36048549354959
 21
-130.1231213301167
 31
0.0
  0
LINE
  5
19CA
330
1905
100
AcDbEntity
  8
0
100
AcDbLine
 10
25.62114566517391
 20
-147.0167713568702
 30
0.0
 11
62.32114566438603
 21
-83.45050672045706
 31
0.0
  0
LINE
  5
19CB
330
1905
100
AcDbEntity
  8
0
100
AcDbLine
 10
61.01195735517904
 20
-82.98162207180977
 30
0.0
 11
61.99976670457228
 21
-81.27068609046915
 31
0.0
  0
LINE
  5
19CC
330
1905
100
AcDbEntity
  8
0
100
AcDbLine
 10
25.95487477262969
 20
-147.2094499468957
 30
0.0
 11
25.62114566517418
 21
-147.0167713568698
 31
0.0
  0
LINE
  5
19CD
330
1905
100
AcDbEntity
  8
0
100
AcDbLine
 10
62.99323474169196
 20
-83.05712865145466
 30
0.0
 11
25.9548747726297
 21
-147.2094499468957
 31
0.0
  0
LINE
  5
19CE
330
1905
100
AcDbEntity
  8
0
100
AcDbLine
 10
20.9211456647403
 20
-107.3528078653292
 30
0.0
 11
19.86048549296019
 21
-106.7404354296332
 31
0.0
  0
LINE
  5
19CF
330
1905
100
AcDbEntity
  8
0
100
AcDbLine
 10
62.32114566438603
 20
-83.45050672045706
 30
0.0
 11
20.9211456647403
 21
-107.3528078653292
 31
0.0
  0
LINE
  5
19D0
330
1905
100
AcDbEntity
  8
0
100
AcDbLine
 10
-51.91085279747721
 20
-65.30323394754947
 30
0.0
 11
-10.51085279782841
 21
-41.40093280267919
 31
0.0
  0
ELLIPSE
  5
19D1
330
1905
100
AcDbEntity
  8
0
100
AcDbEllipse
 10
-4.758351280489536
 20
-40.295094036336
 30
0.0
 11
-0.7499999999999999
 21
-1.299038105676658
 31
0.0
210
0.0
220
0.0
230
1.0
 40
0.8164965809277259
 41
0.0
 42
1.134458255166986
  0
LINE
  5
19D2
330
1905
100
AcDbEntity
  8
0
100
AcDbLine
 10
-5.508351280489525
 20
-41.59413214201265
 30
0.0
 11
-7.129856970699139
 21
-40.65795539527758
 31
0.0
  0
LINE
  5
19D3
330
1905
100
AcDbEntity
  8
0
100
AcDbLine
 10
-7.129856970699139
 20
-40.65795539527758
 30
0.0
 11
-7.862383276658611
 21
-40.93575499263948
 31
0.0
  0
LINE
  5
19D4
330
1905
100
AcDbEntity
  8
0
100
AcDbLine
 10
61.99976670457228
 20
-81.27068609046915
 30
0.0
 11
61.87408506006905
 21
-80.4973999018869
 31
0.0
  0
LINE
  5
19D5
330
1905
100
AcDbEntity
  8
0
100
AcDbLine
 10
61.87408506006905
 20
-80.4973999018869
 30
0.0
 11
60.25257936985939
 21
-79.56122315515189
 31
0.0
  0
ELLIPSE
  5
19D6
330
1905
100
AcDbEntity
  8
0
100
AcDbEllipse
 10
61.00257936985937
 20
-78.26218504947525
 30
0.0
 11
-0.7499999999999999
 21
-1.299038105676658
 31
0.0
210
0.0
220
0.0
230
1.0
 40
0.8164965809277259
 41
5.14872705201259
 42
6.283185307179585
  0
SPLINE
  5
19D7
330
1905
100
AcDbEntity
  8
0
100
AcDbSpline
210
0.0
220
0.0
230
1.0
 70
     8
 71
     3
 72
     8
 73
     4
 74
     0
 42
0.000000001
 43
0.0000000001
 40
0.1302463606542655
 40
0.1302463606542655
 40
0.1302463606542655
 40
0.1302463606542655
 40
1.0
 40
1.0
 40
1.0
 40
1.0
 10
60.80416223562366
 20
-77.35295842364187
 30
0.0
 10
60.75133629983533
 20
-77.76237965107869
 30
0.0
 10
60.61972652571968
 20
-78.26029148624503
 30
0.0
 10
60.47432976750413
 20
-78.68920534061543
 30
0.0
  0
SPLINE
  5
19D8
330
1905
100
AcDbEntity
  8
0
100
AcDbSpline
210
0.0
220
0.0
230
1.0
 70
     8
 71
     3
 72
     8
 73
     4
 74
     0
 42
0.000000001
 43
0.0000000001
 40
-1.0
 40
-1.0
 40
-1.0
 40
-1.0
 40
0.0
 40
0.0
 40
0.0
 40
0.0
 10
59.72432976750411
 20
-78.2561926387232
 30
0.0
 10
59.70912112994591
 20
-78.07893771399875
 30
0.0
 10
59.72978430578201
 20
-77.89933971461636
 30
0.0
 10
59.761715720762
 20
-77.78787948034391
 30
0.0
  0
SPLINE
  5
19D9
330
1905
100
AcDbEntity
  8
0
100
AcDbSpline
210
0.0
220
0.0
230
1.0
 70
     8
 71
     3
 72
     8
 73
     4
 74
     0
 42
0.000000001
 43
0.0000000001
 40
-1.0
 40
-1.0
 40
-1.0
 40
-1.0
 40
0.0
 40
0.0
 40
0.0
 40
0.0
 10
-3.902894715204769
 20
-41.03109950728586
 30
0.0
 10
-3.870963300222829
 20
-41.179430963628
 30
0.0
 10
-3.952925312833306
 20
-41.3236380630977
 30
0.0
 10
-4.114036899370705
 20
-41.399094458977
 30
0.0
  0
LINE
  5
19DA
330
1905
100
AcDbEntity
  8
0
100
AcDbLine
 10
-50.85019262569712
 20
-65.91560638324543
 30
0.0
 11
-51.91085279747721
 21
-65.30323394754947
 31
0.0
  0
LINE
  5
19DB
330
1905
100
AcDbEntity
  8
0
100
AcDbLine
 10
-9.450192626048604
 20
-42.01330523837497
 30
0.0
 11
-50.85019262569712
 21
-65.91560638324543
 31
0.0
  0
LINE
  5
19DC
330
1905
100
AcDbEntity
  8
0
100
AcDbLine
 10
-9.450192626048604
 20
-42.01330523837497
 30
0.0
 11
-9.803392463250567
 21
-41.80938521728863
 31
0.0
  0
LINE
  5
19DD
330
1905
100
AcDbEntity
  8
0
100
AcDbLine
 10
-9.803392463250567
 20
-41.80938521728863
 30
0.0
 11
-10.5108527978284
 21
-41.40093280267919
 31
0.0
  0
SPLINE
  5
19DE
330
1905
100
AcDbEntity
  8
0
100
AcDbSpline
210
0.0
220
0.0
230
1.0
 70
     8
 71
     3
 72
     8
 73
     4
 74
     0
 42
0.000000001
 43
0.0000000001
 40
-1.0
 40
-1.0
 40
-1.0
 40
-1.0
 40
0.0
 40
0.0
 40
0.0
 40
0.0
 10
-7.862383276658615
 20
-40.93575499263947
 30
0.0
 10
-8.372375850459206
 20
-41.30606810988014
 30
0.0
 10
-9.005264566476661
 20
-41.60542710633019
 30
0.0
 10
-9.450192626048581
 20
-42.01330523837492
 30
0.0
  0
SPLINE
  5
19DF
330
1905
100
AcDbEntity
  8
0
100
AcDbSpline
210
0.0
220
0.0
230
1.0
 70
     8
 71
     3
 72
     8
 73
     4
 74
     0
 42
0.000000001
 43
0.0000000001
 40
0.0
 40
0.0
 40
0.0
 40
0.0
 40
0.6081734479693822
 40
0.6081734479693822
 40
0.6081734479693822
 40
0.6081734479693822
 10
-10.51085279782838
 20
-41.40093280267914
 30
0.0
 10
-10.00143021120908
 20
-41.29076022942107
 30
0.0
 10
-9.248680844900359
 20
-41.32107243791726
 30
0.0
 10
-8.49734798169762
 20
-41.35056682796389
 30
0.0
  0
ELLIPSE
  5
19E0
330
1905
100
AcDbEntity
  8
0
100
AcDbEllipse
 10
-4.951054822395821
 20
-40.61341981570752
 30
0.0
 11
0.7499999999999224
 21
-1.299038105676702
 31
0.0
210
0.0
220
0.0
230
0.9999999999999998
 40
0.577350269189626
 41
0.9390757175653252
 42
2.356194490192587
  0
LINE
  5
19E1
330
1905
100
AcDbEntity
  8
0
100
AcDbLine
 10
62.32114566438603
 20
-83.45050672045706
 30
0.0
 11
61.61368532980846
 21
-83.04205430584772
 31
0.0
  0
LINE
  5
19E2
330
1905
100
AcDbEntity
  8
0
100
AcDbLine
 10
61.61368532980846
 20
-83.04205430584772
 30
0.0
 11
61.26048549260618
 21
-82.83813428476126
 31
0.0
  0
LINE
  5
19E3
330
1905
100
AcDbEntity
  8
0
100
AcDbLine
 10
19.86048549296019
 20
-106.7404354296332
 30
0.0
 11
61.26048549260618
 21
-82.83813428476126
 31
0.0
  0
LINE
  5
19E4
330
1905
100
AcDbEntity
  8
0
100
AcDbLine
 10
61.99976670457228
 20
-81.27068609046915
 30
0.0
 11
62.24951670457244
 21
-81.41487932019934
 31
0.0
  0
SPLINE
  5
19E5
330
1905
100
AcDbEntity
  8
0
100
AcDbSpline
210
0.0
220
0.0
230
1.0
 70
     8
 71
     3
 72
     8
 73
     4
 74
     0
 42
0.000000001
 43
0.0000000001
 40
-1.0
 40
-1.0
 40
-1.0
 40
-1.0
 40
0.0
 40
0.0
 40
0.0
 40
0.0
 10
61.26048549260618
 20
-82.83813428476126
 30
0.0
 10
61.70541355217821
 20
-82.43025615271632
 30
0.0
 10
61.93406242458744
 20
-81.89750917374238
 30
0.0
 10
61.99976670457228
 20
-81.27068609046913
 30
0.0
  0
SPLINE
  5
19E6
330
1905
100
AcDbEntity
  8
0
100
AcDbSpline
210
0.0
220
0.0
230
1.0
 70
     8
 71
     3
 72
     8
 73
     4
 74
     0
 42
0.000000001
 43
0.0000000001
 40
0.0
 40
0.0
 40
0.0
 40
0.0
 40
1.0
 40
1.0
 40
1.0
 40
1.0
 10
62.74976670457228
 20
-81.70369879236133
 30
0.0
 10
63.23942279185724
 20
-82.65115933317506
 30
0.0
 10
63.15877280565675
 20
-83.26935350894139
 30
0.0
 10
62.32114566438603
 20
-83.45050672045706
 30
0.0
  0
LINE
  5
19E7
330
1905
100
AcDbEntity
  8
0
100
AcDbLine
 10
62.24951670457244
 20
-81.41487932019934
 30
0.0
 11
62.74976670457228
 21
-81.70369879236137
 31
0.0
  0
ELLIPSE
  5
19E8
330
1905
100
AcDbEntity
  8
0
100
AcDbEllipse
 10
61.75257936985936
 20
-78.69519775136746
 30
0.0
 11
-0.7499999999999996
 21
-1.299038105676658
 31
0.0
210
0.0
220
0.0
230
1.0
 40
0.816496580927726
 41
5.14872705201259
 42
6.283185307179585
  0
LINE
  5
19E9
330
1905
100
AcDbEntity
  8
0
100
AcDbLine
 10
60.47432976750407
 20
-78.6892053406154
 30
0.0
 11
59.97407976840325
 21
-78.40038586897243
 31
0.0
  0
LINE
  5
19EA
330
1905
100
AcDbEntity
  8
0
100
AcDbLine
 10
59.97407976840325
 20
-78.40038586897243
 30
0.0
 11
59.72432976750408
 21
-78.25619263872318
 31
0.0
  0
LINE
  5
19EB
330
1905
100
AcDbEntity
  8
0
100
AcDbLine
 10
61.87408506006905
 20
-80.4973999018869
 30
0.0
 11
62.62408506006905
 21
-80.93041260377914
 31
0.0
  0
LINE
  5
19EC
330
1905
100
AcDbEntity
  8
0
100
AcDbLine
 10
62.62408506006905
 20
-80.93041260377914
 30
0.0
 11
62.74976670457228
 21
-81.70369879236137
 31
0.0
  0
LINE
  5
19ED
330
1905
100
AcDbEntity
  8
0
100
AcDbLine
 10
59.76171572076203
 20
-77.78787948034391
 30
0.0
 11
60.11491556116438
 21
-77.58395945740987
 31
0.0
  0
LINE
  5
19EE
330
1905
100
AcDbEntity
  8
0
100
AcDbLine
 10
60.11491556116438
 20
-77.58395945740987
 30
0.0
 11
60.64751699790924
 21
-77.27646187453446
 31
0.0
  0
ELLIPSE
  5
19EF
330
1905
100
AcDbEntity
  8
0
100
AcDbEllipse
 10
60.80987582795309
 20
-78.58051082884677
 30
0.0
 11
-0.75
 21
1.299038105676658
 31
0.0
210
0.0
220
0.0
230
0.9999999999999998
 40
0.5773502691896259
 41
5.497787143782137
 42
6.914905916409349
  0
LINE
  5
19F0
330
1905
100
AcDbEntity
  8
0
100
AcDbLine
 10
25.62114566517391
 20
-147.0167713568702
 30
0.0
 11
7.421145665329396
 21
-136.5089964577087
 31
0.0
  0
LINE
  5
19F1
330
1905
100
AcDbEntity
  8
0
100
AcDbLine
 10
-64.35019262510514
 20
-95.07179497562667
 30
0.0
 11
-46.15019262526067
 21
-105.579569874788
 31
0.0
  0
LINE
  5
19F2
330
1905
100
AcDbEntity
  8
0
100
AcDbLine
 10
13.72078856227249
 20
-51.69603574020669
 30
0.0
 11
6.534165246533532
 21
-47.54683683430037
 31
0.0
  0
LINE
  5
19F3
330
1905
100
AcDbEntity
  8
0
100
AcDbLine
 10
3.114186844474295
 20
-45.57231138324875
 30
0.0
 11
-4.114036899370705
 21
-41.399094458977
 31
0.0
  0
LINE
  5
19F4
330
1905
100
AcDbEntity
  8
0
100
AcDbLine
 10
-45.42592855654873
 20
-105.9977239298232
 30
0.0
 11
6.360485493549603
 21
-135.8966240220129
 31
0.0
  0
LINE
  5
19F5
330
1905
100
AcDbEntity
  8
0
100
AcDbLine
 10
59.72432976750408
 20
-78.25619263872318
 30
0.0
 11
52.49610602365912
 21
-74.08297571445145
 31
0.0
  0
LINE
  5
19F6
330
1905
100
AcDbEntity
  8
0
100
AcDbLine
 10
49.07612762159986
 20
-72.10845026339985
 30
0.0
 11
41.8895043058609
 21
-67.95925135749351
 31
0.0
  0
LINE
  5
19F7
330
1905
100
AcDbEntity
  8
0
100
AcDbLine
 10
34.93399199786892
 20
-63.94348445412258
 30
0.0
 11
20.67630087026448
 21
-55.71180264357761
 31
0.0
  0
LINE
  5
19F8
330
1905
100
AcDbEntity
  8
0
100
AcDbLine
 10
42.06407449260385
 20
-67.57014155324539
 30
0.0
 11
49.1500855722808
 21
-71.66125195757754
 31
0.0
  0
LINE
  5
19F9
330
1905
100
AcDbEntity
  8
0
100
AcDbLine
 10
6.708735433276489
 20
-47.15772703005224
 30
0.0
 11
13.79474651295342
 21
-51.24883743438438
 31
0.0
  0
LINE
  5
19FA
330
1905
100
AcDbEntity
  8
0
100
AcDbLine
 10
20.85087105700744
 20
-55.32269283932949
 30
0.0
 11
35.00794994854985
 21
-63.49628614830027
 31
0.0
  0
LINE
  5
19FB
330
1905
100
AcDbEntity
  8
0
100
AcDbLine
 10
52.67067621040208
 20
-73.69386591020333
 30
0.0
 11
59.76171572076203
 21
-77.78787948034391
 31
0.0
  0
LINE
  5
19FC
330
1905
100
AcDbEntity
  8
0
100
AcDbLine
 10
-3.902894715204747
 20
-41.03109950728586
 30
0.0
 11
3.188144795155207
 21
-45.12511307742644
 31
0.0
  0
ELLIPSE
  5
19FD
330
1905
100
AcDbEntity
  8
0
100
AcDbEllipse
 10
15.17114566544309
 20
-126.5497043142534
 30
0.0
 11
1.250000000000129
 21
2.165063509461021
 31
0.0
210
0.0
220
0.0
230
1.0
 40
0.5773502691896255
 41
0.0
 42
6.283185307179586
  0
ELLIPSE
  5
19FE
330
1905
100
AcDbEntity
  8
0
100
AcDbEllipse
 10
28.92114566564781
 20
-108.5075084021957
 30
0.0
 11
-0.4000000000000425
 21
-0.6928203230275284
 31
0.0
210
0.0
220
0.0
230
1.0
 40
0.5773502691896255
 41
2.094395102375157
 42
2.276828566511568
  0
LINE
  5
19FF
330
1905
100
AcDbEntity
  8
0
100
AcDbLine
 10
29.46755582715892
 20
-108.361098240695
 30
0.0
 11
28.67508758183566
 21
-112.233693504901
 31
0.0
  0
ELLIPSE
  5
1A00
330
1905
100
AcDbEntity
  8
0
100
AcDbEllipse
 10
28.12867742032454
 20
-112.3801036664018
 30
0.0
 11
-0.4000000000000414
 21
-0.6928203230275268
 31
0.0
210
0.0
220
0.0
230
1.0
 40
0.5773502691896257
 41
0.0
 42
2.094395102375107
  0
LINE
  5
1A01
330
1905
100
AcDbEntity
  8
0
100
AcDbLine
 10
27.72867742031728
 20
-113.0729239894251
 30
0.0
 11
25.56361391089556
 21
-111.8229239893569
 31
0.0
  0
ELLIPSE
  5
1A02
330
1905
100
AcDbEntity
  8
0
100
AcDbEllipse
 10
25.96361391090284
 20
-111.1301036663336
 30
0.0
 11
-0.4000000000072806
 21
-0.6928203230233492
 31
0.0
210
0.0
220
0.0
230
1.0
 40
0.5773502691896254
 41
4.188790204822794
 42
6.283185307252373
  0
LINE
  5
1A03
330
1905
100
AcDbEntity
  8
0
100
AcDbLine
 10
25.81720374939901
 20
-110.583693504811
 30
0.0
 11
28.77473550414398
 21
-107.9610982406731
 31
0.0
  0
ELLIPSE
  5
1A04
330
1905
100
AcDbEntity
  8
0
100
AcDbEllipse
 10
28.92114566564781
 20
-108.5075084021957
 30
0.0
 11
0.4000000000000011
 21
0.6928203230275521
 31
0.0
210
0.0
220
0.0
230
1.0
 40
0.5773502691896258
 41
0.0802385882704746
 42
1.047197551178412
  0
LINE
  5
1A05
330
1905
100
AcDbEntity
  8
0
100
AcDbLine
 10
29.28779770338204
 20
-107.7984067206195
 30
0.0
 11
29.48505041353217
 21
-108.233725040997
 31
0.0
  0
ELLIPSE
  5
1A06
330
1905
100
AcDbEntity
  8
0
100
AcDbEllipse
 10
27.06801724854475
 20
-111.767731230706
 30
0.0
 11
-0.4000000000072799
 21
-0.6928203230233481
 31
0.0
210
0.0
220
0.0
230
1.0
 40
0.5773502691896257
 41
0.000000000072787
 42
2.094395102429601
  0
LINE
  5
1A07
330
1905
100
AcDbEntity
  8
0
100
AcDbLine
 10
27.61442741005585
 20
-111.6213210692052
 30
0.0
 11
28.67508758183566
 21
-112.233693504901
 31
0.0
  0
LINE
  5
1A08
330
1905
100
AcDbEntity
  8
0
100
AcDbLine
 10
27.61442741005585
 20
-111.6213210692052
 30
0.0
 11
28.27225692620649
 21
-108.4066717959579
 31
0.0
  0
LINE
  5
1A09
330
1905
100
AcDbEntity
  8
0
100
AcDbLine
 10
28.77473550413136
 20
-107.9610982406949
 30
0.0
 11
29.46755582715892
 21
-108.361098240695
 31
0.0
  0
LINE
  5
1A0A
330
1905
100
AcDbEntity
  8
0
100
AcDbLine
 10
28.87629663763718
 20
-107.8822608846139
 30
0.0
 11
29.48505041353217
 21
-108.233725040997
 31
0.0
  0
ELLIPSE
  5
1A0B
330
1905
100
AcDbEntity
  8
0
100
AcDbEllipse
 10
14.11048549366329
 20
-125.9373318785576
 30
0.0
 11
1.24999999999987
 21
2.165063509461171
 31
0.0
210
0.0
220
0.0
230
1.0
 40
0.5773502691896255
 41
3.579741684173535
 42
5.845036276595007
  0
LINE
  5
1A0C
330
1905
100
AcDbEntity
  8
0
100
AcDbLine
 10
-51.91085279747721
 20
-65.30323394754947
 30
0.0
 11
-65.41085279688497
 21
-88.68591984803465
 31
0.0
  0
LINE
  5
1A0D
330
1905
100
AcDbEntity
  8
0
100
AcDbLine
 10
-50.85019262569712
 20
-65.91560638324543
 30
0.0
 11
-64.35019262510514
 21
-89.29829228373044
 31
0.0
  0
ELLIPSE
  5
1A0E
330
1905
100
AcDbEntity
  8
0
100
AcDbEllipse
 10
-60.16085279681674
 20
-88.83025741537142
 30
0.0
 11
1.24999999999987
 21
2.165063509461171
 31
0.0
210
0.0
220
0.0
230
1.0
 40
0.5773502691896255
 41
3.579741684173528
 42
5.845036276595005
  0
ELLIPSE
  5
1A0F
330
1905
100
AcDbEntity
  8
0
100
AcDbEllipse
 10
-47.20332104193527
 20
-74.66065676751988
 30
0.0
 11
-0.4000000000072799
 21
-0.6928203230233481
 31
0.0
210
0.0
220
0.0
230
1.0
 40
0.5773502691896257
 41
0.0000000000727784
 42
2.094395102429573
  0
LINE
  5
1A10
330
1905
100
AcDbEntity
  8
0
100
AcDbLine
 10
-46.65691088042418
 20
-74.51424660601912
 30
0.0
 11
-45.99908136427353
 21
-71.29959733277186
 31
0.0
  0
LINE
  5
1A11
330
1905
100
AcDbEntity
  8
0
100
AcDbLine
 10
-45.59625070864438
 20
-75.12661904171491
 30
0.0
 11
-46.65691088042418
 21
-74.51424660601912
 31
0.0
  0
LINE
  5
1A12
330
1905
100
AcDbEntity
  8
0
100
AcDbLine
 10
-44.80378246332112
 20
-71.25402377750885
 30
0.0
 11
-45.59625070864438
 21
-75.12661904171491
 31
0.0
  0
LINE
  5
1A13
330
1905
100
AcDbEntity
  8
0
100
AcDbLine
 10
-44.80378246332112
 20
-71.25402377750885
 30
0.0
 11
-45.49660278635593
 21
-70.85402377750465
 31
0.0
  0
ELLIPSE
  5
1A14
330
1905
100
AcDbEntity
  8
0
100
AcDbEllipse
 10
-45.35019262483223
 20
-71.40043393900959
 30
0.0
 11
0.4000000000000004
 21
0.6928203230275523
 31
0.0
210
0.0
220
0.0
230
0.9999999999999998
 40
0.5773502691896257
 41
5.235987755964798
 42
7.330382858358005
  0
LINE
  5
1A15
330
1905
100
AcDbEntity
  8
0
100
AcDbLine
 10
-48.45413454108103
 20
-73.47661904162483
 30
0.0
 11
-45.49660278633606
 21
-70.854023777487
 31
0.0
  0
ELLIPSE
  5
1A16
330
1905
100
AcDbEntity
  8
0
100
AcDbEllipse
 10
-48.30772437957719
 20
-74.02302920314742
 30
0.0
 11
-0.4000000000072796
 21
-0.6928203230233496
 31
0.0
210
0.0
220
0.0
230
1.0
 40
0.5773502691896257
 41
4.18879020482279
 42
6.283185307252368
  0
LINE
  5
1A17
330
1905
100
AcDbEntity
  8
0
100
AcDbLine
 10
-46.54266087016276
 20
-75.96584952623901
 30
0.0
 11
-48.70772437958446
 21
-74.71584952617077
 31
0.0
  0
ELLIPSE
  5
1A18
330
1905
100
AcDbEntity
  8
0
100
AcDbEllipse
 10
-46.1426608701555
 20
-75.27302920321566
 30
0.0
 11
-0.4000000000000412
 21
-0.6928203230275268
 31
0.0
210
0.0
220
0.0
230
1.0
 40
0.5773502691896259
 41
0.0
 42
2.094395102375109
  0
ELLIPSE
  5
1A19
330
1905
100
AcDbEntity
  8
0
100
AcDbEllipse
 10
-59.10019262503695
 20
-89.44262985106721
 30
0.0
 11
1.250000000000128
 21
2.165063509461021
 31
0.0
210
0.0
220
0.0
230
1.0
 40
0.5773502691896258
 41
0.0
 42
6.283185307179586
  0
LINE
  5
1A1A
330
1905
100
AcDbEntity
  8
0
100
AcDbLine
 10
-7.862383276658611
 20
-40.93575499263948
 30
0.0
 11
-45.42592855654873
 21
-105.9977239298232
 31
0.0
  0
LINE
  5
1A1B
330
1905
100
AcDbEntity
  8
0
100
AcDbLine
 10
-46.15019262526067
 20
-105.579569874788
 30
0.0
 11
-45.42592855654874
 21
-105.9977239298233
 31
0.0
  0
LINE
  5
1A1C
330
1905
100
AcDbEntity
  8
0
100
AcDbLine
 10
-46.15019262526067
 20
-105.579569874788
 30
0.0
 11
-9.450192626048599
 21
-42.01330523837497
 31
0.0
  0
ENDBLK
  5
1907
330
1905
100
AcDbEntity
  8
0
100
AcDbBlockEnd
  0
ENDSEC
  0
SECTION
  2
ENTITIES
  0
INSERT
  5
1A1D
330
1F
100
AcDbEntity
  8
0
100
AcDbBlockReference
  2
SPR100_240-Front
 10
0.0
 20
0.0
 30
0.0
  0
INSERT
  5
1A1E
330
1F
100
AcDbEntity
  8
0
100
AcDbBlockReference
  2
SPR100_240-Left
 10
181.4229986469887
 20
0.0
 30
0.0
  0
INSERT
  5
1A1F
330
1F
100
AcDbEntity
  8
0
100
AcDbBlockReference
  2
SPR100_240-Right
 10
-181.4229986469887
 20
0.0
 30
0.0
  0
INSERT
  5
1A20
330
1F
100
AcDbEntity
  8
0
100
AcDbBlockReference
  2
SPR100_240-Top
 10
0.0
 20
-144.545601705951
 30
0.0
  0
INSERT
  5
1A21
330
1F
100
AcDbEntity
  8
0
100
AcDbBlockReference
  2
SPR100_240-Bottom
 10
0.0
 20
329.5659080859887
 30
0.0
  0
INSERT
  5
1A22
330
1F
100
AcDbEntity
  8
0
100
AcDbBlockReference
  2
SPR100_240-ISO
 10
246.8338514438737
 20
-302.7776148690977
 30
0.0
  0
MTEXT
  5
1A23
330
1F
100
AcDbEntity
  8
0
100
AcDbMText
 10
0.0
 20
-315.4445760657996
 30
0.0
 40
24.18973315293182
 41
0.0
 71
     5
 72
     5
  1
SPR100/240
 73
     1
 44
1.0
1001
ACAD
1000
MTEXTBEGIN
1070
    73
1070
     1
1070
    44
1040
1.0
1070
    74
1070
     0
1000
MTEXTEND
  0
ENDSEC
  0
SECTION
  2
OBJECTS
  0
DICTIONARY
  5
C
330
0
100
AcDbDictionary
281
     1
  3
ACAD_CIP_PREVIOUS_PRODUCT_INFO
350
216
  3
ACAD_COLOR
350
6B
  3
ACAD_DETAILVIEWSTYLE
350
21B
  3
ACAD_GROUP
350
D
  3
ACAD_LAYOUT
350
1A
  3
ACAD_MATERIAL
350
6A
  3
ACAD_MLEADERSTYLE
350
12D
  3
ACAD_MLINESTYLE
350
17
  3
ACAD_PLOTSETTINGS
350
19
  3
ACAD_PLOTSTYLENAME
350
E
  3
ACAD_SCALELIST
350
10C
  3
ACAD_SECTIONVIEWSTYLE
350
219
  3
ACAD_TABLESTYLE
350
7E
  3
ACAD_VISUALSTYLE
350
EF
  3
ACDB_RECOMPOSE_DATA
350
1B24
  3
AcDbVariableDictionary
350
5E
  3
DWGPROPS
350
1B25
  0
DICTIONARY
  5
1A74
330
8
100
AcDbDictionary
280
     1
281
     1
  0
DICTIONARY
  5
1FF
330
2
100
AcDbDictionary
280
     1
281
     1
  3
ACAD_LAYERSTATES
360
200
  0
DICTIONARY
  5
13C
330
10
100
AcDbDictionary
280
     1
281
     1
  0
DICTIONARY
  5
1CE
330
1F
100
AcDbDictionary
280
     1
281
     1
  3
ACAD_LAYOUTSELFREF
360
1A7C
  0
DICTIONARY
  5
1A27
330
D2
100
AcDbDictionary
280
     1
281
     1
  3
ACAD_LAYOUTSELFREF
360
1A85
  0
DICTIONARY
  5
1A29
330
D6
100
AcDbDictionary
280
     1
281
     1
  3
ACAD_LAYOUTSELFREF
360
1A88
  0
XRECORD
  5
216
102
{ACAD_REACTORS
330
C
102
}
330
C
100
AcDbXrecord
280
     1
300
ACD
300
2021
300
87393ACD_2021_0F
  0
DICTIONARY
  5
6B
102
{ACAD_REACTORS
330
C
102
}
330
C
100
AcDbDictionary
281
     1
  0
DICTIONARY
  5
21B
102
{ACAD_REACTORS
330
C
102
}
330
C
100
AcDbDictionary
281
     1
  3
Metric50
350
21C
  0
DICTIONARY
  5
D
102
{ACAD_REACTORS
330
C
102
}
330
C
100
AcDbDictionary
281
     1
  0
DICTIONARY
  5
1A
102
{ACAD_REACTORS
330
C
102
}
330
C
100
AcDbDictionary
281
     1
  3
Layout1
350
D3
  3
Layout2
350
D7
  3
Model
350
22
  0
DICTIONARY
  5
6A
102
{ACAD_REACTORS
330
C
102
}
330
C
100
AcDbDictionary
281
     1
  3
ByBlock
350
ED
  3
ByLayer
350
EC
  3
Global
350
EE
  0
DICTIONARY
  5
12D
102
{ACAD_REACTORS
330
C
102
}
330
C
100
AcDbDictionary
281
     1
  3
Standard
350
12E
  0
DICTIONARY
  5
17
102
{ACAD_REACTORS
330
C
102
}
330
C
100
AcDbDictionary
281
     1
  3
Standard
350
18
  0
DICTIONARY
  5
19
102
{ACAD_REACTORS
330
C
102
}
330
C
100
AcDbDictionary
281
     1
  0
ACDBDICTIONARYWDFLT
  5
E
102
{ACAD_REACTORS
330
C
102
}
330
C
100
AcDbDictionary
281
     1
  3
Normal
350
F
100
AcDbDictionaryWithDefault
340
F
  0
DICTIONARY
  5
10C
102
{ACAD_REACTORS
330
C
102
}
330
C
100
AcDbDictionary
281
     1
  3
A0
350
10D
  3
A1
350
1BE
  3
A2
350
1BF
  3
A3
350
1C0
  3
A4
350
1C1
  3
A5
350
1C2
  3
A6
350
1C3
  3
A7
350
1C4
  3
A8
350
1C5
  3
A9
350
1C6
  3
B0
350
1C7
  3
B1
350
1C8
  3
B2
350
1C9
  3
B3
350
1CA
  3
B4
350
1CB
  3
B5
350
1CC
  3
B6
350
1CD
  0
DICTIONARY
  5
219
102
{ACAD_REACTORS
330
C
102
}
330
C
100
AcDbDictionary
281
     1
  3
Metric50
350
21A
  0
DICTIONARY
  5
7E
102
{ACAD_REACTORS
330
C
102
}
330
C
100
AcDbDictionary
281
     1
  3
Standard
350
7F
  0
DICTIONARY
  5
EF
102
{ACAD_REACTORS
330
C
102
}
330
C
100
AcDbDictionary
281
     1
  3
2dWireframe
350
F5
  3
Basic
350
F4
  3
Brighten
350
FB
  3
ColorChange
350
FF
  3
Conceptual
350
F8
  3
Dim
350
FA
  3
EdgeColorOff
350
1E6
  3
Facepattern
350
FE
  3
Flat
350
F0
  3
FlatWithEdges
350
F1
  3
Gouraud
350
F2
  3
GouraudWithEdges
350
F3
  3
Hidden
350
F7
  3
JitterOff
350
1E4
  3
Linepattern
350
FD
  3
OverhangOff
350
1E5
  3
Realistic
350
F9
  3
Shaded
350
1F3
  3
Shaded with edges
350
1F2
  3
Shades of Gray
350
1EF
  3
Sketchy
350
1F0
  3
Thicken
350
FC
  3
Wireframe
350
F6
  3
X-Ray
350
1F1
  0
XRECORD
  5
1B24
102
{ACAD_REACTORS
330
C
102
}
330
C
100
AcDbXrecord
280
     1
 90
        1
330
7F
  0
DICTIONARY
  5
5E
102
{ACAD_REACTORS
330
C
102
}
330
C
100
AcDbDictionary
281
     1
  3
CANNOSCALE
350
146
  3
CENTEREXE
350
259
  3
CENTERLTYPEFILE
350
25A
  3
CMLEADERSTYLE
350
145
  3
CTABLESTYLE
350
84
  3
CVIEWDETAILSTYLE
350
227
  3
CVIEWSECTIONSTYLE
350
228
  3
DIMASSOC
350
5F
  3
HIDETEXT
350
63
  3
INDEXCTL
350
1AD1
  3
LAYEREVAL
350
1AE
  3
LAYERNOTIFY
350
1AF
  3
LIGHTINGUNITS
350
1ACF
  3
MSLTSCALE
350
1ACE
  3
PSOLHEIGHT
350
1B21
  3
PSOLWIDTH
350
1B20
  3
SORTENTS
350
1AD0
  3
XCLIPFRAME
350
1B22
  0
XRECORD
  5
1B25
102
{ACAD_REACTORS
330
C
102
}
330
C
100
AcDbXrecord
280
     1
  1
DWGPROPS COOKIE
  2

  3

  4

  6

  7

  8
truole
  9

300
=
301
=
302
=
303
=
304
=
305
=
306
=
307
=
308
=
309
=
 40
0.0019212962962963
 41
2460719.40650463
 42
2460719.410590278
  1

 90
        0
  0
DICTIONARY
  5
200
102
{ACAD_REACTORS
330
1FF
102
}
330
1FF
100
AcDbDictionary
281
     1
  0
XRECORD
  5
1A7C
102
{ACAD_REACTORS
330
1CE
102
}
330
1CE
100
AcDbXrecord
280
     1
340
1F
  0
XRECORD
  5
1A85
102
{ACAD_REACTORS
330
1A27
102
}
330
1A27
100
AcDbXrecord
280
     1
340
D2
  0
XRECORD
  5
1A88
102
{ACAD_REACTORS
330
1A29
102
}
330
1A29
100
AcDbXrecord
280
     1
340
D6
  0
ACDBDETAILVIEWSTYLE
  5
21C
102
{ACAD_XDICTIONARY
360
1B64
102
}
102
{ACAD_REACTORS
330
21B
102
}
330
21B
100
AcDbModelDocViewStyle
 70
     0
  3
Metric50
290
     0
100
AcDbDetailViewStyle
 70
     0
 71
     0
 90
        3
 71
     1
340
11
 40
5.0
340
0
 40
5.0
300

 40
0.0
280
     1
 71
     2
340
16
 90
       25
 71
     3
340
11
 40
5.0
 90
        0
 40
15.0
 90
        1
300
%<\AcVar ViewDetailId>% (%<\AcVar ViewScale \f "%sn">%)
 71
     4
340
16
 90
       25
340
16
 90
       25
280
     0
  0
LAYOUT
  5
D3
102
{ACAD_XDICTIONARY
360
1B29
102
}
102
{ACAD_REACTORS
330
1A
102
}
330
1A
100
AcDbPlotSettings
  1

  2
C:\Documents and Settings\basas\Application Data\Autodesk\AutoCAD 2005\R16.1\enu\plotters\Default Windows System Printer.pc3
  4

  6

 40
0.0
 41
0.0
 42
0.0
 43
0.0
 44
0.0
 45
0.0
 46
0.0
 47
0.0
 48
0.0
 49
0.0
140
0.0
141
0.0
142
1.0
143
1.0
 70
   688
 72
     0
 73
     0
 74
     5
  7

 75
    16
147
1.0
148
0.0
149
0.0
100
AcDbLayout
  1
Layout1
 70
     1
 71
     1
 10
0.0
 20
0.0
 11
12.0
 21
9.0
 12
0.0
 22
0.0
 32
0.0
 14
0.0
 24
0.0
 34
0.0
 15
0.0
 25
0.0
 35
0.0
146
0.0
 13
0.0
 23
0.0
 33
0.0
 16
1.0
 26
0.0
 36
0.0
 17
0.0
 27
1.0
 37
0.0
 76
     0
330
D2
  0
LAYOUT
  5
D7
102
{ACAD_XDICTIONARY
360
1B2B
102
}
102
{ACAD_REACTORS
330
1A
102
}
330
1A
100
AcDbPlotSettings
  1

  2
C:\Documents and Settings\basas\Application Data\Autodesk\AutoCAD 2005\R16.1\enu\plotters\Default Windows System Printer.pc3
  4

  6

 40
0.0
 41
0.0
 42
0.0
 43
0.0
 44
0.0
 45
0.0
 46
0.0
 47
0.0
 48
0.0
 49
0.0
140
0.0
141
0.0
142
1.0
143
1.0
 70
   688
 72
     0
 73
     0
 74
     5
  7

 75
    16
147
1.0
148
0.0
149
0.0
100
AcDbLayout
  1
Layout2
 70
     1
 71
     2
 10
0.0
 20
0.0
 11
12.0
 21
9.0
 12
0.0
 22
0.0
 32
0.0
 14
0.0
 24
0.0
 34
0.0
 15
0.0
 25
0.0
 35
0.0
146
0.0
 13
0.0
 23
0.0
 33
0.0
 16
1.0
 26
0.0
 36
0.0
 17
0.0
 27
1.0
 37
0.0
 76
     0
330
D6
  0
LAYOUT
  5
22
102
{ACAD_XDICTIONARY
360
1B26
102
}
102
{ACAD_REACTORS
330
1A
102
}
330
1A
100
AcDbPlotSettings
  1

  2
none_device
  4
ISO_A4_(210.00_x_297.00_MM)
  6

 40
7.5
 41
20.0
 42
7.5
 43
20.0
 44
210.0
 45
297.0
 46
11.54999923706054
 47
-13.65000009536743
 48
0.0
 49
0.0
140
0.0
141
0.0
142
1.0
143
8.704084754739808
 70
 11952
 72
     1
 73
     0
 74
     0
  7

 75
     0
147
0.1148885871608098
148
0.0
149
0.0
100
AcDbLayout
  1
Model
 70
     1
 71
     0
 10
0.0
 20
0.0
 11
12.0
 21
9.0
 12
0.0
 22
0.0
 32
0.0
 14
0.0
 24
0.0
 34
0.0
 15
0.0
 25
0.0
 35
0.0
146
0.0
 13
0.0
 23
0.0
 33
0.0
 16
1.0
 26
0.0
 36
0.0
 17
0.0
 27
1.0
 37
0.0
 76
     0
330
1F
331
EA
1001
ACAD_PSEXT
1000
None
1000
None
1000
Not applicable
1000
The layout will not be plotted unless a new plotter configuration name is selected.
1070
     0
  0
MATERIAL
  5
ED
102
{ACAD_XDICTIONARY
360
1F9
102
}
102
{ACAD_REACTORS
330
6A
102
}
330
6A
100
AcDbMaterial
  1
ByBlock
  0
MATERIAL
  5
EC
102
{ACAD_XDICTIONARY
360
1F7
102
}
102
{ACAD_REACTORS
330
6A
102
}
330
6A
100
AcDbMaterial
  1
ByLayer
  0
MATERIAL
  5
EE
102
{ACAD_XDICTIONARY
360
173
102
}
102
{ACAD_REACTORS
330
6A
102
}
330
6A
100
AcDbMaterial
  1
Global
 43
0.0007999999797903
 43
0.0
 43
0.0
 43
0.0
 43
0.0
 43
0.0007999999797903
 43
0.0
 43
0.0
 43
0.0
 43
0.0
 43
1.0
 43
0.0
 43
0.0
 43
0.0
 43
0.0
 43
1.0
 49
0.0007999999797903
 49
0.0
 49
0.0
 49
0.0
 49
0.0
 49
0.0007999999797903
 49
0.0
 49
0.0
 49
0.0
 49
0.0
 49
1.0
 49
0.0
 49
0.0
 49
0.0
 49
0.0
 49
1.0
142
0.0007999999797903
142
0.0
142
0.0
142
0.0
142
0.0
142
0.0007999999797903
142
0.0
142
0.0
142
0.0
142
0.0
142
1.0
142
0.0
142
0.0
142
0.0
142
0.0
142
1.0
144
0.0007999999797903
144
0.0
144
0.0
144
0.0
144
0.0
144
0.0007999999797903
144
0.0
144
0.0
144
0.0
144
0.0
144
1.0
144
0.0
144
0.0
144
0.0
144
0.0
144
1.0
1001
ACAD
1070
    -1
1070
     3
1070
     0
1000

1071
        0
1070
     0
  0
MLEADERSTYLE
  5
12E
102
{ACAD_XDICTIONARY
360
1B50
102
}
102
{ACAD_REACTORS
330
12D
102
}
330
12D
100
AcDbMLeaderStyle
170
     2
171
     1
172
     0
 90
        2
 40
0.0
 41
0.0
173
     1
 91
-1056964608
340
14
 92
       -2
290
     1
 42
2.0
291
     1
 43
8.0
  3
Standard
 44
4.0
300

342
11
174
     1
178
     1
175
     1
176
     0
 93
-1056964608
 45
4.0
292
     0
297
     0
 46
4.0
 94
-1056964608
 47
1.0
 49
1.0
140
1.0
293
     1
141
0.0
294
     1
177
     0
142
1.0
295
     0
296
     0
143
3.75
1001
ACAD_MLEADERVER
1070
     2
  0
MLINESTYLE
  5
18
102
{ACAD_REACTORS
330
17
102
}
330
17
100
AcDbMlineStyle
  2
STANDARD
 70
     0
  3

 62
   256
 51
90.0
 52
90.0
 71
     2
 49
0.5
 62
   256
  6
BYLAYER
 49
-0.5
 62
   256
  6
BYLAYER
  0
ACDBPLACEHOLDER
  5
F
102
{ACAD_REACTORS
330
E
102
}
330
E
  0
SCALE
  5
10D
102
{ACAD_REACTORS
330
10C
102
}
330
10C
100
AcDbScale
 70
     0
300
1:1
140
1.0
141
1.0
290
     1
  0
SCALE
  5
1BE
102
{ACAD_REACTORS
330
10C
102
}
330
10C
100
AcDbScale
 70
     0
300
1:2
140
1.0
141
2.0
290
     0
  0
SCALE
  5
1BF
102
{ACAD_REACTORS
330
10C
102
}
330
10C
100
AcDbScale
 70
     0
300
1:4
140
1.0
141
4.0
290
     0
  0
SCALE
  5
1C0
102
{ACAD_REACTORS
330
10C
102
}
330
10C
100
AcDbScale
 70
     0
300
1:5
140
1.0
141
5.0
290
     0
  0
SCALE
  5
1C1
102
{ACAD_REACTORS
330
10C
102
}
330
10C
100
AcDbScale
 70
     0
300
1:8
140
1.0
141
8.0
290
     0
  0
SCALE
  5
1C2
102
{ACAD_REACTORS
330
10C
102
}
330
10C
100
AcDbScale
 70
     0
300
1:10
140
1.0
141
10.0
290
     0
  0
SCALE
  5
1C3
102
{ACAD_REACTORS
330
10C
102
}
330
10C
100
AcDbScale
 70
     0
300
1:16
140
1.0
141
16.0
290
     0
  0
SCALE
  5
1C4
102
{ACAD_REACTORS
330
10C
102
}
330
10C
100
AcDbScale
 70
     0
300
1:20
140
1.0
141
20.0
290
     0
  0
SCALE
  5
1C5
102
{ACAD_REACTORS
330
10C
102
}
330
10C
100
AcDbScale
 70
     0
300
1:30
140
1.0
141
30.0
290
     0
  0
SCALE
  5
1C6
102
{ACAD_REACTORS
330
10C
102
}
330
10C
100
AcDbScale
 70
     0
300
1:40
140
1.0
141
40.0
290
     0
  0
SCALE
  5
1C7
102
{ACAD_REACTORS
330
10C
102
}
330
10C
100
AcDbScale
 70
     0
300
1:50
140
1.0
141
50.0
290
     0
  0
SCALE
  5
1C8
102
{ACAD_REACTORS
330
10C
102
}
330
10C
100
AcDbScale
 70
     0
300
1:100
140
1.0
141
100.0
290
     0
  0
SCALE
  5
1C9
102
{ACAD_REACTORS
330
10C
102
}
330
10C
100
AcDbScale
 70
     0
300
2:1
140
2.0
141
1.0
290
     0
  0
SCALE
  5
1CA
102
{ACAD_REACTORS
330
10C
102
}
330
10C
100
AcDbScale
 70
     0
300
4:1
140
4.0
141
1.0
290
     0
  0
SCALE
  5
1CB
102
{ACAD_REACTORS
330
10C
102
}
330
10C
100
AcDbScale
 70
     0
300
8:1
140
8.0
141
1.0
290
     0
  0
SCALE
  5
1CC
102
{ACAD_REACTORS
330
10C
102
}
330
10C
100
AcDbScale
 70
     0
300
10:1
140
10.0
141
1.0
290
     0
  0
SCALE
  5
1CD
102
{ACAD_REACTORS
330
10C
102
}
330
10C
100
AcDbScale
 70
     0
300
100:1
140
100.0
141
1.0
290
     0
  0
ACDBSECTIONVIEWSTYLE
  5
21A
102
{ACAD_XDICTIONARY
360
1B62
102
}
102
{ACAD_REACTORS
330
219
102
}
330
219
100
AcDbModelDocViewStyle
 70
     0
  3
Metric50
290
     0
100
AcDbSectionViewStyle
 70
     0
 71
     0
 90
      102
 71
     1
340
11
 40
5.0
340
0
340
0
 40
5.0
300
I, O, Q, S, X, Z
 40
10.0
 90
        0
 40
2.5
 90
        0
 71
     2
340
16
 90
       25
340
16
 90
       50
 40
5.0
 40
2.5
 40
5.0
 71
     3
340
11
 40
5.0
 90
        0
 40
15.0
 90
        1
300
%<\AcVar ViewSectionStartId>%-%<\AcVar ViewSectionEndId>% (%<\AcVar ViewScale \f "%sn">%)
 71
     4
300
ANSI31
 40
1.0
 90
        0
290
     0
290
     0
 90
        6
 40
0.0
 40
1.570796326794896
 40
0.2617993877991494
 40
1.308996938995747
 40
-0.2617993877991494
 40
1.832595714594046
  0
TABLESTYLE
  5
7F
102
{ACAD_XDICTIONARY
360
162
102
}
102
{ACAD_REACTORS
330
7E
102
}
330
7E
100
AcDbTableStyle
  3
Standard
 70
     0
 71
     0
 40
1.5
 41
1.5
280
     0
281
     0
  7
Standard
140
4.5
170
     2
 62
     0
 63
     7
283
     0
274
    -2
284
     1
 64
     0
275
    -2
285
     1
 65
     0
276
    -2
286
     1
 66
     0
277
    -2
287
     1
 67
     0
278
    -2
288
     1
 68
     0
279
    -2
289
     1
 69
     0
  7
Standard
140
6.0
170
     5
 62
     0
 63
     7
283
     0
274
    -2
284
     1
 64
     0
275
    -2
285
     1
 65
     0
276
    -2
286
     1
 66
     0
277
    -2
287
     1
 67
     0
278
    -2
288
     1
 68
     0
279
    -2
289
     1
 69
     0
  7
Standard
140
4.5
170
     5
 62
     0
 63
     7
283
     0
274
    -2
284
     1
 64
     0
275
    -2
285
     1
 65
     0
276
    -2
286
     1
 66
     0
277
    -2
287
     1
 67
     0
278
    -2
288
     1
 68
     0
279
    -2
289
     1
 69
     0
  0
VISUALSTYLE
  5
F5
102
{ACAD_XDICTIONARY
360
1B3A
102
}
102
{ACAD_REACTORS
330
EF
102
}
330
EF
100
AcDbVisualStyle
  2
2dWireframe
 70
     4
 71
     0
 72
     2
 73
     1
 90
        0
 40
-0.6
 41
-30.0
 62
     5
 63
     7
 74
     1
 91
        4
 64
     7
 65
   257
 75
     1
175
     1
 42
1.0
 92
        0
 66
   257
 43
1.0
 76
     1
 77
     6
 78
     2
 67
     7
 79
     5
170
     0
171
     0
290
     0
174
     0
 93
        1
 44
0.0
173
     0
291
     0
 45
0.0
1001
ACAD
1000
AcDbSavedByObjectVersion
1070
     0
  0
VISUALSTYLE
  5
F4
102
{ACAD_XDICTIONARY
360
1B38
102
}
102
{ACAD_REACTORS
330
EF
102
}
330
EF
100
AcDbVisualStyle
  2
Basic
 70
     7
 71
     1
 72
     0
 73
     1
 90
        0
 40
-0.6
 41
-30.0
 62
     5
 63
     7
 74
     0
 91
        4
 64
     7
 65
   257
 75
     1
175
     1
 42
1.0
 92
        8
 66
     7
 43
1.0
 76
     1
 77
     6
 78
     2
 67
     7
 79
     5
170
     0
171
     0
290
     0
174
     0
 93
        1
 44
0.0
173
     0
291
     1
 45
0.0
1001
ACAD
1000
AcDbSavedByObjectVersion
1070
     0
  0
VISUALSTYLE
  5
FB
102
{ACAD_XDICTIONARY
360
1B46
102
}
102
{ACAD_REACTORS
330
EF
102
}
330
EF
100
AcDbVisualStyle
  2
Brighten
 70
    12
 71
     2
 72
     2
 73
     1
 90
        0
 40
-0.6
 41
-30.0
 62
     5
 63
     7
 74
     1
 91
        4
 64
     7
 65
   257
 75
     1
175
     1
 42
1.0
 92
        8
 66
     7
 43
1.0
 76
     1
 77
     6
 78
     2
 67
     7
 79
     5
170
     0
171
     0
290
     0
174
     0
 93
        1
 44
50.0
173
     0
291
     1
 45
0.0
1001
ACAD
1000
AcDbSavedByObjectVersion
1070
     0
  0
VISUALSTYLE
  5
FF
102
{ACAD_XDICTIONARY
360
1B4E
102
}
102
{ACAD_REACTORS
330
EF
102
}
330
EF
100
AcDbVisualStyle
  2
ColorChange
 70
    16
 71
     2
 72
     2
 73
     3
 90
        0
 40
-0.6
 41
-30.0
 62
     5
 63
     8
 74
     1
 91
        4
 64
     7
 65
   257
 75
     1
175
     1
 42
1.0
 92
        8
 66
     8
 43
1.0
 76
     1
 77
     6
 78
     2
 67
     7
 79
     5
170
     0
171
     0
290
     0
174
     0
 93
        1
 44
0.0
173
     0
291
     1
 45
0.0
1001
ACAD
1000
AcDbSavedByObjectVersion
1070
     0
  0
VISUALSTYLE
  5
F8
102
{ACAD_XDICTIONARY
360
1B40
102
}
102
{ACAD_REACTORS
330
EF
102
}
330
EF
100
AcDbVisualStyle
  2
Conceptual
 70
     9
 71
     3
 72
     2
 73
     1
 90
        0
 40
-0.6
 41
-30.0
 62
     5
 63
     7
 74
     2
 91
        2
 64
     7
 65
   257
 75
     1
175
     1
 42
40.0
 92
        8
 66
     7
 43
1.0
 76
     1
 77
     6
 78
     2
 67
     7
 79
     3
170
     0
171
     0
290
     0
174
     0
 93
        1
 44
0.0
173
     0
291
     0
 45
0.0
1001
ACAD
1000
AcDbSavedByObjectVersion
1070
     0
  0
VISUALSTYLE
  5
FA
102
{ACAD_XDICTIONARY
360
1B44
102
}
102
{ACAD_REACTORS
330
EF
102
}
330
EF
100
AcDbVisualStyle
  2
Dim
 70
    11
 71
     2
 72
     2
 73
     1
 90
        0
 40
-0.6
 41
-30.0
 62
     5
 63
     7
 74
     1
 91
        4
 64
     7
 65
   257
 75
     1
175
     1
 42
1.0
 92
        8
 66
     7
 43
1.0
 76
     1
 77
     6
 78
     2
 67
     7
 79
     5
170
     0
171
     0
290
     0
174
     0
 93
        1
 44
-50.0
173
     0
291
     1
 45
0.0
1001
ACAD
1000
AcDbSavedByObjectVersion
1070
     0
  0
VISUALSTYLE
  5
1E6
102
{ACAD_XDICTIONARY
360
1B56
102
}
102
{ACAD_REACTORS
330
EF
102
}
330
EF
100
AcDbVisualStyle
  2
EdgeColorOff
 70
    22
 71
     2
 72
     2
 73
     0
 90
        0
 40
-0.6
 41
-30.0
 62
     5
 63
     7
 74
     1
 91
        4
 64
     7
 65
   257
 75
     1
175
     1
 42
1.0
 92
        8
 66
     7
 43
1.0
 76
     1
 77
     6
 78
     2
 67
     7
 79
     5
170
     0
171
     0
290
     0
174
     0
 93
        1
 44
0.0
173
     0
291
     1
 45
0.0
1001
ACAD
1000
AcDbSavedByObjectVersion
1070
     0
  0
VISUALSTYLE
  5
FE
102
{ACAD_XDICTIONARY
360
1B4C
102
}
102
{ACAD_REACTORS
330
EF
102
}
330
EF
100
AcDbVisualStyle
  2
Facepattern
 70
    15
 71
     2
 72
     2
 73
     1
 90
        0
 40
-0.6
 41
-30.0
 62
     5
 63
     7
 74
     1
 91
        4
 64
     7
 65
   257
 75
     1
175
     1
 42
1.0
 92
        8
 66
     7
 43
1.0
 76
     1
 77
     6
 78
     2
 67
     7
 79
     5
170
     0
171
     0
290
     0
174
     0
 93
        1
 44
0.0
173
     0
291
     1
 45
0.0
1001
ACAD
1000
AcDbSavedByObjectVersion
1070
     0
  0
VISUALSTYLE
  5
F0
102
{ACAD_XDICTIONARY
360
1B30
102
}
102
{ACAD_REACTORS
330
EF
102
}
330
EF
100
AcDbVisualStyle
  2
Flat
 70
     0
 71
     2
 72
     1
 73
     1
 90
        2
 40
-0.6
 41
30.0
 62
     5
 63
     7
 74
     0
 91
        0
 64
     7
 65
   257
 75
     1
175
     1
 42
1.0
 92
        8
 66
     7
 43
1.0
 76
     1
 77
     6
 78
     2
 67
     7
 79
     5
170
     0
171
     0
290
     0
174
     0
 93
       13
 44
0.0
173
     0
291
     1
 45
0.0
1001
ACAD
1000
AcDbSavedByObjectVersion
1070
     0
  0
VISUALSTYLE
  5
F1
102
{ACAD_XDICTIONARY
360
1B32
102
}
102
{ACAD_REACTORS
330
EF
102
}
330
EF
100
AcDbVisualStyle
  2
FlatWithEdges
 70
     1
 71
     2
 72
     1
 73
     1
 90
        2
 40
-0.6
 41
30.0
 62
     5
 63
     7
 74
     1
 91
        0
 64
     7
 65
   257
 75
     1
175
     1
 42
1.0
 92
        0
 66
   257
 43
1.0
 76
     1
 77
     6
 78
     2
 67
     7
 79
     5
170
     0
171
     0
290
     0
174
     0
 93
       13
 44
0.0
173
     0
291
     1
 45
0.0
1001
ACAD
1000
AcDbSavedByObjectVersion
1070
     0
  0
VISUALSTYLE
  5
F2
102
{ACAD_XDICTIONARY
360
1B34
102
}
102
{ACAD_REACTORS
330
EF
102
}
330
EF
100
AcDbVisualStyle
  2
Gouraud
 70
     2
 71
     2
 72
     2
 73
     1
 90
        2
 40
-0.6
 41
30.0
 62
     5
 63
     7
 74
     0
 91
        0
 64
     7
 65
   257
 75
     1
175
     1
 42
1.0
 92
        0
 66
     7
 43
1.0
 76
     1
 77
     6
 78
     2
 67
     7
 79
     5
170
     0
171
     0
290
     0
174
     0
 93
       13
 44
0.0
173
     0
291
     1
 45
0.0
1001
ACAD
1000
AcDbSavedByObjectVersion
1070
     0
  0
VISUALSTYLE
  5
F3
102
{ACAD_XDICTIONARY
360
1B36
102
}
102
{ACAD_REACTORS
330
EF
102
}
330
EF
100
AcDbVisualStyle
  2
GouraudWithEdges
 70
     3
 71
     2
 72
     2
 73
     1
 90
        2
 40
-0.6
 41
30.0
 62
     5
 63
     7
 74
     1
 91
        0
 64
     7
 65
   257
 75
     1
175
     1
 42
1.0
 92
        0
 66
   257
 43
1.0
 76
     1
 77
     6
 78
     2
 67
     7
 79
     5
170
     0
171
     0
290
     0
174
     0
 93
       13
 44
0.0
173
     0
291
     1
 45
0.0
1001
ACAD
1000
AcDbSavedByObjectVersion
1070
     0
  0
VISUALSTYLE
  5
F7
102
{ACAD_XDICTIONARY
360
1B3E
102
}
102
{ACAD_REACTORS
330
EF
102
}
330
EF
100
AcDbVisualStyle
  2
Hidden
 70
     6
 71
     1
 72
     2
 73
     2
 90
        0
 40
-0.6
 41
-30.0
 62
     5
 63
     7
 74
     2
 91
        2
 64
     7
 65
   257
 75
     2
175
     1
 42
40.0
 92
        0
 66
   257
 43
1.0
 76
     1
 77
     6
 78
     2
 67
     7
 79
     3
170
     0
171
     0
290
     0
174
     0
 93
        1
 44
0.0
173
     0
291
     0
 45
0.0
1001
ACAD
1000
AcDbSavedByObjectVersion
1070
     0
  0
VISUALSTYLE
  5
1E4
102
{ACAD_XDICTIONARY
360
1B52
102
}
102
{ACAD_REACTORS
330
EF
102
}
330
EF
100
AcDbVisualStyle
  2
JitterOff
 70
    20
 71
     2
 72
     2
 73
     0
 90
        0
 40
-0.6
 41
-30.0
 62
     5
 63
     7
 74
     1
 91
        4
 64
     7
 65
   257
 75
     1
175
     1
 42
1.0
 92
       10
 66
     7
 43
1.0
 76
     1
 77
     6
 78
     2
 67
     7
 79
     5
170
     0
171
     0
290
     0
174
     0
 93
        1
 44
0.0
173
     0
291
     1
 45
0.0
1001
ACAD
1000
AcDbSavedByObjectVersion
1070
     0
  0
VISUALSTYLE
  5
FD
102
{ACAD_XDICTIONARY
360
1B4A
102
}
102
{ACAD_REACTORS
330
EF
102
}
330
EF
100
AcDbVisualStyle
  2
Linepattern
 70
    14
 71
     2
 72
     2
 73
     1
 90
        0
 40
-0.6
 41
-30.0
 62
     5
 63
     7
 74
     1
 91
        4
 64
     7
 65
   257
 75
     7
175
     7
 42
1.0
 92
        8
 66
     7
 43
1.0
 76
     1
 77
     6
 78
     2
 67
     7
 79
     5
170
     0
171
     0
290
     0
174
     0
 93
        1
 44
0.0
173
     0
291
     1
 45
0.0
1001
ACAD
1000
AcDbSavedByObjectVersion
1070
     0
  0
VISUALSTYLE
  5
1E5
102
{ACAD_XDICTIONARY
360
1B54
102
}
102
{ACAD_REACTORS
330
EF
102
}
330
EF
100
AcDbVisualStyle
  2
OverhangOff
 70
    21
 71
     2
 72
     2
 73
     0
 90
        0
 40
-0.6
 41
-30.0
 62
     5
 63
     7
 74
     1
 91
        4
 64
     7
 65
   257
 75
     1
175
     1
 42
1.0
 92
        9
 66
     7
 43
1.0
 76
     1
 77
     6
 78
     2
 67
     7
 79
     5
170
     0
171
     0
290
     0
174
     0
 93
        1
 44
0.0
173
     0
291
     1
 45
0.0
1001
ACAD
1000
AcDbSavedByObjectVersion
1070
     0
  0
VISUALSTYLE
  5
F9
102
{ACAD_XDICTIONARY
360
1B42
102
}
102
{ACAD_REACTORS
330
EF
102
}
330
EF
100
AcDbVisualStyle
  2
Realistic
 70
     8
 71
     2
 72
     2
 73
     0
 90
        2
 40
-0.6
 41
30.0
 62
     5
 63
     7
 74
     0
 91
        0
 64
     7
 65
   257
 75
     1
175
     1
 42
1.0
 92
        8
 66
   257
 43
1.0
 76
     1
 77
     6
 78
     2
 67
     7
 79
     3
170
     0
171
     0
290
     0
174
     0
 93
       13
 44
0.0
173
     0
291
     0
 45
0.0
1001
ACAD
1000
AcDbSavedByObjectVersion
1070
     0
  0
VISUALSTYLE
  5
1F3
102
{ACAD_XDICTIONARY
360
1B60
102
}
102
{ACAD_REACTORS
330
EF
102
}
330
EF
100
AcDbVisualStyle
  2
Shaded
 70
    27
 71
     2
 72
     2
 73
     1
 90
        2
 40
-0.6
 41
30.0
 62
     5
 63
     7
 74
     0
 91
        4
 64
     7
 65
   257
 75
     1
175
     1
 42
1.0
 92
        8
 66
   257
 43
1.0
 76
     1
 77
     6
 78
     2
 67
     8
 79
     3
170
     0
171
     0
290
     0
174
     0
 93
        5
 44
0.0
173
     0
291
     0
 45
0.0
1001
ACAD
1000
AcDbSavedByObjectVersion
1070
     0
  0
VISUALSTYLE
  5
1F2
102
{ACAD_XDICTIONARY
360
1B5E
102
}
102
{ACAD_REACTORS
330
EF
102
}
330
EF
100
AcDbVisualStyle
  2
Shaded with edges
 70
    26
 71
     2
 72
     2
 73
     1
 90
        2
 40
-0.6
 41
30.0
 62
     5
 63
     7
 74
     1
 91
        2
 64
     7
 65
   257
 75
     2
175
     1
 42
1.0
 92
        8
 66
   257
 43
1.0
 76
     1
 77
     6
 78
     2
 67
     7
 79
     3
170
     0
171
     0
290
     0
174
     0
 93
        5
 44
0.0
173
     0
291
     0
 45
0.0
1001
ACAD
1000
AcDbSavedByObjectVersion
1070
     0
  0
VISUALSTYLE
  5
1EF
102
{ACAD_XDICTIONARY
360
1B58
102
}
102
{ACAD_REACTORS
330
EF
102
}
330
EF
100
AcDbVisualStyle
  2
Shades of Gray
 70
    23
 71
     2
 72
     2
 73
     3
 90
        0
 40
-0.6
 41
-30.0
 62
     5
 63
     7
 74
     2
 91
        2
 64
     7
 65
     7
 75
     1
175
     1
 42
40.0
 92
        8
 66
     7
 43
1.0
 76
     1
 77
     6
 78
     2
 67
     7
 79
     3
170
     0
171
     0
290
     0
174
     0
 93
        1
 44
0.0
173
     0
291
     0
 45
0.0
1001
ACAD
1000
AcDbSavedByObjectVersion
1070
     0
  0
VISUALSTYLE
  5
1F0
102
{ACAD_XDICTIONARY
360
1B5A
102
}
102
{ACAD_REACTORS
330
EF
102
}
330
EF
100
AcDbVisualStyle
  2
Sketchy
 70
    24
 71
     1
 72
     2
 73
     2
 90
        0
 40
-0.6
 41
-30.0
 62
     5
 63
     7
 74
     2
 91
        2
 64
     7
 65
     7
 75
     1
175
     1
 42
40.0
 92
       11
 66
     7
 43
1.0
 76
     1
 77
     6
 78
     2
 67
     7
 79
     6
170
     0
171
     0
290
     0
174
     0
 93
        1
 44
0.0
173
     0
291
     0
 45
0.0
1001
ACAD
1000
AcDbSavedByObjectVersion
1070
     0
  0
VISUALSTYLE
  5
FC
102
{ACAD_XDICTIONARY
360
1B48
102
}
102
{ACAD_REACTORS
330
EF
102
}
330
EF
100
AcDbVisualStyle
  2
Thicken
 70
    13
 71
     2
 72
     2
 73
     1
 90
        0
 40
-0.6
 41
-30.0
 62
     5
 63
     7
 74
     1
 91
        4
 64
     7
 65
   257
 75
     1
175
     1
 42
1.0
 92
       12
 66
     7
 43
1.0
 76
     1
 77
     6
 78
     2
 67
     7
 79
     5
170
     0
171
     0
290
     0
174
     0
 93
        1
 44
0.0
173
     0
291
     1
 45
0.0
1001
ACAD
1000
AcDbSavedByObjectVersion
1070
     0
  0
VISUALSTYLE
  5
F6
102
{ACAD_XDICTIONARY
360
1B3C
102
}
102
{ACAD_REACTORS
330
EF
102
}
330
EF
100
AcDbVisualStyle
  2
Wireframe
 70
     5
 71
     0
 72
     2
 73
     0
 90
        0
 40
-0.6
 41
-30.0
 62
     5
 63
     7
 74
     1
 91
        4
 64
     7
 65
   257
 75
     1
175
     1
 42
1.0
 92
        0
 66
   257
 43
1.0
 76
     1
 77
     6
 78
     2
 67
     7
 79
     3
170
     0
171
     0
290
     0
174
     0
 93
        1
 44
0.0
173
     0
291
     0
 45
0.0
1001
ACAD
1000
AcDbSavedByObjectVersion
1070
     0
  0
VISUALSTYLE
  5
1F1
102
{ACAD_XDICTIONARY
360
1B5C
102
}
102
{ACAD_REACTORS
330
EF
102
}
330
EF
100
AcDbVisualStyle
  2
X-Ray
 70
    25
 71
     2
 72
     2
 73
     1
 90
        1
 40
0.5
 41
-30.0
 62
     5
 63
     7
 74
     1
 91
        0
 64
     7
 65
   257
 75
     1
175
     1
 42
1.0
 92
        8
 66
     7
 43
1.0
 76
     1
 77
     6
 78
     2
 67
     7
 79
     3
170
     0
171
     0
290
     0
174
     0
 93
       13
 44
0.0
173
     0
291
     0
 45
0.0
1001
ACAD
1000
AcDbSavedByObjectVersion
1070
     0
  0
DICTIONARYVAR
  5
146
102
{ACAD_REACTORS
330
5E
102
}
330
5E
100
DictionaryVariables
280
     0
  1
1:1
  0
DICTIONARYVAR
  5
259
102
{ACAD_REACTORS
330
5E
102
}
330
5E
100
DictionaryVariables
280
     0
  1
3.500000
  0
DICTIONARYVAR
  5
25A
102
{ACAD_REACTORS
330
5E
102
}
330
5E
100
DictionaryVariables
280
     0
  1
acadiso.lin
  0
DICTIONARYVAR
  5
145
102
{ACAD_REACTORS
330
5E
102
}
330
5E
100
DictionaryVariables
280
     0
  1
STANDARD
  0
DICTIONARYVAR
  5
84
102
{ACAD_REACTORS
330
5E
102
}
330
5E
100
DictionaryVariables
280
     0
  1
STANDARD
  0
DICTIONARYVAR
  5
227
102
{ACAD_REACTORS
330
5E
102
}
330
5E
100
DictionaryVariables
280
     0
  1
Metric50
  0
DICTIONARYVAR
  5
228
102
{ACAD_REACTORS
330
5E
102
}
330
5E
100
DictionaryVariables
280
     0
  1
Metric50
  0
DICTIONARYVAR
  5
5F
102
{ACAD_REACTORS
330
5E
102
}
330
5E
100
DictionaryVariables
280
     0
  1
2
  0
DICTIONARYVAR
  5
63
102
{ACAD_REACTORS
330
5E
102
}
330
5E
100
DictionaryVariables
280
     0
  1
1
  0
DICTIONARYVAR
  5
1AD1
102
{ACAD_REACTORS
330
5E
102
}
330
5E
100
DictionaryVariables
280
     0
  1
0
  0
DICTIONARYVAR
  5
1AE
102
{ACAD_REACTORS
330
5E
102
}
330
5E
100
DictionaryVariables
280
     0
  1
0
  0
DICTIONARYVAR
  5
1AF
102
{ACAD_REACTORS
330
5E
102
}
330
5E
100
DictionaryVariables
280
     0
  1
0
  0
DICTIONARYVAR
  5
1ACF
102
{ACAD_REACTORS
330
5E
102
}
330
5E
100
DictionaryVariables
280
     0
  1
2
  0
DICTIONARYVAR
  5
1ACE
102
{ACAD_REACTORS
330
5E
102
}
330
5E
100
DictionaryVariables
280
     0
  1
1
  0
DICTIONARYVAR
  5
1B21
102
{ACAD_REACTORS
330
5E
102
}
330
5E
100
DictionaryVariables
280
     0
  1
80.000000
  0
DICTIONARYVAR
  5
1B20
102
{ACAD_REACTORS
330
5E
102
}
330
5E
100
DictionaryVariables
280
     0
  1
5.000000
  0
DICTIONARYVAR
  5
1AD0
102
{ACAD_REACTORS
330
5E
102
}
330
5E
100
DictionaryVariables
280
     0
  1
127
  0
DICTIONARYVAR
  5
1B22
102
{ACAD_REACTORS
330
5E
102
}
330
5E
100
DictionaryVariables
280
     0
  1
2
  0
DICTIONARY
  5
1B64
330
21C
100
AcDbDictionary
280
     1
281
     1
  3
ACAD_XREC_ROUNDTRIP
360
1B65
  0
DICTIONARY
  5
1B29
330
D3
100
AcDbDictionary
280
     1
281
     1
  3
ACAD_XREC_ROUNDTRIP
360
1B2A
  0
DICTIONARY
  5
1B2B
330
D7
100
AcDbDictionary
280
     1
281
     1
  3
ACAD_XREC_ROUNDTRIP
360
1B2C
  0
DICTIONARY
  5
1B26
330
22
100
AcDbDictionary
280
     1
281
     1
  3
ACAD_XREC_ROUNDTRIP
360
1B27
  0
DICTIONARY
  5
1F9
330
ED
100
AcDbDictionary
280
     1
281
     1
  3
ACAD_XREC_ROUNDTRIP
360
1B2E
  3
FBXASSET
360
1FA
  0
DICTIONARY
  5
1F7
330
EC
100
AcDbDictionary
280
     1
281
     1
  3
ACAD_XREC_ROUNDTRIP
360
1B2D
  3
FBXASSET
360
1F8
  0
DICTIONARY
  5
173
330
EE
100
AcDbDictionary
280
     1
281
     1
  3
ACAD_XREC_ROUNDTRIP
360
1B2F
  3
BUMPTILE
360
175
  3
DIFFUSETILE
360
174
  3
FBXASSET
360
1FB
  3
OPACITYTILE
360
176
  3
REFLECTIONTILE
360
177
  0
DICTIONARY
  5
1B50
330
12E
100
AcDbDictionary
280
     1
281
     1
  3
ACAD_XREC_ROUNDTRIP
360
1B51
  0
DICTIONARY
  5
1B62
330
21A
100
AcDbDictionary
280
     1
281
     1
  3
ACAD_XREC_ROUNDTRIP
360
1B63
  0
DICTIONARY
  5
162
330
7F
100
AcDbDictionary
280
     1
281
     1
  3
ACAD_ROUNDTRIP_2008_TABLESTYLE_CELLSTYLEMAP
360
1B23
  3
ACAD_XREC_ROUNDTRIP
360
1B28
  0
DICTIONARY
  5
1B3A
330
F5
100
AcDbDictionary
280
     1
281
     1
  3
ACAD_XREC_ROUNDTRIP
360
1B3B
  0
DICTIONARY
  5
1B38
330
F4
100
AcDbDictionary
280
     1
281
     1
  3
ACAD_XREC_ROUNDTRIP
360
1B39
  0
DICTIONARY
  5
1B46
330
FB
100
AcDbDictionary
280
     1
281
     1
  3
ACAD_XREC_ROUNDTRIP
360
1B47
  0
DICTIONARY
  5
1B4E
330
FF
100
AcDbDictionary
280
     1
281
     1
  3
ACAD_XREC_ROUNDTRIP
360
1B4F
  0
DICTIONARY
  5
1B40
330
F8
100
AcDbDictionary
280
     1
281
     1
  3
ACAD_XREC_ROUNDTRIP
360
1B41
  0
DICTIONARY
  5
1B44
330
FA
100
AcDbDictionary
280
     1
281
     1
  3
ACAD_XREC_ROUNDTRIP
360
1B45
  0
DICTIONARY
  5
1B56
330
1E6
100
AcDbDictionary
280
     1
281
     1
  3
ACAD_XREC_ROUNDTRIP
360
1B57
  0
DICTIONARY
  5
1B4C
330
FE
100
AcDbDictionary
280
     1
281
     1
  3
ACAD_XREC_ROUNDTRIP
360
1B4D
  0
DICTIONARY
  5
1B30
330
F0
100
AcDbDictionary
280
     1
281
     1
  3
ACAD_XREC_ROUNDTRIP
360
1B31
  0
DICTIONARY
  5
1B32
330
F1
100
AcDbDictionary
280
     1
281
     1
  3
ACAD_XREC_ROUNDTRIP
360
1B33
  0
DICTIONARY
  5
1B34
330
F2
100
AcDbDictionary
280
     1
281
     1
  3
ACAD_XREC_ROUNDTRIP
360
1B35
  0
DICTIONARY
  5
1B36
330
F3
100
AcDbDictionary
280
     1
281
     1
  3
ACAD_XREC_ROUNDTRIP
360
1B37
  0
DICTIONARY
  5
1B3E
330
F7
100
AcDbDictionary
280
     1
281
     1
  3
ACAD_XREC_ROUNDTRIP
360
1B3F
  0
DICTIONARY
  5
1B52
330
1E4
100
AcDbDictionary
280
     1
281
     1
  3
ACAD_XREC_ROUNDTRIP
360
1B53
  0
DICTIONARY
  5
1B4A
330
FD
100
AcDbDictionary
280
     1
281
     1
  3
ACAD_XREC_ROUNDTRIP
360
1B4B
  0
DICTIONARY
  5
1B54
330
1E5
100
AcDbDictionary
280
     1
281
     1
  3
ACAD_XREC_ROUNDTRIP
360
1B55
  0
DICTIONARY
  5
1B42
330
F9
100
AcDbDictionary
280
     1
281
     1
  3
ACAD_XREC_ROUNDTRIP
360
1B43
  0
DICTIONARY
  5
1B60
330
1F3
100
AcDbDictionary
280
     1
281
     1
  3
ACAD_XREC_ROUNDTRIP
360
1B61
  0
DICTIONARY
  5
1B5E
330
1F2
100
AcDbDictionary
280
     1
281
     1
  3
ACAD_XREC_ROUNDTRIP
360
1B5F
  0
DICTIONARY
  5
1B58
330
1EF
100
AcDbDictionary
280
     1
281
     1
  3
ACAD_XREC_ROUNDTRIP
360
1B59
  0
DICTIONARY
  5
1B5A
330
1F0
100
AcDbDictionary
280
     1
281
     1
  3
ACAD_XREC_ROUNDTRIP
360
1B5B
  0
DICTIONARY
  5
1B48
330
FC
100
AcDbDictionary
280
     1
281
     1
  3
ACAD_XREC_ROUNDTRIP
360
1B49
  0
DICTIONARY
  5
1B3C
330
F6
100
AcDbDictionary
280
     1
281
     1
  3
ACAD_XREC_ROUNDTRIP
360
1B3D
  0
DICTIONARY
  5
1B5C
330
1F1
100
AcDbDictionary
280
     1
281
     1
  3
ACAD_XREC_ROUNDTRIP
360
1B5D
  0
XRECORD
  5
1B65
102
{ACAD_REACTORS
330
1B64
102
}
330
1B64
100
AcDbXrecord
280
     1
102
DISPLAYNAME
  1
Metric50
102
FLAGS
 90
        0
  0
XRECORD
  5
1B2A
102
{ACAD_REACTORS
330
1B29
102
}
330
1B29
100
AcDbXrecord
280
     1
102
SHADEPLOT
 70
     0
102
SHADEPLOTRESLEVEL
 70
     2
102
SHADEPLOTCUSTOMDPI
 70
   300
  0
XRECORD
  5
1B2C
102
{ACAD_REACTORS
330
1B2B
102
}
330
1B2B
100
AcDbXrecord
280
     1
102
SHADEPLOT
 70
     0
102
SHADEPLOTRESLEVEL
 70
     2
102
SHADEPLOTCUSTOMDPI
 70
   300
  0
XRECORD
  5
1B27
102
{ACAD_REACTORS
330
1B26
102
}
330
1B26
100
AcDbXrecord
280
     1
102
SHADEPLOT
 70
     0
102
SHADEPLOTRESLEVEL
 70
     2
102
SHADEPLOTCUSTOMDPI
 70
   300
  0
XRECORD
  5
1B2E
102
{ACAD_REACTORS
330
1F9
102
}
330
1F9
100
AcDbXrecord
280
     1
102
MATERIAL
148
0.0
149
0.0
149
0.0
 93
        0
 94
       63
282
     0
 72
     1
 77
     1
171
     1
175
     1
179
     1
273
     0
  0
XRECORD
  5
1FA
102
{ACAD_REACTORS
330
1F9
102
}
330
1F9
100
AcDbXrecord
280
     1
 70
     1
 90
429727718
  1
D62C5603-E3A1-4AEA-B7FB-FE5D8D0755AF
310
504B03040A0000080000CC70623B3DEE336E79000000790000001B0000006175746F6465736B2D64657369676E2D7061636B6167652E786D6C3C3F786D6C2076657273696F6E3D22312E302220656E636F64696E673D227574662D3822203F3E3C666F726D6174733E3C666F726D61743E687474703A2F2F736368656D612E
310
6175746F6465736B2E636F6D2F64657369676E2D7061636B6167652F323030393C2F666F726D61743E3C2F666F726D6174733E504B0304140006080800CC70623BD486FD9CA0000000F4000000130000005B436F6E74656E745F54797065735D2E786D6C7D8EC10E82300C865F65E91D8A1E8C310C0EEA1BF002731658846E
310
D98AC1B77784ABF1D8FE5FBFBF75BBCE937A534CCEB38643598122B6FEE978D0B0485F9C41B54DDD7D022595594E1A469170414C76A4D9A4D207E29CF43ECE46F218070CC6BECC4078ACAA135ACF422C856C0E68EA1BF5669944DDD7BCDE7B1F8E415D77AECB980613C2E4AC91FC167A2B244592486606FC29C8FD7F045B9A
310
EF7053A7E60B504B0304140006080800CC70623B853B8169EB0000007C01000008000000636F72652E786D6C8D90416EC3201045AF62CDB6C206821CC7C244919D9CA01740401C94182C03558F5F9C3852BBEB6A467FFE9B197D7EFC9E1EC5975982F5AE035262288C535E5B377690E21535501C055FBC8FBF6C503839990E
310
5619041F179FE64D52DE45E362569DD7661365082642A11EB9E920A89B99642953CC8E702F67A9EE7234257977194EC9EAE275C4EABCCF5EAD5940D4AC6F0E35A568B8F43562CD7046CD199FD07E60174276A7BE677B5EADB0E0D14EEFFB6A31321A0D82627C4084204C3F096B71DD52F6819B16635EADF63F509AF53FA164
310
5DDCD1EDDD17164090FCC8732078B56691CB33A85CD7DCC40F504B0304140006080800CC70623B55019EA25F0000007C00000007000000636E782E786D6C4DCB3B0E80201045D1AD90E915ED2CF8AC45050C11660C8261F98AB1B07AC9C97D42D718D865D3E909258CFD00CCE24AC6E326A164D74DC0B4128928FF32603847
310
2BA13128B1252AC747C6BAB984FC68F0B87FE8960A5C09FE86CFB69FBA01504B0304140006080800CC70623BDBABAAF470010000D40300000C0000006662782F636F72652E786D6CC553D16E823014FD95A6AF4B694182CC941A83FA05FB810A9511A125A5257EFE2E82712ECEB8A7F100CD39F7F69E734AF9FADC366850B6
310
AF8DCE7018308C942E4C59EB2AC3DE1D498AD15A706B8CFB56869196ADCAF00863C12B6B7C374385D14E6907A836A59A41D9F7CA615434B0C8705F7CAA5606D23BA8E84F41278B93AC54100640439DE0BDB320004D43C63716C7C399D30917DCFBBA9CD9BA8469F5B156168B24CED3F7248AC8769F27244EB73B92EED8862C
310
B7F13E0C179B3C8F979C8ECD82BBBABDAA2BAC924E9558448CBD9330242CFA08E3154B5651FCC6D215639C8EE5774DBE2B5F6CF2B5768B68963BB5F5588420E442FC700B1139D4CB01F450C1E918227C2E09DF070D8140C84E1E9AAB8F1340832A9CB13130A5F1376A908D57309505ECF2A0DF179C4E9D30F5B239B87E3823
310
7A79C6F31DE1A8A5AEC08474B03C7837EAE4938639B44E5932B833D2C6B6B279CDC613877FA26EE21F4A2A4C63EC7F29A2F301D1F9F7A0E37D145F504B0304140006080800CC70623B9C113CC27E0000009D0000000B0000006662782F636E782E786D6C4DCCDF0A83201C86E15B91DFB94BFB330DD428C8FB886521330DA7
310
6397BF1A1DECE883878F57749FCDA1B7892F1BBC047A23808C7F84D9FA55424E0BE6803A256208E9EF06C84F9B91703228B1C690F78B66B34CD9A5439DF5CF0BFBF65E35BCA1B8D6A5C6F540381E886698B5741C695F9503EBA150A2F8958E3DC3EA0B504B0304140006080800CC70623B7DF2F77C2A010000120200003100
310
00006662782F41393633353835312D344632462D344230382D423046372D3739314545314133324237412F636F72652E786D6C8D51DB8EC22014FC15C2939B0D2DB4B45643319AE817EC0F6041255A68B86CFCFC856D4D76DF7CE190393373060EDB3DC707F856CE6B6B7A480A0C81328395DA5C7B18C3057510EC3873D686
310
3F34088C18550F330C39BB3A1BA7051AAC09CA84841A2BD5020AEF55806078A44B0FFD7053A328440C89E1EFC52486BBB8AA8214A99D789CF9E05200300FC927E4FB4D5B375D43103D5527440FB843077C5AA3F5861C8F645F5787F59E95B390B318B55CE45AA638FAA2957BD7248B390B7A7CC51F9C124149C82B8C378810
310
84AB2F42B7B8DD56F413775B8C5999E9FF4471926F8AA236A1AE96B8B3CC434E5839373893369E1FAF30EA395917409EB7F26AF8801C171837A4A6AC9C89E9F9C9B1A58BA30FD6A5EF5DDDCF894B9AD9B6A59C957943A9FCAE2FD5BC4DFE03504B0304140006080800CC70623BAD7543B64E01000033030000300000006662
310
782F41393633353835312D344632462D344230382D423046372D3739314545314133324237412F636E782E786D6CD593CD6EC32010845F0571AD6CE3D48AD20813A9873E410FBD12D82434182C7EAAE6EDBB2424CD25871E7B41D6EC30B3FA84F9E67BB2E40B4234DE8DB46F1925E094D7C6ED479AD3AE5951B2113C789FEE
310
6C943839C1488B4C05DF079FE72A69D8C96C13AAD6B8631503449F83828872B949AC57D26200B826A308D316B4064D6E46FCDA41C05550DC9E483A00797BFD207EFB092A45DE9514C1BBD22178396BD39D891265658C238DEA00936C654E5E433CB65A26D9F6EDB5EBC14EBF49A45CB856E66048291F6939A9A81BB5C89177
310
38143CA680F4AA299D66A042CEB3354A2684DC9D8D178FE0D9B8B41CAAD720F880EE7EF93C0C18769E099ECC04D5A102C8049A8A05632F4DDF376CF1DE0F6BB65C2F8627B65A33C6BB62177CEBBDAD973006829F89F22E814B54F4BC2BE347F8AA8F681390B50FA73F804400B5F542E796F19FF974E7F78DB802FE05E20750
310
4B0304140006080800CC70623BE75B7789680500003C100000340000006662782F41393633353835312D344632462D344230382D423046372D3739314545314133324237412F6F626A656374732E786D6CAD575B8F9B3818FD2B887D06C22499CB8AA1CA655245D5B455A356FB305264C061D8018C6C3393D95FBFC7600890
310
A4CD5EF210B0B1BFEBF98E3F7B1FF6596ABC522E1296DF9BAE3D320D9A872C4AF2F8DE2CE5CEBA358D0FBEC719939D65A691938CDE9B6ADAF4BD98B3B2D05311DD91329583D9D5FC0F438434A7A611A644887B5384CF34233629258BA878B12322891DEFF6B66BD70BFB62634E8AE781D082709A4B588AF91C528CDA28B73F
310
1C998EEF39EABBEFA97FBD6A7C7E9553F9D3D79FE442923C3C523610337627CB87ABE99D359D4CC6D6E4FACAB5E6ABF9D2726FC6A3C5F56271377BB88362213924694B38DD99FE47C48627A1E7D49F5A8BB5E1A74C0A599ED3B0F21F1E56366B89112D681E218F0915D0D6F17AD41FBA2A369DCF6335D62ABBD39779D5DDD1
310
11D4D8DE3CBB96B2E04FB8202E41051754A1AA8E8F76B4C6DFE810B580B1547F4B84911149794252234D024EF8BBE963A95AE27B3D310A9D5C215C7960FAEE415ED75694C6AFB17BCACA5D99A60A9AA65F217B0BFC53292ACB92BF283FAD0D3621576592CB5BED907C2FA8E9DF794E35E97BEA31BED21FEB401ABB94C44839
310
DCACBF0E1C5DA8DA5B2F4DFFD32AD86F543D9E565E7056502E157C00AD2671CD534549AB752FCA9CDA00677A313F04E51B22FF19E57B300579E3C97EB29F682D92935CEC18CF901B7B54FD8C51F362B56FC72FE0B3C1EAE335EDCCBF5AEC39ADB17DC238973F804BA5E6F6BFE7AF1FB32E523BE9F3BD571418E3631DCA4D48
310
5250CF639223210A9446CA30052EDF057BD35F8329C1ECD84552BF0DC8D18BE7BCE23BFE6BD960AB4A7DE79923A103BEBD80F911CBAA2C60DB19B01CF164A5583B772EE6D3FFA56666CBCDA74DC97724A48F9A58967497E489C4D979006FD7A05E227A1EBDD0F737C623387A9C844D3709995625106D157315F8B8392CD4E0
310
A0B9A720C4BE9829CEF37EA1E13111214D53925356365ADA634861B52519DD27A00AEB808EAF0628E6F435519D446F45CF2C9CF5214F0A15B2F6D06B79DA3EE3CBF7F56780D2F4E7EF73A0F5E5B02A38D07DC852C6B7C1FBB6664213E0C39E3EBA7FF4E1AD23EA2829407C85E586727488B751B2DB9502BC7B228A3FD68B6E
310
A65A22397E690AA8D158D7E404EC8CDA235CC3B7D1898680131CEC2CDF2638C65196279577750F15884AEE19F94199155B92B13297978469D4F8D358DF0AEF7631E28DC8F0D9F437D5D39A83B2231A1D52D543813A824EF8D44BCFF2FA6A31BD1E8DAD87F1CCB526B3879935BF59CDADD5C37479BB1CDD4CA7B3556B516589
310
EF352754B706114D9C885EC9131DE6EFEB43D99AFE2391C2F958179413D7CFEF6B1B6DB1E7600F00DE6E5C67454A339A4BA2E0FBA85ED26F045D454F463DBFCE484C2F90F2E5E3666003662ED8F755951A7D1BECD5B30B550B2785C8E7320B7292A4838DDA71BBC863ED7613CAF659337A3354231D4FF4A182A54904C2898C
310
98B28C4AD0CE056CCF332A80986E571EE9DBC305BB5FEB7E509220A58D25CF042D712A806AC0AD0C657FDEF80D2D9CEAA2EE4D1C76F60BFE74219A06527D6F82DF6412526107381E55E353090704D085B52408A8913C4ED159D79BDA71BB4BC506F4831350EB6F975CD22D69BF7AC49B91A2C0A9DDA3D5CA36AD20FC478E37
310
E61844E2352865EBCB61A275A65283CAAA9DD27703B4102F5AF51EF5F573B75CBB5AD38BC845F7A49F82A0966A49C2E3EA5EA0ECD326CD965F1DB402C6FA8B51A4658C5C5E2EC9E214602E55810345408596591009A82E7E7FFACA19EEA299B14A0081A705CB3296EBC14CDF658DCD336EA6D1136881AAEB87B81AB9EE53D5
310
F5EB8BC8362082DA24122F98680A4E7930C01A0079749CEA14382A0783E5EBA5A10F8C098456A03D6A4AEB6BB881E2513747552A5DB22C7EDAF83BD5528081A365F7FF06504B0304140006080000CC70623B000000000000000000000000350000006662782F41393633353835312D344632462D344230382D423046372D37
310
39314545314133324237412F76657274696365732E62696E504B0304140006080800CC70623BF270F1330600000004000000360000006662782F41393633353835312D344632462D344230382D423046372D3739314545314133324237412F747269616E676C65732E62696E636660600000504B0304140006080000CC7062
310
3B000000000000000000000000370000006662782F41393633353835312D344632462D344230382D423046372D3739314545314133324237412F617474726962757465732E62696E504B0304140006080800CC70623B08DA0BD19000000041010000360000006662782F41393633353835312D344632462D344230382D4230
310
46372D3739314545314133324237412F6469726563746F72792E786D6C858F410AC3201045AF22B36F53E9A60B35CBEEBAE80D244E44489C6234F4F835464A48035D0DF398FF9F8AF63D0E6CC63039F212F8F9020C7D47C6792B21C5FE7403D62A1188E2E60C98D7234A5830286103A55745067B9D86B8A3CF9C7F90C11DE6
310
07FB144396D7B6A82D282E9A152AD114D5EF2CB866EEE831B8EEA07A7BB5A8D7D61A2BAAEB7FD5F70921FF497D00504B0304140006080800CC70623BEDD1DC58FD000000A00100003B0000006662782F41393633353835312D344632462D344230382D423046372D3739314545314133324237412F7265736F75726365732F
310
636F72652E786D6C8D504B6E833010BD0A9A6D65B00922041947112427E8052C33A156828DFCA97AFC9A40A576D7CDCCE87D344F8F9FBFE667F689CE6B6B3A6039850C8DB2A336530731DC4903D95970676DF82583CCC8193B5861107C72362E3BA4AC096842428D1D7107A5F7182053CF7474E0D507CE32973124857FE48B
310
540F3961CEF244279DE03EB81420DB9EAC1384436FA353E879B1B182C7A8C75DA3C7F453DF353A1075D537A7BA6464B8F535A99AE14A9A2BBD90E350DD183B5CFABE3AF262350B1EF4FC9351399401471025A527C218A1E53BAB5A5AB765F5469B96525EACF23FA6B88CFF34456DC2A1DCE36E360F82A5202F42F062ED2BAD
310
579969AFDD8A6F504B010214000A0000080000CC70623B3DEE336E79000000790000001B00000000000000000000000000000000006175746F6465736B2D64657369676E2D7061636B6167652E786D6C504B01021400140006080800CC70623BD486FD9CA0000000F40000001300000000000000000000000000B20000005B
310
436F6E74656E745F54797065735D2E786D6C504B01021400140006080800CC70623B853B8169EB0000007C010000080000000000000000000000000083010000636F72652E786D6C504B01021400140006080800CC70623B55019EA25F0000007C000000070000000000000000000000000094020000636E782E786D6C504B
310
01021400140006080800CC70623BDBABAAF470010000D40300000C00000000000000000000000000180300006662782F636F72652E786D6C504B01021400140006080800CC70623B9C113CC27E0000009D0000000B00000000000000000000000000B20400006662782F636E782E786D6C504B01021400140006080800CC70
310
623B7DF2F77C2A010000120200003100000000000000000000000000590500006662782F41393633353835312D344632462D344230382D423046372D3739314545314133324237412F636F72652E786D6C504B01021400140006080800CC70623BAD7543B64E010000330300003000000000000000000000000000D2060000
310
6662782F41393633353835312D344632462D344230382D423046372D3739314545314133324237412F636E782E786D6C504B01021400140006080800CC70623BE75B7789680500003C10000034000000000000000000000000006E0800006662782F41393633353835312D344632462D344230382D423046372D3739314545
310
314133324237412F6F626A656374732E786D6C504B01021400140006080000CC70623B0000000000000000000000003500000000000000000000000000280E00006662782F41393633353835312D344632462D344230382D423046372D3739314545314133324237412F76657274696365732E62696E504B01021400140006
310
080800CC70623BF270F133060000000400000036000000000000000000000000007B0E00006662782F41393633353835312D344632462D344230382D423046372D3739314545314133324237412F747269616E676C65732E62696E504B01021400140006080000CC70623B0000000000000000000000003700000000000000
310
000000000000D50E00006662782F41393633353835312D344632462D344230382D423046372D3739314545314133324237412F617474726962757465732E62696E504B01021400140006080800CC70623B08DA0BD1900000004101000036000000000000000000000000002A0F00006662782F41393633353835312D344632
310
462D344230382D423046372D3739314545314133324237412F6469726563746F72792E786D6C504B01021400140006080800CC70623BEDD1DC58FD000000A00100003B000000000000000000000000000E1000006662782F41393633353835312D344632462D344230382D423046372D3739314545314133324237412F7265
310
736F75726365732F636F72652E786D6C504B0506000000000E000E0080040000641100000000
  0
XRECORD
  5
1B2D
102
{ACAD_REACTORS
330
1F7
102
}
330
1F7
100
AcDbXrecord
280
     1
102
MATERIAL
148
0.0
149
0.0
149
0.0
 93
        0
 94
       63
282
     0
 72
     1
 77
     1
171
     1
175
     1
179
     1
273
     0
  0
XRECORD
  5
1F8
102
{ACAD_REACTORS
330
1F7
102
}
330
1F7
100
AcDbXrecord
280
     1
 70
     1
 90
429727718
  1
30362254-06B7-45E0-A893-8CFA70E3D6BC
310
504B03040A0000080000CC70623B3DEE336E79000000790000001B0000006175746F6465736B2D64657369676E2D7061636B6167652E786D6C3C3F786D6C2076657273696F6E3D22312E302220656E636F64696E673D227574662D3822203F3E3C666F726D6174733E3C666F726D61743E687474703A2F2F736368656D612E
310
6175746F6465736B2E636F6D2F64657369676E2D7061636B6167652F323030393C2F666F726D61743E3C2F666F726D6174733E504B0304140006080800CC70623BD486FD9CA0000000F4000000130000005B436F6E74656E745F54797065735D2E786D6C7D8EC10E82300C865F65E91D8A1E8C310C0EEA1BF002731658846E
310
D98AC1B77784ABF1D8FE5FBFBF75BBCE937A534CCEB38643598122B6FEE978D0B0485F9C41B54DDD7D022595594E1A469170414C76A4D9A4D207E29CF43ECE46F218070CC6BECC4078ACAA135ACF422C856C0E68EA1BF5669944DDD7BCDE7B1F8E415D77AECB980613C2E4AC91FC167A2B244592486606FC29C8FD7F045B9A
310
EF7053A7E60B504B0304140006080800CC70623B1EC5D7A3EB0000007C01000008000000636F72652E786D6C8D90416EC3201045AF82665B6103C6756C6122AB4D4ED00B204C5C94182C03558F5F9C3852BBEB6A467FFE9B197D71FC9E6FE8CBACC17AD7032D0820E3B41FAD9B7A48F1820F808E52ACDEC75F36404ECDA687
310
4D0629A6D5A76597B477D1B89855E747B38B2A041301E95B6E7A08FAD3CCAA50296647B8168BD2573599823EBB0CA76447F43862C7BCCF5EAC59410E4DDD9C7973C2755553CCCFA4C603E3040F1565ED3B1FDE4E432BCA0D9622DAF9795FAF464533826484B498524CD807E51D79ED187F21878E10516EF63F505AC67F42C9
310
BA58B1FDDD071640D2FCC87D2045B96591CB3DA85CB7DCE40F504B0304140006080800CC70623B55019EA25F0000007C00000007000000636E782E786D6C4DCB3B0E80201045D1AD90E915ED2CF8AC45050C11660C8261F98AB1B07AC9C97D42D718D865D3E909258CFD00CCE24AC6E326A164D74DC0B4128928FF32603847
310
2BA13128B1252AC747C6BAB984FC68F0B87FE8960A5C09FE86CFB69FBA01504B0304140006080800CC70623B8C9102E971010000D40300000C0000006662782F636F72652E786D6CC5535B6E833010BC8AE5DF0A6C08340F1947A84D4ED00B38C6A128602363A31CBFCB234A53A551FA553EC09AD9F5CE8C31DB9E9B1AF5CA
310
7695D1198E428A91D2D214952E33ECDD315861B4E5CC1AE3BE9561A445A3323CC098B3D21ADFCE9034DA29ED00D5A6503328BA4E398C640D8B0C77F253352214DE4145770A5B214FA2546114020D759C75CE8200340D19DE981F0F6746269C33EFAB6266AB02A655C74A59CCF365BADC27CB5D902ED22848F6340DF238A141
310
BE88E2F57B92BFEDF23523433367AE6A2EEAA455C2A902F398D2751045018D3FA264435F3771F242571B4A1919CA6F9A7C5B3CD9E42BED16F12C776AEB308F40C848FC700B1139D4891EF410CEC810227CC6846F8386402064270EF5C5C709A05E49676C024C61FC95EA45ED154CA5211D1FF4FB8291A913A68E9B83EBBB33
310
E2A7673CDE118E5AE8124C0807CB8377834E366998436B950D7A7746DAD846D4CFD978E0F04FD455FC5D49D2D4C6FE9722321F10997F0F32DC47FE05504B0304140006080800CC70623BFFEA85907E0000009D0000000B0000006662782F636E782E786D6C4DCCD10A83201886E15B91FFDC95D95A811AB6F23E625948A6C3
310
E9D8E5AF46073BFAE0E1E365ED67B3E8ADC3CB78C7815C7240DA3DFC64DCC221C519D7805AC182F7F1EF06C88D9BE6703008B6049F9E274D7A1E938DBB5AE3D6131B2589BA0D3D965551E0B2EA732C9B9A624AAEB41E3A557677029960D9AFB4EF11165F504B0304140006080800CC70623B4FEEA4082C0100001202000031
310
0000006662782F39464131463745442D413632322D343644302D413938332D3331353338454246344243312F636F72652E786D6C8D515B6EC32010BC0AE2AB55850DD871ED0813254D72825EC00192A2C460F1A872FC42ED48ED5F7E00CDCECCCEB26C731F6FE05B39AFADE921293004CA082BB5B9F43086336A21D870E6AC
310
0D7F68109861543DCC30E4ECE26C9C164858139409093556AA051CBC570102714B8F1E7AF1A5C6A11862480C7F2DA6415C878B2A4891CA89C7990F2E050073937C42DE1DB7E4F87ED8A36D4329AA9B3D46DBAEAD504556557BD81DEBDD0761E52CE42C462D17B996298E3E6BE59E35C962CE821E1FF18553435012728A7187
310
0841987E927A8D9B35ADDF70BBC6989599FE4F1427F9A4286A132ABAC49D651EF234CD5CE04CDA78BA3DC2A8FB645D00B9DF8B57E215725C60BCA2A463E54C4CE327C7A65E1C7DB02E7DEFCBF594B864C5CA6CDBD49C957943E9FA5D5FBAF336F90F504B0304140006080800CC70623BAD7543B64E01000033030000300000
310
006662782F39464131463745442D413632322D343644302D413938332D3331353338454246344243312F636E782E786D6CD593CD6EC32010845F0571AD6CE3D48AD20813A9873E410FBD12D82434182C7EAAE6EDBB2424CD25871E7B41D6EC30B3FA84F9E67BB2E40B4234DE8DB46F1925E094D7C6ED479AD3AE5951B2113C
310
789FEE6C943839C1488B4C05DF079FE72A69D8C96C13AAD6B8631503449F83828872B949AC57D26200B826A308D316B4064D6E46FCDA41C05550DC9E483A00797BFD207EFB092A45DE9514C1BBD22178396BD39D891265658C238DEA00936C654E5E433CB65A26D9F6EDB5EBC14EBF49A45CB856E66048291F6939A9A81BB5
310
C8917738143CA680F4AA299D66A042CEB3354A2684DC9D8D178FE0D9B8B41CAAD720F880EE7EF93C0C18769E099ECC04D5A102C8049A8A05632F4DDF376CF1DE0F6BB65C2F8627B65A33C6BB62177CEBBDAD973006829F89F22E814B54F4BC2BE347F8AA8F681390B50FA73F804400B5F542E796F19FF974E7F78DB802FE05
310
E207504B0304140006080800CC70623B16AB87BA640500003C100000340000006662782F39464131463745442D413632322D343644302D413938332D3331353338454246344243312F6F626A656374732E786D6CAD575B6FA33818FD2B887DE6924B3BED8A326A92B68A663B534DD4D13E548A0C38942D60649B369D5FBFC7
310
600890A493BDE42160637FD7F31D7FF63E6FB3D478A55C242CBF3247B66B1A340F5994E4F19559CA8D75611A9F7D8F33263BCB4C232719BD32D5B4E97B316765A1A722BA21652A07B3B7B33F0D11D29C9A46981221AE4C113ED38CD8A4942CA2E2C58E882476BCD9DA23BB5ED8171B73523C0F841684D35CC252CCE79062D4
310
468DFA43D7747CCF51DF7D4FFDEB5593E3AB9CCA9FBEFE241792E4E19EB28198C968BAB8199F5D5A67D3E9C49A9E8F47D6EC76B6B0469F26EEFC7C3EBFBCBEB98462213924694B38DD98FE1D62C393D073EA4FADC5DAF04326852CCF6958F90F0F2B9BB5C48816348F90C7840A68EB78EDF68723159BCEE7891A6B95DDE9D3
310
BCEAEEE8086A6C6F9E5D4B59F0175C10A7A0820BAA5055C7473B5AE3CFDD452D602CD5DF12616444529E90D448938013FE6EFA58AA96F85E4F8C42275708571E98FE6827AF6B2B4AE3D7D83D64E5A64C53054DD3AF90BD06FEA9149565C94FCA0F6B834DC85599E4F2423B24DF0B6AFA979E534DFA9E7A4CC6FA631D486393
310
921829879BF5D781A373557BCB85E97FB90DB62B558F8795179C15944B051F40AB495CF35451D26A4727654E6D8033BD98EF82F21D91FF8AF2DD9982BCF1643BDD4EB516C9492E368C67C88DED563FC36D5EACF66DFF057C3658BDBFA69DF9578B3DA735B64F18C7F20770A9D45CFCF7FCF563D6456A277DBEF78A02637CA2
310
43B90A490AEAB94F72244481D24819A6C0E59B606BFA4B3025981DBB48EAB701D97BF19C577CC77F2D1B6C55A9EF3C732474C0B727303F625995056C3B02963D9EAC146BE78EC5FCEC7FA999EBC5EACBAAE41B12D27B4D2C0BBA49F244E2ECDC81B76B502F113D8F5EE8FB1BE3111CDD4FC2AA9B844CAB1288B68AB90A7CDC
310
1C166AB0D3DC5310625FCC14E779BFD0709F8890A629C9292B1B2DED31A4B0DA928CEE135085754027E3018A397D4D5427D15BD1330B677DC8934285AC3DF45A9EB68FF8F2B8FC0A509AFEECFD0FF2DE25CC6047F7214B195F07EFEB9A094D800F7BFAE8FED187B78EA8A3A400F115961BCAD1215E47C966530AF0EE8128FE
310
58CEBB996A8964FFA529A046635D9353B0336A8F700DDF46271A024E70B0B37C9DE01847591E54DED53D54202AB947E4076556AC49C6CA5C9E1226B7F1A7B1BE15DEED62C41B91E1B3E9AFAAA735036547343A925075041DF0A9979E893B391F8FCFA6967B3EFB644DCF6E5CEBFAE272625DCC6FAF3FB93793C5F90CE1EF57
310
407342756B10D1C489E8953CD1617E5CEECAD6F4EF8914CE5D5D504E5C3F1F9736DA62CFC11E00BCDDB8CC8A9466349744C1F75EBDA4DF09BA8A9E8C7A7E9991989E20E5DBDD6A6003664ED8F7A04A8DBE0DF6EAD9B9AA858342E47399053949D2C146EDB85DE4B176BB0965FBAC19BD19AA918E27FA50C1D22402E144464C
310
59462568E704B6E71915404CB72B8FF4EDE184DDAF753F284990D2C6926782963815403548A70C657FDEF80D2D9CEAA2AE4C1C76F60BFE74219A06527D6582DF6412526107381E55E353090704D085B52408D0933C4ED159D79BDA71BB4BC506F4831350EB6F979CD22D69BF7AC49B91A2C0A9DDA3D5CA36AD20FC478E37E6
310
1844E2352865EBCB6EA275A652E3836BE04EFB400BF1A2556F515F1FBB35B2AB35BD889C744FFA1004B5544B121E57F70215746DD2F5E2C1412B602CBF19455AC6C8E5E9922C4E01E65215385004546899059180EAFCF7A707CE7017CD8CDB0410789AB32C63B91E5CEBBBACB17AC6CD347A022D5075FD106377347AAABA7E
310
7D11590744509B44E205134DC1290F06580320F78E537D3D73540E06CB970B431F185308AD40BBD794D6D77003C5A36E8EAA54BA64597CD8F83BD552A080A365F7FF06504B0304140006080000CC70623B000000000000000000000000350000006662782F39464131463745442D413632322D343644302D413938332D3331
310
353338454246344243312F76657274696365732E62696E504B0304140006080800CC70623BF270F1330600000004000000360000006662782F39464131463745442D413632322D343644302D413938332D3331353338454246344243312F747269616E676C65732E62696E636660600000504B0304140006080000CC70623B
310
000000000000000000000000370000006662782F39464131463745442D413632322D343644302D413938332D3331353338454246344243312F617474726962757465732E62696E504B0304140006080800CC70623B08DA0BD19000000041010000360000006662782F39464131463745442D413632322D343644302D413938
310
332D3331353338454246344243312F6469726563746F72792E786D6C858F410AC3201045AF22B36F53E9A60B35CBEEBAE80D244E44489C6234F4F835464A48035D0DF398FF9F8AF63D0E6CC63039F212F8F9020C7D47C6792B21C5FE7403D62A1188E2E60C98D7234A5830286103A55745067B9D86B8A3CF9C7F90C11DE607
310
FB144396D7B6A82D282E9A152AD114D5EF2CB866EEE831B8EEA07A7BB5A8D7D61A2BAAEB7FD5F70921FF497D00504B0304140006080800CC70623B0D6EF93BFE000000A00100003B0000006662782F39464131463745442D413632322D343644302D413938332D3331353338454246344243312F7265736F75726365732F63
310
6F72652E786D6C8D50596E833010BD0A9ADFCA60B334011947A8694ED00B586642AC041B79A97AFC9A40A5F6AF3F33A3B7689E1E3F7DCD8FEC139DD7D6F4C0720A191A65476DA61E62B892236427C19DB5E1970C322367EC618541F0C9D9B8EC90B226A009093576C41D94DE63804C3DD2D18357379C652E63480A7FCF17A9
310
EE72C29CE5894E3AC17D702940B63D59270887DE46A7D0F36263058F518FBB468FE9A7BE6A7420864373B8D4873369AA8691FA421B3294352543C5CAF65C0F6FEF43CB8BD52C78D0F34F46E550061C419494B6843142CB0F5677F4B52BEB177AEC28E5C52AFF638ACBF84F53D42654E51E77B379102C05791282176B5F693D
310
CB4C7BED567C03504B010214000A0000080000CC70623B3DEE336E79000000790000001B00000000000000000000000000000000006175746F6465736B2D64657369676E2D7061636B6167652E786D6C504B01021400140006080800CC70623BD486FD9CA0000000F40000001300000000000000000000000000B20000005B
310
436F6E74656E745F54797065735D2E786D6C504B01021400140006080800CC70623B1EC5D7A3EB0000007C010000080000000000000000000000000083010000636F72652E786D6C504B01021400140006080800CC70623B55019EA25F0000007C000000070000000000000000000000000094020000636E782E786D6C504B
310
01021400140006080800CC70623B8C9102E971010000D40300000C00000000000000000000000000180300006662782F636F72652E786D6C504B01021400140006080800CC70623BFFEA85907E0000009D0000000B00000000000000000000000000B30400006662782F636E782E786D6C504B01021400140006080800CC70
310
623B4FEEA4082C0100001202000031000000000000000000000000005A0500006662782F39464131463745442D413632322D343644302D413938332D3331353338454246344243312F636F72652E786D6C504B01021400140006080800CC70623BAD7543B64E010000330300003000000000000000000000000000D5060000
310
6662782F39464131463745442D413632322D343644302D413938332D3331353338454246344243312F636E782E786D6C504B01021400140006080800CC70623B16AB87BA640500003C1000003400000000000000000000000000710800006662782F39464131463745442D413632322D343644302D413938332D3331353338
310
454246344243312F6F626A656374732E786D6C504B01021400140006080000CC70623B0000000000000000000000003500000000000000000000000000270E00006662782F39464131463745442D413632322D343644302D413938332D3331353338454246344243312F76657274696365732E62696E504B01021400140006
310
080800CC70623BF270F133060000000400000036000000000000000000000000007A0E00006662782F39464131463745442D413632322D343644302D413938332D3331353338454246344243312F747269616E676C65732E62696E504B01021400140006080000CC70623B0000000000000000000000003700000000000000
310
000000000000D40E00006662782F39464131463745442D413632322D343644302D413938332D3331353338454246344243312F617474726962757465732E62696E504B01021400140006080800CC70623B08DA0BD190000000410100003600000000000000000000000000290F00006662782F39464131463745442D413632
310
322D343644302D413938332D3331353338454246344243312F6469726563746F72792E786D6C504B01021400140006080800CC70623B0D6EF93BFE000000A00100003B000000000000000000000000000D1000006662782F39464131463745442D413632322D343644302D413938332D3331353338454246344243312F7265
310
736F75726365732F636F72652E786D6C504B0506000000000E000E0080040000641100000000
  0
XRECORD
  5
1B2F
102
{ACAD_REACTORS
330
173
102
}
330
173
100
AcDbXrecord
280
     1
102
MATERIAL
148
0.0
149
0.0
149
0.0
 93
        0
 94
       63
282
     0
 72
     1
 77
     1
171
     1
175
     1
179
     1
273
     0
  0
XRECORD
  5
175
102
{ACAD_REACTORS
330
173
102
}
330
173
100
AcDbXrecord
280
     1
270
     1
271
     1
  0
XRECORD
  5
174
102
{ACAD_REACTORS
330
173
102
}
330
173
100
AcDbXrecord
280
     1
270
     1
271
     1
  0
XRECORD
  5
1FB
102
{ACAD_REACTORS
330
173
102
}
330
173
100
AcDbXrecord
280
     1
 70
     0
 90
1673772943
  1
ECE7A1D2-D628-4531-984C-D00F80459256
310
504B03040A0000080000CC70623B3DEE336E79000000790000001B0000006175746F6465736B2D64657369676E2D7061636B6167652E786D6C3C3F786D6C2076657273696F6E3D22312E302220656E636F64696E673D227574662D3822203F3E3C666F726D6174733E3C666F726D61743E687474703A2F2F736368656D612E
310
6175746F6465736B2E636F6D2F64657369676E2D7061636B6167652F323030393C2F666F726D61743E3C2F666F726D6174733E504B0304140006080800CC70623BD486FD9CA0000000F4000000130000005B436F6E74656E745F54797065735D2E786D6C7D8EC10E82300C865F65E91D8A1E8C310C0EEA1BF002731658846E
310
D98AC1B77784ABF1D8FE5FBFBF75BBCE937A534CCEB38643598122B6FEE978D0B0485F9C41B54DDD7D022595594E1A469170414C76A4D9A4D207E29CF43ECE46F218070CC6BECC4078ACAA135ACF422C856C0E68EA1BF5669944DDD7BCDE7B1F8E415D77AECB980613C2E4AC91FC167A2B244592486606FC29C8FD7F045B9A
310
EF7053A7E60B504B0304140006080800CC70623BD9DDAED0EC0000007C01000008000000636F72652E786D6C8D90416EC3201045AF82665B61836D9CD8C2444DD39CA01740405C94182C03558F5F9C3852BBEB6A467FFE9B197D7EF89E6EE8CB2CC17A37002D0820E394D7D68D03A478C17B4007C117EFE32F1B20272733C0
310
2A83E0E3E2D3BC49CABB685CCCAAF3DA6CA20CC14440EA969B0182FA34932C648AD911AEC52CD5558EA6A0CF2EC329598D1E47ACCEFBECC59A050463A7EA5833865FEBDD0E37353BE3EE8DBDE3F6786A48D375FBF6CC78B9C282473B3DEFABC5C86834888A900E538A49F5419B9EB47DD5BC907D4F082F57FB1F28CDFA9F50
310
B22ED6D5F6EE030B20687EE43E10BC5CB3C8E51E54AE6B6EE207504B0304140006080800CC70623B55019EA25F0000007C00000007000000636E782E786D6C4DCB3B0E80201045D1AD90E915ED2CF8AC45050C11660C8261F98AB1B07AC9C97D42D718D865D3E909258CFD00CCE24AC6E326A164D74DC0B4128928FF326038
310
472BA13128B1252AC747C6BAB984FC68F0B87FE8960A5C09FE86CFB69FBA01504B0304140006080800CC70623BA24EB22D72010000D40300000C0000006662782F636F72652E786D6CC5535B6E833010BC8AE5DF0A6C5E49888CA3A6694ED00B38E05014B091B1518EDFE511A5A9D228FD2A1F60CDEC7A67C6986DCE4D8D7A
310
69BA4AAB0C073EC548AA5C17952A33ECECD15B61B4E1CC686DBF9561A44423333CC098B3D268D7CE50AE9595CA02AA74216750749DB418E5352C32DCE59FB211BE70162ABA93DF8AFC244AE9073ED050C759670D0840D390E18DF9F1706664C23973AE2A66B62A605A75ACA4C13C4976E1364A12EF355A2EBD384AF65EFA96
310
BC7B8BED2EA6719AAE16FB8491A199335B351775B991C2CA02F390D2D40B028F861F41BCA68B7518BFD0D59A524686F29B26D7164F36B94AD9289CE54E6D1DE6010819891F6E21228B3AD1831EC219194284CF98F06DD01008846CC5A1BEF83801D4CBDC6A1303536877A57A513B0953A94FC707FDBE6064EA84A9E3E6E0FA
310
EE8CF0E9198F7784A316AA0413C2C2F2E0ECA0934D1AE6D05A69BCDE9E91D2A611F573361E38FC1375157F5752AE6B6DFE4B11990F88CCBF0719EE23FF02504B0304140006080800CC70623B408A7D3B7C0000009D0000000B0000006662782F636E782E786D6C4DCCD10A83201886E15B91FFDC552A92A0064DBC8F581632
310
D3703A76F9ABD1C18E3E78F878E5F0D9027ABBFCF2292AE86E2D20171F69F6715550CB827B40839639A5F2770314A7CD293819B45C73AAFB45B35BA61ACAA1C1C7E7855C58C15BC331339661262CC762340413D68D77DA5B42298546CBE6573AF60CEB2F504B0304140006080800CC70623B449FB9BD290100001202000031
310
0000006662782F36394639363044362D344446342D343946362D394244322D3234314243333846323333332F636F72652E786D6C8D515B6EC32010BC0AE22B55850D98B871848994463E412FE002495162B07854397EA176A4F62F3F2C9A9D991D587EB84F37F0AD7D30CEF6905418026DA553C65E7A98E219ED203808EE9D
310
8B7F6810D871D23D2C3014FCE25D9A57483A1BB58D19B54EE9151C43D0110279CB971E06F9A5A7B11A53CC8C70ADE6515EC78BAE4895DB992778883E0700CB907242D17643D7E2538BD869608875438BBAE38922CAC8F1BDD90DB4691A5E2F42C153326A951B95E398B3D1FE599322163C9AE9115F7A3D46ADA0A018778810
310
84E907617BDCEE297BC5BB3DC6BC2EF47FA234AB2745C9D8D8D035EE220B50105E2F0DC1954B9FB747187D9F9D8FA0CCDB042D5FA0C015C65B42DF78BD10F3F3B363CB56C7109DCFDFBBB97E662ED92EB62D13BC2E1BCAE5777DB9966D8A1F504B0304140006080800CC70623BAD7543B64E01000033030000300000006662
310
782F36394639363044362D344446342D343946362D394244322D3234314243333846323333332F636E782E786D6CD593CD6EC32010845F0571AD6CE3D48AD20813A9873E410FBD12D82434182C7EAAE6EDBB2424CD25871E7B41D6EC30B3FA84F9E67BB2E40B4234DE8DB46F1925E094D7C6ED479AD3AE5951B2113C789FEE
310
6C943839C1488B4C05DF079FE72A69D8C96C13AAD6B8631503449F83828872B949AC57D26200B826A308D316B4064D6E46FCDA41C05550DC9E483A00797BFD207EFB092A45DE9514C1BBD22178396BD39D891265658C238DEA00936C654E5E433CB65A26D9F6EDB5EBC14EBF49A45CB856E66048291F6939A9A81BB5C89177
310
38143CA680F4AA299D66A042CEB3354A2684DC9D8D178FE0D9B8B41CAAD720F880EE7EF93C0C18769E099ECC04D5A102C8049A8A05632F4DDF376CF1DE0F6BB65C2F8627B65A33C6BB62177CEBBDAD973006829F89F22E814B54F4BC2BE347F8AA8F681390B50FA73F804400B5F542E796F19FF974E7F78DB802FE05E20750
310
4B0304140006080800CC70623B8D05915C650500003B100000340000006662782F36394639363044362D344446342D343946362D394244322D3234314243333846323333332F6F626A656374732E786D6CAD575B6FA33814FE2B887D06429276DA1565D4266D158D3A339A6846FB502932E050B66023DB74D2FDF5FB190C01
310
9276B2973C046C8ECFF53B17071F77456EBD502133CEAE6CDF9DD81665314F32965ED995DA3A17B6F5310C04E7AA47665B8C14F4CAD6DB7618A48257A5D94AE89654B91AEDDEDDFC61C998326A5B714EA4BCB265FC440BE2924AF184CA6737218AB8E976E7FA6E4338649B0A523E8D98964450A6A029F619B8588D52FE7039
310
B1BD30F0F4F730D0FF866AF6369557DB33949F31A9088B0F848DD8CCFCF9F2767A76E99CCDE733677E3EF59D9BBB9BA5E37F984D16E78BC5E5F5ED25044B25C0C96822E8D60EEFE11B91C581D77CEA34368A1F5329E68CD1B8B61F16D63A1B8E092D294B10C78C4A48EB593D192E7DED9BDEE7995E1B91FDEDD3ACEA9FE831
310
6A756F9F7D4D79F4274C90A7A04248AA51D5F8C718DAE06FB2F75AC4796EBE65D22A88A22223B995679120E2D50E41AA49C260C046A35368846B0BECD0DFF3EBEB8AD4F835768F69B9ADF25C43D30E6B646F807FAA64AD59F61715C7A54127C4AACA98BA3006A9D792DAE165E0D59B61A01FB3A9F9D838D2DAE62445C86166
310
F37564E842E7DE6A69879FEEA2DD5AE7E371E1A5E025154AC307D06A03D73EB5978C58FFA4C8E9033066E0F3BD53BEC1F39F91BE7B55103791EDE6BBB991A2046172CB4581D8B893FA674DDA17A77B3B7C413D1B511FD2743BFF8A38F03A658705E3ADF8015C3A3417FF3D7E439FF591DA0B5F18BC20C1B8981957AE6392A3
310
F43C640C01D1A0B4728E2DD4F26DB4B3C3152A252A3B4E913CEC1C72F012782FF88EFF8637AA552DBEF76408E8A8DE9E50F9E1CB3A2DA0DB1B6039A893B56063DC5B3E3FFB5F72E67AB9FEB4AEC496C4F4C1149625DD662C53E89D7BF0F6151A046260D1337DFDC94502430F83B0EE07A130A224BCAD7DAE1D9FB6CD422FF6
310
920702629C4BB9AE79C12F243C6432A6794E18E5552BA56B431AAB5D91317302B2B071E86C3A42B1A02F999E24061403B5D0EB639195DA655DD3EBEAB4FB862DDF579F014AD0E73C22F99E28DA57FB98E75C6CA2D74D53086D600F4786E0FE3144B771A8A7B900F03594DB8A633CBC49B2EDB69228BB479CF863B5E807AAAB
310
23872F6DFEB4129B949CA33823F58830E86D65621E10047D9DB34D862E8EAC3C2ABC2F7B2C40D67CDFE01F5545B92105AF983AC54D93D69E56FB8E797F88913F898A9FEC705D3F9D1B54EC8426FB500D40A03BD0119B06E1B95DDC7EB8F6975367793EBD70E66733DFB9BC982F9CE564727731999F5D4ECFCE3B8D6A4DC2A0
310
6D50FD148437D110834A64C6CDDF57FBACB5C307A2A477DFE4939736CFEF2B175371E0E10CF0DD1D5C15654E0BCA14D1E87DD02FF93782A162C0A3D95F1524A52770F972BF1EE9809D13CE7DD599467F8ECE9ADD85CE85A34CD45355448C64F9E8A031DC2D596ACC6E5DD93D9B82DE2EF5CAF81363A8E47996A0DE24564A79
310
4115AACE09C55E14540231FDA13C319787134EBF34E3A022514E5B4D9E0826E25C02D5805B15ABE1BEF51B26383D445DD9E875EE33FE4C22DA16427D65A3BCA92CA6D28DD01DF5DC53330704308475351050232CCD31583787BA75774AFB06E5070DD0C8EF484E19968C5D83BA5B90B244D31E54D55A372320FE4786B7EA58
310
44E135AA5467CB7EA333A61683CC6A8C3257034C10CF46F40EF9F5BE59BE5BD30C3C72D235E95D10345C1D45445A5F0BB47E46A5EBE5570F9380B5FA629579952296A773720405982B9DE04011506178964401AA8BDF1FBF0A8EAB6861DD6580C0E38217056766716DAEB2D6FA0917D3E4116581EADB879C4E7CFFB11EFACD
310
3D641311495D92C8676CB409A72D18610D803CE8A626049E8EC1887CB5B44CC39883690DDA8399B4B9855B481E7D71D4A9D22F96E5BB73BF5793020C02137BF837504B0304140006080000CC70623B000000000000000000000000350000006662782F36394639363044362D344446342D343946362D394244322D32343142
310
43333846323333332F76657274696365732E62696E504B0304140006080800CC70623BF270F1330600000004000000360000006662782F36394639363044362D344446342D343946362D394244322D3234314243333846323333332F747269616E676C65732E62696E636660600000504B0304140006080000CC70623B0000
310
00000000000000000000370000006662782F36394639363044362D344446342D343946362D394244322D3234314243333846323333332F617474726962757465732E62696E504B0304140006080800CC70623B08DA0BD19000000041010000360000006662782F36394639363044362D344446342D343946362D394244322D
310
3234314243333846323333332F6469726563746F72792E786D6C858F410AC3201045AF22B36F53E9A60B35CBEEBAE80D244E44489C6234F4F835464A48035D0DF398FF9F8AF63D0E6CC63039F212F8F9020C7D47C6792B21C5FE7403D62A1188E2E60C98D7234A5830286103A55745067B9D86B8A3CF9C7F90C11DE607FB14
310
4396D7B6A82D282E9A152AD114D5EF2CB866EEE831B8EEA07A7BB5A8D7D61A2BAAEB7FD5F70921FF497D00504B0304140006080800CC70623BCA768048FE000000A00100003B0000006662782F36394639363044362D344446342D343946362D394244322D3234314243333846323333332F7265736F75726365732F636F72
310
652E786D6C8D50596E833010BD0A9ADFCA60D600328E9AA639412F609909B1126CE4A5EAF16B0295DABFFECC8CDEA2797AECF8353F924FB44E193D409E5248504B332A3D0D10FC95B4901C39B3C6F85F3248B49871801506CE266BC2B243D2688FDA47549B11775038871E12F988C7004EDE7016A9083E2ADC3D5D84BC8B09
310
D33C8D74D471E6BC8D0192EDC93A815B742658898E651BCB59086ADC356A8C3FD555A1055ED7E7E254D615792D0F075295F585746FF53B694EE78A565DD736979A65AB9933AFE69F8CD2A2F038022F28ED489E135A7CE4554F9BBEA85E68DB53CAB255FEC71496F19FA6A0B42F8B3DEE6673C0F318E4497096AD7DC5F52C33
310
EEB55BFE0D504B010214000A0000080000CC70623B3DEE336E79000000790000001B00000000000000000000000000000000006175746F6465736B2D64657369676E2D7061636B6167652E786D6C504B01021400140006080800CC70623BD486FD9CA0000000F40000001300000000000000000000000000B20000005B436F
310
6E74656E745F54797065735D2E786D6C504B01021400140006080800CC70623BD9DDAED0EC0000007C010000080000000000000000000000000083010000636F72652E786D6C504B01021400140006080800CC70623B55019EA25F0000007C000000070000000000000000000000000095020000636E782E786D6C504B0102
310
1400140006080800CC70623BA24EB22D72010000D40300000C00000000000000000000000000190300006662782F636F72652E786D6C504B01021400140006080800CC70623B408A7D3B7C0000009D0000000B00000000000000000000000000B50400006662782F636E782E786D6C504B01021400140006080800CC70623B
310
449FB9BD290100001202000031000000000000000000000000005A0500006662782F36394639363044362D344446342D343946362D394244322D3234314243333846323333332F636F72652E786D6C504B01021400140006080800CC70623BAD7543B64E010000330300003000000000000000000000000000D20600006662
310
782F36394639363044362D344446342D343946362D394244322D3234314243333846323333332F636E782E786D6C504B01021400140006080800CC70623B8D05915C650500003B10000034000000000000000000000000006E0800006662782F36394639363044362D344446342D343946362D394244322D32343142433338
310
46323333332F6F626A656374732E786D6C504B01021400140006080000CC70623B0000000000000000000000003500000000000000000000000000250E00006662782F36394639363044362D344446342D343946362D394244322D3234314243333846323333332F76657274696365732E62696E504B010214001400060808
310
00CC70623BF270F13306000000040000003600000000000000000000000000780E00006662782F36394639363044362D344446342D343946362D394244322D3234314243333846323333332F747269616E676C65732E62696E504B01021400140006080000CC70623B00000000000000000000000037000000000000000000
310
00000000D20E00006662782F36394639363044362D344446342D343946362D394244322D3234314243333846323333332F617474726962757465732E62696E504B01021400140006080800CC70623B08DA0BD190000000410100003600000000000000000000000000270F00006662782F36394639363044362D344446342D
310
343946362D394244322D3234314243333846323333332F6469726563746F72792E786D6C504B01021400140006080800CC70623BCA768048FE000000A00100003B000000000000000000000000000B1000006662782F36394639363044362D344446342D343946362D394244322D3234314243333846323333332F7265736F
310
75726365732F636F72652E786D6C504B0506000000000E000E0080040000621100000000
  0
XRECORD
  5
176
102
{ACAD_REACTORS
330
173
102
}
330
173
100
AcDbXrecord
280
     1
270
     1
271
     1
  0
XRECORD
  5
177
102
{ACAD_REACTORS
330
173
102
}
330
173
100
AcDbXrecord
280
     1
270
     1
271
     1
  0
XRECORD
  5
1B51
102
{ACAD_REACTORS
330
1B50
102
}
330
1B50
100
AcDbXrecord
280
     1
102
ACAD_ROUNDTRIP_2012_MLEADER_STYLE
298
     1
  0
XRECORD
  5
1B63
102
{ACAD_REACTORS
330
1B62
102
}
330
1B62
100
AcDbXrecord
280
     1
102
DISPLAYNAME
  1
Metric50
102
FLAGS
 90
        0
  0
CELLSTYLEMAP
  5
1B23
102
{ACAD_REACTORS
330
162
102
}
330
162
100
AcDbCellStyleMap
 90
        3
300
CELLSTYLE
  1
TABLEFORMAT_BEGIN
 90
        5
170
     1
 91
        0
 92
    32768
 62
   257
 93
        1
300
CONTENTFORMAT
  1
CONTENTFORMAT_BEGIN
 90
        0
 91
        0
 92
      512
 93
        0
300

 40
0.0
140
1.0
 94
        5
 62
     0
340
11
144
6.0
309
CONTENTFORMAT_END
171
     1
301
MARGIN
  1
CELLMARGIN_BEGIN
 40
1.5
 40
1.5
 40
1.5
 40
1.5
 40
4.5
 40
4.5
309
CELLMARGIN_END
 94
        6
 95
        1
302
GRIDFORMAT
  1
GRIDFORMAT_BEGIN
 90
        0
 91
        1
 62
     0
 92
       -2
340
14
 93
        0
 40
1.125
309
GRIDFORMAT_END
 95
        2
302
GRIDFORMAT
  1
GRIDFORMAT_BEGIN
 90
        0
 91
        1
 62
     0
 92
       -2
340
14
 93
        0
 40
1.125
309
GRIDFORMAT_END
 95
        4
302
GRIDFORMAT
  1
GRIDFORMAT_BEGIN
 90
        0
 91
        1
 62
     0
 92
       -2
340
14
 93
        0
 40
1.125
309
GRIDFORMAT_END
 95
        8
302
GRIDFORMAT
  1
GRIDFORMAT_BEGIN
 90
        0
 91
        1
 62
     0
 92
       -2
340
14
 93
        0
 40
1.125
309
GRIDFORMAT_END
 95
       16
302
GRIDFORMAT
  1
GRIDFORMAT_BEGIN
 90
        0
 91
        1
 62
     0
 92
       -2
340
14
 93
        0
 40
1.125
309
GRIDFORMAT_END
 95
       32
302
GRIDFORMAT
  1
GRIDFORMAT_BEGIN
 90
        0
 91
        1
 62
     0
 92
       -2
340
14
 93
        0
 40
1.125
309
GRIDFORMAT_END
309
TABLEFORMAT_END
  1
CELLSTYLE_BEGIN
 90
        1
 91
        1
300
_TITLE
309
CELLSTYLE_END
300
CELLSTYLE
  1
TABLEFORMAT_BEGIN
 90
        5
170
     1
 91
        0
 92
        0
 62
   257
 93
        1
300
CONTENTFORMAT
  1
CONTENTFORMAT_BEGIN
 90
        0
 91
        0
 92
      512
 93
        0
300

 40
0.0
140
1.0
 94
        5
 62
     0
340
11
144
4.5
309
CONTENTFORMAT_END
171
     1
301
MARGIN
  1
CELLMARGIN_BEGIN
 40
1.5
 40
1.5
 40
1.5
 40
1.5
 40
4.5
 40
4.5
309
CELLMARGIN_END
 94
        6
 95
        1
302
GRIDFORMAT
  1
GRIDFORMAT_BEGIN
 90
        0
 91
        1
 62
     0
 92
       -2
340
14
 93
        0
 40
1.125
309
GRIDFORMAT_END
 95
        2
302
GRIDFORMAT
  1
GRIDFORMAT_BEGIN
 90
        0
 91
        1
 62
     0
 92
       -2
340
14
 93
        0
 40
1.125
309
GRIDFORMAT_END
 95
        4
302
GRIDFORMAT
  1
GRIDFORMAT_BEGIN
 90
        0
 91
        1
 62
     0
 92
       -2
340
14
 93
        0
 40
1.125
309
GRIDFORMAT_END
 95
        8
302
GRIDFORMAT
  1
GRIDFORMAT_BEGIN
 90
        0
 91
        1
 62
     0
 92
       -2
340
14
 93
        0
 40
1.125
309
GRIDFORMAT_END
 95
       16
302
GRIDFORMAT
  1
GRIDFORMAT_BEGIN
 90
        0
 91
        1
 62
     0
 92
       -2
340
14
 93
        0
 40
1.125
309
GRIDFORMAT_END
 95
       32
302
GRIDFORMAT
  1
GRIDFORMAT_BEGIN
 90
        0
 91
        1
 62
     0
 92
       -2
340
14
 93
        0
 40
1.125
309
GRIDFORMAT_END
309
TABLEFORMAT_END
  1
CELLSTYLE_BEGIN
 90
        2
 91
        1
300
_HEADER
309
CELLSTYLE_END
300
CELLSTYLE
  1
TABLEFORMAT_BEGIN
 90
        5
170
     1
 91
        0
 92
        0
 62
   257
 93
        1
300
CONTENTFORMAT
  1
CONTENTFORMAT_BEGIN
 90
        0
 91
        0
 92
      512
 93
        0
300

 40
0.0
140
1.0
 94
        2
 62
     0
340
11
144
4.5
309
CONTENTFORMAT_END
171
     1
301
MARGIN
  1
CELLMARGIN_BEGIN
 40
1.5
 40
1.5
 40
1.5
 40
1.5
 40
4.5
 40
4.5
309
CELLMARGIN_END
 94
        6
 95
        1
302
GRIDFORMAT
  1
GRIDFORMAT_BEGIN
 90
        0
 91
        1
 62
     0
 92
       -2
340
14
 93
        0
 40
1.125
309
GRIDFORMAT_END
 95
        2
302
GRIDFORMAT
  1
GRIDFORMAT_BEGIN
 90
        0
 91
        1
 62
     0
 92
       -2
340
14
 93
        0
 40
1.125
309
GRIDFORMAT_END
 95
        4
302
GRIDFORMAT
  1
GRIDFORMAT_BEGIN
 90
        0
 91
        1
 62
     0
 92
       -2
340
14
 93
        0
 40
1.125
309
GRIDFORMAT_END
 95
        8
302
GRIDFORMAT
  1
GRIDFORMAT_BEGIN
 90
        0
 91
        1
 62
     0
 92
       -2
340
14
 93
        0
 40
1.125
309
GRIDFORMAT_END
 95
       16
302
GRIDFORMAT
  1
GRIDFORMAT_BEGIN
 90
        0
 91
        1
 62
     0
 92
       -2
340
14
 93
        0
 40
1.125
309
GRIDFORMAT_END
 95
       32
302
GRIDFORMAT
  1
GRIDFORMAT_BEGIN
 90
        0
 91
        1
 62
     0
 92
       -2
340
14
 93
        0
 40
1.125
309
GRIDFORMAT_END
309
TABLEFORMAT_END
  1
CELLSTYLE_BEGIN
 90
        3
 91
        2
300
_DATA
309
CELLSTYLE_END
  0
XRECORD
  5
1B28
102
{ACAD_REACTORS
330
162
102
}
330
162
100
AcDbXrecord
280
     1
102
ACAD_ROUNDTRIP_PRE2007_TABLESTYLE
 90
      512
 91
        0
  1

 92
      512
 93
        0
  2

 94
      512
 95
        0
  3

  0
XRECORD
  5
1B3B
102
{ACAD_REACTORS
330
1B3A
102
}
330
1B3A
100
AcDbXrecord
280
     1
102
RTVSPost2010Prop28
280
     1
102
RTVSPost2010PropOp28
 70
     1
102
RTVSPost2010Prop29
280
     1
102
RTVSPost2010PropOp29
 70
     1
102
RTVSPost2010Prop30
280
     0
102
RTVSPost2010PropOp30
 70
     1
102
RTVSPost2010Prop31
280
     0
102
RTVSPost2010PropOp31
 70
     1
102
RTVSPost2010Prop32
280
     0
102
RTVSPost2010PropOp32
 70
     1
102
RTVSPost2010Prop33
280
     0
102
RTVSPost2010PropOp33
 70
     1
102
RTVSPost2010Prop34
280
     0
102
RTVSPost2010PropOp34
 70
     1
102
RTVSPost2010Prop35
280
     0
102
RTVSPost2010PropOp35
 70
     1
102
RTVSPost2010Prop36
280
     0
102
RTVSPost2010PropOp36
 70
     1
102
RTVSPost2010Prop37
 90
       50
102
RTVSPost2010PropOp37
 70
     1
102
RTVSPost2010Prop38
140
0.0
102
RTVSPost2010PropOp38
 70
     1
102
RTVSPost2010Prop39
140
1.0
102
RTVSPost2010PropOp39
 70
     1
102
RTVSPost2010Prop40
 90
        0
102
RTVSPost2010PropOp40
 70
     1
102
RTVSPost2010Prop41ColorIndex
 90
       18
102
RTVSPost2010Prop41ColorRGB
 90
        0
102
RTVSPost2010PropOp41
 70
     1
102
RTVSPost2010Prop42
 90
       50
102
RTVSPost2010PropOp42
 70
     1
102
RTVSPost2010Prop43
 90
        3
102
RTVSPost2010PropOp43
 70
     1
102
RTVSPost2010Prop44ColorIndex
 90
        5
102
RTVSPost2010Prop44ColorRGB
 90
      255
102
RTVSPost2010PropOp44
 70
     1
102
RTVSPost2010Prop45
280
     0
102
RTVSPost2010PropOp45
 70
     1
102
RTVSPost2010Prop46
 90
       50
102
RTVSPost2010PropOp46
 70
     1
102
RTVSPost2010Prop47
 90
       50
102
RTVSPost2010PropOp47
 70
     1
102
RTVSPost2010Prop48
 90
       50
102
RTVSPost2010PropOp48
 70
     1
102
RTVSPost2010Prop49
280
     0
102
RTVSPost2010PropOp49
 70
     1
102
RTVSPost2010Prop50
 90
       50
102
RTVSPost2010PropOp50
 70
     1
102
RTVSPost2010Prop51ColorIndex
 90
      256
102
RTVSPost2010Prop51ColorRGB
 90
-16777216
102
RTVSPost2010PropOp51
 70
     0
102
RTVSPost2010Prop52
140
1.0
102
RTVSPost2010PropOp52
 70
     0
102
RTVSPost2010Prop53
 90
        2
102
RTVSPost2010PropOp53
 70
     1
102
RTVSPost2010Prop54
  1
strokes_ogs.tif
102
RTVSPost2010PropOp54
 70
     1
102
RTVSPost2010Prop55
280
     0
102
RTVSPost2010PropOp55
 70
     1
102
RTVSPost2010Prop56
140
1.0
102
RTVSPost2010PropOp56
 70
     1
102
RTVSPost2010Prop57
140
1.0
102
RTVSPost2010PropOp57
 70
     1
102
RTVSPropertyOp0
 70
     1
102
RTVSPropertyOp1
 70
     1
102
RTVSPropertyOp2
 70
     1
102
RTVSPropertyOp3
 70
     1
102
RTVSPropertyOp4
 70
     1
102
RTVSPropertyOp5
 70
     1
102
RTVSPropertyOp6
 70
     1
102
RTVSPropertyOp7
 70
     1
102
RTVSPropertyOp8
 70
     1
102
RTVSPropertyOp9
 70
     1
102
RTVSPropertyOp10
 70
     1
102
RTVSPropertyOp11
 70
     1
102
RTVSPropertyOp12
 70
     1
102
RTVSPropertyOp13
 70
     1
102
RTVSPropertyOp14
 70
     1
102
RTVSPropertyOp15
 70
     1
102
RTVSPropertyOp16
 70
     1
102
RTVSPropertyOp17
 70
     1
102
RTVSPropertyOp18
 70
     1
102
RTVSPropertyOp19
 70
     1
102
RTVSPropertyOp20
 70
     1
102
RTVSPropertyOp21
 70
     1
102
RTVSPropertyOp22
 70
     1
102
RTVSPropertyOp23
 70
     1
102
RTVSPropertyOp24
 70
     1
102
RTVSPropertyOp25
 70
     1
102
RTVSPropertyOp26
 70
     1
102
RTVSPropertyOp27
 70
     1
102
RTVSPropertyOp28
 70
     1
102
RTVSPropertyOp29
 70
     1
102
RTVSPropertyOp30
 70
     1
102
RTVSPropertyOp31
 70
     1
102
RTVSPropertyOp32
 70
     1
102
RTVSPropertyOp33
 70
     1
102
RTVSPropertyOp34
 70
     1
102
RTVSPropertyOp35
 70
     1
102
RTVSPropertyOp36
 70
     1
102
RTVSPropertyOp37
 70
     1
102
RTVSPropertyOp38
 70
     1
102
RTVSPropertyOp39
 70
     1
102
RTVSPropertyOp40
 70
     1
102
RTVSPropertyOp41
 70
     1
102
RTVSPropertyOp42
 70
     1
102
RTVSPropertyOp43
 70
     1
102
RTVSPropertyOp44
 70
     1
102
RTVSPropertyOp45
 70
     1
102
RTVSPropertyOp46
 70
     1
102
RTVSPropertyOp47
 70
     1
102
RTVSPropertyOp48
 70
     1
102
RTVSPropertyOp49
 70
     1
102
RTVSPropertyOp50
 70
     1
102
RTVSPropertyOp51
 70
     0
102
RTVSPropertyOp52
 70
     0
102
RTVSPropertyOp53
 70
     1
102
RTVSPropertyOp54
 70
     1
102
RTVSPropertyOp55
 70
     1
102
RTVSPropertyOp56
 70
     1
102
RTVSPropertyOp57
 70
     1
102
RTVSPropertyOp58
 70
     1
102
RTVSPropertyOp59
 70
     1
102
RTVSPropertyOp60
 70
     1
102
RTVSPropertyOp61
 70
     1
102
RTVSPropertyOp62
 70
     1
  0
XRECORD
  5
1B39
102
{ACAD_REACTORS
330
1B38
102
}
330
1B38
100
AcDbXrecord
280
     1
102
RTVSPost2010Prop28
280
     0
102
RTVSPost2010PropOp28
 70
     1
102
RTVSPost2010Prop29
280
     1
102
RTVSPost2010PropOp29
 70
     1
102
RTVSPost2010Prop30
280
     1
102
RTVSPost2010PropOp30
 70
     1
102
RTVSPost2010Prop31
280
     0
102
RTVSPost2010PropOp31
 70
     1
102
RTVSPost2010Prop32
280
     0
102
RTVSPost2010PropOp32
 70
     1
102
RTVSPost2010Prop33
280
     0
102
RTVSPost2010PropOp33
 70
     1
102
RTVSPost2010Prop34
280
     0
102
RTVSPost2010PropOp34
 70
     1
102
RTVSPost2010Prop35
280
     0
102
RTVSPost2010PropOp35
 70
     1
102
RTVSPost2010Prop36
280
     0
102
RTVSPost2010PropOp36
 70
     1
102
RTVSPost2010Prop37
 90
       50
102
RTVSPost2010PropOp37
 70
     1
102
RTVSPost2010Prop38
140
0.0
102
RTVSPost2010PropOp38
 70
     1
102
RTVSPost2010Prop39
140
1.0
102
RTVSPost2010PropOp39
 70
     1
102
RTVSPost2010Prop40
 90
        0
102
RTVSPost2010PropOp40
 70
     1
102
RTVSPost2010Prop41ColorIndex
 90
       18
102
RTVSPost2010Prop41ColorRGB
 90
        0
102
RTVSPost2010PropOp41
 70
     1
102
RTVSPost2010Prop42
 90
       50
102
RTVSPost2010PropOp42
 70
     1
102
RTVSPost2010Prop43
 90
        3
102
RTVSPost2010PropOp43
 70
     1
102
RTVSPost2010Prop44ColorIndex
 90
        5
102
RTVSPost2010Prop44ColorRGB
 90
      255
102
RTVSPost2010PropOp44
 70
     1
102
RTVSPost2010Prop45
280
     0
102
RTVSPost2010PropOp45
 70
     1
102
RTVSPost2010Prop46
 90
       50
102
RTVSPost2010PropOp46
 70
     1
102
RTVSPost2010Prop47
 90
       50
102
RTVSPost2010PropOp47
 70
     1
102
RTVSPost2010Prop48
 90
       50
102
RTVSPost2010PropOp48
 70
     1
102
RTVSPost2010Prop49
280
     0
102
RTVSPost2010PropOp49
 70
     1
102
RTVSPost2010Prop50
 90
       50
102
RTVSPost2010PropOp50
 70
     1
102
RTVSPost2010Prop51ColorIndex
 90
      256
102
RTVSPost2010Prop51ColorRGB
 90
-16777216
102
RTVSPost2010PropOp51
 70
     0
102
RTVSPost2010Prop52
140
1.0
102
RTVSPost2010PropOp52
 70
     0
102
RTVSPost2010Prop53
 90
        2
102
RTVSPost2010PropOp53
 70
     1
102
RTVSPost2010Prop54
  1
strokes_ogs.tif
102
RTVSPost2010PropOp54
 70
     1
102
RTVSPost2010Prop55
280
     0
102
RTVSPost2010PropOp55
 70
     1
102
RTVSPost2010Prop56
140
1.0
102
RTVSPost2010PropOp56
 70
     1
102
RTVSPost2010Prop57
140
1.0
102
RTVSPost2010PropOp57
 70
     1
102
RTVSPropertyOp0
 70
     1
102
RTVSPropertyOp1
 70
     1
102
RTVSPropertyOp2
 70
     1
102
RTVSPropertyOp3
 70
     1
102
RTVSPropertyOp4
 70
     1
102
RTVSPropertyOp5
 70
     1
102
RTVSPropertyOp6
 70
     1
102
RTVSPropertyOp7
 70
     1
102
RTVSPropertyOp8
 70
     1
102
RTVSPropertyOp9
 70
     1
102
RTVSPropertyOp10
 70
     1
102
RTVSPropertyOp11
 70
     1
102
RTVSPropertyOp12
 70
     1
102
RTVSPropertyOp13
 70
     1
102
RTVSPropertyOp14
 70
     1
102
RTVSPropertyOp15
 70
     1
102
RTVSPropertyOp16
 70
     1
102
RTVSPropertyOp17
 70
     1
102
RTVSPropertyOp18
 70
     1
102
RTVSPropertyOp19
 70
     1
102
RTVSPropertyOp20
 70
     1
102
RTVSPropertyOp21
 70
     1
102
RTVSPropertyOp22
 70
     1
102
RTVSPropertyOp23
 70
     1
102
RTVSPropertyOp24
 70
     1
102
RTVSPropertyOp25
 70
     1
102
RTVSPropertyOp26
 70
     1
102
RTVSPropertyOp27
 70
     1
102
RTVSPropertyOp28
 70
     1
102
RTVSPropertyOp29
 70
     1
102
RTVSPropertyOp30
 70
     1
102
RTVSPropertyOp31
 70
     1
102
RTVSPropertyOp32
 70
     1
102
RTVSPropertyOp33
 70
     1
102
RTVSPropertyOp34
 70
     1
102
RTVSPropertyOp35
 70
     1
102
RTVSPropertyOp36
 70
     1
102
RTVSPropertyOp37
 70
     1
102
RTVSPropertyOp38
 70
     1
102
RTVSPropertyOp39
 70
     1
102
RTVSPropertyOp40
 70
     1
102
RTVSPropertyOp41
 70
     1
102
RTVSPropertyOp42
 70
     1
102
RTVSPropertyOp43
 70
     1
102
RTVSPropertyOp44
 70
     1
102
RTVSPropertyOp45
 70
     1
102
RTVSPropertyOp46
 70
     1
102
RTVSPropertyOp47
 70
     1
102
RTVSPropertyOp48
 70
     1
102
RTVSPropertyOp49
 70
     1
102
RTVSPropertyOp50
 70
     1
102
RTVSPropertyOp51
 70
     0
102
RTVSPropertyOp52
 70
     0
102
RTVSPropertyOp53
 70
     1
102
RTVSPropertyOp54
 70
     1
102
RTVSPropertyOp55
 70
     1
102
RTVSPropertyOp56
 70
     1
102
RTVSPropertyOp57
 70
     1
102
RTVSPropertyOp58
 70
     1
102
RTVSPropertyOp59
 70
     1
102
RTVSPropertyOp60
 70
     1
102
RTVSPropertyOp61
 70
     1
102
RTVSPropertyOp62
 70
     1
  0
XRECORD
  5
1B47
102
{ACAD_REACTORS
330
1B46
102
}
330
1B46
100
AcDbXrecord
280
     1
102
RTVSPost2010Prop28
280
     0
102
RTVSPost2010PropOp28
 70
     1
102
RTVSPost2010Prop29
280
     1
102
RTVSPost2010PropOp29
 70
     1
102
RTVSPost2010Prop30
280
     1
102
RTVSPost2010PropOp30
 70
     1
102
RTVSPost2010Prop31
280
     0
102
RTVSPost2010PropOp31
 70
     1
102
RTVSPost2010Prop32
280
     0
102
RTVSPost2010PropOp32
 70
     1
102
RTVSPost2010Prop33
280
     0
102
RTVSPost2010PropOp33
 70
     1
102
RTVSPost2010Prop34
280
     0
102
RTVSPost2010PropOp34
 70
     1
102
RTVSPost2010Prop35
280
     0
102
RTVSPost2010PropOp35
 70
     1
102
RTVSPost2010Prop36
280
     0
102
RTVSPost2010PropOp36
 70
     1
102
RTVSPost2010Prop37
 90
       50
102
RTVSPost2010PropOp37
 70
     1
102
RTVSPost2010Prop38
140
0.0
102
RTVSPost2010PropOp38
 70
     1
102
RTVSPost2010Prop39
140
1.0
102
RTVSPost2010PropOp39
 70
     1
102
RTVSPost2010Prop40
 90
        0
102
RTVSPost2010PropOp40
 70
     1
102
RTVSPost2010Prop41ColorIndex
 90
       18
102
RTVSPost2010Prop41ColorRGB
 90
        0
102
RTVSPost2010PropOp41
 70
     1
102
RTVSPost2010Prop42
 90
       50
102
RTVSPost2010PropOp42
 70
     1
102
RTVSPost2010Prop43
 90
        3
102
RTVSPost2010PropOp43
 70
     1
102
RTVSPost2010Prop44ColorIndex
 90
        5
102
RTVSPost2010Prop44ColorRGB
 90
      255
102
RTVSPost2010PropOp44
 70
     1
102
RTVSPost2010Prop45
280
     0
102
RTVSPost2010PropOp45
 70
     1
102
RTVSPost2010Prop46
 90
       50
102
RTVSPost2010PropOp46
 70
     1
102
RTVSPost2010Prop47
 90
       50
102
RTVSPost2010PropOp47
 70
     1
102
RTVSPost2010Prop48
 90
       50
102
RTVSPost2010PropOp48
 70
     1
102
RTVSPost2010Prop49
280
     0
102
RTVSPost2010PropOp49
 70
     1
102
RTVSPost2010Prop50
 90
       50
102
RTVSPost2010PropOp50
 70
     1
102
RTVSPost2010Prop51ColorIndex
 90
      256
102
RTVSPost2010Prop51ColorRGB
 90
-16777216
102
RTVSPost2010PropOp51
 70
     0
102
RTVSPost2010Prop52
140
1.0
102
RTVSPost2010PropOp52
 70
     0
102
RTVSPost2010Prop53
 90
        2
102
RTVSPost2010PropOp53
 70
     1
102
RTVSPost2010Prop54
  1
strokes_ogs.tif
102
RTVSPost2010PropOp54
 70
     1
102
RTVSPost2010Prop55
280
     0
102
RTVSPost2010PropOp55
 70
     1
102
RTVSPost2010Prop56
140
1.0
102
RTVSPost2010PropOp56
 70
     1
102
RTVSPost2010Prop57
140
1.0
102
RTVSPost2010PropOp57
 70
     1
102
RTVSPropertyOp0
 70
     1
102
RTVSPropertyOp1
 70
     1
102
RTVSPropertyOp2
 70
     1
102
RTVSPropertyOp3
 70
     1
102
RTVSPropertyOp4
 70
     1
102
RTVSPropertyOp5
 70
     1
102
RTVSPropertyOp6
 70
     1
102
RTVSPropertyOp7
 70
     1
102
RTVSPropertyOp8
 70
     1
102
RTVSPropertyOp9
 70
     1
102
RTVSPropertyOp10
 70
     1
102
RTVSPropertyOp11
 70
     1
102
RTVSPropertyOp12
 70
     1
102
RTVSPropertyOp13
 70
     1
102
RTVSPropertyOp14
 70
     1
102
RTVSPropertyOp15
 70
     1
102
RTVSPropertyOp16
 70
     1
102
RTVSPropertyOp17
 70
     1
102
RTVSPropertyOp18
 70
     1
102
RTVSPropertyOp19
 70
     1
102
RTVSPropertyOp20
 70
     1
102
RTVSPropertyOp21
 70
     1
102
RTVSPropertyOp22
 70
     1
102
RTVSPropertyOp23
 70
     1
102
RTVSPropertyOp24
 70
     1
102
RTVSPropertyOp25
 70
     1
102
RTVSPropertyOp26
 70
     1
102
RTVSPropertyOp27
 70
     1
102
RTVSPropertyOp28
 70
     1
102
RTVSPropertyOp29
 70
     1
102
RTVSPropertyOp30
 70
     1
102
RTVSPropertyOp31
 70
     1
102
RTVSPropertyOp32
 70
     1
102
RTVSPropertyOp33
 70
     1
102
RTVSPropertyOp34
 70
     1
102
RTVSPropertyOp35
 70
     1
102
RTVSPropertyOp36
 70
     1
102
RTVSPropertyOp37
 70
     1
102
RTVSPropertyOp38
 70
     1
102
RTVSPropertyOp39
 70
     1
102
RTVSPropertyOp40
 70
     1
102
RTVSPropertyOp41
 70
     1
102
RTVSPropertyOp42
 70
     1
102
RTVSPropertyOp43
 70
     1
102
RTVSPropertyOp44
 70
     1
102
RTVSPropertyOp45
 70
     1
102
RTVSPropertyOp46
 70
     1
102
RTVSPropertyOp47
 70
     1
102
RTVSPropertyOp48
 70
     1
102
RTVSPropertyOp49
 70
     1
102
RTVSPropertyOp50
 70
     1
102
RTVSPropertyOp51
 70
     0
102
RTVSPropertyOp52
 70
     0
102
RTVSPropertyOp53
 70
     1
102
RTVSPropertyOp54
 70
     1
102
RTVSPropertyOp55
 70
     1
102
RTVSPropertyOp56
 70
     1
102
RTVSPropertyOp57
 70
     1
102
RTVSPropertyOp58
 70
     1
102
RTVSPropertyOp59
 70
     1
102
RTVSPropertyOp60
 70
     1
102
RTVSPropertyOp61
 70
     1
102
RTVSPropertyOp62
 70
     1
  0
XRECORD
  5
1B4F
102
{ACAD_REACTORS
330
1B4E
102
}
330
1B4E
100
AcDbXrecord
280
     1
102
RTVSPost2010Prop28
280
     0
102
RTVSPost2010PropOp28
 70
     1
102
RTVSPost2010Prop29
280
     1
102
RTVSPost2010PropOp29
 70
     1
102
RTVSPost2010Prop30
280
     1
102
RTVSPost2010PropOp30
 70
     1
102
RTVSPost2010Prop31
280
     0
102
RTVSPost2010PropOp31
 70
     1
102
RTVSPost2010Prop32
280
     0
102
RTVSPost2010PropOp32
 70
     1
102
RTVSPost2010Prop33
280
     0
102
RTVSPost2010PropOp33
 70
     1
102
RTVSPost2010Prop34
280
     0
102
RTVSPost2010PropOp34
 70
     1
102
RTVSPost2010Prop35
280
     0
102
RTVSPost2010PropOp35
 70
     1
102
RTVSPost2010Prop36
280
     0
102
RTVSPost2010PropOp36
 70
     1
102
RTVSPost2010Prop37
 90
       50
102
RTVSPost2010PropOp37
 70
     1
102
RTVSPost2010Prop38
140
0.0
102
RTVSPost2010PropOp38
 70
     1
102
RTVSPost2010Prop39
140
1.0
102
RTVSPost2010PropOp39
 70
     1
102
RTVSPost2010Prop40
 90
        0
102
RTVSPost2010PropOp40
 70
     1
102
RTVSPost2010Prop41ColorIndex
 90
       18
102
RTVSPost2010Prop41ColorRGB
 90
        0
102
RTVSPost2010PropOp41
 70
     1
102
RTVSPost2010Prop42
 90
       50
102
RTVSPost2010PropOp42
 70
     1
102
RTVSPost2010Prop43
 90
        3
102
RTVSPost2010PropOp43
 70
     1
102
RTVSPost2010Prop44ColorIndex
 90
        5
102
RTVSPost2010Prop44ColorRGB
 90
      255
102
RTVSPost2010PropOp44
 70
     1
102
RTVSPost2010Prop45
280
     0
102
RTVSPost2010PropOp45
 70
     1
102
RTVSPost2010Prop46
 90
       50
102
RTVSPost2010PropOp46
 70
     1
102
RTVSPost2010Prop47
 90
       50
102
RTVSPost2010PropOp47
 70
     1
102
RTVSPost2010Prop48
 90
       50
102
RTVSPost2010PropOp48
 70
     1
102
RTVSPost2010Prop49
280
     0
102
RTVSPost2010PropOp49
 70
     1
102
RTVSPost2010Prop50
 90
       50
102
RTVSPost2010PropOp50
 70
     1
102
RTVSPost2010Prop51ColorIndex
 90
      256
102
RTVSPost2010Prop51ColorRGB
 90
-16777216
102
RTVSPost2010PropOp51
 70
     0
102
RTVSPost2010Prop52
140
1.0
102
RTVSPost2010PropOp52
 70
     0
102
RTVSPost2010Prop53
 90
        2
102
RTVSPost2010PropOp53
 70
     1
102
RTVSPost2010Prop54
  1
strokes_ogs.tif
102
RTVSPost2010PropOp54
 70
     1
102
RTVSPost2010Prop55
280
     0
102
RTVSPost2010PropOp55
 70
     1
102
RTVSPost2010Prop56
140
1.0
102
RTVSPost2010PropOp56
 70
     1
102
RTVSPost2010Prop57
140
1.0
102
RTVSPost2010PropOp57
 70
     1
102
RTVSPropertyOp0
 70
     1
102
RTVSPropertyOp1
 70
     1
102
RTVSPropertyOp2
 70
     1
102
RTVSPropertyOp3
 70
     1
102
RTVSPropertyOp4
 70
     1
102
RTVSPropertyOp5
 70
     1
102
RTVSPropertyOp6
 70
     1
102
RTVSPropertyOp7
 70
     1
102
RTVSPropertyOp8
 70
     1
102
RTVSPropertyOp9
 70
     1
102
RTVSPropertyOp10
 70
     1
102
RTVSPropertyOp11
 70
     1
102
RTVSPropertyOp12
 70
     1
102
RTVSPropertyOp13
 70
     1
102
RTVSPropertyOp14
 70
     1
102
RTVSPropertyOp15
 70
     1
102
RTVSPropertyOp16
 70
     1
102
RTVSPropertyOp17
 70
     1
102
RTVSPropertyOp18
 70
     1
102
RTVSPropertyOp19
 70
     1
102
RTVSPropertyOp20
 70
     1
102
RTVSPropertyOp21
 70
     1
102
RTVSPropertyOp22
 70
     1
102
RTVSPropertyOp23
 70
     1
102
RTVSPropertyOp24
 70
     1
102
RTVSPropertyOp25
 70
     1
102
RTVSPropertyOp26
 70
     1
102
RTVSPropertyOp27
 70
     1
102
RTVSPropertyOp28
 70
     1
102
RTVSPropertyOp29
 70
     1
102
RTVSPropertyOp30
 70
     1
102
RTVSPropertyOp31
 70
     1
102
RTVSPropertyOp32
 70
     1
102
RTVSPropertyOp33
 70
     1
102
RTVSPropertyOp34
 70
     1
102
RTVSPropertyOp35
 70
     1
102
RTVSPropertyOp36
 70
     1
102
RTVSPropertyOp37
 70
     1
102
RTVSPropertyOp38
 70
     1
102
RTVSPropertyOp39
 70
     1
102
RTVSPropertyOp40
 70
     1
102
RTVSPropertyOp41
 70
     1
102
RTVSPropertyOp42
 70
     1
102
RTVSPropertyOp43
 70
     1
102
RTVSPropertyOp44
 70
     1
102
RTVSPropertyOp45
 70
     1
102
RTVSPropertyOp46
 70
     1
102
RTVSPropertyOp47
 70
     1
102
RTVSPropertyOp48
 70
     1
102
RTVSPropertyOp49
 70
     1
102
RTVSPropertyOp50
 70
     1
102
RTVSPropertyOp51
 70
     0
102
RTVSPropertyOp52
 70
     0
102
RTVSPropertyOp53
 70
     1
102
RTVSPropertyOp54
 70
     1
102
RTVSPropertyOp55
 70
     1
102
RTVSPropertyOp56
 70
     1
102
RTVSPropertyOp57
 70
     1
102
RTVSPropertyOp58
 70
     1
102
RTVSPropertyOp59
 70
     1
102
RTVSPropertyOp60
 70
     1
102
RTVSPropertyOp61
 70
     1
102
RTVSPropertyOp62
 70
     1
  0
XRECORD
  5
1B41
102
{ACAD_REACTORS
330
1B40
102
}
330
1B40
100
AcDbXrecord
280
     1
102
RTVSPost2010Prop28
280
     0
102
RTVSPost2010PropOp28
 70
     1
102
RTVSPost2010Prop29
280
     1
102
RTVSPost2010PropOp29
 70
     1
102
RTVSPost2010Prop30
280
     1
102
RTVSPost2010PropOp30
 70
     1
102
RTVSPost2010Prop31
280
     0
102
RTVSPost2010PropOp31
 70
     1
102
RTVSPost2010Prop32
280
     0
102
RTVSPost2010PropOp32
 70
     1
102
RTVSPost2010Prop33
280
     0
102
RTVSPost2010PropOp33
 70
     1
102
RTVSPost2010Prop34
280
     0
102
RTVSPost2010PropOp34
 70
     1
102
RTVSPost2010Prop35
280
     0
102
RTVSPost2010PropOp35
 70
     1
102
RTVSPost2010Prop36
280
     0
102
RTVSPost2010PropOp36
 70
     1
102
RTVSPost2010Prop37
 90
       50
102
RTVSPost2010PropOp37
 70
     1
102
RTVSPost2010Prop38
140
0.0
102
RTVSPost2010PropOp38
 70
     1
102
RTVSPost2010Prop39
140
1.0
102
RTVSPost2010PropOp39
 70
     1
102
RTVSPost2010Prop40
 90
        0
102
RTVSPost2010PropOp40
 70
     1
102
RTVSPost2010Prop41ColorIndex
 90
       18
102
RTVSPost2010Prop41ColorRGB
 90
        0
102
RTVSPost2010PropOp41
 70
     1
102
RTVSPost2010Prop42
 90
       50
102
RTVSPost2010PropOp42
 70
     1
102
RTVSPost2010Prop43
 90
        3
102
RTVSPost2010PropOp43
 70
     1
102
RTVSPost2010Prop44ColorIndex
 90
        5
102
RTVSPost2010Prop44ColorRGB
 90
      255
102
RTVSPost2010PropOp44
 70
     1
102
RTVSPost2010Prop45
280
     0
102
RTVSPost2010PropOp45
 70
     1
102
RTVSPost2010Prop46
 90
       50
102
RTVSPost2010PropOp46
 70
     1
102
RTVSPost2010Prop47
 90
       50
102
RTVSPost2010PropOp47
 70
     1
102
RTVSPost2010Prop48
 90
       50
102
RTVSPost2010PropOp48
 70
     1
102
RTVSPost2010Prop49
280
     0
102
RTVSPost2010PropOp49
 70
     1
102
RTVSPost2010Prop50
 90
       50
102
RTVSPost2010PropOp50
 70
     1
102
RTVSPost2010Prop51ColorIndex
 90
      256
102
RTVSPost2010Prop51ColorRGB
 90
-16777216
102
RTVSPost2010PropOp51
 70
     0
102
RTVSPost2010Prop52
140
1.0
102
RTVSPost2010PropOp52
 70
     0
102
RTVSPost2010Prop53
 90
        2
102
RTVSPost2010PropOp53
 70
     1
102
RTVSPost2010Prop54
  1
strokes_ogs.tif
102
RTVSPost2010PropOp54
 70
     1
102
RTVSPost2010Prop55
280
     0
102
RTVSPost2010PropOp55
 70
     1
102
RTVSPost2010Prop56
140
1.0
102
RTVSPost2010PropOp56
 70
     1
102
RTVSPost2010Prop57
140
1.0
102
RTVSPost2010PropOp57
 70
     1
102
RTVSPropertyOp0
 70
     1
102
RTVSPropertyOp1
 70
     1
102
RTVSPropertyOp2
 70
     1
102
RTVSPropertyOp3
 70
     1
102
RTVSPropertyOp4
 70
     1
102
RTVSPropertyOp5
 70
     1
102
RTVSPropertyOp6
 70
     1
102
RTVSPropertyOp7
 70
     1
102
RTVSPropertyOp8
 70
     1
102
RTVSPropertyOp9
 70
     1
102
RTVSPropertyOp10
 70
     1
102
RTVSPropertyOp11
 70
     1
102
RTVSPropertyOp12
 70
     1
102
RTVSPropertyOp13
 70
     1
102
RTVSPropertyOp14
 70
     1
102
RTVSPropertyOp15
 70
     1
102
RTVSPropertyOp16
 70
     1
102
RTVSPropertyOp17
 70
     1
102
RTVSPropertyOp18
 70
     1
102
RTVSPropertyOp19
 70
     1
102
RTVSPropertyOp20
 70
     1
102
RTVSPropertyOp21
 70
     1
102
RTVSPropertyOp22
 70
     1
102
RTVSPropertyOp23
 70
     1
102
RTVSPropertyOp24
 70
     1
102
RTVSPropertyOp25
 70
     1
102
RTVSPropertyOp26
 70
     1
102
RTVSPropertyOp27
 70
     1
102
RTVSPropertyOp28
 70
     1
102
RTVSPropertyOp29
 70
     1
102
RTVSPropertyOp30
 70
     1
102
RTVSPropertyOp31
 70
     1
102
RTVSPropertyOp32
 70
     1
102
RTVSPropertyOp33
 70
     1
102
RTVSPropertyOp34
 70
     1
102
RTVSPropertyOp35
 70
     1
102
RTVSPropertyOp36
 70
     1
102
RTVSPropertyOp37
 70
     1
102
RTVSPropertyOp38
 70
     1
102
RTVSPropertyOp39
 70
     1
102
RTVSPropertyOp40
 70
     1
102
RTVSPropertyOp41
 70
     1
102
RTVSPropertyOp42
 70
     1
102
RTVSPropertyOp43
 70
     1
102
RTVSPropertyOp44
 70
     1
102
RTVSPropertyOp45
 70
     1
102
RTVSPropertyOp46
 70
     1
102
RTVSPropertyOp47
 70
     1
102
RTVSPropertyOp48
 70
     1
102
RTVSPropertyOp49
 70
     1
102
RTVSPropertyOp50
 70
     1
102
RTVSPropertyOp51
 70
     0
102
RTVSPropertyOp52
 70
     0
102
RTVSPropertyOp53
 70
     1
102
RTVSPropertyOp54
 70
     1
102
RTVSPropertyOp55
 70
     1
102
RTVSPropertyOp56
 70
     1
102
RTVSPropertyOp57
 70
     1
102
RTVSPropertyOp58
 70
     1
102
RTVSPropertyOp59
 70
     1
102
RTVSPropertyOp60
 70
     1
102
RTVSPropertyOp61
 70
     1
102
RTVSPropertyOp62
 70
     1
  0
XRECORD
  5
1B45
102
{ACAD_REACTORS
330
1B44
102
}
330
1B44
100
AcDbXrecord
280
     1
102
RTVSPost2010Prop28
280
     0
102
RTVSPost2010PropOp28
 70
     1
102
RTVSPost2010Prop29
280
     1
102
RTVSPost2010PropOp29
 70
     1
102
RTVSPost2010Prop30
280
     1
102
RTVSPost2010PropOp30
 70
     1
102
RTVSPost2010Prop31
280
     0
102
RTVSPost2010PropOp31
 70
     1
102
RTVSPost2010Prop32
280
     0
102
RTVSPost2010PropOp32
 70
     1
102
RTVSPost2010Prop33
280
     0
102
RTVSPost2010PropOp33
 70
     1
102
RTVSPost2010Prop34
280
     0
102
RTVSPost2010PropOp34
 70
     1
102
RTVSPost2010Prop35
280
     0
102
RTVSPost2010PropOp35
 70
     1
102
RTVSPost2010Prop36
280
     0
102
RTVSPost2010PropOp36
 70
     1
102
RTVSPost2010Prop37
 90
       50
102
RTVSPost2010PropOp37
 70
     1
102
RTVSPost2010Prop38
140
0.0
102
RTVSPost2010PropOp38
 70
     1
102
RTVSPost2010Prop39
140
1.0
102
RTVSPost2010PropOp39
 70
     1
102
RTVSPost2010Prop40
 90
        0
102
RTVSPost2010PropOp40
 70
     1
102
RTVSPost2010Prop41ColorIndex
 90
       18
102
RTVSPost2010Prop41ColorRGB
 90
        0
102
RTVSPost2010PropOp41
 70
     1
102
RTVSPost2010Prop42
 90
       50
102
RTVSPost2010PropOp42
 70
     1
102
RTVSPost2010Prop43
 90
        3
102
RTVSPost2010PropOp43
 70
     1
102
RTVSPost2010Prop44ColorIndex
 90
        5
102
RTVSPost2010Prop44ColorRGB
 90
      255
102
RTVSPost2010PropOp44
 70
     1
102
RTVSPost2010Prop45
280
     0
102
RTVSPost2010PropOp45
 70
     1
102
RTVSPost2010Prop46
 90
       50
102
RTVSPost2010PropOp46
 70
     1
102
RTVSPost2010Prop47
 90
       50
102
RTVSPost2010PropOp47
 70
     1
102
RTVSPost2010Prop48
 90
       50
102
RTVSPost2010PropOp48
 70
     1
102
RTVSPost2010Prop49
280
     0
102
RTVSPost2010PropOp49
 70
     1
102
RTVSPost2010Prop50
 90
       50
102
RTVSPost2010PropOp50
 70
     1
102
RTVSPost2010Prop51ColorIndex
 90
      256
102
RTVSPost2010Prop51ColorRGB
 90
-16777216
102
RTVSPost2010PropOp51
 70
     0
102
RTVSPost2010Prop52
140
1.0
102
RTVSPost2010PropOp52
 70
     0
102
RTVSPost2010Prop53
 90
        2
102
RTVSPost2010PropOp53
 70
     1
102
RTVSPost2010Prop54
  1
strokes_ogs.tif
102
RTVSPost2010PropOp54
 70
     1
102
RTVSPost2010Prop55
280
     0
102
RTVSPost2010PropOp55
 70
     1
102
RTVSPost2010Prop56
140
1.0
102
RTVSPost2010PropOp56
 70
     1
102
RTVSPost2010Prop57
140
1.0
102
RTVSPost2010PropOp57
 70
     1
102
RTVSPropertyOp0
 70
     1
102
RTVSPropertyOp1
 70
     1
102
RTVSPropertyOp2
 70
     1
102
RTVSPropertyOp3
 70
     1
102
RTVSPropertyOp4
 70
     1
102
RTVSPropertyOp5
 70
     1
102
RTVSPropertyOp6
 70
     1
102
RTVSPropertyOp7
 70
     1
102
RTVSPropertyOp8
 70
     1
102
RTVSPropertyOp9
 70
     1
102
RTVSPropertyOp10
 70
     1
102
RTVSPropertyOp11
 70
     1
102
RTVSPropertyOp12
 70
     1
102
RTVSPropertyOp13
 70
     1
102
RTVSPropertyOp14
 70
     1
102
RTVSPropertyOp15
 70
     1
102
RTVSPropertyOp16
 70
     1
102
RTVSPropertyOp17
 70
     1
102
RTVSPropertyOp18
 70
     1
102
RTVSPropertyOp19
 70
     1
102
RTVSPropertyOp20
 70
     1
102
RTVSPropertyOp21
 70
     1
102
RTVSPropertyOp22
 70
     1
102
RTVSPropertyOp23
 70
     1
102
RTVSPropertyOp24
 70
     1
102
RTVSPropertyOp25
 70
     1
102
RTVSPropertyOp26
 70
     1
102
RTVSPropertyOp27
 70
     1
102
RTVSPropertyOp28
 70
     1
102
RTVSPropertyOp29
 70
     1
102
RTVSPropertyOp30
 70
     1
102
RTVSPropertyOp31
 70
     1
102
RTVSPropertyOp32
 70
     1
102
RTVSPropertyOp33
 70
     1
102
RTVSPropertyOp34
 70
     1
102
RTVSPropertyOp35
 70
     1
102
RTVSPropertyOp36
 70
     1
102
RTVSPropertyOp37
 70
     1
102
RTVSPropertyOp38
 70
     1
102
RTVSPropertyOp39
 70
     1
102
RTVSPropertyOp40
 70
     1
102
RTVSPropertyOp41
 70
     1
102
RTVSPropertyOp42
 70
     1
102
RTVSPropertyOp43
 70
     1
102
RTVSPropertyOp44
 70
     1
102
RTVSPropertyOp45
 70
     1
102
RTVSPropertyOp46
 70
     1
102
RTVSPropertyOp47
 70
     1
102
RTVSPropertyOp48
 70
     1
102
RTVSPropertyOp49
 70
     1
102
RTVSPropertyOp50
 70
     1
102
RTVSPropertyOp51
 70
     0
102
RTVSPropertyOp52
 70
     0
102
RTVSPropertyOp53
 70
     1
102
RTVSPropertyOp54
 70
     1
102
RTVSPropertyOp55
 70
     1
102
RTVSPropertyOp56
 70
     1
102
RTVSPropertyOp57
 70
     1
102
RTVSPropertyOp58
 70
     1
102
RTVSPropertyOp59
 70
     1
102
RTVSPropertyOp60
 70
     1
102
RTVSPropertyOp61
 70
     1
102
RTVSPropertyOp62
 70
     1
  0
XRECORD
  5
1B57
102
{ACAD_REACTORS
330
1B56
102
}
330
1B56
100
AcDbXrecord
280
     1
102
RTVSPost2010Prop28
280
     0
102
RTVSPost2010PropOp28
 70
     1
102
RTVSPost2010Prop29
280
     1
102
RTVSPost2010PropOp29
 70
     1
102
RTVSPost2010Prop30
280
     1
102
RTVSPost2010PropOp30
 70
     1
102
RTVSPost2010Prop31
280
     0
102
RTVSPost2010PropOp31
 70
     1
102
RTVSPost2010Prop32
280
     0
102
RTVSPost2010PropOp32
 70
     1
102
RTVSPost2010Prop33
280
     0
102
RTVSPost2010PropOp33
 70
     1
102
RTVSPost2010Prop34
280
     0
102
RTVSPost2010PropOp34
 70
     1
102
RTVSPost2010Prop35
280
     0
102
RTVSPost2010PropOp35
 70
     1
102
RTVSPost2010Prop36
280
     0
102
RTVSPost2010PropOp36
 70
     1
102
RTVSPost2010Prop37
 90
       50
102
RTVSPost2010PropOp37
 70
     1
102
RTVSPost2010Prop38
140
0.0
102
RTVSPost2010PropOp38
 70
     1
102
RTVSPost2010Prop39
140
1.0
102
RTVSPost2010PropOp39
 70
     1
102
RTVSPost2010Prop40
 90
        0
102
RTVSPost2010PropOp40
 70
     1
102
RTVSPost2010Prop41ColorIndex
 90
       18
102
RTVSPost2010Prop41ColorRGB
 90
        0
102
RTVSPost2010PropOp41
 70
     1
102
RTVSPost2010Prop42
 90
       50
102
RTVSPost2010PropOp42
 70
     1
102
RTVSPost2010Prop43
 90
        3
102
RTVSPost2010PropOp43
 70
     1
102
RTVSPost2010Prop44ColorIndex
 90
        5
102
RTVSPost2010Prop44ColorRGB
 90
      255
102
RTVSPost2010PropOp44
 70
     1
102
RTVSPost2010Prop45
280
     0
102
RTVSPost2010PropOp45
 70
     1
102
RTVSPost2010Prop46
 90
       50
102
RTVSPost2010PropOp46
 70
     1
102
RTVSPost2010Prop47
 90
       50
102
RTVSPost2010PropOp47
 70
     1
102
RTVSPost2010Prop48
 90
       50
102
RTVSPost2010PropOp48
 70
     1
102
RTVSPost2010Prop49
280
     0
102
RTVSPost2010PropOp49
 70
     1
102
RTVSPost2010Prop50
 90
       50
102
RTVSPost2010PropOp50
 70
     1
102
RTVSPost2010Prop51ColorIndex
 90
      256
102
RTVSPost2010Prop51ColorRGB
 90
-16777216
102
RTVSPost2010PropOp51
 70
     0
102
RTVSPost2010Prop52
140
1.0
102
RTVSPost2010PropOp52
 70
     0
102
RTVSPost2010Prop53
 90
        2
102
RTVSPost2010PropOp53
 70
     1
102
RTVSPost2010Prop54
  1
strokes_ogs.tif
102
RTVSPost2010PropOp54
 70
     1
102
RTVSPost2010Prop55
280
     0
102
RTVSPost2010PropOp55
 70
     1
102
RTVSPost2010Prop56
140
1.0
102
RTVSPost2010PropOp56
 70
     1
102
RTVSPost2010Prop57
140
1.0
102
RTVSPost2010PropOp57
 70
     1
102
RTVSPropertyOp0
 70
     0
102
RTVSPropertyOp1
 70
     0
102
RTVSPropertyOp2
 70
     0
102
RTVSPropertyOp3
 70
     0
102
RTVSPropertyOp4
 70
     0
102
RTVSPropertyOp5
 70
     0
102
RTVSPropertyOp6
 70
     0
102
RTVSPropertyOp7
 70
     0
102
RTVSPropertyOp8
 70
     0
102
RTVSPropertyOp9
 70
     0
102
RTVSPropertyOp10
 70
     0
102
RTVSPropertyOp11
 70
     0
102
RTVSPropertyOp12
 70
     0
102
RTVSPropertyOp13
 70
     0
102
RTVSPropertyOp14
 70
     2
102
RTVSPropertyOp15
 70
     0
102
RTVSPropertyOp16
 70
     0
102
RTVSPropertyOp17
 70
     0
102
RTVSPropertyOp18
 70
     0
102
RTVSPropertyOp19
 70
     0
102
RTVSPropertyOp20
 70
     0
102
RTVSPropertyOp21
 70
     0
102
RTVSPropertyOp22
 70
     0
102
RTVSPropertyOp23
 70
     0
102
RTVSPropertyOp24
 70
     0
102
RTVSPropertyOp25
 70
     0
102
RTVSPropertyOp26
 70
     0
102
RTVSPropertyOp27
 70
     0
102
RTVSPropertyOp28
 70
     1
102
RTVSPropertyOp29
 70
     1
102
RTVSPropertyOp30
 70
     1
102
RTVSPropertyOp31
 70
     1
102
RTVSPropertyOp32
 70
     1
102
RTVSPropertyOp33
 70
     1
102
RTVSPropertyOp34
 70
     1
102
RTVSPropertyOp35
 70
     1
102
RTVSPropertyOp36
 70
     1
102
RTVSPropertyOp37
 70
     1
102
RTVSPropertyOp38
 70
     1
102
RTVSPropertyOp39
 70
     1
102
RTVSPropertyOp40
 70
     1
102
RTVSPropertyOp41
 70
     1
102
RTVSPropertyOp42
 70
     1
102
RTVSPropertyOp43
 70
     1
102
RTVSPropertyOp44
 70
     1
102
RTVSPropertyOp45
 70
     1
102
RTVSPropertyOp46
 70
     1
102
RTVSPropertyOp47
 70
     1
102
RTVSPropertyOp48
 70
     1
102
RTVSPropertyOp49
 70
     1
102
RTVSPropertyOp50
 70
     1
102
RTVSPropertyOp51
 70
     0
102
RTVSPropertyOp52
 70
     0
102
RTVSPropertyOp53
 70
     1
102
RTVSPropertyOp54
 70
     1
102
RTVSPropertyOp55
 70
     1
102
RTVSPropertyOp56
 70
     1
102
RTVSPropertyOp57
 70
     1
102
RTVSPropertyOp58
 70
     1
102
RTVSPropertyOp59
 70
     1
102
RTVSPropertyOp60
 70
     1
102
RTVSPropertyOp61
 70
     1
102
RTVSPropertyOp62
 70
     1
  0
XRECORD
  5
1B4D
102
{ACAD_REACTORS
330
1B4C
102
}
330
1B4C
100
AcDbXrecord
280
     1
102
RTVSPost2010Prop28
280
     0
102
RTVSPost2010PropOp28
 70
     1
102
RTVSPost2010Prop29
280
     1
102
RTVSPost2010PropOp29
 70
     1
102
RTVSPost2010Prop30
280
     1
102
RTVSPost2010PropOp30
 70
     1
102
RTVSPost2010Prop31
280
     0
102
RTVSPost2010PropOp31
 70
     1
102
RTVSPost2010Prop32
280
     0
102
RTVSPost2010PropOp32
 70
     1
102
RTVSPost2010Prop33
280
     0
102
RTVSPost2010PropOp33
 70
     1
102
RTVSPost2010Prop34
280
     0
102
RTVSPost2010PropOp34
 70
     1
102
RTVSPost2010Prop35
280
     0
102
RTVSPost2010PropOp35
 70
     1
102
RTVSPost2010Prop36
280
     0
102
RTVSPost2010PropOp36
 70
     1
102
RTVSPost2010Prop37
 90
       50
102
RTVSPost2010PropOp37
 70
     1
102
RTVSPost2010Prop38
140
0.0
102
RTVSPost2010PropOp38
 70
     1
102
RTVSPost2010Prop39
140
1.0
102
RTVSPost2010PropOp39
 70
     1
102
RTVSPost2010Prop40
 90
        0
102
RTVSPost2010PropOp40
 70
     1
102
RTVSPost2010Prop41ColorIndex
 90
       18
102
RTVSPost2010Prop41ColorRGB
 90
        0
102
RTVSPost2010PropOp41
 70
     1
102
RTVSPost2010Prop42
 90
       50
102
RTVSPost2010PropOp42
 70
     1
102
RTVSPost2010Prop43
 90
        3
102
RTVSPost2010PropOp43
 70
     1
102
RTVSPost2010Prop44ColorIndex
 90
        5
102
RTVSPost2010Prop44ColorRGB
 90
      255
102
RTVSPost2010PropOp44
 70
     1
102
RTVSPost2010Prop45
280
     0
102
RTVSPost2010PropOp45
 70
     1
102
RTVSPost2010Prop46
 90
       50
102
RTVSPost2010PropOp46
 70
     1
102
RTVSPost2010Prop47
 90
       50
102
RTVSPost2010PropOp47
 70
     1
102
RTVSPost2010Prop48
 90
       50
102
RTVSPost2010PropOp48
 70
     1
102
RTVSPost2010Prop49
280
     0
102
RTVSPost2010PropOp49
 70
     1
102
RTVSPost2010Prop50
 90
       50
102
RTVSPost2010PropOp50
 70
     1
102
RTVSPost2010Prop51ColorIndex
 90
      256
102
RTVSPost2010Prop51ColorRGB
 90
-16777216
102
RTVSPost2010PropOp51
 70
     0
102
RTVSPost2010Prop52
140
1.0
102
RTVSPost2010PropOp52
 70
     0
102
RTVSPost2010Prop53
 90
        2
102
RTVSPost2010PropOp53
 70
     1
102
RTVSPost2010Prop54
  1
strokes_ogs.tif
102
RTVSPost2010PropOp54
 70
     1
102
RTVSPost2010Prop55
280
     0
102
RTVSPost2010PropOp55
 70
     1
102
RTVSPost2010Prop56
140
1.0
102
RTVSPost2010PropOp56
 70
     1
102
RTVSPost2010Prop57
140
1.0
102
RTVSPost2010PropOp57
 70
     1
102
RTVSPropertyOp0
 70
     1
102
RTVSPropertyOp1
 70
     1
102
RTVSPropertyOp2
 70
     1
102
RTVSPropertyOp3
 70
     1
102
RTVSPropertyOp4
 70
     1
102
RTVSPropertyOp5
 70
     1
102
RTVSPropertyOp6
 70
     1
102
RTVSPropertyOp7
 70
     1
102
RTVSPropertyOp8
 70
     1
102
RTVSPropertyOp9
 70
     1
102
RTVSPropertyOp10
 70
     1
102
RTVSPropertyOp11
 70
     1
102
RTVSPropertyOp12
 70
     1
102
RTVSPropertyOp13
 70
     1
102
RTVSPropertyOp14
 70
     1
102
RTVSPropertyOp15
 70
     1
102
RTVSPropertyOp16
 70
     1
102
RTVSPropertyOp17
 70
     1
102
RTVSPropertyOp18
 70
     1
102
RTVSPropertyOp19
 70
     1
102
RTVSPropertyOp20
 70
     1
102
RTVSPropertyOp21
 70
     1
102
RTVSPropertyOp22
 70
     1
102
RTVSPropertyOp23
 70
     1
102
RTVSPropertyOp24
 70
     1
102
RTVSPropertyOp25
 70
     1
102
RTVSPropertyOp26
 70
     1
102
RTVSPropertyOp27
 70
     1
102
RTVSPropertyOp28
 70
     1
102
RTVSPropertyOp29
 70
     1
102
RTVSPropertyOp30
 70
     1
102
RTVSPropertyOp31
 70
     1
102
RTVSPropertyOp32
 70
     1
102
RTVSPropertyOp33
 70
     1
102
RTVSPropertyOp34
 70
     1
102
RTVSPropertyOp35
 70
     1
102
RTVSPropertyOp36
 70
     1
102
RTVSPropertyOp37
 70
     1
102
RTVSPropertyOp38
 70
     1
102
RTVSPropertyOp39
 70
     1
102
RTVSPropertyOp40
 70
     1
102
RTVSPropertyOp41
 70
     1
102
RTVSPropertyOp42
 70
     1
102
RTVSPropertyOp43
 70
     1
102
RTVSPropertyOp44
 70
     1
102
RTVSPropertyOp45
 70
     1
102
RTVSPropertyOp46
 70
     1
102
RTVSPropertyOp47
 70
     1
102
RTVSPropertyOp48
 70
     1
102
RTVSPropertyOp49
 70
     1
102
RTVSPropertyOp50
 70
     1
102
RTVSPropertyOp51
 70
     0
102
RTVSPropertyOp52
 70
     0
102
RTVSPropertyOp53
 70
     1
102
RTVSPropertyOp54
 70
     1
102
RTVSPropertyOp55
 70
     1
102
RTVSPropertyOp56
 70
     1
102
RTVSPropertyOp57
 70
     1
102
RTVSPropertyOp58
 70
     1
102
RTVSPropertyOp59
 70
     1
102
RTVSPropertyOp60
 70
     1
102
RTVSPropertyOp61
 70
     1
102
RTVSPropertyOp62
 70
     1
  0
XRECORD
  5
1B31
102
{ACAD_REACTORS
330
1B30
102
}
330
1B30
100
AcDbXrecord
280
     1
102
RTVSPost2010Prop28
280
     0
102
RTVSPost2010PropOp28
 70
     1
102
RTVSPost2010Prop29
280
     1
102
RTVSPost2010PropOp29
 70
     1
102
RTVSPost2010Prop30
280
     1
102
RTVSPost2010PropOp30
 70
     1
102
RTVSPost2010Prop31
280
     0
102
RTVSPost2010PropOp31
 70
     1
102
RTVSPost2010Prop32
280
     0
102
RTVSPost2010PropOp32
 70
     1
102
RTVSPost2010Prop33
280
     0
102
RTVSPost2010PropOp33
 70
     1
102
RTVSPost2010Prop34
280
     0
102
RTVSPost2010PropOp34
 70
     1
102
RTVSPost2010Prop35
280
     0
102
RTVSPost2010PropOp35
 70
     1
102
RTVSPost2010Prop36
280
     0
102
RTVSPost2010PropOp36
 70
     1
102
RTVSPost2010Prop37
 90
       50
102
RTVSPost2010PropOp37
 70
     1
102
RTVSPost2010Prop38
140
0.0
102
RTVSPost2010PropOp38
 70
     1
102
RTVSPost2010Prop39
140
1.0
102
RTVSPost2010PropOp39
 70
     1
102
RTVSPost2010Prop40
 90
        0
102
RTVSPost2010PropOp40
 70
     1
102
RTVSPost2010Prop41ColorIndex
 90
       18
102
RTVSPost2010Prop41ColorRGB
 90
        0
102
RTVSPost2010PropOp41
 70
     1
102
RTVSPost2010Prop42
 90
       50
102
RTVSPost2010PropOp42
 70
     1
102
RTVSPost2010Prop43
 90
        3
102
RTVSPost2010PropOp43
 70
     1
102
RTVSPost2010Prop44ColorIndex
 90
        5
102
RTVSPost2010Prop44ColorRGB
 90
      255
102
RTVSPost2010PropOp44
 70
     1
102
RTVSPost2010Prop45
280
     0
102
RTVSPost2010PropOp45
 70
     1
102
RTVSPost2010Prop46
 90
       50
102
RTVSPost2010PropOp46
 70
     1
102
RTVSPost2010Prop47
 90
       50
102
RTVSPost2010PropOp47
 70
     1
102
RTVSPost2010Prop48
 90
       50
102
RTVSPost2010PropOp48
 70
     1
102
RTVSPost2010Prop49
280
     0
102
RTVSPost2010PropOp49
 70
     1
102
RTVSPost2010Prop50
 90
       50
102
RTVSPost2010PropOp50
 70
     1
102
RTVSPost2010Prop51ColorIndex
 90
      256
102
RTVSPost2010Prop51ColorRGB
 90
-16777216
102
RTVSPost2010PropOp51
 70
     0
102
RTVSPost2010Prop52
140
1.0
102
RTVSPost2010PropOp52
 70
     0
102
RTVSPost2010Prop53
 90
        2
102
RTVSPost2010PropOp53
 70
     1
102
RTVSPost2010Prop54
  1
strokes_ogs.tif
102
RTVSPost2010PropOp54
 70
     1
102
RTVSPost2010Prop55
280
     0
102
RTVSPost2010PropOp55
 70
     1
102
RTVSPost2010Prop56
140
1.0
102
RTVSPost2010PropOp56
 70
     1
102
RTVSPost2010Prop57
140
1.0
102
RTVSPost2010PropOp57
 70
     1
102
RTVSPropertyOp0
 70
     1
102
RTVSPropertyOp1
 70
     1
102
RTVSPropertyOp2
 70
     1
102
RTVSPropertyOp3
 70
     1
102
RTVSPropertyOp4
 70
     1
102
RTVSPropertyOp5
 70
     1
102
RTVSPropertyOp6
 70
     1
102
RTVSPropertyOp7
 70
     1
102
RTVSPropertyOp8
 70
     1
102
RTVSPropertyOp9
 70
     1
102
RTVSPropertyOp10
 70
     1
102
RTVSPropertyOp11
 70
     1
102
RTVSPropertyOp12
 70
     1
102
RTVSPropertyOp13
 70
     1
102
RTVSPropertyOp14
 70
     1
102
RTVSPropertyOp15
 70
     1
102
RTVSPropertyOp16
 70
     1
102
RTVSPropertyOp17
 70
     1
102
RTVSPropertyOp18
 70
     1
102
RTVSPropertyOp19
 70
     1
102
RTVSPropertyOp20
 70
     1
102
RTVSPropertyOp21
 70
     1
102
RTVSPropertyOp22
 70
     1
102
RTVSPropertyOp23
 70
     1
102
RTVSPropertyOp24
 70
     1
102
RTVSPropertyOp25
 70
     1
102
RTVSPropertyOp26
 70
     1
102
RTVSPropertyOp27
 70
     1
102
RTVSPropertyOp28
 70
     1
102
RTVSPropertyOp29
 70
     1
102
RTVSPropertyOp30
 70
     1
102
RTVSPropertyOp31
 70
     1
102
RTVSPropertyOp32
 70
     1
102
RTVSPropertyOp33
 70
     1
102
RTVSPropertyOp34
 70
     1
102
RTVSPropertyOp35
 70
     1
102
RTVSPropertyOp36
 70
     1
102
RTVSPropertyOp37
 70
     1
102
RTVSPropertyOp38
 70
     1
102
RTVSPropertyOp39
 70
     1
102
RTVSPropertyOp40
 70
     1
102
RTVSPropertyOp41
 70
     1
102
RTVSPropertyOp42
 70
     1
102
RTVSPropertyOp43
 70
     1
102
RTVSPropertyOp44
 70
     1
102
RTVSPropertyOp45
 70
     1
102
RTVSPropertyOp46
 70
     1
102
RTVSPropertyOp47
 70
     1
102
RTVSPropertyOp48
 70
     1
102
RTVSPropertyOp49
 70
     1
102
RTVSPropertyOp50
 70
     1
102
RTVSPropertyOp51
 70
     0
102
RTVSPropertyOp52
 70
     0
102
RTVSPropertyOp53
 70
     1
102
RTVSPropertyOp54
 70
     1
102
RTVSPropertyOp55
 70
     1
102
RTVSPropertyOp56
 70
     1
102
RTVSPropertyOp57
 70
     1
102
RTVSPropertyOp58
 70
     1
102
RTVSPropertyOp59
 70
     1
102
RTVSPropertyOp60
 70
     1
102
RTVSPropertyOp61
 70
     1
102
RTVSPropertyOp62
 70
     1
  0
XRECORD
  5
1B33
102
{ACAD_REACTORS
330
1B32
102
}
330
1B32
100
AcDbXrecord
280
     1
102
RTVSPost2010Prop28
280
     0
102
RTVSPost2010PropOp28
 70
     1
102
RTVSPost2010Prop29
280
     1
102
RTVSPost2010PropOp29
 70
     1
102
RTVSPost2010Prop30
280
     1
102
RTVSPost2010PropOp30
 70
     1
102
RTVSPost2010Prop31
280
     0
102
RTVSPost2010PropOp31
 70
     1
102
RTVSPost2010Prop32
280
     0
102
RTVSPost2010PropOp32
 70
     1
102
RTVSPost2010Prop33
280
     0
102
RTVSPost2010PropOp33
 70
     1
102
RTVSPost2010Prop34
280
     0
102
RTVSPost2010PropOp34
 70
     1
102
RTVSPost2010Prop35
280
     0
102
RTVSPost2010PropOp35
 70
     1
102
RTVSPost2010Prop36
280
     0
102
RTVSPost2010PropOp36
 70
     1
102
RTVSPost2010Prop37
 90
       50
102
RTVSPost2010PropOp37
 70
     1
102
RTVSPost2010Prop38
140
0.0
102
RTVSPost2010PropOp38
 70
     1
102
RTVSPost2010Prop39
140
1.0
102
RTVSPost2010PropOp39
 70
     1
102
RTVSPost2010Prop40
 90
        0
102
RTVSPost2010PropOp40
 70
     1
102
RTVSPost2010Prop41ColorIndex
 90
       18
102
RTVSPost2010Prop41ColorRGB
 90
        0
102
RTVSPost2010PropOp41
 70
     1
102
RTVSPost2010Prop42
 90
       50
102
RTVSPost2010PropOp42
 70
     1
102
RTVSPost2010Prop43
 90
        3
102
RTVSPost2010PropOp43
 70
     1
102
RTVSPost2010Prop44ColorIndex
 90
        5
102
RTVSPost2010Prop44ColorRGB
 90
      255
102
RTVSPost2010PropOp44
 70
     1
102
RTVSPost2010Prop45
280
     0
102
RTVSPost2010PropOp45
 70
     1
102
RTVSPost2010Prop46
 90
       50
102
RTVSPost2010PropOp46
 70
     1
102
RTVSPost2010Prop47
 90
       50
102
RTVSPost2010PropOp47
 70
     1
102
RTVSPost2010Prop48
 90
       50
102
RTVSPost2010PropOp48
 70
     1
102
RTVSPost2010Prop49
280
     0
102
RTVSPost2010PropOp49
 70
     1
102
RTVSPost2010Prop50
 90
       50
102
RTVSPost2010PropOp50
 70
     1
102
RTVSPost2010Prop51ColorIndex
 90
      256
102
RTVSPost2010Prop51ColorRGB
 90
-16777216
102
RTVSPost2010PropOp51
 70
     0
102
RTVSPost2010Prop52
140
1.0
102
RTVSPost2010PropOp52
 70
     0
102
RTVSPost2010Prop53
 90
        2
102
RTVSPost2010PropOp53
 70
     1
102
RTVSPost2010Prop54
  1
strokes_ogs.tif
102
RTVSPost2010PropOp54
 70
     1
102
RTVSPost2010Prop55
280
     0
102
RTVSPost2010PropOp55
 70
     1
102
RTVSPost2010Prop56
140
1.0
102
RTVSPost2010PropOp56
 70
     1
102
RTVSPost2010Prop57
140
1.0
102
RTVSPost2010PropOp57
 70
     1
102
RTVSPropertyOp0
 70
     1
102
RTVSPropertyOp1
 70
     1
102
RTVSPropertyOp2
 70
     1
102
RTVSPropertyOp3
 70
     1
102
RTVSPropertyOp4
 70
     1
102
RTVSPropertyOp5
 70
     1
102
RTVSPropertyOp6
 70
     1
102
RTVSPropertyOp7
 70
     1
102
RTVSPropertyOp8
 70
     1
102
RTVSPropertyOp9
 70
     1
102
RTVSPropertyOp10
 70
     1
102
RTVSPropertyOp11
 70
     1
102
RTVSPropertyOp12
 70
     1
102
RTVSPropertyOp13
 70
     1
102
RTVSPropertyOp14
 70
     1
102
RTVSPropertyOp15
 70
     1
102
RTVSPropertyOp16
 70
     1
102
RTVSPropertyOp17
 70
     1
102
RTVSPropertyOp18
 70
     1
102
RTVSPropertyOp19
 70
     1
102
RTVSPropertyOp20
 70
     1
102
RTVSPropertyOp21
 70
     1
102
RTVSPropertyOp22
 70
     1
102
RTVSPropertyOp23
 70
     1
102
RTVSPropertyOp24
 70
     1
102
RTVSPropertyOp25
 70
     1
102
RTVSPropertyOp26
 70
     1
102
RTVSPropertyOp27
 70
     1
102
RTVSPropertyOp28
 70
     1
102
RTVSPropertyOp29
 70
     1
102
RTVSPropertyOp30
 70
     1
102
RTVSPropertyOp31
 70
     1
102
RTVSPropertyOp32
 70
     1
102
RTVSPropertyOp33
 70
     1
102
RTVSPropertyOp34
 70
     1
102
RTVSPropertyOp35
 70
     1
102
RTVSPropertyOp36
 70
     1
102
RTVSPropertyOp37
 70
     1
102
RTVSPropertyOp38
 70
     1
102
RTVSPropertyOp39
 70
     1
102
RTVSPropertyOp40
 70
     1
102
RTVSPropertyOp41
 70
     1
102
RTVSPropertyOp42
 70
     1
102
RTVSPropertyOp43
 70
     1
102
RTVSPropertyOp44
 70
     1
102
RTVSPropertyOp45
 70
     1
102
RTVSPropertyOp46
 70
     1
102
RTVSPropertyOp47
 70
     1
102
RTVSPropertyOp48
 70
     1
102
RTVSPropertyOp49
 70
     1
102
RTVSPropertyOp50
 70
     1
102
RTVSPropertyOp51
 70
     0
102
RTVSPropertyOp52
 70
     0
102
RTVSPropertyOp53
 70
     1
102
RTVSPropertyOp54
 70
     1
102
RTVSPropertyOp55
 70
     1
102
RTVSPropertyOp56
 70
     1
102
RTVSPropertyOp57
 70
     1
102
RTVSPropertyOp58
 70
     1
102
RTVSPropertyOp59
 70
     1
102
RTVSPropertyOp60
 70
     1
102
RTVSPropertyOp61
 70
     1
102
RTVSPropertyOp62
 70
     1
  0
XRECORD
  5
1B35
102
{ACAD_REACTORS
330
1B34
102
}
330
1B34
100
AcDbXrecord
280
     1
102
RTVSPost2010Prop28
280
     0
102
RTVSPost2010PropOp28
 70
     1
102
RTVSPost2010Prop29
280
     1
102
RTVSPost2010PropOp29
 70
     1
102
RTVSPost2010Prop30
280
     1
102
RTVSPost2010PropOp30
 70
     1
102
RTVSPost2010Prop31
280
     0
102
RTVSPost2010PropOp31
 70
     1
102
RTVSPost2010Prop32
280
     0
102
RTVSPost2010PropOp32
 70
     1
102
RTVSPost2010Prop33
280
     0
102
RTVSPost2010PropOp33
 70
     1
102
RTVSPost2010Prop34
280
     0
102
RTVSPost2010PropOp34
 70
     1
102
RTVSPost2010Prop35
280
     0
102
RTVSPost2010PropOp35
 70
     1
102
RTVSPost2010Prop36
280
     0
102
RTVSPost2010PropOp36
 70
     1
102
RTVSPost2010Prop37
 90
       50
102
RTVSPost2010PropOp37
 70
     1
102
RTVSPost2010Prop38
140
0.0
102
RTVSPost2010PropOp38
 70
     1
102
RTVSPost2010Prop39
140
1.0
102
RTVSPost2010PropOp39
 70
     1
102
RTVSPost2010Prop40
 90
        0
102
RTVSPost2010PropOp40
 70
     1
102
RTVSPost2010Prop41ColorIndex
 90
       18
102
RTVSPost2010Prop41ColorRGB
 90
        0
102
RTVSPost2010PropOp41
 70
     1
102
RTVSPost2010Prop42
 90
       50
102
RTVSPost2010PropOp42
 70
     1
102
RTVSPost2010Prop43
 90
        3
102
RTVSPost2010PropOp43
 70
     1
102
RTVSPost2010Prop44ColorIndex
 90
        5
102
RTVSPost2010Prop44ColorRGB
 90
      255
102
RTVSPost2010PropOp44
 70
     1
102
RTVSPost2010Prop45
280
     0
102
RTVSPost2010PropOp45
 70
     1
102
RTVSPost2010Prop46
 90
       50
102
RTVSPost2010PropOp46
 70
     1
102
RTVSPost2010Prop47
 90
       50
102
RTVSPost2010PropOp47
 70
     1
102
RTVSPost2010Prop48
 90
       50
102
RTVSPost2010PropOp48
 70
     1
102
RTVSPost2010Prop49
280
     0
102
RTVSPost2010PropOp49
 70
     1
102
RTVSPost2010Prop50
 90
       50
102
RTVSPost2010PropOp50
 70
     1
102
RTVSPost2010Prop51ColorIndex
 90
      256
102
RTVSPost2010Prop51ColorRGB
 90
-16777216
102
RTVSPost2010PropOp51
 70
     0
102
RTVSPost2010Prop52
140
1.0
102
RTVSPost2010PropOp52
 70
     0
102
RTVSPost2010Prop53
 90
        2
102
RTVSPost2010PropOp53
 70
     1
102
RTVSPost2010Prop54
  1
strokes_ogs.tif
102
RTVSPost2010PropOp54
 70
     1
102
RTVSPost2010Prop55
280
     0
102
RTVSPost2010PropOp55
 70
     1
102
RTVSPost2010Prop56
140
1.0
102
RTVSPost2010PropOp56
 70
     1
102
RTVSPost2010Prop57
140
1.0
102
RTVSPost2010PropOp57
 70
     1
102
RTVSPropertyOp0
 70
     1
102
RTVSPropertyOp1
 70
     1
102
RTVSPropertyOp2
 70
     1
102
RTVSPropertyOp3
 70
     1
102
RTVSPropertyOp4
 70
     1
102
RTVSPropertyOp5
 70
     1
102
RTVSPropertyOp6
 70
     1
102
RTVSPropertyOp7
 70
     1
102
RTVSPropertyOp8
 70
     1
102
RTVSPropertyOp9
 70
     1
102
RTVSPropertyOp10
 70
     1
102
RTVSPropertyOp11
 70
     1
102
RTVSPropertyOp12
 70
     1
102
RTVSPropertyOp13
 70
     1
102
RTVSPropertyOp14
 70
     1
102
RTVSPropertyOp15
 70
     1
102
RTVSPropertyOp16
 70
     1
102
RTVSPropertyOp17
 70
     1
102
RTVSPropertyOp18
 70
     1
102
RTVSPropertyOp19
 70
     1
102
RTVSPropertyOp20
 70
     1
102
RTVSPropertyOp21
 70
     1
102
RTVSPropertyOp22
 70
     1
102
RTVSPropertyOp23
 70
     1
102
RTVSPropertyOp24
 70
     1
102
RTVSPropertyOp25
 70
     1
102
RTVSPropertyOp26
 70
     1
102
RTVSPropertyOp27
 70
     1
102
RTVSPropertyOp28
 70
     1
102
RTVSPropertyOp29
 70
     1
102
RTVSPropertyOp30
 70
     1
102
RTVSPropertyOp31
 70
     1
102
RTVSPropertyOp32
 70
     1
102
RTVSPropertyOp33
 70
     1
102
RTVSPropertyOp34
 70
     1
102
RTVSPropertyOp35
 70
     1
102
RTVSPropertyOp36
 70
     1
102
RTVSPropertyOp37
 70
     1
102
RTVSPropertyOp38
 70
     1
102
RTVSPropertyOp39
 70
     1
102
RTVSPropertyOp40
 70
     1
102
RTVSPropertyOp41
 70
     1
102
RTVSPropertyOp42
 70
     1
102
RTVSPropertyOp43
 70
     1
102
RTVSPropertyOp44
 70
     1
102
RTVSPropertyOp45
 70
     1
102
RTVSPropertyOp46
 70
     1
102
RTVSPropertyOp47
 70
     1
102
RTVSPropertyOp48
 70
     1
102
RTVSPropertyOp49
 70
     1
102
RTVSPropertyOp50
 70
     1
102
RTVSPropertyOp51
 70
     0
102
RTVSPropertyOp52
 70
     0
102
RTVSPropertyOp53
 70
     1
102
RTVSPropertyOp54
 70
     1
102
RTVSPropertyOp55
 70
     1
102
RTVSPropertyOp56
 70
     1
102
RTVSPropertyOp57
 70
     1
102
RTVSPropertyOp58
 70
     1
102
RTVSPropertyOp59
 70
     1
102
RTVSPropertyOp60
 70
     1
102
RTVSPropertyOp61
 70
     1
102
RTVSPropertyOp62
 70
     1
  0
XRECORD
  5
1B37
102
{ACAD_REACTORS
330
1B36
102
}
330
1B36
100
AcDbXrecord
280
     1
102
RTVSPost2010Prop28
280
     0
102
RTVSPost2010PropOp28
 70
     1
102
RTVSPost2010Prop29
280
     1
102
RTVSPost2010PropOp29
 70
     1
102
RTVSPost2010Prop30
280
     1
102
RTVSPost2010PropOp30
 70
     1
102
RTVSPost2010Prop31
280
     0
102
RTVSPost2010PropOp31
 70
     1
102
RTVSPost2010Prop32
280
     0
102
RTVSPost2010PropOp32
 70
     1
102
RTVSPost2010Prop33
280
     0
102
RTVSPost2010PropOp33
 70
     1
102
RTVSPost2010Prop34
280
     0
102
RTVSPost2010PropOp34
 70
     1
102
RTVSPost2010Prop35
280
     0
102
RTVSPost2010PropOp35
 70
     1
102
RTVSPost2010Prop36
280
     0
102
RTVSPost2010PropOp36
 70
     1
102
RTVSPost2010Prop37
 90
       50
102
RTVSPost2010PropOp37
 70
     1
102
RTVSPost2010Prop38
140
0.0
102
RTVSPost2010PropOp38
 70
     1
102
RTVSPost2010Prop39
140
1.0
102
RTVSPost2010PropOp39
 70
     1
102
RTVSPost2010Prop40
 90
        0
102
RTVSPost2010PropOp40
 70
     1
102
RTVSPost2010Prop41ColorIndex
 90
       18
102
RTVSPost2010Prop41ColorRGB
 90
        0
102
RTVSPost2010PropOp41
 70
     1
102
RTVSPost2010Prop42
 90
       50
102
RTVSPost2010PropOp42
 70
     1
102
RTVSPost2010Prop43
 90
        3
102
RTVSPost2010PropOp43
 70
     1
102
RTVSPost2010Prop44ColorIndex
 90
        5
102
RTVSPost2010Prop44ColorRGB
 90
      255
102
RTVSPost2010PropOp44
 70
     1
102
RTVSPost2010Prop45
280
     0
102
RTVSPost2010PropOp45
 70
     1
102
RTVSPost2010Prop46
 90
       50
102
RTVSPost2010PropOp46
 70
     1
102
RTVSPost2010Prop47
 90
       50
102
RTVSPost2010PropOp47
 70
     1
102
RTVSPost2010Prop48
 90
       50
102
RTVSPost2010PropOp48
 70
     1
102
RTVSPost2010Prop49
280
     0
102
RTVSPost2010PropOp49
 70
     1
102
RTVSPost2010Prop50
 90
       50
102
RTVSPost2010PropOp50
 70
     1
102
RTVSPost2010Prop51ColorIndex
 90
      256
102
RTVSPost2010Prop51ColorRGB
 90
-16777216
102
RTVSPost2010PropOp51
 70
     0
102
RTVSPost2010Prop52
140
1.0
102
RTVSPost2010PropOp52
 70
     0
102
RTVSPost2010Prop53
 90
        2
102
RTVSPost2010PropOp53
 70
     1
102
RTVSPost2010Prop54
  1
strokes_ogs.tif
102
RTVSPost2010PropOp54
 70
     1
102
RTVSPost2010Prop55
280
     0
102
RTVSPost2010PropOp55
 70
     1
102
RTVSPost2010Prop56
140
1.0
102
RTVSPost2010PropOp56
 70
     1
102
RTVSPost2010Prop57
140
1.0
102
RTVSPost2010PropOp57
 70
     1
102
RTVSPropertyOp0
 70
     1
102
RTVSPropertyOp1
 70
     1
102
RTVSPropertyOp2
 70
     1
102
RTVSPropertyOp3
 70
     1
102
RTVSPropertyOp4
 70
     1
102
RTVSPropertyOp5
 70
     1
102
RTVSPropertyOp6
 70
     1
102
RTVSPropertyOp7
 70
     1
102
RTVSPropertyOp8
 70
     1
102
RTVSPropertyOp9
 70
     1
102
RTVSPropertyOp10
 70
     1
102
RTVSPropertyOp11
 70
     1
102
RTVSPropertyOp12
 70
     1
102
RTVSPropertyOp13
 70
     1
102
RTVSPropertyOp14
 70
     1
102
RTVSPropertyOp15
 70
     1
102
RTVSPropertyOp16
 70
     1
102
RTVSPropertyOp17
 70
     1
102
RTVSPropertyOp18
 70
     1
102
RTVSPropertyOp19
 70
     1
102
RTVSPropertyOp20
 70
     1
102
RTVSPropertyOp21
 70
     1
102
RTVSPropertyOp22
 70
     1
102
RTVSPropertyOp23
 70
     1
102
RTVSPropertyOp24
 70
     1
102
RTVSPropertyOp25
 70
     1
102
RTVSPropertyOp26
 70
     1
102
RTVSPropertyOp27
 70
     1
102
RTVSPropertyOp28
 70
     1
102
RTVSPropertyOp29
 70
     1
102
RTVSPropertyOp30
 70
     1
102
RTVSPropertyOp31
 70
     1
102
RTVSPropertyOp32
 70
     1
102
RTVSPropertyOp33
 70
     1
102
RTVSPropertyOp34
 70
     1
102
RTVSPropertyOp35
 70
     1
102
RTVSPropertyOp36
 70
     1
102
RTVSPropertyOp37
 70
     1
102
RTVSPropertyOp38
 70
     1
102
RTVSPropertyOp39
 70
     1
102
RTVSPropertyOp40
 70
     1
102
RTVSPropertyOp41
 70
     1
102
RTVSPropertyOp42
 70
     1
102
RTVSPropertyOp43
 70
     1
102
RTVSPropertyOp44
 70
     1
102
RTVSPropertyOp45
 70
     1
102
RTVSPropertyOp46
 70
     1
102
RTVSPropertyOp47
 70
     1
102
RTVSPropertyOp48
 70
     1
102
RTVSPropertyOp49
 70
     1
102
RTVSPropertyOp50
 70
     1
102
RTVSPropertyOp51
 70
     0
102
RTVSPropertyOp52
 70
     0
102
RTVSPropertyOp53
 70
     1
102
RTVSPropertyOp54
 70
     1
102
RTVSPropertyOp55
 70
     1
102
RTVSPropertyOp56
 70
     1
102
RTVSPropertyOp57
 70
     1
102
RTVSPropertyOp58
 70
     1
102
RTVSPropertyOp59
 70
     1
102
RTVSPropertyOp60
 70
     1
102
RTVSPropertyOp61
 70
     1
102
RTVSPropertyOp62
 70
     1
  0
XRECORD
  5
1B3F
102
{ACAD_REACTORS
330
1B3E
102
}
330
1B3E
100
AcDbXrecord
280
     1
102
RTVSPost2010Prop28
280
     0
102
RTVSPost2010PropOp28
 70
     1
102
RTVSPost2010Prop29
280
     1
102
RTVSPost2010PropOp29
 70
     1
102
RTVSPost2010Prop30
280
     1
102
RTVSPost2010PropOp30
 70
     1
102
RTVSPost2010Prop31
280
     0
102
RTVSPost2010PropOp31
 70
     1
102
RTVSPost2010Prop32
280
     0
102
RTVSPost2010PropOp32
 70
     1
102
RTVSPost2010Prop33
280
     0
102
RTVSPost2010PropOp33
 70
     1
102
RTVSPost2010Prop34
280
     0
102
RTVSPost2010PropOp34
 70
     1
102
RTVSPost2010Prop35
280
     0
102
RTVSPost2010PropOp35
 70
     1
102
RTVSPost2010Prop36
280
     0
102
RTVSPost2010PropOp36
 70
     1
102
RTVSPost2010Prop37
 90
       50
102
RTVSPost2010PropOp37
 70
     1
102
RTVSPost2010Prop38
140
0.0
102
RTVSPost2010PropOp38
 70
     1
102
RTVSPost2010Prop39
140
1.0
102
RTVSPost2010PropOp39
 70
     1
102
RTVSPost2010Prop40
 90
        0
102
RTVSPost2010PropOp40
 70
     1
102
RTVSPost2010Prop41ColorIndex
 90
       18
102
RTVSPost2010Prop41ColorRGB
 90
        0
102
RTVSPost2010PropOp41
 70
     1
102
RTVSPost2010Prop42
 90
       50
102
RTVSPost2010PropOp42
 70
     1
102
RTVSPost2010Prop43
 90
        3
102
RTVSPost2010PropOp43
 70
     1
102
RTVSPost2010Prop44ColorIndex
 90
        5
102
RTVSPost2010Prop44ColorRGB
 90
      255
102
RTVSPost2010PropOp44
 70
     1
102
RTVSPost2010Prop45
280
     0
102
RTVSPost2010PropOp45
 70
     1
102
RTVSPost2010Prop46
 90
       50
102
RTVSPost2010PropOp46
 70
     1
102
RTVSPost2010Prop47
 90
       50
102
RTVSPost2010PropOp47
 70
     1
102
RTVSPost2010Prop48
 90
       50
102
RTVSPost2010PropOp48
 70
     1
102
RTVSPost2010Prop49
280
     0
102
RTVSPost2010PropOp49
 70
     1
102
RTVSPost2010Prop50
 90
       50
102
RTVSPost2010PropOp50
 70
     1
102
RTVSPost2010Prop51ColorIndex
 90
      256
102
RTVSPost2010Prop51ColorRGB
 90
-16777216
102
RTVSPost2010PropOp51
 70
     0
102
RTVSPost2010Prop52
140
1.0
102
RTVSPost2010PropOp52
 70
     0
102
RTVSPost2010Prop53
 90
        2
102
RTVSPost2010PropOp53
 70
     1
102
RTVSPost2010Prop54
  1
strokes_ogs.tif
102
RTVSPost2010PropOp54
 70
     1
102
RTVSPost2010Prop55
280
     0
102
RTVSPost2010PropOp55
 70
     1
102
RTVSPost2010Prop56
140
1.0
102
RTVSPost2010PropOp56
 70
     1
102
RTVSPost2010Prop57
140
1.0
102
RTVSPost2010PropOp57
 70
     1
102
RTVSPropertyOp0
 70
     1
102
RTVSPropertyOp1
 70
     1
102
RTVSPropertyOp2
 70
     1
102
RTVSPropertyOp3
 70
     1
102
RTVSPropertyOp4
 70
     1
102
RTVSPropertyOp5
 70
     1
102
RTVSPropertyOp6
 70
     1
102
RTVSPropertyOp7
 70
     1
102
RTVSPropertyOp8
 70
     1
102
RTVSPropertyOp9
 70
     1
102
RTVSPropertyOp10
 70
     1
102
RTVSPropertyOp11
 70
     1
102
RTVSPropertyOp12
 70
     1
102
RTVSPropertyOp13
 70
     1
102
RTVSPropertyOp14
 70
     1
102
RTVSPropertyOp15
 70
     1
102
RTVSPropertyOp16
 70
     1
102
RTVSPropertyOp17
 70
     1
102
RTVSPropertyOp18
 70
     1
102
RTVSPropertyOp19
 70
     1
102
RTVSPropertyOp20
 70
     1
102
RTVSPropertyOp21
 70
     1
102
RTVSPropertyOp22
 70
     1
102
RTVSPropertyOp23
 70
     1
102
RTVSPropertyOp24
 70
     1
102
RTVSPropertyOp25
 70
     1
102
RTVSPropertyOp26
 70
     1
102
RTVSPropertyOp27
 70
     1
102
RTVSPropertyOp28
 70
     1
102
RTVSPropertyOp29
 70
     1
102
RTVSPropertyOp30
 70
     1
102
RTVSPropertyOp31
 70
     1
102
RTVSPropertyOp32
 70
     1
102
RTVSPropertyOp33
 70
     1
102
RTVSPropertyOp34
 70
     1
102
RTVSPropertyOp35
 70
     1
102
RTVSPropertyOp36
 70
     1
102
RTVSPropertyOp37
 70
     1
102
RTVSPropertyOp38
 70
     1
102
RTVSPropertyOp39
 70
     1
102
RTVSPropertyOp40
 70
     1
102
RTVSPropertyOp41
 70
     1
102
RTVSPropertyOp42
 70
     1
102
RTVSPropertyOp43
 70
     1
102
RTVSPropertyOp44
 70
     1
102
RTVSPropertyOp45
 70
     1
102
RTVSPropertyOp46
 70
     1
102
RTVSPropertyOp47
 70
     1
102
RTVSPropertyOp48
 70
     1
102
RTVSPropertyOp49
 70
     1
102
RTVSPropertyOp50
 70
     1
102
RTVSPropertyOp51
 70
     0
102
RTVSPropertyOp52
 70
     0
102
RTVSPropertyOp53
 70
     1
102
RTVSPropertyOp54
 70
     1
102
RTVSPropertyOp55
 70
     1
102
RTVSPropertyOp56
 70
     1
102
RTVSPropertyOp57
 70
     1
102
RTVSPropertyOp58
 70
     1
102
RTVSPropertyOp59
 70
     1
102
RTVSPropertyOp60
 70
     1
102
RTVSPropertyOp61
 70
     1
102
RTVSPropertyOp62
 70
     1
  0
XRECORD
  5
1B53
102
{ACAD_REACTORS
330
1B52
102
}
330
1B52
100
AcDbXrecord
280
     1
102
RTVSPost2010Prop28
280
     0
102
RTVSPost2010PropOp28
 70
     1
102
RTVSPost2010Prop29
280
     1
102
RTVSPost2010PropOp29
 70
     1
102
RTVSPost2010Prop30
280
     1
102
RTVSPost2010PropOp30
 70
     1
102
RTVSPost2010Prop31
280
     0
102
RTVSPost2010PropOp31
 70
     1
102
RTVSPost2010Prop32
280
     0
102
RTVSPost2010PropOp32
 70
     1
102
RTVSPost2010Prop33
280
     0
102
RTVSPost2010PropOp33
 70
     1
102
RTVSPost2010Prop34
280
     0
102
RTVSPost2010PropOp34
 70
     1
102
RTVSPost2010Prop35
280
     0
102
RTVSPost2010PropOp35
 70
     1
102
RTVSPost2010Prop36
280
     0
102
RTVSPost2010PropOp36
 70
     1
102
RTVSPost2010Prop37
 90
       50
102
RTVSPost2010PropOp37
 70
     1
102
RTVSPost2010Prop38
140
0.0
102
RTVSPost2010PropOp38
 70
     1
102
RTVSPost2010Prop39
140
1.0
102
RTVSPost2010PropOp39
 70
     1
102
RTVSPost2010Prop40
 90
        0
102
RTVSPost2010PropOp40
 70
     1
102
RTVSPost2010Prop41ColorIndex
 90
       18
102
RTVSPost2010Prop41ColorRGB
 90
        0
102
RTVSPost2010PropOp41
 70
     1
102
RTVSPost2010Prop42
 90
       50
102
RTVSPost2010PropOp42
 70
     1
102
RTVSPost2010Prop43
 90
        3
102
RTVSPost2010PropOp43
 70
     1
102
RTVSPost2010Prop44ColorIndex
 90
        5
102
RTVSPost2010Prop44ColorRGB
 90
      255
102
RTVSPost2010PropOp44
 70
     1
102
RTVSPost2010Prop45
280
     0
102
RTVSPost2010PropOp45
 70
     1
102
RTVSPost2010Prop46
 90
       50
102
RTVSPost2010PropOp46
 70
     1
102
RTVSPost2010Prop47
 90
       50
102
RTVSPost2010PropOp47
 70
     1
102
RTVSPost2010Prop48
 90
       50
102
RTVSPost2010PropOp48
 70
     1
102
RTVSPost2010Prop49
280
     0
102
RTVSPost2010PropOp49
 70
     1
102
RTVSPost2010Prop50
 90
       50
102
RTVSPost2010PropOp50
 70
     1
102
RTVSPost2010Prop51ColorIndex
 90
      256
102
RTVSPost2010Prop51ColorRGB
 90
-16777216
102
RTVSPost2010PropOp51
 70
     0
102
RTVSPost2010Prop52
140
1.0
102
RTVSPost2010PropOp52
 70
     0
102
RTVSPost2010Prop53
 90
        2
102
RTVSPost2010PropOp53
 70
     1
102
RTVSPost2010Prop54
  1
strokes_ogs.tif
102
RTVSPost2010PropOp54
 70
     1
102
RTVSPost2010Prop55
280
     0
102
RTVSPost2010PropOp55
 70
     1
102
RTVSPost2010Prop56
140
1.0
102
RTVSPost2010PropOp56
 70
     1
102
RTVSPost2010Prop57
140
1.0
102
RTVSPost2010PropOp57
 70
     1
102
RTVSPropertyOp0
 70
     0
102
RTVSPropertyOp1
 70
     0
102
RTVSPropertyOp2
 70
     0
102
RTVSPropertyOp3
 70
     0
102
RTVSPropertyOp4
 70
     0
102
RTVSPropertyOp5
 70
     0
102
RTVSPropertyOp6
 70
     0
102
RTVSPropertyOp7
 70
     0
102
RTVSPropertyOp8
 70
     0
102
RTVSPropertyOp9
 70
     0
102
RTVSPropertyOp10
 70
     0
102
RTVSPropertyOp11
 70
     0
102
RTVSPropertyOp12
 70
     0
102
RTVSPropertyOp13
 70
     0
102
RTVSPropertyOp14
 70
     2
102
RTVSPropertyOp15
 70
     0
102
RTVSPropertyOp16
 70
     0
102
RTVSPropertyOp17
 70
     0
102
RTVSPropertyOp18
 70
     0
102
RTVSPropertyOp19
 70
     0
102
RTVSPropertyOp20
 70
     0
102
RTVSPropertyOp21
 70
     0
102
RTVSPropertyOp22
 70
     0
102
RTVSPropertyOp23
 70
     0
102
RTVSPropertyOp24
 70
     0
102
RTVSPropertyOp25
 70
     0
102
RTVSPropertyOp26
 70
     0
102
RTVSPropertyOp27
 70
     0
102
RTVSPropertyOp28
 70
     1
102
RTVSPropertyOp29
 70
     1
102
RTVSPropertyOp30
 70
     1
102
RTVSPropertyOp31
 70
     1
102
RTVSPropertyOp32
 70
     1
102
RTVSPropertyOp33
 70
     1
102
RTVSPropertyOp34
 70
     1
102
RTVSPropertyOp35
 70
     1
102
RTVSPropertyOp36
 70
     1
102
RTVSPropertyOp37
 70
     1
102
RTVSPropertyOp38
 70
     1
102
RTVSPropertyOp39
 70
     1
102
RTVSPropertyOp40
 70
     1
102
RTVSPropertyOp41
 70
     1
102
RTVSPropertyOp42
 70
     1
102
RTVSPropertyOp43
 70
     1
102
RTVSPropertyOp44
 70
     1
102
RTVSPropertyOp45
 70
     1
102
RTVSPropertyOp46
 70
     1
102
RTVSPropertyOp47
 70
     1
102
RTVSPropertyOp48
 70
     1
102
RTVSPropertyOp49
 70
     1
102
RTVSPropertyOp50
 70
     1
102
RTVSPropertyOp51
 70
     0
102
RTVSPropertyOp52
 70
     0
102
RTVSPropertyOp53
 70
     1
102
RTVSPropertyOp54
 70
     1
102
RTVSPropertyOp55
 70
     1
102
RTVSPropertyOp56
 70
     1
102
RTVSPropertyOp57
 70
     1
102
RTVSPropertyOp58
 70
     1
102
RTVSPropertyOp59
 70
     1
102
RTVSPropertyOp60
 70
     1
102
RTVSPropertyOp61
 70
     1
102
RTVSPropertyOp62
 70
     1
  0
XRECORD
  5
1B4B
102
{ACAD_REACTORS
330
1B4A
102
}
330
1B4A
100
AcDbXrecord
280
     1
102
RTVSPost2010Prop28
280
     0
102
RTVSPost2010PropOp28
 70
     1
102
RTVSPost2010Prop29
280
     1
102
RTVSPost2010PropOp29
 70
     1
102
RTVSPost2010Prop30
280
     1
102
RTVSPost2010PropOp30
 70
     1
102
RTVSPost2010Prop31
280
     0
102
RTVSPost2010PropOp31
 70
     1
102
RTVSPost2010Prop32
280
     0
102
RTVSPost2010PropOp32
 70
     1
102
RTVSPost2010Prop33
280
     0
102
RTVSPost2010PropOp33
 70
     1
102
RTVSPost2010Prop34
280
     0
102
RTVSPost2010PropOp34
 70
     1
102
RTVSPost2010Prop35
280
     0
102
RTVSPost2010PropOp35
 70
     1
102
RTVSPost2010Prop36
280
     0
102
RTVSPost2010PropOp36
 70
     1
102
RTVSPost2010Prop37
 90
       50
102
RTVSPost2010PropOp37
 70
     1
102
RTVSPost2010Prop38
140
0.0
102
RTVSPost2010PropOp38
 70
     1
102
RTVSPost2010Prop39
140
1.0
102
RTVSPost2010PropOp39
 70
     1
102
RTVSPost2010Prop40
 90
        0
102
RTVSPost2010PropOp40
 70
     1
102
RTVSPost2010Prop41ColorIndex
 90
       18
102
RTVSPost2010Prop41ColorRGB
 90
        0
102
RTVSPost2010PropOp41
 70
     1
102
RTVSPost2010Prop42
 90
       50
102
RTVSPost2010PropOp42
 70
     1
102
RTVSPost2010Prop43
 90
        3
102
RTVSPost2010PropOp43
 70
     1
102
RTVSPost2010Prop44ColorIndex
 90
        5
102
RTVSPost2010Prop44ColorRGB
 90
      255
102
RTVSPost2010PropOp44
 70
     1
102
RTVSPost2010Prop45
280
     0
102
RTVSPost2010PropOp45
 70
     1
102
RTVSPost2010Prop46
 90
       50
102
RTVSPost2010PropOp46
 70
     1
102
RTVSPost2010Prop47
 90
       50
102
RTVSPost2010PropOp47
 70
     1
102
RTVSPost2010Prop48
 90
       50
102
RTVSPost2010PropOp48
 70
     1
102
RTVSPost2010Prop49
280
     0
102
RTVSPost2010PropOp49
 70
     1
102
RTVSPost2010Prop50
 90
       50
102
RTVSPost2010PropOp50
 70
     1
102
RTVSPost2010Prop51ColorIndex
 90
      256
102
RTVSPost2010Prop51ColorRGB
 90
-16777216
102
RTVSPost2010PropOp51
 70
     0
102
RTVSPost2010Prop52
140
1.0
102
RTVSPost2010PropOp52
 70
     0
102
RTVSPost2010Prop53
 90
        2
102
RTVSPost2010PropOp53
 70
     1
102
RTVSPost2010Prop54
  1
strokes_ogs.tif
102
RTVSPost2010PropOp54
 70
     1
102
RTVSPost2010Prop55
280
     0
102
RTVSPost2010PropOp55
 70
     1
102
RTVSPost2010Prop56
140
1.0
102
RTVSPost2010PropOp56
 70
     1
102
RTVSPost2010Prop57
140
1.0
102
RTVSPost2010PropOp57
 70
     1
102
RTVSPropertyOp0
 70
     1
102
RTVSPropertyOp1
 70
     1
102
RTVSPropertyOp2
 70
     1
102
RTVSPropertyOp3
 70
     1
102
RTVSPropertyOp4
 70
     1
102
RTVSPropertyOp5
 70
     1
102
RTVSPropertyOp6
 70
     1
102
RTVSPropertyOp7
 70
     1
102
RTVSPropertyOp8
 70
     1
102
RTVSPropertyOp9
 70
     1
102
RTVSPropertyOp10
 70
     1
102
RTVSPropertyOp11
 70
     1
102
RTVSPropertyOp12
 70
     1
102
RTVSPropertyOp13
 70
     1
102
RTVSPropertyOp14
 70
     1
102
RTVSPropertyOp15
 70
     1
102
RTVSPropertyOp16
 70
     1
102
RTVSPropertyOp17
 70
     1
102
RTVSPropertyOp18
 70
     1
102
RTVSPropertyOp19
 70
     1
102
RTVSPropertyOp20
 70
     1
102
RTVSPropertyOp21
 70
     1
102
RTVSPropertyOp22
 70
     1
102
RTVSPropertyOp23
 70
     1
102
RTVSPropertyOp24
 70
     1
102
RTVSPropertyOp25
 70
     1
102
RTVSPropertyOp26
 70
     1
102
RTVSPropertyOp27
 70
     1
102
RTVSPropertyOp28
 70
     1
102
RTVSPropertyOp29
 70
     1
102
RTVSPropertyOp30
 70
     1
102
RTVSPropertyOp31
 70
     1
102
RTVSPropertyOp32
 70
     1
102
RTVSPropertyOp33
 70
     1
102
RTVSPropertyOp34
 70
     1
102
RTVSPropertyOp35
 70
     1
102
RTVSPropertyOp36
 70
     1
102
RTVSPropertyOp37
 70
     1
102
RTVSPropertyOp38
 70
     1
102
RTVSPropertyOp39
 70
     1
102
RTVSPropertyOp40
 70
     1
102
RTVSPropertyOp41
 70
     1
102
RTVSPropertyOp42
 70
     1
102
RTVSPropertyOp43
 70
     1
102
RTVSPropertyOp44
 70
     1
102
RTVSPropertyOp45
 70
     1
102
RTVSPropertyOp46
 70
     1
102
RTVSPropertyOp47
 70
     1
102
RTVSPropertyOp48
 70
     1
102
RTVSPropertyOp49
 70
     1
102
RTVSPropertyOp50
 70
     1
102
RTVSPropertyOp51
 70
     0
102
RTVSPropertyOp52
 70
     0
102
RTVSPropertyOp53
 70
     1
102
RTVSPropertyOp54
 70
     1
102
RTVSPropertyOp55
 70
     1
102
RTVSPropertyOp56
 70
     1
102
RTVSPropertyOp57
 70
     1
102
RTVSPropertyOp58
 70
     1
102
RTVSPropertyOp59
 70
     1
102
RTVSPropertyOp60
 70
     1
102
RTVSPropertyOp61
 70
     1
102
RTVSPropertyOp62
 70
     1
  0
XRECORD
  5
1B55
102
{ACAD_REACTORS
330
1B54
102
}
330
1B54
100
AcDbXrecord
280
     1
102
RTVSPost2010Prop28
280
     0
102
RTVSPost2010PropOp28
 70
     1
102
RTVSPost2010Prop29
280
     1
102
RTVSPost2010PropOp29
 70
     1
102
RTVSPost2010Prop30
280
     1
102
RTVSPost2010PropOp30
 70
     1
102
RTVSPost2010Prop31
280
     0
102
RTVSPost2010PropOp31
 70
     1
102
RTVSPost2010Prop32
280
     0
102
RTVSPost2010PropOp32
 70
     1
102
RTVSPost2010Prop33
280
     0
102
RTVSPost2010PropOp33
 70
     1
102
RTVSPost2010Prop34
280
     0
102
RTVSPost2010PropOp34
 70
     1
102
RTVSPost2010Prop35
280
     0
102
RTVSPost2010PropOp35
 70
     1
102
RTVSPost2010Prop36
280
     0
102
RTVSPost2010PropOp36
 70
     1
102
RTVSPost2010Prop37
 90
       50
102
RTVSPost2010PropOp37
 70
     1
102
RTVSPost2010Prop38
140
0.0
102
RTVSPost2010PropOp38
 70
     1
102
RTVSPost2010Prop39
140
1.0
102
RTVSPost2010PropOp39
 70
     1
102
RTVSPost2010Prop40
 90
        0
102
RTVSPost2010PropOp40
 70
     1
102
RTVSPost2010Prop41ColorIndex
 90
       18
102
RTVSPost2010Prop41ColorRGB
 90
        0
102
RTVSPost2010PropOp41
 70
     1
102
RTVSPost2010Prop42
 90
       50
102
RTVSPost2010PropOp42
 70
     1
102
RTVSPost2010Prop43
 90
        3
102
RTVSPost2010PropOp43
 70
     1
102
RTVSPost2010Prop44ColorIndex
 90
        5
102
RTVSPost2010Prop44ColorRGB
 90
      255
102
RTVSPost2010PropOp44
 70
     1
102
RTVSPost2010Prop45
280
     0
102
RTVSPost2010PropOp45
 70
     1
102
RTVSPost2010Prop46
 90
       50
102
RTVSPost2010PropOp46
 70
     1
102
RTVSPost2010Prop47
 90
       50
102
RTVSPost2010PropOp47
 70
     1
102
RTVSPost2010Prop48
 90
       50
102
RTVSPost2010PropOp48
 70
     1
102
RTVSPost2010Prop49
280
     0
102
RTVSPost2010PropOp49
 70
     1
102
RTVSPost2010Prop50
 90
       50
102
RTVSPost2010PropOp50
 70
     1
102
RTVSPost2010Prop51ColorIndex
 90
      256
102
RTVSPost2010Prop51ColorRGB
 90
-16777216
102
RTVSPost2010PropOp51
 70
     0
102
RTVSPost2010Prop52
140
1.0
102
RTVSPost2010PropOp52
 70
     0
102
RTVSPost2010Prop53
 90
        2
102
RTVSPost2010PropOp53
 70
     1
102
RTVSPost2010Prop54
  1
strokes_ogs.tif
102
RTVSPost2010PropOp54
 70
     1
102
RTVSPost2010Prop55
280
     0
102
RTVSPost2010PropOp55
 70
     1
102
RTVSPost2010Prop56
140
1.0
102
RTVSPost2010PropOp56
 70
     1
102
RTVSPost2010Prop57
140
1.0
102
RTVSPost2010PropOp57
 70
     1
102
RTVSPropertyOp0
 70
     0
102
RTVSPropertyOp1
 70
     0
102
RTVSPropertyOp2
 70
     0
102
RTVSPropertyOp3
 70
     0
102
RTVSPropertyOp4
 70
     0
102
RTVSPropertyOp5
 70
     0
102
RTVSPropertyOp6
 70
     0
102
RTVSPropertyOp7
 70
     0
102
RTVSPropertyOp8
 70
     0
102
RTVSPropertyOp9
 70
     0
102
RTVSPropertyOp10
 70
     0
102
RTVSPropertyOp11
 70
     0
102
RTVSPropertyOp12
 70
     0
102
RTVSPropertyOp13
 70
     0
102
RTVSPropertyOp14
 70
     2
102
RTVSPropertyOp15
 70
     0
102
RTVSPropertyOp16
 70
     0
102
RTVSPropertyOp17
 70
     0
102
RTVSPropertyOp18
 70
     0
102
RTVSPropertyOp19
 70
     0
102
RTVSPropertyOp20
 70
     0
102
RTVSPropertyOp21
 70
     0
102
RTVSPropertyOp22
 70
     0
102
RTVSPropertyOp23
 70
     0
102
RTVSPropertyOp24
 70
     0
102
RTVSPropertyOp25
 70
     0
102
RTVSPropertyOp26
 70
     0
102
RTVSPropertyOp27
 70
     0
102
RTVSPropertyOp28
 70
     1
102
RTVSPropertyOp29
 70
     1
102
RTVSPropertyOp30
 70
     1
102
RTVSPropertyOp31
 70
     1
102
RTVSPropertyOp32
 70
     1
102
RTVSPropertyOp33
 70
     1
102
RTVSPropertyOp34
 70
     1
102
RTVSPropertyOp35
 70
     1
102
RTVSPropertyOp36
 70
     1
102
RTVSPropertyOp37
 70
     1
102
RTVSPropertyOp38
 70
     1
102
RTVSPropertyOp39
 70
     1
102
RTVSPropertyOp40
 70
     1
102
RTVSPropertyOp41
 70
     1
102
RTVSPropertyOp42
 70
     1
102
RTVSPropertyOp43
 70
     1
102
RTVSPropertyOp44
 70
     1
102
RTVSPropertyOp45
 70
     1
102
RTVSPropertyOp46
 70
     1
102
RTVSPropertyOp47
 70
     1
102
RTVSPropertyOp48
 70
     1
102
RTVSPropertyOp49
 70
     1
102
RTVSPropertyOp50
 70
     1
102
RTVSPropertyOp51
 70
     0
102
RTVSPropertyOp52
 70
     0
102
RTVSPropertyOp53
 70
     1
102
RTVSPropertyOp54
 70
     1
102
RTVSPropertyOp55
 70
     1
102
RTVSPropertyOp56
 70
     1
102
RTVSPropertyOp57
 70
     1
102
RTVSPropertyOp58
 70
     1
102
RTVSPropertyOp59
 70
     1
102
RTVSPropertyOp60
 70
     1
102
RTVSPropertyOp61
 70
     1
102
RTVSPropertyOp62
 70
     1
  0
XRECORD
  5
1B43
102
{ACAD_REACTORS
330
1B42
102
}
330
1B42
100
AcDbXrecord
280
     1
102
RTVSPost2010Prop28
280
     0
102
RTVSPost2010PropOp28
 70
     1
102
RTVSPost2010Prop29
280
     1
102
RTVSPost2010PropOp29
 70
     1
102
RTVSPost2010Prop30
280
     1
102
RTVSPost2010PropOp30
 70
     1
102
RTVSPost2010Prop31
280
     0
102
RTVSPost2010PropOp31
 70
     1
102
RTVSPost2010Prop32
280
     0
102
RTVSPost2010PropOp32
 70
     1
102
RTVSPost2010Prop33
280
     0
102
RTVSPost2010PropOp33
 70
     1
102
RTVSPost2010Prop34
280
     0
102
RTVSPost2010PropOp34
 70
     1
102
RTVSPost2010Prop35
280
     0
102
RTVSPost2010PropOp35
 70
     1
102
RTVSPost2010Prop36
280
     0
102
RTVSPost2010PropOp36
 70
     1
102
RTVSPost2010Prop37
 90
       50
102
RTVSPost2010PropOp37
 70
     1
102
RTVSPost2010Prop38
140
0.0
102
RTVSPost2010PropOp38
 70
     1
102
RTVSPost2010Prop39
140
1.0
102
RTVSPost2010PropOp39
 70
     1
102
RTVSPost2010Prop40
 90
        0
102
RTVSPost2010PropOp40
 70
     1
102
RTVSPost2010Prop41ColorIndex
 90
       18
102
RTVSPost2010Prop41ColorRGB
 90
        0
102
RTVSPost2010PropOp41
 70
     1
102
RTVSPost2010Prop42
 90
       50
102
RTVSPost2010PropOp42
 70
     1
102
RTVSPost2010Prop43
 90
        3
102
RTVSPost2010PropOp43
 70
     1
102
RTVSPost2010Prop44ColorIndex
 90
        5
102
RTVSPost2010Prop44ColorRGB
 90
      255
102
RTVSPost2010PropOp44
 70
     1
102
RTVSPost2010Prop45
280
     0
102
RTVSPost2010PropOp45
 70
     1
102
RTVSPost2010Prop46
 90
       50
102
RTVSPost2010PropOp46
 70
     1
102
RTVSPost2010Prop47
 90
       50
102
RTVSPost2010PropOp47
 70
     1
102
RTVSPost2010Prop48
 90
       50
102
RTVSPost2010PropOp48
 70
     1
102
RTVSPost2010Prop49
280
     0
102
RTVSPost2010PropOp49
 70
     1
102
RTVSPost2010Prop50
 90
       50
102
RTVSPost2010PropOp50
 70
     1
102
RTVSPost2010Prop51ColorIndex
 90
      256
102
RTVSPost2010Prop51ColorRGB
 90
-16777216
102
RTVSPost2010PropOp51
 70
     0
102
RTVSPost2010Prop52
140
1.0
102
RTVSPost2010PropOp52
 70
     0
102
RTVSPost2010Prop53
 90
        2
102
RTVSPost2010PropOp53
 70
     1
102
RTVSPost2010Prop54
  1
strokes_ogs.tif
102
RTVSPost2010PropOp54
 70
     1
102
RTVSPost2010Prop55
280
     0
102
RTVSPost2010PropOp55
 70
     1
102
RTVSPost2010Prop56
140
1.0
102
RTVSPost2010PropOp56
 70
     1
102
RTVSPost2010Prop57
140
1.0
102
RTVSPost2010PropOp57
 70
     1
102
RTVSPropertyOp0
 70
     1
102
RTVSPropertyOp1
 70
     1
102
RTVSPropertyOp2
 70
     1
102
RTVSPropertyOp3
 70
     1
102
RTVSPropertyOp4
 70
     1
102
RTVSPropertyOp5
 70
     1
102
RTVSPropertyOp6
 70
     1
102
RTVSPropertyOp7
 70
     1
102
RTVSPropertyOp8
 70
     1
102
RTVSPropertyOp9
 70
     1
102
RTVSPropertyOp10
 70
     1
102
RTVSPropertyOp11
 70
     1
102
RTVSPropertyOp12
 70
     1
102
RTVSPropertyOp13
 70
     1
102
RTVSPropertyOp14
 70
     1
102
RTVSPropertyOp15
 70
     1
102
RTVSPropertyOp16
 70
     1
102
RTVSPropertyOp17
 70
     1
102
RTVSPropertyOp18
 70
     1
102
RTVSPropertyOp19
 70
     1
102
RTVSPropertyOp20
 70
     1
102
RTVSPropertyOp21
 70
     1
102
RTVSPropertyOp22
 70
     1
102
RTVSPropertyOp23
 70
     1
102
RTVSPropertyOp24
 70
     1
102
RTVSPropertyOp25
 70
     1
102
RTVSPropertyOp26
 70
     1
102
RTVSPropertyOp27
 70
     1
102
RTVSPropertyOp28
 70
     1
102
RTVSPropertyOp29
 70
     1
102
RTVSPropertyOp30
 70
     1
102
RTVSPropertyOp31
 70
     1
102
RTVSPropertyOp32
 70
     1
102
RTVSPropertyOp33
 70
     1
102
RTVSPropertyOp34
 70
     1
102
RTVSPropertyOp35
 70
     1
102
RTVSPropertyOp36
 70
     1
102
RTVSPropertyOp37
 70
     1
102
RTVSPropertyOp38
 70
     1
102
RTVSPropertyOp39
 70
     1
102
RTVSPropertyOp40
 70
     1
102
RTVSPropertyOp41
 70
     1
102
RTVSPropertyOp42
 70
     1
102
RTVSPropertyOp43
 70
     1
102
RTVSPropertyOp44
 70
     1
102
RTVSPropertyOp45
 70
     1
102
RTVSPropertyOp46
 70
     1
102
RTVSPropertyOp47
 70
     1
102
RTVSPropertyOp48
 70
     1
102
RTVSPropertyOp49
 70
     1
102
RTVSPropertyOp50
 70
     1
102
RTVSPropertyOp51
 70
     0
102
RTVSPropertyOp52
 70
     0
102
RTVSPropertyOp53
 70
     1
102
RTVSPropertyOp54
 70
     1
102
RTVSPropertyOp55
 70
     1
102
RTVSPropertyOp56
 70
     1
102
RTVSPropertyOp57
 70
     1
102
RTVSPropertyOp58
 70
     1
102
RTVSPropertyOp59
 70
     1
102
RTVSPropertyOp60
 70
     1
102
RTVSPropertyOp61
 70
     1
102
RTVSPropertyOp62
 70
     1
  0
XRECORD
  5
1B61
102
{ACAD_REACTORS
330
1B60
102
}
330
1B60
100
AcDbXrecord
280
     1
102
RTVSPost2010Prop28
280
     0
102
RTVSPost2010PropOp28
 70
     1
102
RTVSPost2010Prop29
280
     1
102
RTVSPost2010PropOp29
 70
     1
102
RTVSPost2010Prop30
280
     1
102
RTVSPost2010PropOp30
 70
     1
102
RTVSPost2010Prop31
280
     0
102
RTVSPost2010PropOp31
 70
     1
102
RTVSPost2010Prop32
280
     0
102
RTVSPost2010PropOp32
 70
     1
102
RTVSPost2010Prop33
280
     0
102
RTVSPost2010PropOp33
 70
     1
102
RTVSPost2010Prop34
280
     0
102
RTVSPost2010PropOp34
 70
     1
102
RTVSPost2010Prop35
280
     0
102
RTVSPost2010PropOp35
 70
     1
102
RTVSPost2010Prop36
280
     0
102
RTVSPost2010PropOp36
 70
     1
102
RTVSPost2010Prop37
 90
       50
102
RTVSPost2010PropOp37
 70
     1
102
RTVSPost2010Prop38
140
0.0
102
RTVSPost2010PropOp38
 70
     1
102
RTVSPost2010Prop39
140
1.0
102
RTVSPost2010PropOp39
 70
     1
102
RTVSPost2010Prop40
 90
        0
102
RTVSPost2010PropOp40
 70
     1
102
RTVSPost2010Prop41ColorIndex
 90
       18
102
RTVSPost2010Prop41ColorRGB
 90
        0
102
RTVSPost2010PropOp41
 70
     1
102
RTVSPost2010Prop42
 90
       50
102
RTVSPost2010PropOp42
 70
     1
102
RTVSPost2010Prop43
 90
        3
102
RTVSPost2010PropOp43
 70
     1
102
RTVSPost2010Prop44ColorIndex
 90
        5
102
RTVSPost2010Prop44ColorRGB
 90
      255
102
RTVSPost2010PropOp44
 70
     1
102
RTVSPost2010Prop45
280
     0
102
RTVSPost2010PropOp45
 70
     1
102
RTVSPost2010Prop46
 90
       50
102
RTVSPost2010PropOp46
 70
     1
102
RTVSPost2010Prop47
 90
       50
102
RTVSPost2010PropOp47
 70
     1
102
RTVSPost2010Prop48
 90
       50
102
RTVSPost2010PropOp48
 70
     1
102
RTVSPost2010Prop49
280
     0
102
RTVSPost2010PropOp49
 70
     1
102
RTVSPost2010Prop50
 90
       50
102
RTVSPost2010PropOp50
 70
     1
102
RTVSPost2010Prop51ColorIndex
 90
      256
102
RTVSPost2010Prop51ColorRGB
 90
-16777216
102
RTVSPost2010PropOp51
 70
     0
102
RTVSPost2010Prop52
140
1.0
102
RTVSPost2010PropOp52
 70
     0
102
RTVSPost2010Prop53
 90
        2
102
RTVSPost2010PropOp53
 70
     1
102
RTVSPost2010Prop54
  1
strokes_ogs.tif
102
RTVSPost2010PropOp54
 70
     1
102
RTVSPost2010Prop55
280
     0
102
RTVSPost2010PropOp55
 70
     1
102
RTVSPost2010Prop56
140
1.0
102
RTVSPost2010PropOp56
 70
     1
102
RTVSPost2010Prop57
140
1.0
102
RTVSPost2010PropOp57
 70
     1
102
RTVSPropertyOp0
 70
     1
102
RTVSPropertyOp1
 70
     1
102
RTVSPropertyOp2
 70
     1
102
RTVSPropertyOp3
 70
     1
102
RTVSPropertyOp4
 70
     1
102
RTVSPropertyOp5
 70
     1
102
RTVSPropertyOp6
 70
     1
102
RTVSPropertyOp7
 70
     1
102
RTVSPropertyOp8
 70
     1
102
RTVSPropertyOp9
 70
     1
102
RTVSPropertyOp10
 70
     1
102
RTVSPropertyOp11
 70
     1
102
RTVSPropertyOp12
 70
     1
102
RTVSPropertyOp13
 70
     1
102
RTVSPropertyOp14
 70
     1
102
RTVSPropertyOp15
 70
     1
102
RTVSPropertyOp16
 70
     1
102
RTVSPropertyOp17
 70
     1
102
RTVSPropertyOp18
 70
     1
102
RTVSPropertyOp19
 70
     1
102
RTVSPropertyOp20
 70
     1
102
RTVSPropertyOp21
 70
     1
102
RTVSPropertyOp22
 70
     1
102
RTVSPropertyOp23
 70
     1
102
RTVSPropertyOp24
 70
     1
102
RTVSPropertyOp25
 70
     1
102
RTVSPropertyOp26
 70
     1
102
RTVSPropertyOp27
 70
     1
102
RTVSPropertyOp28
 70
     1
102
RTVSPropertyOp29
 70
     1
102
RTVSPropertyOp30
 70
     1
102
RTVSPropertyOp31
 70
     1
102
RTVSPropertyOp32
 70
     1
102
RTVSPropertyOp33
 70
     1
102
RTVSPropertyOp34
 70
     1
102
RTVSPropertyOp35
 70
     1
102
RTVSPropertyOp36
 70
     1
102
RTVSPropertyOp37
 70
     1
102
RTVSPropertyOp38
 70
     1
102
RTVSPropertyOp39
 70
     1
102
RTVSPropertyOp40
 70
     1
102
RTVSPropertyOp41
 70
     1
102
RTVSPropertyOp42
 70
     1
102
RTVSPropertyOp43
 70
     1
102
RTVSPropertyOp44
 70
     1
102
RTVSPropertyOp45
 70
     1
102
RTVSPropertyOp46
 70
     1
102
RTVSPropertyOp47
 70
     1
102
RTVSPropertyOp48
 70
     1
102
RTVSPropertyOp49
 70
     1
102
RTVSPropertyOp50
 70
     1
102
RTVSPropertyOp51
 70
     0
102
RTVSPropertyOp52
 70
     0
102
RTVSPropertyOp53
 70
     1
102
RTVSPropertyOp54
 70
     1
102
RTVSPropertyOp55
 70
     1
102
RTVSPropertyOp56
 70
     1
102
RTVSPropertyOp57
 70
     1
102
RTVSPropertyOp58
 70
     1
102
RTVSPropertyOp59
 70
     1
102
RTVSPropertyOp60
 70
     1
102
RTVSPropertyOp61
 70
     1
102
RTVSPropertyOp62
 70
     1
  0
XRECORD
  5
1B5F
102
{ACAD_REACTORS
330
1B5E
102
}
330
1B5E
100
AcDbXrecord
280
     1
102
RTVSPost2010Prop28
280
     0
102
RTVSPost2010PropOp28
 70
     1
102
RTVSPost2010Prop29
280
     1
102
RTVSPost2010PropOp29
 70
     1
102
RTVSPost2010Prop30
280
     1
102
RTVSPost2010PropOp30
 70
     1
102
RTVSPost2010Prop31
280
     0
102
RTVSPost2010PropOp31
 70
     1
102
RTVSPost2010Prop32
280
     0
102
RTVSPost2010PropOp32
 70
     1
102
RTVSPost2010Prop33
280
     0
102
RTVSPost2010PropOp33
 70
     1
102
RTVSPost2010Prop34
280
     0
102
RTVSPost2010PropOp34
 70
     1
102
RTVSPost2010Prop35
280
     0
102
RTVSPost2010PropOp35
 70
     1
102
RTVSPost2010Prop36
280
     0
102
RTVSPost2010PropOp36
 70
     1
102
RTVSPost2010Prop37
 90
       50
102
RTVSPost2010PropOp37
 70
     1
102
RTVSPost2010Prop38
140
0.0
102
RTVSPost2010PropOp38
 70
     1
102
RTVSPost2010Prop39
140
1.0
102
RTVSPost2010PropOp39
 70
     1
102
RTVSPost2010Prop40
 90
        0
102
RTVSPost2010PropOp40
 70
     1
102
RTVSPost2010Prop41ColorIndex
 90
       18
102
RTVSPost2010Prop41ColorRGB
 90
        0
102
RTVSPost2010PropOp41
 70
     1
102
RTVSPost2010Prop42
 90
       50
102
RTVSPost2010PropOp42
 70
     1
102
RTVSPost2010Prop43
 90
        3
102
RTVSPost2010PropOp43
 70
     1
102
RTVSPost2010Prop44ColorIndex
 90
        5
102
RTVSPost2010Prop44ColorRGB
 90
      255
102
RTVSPost2010PropOp44
 70
     1
102
RTVSPost2010Prop45
280
     0
102
RTVSPost2010PropOp45
 70
     1
102
RTVSPost2010Prop46
 90
       50
102
RTVSPost2010PropOp46
 70
     1
102
RTVSPost2010Prop47
 90
       50
102
RTVSPost2010PropOp47
 70
     1
102
RTVSPost2010Prop48
 90
       50
102
RTVSPost2010PropOp48
 70
     1
102
RTVSPost2010Prop49
280
     0
102
RTVSPost2010PropOp49
 70
     1
102
RTVSPost2010Prop50
 90
       50
102
RTVSPost2010PropOp50
 70
     1
102
RTVSPost2010Prop51ColorIndex
 90
      256
102
RTVSPost2010Prop51ColorRGB
 90
-16777216
102
RTVSPost2010PropOp51
 70
     0
102
RTVSPost2010Prop52
140
1.0
102
RTVSPost2010PropOp52
 70
     0
102
RTVSPost2010Prop53
 90
        2
102
RTVSPost2010PropOp53
 70
     1
102
RTVSPost2010Prop54
  1
strokes_ogs.tif
102
RTVSPost2010PropOp54
 70
     1
102
RTVSPost2010Prop55
280
     0
102
RTVSPost2010PropOp55
 70
     1
102
RTVSPost2010Prop56
140
1.0
102
RTVSPost2010PropOp56
 70
     1
102
RTVSPost2010Prop57
140
1.0
102
RTVSPost2010PropOp57
 70
     1
102
RTVSPropertyOp0
 70
     1
102
RTVSPropertyOp1
 70
     1
102
RTVSPropertyOp2
 70
     1
102
RTVSPropertyOp3
 70
     1
102
RTVSPropertyOp4
 70
     1
102
RTVSPropertyOp5
 70
     1
102
RTVSPropertyOp6
 70
     1
102
RTVSPropertyOp7
 70
     1
102
RTVSPropertyOp8
 70
     1
102
RTVSPropertyOp9
 70
     1
102
RTVSPropertyOp10
 70
     1
102
RTVSPropertyOp11
 70
     1
102
RTVSPropertyOp12
 70
     1
102
RTVSPropertyOp13
 70
     1
102
RTVSPropertyOp14
 70
     1
102
RTVSPropertyOp15
 70
     1
102
RTVSPropertyOp16
 70
     1
102
RTVSPropertyOp17
 70
     1
102
RTVSPropertyOp18
 70
     1
102
RTVSPropertyOp19
 70
     1
102
RTVSPropertyOp20
 70
     1
102
RTVSPropertyOp21
 70
     1
102
RTVSPropertyOp22
 70
     1
102
RTVSPropertyOp23
 70
     1
102
RTVSPropertyOp24
 70
     1
102
RTVSPropertyOp25
 70
     1
102
RTVSPropertyOp26
 70
     1
102
RTVSPropertyOp27
 70
     1
102
RTVSPropertyOp28
 70
     1
102
RTVSPropertyOp29
 70
     1
102
RTVSPropertyOp30
 70
     1
102
RTVSPropertyOp31
 70
     1
102
RTVSPropertyOp32
 70
     1
102
RTVSPropertyOp33
 70
     1
102
RTVSPropertyOp34
 70
     1
102
RTVSPropertyOp35
 70
     1
102
RTVSPropertyOp36
 70
     1
102
RTVSPropertyOp37
 70
     1
102
RTVSPropertyOp38
 70
     1
102
RTVSPropertyOp39
 70
     1
102
RTVSPropertyOp40
 70
     1
102
RTVSPropertyOp41
 70
     1
102
RTVSPropertyOp42
 70
     1
102
RTVSPropertyOp43
 70
     1
102
RTVSPropertyOp44
 70
     1
102
RTVSPropertyOp45
 70
     1
102
RTVSPropertyOp46
 70
     1
102
RTVSPropertyOp47
 70
     1
102
RTVSPropertyOp48
 70
     1
102
RTVSPropertyOp49
 70
     1
102
RTVSPropertyOp50
 70
     1
102
RTVSPropertyOp51
 70
     0
102
RTVSPropertyOp52
 70
     0
102
RTVSPropertyOp53
 70
     1
102
RTVSPropertyOp54
 70
     1
102
RTVSPropertyOp55
 70
     1
102
RTVSPropertyOp56
 70
     1
102
RTVSPropertyOp57
 70
     1
102
RTVSPropertyOp58
 70
     1
102
RTVSPropertyOp59
 70
     1
102
RTVSPropertyOp60
 70
     1
102
RTVSPropertyOp61
 70
     1
102
RTVSPropertyOp62
 70
     1
  0
XRECORD
  5
1B59
102
{ACAD_REACTORS
330
1B58
102
}
330
1B58
100
AcDbXrecord
280
     1
102
RTVSPost2010Prop28
280
     0
102
RTVSPost2010PropOp28
 70
     1
102
RTVSPost2010Prop29
280
     1
102
RTVSPost2010PropOp29
 70
     1
102
RTVSPost2010Prop30
280
     1
102
RTVSPost2010PropOp30
 70
     1
102
RTVSPost2010Prop31
280
     0
102
RTVSPost2010PropOp31
 70
     1
102
RTVSPost2010Prop32
280
     0
102
RTVSPost2010PropOp32
 70
     1
102
RTVSPost2010Prop33
280
     0
102
RTVSPost2010PropOp33
 70
     1
102
RTVSPost2010Prop34
280
     0
102
RTVSPost2010PropOp34
 70
     1
102
RTVSPost2010Prop35
280
     0
102
RTVSPost2010PropOp35
 70
     1
102
RTVSPost2010Prop36
280
     0
102
RTVSPost2010PropOp36
 70
     1
102
RTVSPost2010Prop37
 90
       50
102
RTVSPost2010PropOp37
 70
     1
102
RTVSPost2010Prop38
140
0.0
102
RTVSPost2010PropOp38
 70
     1
102
RTVSPost2010Prop39
140
1.0
102
RTVSPost2010PropOp39
 70
     1
102
RTVSPost2010Prop40
 90
        0
102
RTVSPost2010PropOp40
 70
     1
102
RTVSPost2010Prop41ColorIndex
 90
       18
102
RTVSPost2010Prop41ColorRGB
 90
        0
102
RTVSPost2010PropOp41
 70
     1
102
RTVSPost2010Prop42
 90
       50
102
RTVSPost2010PropOp42
 70
     1
102
RTVSPost2010Prop43
 90
        3
102
RTVSPost2010PropOp43
 70
     1
102
RTVSPost2010Prop44ColorIndex
 90
        5
102
RTVSPost2010Prop44ColorRGB
 90
      255
102
RTVSPost2010PropOp44
 70
     1
102
RTVSPost2010Prop45
280
     0
102
RTVSPost2010PropOp45
 70
     1
102
RTVSPost2010Prop46
 90
       50
102
RTVSPost2010PropOp46
 70
     1
102
RTVSPost2010Prop47
 90
       50
102
RTVSPost2010PropOp47
 70
     1
102
RTVSPost2010Prop48
 90
       50
102
RTVSPost2010PropOp48
 70
     1
102
RTVSPost2010Prop49
280
     0
102
RTVSPost2010PropOp49
 70
     1
102
RTVSPost2010Prop50
 90
       50
102
RTVSPost2010PropOp50
 70
     1
102
RTVSPost2010Prop51ColorIndex
 90
      256
102
RTVSPost2010Prop51ColorRGB
 90
-16777216
102
RTVSPost2010PropOp51
 70
     0
102
RTVSPost2010Prop52
140
1.0
102
RTVSPost2010PropOp52
 70
     0
102
RTVSPost2010Prop53
 90
        2
102
RTVSPost2010PropOp53
 70
     1
102
RTVSPost2010Prop54
  1
strokes_ogs.tif
102
RTVSPost2010PropOp54
 70
     1
102
RTVSPost2010Prop55
280
     0
102
RTVSPost2010PropOp55
 70
     1
102
RTVSPost2010Prop56
140
1.0
102
RTVSPost2010PropOp56
 70
     1
102
RTVSPost2010Prop57
140
1.0
102
RTVSPost2010PropOp57
 70
     1
102
RTVSPropertyOp0
 70
     1
102
RTVSPropertyOp1
 70
     1
102
RTVSPropertyOp2
 70
     1
102
RTVSPropertyOp3
 70
     1
102
RTVSPropertyOp4
 70
     1
102
RTVSPropertyOp5
 70
     1
102
RTVSPropertyOp6
 70
     1
102
RTVSPropertyOp7
 70
     1
102
RTVSPropertyOp8
 70
     1
102
RTVSPropertyOp9
 70
     1
102
RTVSPropertyOp10
 70
     1
102
RTVSPropertyOp11
 70
     1
102
RTVSPropertyOp12
 70
     1
102
RTVSPropertyOp13
 70
     1
102
RTVSPropertyOp14
 70
     1
102
RTVSPropertyOp15
 70
     1
102
RTVSPropertyOp16
 70
     1
102
RTVSPropertyOp17
 70
     1
102
RTVSPropertyOp18
 70
     1
102
RTVSPropertyOp19
 70
     1
102
RTVSPropertyOp20
 70
     1
102
RTVSPropertyOp21
 70
     1
102
RTVSPropertyOp22
 70
     1
102
RTVSPropertyOp23
 70
     1
102
RTVSPropertyOp24
 70
     1
102
RTVSPropertyOp25
 70
     1
102
RTVSPropertyOp26
 70
     1
102
RTVSPropertyOp27
 70
     1
102
RTVSPropertyOp28
 70
     1
102
RTVSPropertyOp29
 70
     1
102
RTVSPropertyOp30
 70
     1
102
RTVSPropertyOp31
 70
     1
102
RTVSPropertyOp32
 70
     1
102
RTVSPropertyOp33
 70
     1
102
RTVSPropertyOp34
 70
     1
102
RTVSPropertyOp35
 70
     1
102
RTVSPropertyOp36
 70
     1
102
RTVSPropertyOp37
 70
     1
102
RTVSPropertyOp38
 70
     1
102
RTVSPropertyOp39
 70
     1
102
RTVSPropertyOp40
 70
     1
102
RTVSPropertyOp41
 70
     1
102
RTVSPropertyOp42
 70
     1
102
RTVSPropertyOp43
 70
     1
102
RTVSPropertyOp44
 70
     1
102
RTVSPropertyOp45
 70
     1
102
RTVSPropertyOp46
 70
     1
102
RTVSPropertyOp47
 70
     1
102
RTVSPropertyOp48
 70
     1
102
RTVSPropertyOp49
 70
     1
102
RTVSPropertyOp50
 70
     1
102
RTVSPropertyOp51
 70
     0
102
RTVSPropertyOp52
 70
     0
102
RTVSPropertyOp53
 70
     1
102
RTVSPropertyOp54
 70
     1
102
RTVSPropertyOp55
 70
     1
102
RTVSPropertyOp56
 70
     1
102
RTVSPropertyOp57
 70
     1
102
RTVSPropertyOp58
 70
     1
102
RTVSPropertyOp59
 70
     1
102
RTVSPropertyOp60
 70
     1
102
RTVSPropertyOp61
 70
     1
102
RTVSPropertyOp62
 70
     1
  0
XRECORD
  5
1B5B
102
{ACAD_REACTORS
330
1B5A
102
}
330
1B5A
100
AcDbXrecord
280
     1
102
RTVSPost2010Prop28
280
     0
102
RTVSPost2010PropOp28
 70
     1
102
RTVSPost2010Prop29
280
     1
102
RTVSPost2010PropOp29
 70
     1
102
RTVSPost2010Prop30
280
     1
102
RTVSPost2010PropOp30
 70
     1
102
RTVSPost2010Prop31
280
     0
102
RTVSPost2010PropOp31
 70
     1
102
RTVSPost2010Prop32
280
     0
102
RTVSPost2010PropOp32
 70
     1
102
RTVSPost2010Prop33
280
     0
102
RTVSPost2010PropOp33
 70
     1
102
RTVSPost2010Prop34
280
     0
102
RTVSPost2010PropOp34
 70
     1
102
RTVSPost2010Prop35
280
     0
102
RTVSPost2010PropOp35
 70
     1
102
RTVSPost2010Prop36
280
     0
102
RTVSPost2010PropOp36
 70
     1
102
RTVSPost2010Prop37
 90
       50
102
RTVSPost2010PropOp37
 70
     1
102
RTVSPost2010Prop38
140
0.0
102
RTVSPost2010PropOp38
 70
     1
102
RTVSPost2010Prop39
140
1.0
102
RTVSPost2010PropOp39
 70
     1
102
RTVSPost2010Prop40
 90
        0
102
RTVSPost2010PropOp40
 70
     1
102
RTVSPost2010Prop41ColorIndex
 90
       18
102
RTVSPost2010Prop41ColorRGB
 90
        0
102
RTVSPost2010PropOp41
 70
     1
102
RTVSPost2010Prop42
 90
       50
102
RTVSPost2010PropOp42
 70
     1
102
RTVSPost2010Prop43
 90
        3
102
RTVSPost2010PropOp43
 70
     1
102
RTVSPost2010Prop44ColorIndex
 90
        5
102
RTVSPost2010Prop44ColorRGB
 90
      255
102
RTVSPost2010PropOp44
 70
     1
102
RTVSPost2010Prop45
280
     0
102
RTVSPost2010PropOp45
 70
     1
102
RTVSPost2010Prop46
 90
       50
102
RTVSPost2010PropOp46
 70
     1
102
RTVSPost2010Prop47
 90
       50
102
RTVSPost2010PropOp47
 70
     1
102
RTVSPost2010Prop48
 90
       50
102
RTVSPost2010PropOp48
 70
     1
102
RTVSPost2010Prop49
280
     0
102
RTVSPost2010PropOp49
 70
     1
102
RTVSPost2010Prop50
 90
       50
102
RTVSPost2010PropOp50
 70
     1
102
RTVSPost2010Prop51ColorIndex
 90
      256
102
RTVSPost2010Prop51ColorRGB
 90
-16777216
102
RTVSPost2010PropOp51
 70
     0
102
RTVSPost2010Prop52
140
1.0
102
RTVSPost2010PropOp52
 70
     0
102
RTVSPost2010Prop53
 90
        2
102
RTVSPost2010PropOp53
 70
     1
102
RTVSPost2010Prop54
  1
strokes_ogs.tif
102
RTVSPost2010PropOp54
 70
     1
102
RTVSPost2010Prop55
280
     0
102
RTVSPost2010PropOp55
 70
     1
102
RTVSPost2010Prop56
140
1.0
102
RTVSPost2010PropOp56
 70
     1
102
RTVSPost2010Prop57
140
1.0
102
RTVSPost2010PropOp57
 70
     1
102
RTVSPropertyOp0
 70
     1
102
RTVSPropertyOp1
 70
     1
102
RTVSPropertyOp2
 70
     1
102
RTVSPropertyOp3
 70
     1
102
RTVSPropertyOp4
 70
     1
102
RTVSPropertyOp5
 70
     1
102
RTVSPropertyOp6
 70
     1
102
RTVSPropertyOp7
 70
     1
102
RTVSPropertyOp8
 70
     1
102
RTVSPropertyOp9
 70
     1
102
RTVSPropertyOp10
 70
     1
102
RTVSPropertyOp11
 70
     1
102
RTVSPropertyOp12
 70
     1
102
RTVSPropertyOp13
 70
     1
102
RTVSPropertyOp14
 70
     1
102
RTVSPropertyOp15
 70
     1
102
RTVSPropertyOp16
 70
     1
102
RTVSPropertyOp17
 70
     1
102
RTVSPropertyOp18
 70
     1
102
RTVSPropertyOp19
 70
     1
102
RTVSPropertyOp20
 70
     1
102
RTVSPropertyOp21
 70
     1
102
RTVSPropertyOp22
 70
     1
102
RTVSPropertyOp23
 70
     1
102
RTVSPropertyOp24
 70
     1
102
RTVSPropertyOp25
 70
     1
102
RTVSPropertyOp26
 70
     1
102
RTVSPropertyOp27
 70
     1
102
RTVSPropertyOp28
 70
     1
102
RTVSPropertyOp29
 70
     1
102
RTVSPropertyOp30
 70
     1
102
RTVSPropertyOp31
 70
     1
102
RTVSPropertyOp32
 70
     1
102
RTVSPropertyOp33
 70
     1
102
RTVSPropertyOp34
 70
     1
102
RTVSPropertyOp35
 70
     1
102
RTVSPropertyOp36
 70
     1
102
RTVSPropertyOp37
 70
     1
102
RTVSPropertyOp38
 70
     1
102
RTVSPropertyOp39
 70
     1
102
RTVSPropertyOp40
 70
     1
102
RTVSPropertyOp41
 70
     1
102
RTVSPropertyOp42
 70
     1
102
RTVSPropertyOp43
 70
     1
102
RTVSPropertyOp44
 70
     1
102
RTVSPropertyOp45
 70
     1
102
RTVSPropertyOp46
 70
     1
102
RTVSPropertyOp47
 70
     1
102
RTVSPropertyOp48
 70
     1
102
RTVSPropertyOp49
 70
     1
102
RTVSPropertyOp50
 70
     1
102
RTVSPropertyOp51
 70
     0
102
RTVSPropertyOp52
 70
     0
102
RTVSPropertyOp53
 70
     1
102
RTVSPropertyOp54
 70
     1
102
RTVSPropertyOp55
 70
     1
102
RTVSPropertyOp56
 70
     1
102
RTVSPropertyOp57
 70
     1
102
RTVSPropertyOp58
 70
     1
102
RTVSPropertyOp59
 70
     1
102
RTVSPropertyOp60
 70
     1
102
RTVSPropertyOp61
 70
     1
102
RTVSPropertyOp62
 70
     1
  0
XRECORD
  5
1B49
102
{ACAD_REACTORS
330
1B48
102
}
330
1B48
100
AcDbXrecord
280
     1
102
RTVSPost2010Prop28
280
     0
102
RTVSPost2010PropOp28
 70
     1
102
RTVSPost2010Prop29
280
     1
102
RTVSPost2010PropOp29
 70
     1
102
RTVSPost2010Prop30
280
     1
102
RTVSPost2010PropOp30
 70
     1
102
RTVSPost2010Prop31
280
     0
102
RTVSPost2010PropOp31
 70
     1
102
RTVSPost2010Prop32
280
     0
102
RTVSPost2010PropOp32
 70
     1
102
RTVSPost2010Prop33
280
     0
102
RTVSPost2010PropOp33
 70
     1
102
RTVSPost2010Prop34
280
     0
102
RTVSPost2010PropOp34
 70
     1
102
RTVSPost2010Prop35
280
     0
102
RTVSPost2010PropOp35
 70
     1
102
RTVSPost2010Prop36
280
     0
102
RTVSPost2010PropOp36
 70
     1
102
RTVSPost2010Prop37
 90
       50
102
RTVSPost2010PropOp37
 70
     1
102
RTVSPost2010Prop38
140
0.0
102
RTVSPost2010PropOp38
 70
     1
102
RTVSPost2010Prop39
140
1.0
102
RTVSPost2010PropOp39
 70
     1
102
RTVSPost2010Prop40
 90
        0
102
RTVSPost2010PropOp40
 70
     1
102
RTVSPost2010Prop41ColorIndex
 90
       18
102
RTVSPost2010Prop41ColorRGB
 90
        0
102
RTVSPost2010PropOp41
 70
     1
102
RTVSPost2010Prop42
 90
       50
102
RTVSPost2010PropOp42
 70
     1
102
RTVSPost2010Prop43
 90
        3
102
RTVSPost2010PropOp43
 70
     1
102
RTVSPost2010Prop44ColorIndex
 90
        5
102
RTVSPost2010Prop44ColorRGB
 90
      255
102
RTVSPost2010PropOp44
 70
     1
102
RTVSPost2010Prop45
280
     0
102
RTVSPost2010PropOp45
 70
     1
102
RTVSPost2010Prop46
 90
       50
102
RTVSPost2010PropOp46
 70
     1
102
RTVSPost2010Prop47
 90
       50
102
RTVSPost2010PropOp47
 70
     1
102
RTVSPost2010Prop48
 90
       50
102
RTVSPost2010PropOp48
 70
     1
102
RTVSPost2010Prop49
280
     0
102
RTVSPost2010PropOp49
 70
     1
102
RTVSPost2010Prop50
 90
       50
102
RTVSPost2010PropOp50
 70
     1
102
RTVSPost2010Prop51ColorIndex
 90
      256
102
RTVSPost2010Prop51ColorRGB
 90
-16777216
102
RTVSPost2010PropOp51
 70
     0
102
RTVSPost2010Prop52
140
1.0
102
RTVSPost2010PropOp52
 70
     0
102
RTVSPost2010Prop53
 90
        2
102
RTVSPost2010PropOp53
 70
     1
102
RTVSPost2010Prop54
  1
strokes_ogs.tif
102
RTVSPost2010PropOp54
 70
     1
102
RTVSPost2010Prop55
280
     0
102
RTVSPost2010PropOp55
 70
     1
102
RTVSPost2010Prop56
140
1.0
102
RTVSPost2010PropOp56
 70
     1
102
RTVSPost2010Prop57
140
1.0
102
RTVSPost2010PropOp57
 70
     1
102
RTVSPropertyOp0
 70
     1
102
RTVSPropertyOp1
 70
     1
102
RTVSPropertyOp2
 70
     1
102
RTVSPropertyOp3
 70
     1
102
RTVSPropertyOp4
 70
     1
102
RTVSPropertyOp5
 70
     1
102
RTVSPropertyOp6
 70
     1
102
RTVSPropertyOp7
 70
     1
102
RTVSPropertyOp8
 70
     1
102
RTVSPropertyOp9
 70
     1
102
RTVSPropertyOp10
 70
     1
102
RTVSPropertyOp11
 70
     1
102
RTVSPropertyOp12
 70
     1
102
RTVSPropertyOp13
 70
     1
102
RTVSPropertyOp14
 70
     1
102
RTVSPropertyOp15
 70
     1
102
RTVSPropertyOp16
 70
     1
102
RTVSPropertyOp17
 70
     1
102
RTVSPropertyOp18
 70
     1
102
RTVSPropertyOp19
 70
     1
102
RTVSPropertyOp20
 70
     1
102
RTVSPropertyOp21
 70
     1
102
RTVSPropertyOp22
 70
     1
102
RTVSPropertyOp23
 70
     1
102
RTVSPropertyOp24
 70
     1
102
RTVSPropertyOp25
 70
     1
102
RTVSPropertyOp26
 70
     1
102
RTVSPropertyOp27
 70
     1
102
RTVSPropertyOp28
 70
     1
102
RTVSPropertyOp29
 70
     1
102
RTVSPropertyOp30
 70
     1
102
RTVSPropertyOp31
 70
     1
102
RTVSPropertyOp32
 70
     1
102
RTVSPropertyOp33
 70
     1
102
RTVSPropertyOp34
 70
     1
102
RTVSPropertyOp35
 70
     1
102
RTVSPropertyOp36
 70
     1
102
RTVSPropertyOp37
 70
     1
102
RTVSPropertyOp38
 70
     1
102
RTVSPropertyOp39
 70
     1
102
RTVSPropertyOp40
 70
     1
102
RTVSPropertyOp41
 70
     1
102
RTVSPropertyOp42
 70
     1
102
RTVSPropertyOp43
 70
     1
102
RTVSPropertyOp44
 70
     1
102
RTVSPropertyOp45
 70
     1
102
RTVSPropertyOp46
 70
     1
102
RTVSPropertyOp47
 70
     1
102
RTVSPropertyOp48
 70
     1
102
RTVSPropertyOp49
 70
     1
102
RTVSPropertyOp50
 70
     1
102
RTVSPropertyOp51
 70
     0
102
RTVSPropertyOp52
 70
     0
102
RTVSPropertyOp53
 70
     1
102
RTVSPropertyOp54
 70
     1
102
RTVSPropertyOp55
 70
     1
102
RTVSPropertyOp56
 70
     1
102
RTVSPropertyOp57
 70
     1
102
RTVSPropertyOp58
 70
     1
102
RTVSPropertyOp59
 70
     1
102
RTVSPropertyOp60
 70
     1
102
RTVSPropertyOp61
 70
     1
102
RTVSPropertyOp62
 70
     1
  0
XRECORD
  5
1B3D
102
{ACAD_REACTORS
330
1B3C
102
}
330
1B3C
100
AcDbXrecord
280
     1
102
RTVSPost2010Prop28
280
     0
102
RTVSPost2010PropOp28
 70
     1
102
RTVSPost2010Prop29
280
     1
102
RTVSPost2010PropOp29
 70
     1
102
RTVSPost2010Prop30
280
     1
102
RTVSPost2010PropOp30
 70
     1
102
RTVSPost2010Prop31
280
     0
102
RTVSPost2010PropOp31
 70
     1
102
RTVSPost2010Prop32
280
     0
102
RTVSPost2010PropOp32
 70
     1
102
RTVSPost2010Prop33
280
     0
102
RTVSPost2010PropOp33
 70
     1
102
RTVSPost2010Prop34
280
     0
102
RTVSPost2010PropOp34
 70
     1
102
RTVSPost2010Prop35
280
     0
102
RTVSPost2010PropOp35
 70
     1
102
RTVSPost2010Prop36
280
     0
102
RTVSPost2010PropOp36
 70
     1
102
RTVSPost2010Prop37
 90
       50
102
RTVSPost2010PropOp37
 70
     1
102
RTVSPost2010Prop38
140
0.0
102
RTVSPost2010PropOp38
 70
     1
102
RTVSPost2010Prop39
140
1.0
102
RTVSPost2010PropOp39
 70
     1
102
RTVSPost2010Prop40
 90
        0
102
RTVSPost2010PropOp40
 70
     1
102
RTVSPost2010Prop41ColorIndex
 90
       18
102
RTVSPost2010Prop41ColorRGB
 90
        0
102
RTVSPost2010PropOp41
 70
     1
102
RTVSPost2010Prop42
 90
       50
102
RTVSPost2010PropOp42
 70
     1
102
RTVSPost2010Prop43
 90
        3
102
RTVSPost2010PropOp43
 70
     1
102
RTVSPost2010Prop44ColorIndex
 90
        5
102
RTVSPost2010Prop44ColorRGB
 90
      255
102
RTVSPost2010PropOp44
 70
     1
102
RTVSPost2010Prop45
280
     0
102
RTVSPost2010PropOp45
 70
     1
102
RTVSPost2010Prop46
 90
       50
102
RTVSPost2010PropOp46
 70
     1
102
RTVSPost2010Prop47
 90
       50
102
RTVSPost2010PropOp47
 70
     1
102
RTVSPost2010Prop48
 90
       50
102
RTVSPost2010PropOp48
 70
     1
102
RTVSPost2010Prop49
280
     0
102
RTVSPost2010PropOp49
 70
     1
102
RTVSPost2010Prop50
 90
       50
102
RTVSPost2010PropOp50
 70
     1
102
RTVSPost2010Prop51ColorIndex
 90
      256
102
RTVSPost2010Prop51ColorRGB
 90
-16777216
102
RTVSPost2010PropOp51
 70
     0
102
RTVSPost2010Prop52
140
1.0
102
RTVSPost2010PropOp52
 70
     0
102
RTVSPost2010Prop53
 90
        2
102
RTVSPost2010PropOp53
 70
     1
102
RTVSPost2010Prop54
  1
strokes_ogs.tif
102
RTVSPost2010PropOp54
 70
     1
102
RTVSPost2010Prop55
280
     0
102
RTVSPost2010PropOp55
 70
     1
102
RTVSPost2010Prop56
140
1.0
102
RTVSPost2010PropOp56
 70
     1
102
RTVSPost2010Prop57
140
1.0
102
RTVSPost2010PropOp57
 70
     1
102
RTVSPropertyOp0
 70
     1
102
RTVSPropertyOp1
 70
     1
102
RTVSPropertyOp2
 70
     1
102
RTVSPropertyOp3
 70
     1
102
RTVSPropertyOp4
 70
     1
102
RTVSPropertyOp5
 70
     1
102
RTVSPropertyOp6
 70
     1
102
RTVSPropertyOp7
 70
     1
102
RTVSPropertyOp8
 70
     1
102
RTVSPropertyOp9
 70
     1
102
RTVSPropertyOp10
 70
     1
102
RTVSPropertyOp11
 70
     1
102
RTVSPropertyOp12
 70
     1
102
RTVSPropertyOp13
 70
     1
102
RTVSPropertyOp14
 70
     1
102
RTVSPropertyOp15
 70
     1
102
RTVSPropertyOp16
 70
     1
102
RTVSPropertyOp17
 70
     1
102
RTVSPropertyOp18
 70
     1
102
RTVSPropertyOp19
 70
     1
102
RTVSPropertyOp20
 70
     1
102
RTVSPropertyOp21
 70
     1
102
RTVSPropertyOp22
 70
     1
102
RTVSPropertyOp23
 70
     1
102
RTVSPropertyOp24
 70
     1
102
RTVSPropertyOp25
 70
     1
102
RTVSPropertyOp26
 70
     1
102
RTVSPropertyOp27
 70
     1
102
RTVSPropertyOp28
 70
     1
102
RTVSPropertyOp29
 70
     1
102
RTVSPropertyOp30
 70
     1
102
RTVSPropertyOp31
 70
     1
102
RTVSPropertyOp32
 70
     1
102
RTVSPropertyOp33
 70
     1
102
RTVSPropertyOp34
 70
     1
102
RTVSPropertyOp35
 70
     1
102
RTVSPropertyOp36
 70
     1
102
RTVSPropertyOp37
 70
     1
102
RTVSPropertyOp38
 70
     1
102
RTVSPropertyOp39
 70
     1
102
RTVSPropertyOp40
 70
     1
102
RTVSPropertyOp41
 70
     1
102
RTVSPropertyOp42
 70
     1
102
RTVSPropertyOp43
 70
     1
102
RTVSPropertyOp44
 70
     1
102
RTVSPropertyOp45
 70
     1
102
RTVSPropertyOp46
 70
     1
102
RTVSPropertyOp47
 70
     1
102
RTVSPropertyOp48
 70
     1
102
RTVSPropertyOp49
 70
     1
102
RTVSPropertyOp50
 70
     1
102
RTVSPropertyOp51
 70
     0
102
RTVSPropertyOp52
 70
     0
102
RTVSPropertyOp53
 70
     1
102
RTVSPropertyOp54
 70
     1
102
RTVSPropertyOp55
 70
     1
102
RTVSPropertyOp56
 70
     1
102
RTVSPropertyOp57
 70
     1
102
RTVSPropertyOp58
 70
     1
102
RTVSPropertyOp59
 70
     1
102
RTVSPropertyOp60
 70
     1
102
RTVSPropertyOp61
 70
     1
102
RTVSPropertyOp62
 70
     1
  0
XRECORD
  5
1B5D
102
{ACAD_REACTORS
330
1B5C
102
}
330
1B5C
100
AcDbXrecord
280
     1
102
RTVSPost2010Prop28
280
     0
102
RTVSPost2010PropOp28
 70
     1
102
RTVSPost2010Prop29
280
     1
102
RTVSPost2010PropOp29
 70
     1
102
RTVSPost2010Prop30
280
     1
102
RTVSPost2010PropOp30
 70
     1
102
RTVSPost2010Prop31
280
     0
102
RTVSPost2010PropOp31
 70
     1
102
RTVSPost2010Prop32
280
     0
102
RTVSPost2010PropOp32
 70
     1
102
RTVSPost2010Prop33
280
     0
102
RTVSPost2010PropOp33
 70
     1
102
RTVSPost2010Prop34
280
     0
102
RTVSPost2010PropOp34
 70
     1
102
RTVSPost2010Prop35
280
     0
102
RTVSPost2010PropOp35
 70
     1
102
RTVSPost2010Prop36
280
     0
102
RTVSPost2010PropOp36
 70
     1
102
RTVSPost2010Prop37
 90
       50
102
RTVSPost2010PropOp37
 70
     1
102
RTVSPost2010Prop38
140
0.0
102
RTVSPost2010PropOp38
 70
     1
102
RTVSPost2010Prop39
140
1.0
102
RTVSPost2010PropOp39
 70
     1
102
RTVSPost2010Prop40
 90
        0
102
RTVSPost2010PropOp40
 70
     1
102
RTVSPost2010Prop41ColorIndex
 90
       18
102
RTVSPost2010Prop41ColorRGB
 90
        0
102
RTVSPost2010PropOp41
 70
     1
102
RTVSPost2010Prop42
 90
       50
102
RTVSPost2010PropOp42
 70
     1
102
RTVSPost2010Prop43
 90
        3
102
RTVSPost2010PropOp43
 70
     1
102
RTVSPost2010Prop44ColorIndex
 90
        5
102
RTVSPost2010Prop44ColorRGB
 90
      255
102
RTVSPost2010PropOp44
 70
     1
102
RTVSPost2010Prop45
280
     0
102
RTVSPost2010PropOp45
 70
     1
102
RTVSPost2010Prop46
 90
       50
102
RTVSPost2010PropOp46
 70
     1
102
RTVSPost2010Prop47
 90
       50
102
RTVSPost2010PropOp47
 70
     1
102
RTVSPost2010Prop48
 90
       50
102
RTVSPost2010PropOp48
 70
     1
102
RTVSPost2010Prop49
280
     0
102
RTVSPost2010PropOp49
 70
     1
102
RTVSPost2010Prop50
 90
       50
102
RTVSPost2010PropOp50
 70
     1
102
RTVSPost2010Prop51ColorIndex
 90
      256
102
RTVSPost2010Prop51ColorRGB
 90
-16777216
102
RTVSPost2010PropOp51
 70
     0
102
RTVSPost2010Prop52
140
1.0
102
RTVSPost2010PropOp52
 70
     0
102
RTVSPost2010Prop53
 90
        2
102
RTVSPost2010PropOp53
 70
     1
102
RTVSPost2010Prop54
  1
strokes_ogs.tif
102
RTVSPost2010PropOp54
 70
     1
102
RTVSPost2010Prop55
280
     0
102
RTVSPost2010PropOp55
 70
     1
102
RTVSPost2010Prop56
140
1.0
102
RTVSPost2010PropOp56
 70
     1
102
RTVSPost2010Prop57
140
1.0
102
RTVSPost2010PropOp57
 70
     1
102
RTVSPropertyOp0
 70
     1
102
RTVSPropertyOp1
 70
     1
102
RTVSPropertyOp2
 70
     1
102
RTVSPropertyOp3
 70
     1
102
RTVSPropertyOp4
 70
     1
102
RTVSPropertyOp5
 70
     1
102
RTVSPropertyOp6
 70
     1
102
RTVSPropertyOp7
 70
     1
102
RTVSPropertyOp8
 70
     1
102
RTVSPropertyOp9
 70
     1
102
RTVSPropertyOp10
 70
     1
102
RTVSPropertyOp11
 70
     1
102
RTVSPropertyOp12
 70
     1
102
RTVSPropertyOp13
 70
     1
102
RTVSPropertyOp14
 70
     1
102
RTVSPropertyOp15
 70
     1
102
RTVSPropertyOp16
 70
     1
102
RTVSPropertyOp17
 70
     1
102
RTVSPropertyOp18
 70
     1
102
RTVSPropertyOp19
 70
     1
102
RTVSPropertyOp20
 70
     1
102
RTVSPropertyOp21
 70
     1
102
RTVSPropertyOp22
 70
     1
102
RTVSPropertyOp23
 70
     1
102
RTVSPropertyOp24
 70
     1
102
RTVSPropertyOp25
 70
     1
102
RTVSPropertyOp26
 70
     1
102
RTVSPropertyOp27
 70
     1
102
RTVSPropertyOp28
 70
     1
102
RTVSPropertyOp29
 70
     1
102
RTVSPropertyOp30
 70
     1
102
RTVSPropertyOp31
 70
     1
102
RTVSPropertyOp32
 70
     1
102
RTVSPropertyOp33
 70
     1
102
RTVSPropertyOp34
 70
     1
102
RTVSPropertyOp35
 70
     1
102
RTVSPropertyOp36
 70
     1
102
RTVSPropertyOp37
 70
     1
102
RTVSPropertyOp38
 70
     1
102
RTVSPropertyOp39
 70
     1
102
RTVSPropertyOp40
 70
     1
102
RTVSPropertyOp41
 70
     1
102
RTVSPropertyOp42
 70
     1
102
RTVSPropertyOp43
 70
     1
102
RTVSPropertyOp44
 70
     1
102
RTVSPropertyOp45
 70
     1
102
RTVSPropertyOp46
 70
     1
102
RTVSPropertyOp47
 70
     1
102
RTVSPropertyOp48
 70
     1
102
RTVSPropertyOp49
 70
     1
102
RTVSPropertyOp50
 70
     1
102
RTVSPropertyOp51
 70
     0
102
RTVSPropertyOp52
 70
     0
102
RTVSPropertyOp53
 70
     1
102
RTVSPropertyOp54
 70
     1
102
RTVSPropertyOp55
 70
     1
102
RTVSPropertyOp56
 70
     1
102
RTVSPropertyOp57
 70
     1
102
RTVSPropertyOp58
 70
     1
102
RTVSPropertyOp59
 70
     1
102
RTVSPropertyOp60
 70
     1
102
RTVSPropertyOp61
 70
     1
102
RTVSPropertyOp62
 70
     1
  0
ENDSEC
  0
EOF
