  0
SECTION
  2
HEADER
  9
$ACADVER
  1
AC1015
  9
$ACADMAINTVER
 70
    18
  9
$DWGCODEPAGE
  3
ANSI_1252
  9
$INSBASE
 10
0.0
 20
0.0
 30
0.0
  9
$EXTMIN
 10
-251.457824021878
 20
-405.3386533448223
 30
-0.0015258207003583
  9
$EXTMAX
 10
329.2657479425727
 20
359.5713966383731
 30
0.0000000349246037
  9
$LIMMIN
 10
0.0
 20
0.0
  9
$LIMMAX
 10
420.0
 20
297.0
  9
$ORTHOMODE
 70
     0
  9
$REGENMODE
 70
     1
  9
$FILLMODE
 70
     1
  9
$QTEXTMODE
 70
     0
  9
$MIRRTEXT
 70
     0
  9
$LTSCALE
 40
1.0
  9
$ATTMODE
 70
     1
  9
$TEXTSIZE
 40
2.5
  9
$TRACEWID
 40
1.0
  9
$TEXTSTYLE
  7
Standard
  9
$CLAYER
  8
0
  9
$CELTYPE
  6
ByLayer
  9
$CECOLOR
 62
   256
  9
$CELTSCALE
 40
1.0
  9
$DISPSILH
 70
     0
  9
$DIMSCALE
 40
1.0
  9
$DIMASZ
 40
2.5
  9
$DIMEXO
 40
0.625
  9
$DIMDLI
 40
3.75
  9
$DIMRND
 40
0.0
  9
$DIMDLE
 40
0.0
  9
$DIMEXE
 40
1.25
  9
$DIMTP
 40
0.0
  9
$DIMTM
 40
0.0
  9
$DIMTXT
 40
2.5
  9
$DIMCEN
 40
2.5
  9
$DIMTSZ
 40
0.0
  9
$DIMTOL
 70
     0
  9
$DIMLIM
 70
     0
  9
$DIMTIH
 70
     0
  9
$DIMTOH
 70
     0
  9
$DIMSE1
 70
     0
  9
$DIMSE2
 70
     0
  9
$DIMTAD
 70
     1
  9
$DIMZIN
 70
     8
  9
$DIMBLK
  1

  9
$DIMASO
 70
     1
  9
$DIMSHO
 70
     1
  9
$DIMPOST
  1

  9
$DIMAPOST
  1

  9
$DIMALT
 70
     0
  9
$DIMALTD
 70
     3
  9
$DIMALTF
 40
0.03937007874016
  9
$DIMLFAC
 40
1.0
  9
$DIMTOFL
 70
     1
  9
$DIMTVP
 40
0.0
  9
$DIMTIX
 70
     0
  9
$DIMSOXD
 70
     0
  9
$DIMSAH
 70
     0
  9
$DIMBLK1
  1

  9
$DIMBLK2
  1

  9
$DIMSTYLE
  2
ISO-25
  9
$DIMCLRD
 70
     0
  9
$DIMCLRE
 70
     0
  9
$DIMCLRT
 70
     0
  9
$DIMTFAC
 40
1.0
  9
$DIMGAP
 40
0.625
  9
$DIMJUST
 70
     0
  9
$DIMSD1
 70
     0
  9
$DIMSD2
 70
     0
  9
$DIMTOLJ
 70
     0
  9
$DIMTZIN
 70
     8
  9
$DIMALTZ
 70
     0
  9
$DIMALTTZ
 70
     0
  9
$DIMUPT
 70
     0
  9
$DIMDEC
 70
     2
  9
$DIMTDEC
 70
     2
  9
$DIMALTU
 70
     2
  9
$DIMALTTD
 70
     3
  9
$DIMTXSTY
  7
Standard
  9
$DIMAUNIT
 70
     0
  9
$DIMADEC
 70
     0
  9
$DIMALTRND
 40
0.0
  9
$DIMAZIN
 70
     0
  9
$DIMDSEP
 70
    44
  9
$DIMATFIT
 70
     3
  9
$DIMFRAC
 70
     0
  9
$DIMLDRBLK
  1

  9
$DIMLUNIT
 70
     2
  9
$DIMLWD
 70
    -2
  9
$DIMLWE
 70
    -2
  9
$DIMTMOVE
 70
     0
  9
$LUNITS
 70
     2
  9
$LUPREC
 70
     4
  9
$SKETCHINC
 40
1.0
  9
$FILLETRAD
 40
0.0
  9
$AUNITS
 70
     0
  9
$AUPREC
 70
     0
  9
$MENU
  1
.
  9
$ELEVATION
 40
0.0
  9
$PELEVATION
 40
0.0
  9
$THICKNESS
 40
0.0
  9
$LIMCHECK
 70
     0
  9
$CHAMFERA
 40
0.0
  9
$CHAMFERB
 40
0.0
  9
$CHAMFERC
 40
0.0
  9
$CHAMFERD
 40
0.0
  9
$SKPOLY
 70
     0
  9
$TDCREATE
 40
2460719.406504630
  9
$TDUCREATE
 40
2460719.114837963
  9
$TDUPDATE
 40
2460719.410439815
  9
$TDUUPDATE
 40
2460719.118773148
  9
$TDINDWG
 40
0.0018981481
  9
$TDUSRTIMER
 40
0.0018981481
  9
$USRTIMER
 70
     1
  9
$ANGBASE
 50
0.0
  9
$ANGDIR
 70
     0
  9
$PDMODE
 70
     0
  9
$PDSIZE
 40
0.0
  9
$PLINEWID
 40
0.0
  9
$SPLFRAME
 70
     0
  9
$SPLINETYPE
 70
     6
  9
$SPLINESEGS
 70
     8
  9
$HANDSEED
  5
1444
  9
$SURFTAB1
 70
     6
  9
$SURFTAB2
 70
     6
  9
$SURFTYPE
 70
     6
  9
$SURFU
 70
     6
  9
$SURFV
 70
     6
  9
$UCSBASE
  2

  9
$UCSNAME
  2

  9
$UCSORG
 10
0.0
 20
0.0
 30
0.0
  9
$UCSXDIR
 10
1.0
 20
0.0
 30
0.0
  9
$UCSYDIR
 10
0.0
 20
1.0
 30
0.0
  9
$UCSORTHOREF
  2

  9
$UCSORTHOVIEW
 70
     0
  9
$UCSORGTOP
 10
0.0
 20
0.0
 30
0.0
  9
$UCSORGBOTTOM
 10
0.0
 20
0.0
 30
0.0
  9
$UCSORGLEFT
 10
0.0
 20
0.0
 30
0.0
  9
$UCSORGRIGHT
 10
0.0
 20
0.0
 30
0.0
  9
$UCSORGFRONT
 10
0.0
 20
0.0
 30
0.0
  9
$UCSORGBACK
 10
0.0
 20
0.0
 30
0.0
  9
$PUCSBASE
  2

  9
$PUCSNAME
  2

  9
$PUCSORG
 10
0.0
 20
0.0
 30
0.0
  9
$PUCSXDIR
 10
1.0
 20
0.0
 30
0.0
  9
$PUCSYDIR
 10
0.0
 20
1.0
 30
0.0
  9
$PUCSORTHOREF
  2

  9
$PUCSORTHOVIEW
 70
     0
  9
$PUCSORGTOP
 10
0.0
 20
0.0
 30
0.0
  9
$PUCSORGBOTTOM
 10
0.0
 20
0.0
 30
0.0
  9
$PUCSORGLEFT
 10
0.0
 20
0.0
 30
0.0
  9
$PUCSORGRIGHT
 10
0.0
 20
0.0
 30
0.0
  9
$PUCSORGFRONT
 10
0.0
 20
0.0
 30
0.0
  9
$PUCSORGBACK
 10
0.0
 20
0.0
 30
0.0
  9
$USERI1
 70
     0
  9
$USERI2
 70
     0
  9
$USERI3
 70
     0
  9
$USERI4
 70
     0
  9
$USERI5
 70
     0
  9
$USERR1
 40
0.0
  9
$USERR2
 40
0.0
  9
$USERR3
 40
0.0
  9
$USERR4
 40
0.0
  9
$USERR5
 40
0.0
  9
$WORLDVIEW
 70
     1
  9
$SHADEDGE
 70
     3
  9
$SHADEDIF
 70
    70
  9
$TILEMODE
 70
     1
  9
$MAXACTVP
 70
    48
  9
$PINSBASE
 10
0.0
 20
0.0
 30
0.0
  9
$PLIMCHECK
 70
     0
  9
$PEXTMIN
 10
0.0
 20
0.0
 30
0.0
  9
$PEXTMAX
 10
0.0
 20
0.0
 30
0.0
  9
$PLIMMIN
 10
0.0
 20
0.0
  9
$PLIMMAX
 10
12.0
 20
9.0
  9
$UNITMODE
 70
     0
  9
$VISRETAIN
 70
     1
  9
$PLINEGEN
 70
     0
  9
$PSLTSCALE
 70
     1
  9
$TREEDEPTH
 70
  3020
  9
$CMLSTYLE
  2
Standard
  9
$CMLJUST
 70
     0
  9
$CMLSCALE
 40
20.0
  9
$PROXYGRAPHICS
 70
     1
  9
$MEASUREMENT
 70
     1
  9
$CELWEIGHT
370
    -1
  9
$ENDCAPS
280
     0
  9
$JOINSTYLE
280
     0
  9
$LWDISPLAY
290
     0
  9
$INSUNITS
 70
     4
  9
$HYPERLINKBASE
  1

  9
$STYLESHEET
  1

  9
$XEDIT
290
     1
  9
$CEPSNTYPE
380
     0
  9
$PSTYLEMODE
290
     1
  9
$FINGERPRINTGUID
  2
{375C693C-302E-BC42-B92A-19F6C371B7B0}
  9
$VERSIONGUID
  2
{28045E9E-7672-8840-BD3C-5F347D8C9276}
  9
$EXTNAMES
290
     1
  9
$PSVPSCALE
 40
0.0
  9
$OLESTARTUP
290
     0
  0
ENDSEC
  0
SECTION
  2
CLASSES
  0
CLASS
  1
ACDBDICTIONARYWDFLT
  2
AcDbDictionaryWithDefault
  3
ObjectDBX Classes
 90
        0
280
     0
281
     0
  0
CLASS
  1
ACDBPLACEHOLDER
  2
AcDbPlaceHolder
  3
ObjectDBX Classes
 90
        0
280
     0
281
     0
  0
CLASS
  1
LAYOUT
  2
AcDbLayout
  3
ObjectDBX Classes
 90
        0
280
     0
281
     0
  0
CLASS
  1
DICTIONARYVAR
  2
AcDbDictionaryVar
  3
ObjectDBX Classes
 90
        0
280
     0
281
     0
  0
CLASS
  1
TABLESTYLE
  2
AcDbTableStyle
  3
ObjectDBX Classes
 90
     4095
280
     0
281
     0
  0
CLASS
  1
MATERIAL
  2
AcDbMaterial
  3
ObjectDBX Classes
 90
     1153
280
     0
281
     0
  0
CLASS
  1
VISUALSTYLE
  2
AcDbVisualStyle
  3
ObjectDBX Classes
 90
     4095
280
     0
281
     0
  0
CLASS
  1
SCALE
  2
AcDbScale
  3
ObjectDBX Classes
 90
     1153
280
     0
281
     0
  0
CLASS
  1
MLEADERSTYLE
  2
AcDbMLeaderStyle
  3
ACDB_MLEADERSTYLE_CLASS
 90
     4095
280
     0
281
     0
  0
CLASS
  1
CELLSTYLEMAP
  2
AcDbCellStyleMap
  3
ObjectDBX Classes
 90
     1152
280
     0
281
     0
  0
CLASS
  1
EXACXREFPANELOBJECT
  2
ExAcXREFPanelObject
  3
EXAC_ESW
 90
    33793
280
     0
281
     0
  0
CLASS
  1
NPOCOLLECTION
  2
AcDbImpNonPersistentObjectsCollection
  3
ObjectDBX Classes
 90
    33921
280
     0
281
     0
  0
CLASS
  1
LAYER_INDEX
  2
AcDbLayerIndex
  3
ObjectDBX Classes
 90
    32768
280
     0
281
     0
  0
CLASS
  1
SPATIAL_INDEX
  2
AcDbSpatialIndex
  3
ObjectDBX Classes
 90
    32768
280
     0
281
     0
  0
CLASS
  1
IDBUFFER
  2
AcDbIdBuffer
  3
ObjectDBX Classes
 90
    32768
280
     0
281
     0
  0
CLASS
  1
ACDBSECTIONVIEWSTYLE
  2
AcDbSectionViewStyle
  3
ObjectDBX Classes
 90
     1025
280
     0
281
     0
  0
CLASS
  1
ACDBDETAILVIEWSTYLE
  2
AcDbDetailViewStyle
  3
ObjectDBX Classes
 90
     1025
280
     0
281
     0
  0
CLASS
  1
XRECORD
  2
AcDbXrecord
  3
ObjectDBX Classes
 90
        0
280
     0
281
     0
  0
ENDSEC
  0
SECTION
  2
TABLES
  0
TABLE
  2
VPORT
  5
8
102
{ACAD_XDICTIONARY
360
1352
102
}
330
0
100
AcDbSymbolTable
 70
     1
  0
VPORT
  5
EA
330
8
100
AcDbSymbolTableRecord
100
AcDbViewportTableRecord
  2
*Active
 70
     0
 10
0.0
 20
0.0
 11
1.0
 21
1.0
 12
38.90396196034736
 22
-22.88362835322465
 13
0.0
 23
0.0
 14
10.0
 24
10.0
 15
10.0
 25
10.0
 16
0.0
 26
0.0
 36
1.0
 17
0.0
 27
0.0
 37
0.0
 40
813.4125194719809
 41
0.9846153846153846
 42
50.0
 43
0.0
 44
0.0
 50
0.0
 51
0.0
 71
     0
 72
  1000
 73
     1
 74
     3
 75
     0
 76
     1
 77
     0
 78
     0
281
     0
 65
     1
110
0.0
120
0.0
130
0.0
111
1.0
121
0.0
131
0.0
112
0.0
122
1.0
132
0.0
 79
     0
146
0.0
1001
ACAD_NAV_VCDISPLAY
1070
     3
  0
ENDTAB
  0
TABLE
  2
LTYPE
  5
5
330
0
100
AcDbSymbolTable
 70
     1
  0
LTYPE
  5
14
330
5
100
AcDbSymbolTableRecord
100
AcDbLinetypeTableRecord
  2
ByBlock
 70
     0
  3

 72
    65
 73
     0
 40
0.0
  0
LTYPE
  5
15
330
5
100
AcDbSymbolTableRecord
100
AcDbLinetypeTableRecord
  2
ByLayer
 70
     0
  3

 72
    65
 73
     0
 40
0.0
  0
LTYPE
  5
16
330
5
100
AcDbSymbolTableRecord
100
AcDbLinetypeTableRecord
  2
Continuous
 70
     0
  3
Solid line
 72
    65
 73
     0
 40
0.0
  0
ENDTAB
  0
TABLE
  2
LAYER
  5
2
102
{ACAD_XDICTIONARY
360
1FF
102
}
330
0
100
AcDbSymbolTable
 70
     1
  0
LAYER
  5
10
102
{ACAD_XDICTIONARY
360
13C
102
}
330
2
100
AcDbSymbolTableRecord
100
AcDbLayerTableRecord
  2
0
 70
     0
 62
     7
  6
Continuous
370
    -3
390
F
  0
ENDTAB
  0
TABLE
  2
STYLE
  5
3
330
0
100
AcDbSymbolTable
 70
     1
  0
STYLE
  5
11
330
3
100
AcDbSymbolTableRecord
100
AcDbTextStyleTableRecord
  2
Standard
 70
     0
 40
0.0
 41
1.0
 50
0.0
 71
     0
 42
2.5
  3
arial.ttf
  4

1001
ACAD
1000
Arial
1071
       34
  0
ENDTAB
  0
TABLE
  2
VIEW
  5
6
330
0
100
AcDbSymbolTable
 70
     0
  0
ENDTAB
  0
TABLE
  2
UCS
  5
7
330
0
100
AcDbSymbolTable
 70
     0
  0
ENDTAB
  0
TABLE
  2
APPID
  5
9
330
0
100
AcDbSymbolTable
 70
     8
  0
APPID
  5
12
330
9
100
AcDbSymbolTableRecord
100
AcDbRegAppTableRecord
  2
ACAD
 70
     0
  0
APPID
  5
9E
330
9
100
AcDbSymbolTableRecord
100
AcDbRegAppTableRecord
  2
ACAD_PSEXT
 70
     0
  0
APPID
  5
133
330
9
100
AcDbSymbolTableRecord
100
AcDbRegAppTableRecord
  2
AcadAnnoPO
 70
     0
  0
APPID
  5
134
330
9
100
AcDbSymbolTableRecord
100
AcDbRegAppTableRecord
  2
AcadAnnotative
 70
     0
  0
APPID
  5
135
330
9
100
AcDbSymbolTableRecord
100
AcDbRegAppTableRecord
  2
ACAD_DSTYLE_DIMJAG
 70
     0
  0
APPID
  5
136
330
9
100
AcDbSymbolTableRecord
100
AcDbRegAppTableRecord
  2
ACAD_DSTYLE_DIMTALN
 70
     0
  0
APPID
  5
165
330
9
100
AcDbSymbolTableRecord
100
AcDbRegAppTableRecord
  2
ACAD_MLEADERVER
 70
     0
  0
APPID
  5
217
330
9
100
AcDbSymbolTableRecord
100
AcDbRegAppTableRecord
  2
ACAD_NAV_VCDISPLAY
 70
     0
  0
ENDTAB
  0
TABLE
  2
DIMSTYLE
  5
A
330
0
100
AcDbSymbolTable
 70
     1
100
AcDbDimStyleTable
 71
     0
  0
DIMSTYLE
105
27
330
A
100
AcDbSymbolTableRecord
100
AcDbDimStyleTableRecord
  2
ISO-25
 70
     0
 41
2.5
 42
0.625
 43
3.75
 44
1.25
 73
     0
 74
     0
 77
     1
 78
     8
140
2.5
141
2.5
143
0.03937007874016
147
0.625
171
     3
172
     1
271
     2
272
     2
274
     3
278
    44
283
     0
284
     8
340
11
  0
ENDTAB
  0
TABLE
  2
BLOCK_RECORD
  5
1
330
0
100
AcDbSymbolTable
 70
     7
  0
BLOCK_RECORD
  5
1F
102
{ACAD_XDICTIONARY
360
1CE
102
}
330
1
100
AcDbSymbolTableRecord
100
AcDbBlockTableRecord
  2
*Model_Space
340
22
  0
BLOCK_RECORD
  5
D2
102
{ACAD_XDICTIONARY
360
1305
102
}
330
1
100
AcDbSymbolTableRecord
100
AcDbBlockTableRecord
  2
*Paper_Space
340
D3
  0
BLOCK_RECORD
  5
D6
102
{ACAD_XDICTIONARY
360
1307
102
}
330
1
100
AcDbSymbolTableRecord
100
AcDbBlockTableRecord
  2
*Paper_Space0
340
D7
  0
BLOCK_RECORD
  5
1031
330
1
100
AcDbSymbolTableRecord
100
AcDbBlockTableRecord
  2
SPR100_200-Front
340
0
102
{BLKREFS
331
12FB
102
}
  0
BLOCK_RECORD
  5
10B1
330
1
100
AcDbSymbolTableRecord
100
AcDbBlockTableRecord
  2
SPR100_200-Left
340
0
102
{BLKREFS
331
12FC
102
}
  0
BLOCK_RECORD
  5
10ED
330
1
100
AcDbSymbolTableRecord
100
AcDbBlockTableRecord
  2
SPR100_200-Right
340
0
102
{BLKREFS
331
12FD
102
}
  0
BLOCK_RECORD
  5
112B
330
1
100
AcDbSymbolTableRecord
100
AcDbBlockTableRecord
  2
SPR100_200-Top
340
0
102
{BLKREFS
331
12FE
102
}
  0
BLOCK_RECORD
  5
1191
330
1
100
AcDbSymbolTableRecord
100
AcDbBlockTableRecord
  2
SPR100_200-Bottom
340
0
102
{BLKREFS
331
12FF
102
}
  0
BLOCK_RECORD
  5
11EF
330
1
100
AcDbSymbolTableRecord
100
AcDbBlockTableRecord
  2
SPR100_200-ISO
340
0
102
{BLKREFS
331
1300
102
}
  0
ENDTAB
  0
ENDSEC
  0
SECTION
  2
BLOCKS
  0
BLOCK
  5
20
330
1F
100
AcDbEntity
  8
0
100
AcDbBlockBegin
  2
*Model_Space
 70
     0
 10
0.0
 20
0.0
 30
0.0
  3
*Model_Space
  1

  0
ENDBLK
  5
21
330
1F
100
AcDbEntity
  8
0
100
AcDbBlockEnd
  0
BLOCK
  5
D4
330
D2
100
AcDbEntity
 67
     1
  8
0
100
AcDbBlockBegin
  2
*Paper_Space
 70
     0
 10
0.0
 20
0.0
 30
0.0
  3
*Paper_Space
  1

  0
ENDBLK
  5
D5
330
D2
100
AcDbEntity
 67
     1
  8
0
100
AcDbBlockEnd
  0
BLOCK
  5
D8
330
D6
100
AcDbEntity
 67
     1
  8
0
100
AcDbBlockBegin
  2
*Paper_Space0
 70
     0
 10
0.0
 20
0.0
 30
0.0
  3
*Paper_Space0
  1

  0
ENDBLK
  5
D9
330
D6
100
AcDbEntity
 67
     1
  8
0
100
AcDbBlockEnd
  0
BLOCK
  5
1032
330
1031
100
AcDbEntity
  8
0
100
AcDbBlockBegin
  2
SPR100_200-Front
 70
     0
 10
0.0
 20
0.0
 30
0.0
  3
SPR100_200-Front
  1

  0
LINE
  5
1034
330
1031
100
AcDbEntity
  8
0
100
AcDbLine
 10
92.52709056099996
 20
6.269999999999987
 30
0.0
 11
87.52709056099996
 21
1.269999999999987
 31
0.0
  0
LINE
  5
1035
330
1031
100
AcDbEntity
  8
0
100
AcDbLine
 10
-87.527090561
 20
1.269999999999987
 30
0.0
 11
-92.527090561
 21
6.269999999999987
 31
0.0
  0
LINE
  5
1036
330
1031
100
AcDbEntity
  8
0
100
AcDbLine
 10
-92.527090561
 20
72.27000000000001
 30
0.0
 11
-87.52709056100002
 21
77.27000000000001
 31
0.0
  0
LINE
  5
1037
330
1031
100
AcDbEntity
  8
0
100
AcDbLine
 10
87.52709056099996
 20
77.27
 30
0.0
 11
92.527090561
 21
72.27
 31
0.0
  0
LINE
  5
1038
330
1031
100
AcDbEntity
  8
0
100
AcDbLine
 10
92.527090561
 20
72.27
 30
0.0
 11
92.52709056099996
 21
6.269999999999988
 31
0.0
  0
LINE
  5
1039
330
1031
100
AcDbEntity
  8
0
100
AcDbLine
 10
-92.527090561
 20
6.269999999999987
 30
0.0
 11
-92.527090561
 21
72.27000000000001
 31
0.0
  0
LINE
  5
103A
330
1031
100
AcDbEntity
  8
0
100
AcDbLine
 10
46.49999999999997
 20
77.27
 30
0.0
 11
87.52709056099996
 21
77.27
 31
0.0
  0
LINE
  5
103B
330
1031
100
AcDbEntity
  8
0
100
AcDbLine
 10
-46.50000000000002
 20
1.269999999999978
 30
0.0
 11
-87.527090561
 21
1.269999999999987
 31
0.0
  0
LINE
  5
103C
330
1031
100
AcDbEntity
  8
0
100
AcDbLine
 10
87.52709056099996
 20
1.269999999999987
 30
0.0
 11
46.49999999999997
 21
1.269999999999978
 31
0.0
  0
ARC
  5
103D
330
1031
100
AcDbEntity
  8
0
100
AcDbCircle
 10
46.49999999999997
 20
78.77000000000002
 30
0.0
 40
1.5
100
AcDbArc
 50
90.0
 51
270.0
  0
LINE
  5
103E
330
1031
100
AcDbEntity
  8
0
100
AcDbLine
 10
-87.52709056100002
 20
77.27000000000001
 30
0.0
 11
-46.50000000000002
 21
77.27000000000001
 31
0.0
  0
ARC
  5
103F
330
1031
100
AcDbEntity
  8
0
100
AcDbCircle
 10
-46.50000000000002
 20
78.77000000000001
 30
0.0
 40
1.5
100
AcDbArc
 50
270.0
 51
90.0
  0
LINE
  5
1040
330
1031
100
AcDbEntity
  8
0
100
AcDbLine
 10
51.50000000000019
 20
80.27000000000001
 30
0.0
 11
51.50000000000023
 21
85.27000000000001
 31
0.0
  0
LINE
  5
1041
330
1031
100
AcDbEntity
  8
0
100
AcDbLine
 10
51.50000000000023
 20
85.27000000000001
 30
0.0
 11
50.00000000000023
 21
85.27000000000001
 31
0.0
  0
LINE
  5
1042
330
1031
100
AcDbEntity
  8
0
100
AcDbLine
 10
50.00000000000023
 20
85.27000000000001
 30
0.0
 11
50.00000000000021
 21
80.27000000000001
 31
0.0
  0
LINE
  5
1043
330
1031
100
AcDbEntity
  8
0
100
AcDbLine
 10
50.00000000000021
 20
80.27000000000001
 30
0.0
 11
51.50000000000019
 21
80.27000000000001
 31
0.0
  0
LINE
  5
1044
330
1031
100
AcDbEntity
  8
0
100
AcDbLine
 10
50.00000000000023
 20
195.67
 30
0.0
 11
51.50000000000023
 21
195.67
 31
0.0
  0
LINE
  5
1045
330
1031
100
AcDbEntity
  8
0
100
AcDbLine
 10
51.50000000000023
 20
195.67
 30
0.0
 11
51.5000000000002
 21
200.67
 31
0.0
  0
LINE
  5
1046
330
1031
100
AcDbEntity
  8
0
100
AcDbLine
 10
-51.50000000000002
 20
85.27000000000001
 30
0.0
 11
-51.50000000000002
 21
80.27000000000001
 31
0.0
  0
LINE
  5
1047
330
1031
100
AcDbEntity
  8
0
100
AcDbLine
 10
-51.50000000000002
 20
80.27000000000001
 30
0.0
 11
-50.0
 21
80.27000000000001
 31
0.0
  0
LINE
  5
1048
330
1031
100
AcDbEntity
  8
0
100
AcDbLine
 10
-50.0
 20
80.27000000000001
 30
0.0
 11
-50.0
 21
85.27000000000001
 31
0.0
  0
LINE
  5
1049
330
1031
100
AcDbEntity
  8
0
100
AcDbLine
 10
-50.0
 20
85.27000000000001
 30
0.0
 11
-51.50000000000002
 21
85.27000000000001
 31
0.0
  0
LINE
  5
104A
330
1031
100
AcDbEntity
  8
0
100
AcDbLine
 10
-51.50000000000002
 20
200.67
 30
0.0
 11
-51.50000000000002
 21
195.67
 31
0.0
  0
LINE
  5
104B
330
1031
100
AcDbEntity
  8
0
100
AcDbLine
 10
-51.50000000000002
 20
195.67
 30
0.0
 11
-50.0
 21
195.67
 31
0.0
  0
LINE
  5
104C
330
1031
100
AcDbEntity
  8
0
100
AcDbLine
 10
51.5000000000002
 20
200.67
 30
0.0
 11
50.00000000000021
 21
200.67
 31
0.0
  0
LINE
  5
104D
330
1031
100
AcDbEntity
  8
0
100
AcDbLine
 10
50.00000000000021
 20
200.67
 30
0.0
 11
50.00000000000023
 21
195.67
 31
0.0
  0
LINE
  5
104E
330
1031
100
AcDbEntity
  8
0
100
AcDbLine
 10
-50.0
 20
195.67
 30
0.0
 11
-50.0
 21
200.67
 31
0.0
  0
LINE
  5
104F
330
1031
100
AcDbEntity
  8
0
100
AcDbLine
 10
-50.0
 20
200.67
 30
0.0
 11
-51.50000000000002
 21
200.67
 31
0.0
  0
LINE
  5
1050
330
1031
100
AcDbEntity
  8
0
100
AcDbLine
 10
51.49999999999997
 20
-28.42608254450013
 30
0.0
 11
51.49999999999999
 21
-21.35501473263468
 31
0.0
  0
LINE
  5
1051
330
1031
100
AcDbEntity
  8
0
100
AcDbLine
 10
51.49999999999999
 20
-21.35501473263468
 30
0.0
 11
50.0
 21
-21.35501473263468
 31
0.0
  0
LINE
  5
1052
330
1031
100
AcDbEntity
  8
0
100
AcDbLine
 10
50.0
 20
-21.35501473263468
 30
0.0
 11
50.0
 21
-28.42608254450013
 31
0.0
  0
LINE
  5
1053
330
1031
100
AcDbEntity
  8
0
100
AcDbLine
 10
50.0
 20
-28.42608254450013
 30
0.0
 11
51.49999999999997
 21
-28.42608254450013
 31
0.0
  0
LINE
  5
1054
330
1031
100
AcDbEntity
  8
0
100
AcDbLine
 10
-51.49999999999999
 20
-21.35501473263468
 30
0.0
 11
-51.49999999999997
 21
-28.42608254450013
 31
0.0
  0
LINE
  5
1055
330
1031
100
AcDbEntity
  8
0
100
AcDbLine
 10
-51.49999999999997
 20
-28.42608254450013
 30
0.0
 11
-50.0
 21
-28.42608254450013
 31
0.0
  0
LINE
  5
1056
330
1031
100
AcDbEntity
  8
0
100
AcDbLine
 10
-50.0
 20
-28.42608254450013
 30
0.0
 11
-50.0
 21
-21.35501473263468
 31
0.0
  0
LINE
  5
1057
330
1031
100
AcDbEntity
  8
0
100
AcDbLine
 10
-50.0
 20
-21.35501473263468
 30
0.0
 11
-51.49999999999999
 21
-21.35501473263468
 31
0.0
  0
LINE
  5
1058
330
1031
100
AcDbEntity
  8
0
100
AcDbLine
 10
51.50000000000023
 20
85.27000000000001
 30
0.0
 11
51.50000000000023
 21
195.67
 31
0.0
  0
LINE
  5
1059
330
1031
100
AcDbEntity
  8
0
100
AcDbLine
 10
50.00000000000023
 20
195.67
 30
0.0
 11
50.00000000000023
 21
85.27000000000001
 31
0.0
  0
LINE
  5
105A
330
1031
100
AcDbEntity
  8
0
100
AcDbLine
 10
-51.50000000000002
 20
195.67
 30
0.0
 11
-51.50000000000002
 21
85.27000000000001
 31
0.0
  0
LINE
  5
105B
330
1031
100
AcDbEntity
  8
0
100
AcDbLine
 10
-50.0
 20
195.67
 30
0.0
 11
-50.0
 21
85.27000000000001
 31
0.0
  0
LINE
  5
105C
330
1031
100
AcDbEntity
  8
0
100
AcDbLine
 10
46.49999999999997
 20
80.27000000000001
 30
0.0
 11
49.39999999999998
 21
80.27000000000001
 31
0.0
  0
LINE
  5
105D
330
1031
100
AcDbEntity
  8
0
100
AcDbLine
 10
-49.40000000000002
 20
80.27000000000001
 30
0.0
 11
-46.50000000000002
 21
80.27000000000001
 31
0.0
  0
LINE
  5
105E
330
1031
100
AcDbEntity
  8
0
100
AcDbLine
 10
-49.40000000000002
 20
200.67
 30
0.0
 11
49.39999999999998
 21
200.67
 31
0.0
  0
LINE
  5
105F
330
1031
100
AcDbEntity
  8
0
100
AcDbLine
 10
51.50000000000233
 20
-2.263131642256756
 30
0.0
 11
51.49999999999999
 21
-21.35501473263468
 31
0.0
  0
LINE
  5
1060
330
1031
100
AcDbEntity
  8
0
100
AcDbLine
 10
50.00000000000193
 20
-2.263131642256756
 30
0.0
 11
50.0
 21
-21.35501473263468
 31
0.0
  0
ELLIPSE
  5
1061
330
1031
100
AcDbEntity
  8
0
100
AcDbEllipse
 10
49.39999999999999
 20
-54.16476937947052
 30
0.0
 11
0.6000000000000087
 21
0.0000000000001113
 31
0.0
210
0.0
220
0.0
230
1.0
 40
0.7071067811864291
 41
4.712388980384544
 42
6.283185307179551
  0
ELLIPSE
  5
1062
330
1031
100
AcDbEntity
  8
0
100
AcDbEllipse
 10
49.39999999999999
 20
-54.16476937947052
 30
0.0
 11
2.100000000000031
 21
0.0000000000002842
 31
0.0
210
0.0
220
0.0
230
1.0
 40
0.7071067811865434
 41
4.712388980384822
 42
6.283185307180016
  0
LINE
  5
1063
330
1031
100
AcDbEntity
  8
0
100
AcDbLine
 10
51.50000000000233
 20
-2.263131642256756
 30
0.0
 11
50.00000000000193
 21
-2.263131642256756
 31
0.0
  0
ELLIPSE
  5
1064
330
1031
100
AcDbEntity
  8
0
100
AcDbEllipse
 10
-46.50000000000002
 20
0.0236058844763973
 30
0.0
 11
-1.5
 21
0.0000000000001095
 31
0.0
210
0.0
220
0.0
230
1.0
 40
0.7071067811865479
 41
1.570796326795026
 42
2.705254581962135
  0
LINE
  5
1065
330
1031
100
AcDbEntity
  8
0
100
AcDbLine
 10
-46.50000000000002
 20
-1.037054287303418
 30
0.0
 11
-48.79315533855963
 21
-1.037054287303417
 31
0.0
  0
LINE
  5
1066
330
1031
100
AcDbEntity
  8
0
100
AcDbLine
 10
-48.79315533855963
 20
-1.037054287303417
 30
0.0
 11
-49.40000000000002
 21
-1.466158262545976
 31
0.0
  0
LINE
  5
1067
330
1031
100
AcDbEntity
  8
0
100
AcDbLine
 10
49.39999999999998
 20
-1.46615826254598
 30
0.0
 11
48.79315533855959
 21
-1.037054287303422
 31
0.0
  0
LINE
  5
1068
330
1031
100
AcDbEntity
  8
0
100
AcDbLine
 10
48.79315533855959
 20
-1.037054287303422
 30
0.0
 11
46.49999999999997
 21
-1.037054287303421
 31
0.0
  0
ELLIPSE
  5
1069
330
1031
100
AcDbEntity
  8
0
100
AcDbEllipse
 10
46.49999999999997
 20
0.0236058844763973
 30
0.0
 11
-1.5
 21
0.0
 31
0.0
210
0.0
220
0.0
230
1.0
 40
0.7071067811865479
 41
0.4363380716279029
 42
1.570796326794896
  0
SPLINE
  5
106A
330
1031
100
AcDbEntity
  8
0
100
AcDbSpline
210
0.0
220
0.0
230
1.0
 70
     8
 71
     3
 72
     8
 73
     4
 74
     0
 42
0.000000001
 43
0.0000000001
 40
-1.0
 40
-1.0
 40
-1.0
 40
-1.0
 40
0.0
 40
0.0
 40
0.0
 40
0.0
 10
45.14054197002045
 20
-0.4246540092928885
 30
0.0
 10
45.01586474390284
 20
-0.3214850446753071
 30
0.0
 10
44.97251992074146
 20
-0.159479210935458
 30
0.0
 10
45.01767776087191
 20
-0.0003899405809597
 30
0.0
  0
SPLINE
  5
106B
330
1031
100
AcDbEntity
  8
0
100
AcDbSpline
210
0.0
220
0.0
230
1.0
 70
     8
 71
     3
 72
     8
 73
     4
 74
     0
 42
0.000000001
 43
0.0000000001
 40
-1.0
 40
-1.0
 40
-1.0
 40
-1.0
 40
0.0
 40
0.0
 40
0.0
 40
0.0
 10
-45.01767776087199
 20
-0.0003899405809596
 30
0.0
 10
-44.97251992073876
 20
-0.1594792109354548
 30
0.0
 10
-45.01586474390141
 20
-0.3214850446753066
 30
0.0
 10
-45.14054197002046
 20
-0.4246540092928885
 30
0.0
  0
LINE
  5
106C
330
1031
100
AcDbEntity
  8
0
100
AcDbLine
 10
-50.0000000000017
 20
-2.263131642256743
 30
0.0
 11
-51.50000000000208
 21
-2.263131642256743
 31
0.0
  0
SPLINE
  5
106D
330
1031
100
AcDbEntity
  8
0
100
AcDbSpline
210
0.0
220
0.0
230
1.0
 70
     8
 71
     3
 72
     8
 73
     4
 74
     0
 42
0.000000001
 43
0.0000000001
 40
-1.0
 40
-1.0
 40
-1.0
 40
-1.0
 40
0.0
 40
0.0
 40
0.0
 40
0.0
 10
-49.40000000000002
 20
-1.466158262545966
 30
0.0
 10
-49.714159265359
 20
-1.873237411765531
 30
0.0
 10
-50.00000000000003
 20
-2.078196639180605
 30
0.0
 10
-50.00000000000003
 20
-2.263131641492203
 30
0.0
  0
ARC
  5
106E
330
1031
100
AcDbEntity
  8
0
100
AcDbCircle
 10
-46.50000000000002
 20
-0.2300000000000074
 30
0.0
 40
1.5
100
AcDbArc
 50
8.805075259701309
 51
90.0
  0
SPLINE
  5
106F
330
1031
100
AcDbEntity
  8
0
100
AcDbSpline
210
0.0
220
0.0
230
1.0
 70
     8
 71
     3
 72
     8
 73
     4
 74
     0
 42
0.000000001
 43
0.0000000001
 40
-1.0
 40
-1.0
 40
-1.0
 40
-1.0
 40
0.0
 40
0.0
 40
0.0
 40
0.0
 10
50.0
 20
-2.263131641492203
 30
0.0
 10
50.0
 20
-2.078196639180732
 30
0.0
 10
49.71415926535898
 20
-1.873237411764923
 30
0.0
 10
49.39999999999998
 20
-1.466158262545966
 30
0.0
  0
ARC
  5
1070
330
1031
100
AcDbEntity
  8
0
100
AcDbCircle
 10
46.49999999999997
 20
-0.2300000000000074
 30
0.0
 40
1.5
100
AcDbArc
 50
90.0
 51
171.1949247402987
  0
SPLINE
  5
1071
330
1031
100
AcDbEntity
  8
0
100
AcDbSpline
210
0.0
220
0.0
230
1.0
 70
     8
 71
     3
 72
    16
 73
    12
 74
     0
 42
0.000000001
 43
0.0000000001
 40
0.0
 40
0.0
 40
0.0
 40
0.0
 40
0.0356537247246817
 40
0.0356537247246817
 40
0.0703704956464324
 40
0.0703704956464324
 40
0.1051345640123651
 40
0.1051345640123651
 40
0.1398962718698658
 40
0.1398962718698658
 40
0.1538885733138162
 40
0.1538885733138162
 40
0.1538885733138162
 40
0.1538885733138162
 10
-50.49950000000038
 20
-2.263131641492214
 30
0.0
 10
-50.49949999999954
 20
-2.263131641490661
 30
0.0
 10
-50.47955867540107
 20
-2.263059951015
 30
0.0
 10
-50.40583172169386
 20
-2.250836451211948
 30
0.0
 10
-50.35213458027135
 20
-2.238741830461442
 30
0.0
 10
-50.22293730428431
 20
-2.194102190380825
 30
0.0
 10
-50.14591985433094
 20
-2.160888677220874
 30
0.0
 10
-49.98574064089677
 20
-2.069479202572665
 30
0.0
 10
-49.90073655256947
 20
-2.010107098235781
 30
0.0
 10
-49.78901418347274
 20
-1.909831885133989
 30
0.0
 10
-49.75758437991435
 20
-1.878943669864917
 30
0.0
 10
-49.7274215552439
 20
-1.846191951394318
 30
0.0
  0
SPLINE
  5
1072
330
1031
100
AcDbEntity
  8
0
100
AcDbSpline
210
0.0
220
0.0
230
1.0
 70
     8
 71
     3
 72
    16
 73
    12
 74
     0
 42
0.000000001
 43
0.0000000001
 40
0.0
 40
0.0
 40
0.0
 40
0.0
 40
0.0356266149325101
 40
0.0356266149325101
 40
0.0703447701796451
 40
0.0703447701796451
 40
0.1051087694986555
 40
0.1051087694986555
 40
0.1398704808035252
 40
0.1398704808035252
 40
0.1538888647030275
 40
0.1538888647030275
 40
0.1538888647030275
 40
0.1538888647030275
 10
49.72742155524383
 20
-1.846191951394278
 30
0.0
 10
49.80422088265378
 20
-1.929583012329229
 30
0.0
 10
49.88999615129829
 20
-2.001172959730287
 30
0.0
 10
50.05564046641762
 20
-2.113266523262624
 30
0.0
 10
50.13750261649047
 20
-2.155953002276268
 30
0.0
 10
50.28182181890703
 20
-2.217016702989986
 30
0.0
 10
50.34591305089001
 20
-2.236189491810426
 30
0.0
 10
50.44238223265086
 20
-2.258395304186403
 30
0.0
 10
50.47587215056793
 20
-2.26181117486696
 30
0.0
 10
50.49650501536266
 20
-2.263130971916403
 30
0.0
 10
50.49949999999992
 20
-2.263131641491603
 30
0.0
 10
50.49950000000001
 20
-2.263131641492214
 30
0.0
  0
LINE
  5
1073
330
1031
100
AcDbEntity
  8
0
100
AcDbLine
 10
51.49999999999999
 20
-54.16476937947052
 30
0.0
 11
51.49999999999997
 21
-28.42608254450013
 31
0.0
  0
LINE
  5
1074
330
1031
100
AcDbEntity
  8
0
100
AcDbLine
 10
-51.49999999999997
 20
-28.42608254450013
 30
0.0
 11
-51.50000000000002
 21
-54.16476937947052
 31
0.0
  0
LINE
  5
1075
330
1031
100
AcDbEntity
  8
0
100
AcDbLine
 10
-50.0
 20
-28.42608254450013
 30
0.0
 11
-50.0
 21
-54.16476937947052
 31
0.0
  0
LINE
  5
1076
330
1031
100
AcDbEntity
  8
0
100
AcDbLine
 10
-49.40000000000001
 20
-54.58903344818245
 30
0.0
 11
49.39999999999999
 21
-54.58903344818245
 31
0.0
  0
LINE
  5
1077
330
1031
100
AcDbEntity
  8
0
100
AcDbLine
 10
50.0
 20
-54.16476937947052
 30
0.0
 11
50.0
 21
-28.42608254450013
 31
0.0
  0
LINE
  5
1078
330
1031
100
AcDbEntity
  8
0
100
AcDbLine
 10
-49.40000000000001
 20
-55.64969361996226
 30
0.0
 11
49.39999999999999
 21
-55.64969361996226
 31
0.0
  0
LINE
  5
1079
330
1031
100
AcDbEntity
  8
0
100
AcDbLine
 10
-51.50000000000208
 20
-2.263131642256743
 30
0.0
 11
-51.49999999999999
 21
-21.35501473263468
 31
0.0
  0
LINE
  5
107A
330
1031
100
AcDbEntity
  8
0
100
AcDbLine
 10
-50.0000000000017
 20
-2.263131642256743
 30
0.0
 11
-50.0
 21
-21.35501473263468
 31
0.0
  0
CIRCLE
  5
107B
330
1031
100
AcDbEntity
  8
0
100
AcDbCircle
 10
39.99999999999998
 20
189.77
 30
0.0
 40
2.5
  0
CIRCLE
  5
107C
330
1031
100
AcDbEntity
  8
0
100
AcDbCircle
 10
39.99999999999998
 20
149.77
 30
0.0
 40
2.5
  0
CIRCLE
  5
107D
330
1031
100
AcDbEntity
  8
0
100
AcDbCircle
 10
39.99999999999998
 20
109.7699999999999
 30
0.0
 40
2.5
  0
CIRCLE
  5
107E
330
1031
100
AcDbEntity
  8
0
100
AcDbCircle
 10
39.99999999999998
 20
69.76999999999995
 30
0.0
 40
2.5
  0
CIRCLE
  5
107F
330
1031
100
AcDbEntity
  8
0
100
AcDbCircle
 10
39.99999999999998
 20
29.76999999999997
 30
0.0
 40
2.5
  0
CIRCLE
  5
1080
330
1031
100
AcDbEntity
  8
0
100
AcDbCircle
 10
29.99999999999997
 20
169.77
 30
0.0
 40
2.5
  0
CIRCLE
  5
1081
330
1031
100
AcDbEntity
  8
0
100
AcDbCircle
 10
29.99999999999997
 20
129.77
 30
0.0
 40
2.5
  0
CIRCLE
  5
1082
330
1031
100
AcDbEntity
  8
0
100
AcDbCircle
 10
29.99999999999997
 20
89.76999999999996
 30
0.0
 40
2.5
  0
CIRCLE
  5
1083
330
1031
100
AcDbEntity
  8
0
100
AcDbCircle
 10
29.99999999999997
 20
49.76999999999996
 30
0.0
 40
2.5
  0
CIRCLE
  5
1084
330
1031
100
AcDbEntity
  8
0
100
AcDbCircle
 10
29.99999999999997
 20
9.769999999999956
 30
0.0
 40
2.5
  0
CIRCLE
  5
1085
330
1031
100
AcDbEntity
  8
0
100
AcDbCircle
 10
-30.00000000000002
 20
189.77
 30
0.0
 40
2.5
  0
CIRCLE
  5
1086
330
1031
100
AcDbEntity
  8
0
100
AcDbCircle
 10
-30.00000000000002
 20
149.77
 30
0.0
 40
2.5
  0
CIRCLE
  5
1087
330
1031
100
AcDbEntity
  8
0
100
AcDbCircle
 10
-30.00000000000002
 20
109.7699999999999
 30
0.0
 40
2.5
  0
CIRCLE
  5
1088
330
1031
100
AcDbEntity
  8
0
100
AcDbCircle
 10
-30.00000000000002
 20
69.76999999999998
 30
0.0
 40
2.5
  0
CIRCLE
  5
1089
330
1031
100
AcDbEntity
  8
0
100
AcDbCircle
 10
-30.00000000000002
 20
29.76999999999998
 30
0.0
 40
2.5
  0
CIRCLE
  5
108A
330
1031
100
AcDbEntity
  8
0
100
AcDbCircle
 10
-40.00000000000002
 20
169.77
 30
0.0
 40
2.5
  0
CIRCLE
  5
108B
330
1031
100
AcDbEntity
  8
0
100
AcDbCircle
 10
-40.00000000000002
 20
129.77
 30
0.0
 40
2.5
  0
CIRCLE
  5
108C
330
1031
100
AcDbEntity
  8
0
100
AcDbCircle
 10
-40.00000000000002
 20
89.76999999999996
 30
0.0
 40
2.5
  0
CIRCLE
  5
108D
330
1031
100
AcDbEntity
  8
0
100
AcDbCircle
 10
-40.00000000000002
 20
49.76999999999997
 30
0.0
 40
2.5
  0
CIRCLE
  5
108E
330
1031
100
AcDbEntity
  8
0
100
AcDbCircle
 10
-40.00000000000002
 20
9.769999999999974
 30
0.0
 40
2.5
  0
CIRCLE
  5
108F
330
1031
100
AcDbEntity
  8
0
100
AcDbCircle
 10
-63.02709056100001
 20
69.76999999999998
 30
0.0
 40
2.5
  0
CIRCLE
  5
1090
330
1031
100
AcDbEntity
  8
0
100
AcDbCircle
 10
57.02709056099995
 20
69.76999999999995
 30
0.0
 40
2.5
  0
CIRCLE
  5
1091
330
1031
100
AcDbEntity
  8
0
100
AcDbCircle
 10
-57.02709056099999
 20
29.76999999999998
 30
0.0
 40
2.5
  0
CIRCLE
  5
1092
330
1031
100
AcDbEntity
  8
0
100
AcDbCircle
 10
63.02709056099996
 20
29.76999999999997
 30
0.0
 40
2.5
  0
ELLIPSE
  5
1093
330
1031
100
AcDbEntity
  8
0
100
AcDbEllipse
 10
-17.50000000000005
 20
0.0236058844763973
 30
0.0
 11
-2.5
 21
0.0
 31
0.0
210
0.0
220
0.0
230
1.0
 40
0.7071067811865479
 41
0.2563733270184496
 42
1.570796326794896
  0
LINE
  5
1094
330
1031
100
AcDbEntity
  8
0
100
AcDbLine
 10
-12.50000000000001
 20
-1.744161068490027
 30
0.0
 11
-17.50000000000005
 21
-1.744161068490027
 31
0.0
  0
ELLIPSE
  5
1095
330
1031
100
AcDbEntity
  8
0
100
AcDbEllipse
 10
-12.50000000000001
 20
0.0236058844763973
 30
0.0
 11
2.5
 21
-0.0000000000000002
 31
0.0
210
0.0
220
0.0
230
1.0
 40
0.7071067811865479
 41
4.712388980384689
 42
6.026811980161137
  0
SPLINE
  5
1096
330
1031
100
AcDbEntity
  8
0
100
AcDbSpline
210
0.0
220
0.0
230
1.0
 70
     8
 71
     3
 72
     8
 73
     4
 74
     0
 42
0.000000001
 43
0.0000000001
 40
-1.0
 40
-1.0
 40
-1.0
 40
-1.0
 40
0.0
 40
0.0
 40
0.0
 40
0.0
 10
-19.91828991960769
 20
-0.4246540092928881
 30
0.0
 10
-19.99189972301995
 20
-0.3163012038325083
 30
0.0
 10
-20.01609483643895
 20
-0.1581319339738527
 30
0.0
 10
-19.98943351399748
 20
-0.0003899405809595
 30
0.0
  0
SPLINE
  5
1097
330
1031
100
AcDbEntity
  8
0
100
AcDbSpline
210
0.0
220
0.0
230
1.0
 70
     8
 71
     3
 72
     8
 73
     4
 74
     0
 42
0.000000001
 43
0.0000000001
 40
-1.0
 40
-1.0
 40
-1.0
 40
-1.0
 40
0.0
 40
0.0
 40
0.0
 40
0.0
 10
-10.01056648600259
 20
-0.0003899405809593
 30
0.0
 10
-9.983905163560532
 20
-0.1581319339738801
 30
0.0
 10
-10.00810027698007
 20
-0.3163012038325368
 30
0.0
 10
-10.08171008039238
 20
-0.4246540092928883
 30
0.0
  0
ARC
  5
1098
330
1031
100
AcDbEntity
  8
0
100
AcDbCircle
 10
-12.50000000000001
 20
-0.2300000000000074
 30
0.0
 40
2.5
100
AcDbArc
 50
5.269701326164559
 51
90.0
  0
LINE
  5
1099
330
1031
100
AcDbEntity
  8
0
100
AcDbLine
 10
-17.50000000000005
 20
2.269999999999921
 30
0.0
 11
-12.50000000000001
 21
2.269999999999921
 31
0.0
  0
ARC
  5
109A
330
1031
100
AcDbEntity
  8
0
100
AcDbCircle
 10
-17.50000000000005
 20
-0.2300000000000074
 30
0.0
 40
2.5
100
AcDbArc
 50
90.0
 51
174.7302986738354
  0
ELLIPSE
  5
109B
330
1031
100
AcDbEntity
  8
0
100
AcDbEllipse
 10
12.49999999999998
 20
0.0236058844763974
 30
0.0
 11
-2.5
 21
0.0
 31
0.0
210
0.0
220
0.0
230
1.0
 40
0.7071067811865479
 41
0.2563733270184487
 42
1.570796326794896
  0
LINE
  5
109C
330
1031
100
AcDbEntity
  8
0
100
AcDbLine
 10
17.50000000000001
 20
-1.744161068490028
 30
0.0
 11
12.49999999999998
 21
-1.744161068490028
 31
0.0
  0
ELLIPSE
  5
109D
330
1031
100
AcDbEntity
  8
0
100
AcDbEllipse
 10
17.50000000000001
 20
0.0236058844763973
 30
0.0
 11
2.5
 21
-0.0000000000000008
 31
0.0
210
0.0
220
0.0
230
1.0
 40
0.7071067811865478
 41
4.71238898038469
 42
6.026811980161137
  0
SPLINE
  5
109E
330
1031
100
AcDbEntity
  8
0
100
AcDbSpline
210
0.0
220
0.0
230
1.0
 70
     8
 71
     3
 72
     8
 73
     4
 74
     0
 42
0.000000001
 43
0.0000000001
 40
-1.0
 40
-1.0
 40
-1.0
 40
-1.0
 40
0.0
 40
0.0
 40
0.0
 40
0.0
 10
10.08171008039234
 20
-0.4246540092928883
 30
0.0
 10
10.00810027697994
 20
-0.3163012038325331
 30
0.0
 10
9.983905163560503
 20
-0.1581319339738754
 30
0.0
 10
10.01056648600256
 20
-0.0003899405809593
 30
0.0
  0
SPLINE
  5
109F
330
1031
100
AcDbEntity
  8
0
100
AcDbSpline
210
0.0
220
0.0
230
1.0
 70
     8
 71
     3
 72
     8
 73
     4
 74
     0
 42
0.000000001
 43
0.0000000001
 40
-1.0
 40
-1.0
 40
-1.0
 40
-1.0
 40
0.0
 40
0.0
 40
0.0
 40
0.0
 10
19.98943351399744
 20
-0.0003899405809595
 30
0.0
 10
20.0160948364395
 20
-0.158131933973841
 30
0.0
 10
19.99189972302051
 20
-0.3163012038325118
 30
0.0
 10
19.91828991960765
 20
-0.4246540092928881
 30
0.0
  0
ARC
  5
10A0
330
1031
100
AcDbEntity
  8
0
100
AcDbCircle
 10
17.50000000000001
 20
-0.2300000000000074
 30
0.0
 40
2.5
100
AcDbArc
 50
5.269701326164559
 51
90.0
  0
LINE
  5
10A1
330
1031
100
AcDbEntity
  8
0
100
AcDbLine
 10
12.49999999999998
 20
2.269999999999921
 30
0.0
 11
17.50000000000001
 21
2.269999999999921
 31
0.0
  0
ARC
  5
10A2
330
1031
100
AcDbEntity
  8
0
100
AcDbCircle
 10
12.49999999999998
 20
-0.2300000000000074
 30
0.0
 40
2.5
100
AcDbArc
 50
90.0
 51
174.7302986738354
  0
ELLIPSE
  5
10A3
330
1031
100
AcDbEntity
  8
0
100
AcDbEllipse
 10
-32.50000000000002
 20
0.0236058844763973
 30
0.0
 11
2.5
 21
-0.0000000000000011
 31
0.0
210
0.0
220
0.0
230
1.0
 40
0.7071067811865478
 41
3.397965980608243
 42
6.026811980161136
  0
ELLIPSE
  5
10A4
330
1031
100
AcDbEntity
  8
0
100
AcDbEllipse
 10
32.5
 20
0.0236058844763973
 30
0.0
 11
2.5
 21
-0.0000000000000006
 31
0.0
210
0.0
220
0.0
230
1.0
 40
0.7071067811865479
 41
3.397965980608241
 42
6.026811980161137
  0
SPLINE
  5
10A5
330
1031
100
AcDbEntity
  8
0
100
AcDbSpline
210
0.0
220
0.0
230
1.0
 70
     8
 71
     3
 72
     8
 73
     4
 74
     0
 42
0.000000001
 43
0.0000000001
 40
-1.0
 40
-1.0
 40
-1.0
 40
-1.0
 40
0.0
 40
0.0
 40
0.0
 40
0.0
 10
30.08171008039236
 20
-0.4246540092928891
 30
0.0
 10
30.00810027698002
 20
-0.3163012038325219
 30
0.0
 10
29.98390516356052
 20
-0.1581319339738838
 30
0.0
 10
30.01056648600258
 20
-0.0003899405809596
 30
0.0
  0
SPLINE
  5
10A6
330
1031
100
AcDbEntity
  8
0
100
AcDbSpline
210
0.0
220
0.0
230
1.0
 70
     8
 71
     3
 72
     8
 73
     4
 74
     0
 42
0.000000001
 43
0.0000000001
 40
-1.0
 40
-1.0
 40
-1.0
 40
-1.0
 40
0.0
 40
0.0
 40
0.0
 40
0.0
 10
-30.01056648600259
 20
-0.0003899405809595
 30
0.0
 10
-29.9839051635604
 20
-0.1581319339738775
 30
0.0
 10
-30.00810027697977
 20
-0.3163012038324725
 30
0.0
 10
-30.08171008039236
 20
-0.4246540092928883
 30
0.0
  0
SPLINE
  5
10A7
330
1031
100
AcDbEntity
  8
0
100
AcDbSpline
210
0.0
220
0.0
230
1.0
 70
     8
 71
     3
 72
     8
 73
     4
 74
     0
 42
0.000000001
 43
0.0000000001
 40
-1.0
 40
-1.0
 40
-1.0
 40
-1.0
 40
0.0
 40
0.0
 40
0.0
 40
0.0
 10
-34.91828991960765
 20
-0.4246540092928891
 30
0.0
 10
-34.99189972302045
 20
-0.3163012038325144
 30
0.0
 10
-35.01609483643911
 20
-0.1581319339738771
 30
0.0
 10
-34.98943351399745
 20
-0.0003899405809593
 30
0.0
  0
ARC
  5
10A8
330
1031
100
AcDbEntity
  8
0
100
AcDbCircle
 10
-32.50000000000002
 20
-0.2300000000000074
 30
0.0
 40
2.499999999999999
100
AcDbArc
 50
5.269701326164559
 51
174.7302986738354
  0
SPLINE
  5
10A9
330
1031
100
AcDbEntity
  8
0
100
AcDbSpline
210
0.0
220
0.0
230
1.0
 70
     8
 71
     3
 72
     8
 73
     4
 74
     0
 42
0.000000001
 43
0.0000000001
 40
-1.0
 40
-1.0
 40
-1.0
 40
-1.0
 40
0.0
 40
0.0
 40
0.0
 40
0.0
 10
34.9894335139974
 20
-0.0003899405809595
 30
0.0
 10
35.01609483643939
 20
-0.1581319339738826
 30
0.0
 10
34.99189972301838
 20
-0.3163012038324654
 30
0.0
 10
34.9182899196077
 20
-0.4246540092928885
 30
0.0
  0
ARC
  5
10AA
330
1031
100
AcDbEntity
  8
0
100
AcDbCircle
 10
32.5
 20
-0.2300000000000074
 30
0.0
 40
2.5
100
AcDbArc
 50
5.269701326164559
 51
174.7302986738354
  0
ELLIPSE
  5
10AB
330
1031
100
AcDbEntity
  8
0
100
AcDbEllipse
 10
-49.40000000000001
 20
-54.16476937947052
 30
0.0
 11
-2.100000000000031
 21
0.0000000000000056
 31
0.0
210
0.0
220
0.0
230
1.0
 40
0.707106781186666
 41
0.0
 42
1.570796326794898
  0
ELLIPSE
  5
10AC
330
1031
100
AcDbEntity
  8
0
100
AcDbEllipse
 10
-49.40000000000001
 20
-54.16476937947052
 30
0.0
 11
-0.6000000000000087
 21
0.0
 31
0.0
210
0.0
220
0.0
230
1.0
 40
0.7071067811865506
 41
0.0
 42
1.570796326794882
  0
LINE
  5
10AD
330
1031
100
AcDbEntity
  8
0
100
AcDbLine
 10
49.39999999999998
 20
200.67
 30
0.0
 11
50.0
 21
200.67
 31
0.0
  0
LINE
  5
10AE
330
1031
100
AcDbEntity
  8
0
100
AcDbLine
 10
49.39999999999998
 20
80.27000000000001
 30
0.0
 11
50.0
 21
80.27000000000001
 31
0.0
  0
LINE
  5
10AF
330
1031
100
AcDbEntity
  8
0
100
AcDbLine
 10
-50.00000000000001
 20
200.67
 30
0.0
 11
-49.40000000000002
 21
200.67
 31
0.0
  0
LINE
  5
10B0
330
1031
100
AcDbEntity
  8
0
100
AcDbLine
 10
-50.00000000000001
 20
80.27000000000001
 30
0.0
 11
-49.40000000000002
 21
80.27000000000001
 31
0.0
  0
ENDBLK
  5
1033
330
1031
100
AcDbEntity
  8
0
100
AcDbBlockEnd
  0
BLOCK
  5
10B2
330
10B1
100
AcDbEntity
  8
0
100
AcDbBlockBegin
  2
SPR100_200-Left
 70
     0
 10
0.0
 20
0.0
 30
0.0
  3
SPR100_200-Left
  1

  0
LINE
  5
10B4
330
10B1
100
AcDbEntity
  8
0
100
AcDbLine
 10
0.0
 20
-0.0003899405809605
 30
0.0
 11
0.0
 21
1.269999999999992
 31
0.0
  0
LINE
  5
10B5
330
10B1
100
AcDbEntity
  8
0
100
AcDbLine
 10
62.91118318265866
 20
-2.263131642256743
 30
0.0
 11
4.362741700911252
 21
-2.26313164149227
 31
0.0
  0
LINE
  5
10B6
330
10B1
100
AcDbEntity
  8
0
100
AcDbLine
 10
1.675735931288091
 20
-0.4246540092928866
 30
0.0
 11
2.288136209298629
 21
-1.037054287303424
 31
0.0
  0
LINE
  5
10B7
330
10B1
100
AcDbEntity
  8
0
100
AcDbLine
 10
2.288136209298616
 20
-1.037054287303417
 30
0.0
 11
2.717240184541175
 21
-1.466158262545976
 31
0.0
  0
SPLINE
  5
10B8
330
10B1
100
AcDbEntity
  8
0
100
AcDbSpline
210
0.0
220
0.0
230
1.0
 70
     8
 71
     3
 72
     8
 73
     4
 74
     0
 42
0.000000001
 43
0.0000000001
 40
0.0
 40
0.0
 40
0.0
 40
0.0
 40
1.0
 40
1.0
 40
1.0
 40
1.0
 10
0.6150757595082719
 20
-1.485314181072709
 30
0.0
 10
0.2539843833467357
 20
-1.124222804911173
 30
0.0
 10
0.0000000000000219
 20
-0.557202386821693
 30
0.0
 10
0.0000000000000217
 20
-0.0003899405809599
 30
0.0
  0
SPLINE
  5
10B9
330
10B1
100
AcDbEntity
  8
0
100
AcDbSpline
210
0.0
220
0.0
230
1.0
 70
     8
 71
     3
 72
     8
 73
     4
 74
     0
 42
0.000000001
 43
0.0000000001
 40
-1.0
 40
-1.0
 40
-1.0
 40
-1.0
 40
0.0
 40
0.0
 40
0.0
 40
0.0
 10
1.500000000000021
 20
-0.0003899405809596
 30
0.0
 10
1.500000000000021
 20
-0.1594792109354548
 30
0.0
 10
1.572566966670511
 20
-0.3214850446753066
 30
0.0
 10
1.675735931288093
 20
-0.4246540092928885
 30
0.0
  0
SPLINE
  5
10BA
330
10B1
100
AcDbEntity
  8
0
100
AcDbSpline
210
0.0
220
0.0
230
1.0
 70
     8
 71
     3
 72
     8
 73
     4
 74
     0
 42
0.000000001
 43
0.0000000001
 40
-1.0
 40
-1.0
 40
-1.0
 40
-1.0
 40
0.0
 40
0.0
 40
0.0
 40
0.0
 10
2.717240184541178
 20
-1.466158262545966
 30
0.0
 10
3.124319333760743
 20
-1.873237411765531
 30
0.0
 10
3.733518404783825
 20
-2.078196639180605
 30
0.0
 10
4.362741700911268
 20
-2.263131641492203
 30
0.0
  0
LINE
  5
10BB
330
10B1
100
AcDbEntity
  8
0
100
AcDbLine
 10
2.717240184541175
 20
-1.466158262545976
 30
0.0
 11
2.364040347338145
 21
-1.819358099749006
 31
0.0
  0
LINE
  5
10BC
330
10B1
100
AcDbEntity
  8
0
100
AcDbLine
 10
2.364040347338145
 20
-1.819358099749006
 30
0.0
 11
1.656580012761353
 21
-2.526818434325798
 31
0.0
  0
SPLINE
  5
10BD
330
10B1
100
AcDbEntity
  8
0
100
AcDbSpline
210
0.0
220
0.0
230
1.0
 70
     8
 71
     3
 72
     8
 73
     4
 74
     0
 42
0.000000001
 43
0.0000000001
 40
0.0
 40
0.0
 40
0.0
 40
0.0
 40
1.0
 40
1.0
 40
1.0
 40
1.0
 10
4.362741700911232
 20
-2.263131641492239
 30
0.0
 10
3.178158037513997
 20
-2.633557006450433
 30
0.0
 10
2.063659161980922
 20
-2.933897583545353
 30
0.0
 10
1.656580012761356
 20
-2.526818434325787
 30
0.0
  0
LINE
  5
10BE
330
10B1
100
AcDbEntity
  8
0
100
AcDbLine
 10
1.656580012761353
 20
-2.526818434325798
 30
0.0
 11
1.227476037518795
 21
-2.097714459083237
 31
0.0
  0
LINE
  5
10BF
330
10B1
100
AcDbEntity
  8
0
100
AcDbLine
 10
2.288136209298616
 20
-1.037054287303417
 30
0.0
 11
1.227476037518795
 21
-2.097714459083237
 31
0.0
  0
LINE
  5
10C0
330
10B1
100
AcDbEntity
  8
0
100
AcDbLine
 10
1.227476037518823
 20
-2.09771445908323
 30
0.0
 11
0.6150757595082855
 21
-1.485314181072692
 31
0.0
  0
LINE
  5
10C1
330
10B1
100
AcDbEntity
  8
0
100
AcDbLine
 10
1.675735931288093
 20
-0.4246540092928885
 30
0.0
 11
1.322536092804783
 21
-0.7778538477761982
 31
0.0
  0
LINE
  5
10C2
330
10B1
100
AcDbEntity
  8
0
100
AcDbLine
 10
1.322536092804783
 20
-0.7778538477761982
 30
0.0
 11
0.6150757595082722
 21
-1.485314181072709
 31
0.0
  0
LINE
  5
10C3
330
10B1
100
AcDbEntity
  8
0
100
AcDbLine
 10
1.500000000000015
 20
-0.0003899405809593
 30
0.0
 11
1.000499995402682
 21
-0.0003899405809593
 31
0.0
  0
LINE
  5
10C4
330
10B1
100
AcDbEntity
  8
0
100
AcDbLine
 10
1.000499995402682
 20
-0.0003899405809593
 30
0.0
 11
0.0
 21
-0.0003899405809593
 31
0.0
  0
LINE
  5
10C5
330
10B1
100
AcDbEntity
  8
0
100
AcDbLine
 10
1.500000000000013
 20
1.269999999999992
 30
0.0
 11
1.500000000000013
 21
-0.0003899405809599
 31
0.0
  0
LINE
  5
10C6
330
10B1
100
AcDbEntity
  8
0
100
AcDbLine
 10
0.0
 20
6.269999999999987
 30
0.0
 11
0.0
 21
1.269999999999987
 31
0.0
  0
LINE
  5
10C7
330
10B1
100
AcDbEntity
  8
0
100
AcDbLine
 10
0.0
 20
77.27000000000001
 30
0.0
 11
0.0
 21
72.27000000000001
 31
0.0
  0
LINE
  5
10C8
330
10B1
100
AcDbEntity
  8
0
100
AcDbLine
 10
1.500000000000024
 20
1.269999999999987
 30
0.0
 11
1.500000000000025
 21
6.269999999999987
 31
0.0
  0
LINE
  5
10C9
330
10B1
100
AcDbEntity
  8
0
100
AcDbLine
 10
1.500000000000025
 20
6.269999999999987
 30
0.0
 11
0.0
 21
6.269999999999987
 31
0.0
  0
LINE
  5
10CA
330
10B1
100
AcDbEntity
  8
0
100
AcDbLine
 10
0.0
 20
1.269999999999987
 30
0.0
 11
1.500000000000024
 21
1.269999999999987
 31
0.0
  0
LINE
  5
10CB
330
10B1
100
AcDbEntity
  8
0
100
AcDbLine
 10
0.0
 20
72.27000000000001
 30
0.0
 11
1.500000000000025
 21
72.27000000000001
 31
0.0
  0
LINE
  5
10CC
330
10B1
100
AcDbEntity
  8
0
100
AcDbLine
 10
1.500000000000025
 20
72.27000000000001
 30
0.0
 11
1.500000000000024
 21
77.27000000000001
 31
0.0
  0
LINE
  5
10CD
330
10B1
100
AcDbEntity
  8
0
100
AcDbLine
 10
1.500000000000024
 20
77.27000000000001
 30
0.0
 11
0.0
 21
77.27000000000001
 31
0.0
  0
LINE
  5
10CE
330
10B1
100
AcDbEntity
  8
0
100
AcDbLine
 10
0.0
 20
6.269999999999987
 30
0.0
 11
0.0
 21
72.27000000000001
 31
0.0
  0
LINE
  5
10CF
330
10B1
100
AcDbEntity
  8
0
100
AcDbLine
 10
0.0
 20
77.27000000000001
 30
0.0
 11
0.0
 21
80.27000000000001
 31
0.0
  0
LINE
  5
10D0
330
10B1
100
AcDbEntity
  8
0
100
AcDbLine
 10
1.500000000000025
 20
6.269999999999987
 30
0.0
 11
1.500000000000025
 21
72.27000000000001
 31
0.0
  0
LINE
  5
10D1
330
10B1
100
AcDbEntity
  8
0
100
AcDbLine
 10
1.500000000000012
 20
77.27000000000001
 30
0.0
 11
1.500000000000012
 21
80.27000000000001
 31
0.0
  0
LINE
  5
10D2
330
10B1
100
AcDbEntity
  8
0
100
AcDbLine
 10
0.0
 20
80.27000000000001
 30
0.0
 11
0.0
 21
200.67
 31
0.0
  0
LINE
  5
10D3
330
10B1
100
AcDbEntity
  8
0
100
AcDbLine
 10
2.100000000000011
 20
200.67
 30
0.0
 11
0.0
 21
200.67
 31
0.0
  0
LINE
  5
10D4
330
10B1
100
AcDbEntity
  8
0
100
AcDbLine
 10
0.0
 20
80.27000000000001
 30
0.0
 11
2.100000000000002
 21
80.27000000000001
 31
0.0
  0
LINE
  5
10D5
330
10B1
100
AcDbEntity
  8
0
100
AcDbLine
 10
43.50000000000001
 20
85.27000000000001
 30
0.0
 11
38.50000000000001
 21
80.27000000000001
 31
0.0
  0
LINE
  5
10D6
330
10B1
100
AcDbEntity
  8
0
100
AcDbLine
 10
38.50000000000002
 20
200.67
 30
0.0
 11
43.50000000000001
 21
195.67
 31
0.0
  0
LINE
  5
10D7
330
10B1
100
AcDbEntity
  8
0
100
AcDbLine
 10
82.00306627385998
 20
-21.35501473263468
 30
0.0
 11
82.00306627385996
 21
-28.42608254450013
 31
0.0
  0
CIRCLE
  5
10D8
330
10B1
100
AcDbEntity
  8
0
100
AcDbCircle
 10
35.50000000000002
 20
187.77
 30
0.0
 40
2.5
  0
CIRCLE
  5
10D9
330
10B1
100
AcDbEntity
  8
0
100
AcDbCircle
 10
35.50000000000002
 20
167.7699999999999
 30
0.0
 40
2.5
  0
CIRCLE
  5
10DA
330
10B1
100
AcDbEntity
  8
0
100
AcDbCircle
 10
35.50000000000002
 20
147.77
 30
0.0
 40
2.5
  0
CIRCLE
  5
10DB
330
10B1
100
AcDbEntity
  8
0
100
AcDbCircle
 10
35.50000000000002
 20
127.77
 30
0.0
 40
2.5
  0
CIRCLE
  5
10DC
330
10B1
100
AcDbEntity
  8
0
100
AcDbCircle
 10
35.50000000000002
 20
107.77
 30
0.0
 40
2.5
  0
CIRCLE
  5
10DD
330
10B1
100
AcDbEntity
  8
0
100
AcDbCircle
 10
35.50000000000002
 20
87.76999999999999
 30
0.0
 40
2.5
  0
LINE
  5
10DE
330
10B1
100
AcDbEntity
  8
0
100
AcDbLine
 10
43.50000000000001
 20
195.67
 30
0.0
 11
43.50000000000001
 21
85.27000000000001
 31
0.0
  0
LINE
  5
10DF
330
10B1
100
AcDbEntity
  8
0
100
AcDbLine
 10
2.10000000000001
 20
200.67
 30
0.0
 11
38.50000000000001
 21
200.67
 31
0.0
  0
LINE
  5
10E0
330
10B1
100
AcDbEntity
  8
0
100
AcDbLine
 10
38.50000000000001
 20
80.27000000000001
 30
0.0
 11
2.100000000000004
 21
80.27000000000001
 31
0.0
  0
LINE
  5
10E1
330
10B1
100
AcDbEntity
  8
0
100
AcDbLine
 10
82.00306627385996
 20
-28.42608254450013
 30
0.0
 11
56.26437943888955
 21
-54.16476937947052
 31
0.0
  0
LINE
  5
10E2
330
10B1
100
AcDbEntity
  8
0
100
AcDbLine
 10
62.91118318265866
 20
-2.263131642256743
 30
0.0
 11
82.00306627385998
 21
-21.35501473263468
 31
0.0
  0
CIRCLE
  5
10E3
330
10B1
100
AcDbEntity
  8
0
100
AcDbCircle
 10
74.57844507130477
 20
-25.24410202925712
 30
0.0
 40
2.5
  0
ARC
  5
10E4
330
10B1
100
AcDbEntity
  8
0
100
AcDbCircle
 10
59.31559010709463
 20
-13.990452698916
 30
0.0
 40
0.8000000000000012
100
AcDbArc
 50
315.000000001042
 51
75.00000000104186
  0
LINE
  5
10E5
330
10B1
100
AcDbEntity
  8
0
100
AcDbLine
 10
59.88127553205416
 20
-14.55613812385495
 30
0.0
 11
56.81941335363088
 21
-17.61800030238965
 31
0.0
  0
ARC
  5
10E6
330
10B1
100
AcDbEntity
  8
0
100
AcDbCircle
 10
56.25372792867135
 20
-17.05231487745071
 30
0.0
 40
0.8
100
AcDbArc
 50
195.0000000010428
 51
315.0000000010428
  0
LINE
  5
10E7
330
10B1
100
AcDbEntity
  8
0
100
AcDbLine
 10
55.48098726764387
 20
-17.25937011354678
 30
0.0
 11
54.36026792735771
 21
-13.07678859487812
 31
0.0
  0
ARC
  5
10E8
330
10B1
100
AcDbEntity
  8
0
100
AcDbCircle
 10
55.13300858838519
 20
-12.86973335878204
 30
0.0
 40
0.8000000000000014
100
AcDbArc
 50
75.00000000104188
 51
195.0000000010427
  0
LINE
  5
10E9
330
10B1
100
AcDbEntity
  8
0
100
AcDbLine
 10
55.34006382445316
 20
-12.09699269774701
 30
0.0
 11
59.5226453431626
 21
-13.21771203788097
 31
0.0
  0
LINE
  5
10EA
330
10B1
100
AcDbEntity
  8
0
100
AcDbLine
 10
55.28251771018369
 20
-12.08382813389862
 30
0.0
 11
54.34710336350719
 21
-13.01924248060915
 31
0.0
  0
LINE
  5
10EB
330
10B1
100
AcDbEntity
  8
0
100
AcDbLine
 10
54.77945519839778
 20
-55.64969361996226
 30
0.0
 11
1.656580012761352
 21
-2.526818434325797
 31
0.0
  0
LINE
  5
10EC
330
10B1
100
AcDbEntity
  8
0
100
AcDbLine
 10
56.26437943888955
 20
-54.16476937947051
 30
0.0
 11
54.77945519839804
 21
-55.64969361996254
 31
0.0
  0
ENDBLK
  5
10B3
330
10B1
100
AcDbEntity
  8
0
100
AcDbBlockEnd
  0
BLOCK
  5
10EE
330
10ED
100
AcDbEntity
  8
0
100
AcDbBlockBegin
  2
SPR100_200-Right
 70
     0
 10
0.0
 20
0.0
 30
0.0
  3
SPR100_200-Right
  1

  0
LINE
  5
10F0
330
10ED
100
AcDbEntity
  8
0
100
AcDbLine
 10
-1.499999999999974
 20
6.269999999999987
 30
0.0
 11
-1.499999999999975
 21
1.269999999999987
 31
0.0
  0
LINE
  5
10F1
330
10ED
100
AcDbEntity
  8
0
100
AcDbLine
 10
-1.499999999999975
 20
1.269999999999987
 30
0.0
 11
0.0
 21
1.269999999999978
 31
0.0
  0
LINE
  5
10F2
330
10ED
100
AcDbEntity
  8
0
100
AcDbLine
 10
0.0
 20
1.269999999999978
 30
0.0
 11
0.0
 21
6.269999999999987
 31
0.0
  0
LINE
  5
10F3
330
10ED
100
AcDbEntity
  8
0
100
AcDbLine
 10
0.0
 20
6.269999999999987
 30
0.0
 11
-1.499999999999974
 21
6.269999999999987
 31
0.0
  0
LINE
  5
10F4
330
10ED
100
AcDbEntity
  8
0
100
AcDbLine
 10
-1.499999999999974
 20
72.27
 30
0.0
 11
0.0
 21
72.27
 31
0.0
  0
LINE
  5
10F5
330
10ED
100
AcDbEntity
  8
0
100
AcDbLine
 10
0.0
 20
72.27
 30
0.0
 11
0.0
 21
77.27
 31
0.0
  0
LINE
  5
10F6
330
10ED
100
AcDbEntity
  8
0
100
AcDbLine
 10
-1.499999999999975
 20
77.27
 30
0.0
 11
-1.499999999999974
 21
72.27
 31
0.0
  0
LINE
  5
10F7
330
10ED
100
AcDbEntity
  8
0
100
AcDbLine
 10
0.0
 20
77.27
 30
0.0
 11
-1.499999999999975
 21
77.27
 31
0.0
  0
LINE
  5
10F8
330
10ED
100
AcDbEntity
  8
0
100
AcDbLine
 10
0.0
 20
72.27
 30
0.0
 11
0.0
 21
6.269999999999988
 31
0.0
  0
LINE
  5
10F9
330
10ED
100
AcDbEntity
  8
0
100
AcDbLine
 10
-1.499999999999974
 20
72.27
 30
0.0
 11
-1.499999999999974
 21
6.269999999999988
 31
0.0
  0
LINE
  5
10FA
330
10ED
100
AcDbEntity
  8
0
100
AcDbLine
 10
0.0
 20
80.27000000000002
 30
0.0
 11
0.0
 21
77.27000000000002
 31
0.0
  0
LINE
  5
10FB
330
10ED
100
AcDbEntity
  8
0
100
AcDbLine
 10
-1.499999999999987
 20
80.27000000000002
 30
0.0
 11
-1.499999999999987
 21
77.27000000000002
 31
0.0
  0
LINE
  5
10FC
330
10ED
100
AcDbEntity
  8
0
100
AcDbLine
 10
0.0
 20
1.269999999999992
 30
0.0
 11
0.0
 21
-0.0003899405809599
 31
0.0
  0
LINE
  5
10FD
330
10ED
100
AcDbEntity
  8
0
100
AcDbLine
 10
-4.362741700911216
 20
-2.26313164149225
 30
0.0
 11
-62.91118318265863
 21
-2.263131642256756
 31
0.0
  0
LINE
  5
10FE
330
10ED
100
AcDbEntity
  8
0
100
AcDbLine
 10
-2.717240184541149
 20
-1.46615826254598
 30
0.0
 11
-2.28813620929859
 21
-1.037054287303422
 31
0.0
  0
LINE
  5
10FF
330
10ED
100
AcDbEntity
  8
0
100
AcDbLine
 10
-2.288136209298609
 20
-1.037054287303424
 30
0.0
 11
-1.675735931288064
 21
-0.4246540092928789
 31
0.0
  0
SPLINE
  5
1100
330
10ED
100
AcDbEntity
  8
0
100
AcDbSpline
210
0.0
220
0.0
230
1.0
 70
     8
 71
     3
 72
     8
 73
     4
 74
     0
 42
0.000000001
 43
0.0000000001
 40
0.0
 40
0.0
 40
0.0
 40
0.0
 40
1.0
 40
1.0
 40
1.0
 40
1.0
 10
-0.0000000000000021
 20
-0.0003899405809604
 30
0.0
 10
-0.0000000000000024
 20
-0.5572023868217041
 30
0.0
 10
-0.253984383346718
 20
-1.124222804911175
 30
0.0
 10
-0.6150757595082523
 20
-1.485314181072709
 30
0.0
  0
SPLINE
  5
1101
330
10ED
100
AcDbEntity
  8
0
100
AcDbSpline
210
0.0
220
0.0
230
1.0
 70
     8
 71
     3
 72
     8
 73
     4
 74
     0
 42
0.000000001
 43
0.0000000001
 40
-1.0
 40
-1.0
 40
-1.0
 40
-1.0
 40
0.0
 40
0.0
 40
0.0
 40
0.0
 10
-1.675735931288073
 20
-0.4246540092928885
 30
0.0
 10
-1.572566966670492
 20
-0.3214850446753071
 30
0.0
 10
-1.500000000000002
 20
-0.159479210935458
 30
0.0
 10
-1.500000000000002
 20
-0.0003899405809597
 30
0.0
  0
LINE
  5
1102
330
10ED
100
AcDbEntity
  8
0
100
AcDbLine
 10
-2.717240184541149
 20
-1.46615826254598
 30
0.0
 11
-2.364040347339332
 21
-1.819358099747797
 31
0.0
  0
SPLINE
  5
1103
330
10ED
100
AcDbEntity
  8
0
100
AcDbSpline
210
0.0
220
0.0
230
1.0
 70
     8
 71
     3
 72
     8
 73
     4
 74
     0
 42
0.000000001
 43
0.0000000001
 40
-1.0
 40
-1.0
 40
-1.0
 40
-1.0
 40
0.0
 40
0.0
 40
0.0
 40
0.0
 10
-4.362741700911236
 20
-2.263131641492203
 30
0.0
 10
-3.733518404783934
 20
-2.078196639180732
 30
0.0
 10
-3.12431933376011
 20
-1.873237411764923
 30
0.0
 10
-2.717240184541152
 20
-1.466158262545966
 30
0.0
  0
SPLINE
  5
1104
330
10ED
100
AcDbEntity
  8
0
100
AcDbSpline
210
0.0
220
0.0
230
1.0
 70
     8
 71
     3
 72
     8
 73
     4
 74
     0
 42
0.000000001
 43
0.0000000001
 40
0.0
 40
0.0
 40
0.0
 40
0.0
 40
1.0
 40
1.0
 40
1.0
 40
1.0
 10
-1.65658001276133
 20
-2.526818434325787
 30
0.0
 10
-2.063659161980287
 20
-2.933897583544744
 30
0.0
 10
-3.178158037514123
 20
-2.633557006450543
 30
0.0
 10
-4.362741700911201
 20
-2.263131641492238
 30
0.0
  0
LINE
  5
1105
330
10ED
100
AcDbEntity
  8
0
100
AcDbLine
 10
-2.364040347339332
 20
-1.819358099747797
 30
0.0
 11
-1.656580012761328
 21
-2.526818434325801
 31
0.0
  0
LINE
  5
1106
330
10ED
100
AcDbEntity
  8
0
100
AcDbLine
 10
-0.6150757595082536
 20
-1.485314181072688
 30
0.0
 11
-1.227476037518798
 21
-2.097714459083234
 31
0.0
  0
LINE
  5
1107
330
10ED
100
AcDbEntity
  8
0
100
AcDbLine
 10
-0.6150757595082521
 20
-1.485314181072709
 30
0.0
 11
-1.322536092813821
 21
-0.7778538477671404
 31
0.0
  0
LINE
  5
1108
330
10ED
100
AcDbEntity
  8
0
100
AcDbLine
 10
-1.322536092813821
 20
-0.7778538477671404
 30
0.0
 11
-1.675735931288073
 21
-0.4246540092928881
 31
0.0
  0
LINE
  5
1109
330
10ED
100
AcDbEntity
  8
0
100
AcDbLine
 10
-2.28813620929859
 20
-1.037054287303422
 30
0.0
 11
-1.227476037518772
 21
-2.097714459083239
 31
0.0
  0
LINE
  5
110A
330
10ED
100
AcDbEntity
  8
0
100
AcDbLine
 10
-1.227476037518772
 20
-2.097714459083239
 30
0.0
 11
-1.656580012761328
 21
-2.526818434325801
 31
0.0
  0
LINE
  5
110B
330
10ED
100
AcDbEntity
  8
0
100
AcDbLine
 10
-1.49999999999999
 20
-0.0003899405809593
 30
0.0
 11
-1.000499995474961
 21
-0.0003899405809593
 31
0.0
  0
LINE
  5
110C
330
10ED
100
AcDbEntity
  8
0
100
AcDbLine
 10
-1.000499995474961
 20
-0.0003899405809593
 30
0.0
 11
0.0
 21
-0.0003899405809593
 31
0.0
  0
LINE
  5
110D
330
10ED
100
AcDbEntity
  8
0
100
AcDbLine
 10
-1.499999999999993
 20
-0.0003899405809605
 30
0.0
 11
-1.499999999999993
 21
1.269999999999992
 31
0.0
  0
LINE
  5
110E
330
10ED
100
AcDbEntity
  8
0
100
AcDbLine
 10
0.0
 20
80.27000000000001
 30
0.0
 11
0.0
 21
200.67
 31
0.0
  0
LINE
  5
110F
330
10ED
100
AcDbEntity
  8
0
100
AcDbLine
 10
0.0
 20
200.67
 30
0.0
 11
-2.099999999999943
 21
200.67
 31
0.0
  0
LINE
  5
1110
330
10ED
100
AcDbEntity
  8
0
100
AcDbLine
 10
-2.099999999999961
 20
80.27000000000001
 30
0.0
 11
0.0
 21
80.27000000000001
 31
0.0
  0
LINE
  5
1111
330
10ED
100
AcDbEntity
  8
0
100
AcDbLine
 10
-38.49999999999996
 20
80.27000000000001
 30
0.0
 11
-43.49999999999995
 21
85.27000000000001
 31
0.0
  0
LINE
  5
1112
330
10ED
100
AcDbEntity
  8
0
100
AcDbLine
 10
-43.49999999999995
 20
195.67
 30
0.0
 11
-38.49999999999996
 21
200.67
 31
0.0
  0
LINE
  5
1113
330
10ED
100
AcDbEntity
  8
0
100
AcDbLine
 10
-82.00306627385993
 20
-28.42608254450013
 30
0.0
 11
-82.00306627385996
 21
-21.35501473263468
 31
0.0
  0
LINE
  5
1114
330
10ED
100
AcDbEntity
  8
0
100
AcDbLine
 10
-43.49999999999995
 20
85.27000000000001
 30
0.0
 11
-43.49999999999995
 21
195.67
 31
0.0
  0
LINE
  5
1115
330
10ED
100
AcDbEntity
  8
0
100
AcDbLine
 10
-2.099999999999961
 20
80.27000000000001
 30
0.0
 11
-38.49999999999996
 21
80.27000000000001
 31
0.0
  0
LINE
  5
1116
330
10ED
100
AcDbEntity
  8
0
100
AcDbLine
 10
-38.49999999999996
 20
200.67
 30
0.0
 11
-2.099999999999941
 21
200.67
 31
0.0
  0
CIRCLE
  5
1117
330
10ED
100
AcDbEntity
  8
0
100
AcDbCircle
 10
-35.49999999999999
 20
192.77
 30
0.0
 40
2.5
  0
CIRCLE
  5
1118
330
10ED
100
AcDbEntity
  8
0
100
AcDbCircle
 10
-35.49999999999999
 20
172.77
 30
0.0
 40
2.5
  0
CIRCLE
  5
1119
330
10ED
100
AcDbEntity
  8
0
100
AcDbCircle
 10
-35.49999999999999
 20
152.77
 30
0.0
 40
2.5
  0
CIRCLE
  5
111A
330
10ED
100
AcDbEntity
  8
0
100
AcDbCircle
 10
-35.49999999999999
 20
132.77
 30
0.0
 40
2.5
  0
CIRCLE
  5
111B
330
10ED
100
AcDbEntity
  8
0
100
AcDbCircle
 10
-35.49999999999999
 20
112.77
 30
0.0
 40
2.5
  0
CIRCLE
  5
111C
330
10ED
100
AcDbEntity
  8
0
100
AcDbCircle
 10
-35.49999999999999
 20
92.76999999999999
 30
0.0
 40
2.5
  0
LINE
  5
111D
330
10ED
100
AcDbEntity
  8
0
100
AcDbLine
 10
-62.91118318265863
 20
-2.263131642256756
 30
0.0
 11
-82.00306627385996
 21
-21.35501473263468
 31
0.0
  0
LINE
  5
111E
330
10ED
100
AcDbEntity
  8
0
100
AcDbLine
 10
-1.656580012761328
 20
-2.526818434325801
 30
0.0
 11
-54.77945519839777
 21
-55.64969361996226
 31
0.0
  0
LINE
  5
111F
330
10ED
100
AcDbEntity
  8
0
100
AcDbLine
 10
-54.77945519839777
 20
-55.64969361996228
 30
0.0
 11
-56.26437943888923
 21
-54.16476937947024
 31
0.0
  0
LINE
  5
1120
330
10ED
100
AcDbEntity
  8
0
100
AcDbLine
 10
-56.26437943888952
 20
-54.16476937947052
 30
0.0
 11
-82.00306627385993
 21
-28.42608254450013
 31
0.0
  0
CIRCLE
  5
1121
330
10ED
100
AcDbEntity
  8
0
100
AcDbCircle
 10
-71.04291116530767
 20
-21.70856812338872
 30
0.0
 40
2.5
  0
ARC
  5
1122
330
10ED
100
AcDbEntity
  8
0
100
AcDbCircle
 10
-51.59747468238809
 20
-9.334199452913638
 30
0.0
 40
0.8000000000000015
100
AcDbArc
 50
344.9999999989572
 51
355.4526675359234
  0
LINE
  5
1123
330
10ED
100
AcDbEntity
  8
0
100
AcDbLine
 10
-50.82473402136063
 20
-9.541254689009715
 30
0.0
 11
-51.94545336164679
 21
-13.72383620767837
 31
0.0
  0
ARC
  5
1124
330
10ED
100
AcDbEntity
  8
0
100
AcDbCircle
 10
-52.71819402267426
 20
-13.5167809715823
 30
0.0
 40
0.8
100
AcDbArc
 50
224.9999999989572
 51
344.9999999989576
  0
LINE
  5
1125
330
10ED
100
AcDbEntity
  8
0
100
AcDbLine
 10
-53.28387944763379
 20
-14.08246639652125
 30
0.0
 11
-56.34574162605708
 21
-11.02060421798654
 31
0.0
  0
ARC
  5
1126
330
10ED
100
AcDbEntity
  8
0
100
AcDbCircle
 10
-55.78005620109753
 20
-10.4549187930476
 30
0.0
 40
0.8000000000000014
100
AcDbArc
 50
104.9999999989575
 51
224.9999999989572
  0
LINE
  5
1127
330
10ED
100
AcDbEntity
  8
0
100
AcDbLine
 10
-55.9871114371655
 20
-9.682178132012568
 30
0.0
 11
-51.80452991845606
 21
-8.561458791878607
 31
0.0
  0
ARC
  5
1128
330
10ED
100
AcDbEntity
  8
0
100
AcDbCircle
 10
-51.59747468238809
 20
-9.334199452913638
 30
0.0
 40
0.8000000000000014
100
AcDbArc
 50
49.59733246198601
 51
104.9999999989581
  0
LINE
  5
1129
330
10ED
100
AcDbEntity
  8
0
100
AcDbLine
 10
-51.07895039795263
 20
-8.724992947325683
 30
0.0
 11
-50.79999294004348
 21
-9.397625556585495
 31
0.0
  0
ARC
  5
112A
330
10ED
100
AcDbEntity
  8
0
100
AcDbCircle
 10
-55.13300858838519
 20
-12.86973335878204
 30
0.0
 40
0.8000000000000014
100
AcDbArc
 50
349.2288663267698
 51
100.7711336711449
  0
ENDBLK
  5
10EF
330
10ED
100
AcDbEntity
  8
0
100
AcDbBlockEnd
  0
BLOCK
  5
112C
330
112B
100
AcDbEntity
  8
0
100
AcDbBlockBegin
  2
SPR100_200-Top
 70
     0
 10
0.0
 20
0.0
 30
0.0
  3
SPR100_200-Top
  1

  0
LINE
  5
112E
330
112B
100
AcDbEntity
  8
0
100
AcDbLine
 10
92.527090561
 20
-1.499999999999974
 30
0.0
 11
92.527090561
 21
0.0
 31
0.0
  0
LINE
  5
112F
330
112B
100
AcDbEntity
  8
0
100
AcDbLine
 10
-87.52709056100002
 20
0.0
 30
0.0
 11
-92.527090561
 21
0.0
 31
0.0
  0
LINE
  5
1130
330
112B
100
AcDbEntity
  8
0
100
AcDbLine
 10
92.527090561
 20
0.0
 30
0.0
 11
87.52709056099996
 21
0.0
 31
0.0
  0
LINE
  5
1131
330
112B
100
AcDbEntity
  8
0
100
AcDbLine
 10
-92.527090561
 20
0.0
 30
0.0
 11
-92.527090561
 21
-1.500000000000026
 31
0.0
  0
LINE
  5
1132
330
112B
100
AcDbEntity
  8
0
100
AcDbLine
 10
-92.527090561
 20
-1.500000000000026
 30
0.0
 11
-87.52709056100002
 21
-1.500000000000024
 31
0.0
  0
LINE
  5
1133
330
112B
100
AcDbEntity
  8
0
100
AcDbLine
 10
-87.52709056100002
 20
-1.500000000000024
 30
0.0
 11
-87.52709056100002
 21
0.0
 31
0.0
  0
LINE
  5
1134
330
112B
100
AcDbEntity
  8
0
100
AcDbLine
 10
87.52709056099996
 20
-1.499999999999975
 30
0.0
 11
92.527090561
 21
-1.499999999999974
 31
0.0
  0
LINE
  5
1135
330
112B
100
AcDbEntity
  8
0
100
AcDbLine
 10
87.52709056099996
 20
0.0
 30
0.0
 11
87.52709056099996
 21
-1.499999999999975
 31
0.0
  0
LINE
  5
1136
330
112B
100
AcDbEntity
  8
0
100
AcDbLine
 10
-87.52709056100002
 20
0.0
 30
0.0
 11
-49.40000000000002
 21
0.0
 31
0.0
  0
LINE
  5
1137
330
112B
100
AcDbEntity
  8
0
100
AcDbLine
 10
49.39999999999998
 20
0.0
 30
0.0
 11
87.52709056099996
 21
0.0
 31
0.0
  0
LINE
  5
1138
330
112B
100
AcDbEntity
  8
0
100
AcDbLine
 10
51.4124611797498
 20
-1.499999999999985
 30
0.0
 11
87.52709056099996
 21
-1.499999999999975
 31
0.0
  0
LINE
  5
1139
330
112B
100
AcDbEntity
  8
0
100
AcDbLine
 10
-87.52709056100002
 20
-1.500000000000024
 30
0.0
 11
-51.41246117974983
 21
-1.500000000000014
 31
0.0
  0
LINE
  5
113A
330
112B
100
AcDbEntity
  8
0
100
AcDbLine
 10
49.39999999999998
 20
0.0
 30
0.0
 11
-49.40000000000002
 21
0.0
 31
0.0
  0
LINE
  5
113B
330
112B
100
AcDbEntity
  8
0
100
AcDbLine
 10
51.5000000000002
 20
-38.49999999999996
 30
0.0
 11
51.49999999999999
 21
-2.099999999999941
 31
0.0
  0
LINE
  5
113C
330
112B
100
AcDbEntity
  8
0
100
AcDbLine
 10
-51.50000000000002
 20
-2.100000000000011
 30
0.0
 11
-51.50000000000002
 21
-38.50000000000002
 31
0.0
  0
LINE
  5
113D
330
112B
100
AcDbEntity
  8
0
100
AcDbLine
 10
50.0
 20
-2.099999999999961
 30
0.0
 11
50.00000000000021
 21
-38.49999999999997
 31
0.0
  0
LINE
  5
113E
330
112B
100
AcDbEntity
  8
0
100
AcDbLine
 10
-49.40000000000002
 20
-1.500000000000014
 30
0.0
 11
49.39999999999998
 21
-1.499999999999983
 31
0.0
  0
LINE
  5
113F
330
112B
100
AcDbEntity
  8
0
100
AcDbLine
 10
-50.0
 20
-38.50000000000001
 30
0.0
 11
-50.00000000000001
 21
-2.100000000000008
 31
0.0
  0
LINE
  5
1140
330
112B
100
AcDbEntity
  8
0
100
AcDbLine
 10
50.00000000000023
 20
-43.49999999999996
 30
0.0
 11
51.50000000000023
 21
-43.49999999999995
 31
0.0
  0
LINE
  5
1141
330
112B
100
AcDbEntity
  8
0
100
AcDbLine
 10
51.50000000000023
 20
-43.49999999999995
 30
0.0
 11
51.5000000000002
 21
-38.49999999999996
 31
0.0
  0
LINE
  5
1142
330
112B
100
AcDbEntity
  8
0
100
AcDbLine
 10
-51.50000000000002
 20
-38.50000000000002
 30
0.0
 11
-51.50000000000002
 21
-43.50000000000001
 31
0.0
  0
LINE
  5
1143
330
112B
100
AcDbEntity
  8
0
100
AcDbLine
 10
-51.50000000000002
 20
-43.50000000000001
 30
0.0
 11
-50.0
 21
-43.50000000000001
 31
0.0
  0
LINE
  5
1144
330
112B
100
AcDbEntity
  8
0
100
AcDbLine
 10
51.5000000000002
 20
-38.49999999999996
 30
0.0
 11
50.00000000000021
 21
-38.49999999999996
 31
0.0
  0
LINE
  5
1145
330
112B
100
AcDbEntity
  8
0
100
AcDbLine
 10
50.00000000000021
 20
-38.49999999999996
 30
0.0
 11
50.00000000000023
 21
-43.49999999999996
 31
0.0
  0
LINE
  5
1146
330
112B
100
AcDbEntity
  8
0
100
AcDbLine
 10
-50.0
 20
-43.50000000000001
 30
0.0
 11
-50.0
 21
-38.50000000000001
 31
0.0
  0
LINE
  5
1147
330
112B
100
AcDbEntity
  8
0
100
AcDbLine
 10
-50.0
 20
-38.50000000000001
 30
0.0
 11
-51.50000000000002
 21
-38.50000000000002
 31
0.0
  0
LINE
  5
1148
330
112B
100
AcDbEntity
  8
0
100
AcDbLine
 10
51.49999999999999
 20
-82.00306627385996
 30
0.0
 11
50.0
 21
-82.00306627385996
 31
0.0
  0
LINE
  5
1149
330
112B
100
AcDbEntity
  8
0
100
AcDbLine
 10
-50.0
 20
-82.00306627385998
 30
0.0
 11
-51.49999999999999
 21
-82.00306627385998
 31
0.0
  0
LINE
  5
114A
330
112B
100
AcDbEntity
  8
0
100
AcDbLine
 10
51.50000000000233
 20
-62.91118318265863
 30
0.0
 11
51.49999999999999
 21
-82.00306627385996
 31
0.0
  0
LINE
  5
114B
330
112B
100
AcDbEntity
  8
0
100
AcDbLine
 10
50.00000000000193
 20
-62.91118318265863
 30
0.0
 11
50.0
 21
-82.00306627385996
 31
0.0
  0
ELLIPSE
  5
114C
330
112B
100
AcDbEntity
  8
0
100
AcDbEllipse
 10
49.39999999999999
 20
-56.26437943888955
 30
0.0
 11
0.6000000000000087
 21
0.0000000000000612
 31
0.0
210
0.0
220
0.0
230
1.0
 40
0.7071067811866661
 41
0.0
 42
1.570796326794631
  0
LINE
  5
114D
330
112B
100
AcDbEntity
  8
0
100
AcDbLine
 10
51.50000000000233
 20
-62.91118318265863
 30
0.0
 11
50.00000000000193
 21
-62.91118318265863
 31
0.0
  0
LINE
  5
114E
330
112B
100
AcDbEntity
  8
0
100
AcDbLine
 10
51.5
 20
-43.49999999999995
 30
0.0
 11
51.50000000000233
 21
-62.91118318265863
 31
0.0
  0
LINE
  5
114F
330
112B
100
AcDbEntity
  8
0
100
AcDbLine
 10
-51.50000000000208
 20
-62.91118318265866
 30
0.0
 11
-51.50000000000208
 21
-43.50000000000001
 31
0.0
  0
ELLIPSE
  5
1150
330
112B
100
AcDbEntity
  8
0
100
AcDbEllipse
 10
-46.50000000000002
 20
-1.227476037518808
 30
0.0
 11
-1.5
 21
0.0000000000001092
 31
0.0
210
0.0
220
0.0
230
1.0
 40
0.7071067811865475
 41
1.570796326795026
 42
2.705254581962137
  0
LINE
  5
1151
330
112B
100
AcDbEntity
  8
0
100
AcDbLine
 10
-46.50000000000002
 20
-2.288136209298615
 30
0.0
 11
-48.79315533855963
 21
-2.288136209298616
 31
0.0
  0
LINE
  5
1152
330
112B
100
AcDbEntity
  8
0
100
AcDbLine
 10
-48.79315533855963
 20
-2.288136209298616
 30
0.0
 11
-49.40000000000002
 21
-2.717240184541175
 31
0.0
  0
LINE
  5
1153
330
112B
100
AcDbEntity
  8
0
100
AcDbLine
 10
49.39999999999998
 20
-2.717240184541148
 30
0.0
 11
48.79315533855959
 21
-2.28813620929859
 31
0.0
  0
LINE
  5
1154
330
112B
100
AcDbEntity
  8
0
100
AcDbLine
 10
48.79315533855959
 20
-2.28813620929859
 30
0.0
 11
46.49999999999997
 21
-2.288136209298591
 31
0.0
  0
ELLIPSE
  5
1155
330
112B
100
AcDbEntity
  8
0
100
AcDbEllipse
 10
46.49999999999997
 20
-1.227476037518788
 30
0.0
 11
-1.5
 21
-0.0000000000000003
 31
0.0
210
0.0
220
0.0
230
1.0
 40
0.7071067811865474
 41
0.4363380716279029
 42
1.570796326794896
  0
SPLINE
  5
1156
330
112B
100
AcDbEntity
  8
0
100
AcDbSpline
210
0.0
220
0.0
230
1.0
 70
     8
 71
     3
 72
     8
 73
     4
 74
     0
 42
0.000000001
 43
0.0000000001
 40
-1.0
 40
-1.0
 40
-1.0
 40
-1.0
 40
0.0
 40
0.0
 40
0.0
 40
0.0
 10
45.14054197002045
 20
-1.675735931288073
 30
0.0
 10
45.01586474390284
 20
-1.572566966670492
 30
0.0
 10
44.97251992074146
 20
-1.500000000000002
 30
0.0
 10
45.01767776087191
 20
-1.500000000000002
 30
0.0
  0
SPLINE
  5
1157
330
112B
100
AcDbEntity
  8
0
100
AcDbSpline
210
0.0
220
0.0
230
1.0
 70
     8
 71
     3
 72
     8
 73
     4
 74
     0
 42
0.000000001
 43
0.0000000001
 40
-1.0
 40
-1.0
 40
-1.0
 40
-1.0
 40
0.0
 40
0.0
 40
0.0
 40
0.0
 10
-45.01767776087199
 20
-1.500000000000022
 30
0.0
 10
-44.97251992073876
 20
-1.500000000000022
 30
0.0
 10
-45.01586474390141
 20
-1.572566966670511
 30
0.0
 10
-45.14054197002046
 20
-1.675735931288093
 30
0.0
  0
LINE
  5
1158
330
112B
100
AcDbEntity
  8
0
100
AcDbLine
 10
-50.0000000000017
 20
-62.91118318265866
 30
0.0
 11
-51.50000000000208
 21
-62.91118318265866
 31
0.0
  0
LINE
  5
1159
330
112B
100
AcDbEntity
  8
0
100
AcDbLine
 10
-50.00000000000003
 20
-43.50000000000001
 30
0.0
 11
-50.0000000000017
 21
-62.91118318265866
 31
0.0
  0
SPLINE
  5
115A
330
112B
100
AcDbEntity
  8
0
100
AcDbSpline
210
0.0
220
0.0
230
1.0
 70
     8
 71
     3
 72
     8
 73
     4
 74
     0
 42
0.000000001
 43
0.0000000001
 40
-1.0
 40
-1.0
 40
-1.0
 40
-1.0
 40
0.0
 40
0.0
 40
0.0
 40
0.0
 10
-49.40000000000002
 20
-2.717240184541178
 30
0.0
 10
-49.714159265359
 20
-3.124319333760744
 30
0.0
 10
-50.00000000000003
 20
-3.733518404783825
 30
0.0
 10
-50.00000000000003
 20
-4.362741700911268
 30
0.0
  0
LINE
  5
115B
330
112B
100
AcDbEntity
  8
0
100
AcDbLine
 10
-49.40000000000002
 20
-2.717240184541175
 30
0.0
 11
-49.40000000000002
 21
-2.364040347338145
 31
0.0
  0
LINE
  5
115C
330
112B
100
AcDbEntity
  8
0
100
AcDbLine
 10
-49.40000000000002
 20
-2.364040347338145
 30
0.0
 11
-49.40000000000002
 21
-1.656580012761353
 31
0.0
  0
SPLINE
  5
115D
330
112B
100
AcDbEntity
  8
0
100
AcDbSpline
210
0.0
220
0.0
230
1.0
 70
     8
 71
     3
 72
     8
 73
     4
 74
     0
 42
0.000000001
 43
0.0000000001
 40
0.8233926083861669
 40
0.8233926083861669
 40
0.8233926083861669
 40
0.8233926083861669
 40
1.0
 40
1.0
 40
1.0
 40
1.0
 10
-49.9683307934395
 20
-1.934942494002034
 30
0.0
 10
-49.78528852951265
 20
-1.822430928281102
 30
0.0
 10
-49.5941899694223
 20
-1.728473199485402
 30
0.0
 10
-49.40000000000002
 20
-1.656580012761356
 30
0.0
  0
LINE
  5
115E
330
112B
100
AcDbEntity
  8
0
100
AcDbLine
 10
-49.40000000000002
 20
-1.656580012761353
 30
0.0
 11
-49.17856242236215
 21
-1.500000000000005
 31
0.0
  0
LINE
  5
115F
330
112B
100
AcDbEntity
  8
0
100
AcDbLine
 10
-48.79315533855963
 20
-2.288136209298616
 30
0.0
 11
-48.79315533855963
 21
-1.500000000000014
 31
0.0
  0
LINE
  5
1160
330
112B
100
AcDbEntity
  8
0
100
AcDbLine
 10
-45.14054197002045
 20
-1.675735931288093
 30
0.0
 11
-45.14054197002045
 21
-1.500000000000013
 31
0.0
  0
LINE
  5
1161
330
112B
100
AcDbEntity
  8
0
100
AcDbLine
 10
50.00000000000193
 20
-62.91118318265863
 30
0.0
 11
50.00000000000192
 21
-43.49999999999996
 31
0.0
  0
LINE
  5
1162
330
112B
100
AcDbEntity
  8
0
100
AcDbLine
 10
49.39999999999998
 20
-2.717240184541148
 30
0.0
 11
49.39999999999998
 21
-2.364040347339331
 31
0.0
  0
SPLINE
  5
1163
330
112B
100
AcDbEntity
  8
0
100
AcDbSpline
210
0.0
220
0.0
230
1.0
 70
     8
 71
     3
 72
     8
 73
     4
 74
     0
 42
0.000000001
 43
0.0000000001
 40
-1.0
 40
-1.0
 40
-1.0
 40
-1.0
 40
0.0
 40
0.0
 40
0.0
 40
0.0
 10
50.0
 20
-4.362741700911236
 30
0.0
 10
50.0
 20
-3.733518404783934
 30
0.0
 10
49.71415926535898
 20
-3.124319333760109
 30
0.0
 10
49.39999999999998
 20
-2.717240184541152
 30
0.0
  0
SPLINE
  5
1164
330
112B
100
AcDbEntity
  8
0
100
AcDbSpline
210
0.0
220
0.0
230
1.0
 70
     8
 71
     3
 72
     8
 73
     4
 74
     0
 42
0.000000001
 43
0.0000000001
 40
0.0
 40
0.0
 40
0.0
 40
0.0
 40
0.176607391613833
 40
0.176607391613833
 40
0.176607391613833
 40
0.176607391613833
 10
49.39999999999998
 20
-1.65658001276133
 30
0.0
 10
49.59418996942226
 20
-1.728473199485268
 30
0.0
 10
49.78528852951263
 20
-1.822430928280903
 30
0.0
 10
49.96833079343947
 20
-1.934942494001801
 30
0.0
  0
LINE
  5
1165
330
112B
100
AcDbEntity
  8
0
100
AcDbLine
 10
49.39999999999998
 20
-2.364040347339331
 30
0.0
 11
49.39999999999998
 21
-1.656580012761327
 31
0.0
  0
LINE
  5
1166
330
112B
100
AcDbEntity
  8
0
100
AcDbLine
 10
45.14054197002045
 20
-1.499999999999987
 30
0.0
 11
45.14054197002038
 21
-1.675735931288073
 31
0.0
  0
LINE
  5
1167
330
112B
100
AcDbEntity
  8
0
100
AcDbLine
 10
48.79315533855959
 20
-2.28813620929859
 30
0.0
 11
48.79315533855959
 21
-1.499999999999986
 31
0.0
  0
LINE
  5
1168
330
112B
100
AcDbEntity
  8
0
100
AcDbLine
 10
49.17856242236211
 20
-1.499999999999974
 30
0.0
 11
49.39999999999998
 21
-1.656580012761327
 31
0.0
  0
LINE
  5
1169
330
112B
100
AcDbEntity
  8
0
100
AcDbLine
 10
-51.50000000000208
 20
-62.91118318265866
 30
0.0
 11
-51.49999999999999
 21
-82.00306627385998
 31
0.0
  0
LINE
  5
116A
330
112B
100
AcDbEntity
  8
0
100
AcDbLine
 10
-50.0000000000017
 20
-62.91118318265866
 30
0.0
 11
-50.0
 21
-82.00306627385998
 31
0.0
  0
ELLIPSE
  5
116B
330
112B
100
AcDbEntity
  8
0
100
AcDbEllipse
 10
-17.50000000000005
 20
-0.1668158657389979
 30
0.0
 11
2.499999999999999
 21
0.0000000000001828
 31
0.0
210
0.0
220
0.0
230
1.0
 40
0.7071067811865475
 41
3.995971005724944
 42
4.712388980384622
  0
LINE
  5
116C
330
112B
100
AcDbEntity
  8
0
100
AcDbLine
 10
-19.91828991960769
 20
-1.500000000000005
 30
0.0
 11
-19.91828991960768
 21
-1.675735931288088
 31
0.0
  0
ELLIPSE
  5
116D
330
112B
100
AcDbEntity
  8
0
100
AcDbEllipse
 10
-17.50000000000005
 20
-1.227476037518802
 30
0.0
 11
-2.5
 21
-0.0000000000000006
 31
0.0
210
0.0
220
0.0
230
1.0
 40
0.7071067811865472
 41
0.2563733270184496
 42
1.570796326794896
  0
LINE
  5
116E
330
112B
100
AcDbEntity
  8
0
100
AcDbLine
 10
-17.50000000000005
 20
-1.934582818705394
 30
0.0
 11
-12.50000000000001
 21
-1.934582818705393
 31
0.0
  0
LINE
  5
116F
330
112B
100
AcDbEntity
  8
0
100
AcDbLine
 10
-12.50000000000001
 20
-2.995242990485214
 30
0.0
 11
-17.50000000000005
 21
-2.995242990485216
 31
0.0
  0
ELLIPSE
  5
1170
330
112B
100
AcDbEntity
  8
0
100
AcDbEllipse
 10
-12.50000000000001
 20
-0.1668158657389965
 30
0.0
 11
2.5
 21
0.0000000000000006
 31
0.0
210
0.0
220
0.0
230
1.0
 40
0.7071067811865474
 41
4.712388980384689
 42
5.4288069550443
  0
ELLIPSE
  5
1171
330
112B
100
AcDbEntity
  8
0
100
AcDbEllipse
 10
-12.50000000000001
 20
-1.227476037518801
 30
0.0
 11
2.5
 21
0.0000000000000008
 31
0.0
210
0.0
220
0.0
230
1.0
 40
0.7071067811865474
 41
4.712388980384689
 42
6.026811980161137
  0
LINE
  5
1172
330
112B
100
AcDbEntity
  8
0
100
AcDbLine
 10
-10.08171008039238
 20
-1.675735931288086
 30
0.0
 11
-10.08171008039238
 21
-1.500000000000002
 31
0.0
  0
SPLINE
  5
1173
330
112B
100
AcDbEntity
  8
0
100
AcDbSpline
210
0.0
220
0.0
230
1.0
 70
     8
 71
     3
 72
     8
 73
     4
 74
     0
 42
0.000000001
 43
0.0000000001
 40
-1.0
 40
-1.0
 40
-1.0
 40
-1.0
 40
0.0
 40
0.0
 40
0.0
 40
0.0
 10
-19.91828991960769
 20
-1.675735931288088
 30
0.0
 10
-19.99189972301995
 20
-1.567383125827708
 30
0.0
 10
-20.01609483643895
 20
-1.500000000000016
 30
0.0
 10
-19.98943351399748
 20
-1.500000000000016
 30
0.0
  0
SPLINE
  5
1174
330
112B
100
AcDbEntity
  8
0
100
AcDbSpline
210
0.0
220
0.0
230
1.0
 70
     8
 71
     3
 72
     8
 73
     4
 74
     0
 42
0.000000001
 43
0.0000000001
 40
-1.0
 40
-1.0
 40
-1.0
 40
-1.0
 40
0.0
 40
0.0
 40
0.0
 40
0.0
 10
-10.01056648600259
 20
-1.500000000000014
 30
0.0
 10
-9.983905163560532
 20
-1.500000000000014
 30
0.0
 10
-10.00810027698007
 20
-1.567383125827734
 30
0.0
 10
-10.08171008039238
 20
-1.675735931288086
 30
0.0
  0
ELLIPSE
  5
1175
330
112B
100
AcDbEntity
  8
0
100
AcDbEllipse
 10
12.49999999999998
 20
-0.1668158657389895
 30
0.0
 11
2.499999999999999
 21
0.0000000000001828
 31
0.0
210
0.0
220
0.0
230
1.0
 40
0.7071067811865475
 41
3.995971005724944
 42
4.712388980384622
  0
LINE
  5
1176
330
112B
100
AcDbEntity
  8
0
100
AcDbLine
 10
10.08171008039234
 20
-1.499999999999996
 30
0.0
 11
10.08171008039234
 21
-1.675735931288081
 31
0.0
  0
ELLIPSE
  5
1177
330
112B
100
AcDbEntity
  8
0
100
AcDbEllipse
 10
12.49999999999998
 20
-1.227476037518795
 30
0.0
 11
-2.5
 21
-0.0000000000000006
 31
0.0
210
0.0
220
0.0
230
1.0
 40
0.7071067811865471
 41
0.2563733270184487
 42
1.570796326794896
  0
LINE
  5
1178
330
112B
100
AcDbEntity
  8
0
100
AcDbLine
 10
12.49999999999998
 20
-1.934582818705385
 30
0.0
 11
17.50000000000001
 21
-1.934582818705384
 31
0.0
  0
LINE
  5
1179
330
112B
100
AcDbEntity
  8
0
100
AcDbLine
 10
17.50000000000001
 20
-2.995242990485206
 30
0.0
 11
12.49999999999998
 21
-2.995242990485208
 31
0.0
  0
ELLIPSE
  5
117A
330
112B
100
AcDbEntity
  8
0
100
AcDbEllipse
 10
17.50000000000001
 20
-0.1668158657389884
 30
0.0
 11
2.5
 21
0.0000000000000006
 31
0.0
210
0.0
220
0.0
230
1.0
 40
0.7071067811865472
 41
4.712388980384689
 42
5.4288069550443
  0
ELLIPSE
  5
117B
330
112B
100
AcDbEntity
  8
0
100
AcDbEllipse
 10
17.50000000000001
 20
-1.227476037518794
 30
0.0
 11
2.5
 21
0.0000000000000012
 31
0.0
210
0.0
220
0.0
230
1.0
 40
0.7071067811865476
 41
4.712388980384689
 42
6.026811980161136
  0
LINE
  5
117C
330
112B
100
AcDbEntity
  8
0
100
AcDbLine
 10
19.91828991960765
 20
-1.675735931288079
 30
0.0
 11
19.91828991960765
 21
-1.499999999999993
 31
0.0
  0
SPLINE
  5
117D
330
112B
100
AcDbEntity
  8
0
100
AcDbSpline
210
0.0
220
0.0
230
1.0
 70
     8
 71
     3
 72
     8
 73
     4
 74
     0
 42
0.000000001
 43
0.0000000001
 40
-1.0
 40
-1.0
 40
-1.0
 40
-1.0
 40
0.0
 40
0.0
 40
0.0
 40
0.0
 10
10.08171008039234
 20
-1.675735931288081
 30
0.0
 10
10.00810027697994
 20
-1.567383125827726
 30
0.0
 10
9.983905163560503
 20
-1.500000000000009
 30
0.0
 10
10.01056648600256
 20
-1.500000000000009
 30
0.0
  0
SPLINE
  5
117E
330
112B
100
AcDbEntity
  8
0
100
AcDbSpline
210
0.0
220
0.0
230
1.0
 70
     8
 71
     3
 72
     8
 73
     4
 74
     0
 42
0.000000001
 43
0.0000000001
 40
-1.0
 40
-1.0
 40
-1.0
 40
-1.0
 40
0.0
 40
0.0
 40
0.0
 40
0.0
 10
19.98943351399744
 20
-1.500000000000007
 30
0.0
 10
20.0160948364395
 20
-1.500000000000007
 30
0.0
 10
19.99189972302051
 20
-1.567383125827702
 30
0.0
 10
19.91828991960765
 20
-1.675735931288079
 30
0.0
  0
ELLIPSE
  5
117F
330
112B
100
AcDbEntity
  8
0
100
AcDbEllipse
 10
-32.50000000000002
 20
-1.227476037518805
 30
0.0
 11
2.5
 21
0.0000000000000006
 31
0.0
210
0.0
220
0.0
230
1.0
 40
0.7071067811865472
 41
3.397965980608242
 42
6.026811980161136
  0
ELLIPSE
  5
1180
330
112B
100
AcDbEntity
  8
0
100
AcDbEllipse
 10
32.5
 20
-1.227476037518791
 30
0.0
 11
2.5
 21
0.0000000000000009
 31
0.0
210
0.0
220
0.0
230
1.0
 40
0.7071067811865475
 41
3.397965980608241
 42
6.026811980161135
  0
SPLINE
  5
1181
330
112B
100
AcDbEntity
  8
0
100
AcDbSpline
210
0.0
220
0.0
230
1.0
 70
     8
 71
     3
 72
     8
 73
     4
 74
     0
 42
0.000000001
 43
0.0000000001
 40
-1.0
 40
-1.0
 40
-1.0
 40
-1.0
 40
0.0
 40
0.0
 40
0.0
 40
0.0
 10
30.08171008039236
 20
-1.675735931288078
 30
0.0
 10
30.00810027698002
 20
-1.56738312582771
 30
0.0
 10
29.98390516356052
 20
-1.500000000000005
 30
0.0
 10
30.01056648600258
 20
-1.500000000000005
 30
0.0
  0
SPLINE
  5
1182
330
112B
100
AcDbEntity
  8
0
100
AcDbSpline
210
0.0
220
0.0
230
1.0
 70
     8
 71
     3
 72
     8
 73
     4
 74
     0
 42
0.000000001
 43
0.0000000001
 40
-1.0
 40
-1.0
 40
-1.0
 40
-1.0
 40
0.0
 40
0.0
 40
0.0
 40
0.0
 10
-30.01056648600259
 20
-1.500000000000018
 30
0.0
 10
-29.9839051635604
 20
-1.500000000000018
 30
0.0
 10
-30.00810027697977
 20
-1.567383125827674
 30
0.0
 10
-30.08171008039236
 20
-1.67573593128809
 30
0.0
  0
ELLIPSE
  5
1183
330
112B
100
AcDbEntity
  8
0
100
AcDbEllipse
 10
-32.50000000000002
 20
-0.1668158657390018
 30
0.0
 11
2.499999999999999
 21
0.0000000000001837
 31
0.0
210
0.0
220
0.0
230
1.0
 40
0.7071067811865475
 41
3.995971005724946
 42
5.428806955044158
  0
LINE
  5
1184
330
112B
100
AcDbEntity
  8
0
100
AcDbLine
 10
-34.91828991960765
 20
-1.500000000000009
 30
0.0
 11
-34.91828991960765
 21
-1.675735931288091
 31
0.0
  0
LINE
  5
1185
330
112B
100
AcDbEntity
  8
0
100
AcDbLine
 10
-30.08171008039238
 20
-1.67573593128809
 30
0.0
 11
-30.08171008039238
 21
-1.50000000000001
 31
0.0
  0
SPLINE
  5
1186
330
112B
100
AcDbEntity
  8
0
100
AcDbSpline
210
0.0
220
0.0
230
1.0
 70
     8
 71
     3
 72
     8
 73
     4
 74
     0
 42
0.000000001
 43
0.0000000001
 40
-1.0
 40
-1.0
 40
-1.0
 40
-1.0
 40
0.0
 40
0.0
 40
0.0
 40
0.0
 10
-34.91828991960765
 20
-1.675735931288092
 30
0.0
 10
-34.99189972302045
 20
-1.567383125827717
 30
0.0
 10
-35.01609483643911
 20
-1.500000000000019
 30
0.0
 10
-34.98943351399745
 20
-1.500000000000019
 30
0.0
  0
ELLIPSE
  5
1187
330
112B
100
AcDbEntity
  8
0
100
AcDbEllipse
 10
32.5
 20
-0.1668158657389845
 30
0.0
 11
2.5
 21
0.0000000000001826
 31
0.0
210
0.0
220
0.0
230
1.0
 40
0.7071067811865475
 41
3.995971005724953
 42
5.428806955044167
  0
LINE
  5
1188
330
112B
100
AcDbEntity
  8
0
100
AcDbLine
 10
30.08171008039236
 20
-1.499999999999996
 30
0.0
 11
30.08171008039236
 21
-1.675735931288077
 31
0.0
  0
LINE
  5
1189
330
112B
100
AcDbEntity
  8
0
100
AcDbLine
 10
34.91828991960763
 20
-1.675735931288075
 30
0.0
 11
34.91828991960763
 21
-1.499999999999988
 31
0.0
  0
SPLINE
  5
118A
330
112B
100
AcDbEntity
  8
0
100
AcDbSpline
210
0.0
220
0.0
230
1.0
 70
     8
 71
     3
 72
     8
 73
     4
 74
     0
 42
0.000000001
 43
0.0000000001
 40
-1.0
 40
-1.0
 40
-1.0
 40
-1.0
 40
0.0
 40
0.0
 40
0.0
 40
0.0
 10
34.9894335139974
 20
-1.500000000000004
 30
0.0
 10
35.01609483643939
 20
-1.500000000000004
 30
0.0
 10
34.99189972301838
 20
-1.567383125827652
 30
0.0
 10
34.9182899196077
 20
-1.675735931288075
 30
0.0
  0
LINE
  5
118B
330
112B
100
AcDbEntity
  8
0
100
AcDbLine
 10
-49.40000000000001
 20
-55.8401153701776
 30
0.0
 11
49.39999999999999
 21
-55.84011537017758
 31
0.0
  0
ELLIPSE
  5
118C
330
112B
100
AcDbEntity
  8
0
100
AcDbEllipse
 10
-49.40000000000001
 20
-56.26437943888956
 30
0.0
 11
-0.6000000000000087
 21
0.0000000000000087
 31
0.0
210
0.0
220
0.0
230
1.0
 40
0.7071067811865445
 41
4.7123889803847
 42
6.283185307179586
  0
ARC
  5
118D
330
112B
100
AcDbEntity
  8
0
100
AcDbCircle
 10
49.39999999999998
 20
-2.099999999999988
 30
0.0
 40
0.600000000000005
100
AcDbArc
 50
0.0
 51
90.0
  0
ARC
  5
118E
330
112B
100
AcDbEntity
  8
0
100
AcDbCircle
 10
49.39999999999998
 20
-2.099999999999988
 30
0.0
 40
2.100000000000008
100
AcDbArc
 50
0.0
 51
90.0
  0
ARC
  5
118F
330
112B
100
AcDbEntity
  8
0
100
AcDbCircle
 10
-49.40000000000002
 20
-2.10000000000001
 30
0.0
 40
0.5999999999999961
100
AcDbArc
 50
90.0
 51
180.0
  0
ARC
  5
1190
330
112B
100
AcDbEntity
  8
0
100
AcDbCircle
 10
-49.40000000000002
 20
-2.10000000000001
 30
0.0
 40
2.099999999999999
100
AcDbArc
 50
90.0
 51
180.0
  0
ENDBLK
  5
112D
330
112B
100
AcDbEntity
  8
0
100
AcDbBlockEnd
  0
BLOCK
  5
1192
330
1191
100
AcDbEntity
  8
0
100
AcDbBlockBegin
  2
SPR100_200-Bottom
 70
     0
 10
0.0
 20
0.0
 30
0.0
  3
SPR100_200-Bottom
  1

  0
LINE
  5
1194
330
1191
100
AcDbEntity
  8
0
100
AcDbLine
 10
92.52709056099996
 20
1.499999999999974
 30
0.0
 11
87.52709056099996
 21
1.499999999999975
 31
0.0
  0
LINE
  5
1195
330
1191
100
AcDbEntity
  8
0
100
AcDbLine
 10
87.52709056099996
 20
1.499999999999975
 30
0.0
 11
87.52709056099996
 21
0.0
 31
0.0
  0
LINE
  5
1196
330
1191
100
AcDbEntity
  8
0
100
AcDbLine
 10
87.52709056099996
 20
0.0
 30
0.0
 11
92.52709056099996
 21
0.0
 31
0.0
  0
LINE
  5
1197
330
1191
100
AcDbEntity
  8
0
100
AcDbLine
 10
92.52709056099996
 20
0.0
 30
0.0
 11
92.52709056099996
 21
1.499999999999974
 31
0.0
  0
LINE
  5
1198
330
1191
100
AcDbEntity
  8
0
100
AcDbLine
 10
-92.527090561
 20
0.0
 30
0.0
 11
-87.527090561
 21
0.0
 31
0.0
  0
LINE
  5
1199
330
1191
100
AcDbEntity
  8
0
100
AcDbLine
 10
-87.527090561
 20
1.500000000000025
 30
0.0
 11
-92.527090561
 21
1.500000000000026
 31
0.0
  0
LINE
  5
119A
330
1191
100
AcDbEntity
  8
0
100
AcDbLine
 10
-92.527090561
 20
1.500000000000026
 30
0.0
 11
-92.527090561
 21
0.0
 31
0.0
  0
LINE
  5
119B
330
1191
100
AcDbEntity
  8
0
100
AcDbLine
 10
-87.527090561
 20
0.0
 30
0.0
 11
-87.527090561
 21
1.500000000000025
 31
0.0
  0
LINE
  5
119C
330
1191
100
AcDbEntity
  8
0
100
AcDbLine
 10
87.52709056099996
 20
0.0
 30
0.0
 11
46.49999999999997
 21
0.0
 31
0.0
  0
LINE
  5
119D
330
1191
100
AcDbEntity
  8
0
100
AcDbLine
 10
-46.50000000000002
 20
0.0
 30
0.0
 11
-87.527090561
 21
0.0
 31
0.0
  0
LINE
  5
119E
330
1191
100
AcDbEntity
  8
0
100
AcDbLine
 10
-49.17856242236215
 20
1.500000000000017
 30
0.0
 11
-87.527090561
 21
1.500000000000025
 31
0.0
  0
LINE
  5
119F
330
1191
100
AcDbEntity
  8
0
100
AcDbLine
 10
87.52709056099996
 20
1.499999999999975
 30
0.0
 11
49.17856242236212
 21
1.499999999999986
 31
0.0
  0
LINE
  5
11A0
330
1191
100
AcDbEntity
  8
0
100
AcDbLine
 10
46.49999999999997
 20
0.0
 30
0.0
 11
45.01767776087192
 21
0.0
 31
0.0
  0
LINE
  5
11A1
330
1191
100
AcDbEntity
  8
0
100
AcDbLine
 10
-45.01767776087198
 20
0.0
 30
0.0
 11
-46.50000000000002
 21
0.0
 31
0.0
  0
SPLINE
  5
11A2
330
1191
100
AcDbEntity
  8
0
100
AcDbSpline
210
0.0
220
0.0
230
1.0
 70
     8
 71
     3
 72
     8
 73
     4
 74
     0
 42
0.000000001
 43
0.0000000001
 40
0.0
 40
0.0
 40
0.0
 40
0.0
 40
1.0
 40
1.0
 40
1.0
 40
1.0
 10
45.01767776087191
 20
0.0000000000000019
 30
0.0
 10
44.97251992074146
 20
0.0000000000000022
 30
0.0
 10
45.01586474390284
 20
0.2539843833467178
 30
0.0
 10
45.14054197002045
 20
0.6150757595082521
 30
0.0
  0
SPLINE
  5
11A3
330
1191
100
AcDbEntity
  8
0
100
AcDbSpline
210
0.0
220
0.0
230
1.0
 70
     8
 71
     3
 72
     8
 73
     4
 74
     0
 42
0.000000001
 43
0.0000000001
 40
0.0
 40
0.0
 40
0.0
 40
0.0
 40
1.0
 40
1.0
 40
1.0
 40
1.0
 10
-45.14054197002046
 20
0.6150757595082722
 30
0.0
 10
-45.01586474390141
 20
0.2539843833467359
 30
0.0
 10
-44.97251992073876
 20
0.0000000000000221
 30
0.0
 10
-45.01767776087199
 20
0.0000000000000219
 30
0.0
  0
SPLINE
  5
11A4
330
1191
100
AcDbEntity
  8
0
100
AcDbSpline
210
0.0
220
0.0
230
1.0
 70
     8
 71
     3
 72
     8
 73
     4
 74
     0
 42
0.000000001
 43
0.0000000001
 40
0.0
 40
0.0
 40
0.0
 40
0.0
 40
1.0
 40
1.0
 40
1.0
 40
1.0
 10
-51.50000000000004
 20
4.362741700911232
 30
0.0
 10
-51.5
 20
3.178158037513997
 30
0.0
 10
-50.49955742875642
 20
2.063659161980922
 30
0.0
 10
-49.40000000000002
 20
1.656580012761356
 30
0.0
  0
LINE
  5
11A5
330
1191
100
AcDbEntity
  8
0
100
AcDbLine
 10
-49.40000000000002
 20
1.656580012761353
 30
0.0
 11
-48.79315533855963
 21
1.227476037518796
 31
0.0
  0
LINE
  5
11A6
330
1191
100
AcDbEntity
  8
0
100
AcDbLine
 10
-48.79315533855963
 20
1.227476037518796
 30
0.0
 11
-46.50000000000002
 21
1.227476037518793
 31
0.0
  0
ELLIPSE
  5
11A7
330
1191
100
AcDbEntity
  8
0
100
AcDbEllipse
 10
-46.50000000000002
 20
0.1668158657390022
 30
0.0
 11
1.5
 21
-0.0000000000000003
 31
0.0
210
0.0
220
0.0
230
1.0
 40
0.7071067811865474
 41
0.4363380716279118
 42
1.570796326794896
  0
LINE
  5
11A8
330
1191
100
AcDbEntity
  8
0
100
AcDbLine
 10
-45.01767776087198
 20
0.1805170265383174
 30
0.0
 11
-45.01767776087198
 21
0.0
 31
0.0
  0
SPLINE
  5
11A9
330
1191
100
AcDbEntity
  8
0
100
AcDbSpline
210
0.0
220
0.0
230
1.0
 70
     8
 71
     3
 72
     8
 73
     4
 74
     0
 42
0.000000001
 43
0.0000000001
 40
0.0
 40
0.0
 40
0.0
 40
0.0
 40
1.0
 40
1.0
 40
1.0
 40
1.0
 10
49.39999999999998
 20
1.65658001276133
 30
0.0
 10
50.49955742875646
 20
2.063659161980287
 30
0.0
 10
51.49999999999997
 20
3.178158037514122
 30
0.0
 10
51.5
 20
4.3627417009112
 30
0.0
  0
ELLIPSE
  5
11AA
330
1191
100
AcDbEntity
  8
0
100
AcDbEllipse
 10
46.49999999999997
 20
0.1668158657389777
 30
0.0
 11
1.5
 21
-0.0000000000001098
 31
0.0
210
0.0
220
0.0
230
1.0
 40
0.7071067811865474
 41
1.570796326795026
 42
2.705254581962147
  0
LINE
  5
11AB
330
1191
100
AcDbEntity
  8
0
100
AcDbLine
 10
46.49999999999997
 20
1.227476037518769
 30
0.0
 11
48.79315533855959
 21
1.227476037518772
 31
0.0
  0
LINE
  5
11AC
330
1191
100
AcDbEntity
  8
0
100
AcDbLine
 10
48.79315533855959
 20
1.227476037518772
 30
0.0
 11
49.39999999999998
 21
1.656580012761327
 31
0.0
  0
LINE
  5
11AD
330
1191
100
AcDbEntity
  8
0
100
AcDbLine
 10
45.01767776087192
 20
0.1805170265382922
 30
0.0
 11
45.01767776087192
 21
0.0
 31
0.0
  0
LINE
  5
11AE
330
1191
100
AcDbEntity
  8
0
100
AcDbLine
 10
34.98943351399742
 20
0.0
 30
0.0
 11
45.01767776087192
 21
0.0
 31
0.0
  0
LINE
  5
11AF
330
1191
100
AcDbEntity
  8
0
100
AcDbLine
 10
19.98943351399745
 20
0.0
 30
0.0
 11
30.01056648600256
 21
0.0
 31
0.0
  0
LINE
  5
11B0
330
1191
100
AcDbEntity
  8
0
100
AcDbLine
 10
-10.01056648600259
 20
0.0
 30
0.0
 11
10.01056648600255
 21
0.0
 31
0.0
  0
LINE
  5
11B1
330
1191
100
AcDbEntity
  8
0
100
AcDbLine
 10
-30.01056648600259
 20
0.0
 30
0.0
 11
-19.98943351399748
 21
0.0
 31
0.0
  0
LINE
  5
11B2
330
1191
100
AcDbEntity
  8
0
100
AcDbLine
 10
-45.01767776087198
 20
0.0
 30
0.0
 11
-34.98943351399745
 21
0.0
 31
0.0
  0
LINE
  5
11B3
330
1191
100
AcDbEntity
  8
0
100
AcDbLine
 10
51.49999999999999
 20
56.26437943888952
 30
0.0
 11
51.49999999999997
 21
82.00306627385993
 31
0.0
  0
LINE
  5
11B4
330
1191
100
AcDbEntity
  8
0
100
AcDbLine
 10
-51.49999999999997
 20
82.00306627385996
 30
0.0
 11
-51.50000000000002
 21
56.26437943888955
 31
0.0
  0
LINE
  5
11B5
330
1191
100
AcDbEntity
  8
0
100
AcDbLine
 10
-50.0
 20
82.00306627385996
 30
0.0
 11
-50.0
 21
56.26437943888955
 31
0.0
  0
LINE
  5
11B6
330
1191
100
AcDbEntity
  8
0
100
AcDbLine
 10
-49.40000000000001
 20
55.8401153701776
 30
0.0
 11
49.39999999999999
 21
55.84011537017758
 31
0.0
  0
LINE
  5
11B7
330
1191
100
AcDbEntity
  8
0
100
AcDbLine
 10
50.0
 20
56.26437943888952
 30
0.0
 11
50.0
 21
82.00306627385993
 31
0.0
  0
LINE
  5
11B8
330
1191
100
AcDbEntity
  8
0
100
AcDbLine
 10
-49.40000000000001
 20
54.77945519839778
 30
0.0
 11
49.39999999999999
 21
54.77945519839777
 31
0.0
  0
LINE
  5
11B9
330
1191
100
AcDbEntity
  8
0
100
AcDbLine
 10
34.98943351399742
 20
0.0
 30
0.0
 11
30.01056648600256
 21
0.0
 31
0.0
  0
LINE
  5
11BA
330
1191
100
AcDbEntity
  8
0
100
AcDbLine
 10
-30.01056648600259
 20
0.0
 30
0.0
 11
-34.98943351399745
 21
0.0
 31
0.0
  0
SPLINE
  5
11BB
330
1191
100
AcDbEntity
  8
0
100
AcDbSpline
210
0.0
220
0.0
230
1.0
 70
     8
 71
     3
 72
     8
 73
     4
 74
     0
 42
0.000000001
 43
0.0000000001
 40
0.0
 40
0.0
 40
0.0
 40
0.0
 40
1.0
 40
1.0
 40
1.0
 40
1.0
 10
-30.08171008039236
 20
0.6150757595082688
 30
0.0
 10
-30.00810027697977
 20
0.235840940396814
 30
0.0
 10
-29.9839051635604
 20
0.0000000000000186
 30
0.0
 10
-30.01056648600259
 20
0.0000000000000186
 30
0.0
  0
SPLINE
  5
11BC
330
1191
100
AcDbEntity
  8
0
100
AcDbSpline
210
0.0
220
0.0
230
1.0
 70
     8
 71
     3
 72
     8
 73
     4
 74
     0
 42
0.000000001
 43
0.0000000001
 40
0.0
 40
0.0
 40
0.0
 40
0.0
 40
1.0
 40
1.0
 40
1.0
 40
1.0
 10
30.01056648600258
 20
0.0000000000000053
 30
0.0
 10
29.98390516356052
 20
0.0000000000000054
 30
0.0
 10
30.00810027698002
 20
0.235840940396972
 30
0.0
 10
30.08171008039236
 20
0.6150757595082581
 30
0.0
  0
ELLIPSE
  5
11BD
330
1191
100
AcDbEntity
  8
0
100
AcDbEllipse
 10
-32.50000000000002
 20
0.1668158657390018
 30
0.0
 11
-2.5
 21
0.000000000000001
 31
0.0
210
0.0
220
0.0
230
1.0
 40
0.7071067811865472
 41
3.397965980608241
 42
6.026811980161136
  0
SPLINE
  5
11BE
330
1191
100
AcDbEntity
  8
0
100
AcDbSpline
210
0.0
220
0.0
230
1.0
 70
     8
 71
     3
 72
     8
 73
     4
 74
     0
 42
0.000000001
 43
0.0000000001
 40
0.0
 40
0.0
 40
0.0
 40
0.0
 40
1.0
 40
1.0
 40
1.0
 40
1.0
 10
-34.98943351399745
 20
0.0000000000000197
 30
0.0
 10
-35.01609483643911
 20
0.0000000000000196
 30
0.0
 10
-34.99189972302045
 20
0.2358409403969599
 30
0.0
 10
-34.91828991960765
 20
0.6150757595082725
 30
0.0
  0
LINE
  5
11BF
330
1191
100
AcDbEntity
  8
0
100
AcDbLine
 10
-34.98943351399745
 20
0.180517026538172
 30
0.0
 11
-34.98943351399745
 21
0.0
 31
0.0
  0
LINE
  5
11C0
330
1191
100
AcDbEntity
  8
0
100
AcDbLine
 10
-30.01056648600259
 20
0.1805170265382192
 30
0.0
 11
-30.01056648600259
 21
0.0
 31
0.0
  0
LINE
  5
11C1
330
1191
100
AcDbEntity
  8
0
100
AcDbLine
 10
-34.14171865077714
 20
1.500000000000011
 30
0.0
 11
-30.8582813492229
 21
1.50000000000001
 31
0.0
  0
ELLIPSE
  5
11C2
330
1191
100
AcDbEntity
  8
0
100
AcDbEllipse
 10
32.5
 20
0.1668158657389845
 30
0.0
 11
-2.5
 21
0.0000000000000004
 31
0.0
210
0.0
220
0.0
230
1.0
 40
0.7071067811865474
 41
3.39796598060824
 42
6.026811980161135
  0
LINE
  5
11C3
330
1191
100
AcDbEntity
  8
0
100
AcDbLine
 10
30.01056648600256
 20
0.1805170265382436
 30
0.0
 11
30.01056648600256
 21
0.0
 31
0.0
  0
LINE
  5
11C4
330
1191
100
AcDbEntity
  8
0
100
AcDbLine
 10
34.98943351399742
 20
0.1805170265382808
 30
0.0
 11
34.98943351399742
 21
0.0
 31
0.0
  0
SPLINE
  5
11C5
330
1191
100
AcDbEntity
  8
0
100
AcDbSpline
210
0.0
220
0.0
230
1.0
 70
     8
 71
     3
 72
     8
 73
     4
 74
     0
 42
0.000000001
 43
0.0000000001
 40
0.0
 40
0.0
 40
0.0
 40
0.0
 40
1.0
 40
1.0
 40
1.0
 40
1.0
 10
34.9182899196077
 20
0.6150757595082544
 30
0.0
 10
34.99189972301838
 20
0.2358409403967741
 30
0.0
 10
35.01609483643939
 20
0.0000000000000042
 30
0.0
 10
34.9894335139974
 20
0.0000000000000042
 30
0.0
  0
LINE
  5
11C6
330
1191
100
AcDbEntity
  8
0
100
AcDbLine
 10
30.85828134922288
 20
1.499999999999996
 30
0.0
 11
34.14171865077711
 21
1.499999999999995
 31
0.0
  0
LINE
  5
11C7
330
1191
100
AcDbEntity
  8
0
100
AcDbLine
 10
19.98943351399745
 20
0.0
 30
0.0
 11
17.50000000000001
 21
0.0
 31
0.0
  0
LINE
  5
11C8
330
1191
100
AcDbEntity
  8
0
100
AcDbLine
 10
17.50000000000001
 20
0.0
 30
0.0
 11
12.49999999999998
 21
0.0
 31
0.0
  0
LINE
  5
11C9
330
1191
100
AcDbEntity
  8
0
100
AcDbLine
 10
12.49999999999998
 20
0.0
 30
0.0
 11
10.01056648600255
 21
0.0
 31
0.0
  0
LINE
  5
11CA
330
1191
100
AcDbEntity
  8
0
100
AcDbLine
 10
-10.01056648600259
 20
0.0
 30
0.0
 11
-12.50000000000001
 21
0.0
 31
0.0
  0
LINE
  5
11CB
330
1191
100
AcDbEntity
  8
0
100
AcDbLine
 10
-12.50000000000001
 20
0.0
 30
0.0
 11
-17.50000000000005
 21
0.0
 31
0.0
  0
LINE
  5
11CC
330
1191
100
AcDbEntity
  8
0
100
AcDbLine
 10
-17.50000000000005
 20
0.0
 30
0.0
 11
-19.98943351399748
 21
0.0
 31
0.0
  0
ELLIPSE
  5
11CD
330
1191
100
AcDbEntity
  8
0
100
AcDbEllipse
 10
-17.50000000000005
 20
0.1668158657389979
 30
0.0
 11
-2.5
 21
0.0000000000000004
 31
0.0
210
0.0
220
0.0
230
1.0
 40
0.7071067811865475
 41
4.712388980384689
 42
6.026811980161136
  0
LINE
  5
11CE
330
1191
100
AcDbEntity
  8
0
100
AcDbLine
 10
-17.50000000000005
 20
1.934582818705394
 30
0.0
 11
-12.50000000000001
 21
1.934582818705393
 31
0.0
  0
ELLIPSE
  5
11CF
330
1191
100
AcDbEntity
  8
0
100
AcDbEllipse
 10
-12.50000000000001
 20
0.1668158657389965
 30
0.0
 11
2.5
 21
-0.0000000000000006
 31
0.0
210
0.0
220
0.0
230
1.0
 40
0.7071067811865474
 41
0.2563733270184487
 42
1.570796326794896
  0
SPLINE
  5
11D0
330
1191
100
AcDbEntity
  8
0
100
AcDbSpline
210
0.0
220
0.0
230
1.0
 70
     8
 71
     3
 72
     8
 73
     4
 74
     0
 42
0.000000001
 43
0.0000000001
 40
0.0
 40
0.0
 40
0.0
 40
0.0
 40
1.0
 40
1.0
 40
1.0
 40
1.0
 10
-19.98943351399748
 20
0.0000000000000164
 30
0.0
 10
-20.01609483643895
 20
0.0000000000000164
 30
0.0
 10
-19.99189972301995
 20
0.2358409403969374
 30
0.0
 10
-19.91828991960769
 20
0.6150757595082666
 30
0.0
  0
LINE
  5
11D1
330
1191
100
AcDbEntity
  8
0
100
AcDbLine
 10
-19.98943351399748
 20
0.1805170265381578
 30
0.0
 11
-19.98943351399748
 21
0.0
 31
0.0
  0
LINE
  5
11D2
330
1191
100
AcDbEntity
  8
0
100
AcDbLine
 10
-10.01056648600259
 20
0.1805170265382339
 30
0.0
 11
-10.01056648600259
 21
0.0
 31
0.0
  0
SPLINE
  5
11D3
330
1191
100
AcDbEntity
  8
0
100
AcDbSpline
210
0.0
220
0.0
230
1.0
 70
     8
 71
     3
 72
     8
 73
     4
 74
     0
 42
0.000000001
 43
0.0000000001
 40
0.0
 40
0.0
 40
0.0
 40
0.0
 40
1.0
 40
1.0
 40
1.0
 40
1.0
 10
-10.08171008039238
 20
0.6150757595082644
 30
0.0
 10
-10.00810027698007
 20
0.2358409403970346
 30
0.0
 10
-9.983905163560532
 20
0.000000000000014
 30
0.0
 10
-10.01056648600259
 20
0.0000000000000142
 30
0.0
  0
LINE
  5
11D4
330
1191
100
AcDbEntity
  8
0
100
AcDbLine
 10
-12.50000000000001
 20
1.500000000000006
 30
0.0
 11
-10.8582813492229
 21
1.500000000000005
 31
0.0
  0
LINE
  5
11D5
330
1191
100
AcDbEntity
  8
0
100
AcDbLine
 10
-17.50000000000005
 20
1.500000000000008
 30
0.0
 11
-12.50000000000001
 21
1.500000000000007
 31
0.0
  0
LINE
  5
11D6
330
1191
100
AcDbEntity
  8
0
100
AcDbLine
 10
-19.14171865077717
 20
1.500000000000007
 30
0.0
 11
-17.50000000000005
 21
1.500000000000007
 31
0.0
  0
ELLIPSE
  5
11D7
330
1191
100
AcDbEntity
  8
0
100
AcDbEllipse
 10
12.49999999999998
 20
0.1668158657389895
 30
0.0
 11
-2.5
 21
0.0000000000000008
 31
0.0
210
0.0
220
0.0
230
1.0
 40
0.7071067811865474
 41
4.712388980384689
 42
6.026811980161137
  0
LINE
  5
11D8
330
1191
100
AcDbEntity
  8
0
100
AcDbLine
 10
12.49999999999998
 20
1.934582818705385
 30
0.0
 11
17.50000000000001
 21
1.934582818705384
 31
0.0
  0
ELLIPSE
  5
11D9
330
1191
100
AcDbEntity
  8
0
100
AcDbEllipse
 10
17.50000000000001
 20
0.1668158657389884
 30
0.0
 11
2.5
 21
-0.0000000000000006
 31
0.0
210
0.0
220
0.0
230
1.0
 40
0.7071067811865472
 41
0.2563733270184496
 42
1.570796326794896
  0
SPLINE
  5
11DA
330
1191
100
AcDbEntity
  8
0
100
AcDbSpline
210
0.0
220
0.0
230
1.0
 70
     8
 71
     3
 72
     8
 73
     4
 74
     0
 42
0.000000001
 43
0.0000000001
 40
0.0
 40
0.0
 40
0.0
 40
0.0
 40
1.0
 40
1.0
 40
1.0
 40
1.0
 10
10.01056648600256
 20
0.0000000000000097
 30
0.0
 10
9.983905163560503
 20
0.0000000000000096
 30
0.0
 10
10.00810027697994
 20
0.2358409403970171
 30
0.0
 10
10.08171008039234
 20
0.6150757595082599
 30
0.0
  0
LINE
  5
11DB
330
1191
100
AcDbEntity
  8
0
100
AcDbLine
 10
10.01056648600255
 20
0.1805170265382363
 30
0.0
 11
10.01056648600255
 21
0.0
 31
0.0
  0
LINE
  5
11DC
330
1191
100
AcDbEntity
  8
0
100
AcDbLine
 10
19.98943351399745
 20
0.1805170265382344
 30
0.0
 11
19.98943351399745
 21
0.0
 31
0.0
  0
SPLINE
  5
11DD
330
1191
100
AcDbEntity
  8
0
100
AcDbSpline
210
0.0
220
0.0
230
1.0
 70
     8
 71
     3
 72
     8
 73
     4
 74
     0
 42
0.000000001
 43
0.0000000001
 40
0.0
 40
0.0
 40
0.0
 40
0.0
 40
1.0
 40
1.0
 40
1.0
 40
1.0
 10
19.91828991960765
 20
0.6150757595082567
 30
0.0
 10
19.99189972302051
 20
0.2358409403969405
 30
0.0
 10
20.0160948364395
 20
0.0000000000000075
 30
0.0
 10
19.98943351399744
 20
0.0000000000000075
 30
0.0
  0
LINE
  5
11DE
330
1191
100
AcDbEntity
  8
0
100
AcDbLine
 10
17.50000000000001
 20
1.499999999999999
 30
0.0
 11
19.14171865077713
 21
1.499999999999999
 31
0.0
  0
LINE
  5
11DF
330
1191
100
AcDbEntity
  8
0
100
AcDbLine
 10
12.49999999999998
 20
1.5
 30
0.0
 11
17.50000000000001
 21
1.499999999999998
 31
0.0
  0
LINE
  5
11E0
330
1191
100
AcDbEntity
  8
0
100
AcDbLine
 10
10.85828134922286
 20
1.500000000000001
 30
0.0
 11
12.49999999999998
 21
1.5
 31
0.0
  0
LINE
  5
11E1
330
1191
100
AcDbEntity
  8
0
100
AcDbLine
 10
51.49999999999999
 20
2.099999999999961
 30
0.0
 11
51.5
 21
4.362741700911215
 31
0.0
  0
LINE
  5
11E2
330
1191
100
AcDbEntity
  8
0
100
AcDbLine
 10
-51.50000000000002
 20
4.362741700911255
 30
0.0
 11
-51.50000000000002
 21
2.100000000000002
 31
0.0
  0
LINE
  5
11E3
330
1191
100
AcDbEntity
  8
0
100
AcDbLine
 10
50.0
 20
82.00306627385993
 30
0.0
 11
51.49999999999997
 21
82.00306627385993
 31
0.0
  0
LINE
  5
11E4
330
1191
100
AcDbEntity
  8
0
100
AcDbLine
 10
-51.49999999999997
 20
82.00306627385996
 30
0.0
 11
-50.0
 21
82.00306627385996
 31
0.0
  0
LINE
  5
11E5
330
1191
100
AcDbEntity
  8
0
100
AcDbLine
 10
51.49999999999999
 20
56.26437943888952
 30
0.0
 11
51.5
 21
4.362741700911216
 31
0.0
  0
ELLIPSE
  5
11E6
330
1191
100
AcDbEntity
  8
0
100
AcDbEllipse
 10
49.39999999999999
 20
56.26437943888955
 30
0.0
 11
0.6000000000000087
 21
-0.0000000000000612
 31
0.0
210
0.0
220
0.0
230
1.0
 40
0.7071067811866661
 41
4.712388980384954
 42
6.283185307179342
  0
ELLIPSE
  5
11E7
330
1191
100
AcDbEntity
  8
0
100
AcDbEllipse
 10
49.39999999999999
 20
56.26437943888955
 30
0.0
 11
2.100000000000031
 21
-0.0000000000003202
 31
0.0
210
0.0
220
0.0
230
1.0
 40
0.7071067811865516
 41
4.712388980384615
 42
6.283185307179203
  0
LINE
  5
11E8
330
1191
100
AcDbEntity
  8
0
100
AcDbLine
 10
-51.50000000000004
 20
4.362741700911257
 30
0.0
 11
-51.50000000000002
 21
56.26437943888955
 31
0.0
  0
ELLIPSE
  5
11E9
330
1191
100
AcDbEntity
  8
0
100
AcDbEllipse
 10
-49.40000000000001
 20
56.26437943888956
 30
0.0
 11
-2.100000000000031
 21
-0.0000000000000051
 31
0.0
210
0.0
220
0.0
230
1.0
 40
0.707106781186429
 41
0.0
 42
1.570796326794894
  0
ELLIPSE
  5
11EA
330
1191
100
AcDbEntity
  8
0
100
AcDbEllipse
 10
-49.40000000000001
 20
56.26437943888956
 30
0.0
 11
-0.6000000000000087
 21
-0.0000000000000087
 31
0.0
210
0.0
220
0.0
230
1.0
 40
0.7071067811865445
 41
0.0000000000000003
 42
1.570796326794886
  0
ARC
  5
11EB
330
1191
100
AcDbEntity
  8
0
100
AcDbCircle
 10
49.39999999999998
 20
2.099999999999988
 30
0.0
 40
0.600000000000005
100
AcDbArc
 50
270.0
 51
343.4444348564558
  0
ARC
  5
11EC
330
1191
100
AcDbEntity
  8
0
100
AcDbCircle
 10
49.39999999999998
 20
2.099999999999988
 30
0.0
 40
2.100000000000008
100
AcDbArc
 50
343.3984504009798
 51
0.0
  0
ARC
  5
11ED
330
1191
100
AcDbEntity
  8
0
100
AcDbCircle
 10
-49.40000000000002
 20
2.10000000000001
 30
0.0
 40
0.5999999999999962
100
AcDbArc
 50
196.5555651435442
 51
270.0
  0
ARC
  5
11EE
330
1191
100
AcDbEntity
  8
0
100
AcDbCircle
 10
-49.40000000000002
 20
2.10000000000001
 30
0.0
 40
2.099999999999999
100
AcDbArc
 50
180.0
 51
196.60154959902
  0
ENDBLK
  5
1193
330
1191
100
AcDbEntity
  8
0
100
AcDbBlockEnd
  0
BLOCK
  5
11F0
330
11EF
100
AcDbEntity
  8
0
100
AcDbBlockBegin
  2
SPR100_200-ISO
 70
     0
 10
0.0
 20
0.0
 30
0.0
  3
SPR100_200-ISO
  1

  0
LINE
  5
11F2
330
11EF
100
AcDbEntity
  8
0
100
AcDbLine
 10
93.35594368192348
 20
-75.73383247081557
 30
0.0
 11
89.82040977599073
 21
-77.7750739231349
 31
0.0
  0
LINE
  5
11F3
330
11EF
100
AcDbEntity
  8
0
100
AcDbLine
 10
94.4166038537033
 20
-75.12146003511978
 30
0.0
 11
93.35594368192348
 21
-75.73383247081557
 31
0.0
  0
LINE
  5
11F4
330
11EF
100
AcDbEntity
  8
0
100
AcDbLine
 10
93.35594368192348
 20
-21.84505812958564
 30
0.0
 11
94.4166038537033
 21
-21.23268569388984
 31
0.0
  0
LINE
  5
11F5
330
11EF
100
AcDbEntity
  8
0
100
AcDbLine
 10
94.4166038537033
 20
-21.23268569388984
 30
0.0
 11
90.88106994777055
 21
-15.10896133693189
 31
0.0
  0
LINE
  5
11F6
330
11EF
100
AcDbEntity
  8
0
100
AcDbLine
 10
-33.96158877043359
 20
-6.309503741526962
 30
0.0
 11
-37.49712267636633
 21
-0.1857793845690203
 31
0.0
  0
LINE
  5
11F7
330
11EF
100
AcDbEntity
  8
0
100
AcDbLine
 10
89.82040977599073
 20
-15.72133377262769
 30
0.0
 11
93.35594368192348
 21
-21.84505812958564
 31
0.0
  0
LINE
  5
11F8
330
11EF
100
AcDbEntity
  8
0
100
AcDbLine
 10
90.88106994777055
 20
-15.10896133693189
 30
0.0
 11
89.82040977599073
 21
-15.72133377262769
 31
0.0
  0
LINE
  5
11F9
330
11EF
100
AcDbEntity
  8
0
100
AcDbLine
 10
94.4166038537033
 20
-21.23268569388984
 30
0.0
 11
94.4166038537033
 21
-75.12146003511978
 31
0.0
  0
LINE
  5
11FA
330
11EF
100
AcDbEntity
  8
0
100
AcDbLine
 10
93.35594368192348
 20
-21.84505812958564
 30
0.0
 11
93.35594368192348
 21
-75.73383247081557
 31
0.0
  0
LINE
  5
11FB
330
11EF
100
AcDbEntity
  8
0
100
AcDbLine
 10
-8.486588728328658
 20
42.26098314845682
 30
0.0
 11
-3.890394650616073
 21
39.6073692604417
 31
0.0
  0
LINE
  5
11FC
330
11EF
100
AcDbEntity
  8
0
100
AcDbLine
 10
63.28474956210595
 20
0.823781666374721
 30
0.0
 11
90.88106994777055
 21
-15.10896133693189
 31
0.0
  0
LINE
  5
11FD
330
11EF
100
AcDbEntity
  8
0
100
AcDbLine
 10
-37.49712267636633
 20
-0.1857793845690203
 30
0.0
 11
-37.49712267636633
 21
30.02459410975685
 31
0.0
  0
LINE
  5
11FE
330
11EF
100
AcDbEntity
  8
0
100
AcDbLine
 10
62.22408939032614
 20
0.2114092306789139
 30
0.0
 11
89.82040977599073
 21
-15.72133377262769
 31
0.0
  0
LINE
  5
11FF
330
11EF
100
AcDbEntity
  8
0
100
AcDbLine
 10
-4.951054822395897
 20
-23.05874332576131
 30
0.0
 11
-33.96158877043359
 21
-6.309503741526962
 31
0.0
  0
LINE
  5
1200
330
11EF
100
AcDbEntity
  8
0
100
AcDbLine
 10
89.82040977599073
 20
-77.7750739231349
 30
0.0
 11
60.80987582795303
 21
-61.02583433890057
 31
0.0
  0
LINE
  5
1201
330
11EF
100
AcDbEntity
  8
0
100
AcDbLine
 10
-9.547248900108474
 20
41.64861071276103
 30
0.0
 11
-4.951054822395897
 21
38.99499682474591
 31
0.0
  0
LINE
  5
1202
330
11EF
100
AcDbEntity
  8
0
100
AcDbLine
 10
-3.890394650616073
 20
39.6073692604417
 30
0.0
 11
-4.951054822395897
 21
38.99499682474591
 31
0.0
  0
ELLIPSE
  5
1203
330
11EF
100
AcDbEntity
  8
0
100
AcDbEllipse
 10
-4.951054822395897
 20
40.2197416961375
 30
0.0
 11
0.7500000000000004
 21
-1.299038105676658
 31
0.0
210
0.0
220
0.0
230
0.9999999999999998
 40
0.577350269189626
 41
5.497787143782137
 42
8.63937979737193
  0
ELLIPSE
  5
1204
330
11EF
100
AcDbEntity
  8
0
100
AcDbEllipse
 10
57.27434192202031
 20
96.14975748968673
 30
0.0
 11
1.250000000000129
 21
-2.165063509461022
 31
0.0
210
0.0
220
0.0
230
1.0
 40
0.577350269189626
 41
3.579741684173544
 42
4.454997905016229
  0
ELLIPSE
  5
1205
330
11EF
100
AcDbEntity
  8
0
100
AcDbEllipse
 10
57.27434192202029
 20
-1.829832221640419
 30
0.0
 11
1.25
 21
-2.165063509461097
 31
0.0
210
0.0
220
0.0
230
1.0
 40
0.5773502691896259
 41
4.999145532596243
 42
5.845036276595414
  0
ELLIPSE
  5
1206
330
11EF
100
AcDbEntity
  8
0
100
AcDbEllipse
 10
56.21368175024048
 20
95.53738505399094
 30
0.0
 11
-1.25
 21
2.165063509461096
 31
0.0
210
0.0
220
0.0
230
1.0
 40
0.5773502691896259
 41
4.969780055752957
 42
7.59659055860623
  0
ELLIPSE
  5
1207
330
11EF
100
AcDbEntity
  8
0
100
AcDbEllipse
 10
56.21368175024047
 20
-2.442204657336217
 30
0.0
 11
1.25
 21
-2.165063509461097
 31
0.0
210
0.0
220
0.0
230
1.0
 40
0.5773502691896259
 41
4.999145532596247
 42
7.567225081762932
  0
ELLIPSE
  5
1208
330
11EF
100
AcDbEntity
  8
0
100
AcDbEllipse
 10
57.27434192202029
 20
-34.48969545874947
 30
0.0
 11
1.250000000000129
 21
-2.165063509461022
 31
0.0
210
0.0
220
0.0
230
1.0
 40
0.577350269189626
 41
3.579741684173548
 42
5.845036276594999
  0
ELLIPSE
  5
1209
330
11EF
100
AcDbEntity
  8
0
100
AcDbEllipse
 10
56.21368175024047
 20
-35.10206789444527
 30
0.0
 11
1.25
 21
-2.165063509461097
 31
0.0
210
0.0
220
0.0
230
1.0
 40
0.5773502691896259
 41
0.0
 42
6.283185307179586
  0
ELLIPSE
  5
120A
330
11EF
100
AcDbEntity
  8
0
100
AcDbEllipse
 10
50.20327411015482
 20
-14.07728093555631
 30
0.0
 11
1.250000000000129
 21
-2.165063509461022
 31
0.0
210
0.0
220
0.0
230
1.0
 40
0.577350269189626
 41
3.579741684173546
 42
5.845036276594998
  0
ELLIPSE
  5
120B
330
11EF
100
AcDbEntity
  8
0
100
AcDbEllipse
 10
49.14261393837499
 20
-14.68965337125211
 30
0.0
 11
1.25
 21
-2.165063509461097
 31
0.0
210
0.0
220
0.0
230
1.0
 40
0.5773502691896259
 41
0.0
 42
6.283185307179586
  0
ELLIPSE
  5
120C
330
11EF
100
AcDbEntity
  8
0
100
AcDbEllipse
 10
50.20327411015482
 20
-46.73714417266537
 30
0.0
 11
1.250000000000129
 21
-2.165063509461022
 31
0.0
210
0.0
220
0.0
230
1.0
 40
0.5773502691896259
 41
3.579741684173546
 42
5.845036276594999
  0
ELLIPSE
  5
120D
330
11EF
100
AcDbEntity
  8
0
100
AcDbEllipse
 10
49.14261393837499
 20
-47.34951660836117
 30
0.0
 11
1.25
 21
-2.165063509461097
 31
0.0
210
0.0
220
0.0
230
1.0
 40
0.5773502691896259
 41
0.0
 42
6.283185307179586
  0
ELLIPSE
  5
120E
330
11EF
100
AcDbEntity
  8
0
100
AcDbEllipse
 10
7.776867238961968
 20
124.7271378221571
 30
0.0
 11
1.250000000000129
 21
-2.165063509461022
 31
0.0
210
0.0
220
0.0
230
1.0
 40
0.577350269189626
 41
3.579741684173546
 42
5.845036276595001
  0
ELLIPSE
  5
120F
330
11EF
100
AcDbEntity
  8
0
100
AcDbEllipse
 10
7.776867238961968
 20
92.0672745850481
 30
0.0
 11
1.250000000000129
 21
-2.165063509461022
 31
0.0
210
0.0
220
0.0
230
1.0
 40
0.577350269189626
 41
3.579741684173546
 42
5.845036276594998
  0
ELLIPSE
  5
1210
330
11EF
100
AcDbEntity
  8
0
100
AcDbEllipse
 10
7.776867238961968
 20
59.40741134793904
 30
0.0
 11
1.250000000000129
 21
-2.165063509461022
 31
0.0
210
0.0
220
0.0
230
1.0
 40
0.577350269189626
 41
3.579741684173546
 42
5.845036276594998
  0
ELLIPSE
  5
1211
330
11EF
100
AcDbEntity
  8
0
100
AcDbEllipse
 10
7.776867238961964
 20
26.74754811083
 30
0.0
 11
1.250000000000129
 21
-2.165063509461022
 31
0.0
210
0.0
220
0.0
230
1.0
 40
0.577350269189626
 41
3.579741684173546
 42
5.845036276594996
  0
ELLIPSE
  5
1212
330
11EF
100
AcDbEntity
  8
0
100
AcDbEllipse
 10
6.716207067182144
 20
124.1147653864613
 30
0.0
 11
1.25
 21
-2.165063509461097
 31
0.0
210
0.0
220
0.0
230
1.0
 40
0.5773502691896259
 41
0.0
 42
6.283185307179586
  0
ELLIPSE
  5
1213
330
11EF
100
AcDbEntity
  8
0
100
AcDbEllipse
 10
6.716207067182144
 20
91.45490214935229
 30
0.0
 11
1.25
 21
-2.165063509461097
 31
0.0
210
0.0
220
0.0
230
1.0
 40
0.5773502691896259
 41
0.0
 42
6.283185307179586
  0
ELLIPSE
  5
1214
330
11EF
100
AcDbEntity
  8
0
100
AcDbEllipse
 10
6.716207067182144
 20
58.79503891224324
 30
0.0
 11
1.25
 21
-2.165063509461097
 31
0.0
210
0.0
220
0.0
230
1.0
 40
0.5773502691896259
 41
0.0
 42
6.283185307179586
  0
ELLIPSE
  5
1215
330
11EF
100
AcDbEntity
  8
0
100
AcDbEllipse
 10
6.71620706718214
 20
26.1351756751342
 30
0.0
 11
1.25
 21
-2.165063509461097
 31
0.0
210
0.0
220
0.0
230
1.0
 40
0.5773502691896259
 41
0.0
 42
6.283185307179586
  0
ELLIPSE
  5
1216
330
11EF
100
AcDbEntity
  8
0
100
AcDbEllipse
 10
7.776867238961964
 20
-5.91231512627905
 30
0.0
 11
1.250000000000129
 21
-2.165063509461022
 31
0.0
210
0.0
220
0.0
230
1.0
 40
0.577350269189626
 41
3.579741684173548
 42
5.845036276594997
  0
ELLIPSE
  5
1217
330
11EF
100
AcDbEntity
  8
0
100
AcDbEllipse
 10
6.71620706718214
 20
-6.524687561974849
 30
0.0
 11
1.25
 21
-2.165063509461097
 31
0.0
210
0.0
220
0.0
230
1.0
 40
0.5773502691896259
 41
0.0
 42
6.283185307179586
  0
ELLIPSE
  5
1218
330
11EF
100
AcDbEntity
  8
0
100
AcDbEllipse
 10
0.7057994270964896
 20
112.4796891082412
 30
0.0
 11
1.250000000000129
 21
-2.165063509461022
 31
0.0
210
0.0
220
0.0
230
0.9999999999999998
 40
0.5773502691896259
 41
3.579741684173546
 42
5.845036276595002
  0
ELLIPSE
  5
1219
330
11EF
100
AcDbEntity
  8
0
100
AcDbEllipse
 10
0.7057994270964896
 20
79.81982587113221
 30
0.0
 11
1.250000000000129
 21
-2.165063509461022
 31
0.0
210
0.0
220
0.0
230
0.9999999999999998
 40
0.5773502691896259
 41
3.579741684173546
 42
5.845036276594999
  0
ELLIPSE
  5
121A
330
11EF
100
AcDbEntity
  8
0
100
AcDbEllipse
 10
0.7057994270964896
 20
47.15996263402316
 30
0.0
 11
1.250000000000129
 21
-2.165063509461022
 31
0.0
210
0.0
220
0.0
230
0.9999999999999998
 40
0.5773502691896259
 41
3.579741684173546
 42
5.845036276594999
  0
ELLIPSE
  5
121B
330
11EF
100
AcDbEntity
  8
0
100
AcDbEllipse
 10
0.7057994270964852
 20
14.5000993969141
 30
0.0
 11
1.250000000000129
 21
-2.165063509461022
 31
0.0
210
0.0
220
0.0
230
0.9999999999999998
 40
0.5773502691896259
 41
3.579741684173546
 42
5.845036276594997
  0
ELLIPSE
  5
121C
330
11EF
100
AcDbEntity
  8
0
100
AcDbEllipse
 10
-0.3548607446833341
 20
111.8673166725454
 30
0.0
 11
1.25
 21
-2.165063509461097
 31
0.0
210
0.0
220
0.0
230
1.0
 40
0.5773502691896259
 41
0.0
 42
6.283185307179586
  0
ELLIPSE
  5
121D
330
11EF
100
AcDbEntity
  8
0
100
AcDbEllipse
 10
-0.3548607446833341
 20
79.20745343543642
 30
0.0
 11
1.25
 21
-2.165063509461097
 31
0.0
210
0.0
220
0.0
230
1.0
 40
0.5773502691896259
 41
0.0
 42
6.283185307179586
  0
ELLIPSE
  5
121E
330
11EF
100
AcDbEntity
  8
0
100
AcDbEllipse
 10
-0.3548607446833341
 20
46.54759019832737
 30
0.0
 11
1.25
 21
-2.165063509461097
 31
0.0
210
0.0
220
0.0
230
1.0
 40
0.5773502691896259
 41
0.0
 42
6.283185307179586
  0
ELLIPSE
  5
121F
330
11EF
100
AcDbEntity
  8
0
100
AcDbEllipse
 10
-0.3548607446833385
 20
13.8877269612183
 30
0.0
 11
1.25
 21
-2.165063509461097
 31
0.0
210
0.0
220
0.0
230
1.0
 40
0.5773502691896259
 41
0.0
 42
6.283185307179586
  0
ELLIPSE
  5
1220
330
11EF
100
AcDbEntity
  8
0
100
AcDbEllipse
 10
0.7057994270964852
 20
-18.15976384019494
 30
0.0
 11
1.250000000000129
 21
-2.165063509461022
 31
0.0
210
0.0
220
0.0
230
1.0
 40
0.577350269189626
 41
3.579741684173546
 42
5.845036276594998
  0
ELLIPSE
  5
1221
330
11EF
100
AcDbEntity
  8
0
100
AcDbEllipse
 10
-0.3548607446833385
 20
-18.77213627589074
 30
0.0
 11
1.25
 21
-2.165063509461097
 31
0.0
210
0.0
220
0.0
230
1.0
 40
0.5773502691896259
 41
0.0
 42
6.283185307179586
  0
ELLIPSE
  5
1222
330
11EF
100
AcDbEntity
  8
0
100
AcDbEllipse
 10
-15.57681245958335
 20
40.23080137135344
 30
0.0
 11
1.25
 21
-2.165063509461097
 31
0.0
210
0.0
220
0.0
230
1.0
 40
0.5773502691896259
 41
5.508682942395983
 42
5.845036276595415
  0
ELLIPSE
  5
1223
330
11EF
100
AcDbEntity
  8
0
100
AcDbEllipse
 10
69.31431312158084
 20
-8.781112834742042
 30
0.0
 11
1.250000000000129
 21
-2.165063509461022
 31
0.0
210
0.0
220
0.0
230
0.9999999999999998
 40
0.5773502691896259
 41
3.579741684173546
 42
5.845036276594997
  0
ELLIPSE
  5
1224
330
11EF
100
AcDbEntity
  8
0
100
AcDbEllipse
 10
-16.63747263136317
 20
39.61842893565762
 30
0.0
 11
1.25
 21
-2.165063509461097
 31
0.0
210
0.0
220
0.0
230
0.9999999999999998
 40
0.5773502691896259
 41
5.508682942395983
 42
7.057687671963188
  0
ELLIPSE
  5
1225
330
11EF
100
AcDbEntity
  8
0
100
AcDbEllipse
 10
68.25365294980102
 20
-9.393485270437839
 30
0.0
 11
1.25
 21
-2.165063509461097
 31
0.0
210
0.0
220
0.0
230
1.0
 40
0.5773502691896259
 41
0.0
 42
6.283185307179586
  0
ELLIPSE
  5
1226
330
11EF
100
AcDbEntity
  8
0
100
AcDbEllipse
 10
-11.33417177246405
 20
5.121448391461198
 30
0.0
 11
1.250000000000129
 21
-2.165063509461022
 31
0.0
210
0.0
220
0.0
230
0.9999999999999998
 40
0.577350269189626
 41
3.579741684173548
 42
5.845036276594998
  0
ELLIPSE
  5
1227
330
11EF
100
AcDbEntity
  8
0
100
AcDbEllipse
 10
73.55695380870014
 20
-43.89046581463427
 30
0.0
 11
1.250000000000129
 21
-2.165063509461022
 31
0.0
210
0.0
220
0.0
230
0.9999999999999998
 40
0.577350269189626
 41
3.579741684173546
 42
5.845036276594998
  0
ELLIPSE
  5
1228
330
11EF
100
AcDbEntity
  8
0
100
AcDbEllipse
 10
-12.39483194424388
 20
4.5090759557654
 30
0.0
 11
1.25
 21
-2.165063509461097
 31
0.0
210
0.0
220
0.0
230
1.0
 40
0.5773502691896259
 41
0.0
 42
6.283185307179586
  0
ELLIPSE
  5
1229
330
11EF
100
AcDbEntity
  8
0
100
AcDbEllipse
 10
72.49629363692031
 20
-44.50283825033007
 30
0.0
 11
1.25
 21
-2.165063509461097
 31
0.0
210
0.0
220
0.0
230
1.0
 40
0.5773502691896259
 41
0.0
 42
6.283185307179586
  0
ELLIPSE
  5
122A
330
11EF
100
AcDbEntity
  8
0
100
AcDbEllipse
 10
51.97104106312121
 20
-55.92273070810226
 30
0.0
 11
1.250000000000129
 21
-2.165063509461022
 31
0.0
210
0.0
220
0.0
230
0.9999999999999998
 40
0.5773502691896259
 41
3.579741684173544
 42
3.835017178248603
  0
ELLIPSE
  5
122B
330
11EF
100
AcDbEntity
  8
0
100
AcDbEllipse
 10
6.009100285995598
 20
-29.38659182795117
 30
0.0
 11
1.25000000000013
 21
-2.165063509461022
 31
0.0
210
0.0
220
0.0
230
1.0
 40
0.5773502691896258
 41
3.579741684173546
 42
3.835017178248603
  0
SPLINE
  5
122C
330
11EF
100
AcDbEntity
  8
0
100
AcDbSpline
210
0.0
220
0.0
230
1.0
 70
     8
 71
     3
 72
     8
 73
     4
 74
     0
 42
0.000000001
 43
0.0000000001
 40
0.0
 40
0.0
 40
0.0
 40
0.0
 40
1.0
 40
1.0
 40
1.0
 40
1.0
 10
50.21074574406057
 20
-54.71894790332711
 30
0.0
 10
50.1918933421664
 20
-55.1588487579778
 30
0.0
 10
50.04223714270079
 20
-55.71701437057329
 30
0.0
 10
49.82612762159981
 20
-56.21153134673742
 30
0.0
  0
ELLIPSE
  5
122D
330
11EF
100
AcDbEntity
  8
0
100
AcDbEllipse
 10
5.141143656122064
 20
-29.68063848427544
 30
0.0
 11
-1.249999999999998
 21
-2.165063509461097
 31
0.0
210
0.0
220
0.0
230
1.0
 40
0.8164965809277262
 41
4.968762307403139
 42
7.597608306956032
  0
ELLIPSE
  5
122E
330
11EF
100
AcDbEntity
  8
0
100
AcDbEllipse
 10
51.10308443324767
 20
-56.21677736442655
 30
0.0
 11
-1.249999999999998
 21
-2.165063509461098
 31
0.0
210
0.0
220
0.0
230
0.9999999999999998
 40
0.8164965809277259
 41
4.96876230740314
 42
7.597608306956036
  0
SPLINE
  5
122F
330
11EF
100
AcDbEntity
  8
0
100
AcDbSpline
210
0.0
220
0.0
230
1.0
 70
     8
 71
     3
 72
     8
 73
     4
 74
     0
 42
0.000000001
 43
0.0000000001
 40
-1.0
 40
-1.0
 40
-1.0
 40
-1.0
 40
0.0
 40
0.0
 40
0.0
 40
0.0
 10
49.07612762159981
 20
-55.77851864484521
 30
0.0
 10
49.10069463394676
 20
-55.61576302565225
 30
0.0
 10
49.13123317038657
 20
-55.44923169798849
 30
0.0
 10
49.15008557228076
 20
-55.3313203390229
 30
0.0
  0
SPLINE
  5
1230
330
11EF
100
AcDbEntity
  8
0
100
AcDbSpline
210
0.0
220
0.0
230
1.0
 70
     8
 71
     3
 72
     8
 73
     4
 74
     0
 42
0.000000001
 43
0.0000000001
 40
-1.0
 40
-1.0
 40
-1.0
 40
-1.0
 40
0.0
 40
0.0
 40
0.0
 40
0.0
 10
6.708735433276404
 20
-30.8277954114976
 30
0.0
 10
6.727587835170676
 20
-30.96747564908017
 30
0.0
 10
6.662832241189979
 20
-31.11425174936176
 30
0.0
 10
6.534165246533478
 20
-31.21690521574573
 30
0.0
  0
ELLIPSE
  5
1231
330
11EF
100
AcDbEntity
  8
0
100
AcDbEllipse
 10
5.891143656122053
 20
-30.11365118616766
 30
0.0
 11
-1.249999999999998
 21
-2.165063509461098
 31
0.0
210
0.0
220
0.0
230
1.0
 40
0.8164965809277259
 41
4.968762307403135
 42
6.069429174707153
  0
LINE
  5
1232
330
11EF
100
AcDbEntity
  8
0
100
AcDbLine
 10
3.864186844474217
 20
-29.67539246658633
 30
0.0
 11
3.363936844576853
 21
-29.38657299448348
 31
0.0
  0
LINE
  5
1233
330
11EF
100
AcDbEntity
  8
0
100
AcDbLine
 10
3.363936844576853
 20
-29.38657299448348
 30
0.0
 11
3.114186844474216
 21
-29.24237976469411
 31
0.0
  0
LINE
  5
1234
330
11EF
100
AcDbEntity
  8
0
100
AcDbLine
 10
3.188144795155136
 20
-28.7951814588718
 30
0.0
 11
3.541344632730454
 21
-28.59126143756996
 31
0.0
  0
SPLINE
  5
1235
330
11EF
100
AcDbEntity
  8
0
100
AcDbSpline
210
0.0
220
0.0
230
1.0
 70
     8
 71
     3
 72
     8
 73
     4
 74
     0
 42
0.000000001
 43
0.0000000001
 40
-1.0
 40
-1.0
 40
-1.0
 40
-1.0
 40
0.0
 40
0.0
 40
0.0
 40
0.0
 10
3.114186844474207
 20
-29.2423797646941
 30
0.0
 10
3.13875385682083
 20
-29.07962414550096
 30
0.0
 10
3.169292393261229
 20
-28.91309281783753
 30
0.0
 10
3.188144795155132
 20
-28.7951814588718
 30
0.0
  0
SPLINE
  5
1236
330
11EF
100
AcDbEntity
  8
0
100
AcDbSpline
210
0.0
220
0.0
230
1.0
 70
     8
 71
     3
 72
     8
 73
     4
 74
     0
 42
0.000000001
 43
0.0000000001
 40
0.0
 40
0.0
 40
0.0
 40
0.0
 40
1.0
 40
1.0
 40
1.0
 40
1.0
 10
4.248804966934951
 20
-28.18280902317601
 30
0.0
 10
4.229952565041048
 20
-28.62270987782684
 30
0.0
 10
4.080296365574875
 20
-29.18087549042198
 30
0.0
 10
3.864186844474208
 20
-29.67539246658633
 30
0.0
  0
LINE
  5
1237
330
11EF
100
AcDbEntity
  8
0
100
AcDbLine
 10
3.541344632730454
 20
-28.59126143756996
 30
0.0
 11
4.248804966934955
 21
-28.18280902317601
 31
0.0
  0
ELLIPSE
  5
1238
330
11EF
100
AcDbEntity
  8
0
100
AcDbEllipse
 10
4.948440114215775
 20
-29.99896426364696
 30
0.0
 11
-1.25
 21
2.165063509461097
 31
0.0
210
0.0
220
0.0
230
1.0
 40
0.5773502691896259
 41
4.018964455725523
 42
6.976609831838752
  0
ELLIPSE
  5
1239
330
11EF
100
AcDbEntity
  8
0
100
AcDbEllipse
 10
51.85308443324766
 20
-56.64979006631875
 30
0.0
 11
-1.249999999999999
 21
-2.165063509461097
 31
0.0
210
0.0
220
0.0
230
1.0
 40
0.8164965809277262
 41
4.968762307403135
 42
6.069429174707154
  0
LINE
  5
123A
330
11EF
100
AcDbEntity
  8
0
100
AcDbLine
 10
49.8261276215998
 20
-56.21153134673742
 30
0.0
 11
49.32587762169905
 21
-55.92271187463261
 31
0.0
  0
LINE
  5
123B
330
11EF
100
AcDbEntity
  8
0
100
AcDbLine
 10
49.32587762169905
 20
-55.92271187463261
 30
0.0
 11
49.07612762159981
 21
-55.77851864484521
 31
0.0
  0
LINE
  5
123C
330
11EF
100
AcDbEntity
  8
0
100
AcDbLine
 10
49.15008557228073
 20
-55.3313203390229
 30
0.0
 11
49.50328540986759
 21
-55.12740031771442
 31
0.0
  0
LINE
  5
123D
330
11EF
100
AcDbEntity
  8
0
100
AcDbLine
 10
49.50328540986759
 20
-55.12740031771442
 30
0.0
 11
50.21074574406057
 21
-54.71894790332711
 31
0.0
  0
SPLINE
  5
123E
330
11EF
100
AcDbEntity
  8
0
100
AcDbSpline
210
0.0
220
0.0
230
1.0
 70
     8
 71
     3
 72
     8
 73
     4
 74
     0
 42
0.000000001
 43
0.0000000001
 40
-1.0
 40
-1.0
 40
-1.0
 40
-1.0
 40
0.0
 40
0.0
 40
0.0
 40
0.0
 10
52.67067621040199
 20
-57.3639342916487
 30
0.0
 10
52.68952861229613
 20
-57.50361452923119
 30
0.0
 10
52.62477301831427
 20
-57.6503906295121
 30
0.0
 10
52.49610602365912
 20
-57.75304409589685
 30
0.0
  0
ELLIPSE
  5
123F
330
11EF
100
AcDbEntity
  8
0
100
AcDbEllipse
 10
50.91038089134137
 20
-56.53510314379807
 30
0.0
 11
-1.25
 21
2.165063509461097
 31
0.0
210
0.0
220
0.0
230
1.0
 40
0.5773502691896259
 41
4.018964455725525
 42
6.97660983183875
  0
ELLIPSE
  5
1240
330
11EF
100
AcDbEntity
  8
0
100
AcDbEllipse
 10
37.82890543939025
 20
-47.757764898825
 30
0.0
 11
1.250000000000129
 21
-2.165063509461022
 31
0.0
210
0.0
220
0.0
230
0.9999999999999998
 40
0.5773502691896259
 41
3.579741684173546
 42
3.835017178248603
  0
ELLIPSE
  5
1241
330
11EF
100
AcDbEntity
  8
0
100
AcDbEllipse
 10
16.61570200379378
 20
-35.5103161849091
 30
0.0
 11
1.250000000000129
 21
-2.165063509461022
 31
0.0
210
0.0
220
0.0
230
0.9999999999999998
 40
0.5773502691896259
 41
3.579741684173546
 42
3.835017178248603
  0
ELLIPSE
  5
1242
330
11EF
100
AcDbEntity
  8
0
100
AcDbEllipse
 10
16.49774537392024
 20
-36.23737554312558
 30
0.0
 11
-1.249999999999999
 21
-2.165063509461099
 31
0.0
210
0.0
220
0.0
230
1.0
 40
0.8164965809277259
 41
4.968762307403139
 42
6.283185307179586
  0
LINE
  5
1243
330
11EF
100
AcDbEntity
  8
0
100
AcDbLine
 10
14.4707885622724
 20
-35.79911682354425
 30
0.0
 11
13.97053856237108
 21
-35.51029735143912
 31
0.0
  0
LINE
  5
1244
330
11EF
100
AcDbEntity
  8
0
100
AcDbLine
 10
13.97053856237108
 20
-35.51029735143912
 30
0.0
 11
13.7207885622724
 21
-35.36610412165204
 31
0.0
  0
ELLIPSE
  5
1245
330
11EF
100
AcDbEntity
  8
0
100
AcDbEllipse
 10
15.74774537392025
 20
-35.80436284123337
 30
0.0
 11
-1.249999999999999
 21
-2.165063509461097
 31
0.0
210
0.0
220
0.0
230
1.0
 40
0.8164965809277259
 41
4.968762307403139
 42
6.283185307179586
  0
LINE
  5
1246
330
11EF
100
AcDbEntity
  8
0
100
AcDbLine
 10
18.03327927985298
 20
-40.01066780301385
 30
0.0
 11
14.49774537392022
 21
-37.96942635069453
 31
0.0
  0
ELLIPSE
  5
1247
330
11EF
100
AcDbEntity
  8
0
100
AcDbEllipse
 10
19.28327927985301
 20
-37.8456042935527
 30
0.0
 11
-1.249999999999997
 21
-2.165063509461098
 31
0.0
210
0.0
220
0.0
230
0.9999999999999996
 40
0.816496580927726
 41
0.0
 42
1.314422999776449
  0
LINE
  5
1248
330
11EF
100
AcDbEntity
  8
0
100
AcDbLine
 10
13.79474651295332
 20
-34.91890581582973
 30
0.0
 11
14.14794635052303
 21
-34.71498579453113
 31
0.0
  0
SPLINE
  5
1249
330
11EF
100
AcDbEntity
  8
0
100
AcDbSpline
210
0.0
220
0.0
230
1.0
 70
     8
 71
     3
 72
     8
 73
     4
 74
     0
 42
0.000000001
 43
0.0000000001
 40
-1.0
 40
-1.0
 40
-1.0
 40
-1.0
 40
0.0
 40
0.0
 40
0.0
 40
0.0
 10
13.72078856227239
 20
-35.36610412165204
 30
0.0
 10
13.74535557461939
 20
-35.2033485024591
 30
0.0
 10
13.77589411105955
 20
-35.03681717479552
 30
0.0
 10
13.79474651295331
 20
-34.91890581582973
 30
0.0
  0
SPLINE
  5
124A
330
11EF
100
AcDbEntity
  8
0
100
AcDbSpline
210
0.0
220
0.0
230
1.0
 70
     8
 71
     3
 72
     8
 73
     4
 74
     0
 42
0.000000001
 43
0.0000000001
 40
0.0
 40
0.0
 40
0.0
 40
0.0
 40
1.0
 40
1.0
 40
1.0
 40
1.0
 10
14.85540668473313
 20
-34.30653338013395
 30
0.0
 10
14.83655428283937
 20
-34.74643423478478
 30
0.0
 10
14.68689808337345
 20
-35.3045998473801
 30
0.0
 10
14.47078856227239
 20
-35.79911682354425
 30
0.0
  0
LINE
  5
124B
330
11EF
100
AcDbEntity
  8
0
100
AcDbLine
 10
14.14794635052303
 20
-34.71498579453113
 30
0.0
 11
14.85540668473315
 21
-34.30653338013395
 31
0.0
  0
SPLINE
  5
124C
330
11EF
100
AcDbEntity
  8
0
100
AcDbSpline
210
0.0
220
0.0
230
1.0
 70
     8
 71
     3
 72
     8
 73
     4
 74
     0
 42
0.000000001
 43
0.0000000001
 40
-1.0
 40
-1.0
 40
-1.0
 40
-1.0
 40
0.0
 40
0.0
 40
0.0
 40
0.0
 10
20.85087105700736
 20
-38.99276122077487
 30
0.0
 10
20.86972345890154
 20
-39.13244145835739
 30
0.0
 10
20.80496786492068
 20
-39.27921755863899
 30
0.0
 10
20.67630087026442
 20
-39.38187102502298
 30
0.0
  0
ELLIPSE
  5
124D
330
11EF
100
AcDbEntity
  8
0
100
AcDbEllipse
 10
19.09057573794672
 20
-38.16393007292422
 30
0.0
 11
1.24999999999987
 21
-2.165063509461172
 31
0.0
210
0.0
220
0.0
230
1.0
 40
0.5773502691896258
 41
0.8773718021359471
 42
2.356194490192589
  0
LINE
  5
124E
330
11EF
100
AcDbEntity
  8
0
100
AcDbLine
 10
15.55504183201396
 20
-34.08144716828565
 30
0.0
 11
19.09057573794672
 21
-36.12268862060497
 31
0.0
  0
ELLIPSE
  5
124F
330
11EF
100
AcDbEntity
  8
0
100
AcDbEllipse
 10
15.55504183201396
 20
-36.1226886206049
 30
0.0
 11
-1.25
 21
2.165063509461096
 31
0.0
210
0.0
220
0.0
230
1.0
 40
0.577350269189626
 41
5.497787143782137
 42
6.976609831838752
  0
ELLIPSE
  5
1250
330
11EF
100
AcDbEntity
  8
0
100
AcDbEllipse
 10
37.7109488095167
 20
-48.48482425704149
 30
0.0
 11
-1.249999999999998
 21
-2.165063509461098
 31
0.0
210
0.0
220
0.0
230
1.0
 40
0.8164965809277259
 41
4.968762307403136
 42
6.283185307179584
  0
LINE
  5
1251
330
11EF
100
AcDbEntity
  8
0
100
AcDbLine
 10
35.68399199786885
 20
-48.04656553746015
 30
0.0
 11
35.18374199796868
 21
-47.75774606535567
 31
0.0
  0
LINE
  5
1252
330
11EF
100
AcDbEntity
  8
0
100
AcDbLine
 10
35.18374199796868
 20
-47.75774606535567
 30
0.0
 11
34.93399199786885
 21
-47.61355283556793
 31
0.0
  0
ELLIPSE
  5
1253
330
11EF
100
AcDbEntity
  8
0
100
AcDbEllipse
 10
36.96094880951671
 20
-48.05181155514927
 30
0.0
 11
-1.249999999999999
 21
-2.165063509461097
 31
0.0
210
0.0
220
0.0
230
1.0
 40
0.8164965809277259
 41
4.968762307403137
 42
6.283185307179585
  0
LINE
  5
1254
330
11EF
100
AcDbEntity
  8
0
100
AcDbLine
 10
39.24648271544945
 20
-52.25811651692978
 30
0.0
 11
35.71094880951668
 21
-50.21687506461043
 31
0.0
  0
ELLIPSE
  5
1255
330
11EF
100
AcDbEntity
  8
0
100
AcDbEllipse
 10
40.49648271544946
 20
-50.0930530074686
 30
0.0
 11
-1.249999999999999
 21
-2.165063509461098
 31
0.0
210
0.0
220
0.0
230
1.0
 40
0.816496580927726
 41
0.0
 42
1.314422999776448
  0
LINE
  5
1256
330
11EF
100
AcDbEntity
  8
0
100
AcDbLine
 10
35.00794994854978
 20
-47.16635452974563
 30
0.0
 11
35.36114978613664
 21
-46.96243450843713
 31
0.0
  0
SPLINE
  5
1257
330
11EF
100
AcDbEntity
  8
0
100
AcDbSpline
210
0.0
220
0.0
230
1.0
 70
     8
 71
     3
 72
     8
 73
     4
 74
     0
 42
0.000000001
 43
0.0000000001
 40
-1.0
 40
-1.0
 40
-1.0
 40
-1.0
 40
0.0
 40
0.0
 40
0.0
 40
0.0
 10
34.93399199786885
 20
-47.61355283556794
 30
0.0
 10
34.95855901021574
 20
-47.45079721637497
 30
0.0
 10
34.9890975466556
 20
-47.28426588871122
 30
0.0
 10
35.00794994854978
 20
-47.16635452974564
 30
0.0
  0
SPLINE
  5
1258
330
11EF
100
AcDbEntity
  8
0
100
AcDbSpline
210
0.0
220
0.0
230
1.0
 70
     8
 71
     3
 72
     8
 73
     4
 74
     0
 42
0.000000001
 43
0.0000000001
 40
0.0
 40
0.0
 40
0.0
 40
0.0
 40
1.0
 40
1.0
 40
1.0
 40
1.0
 10
36.0686101203296
 20
-46.55398209404984
 30
0.0
 10
36.04975771843542
 20
-46.99388294870051
 30
0.0
 10
35.90010151896975
 20
-47.55204856129605
 30
0.0
 10
35.68399199786885
 20
-48.04656553746015
 30
0.0
  0
LINE
  5
1259
330
11EF
100
AcDbEntity
  8
0
100
AcDbLine
 10
35.36114978613664
 20
-46.96243450843713
 30
0.0
 11
36.0686101203296
 21
-46.55398209404984
 31
0.0
  0
SPLINE
  5
125A
330
11EF
100
AcDbEntity
  8
0
100
AcDbSpline
210
0.0
220
0.0
230
1.0
 70
     8
 71
     3
 72
     8
 73
     4
 74
     0
 42
0.000000001
 43
0.0000000001
 40
-1.0
 40
-1.0
 40
-1.0
 40
-1.0
 40
0.0
 40
0.0
 40
0.0
 40
0.0
 10
42.06407449260381
 20
-51.24020993469077
 30
0.0
 10
42.08292689449799
 20
-51.37989017227326
 30
0.0
 10
42.01817130051753
 20
-51.52666627255507
 30
0.0
 10
41.88950430586088
 20
-51.62931973893889
 30
0.0
  0
ELLIPSE
  5
125B
330
11EF
100
AcDbEntity
  8
0
100
AcDbEllipse
 10
40.30377917354318
 20
-50.41137878684013
 30
0.0
 11
1.24999999999987
 21
-2.165063509461172
 31
0.0
210
0.0
220
0.0
230
1.0
 40
0.5773502691896258
 41
0.8773718021359453
 42
2.356194490192589
  0
LINE
  5
125C
330
11EF
100
AcDbEntity
  8
0
100
AcDbLine
 10
36.76824526761042
 20
-46.32889588220153
 30
0.0
 11
40.30377917354318
 21
-48.37013733452088
 31
0.0
  0
ELLIPSE
  5
125D
330
11EF
100
AcDbEntity
  8
0
100
AcDbEllipse
 10
36.76824526761042
 20
-48.37013733452081
 30
0.0
 11
-1.25
 21
2.165063509461097
 31
0.0
210
0.0
220
0.0
230
1.0
 40
0.5773502691896259
 41
5.497787143782135
 42
6.97660983183875
  0
LINE
  5
125E
330
11EF
100
AcDbEntity
  8
0
100
AcDbLine
 10
63.92114566517387
 20
101.2120362914386
 30
0.0
 11
-5.941004316057059
 21
141.5469673892683
 31
0.0
  0
LINE
  5
125F
330
11EF
100
AcDbEntity
  8
0
100
AcDbLine
 10
34.64692492405099
 20
-11.62779119277318
 30
0.0
 11
34.64692492405099
 21
78.51343134164777
 31
0.0
  0
LINE
  5
1260
330
11EF
100
AcDbEntity
  8
0
100
AcDbLine
 10
33.58626475227115
 20
79.12580377734357
 30
0.0
 11
33.58626475227115
 21
-11.01541875707738
 31
0.0
  0
LINE
  5
1261
330
11EF
100
AcDbEntity
  8
0
100
AcDbLine
 10
63.92114566517388
 20
1.191205127792205
 30
0.0
 11
38.1824588299837
 21
-13.66903264509249
 31
0.0
  0
LINE
  5
1262
330
11EF
100
AcDbEntity
  8
0
100
AcDbLine
 10
38.1824588299837
 20
84.63715569860571
 30
0.0
 11
63.92114566517389
 21
99.49739347149042
 31
0.0
  0
LINE
  5
1263
330
11EF
100
AcDbEntity
  8
0
100
AcDbLine
 10
-38.18507353816362
 20
120.5630052594257
 30
0.0
 11
-38.18507353816363
 21
30.42178272500479
 31
0.0
  0
LINE
  5
1264
330
11EF
100
AcDbEntity
  8
0
100
AcDbLine
 10
-8.910852797040558
 20
141.5469673892683
 30
0.0
 11
-34.64953963223089
 21
126.6867296163836
 31
0.0
  0
LINE
  5
1265
330
11EF
100
AcDbEntity
  8
0
100
AcDbLine
 10
-37.1244133663838
 20
119.9506328237299
 30
0.0
 11
-37.12441336638381
 21
29.80941028930898
 31
0.0
  0
LINE
  5
1266
330
11EF
100
AcDbEntity
  8
0
100
AcDbLine
 10
63.92114566517389
 20
99.49739347149042
 30
0.0
 11
62.86048549339406
 21
100.1097659071862
 31
0.0
  0
LINE
  5
1267
330
11EF
100
AcDbEntity
  8
0
100
AcDbLine
 10
62.86048549339406
 20
100.1097659071862
 30
0.0
 11
37.12179865820387
 21
85.2495281343015
 31
0.0
  0
LINE
  5
1268
330
11EF
100
AcDbEntity
  8
0
100
AcDbLine
 10
-7.001664487836882
 20
42.6284066098743
 30
0.0
 11
-4.951054822395892
 21
41.44448656752908
 31
0.0
  0
LINE
  5
1269
330
11EF
100
AcDbEntity
  8
0
100
AcDbLine
 10
63.92114566517387
 20
101.2120362914386
 30
0.0
 11
62.86048549339405
 21
100.5996638557428
 31
0.0
  0
LINE
  5
126A
330
11EF
100
AcDbEntity
  8
0
100
AcDbLine
 10
-5.941004316057059
 20
141.5469673892683
 30
0.0
 11
-7.001664487836882
 21
140.9345949535725
 31
0.0
  0
LINE
  5
126B
330
11EF
100
AcDbEntity
  8
0
100
AcDbLine
 10
-8.910852797040558
 20
141.5469673892683
 30
0.0
 11
-7.850192625260734
 21
140.9345949535725
 31
0.0
  0
LINE
  5
126C
330
11EF
100
AcDbEntity
  8
0
100
AcDbLine
 10
-7.001664487836882
 20
140.9345949535725
 30
0.0
 11
62.86048549339404
 21
100.5996638557428
 31
0.0
  0
LINE
  5
126D
330
11EF
100
AcDbEntity
  8
0
100
AcDbLine
 10
-33.58887946045107
 20
27.76816883698968
 30
0.0
 11
-7.850192625260734
 21
42.6284066098743
 31
0.0
  0
LINE
  5
126E
330
11EF
100
AcDbEntity
  8
0
100
AcDbLine
 10
-33.58887946045106
 20
126.0743571806879
 30
0.0
 11
-7.850192625260734
 21
140.9345949535725
 31
0.0
  0
LINE
  5
126F
330
11EF
100
AcDbEntity
  8
0
100
AcDbLine
 10
38.1824588299837
 20
-13.66903264509249
 30
0.0
 11
34.64692492405099
 21
-11.62779119277318
 31
0.0
  0
LINE
  5
1270
330
11EF
100
AcDbEntity
  8
0
100
AcDbLine
 10
34.64692492405099
 20
-11.62779119277318
 30
0.0
 11
33.58626475227115
 21
-11.01541875707739
 31
0.0
  0
LINE
  5
1271
330
11EF
100
AcDbEntity
  8
0
100
AcDbLine
 10
33.58626475227115
 20
79.12580377734357
 30
0.0
 11
34.64692492405099
 21
78.51343134164778
 31
0.0
  0
LINE
  5
1272
330
11EF
100
AcDbEntity
  8
0
100
AcDbLine
 10
34.64692492405099
 20
78.51343134164778
 30
0.0
 11
38.1824588299837
 21
84.63715569860571
 31
0.0
  0
LINE
  5
1273
330
11EF
100
AcDbEntity
  8
0
100
AcDbLine
 10
-33.58887946045107
 20
27.76816883698968
 30
0.0
 11
-37.12441336638381
 21
29.80941028930898
 31
0.0
  0
LINE
  5
1274
330
11EF
100
AcDbEntity
  8
0
100
AcDbLine
 10
-37.12441336638381
 20
29.80941028930898
 30
0.0
 11
-38.18507353816363
 21
30.42178272500478
 31
0.0
  0
LINE
  5
1275
330
11EF
100
AcDbEntity
  8
0
100
AcDbLine
 10
-34.64953963223089
 20
126.6867296163836
 30
0.0
 11
-38.18507353816362
 21
120.5630052594257
 31
0.0
  0
LINE
  5
1276
330
11EF
100
AcDbEntity
  8
0
100
AcDbLine
 10
-38.18507353816362
 20
120.5630052594257
 30
0.0
 11
-37.1244133663838
 21
119.9506328237299
 31
0.0
  0
LINE
  5
1277
330
11EF
100
AcDbEntity
  8
0
100
AcDbLine
 10
38.1824588299837
 20
84.63715569860571
 30
0.0
 11
37.12179865820387
 21
85.2495281343015
 31
0.0
  0
LINE
  5
1278
330
11EF
100
AcDbEntity
  8
0
100
AcDbLine
 10
37.12179865820387
 20
85.2495281343015
 30
0.0
 11
33.58626475227115
 21
79.12580377734357
 31
0.0
  0
LINE
  5
1279
330
11EF
100
AcDbEntity
  8
0
100
AcDbLine
 10
-37.1244133663838
 20
119.9506328237299
 30
0.0
 11
-33.58887946045106
 21
126.0743571806879
 31
0.0
  0
LINE
  5
127A
330
11EF
100
AcDbEntity
  8
0
100
AcDbLine
 10
-33.58887946045106
 20
126.0743571806879
 30
0.0
 11
-34.64953963223089
 21
126.6867296163836
 31
0.0
  0
LINE
  5
127B
330
11EF
100
AcDbEntity
  8
0
100
AcDbLine
 10
7.421145665329342
 20
-120.1790648391541
 30
0.0
 11
7.421145665329351
 21
-114.4055621472579
 31
0.0
  0
LINE
  5
127C
330
11EF
100
AcDbEntity
  8
0
100
AcDbLine
 10
7.421145665329351
 20
-114.4055621472579
 30
0.0
 11
6.360485493549528
 21
-113.7931897115621
 31
0.0
  0
LINE
  5
127D
330
11EF
100
AcDbEntity
  8
0
100
AcDbLine
 10
6.360485493549528
 20
-113.7931897115621
 30
0.0
 11
6.360485493549545
 21
-119.5666924034583
 31
0.0
  0
LINE
  5
127E
330
11EF
100
AcDbEntity
  8
0
100
AcDbLine
 10
6.360485493549545
 20
-119.5666924034583
 30
0.0
 11
7.421145665329342
 21
-120.1790648391541
 31
0.0
  0
LINE
  5
127F
330
11EF
100
AcDbEntity
  8
0
100
AcDbLine
 10
-65.41085279688505
 20
-72.35598822948005
 30
0.0
 11
-65.41085279688502
 21
-78.12949092137627
 31
0.0
  0
LINE
  5
1280
330
11EF
100
AcDbEntity
  8
0
100
AcDbLine
 10
-65.41085279688502
 20
-78.12949092137627
 30
0.0
 11
-64.35019262510524
 21
-78.74186335707206
 31
0.0
  0
LINE
  5
1281
330
11EF
100
AcDbEntity
  8
0
100
AcDbLine
 10
-64.35019262510524
 20
-78.74186335707206
 30
0.0
 11
-64.35019262510524
 21
-72.96836066517584
 31
0.0
  0
LINE
  5
1282
330
11EF
100
AcDbEntity
  8
0
100
AcDbLine
 10
-64.35019262510524
 20
-72.96836066517584
 30
0.0
 11
-65.41085279688505
 21
-72.35598822948005
 31
0.0
  0
ELLIPSE
  5
1283
330
11EF
100
AcDbEntity
  8
0
100
AcDbEllipse
 10
40.30377917354297
 20
79.41157758066843
 30
0.0
 11
1.250000000000128
 21
2.165063509461023
 31
0.0
210
0.0
220
0.0
230
1.0
 40
0.5773502691896257
 41
0.0
 42
6.283185307179586
  0
ELLIPSE
  5
1284
330
11EF
100
AcDbEntity
  8
0
100
AcDbEllipse
 10
40.30377917354297
 20
63.08164596211391
 30
0.0
 11
1.250000000000128
 21
2.165063509461023
 31
0.0
210
0.0
220
0.0
230
1.0
 40
0.5773502691896257
 41
0.0
 42
6.283185307179586
  0
ELLIPSE
  5
1285
330
11EF
100
AcDbEntity
  8
0
100
AcDbEllipse
 10
40.30377917354297
 20
46.75171434355938
 30
0.0
 11
1.250000000000128
 21
2.165063509461023
 31
0.0
210
0.0
220
0.0
230
1.0
 40
0.5773502691896257
 41
0.0
 42
6.283185307179586
  0
ELLIPSE
  5
1286
330
11EF
100
AcDbEntity
  8
0
100
AcDbEllipse
 10
40.30377917354297
 20
30.42178272500487
 30
0.0
 11
1.250000000000128
 21
2.165063509461023
 31
0.0
210
0.0
220
0.0
230
1.0
 40
0.5773502691896257
 41
0.0
 42
6.283185307179586
  0
ELLIPSE
  5
1287
330
11EF
100
AcDbEntity
  8
0
100
AcDbEllipse
 10
40.30377917354297
 20
14.09185110645034
 30
0.0
 11
1.250000000000128
 21
2.165063509461023
 31
0.0
210
0.0
220
0.0
230
1.0
 40
0.5773502691896257
 41
0.0
 42
6.283185307179586
  0
ELLIPSE
  5
1288
330
11EF
100
AcDbEntity
  8
0
100
AcDbEllipse
 10
39.24311900176316
 20
80.02395001636424
 30
0.0
 11
1.249999999999864
 21
2.165063509461174
 31
0.0
210
0.0
220
0.0
230
0.9999999999999998
 40
0.5773502691896219
 41
3.579741684173544
 42
5.845036276595001
  0
ELLIPSE
  5
1289
330
11EF
100
AcDbEntity
  8
0
100
AcDbEllipse
 10
39.24311900176316
 20
63.69401839780971
 30
0.0
 11
1.249999999999864
 21
2.165063509461174
 31
0.0
210
0.0
220
0.0
230
0.9999999999999998
 40
0.5773502691896219
 41
3.579741684173544
 42
5.845036276594997
  0
ELLIPSE
  5
128A
330
11EF
100
AcDbEntity
  8
0
100
AcDbEllipse
 10
39.24311900176316
 20
47.36408677925519
 30
0.0
 11
1.249999999999864
 21
2.165063509461176
 31
0.0
210
0.0
220
0.0
230
0.9999999999999998
 40
0.5773502691896218
 41
3.579741684173546
 42
5.845036276594991
  0
ELLIPSE
  5
128B
330
11EF
100
AcDbEntity
  8
0
100
AcDbEllipse
 10
39.24311900176316
 20
31.03415516070067
 30
0.0
 11
1.249999999999864
 21
2.165063509461176
 31
0.0
210
0.0
220
0.0
230
0.9999999999999998
 40
0.5773502691896218
 41
3.579741684173548
 42
5.845036276594991
  0
ELLIPSE
  5
128C
330
11EF
100
AcDbEntity
  8
0
100
AcDbEllipse
 10
39.24311900176315
 20
14.70422354214614
 30
0.0
 11
1.249999999999864
 21
2.165063509461176
 31
0.0
210
0.0
220
0.0
230
0.9999999999999998
 40
0.5773502691896218
 41
3.579741684173548
 42
5.845036276594989
  0
ELLIPSE
  5
128D
330
11EF
100
AcDbEntity
  8
0
100
AcDbEllipse
 10
40.30377917354297
 20
-2.238080512104181
 30
0.0
 11
1.250000000000128
 21
2.165063509461023
 31
0.0
210
0.0
220
0.0
230
1.0
 40
0.5773502691896257
 41
0.0
 42
6.283185307179586
  0
ELLIPSE
  5
128E
330
11EF
100
AcDbEntity
  8
0
100
AcDbEllipse
 10
39.24311900176315
 20
-1.625708076408383
 30
0.0
 11
1.249999999999864
 21
2.165063509461176
 31
0.0
210
0.0
220
0.0
230
0.9999999999999998
 40
0.5773502691896218
 41
3.579741684173548
 42
5.845036276594989
  0
LINE
  5
128F
330
11EF
100
AcDbEntity
  8
0
100
AcDbLine
 10
63.92114566517388
 20
1.191205127792205
 30
0.0
 11
63.92114566517389
 21
99.49739347149042
 31
0.0
  0
ELLIPSE
  5
1290
330
11EF
100
AcDbEntity
  8
0
100
AcDbEllipse
 10
62.43622142468211
 20
100.3547148814645
 30
0.0
 11
0.6000000000000051
 21
0.0
 31
0.0
210
0.0
220
0.0
230
1.0
 40
0.5773502691896258
 41
5.497787143782192
 42
7.068583470577037
  0
LINE
  5
1291
330
11EF
100
AcDbEntity
  8
0
100
AcDbLine
 10
62.86048549339405
 20
100.5996638557428
 30
0.0
 11
62.86048549339405
 21
100.1097659071862
 31
0.0
  0
ELLIPSE
  5
1292
330
11EF
100
AcDbEntity
  8
0
100
AcDbEllipse
 10
62.43622142468211
 20
100.3547148814645
 30
0.0
 11
2.100000000000008
 21
0.0000000000000002
 31
0.0
210
0.0
220
0.0
230
1.0
 40
0.577350269189626
 41
5.497787143782161
 42
7.068583470577032
  0
ELLIPSE
  5
1293
330
11EF
100
AcDbEntity
  8
0
100
AcDbEllipse
 10
62.43622142468211
 20
2.048526537766317
 30
0.0
 11
2.100000000000008
 21
0.0000000000000015
 31
0.0
210
0.0
220
0.0
230
1.0
 40
0.577350269189626
 41
5.497787143782147
 42
6.28318530717958
  0
LINE
  5
1294
330
11EF
100
AcDbEntity
  8
0
100
AcDbLine
 10
-7.001664487836882
 20
140.9345949535725
 30
0.0
 11
-7.001664487836882
 21
42.6284066098743
 31
0.0
  0
ELLIPSE
  5
1295
330
11EF
100
AcDbEntity
  8
0
100
AcDbEllipse
 10
-7.425928556548808
 20
140.6896459792942
 30
0.0
 11
0.5999999999999961
 21
-0.0000000000000357
 31
0.0
210
0.0
220
0.0
230
1.0
 40
0.5773502691896259
 41
0.7853981633976988
 42
2.356194490192605
  0
LINE
  5
1296
330
11EF
100
AcDbEntity
  8
0
100
AcDbLine
 10
-7.850192625260734
 20
140.9345949535725
 30
0.0
 11
-7.850192625260734
 21
42.6284066098743
 31
0.0
  0
ELLIPSE
  5
1297
330
11EF
100
AcDbEntity
  8
0
100
AcDbEllipse
 10
-7.425928556548808
 20
42.38345763559599
 30
0.0
 11
0.5999999999999961
 21
-0.0000000000000357
 31
0.0
210
0.0
220
0.0
230
1.0
 40
0.5773502691896259
 41
0.7853981633976899
 42
2.356194490192594
  0
ELLIPSE
  5
1298
330
11EF
100
AcDbEntity
  8
0
100
AcDbEllipse
 10
-7.425928556548808
 20
140.6896459792942
 30
0.0
 11
-2.099999999999999
 21
-0.0000000000001256
 31
0.0
210
0.0
220
0.0
230
1.0
 40
0.5773502691896259
 41
3.926990816987002
 42
5.497787143781899
  0
LINE
  5
1299
330
11EF
100
AcDbEntity
  8
0
100
AcDbLine
 10
64.53622142468211
 20
100.3547148814645
 30
0.0
 11
64.53622142468211
 21
2.048526537766335
 31
0.0
  0
ELLIPSE
  5
129A
330
11EF
100
AcDbEntity
  8
0
100
AcDbEllipse
 10
-32.52821928867125
 20
117.3786685938076
 30
0.0
 11
1.24999999999987
 21
2.165063509461172
 31
0.0
210
0.0
220
0.0
230
1.0
 40
0.5773502691896254
 41
3.579741684173542
 42
5.845036276594995
  0
ELLIPSE
  5
129B
330
11EF
100
AcDbEntity
  8
0
100
AcDbEllipse
 10
-32.52821928867125
 20
101.048736975253
 30
0.0
 11
1.24999999999987
 21
2.165063509461172
 31
0.0
210
0.0
220
0.0
230
1.0
 40
0.5773502691896254
 41
3.579741684173542
 42
5.845036276594995
  0
ELLIPSE
  5
129C
330
11EF
100
AcDbEntity
  8
0
100
AcDbEllipse
 10
-32.52821928867126
 20
84.71880535669855
 30
0.0
 11
1.24999999999987
 21
2.165063509461172
 31
0.0
210
0.0
220
0.0
230
0.9999999999999998
 40
0.5773502691896258
 41
3.579741684173544
 42
5.845036276594987
  0
ELLIPSE
  5
129D
330
11EF
100
AcDbEntity
  8
0
100
AcDbEllipse
 10
-32.52821928867126
 20
68.38887373814403
 30
0.0
 11
1.24999999999987
 21
2.165063509461172
 31
0.0
210
0.0
220
0.0
230
0.9999999999999998
 40
0.5773502691896258
 41
3.57974168417355
 42
5.845036276594989
  0
ELLIPSE
  5
129E
330
11EF
100
AcDbEntity
  8
0
100
AcDbEllipse
 10
-32.52821928867126
 20
52.0589421195895
 30
0.0
 11
1.24999999999987
 21
2.165063509461172
 31
0.0
210
0.0
220
0.0
230
0.9999999999999998
 40
0.5773502691896258
 41
3.57974168417355
 42
5.845036276594989
  0
ELLIPSE
  5
129F
330
11EF
100
AcDbEntity
  8
0
100
AcDbEllipse
 10
-31.46755911689143
 20
116.7662961581118
 30
0.0
 11
1.250000000000128
 21
2.165063509461023
 31
0.0
210
0.0
220
0.0
230
1.0
 40
0.5773502691896257
 41
0.0
 42
6.283185307179586
  0
ELLIPSE
  5
12A0
330
11EF
100
AcDbEntity
  8
0
100
AcDbEllipse
 10
-31.46755911689143
 20
100.4363645395572
 30
0.0
 11
1.250000000000128
 21
2.165063509461023
 31
0.0
210
0.0
220
0.0
230
1.0
 40
0.5773502691896257
 41
0.0
 42
6.283185307179586
  0
ELLIPSE
  5
12A1
330
11EF
100
AcDbEntity
  8
0
100
AcDbEllipse
 10
-31.46755911689143
 20
84.10643292100274
 30
0.0
 11
1.250000000000128
 21
2.165063509461023
 31
0.0
210
0.0
220
0.0
230
1.0
 40
0.5773502691896257
 41
0.0
 42
6.283185307179586
  0
ELLIPSE
  5
12A2
330
11EF
100
AcDbEntity
  8
0
100
AcDbEllipse
 10
-31.46755911689143
 20
67.77650130244822
 30
0.0
 11
1.250000000000128
 21
2.165063509461023
 31
0.0
210
0.0
220
0.0
230
1.0
 40
0.5773502691896257
 41
0.0
 42
6.283185307179586
  0
ELLIPSE
  5
12A3
330
11EF
100
AcDbEntity
  8
0
100
AcDbEllipse
 10
-31.46755911689143
 20
51.44656968389369
 30
0.0
 11
1.250000000000128
 21
2.165063509461023
 31
0.0
210
0.0
220
0.0
230
1.0
 40
0.5773502691896257
 41
0.0
 42
6.283185307179586
  0
ELLIPSE
  5
12A4
330
11EF
100
AcDbEntity
  8
0
100
AcDbEllipse
 10
-32.52821928867126
 20
35.72901050103497
 30
0.0
 11
1.24999999999987
 21
2.165063509461172
 31
0.0
210
0.0
220
0.0
230
0.9999999999999998
 40
0.5773502691896258
 41
3.57974168417355
 42
5.845036276594989
  0
ELLIPSE
  5
12A5
330
11EF
100
AcDbEntity
  8
0
100
AcDbEllipse
 10
-31.46755911689143
 20
35.11663806533918
 30
0.0
 11
1.250000000000128
 21
2.165063509461023
 31
0.0
210
0.0
220
0.0
230
1.0
 40
0.5773502691896257
 41
0.0
 42
6.283185307179586
  0
LINE
  5
12A6
330
11EF
100
AcDbEntity
  8
0
100
AcDbLine
 10
20.92114566474023
 20
-91.02287624677456
 30
0.0
 11
7.421145665329351
 21
-114.4055621472579
 31
0.0
  0
LINE
  5
12A7
330
11EF
100
AcDbEntity
  8
0
100
AcDbLine
 10
19.86048549296014
 20
-90.41050381107858
 30
0.0
 11
6.360485493549528
 21
-113.7931897115621
 31
0.0
  0
LINE
  5
12A8
330
11EF
100
AcDbEntity
  8
0
100
AcDbLine
 10
25.62114566517387
 20
-130.6868397383155
 30
0.0
 11
62.32114566438596
 21
-67.12057510190247
 31
0.0
  0
LINE
  5
12A9
330
11EF
100
AcDbEntity
  8
0
100
AcDbLine
 10
61.01195735517897
 20
-66.65169045325519
 30
0.0
 11
61.99976670457221
 21
-64.94075447191455
 31
0.0
  0
LINE
  5
12AA
330
11EF
100
AcDbEntity
  8
0
100
AcDbLine
 10
25.95487477262962
 20
-130.8795183283411
 30
0.0
 11
25.6211456651741
 21
-130.6868397383152
 31
0.0
  0
LINE
  5
12AB
330
11EF
100
AcDbEntity
  8
0
100
AcDbLine
 10
62.99323474169188
 20
-66.72719703290005
 30
0.0
 11
25.95487477262962
 21
-130.8795183283411
 31
0.0
  0
LINE
  5
12AC
330
11EF
100
AcDbEntity
  8
0
100
AcDbLine
 10
20.92114566474023
 20
-91.02287624677456
 30
0.0
 11
19.86048549296014
 21
-90.41050381107858
 31
0.0
  0
LINE
  5
12AD
330
11EF
100
AcDbEntity
  8
0
100
AcDbLine
 10
62.32114566438595
 20
-67.12057510190247
 30
0.0
 11
20.92114566474024
 21
-91.02287624677456
 31
0.0
  0
LINE
  5
12AE
330
11EF
100
AcDbEntity
  8
0
100
AcDbLine
 10
-51.9108527974773
 20
-48.97330232899485
 30
0.0
 11
-10.5108527978285
 21
-25.0710011841246
 31
0.0
  0
ELLIPSE
  5
12AF
330
11EF
100
AcDbEntity
  8
0
100
AcDbEllipse
 10
-4.758351280489607
 20
-23.96516241778135
 30
0.0
 11
-0.7499999999999999
 21
-1.299038105676659
 31
0.0
210
0.0
220
0.0
230
1.0
 40
0.8164965809277259
 41
0.0
 42
1.134458255166983
  0
LINE
  5
12B0
330
11EF
100
AcDbEntity
  8
0
100
AcDbLine
 10
-5.5083512804896
 20
-25.264200523458
 30
0.0
 11
-7.129856970699233
 21
-24.32802377672296
 31
0.0
  0
LINE
  5
12B1
330
11EF
100
AcDbEntity
  8
0
100
AcDbLine
 10
-7.129856970699233
 20
-24.32802377672296
 30
0.0
 11
-7.862383276658708
 21
-24.60582337408487
 31
0.0
  0
LINE
  5
12B2
330
11EF
100
AcDbEntity
  8
0
100
AcDbLine
 10
61.99976670457221
 20
-64.94075447191455
 30
0.0
 11
61.87408506006898
 21
-64.16746828333231
 31
0.0
  0
LINE
  5
12B3
330
11EF
100
AcDbEntity
  8
0
100
AcDbLine
 10
61.87408506006898
 20
-64.16746828333231
 30
0.0
 11
60.25257936985934
 21
-63.23129153659727
 31
0.0
  0
ELLIPSE
  5
12B4
330
11EF
100
AcDbEntity
  8
0
100
AcDbEllipse
 10
61.00257936985933
 20
-61.93225343092061
 30
0.0
 11
-0.7499999999999999
 21
-1.299038105676658
 31
0.0
210
0.0
220
0.0
230
1.0
 40
0.816496580927726
 41
5.14872705201259
 42
6.283185307179585
  0
SPLINE
  5
12B5
330
11EF
100
AcDbEntity
  8
0
100
AcDbSpline
210
0.0
220
0.0
230
1.0
 70
     8
 71
     3
 72
     8
 73
     4
 74
     0
 42
0.000000001
 43
0.0000000001
 40
0.1302463606542702
 40
0.1302463606542702
 40
0.1302463606542702
 40
0.1302463606542702
 40
1.0
 40
1.0
 40
1.0
 40
1.0
 10
60.80416223562361
 20
-61.02302680508724
 30
0.0
 10
60.75133629983527
 20
-61.43244803252406
 30
0.0
 10
60.61972652571963
 20
-61.93035986769039
 30
0.0
 10
60.47432976750407
 20
-62.35927372206079
 30
0.0
  0
SPLINE
  5
12B6
330
11EF
100
AcDbEntity
  8
0
100
AcDbSpline
210
0.0
220
0.0
230
1.0
 70
     8
 71
     3
 72
     8
 73
     4
 74
     0
 42
0.000000001
 43
0.0000000001
 40
-1.0
 40
-1.0
 40
-1.0
 40
-1.0
 40
0.0
 40
0.0
 40
0.0
 40
0.0
 10
59.72432976750406
 20
-61.92626102016858
 30
0.0
 10
59.70912112994586
 20
-61.74900609544412
 30
0.0
 10
59.72978430578196
 20
-61.56940809606172
 30
0.0
 10
59.76171572076196
 20
-61.45794786178928
 30
0.0
  0
SPLINE
  5
12B7
330
11EF
100
AcDbEntity
  8
0
100
AcDbSpline
210
0.0
220
0.0
230
1.0
 70
     8
 71
     3
 72
     8
 73
     4
 74
     0
 42
0.000000001
 43
0.0000000001
 40
-1.0
 40
-1.0
 40
-1.0
 40
-1.0
 40
0.0
 40
0.0
 40
0.0
 40
0.0
 10
-3.90289471520484
 20
-24.70116788873121
 30
0.0
 10
-3.870963300222904
 20
-24.84949934507337
 30
0.0
 10
-3.952925312833381
 20
-24.99370644454307
 30
0.0
 10
-4.114036899370785
 20
-25.06916284042235
 30
0.0
  0
LINE
  5
12B8
330
11EF
100
AcDbEntity
  8
0
100
AcDbLine
 10
-50.85019262569722
 20
-49.58567476469079
 30
0.0
 11
-51.9108527974773
 21
-48.97330232899485
 31
0.0
  0
LINE
  5
12B9
330
11EF
100
AcDbEntity
  8
0
100
AcDbLine
 10
-9.450192626048696
 20
-25.68337361982037
 30
0.0
 11
-50.85019262569722
 21
-49.58567476469079
 31
0.0
  0
LINE
  5
12BA
330
11EF
100
AcDbEntity
  8
0
100
AcDbLine
 10
-9.450192626048696
 20
-25.68337361982037
 30
0.0
 11
-9.803392463251592
 21
-25.47945359873351
 31
0.0
  0
LINE
  5
12BB
330
11EF
100
AcDbEntity
  8
0
100
AcDbLine
 10
-9.803392463251592
 20
-25.47945359873351
 30
0.0
 11
-10.51085279782849
 21
-25.0710011841246
 31
0.0
  0
SPLINE
  5
12BC
330
11EF
100
AcDbEntity
  8
0
100
AcDbSpline
210
0.0
220
0.0
230
1.0
 70
     8
 71
     3
 72
     8
 73
     4
 74
     0
 42
0.000000001
 43
0.0000000001
 40
-1.0
 40
-1.0
 40
-1.0
 40
-1.0
 40
0.0
 40
0.0
 40
0.0
 40
0.0
 10
-7.862383276658708
 20
-24.60582337408486
 30
0.0
 10
-8.372375850459427
 20
-24.97613649132579
 30
0.0
 10
-9.005264566476412
 20
-25.275495487775
 30
0.0
 10
-9.450192626048679
 20
-25.68337361982035
 30
0.0
  0
SPLINE
  5
12BD
330
11EF
100
AcDbEntity
  8
0
100
AcDbSpline
210
0.0
220
0.0
230
1.0
 70
     8
 71
     3
 72
     8
 73
     4
 74
     0
 42
0.000000001
 43
0.0000000001
 40
0.0
 40
0.0
 40
0.0
 40
0.0
 40
0.6081734479693793
 40
0.6081734479693793
 40
0.6081734479693793
 40
0.6081734479693793
 10
-10.51085279782848
 20
-25.07100118412456
 30
0.0
 10
-10.00143021120896
 20
-24.96082861086611
 30
0.0
 10
-9.248680844900318
 20
-24.99114081936248
 30
0.0
 10
-8.497347981697664
 20
-25.02063520940924
 30
0.0
  0
ELLIPSE
  5
12BE
330
11EF
100
AcDbEntity
  8
0
100
AcDbEllipse
 10
-4.951054822395897
 20
-24.28348819715289
 30
0.0
 11
0.7499999999999226
 21
-1.299038105676702
 31
0.0
210
0.0
220
0.0
230
0.9999999999999998
 40
0.577350269189626
 41
0.9390757175653323
 42
2.356194490192585
  0
LINE
  5
12BF
330
11EF
100
AcDbEntity
  8
0
100
AcDbLine
 10
62.32114566438595
 20
-67.12057510190247
 30
0.0
 11
61.61368532980881
 21
-66.71212268729336
 31
0.0
  0
LINE
  5
12C0
330
11EF
100
AcDbEntity
  8
0
100
AcDbLine
 10
61.61368532980881
 20
-66.71212268729336
 30
0.0
 11
61.26048549260611
 21
-66.50820266620667
 31
0.0
  0
LINE
  5
12C1
330
11EF
100
AcDbEntity
  8
0
100
AcDbLine
 10
19.86048549296014
 20
-90.41050381107858
 30
0.0
 11
61.26048549260611
 21
-66.50820266620667
 31
0.0
  0
LINE
  5
12C2
330
11EF
100
AcDbEntity
  8
0
100
AcDbLine
 10
61.99976670457221
 20
-64.94075447191455
 30
0.0
 11
62.2495167045716
 21
-65.08494770164429
 31
0.0
  0
SPLINE
  5
12C3
330
11EF
100
AcDbEntity
  8
0
100
AcDbSpline
210
0.0
220
0.0
230
1.0
 70
     8
 71
     3
 72
     8
 73
     4
 74
     0
 42
0.000000001
 43
0.0000000001
 40
-1.0
 40
-1.0
 40
-1.0
 40
-1.0
 40
0.0
 40
0.0
 40
0.0
 40
0.0
 10
61.26048549260611
 20
-66.50820266620664
 30
0.0
 10
61.70541355217828
 20
-66.10032453416147
 30
0.0
 10
61.93406242458777
 20
-65.56757755518709
 30
0.0
 10
61.99976670457221
 20
-64.94075447191452
 30
0.0
  0
SPLINE
  5
12C4
330
11EF
100
AcDbEntity
  8
0
100
AcDbSpline
210
0.0
220
0.0
230
1.0
 70
     8
 71
     3
 72
     8
 73
     4
 74
     0
 42
0.000000001
 43
0.0000000001
 40
0.0
 40
0.0
 40
0.0
 40
0.0
 40
1.0
 40
1.0
 40
1.0
 40
1.0
 10
62.7497667045722
 20
-65.37376717380674
 30
0.0
 10
63.23942279185757
 20
-66.32122771461978
 30
0.0
 10
63.15877280565681
 20
-66.93942189038653
 30
0.0
 10
62.32114566438596
 20
-67.12057510190247
 30
0.0
  0
LINE
  5
12C5
330
11EF
100
AcDbEntity
  8
0
100
AcDbLine
 10
62.2495167045716
 20
-65.08494770164429
 30
0.0
 11
62.74976670457221
 21
-65.37376717380675
 31
0.0
  0
ELLIPSE
  5
12C6
330
11EF
100
AcDbEntity
  8
0
100
AcDbEllipse
 10
61.75257936985932
 20
-62.36526613281283
 30
0.0
 11
-0.7499999999999999
 21
-1.299038105676659
 31
0.0
210
0.0
220
0.0
230
1.0
 40
0.8164965809277259
 41
5.14872705201259
 42
6.283185307179585
  0
LINE
  5
12C7
330
11EF
100
AcDbEntity
  8
0
100
AcDbLine
 10
60.47432976750403
 20
-62.35927372206077
 30
0.0
 11
59.97407976840321
 21
-62.0704542504178
 31
0.0
  0
LINE
  5
12C8
330
11EF
100
AcDbEntity
  8
0
100
AcDbLine
 10
59.97407976840321
 20
-62.0704542504178
 30
0.0
 11
59.72432976750403
 21
-61.92626102016854
 31
0.0
  0
LINE
  5
12C9
330
11EF
100
AcDbEntity
  8
0
100
AcDbLine
 10
61.87408506006898
 20
-64.16746828333231
 30
0.0
 11
62.62408506006898
 21
-64.60048098522452
 31
0.0
  0
LINE
  5
12CA
330
11EF
100
AcDbEntity
  8
0
100
AcDbLine
 10
62.62408506006898
 20
-64.60048098522452
 30
0.0
 11
62.74976670457221
 21
-65.37376717380675
 31
0.0
  0
LINE
  5
12CB
330
11EF
100
AcDbEntity
  8
0
100
AcDbLine
 10
59.76171572076196
 20
-61.45794786178928
 30
0.0
 11
60.11491556116432
 21
-61.25402783885525
 31
0.0
  0
LINE
  5
12CC
330
11EF
100
AcDbEntity
  8
0
100
AcDbLine
 10
60.11491556116432
 20
-61.25402783885525
 30
0.0
 11
60.64751699790917
 21
-60.94653025597982
 31
0.0
  0
ELLIPSE
  5
12CD
330
11EF
100
AcDbEntity
  8
0
100
AcDbEllipse
 10
60.80987582795303
 20
-62.25057921029215
 30
0.0
 11
-0.7500000000000007
 21
1.299038105676658
 31
0.0
210
0.0
220
0.0
230
0.9999999999999998
 40
0.5773502691896259
 41
5.497787143782137
 42
6.914905916409349
  0
LINE
  5
12CE
330
11EF
100
AcDbEntity
  8
0
100
AcDbLine
 10
25.62114566517387
 20
-130.6868397383155
 30
0.0
 11
7.421145665329342
 21
-120.1790648391541
 31
0.0
  0
LINE
  5
12CF
330
11EF
100
AcDbEntity
  8
0
100
AcDbLine
 10
-64.35019262510524
 20
-78.74186335707206
 30
0.0
 11
-46.15019262526074
 21
-89.24963825623345
 31
0.0
  0
LINE
  5
12D0
330
11EF
100
AcDbEntity
  8
0
100
AcDbLine
 10
13.7207885622724
 20
-35.36610412165204
 30
0.0
 11
6.534165246533469
 21
-31.21690521574572
 31
0.0
  0
LINE
  5
12D1
330
11EF
100
AcDbEntity
  8
0
100
AcDbLine
 10
3.114186844474216
 20
-29.24237976469411
 30
0.0
 11
-4.114036899370776
 21
-25.06916284042235
 31
0.0
  0
LINE
  5
12D2
330
11EF
100
AcDbEntity
  8
0
100
AcDbLine
 10
-45.4259285565488
 20
-89.66779231126864
 30
0.0
 11
6.360485493549532
 21
-119.5666924034583
 31
0.0
  0
LINE
  5
12D3
330
11EF
100
AcDbEntity
  8
0
100
AcDbLine
 10
59.72432976750403
 20
-61.92626102016854
 30
0.0
 11
52.49610602365907
 21
-57.75304409589683
 31
0.0
  0
LINE
  5
12D4
330
11EF
100
AcDbEntity
  8
0
100
AcDbLine
 10
49.07612762159981
 20
-55.77851864484521
 30
0.0
 11
41.88950430586088
 21
-51.62931973893889
 31
0.0
  0
LINE
  5
12D5
330
11EF
100
AcDbEntity
  8
0
100
AcDbLine
 10
34.93399199786885
 20
-47.61355283556793
 30
0.0
 11
20.67630087026442
 21
-39.38187102502298
 31
0.0
  0
LINE
  5
12D6
330
11EF
100
AcDbEntity
  8
0
100
AcDbLine
 10
42.06407449260382
 20
-51.24020993469077
 30
0.0
 11
49.15008557228073
 21
-55.3313203390229
 31
0.0
  0
LINE
  5
12D7
330
11EF
100
AcDbEntity
  8
0
100
AcDbLine
 10
6.708735433276409
 20
-30.8277954114976
 30
0.0
 11
13.79474651295332
 21
-34.91890581582973
 31
0.0
  0
LINE
  5
12D8
330
11EF
100
AcDbEntity
  8
0
100
AcDbLine
 10
20.85087105700737
 20
-38.99276122077486
 30
0.0
 11
35.00794994854978
 21
-47.16635452974563
 31
0.0
  0
LINE
  5
12D9
330
11EF
100
AcDbEntity
  8
0
100
AcDbLine
 10
52.67067621040201
 20
-57.3639342916487
 30
0.0
 11
59.76171572076196
 21
-61.45794786178928
 31
0.0
  0
LINE
  5
12DA
330
11EF
100
AcDbEntity
  8
0
100
AcDbLine
 10
-3.902894715204827
 20
-24.70116788873121
 30
0.0
 11
3.188144795155136
 21
-28.7951814588718
 31
0.0
  0
ELLIPSE
  5
12DB
330
11EF
100
AcDbEntity
  8
0
100
AcDbEllipse
 10
15.17114566544303
 20
-110.2197726956987
 30
0.0
 11
1.250000000000129
 21
2.165063509461022
 31
0.0
210
0.0
220
0.0
230
0.9999999999999998
 40
0.5773502691896255
 41
0.0
 42
6.283185307179586
  0
ELLIPSE
  5
12DC
330
11EF
100
AcDbEntity
  8
0
100
AcDbEllipse
 10
28.92114566564775
 20
-92.17757678364112
 30
0.0
 11
-0.4000000000000423
 21
-0.6928203230275286
 31
0.0
210
0.0
220
0.0
230
1.0
 40
0.5773502691896255
 41
2.094395102375155
 42
2.276828566511568
  0
LINE
  5
12DD
330
11EF
100
AcDbEntity
  8
0
100
AcDbLine
 10
29.46755582715887
 20
-92.03116662214036
 30
0.0
 11
28.67508758183559
 21
-95.90376188634643
 31
0.0
  0
ELLIPSE
  5
12DE
330
11EF
100
AcDbEntity
  8
0
100
AcDbEllipse
 10
28.12867742032449
 20
-96.05017204784719
 30
0.0
 11
-0.4000000000000416
 21
-0.6928203230275272
 31
0.0
210
0.0
220
0.0
230
0.9999999999999998
 40
0.5773502691896255
 41
0.0
 42
2.094395102375107
  0
LINE
  5
12DF
330
11EF
100
AcDbEntity
  8
0
100
AcDbLine
 10
27.72867742031721
 20
-96.74299237087055
 30
0.0
 11
25.5636139108955
 21
-95.49299237080232
 31
0.0
  0
ELLIPSE
  5
12E0
330
11EF
100
AcDbEntity
  8
0
100
AcDbEllipse
 10
25.96361391090278
 20
-94.80017204777894
 30
0.0
 11
-0.4000000000072804
 21
-0.6928203230233495
 31
0.0
210
0.0
220
0.0
230
1.0
 40
0.5773502691896255
 41
4.188790204822794
 42
6.283185307252373
  0
LINE
  5
12E1
330
11EF
100
AcDbEntity
  8
0
100
AcDbLine
 10
25.81720374939895
 20
-94.25376188625635
 30
0.0
 11
28.77473550414393
 21
-91.63116662211852
 31
0.0
  0
ELLIPSE
  5
12E2
330
11EF
100
AcDbEntity
  8
0
100
AcDbEllipse
 10
28.92114566564775
 20
-92.17757678364112
 30
0.0
 11
0.4000000000000011
 21
0.6928203230275525
 31
0.0
210
0.0
220
0.0
230
1.0
 40
0.5773502691896259
 41
0.0802385882704737
 42
1.047197551178412
  0
LINE
  5
12E3
330
11EF
100
AcDbEntity
  8
0
100
AcDbLine
 10
29.28779770338199
 20
-91.46847510206484
 30
0.0
 11
29.48505041353211
 21
-91.90379342244241
 31
0.0
  0
ELLIPSE
  5
12E4
330
11EF
100
AcDbEntity
  8
0
100
AcDbEllipse
 10
27.06801724854469
 20
-95.4377996121514
 30
0.0
 11
-0.4000000000072798
 21
-0.6928203230233483
 31
0.0
210
0.0
220
0.0
230
1.0
 40
0.5773502691896258
 41
0.0000000000727868
 42
2.094395102429601
  0
LINE
  5
12E5
330
11EF
100
AcDbEntity
  8
0
100
AcDbLine
 10
27.61442741005578
 20
-95.29138945065064
 30
0.0
 11
28.67508758183559
 21
-95.90376188634643
 31
0.0
  0
LINE
  5
12E6
330
11EF
100
AcDbEntity
  8
0
100
AcDbLine
 10
27.61442741005578
 20
-95.29138945065064
 30
0.0
 11
28.27225692620643
 21
-92.07674017740338
 31
0.0
  0
LINE
  5
12E7
330
11EF
100
AcDbEntity
  8
0
100
AcDbLine
 10
28.7747355041313
 20
-91.63116662214035
 30
0.0
 11
29.46755582715887
 21
-92.03116662214036
 31
0.0
  0
LINE
  5
12E8
330
11EF
100
AcDbEntity
  8
0
100
AcDbLine
 10
28.87629663763712
 20
-91.55232926605926
 30
0.0
 11
29.48505041353211
 21
-91.90379342244241
 31
0.0
  0
ELLIPSE
  5
12E9
330
11EF
100
AcDbEntity
  8
0
100
AcDbEllipse
 10
14.11048549366324
 20
-109.6074002600029
 30
0.0
 11
1.24999999999987
 21
2.165063509461172
 31
0.0
210
0.0
220
0.0
230
1.0
 40
0.5773502691896255
 41
3.579741684173535
 42
5.845036276595007
  0
LINE
  5
12EA
330
11EF
100
AcDbEntity
  8
0
100
AcDbLine
 10
-51.9108527974773
 20
-48.97330232899485
 30
0.0
 11
-65.41085279688505
 21
-72.35598822948005
 31
0.0
  0
LINE
  5
12EB
330
11EF
100
AcDbEntity
  8
0
100
AcDbLine
 10
-50.85019262569722
 20
-49.58567476469079
 30
0.0
 11
-64.35019262510524
 21
-72.96836066517584
 31
0.0
  0
ELLIPSE
  5
12EC
330
11EF
100
AcDbEntity
  8
0
100
AcDbEllipse
 10
-60.16085279681682
 20
-72.50032579681681
 30
0.0
 11
1.249999999999869
 21
2.165063509461172
 31
0.0
210
0.0
220
0.0
230
1.0
 40
0.5773502691896257
 41
3.579741684173527
 42
5.845036276595004
  0
ELLIPSE
  5
12ED
330
11EF
100
AcDbEntity
  8
0
100
AcDbEllipse
 10
-47.20332104193537
 20
-58.33072514896525
 30
0.0
 11
-0.4000000000072798
 21
-0.6928203230233483
 31
0.0
210
0.0
220
0.0
230
1.0
 40
0.5773502691896258
 41
0.0000000000727784
 42
2.094395102429573
  0
LINE
  5
12EE
330
11EF
100
AcDbEntity
  8
0
100
AcDbLine
 10
-46.65691088042428
 20
-58.18431498746449
 30
0.0
 11
-45.99908136427362
 21
-54.96966571421722
 31
0.0
  0
LINE
  5
12EF
330
11EF
100
AcDbEntity
  8
0
100
AcDbLine
 10
-45.59625070864445
 20
-58.79668742316028
 30
0.0
 11
-46.65691088042428
 21
-58.18431498746449
 31
0.0
  0
LINE
  5
12F0
330
11EF
100
AcDbEntity
  8
0
100
AcDbLine
 10
-44.80378246332121
 20
-54.9240921589542
 30
0.0
 11
-45.59625070864445
 21
-58.79668742316028
 31
0.0
  0
LINE
  5
12F1
330
11EF
100
AcDbEntity
  8
0
100
AcDbLine
 10
-44.80378246332121
 20
-54.9240921589542
 30
0.0
 11
-45.49660278635602
 21
-54.52409215895002
 31
0.0
  0
ELLIPSE
  5
12F2
330
11EF
100
AcDbEntity
  8
0
100
AcDbEllipse
 10
-45.35019262483231
 20
-55.07050232045497
 30
0.0
 11
0.4000000000000005
 21
0.6928203230275526
 31
0.0
210
0.0
220
0.0
230
1.0
 40
0.5773502691896257
 41
5.235987755964796
 42
7.330382858358005
  0
LINE
  5
12F3
330
11EF
100
AcDbEntity
  8
0
100
AcDbLine
 10
-48.45413454108111
 20
-57.1466874230702
 30
0.0
 11
-45.49660278633615
 21
-54.52409215893236
 31
0.0
  0
ELLIPSE
  5
12F4
330
11EF
100
AcDbEntity
  8
0
100
AcDbEllipse
 10
-48.30772437957728
 20
-57.69309758459279
 30
0.0
 11
-0.4000000000072797
 21
-0.6928203230233497
 31
0.0
210
0.0
220
0.0
230
1.0
 40
0.5773502691896255
 41
4.18879020482279
 42
6.283185307252368
  0
LINE
  5
12F5
330
11EF
100
AcDbEntity
  8
0
100
AcDbLine
 10
-46.54266087016283
 20
-59.63591790768439
 30
0.0
 11
-48.70772437958456
 21
-58.38591790761615
 31
0.0
  0
ELLIPSE
  5
12F6
330
11EF
100
AcDbEntity
  8
0
100
AcDbEllipse
 10
-46.14266087015558
 20
-58.94309758466103
 30
0.0
 11
-0.4000000000000413
 21
-0.6928203230275273
 31
0.0
210
0.0
220
0.0
230
1.0
 40
0.5773502691896257
 41
0.0
 42
2.094395102375109
  0
ELLIPSE
  5
12F7
330
11EF
100
AcDbEntity
  8
0
100
AcDbEllipse
 10
-59.10019262503704
 20
-73.11269823251258
 30
0.0
 11
1.250000000000128
 21
2.165063509461023
 31
0.0
210
0.0
220
0.0
230
1.0
 40
0.5773502691896259
 41
0.0
 42
6.283185307179586
  0
LINE
  5
12F8
330
11EF
100
AcDbEntity
  8
0
100
AcDbLine
 10
-7.862383276658708
 20
-24.60582337408487
 30
0.0
 11
-45.4259285565488
 21
-89.66779231126864
 31
0.0
  0
LINE
  5
12F9
330
11EF
100
AcDbEntity
  8
0
100
AcDbLine
 10
-46.15019262526074
 20
-89.24963825623343
 30
0.0
 11
-45.42592855654882
 21
-89.66779231126865
 31
0.0
  0
LINE
  5
12FA
330
11EF
100
AcDbEntity
  8
0
100
AcDbLine
 10
-46.15019262526074
 20
-89.24963825623345
 30
0.0
 11
-9.450192626048696
 21
-25.68337361982037
 31
0.0
  0
ENDBLK
  5
11F1
330
11EF
100
AcDbEntity
  8
0
100
AcDbBlockEnd
  0
ENDSEC
  0
SECTION
  2
ENTITIES
  0
INSERT
  5
12FB
330
1F
100
AcDbEntity
  8
0
100
AcDbBlockReference
  2
SPR100_200-Front
 10
0.0
 20
0.0
 30
0.0
  0
INSERT
  5
12FC
330
1F
100
AcDbEntity
  8
0
100
AcDbBlockReference
  2
SPR100_200-Left
 10
169.4229986469887
 20
0.0
 30
0.0
  0
INSERT
  5
12FD
330
1F
100
AcDbEntity
  8
0
100
AcDbBlockReference
  2
SPR100_200-Right
 10
-169.4229986469887
 20
0.0
 30
0.0
  0
INSERT
  5
12FE
330
1F
100
AcDbEntity
  8
0
100
AcDbBlockReference
  2
SPR100_200-Top
 10
0.0
 20
-132.5456017059513
 30
0.0
  0
INSERT
  5
12FF
330
1F
100
AcDbEntity
  8
0
100
AcDbBlockReference
  2
SPR100_200-Bottom
 10
0.0
 20
277.5659080859888
 30
0.0
  0
INSERT
  5
1300
330
1F
100
AcDbEntity
  8
0
100
AcDbBlockReference
  2
SPR100_200-ISO
 10
234.8338514438738
 20
-274.4476832505437
 30
0.0
  0
MTEXT
  5
1301
330
1F
100
AcDbEntity
  8
0
100
AcDbMText
 10
0.0
 20
-291.4445760658001
 30
0.0
 40
22.58973315293183
 41
0.0
 71
     5
 72
     5
  1
SPR100/200
 73
     1
 44
1.0
1001
ACAD
1000
MTEXTBEGIN
1070
    73
1070
     1
1070
    44
1040
1.0
1070
    74
1070
     0
1000
MTEXTEND
  0
ENDSEC
  0
SECTION
  2
OBJECTS
  0
DICTIONARY
  5
C
330
0
100
AcDbDictionary
281
     1
  3
ACAD_CIP_PREVIOUS_PRODUCT_INFO
350
216
  3
ACAD_COLOR
350
6B
  3
ACAD_DETAILVIEWSTYLE
350
21B
  3
ACAD_GROUP
350
D
  3
ACAD_LAYOUT
350
1A
  3
ACAD_MATERIAL
350
6A
  3
ACAD_MLEADERSTYLE
350
12D
  3
ACAD_MLINESTYLE
350
17
  3
ACAD_PLOTSETTINGS
350
19
  3
ACAD_PLOTSTYLENAME
350
E
  3
ACAD_SCALELIST
350
10C
  3
ACAD_SECTIONVIEWSTYLE
350
219
  3
ACAD_TABLESTYLE
350
7E
  3
ACAD_VISUALSTYLE
350
EF
  3
ACDB_RECOMPOSE_DATA
350
1402
  3
AcDbVariableDictionary
350
5E
  3
DWGPROPS
350
1403
  0
DICTIONARY
  5
1352
330
8
100
AcDbDictionary
280
     1
281
     1
  0
DICTIONARY
  5
1FF
330
2
100
AcDbDictionary
280
     1
281
     1
  3
ACAD_LAYERSTATES
360
200
  0
DICTIONARY
  5
13C
330
10
100
AcDbDictionary
280
     1
281
     1
  0
DICTIONARY
  5
1CE
330
1F
100
AcDbDictionary
280
     1
281
     1
  3
ACAD_LAYOUTSELFREF
360
135A
  0
DICTIONARY
  5
1305
330
D2
100
AcDbDictionary
280
     1
281
     1
  3
ACAD_LAYOUTSELFREF
360
1363
  0
DICTIONARY
  5
1307
330
D6
100
AcDbDictionary
280
     1
281
     1
  3
ACAD_LAYOUTSELFREF
360
1366
  0
XRECORD
  5
216
102
{ACAD_REACTORS
330
C
102
}
330
C
100
AcDbXrecord
280
     1
300
ACD
300
2021
300
87393ACD_2021_0F
  0
DICTIONARY
  5
6B
102
{ACAD_REACTORS
330
C
102
}
330
C
100
AcDbDictionary
281
     1
  0
DICTIONARY
  5
21B
102
{ACAD_REACTORS
330
C
102
}
330
C
100
AcDbDictionary
281
     1
  3
Metric50
350
21C
  0
DICTIONARY
  5
D
102
{ACAD_REACTORS
330
C
102
}
330
C
100
AcDbDictionary
281
     1
  0
DICTIONARY
  5
1A
102
{ACAD_REACTORS
330
C
102
}
330
C
100
AcDbDictionary
281
     1
  3
Layout1
350
D3
  3
Layout2
350
D7
  3
Model
350
22
  0
DICTIONARY
  5
6A
102
{ACAD_REACTORS
330
C
102
}
330
C
100
AcDbDictionary
281
     1
  3
ByBlock
350
ED
  3
ByLayer
350
EC
  3
Global
350
EE
  0
DICTIONARY
  5
12D
102
{ACAD_REACTORS
330
C
102
}
330
C
100
AcDbDictionary
281
     1
  3
Standard
350
12E
  0
DICTIONARY
  5
17
102
{ACAD_REACTORS
330
C
102
}
330
C
100
AcDbDictionary
281
     1
  3
Standard
350
18
  0
DICTIONARY
  5
19
102
{ACAD_REACTORS
330
C
102
}
330
C
100
AcDbDictionary
281
     1
  0
ACDBDICTIONARYWDFLT
  5
E
102
{ACAD_REACTORS
330
C
102
}
330
C
100
AcDbDictionary
281
     1
  3
Normal
350
F
100
AcDbDictionaryWithDefault
340
F
  0
DICTIONARY
  5
10C
102
{ACAD_REACTORS
330
C
102
}
330
C
100
AcDbDictionary
281
     1
  3
A0
350
10D
  3
A1
350
1BE
  3
A2
350
1BF
  3
A3
350
1C0
  3
A4
350
1C1
  3
A5
350
1C2
  3
A6
350
1C3
  3
A7
350
1C4
  3
A8
350
1C5
  3
A9
350
1C6
  3
B0
350
1C7
  3
B1
350
1C8
  3
B2
350
1C9
  3
B3
350
1CA
  3
B4
350
1CB
  3
B5
350
1CC
  3
B6
350
1CD
  0
DICTIONARY
  5
219
102
{ACAD_REACTORS
330
C
102
}
330
C
100
AcDbDictionary
281
     1
  3
Metric50
350
21A
  0
DICTIONARY
  5
7E
102
{ACAD_REACTORS
330
C
102
}
330
C
100
AcDbDictionary
281
     1
  3
Standard
350
7F
  0
DICTIONARY
  5
EF
102
{ACAD_REACTORS
330
C
102
}
330
C
100
AcDbDictionary
281
     1
  3
2dWireframe
350
F5
  3
Basic
350
F4
  3
Brighten
350
FB
  3
ColorChange
350
FF
  3
Conceptual
350
F8
  3
Dim
350
FA
  3
EdgeColorOff
350
1E6
  3
Facepattern
350
FE
  3
Flat
350
F0
  3
FlatWithEdges
350
F1
  3
Gouraud
350
F2
  3
GouraudWithEdges
350
F3
  3
Hidden
350
F7
  3
JitterOff
350
1E4
  3
Linepattern
350
FD
  3
OverhangOff
350
1E5
  3
Realistic
350
F9
  3
Shaded
350
1F3
  3
Shaded with edges
350
1F2
  3
Shades of Gray
350
1EF
  3
Sketchy
350
1F0
  3
Thicken
350
FC
  3
Wireframe
350
F6
  3
X-Ray
350
1F1
  0
XRECORD
  5
1402
102
{ACAD_REACTORS
330
C
102
}
330
C
100
AcDbXrecord
280
     1
 90
        1
330
7F
  0
DICTIONARY
  5
5E
102
{ACAD_REACTORS
330
C
102
}
330
C
100
AcDbDictionary
281
     1
  3
CANNOSCALE
350
146
  3
CENTEREXE
350
259
  3
CENTERLTYPEFILE
350
25A
  3
CMLEADERSTYLE
350
145
  3
CTABLESTYLE
350
84
  3
CVIEWDETAILSTYLE
350
227
  3
CVIEWSECTIONSTYLE
350
228
  3
DIMASSOC
350
5F
  3
HIDETEXT
350
63
  3
INDEXCTL
350
13AF
  3
LAYEREVAL
350
1AE
  3
LAYERNOTIFY
350
1AF
  3
LIGHTINGUNITS
350
13AD
  3
MSLTSCALE
350
13AC
  3
PSOLHEIGHT
350
13FF
  3
PSOLWIDTH
350
13FE
  3
SORTENTS
350
13AE
  3
XCLIPFRAME
350
1400
  0
XRECORD
  5
1403
102
{ACAD_REACTORS
330
C
102
}
330
C
100
AcDbXrecord
280
     1
  1
DWGPROPS COOKIE
  2

  3

  4

  6

  7

  8
truole
  9

300
=
301
=
302
=
303
=
304
=
305
=
306
=
307
=
308
=
309
=
 40
0.0018981481481481
 41
2460719.40650463
 42
2460719.410439815
  1

 90
        0
  0
DICTIONARY
  5
200
102
{ACAD_REACTORS
330
1FF
102
}
330
1FF
100
AcDbDictionary
281
     1
  0
XRECORD
  5
135A
102
{ACAD_REACTORS
330
1CE
102
}
330
1CE
100
AcDbXrecord
280
     1
340
1F
  0
XRECORD
  5
1363
102
{ACAD_REACTORS
330
1305
102
}
330
1305
100
AcDbXrecord
280
     1
340
D2
  0
XRECORD
  5
1366
102
{ACAD_REACTORS
330
1307
102
}
330
1307
100
AcDbXrecord
280
     1
340
D6
  0
ACDBDETAILVIEWSTYLE
  5
21C
102
{ACAD_XDICTIONARY
360
1442
102
}
102
{ACAD_REACTORS
330
21B
102
}
330
21B
100
AcDbModelDocViewStyle
 70
     0
  3
Metric50
290
     0
100
AcDbDetailViewStyle
 70
     0
 71
     0
 90
        3
 71
     1
340
11
 40
5.0
340
0
 40
5.0
300

 40
0.0
280
     1
 71
     2
340
16
 90
       25
 71
     3
340
11
 40
5.0
 90
        0
 40
15.0
 90
        1
300
%<\AcVar ViewDetailId>% (%<\AcVar ViewScale \f "%sn">%)
 71
     4
340
16
 90
       25
340
16
 90
       25
280
     0
  0
LAYOUT
  5
D3
102
{ACAD_XDICTIONARY
360
1407
102
}
102
{ACAD_REACTORS
330
1A
102
}
330
1A
100
AcDbPlotSettings
  1

  2
C:\Documents and Settings\basas\Application Data\Autodesk\AutoCAD 2005\R16.1\enu\plotters\Default Windows System Printer.pc3
  4

  6

 40
0.0
 41
0.0
 42
0.0
 43
0.0
 44
0.0
 45
0.0
 46
0.0
 47
0.0
 48
0.0
 49
0.0
140
0.0
141
0.0
142
1.0
143
1.0
 70
   688
 72
     0
 73
     0
 74
     5
  7

 75
    16
147
1.0
148
0.0
149
0.0
100
AcDbLayout
  1
Layout1
 70
     1
 71
     1
 10
0.0
 20
0.0
 11
12.0
 21
9.0
 12
0.0
 22
0.0
 32
0.0
 14
0.0
 24
0.0
 34
0.0
 15
0.0
 25
0.0
 35
0.0
146
0.0
 13
0.0
 23
0.0
 33
0.0
 16
1.0
 26
0.0
 36
0.0
 17
0.0
 27
1.0
 37
0.0
 76
     0
330
D2
  0
LAYOUT
  5
D7
102
{ACAD_XDICTIONARY
360
1409
102
}
102
{ACAD_REACTORS
330
1A
102
}
330
1A
100
AcDbPlotSettings
  1

  2
C:\Documents and Settings\basas\Application Data\Autodesk\AutoCAD 2005\R16.1\enu\plotters\Default Windows System Printer.pc3
  4

  6

 40
0.0
 41
0.0
 42
0.0
 43
0.0
 44
0.0
 45
0.0
 46
0.0
 47
0.0
 48
0.0
 49
0.0
140
0.0
141
0.0
142
1.0
143
1.0
 70
   688
 72
     0
 73
     0
 74
     5
  7

 75
    16
147
1.0
148
0.0
149
0.0
100
AcDbLayout
  1
Layout2
 70
     1
 71
     2
 10
0.0
 20
0.0
 11
12.0
 21
9.0
 12
0.0
 22
0.0
 32
0.0
 14
0.0
 24
0.0
 34
0.0
 15
0.0
 25
0.0
 35
0.0
146
0.0
 13
0.0
 23
0.0
 33
0.0
 16
1.0
 26
0.0
 36
0.0
 17
0.0
 27
1.0
 37
0.0
 76
     0
330
D6
  0
LAYOUT
  5
22
102
{ACAD_XDICTIONARY
360
1404
102
}
102
{ACAD_REACTORS
330
1A
102
}
330
1A
100
AcDbPlotSettings
  1

  2
none_device
  4
ISO_A4_(210.00_x_297.00_MM)
  6

 40
7.5
 41
20.0
 42
7.5
 43
20.0
 44
210.0
 45
297.0
 46
11.54999923706054
 47
-13.65000009536743
 48
0.0
 49
0.0
140
0.0
141
0.0
142
1.0
143
8.704084754739808
 70
 11952
 72
     1
 73
     0
 74
     0
  7

 75
     0
147
0.1148885871608098
148
0.0
149
0.0
100
AcDbLayout
  1
Model
 70
     1
 71
     0
 10
0.0
 20
0.0
 11
12.0
 21
9.0
 12
0.0
 22
0.0
 32
0.0
 14
0.0
 24
0.0
 34
0.0
 15
0.0
 25
0.0
 35
0.0
146
0.0
 13
0.0
 23
0.0
 33
0.0
 16
1.0
 26
0.0
 36
0.0
 17
0.0
 27
1.0
 37
0.0
 76
     0
330
1F
331
EA
1001
ACAD_PSEXT
1000
None
1000
None
1000
Not applicable
1000
The layout will not be plotted unless a new plotter configuration name is selected.
1070
     0
  0
MATERIAL
  5
ED
102
{ACAD_XDICTIONARY
360
1F9
102
}
102
{ACAD_REACTORS
330
6A
102
}
330
6A
100
AcDbMaterial
  1
ByBlock
  0
MATERIAL
  5
EC
102
{ACAD_XDICTIONARY
360
1F7
102
}
102
{ACAD_REACTORS
330
6A
102
}
330
6A
100
AcDbMaterial
  1
ByLayer
  0
MATERIAL
  5
EE
102
{ACAD_XDICTIONARY
360
173
102
}
102
{ACAD_REACTORS
330
6A
102
}
330
6A
100
AcDbMaterial
  1
Global
 43
0.0007999999797903
 43
0.0
 43
0.0
 43
0.0
 43
0.0
 43
0.0007999999797903
 43
0.0
 43
0.0
 43
0.0
 43
0.0
 43
1.0
 43
0.0
 43
0.0
 43
0.0
 43
0.0
 43
1.0
 49
0.0007999999797903
 49
0.0
 49
0.0
 49
0.0
 49
0.0
 49
0.0007999999797903
 49
0.0
 49
0.0
 49
0.0
 49
0.0
 49
1.0
 49
0.0
 49
0.0
 49
0.0
 49
0.0
 49
1.0
142
0.0007999999797903
142
0.0
142
0.0
142
0.0
142
0.0
142
0.0007999999797903
142
0.0
142
0.0
142
0.0
142
0.0
142
1.0
142
0.0
142
0.0
142
0.0
142
0.0
142
1.0
144
0.0007999999797903
144
0.0
144
0.0
144
0.0
144
0.0
144
0.0007999999797903
144
0.0
144
0.0
144
0.0
144
0.0
144
1.0
144
0.0
144
0.0
144
0.0
144
0.0
144
1.0
1001
ACAD
1070
    -1
1070
     3
1070
     0
1000

1071
        0
1070
     0
  0
MLEADERSTYLE
  5
12E
102
{ACAD_XDICTIONARY
360
142E
102
}
102
{ACAD_REACTORS
330
12D
102
}
330
12D
100
AcDbMLeaderStyle
170
     2
171
     1
172
     0
 90
        2
 40
0.0
 41
0.0
173
     1
 91
-1056964608
340
14
 92
       -2
290
     1
 42
2.0
291
     1
 43
8.0
  3
Standard
 44
4.0
300

342
11
174
     1
178
     1
175
     1
176
     0
 93
-1056964608
 45
4.0
292
     0
297
     0
 46
4.0
 94
-1056964608
 47
1.0
 49
1.0
140
1.0
293
     1
141
0.0
294
     1
177
     0
142
1.0
295
     0
296
     0
143
3.75
1001
ACAD_MLEADERVER
1070
     2
  0
MLINESTYLE
  5
18
102
{ACAD_REACTORS
330
17
102
}
330
17
100
AcDbMlineStyle
  2
STANDARD
 70
     0
  3

 62
   256
 51
90.0
 52
90.0
 71
     2
 49
0.5
 62
   256
  6
BYLAYER
 49
-0.5
 62
   256
  6
BYLAYER
  0
ACDBPLACEHOLDER
  5
F
102
{ACAD_REACTORS
330
E
102
}
330
E
  0
SCALE
  5
10D
102
{ACAD_REACTORS
330
10C
102
}
330
10C
100
AcDbScale
 70
     0
300
1:1
140
1.0
141
1.0
290
     1
  0
SCALE
  5
1BE
102
{ACAD_REACTORS
330
10C
102
}
330
10C
100
AcDbScale
 70
     0
300
1:2
140
1.0
141
2.0
290
     0
  0
SCALE
  5
1BF
102
{ACAD_REACTORS
330
10C
102
}
330
10C
100
AcDbScale
 70
     0
300
1:4
140
1.0
141
4.0
290
     0
  0
SCALE
  5
1C0
102
{ACAD_REACTORS
330
10C
102
}
330
10C
100
AcDbScale
 70
     0
300
1:5
140
1.0
141
5.0
290
     0
  0
SCALE
  5
1C1
102
{ACAD_REACTORS
330
10C
102
}
330
10C
100
AcDbScale
 70
     0
300
1:8
140
1.0
141
8.0
290
     0
  0
SCALE
  5
1C2
102
{ACAD_REACTORS
330
10C
102
}
330
10C
100
AcDbScale
 70
     0
300
1:10
140
1.0
141
10.0
290
     0
  0
SCALE
  5
1C3
102
{ACAD_REACTORS
330
10C
102
}
330
10C
100
AcDbScale
 70
     0
300
1:16
140
1.0
141
16.0
290
     0
  0
SCALE
  5
1C4
102
{ACAD_REACTORS
330
10C
102
}
330
10C
100
AcDbScale
 70
     0
300
1:20
140
1.0
141
20.0
290
     0
  0
SCALE
  5
1C5
102
{ACAD_REACTORS
330
10C
102
}
330
10C
100
AcDbScale
 70
     0
300
1:30
140
1.0
141
30.0
290
     0
  0
SCALE
  5
1C6
102
{ACAD_REACTORS
330
10C
102
}
330
10C
100
AcDbScale
 70
     0
300
1:40
140
1.0
141
40.0
290
     0
  0
SCALE
  5
1C7
102
{ACAD_REACTORS
330
10C
102
}
330
10C
100
AcDbScale
 70
     0
300
1:50
140
1.0
141
50.0
290
     0
  0
SCALE
  5
1C8
102
{ACAD_REACTORS
330
10C
102
}
330
10C
100
AcDbScale
 70
     0
300
1:100
140
1.0
141
100.0
290
     0
  0
SCALE
  5
1C9
102
{ACAD_REACTORS
330
10C
102
}
330
10C
100
AcDbScale
 70
     0
300
2:1
140
2.0
141
1.0
290
     0
  0
SCALE
  5
1CA
102
{ACAD_REACTORS
330
10C
102
}
330
10C
100
AcDbScale
 70
     0
300
4:1
140
4.0
141
1.0
290
     0
  0
SCALE
  5
1CB
102
{ACAD_REACTORS
330
10C
102
}
330
10C
100
AcDbScale
 70
     0
300
8:1
140
8.0
141
1.0
290
     0
  0
SCALE
  5
1CC
102
{ACAD_REACTORS
330
10C
102
}
330
10C
100
AcDbScale
 70
     0
300
10:1
140
10.0
141
1.0
290
     0
  0
SCALE
  5
1CD
102
{ACAD_REACTORS
330
10C
102
}
330
10C
100
AcDbScale
 70
     0
300
100:1
140
100.0
141
1.0
290
     0
  0
ACDBSECTIONVIEWSTYLE
  5
21A
102
{ACAD_XDICTIONARY
360
1440
102
}
102
{ACAD_REACTORS
330
219
102
}
330
219
100
AcDbModelDocViewStyle
 70
     0
  3
Metric50
290
     0
100
AcDbSectionViewStyle
 70
     0
 71
     0
 90
      102
 71
     1
340
11
 40
5.0
340
0
340
0
 40
5.0
300
I, O, Q, S, X, Z
 40
10.0
 90
        0
 40
2.5
 90
        0
 71
     2
340
16
 90
       25
340
16
 90
       50
 40
5.0
 40
2.5
 40
5.0
 71
     3
340
11
 40
5.0
 90
        0
 40
15.0
 90
        1
300
%<\AcVar ViewSectionStartId>%-%<\AcVar ViewSectionEndId>% (%<\AcVar ViewScale \f "%sn">%)
 71
     4
300
ANSI31
 40
1.0
 90
        0
290
     0
290
     0
 90
        6
 40
0.0
 40
1.570796326794896
 40
0.2617993877991494
 40
1.308996938995747
 40
-0.2617993877991494
 40
1.832595714594046
  0
TABLESTYLE
  5
7F
102
{ACAD_XDICTIONARY
360
162
102
}
102
{ACAD_REACTORS
330
7E
102
}
330
7E
100
AcDbTableStyle
  3
Standard
 70
     0
 71
     0
 40
1.5
 41
1.5
280
     0
281
     0
  7
Standard
140
4.5
170
     2
 62
     0
 63
     7
283
     0
274
    -2
284
     1
 64
     0
275
    -2
285
     1
 65
     0
276
    -2
286
     1
 66
     0
277
    -2
287
     1
 67
     0
278
    -2
288
     1
 68
     0
279
    -2
289
     1
 69
     0
  7
Standard
140
6.0
170
     5
 62
     0
 63
     7
283
     0
274
    -2
284
     1
 64
     0
275
    -2
285
     1
 65
     0
276
    -2
286
     1
 66
     0
277
    -2
287
     1
 67
     0
278
    -2
288
     1
 68
     0
279
    -2
289
     1
 69
     0
  7
Standard
140
4.5
170
     5
 62
     0
 63
     7
283
     0
274
    -2
284
     1
 64
     0
275
    -2
285
     1
 65
     0
276
    -2
286
     1
 66
     0
277
    -2
287
     1
 67
     0
278
    -2
288
     1
 68
     0
279
    -2
289
     1
 69
     0
  0
VISUALSTYLE
  5
F5
102
{ACAD_XDICTIONARY
360
1418
102
}
102
{ACAD_REACTORS
330
EF
102
}
330
EF
100
AcDbVisualStyle
  2
2dWireframe
 70
     4
 71
     0
 72
     2
 73
     1
 90
        0
 40
-0.6
 41
-30.0
 62
     5
 63
     7
 74
     1
 91
        4
 64
     7
 65
   257
 75
     1
175
     1
 42
1.0
 92
        0
 66
   257
 43
1.0
 76
     1
 77
     6
 78
     2
 67
     7
 79
     5
170
     0
171
     0
290
     0
174
     0
 93
        1
 44
0.0
173
     0
291
     0
 45
0.0
1001
ACAD
1000
AcDbSavedByObjectVersion
1070
     0
  0
VISUALSTYLE
  5
F4
102
{ACAD_XDICTIONARY
360
1416
102
}
102
{ACAD_REACTORS
330
EF
102
}
330
EF
100
AcDbVisualStyle
  2
Basic
 70
     7
 71
     1
 72
     0
 73
     1
 90
        0
 40
-0.6
 41
-30.0
 62
     5
 63
     7
 74
     0
 91
        4
 64
     7
 65
   257
 75
     1
175
     1
 42
1.0
 92
        8
 66
     7
 43
1.0
 76
     1
 77
     6
 78
     2
 67
     7
 79
     5
170
     0
171
     0
290
     0
174
     0
 93
        1
 44
0.0
173
     0
291
     1
 45
0.0
1001
ACAD
1000
AcDbSavedByObjectVersion
1070
     0
  0
VISUALSTYLE
  5
FB
102
{ACAD_XDICTIONARY
360
1424
102
}
102
{ACAD_REACTORS
330
EF
102
}
330
EF
100
AcDbVisualStyle
  2
Brighten
 70
    12
 71
     2
 72
     2
 73
     1
 90
        0
 40
-0.6
 41
-30.0
 62
     5
 63
     7
 74
     1
 91
        4
 64
     7
 65
   257
 75
     1
175
     1
 42
1.0
 92
        8
 66
     7
 43
1.0
 76
     1
 77
     6
 78
     2
 67
     7
 79
     5
170
     0
171
     0
290
     0
174
     0
 93
        1
 44
50.0
173
     0
291
     1
 45
0.0
1001
ACAD
1000
AcDbSavedByObjectVersion
1070
     0
  0
VISUALSTYLE
  5
FF
102
{ACAD_XDICTIONARY
360
142C
102
}
102
{ACAD_REACTORS
330
EF
102
}
330
EF
100
AcDbVisualStyle
  2
ColorChange
 70
    16
 71
     2
 72
     2
 73
     3
 90
        0
 40
-0.6
 41
-30.0
 62
     5
 63
     8
 74
     1
 91
        4
 64
     7
 65
   257
 75
     1
175
     1
 42
1.0
 92
        8
 66
     8
 43
1.0
 76
     1
 77
     6
 78
     2
 67
     7
 79
     5
170
     0
171
     0
290
     0
174
     0
 93
        1
 44
0.0
173
     0
291
     1
 45
0.0
1001
ACAD
1000
AcDbSavedByObjectVersion
1070
     0
  0
VISUALSTYLE
  5
F8
102
{ACAD_XDICTIONARY
360
141E
102
}
102
{ACAD_REACTORS
330
EF
102
}
330
EF
100
AcDbVisualStyle
  2
Conceptual
 70
     9
 71
     3
 72
     2
 73
     1
 90
        0
 40
-0.6
 41
-30.0
 62
     5
 63
     7
 74
     2
 91
        2
 64
     7
 65
   257
 75
     1
175
     1
 42
40.0
 92
        8
 66
     7
 43
1.0
 76
     1
 77
     6
 78
     2
 67
     7
 79
     3
170
     0
171
     0
290
     0
174
     0
 93
        1
 44
0.0
173
     0
291
     0
 45
0.0
1001
ACAD
1000
AcDbSavedByObjectVersion
1070
     0
  0
VISUALSTYLE
  5
FA
102
{ACAD_XDICTIONARY
360
1422
102
}
102
{ACAD_REACTORS
330
EF
102
}
330
EF
100
AcDbVisualStyle
  2
Dim
 70
    11
 71
     2
 72
     2
 73
     1
 90
        0
 40
-0.6
 41
-30.0
 62
     5
 63
     7
 74
     1
 91
        4
 64
     7
 65
   257
 75
     1
175
     1
 42
1.0
 92
        8
 66
     7
 43
1.0
 76
     1
 77
     6
 78
     2
 67
     7
 79
     5
170
     0
171
     0
290
     0
174
     0
 93
        1
 44
-50.0
173
     0
291
     1
 45
0.0
1001
ACAD
1000
AcDbSavedByObjectVersion
1070
     0
  0
VISUALSTYLE
  5
1E6
102
{ACAD_XDICTIONARY
360
1434
102
}
102
{ACAD_REACTORS
330
EF
102
}
330
EF
100
AcDbVisualStyle
  2
EdgeColorOff
 70
    22
 71
     2
 72
     2
 73
     0
 90
        0
 40
-0.6
 41
-30.0
 62
     5
 63
     7
 74
     1
 91
        4
 64
     7
 65
   257
 75
     1
175
     1
 42
1.0
 92
        8
 66
     7
 43
1.0
 76
     1
 77
     6
 78
     2
 67
     7
 79
     5
170
     0
171
     0
290
     0
174
     0
 93
        1
 44
0.0
173
     0
291
     1
 45
0.0
1001
ACAD
1000
AcDbSavedByObjectVersion
1070
     0
  0
VISUALSTYLE
  5
FE
102
{ACAD_XDICTIONARY
360
142A
102
}
102
{ACAD_REACTORS
330
EF
102
}
330
EF
100
AcDbVisualStyle
  2
Facepattern
 70
    15
 71
     2
 72
     2
 73
     1
 90
        0
 40
-0.6
 41
-30.0
 62
     5
 63
     7
 74
     1
 91
        4
 64
     7
 65
   257
 75
     1
175
     1
 42
1.0
 92
        8
 66
     7
 43
1.0
 76
     1
 77
     6
 78
     2
 67
     7
 79
     5
170
     0
171
     0
290
     0
174
     0
 93
        1
 44
0.0
173
     0
291
     1
 45
0.0
1001
ACAD
1000
AcDbSavedByObjectVersion
1070
     0
  0
VISUALSTYLE
  5
F0
102
{ACAD_XDICTIONARY
360
140E
102
}
102
{ACAD_REACTORS
330
EF
102
}
330
EF
100
AcDbVisualStyle
  2
Flat
 70
     0
 71
     2
 72
     1
 73
     1
 90
        2
 40
-0.6
 41
30.0
 62
     5
 63
     7
 74
     0
 91
        0
 64
     7
 65
   257
 75
     1
175
     1
 42
1.0
 92
        8
 66
     7
 43
1.0
 76
     1
 77
     6
 78
     2
 67
     7
 79
     5
170
     0
171
     0
290
     0
174
     0
 93
       13
 44
0.0
173
     0
291
     1
 45
0.0
1001
ACAD
1000
AcDbSavedByObjectVersion
1070
     0
  0
VISUALSTYLE
  5
F1
102
{ACAD_XDICTIONARY
360
1410
102
}
102
{ACAD_REACTORS
330
EF
102
}
330
EF
100
AcDbVisualStyle
  2
FlatWithEdges
 70
     1
 71
     2
 72
     1
 73
     1
 90
        2
 40
-0.6
 41
30.0
 62
     5
 63
     7
 74
     1
 91
        0
 64
     7
 65
   257
 75
     1
175
     1
 42
1.0
 92
        0
 66
   257
 43
1.0
 76
     1
 77
     6
 78
     2
 67
     7
 79
     5
170
     0
171
     0
290
     0
174
     0
 93
       13
 44
0.0
173
     0
291
     1
 45
0.0
1001
ACAD
1000
AcDbSavedByObjectVersion
1070
     0
  0
VISUALSTYLE
  5
F2
102
{ACAD_XDICTIONARY
360
1412
102
}
102
{ACAD_REACTORS
330
EF
102
}
330
EF
100
AcDbVisualStyle
  2
Gouraud
 70
     2
 71
     2
 72
     2
 73
     1
 90
        2
 40
-0.6
 41
30.0
 62
     5
 63
     7
 74
     0
 91
        0
 64
     7
 65
   257
 75
     1
175
     1
 42
1.0
 92
        0
 66
     7
 43
1.0
 76
     1
 77
     6
 78
     2
 67
     7
 79
     5
170
     0
171
     0
290
     0
174
     0
 93
       13
 44
0.0
173
     0
291
     1
 45
0.0
1001
ACAD
1000
AcDbSavedByObjectVersion
1070
     0
  0
VISUALSTYLE
  5
F3
102
{ACAD_XDICTIONARY
360
1414
102
}
102
{ACAD_REACTORS
330
EF
102
}
330
EF
100
AcDbVisualStyle
  2
GouraudWithEdges
 70
     3
 71
     2
 72
     2
 73
     1
 90
        2
 40
-0.6
 41
30.0
 62
     5
 63
     7
 74
     1
 91
        0
 64
     7
 65
   257
 75
     1
175
     1
 42
1.0
 92
        0
 66
   257
 43
1.0
 76
     1
 77
     6
 78
     2
 67
     7
 79
     5
170
     0
171
     0
290
     0
174
     0
 93
       13
 44
0.0
173
     0
291
     1
 45
0.0
1001
ACAD
1000
AcDbSavedByObjectVersion
1070
     0
  0
VISUALSTYLE
  5
F7
102
{ACAD_XDICTIONARY
360
141C
102
}
102
{ACAD_REACTORS
330
EF
102
}
330
EF
100
AcDbVisualStyle
  2
Hidden
 70
     6
 71
     1
 72
     2
 73
     2
 90
        0
 40
-0.6
 41
-30.0
 62
     5
 63
     7
 74
     2
 91
        2
 64
     7
 65
   257
 75
     2
175
     1
 42
40.0
 92
        0
 66
   257
 43
1.0
 76
     1
 77
     6
 78
     2
 67
     7
 79
     3
170
     0
171
     0
290
     0
174
     0
 93
        1
 44
0.0
173
     0
291
     0
 45
0.0
1001
ACAD
1000
AcDbSavedByObjectVersion
1070
     0
  0
VISUALSTYLE
  5
1E4
102
{ACAD_XDICTIONARY
360
1430
102
}
102
{ACAD_REACTORS
330
EF
102
}
330
EF
100
AcDbVisualStyle
  2
JitterOff
 70
    20
 71
     2
 72
     2
 73
     0
 90
        0
 40
-0.6
 41
-30.0
 62
     5
 63
     7
 74
     1
 91
        4
 64
     7
 65
   257
 75
     1
175
     1
 42
1.0
 92
       10
 66
     7
 43
1.0
 76
     1
 77
     6
 78
     2
 67
     7
 79
     5
170
     0
171
     0
290
     0
174
     0
 93
        1
 44
0.0
173
     0
291
     1
 45
0.0
1001
ACAD
1000
AcDbSavedByObjectVersion
1070
     0
  0
VISUALSTYLE
  5
FD
102
{ACAD_XDICTIONARY
360
1428
102
}
102
{ACAD_REACTORS
330
EF
102
}
330
EF
100
AcDbVisualStyle
  2
Linepattern
 70
    14
 71
     2
 72
     2
 73
     1
 90
        0
 40
-0.6
 41
-30.0
 62
     5
 63
     7
 74
     1
 91
        4
 64
     7
 65
   257
 75
     7
175
     7
 42
1.0
 92
        8
 66
     7
 43
1.0
 76
     1
 77
     6
 78
     2
 67
     7
 79
     5
170
     0
171
     0
290
     0
174
     0
 93
        1
 44
0.0
173
     0
291
     1
 45
0.0
1001
ACAD
1000
AcDbSavedByObjectVersion
1070
     0
  0
VISUALSTYLE
  5
1E5
102
{ACAD_XDICTIONARY
360
1432
102
}
102
{ACAD_REACTORS
330
EF
102
}
330
EF
100
AcDbVisualStyle
  2
OverhangOff
 70
    21
 71
     2
 72
     2
 73
     0
 90
        0
 40
-0.6
 41
-30.0
 62
     5
 63
     7
 74
     1
 91
        4
 64
     7
 65
   257
 75
     1
175
     1
 42
1.0
 92
        9
 66
     7
 43
1.0
 76
     1
 77
     6
 78
     2
 67
     7
 79
     5
170
     0
171
     0
290
     0
174
     0
 93
        1
 44
0.0
173
     0
291
     1
 45
0.0
1001
ACAD
1000
AcDbSavedByObjectVersion
1070
     0
  0
VISUALSTYLE
  5
F9
102
{ACAD_XDICTIONARY
360
1420
102
}
102
{ACAD_REACTORS
330
EF
102
}
330
EF
100
AcDbVisualStyle
  2
Realistic
 70
     8
 71
     2
 72
     2
 73
     0
 90
        2
 40
-0.6
 41
30.0
 62
     5
 63
     7
 74
     0
 91
        0
 64
     7
 65
   257
 75
     1
175
     1
 42
1.0
 92
        8
 66
   257
 43
1.0
 76
     1
 77
     6
 78
     2
 67
     7
 79
     3
170
     0
171
     0
290
     0
174
     0
 93
       13
 44
0.0
173
     0
291
     0
 45
0.0
1001
ACAD
1000
AcDbSavedByObjectVersion
1070
     0
  0
VISUALSTYLE
  5
1F3
102
{ACAD_XDICTIONARY
360
143E
102
}
102
{ACAD_REACTORS
330
EF
102
}
330
EF
100
AcDbVisualStyle
  2
Shaded
 70
    27
 71
     2
 72
     2
 73
     1
 90
        2
 40
-0.6
 41
30.0
 62
     5
 63
     7
 74
     0
 91
        4
 64
     7
 65
   257
 75
     1
175
     1
 42
1.0
 92
        8
 66
   257
 43
1.0
 76
     1
 77
     6
 78
     2
 67
     8
 79
     3
170
     0
171
     0
290
     0
174
     0
 93
        5
 44
0.0
173
     0
291
     0
 45
0.0
1001
ACAD
1000
AcDbSavedByObjectVersion
1070
     0
  0
VISUALSTYLE
  5
1F2
102
{ACAD_XDICTIONARY
360
143C
102
}
102
{ACAD_REACTORS
330
EF
102
}
330
EF
100
AcDbVisualStyle
  2
Shaded with edges
 70
    26
 71
     2
 72
     2
 73
     1
 90
        2
 40
-0.6
 41
30.0
 62
     5
 63
     7
 74
     1
 91
        2
 64
     7
 65
   257
 75
     2
175
     1
 42
1.0
 92
        8
 66
   257
 43
1.0
 76
     1
 77
     6
 78
     2
 67
     7
 79
     3
170
     0
171
     0
290
     0
174
     0
 93
        5
 44
0.0
173
     0
291
     0
 45
0.0
1001
ACAD
1000
AcDbSavedByObjectVersion
1070
     0
  0
VISUALSTYLE
  5
1EF
102
{ACAD_XDICTIONARY
360
1436
102
}
102
{ACAD_REACTORS
330
EF
102
}
330
EF
100
AcDbVisualStyle
  2
Shades of Gray
 70
    23
 71
     2
 72
     2
 73
     3
 90
        0
 40
-0.6
 41
-30.0
 62
     5
 63
     7
 74
     2
 91
        2
 64
     7
 65
     7
 75
     1
175
     1
 42
40.0
 92
        8
 66
     7
 43
1.0
 76
     1
 77
     6
 78
     2
 67
     7
 79
     3
170
     0
171
     0
290
     0
174
     0
 93
        1
 44
0.0
173
     0
291
     0
 45
0.0
1001
ACAD
1000
AcDbSavedByObjectVersion
1070
     0
  0
VISUALSTYLE
  5
1F0
102
{ACAD_XDICTIONARY
360
1438
102
}
102
{ACAD_REACTORS
330
EF
102
}
330
EF
100
AcDbVisualStyle
  2
Sketchy
 70
    24
 71
     1
 72
     2
 73
     2
 90
        0
 40
-0.6
 41
-30.0
 62
     5
 63
     7
 74
     2
 91
        2
 64
     7
 65
     7
 75
     1
175
     1
 42
40.0
 92
       11
 66
     7
 43
1.0
 76
     1
 77
     6
 78
     2
 67
     7
 79
     6
170
     0
171
     0
290
     0
174
     0
 93
        1
 44
0.0
173
     0
291
     0
 45
0.0
1001
ACAD
1000
AcDbSavedByObjectVersion
1070
     0
  0
VISUALSTYLE
  5
FC
102
{ACAD_XDICTIONARY
360
1426
102
}
102
{ACAD_REACTORS
330
EF
102
}
330
EF
100
AcDbVisualStyle
  2
Thicken
 70
    13
 71
     2
 72
     2
 73
     1
 90
        0
 40
-0.6
 41
-30.0
 62
     5
 63
     7
 74
     1
 91
        4
 64
     7
 65
   257
 75
     1
175
     1
 42
1.0
 92
       12
 66
     7
 43
1.0
 76
     1
 77
     6
 78
     2
 67
     7
 79
     5
170
     0
171
     0
290
     0
174
     0
 93
        1
 44
0.0
173
     0
291
     1
 45
0.0
1001
ACAD
1000
AcDbSavedByObjectVersion
1070
     0
  0
VISUALSTYLE
  5
F6
102
{ACAD_XDICTIONARY
360
141A
102
}
102
{ACAD_REACTORS
330
EF
102
}
330
EF
100
AcDbVisualStyle
  2
Wireframe
 70
     5
 71
     0
 72
     2
 73
     0
 90
        0
 40
-0.6
 41
-30.0
 62
     5
 63
     7
 74
     1
 91
        4
 64
     7
 65
   257
 75
     1
175
     1
 42
1.0
 92
        0
 66
   257
 43
1.0
 76
     1
 77
     6
 78
     2
 67
     7
 79
     3
170
     0
171
     0
290
     0
174
     0
 93
        1
 44
0.0
173
     0
291
     0
 45
0.0
1001
ACAD
1000
AcDbSavedByObjectVersion
1070
     0
  0
VISUALSTYLE
  5
1F1
102
{ACAD_XDICTIONARY
360
143A
102
}
102
{ACAD_REACTORS
330
EF
102
}
330
EF
100
AcDbVisualStyle
  2
X-Ray
 70
    25
 71
     2
 72
     2
 73
     1
 90
        1
 40
0.5
 41
-30.0
 62
     5
 63
     7
 74
     1
 91
        0
 64
     7
 65
   257
 75
     1
175
     1
 42
1.0
 92
        8
 66
     7
 43
1.0
 76
     1
 77
     6
 78
     2
 67
     7
 79
     3
170
     0
171
     0
290
     0
174
     0
 93
       13
 44
0.0
173
     0
291
     0
 45
0.0
1001
ACAD
1000
AcDbSavedByObjectVersion
1070
     0
  0
DICTIONARYVAR
  5
146
102
{ACAD_REACTORS
330
5E
102
}
330
5E
100
DictionaryVariables
280
     0
  1
1:1
  0
DICTIONARYVAR
  5
259
102
{ACAD_REACTORS
330
5E
102
}
330
5E
100
DictionaryVariables
280
     0
  1
3.500000
  0
DICTIONARYVAR
  5
25A
102
{ACAD_REACTORS
330
5E
102
}
330
5E
100
DictionaryVariables
280
     0
  1
acadiso.lin
  0
DICTIONARYVAR
  5
145
102
{ACAD_REACTORS
330
5E
102
}
330
5E
100
DictionaryVariables
280
     0
  1
STANDARD
  0
DICTIONARYVAR
  5
84
102
{ACAD_REACTORS
330
5E
102
}
330
5E
100
DictionaryVariables
280
     0
  1
STANDARD
  0
DICTIONARYVAR
  5
227
102
{ACAD_REACTORS
330
5E
102
}
330
5E
100
DictionaryVariables
280
     0
  1
Metric50
  0
DICTIONARYVAR
  5
228
102
{ACAD_REACTORS
330
5E
102
}
330
5E
100
DictionaryVariables
280
     0
  1
Metric50
  0
DICTIONARYVAR
  5
5F
102
{ACAD_REACTORS
330
5E
102
}
330
5E
100
DictionaryVariables
280
     0
  1
2
  0
DICTIONARYVAR
  5
63
102
{ACAD_REACTORS
330
5E
102
}
330
5E
100
DictionaryVariables
280
     0
  1
1
  0
DICTIONARYVAR
  5
13AF
102
{ACAD_REACTORS
330
5E
102
}
330
5E
100
DictionaryVariables
280
     0
  1
0
  0
DICTIONARYVAR
  5
1AE
102
{ACAD_REACTORS
330
5E
102
}
330
5E
100
DictionaryVariables
280
     0
  1
0
  0
DICTIONARYVAR
  5
1AF
102
{ACAD_REACTORS
330
5E
102
}
330
5E
100
DictionaryVariables
280
     0
  1
0
  0
DICTIONARYVAR
  5
13AD
102
{ACAD_REACTORS
330
5E
102
}
330
5E
100
DictionaryVariables
280
     0
  1
2
  0
DICTIONARYVAR
  5
13AC
102
{ACAD_REACTORS
330
5E
102
}
330
5E
100
DictionaryVariables
280
     0
  1
1
  0
DICTIONARYVAR
  5
13FF
102
{ACAD_REACTORS
330
5E
102
}
330
5E
100
DictionaryVariables
280
     0
  1
80.000000
  0
DICTIONARYVAR
  5
13FE
102
{ACAD_REACTORS
330
5E
102
}
330
5E
100
DictionaryVariables
280
     0
  1
5.000000
  0
DICTIONARYVAR
  5
13AE
102
{ACAD_REACTORS
330
5E
102
}
330
5E
100
DictionaryVariables
280
     0
  1
127
  0
DICTIONARYVAR
  5
1400
102
{ACAD_REACTORS
330
5E
102
}
330
5E
100
DictionaryVariables
280
     0
  1
2
  0
DICTIONARY
  5
1442
330
21C
100
AcDbDictionary
280
     1
281
     1
  3
ACAD_XREC_ROUNDTRIP
360
1443
  0
DICTIONARY
  5
1407
330
D3
100
AcDbDictionary
280
     1
281
     1
  3
ACAD_XREC_ROUNDTRIP
360
1408
  0
DICTIONARY
  5
1409
330
D7
100
AcDbDictionary
280
     1
281
     1
  3
ACAD_XREC_ROUNDTRIP
360
140A
  0
DICTIONARY
  5
1404
330
22
100
AcDbDictionary
280
     1
281
     1
  3
ACAD_XREC_ROUNDTRIP
360
1405
  0
DICTIONARY
  5
1F9
330
ED
100
AcDbDictionary
280
     1
281
     1
  3
ACAD_XREC_ROUNDTRIP
360
140C
  3
FBXASSET
360
1FA
  0
DICTIONARY
  5
1F7
330
EC
100
AcDbDictionary
280
     1
281
     1
  3
ACAD_XREC_ROUNDTRIP
360
140B
  3
FBXASSET
360
1F8
  0
DICTIONARY
  5
173
330
EE
100
AcDbDictionary
280
     1
281
     1
  3
ACAD_XREC_ROUNDTRIP
360
140D
  3
BUMPTILE
360
175
  3
DIFFUSETILE
360
174
  3
FBXASSET
360
1FB
  3
OPACITYTILE
360
176
  3
REFLECTIONTILE
360
177
  0
DICTIONARY
  5
142E
330
12E
100
AcDbDictionary
280
     1
281
     1
  3
ACAD_XREC_ROUNDTRIP
360
142F
  0
DICTIONARY
  5
1440
330
21A
100
AcDbDictionary
280
     1
281
     1
  3
ACAD_XREC_ROUNDTRIP
360
1441
  0
DICTIONARY
  5
162
330
7F
100
AcDbDictionary
280
     1
281
     1
  3
ACAD_ROUNDTRIP_2008_TABLESTYLE_CELLSTYLEMAP
360
1401
  3
ACAD_XREC_ROUNDTRIP
360
1406
  0
DICTIONARY
  5
1418
330
F5
100
AcDbDictionary
280
     1
281
     1
  3
ACAD_XREC_ROUNDTRIP
360
1419
  0
DICTIONARY
  5
1416
330
F4
100
AcDbDictionary
280
     1
281
     1
  3
ACAD_XREC_ROUNDTRIP
360
1417
  0
DICTIONARY
  5
1424
330
FB
100
AcDbDictionary
280
     1
281
     1
  3
ACAD_XREC_ROUNDTRIP
360
1425
  0
DICTIONARY
  5
142C
330
FF
100
AcDbDictionary
280
     1
281
     1
  3
ACAD_XREC_ROUNDTRIP
360
142D
  0
DICTIONARY
  5
141E
330
F8
100
AcDbDictionary
280
     1
281
     1
  3
ACAD_XREC_ROUNDTRIP
360
141F
  0
DICTIONARY
  5
1422
330
FA
100
AcDbDictionary
280
     1
281
     1
  3
ACAD_XREC_ROUNDTRIP
360
1423
  0
DICTIONARY
  5
1434
330
1E6
100
AcDbDictionary
280
     1
281
     1
  3
ACAD_XREC_ROUNDTRIP
360
1435
  0
DICTIONARY
  5
142A
330
FE
100
AcDbDictionary
280
     1
281
     1
  3
ACAD_XREC_ROUNDTRIP
360
142B
  0
DICTIONARY
  5
140E
330
F0
100
AcDbDictionary
280
     1
281
     1
  3
ACAD_XREC_ROUNDTRIP
360
140F
  0
DICTIONARY
  5
1410
330
F1
100
AcDbDictionary
280
     1
281
     1
  3
ACAD_XREC_ROUNDTRIP
360
1411
  0
DICTIONARY
  5
1412
330
F2
100
AcDbDictionary
280
     1
281
     1
  3
ACAD_XREC_ROUNDTRIP
360
1413
  0
DICTIONARY
  5
1414
330
F3
100
AcDbDictionary
280
     1
281
     1
  3
ACAD_XREC_ROUNDTRIP
360
1415
  0
DICTIONARY
  5
141C
330
F7
100
AcDbDictionary
280
     1
281
     1
  3
ACAD_XREC_ROUNDTRIP
360
141D
  0
DICTIONARY
  5
1430
330
1E4
100
AcDbDictionary
280
     1
281
     1
  3
ACAD_XREC_ROUNDTRIP
360
1431
  0
DICTIONARY
  5
1428
330
FD
100
AcDbDictionary
280
     1
281
     1
  3
ACAD_XREC_ROUNDTRIP
360
1429
  0
DICTIONARY
  5
1432
330
1E5
100
AcDbDictionary
280
     1
281
     1
  3
ACAD_XREC_ROUNDTRIP
360
1433
  0
DICTIONARY
  5
1420
330
F9
100
AcDbDictionary
280
     1
281
     1
  3
ACAD_XREC_ROUNDTRIP
360
1421
  0
DICTIONARY
  5
143E
330
1F3
100
AcDbDictionary
280
     1
281
     1
  3
ACAD_XREC_ROUNDTRIP
360
143F
  0
DICTIONARY
  5
143C
330
1F2
100
AcDbDictionary
280
     1
281
     1
  3
ACAD_XREC_ROUNDTRIP
360
143D
  0
DICTIONARY
  5
1436
330
1EF
100
AcDbDictionary
280
     1
281
     1
  3
ACAD_XREC_ROUNDTRIP
360
1437
  0
DICTIONARY
  5
1438
330
1F0
100
AcDbDictionary
280
     1
281
     1
  3
ACAD_XREC_ROUNDTRIP
360
1439
  0
DICTIONARY
  5
1426
330
FC
100
AcDbDictionary
280
     1
281
     1
  3
ACAD_XREC_ROUNDTRIP
360
1427
  0
DICTIONARY
  5
141A
330
F6
100
AcDbDictionary
280
     1
281
     1
  3
ACAD_XREC_ROUNDTRIP
360
141B
  0
DICTIONARY
  5
143A
330
1F1
100
AcDbDictionary
280
     1
281
     1
  3
ACAD_XREC_ROUNDTRIP
360
143B
  0
XRECORD
  5
1443
102
{ACAD_REACTORS
330
1442
102
}
330
1442
100
AcDbXrecord
280
     1
102
DISPLAYNAME
  1
Metric50
102
FLAGS
 90
        0
  0
XRECORD
  5
1408
102
{ACAD_REACTORS
330
1407
102
}
330
1407
100
AcDbXrecord
280
     1
102
SHADEPLOT
 70
     0
102
SHADEPLOTRESLEVEL
 70
     2
102
SHADEPLOTCUSTOMDPI
 70
   300
  0
XRECORD
  5
140A
102
{ACAD_REACTORS
330
1409
102
}
330
1409
100
AcDbXrecord
280
     1
102
SHADEPLOT
 70
     0
102
SHADEPLOTRESLEVEL
 70
     2
102
SHADEPLOTCUSTOMDPI
 70
   300
  0
XRECORD
  5
1405
102
{ACAD_REACTORS
330
1404
102
}
330
1404
100
AcDbXrecord
280
     1
102
SHADEPLOT
 70
     0
102
SHADEPLOTRESLEVEL
 70
     2
102
SHADEPLOTCUSTOMDPI
 70
   300
  0
XRECORD
  5
140C
102
{ACAD_REACTORS
330
1F9
102
}
330
1F9
100
AcDbXrecord
280
     1
102
MATERIAL
148
0.0
149
0.0
149
0.0
 93
        0
 94
       63
282
     0
 72
     1
 77
     1
171
     1
175
     1
179
     1
273
     0
  0
XRECORD
  5
1FA
102
{ACAD_REACTORS
330
1F9
102
}
330
1F9
100
AcDbXrecord
280
     1
 70
     1
 90
429727718
  1
D62C5603-E3A1-4AEA-B7FB-FE5D8D0755AF
310
504B03040A0000080000CC70623B3DEE336E79000000790000001B0000006175746F6465736B2D64657369676E2D7061636B6167652E786D6C3C3F786D6C2076657273696F6E3D22312E302220656E636F64696E673D227574662D3822203F3E3C666F726D6174733E3C666F726D61743E687474703A2F2F736368656D612E
310
6175746F6465736B2E636F6D2F64657369676E2D7061636B6167652F323030393C2F666F726D61743E3C2F666F726D6174733E504B0304140006080800CC70623BD486FD9CA0000000F4000000130000005B436F6E74656E745F54797065735D2E786D6C7D8EC10E82300C865F65E91D8A1E8C310C0EEA1BF002731658846E
310
D98AC1B77784ABF1D8FE5FBFBF75BBCE937A534CCEB38643598122B6FEE978D0B0485F9C41B54DDD7D022595594E1A469170414C76A4D9A4D207E29CF43ECE46F218070CC6BECC4078ACAA135ACF422C856C0E68EA1BF5669944DDD7BCDE7B1F8E415D77AECB980613C2E4AC91FC167A2B244592486606FC29C8FD7F045B9A
310
EF7053A7E60B504B0304140006080800CC70623B853B8169EB0000007C01000008000000636F72652E786D6C8D90416EC3201045AF62CDB6C206821CC7C244919D9CA01740401C94182C03558F5F9C3852BBEB6A467FFE9B197D7EFC9E1EC5975982F5AE035262288C535E5B377690E21535501C055FBC8FBF6C503839990E
310
5619041F179FE64D52DE45E362569DD7661365082642A11EB9E920A89B99642953CC8E702F67A9EE7234257977194EC9EAE275C4EABCCF5EAD5940D4AC6F0E35A568B8F43562CD7046CD199FD07E60174276A7BE677B5EADB0E0D14EEFFB6A31321A0D82627C4084204C3F096B71DD52F6819B16635EADF63F509AF53FA164
310
5DDCD1EDDD17164090FCC8732078B56691CB33A85CD7DCC40F504B0304140006080800CC70623B55019EA25F0000007C00000007000000636E782E786D6C4DCB3B0E80201045D1AD90E915ED2CF8AC45050C11660C8261F98AB1B07AC9C97D42D718D865D3E909258CFD00CCE24AC6E326A164D74DC0B4128928FF32603847
310
2BA13128B1252AC747C6BAB984FC68F0B87FE8960A5C09FE86CFB69FBA01504B0304140006080800CC70623BDBABAAF470010000D40300000C0000006662782F636F72652E786D6CC553D16E823014FD95A6AF4B694182CC941A83FA05FB810A9511A125A5257EFE2E82712ECEB8A7F100CD39F7F69E734AF9FADC366850B6
310
AF8DCE7018308C942E4C59EB2AC3DE1D498AD15A706B8CFB56869196ADCAF00863C12B6B7C374385D14E6907A836A59A41D9F7CA615434B0C8705F7CAA5606D23BA8E84F41278B93AC54100640439DE0BDB320004D43C63716C7C399D30917DCFBBA9CD9BA8469F5B156168B24CED3F7248AC8769F27244EB73B92EED8862C
310
B7F13E0C179B3C8F979C8ECD82BBBABDAA2BAC924E9558448CBD9330242CFA08E3154B5651FCC6D215639C8EE5774DBE2B5F6CF2B5768B68963BB5F5588420E442FC700B1139D4CB01F450C1E918227C2E09DF070D8140C84E1E9AAB8F1340832A9CB13130A5F1376A908D57309505ECF2A0DF179C4E9D30F5B239B87E3823
310
7A79C6F31DE1A8A5AEC08474B03C7837EAE4938639B44E5932B833D2C6B6B279CDC613877FA26EE21F4A2A4C63EC7F29A2F301D1F9F7A0E37D145F504B0304140006080800CC70623B9C113CC27E0000009D0000000B0000006662782F636E782E786D6C4DCCDF0A83201C86E15B91DFB94BFB330DD428C8FB886521330DA7
310
6397BF1A1DECE883878F57749FCDA1B7892F1BBC047A23808C7F84D9FA55424E0BE6803A256208E9EF06C84F9B91703228B1C690F78B66B34CD9A5439DF5CF0BFBF65E35BCA1B8D6A5C6F540381E886698B5741C695F9503EBA150A2F8958E3DC3EA0B504B0304140006080800CC70623B7DF2F77C2A010000120200003100
310
00006662782F41393633353835312D344632462D344230382D423046372D3739314545314133324237412F636F72652E786D6C8D51DB8EC22014FC15C2939B0D2DB4B45643319AE817EC0F6041255A68B86CFCFC856D4D76DF7CE190393373060EDB3DC707F856CE6B6B7A480A0C81328395DA5C7B18C3057510EC3873D686
310
3F34088C18550F330C39BB3A1BA7051AAC09CA84841A2BD5020AEF55806078A44B0FFD7053A328440C89E1EFC52486BBB8AA8214A99D789CF9E05200300FC927E4FB4D5B375D43103D5527440FB843077C5AA3F5861C8F645F5787F59E95B390B318B55CE45AA638FAA2957BD7248B390B7A7CC51F9C124149C82B8C378810
310
84AB2F42B7B8DD56F413775B8C5999E9FF4471926F8AA236A1AE96B8B3CC434E5839373893369E1FAF30EA395917409EB7F26AF8801C171837A4A6AC9C89E9F9C9B1A58BA30FD6A5EF5DDDCF894B9AD9B6A59C957943A9FCAE2FD5BC4DFE03504B0304140006080800CC70623BAD7543B64E01000033030000300000006662
310
782F41393633353835312D344632462D344230382D423046372D3739314545314133324237412F636E782E786D6CD593CD6EC32010845F0571AD6CE3D48AD20813A9873E410FBD12D82434182C7EAAE6EDBB2424CD25871E7B41D6EC30B3FA84F9E67BB2E40B4234DE8DB46F1925E094D7C6ED479AD3AE5951B2113C789FEE
310
6C943839C1488B4C05DF079FE72A69D8C96C13AAD6B8631503449F83828872B949AC57D26200B826A308D316B4064D6E46FCDA41C05550DC9E483A00797BFD207EFB092A45DE9514C1BBD22178396BD39D891265658C238DEA00936C654E5E433CB65A26D9F6EDB5EBC14EBF49A45CB856E66048291F6939A9A81BB5C89177
310
38143CA680F4AA299D66A042CEB3354A2684DC9D8D178FE0D9B8B41CAAD720F880EE7EF93C0C18769E099ECC04D5A102C8049A8A05632F4DDF376CF1DE0F6BB65C2F8627B65A33C6BB62177CEBBDAD973006829F89F22E814B54F4BC2BE347F8AA8F681390B50FA73F804400B5F542E796F19FF974E7F78DB802FE05E20750
310
4B0304140006080800CC70623BE75B7789680500003C100000340000006662782F41393633353835312D344632462D344230382D423046372D3739314545314133324237412F6F626A656374732E786D6CAD575B8F9B3818FD2B887D06C22499CB8AA1CA655245D5B455A356FB305264C061D8018C6C3393D95FBFC7600890
310
A4CD5EF210B0B1BFEBF98E3F7B1FF6596ABC522E1296DF9BAE3D320D9A872C4AF2F8DE2CE5CEBA358D0FBEC719939D65A691938CDE9B6ADAF4BD98B3B2D05311DD91329583D9D5FC0F438434A7A611A644887B5384CF34233629258BA878B12322891DEFF6B66BD70BFB62634E8AE781D082709A4B588AF91C528CDA28B73F
310
1C998EEF39EABBEFA97FBD6A7C7E9553F9D3D79FE442923C3C523610337627CB87ABE99D359D4CC6D6E4FACAB5E6ABF9D2726FC6A3C5F56271377BB88362213924694B38DD99FE47C48627A1E7D49F5A8BB5E1A74C0A599ED3B0F21F1E56366B89112D681E218F0915D0D6F17AD41FBA2A369DCF6335D62ABBD39779D5DDD1
310
11D4D8DE3CBB96B2E04FB8202E41051754A1AA8E8F76B4C6DFE810B580B1547F4B84911149794252234D024EF8BBE963A95AE27B3D310A9D5C215C7960FAEE415ED75694C6AFB17BCACA5D99A60A9AA65F217B0BFC53292ACB92BF283FAD0D3621576592CB5BED907C2FA8E9DF794E35E97BEA31BED21FEB401ABB94C44839
310
DCACBF0E1C5DA8DA5B2F4DFFD32AD86F543D9E565E7056502E157C00AD2671CD534549AB752FCA9CDA00677A313F04E51B22FF19E57B300579E3C97EB29F682D92935CEC18CF901B7B54FD8C51F362B56FC72FE0B3C1EAE335EDCCBF5AEC39ADB17DC238973F804BA5E6F6BFE7AF1FB32E523BE9F3BD571418E3631DCA4D48
310
5250CF639223210A9446CA30052EDF057BD35F8329C1ECD84552BF0DC8D18BE7BCE23BFE6BD960AB4A7DE79923A103BEBD80F911CBAA2C60DB19B01CF164A5583B772EE6D3FFA56666CBCDA74DC97724A48F9A58967497E489C4D979006FD7A05E227A1EBDD0F737C623387A9C844D3709995625106D157315F8B8392CD4E0
310
A0B9A720C4BE9829CEF37EA1E13111214D53925356365ADA634861B52519DD27A00AEB808EAF0628E6F435519D446F45CF2C9CF5214F0A15B2F6D06B79DA3EE3CBF7F56780D2F4E7EF73A0F5E5B02A38D07DC852C6B7C1FBB6664213E0C39E3EBA7FF4E1AD23EA2829407C85E586727488B751B2DB9502BC7B228A3FD68B6E
310
A65A22397E690AA8D158D7E404EC8CDA235CC3B7D1898680131CEC2CDF2638C65196279577750F15884AEE19F94199155B92B13297978469D4F8D358DF0AEF7631E28DC8F0D9F437D5D39A83B2231A1D52D543813A824EF8D44BCFF2FA6A31BD1E8DAD87F1CCB526B3879935BF59CDADD5C37479BB1CDD4CA7B3556B516589
310
EF352754B706114D9C885EC9131DE6EFEB43D99AFE2391C2F958179413D7CFEF6B1B6DB1E7600F00DE6E5C67454A339A4BA2E0FBA85ED26F045D454F463DBFCE484C2F90F2E5E3666003662ED8F755951A7D1BECD5B30B550B2785C8E7320B7292A4838DDA71BBC863ED7613CAF659337A3354231D4FF4A182A54904C2898C
310
98B28C4AD0CE056CCF332A80986E571EE9DBC305BB5FEB7E509220A58D25CF042D712A806AC0AD0C657FDEF80D2D9CEAA2EE4D1C76F60BFE74219A06527D6F82DF6412526107381E55E353090704D085B52408A8913C4ED159D79BDA71BB4BC506F4831350EB6F975CD22D69BF7AC49B91A2C0A9DDA3D5CA36AD20FC478E37
310
E61844E2352865EBCB61A275A65283CAAA9DD27703B4102F5AF51EF5F573B75CBB5AD38BC845F7A49F82A0966A49C2E3EA5EA0ECD326CD965F1DB402C6FA8B51A4658C5C5E2EC9E214602E55810345408596591009A82E7E7FFACA19EEA299B14A0081A705CB3296EBC14CDF658DCD336EA6D1136881AAEB87B81AB9EE53D5
310
F5EB8BC8362082DA24122F98680A4E7930C01A0079749CEA14382A0783E5EBA5A10F8C098456A03D6A4AEB6BB881E2513747552A5DB22C7EDAF83BD5528081A365F7FF06504B0304140006080000CC70623B000000000000000000000000350000006662782F41393633353835312D344632462D344230382D423046372D37
310
39314545314133324237412F76657274696365732E62696E504B0304140006080800CC70623BF270F1330600000004000000360000006662782F41393633353835312D344632462D344230382D423046372D3739314545314133324237412F747269616E676C65732E62696E636660600000504B0304140006080000CC7062
310
3B000000000000000000000000370000006662782F41393633353835312D344632462D344230382D423046372D3739314545314133324237412F617474726962757465732E62696E504B0304140006080800CC70623B08DA0BD19000000041010000360000006662782F41393633353835312D344632462D344230382D4230
310
46372D3739314545314133324237412F6469726563746F72792E786D6C858F410AC3201045AF22B36F53E9A60B35CBEEBAE80D244E44489C6234F4F835464A48035D0DF398FF9F8AF63D0E6CC63039F212F8F9020C7D47C6792B21C5FE7403D62A1188E2E60C98D7234A5830286103A55745067B9D86B8A3CF9C7F90C11DE6
310
07FB144396D7B6A82D282E9A152AD114D5EF2CB866EEE831B8EEA07A7BB5A8D7D61A2BAAEB7FD5F70921FF497D00504B0304140006080800CC70623BEDD1DC58FD000000A00100003B0000006662782F41393633353835312D344632462D344230382D423046372D3739314545314133324237412F7265736F75726365732F
310
636F72652E786D6C8D504B6E833010BD0A9A6D65B00922041947112427E8052C33A156828DFCA97AFC9A40A576D7CDCCE87D344F8F9FBFE667F689CE6B6B3A6039850C8DB2A336530731DC4903D95970676DF82583CCC8193B5861107C72362E3BA4AC096842428D1D7107A5F7182053CF7474E0D507CE32973124857FE48B
310
540F3961CEF244279DE03EB81420DB9EAC1384436FA353E879B1B182C7A8C75DA3C7F453DF353A1075D537A7BA6464B8F535A99AE14A9A2BBD90E350DD183B5CFABE3AF262350B1EF4FC9351399401471025A527C218A1E53BAB5A5AB765F5469B96525EACF23FA6B88CFF34456DC2A1DCE36E360F82A5202F42F062ED2BAD
310
579969AFDD8A6F504B010214000A0000080000CC70623B3DEE336E79000000790000001B00000000000000000000000000000000006175746F6465736B2D64657369676E2D7061636B6167652E786D6C504B01021400140006080800CC70623BD486FD9CA0000000F40000001300000000000000000000000000B20000005B
310
436F6E74656E745F54797065735D2E786D6C504B01021400140006080800CC70623B853B8169EB0000007C010000080000000000000000000000000083010000636F72652E786D6C504B01021400140006080800CC70623B55019EA25F0000007C000000070000000000000000000000000094020000636E782E786D6C504B
310
01021400140006080800CC70623BDBABAAF470010000D40300000C00000000000000000000000000180300006662782F636F72652E786D6C504B01021400140006080800CC70623B9C113CC27E0000009D0000000B00000000000000000000000000B20400006662782F636E782E786D6C504B01021400140006080800CC70
310
623B7DF2F77C2A010000120200003100000000000000000000000000590500006662782F41393633353835312D344632462D344230382D423046372D3739314545314133324237412F636F72652E786D6C504B01021400140006080800CC70623BAD7543B64E010000330300003000000000000000000000000000D2060000
310
6662782F41393633353835312D344632462D344230382D423046372D3739314545314133324237412F636E782E786D6C504B01021400140006080800CC70623BE75B7789680500003C10000034000000000000000000000000006E0800006662782F41393633353835312D344632462D344230382D423046372D3739314545
310
314133324237412F6F626A656374732E786D6C504B01021400140006080000CC70623B0000000000000000000000003500000000000000000000000000280E00006662782F41393633353835312D344632462D344230382D423046372D3739314545314133324237412F76657274696365732E62696E504B01021400140006
310
080800CC70623BF270F133060000000400000036000000000000000000000000007B0E00006662782F41393633353835312D344632462D344230382D423046372D3739314545314133324237412F747269616E676C65732E62696E504B01021400140006080000CC70623B0000000000000000000000003700000000000000
310
000000000000D50E00006662782F41393633353835312D344632462D344230382D423046372D3739314545314133324237412F617474726962757465732E62696E504B01021400140006080800CC70623B08DA0BD1900000004101000036000000000000000000000000002A0F00006662782F41393633353835312D344632
310
462D344230382D423046372D3739314545314133324237412F6469726563746F72792E786D6C504B01021400140006080800CC70623BEDD1DC58FD000000A00100003B000000000000000000000000000E1000006662782F41393633353835312D344632462D344230382D423046372D3739314545314133324237412F7265
310
736F75726365732F636F72652E786D6C504B0506000000000E000E0080040000641100000000
  0
XRECORD
  5
140B
102
{ACAD_REACTORS
330
1F7
102
}
330
1F7
100
AcDbXrecord
280
     1
102
MATERIAL
148
0.0
149
0.0
149
0.0
 93
        0
 94
       63
282
     0
 72
     1
 77
     1
171
     1
175
     1
179
     1
273
     0
  0
XRECORD
  5
1F8
102
{ACAD_REACTORS
330
1F7
102
}
330
1F7
100
AcDbXrecord
280
     1
 70
     1
 90
429727718
  1
30362254-06B7-45E0-A893-8CFA70E3D6BC
310
504B03040A0000080000CC70623B3DEE336E79000000790000001B0000006175746F6465736B2D64657369676E2D7061636B6167652E786D6C3C3F786D6C2076657273696F6E3D22312E302220656E636F64696E673D227574662D3822203F3E3C666F726D6174733E3C666F726D61743E687474703A2F2F736368656D612E
310
6175746F6465736B2E636F6D2F64657369676E2D7061636B6167652F323030393C2F666F726D61743E3C2F666F726D6174733E504B0304140006080800CC70623BD486FD9CA0000000F4000000130000005B436F6E74656E745F54797065735D2E786D6C7D8EC10E82300C865F65E91D8A1E8C310C0EEA1BF002731658846E
310
D98AC1B77784ABF1D8FE5FBFBF75BBCE937A534CCEB38643598122B6FEE978D0B0485F9C41B54DDD7D022595594E1A469170414C76A4D9A4D207E29CF43ECE46F218070CC6BECC4078ACAA135ACF422C856C0E68EA1BF5669944DDD7BCDE7B1F8E415D77AECB980613C2E4AC91FC167A2B244592486606FC29C8FD7F045B9A
310
EF7053A7E60B504B0304140006080800CC70623B1EC5D7A3EB0000007C01000008000000636F72652E786D6C8D90416EC3201045AF82665B6103C6756C6122AB4D4ED00B204C5C94182C03558F5F9C3852BBEB6A467FFE9B197D71FC9E6FE8CBACC17AD7032D0820E3B41FAD9B7A48F1820F808E52ACDEC75F36404ECDA687
310
4D0629A6D5A76597B477D1B89855E747B38B2A041301E95B6E7A08FAD3CCAA50296647B8168BD2573599823EBB0CA76447F43862C7BCCF5EAC59410E4DDD9C7973C2755553CCCFA4C603E3040F1565ED3B1FDE4E432BCA0D9622DAF9795FAF464533826484B498524CD807E51D79ED187F21878E10516EF63F505AC67F42C9
310
BA58B1FDDD071640D2FCC87D2045B96591CB3DA85CB7DCE40F504B0304140006080800CC70623B55019EA25F0000007C00000007000000636E782E786D6C4DCB3B0E80201045D1AD90E915ED2CF8AC45050C11660C8261F98AB1B07AC9C97D42D718D865D3E909258CFD00CCE24AC6E326A164D74DC0B4128928FF32603847
310
2BA13128B1252AC747C6BAB984FC68F0B87FE8960A5C09FE86CFB69FBA01504B0304140006080800CC70623B8C9102E971010000D40300000C0000006662782F636F72652E786D6CC5535B6E833010BC8AE5DF0A6C08340F1947A84D4ED00B38C6A128602363A31CBFCB234A53A551FA553EC09AD9F5CE8C31DB9E9B1AF5CA
310
7695D1198E428A91D2D214952E33ECDD315861B4E5CC1AE3BE9561A445A3323CC098B3D21ADFCE9034DA29ED00D5A6503328BA4E398C640D8B0C77F253352214DE4145770A5B214FA2546114020D759C75CE8200340D19DE981F0F6746269C33EFAB6266AB02A655C74A59CCF365BADC27CB5D902ED22848F6340DF238A141
310
BE88E2F57B92BFEDF23523433367AE6A2EEAA455C2A902F398D2751045018D3FA264435F3771F242571B4A1919CA6F9A7C5B3CD9E42BED16F12C776AEB308F40C848FC700B1139D4891EF410CEC810227CC6846F8386402064270EF5C5C709A05E49676C024C61FC95EA45ED154CA5211D1FF4FB8291A913A68E9B83EBBB33
310
E2A7673CDE118E5AE8124C0807CB8377834E366998436B950D7A7746DAD846D4CFD978E0F04FD455FC5D49D2D4C6FE9722321F10997F0F32DC47FE05504B0304140006080800CC70623BFFEA85907E0000009D0000000B0000006662782F636E782E786D6C4DCCD10A83201886E15B91FFDC95D95A811AB6F23E625948A6C3
310
E9D8E5AF46073BFAE0E1E365ED67B3E8ADC3CB78C7815C7240DA3DFC64DCC221C519D7805AC182F7F1EF06C88D9BE6703008B6049F9E274D7A1E938DBB5AE3D6131B2589BA0D3D965551E0B2EA732C9B9A624AAEB41E3A557677029960D9AFB4EF11165F504B0304140006080800CC70623B4FEEA4082C0100001202000031
310
0000006662782F39464131463745442D413632322D343644302D413938332D3331353338454246344243312F636F72652E786D6C8D515B6EC32010BC0AE2AB55850DD871ED0813254D72825EC00192A2C460F1A872FC42ED48ED5F7E00CDCECCCEB26C731F6FE05B39AFADE921293004CA082BB5B9F43086336A21D870E6AC
310
0D7F68109861543DCC30E4ECE26C9C164858139409093556AA051CBC570102714B8F1E7AF1A5C6A11862480C7F2DA6415C878B2A4891CA89C7990F2E050073937C42DE1DB7E4F87ED8A36D4329AA9B3D46DBAEAD504556557BD81DEBDD0761E52CE42C462D17B996298E3E6BE59E35C962CE821E1FF18553435012728A7187
310
0841987E927A8D9B35ADDF70BBC6989599FE4F1427F9A4286A132ABAC49D651EF234CD5CE04CDA78BA3DC2A8FB645D00B9DF8B57E215725C60BCA2A463E54C4CE327C7A65E1C7DB02E7DEFCBF594B864C5CA6CDBD49C957943E9FA5D5FBAF336F90F504B0304140006080800CC70623BAD7543B64E01000033030000300000
310
006662782F39464131463745442D413632322D343644302D413938332D3331353338454246344243312F636E782E786D6CD593CD6EC32010845F0571AD6CE3D48AD20813A9873E410FBD12D82434182C7EAAE6EDBB2424CD25871E7B41D6EC30B3FA84F9E67BB2E40B4234DE8DB46F1925E094D7C6ED479AD3AE5951B2113C
310
789FEE6C943839C1488B4C05DF079FE72A69D8C96C13AAD6B8631503449F83828872B949AC57D26200B826A308D316B4064D6E46FCDA41C05550DC9E483A00797BFD207EFB092A45DE9514C1BBD22178396BD39D891265658C238DEA00936C654E5E433CB65A26D9F6EDB5EBC14EBF49A45CB856E66048291F6939A9A81BB5
310
C8917738143CA680F4AA299D66A042CEB3354A2684DC9D8D178FE0D9B8B41CAAD720F880EE7EF93C0C18769E099ECC04D5A102C8049A8A05632F4DDF376CF1DE0F6BB65C2F8627B65A33C6BB62177CEBBDAD973006829F89F22E814B54F4BC2BE347F8AA8F681390B50FA73F804400B5F542E796F19FF974E7F78DB802FE05
310
E207504B0304140006080800CC70623B16AB87BA640500003C100000340000006662782F39464131463745442D413632322D343644302D413938332D3331353338454246344243312F6F626A656374732E786D6CAD575B6FA33818FD2B887DE6924B3BED8A326A92B68A663B534DD4D13E548A0C38942D60649B369D5FBFC7
310
600890A493BDE42160637FD7F31D7FF63E6FB3D478A55C242CBF3247B66B1A340F5994E4F19559CA8D75611A9F7D8F33263BCB4C232719BD32D5B4E97B316765A1A722BA21652A07B3B7B33F0D11D29C9A46981221AE4C113ED38CD8A4942CA2E2C58E882476BCD9DA23BB5ED8171B73523C0F841684D35CC252CCE79062D4
310
468DFA43D7747CCF51DF7D4FFDEB5593E3AB9CCA9FBEFE241792E4E19EB28198C968BAB8199F5D5A67D3E9C49A9E8F47D6EC76B6B0469F26EEFC7C3EBFBCBEB98462213924694B38DD98FE1D62C393D073EA4FADC5DAF04326852CCF6958F90F0F2B9BB5C48816348F90C7840A68EB78EDF68723159BCEE7891A6B95DDE9D3
310
BCEAEEE8086A6C6F9E5D4B59F0175C10A7A0820BAA5055C7473B5AE3CFDD452D602CD5DF12616444529E90D448938013FE6EFA58AA96F85E4F8C42275708571E98FE6827AF6B2B4AE3D7D83D64E5A64C53054DD3AF90BD06FEA9149565C94FCA0F6B834DC85599E4F2423B24DF0B6AFA979E534DFA9E7A4CC6FA631D486393
310
921829879BF5D781A373557BCB85E97FB90DB62B558F8795179C15944B051F40AB495CF35451D26A4727654E6D8033BD98EF82F21D91FF8AF2DD9982BCF1643BDD4EB516C9492E368C67C88DED563FC36D5EACF66DFF057C3658BDBFA69DF9578B3DA735B64F18C7F20770A9D45CFCF7FCF563D6456A277DBEF78A02637CA2
310
43B90A490AEAB94F72244481D24819A6C0E59B606BFA4B3025981DBB48EAB701D97BF19C577CC77F2D1B6C55A9EF3C732474C0B727303F625995056C3B02963D9EAC146BE78EC5FCEC7FA999EBC5EACBAAE41B12D27B4D2C0BBA49F244E2ECDC81B76B502F113D8F5EE8FB1BE3111CDD4FC2AA9B844CAB1288B68AB90A7CDC
310
1C166AB0D3DC5310625FCC14E779BFD0709F8890A629C9292B1B2DED31A4B0DA928CEE135085754027E3018A397D4D5427D15BD1330B677DC8934285AC3DF45A9EB68FF8F2B8FC0A509AFEECFD0FF2DE25CC6047F7214B195F07EFEB9A094D800F7BFAE8FED187B78EA8A3A400F115961BCAD1215E47C966530AF0EE8128FE
310
58CEBB996A8964FFA529A046635D9353B0336A8F700DDF46271A024E70B0B37C9DE01847591E54DED53D54202AB947E4076556AC49C6CA5C9E1226B7F1A7B1BE15DEED62C41B91E1B3E9AFAAA735036547343A925075041DF0A9979E893B391F8FCFA6967B3EFB644DCF6E5CEBFAE272625DCC6FAF3FB93793C5F90CE1EF57
310
407342756B10D1C489E8953CD1617E5CEECAD6F4EF8914CE5D5D504E5C3F1F9736DA62CFC11E00BCDDB8CC8A9466349744C1F75EBDA4DF09BA8A9E8C7A7E9991989E20E5DBDD6A6003664ED8F7A04A8DBE0DF6EAD9B9AA858342E47399053949D2C146EDB85DE4B176BB0965FBAC19BD19AA918E27FA50C1D22402E144464C
310
59462568E704B6E71915404CB72B8FF4EDE184DDAF753F284990D2C6926782963815403548A70C657FDEF80D2D9CEAA2AE4C1C76F60BFE74219A06527D6582DF6412526107381E55E353090704D085B52408D0933C4ED159D79BDA71BB4BC506F4831350EB6F979CD22D69BF7AC49B91A2C0A9DDA3D5CA36AD20FC478E37E6
310
1844E2352865EBCB6EA275A652E3836BE04EFB400BF1A2556F515F1FBB35B2AB35BD889C744FFA1004B5544B121E57F70215746DD2F5E2C1412B602CBF19455AC6C8E5E9922C4E01E65215385004546899059180EAFCF7A707CE7017CD8CDB0410789AB32C63B91E5CEBBBACB17AC6CD347A022D5075FD106377347AAABA7E
310
7D11590744509B44E205134DC1290F06580320F78E537D3D73540E06CB970B431F185308AD40BBD794D6D77003C5A36E8EAA54BA64597CD8F83BD552A080A365F7FF06504B0304140006080000CC70623B000000000000000000000000350000006662782F39464131463745442D413632322D343644302D413938332D3331
310
353338454246344243312F76657274696365732E62696E504B0304140006080800CC70623BF270F1330600000004000000360000006662782F39464131463745442D413632322D343644302D413938332D3331353338454246344243312F747269616E676C65732E62696E636660600000504B0304140006080000CC70623B
310
000000000000000000000000370000006662782F39464131463745442D413632322D343644302D413938332D3331353338454246344243312F617474726962757465732E62696E504B0304140006080800CC70623B08DA0BD19000000041010000360000006662782F39464131463745442D413632322D343644302D413938
310
332D3331353338454246344243312F6469726563746F72792E786D6C858F410AC3201045AF22B36F53E9A60B35CBEEBAE80D244E44489C6234F4F835464A48035D0DF398FF9F8AF63D0E6CC63039F212F8F9020C7D47C6792B21C5FE7403D62A1188E2E60C98D7234A5830286103A55745067B9D86B8A3CF9C7F90C11DE607
310
FB144396D7B6A82D282E9A152AD114D5EF2CB866EEE831B8EEA07A7BB5A8D7D61A2BAAEB7FD5F70921FF497D00504B0304140006080800CC70623B0D6EF93BFE000000A00100003B0000006662782F39464131463745442D413632322D343644302D413938332D3331353338454246344243312F7265736F75726365732F63
310
6F72652E786D6C8D50596E833010BD0A9ADFCA60B334011947A8694ED00B586642AC041B79A97AFC9A40A5F6AF3F33A3B7689E1E3F7DCD8FEC139DD7D6F4C0720A191A65476DA61E62B892236427C19DB5E1970C322367EC618541F0C9D9B8EC90B226A009093576C41D94DE63804C3DD2D18357379C652E63480A7FCF17A9
310
EE72C29CE5894E3AC17D702940B63D59270887DE46A7D0F36263058F518FBB468FE9A7BE6A7420864373B8D4873369AA8691FA421B3294352543C5CAF65C0F6FEF43CB8BD52C78D0F34F46E550061C419494B6843142CB0F5677F4B52BEB177AEC28E5C52AFF638ACBF84F53D42654E51E77B379102C05791282176B5F693D
310
CB4C7BED567C03504B010214000A0000080000CC70623B3DEE336E79000000790000001B00000000000000000000000000000000006175746F6465736B2D64657369676E2D7061636B6167652E786D6C504B01021400140006080800CC70623BD486FD9CA0000000F40000001300000000000000000000000000B20000005B
310
436F6E74656E745F54797065735D2E786D6C504B01021400140006080800CC70623B1EC5D7A3EB0000007C010000080000000000000000000000000083010000636F72652E786D6C504B01021400140006080800CC70623B55019EA25F0000007C000000070000000000000000000000000094020000636E782E786D6C504B
310
01021400140006080800CC70623B8C9102E971010000D40300000C00000000000000000000000000180300006662782F636F72652E786D6C504B01021400140006080800CC70623BFFEA85907E0000009D0000000B00000000000000000000000000B30400006662782F636E782E786D6C504B01021400140006080800CC70
310
623B4FEEA4082C0100001202000031000000000000000000000000005A0500006662782F39464131463745442D413632322D343644302D413938332D3331353338454246344243312F636F72652E786D6C504B01021400140006080800CC70623BAD7543B64E010000330300003000000000000000000000000000D5060000
310
6662782F39464131463745442D413632322D343644302D413938332D3331353338454246344243312F636E782E786D6C504B01021400140006080800CC70623B16AB87BA640500003C1000003400000000000000000000000000710800006662782F39464131463745442D413632322D343644302D413938332D3331353338
310
454246344243312F6F626A656374732E786D6C504B01021400140006080000CC70623B0000000000000000000000003500000000000000000000000000270E00006662782F39464131463745442D413632322D343644302D413938332D3331353338454246344243312F76657274696365732E62696E504B01021400140006
310
080800CC70623BF270F133060000000400000036000000000000000000000000007A0E00006662782F39464131463745442D413632322D343644302D413938332D3331353338454246344243312F747269616E676C65732E62696E504B01021400140006080000CC70623B0000000000000000000000003700000000000000
310
000000000000D40E00006662782F39464131463745442D413632322D343644302D413938332D3331353338454246344243312F617474726962757465732E62696E504B01021400140006080800CC70623B08DA0BD190000000410100003600000000000000000000000000290F00006662782F39464131463745442D413632
310
322D343644302D413938332D3331353338454246344243312F6469726563746F72792E786D6C504B01021400140006080800CC70623B0D6EF93BFE000000A00100003B000000000000000000000000000D1000006662782F39464131463745442D413632322D343644302D413938332D3331353338454246344243312F7265
310
736F75726365732F636F72652E786D6C504B0506000000000E000E0080040000641100000000
  0
XRECORD
  5
140D
102
{ACAD_REACTORS
330
173
102
}
330
173
100
AcDbXrecord
280
     1
102
MATERIAL
148
0.0
149
0.0
149
0.0
 93
        0
 94
       63
282
     0
 72
     1
 77
     1
171
     1
175
     1
179
     1
273
     0
  0
XRECORD
  5
175
102
{ACAD_REACTORS
330
173
102
}
330
173
100
AcDbXrecord
280
     1
270
     1
271
     1
  0
XRECORD
  5
174
102
{ACAD_REACTORS
330
173
102
}
330
173
100
AcDbXrecord
280
     1
270
     1
271
     1
  0
XRECORD
  5
1FB
102
{ACAD_REACTORS
330
173
102
}
330
173
100
AcDbXrecord
280
     1
 70
     0
 90
1673772943
  1
ECE7A1D2-D628-4531-984C-D00F80459256
310
504B03040A0000080000CC70623B3DEE336E79000000790000001B0000006175746F6465736B2D64657369676E2D7061636B6167652E786D6C3C3F786D6C2076657273696F6E3D22312E302220656E636F64696E673D227574662D3822203F3E3C666F726D6174733E3C666F726D61743E687474703A2F2F736368656D612E
310
6175746F6465736B2E636F6D2F64657369676E2D7061636B6167652F323030393C2F666F726D61743E3C2F666F726D6174733E504B0304140006080800CC70623BD486FD9CA0000000F4000000130000005B436F6E74656E745F54797065735D2E786D6C7D8EC10E82300C865F65E91D8A1E8C310C0EEA1BF002731658846E
310
D98AC1B77784ABF1D8FE5FBFBF75BBCE937A534CCEB38643598122B6FEE978D0B0485F9C41B54DDD7D022595594E1A469170414C76A4D9A4D207E29CF43ECE46F218070CC6BECC4078ACAA135ACF422C856C0E68EA1BF5669944DDD7BCDE7B1F8E415D77AECB980613C2E4AC91FC167A2B244592486606FC29C8FD7F045B9A
310
EF7053A7E60B504B0304140006080800CC70623BD9DDAED0EC0000007C01000008000000636F72652E786D6C8D90416EC3201045AF82665B61836D9CD8C2444DD39CA01740405C94182C03558F5F9C3852BBEB6A467FFE9B197D7EF89E6EE8CB2CC17A37002D0820E394D7D68D03A478C17B4007C117EFE32F1B20272733C0
310
2A83E0E3E2D3BC49CABB685CCCAAF3DA6CA20CC14440EA969B0182FA34932C648AD911AEC52CD5558EA6A0CF2EC329598D1E47ACCEFBECC59A050463A7EA5833865FEBDD0E37353BE3EE8DBDE3F6786A48D375FBF6CC78B9C282473B3DEFABC5C86834888A900E538A49F5419B9EB47DD5BC907D4F082F57FB1F28CDFA9F50
310
B22ED6D5F6EE030B20687EE43E10BC5CB3C8E51E54AE6B6EE207504B0304140006080800CC70623B55019EA25F0000007C00000007000000636E782E786D6C4DCB3B0E80201045D1AD90E915ED2CF8AC45050C11660C8261F98AB1B07AC9C97D42D718D865D3E909258CFD00CCE24AC6E326A164D74DC0B4128928FF326038
310
472BA13128B1252AC747C6BAB984FC68F0B87FE8960A5C09FE86CFB69FBA01504B0304140006080800CC70623BA24EB22D72010000D40300000C0000006662782F636F72652E786D6CC5535B6E833010BC8AE5DF0A6C5E49888CA3A6694ED00B38E05014B091B1518EDFE511A5A9D228FD2A1F60CDEC7A67C6986DCE4D8D7A
310
69BA4AAB0C073EC548AA5C17952A33ECECD15B61B4E1CC686DBF9561A44423333CC098B3D268D7CE50AE9595CA02AA74216750749DB418E5352C32DCE59FB211BE70162ABA93DF8AFC244AE9073ED050C759670D0840D390E18DF9F1706664C23973AE2A66B62A605A75ACA4C13C4976E1364A12EF355A2EBD384AF65EFA96
310
BC7B8BED2EA6719AAE16FB8491A199335B351775B991C2CA02F390D2D40B028F861F41BCA68B7518BFD0D59A524686F29B26D7164F36B94AD9289CE54E6D1DE6010819891F6E21228B3AD1831EC219194284CF98F06DD01008846CC5A1BEF83801D4CBDC6A1303536877A57A513B0953A94FC707FDBE6064EA84A9E3E6E0FA
310
EE8CF0E9198F7784A316AA0413C2C2F2E0ECA0934D1AE6D05A69BCDE9E91D2A611F573361E38FC1375157F5752AE6B6DFE4B11990F88CCBF0719EE23FF02504B0304140006080800CC70623B408A7D3B7C0000009D0000000B0000006662782F636E782E786D6C4DCCD10A83201886E15B91FFDC552A92A0064DBC8F581632
310
D3703A76F9ABD1C18E3E78F878E5F0D9027ABBFCF2292AE86E2D20171F69F6715550CB827B40839639A5F2770314A7CD293819B45C73AAFB45B35BA61ACAA1C1C7E7855C58C15BC331339661262CC762340413D68D77DA5B42298546CBE6573AF60CEB2F504B0304140006080800CC70623B449FB9BD290100001202000031
310
0000006662782F36394639363044362D344446342D343946362D394244322D3234314243333846323333332F636F72652E786D6C8D515B6EC32010BC0AE22B55850D98B871848994463E412FE002495162B07854397EA176A4F62F3F2C9A9D991D587EB84F37F0AD7D30CEF6905418026DA553C65E7A98E219ED203808EE9D
310
8B7F6810D871D23D2C3014FCE25D9A57483A1BB58D19B54EE9151C43D0110279CB971E06F9A5A7B11A53CC8C70ADE6515EC78BAE4895DB992778883E0700CB907242D17643D7E2538BD869608875438BBAE38922CAC8F1BDD90DB4691A5E2F42C153326A951B95E398B3D1FE599322163C9AE9115F7A3D46ADA0A018778810
310
84E907617BDCEE297BC5BB3DC6BC2EF47FA234AB2745C9D8D8D035EE220B50105E2F0DC1954B9FB747187D9F9D8FA0CCDB042D5FA0C015C65B42DF78BD10F3F3B363CB56C7109DCFDFBBB97E662ED92EB62D13BC2E1BCAE5777DB9966D8A1F504B0304140006080800CC70623BAD7543B64E01000033030000300000006662
310
782F36394639363044362D344446342D343946362D394244322D3234314243333846323333332F636E782E786D6CD593CD6EC32010845F0571AD6CE3D48AD20813A9873E410FBD12D82434182C7EAAE6EDBB2424CD25871E7B41D6EC30B3FA84F9E67BB2E40B4234DE8DB46F1925E094D7C6ED479AD3AE5951B2113C789FEE
310
6C943839C1488B4C05DF079FE72A69D8C96C13AAD6B8631503449F83828872B949AC57D26200B826A308D316B4064D6E46FCDA41C05550DC9E483A00797BFD207EFB092A45DE9514C1BBD22178396BD39D891265658C238DEA00936C654E5E433CB65A26D9F6EDB5EBC14EBF49A45CB856E66048291F6939A9A81BB5C89177
310
38143CA680F4AA299D66A042CEB3354A2684DC9D8D178FE0D9B8B41CAAD720F880EE7EF93C0C18769E099ECC04D5A102C8049A8A05632F4DDF376CF1DE0F6BB65C2F8627B65A33C6BB62177CEBBDAD973006829F89F22E814B54F4BC2BE347F8AA8F681390B50FA73F804400B5F542E796F19FF974E7F78DB802FE05E20750
310
4B0304140006080800CC70623B8D05915C650500003B100000340000006662782F36394639363044362D344446342D343946362D394244322D3234314243333846323333332F6F626A656374732E786D6CAD575B6FA33814FE2B887D06429276DA1565D4266D158D3A339A6846FB502932E050B66023DB74D2FDF5FB190C01
310
9276B2973C046C8ECFF53B17071F77456EBD502133CEAE6CDF9DD81665314F32965ED995DA3A17B6F5310C04E7AA47665B8C14F4CAD6DB7618A48257A5D94AE89654B91AEDDEDDFC61C998326A5B714EA4BCB265FC440BE2924AF184CA6737218AB8E976E7FA6E4338649B0A523E8D98964450A6A029F619B8588D52FE7039
310
B1BD30F0F4F730D0FF866AF6369557DB33949F31A9088B0F848DD8CCFCF9F2767A76E99CCDE733677E3EF59D9BBB9BA5E37F984D16E78BC5E5F5ED25044B25C0C96822E8D60EEFE11B91C581D77CEA34368A1F5329E68CD1B8B61F16D63A1B8E092D294B10C78C4A48EB593D192E7DED9BDEE7995E1B91FDEDD3ACEA9FE831
310
6A756F9F7D4D79F4274C90A7A04248AA51D5F8C718DAE06FB2F75AC4796EBE65D22A88A22223B995679120E2D50E41AA49C260C046A35368846B0BECD0DFF3EBEB8AD4F835768F69B9ADF25C43D30E6B646F807FAA64AD59F61715C7A54127C4AACA98BA3006A9D792DAE165E0D59B61A01FB3A9F9D838D2DAE62445C86166
310
F37564E842E7DE6A69879FEEA2DD5AE7E371E1A5E025154AC307D06A03D73EB5978C58FFA4C8E9033066E0F3BD53BEC1F39F91BE7B55103791EDE6BBB991A2046172CB4581D8B893FA674DDA17A77B3B7C413D1B511FD2743BFF8A38F03A658705E3ADF8015C3A3417FF3D7E439FF591DA0B5F18BC20C1B8981957AE6392A3
310
F43C640C01D1A0B4728E2DD4F26DB4B3C3152A252A3B4E913CEC1C72F012782FF88EFF8637AA552DBEF76408E8A8DE9E50F9E1CB3A2DA0DB1B6039A893B56063DC5B3E3FFB5F72E67AB9FEB4AEC496C4F4C1149625DD662C53E89D7BF0F6151A046260D1337DFDC94502430F83B0EE07A130A224BCAD7DAE1D9FB6CD422FF6
310
920702629C4BB9AE79C12F243C6432A6794E18E5552BA56B431AAB5D91317302B2B071E86C3A42B1A02F999E24061403B5D0EB639195DA655DD3EBEAB4FB862DDF579F014AD0E73C22F99E28DA57FB98E75C6CA2D74D53086D600F4786E0FE3144B771A8A7B900F03594DB8A633CBC49B2EDB69228BB479CF863B5E807AAAB
310
23872F6DFEB4129B949CA33823F58830E86D65621E10047D9DB34D862E8EAC3C2ABC2F7B2C40D67CDFE01F5545B92105AF983AC54D93D69E56FB8E797F88913F898A9FEC705D3F9D1B54EC8426FB500D40A03BD0119B06E1B95DDC7EB8F6975367793EBD70E66733DFB9BC982F9CE564727731999F5D4ECFCE3B8D6A4DC2A0
310
6D50FD148437D110834A64C6CDDF57FBACB5C307A2A477DFE4939736CFEF2B175371E0E10CF0DD1D5C15654E0BCA14D1E87DD02FF93782A162C0A3D95F1524A52770F972BF1EE9809D13CE7DD599467F8ECE9ADD85CE85A34CD45355448C64F9E8A031DC2D596ACC6E5DD93D9B82DE2EF5CAF81363A8E47996A0DE24564A79
310
4115AACE09C55E14540231FDA13C319787134EBF34E3A022514E5B4D9E0826E25C02D5805B15ABE1BEF51B26383D445DD9E875EE33FE4C22DA16427D65A3BCA92CA6D28DD01DF5DC53330704308475351050232CCD31583787BA75774AFB06E5070DD0C8EF484E19968C5D83BA5B90B244D31E54D55A372320FE4786B7EA58
310
44E135AA5467CB7EA333A61683CC6A8C3257034C10CF46F40EF9F5BE59BE5BD30C3C72D235E95D10345C1D45445A5F0BB47E46A5EBE5570F9380B5FA629579952296A773720405982B9DE04011506178964401AA8BDF1FBF0A8EAB6861DD6580C0E38217056766716DAEB2D6FA0917D3E4116581EADB879C4E7CFFB11EFACD
310
3D641311495D92C8676CB409A72D18610D803CE8A626049E8EC1887CB5B44CC39883690DDA8399B4B9855B481E7D71D4A9D22F96E5BB73BF5793020C02137BF837504B0304140006080000CC70623B000000000000000000000000350000006662782F36394639363044362D344446342D343946362D394244322D32343142
310
43333846323333332F76657274696365732E62696E504B0304140006080800CC70623BF270F1330600000004000000360000006662782F36394639363044362D344446342D343946362D394244322D3234314243333846323333332F747269616E676C65732E62696E636660600000504B0304140006080000CC70623B0000
310
00000000000000000000370000006662782F36394639363044362D344446342D343946362D394244322D3234314243333846323333332F617474726962757465732E62696E504B0304140006080800CC70623B08DA0BD19000000041010000360000006662782F36394639363044362D344446342D343946362D394244322D
310
3234314243333846323333332F6469726563746F72792E786D6C858F410AC3201045AF22B36F53E9A60B35CBEEBAE80D244E44489C6234F4F835464A48035D0DF398FF9F8AF63D0E6CC63039F212F8F9020C7D47C6792B21C5FE7403D62A1188E2E60C98D7234A5830286103A55745067B9D86B8A3CF9C7F90C11DE607FB14
310
4396D7B6A82D282E9A152AD114D5EF2CB866EEE831B8EEA07A7BB5A8D7D61A2BAAEB7FD5F70921FF497D00504B0304140006080800CC70623BCA768048FE000000A00100003B0000006662782F36394639363044362D344446342D343946362D394244322D3234314243333846323333332F7265736F75726365732F636F72
310
652E786D6C8D50596E833010BD0A9ADFCA60D600328E9AA639412F609909B1126CE4A5EAF16B0295DABFFECC8CDEA2797AECF8353F924FB44E193D409E5248504B332A3D0D10FC95B4901C39B3C6F85F3248B49871801506CE266BC2B243D2688FDA47549B11775038871E12F988C7004EDE7016A9083E2ADC3D5D84BC8B09
310
D33C8D74D471E6BC8D0192EDC93A815B742658898E651BCB59086ADC356A8C3FD555A1055ED7E7E254D615792D0F075295F585746FF53B694EE78A565DD736979A65AB9933AFE69F8CD2A2F038022F28ED489E135A7CE4554F9BBEA85E68DB53CAB255FEC71496F19FA6A0B42F8B3DEE6673C0F318E4497096AD7DC5F52C33
310
EEB55BFE0D504B010214000A0000080000CC70623B3DEE336E79000000790000001B00000000000000000000000000000000006175746F6465736B2D64657369676E2D7061636B6167652E786D6C504B01021400140006080800CC70623BD486FD9CA0000000F40000001300000000000000000000000000B20000005B436F
310
6E74656E745F54797065735D2E786D6C504B01021400140006080800CC70623BD9DDAED0EC0000007C010000080000000000000000000000000083010000636F72652E786D6C504B01021400140006080800CC70623B55019EA25F0000007C000000070000000000000000000000000095020000636E782E786D6C504B0102
310
1400140006080800CC70623BA24EB22D72010000D40300000C00000000000000000000000000190300006662782F636F72652E786D6C504B01021400140006080800CC70623B408A7D3B7C0000009D0000000B00000000000000000000000000B50400006662782F636E782E786D6C504B01021400140006080800CC70623B
310
449FB9BD290100001202000031000000000000000000000000005A0500006662782F36394639363044362D344446342D343946362D394244322D3234314243333846323333332F636F72652E786D6C504B01021400140006080800CC70623BAD7543B64E010000330300003000000000000000000000000000D20600006662
310
782F36394639363044362D344446342D343946362D394244322D3234314243333846323333332F636E782E786D6C504B01021400140006080800CC70623B8D05915C650500003B10000034000000000000000000000000006E0800006662782F36394639363044362D344446342D343946362D394244322D32343142433338
310
46323333332F6F626A656374732E786D6C504B01021400140006080000CC70623B0000000000000000000000003500000000000000000000000000250E00006662782F36394639363044362D344446342D343946362D394244322D3234314243333846323333332F76657274696365732E62696E504B010214001400060808
310
00CC70623BF270F13306000000040000003600000000000000000000000000780E00006662782F36394639363044362D344446342D343946362D394244322D3234314243333846323333332F747269616E676C65732E62696E504B01021400140006080000CC70623B00000000000000000000000037000000000000000000
310
00000000D20E00006662782F36394639363044362D344446342D343946362D394244322D3234314243333846323333332F617474726962757465732E62696E504B01021400140006080800CC70623B08DA0BD190000000410100003600000000000000000000000000270F00006662782F36394639363044362D344446342D
310
343946362D394244322D3234314243333846323333332F6469726563746F72792E786D6C504B01021400140006080800CC70623BCA768048FE000000A00100003B000000000000000000000000000B1000006662782F36394639363044362D344446342D343946362D394244322D3234314243333846323333332F7265736F
310
75726365732F636F72652E786D6C504B0506000000000E000E0080040000621100000000
  0
XRECORD
  5
176
102
{ACAD_REACTORS
330
173
102
}
330
173
100
AcDbXrecord
280
     1
270
     1
271
     1
  0
XRECORD
  5
177
102
{ACAD_REACTORS
330
173
102
}
330
173
100
AcDbXrecord
280
     1
270
     1
271
     1
  0
XRECORD
  5
142F
102
{ACAD_REACTORS
330
142E
102
}
330
142E
100
AcDbXrecord
280
     1
102
ACAD_ROUNDTRIP_2012_MLEADER_STYLE
298
     1
  0
XRECORD
  5
1441
102
{ACAD_REACTORS
330
1440
102
}
330
1440
100
AcDbXrecord
280
     1
102
DISPLAYNAME
  1
Metric50
102
FLAGS
 90
        0
  0
CELLSTYLEMAP
  5
1401
102
{ACAD_REACTORS
330
162
102
}
330
162
100
AcDbCellStyleMap
 90
        3
300
CELLSTYLE
  1
TABLEFORMAT_BEGIN
 90
        5
170
     1
 91
        0
 92
    32768
 62
   257
 93
        1
300
CONTENTFORMAT
  1
CONTENTFORMAT_BEGIN
 90
        0
 91
        0
 92
      512
 93
        0
300

 40
0.0
140
1.0
 94
        5
 62
     0
340
11
144
6.0
309
CONTENTFORMAT_END
171
     1
301
MARGIN
  1
CELLMARGIN_BEGIN
 40
1.5
 40
1.5
 40
1.5
 40
1.5
 40
4.5
 40
4.5
309
CELLMARGIN_END
 94
        6
 95
        1
302
GRIDFORMAT
  1
GRIDFORMAT_BEGIN
 90
        0
 91
        1
 62
     0
 92
       -2
340
14
 93
        0
 40
1.125
309
GRIDFORMAT_END
 95
        2
302
GRIDFORMAT
  1
GRIDFORMAT_BEGIN
 90
        0
 91
        1
 62
     0
 92
       -2
340
14
 93
        0
 40
1.125
309
GRIDFORMAT_END
 95
        4
302
GRIDFORMAT
  1
GRIDFORMAT_BEGIN
 90
        0
 91
        1
 62
     0
 92
       -2
340
14
 93
        0
 40
1.125
309
GRIDFORMAT_END
 95
        8
302
GRIDFORMAT
  1
GRIDFORMAT_BEGIN
 90
        0
 91
        1
 62
     0
 92
       -2
340
14
 93
        0
 40
1.125
309
GRIDFORMAT_END
 95
       16
302
GRIDFORMAT
  1
GRIDFORMAT_BEGIN
 90
        0
 91
        1
 62
     0
 92
       -2
340
14
 93
        0
 40
1.125
309
GRIDFORMAT_END
 95
       32
302
GRIDFORMAT
  1
GRIDFORMAT_BEGIN
 90
        0
 91
        1
 62
     0
 92
       -2
340
14
 93
        0
 40
1.125
309
GRIDFORMAT_END
309
TABLEFORMAT_END
  1
CELLSTYLE_BEGIN
 90
        1
 91
        1
300
_TITLE
309
CELLSTYLE_END
300
CELLSTYLE
  1
TABLEFORMAT_BEGIN
 90
        5
170
     1
 91
        0
 92
        0
 62
   257
 93
        1
300
CONTENTFORMAT
  1
CONTENTFORMAT_BEGIN
 90
        0
 91
        0
 92
      512
 93
        0
300

 40
0.0
140
1.0
 94
        5
 62
     0
340
11
144
4.5
309
CONTENTFORMAT_END
171
     1
301
MARGIN
  1
CELLMARGIN_BEGIN
 40
1.5
 40
1.5
 40
1.5
 40
1.5
 40
4.5
 40
4.5
309
CELLMARGIN_END
 94
        6
 95
        1
302
GRIDFORMAT
  1
GRIDFORMAT_BEGIN
 90
        0
 91
        1
 62
     0
 92
       -2
340
14
 93
        0
 40
1.125
309
GRIDFORMAT_END
 95
        2
302
GRIDFORMAT
  1
GRIDFORMAT_BEGIN
 90
        0
 91
        1
 62
     0
 92
       -2
340
14
 93
        0
 40
1.125
309
GRIDFORMAT_END
 95
        4
302
GRIDFORMAT
  1
GRIDFORMAT_BEGIN
 90
        0
 91
        1
 62
     0
 92
       -2
340
14
 93
        0
 40
1.125
309
GRIDFORMAT_END
 95
        8
302
GRIDFORMAT
  1
GRIDFORMAT_BEGIN
 90
        0
 91
        1
 62
     0
 92
       -2
340
14
 93
        0
 40
1.125
309
GRIDFORMAT_END
 95
       16
302
GRIDFORMAT
  1
GRIDFORMAT_BEGIN
 90
        0
 91
        1
 62
     0
 92
       -2
340
14
 93
        0
 40
1.125
309
GRIDFORMAT_END
 95
       32
302
GRIDFORMAT
  1
GRIDFORMAT_BEGIN
 90
        0
 91
        1
 62
     0
 92
       -2
340
14
 93
        0
 40
1.125
309
GRIDFORMAT_END
309
TABLEFORMAT_END
  1
CELLSTYLE_BEGIN
 90
        2
 91
        1
300
_HEADER
309
CELLSTYLE_END
300
CELLSTYLE
  1
TABLEFORMAT_BEGIN
 90
        5
170
     1
 91
        0
 92
        0
 62
   257
 93
        1
300
CONTENTFORMAT
  1
CONTENTFORMAT_BEGIN
 90
        0
 91
        0
 92
      512
 93
        0
300

 40
0.0
140
1.0
 94
        2
 62
     0
340
11
144
4.5
309
CONTENTFORMAT_END
171
     1
301
MARGIN
  1
CELLMARGIN_BEGIN
 40
1.5
 40
1.5
 40
1.5
 40
1.5
 40
4.5
 40
4.5
309
CELLMARGIN_END
 94
        6
 95
        1
302
GRIDFORMAT
  1
GRIDFORMAT_BEGIN
 90
        0
 91
        1
 62
     0
 92
       -2
340
14
 93
        0
 40
1.125
309
GRIDFORMAT_END
 95
        2
302
GRIDFORMAT
  1
GRIDFORMAT_BEGIN
 90
        0
 91
        1
 62
     0
 92
       -2
340
14
 93
        0
 40
1.125
309
GRIDFORMAT_END
 95
        4
302
GRIDFORMAT
  1
GRIDFORMAT_BEGIN
 90
        0
 91
        1
 62
     0
 92
       -2
340
14
 93
        0
 40
1.125
309
GRIDFORMAT_END
 95
        8
302
GRIDFORMAT
  1
GRIDFORMAT_BEGIN
 90
        0
 91
        1
 62
     0
 92
       -2
340
14
 93
        0
 40
1.125
309
GRIDFORMAT_END
 95
       16
302
GRIDFORMAT
  1
GRIDFORMAT_BEGIN
 90
        0
 91
        1
 62
     0
 92
       -2
340
14
 93
        0
 40
1.125
309
GRIDFORMAT_END
 95
       32
302
GRIDFORMAT
  1
GRIDFORMAT_BEGIN
 90
        0
 91
        1
 62
     0
 92
       -2
340
14
 93
        0
 40
1.125
309
GRIDFORMAT_END
309
TABLEFORMAT_END
  1
CELLSTYLE_BEGIN
 90
        3
 91
        2
300
_DATA
309
CELLSTYLE_END
  0
XRECORD
  5
1406
102
{ACAD_REACTORS
330
162
102
}
330
162
100
AcDbXrecord
280
     1
102
ACAD_ROUNDTRIP_PRE2007_TABLESTYLE
 90
      512
 91
        0
  1

 92
      512
 93
        0
  2

 94
      512
 95
        0
  3

  0
XRECORD
  5
1419
102
{ACAD_REACTORS
330
1418
102
}
330
1418
100
AcDbXrecord
280
     1
102
RTVSPost2010Prop28
280
     1
102
RTVSPost2010PropOp28
 70
     1
102
RTVSPost2010Prop29
280
     1
102
RTVSPost2010PropOp29
 70
     1
102
RTVSPost2010Prop30
280
     0
102
RTVSPost2010PropOp30
 70
     1
102
RTVSPost2010Prop31
280
     0
102
RTVSPost2010PropOp31
 70
     1
102
RTVSPost2010Prop32
280
     0
102
RTVSPost2010PropOp32
 70
     1
102
RTVSPost2010Prop33
280
     0
102
RTVSPost2010PropOp33
 70
     1
102
RTVSPost2010Prop34
280
     0
102
RTVSPost2010PropOp34
 70
     1
102
RTVSPost2010Prop35
280
     0
102
RTVSPost2010PropOp35
 70
     1
102
RTVSPost2010Prop36
280
     0
102
RTVSPost2010PropOp36
 70
     1
102
RTVSPost2010Prop37
 90
       50
102
RTVSPost2010PropOp37
 70
     1
102
RTVSPost2010Prop38
140
0.0
102
RTVSPost2010PropOp38
 70
     1
102
RTVSPost2010Prop39
140
1.0
102
RTVSPost2010PropOp39
 70
     1
102
RTVSPost2010Prop40
 90
        0
102
RTVSPost2010PropOp40
 70
     1
102
RTVSPost2010Prop41ColorIndex
 90
       18
102
RTVSPost2010Prop41ColorRGB
 90
        0
102
RTVSPost2010PropOp41
 70
     1
102
RTVSPost2010Prop42
 90
       50
102
RTVSPost2010PropOp42
 70
     1
102
RTVSPost2010Prop43
 90
        3
102
RTVSPost2010PropOp43
 70
     1
102
RTVSPost2010Prop44ColorIndex
 90
        5
102
RTVSPost2010Prop44ColorRGB
 90
      255
102
RTVSPost2010PropOp44
 70
     1
102
RTVSPost2010Prop45
280
     0
102
RTVSPost2010PropOp45
 70
     1
102
RTVSPost2010Prop46
 90
       50
102
RTVSPost2010PropOp46
 70
     1
102
RTVSPost2010Prop47
 90
       50
102
RTVSPost2010PropOp47
 70
     1
102
RTVSPost2010Prop48
 90
       50
102
RTVSPost2010PropOp48
 70
     1
102
RTVSPost2010Prop49
280
     0
102
RTVSPost2010PropOp49
 70
     1
102
RTVSPost2010Prop50
 90
       50
102
RTVSPost2010PropOp50
 70
     1
102
RTVSPost2010Prop51ColorIndex
 90
      256
102
RTVSPost2010Prop51ColorRGB
 90
-16777216
102
RTVSPost2010PropOp51
 70
     0
102
RTVSPost2010Prop52
140
1.0
102
RTVSPost2010PropOp52
 70
     0
102
RTVSPost2010Prop53
 90
        2
102
RTVSPost2010PropOp53
 70
     1
102
RTVSPost2010Prop54
  1
strokes_ogs.tif
102
RTVSPost2010PropOp54
 70
     1
102
RTVSPost2010Prop55
280
     0
102
RTVSPost2010PropOp55
 70
     1
102
RTVSPost2010Prop56
140
1.0
102
RTVSPost2010PropOp56
 70
     1
102
RTVSPost2010Prop57
140
1.0
102
RTVSPost2010PropOp57
 70
     1
102
RTVSPropertyOp0
 70
     1
102
RTVSPropertyOp1
 70
     1
102
RTVSPropertyOp2
 70
     1
102
RTVSPropertyOp3
 70
     1
102
RTVSPropertyOp4
 70
     1
102
RTVSPropertyOp5
 70
     1
102
RTVSPropertyOp6
 70
     1
102
RTVSPropertyOp7
 70
     1
102
RTVSPropertyOp8
 70
     1
102
RTVSPropertyOp9
 70
     1
102
RTVSPropertyOp10
 70
     1
102
RTVSPropertyOp11
 70
     1
102
RTVSPropertyOp12
 70
     1
102
RTVSPropertyOp13
 70
     1
102
RTVSPropertyOp14
 70
     1
102
RTVSPropertyOp15
 70
     1
102
RTVSPropertyOp16
 70
     1
102
RTVSPropertyOp17
 70
     1
102
RTVSPropertyOp18
 70
     1
102
RTVSPropertyOp19
 70
     1
102
RTVSPropertyOp20
 70
     1
102
RTVSPropertyOp21
 70
     1
102
RTVSPropertyOp22
 70
     1
102
RTVSPropertyOp23
 70
     1
102
RTVSPropertyOp24
 70
     1
102
RTVSPropertyOp25
 70
     1
102
RTVSPropertyOp26
 70
     1
102
RTVSPropertyOp27
 70
     1
102
RTVSPropertyOp28
 70
     1
102
RTVSPropertyOp29
 70
     1
102
RTVSPropertyOp30
 70
     1
102
RTVSPropertyOp31
 70
     1
102
RTVSPropertyOp32
 70
     1
102
RTVSPropertyOp33
 70
     1
102
RTVSPropertyOp34
 70
     1
102
RTVSPropertyOp35
 70
     1
102
RTVSPropertyOp36
 70
     1
102
RTVSPropertyOp37
 70
     1
102
RTVSPropertyOp38
 70
     1
102
RTVSPropertyOp39
 70
     1
102
RTVSPropertyOp40
 70
     1
102
RTVSPropertyOp41
 70
     1
102
RTVSPropertyOp42
 70
     1
102
RTVSPropertyOp43
 70
     1
102
RTVSPropertyOp44
 70
     1
102
RTVSPropertyOp45
 70
     1
102
RTVSPropertyOp46
 70
     1
102
RTVSPropertyOp47
 70
     1
102
RTVSPropertyOp48
 70
     1
102
RTVSPropertyOp49
 70
     1
102
RTVSPropertyOp50
 70
     1
102
RTVSPropertyOp51
 70
     0
102
RTVSPropertyOp52
 70
     0
102
RTVSPropertyOp53
 70
     1
102
RTVSPropertyOp54
 70
     1
102
RTVSPropertyOp55
 70
     1
102
RTVSPropertyOp56
 70
     1
102
RTVSPropertyOp57
 70
     1
102
RTVSPropertyOp58
 70
     1
102
RTVSPropertyOp59
 70
     1
102
RTVSPropertyOp60
 70
     1
102
RTVSPropertyOp61
 70
     1
102
RTVSPropertyOp62
 70
     1
  0
XRECORD
  5
1417
102
{ACAD_REACTORS
330
1416
102
}
330
1416
100
AcDbXrecord
280
     1
102
RTVSPost2010Prop28
280
     0
102
RTVSPost2010PropOp28
 70
     1
102
RTVSPost2010Prop29
280
     1
102
RTVSPost2010PropOp29
 70
     1
102
RTVSPost2010Prop30
280
     1
102
RTVSPost2010PropOp30
 70
     1
102
RTVSPost2010Prop31
280
     0
102
RTVSPost2010PropOp31
 70
     1
102
RTVSPost2010Prop32
280
     0
102
RTVSPost2010PropOp32
 70
     1
102
RTVSPost2010Prop33
280
     0
102
RTVSPost2010PropOp33
 70
     1
102
RTVSPost2010Prop34
280
     0
102
RTVSPost2010PropOp34
 70
     1
102
RTVSPost2010Prop35
280
     0
102
RTVSPost2010PropOp35
 70
     1
102
RTVSPost2010Prop36
280
     0
102
RTVSPost2010PropOp36
 70
     1
102
RTVSPost2010Prop37
 90
       50
102
RTVSPost2010PropOp37
 70
     1
102
RTVSPost2010Prop38
140
0.0
102
RTVSPost2010PropOp38
 70
     1
102
RTVSPost2010Prop39
140
1.0
102
RTVSPost2010PropOp39
 70
     1
102
RTVSPost2010Prop40
 90
        0
102
RTVSPost2010PropOp40
 70
     1
102
RTVSPost2010Prop41ColorIndex
 90
       18
102
RTVSPost2010Prop41ColorRGB
 90
        0
102
RTVSPost2010PropOp41
 70
     1
102
RTVSPost2010Prop42
 90
       50
102
RTVSPost2010PropOp42
 70
     1
102
RTVSPost2010Prop43
 90
        3
102
RTVSPost2010PropOp43
 70
     1
102
RTVSPost2010Prop44ColorIndex
 90
        5
102
RTVSPost2010Prop44ColorRGB
 90
      255
102
RTVSPost2010PropOp44
 70
     1
102
RTVSPost2010Prop45
280
     0
102
RTVSPost2010PropOp45
 70
     1
102
RTVSPost2010Prop46
 90
       50
102
RTVSPost2010PropOp46
 70
     1
102
RTVSPost2010Prop47
 90
       50
102
RTVSPost2010PropOp47
 70
     1
102
RTVSPost2010Prop48
 90
       50
102
RTVSPost2010PropOp48
 70
     1
102
RTVSPost2010Prop49
280
     0
102
RTVSPost2010PropOp49
 70
     1
102
RTVSPost2010Prop50
 90
       50
102
RTVSPost2010PropOp50
 70
     1
102
RTVSPost2010Prop51ColorIndex
 90
      256
102
RTVSPost2010Prop51ColorRGB
 90
-16777216
102
RTVSPost2010PropOp51
 70
     0
102
RTVSPost2010Prop52
140
1.0
102
RTVSPost2010PropOp52
 70
     0
102
RTVSPost2010Prop53
 90
        2
102
RTVSPost2010PropOp53
 70
     1
102
RTVSPost2010Prop54
  1
strokes_ogs.tif
102
RTVSPost2010PropOp54
 70
     1
102
RTVSPost2010Prop55
280
     0
102
RTVSPost2010PropOp55
 70
     1
102
RTVSPost2010Prop56
140
1.0
102
RTVSPost2010PropOp56
 70
     1
102
RTVSPost2010Prop57
140
1.0
102
RTVSPost2010PropOp57
 70
     1
102
RTVSPropertyOp0
 70
     1
102
RTVSPropertyOp1
 70
     1
102
RTVSPropertyOp2
 70
     1
102
RTVSPropertyOp3
 70
     1
102
RTVSPropertyOp4
 70
     1
102
RTVSPropertyOp5
 70
     1
102
RTVSPropertyOp6
 70
     1
102
RTVSPropertyOp7
 70
     1
102
RTVSPropertyOp8
 70
     1
102
RTVSPropertyOp9
 70
     1
102
RTVSPropertyOp10
 70
     1
102
RTVSPropertyOp11
 70
     1
102
RTVSPropertyOp12
 70
     1
102
RTVSPropertyOp13
 70
     1
102
RTVSPropertyOp14
 70
     1
102
RTVSPropertyOp15
 70
     1
102
RTVSPropertyOp16
 70
     1
102
RTVSPropertyOp17
 70
     1
102
RTVSPropertyOp18
 70
     1
102
RTVSPropertyOp19
 70
     1
102
RTVSPropertyOp20
 70
     1
102
RTVSPropertyOp21
 70
     1
102
RTVSPropertyOp22
 70
     1
102
RTVSPropertyOp23
 70
     1
102
RTVSPropertyOp24
 70
     1
102
RTVSPropertyOp25
 70
     1
102
RTVSPropertyOp26
 70
     1
102
RTVSPropertyOp27
 70
     1
102
RTVSPropertyOp28
 70
     1
102
RTVSPropertyOp29
 70
     1
102
RTVSPropertyOp30
 70
     1
102
RTVSPropertyOp31
 70
     1
102
RTVSPropertyOp32
 70
     1
102
RTVSPropertyOp33
 70
     1
102
RTVSPropertyOp34
 70
     1
102
RTVSPropertyOp35
 70
     1
102
RTVSPropertyOp36
 70
     1
102
RTVSPropertyOp37
 70
     1
102
RTVSPropertyOp38
 70
     1
102
RTVSPropertyOp39
 70
     1
102
RTVSPropertyOp40
 70
     1
102
RTVSPropertyOp41
 70
     1
102
RTVSPropertyOp42
 70
     1
102
RTVSPropertyOp43
 70
     1
102
RTVSPropertyOp44
 70
     1
102
RTVSPropertyOp45
 70
     1
102
RTVSPropertyOp46
 70
     1
102
RTVSPropertyOp47
 70
     1
102
RTVSPropertyOp48
 70
     1
102
RTVSPropertyOp49
 70
     1
102
RTVSPropertyOp50
 70
     1
102
RTVSPropertyOp51
 70
     0
102
RTVSPropertyOp52
 70
     0
102
RTVSPropertyOp53
 70
     1
102
RTVSPropertyOp54
 70
     1
102
RTVSPropertyOp55
 70
     1
102
RTVSPropertyOp56
 70
     1
102
RTVSPropertyOp57
 70
     1
102
RTVSPropertyOp58
 70
     1
102
RTVSPropertyOp59
 70
     1
102
RTVSPropertyOp60
 70
     1
102
RTVSPropertyOp61
 70
     1
102
RTVSPropertyOp62
 70
     1
  0
XRECORD
  5
1425
102
{ACAD_REACTORS
330
1424
102
}
330
1424
100
AcDbXrecord
280
     1
102
RTVSPost2010Prop28
280
     0
102
RTVSPost2010PropOp28
 70
     1
102
RTVSPost2010Prop29
280
     1
102
RTVSPost2010PropOp29
 70
     1
102
RTVSPost2010Prop30
280
     1
102
RTVSPost2010PropOp30
 70
     1
102
RTVSPost2010Prop31
280
     0
102
RTVSPost2010PropOp31
 70
     1
102
RTVSPost2010Prop32
280
     0
102
RTVSPost2010PropOp32
 70
     1
102
RTVSPost2010Prop33
280
     0
102
RTVSPost2010PropOp33
 70
     1
102
RTVSPost2010Prop34
280
     0
102
RTVSPost2010PropOp34
 70
     1
102
RTVSPost2010Prop35
280
     0
102
RTVSPost2010PropOp35
 70
     1
102
RTVSPost2010Prop36
280
     0
102
RTVSPost2010PropOp36
 70
     1
102
RTVSPost2010Prop37
 90
       50
102
RTVSPost2010PropOp37
 70
     1
102
RTVSPost2010Prop38
140
0.0
102
RTVSPost2010PropOp38
 70
     1
102
RTVSPost2010Prop39
140
1.0
102
RTVSPost2010PropOp39
 70
     1
102
RTVSPost2010Prop40
 90
        0
102
RTVSPost2010PropOp40
 70
     1
102
RTVSPost2010Prop41ColorIndex
 90
       18
102
RTVSPost2010Prop41ColorRGB
 90
        0
102
RTVSPost2010PropOp41
 70
     1
102
RTVSPost2010Prop42
 90
       50
102
RTVSPost2010PropOp42
 70
     1
102
RTVSPost2010Prop43
 90
        3
102
RTVSPost2010PropOp43
 70
     1
102
RTVSPost2010Prop44ColorIndex
 90
        5
102
RTVSPost2010Prop44ColorRGB
 90
      255
102
RTVSPost2010PropOp44
 70
     1
102
RTVSPost2010Prop45
280
     0
102
RTVSPost2010PropOp45
 70
     1
102
RTVSPost2010Prop46
 90
       50
102
RTVSPost2010PropOp46
 70
     1
102
RTVSPost2010Prop47
 90
       50
102
RTVSPost2010PropOp47
 70
     1
102
RTVSPost2010Prop48
 90
       50
102
RTVSPost2010PropOp48
 70
     1
102
RTVSPost2010Prop49
280
     0
102
RTVSPost2010PropOp49
 70
     1
102
RTVSPost2010Prop50
 90
       50
102
RTVSPost2010PropOp50
 70
     1
102
RTVSPost2010Prop51ColorIndex
 90
      256
102
RTVSPost2010Prop51ColorRGB
 90
-16777216
102
RTVSPost2010PropOp51
 70
     0
102
RTVSPost2010Prop52
140
1.0
102
RTVSPost2010PropOp52
 70
     0
102
RTVSPost2010Prop53
 90
        2
102
RTVSPost2010PropOp53
 70
     1
102
RTVSPost2010Prop54
  1
strokes_ogs.tif
102
RTVSPost2010PropOp54
 70
     1
102
RTVSPost2010Prop55
280
     0
102
RTVSPost2010PropOp55
 70
     1
102
RTVSPost2010Prop56
140
1.0
102
RTVSPost2010PropOp56
 70
     1
102
RTVSPost2010Prop57
140
1.0
102
RTVSPost2010PropOp57
 70
     1
102
RTVSPropertyOp0
 70
     1
102
RTVSPropertyOp1
 70
     1
102
RTVSPropertyOp2
 70
     1
102
RTVSPropertyOp3
 70
     1
102
RTVSPropertyOp4
 70
     1
102
RTVSPropertyOp5
 70
     1
102
RTVSPropertyOp6
 70
     1
102
RTVSPropertyOp7
 70
     1
102
RTVSPropertyOp8
 70
     1
102
RTVSPropertyOp9
 70
     1
102
RTVSPropertyOp10
 70
     1
102
RTVSPropertyOp11
 70
     1
102
RTVSPropertyOp12
 70
     1
102
RTVSPropertyOp13
 70
     1
102
RTVSPropertyOp14
 70
     1
102
RTVSPropertyOp15
 70
     1
102
RTVSPropertyOp16
 70
     1
102
RTVSPropertyOp17
 70
     1
102
RTVSPropertyOp18
 70
     1
102
RTVSPropertyOp19
 70
     1
102
RTVSPropertyOp20
 70
     1
102
RTVSPropertyOp21
 70
     1
102
RTVSPropertyOp22
 70
     1
102
RTVSPropertyOp23
 70
     1
102
RTVSPropertyOp24
 70
     1
102
RTVSPropertyOp25
 70
     1
102
RTVSPropertyOp26
 70
     1
102
RTVSPropertyOp27
 70
     1
102
RTVSPropertyOp28
 70
     1
102
RTVSPropertyOp29
 70
     1
102
RTVSPropertyOp30
 70
     1
102
RTVSPropertyOp31
 70
     1
102
RTVSPropertyOp32
 70
     1
102
RTVSPropertyOp33
 70
     1
102
RTVSPropertyOp34
 70
     1
102
RTVSPropertyOp35
 70
     1
102
RTVSPropertyOp36
 70
     1
102
RTVSPropertyOp37
 70
     1
102
RTVSPropertyOp38
 70
     1
102
RTVSPropertyOp39
 70
     1
102
RTVSPropertyOp40
 70
     1
102
RTVSPropertyOp41
 70
     1
102
RTVSPropertyOp42
 70
     1
102
RTVSPropertyOp43
 70
     1
102
RTVSPropertyOp44
 70
     1
102
RTVSPropertyOp45
 70
     1
102
RTVSPropertyOp46
 70
     1
102
RTVSPropertyOp47
 70
     1
102
RTVSPropertyOp48
 70
     1
102
RTVSPropertyOp49
 70
     1
102
RTVSPropertyOp50
 70
     1
102
RTVSPropertyOp51
 70
     0
102
RTVSPropertyOp52
 70
     0
102
RTVSPropertyOp53
 70
     1
102
RTVSPropertyOp54
 70
     1
102
RTVSPropertyOp55
 70
     1
102
RTVSPropertyOp56
 70
     1
102
RTVSPropertyOp57
 70
     1
102
RTVSPropertyOp58
 70
     1
102
RTVSPropertyOp59
 70
     1
102
RTVSPropertyOp60
 70
     1
102
RTVSPropertyOp61
 70
     1
102
RTVSPropertyOp62
 70
     1
  0
XRECORD
  5
142D
102
{ACAD_REACTORS
330
142C
102
}
330
142C
100
AcDbXrecord
280
     1
102
RTVSPost2010Prop28
280
     0
102
RTVSPost2010PropOp28
 70
     1
102
RTVSPost2010Prop29
280
     1
102
RTVSPost2010PropOp29
 70
     1
102
RTVSPost2010Prop30
280
     1
102
RTVSPost2010PropOp30
 70
     1
102
RTVSPost2010Prop31
280
     0
102
RTVSPost2010PropOp31
 70
     1
102
RTVSPost2010Prop32
280
     0
102
RTVSPost2010PropOp32
 70
     1
102
RTVSPost2010Prop33
280
     0
102
RTVSPost2010PropOp33
 70
     1
102
RTVSPost2010Prop34
280
     0
102
RTVSPost2010PropOp34
 70
     1
102
RTVSPost2010Prop35
280
     0
102
RTVSPost2010PropOp35
 70
     1
102
RTVSPost2010Prop36
280
     0
102
RTVSPost2010PropOp36
 70
     1
102
RTVSPost2010Prop37
 90
       50
102
RTVSPost2010PropOp37
 70
     1
102
RTVSPost2010Prop38
140
0.0
102
RTVSPost2010PropOp38
 70
     1
102
RTVSPost2010Prop39
140
1.0
102
RTVSPost2010PropOp39
 70
     1
102
RTVSPost2010Prop40
 90
        0
102
RTVSPost2010PropOp40
 70
     1
102
RTVSPost2010Prop41ColorIndex
 90
       18
102
RTVSPost2010Prop41ColorRGB
 90
        0
102
RTVSPost2010PropOp41
 70
     1
102
RTVSPost2010Prop42
 90
       50
102
RTVSPost2010PropOp42
 70
     1
102
RTVSPost2010Prop43
 90
        3
102
RTVSPost2010PropOp43
 70
     1
102
RTVSPost2010Prop44ColorIndex
 90
        5
102
RTVSPost2010Prop44ColorRGB
 90
      255
102
RTVSPost2010PropOp44
 70
     1
102
RTVSPost2010Prop45
280
     0
102
RTVSPost2010PropOp45
 70
     1
102
RTVSPost2010Prop46
 90
       50
102
RTVSPost2010PropOp46
 70
     1
102
RTVSPost2010Prop47
 90
       50
102
RTVSPost2010PropOp47
 70
     1
102
RTVSPost2010Prop48
 90
       50
102
RTVSPost2010PropOp48
 70
     1
102
RTVSPost2010Prop49
280
     0
102
RTVSPost2010PropOp49
 70
     1
102
RTVSPost2010Prop50
 90
       50
102
RTVSPost2010PropOp50
 70
     1
102
RTVSPost2010Prop51ColorIndex
 90
      256
102
RTVSPost2010Prop51ColorRGB
 90
-16777216
102
RTVSPost2010PropOp51
 70
     0
102
RTVSPost2010Prop52
140
1.0
102
RTVSPost2010PropOp52
 70
     0
102
RTVSPost2010Prop53
 90
        2
102
RTVSPost2010PropOp53
 70
     1
102
RTVSPost2010Prop54
  1
strokes_ogs.tif
102
RTVSPost2010PropOp54
 70
     1
102
RTVSPost2010Prop55
280
     0
102
RTVSPost2010PropOp55
 70
     1
102
RTVSPost2010Prop56
140
1.0
102
RTVSPost2010PropOp56
 70
     1
102
RTVSPost2010Prop57
140
1.0
102
RTVSPost2010PropOp57
 70
     1
102
RTVSPropertyOp0
 70
     1
102
RTVSPropertyOp1
 70
     1
102
RTVSPropertyOp2
 70
     1
102
RTVSPropertyOp3
 70
     1
102
RTVSPropertyOp4
 70
     1
102
RTVSPropertyOp5
 70
     1
102
RTVSPropertyOp6
 70
     1
102
RTVSPropertyOp7
 70
     1
102
RTVSPropertyOp8
 70
     1
102
RTVSPropertyOp9
 70
     1
102
RTVSPropertyOp10
 70
     1
102
RTVSPropertyOp11
 70
     1
102
RTVSPropertyOp12
 70
     1
102
RTVSPropertyOp13
 70
     1
102
RTVSPropertyOp14
 70
     1
102
RTVSPropertyOp15
 70
     1
102
RTVSPropertyOp16
 70
     1
102
RTVSPropertyOp17
 70
     1
102
RTVSPropertyOp18
 70
     1
102
RTVSPropertyOp19
 70
     1
102
RTVSPropertyOp20
 70
     1
102
RTVSPropertyOp21
 70
     1
102
RTVSPropertyOp22
 70
     1
102
RTVSPropertyOp23
 70
     1
102
RTVSPropertyOp24
 70
     1
102
RTVSPropertyOp25
 70
     1
102
RTVSPropertyOp26
 70
     1
102
RTVSPropertyOp27
 70
     1
102
RTVSPropertyOp28
 70
     1
102
RTVSPropertyOp29
 70
     1
102
RTVSPropertyOp30
 70
     1
102
RTVSPropertyOp31
 70
     1
102
RTVSPropertyOp32
 70
     1
102
RTVSPropertyOp33
 70
     1
102
RTVSPropertyOp34
 70
     1
102
RTVSPropertyOp35
 70
     1
102
RTVSPropertyOp36
 70
     1
102
RTVSPropertyOp37
 70
     1
102
RTVSPropertyOp38
 70
     1
102
RTVSPropertyOp39
 70
     1
102
RTVSPropertyOp40
 70
     1
102
RTVSPropertyOp41
 70
     1
102
RTVSPropertyOp42
 70
     1
102
RTVSPropertyOp43
 70
     1
102
RTVSPropertyOp44
 70
     1
102
RTVSPropertyOp45
 70
     1
102
RTVSPropertyOp46
 70
     1
102
RTVSPropertyOp47
 70
     1
102
RTVSPropertyOp48
 70
     1
102
RTVSPropertyOp49
 70
     1
102
RTVSPropertyOp50
 70
     1
102
RTVSPropertyOp51
 70
     0
102
RTVSPropertyOp52
 70
     0
102
RTVSPropertyOp53
 70
     1
102
RTVSPropertyOp54
 70
     1
102
RTVSPropertyOp55
 70
     1
102
RTVSPropertyOp56
 70
     1
102
RTVSPropertyOp57
 70
     1
102
RTVSPropertyOp58
 70
     1
102
RTVSPropertyOp59
 70
     1
102
RTVSPropertyOp60
 70
     1
102
RTVSPropertyOp61
 70
     1
102
RTVSPropertyOp62
 70
     1
  0
XRECORD
  5
141F
102
{ACAD_REACTORS
330
141E
102
}
330
141E
100
AcDbXrecord
280
     1
102
RTVSPost2010Prop28
280
     0
102
RTVSPost2010PropOp28
 70
     1
102
RTVSPost2010Prop29
280
     1
102
RTVSPost2010PropOp29
 70
     1
102
RTVSPost2010Prop30
280
     1
102
RTVSPost2010PropOp30
 70
     1
102
RTVSPost2010Prop31
280
     0
102
RTVSPost2010PropOp31
 70
     1
102
RTVSPost2010Prop32
280
     0
102
RTVSPost2010PropOp32
 70
     1
102
RTVSPost2010Prop33
280
     0
102
RTVSPost2010PropOp33
 70
     1
102
RTVSPost2010Prop34
280
     0
102
RTVSPost2010PropOp34
 70
     1
102
RTVSPost2010Prop35
280
     0
102
RTVSPost2010PropOp35
 70
     1
102
RTVSPost2010Prop36
280
     0
102
RTVSPost2010PropOp36
 70
     1
102
RTVSPost2010Prop37
 90
       50
102
RTVSPost2010PropOp37
 70
     1
102
RTVSPost2010Prop38
140
0.0
102
RTVSPost2010PropOp38
 70
     1
102
RTVSPost2010Prop39
140
1.0
102
RTVSPost2010PropOp39
 70
     1
102
RTVSPost2010Prop40
 90
        0
102
RTVSPost2010PropOp40
 70
     1
102
RTVSPost2010Prop41ColorIndex
 90
       18
102
RTVSPost2010Prop41ColorRGB
 90
        0
102
RTVSPost2010PropOp41
 70
     1
102
RTVSPost2010Prop42
 90
       50
102
RTVSPost2010PropOp42
 70
     1
102
RTVSPost2010Prop43
 90
        3
102
RTVSPost2010PropOp43
 70
     1
102
RTVSPost2010Prop44ColorIndex
 90
        5
102
RTVSPost2010Prop44ColorRGB
 90
      255
102
RTVSPost2010PropOp44
 70
     1
102
RTVSPost2010Prop45
280
     0
102
RTVSPost2010PropOp45
 70
     1
102
RTVSPost2010Prop46
 90
       50
102
RTVSPost2010PropOp46
 70
     1
102
RTVSPost2010Prop47
 90
       50
102
RTVSPost2010PropOp47
 70
     1
102
RTVSPost2010Prop48
 90
       50
102
RTVSPost2010PropOp48
 70
     1
102
RTVSPost2010Prop49
280
     0
102
RTVSPost2010PropOp49
 70
     1
102
RTVSPost2010Prop50
 90
       50
102
RTVSPost2010PropOp50
 70
     1
102
RTVSPost2010Prop51ColorIndex
 90
      256
102
RTVSPost2010Prop51ColorRGB
 90
-16777216
102
RTVSPost2010PropOp51
 70
     0
102
RTVSPost2010Prop52
140
1.0
102
RTVSPost2010PropOp52
 70
     0
102
RTVSPost2010Prop53
 90
        2
102
RTVSPost2010PropOp53
 70
     1
102
RTVSPost2010Prop54
  1
strokes_ogs.tif
102
RTVSPost2010PropOp54
 70
     1
102
RTVSPost2010Prop55
280
     0
102
RTVSPost2010PropOp55
 70
     1
102
RTVSPost2010Prop56
140
1.0
102
RTVSPost2010PropOp56
 70
     1
102
RTVSPost2010Prop57
140
1.0
102
RTVSPost2010PropOp57
 70
     1
102
RTVSPropertyOp0
 70
     1
102
RTVSPropertyOp1
 70
     1
102
RTVSPropertyOp2
 70
     1
102
RTVSPropertyOp3
 70
     1
102
RTVSPropertyOp4
 70
     1
102
RTVSPropertyOp5
 70
     1
102
RTVSPropertyOp6
 70
     1
102
RTVSPropertyOp7
 70
     1
102
RTVSPropertyOp8
 70
     1
102
RTVSPropertyOp9
 70
     1
102
RTVSPropertyOp10
 70
     1
102
RTVSPropertyOp11
 70
     1
102
RTVSPropertyOp12
 70
     1
102
RTVSPropertyOp13
 70
     1
102
RTVSPropertyOp14
 70
     1
102
RTVSPropertyOp15
 70
     1
102
RTVSPropertyOp16
 70
     1
102
RTVSPropertyOp17
 70
     1
102
RTVSPropertyOp18
 70
     1
102
RTVSPropertyOp19
 70
     1
102
RTVSPropertyOp20
 70
     1
102
RTVSPropertyOp21
 70
     1
102
RTVSPropertyOp22
 70
     1
102
RTVSPropertyOp23
 70
     1
102
RTVSPropertyOp24
 70
     1
102
RTVSPropertyOp25
 70
     1
102
RTVSPropertyOp26
 70
     1
102
RTVSPropertyOp27
 70
     1
102
RTVSPropertyOp28
 70
     1
102
RTVSPropertyOp29
 70
     1
102
RTVSPropertyOp30
 70
     1
102
RTVSPropertyOp31
 70
     1
102
RTVSPropertyOp32
 70
     1
102
RTVSPropertyOp33
 70
     1
102
RTVSPropertyOp34
 70
     1
102
RTVSPropertyOp35
 70
     1
102
RTVSPropertyOp36
 70
     1
102
RTVSPropertyOp37
 70
     1
102
RTVSPropertyOp38
 70
     1
102
RTVSPropertyOp39
 70
     1
102
RTVSPropertyOp40
 70
     1
102
RTVSPropertyOp41
 70
     1
102
RTVSPropertyOp42
 70
     1
102
RTVSPropertyOp43
 70
     1
102
RTVSPropertyOp44
 70
     1
102
RTVSPropertyOp45
 70
     1
102
RTVSPropertyOp46
 70
     1
102
RTVSPropertyOp47
 70
     1
102
RTVSPropertyOp48
 70
     1
102
RTVSPropertyOp49
 70
     1
102
RTVSPropertyOp50
 70
     1
102
RTVSPropertyOp51
 70
     0
102
RTVSPropertyOp52
 70
     0
102
RTVSPropertyOp53
 70
     1
102
RTVSPropertyOp54
 70
     1
102
RTVSPropertyOp55
 70
     1
102
RTVSPropertyOp56
 70
     1
102
RTVSPropertyOp57
 70
     1
102
RTVSPropertyOp58
 70
     1
102
RTVSPropertyOp59
 70
     1
102
RTVSPropertyOp60
 70
     1
102
RTVSPropertyOp61
 70
     1
102
RTVSPropertyOp62
 70
     1
  0
XRECORD
  5
1423
102
{ACAD_REACTORS
330
1422
102
}
330
1422
100
AcDbXrecord
280
     1
102
RTVSPost2010Prop28
280
     0
102
RTVSPost2010PropOp28
 70
     1
102
RTVSPost2010Prop29
280
     1
102
RTVSPost2010PropOp29
 70
     1
102
RTVSPost2010Prop30
280
     1
102
RTVSPost2010PropOp30
 70
     1
102
RTVSPost2010Prop31
280
     0
102
RTVSPost2010PropOp31
 70
     1
102
RTVSPost2010Prop32
280
     0
102
RTVSPost2010PropOp32
 70
     1
102
RTVSPost2010Prop33
280
     0
102
RTVSPost2010PropOp33
 70
     1
102
RTVSPost2010Prop34
280
     0
102
RTVSPost2010PropOp34
 70
     1
102
RTVSPost2010Prop35
280
     0
102
RTVSPost2010PropOp35
 70
     1
102
RTVSPost2010Prop36
280
     0
102
RTVSPost2010PropOp36
 70
     1
102
RTVSPost2010Prop37
 90
       50
102
RTVSPost2010PropOp37
 70
     1
102
RTVSPost2010Prop38
140
0.0
102
RTVSPost2010PropOp38
 70
     1
102
RTVSPost2010Prop39
140
1.0
102
RTVSPost2010PropOp39
 70
     1
102
RTVSPost2010Prop40
 90
        0
102
RTVSPost2010PropOp40
 70
     1
102
RTVSPost2010Prop41ColorIndex
 90
       18
102
RTVSPost2010Prop41ColorRGB
 90
        0
102
RTVSPost2010PropOp41
 70
     1
102
RTVSPost2010Prop42
 90
       50
102
RTVSPost2010PropOp42
 70
     1
102
RTVSPost2010Prop43
 90
        3
102
RTVSPost2010PropOp43
 70
     1
102
RTVSPost2010Prop44ColorIndex
 90
        5
102
RTVSPost2010Prop44ColorRGB
 90
      255
102
RTVSPost2010PropOp44
 70
     1
102
RTVSPost2010Prop45
280
     0
102
RTVSPost2010PropOp45
 70
     1
102
RTVSPost2010Prop46
 90
       50
102
RTVSPost2010PropOp46
 70
     1
102
RTVSPost2010Prop47
 90
       50
102
RTVSPost2010PropOp47
 70
     1
102
RTVSPost2010Prop48
 90
       50
102
RTVSPost2010PropOp48
 70
     1
102
RTVSPost2010Prop49
280
     0
102
RTVSPost2010PropOp49
 70
     1
102
RTVSPost2010Prop50
 90
       50
102
RTVSPost2010PropOp50
 70
     1
102
RTVSPost2010Prop51ColorIndex
 90
      256
102
RTVSPost2010Prop51ColorRGB
 90
-16777216
102
RTVSPost2010PropOp51
 70
     0
102
RTVSPost2010Prop52
140
1.0
102
RTVSPost2010PropOp52
 70
     0
102
RTVSPost2010Prop53
 90
        2
102
RTVSPost2010PropOp53
 70
     1
102
RTVSPost2010Prop54
  1
strokes_ogs.tif
102
RTVSPost2010PropOp54
 70
     1
102
RTVSPost2010Prop55
280
     0
102
RTVSPost2010PropOp55
 70
     1
102
RTVSPost2010Prop56
140
1.0
102
RTVSPost2010PropOp56
 70
     1
102
RTVSPost2010Prop57
140
1.0
102
RTVSPost2010PropOp57
 70
     1
102
RTVSPropertyOp0
 70
     1
102
RTVSPropertyOp1
 70
     1
102
RTVSPropertyOp2
 70
     1
102
RTVSPropertyOp3
 70
     1
102
RTVSPropertyOp4
 70
     1
102
RTVSPropertyOp5
 70
     1
102
RTVSPropertyOp6
 70
     1
102
RTVSPropertyOp7
 70
     1
102
RTVSPropertyOp8
 70
     1
102
RTVSPropertyOp9
 70
     1
102
RTVSPropertyOp10
 70
     1
102
RTVSPropertyOp11
 70
     1
102
RTVSPropertyOp12
 70
     1
102
RTVSPropertyOp13
 70
     1
102
RTVSPropertyOp14
 70
     1
102
RTVSPropertyOp15
 70
     1
102
RTVSPropertyOp16
 70
     1
102
RTVSPropertyOp17
 70
     1
102
RTVSPropertyOp18
 70
     1
102
RTVSPropertyOp19
 70
     1
102
RTVSPropertyOp20
 70
     1
102
RTVSPropertyOp21
 70
     1
102
RTVSPropertyOp22
 70
     1
102
RTVSPropertyOp23
 70
     1
102
RTVSPropertyOp24
 70
     1
102
RTVSPropertyOp25
 70
     1
102
RTVSPropertyOp26
 70
     1
102
RTVSPropertyOp27
 70
     1
102
RTVSPropertyOp28
 70
     1
102
RTVSPropertyOp29
 70
     1
102
RTVSPropertyOp30
 70
     1
102
RTVSPropertyOp31
 70
     1
102
RTVSPropertyOp32
 70
     1
102
RTVSPropertyOp33
 70
     1
102
RTVSPropertyOp34
 70
     1
102
RTVSPropertyOp35
 70
     1
102
RTVSPropertyOp36
 70
     1
102
RTVSPropertyOp37
 70
     1
102
RTVSPropertyOp38
 70
     1
102
RTVSPropertyOp39
 70
     1
102
RTVSPropertyOp40
 70
     1
102
RTVSPropertyOp41
 70
     1
102
RTVSPropertyOp42
 70
     1
102
RTVSPropertyOp43
 70
     1
102
RTVSPropertyOp44
 70
     1
102
RTVSPropertyOp45
 70
     1
102
RTVSPropertyOp46
 70
     1
102
RTVSPropertyOp47
 70
     1
102
RTVSPropertyOp48
 70
     1
102
RTVSPropertyOp49
 70
     1
102
RTVSPropertyOp50
 70
     1
102
RTVSPropertyOp51
 70
     0
102
RTVSPropertyOp52
 70
     0
102
RTVSPropertyOp53
 70
     1
102
RTVSPropertyOp54
 70
     1
102
RTVSPropertyOp55
 70
     1
102
RTVSPropertyOp56
 70
     1
102
RTVSPropertyOp57
 70
     1
102
RTVSPropertyOp58
 70
     1
102
RTVSPropertyOp59
 70
     1
102
RTVSPropertyOp60
 70
     1
102
RTVSPropertyOp61
 70
     1
102
RTVSPropertyOp62
 70
     1
  0
XRECORD
  5
1435
102
{ACAD_REACTORS
330
1434
102
}
330
1434
100
AcDbXrecord
280
     1
102
RTVSPost2010Prop28
280
     0
102
RTVSPost2010PropOp28
 70
     1
102
RTVSPost2010Prop29
280
     1
102
RTVSPost2010PropOp29
 70
     1
102
RTVSPost2010Prop30
280
     1
102
RTVSPost2010PropOp30
 70
     1
102
RTVSPost2010Prop31
280
     0
102
RTVSPost2010PropOp31
 70
     1
102
RTVSPost2010Prop32
280
     0
102
RTVSPost2010PropOp32
 70
     1
102
RTVSPost2010Prop33
280
     0
102
RTVSPost2010PropOp33
 70
     1
102
RTVSPost2010Prop34
280
     0
102
RTVSPost2010PropOp34
 70
     1
102
RTVSPost2010Prop35
280
     0
102
RTVSPost2010PropOp35
 70
     1
102
RTVSPost2010Prop36
280
     0
102
RTVSPost2010PropOp36
 70
     1
102
RTVSPost2010Prop37
 90
       50
102
RTVSPost2010PropOp37
 70
     1
102
RTVSPost2010Prop38
140
0.0
102
RTVSPost2010PropOp38
 70
     1
102
RTVSPost2010Prop39
140
1.0
102
RTVSPost2010PropOp39
 70
     1
102
RTVSPost2010Prop40
 90
        0
102
RTVSPost2010PropOp40
 70
     1
102
RTVSPost2010Prop41ColorIndex
 90
       18
102
RTVSPost2010Prop41ColorRGB
 90
        0
102
RTVSPost2010PropOp41
 70
     1
102
RTVSPost2010Prop42
 90
       50
102
RTVSPost2010PropOp42
 70
     1
102
RTVSPost2010Prop43
 90
        3
102
RTVSPost2010PropOp43
 70
     1
102
RTVSPost2010Prop44ColorIndex
 90
        5
102
RTVSPost2010Prop44ColorRGB
 90
      255
102
RTVSPost2010PropOp44
 70
     1
102
RTVSPost2010Prop45
280
     0
102
RTVSPost2010PropOp45
 70
     1
102
RTVSPost2010Prop46
 90
       50
102
RTVSPost2010PropOp46
 70
     1
102
RTVSPost2010Prop47
 90
       50
102
RTVSPost2010PropOp47
 70
     1
102
RTVSPost2010Prop48
 90
       50
102
RTVSPost2010PropOp48
 70
     1
102
RTVSPost2010Prop49
280
     0
102
RTVSPost2010PropOp49
 70
     1
102
RTVSPost2010Prop50
 90
       50
102
RTVSPost2010PropOp50
 70
     1
102
RTVSPost2010Prop51ColorIndex
 90
      256
102
RTVSPost2010Prop51ColorRGB
 90
-16777216
102
RTVSPost2010PropOp51
 70
     0
102
RTVSPost2010Prop52
140
1.0
102
RTVSPost2010PropOp52
 70
     0
102
RTVSPost2010Prop53
 90
        2
102
RTVSPost2010PropOp53
 70
     1
102
RTVSPost2010Prop54
  1
strokes_ogs.tif
102
RTVSPost2010PropOp54
 70
     1
102
RTVSPost2010Prop55
280
     0
102
RTVSPost2010PropOp55
 70
     1
102
RTVSPost2010Prop56
140
1.0
102
RTVSPost2010PropOp56
 70
     1
102
RTVSPost2010Prop57
140
1.0
102
RTVSPost2010PropOp57
 70
     1
102
RTVSPropertyOp0
 70
     0
102
RTVSPropertyOp1
 70
     0
102
RTVSPropertyOp2
 70
     0
102
RTVSPropertyOp3
 70
     0
102
RTVSPropertyOp4
 70
     0
102
RTVSPropertyOp5
 70
     0
102
RTVSPropertyOp6
 70
     0
102
RTVSPropertyOp7
 70
     0
102
RTVSPropertyOp8
 70
     0
102
RTVSPropertyOp9
 70
     0
102
RTVSPropertyOp10
 70
     0
102
RTVSPropertyOp11
 70
     0
102
RTVSPropertyOp12
 70
     0
102
RTVSPropertyOp13
 70
     0
102
RTVSPropertyOp14
 70
     2
102
RTVSPropertyOp15
 70
     0
102
RTVSPropertyOp16
 70
     0
102
RTVSPropertyOp17
 70
     0
102
RTVSPropertyOp18
 70
     0
102
RTVSPropertyOp19
 70
     0
102
RTVSPropertyOp20
 70
     0
102
RTVSPropertyOp21
 70
     0
102
RTVSPropertyOp22
 70
     0
102
RTVSPropertyOp23
 70
     0
102
RTVSPropertyOp24
 70
     0
102
RTVSPropertyOp25
 70
     0
102
RTVSPropertyOp26
 70
     0
102
RTVSPropertyOp27
 70
     0
102
RTVSPropertyOp28
 70
     1
102
RTVSPropertyOp29
 70
     1
102
RTVSPropertyOp30
 70
     1
102
RTVSPropertyOp31
 70
     1
102
RTVSPropertyOp32
 70
     1
102
RTVSPropertyOp33
 70
     1
102
RTVSPropertyOp34
 70
     1
102
RTVSPropertyOp35
 70
     1
102
RTVSPropertyOp36
 70
     1
102
RTVSPropertyOp37
 70
     1
102
RTVSPropertyOp38
 70
     1
102
RTVSPropertyOp39
 70
     1
102
RTVSPropertyOp40
 70
     1
102
RTVSPropertyOp41
 70
     1
102
RTVSPropertyOp42
 70
     1
102
RTVSPropertyOp43
 70
     1
102
RTVSPropertyOp44
 70
     1
102
RTVSPropertyOp45
 70
     1
102
RTVSPropertyOp46
 70
     1
102
RTVSPropertyOp47
 70
     1
102
RTVSPropertyOp48
 70
     1
102
RTVSPropertyOp49
 70
     1
102
RTVSPropertyOp50
 70
     1
102
RTVSPropertyOp51
 70
     0
102
RTVSPropertyOp52
 70
     0
102
RTVSPropertyOp53
 70
     1
102
RTVSPropertyOp54
 70
     1
102
RTVSPropertyOp55
 70
     1
102
RTVSPropertyOp56
 70
     1
102
RTVSPropertyOp57
 70
     1
102
RTVSPropertyOp58
 70
     1
102
RTVSPropertyOp59
 70
     1
102
RTVSPropertyOp60
 70
     1
102
RTVSPropertyOp61
 70
     1
102
RTVSPropertyOp62
 70
     1
  0
XRECORD
  5
142B
102
{ACAD_REACTORS
330
142A
102
}
330
142A
100
AcDbXrecord
280
     1
102
RTVSPost2010Prop28
280
     0
102
RTVSPost2010PropOp28
 70
     1
102
RTVSPost2010Prop29
280
     1
102
RTVSPost2010PropOp29
 70
     1
102
RTVSPost2010Prop30
280
     1
102
RTVSPost2010PropOp30
 70
     1
102
RTVSPost2010Prop31
280
     0
102
RTVSPost2010PropOp31
 70
     1
102
RTVSPost2010Prop32
280
     0
102
RTVSPost2010PropOp32
 70
     1
102
RTVSPost2010Prop33
280
     0
102
RTVSPost2010PropOp33
 70
     1
102
RTVSPost2010Prop34
280
     0
102
RTVSPost2010PropOp34
 70
     1
102
RTVSPost2010Prop35
280
     0
102
RTVSPost2010PropOp35
 70
     1
102
RTVSPost2010Prop36
280
     0
102
RTVSPost2010PropOp36
 70
     1
102
RTVSPost2010Prop37
 90
       50
102
RTVSPost2010PropOp37
 70
     1
102
RTVSPost2010Prop38
140
0.0
102
RTVSPost2010PropOp38
 70
     1
102
RTVSPost2010Prop39
140
1.0
102
RTVSPost2010PropOp39
 70
     1
102
RTVSPost2010Prop40
 90
        0
102
RTVSPost2010PropOp40
 70
     1
102
RTVSPost2010Prop41ColorIndex
 90
       18
102
RTVSPost2010Prop41ColorRGB
 90
        0
102
RTVSPost2010PropOp41
 70
     1
102
RTVSPost2010Prop42
 90
       50
102
RTVSPost2010PropOp42
 70
     1
102
RTVSPost2010Prop43
 90
        3
102
RTVSPost2010PropOp43
 70
     1
102
RTVSPost2010Prop44ColorIndex
 90
        5
102
RTVSPost2010Prop44ColorRGB
 90
      255
102
RTVSPost2010PropOp44
 70
     1
102
RTVSPost2010Prop45
280
     0
102
RTVSPost2010PropOp45
 70
     1
102
RTVSPost2010Prop46
 90
       50
102
RTVSPost2010PropOp46
 70
     1
102
RTVSPost2010Prop47
 90
       50
102
RTVSPost2010PropOp47
 70
     1
102
RTVSPost2010Prop48
 90
       50
102
RTVSPost2010PropOp48
 70
     1
102
RTVSPost2010Prop49
280
     0
102
RTVSPost2010PropOp49
 70
     1
102
RTVSPost2010Prop50
 90
       50
102
RTVSPost2010PropOp50
 70
     1
102
RTVSPost2010Prop51ColorIndex
 90
      256
102
RTVSPost2010Prop51ColorRGB
 90
-16777216
102
RTVSPost2010PropOp51
 70
     0
102
RTVSPost2010Prop52
140
1.0
102
RTVSPost2010PropOp52
 70
     0
102
RTVSPost2010Prop53
 90
        2
102
RTVSPost2010PropOp53
 70
     1
102
RTVSPost2010Prop54
  1
strokes_ogs.tif
102
RTVSPost2010PropOp54
 70
     1
102
RTVSPost2010Prop55
280
     0
102
RTVSPost2010PropOp55
 70
     1
102
RTVSPost2010Prop56
140
1.0
102
RTVSPost2010PropOp56
 70
     1
102
RTVSPost2010Prop57
140
1.0
102
RTVSPost2010PropOp57
 70
     1
102
RTVSPropertyOp0
 70
     1
102
RTVSPropertyOp1
 70
     1
102
RTVSPropertyOp2
 70
     1
102
RTVSPropertyOp3
 70
     1
102
RTVSPropertyOp4
 70
     1
102
RTVSPropertyOp5
 70
     1
102
RTVSPropertyOp6
 70
     1
102
RTVSPropertyOp7
 70
     1
102
RTVSPropertyOp8
 70
     1
102
RTVSPropertyOp9
 70
     1
102
RTVSPropertyOp10
 70
     1
102
RTVSPropertyOp11
 70
     1
102
RTVSPropertyOp12
 70
     1
102
RTVSPropertyOp13
 70
     1
102
RTVSPropertyOp14
 70
     1
102
RTVSPropertyOp15
 70
     1
102
RTVSPropertyOp16
 70
     1
102
RTVSPropertyOp17
 70
     1
102
RTVSPropertyOp18
 70
     1
102
RTVSPropertyOp19
 70
     1
102
RTVSPropertyOp20
 70
     1
102
RTVSPropertyOp21
 70
     1
102
RTVSPropertyOp22
 70
     1
102
RTVSPropertyOp23
 70
     1
102
RTVSPropertyOp24
 70
     1
102
RTVSPropertyOp25
 70
     1
102
RTVSPropertyOp26
 70
     1
102
RTVSPropertyOp27
 70
     1
102
RTVSPropertyOp28
 70
     1
102
RTVSPropertyOp29
 70
     1
102
RTVSPropertyOp30
 70
     1
102
RTVSPropertyOp31
 70
     1
102
RTVSPropertyOp32
 70
     1
102
RTVSPropertyOp33
 70
     1
102
RTVSPropertyOp34
 70
     1
102
RTVSPropertyOp35
 70
     1
102
RTVSPropertyOp36
 70
     1
102
RTVSPropertyOp37
 70
     1
102
RTVSPropertyOp38
 70
     1
102
RTVSPropertyOp39
 70
     1
102
RTVSPropertyOp40
 70
     1
102
RTVSPropertyOp41
 70
     1
102
RTVSPropertyOp42
 70
     1
102
RTVSPropertyOp43
 70
     1
102
RTVSPropertyOp44
 70
     1
102
RTVSPropertyOp45
 70
     1
102
RTVSPropertyOp46
 70
     1
102
RTVSPropertyOp47
 70
     1
102
RTVSPropertyOp48
 70
     1
102
RTVSPropertyOp49
 70
     1
102
RTVSPropertyOp50
 70
     1
102
RTVSPropertyOp51
 70
     0
102
RTVSPropertyOp52
 70
     0
102
RTVSPropertyOp53
 70
     1
102
RTVSPropertyOp54
 70
     1
102
RTVSPropertyOp55
 70
     1
102
RTVSPropertyOp56
 70
     1
102
RTVSPropertyOp57
 70
     1
102
RTVSPropertyOp58
 70
     1
102
RTVSPropertyOp59
 70
     1
102
RTVSPropertyOp60
 70
     1
102
RTVSPropertyOp61
 70
     1
102
RTVSPropertyOp62
 70
     1
  0
XRECORD
  5
140F
102
{ACAD_REACTORS
330
140E
102
}
330
140E
100
AcDbXrecord
280
     1
102
RTVSPost2010Prop28
280
     0
102
RTVSPost2010PropOp28
 70
     1
102
RTVSPost2010Prop29
280
     1
102
RTVSPost2010PropOp29
 70
     1
102
RTVSPost2010Prop30
280
     1
102
RTVSPost2010PropOp30
 70
     1
102
RTVSPost2010Prop31
280
     0
102
RTVSPost2010PropOp31
 70
     1
102
RTVSPost2010Prop32
280
     0
102
RTVSPost2010PropOp32
 70
     1
102
RTVSPost2010Prop33
280
     0
102
RTVSPost2010PropOp33
 70
     1
102
RTVSPost2010Prop34
280
     0
102
RTVSPost2010PropOp34
 70
     1
102
RTVSPost2010Prop35
280
     0
102
RTVSPost2010PropOp35
 70
     1
102
RTVSPost2010Prop36
280
     0
102
RTVSPost2010PropOp36
 70
     1
102
RTVSPost2010Prop37
 90
       50
102
RTVSPost2010PropOp37
 70
     1
102
RTVSPost2010Prop38
140
0.0
102
RTVSPost2010PropOp38
 70
     1
102
RTVSPost2010Prop39
140
1.0
102
RTVSPost2010PropOp39
 70
     1
102
RTVSPost2010Prop40
 90
        0
102
RTVSPost2010PropOp40
 70
     1
102
RTVSPost2010Prop41ColorIndex
 90
       18
102
RTVSPost2010Prop41ColorRGB
 90
        0
102
RTVSPost2010PropOp41
 70
     1
102
RTVSPost2010Prop42
 90
       50
102
RTVSPost2010PropOp42
 70
     1
102
RTVSPost2010Prop43
 90
        3
102
RTVSPost2010PropOp43
 70
     1
102
RTVSPost2010Prop44ColorIndex
 90
        5
102
RTVSPost2010Prop44ColorRGB
 90
      255
102
RTVSPost2010PropOp44
 70
     1
102
RTVSPost2010Prop45
280
     0
102
RTVSPost2010PropOp45
 70
     1
102
RTVSPost2010Prop46
 90
       50
102
RTVSPost2010PropOp46
 70
     1
102
RTVSPost2010Prop47
 90
       50
102
RTVSPost2010PropOp47
 70
     1
102
RTVSPost2010Prop48
 90
       50
102
RTVSPost2010PropOp48
 70
     1
102
RTVSPost2010Prop49
280
     0
102
RTVSPost2010PropOp49
 70
     1
102
RTVSPost2010Prop50
 90
       50
102
RTVSPost2010PropOp50
 70
     1
102
RTVSPost2010Prop51ColorIndex
 90
      256
102
RTVSPost2010Prop51ColorRGB
 90
-16777216
102
RTVSPost2010PropOp51
 70
     0
102
RTVSPost2010Prop52
140
1.0
102
RTVSPost2010PropOp52
 70
     0
102
RTVSPost2010Prop53
 90
        2
102
RTVSPost2010PropOp53
 70
     1
102
RTVSPost2010Prop54
  1
strokes_ogs.tif
102
RTVSPost2010PropOp54
 70
     1
102
RTVSPost2010Prop55
280
     0
102
RTVSPost2010PropOp55
 70
     1
102
RTVSPost2010Prop56
140
1.0
102
RTVSPost2010PropOp56
 70
     1
102
RTVSPost2010Prop57
140
1.0
102
RTVSPost2010PropOp57
 70
     1
102
RTVSPropertyOp0
 70
     1
102
RTVSPropertyOp1
 70
     1
102
RTVSPropertyOp2
 70
     1
102
RTVSPropertyOp3
 70
     1
102
RTVSPropertyOp4
 70
     1
102
RTVSPropertyOp5
 70
     1
102
RTVSPropertyOp6
 70
     1
102
RTVSPropertyOp7
 70
     1
102
RTVSPropertyOp8
 70
     1
102
RTVSPropertyOp9
 70
     1
102
RTVSPropertyOp10
 70
     1
102
RTVSPropertyOp11
 70
     1
102
RTVSPropertyOp12
 70
     1
102
RTVSPropertyOp13
 70
     1
102
RTVSPropertyOp14
 70
     1
102
RTVSPropertyOp15
 70
     1
102
RTVSPropertyOp16
 70
     1
102
RTVSPropertyOp17
 70
     1
102
RTVSPropertyOp18
 70
     1
102
RTVSPropertyOp19
 70
     1
102
RTVSPropertyOp20
 70
     1
102
RTVSPropertyOp21
 70
     1
102
RTVSPropertyOp22
 70
     1
102
RTVSPropertyOp23
 70
     1
102
RTVSPropertyOp24
 70
     1
102
RTVSPropertyOp25
 70
     1
102
RTVSPropertyOp26
 70
     1
102
RTVSPropertyOp27
 70
     1
102
RTVSPropertyOp28
 70
     1
102
RTVSPropertyOp29
 70
     1
102
RTVSPropertyOp30
 70
     1
102
RTVSPropertyOp31
 70
     1
102
RTVSPropertyOp32
 70
     1
102
RTVSPropertyOp33
 70
     1
102
RTVSPropertyOp34
 70
     1
102
RTVSPropertyOp35
 70
     1
102
RTVSPropertyOp36
 70
     1
102
RTVSPropertyOp37
 70
     1
102
RTVSPropertyOp38
 70
     1
102
RTVSPropertyOp39
 70
     1
102
RTVSPropertyOp40
 70
     1
102
RTVSPropertyOp41
 70
     1
102
RTVSPropertyOp42
 70
     1
102
RTVSPropertyOp43
 70
     1
102
RTVSPropertyOp44
 70
     1
102
RTVSPropertyOp45
 70
     1
102
RTVSPropertyOp46
 70
     1
102
RTVSPropertyOp47
 70
     1
102
RTVSPropertyOp48
 70
     1
102
RTVSPropertyOp49
 70
     1
102
RTVSPropertyOp50
 70
     1
102
RTVSPropertyOp51
 70
     0
102
RTVSPropertyOp52
 70
     0
102
RTVSPropertyOp53
 70
     1
102
RTVSPropertyOp54
 70
     1
102
RTVSPropertyOp55
 70
     1
102
RTVSPropertyOp56
 70
     1
102
RTVSPropertyOp57
 70
     1
102
RTVSPropertyOp58
 70
     1
102
RTVSPropertyOp59
 70
     1
102
RTVSPropertyOp60
 70
     1
102
RTVSPropertyOp61
 70
     1
102
RTVSPropertyOp62
 70
     1
  0
XRECORD
  5
1411
102
{ACAD_REACTORS
330
1410
102
}
330
1410
100
AcDbXrecord
280
     1
102
RTVSPost2010Prop28
280
     0
102
RTVSPost2010PropOp28
 70
     1
102
RTVSPost2010Prop29
280
     1
102
RTVSPost2010PropOp29
 70
     1
102
RTVSPost2010Prop30
280
     1
102
RTVSPost2010PropOp30
 70
     1
102
RTVSPost2010Prop31
280
     0
102
RTVSPost2010PropOp31
 70
     1
102
RTVSPost2010Prop32
280
     0
102
RTVSPost2010PropOp32
 70
     1
102
RTVSPost2010Prop33
280
     0
102
RTVSPost2010PropOp33
 70
     1
102
RTVSPost2010Prop34
280
     0
102
RTVSPost2010PropOp34
 70
     1
102
RTVSPost2010Prop35
280
     0
102
RTVSPost2010PropOp35
 70
     1
102
RTVSPost2010Prop36
280
     0
102
RTVSPost2010PropOp36
 70
     1
102
RTVSPost2010Prop37
 90
       50
102
RTVSPost2010PropOp37
 70
     1
102
RTVSPost2010Prop38
140
0.0
102
RTVSPost2010PropOp38
 70
     1
102
RTVSPost2010Prop39
140
1.0
102
RTVSPost2010PropOp39
 70
     1
102
RTVSPost2010Prop40
 90
        0
102
RTVSPost2010PropOp40
 70
     1
102
RTVSPost2010Prop41ColorIndex
 90
       18
102
RTVSPost2010Prop41ColorRGB
 90
        0
102
RTVSPost2010PropOp41
 70
     1
102
RTVSPost2010Prop42
 90
       50
102
RTVSPost2010PropOp42
 70
     1
102
RTVSPost2010Prop43
 90
        3
102
RTVSPost2010PropOp43
 70
     1
102
RTVSPost2010Prop44ColorIndex
 90
        5
102
RTVSPost2010Prop44ColorRGB
 90
      255
102
RTVSPost2010PropOp44
 70
     1
102
RTVSPost2010Prop45
280
     0
102
RTVSPost2010PropOp45
 70
     1
102
RTVSPost2010Prop46
 90
       50
102
RTVSPost2010PropOp46
 70
     1
102
RTVSPost2010Prop47
 90
       50
102
RTVSPost2010PropOp47
 70
     1
102
RTVSPost2010Prop48
 90
       50
102
RTVSPost2010PropOp48
 70
     1
102
RTVSPost2010Prop49
280
     0
102
RTVSPost2010PropOp49
 70
     1
102
RTVSPost2010Prop50
 90
       50
102
RTVSPost2010PropOp50
 70
     1
102
RTVSPost2010Prop51ColorIndex
 90
      256
102
RTVSPost2010Prop51ColorRGB
 90
-16777216
102
RTVSPost2010PropOp51
 70
     0
102
RTVSPost2010Prop52
140
1.0
102
RTVSPost2010PropOp52
 70
     0
102
RTVSPost2010Prop53
 90
        2
102
RTVSPost2010PropOp53
 70
     1
102
RTVSPost2010Prop54
  1
strokes_ogs.tif
102
RTVSPost2010PropOp54
 70
     1
102
RTVSPost2010Prop55
280
     0
102
RTVSPost2010PropOp55
 70
     1
102
RTVSPost2010Prop56
140
1.0
102
RTVSPost2010PropOp56
 70
     1
102
RTVSPost2010Prop57
140
1.0
102
RTVSPost2010PropOp57
 70
     1
102
RTVSPropertyOp0
 70
     1
102
RTVSPropertyOp1
 70
     1
102
RTVSPropertyOp2
 70
     1
102
RTVSPropertyOp3
 70
     1
102
RTVSPropertyOp4
 70
     1
102
RTVSPropertyOp5
 70
     1
102
RTVSPropertyOp6
 70
     1
102
RTVSPropertyOp7
 70
     1
102
RTVSPropertyOp8
 70
     1
102
RTVSPropertyOp9
 70
     1
102
RTVSPropertyOp10
 70
     1
102
RTVSPropertyOp11
 70
     1
102
RTVSPropertyOp12
 70
     1
102
RTVSPropertyOp13
 70
     1
102
RTVSPropertyOp14
 70
     1
102
RTVSPropertyOp15
 70
     1
102
RTVSPropertyOp16
 70
     1
102
RTVSPropertyOp17
 70
     1
102
RTVSPropertyOp18
 70
     1
102
RTVSPropertyOp19
 70
     1
102
RTVSPropertyOp20
 70
     1
102
RTVSPropertyOp21
 70
     1
102
RTVSPropertyOp22
 70
     1
102
RTVSPropertyOp23
 70
     1
102
RTVSPropertyOp24
 70
     1
102
RTVSPropertyOp25
 70
     1
102
RTVSPropertyOp26
 70
     1
102
RTVSPropertyOp27
 70
     1
102
RTVSPropertyOp28
 70
     1
102
RTVSPropertyOp29
 70
     1
102
RTVSPropertyOp30
 70
     1
102
RTVSPropertyOp31
 70
     1
102
RTVSPropertyOp32
 70
     1
102
RTVSPropertyOp33
 70
     1
102
RTVSPropertyOp34
 70
     1
102
RTVSPropertyOp35
 70
     1
102
RTVSPropertyOp36
 70
     1
102
RTVSPropertyOp37
 70
     1
102
RTVSPropertyOp38
 70
     1
102
RTVSPropertyOp39
 70
     1
102
RTVSPropertyOp40
 70
     1
102
RTVSPropertyOp41
 70
     1
102
RTVSPropertyOp42
 70
     1
102
RTVSPropertyOp43
 70
     1
102
RTVSPropertyOp44
 70
     1
102
RTVSPropertyOp45
 70
     1
102
RTVSPropertyOp46
 70
     1
102
RTVSPropertyOp47
 70
     1
102
RTVSPropertyOp48
 70
     1
102
RTVSPropertyOp49
 70
     1
102
RTVSPropertyOp50
 70
     1
102
RTVSPropertyOp51
 70
     0
102
RTVSPropertyOp52
 70
     0
102
RTVSPropertyOp53
 70
     1
102
RTVSPropertyOp54
 70
     1
102
RTVSPropertyOp55
 70
     1
102
RTVSPropertyOp56
 70
     1
102
RTVSPropertyOp57
 70
     1
102
RTVSPropertyOp58
 70
     1
102
RTVSPropertyOp59
 70
     1
102
RTVSPropertyOp60
 70
     1
102
RTVSPropertyOp61
 70
     1
102
RTVSPropertyOp62
 70
     1
  0
XRECORD
  5
1413
102
{ACAD_REACTORS
330
1412
102
}
330
1412
100
AcDbXrecord
280
     1
102
RTVSPost2010Prop28
280
     0
102
RTVSPost2010PropOp28
 70
     1
102
RTVSPost2010Prop29
280
     1
102
RTVSPost2010PropOp29
 70
     1
102
RTVSPost2010Prop30
280
     1
102
RTVSPost2010PropOp30
 70
     1
102
RTVSPost2010Prop31
280
     0
102
RTVSPost2010PropOp31
 70
     1
102
RTVSPost2010Prop32
280
     0
102
RTVSPost2010PropOp32
 70
     1
102
RTVSPost2010Prop33
280
     0
102
RTVSPost2010PropOp33
 70
     1
102
RTVSPost2010Prop34
280
     0
102
RTVSPost2010PropOp34
 70
     1
102
RTVSPost2010Prop35
280
     0
102
RTVSPost2010PropOp35
 70
     1
102
RTVSPost2010Prop36
280
     0
102
RTVSPost2010PropOp36
 70
     1
102
RTVSPost2010Prop37
 90
       50
102
RTVSPost2010PropOp37
 70
     1
102
RTVSPost2010Prop38
140
0.0
102
RTVSPost2010PropOp38
 70
     1
102
RTVSPost2010Prop39
140
1.0
102
RTVSPost2010PropOp39
 70
     1
102
RTVSPost2010Prop40
 90
        0
102
RTVSPost2010PropOp40
 70
     1
102
RTVSPost2010Prop41ColorIndex
 90
       18
102
RTVSPost2010Prop41ColorRGB
 90
        0
102
RTVSPost2010PropOp41
 70
     1
102
RTVSPost2010Prop42
 90
       50
102
RTVSPost2010PropOp42
 70
     1
102
RTVSPost2010Prop43
 90
        3
102
RTVSPost2010PropOp43
 70
     1
102
RTVSPost2010Prop44ColorIndex
 90
        5
102
RTVSPost2010Prop44ColorRGB
 90
      255
102
RTVSPost2010PropOp44
 70
     1
102
RTVSPost2010Prop45
280
     0
102
RTVSPost2010PropOp45
 70
     1
102
RTVSPost2010Prop46
 90
       50
102
RTVSPost2010PropOp46
 70
     1
102
RTVSPost2010Prop47
 90
       50
102
RTVSPost2010PropOp47
 70
     1
102
RTVSPost2010Prop48
 90
       50
102
RTVSPost2010PropOp48
 70
     1
102
RTVSPost2010Prop49
280
     0
102
RTVSPost2010PropOp49
 70
     1
102
RTVSPost2010Prop50
 90
       50
102
RTVSPost2010PropOp50
 70
     1
102
RTVSPost2010Prop51ColorIndex
 90
      256
102
RTVSPost2010Prop51ColorRGB
 90
-16777216
102
RTVSPost2010PropOp51
 70
     0
102
RTVSPost2010Prop52
140
1.0
102
RTVSPost2010PropOp52
 70
     0
102
RTVSPost2010Prop53
 90
        2
102
RTVSPost2010PropOp53
 70
     1
102
RTVSPost2010Prop54
  1
strokes_ogs.tif
102
RTVSPost2010PropOp54
 70
     1
102
RTVSPost2010Prop55
280
     0
102
RTVSPost2010PropOp55
 70
     1
102
RTVSPost2010Prop56
140
1.0
102
RTVSPost2010PropOp56
 70
     1
102
RTVSPost2010Prop57
140
1.0
102
RTVSPost2010PropOp57
 70
     1
102
RTVSPropertyOp0
 70
     1
102
RTVSPropertyOp1
 70
     1
102
RTVSPropertyOp2
 70
     1
102
RTVSPropertyOp3
 70
     1
102
RTVSPropertyOp4
 70
     1
102
RTVSPropertyOp5
 70
     1
102
RTVSPropertyOp6
 70
     1
102
RTVSPropertyOp7
 70
     1
102
RTVSPropertyOp8
 70
     1
102
RTVSPropertyOp9
 70
     1
102
RTVSPropertyOp10
 70
     1
102
RTVSPropertyOp11
 70
     1
102
RTVSPropertyOp12
 70
     1
102
RTVSPropertyOp13
 70
     1
102
RTVSPropertyOp14
 70
     1
102
RTVSPropertyOp15
 70
     1
102
RTVSPropertyOp16
 70
     1
102
RTVSPropertyOp17
 70
     1
102
RTVSPropertyOp18
 70
     1
102
RTVSPropertyOp19
 70
     1
102
RTVSPropertyOp20
 70
     1
102
RTVSPropertyOp21
 70
     1
102
RTVSPropertyOp22
 70
     1
102
RTVSPropertyOp23
 70
     1
102
RTVSPropertyOp24
 70
     1
102
RTVSPropertyOp25
 70
     1
102
RTVSPropertyOp26
 70
     1
102
RTVSPropertyOp27
 70
     1
102
RTVSPropertyOp28
 70
     1
102
RTVSPropertyOp29
 70
     1
102
RTVSPropertyOp30
 70
     1
102
RTVSPropertyOp31
 70
     1
102
RTVSPropertyOp32
 70
     1
102
RTVSPropertyOp33
 70
     1
102
RTVSPropertyOp34
 70
     1
102
RTVSPropertyOp35
 70
     1
102
RTVSPropertyOp36
 70
     1
102
RTVSPropertyOp37
 70
     1
102
RTVSPropertyOp38
 70
     1
102
RTVSPropertyOp39
 70
     1
102
RTVSPropertyOp40
 70
     1
102
RTVSPropertyOp41
 70
     1
102
RTVSPropertyOp42
 70
     1
102
RTVSPropertyOp43
 70
     1
102
RTVSPropertyOp44
 70
     1
102
RTVSPropertyOp45
 70
     1
102
RTVSPropertyOp46
 70
     1
102
RTVSPropertyOp47
 70
     1
102
RTVSPropertyOp48
 70
     1
102
RTVSPropertyOp49
 70
     1
102
RTVSPropertyOp50
 70
     1
102
RTVSPropertyOp51
 70
     0
102
RTVSPropertyOp52
 70
     0
102
RTVSPropertyOp53
 70
     1
102
RTVSPropertyOp54
 70
     1
102
RTVSPropertyOp55
 70
     1
102
RTVSPropertyOp56
 70
     1
102
RTVSPropertyOp57
 70
     1
102
RTVSPropertyOp58
 70
     1
102
RTVSPropertyOp59
 70
     1
102
RTVSPropertyOp60
 70
     1
102
RTVSPropertyOp61
 70
     1
102
RTVSPropertyOp62
 70
     1
  0
XRECORD
  5
1415
102
{ACAD_REACTORS
330
1414
102
}
330
1414
100
AcDbXrecord
280
     1
102
RTVSPost2010Prop28
280
     0
102
RTVSPost2010PropOp28
 70
     1
102
RTVSPost2010Prop29
280
     1
102
RTVSPost2010PropOp29
 70
     1
102
RTVSPost2010Prop30
280
     1
102
RTVSPost2010PropOp30
 70
     1
102
RTVSPost2010Prop31
280
     0
102
RTVSPost2010PropOp31
 70
     1
102
RTVSPost2010Prop32
280
     0
102
RTVSPost2010PropOp32
 70
     1
102
RTVSPost2010Prop33
280
     0
102
RTVSPost2010PropOp33
 70
     1
102
RTVSPost2010Prop34
280
     0
102
RTVSPost2010PropOp34
 70
     1
102
RTVSPost2010Prop35
280
     0
102
RTVSPost2010PropOp35
 70
     1
102
RTVSPost2010Prop36
280
     0
102
RTVSPost2010PropOp36
 70
     1
102
RTVSPost2010Prop37
 90
       50
102
RTVSPost2010PropOp37
 70
     1
102
RTVSPost2010Prop38
140
0.0
102
RTVSPost2010PropOp38
 70
     1
102
RTVSPost2010Prop39
140
1.0
102
RTVSPost2010PropOp39
 70
     1
102
RTVSPost2010Prop40
 90
        0
102
RTVSPost2010PropOp40
 70
     1
102
RTVSPost2010Prop41ColorIndex
 90
       18
102
RTVSPost2010Prop41ColorRGB
 90
        0
102
RTVSPost2010PropOp41
 70
     1
102
RTVSPost2010Prop42
 90
       50
102
RTVSPost2010PropOp42
 70
     1
102
RTVSPost2010Prop43
 90
        3
102
RTVSPost2010PropOp43
 70
     1
102
RTVSPost2010Prop44ColorIndex
 90
        5
102
RTVSPost2010Prop44ColorRGB
 90
      255
102
RTVSPost2010PropOp44
 70
     1
102
RTVSPost2010Prop45
280
     0
102
RTVSPost2010PropOp45
 70
     1
102
RTVSPost2010Prop46
 90
       50
102
RTVSPost2010PropOp46
 70
     1
102
RTVSPost2010Prop47
 90
       50
102
RTVSPost2010PropOp47
 70
     1
102
RTVSPost2010Prop48
 90
       50
102
RTVSPost2010PropOp48
 70
     1
102
RTVSPost2010Prop49
280
     0
102
RTVSPost2010PropOp49
 70
     1
102
RTVSPost2010Prop50
 90
       50
102
RTVSPost2010PropOp50
 70
     1
102
RTVSPost2010Prop51ColorIndex
 90
      256
102
RTVSPost2010Prop51ColorRGB
 90
-16777216
102
RTVSPost2010PropOp51
 70
     0
102
RTVSPost2010Prop52
140
1.0
102
RTVSPost2010PropOp52
 70
     0
102
RTVSPost2010Prop53
 90
        2
102
RTVSPost2010PropOp53
 70
     1
102
RTVSPost2010Prop54
  1
strokes_ogs.tif
102
RTVSPost2010PropOp54
 70
     1
102
RTVSPost2010Prop55
280
     0
102
RTVSPost2010PropOp55
 70
     1
102
RTVSPost2010Prop56
140
1.0
102
RTVSPost2010PropOp56
 70
     1
102
RTVSPost2010Prop57
140
1.0
102
RTVSPost2010PropOp57
 70
     1
102
RTVSPropertyOp0
 70
     1
102
RTVSPropertyOp1
 70
     1
102
RTVSPropertyOp2
 70
     1
102
RTVSPropertyOp3
 70
     1
102
RTVSPropertyOp4
 70
     1
102
RTVSPropertyOp5
 70
     1
102
RTVSPropertyOp6
 70
     1
102
RTVSPropertyOp7
 70
     1
102
RTVSPropertyOp8
 70
     1
102
RTVSPropertyOp9
 70
     1
102
RTVSPropertyOp10
 70
     1
102
RTVSPropertyOp11
 70
     1
102
RTVSPropertyOp12
 70
     1
102
RTVSPropertyOp13
 70
     1
102
RTVSPropertyOp14
 70
     1
102
RTVSPropertyOp15
 70
     1
102
RTVSPropertyOp16
 70
     1
102
RTVSPropertyOp17
 70
     1
102
RTVSPropertyOp18
 70
     1
102
RTVSPropertyOp19
 70
     1
102
RTVSPropertyOp20
 70
     1
102
RTVSPropertyOp21
 70
     1
102
RTVSPropertyOp22
 70
     1
102
RTVSPropertyOp23
 70
     1
102
RTVSPropertyOp24
 70
     1
102
RTVSPropertyOp25
 70
     1
102
RTVSPropertyOp26
 70
     1
102
RTVSPropertyOp27
 70
     1
102
RTVSPropertyOp28
 70
     1
102
RTVSPropertyOp29
 70
     1
102
RTVSPropertyOp30
 70
     1
102
RTVSPropertyOp31
 70
     1
102
RTVSPropertyOp32
 70
     1
102
RTVSPropertyOp33
 70
     1
102
RTVSPropertyOp34
 70
     1
102
RTVSPropertyOp35
 70
     1
102
RTVSPropertyOp36
 70
     1
102
RTVSPropertyOp37
 70
     1
102
RTVSPropertyOp38
 70
     1
102
RTVSPropertyOp39
 70
     1
102
RTVSPropertyOp40
 70
     1
102
RTVSPropertyOp41
 70
     1
102
RTVSPropertyOp42
 70
     1
102
RTVSPropertyOp43
 70
     1
102
RTVSPropertyOp44
 70
     1
102
RTVSPropertyOp45
 70
     1
102
RTVSPropertyOp46
 70
     1
102
RTVSPropertyOp47
 70
     1
102
RTVSPropertyOp48
 70
     1
102
RTVSPropertyOp49
 70
     1
102
RTVSPropertyOp50
 70
     1
102
RTVSPropertyOp51
 70
     0
102
RTVSPropertyOp52
 70
     0
102
RTVSPropertyOp53
 70
     1
102
RTVSPropertyOp54
 70
     1
102
RTVSPropertyOp55
 70
     1
102
RTVSPropertyOp56
 70
     1
102
RTVSPropertyOp57
 70
     1
102
RTVSPropertyOp58
 70
     1
102
RTVSPropertyOp59
 70
     1
102
RTVSPropertyOp60
 70
     1
102
RTVSPropertyOp61
 70
     1
102
RTVSPropertyOp62
 70
     1
  0
XRECORD
  5
141D
102
{ACAD_REACTORS
330
141C
102
}
330
141C
100
AcDbXrecord
280
     1
102
RTVSPost2010Prop28
280
     0
102
RTVSPost2010PropOp28
 70
     1
102
RTVSPost2010Prop29
280
     1
102
RTVSPost2010PropOp29
 70
     1
102
RTVSPost2010Prop30
280
     1
102
RTVSPost2010PropOp30
 70
     1
102
RTVSPost2010Prop31
280
     0
102
RTVSPost2010PropOp31
 70
     1
102
RTVSPost2010Prop32
280
     0
102
RTVSPost2010PropOp32
 70
     1
102
RTVSPost2010Prop33
280
     0
102
RTVSPost2010PropOp33
 70
     1
102
RTVSPost2010Prop34
280
     0
102
RTVSPost2010PropOp34
 70
     1
102
RTVSPost2010Prop35
280
     0
102
RTVSPost2010PropOp35
 70
     1
102
RTVSPost2010Prop36
280
     0
102
RTVSPost2010PropOp36
 70
     1
102
RTVSPost2010Prop37
 90
       50
102
RTVSPost2010PropOp37
 70
     1
102
RTVSPost2010Prop38
140
0.0
102
RTVSPost2010PropOp38
 70
     1
102
RTVSPost2010Prop39
140
1.0
102
RTVSPost2010PropOp39
 70
     1
102
RTVSPost2010Prop40
 90
        0
102
RTVSPost2010PropOp40
 70
     1
102
RTVSPost2010Prop41ColorIndex
 90
       18
102
RTVSPost2010Prop41ColorRGB
 90
        0
102
RTVSPost2010PropOp41
 70
     1
102
RTVSPost2010Prop42
 90
       50
102
RTVSPost2010PropOp42
 70
     1
102
RTVSPost2010Prop43
 90
        3
102
RTVSPost2010PropOp43
 70
     1
102
RTVSPost2010Prop44ColorIndex
 90
        5
102
RTVSPost2010Prop44ColorRGB
 90
      255
102
RTVSPost2010PropOp44
 70
     1
102
RTVSPost2010Prop45
280
     0
102
RTVSPost2010PropOp45
 70
     1
102
RTVSPost2010Prop46
 90
       50
102
RTVSPost2010PropOp46
 70
     1
102
RTVSPost2010Prop47
 90
       50
102
RTVSPost2010PropOp47
 70
     1
102
RTVSPost2010Prop48
 90
       50
102
RTVSPost2010PropOp48
 70
     1
102
RTVSPost2010Prop49
280
     0
102
RTVSPost2010PropOp49
 70
     1
102
RTVSPost2010Prop50
 90
       50
102
RTVSPost2010PropOp50
 70
     1
102
RTVSPost2010Prop51ColorIndex
 90
      256
102
RTVSPost2010Prop51ColorRGB
 90
-16777216
102
RTVSPost2010PropOp51
 70
     0
102
RTVSPost2010Prop52
140
1.0
102
RTVSPost2010PropOp52
 70
     0
102
RTVSPost2010Prop53
 90
        2
102
RTVSPost2010PropOp53
 70
     1
102
RTVSPost2010Prop54
  1
strokes_ogs.tif
102
RTVSPost2010PropOp54
 70
     1
102
RTVSPost2010Prop55
280
     0
102
RTVSPost2010PropOp55
 70
     1
102
RTVSPost2010Prop56
140
1.0
102
RTVSPost2010PropOp56
 70
     1
102
RTVSPost2010Prop57
140
1.0
102
RTVSPost2010PropOp57
 70
     1
102
RTVSPropertyOp0
 70
     1
102
RTVSPropertyOp1
 70
     1
102
RTVSPropertyOp2
 70
     1
102
RTVSPropertyOp3
 70
     1
102
RTVSPropertyOp4
 70
     1
102
RTVSPropertyOp5
 70
     1
102
RTVSPropertyOp6
 70
     1
102
RTVSPropertyOp7
 70
     1
102
RTVSPropertyOp8
 70
     1
102
RTVSPropertyOp9
 70
     1
102
RTVSPropertyOp10
 70
     1
102
RTVSPropertyOp11
 70
     1
102
RTVSPropertyOp12
 70
     1
102
RTVSPropertyOp13
 70
     1
102
RTVSPropertyOp14
 70
     1
102
RTVSPropertyOp15
 70
     1
102
RTVSPropertyOp16
 70
     1
102
RTVSPropertyOp17
 70
     1
102
RTVSPropertyOp18
 70
     1
102
RTVSPropertyOp19
 70
     1
102
RTVSPropertyOp20
 70
     1
102
RTVSPropertyOp21
 70
     1
102
RTVSPropertyOp22
 70
     1
102
RTVSPropertyOp23
 70
     1
102
RTVSPropertyOp24
 70
     1
102
RTVSPropertyOp25
 70
     1
102
RTVSPropertyOp26
 70
     1
102
RTVSPropertyOp27
 70
     1
102
RTVSPropertyOp28
 70
     1
102
RTVSPropertyOp29
 70
     1
102
RTVSPropertyOp30
 70
     1
102
RTVSPropertyOp31
 70
     1
102
RTVSPropertyOp32
 70
     1
102
RTVSPropertyOp33
 70
     1
102
RTVSPropertyOp34
 70
     1
102
RTVSPropertyOp35
 70
     1
102
RTVSPropertyOp36
 70
     1
102
RTVSPropertyOp37
 70
     1
102
RTVSPropertyOp38
 70
     1
102
RTVSPropertyOp39
 70
     1
102
RTVSPropertyOp40
 70
     1
102
RTVSPropertyOp41
 70
     1
102
RTVSPropertyOp42
 70
     1
102
RTVSPropertyOp43
 70
     1
102
RTVSPropertyOp44
 70
     1
102
RTVSPropertyOp45
 70
     1
102
RTVSPropertyOp46
 70
     1
102
RTVSPropertyOp47
 70
     1
102
RTVSPropertyOp48
 70
     1
102
RTVSPropertyOp49
 70
     1
102
RTVSPropertyOp50
 70
     1
102
RTVSPropertyOp51
 70
     0
102
RTVSPropertyOp52
 70
     0
102
RTVSPropertyOp53
 70
     1
102
RTVSPropertyOp54
 70
     1
102
RTVSPropertyOp55
 70
     1
102
RTVSPropertyOp56
 70
     1
102
RTVSPropertyOp57
 70
     1
102
RTVSPropertyOp58
 70
     1
102
RTVSPropertyOp59
 70
     1
102
RTVSPropertyOp60
 70
     1
102
RTVSPropertyOp61
 70
     1
102
RTVSPropertyOp62
 70
     1
  0
XRECORD
  5
1431
102
{ACAD_REACTORS
330
1430
102
}
330
1430
100
AcDbXrecord
280
     1
102
RTVSPost2010Prop28
280
     0
102
RTVSPost2010PropOp28
 70
     1
102
RTVSPost2010Prop29
280
     1
102
RTVSPost2010PropOp29
 70
     1
102
RTVSPost2010Prop30
280
     1
102
RTVSPost2010PropOp30
 70
     1
102
RTVSPost2010Prop31
280
     0
102
RTVSPost2010PropOp31
 70
     1
102
RTVSPost2010Prop32
280
     0
102
RTVSPost2010PropOp32
 70
     1
102
RTVSPost2010Prop33
280
     0
102
RTVSPost2010PropOp33
 70
     1
102
RTVSPost2010Prop34
280
     0
102
RTVSPost2010PropOp34
 70
     1
102
RTVSPost2010Prop35
280
     0
102
RTVSPost2010PropOp35
 70
     1
102
RTVSPost2010Prop36
280
     0
102
RTVSPost2010PropOp36
 70
     1
102
RTVSPost2010Prop37
 90
       50
102
RTVSPost2010PropOp37
 70
     1
102
RTVSPost2010Prop38
140
0.0
102
RTVSPost2010PropOp38
 70
     1
102
RTVSPost2010Prop39
140
1.0
102
RTVSPost2010PropOp39
 70
     1
102
RTVSPost2010Prop40
 90
        0
102
RTVSPost2010PropOp40
 70
     1
102
RTVSPost2010Prop41ColorIndex
 90
       18
102
RTVSPost2010Prop41ColorRGB
 90
        0
102
RTVSPost2010PropOp41
 70
     1
102
RTVSPost2010Prop42
 90
       50
102
RTVSPost2010PropOp42
 70
     1
102
RTVSPost2010Prop43
 90
        3
102
RTVSPost2010PropOp43
 70
     1
102
RTVSPost2010Prop44ColorIndex
 90
        5
102
RTVSPost2010Prop44ColorRGB
 90
      255
102
RTVSPost2010PropOp44
 70
     1
102
RTVSPost2010Prop45
280
     0
102
RTVSPost2010PropOp45
 70
     1
102
RTVSPost2010Prop46
 90
       50
102
RTVSPost2010PropOp46
 70
     1
102
RTVSPost2010Prop47
 90
       50
102
RTVSPost2010PropOp47
 70
     1
102
RTVSPost2010Prop48
 90
       50
102
RTVSPost2010PropOp48
 70
     1
102
RTVSPost2010Prop49
280
     0
102
RTVSPost2010PropOp49
 70
     1
102
RTVSPost2010Prop50
 90
       50
102
RTVSPost2010PropOp50
 70
     1
102
RTVSPost2010Prop51ColorIndex
 90
      256
102
RTVSPost2010Prop51ColorRGB
 90
-16777216
102
RTVSPost2010PropOp51
 70
     0
102
RTVSPost2010Prop52
140
1.0
102
RTVSPost2010PropOp52
 70
     0
102
RTVSPost2010Prop53
 90
        2
102
RTVSPost2010PropOp53
 70
     1
102
RTVSPost2010Prop54
  1
strokes_ogs.tif
102
RTVSPost2010PropOp54
 70
     1
102
RTVSPost2010Prop55
280
     0
102
RTVSPost2010PropOp55
 70
     1
102
RTVSPost2010Prop56
140
1.0
102
RTVSPost2010PropOp56
 70
     1
102
RTVSPost2010Prop57
140
1.0
102
RTVSPost2010PropOp57
 70
     1
102
RTVSPropertyOp0
 70
     0
102
RTVSPropertyOp1
 70
     0
102
RTVSPropertyOp2
 70
     0
102
RTVSPropertyOp3
 70
     0
102
RTVSPropertyOp4
 70
     0
102
RTVSPropertyOp5
 70
     0
102
RTVSPropertyOp6
 70
     0
102
RTVSPropertyOp7
 70
     0
102
RTVSPropertyOp8
 70
     0
102
RTVSPropertyOp9
 70
     0
102
RTVSPropertyOp10
 70
     0
102
RTVSPropertyOp11
 70
     0
102
RTVSPropertyOp12
 70
     0
102
RTVSPropertyOp13
 70
     0
102
RTVSPropertyOp14
 70
     2
102
RTVSPropertyOp15
 70
     0
102
RTVSPropertyOp16
 70
     0
102
RTVSPropertyOp17
 70
     0
102
RTVSPropertyOp18
 70
     0
102
RTVSPropertyOp19
 70
     0
102
RTVSPropertyOp20
 70
     0
102
RTVSPropertyOp21
 70
     0
102
RTVSPropertyOp22
 70
     0
102
RTVSPropertyOp23
 70
     0
102
RTVSPropertyOp24
 70
     0
102
RTVSPropertyOp25
 70
     0
102
RTVSPropertyOp26
 70
     0
102
RTVSPropertyOp27
 70
     0
102
RTVSPropertyOp28
 70
     1
102
RTVSPropertyOp29
 70
     1
102
RTVSPropertyOp30
 70
     1
102
RTVSPropertyOp31
 70
     1
102
RTVSPropertyOp32
 70
     1
102
RTVSPropertyOp33
 70
     1
102
RTVSPropertyOp34
 70
     1
102
RTVSPropertyOp35
 70
     1
102
RTVSPropertyOp36
 70
     1
102
RTVSPropertyOp37
 70
     1
102
RTVSPropertyOp38
 70
     1
102
RTVSPropertyOp39
 70
     1
102
RTVSPropertyOp40
 70
     1
102
RTVSPropertyOp41
 70
     1
102
RTVSPropertyOp42
 70
     1
102
RTVSPropertyOp43
 70
     1
102
RTVSPropertyOp44
 70
     1
102
RTVSPropertyOp45
 70
     1
102
RTVSPropertyOp46
 70
     1
102
RTVSPropertyOp47
 70
     1
102
RTVSPropertyOp48
 70
     1
102
RTVSPropertyOp49
 70
     1
102
RTVSPropertyOp50
 70
     1
102
RTVSPropertyOp51
 70
     0
102
RTVSPropertyOp52
 70
     0
102
RTVSPropertyOp53
 70
     1
102
RTVSPropertyOp54
 70
     1
102
RTVSPropertyOp55
 70
     1
102
RTVSPropertyOp56
 70
     1
102
RTVSPropertyOp57
 70
     1
102
RTVSPropertyOp58
 70
     1
102
RTVSPropertyOp59
 70
     1
102
RTVSPropertyOp60
 70
     1
102
RTVSPropertyOp61
 70
     1
102
RTVSPropertyOp62
 70
     1
  0
XRECORD
  5
1429
102
{ACAD_REACTORS
330
1428
102
}
330
1428
100
AcDbXrecord
280
     1
102
RTVSPost2010Prop28
280
     0
102
RTVSPost2010PropOp28
 70
     1
102
RTVSPost2010Prop29
280
     1
102
RTVSPost2010PropOp29
 70
     1
102
RTVSPost2010Prop30
280
     1
102
RTVSPost2010PropOp30
 70
     1
102
RTVSPost2010Prop31
280
     0
102
RTVSPost2010PropOp31
 70
     1
102
RTVSPost2010Prop32
280
     0
102
RTVSPost2010PropOp32
 70
     1
102
RTVSPost2010Prop33
280
     0
102
RTVSPost2010PropOp33
 70
     1
102
RTVSPost2010Prop34
280
     0
102
RTVSPost2010PropOp34
 70
     1
102
RTVSPost2010Prop35
280
     0
102
RTVSPost2010PropOp35
 70
     1
102
RTVSPost2010Prop36
280
     0
102
RTVSPost2010PropOp36
 70
     1
102
RTVSPost2010Prop37
 90
       50
102
RTVSPost2010PropOp37
 70
     1
102
RTVSPost2010Prop38
140
0.0
102
RTVSPost2010PropOp38
 70
     1
102
RTVSPost2010Prop39
140
1.0
102
RTVSPost2010PropOp39
 70
     1
102
RTVSPost2010Prop40
 90
        0
102
RTVSPost2010PropOp40
 70
     1
102
RTVSPost2010Prop41ColorIndex
 90
       18
102
RTVSPost2010Prop41ColorRGB
 90
        0
102
RTVSPost2010PropOp41
 70
     1
102
RTVSPost2010Prop42
 90
       50
102
RTVSPost2010PropOp42
 70
     1
102
RTVSPost2010Prop43
 90
        3
102
RTVSPost2010PropOp43
 70
     1
102
RTVSPost2010Prop44ColorIndex
 90
        5
102
RTVSPost2010Prop44ColorRGB
 90
      255
102
RTVSPost2010PropOp44
 70
     1
102
RTVSPost2010Prop45
280
     0
102
RTVSPost2010PropOp45
 70
     1
102
RTVSPost2010Prop46
 90
       50
102
RTVSPost2010PropOp46
 70
     1
102
RTVSPost2010Prop47
 90
       50
102
RTVSPost2010PropOp47
 70
     1
102
RTVSPost2010Prop48
 90
       50
102
RTVSPost2010PropOp48
 70
     1
102
RTVSPost2010Prop49
280
     0
102
RTVSPost2010PropOp49
 70
     1
102
RTVSPost2010Prop50
 90
       50
102
RTVSPost2010PropOp50
 70
     1
102
RTVSPost2010Prop51ColorIndex
 90
      256
102
RTVSPost2010Prop51ColorRGB
 90
-16777216
102
RTVSPost2010PropOp51
 70
     0
102
RTVSPost2010Prop52
140
1.0
102
RTVSPost2010PropOp52
 70
     0
102
RTVSPost2010Prop53
 90
        2
102
RTVSPost2010PropOp53
 70
     1
102
RTVSPost2010Prop54
  1
strokes_ogs.tif
102
RTVSPost2010PropOp54
 70
     1
102
RTVSPost2010Prop55
280
     0
102
RTVSPost2010PropOp55
 70
     1
102
RTVSPost2010Prop56
140
1.0
102
RTVSPost2010PropOp56
 70
     1
102
RTVSPost2010Prop57
140
1.0
102
RTVSPost2010PropOp57
 70
     1
102
RTVSPropertyOp0
 70
     1
102
RTVSPropertyOp1
 70
     1
102
RTVSPropertyOp2
 70
     1
102
RTVSPropertyOp3
 70
     1
102
RTVSPropertyOp4
 70
     1
102
RTVSPropertyOp5
 70
     1
102
RTVSPropertyOp6
 70
     1
102
RTVSPropertyOp7
 70
     1
102
RTVSPropertyOp8
 70
     1
102
RTVSPropertyOp9
 70
     1
102
RTVSPropertyOp10
 70
     1
102
RTVSPropertyOp11
 70
     1
102
RTVSPropertyOp12
 70
     1
102
RTVSPropertyOp13
 70
     1
102
RTVSPropertyOp14
 70
     1
102
RTVSPropertyOp15
 70
     1
102
RTVSPropertyOp16
 70
     1
102
RTVSPropertyOp17
 70
     1
102
RTVSPropertyOp18
 70
     1
102
RTVSPropertyOp19
 70
     1
102
RTVSPropertyOp20
 70
     1
102
RTVSPropertyOp21
 70
     1
102
RTVSPropertyOp22
 70
     1
102
RTVSPropertyOp23
 70
     1
102
RTVSPropertyOp24
 70
     1
102
RTVSPropertyOp25
 70
     1
102
RTVSPropertyOp26
 70
     1
102
RTVSPropertyOp27
 70
     1
102
RTVSPropertyOp28
 70
     1
102
RTVSPropertyOp29
 70
     1
102
RTVSPropertyOp30
 70
     1
102
RTVSPropertyOp31
 70
     1
102
RTVSPropertyOp32
 70
     1
102
RTVSPropertyOp33
 70
     1
102
RTVSPropertyOp34
 70
     1
102
RTVSPropertyOp35
 70
     1
102
RTVSPropertyOp36
 70
     1
102
RTVSPropertyOp37
 70
     1
102
RTVSPropertyOp38
 70
     1
102
RTVSPropertyOp39
 70
     1
102
RTVSPropertyOp40
 70
     1
102
RTVSPropertyOp41
 70
     1
102
RTVSPropertyOp42
 70
     1
102
RTVSPropertyOp43
 70
     1
102
RTVSPropertyOp44
 70
     1
102
RTVSPropertyOp45
 70
     1
102
RTVSPropertyOp46
 70
     1
102
RTVSPropertyOp47
 70
     1
102
RTVSPropertyOp48
 70
     1
102
RTVSPropertyOp49
 70
     1
102
RTVSPropertyOp50
 70
     1
102
RTVSPropertyOp51
 70
     0
102
RTVSPropertyOp52
 70
     0
102
RTVSPropertyOp53
 70
     1
102
RTVSPropertyOp54
 70
     1
102
RTVSPropertyOp55
 70
     1
102
RTVSPropertyOp56
 70
     1
102
RTVSPropertyOp57
 70
     1
102
RTVSPropertyOp58
 70
     1
102
RTVSPropertyOp59
 70
     1
102
RTVSPropertyOp60
 70
     1
102
RTVSPropertyOp61
 70
     1
102
RTVSPropertyOp62
 70
     1
  0
XRECORD
  5
1433
102
{ACAD_REACTORS
330
1432
102
}
330
1432
100
AcDbXrecord
280
     1
102
RTVSPost2010Prop28
280
     0
102
RTVSPost2010PropOp28
 70
     1
102
RTVSPost2010Prop29
280
     1
102
RTVSPost2010PropOp29
 70
     1
102
RTVSPost2010Prop30
280
     1
102
RTVSPost2010PropOp30
 70
     1
102
RTVSPost2010Prop31
280
     0
102
RTVSPost2010PropOp31
 70
     1
102
RTVSPost2010Prop32
280
     0
102
RTVSPost2010PropOp32
 70
     1
102
RTVSPost2010Prop33
280
     0
102
RTVSPost2010PropOp33
 70
     1
102
RTVSPost2010Prop34
280
     0
102
RTVSPost2010PropOp34
 70
     1
102
RTVSPost2010Prop35
280
     0
102
RTVSPost2010PropOp35
 70
     1
102
RTVSPost2010Prop36
280
     0
102
RTVSPost2010PropOp36
 70
     1
102
RTVSPost2010Prop37
 90
       50
102
RTVSPost2010PropOp37
 70
     1
102
RTVSPost2010Prop38
140
0.0
102
RTVSPost2010PropOp38
 70
     1
102
RTVSPost2010Prop39
140
1.0
102
RTVSPost2010PropOp39
 70
     1
102
RTVSPost2010Prop40
 90
        0
102
RTVSPost2010PropOp40
 70
     1
102
RTVSPost2010Prop41ColorIndex
 90
       18
102
RTVSPost2010Prop41ColorRGB
 90
        0
102
RTVSPost2010PropOp41
 70
     1
102
RTVSPost2010Prop42
 90
       50
102
RTVSPost2010PropOp42
 70
     1
102
RTVSPost2010Prop43
 90
        3
102
RTVSPost2010PropOp43
 70
     1
102
RTVSPost2010Prop44ColorIndex
 90
        5
102
RTVSPost2010Prop44ColorRGB
 90
      255
102
RTVSPost2010PropOp44
 70
     1
102
RTVSPost2010Prop45
280
     0
102
RTVSPost2010PropOp45
 70
     1
102
RTVSPost2010Prop46
 90
       50
102
RTVSPost2010PropOp46
 70
     1
102
RTVSPost2010Prop47
 90
       50
102
RTVSPost2010PropOp47
 70
     1
102
RTVSPost2010Prop48
 90
       50
102
RTVSPost2010PropOp48
 70
     1
102
RTVSPost2010Prop49
280
     0
102
RTVSPost2010PropOp49
 70
     1
102
RTVSPost2010Prop50
 90
       50
102
RTVSPost2010PropOp50
 70
     1
102
RTVSPost2010Prop51ColorIndex
 90
      256
102
RTVSPost2010Prop51ColorRGB
 90
-16777216
102
RTVSPost2010PropOp51
 70
     0
102
RTVSPost2010Prop52
140
1.0
102
RTVSPost2010PropOp52
 70
     0
102
RTVSPost2010Prop53
 90
        2
102
RTVSPost2010PropOp53
 70
     1
102
RTVSPost2010Prop54
  1
strokes_ogs.tif
102
RTVSPost2010PropOp54
 70
     1
102
RTVSPost2010Prop55
280
     0
102
RTVSPost2010PropOp55
 70
     1
102
RTVSPost2010Prop56
140
1.0
102
RTVSPost2010PropOp56
 70
     1
102
RTVSPost2010Prop57
140
1.0
102
RTVSPost2010PropOp57
 70
     1
102
RTVSPropertyOp0
 70
     0
102
RTVSPropertyOp1
 70
     0
102
RTVSPropertyOp2
 70
     0
102
RTVSPropertyOp3
 70
     0
102
RTVSPropertyOp4
 70
     0
102
RTVSPropertyOp5
 70
     0
102
RTVSPropertyOp6
 70
     0
102
RTVSPropertyOp7
 70
     0
102
RTVSPropertyOp8
 70
     0
102
RTVSPropertyOp9
 70
     0
102
RTVSPropertyOp10
 70
     0
102
RTVSPropertyOp11
 70
     0
102
RTVSPropertyOp12
 70
     0
102
RTVSPropertyOp13
 70
     0
102
RTVSPropertyOp14
 70
     2
102
RTVSPropertyOp15
 70
     0
102
RTVSPropertyOp16
 70
     0
102
RTVSPropertyOp17
 70
     0
102
RTVSPropertyOp18
 70
     0
102
RTVSPropertyOp19
 70
     0
102
RTVSPropertyOp20
 70
     0
102
RTVSPropertyOp21
 70
     0
102
RTVSPropertyOp22
 70
     0
102
RTVSPropertyOp23
 70
     0
102
RTVSPropertyOp24
 70
     0
102
RTVSPropertyOp25
 70
     0
102
RTVSPropertyOp26
 70
     0
102
RTVSPropertyOp27
 70
     0
102
RTVSPropertyOp28
 70
     1
102
RTVSPropertyOp29
 70
     1
102
RTVSPropertyOp30
 70
     1
102
RTVSPropertyOp31
 70
     1
102
RTVSPropertyOp32
 70
     1
102
RTVSPropertyOp33
 70
     1
102
RTVSPropertyOp34
 70
     1
102
RTVSPropertyOp35
 70
     1
102
RTVSPropertyOp36
 70
     1
102
RTVSPropertyOp37
 70
     1
102
RTVSPropertyOp38
 70
     1
102
RTVSPropertyOp39
 70
     1
102
RTVSPropertyOp40
 70
     1
102
RTVSPropertyOp41
 70
     1
102
RTVSPropertyOp42
 70
     1
102
RTVSPropertyOp43
 70
     1
102
RTVSPropertyOp44
 70
     1
102
RTVSPropertyOp45
 70
     1
102
RTVSPropertyOp46
 70
     1
102
RTVSPropertyOp47
 70
     1
102
RTVSPropertyOp48
 70
     1
102
RTVSPropertyOp49
 70
     1
102
RTVSPropertyOp50
 70
     1
102
RTVSPropertyOp51
 70
     0
102
RTVSPropertyOp52
 70
     0
102
RTVSPropertyOp53
 70
     1
102
RTVSPropertyOp54
 70
     1
102
RTVSPropertyOp55
 70
     1
102
RTVSPropertyOp56
 70
     1
102
RTVSPropertyOp57
 70
     1
102
RTVSPropertyOp58
 70
     1
102
RTVSPropertyOp59
 70
     1
102
RTVSPropertyOp60
 70
     1
102
RTVSPropertyOp61
 70
     1
102
RTVSPropertyOp62
 70
     1
  0
XRECORD
  5
1421
102
{ACAD_REACTORS
330
1420
102
}
330
1420
100
AcDbXrecord
280
     1
102
RTVSPost2010Prop28
280
     0
102
RTVSPost2010PropOp28
 70
     1
102
RTVSPost2010Prop29
280
     1
102
RTVSPost2010PropOp29
 70
     1
102
RTVSPost2010Prop30
280
     1
102
RTVSPost2010PropOp30
 70
     1
102
RTVSPost2010Prop31
280
     0
102
RTVSPost2010PropOp31
 70
     1
102
RTVSPost2010Prop32
280
     0
102
RTVSPost2010PropOp32
 70
     1
102
RTVSPost2010Prop33
280
     0
102
RTVSPost2010PropOp33
 70
     1
102
RTVSPost2010Prop34
280
     0
102
RTVSPost2010PropOp34
 70
     1
102
RTVSPost2010Prop35
280
     0
102
RTVSPost2010PropOp35
 70
     1
102
RTVSPost2010Prop36
280
     0
102
RTVSPost2010PropOp36
 70
     1
102
RTVSPost2010Prop37
 90
       50
102
RTVSPost2010PropOp37
 70
     1
102
RTVSPost2010Prop38
140
0.0
102
RTVSPost2010PropOp38
 70
     1
102
RTVSPost2010Prop39
140
1.0
102
RTVSPost2010PropOp39
 70
     1
102
RTVSPost2010Prop40
 90
        0
102
RTVSPost2010PropOp40
 70
     1
102
RTVSPost2010Prop41ColorIndex
 90
       18
102
RTVSPost2010Prop41ColorRGB
 90
        0
102
RTVSPost2010PropOp41
 70
     1
102
RTVSPost2010Prop42
 90
       50
102
RTVSPost2010PropOp42
 70
     1
102
RTVSPost2010Prop43
 90
        3
102
RTVSPost2010PropOp43
 70
     1
102
RTVSPost2010Prop44ColorIndex
 90
        5
102
RTVSPost2010Prop44ColorRGB
 90
      255
102
RTVSPost2010PropOp44
 70
     1
102
RTVSPost2010Prop45
280
     0
102
RTVSPost2010PropOp45
 70
     1
102
RTVSPost2010Prop46
 90
       50
102
RTVSPost2010PropOp46
 70
     1
102
RTVSPost2010Prop47
 90
       50
102
RTVSPost2010PropOp47
 70
     1
102
RTVSPost2010Prop48
 90
       50
102
RTVSPost2010PropOp48
 70
     1
102
RTVSPost2010Prop49
280
     0
102
RTVSPost2010PropOp49
 70
     1
102
RTVSPost2010Prop50
 90
       50
102
RTVSPost2010PropOp50
 70
     1
102
RTVSPost2010Prop51ColorIndex
 90
      256
102
RTVSPost2010Prop51ColorRGB
 90
-16777216
102
RTVSPost2010PropOp51
 70
     0
102
RTVSPost2010Prop52
140
1.0
102
RTVSPost2010PropOp52
 70
     0
102
RTVSPost2010Prop53
 90
        2
102
RTVSPost2010PropOp53
 70
     1
102
RTVSPost2010Prop54
  1
strokes_ogs.tif
102
RTVSPost2010PropOp54
 70
     1
102
RTVSPost2010Prop55
280
     0
102
RTVSPost2010PropOp55
 70
     1
102
RTVSPost2010Prop56
140
1.0
102
RTVSPost2010PropOp56
 70
     1
102
RTVSPost2010Prop57
140
1.0
102
RTVSPost2010PropOp57
 70
     1
102
RTVSPropertyOp0
 70
     1
102
RTVSPropertyOp1
 70
     1
102
RTVSPropertyOp2
 70
     1
102
RTVSPropertyOp3
 70
     1
102
RTVSPropertyOp4
 70
     1
102
RTVSPropertyOp5
 70
     1
102
RTVSPropertyOp6
 70
     1
102
RTVSPropertyOp7
 70
     1
102
RTVSPropertyOp8
 70
     1
102
RTVSPropertyOp9
 70
     1
102
RTVSPropertyOp10
 70
     1
102
RTVSPropertyOp11
 70
     1
102
RTVSPropertyOp12
 70
     1
102
RTVSPropertyOp13
 70
     1
102
RTVSPropertyOp14
 70
     1
102
RTVSPropertyOp15
 70
     1
102
RTVSPropertyOp16
 70
     1
102
RTVSPropertyOp17
 70
     1
102
RTVSPropertyOp18
 70
     1
102
RTVSPropertyOp19
 70
     1
102
RTVSPropertyOp20
 70
     1
102
RTVSPropertyOp21
 70
     1
102
RTVSPropertyOp22
 70
     1
102
RTVSPropertyOp23
 70
     1
102
RTVSPropertyOp24
 70
     1
102
RTVSPropertyOp25
 70
     1
102
RTVSPropertyOp26
 70
     1
102
RTVSPropertyOp27
 70
     1
102
RTVSPropertyOp28
 70
     1
102
RTVSPropertyOp29
 70
     1
102
RTVSPropertyOp30
 70
     1
102
RTVSPropertyOp31
 70
     1
102
RTVSPropertyOp32
 70
     1
102
RTVSPropertyOp33
 70
     1
102
RTVSPropertyOp34
 70
     1
102
RTVSPropertyOp35
 70
     1
102
RTVSPropertyOp36
 70
     1
102
RTVSPropertyOp37
 70
     1
102
RTVSPropertyOp38
 70
     1
102
RTVSPropertyOp39
 70
     1
102
RTVSPropertyOp40
 70
     1
102
RTVSPropertyOp41
 70
     1
102
RTVSPropertyOp42
 70
     1
102
RTVSPropertyOp43
 70
     1
102
RTVSPropertyOp44
 70
     1
102
RTVSPropertyOp45
 70
     1
102
RTVSPropertyOp46
 70
     1
102
RTVSPropertyOp47
 70
     1
102
RTVSPropertyOp48
 70
     1
102
RTVSPropertyOp49
 70
     1
102
RTVSPropertyOp50
 70
     1
102
RTVSPropertyOp51
 70
     0
102
RTVSPropertyOp52
 70
     0
102
RTVSPropertyOp53
 70
     1
102
RTVSPropertyOp54
 70
     1
102
RTVSPropertyOp55
 70
     1
102
RTVSPropertyOp56
 70
     1
102
RTVSPropertyOp57
 70
     1
102
RTVSPropertyOp58
 70
     1
102
RTVSPropertyOp59
 70
     1
102
RTVSPropertyOp60
 70
     1
102
RTVSPropertyOp61
 70
     1
102
RTVSPropertyOp62
 70
     1
  0
XRECORD
  5
143F
102
{ACAD_REACTORS
330
143E
102
}
330
143E
100
AcDbXrecord
280
     1
102
RTVSPost2010Prop28
280
     0
102
RTVSPost2010PropOp28
 70
     1
102
RTVSPost2010Prop29
280
     1
102
RTVSPost2010PropOp29
 70
     1
102
RTVSPost2010Prop30
280
     1
102
RTVSPost2010PropOp30
 70
     1
102
RTVSPost2010Prop31
280
     0
102
RTVSPost2010PropOp31
 70
     1
102
RTVSPost2010Prop32
280
     0
102
RTVSPost2010PropOp32
 70
     1
102
RTVSPost2010Prop33
280
     0
102
RTVSPost2010PropOp33
 70
     1
102
RTVSPost2010Prop34
280
     0
102
RTVSPost2010PropOp34
 70
     1
102
RTVSPost2010Prop35
280
     0
102
RTVSPost2010PropOp35
 70
     1
102
RTVSPost2010Prop36
280
     0
102
RTVSPost2010PropOp36
 70
     1
102
RTVSPost2010Prop37
 90
       50
102
RTVSPost2010PropOp37
 70
     1
102
RTVSPost2010Prop38
140
0.0
102
RTVSPost2010PropOp38
 70
     1
102
RTVSPost2010Prop39
140
1.0
102
RTVSPost2010PropOp39
 70
     1
102
RTVSPost2010Prop40
 90
        0
102
RTVSPost2010PropOp40
 70
     1
102
RTVSPost2010Prop41ColorIndex
 90
       18
102
RTVSPost2010Prop41ColorRGB
 90
        0
102
RTVSPost2010PropOp41
 70
     1
102
RTVSPost2010Prop42
 90
       50
102
RTVSPost2010PropOp42
 70
     1
102
RTVSPost2010Prop43
 90
        3
102
RTVSPost2010PropOp43
 70
     1
102
RTVSPost2010Prop44ColorIndex
 90
        5
102
RTVSPost2010Prop44ColorRGB
 90
      255
102
RTVSPost2010PropOp44
 70
     1
102
RTVSPost2010Prop45
280
     0
102
RTVSPost2010PropOp45
 70
     1
102
RTVSPost2010Prop46
 90
       50
102
RTVSPost2010PropOp46
 70
     1
102
RTVSPost2010Prop47
 90
       50
102
RTVSPost2010PropOp47
 70
     1
102
RTVSPost2010Prop48
 90
       50
102
RTVSPost2010PropOp48
 70
     1
102
RTVSPost2010Prop49
280
     0
102
RTVSPost2010PropOp49
 70
     1
102
RTVSPost2010Prop50
 90
       50
102
RTVSPost2010PropOp50
 70
     1
102
RTVSPost2010Prop51ColorIndex
 90
      256
102
RTVSPost2010Prop51ColorRGB
 90
-16777216
102
RTVSPost2010PropOp51
 70
     0
102
RTVSPost2010Prop52
140
1.0
102
RTVSPost2010PropOp52
 70
     0
102
RTVSPost2010Prop53
 90
        2
102
RTVSPost2010PropOp53
 70
     1
102
RTVSPost2010Prop54
  1
strokes_ogs.tif
102
RTVSPost2010PropOp54
 70
     1
102
RTVSPost2010Prop55
280
     0
102
RTVSPost2010PropOp55
 70
     1
102
RTVSPost2010Prop56
140
1.0
102
RTVSPost2010PropOp56
 70
     1
102
RTVSPost2010Prop57
140
1.0
102
RTVSPost2010PropOp57
 70
     1
102
RTVSPropertyOp0
 70
     1
102
RTVSPropertyOp1
 70
     1
102
RTVSPropertyOp2
 70
     1
102
RTVSPropertyOp3
 70
     1
102
RTVSPropertyOp4
 70
     1
102
RTVSPropertyOp5
 70
     1
102
RTVSPropertyOp6
 70
     1
102
RTVSPropertyOp7
 70
     1
102
RTVSPropertyOp8
 70
     1
102
RTVSPropertyOp9
 70
     1
102
RTVSPropertyOp10
 70
     1
102
RTVSPropertyOp11
 70
     1
102
RTVSPropertyOp12
 70
     1
102
RTVSPropertyOp13
 70
     1
102
RTVSPropertyOp14
 70
     1
102
RTVSPropertyOp15
 70
     1
102
RTVSPropertyOp16
 70
     1
102
RTVSPropertyOp17
 70
     1
102
RTVSPropertyOp18
 70
     1
102
RTVSPropertyOp19
 70
     1
102
RTVSPropertyOp20
 70
     1
102
RTVSPropertyOp21
 70
     1
102
RTVSPropertyOp22
 70
     1
102
RTVSPropertyOp23
 70
     1
102
RTVSPropertyOp24
 70
     1
102
RTVSPropertyOp25
 70
     1
102
RTVSPropertyOp26
 70
     1
102
RTVSPropertyOp27
 70
     1
102
RTVSPropertyOp28
 70
     1
102
RTVSPropertyOp29
 70
     1
102
RTVSPropertyOp30
 70
     1
102
RTVSPropertyOp31
 70
     1
102
RTVSPropertyOp32
 70
     1
102
RTVSPropertyOp33
 70
     1
102
RTVSPropertyOp34
 70
     1
102
RTVSPropertyOp35
 70
     1
102
RTVSPropertyOp36
 70
     1
102
RTVSPropertyOp37
 70
     1
102
RTVSPropertyOp38
 70
     1
102
RTVSPropertyOp39
 70
     1
102
RTVSPropertyOp40
 70
     1
102
RTVSPropertyOp41
 70
     1
102
RTVSPropertyOp42
 70
     1
102
RTVSPropertyOp43
 70
     1
102
RTVSPropertyOp44
 70
     1
102
RTVSPropertyOp45
 70
     1
102
RTVSPropertyOp46
 70
     1
102
RTVSPropertyOp47
 70
     1
102
RTVSPropertyOp48
 70
     1
102
RTVSPropertyOp49
 70
     1
102
RTVSPropertyOp50
 70
     1
102
RTVSPropertyOp51
 70
     0
102
RTVSPropertyOp52
 70
     0
102
RTVSPropertyOp53
 70
     1
102
RTVSPropertyOp54
 70
     1
102
RTVSPropertyOp55
 70
     1
102
RTVSPropertyOp56
 70
     1
102
RTVSPropertyOp57
 70
     1
102
RTVSPropertyOp58
 70
     1
102
RTVSPropertyOp59
 70
     1
102
RTVSPropertyOp60
 70
     1
102
RTVSPropertyOp61
 70
     1
102
RTVSPropertyOp62
 70
     1
  0
XRECORD
  5
143D
102
{ACAD_REACTORS
330
143C
102
}
330
143C
100
AcDbXrecord
280
     1
102
RTVSPost2010Prop28
280
     0
102
RTVSPost2010PropOp28
 70
     1
102
RTVSPost2010Prop29
280
     1
102
RTVSPost2010PropOp29
 70
     1
102
RTVSPost2010Prop30
280
     1
102
RTVSPost2010PropOp30
 70
     1
102
RTVSPost2010Prop31
280
     0
102
RTVSPost2010PropOp31
 70
     1
102
RTVSPost2010Prop32
280
     0
102
RTVSPost2010PropOp32
 70
     1
102
RTVSPost2010Prop33
280
     0
102
RTVSPost2010PropOp33
 70
     1
102
RTVSPost2010Prop34
280
     0
102
RTVSPost2010PropOp34
 70
     1
102
RTVSPost2010Prop35
280
     0
102
RTVSPost2010PropOp35
 70
     1
102
RTVSPost2010Prop36
280
     0
102
RTVSPost2010PropOp36
 70
     1
102
RTVSPost2010Prop37
 90
       50
102
RTVSPost2010PropOp37
 70
     1
102
RTVSPost2010Prop38
140
0.0
102
RTVSPost2010PropOp38
 70
     1
102
RTVSPost2010Prop39
140
1.0
102
RTVSPost2010PropOp39
 70
     1
102
RTVSPost2010Prop40
 90
        0
102
RTVSPost2010PropOp40
 70
     1
102
RTVSPost2010Prop41ColorIndex
 90
       18
102
RTVSPost2010Prop41ColorRGB
 90
        0
102
RTVSPost2010PropOp41
 70
     1
102
RTVSPost2010Prop42
 90
       50
102
RTVSPost2010PropOp42
 70
     1
102
RTVSPost2010Prop43
 90
        3
102
RTVSPost2010PropOp43
 70
     1
102
RTVSPost2010Prop44ColorIndex
 90
        5
102
RTVSPost2010Prop44ColorRGB
 90
      255
102
RTVSPost2010PropOp44
 70
     1
102
RTVSPost2010Prop45
280
     0
102
RTVSPost2010PropOp45
 70
     1
102
RTVSPost2010Prop46
 90
       50
102
RTVSPost2010PropOp46
 70
     1
102
RTVSPost2010Prop47
 90
       50
102
RTVSPost2010PropOp47
 70
     1
102
RTVSPost2010Prop48
 90
       50
102
RTVSPost2010PropOp48
 70
     1
102
RTVSPost2010Prop49
280
     0
102
RTVSPost2010PropOp49
 70
     1
102
RTVSPost2010Prop50
 90
       50
102
RTVSPost2010PropOp50
 70
     1
102
RTVSPost2010Prop51ColorIndex
 90
      256
102
RTVSPost2010Prop51ColorRGB
 90
-16777216
102
RTVSPost2010PropOp51
 70
     0
102
RTVSPost2010Prop52
140
1.0
102
RTVSPost2010PropOp52
 70
     0
102
RTVSPost2010Prop53
 90
        2
102
RTVSPost2010PropOp53
 70
     1
102
RTVSPost2010Prop54
  1
strokes_ogs.tif
102
RTVSPost2010PropOp54
 70
     1
102
RTVSPost2010Prop55
280
     0
102
RTVSPost2010PropOp55
 70
     1
102
RTVSPost2010Prop56
140
1.0
102
RTVSPost2010PropOp56
 70
     1
102
RTVSPost2010Prop57
140
1.0
102
RTVSPost2010PropOp57
 70
     1
102
RTVSPropertyOp0
 70
     1
102
RTVSPropertyOp1
 70
     1
102
RTVSPropertyOp2
 70
     1
102
RTVSPropertyOp3
 70
     1
102
RTVSPropertyOp4
 70
     1
102
RTVSPropertyOp5
 70
     1
102
RTVSPropertyOp6
 70
     1
102
RTVSPropertyOp7
 70
     1
102
RTVSPropertyOp8
 70
     1
102
RTVSPropertyOp9
 70
     1
102
RTVSPropertyOp10
 70
     1
102
RTVSPropertyOp11
 70
     1
102
RTVSPropertyOp12
 70
     1
102
RTVSPropertyOp13
 70
     1
102
RTVSPropertyOp14
 70
     1
102
RTVSPropertyOp15
 70
     1
102
RTVSPropertyOp16
 70
     1
102
RTVSPropertyOp17
 70
     1
102
RTVSPropertyOp18
 70
     1
102
RTVSPropertyOp19
 70
     1
102
RTVSPropertyOp20
 70
     1
102
RTVSPropertyOp21
 70
     1
102
RTVSPropertyOp22
 70
     1
102
RTVSPropertyOp23
 70
     1
102
RTVSPropertyOp24
 70
     1
102
RTVSPropertyOp25
 70
     1
102
RTVSPropertyOp26
 70
     1
102
RTVSPropertyOp27
 70
     1
102
RTVSPropertyOp28
 70
     1
102
RTVSPropertyOp29
 70
     1
102
RTVSPropertyOp30
 70
     1
102
RTVSPropertyOp31
 70
     1
102
RTVSPropertyOp32
 70
     1
102
RTVSPropertyOp33
 70
     1
102
RTVSPropertyOp34
 70
     1
102
RTVSPropertyOp35
 70
     1
102
RTVSPropertyOp36
 70
     1
102
RTVSPropertyOp37
 70
     1
102
RTVSPropertyOp38
 70
     1
102
RTVSPropertyOp39
 70
     1
102
RTVSPropertyOp40
 70
     1
102
RTVSPropertyOp41
 70
     1
102
RTVSPropertyOp42
 70
     1
102
RTVSPropertyOp43
 70
     1
102
RTVSPropertyOp44
 70
     1
102
RTVSPropertyOp45
 70
     1
102
RTVSPropertyOp46
 70
     1
102
RTVSPropertyOp47
 70
     1
102
RTVSPropertyOp48
 70
     1
102
RTVSPropertyOp49
 70
     1
102
RTVSPropertyOp50
 70
     1
102
RTVSPropertyOp51
 70
     0
102
RTVSPropertyOp52
 70
     0
102
RTVSPropertyOp53
 70
     1
102
RTVSPropertyOp54
 70
     1
102
RTVSPropertyOp55
 70
     1
102
RTVSPropertyOp56
 70
     1
102
RTVSPropertyOp57
 70
     1
102
RTVSPropertyOp58
 70
     1
102
RTVSPropertyOp59
 70
     1
102
RTVSPropertyOp60
 70
     1
102
RTVSPropertyOp61
 70
     1
102
RTVSPropertyOp62
 70
     1
  0
XRECORD
  5
1437
102
{ACAD_REACTORS
330
1436
102
}
330
1436
100
AcDbXrecord
280
     1
102
RTVSPost2010Prop28
280
     0
102
RTVSPost2010PropOp28
 70
     1
102
RTVSPost2010Prop29
280
     1
102
RTVSPost2010PropOp29
 70
     1
102
RTVSPost2010Prop30
280
     1
102
RTVSPost2010PropOp30
 70
     1
102
RTVSPost2010Prop31
280
     0
102
RTVSPost2010PropOp31
 70
     1
102
RTVSPost2010Prop32
280
     0
102
RTVSPost2010PropOp32
 70
     1
102
RTVSPost2010Prop33
280
     0
102
RTVSPost2010PropOp33
 70
     1
102
RTVSPost2010Prop34
280
     0
102
RTVSPost2010PropOp34
 70
     1
102
RTVSPost2010Prop35
280
     0
102
RTVSPost2010PropOp35
 70
     1
102
RTVSPost2010Prop36
280
     0
102
RTVSPost2010PropOp36
 70
     1
102
RTVSPost2010Prop37
 90
       50
102
RTVSPost2010PropOp37
 70
     1
102
RTVSPost2010Prop38
140
0.0
102
RTVSPost2010PropOp38
 70
     1
102
RTVSPost2010Prop39
140
1.0
102
RTVSPost2010PropOp39
 70
     1
102
RTVSPost2010Prop40
 90
        0
102
RTVSPost2010PropOp40
 70
     1
102
RTVSPost2010Prop41ColorIndex
 90
       18
102
RTVSPost2010Prop41ColorRGB
 90
        0
102
RTVSPost2010PropOp41
 70
     1
102
RTVSPost2010Prop42
 90
       50
102
RTVSPost2010PropOp42
 70
     1
102
RTVSPost2010Prop43
 90
        3
102
RTVSPost2010PropOp43
 70
     1
102
RTVSPost2010Prop44ColorIndex
 90
        5
102
RTVSPost2010Prop44ColorRGB
 90
      255
102
RTVSPost2010PropOp44
 70
     1
102
RTVSPost2010Prop45
280
     0
102
RTVSPost2010PropOp45
 70
     1
102
RTVSPost2010Prop46
 90
       50
102
RTVSPost2010PropOp46
 70
     1
102
RTVSPost2010Prop47
 90
       50
102
RTVSPost2010PropOp47
 70
     1
102
RTVSPost2010Prop48
 90
       50
102
RTVSPost2010PropOp48
 70
     1
102
RTVSPost2010Prop49
280
     0
102
RTVSPost2010PropOp49
 70
     1
102
RTVSPost2010Prop50
 90
       50
102
RTVSPost2010PropOp50
 70
     1
102
RTVSPost2010Prop51ColorIndex
 90
      256
102
RTVSPost2010Prop51ColorRGB
 90
-16777216
102
RTVSPost2010PropOp51
 70
     0
102
RTVSPost2010Prop52
140
1.0
102
RTVSPost2010PropOp52
 70
     0
102
RTVSPost2010Prop53
 90
        2
102
RTVSPost2010PropOp53
 70
     1
102
RTVSPost2010Prop54
  1
strokes_ogs.tif
102
RTVSPost2010PropOp54
 70
     1
102
RTVSPost2010Prop55
280
     0
102
RTVSPost2010PropOp55
 70
     1
102
RTVSPost2010Prop56
140
1.0
102
RTVSPost2010PropOp56
 70
     1
102
RTVSPost2010Prop57
140
1.0
102
RTVSPost2010PropOp57
 70
     1
102
RTVSPropertyOp0
 70
     1
102
RTVSPropertyOp1
 70
     1
102
RTVSPropertyOp2
 70
     1
102
RTVSPropertyOp3
 70
     1
102
RTVSPropertyOp4
 70
     1
102
RTVSPropertyOp5
 70
     1
102
RTVSPropertyOp6
 70
     1
102
RTVSPropertyOp7
 70
     1
102
RTVSPropertyOp8
 70
     1
102
RTVSPropertyOp9
 70
     1
102
RTVSPropertyOp10
 70
     1
102
RTVSPropertyOp11
 70
     1
102
RTVSPropertyOp12
 70
     1
102
RTVSPropertyOp13
 70
     1
102
RTVSPropertyOp14
 70
     1
102
RTVSPropertyOp15
 70
     1
102
RTVSPropertyOp16
 70
     1
102
RTVSPropertyOp17
 70
     1
102
RTVSPropertyOp18
 70
     1
102
RTVSPropertyOp19
 70
     1
102
RTVSPropertyOp20
 70
     1
102
RTVSPropertyOp21
 70
     1
102
RTVSPropertyOp22
 70
     1
102
RTVSPropertyOp23
 70
     1
102
RTVSPropertyOp24
 70
     1
102
RTVSPropertyOp25
 70
     1
102
RTVSPropertyOp26
 70
     1
102
RTVSPropertyOp27
 70
     1
102
RTVSPropertyOp28
 70
     1
102
RTVSPropertyOp29
 70
     1
102
RTVSPropertyOp30
 70
     1
102
RTVSPropertyOp31
 70
     1
102
RTVSPropertyOp32
 70
     1
102
RTVSPropertyOp33
 70
     1
102
RTVSPropertyOp34
 70
     1
102
RTVSPropertyOp35
 70
     1
102
RTVSPropertyOp36
 70
     1
102
RTVSPropertyOp37
 70
     1
102
RTVSPropertyOp38
 70
     1
102
RTVSPropertyOp39
 70
     1
102
RTVSPropertyOp40
 70
     1
102
RTVSPropertyOp41
 70
     1
102
RTVSPropertyOp42
 70
     1
102
RTVSPropertyOp43
 70
     1
102
RTVSPropertyOp44
 70
     1
102
RTVSPropertyOp45
 70
     1
102
RTVSPropertyOp46
 70
     1
102
RTVSPropertyOp47
 70
     1
102
RTVSPropertyOp48
 70
     1
102
RTVSPropertyOp49
 70
     1
102
RTVSPropertyOp50
 70
     1
102
RTVSPropertyOp51
 70
     0
102
RTVSPropertyOp52
 70
     0
102
RTVSPropertyOp53
 70
     1
102
RTVSPropertyOp54
 70
     1
102
RTVSPropertyOp55
 70
     1
102
RTVSPropertyOp56
 70
     1
102
RTVSPropertyOp57
 70
     1
102
RTVSPropertyOp58
 70
     1
102
RTVSPropertyOp59
 70
     1
102
RTVSPropertyOp60
 70
     1
102
RTVSPropertyOp61
 70
     1
102
RTVSPropertyOp62
 70
     1
  0
XRECORD
  5
1439
102
{ACAD_REACTORS
330
1438
102
}
330
1438
100
AcDbXrecord
280
     1
102
RTVSPost2010Prop28
280
     0
102
RTVSPost2010PropOp28
 70
     1
102
RTVSPost2010Prop29
280
     1
102
RTVSPost2010PropOp29
 70
     1
102
RTVSPost2010Prop30
280
     1
102
RTVSPost2010PropOp30
 70
     1
102
RTVSPost2010Prop31
280
     0
102
RTVSPost2010PropOp31
 70
     1
102
RTVSPost2010Prop32
280
     0
102
RTVSPost2010PropOp32
 70
     1
102
RTVSPost2010Prop33
280
     0
102
RTVSPost2010PropOp33
 70
     1
102
RTVSPost2010Prop34
280
     0
102
RTVSPost2010PropOp34
 70
     1
102
RTVSPost2010Prop35
280
     0
102
RTVSPost2010PropOp35
 70
     1
102
RTVSPost2010Prop36
280
     0
102
RTVSPost2010PropOp36
 70
     1
102
RTVSPost2010Prop37
 90
       50
102
RTVSPost2010PropOp37
 70
     1
102
RTVSPost2010Prop38
140
0.0
102
RTVSPost2010PropOp38
 70
     1
102
RTVSPost2010Prop39
140
1.0
102
RTVSPost2010PropOp39
 70
     1
102
RTVSPost2010Prop40
 90
        0
102
RTVSPost2010PropOp40
 70
     1
102
RTVSPost2010Prop41ColorIndex
 90
       18
102
RTVSPost2010Prop41ColorRGB
 90
        0
102
RTVSPost2010PropOp41
 70
     1
102
RTVSPost2010Prop42
 90
       50
102
RTVSPost2010PropOp42
 70
     1
102
RTVSPost2010Prop43
 90
        3
102
RTVSPost2010PropOp43
 70
     1
102
RTVSPost2010Prop44ColorIndex
 90
        5
102
RTVSPost2010Prop44ColorRGB
 90
      255
102
RTVSPost2010PropOp44
 70
     1
102
RTVSPost2010Prop45
280
     0
102
RTVSPost2010PropOp45
 70
     1
102
RTVSPost2010Prop46
 90
       50
102
RTVSPost2010PropOp46
 70
     1
102
RTVSPost2010Prop47
 90
       50
102
RTVSPost2010PropOp47
 70
     1
102
RTVSPost2010Prop48
 90
       50
102
RTVSPost2010PropOp48
 70
     1
102
RTVSPost2010Prop49
280
     0
102
RTVSPost2010PropOp49
 70
     1
102
RTVSPost2010Prop50
 90
       50
102
RTVSPost2010PropOp50
 70
     1
102
RTVSPost2010Prop51ColorIndex
 90
      256
102
RTVSPost2010Prop51ColorRGB
 90
-16777216
102
RTVSPost2010PropOp51
 70
     0
102
RTVSPost2010Prop52
140
1.0
102
RTVSPost2010PropOp52
 70
     0
102
RTVSPost2010Prop53
 90
        2
102
RTVSPost2010PropOp53
 70
     1
102
RTVSPost2010Prop54
  1
strokes_ogs.tif
102
RTVSPost2010PropOp54
 70
     1
102
RTVSPost2010Prop55
280
     0
102
RTVSPost2010PropOp55
 70
     1
102
RTVSPost2010Prop56
140
1.0
102
RTVSPost2010PropOp56
 70
     1
102
RTVSPost2010Prop57
140
1.0
102
RTVSPost2010PropOp57
 70
     1
102
RTVSPropertyOp0
 70
     1
102
RTVSPropertyOp1
 70
     1
102
RTVSPropertyOp2
 70
     1
102
RTVSPropertyOp3
 70
     1
102
RTVSPropertyOp4
 70
     1
102
RTVSPropertyOp5
 70
     1
102
RTVSPropertyOp6
 70
     1
102
RTVSPropertyOp7
 70
     1
102
RTVSPropertyOp8
 70
     1
102
RTVSPropertyOp9
 70
     1
102
RTVSPropertyOp10
 70
     1
102
RTVSPropertyOp11
 70
     1
102
RTVSPropertyOp12
 70
     1
102
RTVSPropertyOp13
 70
     1
102
RTVSPropertyOp14
 70
     1
102
RTVSPropertyOp15
 70
     1
102
RTVSPropertyOp16
 70
     1
102
RTVSPropertyOp17
 70
     1
102
RTVSPropertyOp18
 70
     1
102
RTVSPropertyOp19
 70
     1
102
RTVSPropertyOp20
 70
     1
102
RTVSPropertyOp21
 70
     1
102
RTVSPropertyOp22
 70
     1
102
RTVSPropertyOp23
 70
     1
102
RTVSPropertyOp24
 70
     1
102
RTVSPropertyOp25
 70
     1
102
RTVSPropertyOp26
 70
     1
102
RTVSPropertyOp27
 70
     1
102
RTVSPropertyOp28
 70
     1
102
RTVSPropertyOp29
 70
     1
102
RTVSPropertyOp30
 70
     1
102
RTVSPropertyOp31
 70
     1
102
RTVSPropertyOp32
 70
     1
102
RTVSPropertyOp33
 70
     1
102
RTVSPropertyOp34
 70
     1
102
RTVSPropertyOp35
 70
     1
102
RTVSPropertyOp36
 70
     1
102
RTVSPropertyOp37
 70
     1
102
RTVSPropertyOp38
 70
     1
102
RTVSPropertyOp39
 70
     1
102
RTVSPropertyOp40
 70
     1
102
RTVSPropertyOp41
 70
     1
102
RTVSPropertyOp42
 70
     1
102
RTVSPropertyOp43
 70
     1
102
RTVSPropertyOp44
 70
     1
102
RTVSPropertyOp45
 70
     1
102
RTVSPropertyOp46
 70
     1
102
RTVSPropertyOp47
 70
     1
102
RTVSPropertyOp48
 70
     1
102
RTVSPropertyOp49
 70
     1
102
RTVSPropertyOp50
 70
     1
102
RTVSPropertyOp51
 70
     0
102
RTVSPropertyOp52
 70
     0
102
RTVSPropertyOp53
 70
     1
102
RTVSPropertyOp54
 70
     1
102
RTVSPropertyOp55
 70
     1
102
RTVSPropertyOp56
 70
     1
102
RTVSPropertyOp57
 70
     1
102
RTVSPropertyOp58
 70
     1
102
RTVSPropertyOp59
 70
     1
102
RTVSPropertyOp60
 70
     1
102
RTVSPropertyOp61
 70
     1
102
RTVSPropertyOp62
 70
     1
  0
XRECORD
  5
1427
102
{ACAD_REACTORS
330
1426
102
}
330
1426
100
AcDbXrecord
280
     1
102
RTVSPost2010Prop28
280
     0
102
RTVSPost2010PropOp28
 70
     1
102
RTVSPost2010Prop29
280
     1
102
RTVSPost2010PropOp29
 70
     1
102
RTVSPost2010Prop30
280
     1
102
RTVSPost2010PropOp30
 70
     1
102
RTVSPost2010Prop31
280
     0
102
RTVSPost2010PropOp31
 70
     1
102
RTVSPost2010Prop32
280
     0
102
RTVSPost2010PropOp32
 70
     1
102
RTVSPost2010Prop33
280
     0
102
RTVSPost2010PropOp33
 70
     1
102
RTVSPost2010Prop34
280
     0
102
RTVSPost2010PropOp34
 70
     1
102
RTVSPost2010Prop35
280
     0
102
RTVSPost2010PropOp35
 70
     1
102
RTVSPost2010Prop36
280
     0
102
RTVSPost2010PropOp36
 70
     1
102
RTVSPost2010Prop37
 90
       50
102
RTVSPost2010PropOp37
 70
     1
102
RTVSPost2010Prop38
140
0.0
102
RTVSPost2010PropOp38
 70
     1
102
RTVSPost2010Prop39
140
1.0
102
RTVSPost2010PropOp39
 70
     1
102
RTVSPost2010Prop40
 90
        0
102
RTVSPost2010PropOp40
 70
     1
102
RTVSPost2010Prop41ColorIndex
 90
       18
102
RTVSPost2010Prop41ColorRGB
 90
        0
102
RTVSPost2010PropOp41
 70
     1
102
RTVSPost2010Prop42
 90
       50
102
RTVSPost2010PropOp42
 70
     1
102
RTVSPost2010Prop43
 90
        3
102
RTVSPost2010PropOp43
 70
     1
102
RTVSPost2010Prop44ColorIndex
 90
        5
102
RTVSPost2010Prop44ColorRGB
 90
      255
102
RTVSPost2010PropOp44
 70
     1
102
RTVSPost2010Prop45
280
     0
102
RTVSPost2010PropOp45
 70
     1
102
RTVSPost2010Prop46
 90
       50
102
RTVSPost2010PropOp46
 70
     1
102
RTVSPost2010Prop47
 90
       50
102
RTVSPost2010PropOp47
 70
     1
102
RTVSPost2010Prop48
 90
       50
102
RTVSPost2010PropOp48
 70
     1
102
RTVSPost2010Prop49
280
     0
102
RTVSPost2010PropOp49
 70
     1
102
RTVSPost2010Prop50
 90
       50
102
RTVSPost2010PropOp50
 70
     1
102
RTVSPost2010Prop51ColorIndex
 90
      256
102
RTVSPost2010Prop51ColorRGB
 90
-16777216
102
RTVSPost2010PropOp51
 70
     0
102
RTVSPost2010Prop52
140
1.0
102
RTVSPost2010PropOp52
 70
     0
102
RTVSPost2010Prop53
 90
        2
102
RTVSPost2010PropOp53
 70
     1
102
RTVSPost2010Prop54
  1
strokes_ogs.tif
102
RTVSPost2010PropOp54
 70
     1
102
RTVSPost2010Prop55
280
     0
102
RTVSPost2010PropOp55
 70
     1
102
RTVSPost2010Prop56
140
1.0
102
RTVSPost2010PropOp56
 70
     1
102
RTVSPost2010Prop57
140
1.0
102
RTVSPost2010PropOp57
 70
     1
102
RTVSPropertyOp0
 70
     1
102
RTVSPropertyOp1
 70
     1
102
RTVSPropertyOp2
 70
     1
102
RTVSPropertyOp3
 70
     1
102
RTVSPropertyOp4
 70
     1
102
RTVSPropertyOp5
 70
     1
102
RTVSPropertyOp6
 70
     1
102
RTVSPropertyOp7
 70
     1
102
RTVSPropertyOp8
 70
     1
102
RTVSPropertyOp9
 70
     1
102
RTVSPropertyOp10
 70
     1
102
RTVSPropertyOp11
 70
     1
102
RTVSPropertyOp12
 70
     1
102
RTVSPropertyOp13
 70
     1
102
RTVSPropertyOp14
 70
     1
102
RTVSPropertyOp15
 70
     1
102
RTVSPropertyOp16
 70
     1
102
RTVSPropertyOp17
 70
     1
102
RTVSPropertyOp18
 70
     1
102
RTVSPropertyOp19
 70
     1
102
RTVSPropertyOp20
 70
     1
102
RTVSPropertyOp21
 70
     1
102
RTVSPropertyOp22
 70
     1
102
RTVSPropertyOp23
 70
     1
102
RTVSPropertyOp24
 70
     1
102
RTVSPropertyOp25
 70
     1
102
RTVSPropertyOp26
 70
     1
102
RTVSPropertyOp27
 70
     1
102
RTVSPropertyOp28
 70
     1
102
RTVSPropertyOp29
 70
     1
102
RTVSPropertyOp30
 70
     1
102
RTVSPropertyOp31
 70
     1
102
RTVSPropertyOp32
 70
     1
102
RTVSPropertyOp33
 70
     1
102
RTVSPropertyOp34
 70
     1
102
RTVSPropertyOp35
 70
     1
102
RTVSPropertyOp36
 70
     1
102
RTVSPropertyOp37
 70
     1
102
RTVSPropertyOp38
 70
     1
102
RTVSPropertyOp39
 70
     1
102
RTVSPropertyOp40
 70
     1
102
RTVSPropertyOp41
 70
     1
102
RTVSPropertyOp42
 70
     1
102
RTVSPropertyOp43
 70
     1
102
RTVSPropertyOp44
 70
     1
102
RTVSPropertyOp45
 70
     1
102
RTVSPropertyOp46
 70
     1
102
RTVSPropertyOp47
 70
     1
102
RTVSPropertyOp48
 70
     1
102
RTVSPropertyOp49
 70
     1
102
RTVSPropertyOp50
 70
     1
102
RTVSPropertyOp51
 70
     0
102
RTVSPropertyOp52
 70
     0
102
RTVSPropertyOp53
 70
     1
102
RTVSPropertyOp54
 70
     1
102
RTVSPropertyOp55
 70
     1
102
RTVSPropertyOp56
 70
     1
102
RTVSPropertyOp57
 70
     1
102
RTVSPropertyOp58
 70
     1
102
RTVSPropertyOp59
 70
     1
102
RTVSPropertyOp60
 70
     1
102
RTVSPropertyOp61
 70
     1
102
RTVSPropertyOp62
 70
     1
  0
XRECORD
  5
141B
102
{ACAD_REACTORS
330
141A
102
}
330
141A
100
AcDbXrecord
280
     1
102
RTVSPost2010Prop28
280
     0
102
RTVSPost2010PropOp28
 70
     1
102
RTVSPost2010Prop29
280
     1
102
RTVSPost2010PropOp29
 70
     1
102
RTVSPost2010Prop30
280
     1
102
RTVSPost2010PropOp30
 70
     1
102
RTVSPost2010Prop31
280
     0
102
RTVSPost2010PropOp31
 70
     1
102
RTVSPost2010Prop32
280
     0
102
RTVSPost2010PropOp32
 70
     1
102
RTVSPost2010Prop33
280
     0
102
RTVSPost2010PropOp33
 70
     1
102
RTVSPost2010Prop34
280
     0
102
RTVSPost2010PropOp34
 70
     1
102
RTVSPost2010Prop35
280
     0
102
RTVSPost2010PropOp35
 70
     1
102
RTVSPost2010Prop36
280
     0
102
RTVSPost2010PropOp36
 70
     1
102
RTVSPost2010Prop37
 90
       50
102
RTVSPost2010PropOp37
 70
     1
102
RTVSPost2010Prop38
140
0.0
102
RTVSPost2010PropOp38
 70
     1
102
RTVSPost2010Prop39
140
1.0
102
RTVSPost2010PropOp39
 70
     1
102
RTVSPost2010Prop40
 90
        0
102
RTVSPost2010PropOp40
 70
     1
102
RTVSPost2010Prop41ColorIndex
 90
       18
102
RTVSPost2010Prop41ColorRGB
 90
        0
102
RTVSPost2010PropOp41
 70
     1
102
RTVSPost2010Prop42
 90
       50
102
RTVSPost2010PropOp42
 70
     1
102
RTVSPost2010Prop43
 90
        3
102
RTVSPost2010PropOp43
 70
     1
102
RTVSPost2010Prop44ColorIndex
 90
        5
102
RTVSPost2010Prop44ColorRGB
 90
      255
102
RTVSPost2010PropOp44
 70
     1
102
RTVSPost2010Prop45
280
     0
102
RTVSPost2010PropOp45
 70
     1
102
RTVSPost2010Prop46
 90
       50
102
RTVSPost2010PropOp46
 70
     1
102
RTVSPost2010Prop47
 90
       50
102
RTVSPost2010PropOp47
 70
     1
102
RTVSPost2010Prop48
 90
       50
102
RTVSPost2010PropOp48
 70
     1
102
RTVSPost2010Prop49
280
     0
102
RTVSPost2010PropOp49
 70
     1
102
RTVSPost2010Prop50
 90
       50
102
RTVSPost2010PropOp50
 70
     1
102
RTVSPost2010Prop51ColorIndex
 90
      256
102
RTVSPost2010Prop51ColorRGB
 90
-16777216
102
RTVSPost2010PropOp51
 70
     0
102
RTVSPost2010Prop52
140
1.0
102
RTVSPost2010PropOp52
 70
     0
102
RTVSPost2010Prop53
 90
        2
102
RTVSPost2010PropOp53
 70
     1
102
RTVSPost2010Prop54
  1
strokes_ogs.tif
102
RTVSPost2010PropOp54
 70
     1
102
RTVSPost2010Prop55
280
     0
102
RTVSPost2010PropOp55
 70
     1
102
RTVSPost2010Prop56
140
1.0
102
RTVSPost2010PropOp56
 70
     1
102
RTVSPost2010Prop57
140
1.0
102
RTVSPost2010PropOp57
 70
     1
102
RTVSPropertyOp0
 70
     1
102
RTVSPropertyOp1
 70
     1
102
RTVSPropertyOp2
 70
     1
102
RTVSPropertyOp3
 70
     1
102
RTVSPropertyOp4
 70
     1
102
RTVSPropertyOp5
 70
     1
102
RTVSPropertyOp6
 70
     1
102
RTVSPropertyOp7
 70
     1
102
RTVSPropertyOp8
 70
     1
102
RTVSPropertyOp9
 70
     1
102
RTVSPropertyOp10
 70
     1
102
RTVSPropertyOp11
 70
     1
102
RTVSPropertyOp12
 70
     1
102
RTVSPropertyOp13
 70
     1
102
RTVSPropertyOp14
 70
     1
102
RTVSPropertyOp15
 70
     1
102
RTVSPropertyOp16
 70
     1
102
RTVSPropertyOp17
 70
     1
102
RTVSPropertyOp18
 70
     1
102
RTVSPropertyOp19
 70
     1
102
RTVSPropertyOp20
 70
     1
102
RTVSPropertyOp21
 70
     1
102
RTVSPropertyOp22
 70
     1
102
RTVSPropertyOp23
 70
     1
102
RTVSPropertyOp24
 70
     1
102
RTVSPropertyOp25
 70
     1
102
RTVSPropertyOp26
 70
     1
102
RTVSPropertyOp27
 70
     1
102
RTVSPropertyOp28
 70
     1
102
RTVSPropertyOp29
 70
     1
102
RTVSPropertyOp30
 70
     1
102
RTVSPropertyOp31
 70
     1
102
RTVSPropertyOp32
 70
     1
102
RTVSPropertyOp33
 70
     1
102
RTVSPropertyOp34
 70
     1
102
RTVSPropertyOp35
 70
     1
102
RTVSPropertyOp36
 70
     1
102
RTVSPropertyOp37
 70
     1
102
RTVSPropertyOp38
 70
     1
102
RTVSPropertyOp39
 70
     1
102
RTVSPropertyOp40
 70
     1
102
RTVSPropertyOp41
 70
     1
102
RTVSPropertyOp42
 70
     1
102
RTVSPropertyOp43
 70
     1
102
RTVSPropertyOp44
 70
     1
102
RTVSPropertyOp45
 70
     1
102
RTVSPropertyOp46
 70
     1
102
RTVSPropertyOp47
 70
     1
102
RTVSPropertyOp48
 70
     1
102
RTVSPropertyOp49
 70
     1
102
RTVSPropertyOp50
 70
     1
102
RTVSPropertyOp51
 70
     0
102
RTVSPropertyOp52
 70
     0
102
RTVSPropertyOp53
 70
     1
102
RTVSPropertyOp54
 70
     1
102
RTVSPropertyOp55
 70
     1
102
RTVSPropertyOp56
 70
     1
102
RTVSPropertyOp57
 70
     1
102
RTVSPropertyOp58
 70
     1
102
RTVSPropertyOp59
 70
     1
102
RTVSPropertyOp60
 70
     1
102
RTVSPropertyOp61
 70
     1
102
RTVSPropertyOp62
 70
     1
  0
XRECORD
  5
143B
102
{ACAD_REACTORS
330
143A
102
}
330
143A
100
AcDbXrecord
280
     1
102
RTVSPost2010Prop28
280
     0
102
RTVSPost2010PropOp28
 70
     1
102
RTVSPost2010Prop29
280
     1
102
RTVSPost2010PropOp29
 70
     1
102
RTVSPost2010Prop30
280
     1
102
RTVSPost2010PropOp30
 70
     1
102
RTVSPost2010Prop31
280
     0
102
RTVSPost2010PropOp31
 70
     1
102
RTVSPost2010Prop32
280
     0
102
RTVSPost2010PropOp32
 70
     1
102
RTVSPost2010Prop33
280
     0
102
RTVSPost2010PropOp33
 70
     1
102
RTVSPost2010Prop34
280
     0
102
RTVSPost2010PropOp34
 70
     1
102
RTVSPost2010Prop35
280
     0
102
RTVSPost2010PropOp35
 70
     1
102
RTVSPost2010Prop36
280
     0
102
RTVSPost2010PropOp36
 70
     1
102
RTVSPost2010Prop37
 90
       50
102
RTVSPost2010PropOp37
 70
     1
102
RTVSPost2010Prop38
140
0.0
102
RTVSPost2010PropOp38
 70
     1
102
RTVSPost2010Prop39
140
1.0
102
RTVSPost2010PropOp39
 70
     1
102
RTVSPost2010Prop40
 90
        0
102
RTVSPost2010PropOp40
 70
     1
102
RTVSPost2010Prop41ColorIndex
 90
       18
102
RTVSPost2010Prop41ColorRGB
 90
        0
102
RTVSPost2010PropOp41
 70
     1
102
RTVSPost2010Prop42
 90
       50
102
RTVSPost2010PropOp42
 70
     1
102
RTVSPost2010Prop43
 90
        3
102
RTVSPost2010PropOp43
 70
     1
102
RTVSPost2010Prop44ColorIndex
 90
        5
102
RTVSPost2010Prop44ColorRGB
 90
      255
102
RTVSPost2010PropOp44
 70
     1
102
RTVSPost2010Prop45
280
     0
102
RTVSPost2010PropOp45
 70
     1
102
RTVSPost2010Prop46
 90
       50
102
RTVSPost2010PropOp46
 70
     1
102
RTVSPost2010Prop47
 90
       50
102
RTVSPost2010PropOp47
 70
     1
102
RTVSPost2010Prop48
 90
       50
102
RTVSPost2010PropOp48
 70
     1
102
RTVSPost2010Prop49
280
     0
102
RTVSPost2010PropOp49
 70
     1
102
RTVSPost2010Prop50
 90
       50
102
RTVSPost2010PropOp50
 70
     1
102
RTVSPost2010Prop51ColorIndex
 90
      256
102
RTVSPost2010Prop51ColorRGB
 90
-16777216
102
RTVSPost2010PropOp51
 70
     0
102
RTVSPost2010Prop52
140
1.0
102
RTVSPost2010PropOp52
 70
     0
102
RTVSPost2010Prop53
 90
        2
102
RTVSPost2010PropOp53
 70
     1
102
RTVSPost2010Prop54
  1
strokes_ogs.tif
102
RTVSPost2010PropOp54
 70
     1
102
RTVSPost2010Prop55
280
     0
102
RTVSPost2010PropOp55
 70
     1
102
RTVSPost2010Prop56
140
1.0
102
RTVSPost2010PropOp56
 70
     1
102
RTVSPost2010Prop57
140
1.0
102
RTVSPost2010PropOp57
 70
     1
102
RTVSPropertyOp0
 70
     1
102
RTVSPropertyOp1
 70
     1
102
RTVSPropertyOp2
 70
     1
102
RTVSPropertyOp3
 70
     1
102
RTVSPropertyOp4
 70
     1
102
RTVSPropertyOp5
 70
     1
102
RTVSPropertyOp6
 70
     1
102
RTVSPropertyOp7
 70
     1
102
RTVSPropertyOp8
 70
     1
102
RTVSPropertyOp9
 70
     1
102
RTVSPropertyOp10
 70
     1
102
RTVSPropertyOp11
 70
     1
102
RTVSPropertyOp12
 70
     1
102
RTVSPropertyOp13
 70
     1
102
RTVSPropertyOp14
 70
     1
102
RTVSPropertyOp15
 70
     1
102
RTVSPropertyOp16
 70
     1
102
RTVSPropertyOp17
 70
     1
102
RTVSPropertyOp18
 70
     1
102
RTVSPropertyOp19
 70
     1
102
RTVSPropertyOp20
 70
     1
102
RTVSPropertyOp21
 70
     1
102
RTVSPropertyOp22
 70
     1
102
RTVSPropertyOp23
 70
     1
102
RTVSPropertyOp24
 70
     1
102
RTVSPropertyOp25
 70
     1
102
RTVSPropertyOp26
 70
     1
102
RTVSPropertyOp27
 70
     1
102
RTVSPropertyOp28
 70
     1
102
RTVSPropertyOp29
 70
     1
102
RTVSPropertyOp30
 70
     1
102
RTVSPropertyOp31
 70
     1
102
RTVSPropertyOp32
 70
     1
102
RTVSPropertyOp33
 70
     1
102
RTVSPropertyOp34
 70
     1
102
RTVSPropertyOp35
 70
     1
102
RTVSPropertyOp36
 70
     1
102
RTVSPropertyOp37
 70
     1
102
RTVSPropertyOp38
 70
     1
102
RTVSPropertyOp39
 70
     1
102
RTVSPropertyOp40
 70
     1
102
RTVSPropertyOp41
 70
     1
102
RTVSPropertyOp42
 70
     1
102
RTVSPropertyOp43
 70
     1
102
RTVSPropertyOp44
 70
     1
102
RTVSPropertyOp45
 70
     1
102
RTVSPropertyOp46
 70
     1
102
RTVSPropertyOp47
 70
     1
102
RTVSPropertyOp48
 70
     1
102
RTVSPropertyOp49
 70
     1
102
RTVSPropertyOp50
 70
     1
102
RTVSPropertyOp51
 70
     0
102
RTVSPropertyOp52
 70
     0
102
RTVSPropertyOp53
 70
     1
102
RTVSPropertyOp54
 70
     1
102
RTVSPropertyOp55
 70
     1
102
RTVSPropertyOp56
 70
     1
102
RTVSPropertyOp57
 70
     1
102
RTVSPropertyOp58
 70
     1
102
RTVSPropertyOp59
 70
     1
102
RTVSPropertyOp60
 70
     1
102
RTVSPropertyOp61
 70
     1
102
RTVSPropertyOp62
 70
     1
  0
ENDSEC
  0
EOF
