  0
SECTION
  2
HEADER
  9
$ACADVER
  1
AC1015
  9
$ACADMAINTVER
 70
    18
  9
$DWGCODEPAGE
  3
ANSI_1252
  9
$INSBASE
 10
0.0
 20
0.0
 30
0.0
  9
$EXTMIN
 10
-233.4494011493509
 20
-338.3577572707527
 30
-0.0015258207003583
  9
$EXTMAX
 10
311.2573250700457
 20
281.5780798971864
 30
0.0000000349246037
  9
$LIMMIN
 10
0.0
 20
0.0
  9
$LIMMAX
 10
420.0
 20
297.0
  9
$ORTHOMODE
 70
     0
  9
$REGENMODE
 70
     1
  9
$FILLMODE
 70
     1
  9
$QTEXTMODE
 70
     0
  9
$MIRRTEXT
 70
     0
  9
$LTSCALE
 40
1.0
  9
$ATTMODE
 70
     1
  9
$TEXTSIZE
 40
2.5
  9
$TRACEWID
 40
1.0
  9
$TEXTSTYLE
  7
Standard
  9
$CLAYER
  8
0
  9
$CELTYPE
  6
ByLayer
  9
$CECOLOR
 62
   256
  9
$CELTSCALE
 40
1.0
  9
$DISPSILH
 70
     0
  9
$DIMSCALE
 40
1.0
  9
$DIMASZ
 40
2.5
  9
$DIMEXO
 40
0.625
  9
$DIMDLI
 40
3.75
  9
$DIMRND
 40
0.0
  9
$DIMDLE
 40
0.0
  9
$DIMEXE
 40
1.25
  9
$DIMTP
 40
0.0
  9
$DIMTM
 40
0.0
  9
$DIMTXT
 40
2.5
  9
$DIMCEN
 40
2.5
  9
$DIMTSZ
 40
0.0
  9
$DIMTOL
 70
     0
  9
$DIMLIM
 70
     0
  9
$DIMTIH
 70
     0
  9
$DIMTOH
 70
     0
  9
$DIMSE1
 70
     0
  9
$DIMSE2
 70
     0
  9
$DIMTAD
 70
     1
  9
$DIMZIN
 70
     8
  9
$DIMBLK
  1

  9
$DIMASO
 70
     1
  9
$DIMSHO
 70
     1
  9
$DIMPOST
  1

  9
$DIMAPOST
  1

  9
$DIMALT
 70
     0
  9
$DIMALTD
 70
     3
  9
$DIMALTF
 40
0.03937007874016
  9
$DIMLFAC
 40
1.0
  9
$DIMTOFL
 70
     1
  9
$DIMTVP
 40
0.0
  9
$DIMTIX
 70
     0
  9
$DIMSOXD
 70
     0
  9
$DIMSAH
 70
     0
  9
$DIMBLK1
  1

  9
$DIMBLK2
  1

  9
$DIMSTYLE
  2
ISO-25
  9
$DIMCLRD
 70
     0
  9
$DIMCLRE
 70
     0
  9
$DIMCLRT
 70
     0
  9
$DIMTFAC
 40
1.0
  9
$DIMGAP
 40
0.625
  9
$DIMJUST
 70
     0
  9
$DIMSD1
 70
     0
  9
$DIMSD2
 70
     0
  9
$DIMTOLJ
 70
     0
  9
$DIMTZIN
 70
     8
  9
$DIMALTZ
 70
     0
  9
$DIMALTTZ
 70
     0
  9
$DIMUPT
 70
     0
  9
$DIMDEC
 70
     2
  9
$DIMTDEC
 70
     2
  9
$DIMALTU
 70
     2
  9
$DIMALTTD
 70
     3
  9
$DIMTXSTY
  7
Standard
  9
$DIMAUNIT
 70
     0
  9
$DIMADEC
 70
     0
  9
$DIMALTRND
 40
0.0
  9
$DIMAZIN
 70
     0
  9
$DIMDSEP
 70
    44
  9
$DIMATFIT
 70
     3
  9
$DIMFRAC
 70
     0
  9
$DIMLDRBLK
  1

  9
$DIMLUNIT
 70
     2
  9
$DIMLWD
 70
    -2
  9
$DIMLWE
 70
    -2
  9
$DIMTMOVE
 70
     0
  9
$LUNITS
 70
     2
  9
$LUPREC
 70
     4
  9
$SKETCHINC
 40
1.0
  9
$FILLETRAD
 40
0.0
  9
$AUNITS
 70
     0
  9
$AUPREC
 70
     0
  9
$MENU
  1
.
  9
$ELEVATION
 40
0.0
  9
$PELEVATION
 40
0.0
  9
$THICKNESS
 40
0.0
  9
$LIMCHECK
 70
     0
  9
$CHAMFERA
 40
0.0
  9
$CHAMFERB
 40
0.0
  9
$CHAMFERC
 40
0.0
  9
$CHAMFERD
 40
0.0
  9
$SKPOLY
 70
     0
  9
$TDCREATE
 40
2460719.406504630
  9
$TDUCREATE
 40
2460719.114837963
  9
$TDUPDATE
 40
2460719.410219907
  9
$TDUUPDATE
 40
2460719.118553241
  9
$TDINDWG
 40
0.0018634259
  9
$TDUSRTIMER
 40
0.0018634259
  9
$USRTIMER
 70
     1
  9
$ANGBASE
 50
0.0
  9
$ANGDIR
 70
     0
  9
$PDMODE
 70
     0
  9
$PDSIZE
 40
0.0
  9
$PLINEWID
 40
0.0
  9
$SPLFRAME
 70
     0
  9
$SPLINETYPE
 70
     6
  9
$SPLINESEGS
 70
     8
  9
$HANDSEED
  5
9DC
  9
$SURFTAB1
 70
     6
  9
$SURFTAB2
 70
     6
  9
$SURFTYPE
 70
     6
  9
$SURFU
 70
     6
  9
$SURFV
 70
     6
  9
$UCSBASE
  2

  9
$UCSNAME
  2

  9
$UCSORG
 10
0.0
 20
0.0
 30
0.0
  9
$UCSXDIR
 10
1.0
 20
0.0
 30
0.0
  9
$UCSYDIR
 10
0.0
 20
1.0
 30
0.0
  9
$UCSORTHOREF
  2

  9
$UCSORTHOVIEW
 70
     0
  9
$UCSORGTOP
 10
0.0
 20
0.0
 30
0.0
  9
$UCSORGBOTTOM
 10
0.0
 20
0.0
 30
0.0
  9
$UCSORGLEFT
 10
0.0
 20
0.0
 30
0.0
  9
$UCSORGRIGHT
 10
0.0
 20
0.0
 30
0.0
  9
$UCSORGFRONT
 10
0.0
 20
0.0
 30
0.0
  9
$UCSORGBACK
 10
0.0
 20
0.0
 30
0.0
  9
$PUCSBASE
  2

  9
$PUCSNAME
  2

  9
$PUCSORG
 10
0.0
 20
0.0
 30
0.0
  9
$PUCSXDIR
 10
1.0
 20
0.0
 30
0.0
  9
$PUCSYDIR
 10
0.0
 20
1.0
 30
0.0
  9
$PUCSORTHOREF
  2

  9
$PUCSORTHOVIEW
 70
     0
  9
$PUCSORGTOP
 10
0.0
 20
0.0
 30
0.0
  9
$PUCSORGBOTTOM
 10
0.0
 20
0.0
 30
0.0
  9
$PUCSORGLEFT
 10
0.0
 20
0.0
 30
0.0
  9
$PUCSORGRIGHT
 10
0.0
 20
0.0
 30
0.0
  9
$PUCSORGFRONT
 10
0.0
 20
0.0
 30
0.0
  9
$PUCSORGBACK
 10
0.0
 20
0.0
 30
0.0
  9
$USERI1
 70
     0
  9
$USERI2
 70
     0
  9
$USERI3
 70
     0
  9
$USERI4
 70
     0
  9
$USERI5
 70
     0
  9
$USERR1
 40
0.0
  9
$USERR2
 40
0.0
  9
$USERR3
 40
0.0
  9
$USERR4
 40
0.0
  9
$USERR5
 40
0.0
  9
$WORLDVIEW
 70
     1
  9
$SHADEDGE
 70
     3
  9
$SHADEDIF
 70
    70
  9
$TILEMODE
 70
     1
  9
$MAXACTVP
 70
    48
  9
$PINSBASE
 10
0.0
 20
0.0
 30
0.0
  9
$PLIMCHECK
 70
     0
  9
$PEXTMIN
 10
0.0
 20
0.0
 30
0.0
  9
$PEXTMAX
 10
0.0
 20
0.0
 30
0.0
  9
$PLIMMIN
 10
0.0
 20
0.0
  9
$PLIMMAX
 10
12.0
 20
9.0
  9
$UNITMODE
 70
     0
  9
$VISRETAIN
 70
     1
  9
$PLINEGEN
 70
     0
  9
$PSLTSCALE
 70
     1
  9
$TREEDEPTH
 70
  3020
  9
$CMLSTYLE
  2
Standard
  9
$CMLJUST
 70
     0
  9
$CMLSCALE
 40
20.0
  9
$PROXYGRAPHICS
 70
     1
  9
$MEASUREMENT
 70
     1
  9
$CELWEIGHT
370
    -1
  9
$ENDCAPS
280
     0
  9
$JOINSTYLE
280
     0
  9
$LWDISPLAY
290
     0
  9
$INSUNITS
 70
     4
  9
$HYPERLINKBASE
  1

  9
$STYLESHEET
  1

  9
$XEDIT
290
     1
  9
$CEPSNTYPE
380
     0
  9
$PSTYLEMODE
290
     1
  9
$FINGERPRINTGUID
  2
{375C693C-302E-BC42-B92A-19F6C371B7B0}
  9
$VERSIONGUID
  2
{445E4285-DBBB-DE43-897E-4A2779137CAE}
  9
$EXTNAMES
290
     1
  9
$PSVPSCALE
 40
0.0
  9
$OLESTARTUP
290
     0
  0
ENDSEC
  0
SECTION
  2
CLASSES
  0
CLASS
  1
ACDBDICTIONARYWDFLT
  2
AcDbDictionaryWithDefault
  3
ObjectDBX Classes
 90
        0
280
     0
281
     0
  0
CLASS
  1
ACDBPLACEHOLDER
  2
AcDbPlaceHolder
  3
ObjectDBX Classes
 90
        0
280
     0
281
     0
  0
CLASS
  1
LAYOUT
  2
AcDbLayout
  3
ObjectDBX Classes
 90
        0
280
     0
281
     0
  0
CLASS
  1
DICTIONARYVAR
  2
AcDbDictionaryVar
  3
ObjectDBX Classes
 90
        0
280
     0
281
     0
  0
CLASS
  1
TABLESTYLE
  2
AcDbTableStyle
  3
ObjectDBX Classes
 90
     4095
280
     0
281
     0
  0
CLASS
  1
MATERIAL
  2
AcDbMaterial
  3
ObjectDBX Classes
 90
     1153
280
     0
281
     0
  0
CLASS
  1
VISUALSTYLE
  2
AcDbVisualStyle
  3
ObjectDBX Classes
 90
     4095
280
     0
281
     0
  0
CLASS
  1
SCALE
  2
AcDbScale
  3
ObjectDBX Classes
 90
     1153
280
     0
281
     0
  0
CLASS
  1
MLEADERSTYLE
  2
AcDbMLeaderStyle
  3
ACDB_MLEADERSTYLE_CLASS
 90
     4095
280
     0
281
     0
  0
CLASS
  1
CELLSTYLEMAP
  2
AcDbCellStyleMap
  3
ObjectDBX Classes
 90
     1152
280
     0
281
     0
  0
CLASS
  1
EXACXREFPANELOBJECT
  2
ExAcXREFPanelObject
  3
EXAC_ESW
 90
    33793
280
     0
281
     0
  0
CLASS
  1
NPOCOLLECTION
  2
AcDbImpNonPersistentObjectsCollection
  3
ObjectDBX Classes
 90
    33921
280
     0
281
     0
  0
CLASS
  1
LAYER_INDEX
  2
AcDbLayerIndex
  3
ObjectDBX Classes
 90
    32768
280
     0
281
     0
  0
CLASS
  1
SPATIAL_INDEX
  2
AcDbSpatialIndex
  3
ObjectDBX Classes
 90
    32768
280
     0
281
     0
  0
CLASS
  1
IDBUFFER
  2
AcDbIdBuffer
  3
ObjectDBX Classes
 90
    32768
280
     0
281
     0
  0
CLASS
  1
ACDBSECTIONVIEWSTYLE
  2
AcDbSectionViewStyle
  3
ObjectDBX Classes
 90
     1025
280
     0
281
     0
  0
CLASS
  1
ACDBDETAILVIEWSTYLE
  2
AcDbDetailViewStyle
  3
ObjectDBX Classes
 90
     1025
280
     0
281
     0
  0
CLASS
  1
XRECORD
  2
AcDbXrecord
  3
ObjectDBX Classes
 90
        0
280
     0
281
     0
  0
ENDSEC
  0
SECTION
  2
TABLES
  0
TABLE
  2
VPORT
  5
8
102
{ACAD_XDICTIONARY
360
8EA
102
}
330
0
100
AcDbSymbolTable
 70
     1
  0
VPORT
  5
EA
330
8
100
AcDbSymbolTableRecord
100
AcDbViewportTableRecord
  2
*Active
 70
     0
 10
0.0
 20
0.0
 11
1.0
 21
1.0
 12
38.90396196034735
 22
-28.3898386867831
 13
0.0
 23
0.0
 14
10.0
 24
10.0
 15
10.0
 25
10.0
 16
0.0
 26
0.0
 36
1.0
 17
0.0
 27
0.0
 37
0.0
 40
659.245582186851
 41
0.9846153846153846
 42
50.0
 43
0.0
 44
0.0
 50
0.0
 51
0.0
 71
     0
 72
  1000
 73
     1
 74
     3
 75
     0
 76
     1
 77
     0
 78
     0
281
     0
 65
     1
110
0.0
120
0.0
130
0.0
111
1.0
121
0.0
131
0.0
112
0.0
122
1.0
132
0.0
 79
     0
146
0.0
1001
ACAD_NAV_VCDISPLAY
1070
     3
  0
ENDTAB
  0
TABLE
  2
LTYPE
  5
5
330
0
100
AcDbSymbolTable
 70
     1
  0
LTYPE
  5
14
330
5
100
AcDbSymbolTableRecord
100
AcDbLinetypeTableRecord
  2
ByBlock
 70
     0
  3

 72
    65
 73
     0
 40
0.0
  0
LTYPE
  5
15
330
5
100
AcDbSymbolTableRecord
100
AcDbLinetypeTableRecord
  2
ByLayer
 70
     0
  3

 72
    65
 73
     0
 40
0.0
  0
LTYPE
  5
16
330
5
100
AcDbSymbolTableRecord
100
AcDbLinetypeTableRecord
  2
Continuous
 70
     0
  3
Solid line
 72
    65
 73
     0
 40
0.0
  0
ENDTAB
  0
TABLE
  2
LAYER
  5
2
102
{ACAD_XDICTIONARY
360
1FF
102
}
330
0
100
AcDbSymbolTable
 70
     1
  0
LAYER
  5
10
102
{ACAD_XDICTIONARY
360
13C
102
}
330
2
100
AcDbSymbolTableRecord
100
AcDbLayerTableRecord
  2
0
 70
     0
 62
     7
  6
Continuous
370
    -3
390
F
  0
ENDTAB
  0
TABLE
  2
STYLE
  5
3
330
0
100
AcDbSymbolTable
 70
     1
  0
STYLE
  5
11
330
3
100
AcDbSymbolTableRecord
100
AcDbTextStyleTableRecord
  2
Standard
 70
     0
 40
0.0
 41
1.0
 50
0.0
 71
     0
 42
2.5
  3
arial.ttf
  4

1001
ACAD
1000
Arial
1071
       34
  0
ENDTAB
  0
TABLE
  2
VIEW
  5
6
330
0
100
AcDbSymbolTable
 70
     0
  0
ENDTAB
  0
TABLE
  2
UCS
  5
7
330
0
100
AcDbSymbolTable
 70
     0
  0
ENDTAB
  0
TABLE
  2
APPID
  5
9
330
0
100
AcDbSymbolTable
 70
     8
  0
APPID
  5
12
330
9
100
AcDbSymbolTableRecord
100
AcDbRegAppTableRecord
  2
ACAD
 70
     0
  0
APPID
  5
9E
330
9
100
AcDbSymbolTableRecord
100
AcDbRegAppTableRecord
  2
ACAD_PSEXT
 70
     0
  0
APPID
  5
133
330
9
100
AcDbSymbolTableRecord
100
AcDbRegAppTableRecord
  2
AcadAnnoPO
 70
     0
  0
APPID
  5
134
330
9
100
AcDbSymbolTableRecord
100
AcDbRegAppTableRecord
  2
AcadAnnotative
 70
     0
  0
APPID
  5
135
330
9
100
AcDbSymbolTableRecord
100
AcDbRegAppTableRecord
  2
ACAD_DSTYLE_DIMJAG
 70
     0
  0
APPID
  5
136
330
9
100
AcDbSymbolTableRecord
100
AcDbRegAppTableRecord
  2
ACAD_DSTYLE_DIMTALN
 70
     0
  0
APPID
  5
165
330
9
100
AcDbSymbolTableRecord
100
AcDbRegAppTableRecord
  2
ACAD_MLEADERVER
 70
     0
  0
APPID
  5
217
330
9
100
AcDbSymbolTableRecord
100
AcDbRegAppTableRecord
  2
ACAD_NAV_VCDISPLAY
 70
     0
  0
ENDTAB
  0
TABLE
  2
DIMSTYLE
  5
A
330
0
100
AcDbSymbolTable
 70
     1
100
AcDbDimStyleTable
 71
     0
  0
DIMSTYLE
105
27
330
A
100
AcDbSymbolTableRecord
100
AcDbDimStyleTableRecord
  2
ISO-25
 70
     0
 41
2.5
 42
0.625
 43
3.75
 44
1.25
 73
     0
 74
     0
 77
     1
 78
     8
140
2.5
141
2.5
143
0.03937007874016
147
0.625
171
     3
172
     1
271
     2
272
     2
274
     3
278
    44
283
     0
284
     8
340
11
  0
ENDTAB
  0
TABLE
  2
BLOCK_RECORD
  5
1
330
0
100
AcDbSymbolTable
 70
     7
  0
BLOCK_RECORD
  5
1F
102
{ACAD_XDICTIONARY
360
1CE
102
}
330
1
100
AcDbSymbolTableRecord
100
AcDbBlockTableRecord
  2
*Model_Space
340
22
  0
BLOCK_RECORD
  5
D2
102
{ACAD_XDICTIONARY
360
89D
102
}
330
1
100
AcDbSymbolTableRecord
100
AcDbBlockTableRecord
  2
*Paper_Space
340
D3
  0
BLOCK_RECORD
  5
D6
102
{ACAD_XDICTIONARY
360
89F
102
}
330
1
100
AcDbSymbolTableRecord
100
AcDbBlockTableRecord
  2
*Paper_Space0
340
D7
  0
BLOCK_RECORD
  5
5E7
330
1
100
AcDbSymbolTableRecord
100
AcDbBlockTableRecord
  2
SPR100_140-Front
340
0
102
{BLKREFS
331
893
102
}
  0
BLOCK_RECORD
  5
661
330
1
100
AcDbSymbolTableRecord
100
AcDbBlockTableRecord
  2
SPR100_140-Left
340
0
102
{BLKREFS
331
894
102
}
  0
BLOCK_RECORD
  5
69A
330
1
100
AcDbSymbolTableRecord
100
AcDbBlockTableRecord
  2
SPR100_140-Right
340
0
102
{BLKREFS
331
895
102
}
  0
BLOCK_RECORD
  5
6D5
330
1
100
AcDbSymbolTableRecord
100
AcDbBlockTableRecord
  2
SPR100_140-Top
340
0
102
{BLKREFS
331
896
102
}
  0
BLOCK_RECORD
  5
73B
330
1
100
AcDbSymbolTableRecord
100
AcDbBlockTableRecord
  2
SPR100_140-Bottom
340
0
102
{BLKREFS
331
897
102
}
  0
BLOCK_RECORD
  5
799
330
1
100
AcDbSymbolTableRecord
100
AcDbBlockTableRecord
  2
SPR100_140-ISO
340
0
102
{BLKREFS
331
898
102
}
  0
ENDTAB
  0
ENDSEC
  0
SECTION
  2
BLOCKS
  0
BLOCK
  5
20
330
1F
100
AcDbEntity
  8
0
100
AcDbBlockBegin
  2
*Model_Space
 70
     0
 10
0.0
 20
0.0
 30
0.0
  3
*Model_Space
  1

  0
ENDBLK
  5
21
330
1F
100
AcDbEntity
  8
0
100
AcDbBlockEnd
  0
BLOCK
  5
D4
330
D2
100
AcDbEntity
 67
     1
  8
0
100
AcDbBlockBegin
  2
*Paper_Space
 70
     0
 10
0.0
 20
0.0
 30
0.0
  3
*Paper_Space
  1

  0
ENDBLK
  5
D5
330
D2
100
AcDbEntity
 67
     1
  8
0
100
AcDbBlockEnd
  0
BLOCK
  5
D8
330
D6
100
AcDbEntity
 67
     1
  8
0
100
AcDbBlockBegin
  2
*Paper_Space0
 70
     0
 10
0.0
 20
0.0
 30
0.0
  3
*Paper_Space0
  1

  0
ENDBLK
  5
D9
330
D6
100
AcDbEntity
 67
     1
  8
0
100
AcDbBlockEnd
  0
BLOCK
  5
5E8
330
5E7
100
AcDbEntity
  8
0
100
AcDbBlockBegin
  2
SPR100_140-Front
 70
     0
 10
0.0
 20
0.0
 30
0.0
  3
SPR100_140-Front
  1

  0
LINE
  5
5EA
330
5E7
100
AcDbEntity
  8
0
100
AcDbLine
 10
92.52709056099996
 20
6.269999999999996
 30
0.0
 11
87.52709056099996
 21
1.269999999999996
 31
0.0
  0
LINE
  5
5EB
330
5E7
100
AcDbEntity
  8
0
100
AcDbLine
 10
-87.527090561
 20
1.269999999999996
 30
0.0
 11
-92.527090561
 21
6.269999999999996
 31
0.0
  0
LINE
  5
5EC
330
5E7
100
AcDbEntity
  8
0
100
AcDbLine
 10
-92.527090561
 20
72.26999999999998
 30
0.0
 11
-87.52709056100002
 21
77.26999999999998
 31
0.0
  0
LINE
  5
5ED
330
5E7
100
AcDbEntity
  8
0
100
AcDbLine
 10
87.52709056099996
 20
77.27000000000001
 30
0.0
 11
92.527090561
 21
72.27000000000001
 31
0.0
  0
LINE
  5
5EE
330
5E7
100
AcDbEntity
  8
0
100
AcDbLine
 10
92.527090561
 20
72.27000000000001
 30
0.0
 11
92.52709056099996
 21
6.269999999999997
 31
0.0
  0
LINE
  5
5EF
330
5E7
100
AcDbEntity
  8
0
100
AcDbLine
 10
-92.527090561
 20
6.269999999999996
 30
0.0
 11
-92.527090561
 21
72.26999999999998
 31
0.0
  0
LINE
  5
5F0
330
5E7
100
AcDbEntity
  8
0
100
AcDbLine
 10
46.49999999999997
 20
77.27000000000001
 30
0.0
 11
87.52709056099996
 21
77.27000000000001
 31
0.0
  0
LINE
  5
5F1
330
5E7
100
AcDbEntity
  8
0
100
AcDbLine
 10
-46.50000000000002
 20
1.269999999999987
 30
0.0
 11
-87.527090561
 21
1.269999999999996
 31
0.0
  0
LINE
  5
5F2
330
5E7
100
AcDbEntity
  8
0
100
AcDbLine
 10
87.52709056099996
 20
1.269999999999996
 30
0.0
 11
46.49999999999997
 21
1.269999999999987
 31
0.0
  0
ARC
  5
5F3
330
5E7
100
AcDbEntity
  8
0
100
AcDbCircle
 10
46.49999999999997
 20
78.77000000000001
 30
0.0
 40
1.5
100
AcDbArc
 50
90.0
 51
270.0
  0
LINE
  5
5F4
330
5E7
100
AcDbEntity
  8
0
100
AcDbLine
 10
-87.52709056100002
 20
77.26999999999998
 30
0.0
 11
-46.50000000000002
 21
77.26999999999998
 31
0.0
  0
ARC
  5
5F5
330
5E7
100
AcDbEntity
  8
0
100
AcDbCircle
 10
-46.50000000000002
 20
78.76999999999998
 30
0.0
 40
1.5
100
AcDbArc
 50
270.0
 51
90.0
  0
LINE
  5
5F6
330
5E7
100
AcDbEntity
  8
0
100
AcDbLine
 10
51.50000000000019
 20
80.26999999999999
 30
0.0
 11
51.50000000000023
 21
85.27000000000001
 31
0.0
  0
LINE
  5
5F7
330
5E7
100
AcDbEntity
  8
0
100
AcDbLine
 10
51.50000000000023
 20
85.27000000000001
 30
0.0
 11
50.00000000000023
 21
85.27000000000001
 31
0.0
  0
LINE
  5
5F8
330
5E7
100
AcDbEntity
  8
0
100
AcDbLine
 10
50.00000000000023
 20
85.27000000000001
 30
0.0
 11
50.00000000000021
 21
80.26999999999999
 31
0.0
  0
LINE
  5
5F9
330
5E7
100
AcDbEntity
  8
0
100
AcDbLine
 10
50.00000000000021
 20
80.26999999999999
 30
0.0
 11
51.50000000000019
 21
80.26999999999999
 31
0.0
  0
LINE
  5
5FA
330
5E7
100
AcDbEntity
  8
0
100
AcDbLine
 10
50.00000000000023
 20
135.67
 30
0.0
 11
51.50000000000023
 21
135.67
 31
0.0
  0
LINE
  5
5FB
330
5E7
100
AcDbEntity
  8
0
100
AcDbLine
 10
51.50000000000023
 20
135.67
 30
0.0
 11
51.5000000000002
 21
140.67
 31
0.0
  0
LINE
  5
5FC
330
5E7
100
AcDbEntity
  8
0
100
AcDbLine
 10
-51.50000000000002
 20
85.27000000000001
 30
0.0
 11
-51.50000000000002
 21
80.26999999999999
 31
0.0
  0
LINE
  5
5FD
330
5E7
100
AcDbEntity
  8
0
100
AcDbLine
 10
-51.50000000000002
 20
80.26999999999999
 30
0.0
 11
-50.0
 21
80.26999999999999
 31
0.0
  0
LINE
  5
5FE
330
5E7
100
AcDbEntity
  8
0
100
AcDbLine
 10
-50.0
 20
80.26999999999999
 30
0.0
 11
-50.0
 21
85.27000000000001
 31
0.0
  0
LINE
  5
5FF
330
5E7
100
AcDbEntity
  8
0
100
AcDbLine
 10
-50.0
 20
85.27000000000001
 30
0.0
 11
-51.50000000000002
 21
85.27000000000001
 31
0.0
  0
LINE
  5
600
330
5E7
100
AcDbEntity
  8
0
100
AcDbLine
 10
-51.50000000000002
 20
140.67
 30
0.0
 11
-51.50000000000002
 21
135.67
 31
0.0
  0
LINE
  5
601
330
5E7
100
AcDbEntity
  8
0
100
AcDbLine
 10
-51.50000000000002
 20
135.67
 30
0.0
 11
-50.0
 21
135.67
 31
0.0
  0
LINE
  5
602
330
5E7
100
AcDbEntity
  8
0
100
AcDbLine
 10
51.5000000000002
 20
140.67
 30
0.0
 11
50.00000000000021
 21
140.67
 31
0.0
  0
LINE
  5
603
330
5E7
100
AcDbEntity
  8
0
100
AcDbLine
 10
50.00000000000021
 20
140.67
 30
0.0
 11
50.00000000000023
 21
135.67
 31
0.0
  0
LINE
  5
604
330
5E7
100
AcDbEntity
  8
0
100
AcDbLine
 10
-50.0
 20
135.67
 30
0.0
 11
-50.0
 21
140.67
 31
0.0
  0
LINE
  5
605
330
5E7
100
AcDbEntity
  8
0
100
AcDbLine
 10
-50.0
 20
140.67
 30
0.0
 11
-51.50000000000002
 21
140.67
 31
0.0
  0
LINE
  5
606
330
5E7
100
AcDbEntity
  8
0
100
AcDbLine
 10
51.49999999999997
 20
-28.42608254450011
 30
0.0
 11
51.49999999999999
 21
-21.35501473263468
 31
0.0
  0
LINE
  5
607
330
5E7
100
AcDbEntity
  8
0
100
AcDbLine
 10
51.49999999999999
 20
-21.35501473263468
 30
0.0
 11
50.0
 21
-21.35501473263467
 31
0.0
  0
LINE
  5
608
330
5E7
100
AcDbEntity
  8
0
100
AcDbLine
 10
50.0
 20
-21.35501473263467
 30
0.0
 11
50.0
 21
-28.42608254450011
 31
0.0
  0
LINE
  5
609
330
5E7
100
AcDbEntity
  8
0
100
AcDbLine
 10
50.0
 20
-28.42608254450011
 30
0.0
 11
51.49999999999997
 21
-28.42608254450011
 31
0.0
  0
LINE
  5
60A
330
5E7
100
AcDbEntity
  8
0
100
AcDbLine
 10
-51.49999999999999
 20
-21.35501473263468
 30
0.0
 11
-51.49999999999997
 21
-28.42608254450011
 31
0.0
  0
LINE
  5
60B
330
5E7
100
AcDbEntity
  8
0
100
AcDbLine
 10
-51.49999999999997
 20
-28.42608254450011
 30
0.0
 11
-50.0
 21
-28.42608254450011
 31
0.0
  0
LINE
  5
60C
330
5E7
100
AcDbEntity
  8
0
100
AcDbLine
 10
-50.0
 20
-28.42608254450011
 30
0.0
 11
-50.0
 21
-21.35501473263467
 31
0.0
  0
LINE
  5
60D
330
5E7
100
AcDbEntity
  8
0
100
AcDbLine
 10
-50.0
 20
-21.35501473263467
 30
0.0
 11
-51.49999999999999
 21
-21.35501473263468
 31
0.0
  0
LINE
  5
60E
330
5E7
100
AcDbEntity
  8
0
100
AcDbLine
 10
51.50000000000023
 20
85.27000000000001
 30
0.0
 11
51.50000000000023
 21
135.67
 31
0.0
  0
LINE
  5
60F
330
5E7
100
AcDbEntity
  8
0
100
AcDbLine
 10
50.00000000000023
 20
135.67
 30
0.0
 11
50.00000000000023
 21
85.27000000000001
 31
0.0
  0
LINE
  5
610
330
5E7
100
AcDbEntity
  8
0
100
AcDbLine
 10
-51.50000000000002
 20
135.67
 30
0.0
 11
-51.50000000000002
 21
85.27000000000001
 31
0.0
  0
LINE
  5
611
330
5E7
100
AcDbEntity
  8
0
100
AcDbLine
 10
-50.0
 20
135.67
 30
0.0
 11
-50.0
 21
85.27000000000001
 31
0.0
  0
LINE
  5
612
330
5E7
100
AcDbEntity
  8
0
100
AcDbLine
 10
46.49999999999997
 20
80.27000000000001
 30
0.0
 11
49.39999999999998
 21
80.26999999999999
 31
0.0
  0
LINE
  5
613
330
5E7
100
AcDbEntity
  8
0
100
AcDbLine
 10
-49.40000000000002
 20
80.26999999999999
 30
0.0
 11
-46.50000000000002
 21
80.26999999999999
 31
0.0
  0
LINE
  5
614
330
5E7
100
AcDbEntity
  8
0
100
AcDbLine
 10
-49.40000000000002
 20
140.67
 30
0.0
 11
49.39999999999998
 21
140.67
 31
0.0
  0
LINE
  5
615
330
5E7
100
AcDbEntity
  8
0
100
AcDbLine
 10
51.50000000000234
 20
-2.263131642256747
 30
0.0
 11
51.49999999999999
 21
-21.35501473263468
 31
0.0
  0
LINE
  5
616
330
5E7
100
AcDbEntity
  8
0
100
AcDbLine
 10
50.00000000000195
 20
-2.263131642256747
 30
0.0
 11
50.0
 21
-21.35501473263467
 31
0.0
  0
ELLIPSE
  5
617
330
5E7
100
AcDbEntity
  8
0
100
AcDbEllipse
 10
49.39999999999999
 20
-54.16476937947051
 30
0.0
 11
0.6000000000000087
 21
0.0000000000001113
 31
0.0
210
0.0
220
0.0
230
1.0
 40
0.7071067811866067
 41
4.712388980384544
 42
6.283185307179551
  0
ELLIPSE
  5
618
330
5E7
100
AcDbEntity
  8
0
100
AcDbEllipse
 10
49.39999999999999
 20
-54.16476937947051
 30
0.0
 11
2.100000000000031
 21
0.0000000000002842
 31
0.0
210
0.0
220
0.0
230
1.0
 40
0.7071067811865434
 41
4.712388980384822
 42
6.283185307180016
  0
LINE
  5
619
330
5E7
100
AcDbEntity
  8
0
100
AcDbLine
 10
51.50000000000234
 20
-2.263131642256747
 30
0.0
 11
50.00000000000195
 21
-2.263131642256747
 31
0.0
  0
ELLIPSE
  5
61A
330
5E7
100
AcDbEntity
  8
0
100
AcDbEllipse
 10
-46.50000000000002
 20
0.0236058844764062
 30
0.0
 11
-1.5
 21
0.0000000000001095
 31
0.0
210
0.0
220
0.0
230
1.0
 40
0.7071067811865479
 41
1.570796326795026
 42
2.705254581962137
  0
LINE
  5
61B
330
5E7
100
AcDbEntity
  8
0
100
AcDbLine
 10
-46.50000000000002
 20
-1.037054287303415
 30
0.0
 11
-48.79315533855965
 21
-1.037054287303428
 31
0.0
  0
LINE
  5
61C
330
5E7
100
AcDbEntity
  8
0
100
AcDbLine
 10
-48.79315533855965
 20
-1.037054287303428
 30
0.0
 11
-49.40000000000002
 21
-1.466158262545974
 31
0.0
  0
LINE
  5
61D
330
5E7
100
AcDbEntity
  8
0
100
AcDbLine
 10
49.39999999999998
 20
-1.466158262545978
 30
0.0
 11
48.79315533855962
 21
-1.037054287303432
 31
0.0
  0
LINE
  5
61E
330
5E7
100
AcDbEntity
  8
0
100
AcDbLine
 10
48.79315533855962
 20
-1.037054287303432
 30
0.0
 11
46.49999999999997
 21
-1.037054287303419
 31
0.0
  0
ELLIPSE
  5
61F
330
5E7
100
AcDbEntity
  8
0
100
AcDbEllipse
 10
46.49999999999997
 20
0.0236058844764062
 30
0.0
 11
-1.5
 21
0.0
 31
0.0
210
0.0
220
0.0
230
1.0
 40
0.7071067811865479
 41
0.4363380716279029
 42
1.570796326794896
  0
SPLINE
  5
620
330
5E7
100
AcDbEntity
  8
0
100
AcDbSpline
210
0.0
220
0.0
230
1.0
 70
     8
 71
     3
 72
     8
 73
     4
 74
     0
 42
0.000000001
 43
0.0000000001
 40
-1.0
 40
-1.0
 40
-1.0
 40
-1.0
 40
0.0
 40
0.0
 40
0.0
 40
0.0
 10
45.14054197002045
 20
-0.4246540092928796
 30
0.0
 10
45.01586474390284
 20
-0.3214850446752982
 30
0.0
 10
44.97251992074146
 20
-0.1594792109354491
 30
0.0
 10
45.01767776087191
 20
-0.0003899405809508
 30
0.0
  0
SPLINE
  5
621
330
5E7
100
AcDbEntity
  8
0
100
AcDbSpline
210
0.0
220
0.0
230
1.0
 70
     8
 71
     3
 72
     8
 73
     4
 74
     0
 42
0.000000001
 43
0.0000000001
 40
-1.0
 40
-1.0
 40
-1.0
 40
-1.0
 40
0.0
 40
0.0
 40
0.0
 40
0.0
 10
-45.01767776087199
 20
-0.0003899405809507
 30
0.0
 10
-44.97251992073876
 20
-0.1594792109354459
 30
0.0
 10
-45.01586474390141
 20
-0.3214850446752977
 30
0.0
 10
-45.14054197002046
 20
-0.4246540092928796
 30
0.0
  0
LINE
  5
622
330
5E7
100
AcDbEntity
  8
0
100
AcDbLine
 10
-49.99999999999842
 20
-2.263131642256725
 30
0.0
 11
-51.49999999999828
 21
-2.263131642256725
 31
0.0
  0
SPLINE
  5
623
330
5E7
100
AcDbEntity
  8
0
100
AcDbSpline
210
0.0
220
0.0
230
1.0
 70
     8
 71
     3
 72
     8
 73
     4
 74
     0
 42
0.000000001
 43
0.0000000001
 40
-1.0
 40
-1.0
 40
-1.0
 40
-1.0
 40
0.0
 40
0.0
 40
0.0
 40
0.0
 10
-49.40000000000002
 20
-1.466158262545966
 30
0.0
 10
-49.714159265359
 20
-1.873237411765097
 30
0.0
 10
-50.0
 20
-2.078196639180746
 30
0.0
 10
-50.0
 20
-2.263131641492208
 30
0.0
  0
ARC
  5
624
330
5E7
100
AcDbEntity
  8
0
100
AcDbCircle
 10
-46.50000000000002
 20
-0.2299999999999986
 30
0.0
 40
1.5
100
AcDbArc
 50
8.805075259701309
 51
90.0
  0
SPLINE
  5
625
330
5E7
100
AcDbEntity
  8
0
100
AcDbSpline
210
0.0
220
0.0
230
1.0
 70
     8
 71
     3
 72
     8
 73
     4
 74
     0
 42
0.000000001
 43
0.0000000001
 40
-1.0
 40
-1.0
 40
-1.0
 40
-1.0
 40
0.0
 40
0.0
 40
0.0
 40
0.0
 10
50.0
 20
-2.263131641492203
 30
0.0
 10
50.0
 20
-2.078196639180645
 30
0.0
 10
49.71415926535897
 20
-1.873237411765248
 30
0.0
 10
49.39999999999998
 20
-1.466158262545975
 30
0.0
  0
ARC
  5
626
330
5E7
100
AcDbEntity
  8
0
100
AcDbCircle
 10
46.49999999999997
 20
-0.2299999999999986
 30
0.0
 40
1.5
100
AcDbArc
 50
90.0
 51
171.1949247402987
  0
SPLINE
  5
627
330
5E7
100
AcDbEntity
  8
0
100
AcDbSpline
210
0.0
220
0.0
230
1.0
 70
     8
 71
     3
 72
    16
 73
    12
 74
     0
 42
0.000000001
 43
0.0000000001
 40
0.0
 40
0.0
 40
0.0
 40
0.0
 40
0.0356537247133478
 40
0.0356537247133478
 40
0.0703704956345432
 40
0.0703704956345432
 40
0.1051345640019431
 40
0.1051345640019431
 40
0.1398962718582752
 40
0.1398962718582752
 40
0.153888573313952
 40
0.153888573313952
 40
0.153888573313952
 40
0.153888573313952
 10
-50.49949999999992
 20
-2.263131641492174
 30
0.0
 10
-50.4995000000002
 20
-2.263131641490645
 30
0.0
 10
-50.47955867541432
 20
-2.263059951015114
 30
0.0
 10
-50.40583172174139
 20
-2.250836451221792
 30
0.0
 10
-50.35213458032835
 20
-2.238741830476764
 30
0.0
 10
-50.22293730435763
 20
-2.194102190410454
 30
0.0
 10
-50.1459198544044
 20
-2.160888677256429
 30
0.0
 10
-49.98574064097508
 20
-2.069479202623685
 30
0.0
 10
-49.9007365526505
 20
-2.010107098297414
 30
0.0
 10
-49.78901418352539
 20
-1.909831885185739
 30
0.0
 10
-49.75758437993953
 20
-1.878943669892243
 30
0.0
 10
-49.72742155524385
 20
-1.846191951394238
 30
0.0
  0
SPLINE
  5
628
330
5E7
100
AcDbEntity
  8
0
100
AcDbSpline
210
0.0
220
0.0
230
1.0
 70
     8
 71
     3
 72
    16
 73
    12
 74
     0
 42
0.000000001
 43
0.0000000001
 40
0.0
 40
0.0
 40
0.0
 40
0.0
 40
0.0356266149314349
 40
0.0356266149314349
 40
0.0703447701783557
 40
0.0703447701783557
 40
0.1051087694973208
 40
0.1051087694973208
 40
0.1398704808026053
 40
0.1398704808026053
 40
0.1538888647030432
 40
0.1538888647030432
 40
0.1538888647030432
 40
0.1538888647030432
 10
49.72742155524385
 20
-1.84619195139426
 30
0.0
 10
49.80422088265132
 20
-1.929583012326504
 30
0.0
 10
49.8899961512935
 20
-2.001172959726233
 30
0.0
 10
50.05564046640935
 20
-2.11326652325779
 30
0.0
 10
50.13750261648225
 20
-2.155953002272206
 30
0.0
 10
50.28182181889886
 20
-2.217016702987093
 30
0.0
 10
50.34591305088312
 20
-2.236189491808464
 30
0.0
 10
50.4423822326467
 20
-2.258395304185748
 30
0.0
 10
50.47587215056601
 20
-2.26181117486677
 30
0.0
 10
50.49650501536259
 20
-2.263130971916393
 30
0.0
 10
50.49950000000015
 20
-2.263131641491602
 30
0.0
 10
50.49950000000023
 20
-2.263131641492212
 30
0.0
  0
LINE
  5
629
330
5E7
100
AcDbEntity
  8
0
100
AcDbLine
 10
51.49999999999999
 20
-54.16476937947052
 30
0.0
 11
51.49999999999997
 21
-28.42608254450011
 31
0.0
  0
LINE
  5
62A
330
5E7
100
AcDbEntity
  8
0
100
AcDbLine
 10
-51.49999999999997
 20
-28.42608254450011
 30
0.0
 11
-51.50000000000002
 21
-54.16476937947052
 31
0.0
  0
LINE
  5
62B
330
5E7
100
AcDbEntity
  8
0
100
AcDbLine
 10
-50.0
 20
-28.42608254450011
 30
0.0
 11
-50.0
 21
-54.16476937947052
 31
0.0
  0
LINE
  5
62C
330
5E7
100
AcDbEntity
  8
0
100
AcDbLine
 10
-49.40000000000001
 20
-54.58903344818243
 30
0.0
 11
49.39999999999999
 21
-54.58903344818243
 31
0.0
  0
LINE
  5
62D
330
5E7
100
AcDbEntity
  8
0
100
AcDbLine
 10
50.0
 20
-54.16476937947052
 30
0.0
 11
50.0
 21
-28.42608254450011
 31
0.0
  0
LINE
  5
62E
330
5E7
100
AcDbEntity
  8
0
100
AcDbLine
 10
-49.40000000000001
 20
-55.64969361996226
 30
0.0
 11
49.39999999999999
 21
-55.64969361996226
 31
0.0
  0
LINE
  5
62F
330
5E7
100
AcDbEntity
  8
0
100
AcDbLine
 10
-51.49999999999828
 20
-2.263131642256725
 30
0.0
 11
-51.49999999999999
 21
-21.35501473263468
 31
0.0
  0
LINE
  5
630
330
5E7
100
AcDbEntity
  8
0
100
AcDbLine
 10
-49.99999999999842
 20
-2.263131642256725
 30
0.0
 11
-50.0
 21
-21.35501473263467
 31
0.0
  0
CIRCLE
  5
631
330
5E7
100
AcDbEntity
  8
0
100
AcDbCircle
 10
39.99999999999998
 20
109.7699999999999
 30
0.0
 40
2.5
  0
CIRCLE
  5
632
330
5E7
100
AcDbEntity
  8
0
100
AcDbCircle
 10
39.99999999999998
 20
69.76999999999996
 30
0.0
 40
2.5
  0
CIRCLE
  5
633
330
5E7
100
AcDbEntity
  8
0
100
AcDbCircle
 10
39.99999999999998
 20
29.76999999999997
 30
0.0
 40
2.5
  0
CIRCLE
  5
634
330
5E7
100
AcDbEntity
  8
0
100
AcDbCircle
 10
29.99999999999997
 20
129.77
 30
0.0
 40
2.5
  0
CIRCLE
  5
635
330
5E7
100
AcDbEntity
  8
0
100
AcDbCircle
 10
29.99999999999997
 20
89.76999999999996
 30
0.0
 40
2.5
  0
CIRCLE
  5
636
330
5E7
100
AcDbEntity
  8
0
100
AcDbCircle
 10
29.99999999999997
 20
49.76999999999996
 30
0.0
 40
2.5
  0
CIRCLE
  5
637
330
5E7
100
AcDbEntity
  8
0
100
AcDbCircle
 10
29.99999999999997
 20
9.769999999999965
 30
0.0
 40
2.5
  0
CIRCLE
  5
638
330
5E7
100
AcDbEntity
  8
0
100
AcDbCircle
 10
-30.00000000000002
 20
109.77
 30
0.0
 40
2.5
  0
CIRCLE
  5
639
330
5E7
100
AcDbEntity
  8
0
100
AcDbCircle
 10
-30.00000000000002
 20
69.76999999999998
 30
0.0
 40
2.5
  0
CIRCLE
  5
63A
330
5E7
100
AcDbEntity
  8
0
100
AcDbCircle
 10
-30.00000000000002
 20
29.76999999999998
 30
0.0
 40
2.5
  0
CIRCLE
  5
63B
330
5E7
100
AcDbEntity
  8
0
100
AcDbCircle
 10
-40.00000000000002
 20
129.77
 30
0.0
 40
2.5
  0
CIRCLE
  5
63C
330
5E7
100
AcDbEntity
  8
0
100
AcDbCircle
 10
-40.00000000000002
 20
89.76999999999998
 30
0.0
 40
2.5
  0
CIRCLE
  5
63D
330
5E7
100
AcDbEntity
  8
0
100
AcDbCircle
 10
-40.00000000000002
 20
49.76999999999998
 30
0.0
 40
2.5
  0
CIRCLE
  5
63E
330
5E7
100
AcDbEntity
  8
0
100
AcDbCircle
 10
-40.00000000000002
 20
9.769999999999983
 30
0.0
 40
2.5
  0
CIRCLE
  5
63F
330
5E7
100
AcDbEntity
  8
0
100
AcDbCircle
 10
-63.02709056100001
 20
69.76999999999998
 30
0.0
 40
2.5
  0
CIRCLE
  5
640
330
5E7
100
AcDbEntity
  8
0
100
AcDbCircle
 10
57.02709056099995
 20
69.76999999999996
 30
0.0
 40
2.5
  0
CIRCLE
  5
641
330
5E7
100
AcDbEntity
  8
0
100
AcDbCircle
 10
-57.02709056099999
 20
29.76999999999999
 30
0.0
 40
2.5
  0
CIRCLE
  5
642
330
5E7
100
AcDbEntity
  8
0
100
AcDbCircle
 10
63.02709056099996
 20
29.76999999999998
 30
0.0
 40
2.5
  0
ELLIPSE
  5
643
330
5E7
100
AcDbEntity
  8
0
100
AcDbEllipse
 10
-17.50000000000001
 20
0.0236058844764062
 30
0.0
 11
-2.5
 21
0.0
 31
0.0
210
0.0
220
0.0
230
1.0
 40
0.7071067811865479
 41
0.2563733270184487
 42
1.570796326794896
  0
LINE
  5
644
330
5E7
100
AcDbEntity
  8
0
100
AcDbLine
 10
-12.50000000000001
 20
-1.744161068489974
 30
0.0
 11
-17.50000000000001
 21
-1.744161068489974
 31
0.0
  0
ELLIPSE
  5
645
330
5E7
100
AcDbEntity
  8
0
100
AcDbEllipse
 10
-12.50000000000001
 20
0.0236058844764063
 30
0.0
 11
2.5
 21
-0.0000000000000006
 31
0.0
210
0.0
220
0.0
230
1.0
 40
0.7071067811865479
 41
4.712388980384689
 42
6.026811980161138
  0
SPLINE
  5
646
330
5E7
100
AcDbEntity
  8
0
100
AcDbSpline
210
0.0
220
0.0
230
1.0
 70
     8
 71
     3
 72
     8
 73
     4
 74
     0
 42
0.000000001
 43
0.0000000001
 40
-1.0
 40
-1.0
 40
-1.0
 40
-1.0
 40
0.0
 40
0.0
 40
0.0
 40
0.0
 10
-19.91828991960765
 20
-0.4246540092928793
 30
0.0
 10
-19.99189972301985
 20
-0.3163012038324994
 30
0.0
 10
-20.01609483643937
 20
-0.1581319339738438
 30
0.0
 10
-19.98943351399745
 20
-0.0003899405809506
 30
0.0
  0
SPLINE
  5
647
330
5E7
100
AcDbEntity
  8
0
100
AcDbSpline
210
0.0
220
0.0
230
1.0
 70
     8
 71
     3
 72
     8
 73
     4
 74
     0
 42
0.000000001
 43
0.0000000001
 40
-1.0
 40
-1.0
 40
-1.0
 40
-1.0
 40
0.0
 40
0.0
 40
0.0
 40
0.0
 10
-10.01056648600259
 20
-0.0003899405809504
 30
0.0
 10
-9.983905163560532
 20
-0.1581319339738713
 30
0.0
 10
-10.00810027698007
 20
-0.3163012038325279
 30
0.0
 10
-10.08171008039238
 20
-0.4246540092928794
 30
0.0
  0
ARC
  5
648
330
5E7
100
AcDbEntity
  8
0
100
AcDbCircle
 10
-12.50000000000001
 20
-0.2299999999999986
 30
0.0
 40
2.5
100
AcDbArc
 50
5.269701326164559
 51
90.0
  0
LINE
  5
649
330
5E7
100
AcDbEntity
  8
0
100
AcDbLine
 10
-17.50000000000001
 20
2.270000000000001
 30
0.0
 11
-12.50000000000001
 21
2.270000000000001
 31
0.0
  0
ARC
  5
64A
330
5E7
100
AcDbEntity
  8
0
100
AcDbCircle
 10
-17.50000000000001
 20
-0.2299999999999986
 30
0.0
 40
2.5
100
AcDbArc
 50
90.0
 51
174.7302986738354
  0
ELLIPSE
  5
64B
330
5E7
100
AcDbEntity
  8
0
100
AcDbEllipse
 10
12.49999999999998
 20
0.0236058844764062
 30
0.0
 11
-2.5
 21
0.0
 31
0.0
210
0.0
220
0.0
230
1.0
 40
0.7071067811865479
 41
0.2563733270184487
 42
1.570796326794896
  0
LINE
  5
64C
330
5E7
100
AcDbEntity
  8
0
100
AcDbLine
 10
17.49999999999998
 20
-1.744161068489975
 30
0.0
 11
12.49999999999998
 21
-1.744161068489975
 31
0.0
  0
ELLIPSE
  5
64D
330
5E7
100
AcDbEntity
  8
0
100
AcDbEllipse
 10
17.49999999999998
 20
0.023605884476406
 30
0.0
 11
2.499999999999999
 21
-0.0000000000000005
 31
0.0
210
0.0
220
0.0
230
1.0
 40
0.7071067811865479
 41
4.712388980384689
 42
6.026811980161137
  0
SPLINE
  5
64E
330
5E7
100
AcDbEntity
  8
0
100
AcDbSpline
210
0.0
220
0.0
230
1.0
 70
     8
 71
     3
 72
     8
 73
     4
 74
     0
 42
0.000000001
 43
0.0000000001
 40
-1.0
 40
-1.0
 40
-1.0
 40
-1.0
 40
0.0
 40
0.0
 40
0.0
 40
0.0
 10
10.08171008039234
 20
-0.4246540092928794
 30
0.0
 10
10.00810027697994
 20
-0.3163012038325243
 30
0.0
 10
9.983905163560503
 20
-0.1581319339738665
 30
0.0
 10
10.01056648600256
 20
-0.0003899405809504
 30
0.0
  0
SPLINE
  5
64F
330
5E7
100
AcDbEntity
  8
0
100
AcDbSpline
210
0.0
220
0.0
230
1.0
 70
     8
 71
     3
 72
     8
 73
     4
 74
     0
 42
0.000000001
 43
0.0000000001
 40
-1.0
 40
-1.0
 40
-1.0
 40
-1.0
 40
0.0
 40
0.0
 40
0.0
 40
0.0
 10
19.98943351399741
 20
-0.0003899405809506
 30
0.0
 10
20.01609483643914
 20
-0.1581319339738321
 30
0.0
 10
19.99189972302027
 20
-0.3163012038325029
 30
0.0
 10
19.91828991960761
 20
-0.4246540092928792
 30
0.0
  0
ARC
  5
650
330
5E7
100
AcDbEntity
  8
0
100
AcDbCircle
 10
17.49999999999998
 20
-0.2299999999999986
 30
0.0
 40
2.5
100
AcDbArc
 50
5.269701326164559
 51
90.0
  0
LINE
  5
651
330
5E7
100
AcDbEntity
  8
0
100
AcDbLine
 10
12.49999999999998
 20
2.270000000000001
 30
0.0
 11
17.49999999999998
 21
2.270000000000001
 31
0.0
  0
ARC
  5
652
330
5E7
100
AcDbEntity
  8
0
100
AcDbCircle
 10
12.49999999999998
 20
-0.2299999999999986
 30
0.0
 40
2.5
100
AcDbArc
 50
90.0
 51
174.7302986738354
  0
ELLIPSE
  5
653
330
5E7
100
AcDbEntity
  8
0
100
AcDbEllipse
 10
-32.50000000000002
 20
0.0236058844764062
 30
0.0
 11
2.5
 21
-0.0000000000000011
 31
0.0
210
0.0
220
0.0
230
1.0
 40
0.7071067811865478
 41
3.397965980608243
 42
6.026811980161136
  0
ELLIPSE
  5
654
330
5E7
100
AcDbEntity
  8
0
100
AcDbEllipse
 10
32.5
 20
0.0236058844764063
 30
0.0
 11
2.5
 21
-0.0000000000000006
 31
0.0
210
0.0
220
0.0
230
1.0
 40
0.7071067811865479
 41
3.397965980608241
 42
6.026811980161137
  0
SPLINE
  5
655
330
5E7
100
AcDbEntity
  8
0
100
AcDbSpline
210
0.0
220
0.0
230
1.0
 70
     8
 71
     3
 72
     8
 73
     4
 74
     0
 42
0.000000001
 43
0.0000000001
 40
-1.0
 40
-1.0
 40
-1.0
 40
-1.0
 40
0.0
 40
0.0
 40
0.0
 40
0.0
 10
30.08171008039236
 20
-0.4246540092928802
 30
0.0
 10
30.00810027698002
 20
-0.316301203832513
 30
0.0
 10
29.98390516356052
 20
-0.1581319339738749
 30
0.0
 10
30.01056648600258
 20
-0.0003899405809507
 30
0.0
  0
SPLINE
  5
656
330
5E7
100
AcDbEntity
  8
0
100
AcDbSpline
210
0.0
220
0.0
230
1.0
 70
     8
 71
     3
 72
     8
 73
     4
 74
     0
 42
0.000000001
 43
0.0000000001
 40
-1.0
 40
-1.0
 40
-1.0
 40
-1.0
 40
0.0
 40
0.0
 40
0.0
 40
0.0
 10
-30.01056648600259
 20
-0.0003899405809506
 30
0.0
 10
-29.9839051635604
 20
-0.1581319339738686
 30
0.0
 10
-30.00810027697977
 20
-0.3163012038324636
 30
0.0
 10
-30.08171008039236
 20
-0.4246540092928794
 30
0.0
  0
SPLINE
  5
657
330
5E7
100
AcDbEntity
  8
0
100
AcDbSpline
210
0.0
220
0.0
230
1.0
 70
     8
 71
     3
 72
     8
 73
     4
 74
     0
 42
0.000000001
 43
0.0000000001
 40
-1.0
 40
-1.0
 40
-1.0
 40
-1.0
 40
0.0
 40
0.0
 40
0.0
 40
0.0
 10
-34.91828991960765
 20
-0.4246540092928802
 30
0.0
 10
-34.99189972302045
 20
-0.3163012038325055
 30
0.0
 10
-35.01609483643911
 20
-0.1581319339738682
 30
0.0
 10
-34.98943351399745
 20
-0.0003899405809504
 30
0.0
  0
ARC
  5
658
330
5E7
100
AcDbEntity
  8
0
100
AcDbCircle
 10
-32.50000000000002
 20
-0.2299999999999986
 30
0.0
 40
2.499999999999999
100
AcDbArc
 50
5.269701326164559
 51
174.7302986738354
  0
SPLINE
  5
659
330
5E7
100
AcDbEntity
  8
0
100
AcDbSpline
210
0.0
220
0.0
230
1.0
 70
     8
 71
     3
 72
     8
 73
     4
 74
     0
 42
0.000000001
 43
0.0000000001
 40
-1.0
 40
-1.0
 40
-1.0
 40
-1.0
 40
0.0
 40
0.0
 40
0.0
 40
0.0
 10
34.9894335139974
 20
-0.0003899405809506
 30
0.0
 10
35.01609483643939
 20
-0.1581319339738738
 30
0.0
 10
34.99189972301838
 20
-0.3163012038324565
 30
0.0
 10
34.9182899196077
 20
-0.4246540092928796
 30
0.0
  0
ARC
  5
65A
330
5E7
100
AcDbEntity
  8
0
100
AcDbCircle
 10
32.5
 20
-0.2299999999999986
 30
0.0
 40
2.5
100
AcDbArc
 50
5.269701326164559
 51
174.7302986738354
  0
ELLIPSE
  5
65B
330
5E7
100
AcDbEntity
  8
0
100
AcDbEllipse
 10
-49.40000000000001
 20
-54.16476937947054
 30
0.0
 11
-2.09999999999998
 21
0.0000000000000056
 31
0.0
210
0.0
220
0.0
230
1.0
 40
0.7071067811865476
 41
0.0
 42
1.570796326794898
  0
ELLIPSE
  5
65C
330
5E7
100
AcDbEntity
  8
0
100
AcDbEllipse
 10
-49.40000000000001
 20
-54.16476937947054
 30
0.0
 11
-0.5999999999999587
 21
0.0000000000000266
 31
0.0
210
0.0
220
0.0
230
1.0
 40
0.7071067811865507
 41
0.0000000000001259
 42
1.570796326795002
  0
LINE
  5
65D
330
5E7
100
AcDbEntity
  8
0
100
AcDbLine
 10
49.39999999999998
 20
140.67
 30
0.0
 11
50.0
 21
140.67
 31
0.0
  0
LINE
  5
65E
330
5E7
100
AcDbEntity
  8
0
100
AcDbLine
 10
49.39999999999998
 20
80.26999999999999
 30
0.0
 11
50.0
 21
80.26999999999999
 31
0.0
  0
LINE
  5
65F
330
5E7
100
AcDbEntity
  8
0
100
AcDbLine
 10
-50.00000000000001
 20
140.67
 30
0.0
 11
-49.40000000000002
 21
140.67
 31
0.0
  0
LINE
  5
660
330
5E7
100
AcDbEntity
  8
0
100
AcDbLine
 10
-50.00000000000001
 20
80.26999999999999
 30
0.0
 11
-49.40000000000002
 21
80.26999999999999
 31
0.0
  0
ENDBLK
  5
5E9
330
5E7
100
AcDbEntity
  8
0
100
AcDbBlockEnd
  0
BLOCK
  5
662
330
661
100
AcDbEntity
  8
0
100
AcDbBlockBegin
  2
SPR100_140-Left
 70
     0
 10
0.0
 20
0.0
 30
0.0
  3
SPR100_140-Left
  1

  0
LINE
  5
664
330
661
100
AcDbEntity
  8
0
100
AcDbLine
 10
0.0
 20
-0.0003899405809516
 30
0.0
 11
0.0
 21
1.270000000000001
 31
0.0
  0
LINE
  5
665
330
661
100
AcDbEntity
  8
0
100
AcDbLine
 10
62.91118318265866
 20
-2.263131642256725
 30
0.0
 11
4.362741700911341
 21
-2.263131641492157
 31
0.0
  0
LINE
  5
666
330
661
100
AcDbEntity
  8
0
100
AcDbLine
 10
1.675735931288091
 20
-0.4246540092928777
 30
0.0
 11
2.288136209298629
 21
-1.037054287303415
 31
0.0
  0
LINE
  5
667
330
661
100
AcDbEntity
  8
0
100
AcDbLine
 10
2.288136209298623
 20
-1.037054287303428
 30
0.0
 11
2.717240184541169
 21
-1.466158262545974
 31
0.0
  0
SPLINE
  5
668
330
661
100
AcDbEntity
  8
0
100
AcDbSpline
210
0.0
220
0.0
230
1.0
 70
     8
 71
     3
 72
     8
 73
     4
 74
     0
 42
0.000000001
 43
0.0000000001
 40
0.0
 40
0.0
 40
0.0
 40
0.0
 40
1.0
 40
1.0
 40
1.0
 40
1.0
 10
0.615075759508272
 20
-1.485314181072701
 30
0.0
 10
0.2539843833467358
 20
-1.124222804911164
 30
0.0
 10
0.000000000000022
 20
-0.5572023868216841
 30
0.0
 10
0.0000000000000219
 20
-0.000389940580951
 30
0.0
  0
SPLINE
  5
669
330
661
100
AcDbEntity
  8
0
100
AcDbSpline
210
0.0
220
0.0
230
1.0
 70
     8
 71
     3
 72
     8
 73
     4
 74
     0
 42
0.000000001
 43
0.0000000001
 40
-1.0
 40
-1.0
 40
-1.0
 40
-1.0
 40
0.0
 40
0.0
 40
0.0
 40
0.0
 10
1.500000000000022
 20
-0.0003899405809507
 30
0.0
 10
1.500000000000022
 20
-0.1594792109354459
 30
0.0
 10
1.572566966670511
 20
-0.3214850446752977
 30
0.0
 10
1.675735931288093
 20
-0.4246540092928796
 30
0.0
  0
SPLINE
  5
66A
330
661
100
AcDbEntity
  8
0
100
AcDbSpline
210
0.0
220
0.0
230
1.0
 70
     8
 71
     3
 72
     8
 73
     4
 74
     0
 42
0.000000001
 43
0.0000000001
 40
-1.0
 40
-1.0
 40
-1.0
 40
-1.0
 40
0.0
 40
0.0
 40
0.0
 40
0.0
 10
2.717240184541183
 20
-1.466158262545966
 30
0.0
 10
3.124319333760314
 20
-1.873237411765097
 30
0.0
 10
3.733518404783984
 20
-2.078196639180746
 30
0.0
 10
4.36274170091128
 20
-2.263131641492208
 30
0.0
  0
LINE
  5
66B
330
661
100
AcDbEntity
  8
0
100
AcDbLine
 10
2.717240184541169
 20
-1.466158262545974
 30
0.0
 11
2.364040347339028
 21
-1.819358099748115
 31
0.0
  0
LINE
  5
66C
330
661
100
AcDbEntity
  8
0
100
AcDbLine
 10
2.364040347339028
 20
-1.819358099748115
 30
0.0
 11
1.656580012761347
 21
-2.526818434325795
 31
0.0
  0
SPLINE
  5
66D
330
661
100
AcDbEntity
  8
0
100
AcDbSpline
210
0.0
220
0.0
230
1.0
 70
     8
 71
     3
 72
     8
 73
     4
 74
     0
 42
0.000000001
 43
0.0000000001
 40
0.0
 40
0.0
 40
0.0
 40
0.0
 40
1.0
 40
1.0
 40
1.0
 40
1.0
 10
4.362741700911335
 20
-2.263131641492153
 30
0.0
 10
3.178158037514216
 20
-2.633557006450514
 30
0.0
 10
2.063659161980492
 20
-2.933897583544918
 30
0.0
 10
1.65658001276136
 20
-2.526818434325787
 30
0.0
  0
LINE
  5
66E
330
661
100
AcDbEntity
  8
0
100
AcDbLine
 10
1.656580012761347
 20
-2.526818434325795
 30
0.0
 11
1.227476037518805
 21
-2.097714459083244
 31
0.0
  0
LINE
  5
66F
330
661
100
AcDbEntity
  8
0
100
AcDbLine
 10
2.288136209298623
 20
-1.037054287303428
 30
0.0
 11
1.227476037518805
 21
-2.097714459083244
 31
0.0
  0
LINE
  5
670
330
661
100
AcDbEntity
  8
0
100
AcDbLine
 10
1.22747603751882
 20
-2.097714459083224
 30
0.0
 11
0.6150757595082823
 21
-1.485314181072686
 31
0.0
  0
LINE
  5
671
330
661
100
AcDbEntity
  8
0
100
AcDbLine
 10
1.675735931288093
 20
-0.4246540092928796
 30
0.0
 11
1.322536092804783
 21
-0.7778538477761893
 31
0.0
  0
LINE
  5
672
330
661
100
AcDbEntity
  8
0
100
AcDbLine
 10
1.322536092804783
 20
-0.7778538477761893
 30
0.0
 11
0.6150757595082722
 21
-1.485314181072701
 31
0.0
  0
LINE
  5
673
330
661
100
AcDbEntity
  8
0
100
AcDbLine
 10
1.500000000000007
 20
-0.0003899405809504
 30
0.0
 11
1.000499995402682
 21
-0.0003899405809504
 31
0.0
  0
LINE
  5
674
330
661
100
AcDbEntity
  8
0
100
AcDbLine
 10
1.000499995402682
 20
-0.0003899405809504
 30
0.0
 11
0.0
 21
-0.0003899405809504
 31
0.0
  0
LINE
  5
675
330
661
100
AcDbEntity
  8
0
100
AcDbLine
 10
1.500000000000004
 20
1.270000000000001
 30
0.0
 11
1.500000000000004
 21
-0.000389940580951
 31
0.0
  0
LINE
  5
676
330
661
100
AcDbEntity
  8
0
100
AcDbLine
 10
0.0
 20
6.269999999999996
 30
0.0
 11
0.0
 21
1.269999999999996
 31
0.0
  0
LINE
  5
677
330
661
100
AcDbEntity
  8
0
100
AcDbLine
 10
0.0
 20
77.26999999999998
 30
0.0
 11
0.0
 21
72.26999999999998
 31
0.0
  0
LINE
  5
678
330
661
100
AcDbEntity
  8
0
100
AcDbLine
 10
1.500000000000016
 20
1.269999999999996
 30
0.0
 11
1.500000000000017
 21
6.269999999999996
 31
0.0
  0
LINE
  5
679
330
661
100
AcDbEntity
  8
0
100
AcDbLine
 10
1.500000000000017
 20
6.269999999999996
 30
0.0
 11
0.0
 21
6.269999999999996
 31
0.0
  0
LINE
  5
67A
330
661
100
AcDbEntity
  8
0
100
AcDbLine
 10
0.0
 20
1.269999999999996
 30
0.0
 11
1.500000000000016
 21
1.269999999999996
 31
0.0
  0
LINE
  5
67B
330
661
100
AcDbEntity
  8
0
100
AcDbLine
 10
0.0
 20
72.26999999999998
 30
0.0
 11
1.500000000000017
 21
72.26999999999998
 31
0.0
  0
LINE
  5
67C
330
661
100
AcDbEntity
  8
0
100
AcDbLine
 10
1.500000000000017
 20
72.26999999999998
 30
0.0
 11
1.500000000000015
 21
77.26999999999998
 31
0.0
  0
LINE
  5
67D
330
661
100
AcDbEntity
  8
0
100
AcDbLine
 10
1.500000000000015
 20
77.26999999999998
 30
0.0
 11
0.0
 21
77.26999999999998
 31
0.0
  0
LINE
  5
67E
330
661
100
AcDbEntity
  8
0
100
AcDbLine
 10
0.0
 20
6.269999999999996
 30
0.0
 11
0.0
 21
72.26999999999998
 31
0.0
  0
LINE
  5
67F
330
661
100
AcDbEntity
  8
0
100
AcDbLine
 10
0.0
 20
77.26999999999998
 30
0.0
 11
0.0
 21
80.26999999999999
 31
0.0
  0
LINE
  5
680
330
661
100
AcDbEntity
  8
0
100
AcDbLine
 10
1.500000000000017
 20
6.269999999999996
 30
0.0
 11
1.500000000000017
 21
72.26999999999998
 31
0.0
  0
LINE
  5
681
330
661
100
AcDbEntity
  8
0
100
AcDbLine
 10
1.500000000000004
 20
77.26999999999998
 30
0.0
 11
1.500000000000004
 21
80.26999999999999
 31
0.0
  0
LINE
  5
682
330
661
100
AcDbEntity
  8
0
100
AcDbLine
 10
0.0
 20
80.26999999999999
 30
0.0
 11
0.0
 21
140.67
 31
0.0
  0
LINE
  5
683
330
661
100
AcDbEntity
  8
0
100
AcDbLine
 10
2.100000000000011
 20
140.67
 30
0.0
 11
0.0
 21
140.67
 31
0.0
  0
LINE
  5
684
330
661
100
AcDbEntity
  8
0
100
AcDbLine
 10
0.0
 20
80.26999999999999
 30
0.0
 11
2.100000000000002
 21
80.26999999999999
 31
0.0
  0
LINE
  5
685
330
661
100
AcDbEntity
  8
0
100
AcDbLine
 10
43.50000000000001
 20
85.27000000000001
 30
0.0
 11
38.50000000000001
 21
80.26999999999999
 31
0.0
  0
LINE
  5
686
330
661
100
AcDbEntity
  8
0
100
AcDbLine
 10
38.50000000000002
 20
140.67
 30
0.0
 11
43.50000000000001
 21
135.67
 31
0.0
  0
LINE
  5
687
330
661
100
AcDbEntity
  8
0
100
AcDbLine
 10
82.00306627385998
 20
-21.35501473263468
 30
0.0
 11
82.00306627385996
 21
-28.42608254450011
 31
0.0
  0
CIRCLE
  5
688
330
661
100
AcDbEntity
  8
0
100
AcDbCircle
 10
35.50000000000002
 20
127.77
 30
0.0
 40
2.5
  0
CIRCLE
  5
689
330
661
100
AcDbEntity
  8
0
100
AcDbCircle
 10
35.50000000000002
 20
107.77
 30
0.0
 40
2.5
  0
CIRCLE
  5
68A
330
661
100
AcDbEntity
  8
0
100
AcDbCircle
 10
35.50000000000002
 20
87.76999999999999
 30
0.0
 40
2.5
  0
LINE
  5
68B
330
661
100
AcDbEntity
  8
0
100
AcDbLine
 10
43.50000000000001
 20
135.67
 30
0.0
 11
43.50000000000001
 21
85.27000000000001
 31
0.0
  0
LINE
  5
68C
330
661
100
AcDbEntity
  8
0
100
AcDbLine
 10
2.100000000000011
 20
140.67
 30
0.0
 11
38.50000000000002
 21
140.67
 31
0.0
  0
LINE
  5
68D
330
661
100
AcDbEntity
  8
0
100
AcDbLine
 10
38.50000000000001
 20
80.26999999999999
 30
0.0
 11
2.100000000000004
 21
80.26999999999999
 31
0.0
  0
LINE
  5
68E
330
661
100
AcDbEntity
  8
0
100
AcDbLine
 10
82.00306627385996
 20
-28.42608254450011
 30
0.0
 11
56.26437943888955
 21
-54.16476937947052
 31
0.0
  0
LINE
  5
68F
330
661
100
AcDbEntity
  8
0
100
AcDbLine
 10
62.91118318265866
 20
-2.263131642256725
 30
0.0
 11
82.00306627385998
 21
-21.35501473263468
 31
0.0
  0
CIRCLE
  5
690
330
661
100
AcDbEntity
  8
0
100
AcDbCircle
 10
74.57844507130477
 20
-25.24410202925711
 30
0.0
 40
2.5
  0
ARC
  5
691
330
661
100
AcDbEntity
  8
0
100
AcDbCircle
 10
59.31559010709463
 20
-13.990452698916
 30
0.0
 40
0.8000000000000012
100
AcDbArc
 50
315.000000001042
 51
75.00000000104186
  0
LINE
  5
692
330
661
100
AcDbEntity
  8
0
100
AcDbLine
 10
59.88127553205416
 20
-14.55613812385494
 30
0.0
 11
56.81941335363088
 21
-17.61800030238964
 31
0.0
  0
ARC
  5
693
330
661
100
AcDbEntity
  8
0
100
AcDbCircle
 10
56.25372792867135
 20
-17.0523148774507
 30
0.0
 40
0.8
100
AcDbArc
 50
195.0000000010428
 51
315.0000000010428
  0
LINE
  5
694
330
661
100
AcDbEntity
  8
0
100
AcDbLine
 10
55.48098726764387
 20
-17.25937011354677
 30
0.0
 11
54.36026792735771
 21
-13.07678859487811
 31
0.0
  0
ARC
  5
695
330
661
100
AcDbEntity
  8
0
100
AcDbCircle
 10
55.13300858838519
 20
-12.86973335878203
 30
0.0
 40
0.8000000000000014
100
AcDbArc
 50
75.00000000104188
 51
195.0000000010427
  0
LINE
  5
696
330
661
100
AcDbEntity
  8
0
100
AcDbLine
 10
55.34006382445316
 20
-12.096992697747
 30
0.0
 11
59.5226453431626
 21
-13.21771203788096
 31
0.0
  0
LINE
  5
697
330
661
100
AcDbEntity
  8
0
100
AcDbLine
 10
55.28251771018369
 20
-12.08382813389861
 30
0.0
 11
54.34710336350719
 21
-13.01924248060914
 31
0.0
  0
LINE
  5
698
330
661
100
AcDbEntity
  8
0
100
AcDbLine
 10
54.77945519839778
 20
-55.64969361996226
 30
0.0
 11
1.656580012761343
 21
-2.526818434325797
 31
0.0
  0
LINE
  5
699
330
661
100
AcDbEntity
  8
0
100
AcDbLine
 10
56.26437943888955
 20
-54.1647693794705
 30
0.0
 11
54.77945519839779
 21
-55.64969361996228
 31
0.0
  0
ENDBLK
  5
663
330
661
100
AcDbEntity
  8
0
100
AcDbBlockEnd
  0
BLOCK
  5
69B
330
69A
100
AcDbEntity
  8
0
100
AcDbBlockBegin
  2
SPR100_140-Right
 70
     0
 10
0.0
 20
0.0
 30
0.0
  3
SPR100_140-Right
  1

  0
LINE
  5
69D
330
69A
100
AcDbEntity
  8
0
100
AcDbLine
 10
-1.499999999999965
 20
6.269999999999996
 30
0.0
 11
-1.499999999999966
 21
1.269999999999996
 31
0.0
  0
LINE
  5
69E
330
69A
100
AcDbEntity
  8
0
100
AcDbLine
 10
-1.499999999999966
 20
1.269999999999996
 30
0.0
 11
0.0
 21
1.27000000000002
 31
0.0
  0
LINE
  5
69F
330
69A
100
AcDbEntity
  8
0
100
AcDbLine
 10
0.0
 20
1.27000000000002
 30
0.0
 11
0.0
 21
6.269999999999996
 31
0.0
  0
LINE
  5
6A0
330
69A
100
AcDbEntity
  8
0
100
AcDbLine
 10
0.0
 20
6.269999999999996
 30
0.0
 11
-1.499999999999965
 21
6.269999999999996
 31
0.0
  0
LINE
  5
6A1
330
69A
100
AcDbEntity
  8
0
100
AcDbLine
 10
-1.499999999999965
 20
72.27000000000001
 30
0.0
 11
0.0
 21
72.27000000000001
 31
0.0
  0
LINE
  5
6A2
330
69A
100
AcDbEntity
  8
0
100
AcDbLine
 10
0.0
 20
72.27000000000001
 30
0.0
 11
0.0
 21
77.27000000000001
 31
0.0
  0
LINE
  5
6A3
330
69A
100
AcDbEntity
  8
0
100
AcDbLine
 10
-1.499999999999966
 20
77.27000000000001
 30
0.0
 11
-1.499999999999965
 21
72.27000000000001
 31
0.0
  0
LINE
  5
6A4
330
69A
100
AcDbEntity
  8
0
100
AcDbLine
 10
0.0
 20
77.27000000000001
 30
0.0
 11
-1.499999999999966
 21
77.27000000000001
 31
0.0
  0
LINE
  5
6A5
330
69A
100
AcDbEntity
  8
0
100
AcDbLine
 10
0.0
 20
72.27000000000001
 30
0.0
 11
0.0
 21
6.269999999999997
 31
0.0
  0
LINE
  5
6A6
330
69A
100
AcDbEntity
  8
0
100
AcDbLine
 10
-1.499999999999965
 20
72.27000000000001
 30
0.0
 11
-1.499999999999965
 21
6.269999999999997
 31
0.0
  0
LINE
  5
6A7
330
69A
100
AcDbEntity
  8
0
100
AcDbLine
 10
0.0
 20
80.27000000000001
 30
0.0
 11
0.0
 21
77.27000000000001
 31
0.0
  0
LINE
  5
6A8
330
69A
100
AcDbEntity
  8
0
100
AcDbLine
 10
-1.499999999999978
 20
80.27000000000001
 30
0.0
 11
-1.499999999999978
 21
77.27000000000001
 31
0.0
  0
LINE
  5
6A9
330
69A
100
AcDbEntity
  8
0
100
AcDbLine
 10
0.0
 20
1.270000000000001
 30
0.0
 11
0.0
 21
-0.000389940580951
 31
0.0
  0
LINE
  5
6AA
330
69A
100
AcDbEntity
  8
0
100
AcDbLine
 10
-4.36274170091123
 20
-2.263131641492241
 30
0.0
 11
-62.91118318265865
 21
-2.263131642256747
 31
0.0
  0
LINE
  5
6AB
330
69A
100
AcDbEntity
  8
0
100
AcDbLine
 10
-2.717240184541143
 20
-1.466158262545978
 30
0.0
 11
-2.288136209298597
 21
-1.037054287303432
 31
0.0
  0
LINE
  5
6AC
330
69A
100
AcDbEntity
  8
0
100
AcDbLine
 10
-2.288136209298609
 20
-1.037054287303415
 30
0.0
 11
-1.675735931288064
 21
-0.42465400929287
 31
0.0
  0
SPLINE
  5
6AD
330
69A
100
AcDbEntity
  8
0
100
AcDbSpline
210
0.0
220
0.0
230
1.0
 70
     8
 71
     3
 72
     8
 73
     4
 74
     0
 42
0.000000001
 43
0.0000000001
 40
0.0
 40
0.0
 40
0.0
 40
0.0
 40
1.0
 40
1.0
 40
1.0
 40
1.0
 10
-0.000000000000002
 20
-0.0003899405809515
 30
0.0
 10
-0.0000000000000023
 20
-0.5572023868216953
 30
0.0
 10
-0.2539843833467179
 20
-1.124222804911166
 30
0.0
 10
-0.6150757595082521
 20
-1.485314181072701
 30
0.0
  0
SPLINE
  5
6AE
330
69A
100
AcDbEntity
  8
0
100
AcDbSpline
210
0.0
220
0.0
230
1.0
 70
     8
 71
     3
 72
     8
 73
     4
 74
     0
 42
0.000000001
 43
0.0000000001
 40
-1.0
 40
-1.0
 40
-1.0
 40
-1.0
 40
0.0
 40
0.0
 40
0.0
 40
0.0
 10
-1.675735931288073
 20
-0.4246540092928796
 30
0.0
 10
-1.572566966670492
 20
-0.3214850446752982
 30
0.0
 10
-1.500000000000002
 20
-0.1594792109354491
 30
0.0
 10
-1.500000000000002
 20
-0.0003899405809508
 30
0.0
  0
LINE
  5
6AF
330
69A
100
AcDbEntity
  8
0
100
AcDbLine
 10
-2.717240184541143
 20
-1.466158262545978
 30
0.0
 11
-2.364040347338693
 21
-1.819358099748428
 31
0.0
  0
SPLINE
  5
6B0
330
69A
100
AcDbEntity
  8
0
100
AcDbSpline
210
0.0
220
0.0
230
1.0
 70
     8
 71
     3
 72
     8
 73
     4
 74
     0
 42
0.000000001
 43
0.0000000001
 40
-1.0
 40
-1.0
 40
-1.0
 40
-1.0
 40
0.0
 40
0.0
 40
0.0
 40
0.0
 10
-4.362741700911254
 20
-2.263131641492203
 30
0.0
 10
-3.733518404783857
 20
-2.078196639180645
 30
0.0
 10
-3.124319333760451
 20
-1.873237411765248
 30
0.0
 10
-2.717240184541178
 20
-1.466158262545975
 30
0.0
  0
SPLINE
  5
6B1
330
69A
100
AcDbEntity
  8
0
100
AcDbSpline
210
0.0
220
0.0
230
1.0
 70
     8
 71
     3
 72
     8
 73
     4
 74
     0
 42
0.000000001
 43
0.0000000001
 40
0.0
 40
0.0
 40
0.0
 40
0.0
 40
1.0
 40
1.0
 40
1.0
 40
1.0
 10
-1.656580012761357
 20
-2.526818434325796
 30
0.0
 10
-2.063659161980629
 20
-2.933897583545069
 30
0.0
 10
-3.178158037514038
 20
-2.633557006450462
 30
0.0
 10
-4.362741700911223
 20
-2.263131641492234
 30
0.0
  0
LINE
  5
6B2
330
69A
100
AcDbEntity
  8
0
100
AcDbLine
 10
-2.364040347338693
 20
-1.819358099748428
 30
0.0
 11
-1.656580012761322
 21
-2.526818434325798
 31
0.0
  0
LINE
  5
6B3
330
69A
100
AcDbEntity
  8
0
100
AcDbLine
 10
-0.6150757595082565
 20
-1.485314181072676
 30
0.0
 11
-1.227476037518801
 21
-2.097714459083222
 31
0.0
  0
LINE
  5
6B4
330
69A
100
AcDbEntity
  8
0
100
AcDbLine
 10
-0.615075759508252
 20
-1.4853141810727
 30
0.0
 11
-1.322536092813821
 21
-0.7778538477671316
 31
0.0
  0
LINE
  5
6B5
330
69A
100
AcDbEntity
  8
0
100
AcDbLine
 10
-1.322536092813821
 20
-0.7778538477671316
 30
0.0
 11
-1.675735931288073
 21
-0.4246540092928793
 31
0.0
  0
LINE
  5
6B6
330
69A
100
AcDbEntity
  8
0
100
AcDbLine
 10
-2.288136209298597
 20
-1.037054287303432
 30
0.0
 11
-1.227476037518781
 21
-2.097714459083247
 31
0.0
  0
LINE
  5
6B7
330
69A
100
AcDbEntity
  8
0
100
AcDbLine
 10
-1.227476037518781
 20
-2.097714459083247
 30
0.0
 11
-1.656580012761322
 21
-2.526818434325798
 31
0.0
  0
LINE
  5
6B8
330
69A
100
AcDbEntity
  8
0
100
AcDbLine
 10
-1.499999999999981
 20
-0.0003899405809504
 30
0.0
 11
-1.00049999547496
 21
-0.0003899405809504
 31
0.0
  0
LINE
  5
6B9
330
69A
100
AcDbEntity
  8
0
100
AcDbLine
 10
-1.00049999547496
 20
-0.0003899405809504
 30
0.0
 11
0.0
 21
-0.0003899405809504
 31
0.0
  0
LINE
  5
6BA
330
69A
100
AcDbEntity
  8
0
100
AcDbLine
 10
-1.499999999999984
 20
-0.0003899405809516
 30
0.0
 11
-1.499999999999984
 21
1.270000000000001
 31
0.0
  0
LINE
  5
6BB
330
69A
100
AcDbEntity
  8
0
100
AcDbLine
 10
0.0
 20
80.26999999999999
 30
0.0
 11
0.0
 21
140.67
 31
0.0
  0
LINE
  5
6BC
330
69A
100
AcDbEntity
  8
0
100
AcDbLine
 10
0.0
 20
140.67
 30
0.0
 11
-2.099999999999943
 21
140.67
 31
0.0
  0
LINE
  5
6BD
330
69A
100
AcDbEntity
  8
0
100
AcDbLine
 10
-2.099999999999961
 20
80.26999999999999
 30
0.0
 11
0.0
 21
80.26999999999999
 31
0.0
  0
LINE
  5
6BE
330
69A
100
AcDbEntity
  8
0
100
AcDbLine
 10
-38.49999999999996
 20
80.26999999999999
 30
0.0
 11
-43.49999999999995
 21
85.27000000000001
 31
0.0
  0
LINE
  5
6BF
330
69A
100
AcDbEntity
  8
0
100
AcDbLine
 10
-43.49999999999995
 20
135.67
 30
0.0
 11
-38.49999999999996
 21
140.67
 31
0.0
  0
LINE
  5
6C0
330
69A
100
AcDbEntity
  8
0
100
AcDbLine
 10
-82.00306627385993
 20
-28.42608254450011
 30
0.0
 11
-82.00306627385996
 21
-21.35501473263468
 31
0.0
  0
LINE
  5
6C1
330
69A
100
AcDbEntity
  8
0
100
AcDbLine
 10
-43.49999999999995
 20
85.27000000000001
 30
0.0
 11
-43.49999999999995
 21
135.67
 31
0.0
  0
LINE
  5
6C2
330
69A
100
AcDbEntity
  8
0
100
AcDbLine
 10
-2.099999999999961
 20
80.26999999999999
 30
0.0
 11
-38.49999999999996
 21
80.26999999999999
 31
0.0
  0
LINE
  5
6C3
330
69A
100
AcDbEntity
  8
0
100
AcDbLine
 10
-38.49999999999996
 20
140.67
 30
0.0
 11
-2.099999999999941
 21
140.67
 31
0.0
  0
CIRCLE
  5
6C4
330
69A
100
AcDbEntity
  8
0
100
AcDbCircle
 10
-35.49999999999999
 20
132.77
 30
0.0
 40
2.5
  0
CIRCLE
  5
6C5
330
69A
100
AcDbEntity
  8
0
100
AcDbCircle
 10
-35.49999999999999
 20
112.77
 30
0.0
 40
2.5
  0
CIRCLE
  5
6C6
330
69A
100
AcDbEntity
  8
0
100
AcDbCircle
 10
-35.49999999999999
 20
92.76999999999999
 30
0.0
 40
2.5
  0
LINE
  5
6C7
330
69A
100
AcDbEntity
  8
0
100
AcDbLine
 10
-62.91118318265866
 20
-2.263131642256747
 30
0.0
 11
-82.00306627385996
 21
-21.35501473263468
 31
0.0
  0
LINE
  5
6C8
330
69A
100
AcDbEntity
  8
0
100
AcDbLine
 10
-1.656580012761322
 20
-2.526818434325798
 30
0.0
 11
-54.77945519839777
 21
-55.64969361996226
 31
0.0
  0
LINE
  5
6C9
330
69A
100
AcDbEntity
  8
0
100
AcDbLine
 10
-54.77945519839777
 20
-55.64969361996227
 30
0.0
 11
-56.26437943888923
 21
-54.16476937947023
 31
0.0
  0
LINE
  5
6CA
330
69A
100
AcDbEntity
  8
0
100
AcDbLine
 10
-56.26437943888952
 20
-54.16476937947052
 30
0.0
 11
-82.00306627385993
 21
-28.42608254450011
 31
0.0
  0
CIRCLE
  5
6CB
330
69A
100
AcDbEntity
  8
0
100
AcDbCircle
 10
-71.04291116530767
 20
-21.70856812338872
 30
0.0
 40
2.5
  0
ARC
  5
6CC
330
69A
100
AcDbEntity
  8
0
100
AcDbCircle
 10
-51.59747468238809
 20
-9.33419945291363
 30
0.0
 40
0.8000000000000015
100
AcDbArc
 50
344.9999999989572
 51
355.4526675359234
  0
LINE
  5
6CD
330
69A
100
AcDbEntity
  8
0
100
AcDbLine
 10
-50.82473402136063
 20
-9.541254689009706
 30
0.0
 11
-51.94545336164679
 21
-13.72383620767836
 31
0.0
  0
ARC
  5
6CE
330
69A
100
AcDbEntity
  8
0
100
AcDbCircle
 10
-52.71819402267426
 20
-13.51678097158229
 30
0.0
 40
0.8
100
AcDbArc
 50
224.9999999989572
 51
344.9999999989576
  0
LINE
  5
6CF
330
69A
100
AcDbEntity
  8
0
100
AcDbLine
 10
-53.28387944763379
 20
-14.08246639652124
 30
0.0
 11
-56.34574162605708
 21
-11.02060421798654
 31
0.0
  0
ARC
  5
6D0
330
69A
100
AcDbEntity
  8
0
100
AcDbCircle
 10
-55.78005620109753
 20
-10.45491879304759
 30
0.0
 40
0.8000000000000014
100
AcDbArc
 50
104.9999999989575
 51
224.9999999989572
  0
LINE
  5
6D1
330
69A
100
AcDbEntity
  8
0
100
AcDbLine
 10
-55.9871114371655
 20
-9.682178132012559
 30
0.0
 11
-51.80452991845606
 21
-8.561458791878598
 31
0.0
  0
ARC
  5
6D2
330
69A
100
AcDbEntity
  8
0
100
AcDbCircle
 10
-51.59747468238809
 20
-9.33419945291363
 30
0.0
 40
0.8000000000000014
100
AcDbArc
 50
49.59733246198601
 51
104.9999999989581
  0
LINE
  5
6D3
330
69A
100
AcDbEntity
  8
0
100
AcDbLine
 10
-51.07895039795263
 20
-8.724992947325674
 30
0.0
 11
-50.79999294004348
 21
-9.397625556585486
 31
0.0
  0
ARC
  5
6D4
330
69A
100
AcDbEntity
  8
0
100
AcDbCircle
 10
-55.13300858838519
 20
-12.86973335878203
 30
0.0
 40
0.8000000000000014
100
AcDbArc
 50
349.2288663267698
 51
100.7711336711449
  0
ENDBLK
  5
69C
330
69A
100
AcDbEntity
  8
0
100
AcDbBlockEnd
  0
BLOCK
  5
6D6
330
6D5
100
AcDbEntity
  8
0
100
AcDbBlockBegin
  2
SPR100_140-Top
 70
     0
 10
0.0
 20
0.0
 30
0.0
  3
SPR100_140-Top
  1

  0
LINE
  5
6D8
330
6D5
100
AcDbEntity
  8
0
100
AcDbLine
 10
92.527090561
 20
-1.499999999999965
 30
0.0
 11
92.527090561
 21
0.0
 31
0.0
  0
LINE
  5
6D9
330
6D5
100
AcDbEntity
  8
0
100
AcDbLine
 10
-87.52709056100002
 20
0.0
 30
0.0
 11
-92.527090561
 21
0.0
 31
0.0
  0
LINE
  5
6DA
330
6D5
100
AcDbEntity
  8
0
100
AcDbLine
 10
92.527090561
 20
0.0
 30
0.0
 11
87.52709056099996
 21
0.0
 31
0.0
  0
LINE
  5
6DB
330
6D5
100
AcDbEntity
  8
0
100
AcDbLine
 10
-92.527090561
 20
0.0
 30
0.0
 11
-92.527090561
 21
-1.500000000000017
 31
0.0
  0
LINE
  5
6DC
330
6D5
100
AcDbEntity
  8
0
100
AcDbLine
 10
-92.527090561
 20
-1.500000000000017
 30
0.0
 11
-87.52709056100002
 21
-1.500000000000015
 31
0.0
  0
LINE
  5
6DD
330
6D5
100
AcDbEntity
  8
0
100
AcDbLine
 10
-87.52709056100002
 20
-1.500000000000015
 30
0.0
 11
-87.52709056100002
 21
0.0
 31
0.0
  0
LINE
  5
6DE
330
6D5
100
AcDbEntity
  8
0
100
AcDbLine
 10
87.52709056099996
 20
-1.499999999999966
 30
0.0
 11
92.527090561
 21
-1.499999999999965
 31
0.0
  0
LINE
  5
6DF
330
6D5
100
AcDbEntity
  8
0
100
AcDbLine
 10
87.52709056099996
 20
0.0
 30
0.0
 11
87.52709056099996
 21
-1.499999999999966
 31
0.0
  0
LINE
  5
6E0
330
6D5
100
AcDbEntity
  8
0
100
AcDbLine
 10
-87.52709056100002
 20
0.0
 30
0.0
 11
-49.40000000000002
 21
0.0
 31
0.0
  0
LINE
  5
6E1
330
6D5
100
AcDbEntity
  8
0
100
AcDbLine
 10
49.39999999999998
 20
0.0
 30
0.0
 11
87.52709056099996
 21
0.0
 31
0.0
  0
LINE
  5
6E2
330
6D5
100
AcDbEntity
  8
0
100
AcDbLine
 10
51.41246117974979
 20
-1.499999999999976
 30
0.0
 11
87.52709056099996
 21
-1.499999999999966
 31
0.0
  0
LINE
  5
6E3
330
6D5
100
AcDbEntity
  8
0
100
AcDbLine
 10
-87.52709056100002
 20
-1.500000000000015
 30
0.0
 11
-51.41246117974983
 21
-1.500000000000005
 31
0.0
  0
LINE
  5
6E4
330
6D5
100
AcDbEntity
  8
0
100
AcDbLine
 10
49.39999999999998
 20
0.0
 30
0.0
 11
-49.40000000000002
 21
0.0
 31
0.0
  0
LINE
  5
6E5
330
6D5
100
AcDbEntity
  8
0
100
AcDbLine
 10
51.5000000000002
 20
-38.49999999999996
 30
0.0
 11
51.49999999999999
 21
-2.099999999999941
 31
0.0
  0
LINE
  5
6E6
330
6D5
100
AcDbEntity
  8
0
100
AcDbLine
 10
-51.50000000000002
 20
-2.100000000000011
 30
0.0
 11
-51.50000000000002
 21
-38.50000000000002
 31
0.0
  0
LINE
  5
6E7
330
6D5
100
AcDbEntity
  8
0
100
AcDbLine
 10
50.0
 20
-2.099999999999961
 30
0.0
 11
50.00000000000021
 21
-38.49999999999997
 31
0.0
  0
LINE
  5
6E8
330
6D5
100
AcDbEntity
  8
0
100
AcDbLine
 10
-49.40000000000002
 20
-1.500000000000014
 30
0.0
 11
49.39999999999998
 21
-1.499999999999983
 31
0.0
  0
LINE
  5
6E9
330
6D5
100
AcDbEntity
  8
0
100
AcDbLine
 10
-50.0
 20
-38.50000000000001
 30
0.0
 11
-50.00000000000001
 21
-2.100000000000008
 31
0.0
  0
LINE
  5
6EA
330
6D5
100
AcDbEntity
  8
0
100
AcDbLine
 10
50.00000000000023
 20
-43.49999999999996
 30
0.0
 11
51.50000000000023
 21
-43.49999999999995
 31
0.0
  0
LINE
  5
6EB
330
6D5
100
AcDbEntity
  8
0
100
AcDbLine
 10
51.50000000000023
 20
-43.49999999999995
 30
0.0
 11
51.5000000000002
 21
-38.49999999999996
 31
0.0
  0
LINE
  5
6EC
330
6D5
100
AcDbEntity
  8
0
100
AcDbLine
 10
-51.50000000000002
 20
-38.50000000000002
 30
0.0
 11
-51.50000000000002
 21
-43.50000000000001
 31
0.0
  0
LINE
  5
6ED
330
6D5
100
AcDbEntity
  8
0
100
AcDbLine
 10
-51.50000000000002
 20
-43.50000000000001
 30
0.0
 11
-50.0
 21
-43.50000000000001
 31
0.0
  0
LINE
  5
6EE
330
6D5
100
AcDbEntity
  8
0
100
AcDbLine
 10
51.5000000000002
 20
-38.49999999999996
 30
0.0
 11
50.00000000000021
 21
-38.49999999999996
 31
0.0
  0
LINE
  5
6EF
330
6D5
100
AcDbEntity
  8
0
100
AcDbLine
 10
50.00000000000021
 20
-38.49999999999996
 30
0.0
 11
50.00000000000023
 21
-43.49999999999996
 31
0.0
  0
LINE
  5
6F0
330
6D5
100
AcDbEntity
  8
0
100
AcDbLine
 10
-50.0
 20
-43.50000000000001
 30
0.0
 11
-50.0
 21
-38.50000000000001
 31
0.0
  0
LINE
  5
6F1
330
6D5
100
AcDbEntity
  8
0
100
AcDbLine
 10
-50.0
 20
-38.50000000000001
 30
0.0
 11
-51.50000000000002
 21
-38.50000000000002
 31
0.0
  0
LINE
  5
6F2
330
6D5
100
AcDbEntity
  8
0
100
AcDbLine
 10
51.49999999999999
 20
-82.00306627385996
 30
0.0
 11
50.0
 21
-82.00306627385996
 31
0.0
  0
LINE
  5
6F3
330
6D5
100
AcDbEntity
  8
0
100
AcDbLine
 10
-50.0
 20
-82.00306627385998
 30
0.0
 11
-51.49999999999999
 21
-82.00306627385998
 31
0.0
  0
LINE
  5
6F4
330
6D5
100
AcDbEntity
  8
0
100
AcDbLine
 10
51.50000000000234
 20
-62.91118318265866
 30
0.0
 11
51.49999999999999
 21
-82.00306627385996
 31
0.0
  0
LINE
  5
6F5
330
6D5
100
AcDbEntity
  8
0
100
AcDbLine
 10
50.00000000000195
 20
-62.91118318265866
 30
0.0
 11
50.0
 21
-82.00306627385996
 31
0.0
  0
ELLIPSE
  5
6F6
330
6D5
100
AcDbEntity
  8
0
100
AcDbEllipse
 10
49.39999999999999
 20
-56.26437943888955
 30
0.0
 11
0.6000000000000087
 21
0.0000000000000612
 31
0.0
210
0.0
220
0.0
230
1.0
 40
0.7071067811864884
 41
0.0
 42
1.570796326794631
  0
LINE
  5
6F7
330
6D5
100
AcDbEntity
  8
0
100
AcDbLine
 10
51.50000000000234
 20
-62.91118318265866
 30
0.0
 11
50.00000000000195
 21
-62.91118318265866
 31
0.0
  0
LINE
  5
6F8
330
6D5
100
AcDbEntity
  8
0
100
AcDbLine
 10
51.5
 20
-43.49999999999995
 30
0.0
 11
51.50000000000234
 21
-62.91118318265866
 31
0.0
  0
LINE
  5
6F9
330
6D5
100
AcDbEntity
  8
0
100
AcDbLine
 10
-51.49999999999828
 20
-62.91118318265866
 30
0.0
 11
-51.49999999999828
 21
-43.50000000000001
 31
0.0
  0
ELLIPSE
  5
6FA
330
6D5
100
AcDbEntity
  8
0
100
AcDbEllipse
 10
-46.50000000000002
 20
-1.227476037518808
 30
0.0
 11
-1.5
 21
0.0000000000001088
 31
0.0
210
0.0
220
0.0
230
1.0
 40
0.7071067811865475
 41
1.570796326795024
 42
2.705254581962135
  0
LINE
  5
6FB
330
6D5
100
AcDbEntity
  8
0
100
AcDbLine
 10
-46.50000000000002
 20
-2.288136209298609
 30
0.0
 11
-48.79315533855965
 21
-2.288136209298623
 31
0.0
  0
LINE
  5
6FC
330
6D5
100
AcDbEntity
  8
0
100
AcDbLine
 10
-48.79315533855965
 20
-2.288136209298623
 30
0.0
 11
-49.40000000000002
 21
-2.717240184541169
 31
0.0
  0
LINE
  5
6FD
330
6D5
100
AcDbEntity
  8
0
100
AcDbLine
 10
49.39999999999998
 20
-2.717240184541143
 30
0.0
 11
48.79315533855962
 21
-2.288136209298597
 31
0.0
  0
LINE
  5
6FE
330
6D5
100
AcDbEntity
  8
0
100
AcDbLine
 10
48.79315533855962
 20
-2.288136209298597
 30
0.0
 11
46.49999999999997
 21
-2.288136209298584
 31
0.0
  0
ELLIPSE
  5
6FF
330
6D5
100
AcDbEntity
  8
0
100
AcDbEllipse
 10
46.49999999999997
 20
-1.227476037518788
 30
0.0
 11
-1.5
 21
-0.0000000000000003
 31
0.0
210
0.0
220
0.0
230
1.0
 40
0.7071067811865474
 41
0.4363380716279029
 42
1.570796326794896
  0
SPLINE
  5
700
330
6D5
100
AcDbEntity
  8
0
100
AcDbSpline
210
0.0
220
0.0
230
1.0
 70
     8
 71
     3
 72
     8
 73
     4
 74
     0
 42
0.000000001
 43
0.0000000001
 40
-1.0
 40
-1.0
 40
-1.0
 40
-1.0
 40
0.0
 40
0.0
 40
0.0
 40
0.0
 10
45.14054197002045
 20
-1.675735931288073
 30
0.0
 10
45.01586474390284
 20
-1.572566966670492
 30
0.0
 10
44.97251992074146
 20
-1.500000000000002
 30
0.0
 10
45.01767776087191
 20
-1.500000000000002
 30
0.0
  0
SPLINE
  5
701
330
6D5
100
AcDbEntity
  8
0
100
AcDbSpline
210
0.0
220
0.0
230
1.0
 70
     8
 71
     3
 72
     8
 73
     4
 74
     0
 42
0.000000001
 43
0.0000000001
 40
-1.0
 40
-1.0
 40
-1.0
 40
-1.0
 40
0.0
 40
0.0
 40
0.0
 40
0.0
 10
-45.01767776087199
 20
-1.500000000000022
 30
0.0
 10
-44.97251992073876
 20
-1.500000000000022
 30
0.0
 10
-45.01586474390141
 20
-1.572566966670511
 30
0.0
 10
-45.14054197002046
 20
-1.675735931288093
 30
0.0
  0
LINE
  5
702
330
6D5
100
AcDbEntity
  8
0
100
AcDbLine
 10
-49.99999999999842
 20
-62.91118318265866
 30
0.0
 11
-51.49999999999828
 21
-62.91118318265866
 31
0.0
  0
LINE
  5
703
330
6D5
100
AcDbEntity
  8
0
100
AcDbLine
 10
-49.99999999999999
 20
-43.50000000000001
 30
0.0
 11
-49.99999999999842
 21
-62.91118318265866
 31
0.0
  0
SPLINE
  5
704
330
6D5
100
AcDbEntity
  8
0
100
AcDbSpline
210
0.0
220
0.0
230
1.0
 70
     8
 71
     3
 72
     8
 73
     4
 74
     0
 42
0.000000001
 43
0.0000000001
 40
-1.0
 40
-1.0
 40
-1.0
 40
-1.0
 40
0.0
 40
0.0
 40
0.0
 40
0.0
 10
-49.40000000000002
 20
-2.717240184541183
 30
0.0
 10
-49.714159265359
 20
-3.124319333760314
 30
0.0
 10
-50.0
 20
-3.733518404783984
 30
0.0
 10
-50.0
 20
-4.36274170091128
 30
0.0
  0
LINE
  5
705
330
6D5
100
AcDbEntity
  8
0
100
AcDbLine
 10
-49.40000000000002
 20
-2.717240184541169
 30
0.0
 11
-49.40000000000002
 21
-2.364040347339028
 31
0.0
  0
LINE
  5
706
330
6D5
100
AcDbEntity
  8
0
100
AcDbLine
 10
-49.40000000000002
 20
-2.364040347339028
 30
0.0
 11
-49.40000000000002
 21
-1.656580012761348
 31
0.0
  0
SPLINE
  5
707
330
6D5
100
AcDbEntity
  8
0
100
AcDbSpline
210
0.0
220
0.0
230
1.0
 70
     8
 71
     3
 72
     8
 73
     4
 74
     0
 42
0.000000001
 43
0.0000000001
 40
0.8233926083861796
 40
0.8233926083861796
 40
0.8233926083861796
 40
0.8233926083861796
 40
1.0
 40
1.0
 40
1.0
 40
1.0
 10
-49.9683307934395
 20
-1.934942494001876
 30
0.0
 10
-49.78528852951265
 20
-1.822430928280973
 30
0.0
 10
-49.5941899694223
 20
-1.728473199485324
 30
0.0
 10
-49.40000000000002
 20
-1.656580012761361
 30
0.0
  0
LINE
  5
708
330
6D5
100
AcDbEntity
  8
0
100
AcDbLine
 10
-49.40000000000002
 20
-1.656580012761348
 30
0.0
 11
-49.17856242236215
 21
-1.499999999999994
 31
0.0
  0
LINE
  5
709
330
6D5
100
AcDbEntity
  8
0
100
AcDbLine
 10
-48.79315533855965
 20
-2.288136209298623
 30
0.0
 11
-48.79315533855965
 21
-1.500000000000014
 31
0.0
  0
LINE
  5
70A
330
6D5
100
AcDbEntity
  8
0
100
AcDbLine
 10
-45.14054197002045
 20
-1.675735931288093
 30
0.0
 11
-45.14054197002045
 21
-1.500000000000013
 31
0.0
  0
LINE
  5
70B
330
6D5
100
AcDbEntity
  8
0
100
AcDbLine
 10
50.00000000000195
 20
-62.91118318265866
 30
0.0
 11
50.00000000000193
 21
-43.49999999999996
 31
0.0
  0
LINE
  5
70C
330
6D5
100
AcDbEntity
  8
0
100
AcDbLine
 10
49.39999999999998
 20
-2.717240184541143
 30
0.0
 11
49.39999999999998
 21
-2.364040347338693
 31
0.0
  0
SPLINE
  5
70D
330
6D5
100
AcDbEntity
  8
0
100
AcDbSpline
210
0.0
220
0.0
230
1.0
 70
     8
 71
     3
 72
     8
 73
     4
 74
     0
 42
0.000000001
 43
0.0000000001
 40
-1.0
 40
-1.0
 40
-1.0
 40
-1.0
 40
0.0
 40
0.0
 40
0.0
 40
0.0
 10
50.0
 20
-4.362741700911254
 30
0.0
 10
50.0
 20
-3.733518404783857
 30
0.0
 10
49.71415926535897
 20
-3.124319333760451
 30
0.0
 10
49.39999999999998
 20
-2.717240184541178
 30
0.0
  0
SPLINE
  5
70E
330
6D5
100
AcDbEntity
  8
0
100
AcDbSpline
210
0.0
220
0.0
230
1.0
 70
     8
 71
     3
 72
     8
 73
     4
 74
     0
 42
0.000000001
 43
0.0000000001
 40
0.0
 40
0.0
 40
0.0
 40
0.0
 40
0.1766073916138315
 40
0.1766073916138315
 40
0.1766073916138315
 40
0.1766073916138315
 10
49.39999999999998
 20
-1.656580012761356
 30
0.0
 10
49.59418996942226
 20
-1.728473199485349
 30
0.0
 10
49.78528852951263
 20
-1.822430928281016
 30
0.0
 10
49.96833079343947
 20
-1.93494249400193
 30
0.0
  0
LINE
  5
70F
330
6D5
100
AcDbEntity
  8
0
100
AcDbLine
 10
49.39999999999998
 20
-2.364040347338693
 30
0.0
 11
49.39999999999998
 21
-1.656580012761322
 31
0.0
  0
LINE
  5
710
330
6D5
100
AcDbEntity
  8
0
100
AcDbLine
 10
45.14054197002045
 20
-1.499999999999984
 30
0.0
 11
45.14054197002038
 21
-1.675735931288073
 31
0.0
  0
LINE
  5
711
330
6D5
100
AcDbEntity
  8
0
100
AcDbLine
 10
48.79315533855962
 20
-2.288136209298597
 30
0.0
 11
48.79315533855962
 21
-1.499999999999983
 31
0.0
  0
LINE
  5
712
330
6D5
100
AcDbEntity
  8
0
100
AcDbLine
 10
49.17856242236211
 20
-1.499999999999969
 30
0.0
 11
49.39999999999998
 21
-1.656580012761322
 31
0.0
  0
LINE
  5
713
330
6D5
100
AcDbEntity
  8
0
100
AcDbLine
 10
-51.49999999999828
 20
-62.91118318265866
 30
0.0
 11
-51.49999999999999
 21
-82.00306627385998
 31
0.0
  0
LINE
  5
714
330
6D5
100
AcDbEntity
  8
0
100
AcDbLine
 10
-49.99999999999842
 20
-62.91118318265866
 30
0.0
 11
-50.0
 21
-82.00306627385998
 31
0.0
  0
ELLIPSE
  5
715
330
6D5
100
AcDbEntity
  8
0
100
AcDbEllipse
 10
-17.50000000000001
 20
-0.1668158657389947
 30
0.0
 11
2.5
 21
0.0000000000001822
 31
0.0
210
0.0
220
0.0
230
1.0
 40
0.7071067811865472
 41
3.995971005724948
 42
4.712388980384623
  0
LINE
  5
716
330
6D5
100
AcDbEntity
  8
0
100
AcDbLine
 10
-19.91828991960765
 20
-1.500000000000005
 30
0.0
 11
-19.91828991960765
 21
-1.675735931288088
 31
0.0
  0
ELLIPSE
  5
717
330
6D5
100
AcDbEntity
  8
0
100
AcDbEllipse
 10
-17.50000000000001
 20
-1.227476037518802
 30
0.0
 11
-2.5
 21
-0.0000000000000006
 31
0.0
210
0.0
220
0.0
230
1.0
 40
0.7071067811865472
 41
0.2563733270184487
 42
1.570796326794896
  0
LINE
  5
718
330
6D5
100
AcDbEntity
  8
0
100
AcDbLine
 10
-17.50000000000001
 20
-1.934582818705337
 30
0.0
 11
-12.50000000000001
 21
-1.934582818705336
 31
0.0
  0
LINE
  5
719
330
6D5
100
AcDbEntity
  8
0
100
AcDbLine
 10
-12.50000000000001
 20
-2.995242990485158
 30
0.0
 11
-17.50000000000001
 21
-2.995242990485159
 31
0.0
  0
ELLIPSE
  5
71A
330
6D5
100
AcDbEntity
  8
0
100
AcDbEllipse
 10
-12.50000000000001
 20
-0.1668158657389995
 30
0.0
 11
2.5
 21
0.0000000000000006
 31
0.0
210
0.0
220
0.0
230
1.0
 40
0.7071067811865474
 41
4.712388980384689
 42
5.428806955044302
  0
ELLIPSE
  5
71B
330
6D5
100
AcDbEntity
  8
0
100
AcDbEllipse
 10
-12.50000000000001
 20
-1.227476037518801
 30
0.0
 11
2.5
 21
0.0000000000000007
 31
0.0
210
0.0
220
0.0
230
1.0
 40
0.7071067811865474
 41
4.712388980384689
 42
6.026811980161137
  0
LINE
  5
71C
330
6D5
100
AcDbEntity
  8
0
100
AcDbLine
 10
-10.08171008039238
 20
-1.675735931288086
 30
0.0
 11
-10.08171008039238
 21
-1.500000000000002
 31
0.0
  0
SPLINE
  5
71D
330
6D5
100
AcDbEntity
  8
0
100
AcDbSpline
210
0.0
220
0.0
230
1.0
 70
     8
 71
     3
 72
     8
 73
     4
 74
     0
 42
0.000000001
 43
0.0000000001
 40
-1.0
 40
-1.0
 40
-1.0
 40
-1.0
 40
0.0
 40
0.0
 40
0.0
 40
0.0
 10
-19.91828991960765
 20
-1.675735931288088
 30
0.0
 10
-19.99189972301985
 20
-1.567383125827708
 30
0.0
 10
-20.01609483643937
 20
-1.500000000000016
 30
0.0
 10
-19.98943351399745
 20
-1.500000000000016
 30
0.0
  0
SPLINE
  5
71E
330
6D5
100
AcDbEntity
  8
0
100
AcDbSpline
210
0.0
220
0.0
230
1.0
 70
     8
 71
     3
 72
     8
 73
     4
 74
     0
 42
0.000000001
 43
0.0000000001
 40
-1.0
 40
-1.0
 40
-1.0
 40
-1.0
 40
0.0
 40
0.0
 40
0.0
 40
0.0
 10
-10.01056648600259
 20
-1.500000000000014
 30
0.0
 10
-9.983905163560532
 20
-1.500000000000014
 30
0.0
 10
-10.00810027698007
 20
-1.567383125827734
 30
0.0
 10
-10.08171008039238
 20
-1.675735931288086
 30
0.0
  0
ELLIPSE
  5
71F
330
6D5
100
AcDbEntity
  8
0
100
AcDbEllipse
 10
12.49999999999998
 20
-0.1668158657389929
 30
0.0
 11
2.5
 21
0.0000000000001822
 31
0.0
210
0.0
220
0.0
230
1.0
 40
0.7071067811865474
 41
3.995971005724943
 42
4.712388980384623
  0
LINE
  5
720
330
6D5
100
AcDbEntity
  8
0
100
AcDbLine
 10
10.08171008039234
 20
-1.499999999999996
 30
0.0
 11
10.08171008039234
 21
-1.675735931288081
 31
0.0
  0
ELLIPSE
  5
721
330
6D5
100
AcDbEntity
  8
0
100
AcDbEllipse
 10
12.49999999999998
 20
-1.227476037518795
 30
0.0
 11
-2.5
 21
-0.0000000000000006
 31
0.0
210
0.0
220
0.0
230
1.0
 40
0.7071067811865472
 41
0.2563733270184487
 42
1.570796326794896
  0
LINE
  5
722
330
6D5
100
AcDbEntity
  8
0
100
AcDbLine
 10
12.49999999999998
 20
-1.934582818705329
 30
0.0
 11
17.49999999999998
 21
-1.934582818705328
 31
0.0
  0
LINE
  5
723
330
6D5
100
AcDbEntity
  8
0
100
AcDbLine
 10
17.49999999999998
 20
-2.99524299048515
 30
0.0
 11
12.49999999999998
 21
-2.995242990485151
 31
0.0
  0
ELLIPSE
  5
724
330
6D5
100
AcDbEntity
  8
0
100
AcDbEllipse
 10
17.49999999999998
 20
-0.1668158657389918
 30
0.0
 11
2.5
 21
0.0000000000000006
 31
0.0
210
0.0
220
0.0
230
1.0
 40
0.7071067811865472
 41
4.712388980384689
 42
5.428806955044303
  0
ELLIPSE
  5
725
330
6D5
100
AcDbEntity
  8
0
100
AcDbEllipse
 10
17.49999999999998
 20
-1.227476037518794
 30
0.0
 11
2.5
 21
0.0000000000000005
 31
0.0
210
0.0
220
0.0
230
1.0
 40
0.7071067811865472
 41
4.712388980384689
 42
6.026811980161137
  0
LINE
  5
726
330
6D5
100
AcDbEntity
  8
0
100
AcDbLine
 10
19.91828991960761
 20
-1.675735931288079
 30
0.0
 11
19.91828991960761
 21
-1.499999999999993
 31
0.0
  0
SPLINE
  5
727
330
6D5
100
AcDbEntity
  8
0
100
AcDbSpline
210
0.0
220
0.0
230
1.0
 70
     8
 71
     3
 72
     8
 73
     4
 74
     0
 42
0.000000001
 43
0.0000000001
 40
-1.0
 40
-1.0
 40
-1.0
 40
-1.0
 40
0.0
 40
0.0
 40
0.0
 40
0.0
 10
10.08171008039234
 20
-1.675735931288081
 30
0.0
 10
10.00810027697994
 20
-1.567383125827726
 30
0.0
 10
9.983905163560503
 20
-1.500000000000009
 30
0.0
 10
10.01056648600256
 20
-1.500000000000009
 30
0.0
  0
SPLINE
  5
728
330
6D5
100
AcDbEntity
  8
0
100
AcDbSpline
210
0.0
220
0.0
230
1.0
 70
     8
 71
     3
 72
     8
 73
     4
 74
     0
 42
0.000000001
 43
0.0000000001
 40
-1.0
 40
-1.0
 40
-1.0
 40
-1.0
 40
0.0
 40
0.0
 40
0.0
 40
0.0
 10
19.98943351399741
 20
-1.500000000000007
 30
0.0
 10
20.01609483643914
 20
-1.500000000000007
 30
0.0
 10
19.99189972302027
 20
-1.567383125827702
 30
0.0
 10
19.91828991960761
 20
-1.675735931288079
 30
0.0
  0
ELLIPSE
  5
729
330
6D5
100
AcDbEntity
  8
0
100
AcDbEllipse
 10
-32.50000000000002
 20
-1.227476037518805
 30
0.0
 11
2.5
 21
0.0000000000000006
 31
0.0
210
0.0
220
0.0
230
1.0
 40
0.7071067811865472
 41
3.397965980608242
 42
6.026811980161136
  0
ELLIPSE
  5
72A
330
6D5
100
AcDbEntity
  8
0
100
AcDbEllipse
 10
32.5
 20
-1.227476037518791
 30
0.0
 11
2.5
 21
0.0000000000000009
 31
0.0
210
0.0
220
0.0
230
1.0
 40
0.7071067811865475
 41
3.397965980608241
 42
6.026811980161135
  0
SPLINE
  5
72B
330
6D5
100
AcDbEntity
  8
0
100
AcDbSpline
210
0.0
220
0.0
230
1.0
 70
     8
 71
     3
 72
     8
 73
     4
 74
     0
 42
0.000000001
 43
0.0000000001
 40
-1.0
 40
-1.0
 40
-1.0
 40
-1.0
 40
0.0
 40
0.0
 40
0.0
 40
0.0
 10
30.08171008039236
 20
-1.675735931288078
 30
0.0
 10
30.00810027698002
 20
-1.56738312582771
 30
0.0
 10
29.98390516356052
 20
-1.500000000000005
 30
0.0
 10
30.01056648600258
 20
-1.500000000000005
 30
0.0
  0
SPLINE
  5
72C
330
6D5
100
AcDbEntity
  8
0
100
AcDbSpline
210
0.0
220
0.0
230
1.0
 70
     8
 71
     3
 72
     8
 73
     4
 74
     0
 42
0.000000001
 43
0.0000000001
 40
-1.0
 40
-1.0
 40
-1.0
 40
-1.0
 40
0.0
 40
0.0
 40
0.0
 40
0.0
 10
-30.01056648600259
 20
-1.500000000000018
 30
0.0
 10
-29.9839051635604
 20
-1.500000000000018
 30
0.0
 10
-30.00810027697977
 20
-1.567383125827674
 30
0.0
 10
-30.08171008039236
 20
-1.67573593128809
 30
0.0
  0
ELLIPSE
  5
72D
330
6D5
100
AcDbEntity
  8
0
100
AcDbEllipse
 10
-32.50000000000002
 20
-0.1668158657389986
 30
0.0
 11
2.499999999999999
 21
0.0000000000001832
 31
0.0
210
0.0
220
0.0
230
1.0
 40
0.7071067811865474
 41
3.995971005724948
 42
5.428806955044162
  0
LINE
  5
72E
330
6D5
100
AcDbEntity
  8
0
100
AcDbLine
 10
-34.91828991960765
 20
-1.500000000000009
 30
0.0
 11
-34.91828991960765
 21
-1.675735931288091
 31
0.0
  0
LINE
  5
72F
330
6D5
100
AcDbEntity
  8
0
100
AcDbLine
 10
-30.08171008039238
 20
-1.67573593128809
 30
0.0
 11
-30.08171008039238
 21
-1.500000000000008
 31
0.0
  0
SPLINE
  5
730
330
6D5
100
AcDbEntity
  8
0
100
AcDbSpline
210
0.0
220
0.0
230
1.0
 70
     8
 71
     3
 72
     8
 73
     4
 74
     0
 42
0.000000001
 43
0.0000000001
 40
-1.0
 40
-1.0
 40
-1.0
 40
-1.0
 40
0.0
 40
0.0
 40
0.0
 40
0.0
 10
-34.91828991960765
 20
-1.675735931288092
 30
0.0
 10
-34.99189972302045
 20
-1.567383125827717
 30
0.0
 10
-35.01609483643911
 20
-1.500000000000019
 30
0.0
 10
-34.98943351399745
 20
-1.500000000000019
 30
0.0
  0
ELLIPSE
  5
731
330
6D5
100
AcDbEntity
  8
0
100
AcDbEllipse
 10
32.5
 20
-0.1668158657389876
 30
0.0
 11
2.5
 21
0.0000000000001836
 31
0.0
210
0.0
220
0.0
230
1.0
 40
0.7071067811865474
 41
3.995971005724941
 42
5.428806955044168
  0
LINE
  5
732
330
6D5
100
AcDbEntity
  8
0
100
AcDbLine
 10
30.08171008039236
 20
-1.49999999999999
 30
0.0
 11
30.08171008039236
 21
-1.675735931288077
 31
0.0
  0
LINE
  5
733
330
6D5
100
AcDbEntity
  8
0
100
AcDbLine
 10
34.91828991960763
 20
-1.675735931288075
 30
0.0
 11
34.91828991960763
 21
-1.499999999999988
 31
0.0
  0
SPLINE
  5
734
330
6D5
100
AcDbEntity
  8
0
100
AcDbSpline
210
0.0
220
0.0
230
1.0
 70
     8
 71
     3
 72
     8
 73
     4
 74
     0
 42
0.000000001
 43
0.0000000001
 40
-1.0
 40
-1.0
 40
-1.0
 40
-1.0
 40
0.0
 40
0.0
 40
0.0
 40
0.0
 10
34.9894335139974
 20
-1.500000000000004
 30
0.0
 10
35.01609483643939
 20
-1.500000000000004
 30
0.0
 10
34.99189972301838
 20
-1.567383125827652
 30
0.0
 10
34.9182899196077
 20
-1.675735931288075
 30
0.0
  0
LINE
  5
735
330
6D5
100
AcDbEntity
  8
0
100
AcDbLine
 10
-49.40000000000001
 20
-55.8401153701776
 30
0.0
 11
49.39999999999999
 21
-55.84011537017758
 31
0.0
  0
ELLIPSE
  5
736
330
6D5
100
AcDbEntity
  8
0
100
AcDbEllipse
 10
-49.40000000000001
 20
-56.26437943888952
 30
0.0
 11
-0.5999999999999587
 21
-0.0000000000000268
 31
0.0
210
0.0
220
0.0
230
1.0
 40
0.7071067811865444
 41
4.712388980384583
 42
6.28318530717946
  0
ARC
  5
737
330
6D5
100
AcDbEntity
  8
0
100
AcDbCircle
 10
49.39999999999998
 20
-2.099999999999988
 30
0.0
 40
0.600000000000005
100
AcDbArc
 50
0.0
 51
90.0
  0
ARC
  5
738
330
6D5
100
AcDbEntity
  8
0
100
AcDbCircle
 10
49.39999999999998
 20
-2.099999999999988
 30
0.0
 40
2.100000000000008
100
AcDbArc
 50
0.0
 51
90.0
  0
ARC
  5
739
330
6D5
100
AcDbEntity
  8
0
100
AcDbCircle
 10
-49.40000000000002
 20
-2.10000000000001
 30
0.0
 40
0.5999999999999961
100
AcDbArc
 50
90.0
 51
180.0
  0
ARC
  5
73A
330
6D5
100
AcDbEntity
  8
0
100
AcDbCircle
 10
-49.40000000000002
 20
-2.10000000000001
 30
0.0
 40
2.099999999999999
100
AcDbArc
 50
90.0
 51
180.0
  0
ENDBLK
  5
6D7
330
6D5
100
AcDbEntity
  8
0
100
AcDbBlockEnd
  0
BLOCK
  5
73C
330
73B
100
AcDbEntity
  8
0
100
AcDbBlockBegin
  2
SPR100_140-Bottom
 70
     0
 10
0.0
 20
0.0
 30
0.0
  3
SPR100_140-Bottom
  1

  0
LINE
  5
73E
330
73B
100
AcDbEntity
  8
0
100
AcDbLine
 10
92.52709056099996
 20
1.499999999999965
 30
0.0
 11
87.52709056099996
 21
1.499999999999966
 31
0.0
  0
LINE
  5
73F
330
73B
100
AcDbEntity
  8
0
100
AcDbLine
 10
87.52709056099996
 20
1.499999999999966
 30
0.0
 11
87.52709056099996
 21
0.0
 31
0.0
  0
LINE
  5
740
330
73B
100
AcDbEntity
  8
0
100
AcDbLine
 10
87.52709056099996
 20
0.0
 30
0.0
 11
92.52709056099996
 21
0.0
 31
0.0
  0
LINE
  5
741
330
73B
100
AcDbEntity
  8
0
100
AcDbLine
 10
92.52709056099996
 20
0.0
 30
0.0
 11
92.52709056099996
 21
1.499999999999965
 31
0.0
  0
LINE
  5
742
330
73B
100
AcDbEntity
  8
0
100
AcDbLine
 10
-92.527090561
 20
0.0
 30
0.0
 11
-87.527090561
 21
0.0
 31
0.0
  0
LINE
  5
743
330
73B
100
AcDbEntity
  8
0
100
AcDbLine
 10
-87.527090561
 20
1.500000000000016
 30
0.0
 11
-92.527090561
 21
1.500000000000017
 31
0.0
  0
LINE
  5
744
330
73B
100
AcDbEntity
  8
0
100
AcDbLine
 10
-92.527090561
 20
1.500000000000017
 30
0.0
 11
-92.527090561
 21
0.0
 31
0.0
  0
LINE
  5
745
330
73B
100
AcDbEntity
  8
0
100
AcDbLine
 10
-87.527090561
 20
0.0
 30
0.0
 11
-87.527090561
 21
1.500000000000016
 31
0.0
  0
LINE
  5
746
330
73B
100
AcDbEntity
  8
0
100
AcDbLine
 10
87.52709056099996
 20
0.0
 30
0.0
 11
46.49999999999997
 21
0.0
 31
0.0
  0
LINE
  5
747
330
73B
100
AcDbEntity
  8
0
100
AcDbLine
 10
-46.50000000000002
 20
0.0
 30
0.0
 11
-87.527090561
 21
0.0
 31
0.0
  0
LINE
  5
748
330
73B
100
AcDbEntity
  8
0
100
AcDbLine
 10
-49.17856242236215
 20
1.500000000000008
 30
0.0
 11
-87.527090561
 21
1.500000000000016
 31
0.0
  0
LINE
  5
749
330
73B
100
AcDbEntity
  8
0
100
AcDbLine
 10
87.52709056099996
 20
1.499999999999966
 30
0.0
 11
49.17856242236211
 21
1.499999999999977
 31
0.0
  0
LINE
  5
74A
330
73B
100
AcDbEntity
  8
0
100
AcDbLine
 10
46.49999999999997
 20
0.0
 30
0.0
 11
45.01767776087192
 21
0.0
 31
0.0
  0
LINE
  5
74B
330
73B
100
AcDbEntity
  8
0
100
AcDbLine
 10
-45.01767776087198
 20
0.0
 30
0.0
 11
-46.50000000000002
 21
0.0
 31
0.0
  0
SPLINE
  5
74C
330
73B
100
AcDbEntity
  8
0
100
AcDbSpline
210
0.0
220
0.0
230
1.0
 70
     8
 71
     3
 72
     8
 73
     4
 74
     0
 42
0.000000001
 43
0.0000000001
 40
0.0
 40
0.0
 40
0.0
 40
0.0
 40
1.0
 40
1.0
 40
1.0
 40
1.0
 10
45.01767776087191
 20
0.0000000000000019
 30
0.0
 10
44.97251992074146
 20
0.0000000000000022
 30
0.0
 10
45.01586474390284
 20
0.2539843833467178
 30
0.0
 10
45.14054197002045
 20
0.6150757595082521
 30
0.0
  0
SPLINE
  5
74D
330
73B
100
AcDbEntity
  8
0
100
AcDbSpline
210
0.0
220
0.0
230
1.0
 70
     8
 71
     3
 72
     8
 73
     4
 74
     0
 42
0.000000001
 43
0.0000000001
 40
0.0
 40
0.0
 40
0.0
 40
0.0
 40
1.0
 40
1.0
 40
1.0
 40
1.0
 10
-45.14054197002046
 20
0.6150757595082722
 30
0.0
 10
-45.01586474390141
 20
0.2539843833467359
 30
0.0
 10
-44.97251992073876
 20
0.0000000000000221
 30
0.0
 10
-45.01767776087199
 20
0.0000000000000219
 30
0.0
  0
SPLINE
  5
74E
330
73B
100
AcDbEntity
  8
0
100
AcDbSpline
210
0.0
220
0.0
230
1.0
 70
     8
 71
     3
 72
     8
 73
     4
 74
     0
 42
0.000000001
 43
0.0000000001
 40
0.0
 40
0.0
 40
0.0
 40
0.0
 40
1.0
 40
1.0
 40
1.0
 40
1.0
 10
-51.49999999999999
 20
4.362741700911336
 30
0.0
 10
-51.50000000000005
 20
3.178158037514217
 30
0.0
 10
-50.49955742875652
 20
2.063659161980492
 30
0.0
 10
-49.40000000000002
 20
1.656580012761361
 30
0.0
  0
LINE
  5
74F
330
73B
100
AcDbEntity
  8
0
100
AcDbLine
 10
-49.40000000000002
 20
1.656580012761348
 30
0.0
 11
-48.79315533855965
 21
1.227476037518805
 31
0.0
  0
LINE
  5
750
330
73B
100
AcDbEntity
  8
0
100
AcDbLine
 10
-48.79315533855965
 20
1.227476037518805
 30
0.0
 11
-46.50000000000002
 21
1.227476037518787
 31
0.0
  0
ELLIPSE
  5
751
330
73B
100
AcDbEntity
  8
0
100
AcDbEllipse
 10
-46.50000000000002
 20
0.166815865738999
 30
0.0
 11
1.5
 21
-0.0000000000000003
 31
0.0
210
0.0
220
0.0
230
1.0
 40
0.7071067811865474
 41
0.4363380716279126
 42
1.570796326794896
  0
LINE
  5
752
330
73B
100
AcDbEntity
  8
0
100
AcDbLine
 10
-45.01767776087198
 20
0.1805170265383174
 30
0.0
 11
-45.01767776087198
 21
0.0
 31
0.0
  0
SPLINE
  5
753
330
73B
100
AcDbEntity
  8
0
100
AcDbSpline
210
0.0
220
0.0
230
1.0
 70
     8
 71
     3
 72
     8
 73
     4
 74
     0
 42
0.000000001
 43
0.0000000001
 40
0.0
 40
0.0
 40
0.0
 40
0.0
 40
1.0
 40
1.0
 40
1.0
 40
1.0
 10
49.39999999999998
 20
1.656580012761356
 30
0.0
 10
50.49955742875638
 20
2.063659161980629
 30
0.0
 10
51.49999999999997
 20
3.178158037514038
 30
0.0
 10
51.5
 20
4.362741700911223
 30
0.0
  0
ELLIPSE
  5
754
330
73B
100
AcDbEntity
  8
0
100
AcDbEllipse
 10
46.49999999999997
 20
0.1668158657389807
 30
0.0
 11
1.5
 21
-0.0000000000001098
 31
0.0
210
0.0
220
0.0
230
1.0
 40
0.7071067811865474
 41
1.570796326795026
 42
2.705254581962147
  0
LINE
  5
755
330
73B
100
AcDbEntity
  8
0
100
AcDbLine
 10
46.49999999999997
 20
1.227476037518762
 30
0.0
 11
48.79315533855962
 21
1.227476037518781
 31
0.0
  0
LINE
  5
756
330
73B
100
AcDbEntity
  8
0
100
AcDbLine
 10
48.79315533855962
 20
1.227476037518781
 30
0.0
 11
49.39999999999998
 21
1.656580012761322
 31
0.0
  0
LINE
  5
757
330
73B
100
AcDbEntity
  8
0
100
AcDbLine
 10
45.01767776087192
 20
0.1805170265382922
 30
0.0
 11
45.01767776087192
 21
0.0
 31
0.0
  0
LINE
  5
758
330
73B
100
AcDbEntity
  8
0
100
AcDbLine
 10
34.98943351399742
 20
0.0
 30
0.0
 11
45.01767776087192
 21
0.0
 31
0.0
  0
LINE
  5
759
330
73B
100
AcDbEntity
  8
0
100
AcDbLine
 10
19.98943351399741
 20
0.0
 30
0.0
 11
30.01056648600256
 21
0.0
 31
0.0
  0
LINE
  5
75A
330
73B
100
AcDbEntity
  8
0
100
AcDbLine
 10
-10.01056648600259
 20
0.0
 30
0.0
 11
10.01056648600255
 21
0.0
 31
0.0
  0
LINE
  5
75B
330
73B
100
AcDbEntity
  8
0
100
AcDbLine
 10
-30.01056648600259
 20
0.0
 30
0.0
 11
-19.98943351399745
 21
0.0
 31
0.0
  0
LINE
  5
75C
330
73B
100
AcDbEntity
  8
0
100
AcDbLine
 10
-45.01767776087198
 20
0.0
 30
0.0
 11
-34.98943351399745
 21
0.0
 31
0.0
  0
LINE
  5
75D
330
73B
100
AcDbEntity
  8
0
100
AcDbLine
 10
51.49999999999999
 20
56.26437943888952
 30
0.0
 11
51.49999999999997
 21
82.00306627385993
 31
0.0
  0
LINE
  5
75E
330
73B
100
AcDbEntity
  8
0
100
AcDbLine
 10
-51.49999999999997
 20
82.00306627385996
 30
0.0
 11
-51.50000000000002
 21
56.26437943888955
 31
0.0
  0
LINE
  5
75F
330
73B
100
AcDbEntity
  8
0
100
AcDbLine
 10
-50.0
 20
82.00306627385996
 30
0.0
 11
-50.0
 21
56.26437943888955
 31
0.0
  0
LINE
  5
760
330
73B
100
AcDbEntity
  8
0
100
AcDbLine
 10
-49.40000000000001
 20
55.8401153701776
 30
0.0
 11
49.39999999999999
 21
55.84011537017758
 31
0.0
  0
LINE
  5
761
330
73B
100
AcDbEntity
  8
0
100
AcDbLine
 10
50.0
 20
56.26437943888952
 30
0.0
 11
50.0
 21
82.00306627385993
 31
0.0
  0
LINE
  5
762
330
73B
100
AcDbEntity
  8
0
100
AcDbLine
 10
-49.40000000000001
 20
54.77945519839778
 30
0.0
 11
49.39999999999999
 21
54.77945519839777
 31
0.0
  0
LINE
  5
763
330
73B
100
AcDbEntity
  8
0
100
AcDbLine
 10
34.98943351399742
 20
0.0
 30
0.0
 11
30.01056648600256
 21
0.0
 31
0.0
  0
LINE
  5
764
330
73B
100
AcDbEntity
  8
0
100
AcDbLine
 10
-30.01056648600259
 20
0.0
 30
0.0
 11
-34.98943351399745
 21
0.0
 31
0.0
  0
SPLINE
  5
765
330
73B
100
AcDbEntity
  8
0
100
AcDbSpline
210
0.0
220
0.0
230
1.0
 70
     8
 71
     3
 72
     8
 73
     4
 74
     0
 42
0.000000001
 43
0.0000000001
 40
0.0
 40
0.0
 40
0.0
 40
0.0
 40
1.0
 40
1.0
 40
1.0
 40
1.0
 10
-30.08171008039236
 20
0.6150757595082688
 30
0.0
 10
-30.00810027697977
 20
0.235840940396814
 30
0.0
 10
-29.9839051635604
 20
0.0000000000000186
 30
0.0
 10
-30.01056648600259
 20
0.0000000000000186
 30
0.0
  0
SPLINE
  5
766
330
73B
100
AcDbEntity
  8
0
100
AcDbSpline
210
0.0
220
0.0
230
1.0
 70
     8
 71
     3
 72
     8
 73
     4
 74
     0
 42
0.000000001
 43
0.0000000001
 40
0.0
 40
0.0
 40
0.0
 40
0.0
 40
1.0
 40
1.0
 40
1.0
 40
1.0
 10
30.01056648600258
 20
0.0000000000000053
 30
0.0
 10
29.98390516356052
 20
0.0000000000000054
 30
0.0
 10
30.00810027698002
 20
0.235840940396972
 30
0.0
 10
30.08171008039236
 20
0.6150757595082581
 30
0.0
  0
ELLIPSE
  5
767
330
73B
100
AcDbEntity
  8
0
100
AcDbEllipse
 10
-32.50000000000002
 20
0.1668158657389986
 30
0.0
 11
-2.5
 21
0.000000000000001
 31
0.0
210
0.0
220
0.0
230
1.0
 40
0.7071067811865472
 41
3.397965980608241
 42
6.026811980161136
  0
SPLINE
  5
768
330
73B
100
AcDbEntity
  8
0
100
AcDbSpline
210
0.0
220
0.0
230
1.0
 70
     8
 71
     3
 72
     8
 73
     4
 74
     0
 42
0.000000001
 43
0.0000000001
 40
0.0
 40
0.0
 40
0.0
 40
0.0
 40
1.0
 40
1.0
 40
1.0
 40
1.0
 10
-34.98943351399745
 20
0.0000000000000197
 30
0.0
 10
-35.01609483643911
 20
0.0000000000000196
 30
0.0
 10
-34.99189972302045
 20
0.2358409403969599
 30
0.0
 10
-34.91828991960765
 20
0.6150757595082725
 30
0.0
  0
LINE
  5
769
330
73B
100
AcDbEntity
  8
0
100
AcDbLine
 10
-34.98943351399745
 20
0.180517026538172
 30
0.0
 11
-34.98943351399745
 21
0.0
 31
0.0
  0
LINE
  5
76A
330
73B
100
AcDbEntity
  8
0
100
AcDbLine
 10
-30.01056648600259
 20
0.1805170265382192
 30
0.0
 11
-30.01056648600259
 21
0.0
 31
0.0
  0
LINE
  5
76B
330
73B
100
AcDbEntity
  8
0
100
AcDbLine
 10
-34.14171865077714
 20
1.500000000000002
 30
0.0
 11
-30.8582813492229
 21
1.500000000000001
 31
0.0
  0
ELLIPSE
  5
76C
330
73B
100
AcDbEntity
  8
0
100
AcDbEllipse
 10
32.5
 20
0.1668158657389876
 30
0.0
 11
-2.5
 21
0.0000000000000005
 31
0.0
210
0.0
220
0.0
230
1.0
 40
0.7071067811865474
 41
3.39796598060824
 42
6.026811980161135
  0
LINE
  5
76D
330
73B
100
AcDbEntity
  8
0
100
AcDbLine
 10
30.01056648600256
 20
0.1805170265382436
 30
0.0
 11
30.01056648600256
 21
0.0
 31
0.0
  0
LINE
  5
76E
330
73B
100
AcDbEntity
  8
0
100
AcDbLine
 10
34.98943351399742
 20
0.1805170265382808
 30
0.0
 11
34.98943351399742
 21
0.0
 31
0.0
  0
SPLINE
  5
76F
330
73B
100
AcDbEntity
  8
0
100
AcDbSpline
210
0.0
220
0.0
230
1.0
 70
     8
 71
     3
 72
     8
 73
     4
 74
     0
 42
0.000000001
 43
0.0000000001
 40
0.0
 40
0.0
 40
0.0
 40
0.0
 40
1.0
 40
1.0
 40
1.0
 40
1.0
 10
34.9182899196077
 20
0.6150757595082544
 30
0.0
 10
34.99189972301838
 20
0.2358409403967741
 30
0.0
 10
35.01609483643939
 20
0.0000000000000042
 30
0.0
 10
34.9894335139974
 20
0.0000000000000042
 30
0.0
  0
LINE
  5
770
330
73B
100
AcDbEntity
  8
0
100
AcDbLine
 10
30.85828134922286
 20
1.499999999999987
 30
0.0
 11
34.14171865077713
 21
1.499999999999986
 31
0.0
  0
LINE
  5
771
330
73B
100
AcDbEntity
  8
0
100
AcDbLine
 10
19.98943351399741
 20
0.0
 30
0.0
 11
17.49999999999998
 21
0.0
 31
0.0
  0
LINE
  5
772
330
73B
100
AcDbEntity
  8
0
100
AcDbLine
 10
17.49999999999998
 20
0.0
 30
0.0
 11
12.49999999999998
 21
0.0
 31
0.0
  0
LINE
  5
773
330
73B
100
AcDbEntity
  8
0
100
AcDbLine
 10
12.49999999999998
 20
0.0
 30
0.0
 11
10.01056648600255
 21
0.0
 31
0.0
  0
LINE
  5
774
330
73B
100
AcDbEntity
  8
0
100
AcDbLine
 10
-10.01056648600259
 20
0.0
 30
0.0
 11
-12.50000000000001
 21
0.0
 31
0.0
  0
LINE
  5
775
330
73B
100
AcDbEntity
  8
0
100
AcDbLine
 10
-12.50000000000001
 20
0.0
 30
0.0
 11
-17.50000000000001
 21
0.0
 31
0.0
  0
LINE
  5
776
330
73B
100
AcDbEntity
  8
0
100
AcDbLine
 10
-17.50000000000001
 20
0.0
 30
0.0
 11
-19.98943351399745
 21
0.0
 31
0.0
  0
ELLIPSE
  5
777
330
73B
100
AcDbEntity
  8
0
100
AcDbEllipse
 10
-17.50000000000001
 20
0.1668158657389947
 30
0.0
 11
-2.5
 21
0.0000000000000006
 31
0.0
210
0.0
220
0.0
230
1.0
 40
0.7071067811865472
 41
4.712388980384689
 42
6.026811980161137
  0
LINE
  5
778
330
73B
100
AcDbEntity
  8
0
100
AcDbLine
 10
-17.50000000000001
 20
1.934582818705337
 30
0.0
 11
-12.50000000000001
 21
1.934582818705336
 31
0.0
  0
ELLIPSE
  5
779
330
73B
100
AcDbEntity
  8
0
100
AcDbEllipse
 10
-12.50000000000001
 20
0.1668158657389995
 30
0.0
 11
2.5
 21
-0.0000000000000006
 31
0.0
210
0.0
220
0.0
230
1.0
 40
0.7071067811865474
 41
0.2563733270184487
 42
1.570796326794896
  0
SPLINE
  5
77A
330
73B
100
AcDbEntity
  8
0
100
AcDbSpline
210
0.0
220
0.0
230
1.0
 70
     8
 71
     3
 72
     8
 73
     4
 74
     0
 42
0.000000001
 43
0.0000000001
 40
0.0
 40
0.0
 40
0.0
 40
0.0
 40
1.0
 40
1.0
 40
1.0
 40
1.0
 10
-19.98943351399745
 20
0.0000000000000164
 30
0.0
 10
-20.01609483643937
 20
0.0000000000000164
 30
0.0
 10
-19.99189972301985
 20
0.2358409403969374
 30
0.0
 10
-19.91828991960765
 20
0.6150757595082666
 30
0.0
  0
LINE
  5
77B
330
73B
100
AcDbEntity
  8
0
100
AcDbLine
 10
-19.98943351399745
 20
0.1805170265381761
 30
0.0
 11
-19.98943351399745
 21
0.0
 31
0.0
  0
LINE
  5
77C
330
73B
100
AcDbEntity
  8
0
100
AcDbLine
 10
-10.01056648600259
 20
0.1805170265382339
 30
0.0
 11
-10.01056648600259
 21
0.0
 31
0.0
  0
SPLINE
  5
77D
330
73B
100
AcDbEntity
  8
0
100
AcDbSpline
210
0.0
220
0.0
230
1.0
 70
     8
 71
     3
 72
     8
 73
     4
 74
     0
 42
0.000000001
 43
0.0000000001
 40
0.0
 40
0.0
 40
0.0
 40
0.0
 40
1.0
 40
1.0
 40
1.0
 40
1.0
 10
-10.08171008039238
 20
0.6150757595082644
 30
0.0
 10
-10.00810027698007
 20
0.2358409403970346
 30
0.0
 10
-9.983905163560532
 20
0.000000000000014
 30
0.0
 10
-10.01056648600259
 20
0.0000000000000142
 30
0.0
  0
LINE
  5
77E
330
73B
100
AcDbEntity
  8
0
100
AcDbLine
 10
-12.50000000000001
 20
1.499999999999997
 30
0.0
 11
-10.85828134922288
 21
1.499999999999996
 31
0.0
  0
LINE
  5
77F
330
73B
100
AcDbEntity
  8
0
100
AcDbLine
 10
-17.50000000000001
 20
1.499999999999999
 30
0.0
 11
-12.50000000000001
 21
1.499999999999998
 31
0.0
  0
LINE
  5
780
330
73B
100
AcDbEntity
  8
0
100
AcDbLine
 10
-19.14171865077715
 20
1.499999999999998
 30
0.0
 11
-17.50000000000002
 21
1.499999999999998
 31
0.0
  0
ELLIPSE
  5
781
330
73B
100
AcDbEntity
  8
0
100
AcDbEllipse
 10
12.49999999999998
 20
0.1668158657389929
 30
0.0
 11
-2.5
 21
0.0000000000000008
 31
0.0
210
0.0
220
0.0
230
1.0
 40
0.7071067811865474
 41
4.712388980384689
 42
6.026811980161137
  0
LINE
  5
782
330
73B
100
AcDbEntity
  8
0
100
AcDbLine
 10
12.49999999999998
 20
1.934582818705329
 30
0.0
 11
17.49999999999998
 21
1.934582818705328
 31
0.0
  0
ELLIPSE
  5
783
330
73B
100
AcDbEntity
  8
0
100
AcDbEllipse
 10
17.49999999999998
 20
0.1668158657389918
 30
0.0
 11
2.5
 21
-0.0000000000000006
 31
0.0
210
0.0
220
0.0
230
1.0
 40
0.7071067811865472
 41
0.2563733270184496
 42
1.570796326794896
  0
SPLINE
  5
784
330
73B
100
AcDbEntity
  8
0
100
AcDbSpline
210
0.0
220
0.0
230
1.0
 70
     8
 71
     3
 72
     8
 73
     4
 74
     0
 42
0.000000001
 43
0.0000000001
 40
0.0
 40
0.0
 40
0.0
 40
0.0
 40
1.0
 40
1.0
 40
1.0
 40
1.0
 10
10.01056648600256
 20
0.0000000000000097
 30
0.0
 10
9.983905163560503
 20
0.0000000000000096
 30
0.0
 10
10.00810027697994
 20
0.2358409403970171
 30
0.0
 10
10.08171008039234
 20
0.6150757595082599
 30
0.0
  0
LINE
  5
785
330
73B
100
AcDbEntity
  8
0
100
AcDbLine
 10
10.01056648600255
 20
0.1805170265382363
 30
0.0
 11
10.01056648600255
 21
0.0
 31
0.0
  0
LINE
  5
786
330
73B
100
AcDbEntity
  8
0
100
AcDbLine
 10
19.98943351399741
 20
0.1805170265381495
 30
0.0
 11
19.98943351399741
 21
0.0
 31
0.0
  0
SPLINE
  5
787
330
73B
100
AcDbEntity
  8
0
100
AcDbSpline
210
0.0
220
0.0
230
1.0
 70
     8
 71
     3
 72
     8
 73
     4
 74
     0
 42
0.000000001
 43
0.0000000001
 40
0.0
 40
0.0
 40
0.0
 40
0.0
 40
1.0
 40
1.0
 40
1.0
 40
1.0
 10
19.91828991960761
 20
0.6150757595082567
 30
0.0
 10
19.99189972302027
 20
0.2358409403969405
 30
0.0
 10
20.01609483643914
 20
0.0000000000000075
 30
0.0
 10
19.98943351399741
 20
0.0000000000000075
 30
0.0
  0
LINE
  5
788
330
73B
100
AcDbEntity
  8
0
100
AcDbLine
 10
17.49999999999998
 20
1.49999999999999
 30
0.0
 11
19.14171865077712
 21
1.49999999999999
 31
0.0
  0
LINE
  5
789
330
73B
100
AcDbEntity
  8
0
100
AcDbLine
 10
12.49999999999998
 20
1.499999999999991
 30
0.0
 11
17.49999999999998
 21
1.499999999999989
 31
0.0
  0
LINE
  5
78A
330
73B
100
AcDbEntity
  8
0
100
AcDbLine
 10
10.85828134922284
 20
1.499999999999992
 30
0.0
 11
12.49999999999998
 21
1.499999999999992
 31
0.0
  0
LINE
  5
78B
330
73B
100
AcDbEntity
  8
0
100
AcDbLine
 10
51.49999999999999
 20
2.099999999999961
 30
0.0
 11
51.5
 21
4.362741700911229
 31
0.0
  0
LINE
  5
78C
330
73B
100
AcDbEntity
  8
0
100
AcDbLine
 10
-51.50000000000002
 20
4.362741700911343
 30
0.0
 11
-51.50000000000002
 21
2.100000000000002
 31
0.0
  0
LINE
  5
78D
330
73B
100
AcDbEntity
  8
0
100
AcDbLine
 10
50.0
 20
82.00306627385993
 30
0.0
 11
51.49999999999997
 21
82.00306627385993
 31
0.0
  0
LINE
  5
78E
330
73B
100
AcDbEntity
  8
0
100
AcDbLine
 10
-51.49999999999997
 20
82.00306627385996
 30
0.0
 11
-50.0
 21
82.00306627385996
 31
0.0
  0
LINE
  5
78F
330
73B
100
AcDbEntity
  8
0
100
AcDbLine
 10
51.49999999999999
 20
56.26437943888952
 30
0.0
 11
51.5
 21
4.362741700911234
 31
0.0
  0
ELLIPSE
  5
790
330
73B
100
AcDbEntity
  8
0
100
AcDbEllipse
 10
49.39999999999999
 20
56.26437943888955
 30
0.0
 11
0.6000000000000087
 21
-0.0000000000000612
 31
0.0
210
0.0
220
0.0
230
1.0
 40
0.7071067811864884
 41
4.712388980384954
 42
6.283185307179342
  0
ELLIPSE
  5
791
330
73B
100
AcDbEntity
  8
0
100
AcDbEllipse
 10
49.39999999999999
 20
56.26437943888955
 30
0.0
 11
2.100000000000031
 21
-0.0000000000003202
 31
0.0
210
0.0
220
0.0
230
1.0
 40
0.7071067811865516
 41
4.712388980384615
 42
6.283185307179203
  0
LINE
  5
792
330
73B
100
AcDbEntity
  8
0
100
AcDbLine
 10
-51.49999999999999
 20
4.362741700911342
 30
0.0
 11
-51.50000000000002
 21
56.26437943888955
 31
0.0
  0
ELLIPSE
  5
793
330
73B
100
AcDbEntity
  8
0
100
AcDbEllipse
 10
-49.40000000000001
 20
56.26437943888952
 30
0.0
 11
-2.09999999999998
 21
-0.0000000000000051
 31
0.0
210
0.0
220
0.0
230
1.0
 40
0.7071067811865476
 41
0.0
 42
1.570796326794894
  0
ELLIPSE
  5
794
330
73B
100
AcDbEntity
  8
0
100
AcDbEllipse
 10
-49.40000000000001
 20
56.26437943888952
 30
0.0
 11
-0.5999999999999587
 21
0.0000000000000268
 31
0.0
210
0.0
220
0.0
230
1.0
 40
0.7071067811865444
 41
0.0000000000001259
 42
1.570796326795002
  0
ARC
  5
795
330
73B
100
AcDbEntity
  8
0
100
AcDbCircle
 10
49.39999999999998
 20
2.099999999999988
 30
0.0
 40
0.600000000000005
100
AcDbArc
 50
270.0
 51
343.4444348564548
  0
ARC
  5
796
330
73B
100
AcDbEntity
  8
0
100
AcDbCircle
 10
49.39999999999998
 20
2.099999999999988
 30
0.0
 40
2.100000000000008
100
AcDbArc
 50
343.3984504009796
 51
0.0
  0
ARC
  5
797
330
73B
100
AcDbEntity
  8
0
100
AcDbCircle
 10
-49.40000000000002
 20
2.10000000000001
 30
0.0
 40
0.5999999999999961
100
AcDbArc
 50
196.5555651435453
 51
270.0
  0
ARC
  5
798
330
73B
100
AcDbEntity
  8
0
100
AcDbCircle
 10
-49.40000000000002
 20
2.10000000000001
 30
0.0
 40
2.099999999999999
100
AcDbArc
 50
180.0
 51
196.6015495990203
  0
ENDBLK
  5
73D
330
73B
100
AcDbEntity
  8
0
100
AcDbBlockEnd
  0
BLOCK
  5
79A
330
799
100
AcDbEntity
  8
0
100
AcDbBlockBegin
  2
SPR100_140-ISO
 70
     0
 10
0.0
 20
0.0
 30
0.0
  3
SPR100_140-ISO
  1

  0
LINE
  5
79C
330
799
100
AcDbEntity
  8
0
100
AcDbLine
 10
93.35594368192348
 20
-51.2389350429839
 30
0.0
 11
89.82040977599073
 21
-53.28017649530321
 31
0.0
  0
LINE
  5
79D
330
799
100
AcDbEntity
  8
0
100
AcDbLine
 10
94.4166038537033
 20
-50.62656260728809
 30
0.0
 11
93.35594368192348
 21
-51.2389350429839
 31
0.0
  0
LINE
  5
79E
330
799
100
AcDbEntity
  8
0
100
AcDbLine
 10
93.35594368192348
 20
2.649839298246039
 30
0.0
 11
94.4166038537033
 21
3.262211733941833
 31
0.0
  0
LINE
  5
79F
330
799
100
AcDbEntity
  8
0
100
AcDbLine
 10
94.4166038537033
 20
3.262211733941833
 30
0.0
 11
90.88106994777055
 21
9.385936090899784
 31
0.0
  0
LINE
  5
7A0
330
799
100
AcDbEntity
  8
0
100
AcDbLine
 10
-33.96158877043359
 20
18.18539368630472
 30
0.0
 11
-37.49712267636633
 21
24.30911804326266
 31
0.0
  0
LINE
  5
7A1
330
799
100
AcDbEntity
  8
0
100
AcDbLine
 10
89.82040977599073
 20
8.773563655203989
 30
0.0
 11
93.35594368192348
 21
2.649839298246039
 31
0.0
  0
LINE
  5
7A2
330
799
100
AcDbEntity
  8
0
100
AcDbLine
 10
90.88106994777055
 20
9.385936090899784
 30
0.0
 11
89.82040977599073
 21
8.773563655203989
 31
0.0
  0
LINE
  5
7A3
330
799
100
AcDbEntity
  8
0
100
AcDbLine
 10
94.4166038537033
 20
3.262211733941833
 30
0.0
 11
94.4166038537033
 21
-50.62656260728809
 31
0.0
  0
LINE
  5
7A4
330
799
100
AcDbEntity
  8
0
100
AcDbLine
 10
93.35594368192348
 20
2.649839298246039
 30
0.0
 11
93.35594368192348
 21
-51.2389350429839
 31
0.0
  0
LINE
  5
7A5
330
799
100
AcDbEntity
  8
0
100
AcDbLine
 10
-8.486588728328658
 20
66.75588057628849
 30
0.0
 11
-3.890394650616078
 21
64.10226668827336
 31
0.0
  0
LINE
  5
7A6
330
799
100
AcDbEntity
  8
0
100
AcDbLine
 10
63.28474956210598
 20
25.31867909420638
 30
0.0
 11
90.88106994777055
 21
9.385936090899784
 31
0.0
  0
LINE
  5
7A7
330
799
100
AcDbEntity
  8
0
100
AcDbLine
 10
-37.49712267636633
 20
24.30911804326266
 30
0.0
 11
-37.49712267636633
 21
54.51949153758852
 31
0.0
  0
LINE
  5
7A8
330
799
100
AcDbEntity
  8
0
100
AcDbLine
 10
62.22408939032615
 20
24.70630665851059
 30
0.0
 11
89.82040977599073
 21
8.773563655203989
 31
0.0
  0
LINE
  5
7A9
330
799
100
AcDbEntity
  8
0
100
AcDbLine
 10
-4.951054822395901
 20
1.436154102070374
 30
0.0
 11
-33.96158877043359
 21
18.18539368630472
 31
0.0
  0
LINE
  5
7AA
330
799
100
AcDbEntity
  8
0
100
AcDbLine
 10
89.82040977599073
 20
-53.28017649530321
 30
0.0
 11
60.80987582795303
 21
-36.53093691106889
 31
0.0
  0
LINE
  5
7AB
330
799
100
AcDbEntity
  8
0
100
AcDbLine
 10
-9.547248900108463
 20
66.14350814059267
 30
0.0
 11
-4.951054822395897
 21
63.48989425257757
 31
0.0
  0
LINE
  5
7AC
330
799
100
AcDbEntity
  8
0
100
AcDbLine
 10
-3.890394650616078
 20
64.10226668827336
 30
0.0
 11
-4.951054822395897
 21
63.48989425257757
 31
0.0
  0
ELLIPSE
  5
7AD
330
799
100
AcDbEntity
  8
0
100
AcDbEllipse
 10
-4.951054822395897
 20
64.71463912396917
 30
0.0
 11
0.7500000000000004
 21
-1.299038105676658
 31
0.0
210
0.0
220
0.0
230
0.9999999999999998
 40
0.577350269189626
 41
5.497787143782137
 42
8.63937979737193
  0
ELLIPSE
  5
7AE
330
799
100
AcDbEntity
  8
0
100
AcDbEllipse
 10
57.27434192202029
 20
22.66506520619126
 30
0.0
 11
1.25
 21
-2.165063509461097
 31
0.0
210
0.0
220
0.0
230
1.0
 40
0.5773502691896259
 41
4.999145532596252
 42
5.845036276595413
  0
ELLIPSE
  5
7AF
330
799
100
AcDbEntity
  8
0
100
AcDbEllipse
 10
56.21368175024047
 20
22.05269277049547
 30
0.0
 11
1.25
 21
-2.165063509461097
 31
0.0
210
0.0
220
0.0
230
1.0
 40
0.5773502691896259
 41
4.999145532596259
 42
7.567225081762923
  0
ELLIPSE
  5
7B0
330
799
100
AcDbEntity
  8
0
100
AcDbEllipse
 10
57.27434192202029
 20
-9.99479803091779
 30
0.0
 11
1.250000000000129
 21
-2.165063509461022
 31
0.0
210
0.0
220
0.0
230
1.0
 40
0.577350269189626
 41
3.579741684173548
 42
5.845036276594999
  0
ELLIPSE
  5
7B1
330
799
100
AcDbEntity
  8
0
100
AcDbEllipse
 10
56.21368175024047
 20
-10.60717046661358
 30
0.0
 11
1.25
 21
-2.165063509461097
 31
0.0
210
0.0
220
0.0
230
1.0
 40
0.5773502691896259
 41
0.0
 42
6.283185307179586
  0
ELLIPSE
  5
7B2
330
799
100
AcDbEntity
  8
0
100
AcDbEllipse
 10
50.20327411015481
 20
75.73734296649347
 30
0.0
 11
1.250000000000129
 21
-2.165063509461022
 31
0.0
210
0.0
220
0.0
230
1.0
 40
0.577350269189626
 41
3.579741684173546
 42
5.845036276594998
  0
ELLIPSE
  5
7B3
330
799
100
AcDbEntity
  8
0
100
AcDbEllipse
 10
50.20327411015481
 20
10.41761649227536
 30
0.0
 11
1.250000000000129
 21
-2.165063509461022
 31
0.0
210
0.0
220
0.0
230
1.0
 40
0.577350269189626
 41
3.579741684173546
 42
5.845036276594998
  0
ELLIPSE
  5
7B4
330
799
100
AcDbEntity
  8
0
100
AcDbEllipse
 10
49.14261393837499
 20
75.12497053079767
 30
0.0
 11
1.25
 21
-2.165063509461097
 31
0.0
210
0.0
220
0.0
230
1.0
 40
0.5773502691896259
 41
0.0
 42
6.283185307179586
  0
ELLIPSE
  5
7B5
330
799
100
AcDbEntity
  8
0
100
AcDbEllipse
 10
49.14261393837499
 20
9.805244056579569
 30
0.0
 11
1.25
 21
-2.165063509461097
 31
0.0
210
0.0
220
0.0
230
1.0
 40
0.5773502691896259
 41
0.0
 42
6.283185307179586
  0
ELLIPSE
  5
7B6
330
799
100
AcDbEntity
  8
0
100
AcDbEllipse
 10
50.20327411015481
 20
-22.2422467448337
 30
0.0
 11
1.250000000000129
 21
-2.165063509461022
 31
0.0
210
0.0
220
0.0
230
1.0
 40
0.5773502691896259
 41
3.579741684173548
 42
5.845036276594999
  0
ELLIPSE
  5
7B7
330
799
100
AcDbEntity
  8
0
100
AcDbEllipse
 10
49.14261393837499
 20
-22.85461918052948
 30
0.0
 11
1.25
 21
-2.165063509461097
 31
0.0
210
0.0
220
0.0
230
1.0
 40
0.5773502691896259
 41
0.0
 42
6.283185307179586
  0
ELLIPSE
  5
7B8
330
799
100
AcDbEntity
  8
0
100
AcDbEllipse
 10
7.776867238961955
 20
83.90230877577073
 30
0.0
 11
1.250000000000129
 21
-2.165063509461022
 31
0.0
210
0.0
220
0.0
230
1.0
 40
0.577350269189626
 41
3.579741684173546
 42
5.845036276594998
  0
ELLIPSE
  5
7B9
330
799
100
AcDbEntity
  8
0
100
AcDbEllipse
 10
7.776867238961959
 20
51.24244553866168
 30
0.0
 11
1.250000000000129
 21
-2.165063509461022
 31
0.0
210
0.0
220
0.0
230
1.0
 40
0.577350269189626
 41
3.579741684173546
 42
5.845036276594997
  0
ELLIPSE
  5
7BA
330
799
100
AcDbEntity
  8
0
100
AcDbEllipse
 10
6.716207067182131
 20
83.28993634007494
 30
0.0
 11
1.25
 21
-2.165063509461097
 31
0.0
210
0.0
220
0.0
230
1.0
 40
0.5773502691896259
 41
0.0
 42
6.283185307179586
  0
ELLIPSE
  5
7BB
330
799
100
AcDbEntity
  8
0
100
AcDbEllipse
 10
6.716207067182136
 20
50.6300731029659
 30
0.0
 11
1.25
 21
-2.165063509461097
 31
0.0
210
0.0
220
0.0
230
1.0
 40
0.5773502691896259
 41
0.0
 42
6.283185307179586
  0
ELLIPSE
  5
7BC
330
799
100
AcDbEntity
  8
0
100
AcDbEllipse
 10
7.776867238961959
 20
18.58258230155263
 30
0.0
 11
1.250000000000129
 21
-2.165063509461022
 31
0.0
210
0.0
220
0.0
230
1.0
 40
0.577350269189626
 41
3.57974168417355
 42
5.845036276594997
  0
ELLIPSE
  5
7BD
330
799
100
AcDbEntity
  8
0
100
AcDbEllipse
 10
6.716207067182136
 20
17.97020986585683
 30
0.0
 11
1.25
 21
-2.165063509461097
 31
0.0
210
0.0
220
0.0
230
1.0
 40
0.5773502691896259
 41
0.0
 42
6.283185307179586
  0
ELLIPSE
  5
7BE
330
799
100
AcDbEntity
  8
0
100
AcDbEllipse
 10
0.7057994270964763
 20
104.3147232989639
 30
0.0
 11
1.250000000000129
 21
-2.165063509461022
 31
0.0
210
0.0
220
0.0
230
0.9999999999999998
 40
0.5773502691896259
 41
3.579741684173546
 42
5.845036276594999
  0
ELLIPSE
  5
7BF
330
799
100
AcDbEntity
  8
0
100
AcDbEllipse
 10
0.7057994270964763
 20
71.65486006185483
 30
0.0
 11
1.250000000000129
 21
-2.165063509461022
 31
0.0
210
0.0
220
0.0
230
0.9999999999999998
 40
0.5773502691896259
 41
3.579741684173546
 42
5.845036276594999
  0
ELLIPSE
  5
7C0
330
799
100
AcDbEntity
  8
0
100
AcDbEllipse
 10
0.7057994270964807
 20
38.99499682474579
 30
0.0
 11
1.250000000000129
 21
-2.165063509461022
 31
0.0
210
0.0
220
0.0
230
0.9999999999999998
 40
0.5773502691896259
 41
3.579741684173542
 42
5.845036276594995
  0
ELLIPSE
  5
7C1
330
799
100
AcDbEntity
  8
0
100
AcDbEllipse
 10
-0.3548607446833474
 20
103.7023508632681
 30
0.0
 11
1.25
 21
-2.165063509461097
 31
0.0
210
0.0
220
0.0
230
1.0
 40
0.5773502691896259
 41
0.0
 42
6.283185307179586
  0
ELLIPSE
  5
7C2
330
799
100
AcDbEntity
  8
0
100
AcDbEllipse
 10
-0.3548607446833474
 20
71.04248762615904
 30
0.0
 11
1.25
 21
-2.165063509461097
 31
0.0
210
0.0
220
0.0
230
1.0
 40
0.5773502691896259
 41
0.0
 42
6.283185307179586
  0
ELLIPSE
  5
7C3
330
799
100
AcDbEntity
  8
0
100
AcDbEllipse
 10
-0.3548607446833429
 20
38.38262438905
 30
0.0
 11
1.25
 21
-2.165063509461097
 31
0.0
210
0.0
220
0.0
230
1.0
 40
0.5773502691896259
 41
0.0
 42
6.283185307179586
  0
ELLIPSE
  5
7C4
330
799
100
AcDbEntity
  8
0
100
AcDbEllipse
 10
0.7057994270964807
 20
6.335133587636736
 30
0.0
 11
1.250000000000129
 21
-2.165063509461022
 31
0.0
210
0.0
220
0.0
230
1.0
 40
0.577350269189626
 41
3.579741684173546
 42
5.845036276594998
  0
ELLIPSE
  5
7C5
330
799
100
AcDbEntity
  8
0
100
AcDbEllipse
 10
-0.3548607446833429
 20
5.722761151940942
 30
0.0
 11
1.25
 21
-2.165063509461097
 31
0.0
210
0.0
220
0.0
230
1.0
 40
0.5773502691896259
 41
0.0
 42
6.283185307179586
  0
ELLIPSE
  5
7C6
330
799
100
AcDbEntity
  8
0
100
AcDbEllipse
 10
-15.57681245958335
 20
64.72569879918511
 30
0.0
 11
1.25
 21
-2.165063509461097
 31
0.0
210
0.0
220
0.0
230
1.0
 40
0.5773502691896259
 41
5.508682942395996
 42
5.845036276595416
  0
ELLIPSE
  5
7C7
330
799
100
AcDbEntity
  8
0
100
AcDbEllipse
 10
69.31431312158084
 20
15.71378459308964
 30
0.0
 11
1.250000000000129
 21
-2.165063509461022
 31
0.0
210
0.0
220
0.0
230
0.9999999999999998
 40
0.5773502691896259
 41
3.579741684173546
 42
5.845036276594997
  0
ELLIPSE
  5
7C8
330
799
100
AcDbEntity
  8
0
100
AcDbEllipse
 10
-16.63747263136317
 20
64.1133263634893
 30
0.0
 11
1.25
 21
-2.165063509461097
 31
0.0
210
0.0
220
0.0
230
1.0
 40
0.5773502691896259
 41
5.508682942395996
 42
7.057687671963172
  0
ELLIPSE
  5
7C9
330
799
100
AcDbEntity
  8
0
100
AcDbEllipse
 10
68.25365294980102
 20
15.10141215739384
 30
0.0
 11
1.25
 21
-2.165063509461097
 31
0.0
210
0.0
220
0.0
230
1.0
 40
0.5773502691896259
 41
0.0
 42
6.283185307179586
  0
ELLIPSE
  5
7CA
330
799
100
AcDbEntity
  8
0
100
AcDbEllipse
 10
-11.33417177246405
 20
29.61634581929289
 30
0.0
 11
1.250000000000129
 21
-2.165063509461022
 31
0.0
210
0.0
220
0.0
230
0.9999999999999998
 40
0.577350269189626
 41
3.579741684173546
 42
5.845036276594995
  0
ELLIPSE
  5
7CB
330
799
100
AcDbEntity
  8
0
100
AcDbEllipse
 10
73.55695380870014
 20
-19.39556838680259
 30
0.0
 11
1.250000000000129
 21
-2.165063509461022
 31
0.0
210
0.0
220
0.0
230
0.9999999999999998
 40
0.577350269189626
 41
3.579741684173548
 42
5.845036276594998
  0
ELLIPSE
  5
7CC
330
799
100
AcDbEntity
  8
0
100
AcDbEllipse
 10
-12.39483194424388
 20
29.00397338359708
 30
0.0
 11
1.25
 21
-2.165063509461097
 31
0.0
210
0.0
220
0.0
230
1.0
 40
0.5773502691896259
 41
0.0
 42
6.283185307179586
  0
ELLIPSE
  5
7CD
330
799
100
AcDbEntity
  8
0
100
AcDbEllipse
 10
72.49629363692031
 20
-20.00794082249839
 30
0.0
 11
1.25
 21
-2.165063509461097
 31
0.0
210
0.0
220
0.0
230
1.0
 40
0.5773502691896259
 41
0.0
 42
6.283185307179586
  0
ELLIPSE
  5
7CE
330
799
100
AcDbEntity
  8
0
100
AcDbEllipse
 10
51.97104106312119
 20
-31.42783328027058
 30
0.0
 11
1.250000000000129
 21
-2.165063509461022
 31
0.0
210
0.0
220
0.0
230
0.9999999999999998
 40
0.5773502691896259
 41
3.579741684173548
 42
3.835017178248603
  0
ELLIPSE
  5
7CF
330
799
100
AcDbEntity
  8
0
100
AcDbEllipse
 10
6.009100285995594
 20
-4.891694400119488
 30
0.0
 11
1.250000000000129
 21
-2.165063509461021
 31
0.0
210
0.0
220
0.0
230
1.0
 40
0.5773502691896258
 41
3.579741684173544
 42
3.835017178248602
  0
SPLINE
  5
7D0
330
799
100
AcDbEntity
  8
0
100
AcDbSpline
210
0.0
220
0.0
230
1.0
 70
     8
 71
     3
 72
     8
 73
     4
 74
     0
 42
0.000000001
 43
0.0000000001
 40
0.0
 40
0.0
 40
0.0
 40
0.0
 40
1.0
 40
1.0
 40
1.0
 40
1.0
 10
50.21074574406056
 20
-30.22405047549544
 30
0.0
 10
50.19189334216637
 20
-30.66395133014613
 30
0.0
 10
50.04223714270077
 20
-31.22211694274162
 30
0.0
 10
49.8261276215998
 20
-31.71663391890575
 30
0.0
  0
ELLIPSE
  5
7D1
330
799
100
AcDbEntity
  8
0
100
AcDbEllipse
 10
5.141143656122055
 20
-5.185741056443764
 30
0.0
 11
-1.249999999999997
 21
-2.165063509461097
 31
0.0
210
0.0
220
0.0
230
1.0
 40
0.8164965809277262
 41
4.968762307403139
 42
7.597608306956033
  0
ELLIPSE
  5
7D2
330
799
100
AcDbEntity
  8
0
100
AcDbEllipse
 10
51.10308443324766
 20
-31.72187993659486
 30
0.0
 11
-1.249999999999997
 21
-2.165063509461098
 31
0.0
210
0.0
220
0.0
230
1.0
 40
0.816496580927726
 41
4.968762307403138
 42
7.597608306956033
  0
SPLINE
  5
7D3
330
799
100
AcDbEntity
  8
0
100
AcDbSpline
210
0.0
220
0.0
230
1.0
 70
     8
 71
     3
 72
     8
 73
     4
 74
     0
 42
0.000000001
 43
0.0000000001
 40
-1.0
 40
-1.0
 40
-1.0
 40
-1.0
 40
0.0
 40
0.0
 40
0.0
 40
0.0
 10
49.07612762159981
 20
-31.28362121701353
 30
0.0
 10
49.10069463394676
 20
-31.12086559782059
 30
0.0
 10
49.13123317038655
 20
-30.95433427015681
 30
0.0
 10
49.15008557228073
 20
-30.83642291119124
 30
0.0
  0
SPLINE
  5
7D4
330
799
100
AcDbEntity
  8
0
100
AcDbSpline
210
0.0
220
0.0
230
1.0
 70
     8
 71
     3
 72
     8
 73
     4
 74
     0
 42
0.000000001
 43
0.0000000001
 40
-1.0
 40
-1.0
 40
-1.0
 40
-1.0
 40
0.0
 40
0.0
 40
0.0
 40
0.0
 10
6.708735433276395
 20
-6.332897983665926
 30
0.0
 10
6.727587835170667
 20
-6.472578221248495
 30
0.0
 10
6.662832241189975
 20
-6.619354321530089
 30
0.0
 10
6.534165246533469
 20
-6.722007787914052
 30
0.0
  0
ELLIPSE
  5
7D5
330
799
100
AcDbEntity
  8
0
100
AcDbEllipse
 10
5.891143656122044
 20
-5.618753758335977
 30
0.0
 11
-1.249999999999998
 21
-2.165063509461098
 31
0.0
210
0.0
220
0.0
230
1.0
 40
0.8164965809277259
 41
4.968762307403139
 42
6.069429174707153
  0
LINE
  5
7D6
330
799
100
AcDbEntity
  8
0
100
AcDbLine
 10
3.864186844474208
 20
-5.180495038754648
 30
0.0
 11
3.363936844576844
 21
-4.891675566651798
 31
0.0
  0
LINE
  5
7D7
330
799
100
AcDbEntity
  8
0
100
AcDbLine
 10
3.363936844576844
 20
-4.891675566651798
 30
0.0
 11
3.114186844474207
 21
-4.747482336862429
 31
0.0
  0
LINE
  5
7D8
330
799
100
AcDbEntity
  8
0
100
AcDbLine
 10
3.188144795155132
 20
-4.300284031040124
 30
0.0
 11
3.541344632730449
 21
-4.096364009738284
 31
0.0
  0
SPLINE
  5
7D9
330
799
100
AcDbEntity
  8
0
100
AcDbSpline
210
0.0
220
0.0
230
1.0
 70
     8
 71
     3
 72
     8
 73
     4
 74
     0
 42
0.000000001
 43
0.0000000001
 40
-1.0
 40
-1.0
 40
-1.0
 40
-1.0
 40
0.0
 40
0.0
 40
0.0
 40
0.0
 10
3.114186844474198
 20
-4.747482336862425
 30
0.0
 10
3.138753856820821
 20
-4.584726717669285
 30
0.0
 10
3.16929239326122
 20
-4.418195390005856
 30
0.0
 10
3.188144795155123
 20
-4.300284031040131
 30
0.0
  0
SPLINE
  5
7DA
330
799
100
AcDbEntity
  8
0
100
AcDbSpline
210
0.0
220
0.0
230
1.0
 70
     8
 71
     3
 72
     8
 73
     4
 74
     0
 42
0.000000001
 43
0.0000000001
 40
0.0
 40
0.0
 40
0.0
 40
0.0
 40
1.0
 40
1.0
 40
1.0
 40
1.0
 10
4.248804966934942
 20
-3.687911595344335
 30
0.0
 10
4.229952565041039
 20
-4.127812449995163
 30
0.0
 10
4.080296365574866
 20
-4.685978062590296
 30
0.0
 10
3.8641868444742
 20
-5.180495038754646
 30
0.0
  0
LINE
  5
7DB
330
799
100
AcDbEntity
  8
0
100
AcDbLine
 10
3.541344632730449
 20
-4.096364009738284
 30
0.0
 11
4.248804966934951
 21
-3.687911595344328
 31
0.0
  0
ELLIPSE
  5
7DC
330
799
100
AcDbEntity
  8
0
100
AcDbEllipse
 10
4.94844011421577
 20
-5.504066835815284
 30
0.0
 11
-1.25
 21
2.165063509461097
 31
0.0
210
0.0
220
0.0
230
1.0
 40
0.5773502691896259
 41
4.018964455725523
 42
6.976609831838751
  0
ELLIPSE
  5
7DD
330
799
100
AcDbEntity
  8
0
100
AcDbEllipse
 10
51.85308443324764
 20
-32.15489263848708
 30
0.0
 11
-1.249999999999999
 21
-2.165063509461097
 31
0.0
210
0.0
220
0.0
230
1.0
 40
0.8164965809277262
 41
4.968762307403139
 42
6.069429174707158
  0
LINE
  5
7DE
330
799
100
AcDbEntity
  8
0
100
AcDbLine
 10
49.8261276215998
 20
-31.71663391890574
 30
0.0
 11
49.32587762169903
 21
-31.42781444680093
 31
0.0
  0
LINE
  5
7DF
330
799
100
AcDbEntity
  8
0
100
AcDbLine
 10
49.32587762169903
 20
-31.42781444680093
 30
0.0
 11
49.07612762159979
 21
-31.28362121701352
 31
0.0
  0
LINE
  5
7E0
330
799
100
AcDbEntity
  8
0
100
AcDbLine
 10
49.15008557228073
 20
-30.83642291119122
 30
0.0
 11
49.50328540986756
 21
-30.63250288988273
 31
0.0
  0
LINE
  5
7E1
330
799
100
AcDbEntity
  8
0
100
AcDbLine
 10
49.50328540986756
 20
-30.63250288988273
 30
0.0
 11
50.21074574406056
 21
-30.22405047549543
 31
0.0
  0
SPLINE
  5
7E2
330
799
100
AcDbEntity
  8
0
100
AcDbSpline
210
0.0
220
0.0
230
1.0
 70
     8
 71
     3
 72
     8
 73
     4
 74
     0
 42
0.000000001
 43
0.0000000001
 40
-1.0
 40
-1.0
 40
-1.0
 40
-1.0
 40
0.0
 40
0.0
 40
0.0
 40
0.0
 10
52.67067621040198
 20
-32.86903686381702
 30
0.0
 10
52.68952861229613
 20
-33.00871710139951
 30
0.0
 10
52.62477301831427
 20
-33.15549320168042
 30
0.0
 10
52.49610602365912
 20
-33.25814666806518
 30
0.0
  0
ELLIPSE
  5
7E3
330
799
100
AcDbEntity
  8
0
100
AcDbEllipse
 10
50.91038089134137
 20
-32.04020571596638
 30
0.0
 11
-1.25
 21
2.165063509461097
 31
0.0
210
0.0
220
0.0
230
1.0
 40
0.5773502691896259
 41
4.018964455725523
 42
6.976609831838752
  0
ELLIPSE
  5
7E4
330
799
100
AcDbEntity
  8
0
100
AcDbEllipse
 10
37.82890543939024
 20
-23.26286747099333
 30
0.0
 11
1.250000000000129
 21
-2.165063509461022
 31
0.0
210
0.0
220
0.0
230
0.9999999999999998
 40
0.5773502691896259
 41
3.579741684173548
 42
3.835017178248601
  0
ELLIPSE
  5
7E5
330
799
100
AcDbEntity
  8
0
100
AcDbEllipse
 10
16.61570200379381
 20
-11.01541875707743
 30
0.0
 11
1.250000000000129
 21
-2.165063509461022
 31
0.0
210
0.0
220
0.0
230
0.9999999999999998
 40
0.5773502691896259
 41
3.579741684173548
 42
3.835017178248603
  0
ELLIPSE
  5
7E6
330
799
100
AcDbEntity
  8
0
100
AcDbEllipse
 10
16.49774537392026
 20
-11.74247811529392
 30
0.0
 11
-1.249999999999998
 21
-2.165063509461098
 31
0.0
210
0.0
220
0.0
230
1.0
 40
0.816496580927726
 41
4.968762307403137
 42
6.283185307179585
  0
LINE
  5
7E7
330
799
100
AcDbEntity
  8
0
100
AcDbLine
 10
14.47078856227241
 20
-11.30421939571258
 30
0.0
 11
13.9705385623706
 21
-11.01539992360717
 31
0.0
  0
LINE
  5
7E8
330
799
100
AcDbEntity
  8
0
100
AcDbLine
 10
13.9705385623706
 20
-11.01539992360717
 30
0.0
 11
13.72078856227241
 21
-10.87120669382037
 31
0.0
  0
ELLIPSE
  5
7E9
330
799
100
AcDbEntity
  8
0
100
AcDbEllipse
 10
15.74774537392027
 20
-11.3094654134017
 30
0.0
 11
-1.249999999999999
 21
-2.165063509461097
 31
0.0
210
0.0
220
0.0
230
1.0
 40
0.8164965809277259
 41
4.968762307403137
 42
6.283185307179586
  0
LINE
  5
7EA
330
799
100
AcDbEntity
  8
0
100
AcDbLine
 10
18.03327927985301
 20
-15.51577037518212
 30
0.0
 11
14.49774537392027
 21
-13.47452892286281
 31
0.0
  0
ELLIPSE
  5
7EB
330
799
100
AcDbEntity
  8
0
100
AcDbEllipse
 10
19.283279279853
 20
-13.35070686572102
 30
0.0
 11
-1.249999999999997
 21
-2.165063509461098
 31
0.0
210
0.0
220
0.0
230
0.9999999999999998
 40
0.8164965809277262
 41
0.0
 42
1.314422999776446
  0
LINE
  5
7EC
330
799
100
AcDbEntity
  8
0
100
AcDbLine
 10
13.79474651295334
 20
-10.42400838799807
 30
0.0
 11
14.1479463505365
 21
-10.2200883666917
 31
0.0
  0
SPLINE
  5
7ED
330
799
100
AcDbEntity
  8
0
100
AcDbSpline
210
0.0
220
0.0
230
1.0
 70
     8
 71
     3
 72
     8
 73
     4
 74
     0
 42
0.000000001
 43
0.0000000001
 40
-1.0
 40
-1.0
 40
-1.0
 40
-1.0
 40
0.0
 40
0.0
 40
0.0
 40
0.0
 10
13.72078856227241
 20
-10.87120669382037
 30
0.0
 10
13.74535557461946
 20
-10.70845107462746
 30
0.0
 10
13.77589411105925
 20
-10.54191974696367
 30
0.0
 10
13.79474651295333
 20
-10.42400838799807
 30
0.0
  0
SPLINE
  5
7EE
330
799
100
AcDbEntity
  8
0
100
AcDbSpline
210
0.0
220
0.0
230
1.0
 70
     8
 71
     3
 72
     8
 73
     4
 74
     0
 42
0.000000001
 43
0.0000000001
 40
0.0
 40
0.0
 40
0.0
 40
0.0
 40
1.0
 40
1.0
 40
1.0
 40
1.0
 10
14.85540668473315
 20
-9.81163595230228
 30
0.0
 10
14.83655428283906
 20
-10.25153680695293
 30
0.0
 10
14.68689808337351
 20
-10.80970241954846
 30
0.0
 10
14.47078856227241
 20
-11.30421939571258
 30
0.0
  0
LINE
  5
7EF
330
799
100
AcDbEntity
  8
0
100
AcDbLine
 10
14.1479463505365
 20
-10.2200883666917
 30
0.0
 11
14.85540668473317
 21
-9.811635952302275
 31
0.0
  0
SPLINE
  5
7F0
330
799
100
AcDbEntity
  8
0
100
AcDbSpline
210
0.0
220
0.0
230
1.0
 70
     8
 71
     3
 72
     8
 73
     4
 74
     0
 42
0.000000001
 43
0.0000000001
 40
-1.0
 40
-1.0
 40
-1.0
 40
-1.0
 40
0.0
 40
0.0
 40
0.0
 40
0.0
 10
20.85087105700735
 20
-14.49786379294318
 30
0.0
 10
20.86972345890153
 20
-14.6375440305257
 30
0.0
 10
20.80496786492067
 20
-14.7843201308073
 30
0.0
 10
20.67630087026441
 20
-14.88697359719131
 30
0.0
  0
ELLIPSE
  5
7F1
330
799
100
AcDbEntity
  8
0
100
AcDbEllipse
 10
19.09057573794672
 20
-13.66903264509254
 30
0.0
 11
1.24999999999987
 21
-2.165063509461172
 31
0.0
210
0.0
220
0.0
230
1.0
 40
0.5773502691896258
 41
0.877371802135948
 42
2.356194490192587
  0
LINE
  5
7F2
330
799
100
AcDbEntity
  8
0
100
AcDbLine
 10
15.55504183201398
 20
-9.586549740453914
 30
0.0
 11
19.09057573794672
 21
-11.62779119277323
 31
0.0
  0
ELLIPSE
  5
7F3
330
799
100
AcDbEntity
  8
0
100
AcDbEllipse
 10
15.55504183201399
 20
-11.62779119277323
 30
0.0
 11
-1.25
 21
2.165063509461096
 31
0.0
210
0.0
220
0.0
230
1.0
 40
0.577350269189626
 41
5.497787143782137
 42
6.976609831838751
  0
ELLIPSE
  5
7F4
330
799
100
AcDbEntity
  8
0
100
AcDbEllipse
 10
37.71094880951669
 20
-23.98992682920981
 30
0.0
 11
-1.249999999999998
 21
-2.165063509461098
 31
0.0
210
0.0
220
0.0
230
1.0
 40
0.8164965809277259
 41
4.968762307403135
 42
6.283185307179583
  0
LINE
  5
7F5
330
799
100
AcDbEntity
  8
0
100
AcDbLine
 10
35.68399199786885
 20
-23.55166810962848
 30
0.0
 11
35.18374199796867
 21
-23.262848637524
 31
0.0
  0
LINE
  5
7F6
330
799
100
AcDbEntity
  8
0
100
AcDbLine
 10
35.18374199796867
 20
-23.262848637524
 30
0.0
 11
34.93399199786884
 21
-23.11865540773626
 31
0.0
  0
ELLIPSE
  5
7F7
330
799
100
AcDbEntity
  8
0
100
AcDbEllipse
 10
36.9609488095167
 20
-23.5569141273176
 30
0.0
 11
-1.249999999999999
 21
-2.165063509461097
 31
0.0
210
0.0
220
0.0
230
1.0
 40
0.8164965809277259
 41
4.968762307403137
 42
6.283185307179586
  0
LINE
  5
7F8
330
799
100
AcDbEntity
  8
0
100
AcDbLine
 10
39.24648271544945
 20
-27.76321908909802
 30
0.0
 11
35.71094880951671
 21
-25.7219776367787
 31
0.0
  0
ELLIPSE
  5
7F9
330
799
100
AcDbEntity
  8
0
100
AcDbEllipse
 10
40.49648271544945
 20
-25.59815557963692
 30
0.0
 11
-1.249999999999997
 21
-2.165063509461098
 31
0.0
210
0.0
220
0.0
230
0.9999999999999998
 40
0.8164965809277262
 41
0.0
 42
1.314422999776446
  0
LINE
  5
7FA
330
799
100
AcDbEntity
  8
0
100
AcDbLine
 10
35.00794994854978
 20
-22.67145710191396
 30
0.0
 11
35.36114978613664
 21
-22.46753708060545
 31
0.0
  0
SPLINE
  5
7FB
330
799
100
AcDbEntity
  8
0
100
AcDbSpline
210
0.0
220
0.0
230
1.0
 70
     8
 71
     3
 72
     8
 73
     4
 74
     0
 42
0.000000001
 43
0.0000000001
 40
-1.0
 40
-1.0
 40
-1.0
 40
-1.0
 40
0.0
 40
0.0
 40
0.0
 40
0.0
 10
34.93399199786884
 20
-23.11865540773626
 30
0.0
 10
34.95855901021573
 20
-22.95589978854331
 30
0.0
 10
34.9890975466556
 20
-22.78936846087953
 30
0.0
 10
35.00794994854977
 20
-22.67145710191397
 30
0.0
  0
SPLINE
  5
7FC
330
799
100
AcDbEntity
  8
0
100
AcDbSpline
210
0.0
220
0.0
230
1.0
 70
     8
 71
     3
 72
     8
 73
     4
 74
     0
 42
0.000000001
 43
0.0000000001
 40
0.0
 40
0.0
 40
0.0
 40
0.0
 40
1.0
 40
1.0
 40
1.0
 40
1.0
 10
36.0686101203296
 20
-22.05908466621818
 30
0.0
 10
36.04975771843541
 20
-22.49898552086884
 30
0.0
 10
35.90010151896974
 20
-23.05715113346437
 30
0.0
 10
35.68399199786885
 20
-23.55166810962848
 30
0.0
  0
LINE
  5
7FD
330
799
100
AcDbEntity
  8
0
100
AcDbLine
 10
35.36114978613664
 20
-22.46753708060545
 30
0.0
 11
36.0686101203296
 21
-22.05908466621817
 31
0.0
  0
SPLINE
  5
7FE
330
799
100
AcDbEntity
  8
0
100
AcDbSpline
210
0.0
220
0.0
230
1.0
 70
     8
 71
     3
 72
     8
 73
     4
 74
     0
 42
0.000000001
 43
0.0000000001
 40
-1.0
 40
-1.0
 40
-1.0
 40
-1.0
 40
0.0
 40
0.0
 40
0.0
 40
0.0
 10
42.06407449260377
 20
-26.74531250685908
 30
0.0
 10
42.08292689449772
 20
-26.88499274444144
 30
0.0
 10
42.01817130051735
 20
-27.03176884472331
 30
0.0
 10
41.88950430586084
 20
-27.13442231110719
 30
0.0
  0
ELLIPSE
  5
7FF
330
799
100
AcDbEntity
  8
0
100
AcDbEllipse
 10
40.30377917354315
 20
-25.91648135900844
 30
0.0
 11
1.24999999999987
 21
-2.165063509461172
 31
0.0
210
0.0
220
0.0
230
1.0
 40
0.5773502691896258
 41
0.8773718021359453
 42
2.356194490192589
  0
LINE
  5
800
330
799
100
AcDbEntity
  8
0
100
AcDbLine
 10
36.76824526761042
 20
-21.8339984543698
 30
0.0
 11
40.30377917354315
 21
-23.87523990668912
 31
0.0
  0
ELLIPSE
  5
801
330
799
100
AcDbEntity
  8
0
100
AcDbEllipse
 10
36.76824526761042
 20
-23.87523990668912
 30
0.0
 11
-1.250000000000001
 21
2.165063509461097
 31
0.0
210
0.0
220
0.0
230
1.0
 40
0.5773502691896259
 41
5.497787143782135
 42
6.976609831838752
  0
LINE
  5
802
330
799
100
AcDbEntity
  8
0
100
AcDbLine
 10
63.92114566517385
 20
76.71713886360676
 30
0.0
 11
-5.941004316057076
 21
117.0520699614364
 31
0.0
  0
LINE
  5
803
330
799
100
AcDbEntity
  8
0
100
AcDbLine
 10
34.64692492405099
 20
12.86710623505848
 30
0.0
 11
34.64692492405098
 21
54.01853391381587
 31
0.0
  0
LINE
  5
804
330
799
100
AcDbEntity
  8
0
100
AcDbLine
 10
33.58626475227114
 20
54.63090634951166
 30
0.0
 11
33.58626475227115
 21
13.47947867075428
 31
0.0
  0
LINE
  5
805
330
799
100
AcDbEntity
  8
0
100
AcDbLine
 10
63.92114566517387
 20
25.68610255562387
 30
0.0
 11
38.18245882998369
 21
10.82586478273916
 31
0.0
  0
LINE
  5
806
330
799
100
AcDbEntity
  8
0
100
AcDbLine
 10
38.18245882998369
 20
60.14225827077382
 30
0.0
 11
63.92114566517388
 21
75.00249604365855
 31
0.0
  0
LINE
  5
807
330
799
100
AcDbEntity
  8
0
100
AcDbLine
 10
-38.18507353816364
 20
96.06810783159387
 30
0.0
 11
-38.18507353816364
 21
54.91668015283645
 31
0.0
  0
LINE
  5
808
330
799
100
AcDbEntity
  8
0
100
AcDbLine
 10
-8.910852797040575
 20
117.0520699614364
 30
0.0
 11
-34.6495396322309
 21
102.1918321885518
 31
0.0
  0
LINE
  5
809
330
799
100
AcDbEntity
  8
0
100
AcDbLine
 10
-37.12441336638382
 20
95.45573539589808
 30
0.0
 11
-37.12441336638382
 21
54.30430771714066
 31
0.0
  0
LINE
  5
80A
330
799
100
AcDbEntity
  8
0
100
AcDbLine
 10
63.92114566517388
 20
75.00249604365855
 30
0.0
 11
62.86048549339405
 21
75.61486847935434
 31
0.0
  0
LINE
  5
80B
330
799
100
AcDbEntity
  8
0
100
AcDbLine
 10
62.86048549339405
 20
75.61486847935434
 30
0.0
 11
37.12179865820386
 21
60.75463070646963
 31
0.0
  0
LINE
  5
80C
330
799
100
AcDbEntity
  8
0
100
AcDbLine
 10
-7.0016644878369
 20
67.12330403770595
 30
0.0
 11
-4.951054822395901
 21
65.93938399536074
 31
0.0
  0
LINE
  5
80D
330
799
100
AcDbEntity
  8
0
100
AcDbLine
 10
63.92114566517385
 20
76.71713886360676
 30
0.0
 11
62.86048549339402
 21
76.10476642791097
 31
0.0
  0
LINE
  5
80E
330
799
100
AcDbEntity
  8
0
100
AcDbLine
 10
-5.941004316057076
 20
117.0520699614364
 30
0.0
 11
-7.0016644878369
 21
116.4396975257406
 31
0.0
  0
LINE
  5
80F
330
799
100
AcDbEntity
  8
0
100
AcDbLine
 10
-8.910852797040575
 20
117.0520699614364
 30
0.0
 11
-7.850192625260752
 21
116.4396975257406
 31
0.0
  0
LINE
  5
810
330
799
100
AcDbEntity
  8
0
100
AcDbLine
 10
-7.0016644878369
 20
116.4396975257406
 30
0.0
 11
62.86048549339401
 21
76.10476642791097
 31
0.0
  0
LINE
  5
811
330
799
100
AcDbEntity
  8
0
100
AcDbLine
 10
-33.58887946045107
 20
52.26306626482133
 30
0.0
 11
-7.850192625260752
 21
67.12330403770595
 31
0.0
  0
LINE
  5
812
330
799
100
AcDbEntity
  8
0
100
AcDbLine
 10
-33.58887946045107
 20
101.579459752856
 30
0.0
 11
-7.850192625260752
 21
116.4396975257406
 31
0.0
  0
LINE
  5
813
330
799
100
AcDbEntity
  8
0
100
AcDbLine
 10
38.18245882998369
 20
10.82586478273916
 30
0.0
 11
34.64692492405099
 21
12.86710623505848
 31
0.0
  0
LINE
  5
814
330
799
100
AcDbEntity
  8
0
100
AcDbLine
 10
34.64692492405099
 20
12.86710623505848
 30
0.0
 11
33.58626475227115
 21
13.47947867075427
 31
0.0
  0
LINE
  5
815
330
799
100
AcDbEntity
  8
0
100
AcDbLine
 10
33.58626475227114
 20
54.63090634951166
 30
0.0
 11
34.64692492405098
 21
54.01853391381587
 31
0.0
  0
LINE
  5
816
330
799
100
AcDbEntity
  8
0
100
AcDbLine
 10
34.64692492405098
 20
54.01853391381587
 30
0.0
 11
38.18245882998369
 21
60.14225827077382
 31
0.0
  0
LINE
  5
817
330
799
100
AcDbEntity
  8
0
100
AcDbLine
 10
-33.58887946045107
 20
52.26306626482133
 30
0.0
 11
-37.12441336638382
 21
54.30430771714066
 31
0.0
  0
LINE
  5
818
330
799
100
AcDbEntity
  8
0
100
AcDbLine
 10
-37.12441336638382
 20
54.30430771714066
 30
0.0
 11
-38.18507353816364
 21
54.91668015283645
 31
0.0
  0
LINE
  5
819
330
799
100
AcDbEntity
  8
0
100
AcDbLine
 10
-34.6495396322309
 20
102.1918321885518
 30
0.0
 11
-38.18507353816364
 21
96.06810783159387
 31
0.0
  0
LINE
  5
81A
330
799
100
AcDbEntity
  8
0
100
AcDbLine
 10
-38.18507353816364
 20
96.06810783159387
 30
0.0
 11
-37.12441336638382
 21
95.45573539589808
 31
0.0
  0
LINE
  5
81B
330
799
100
AcDbEntity
  8
0
100
AcDbLine
 10
38.18245882998369
 20
60.14225827077382
 30
0.0
 11
37.12179865820386
 21
60.75463070646963
 31
0.0
  0
LINE
  5
81C
330
799
100
AcDbEntity
  8
0
100
AcDbLine
 10
37.12179865820386
 20
60.75463070646963
 30
0.0
 11
33.58626475227114
 21
54.63090634951166
 31
0.0
  0
LINE
  5
81D
330
799
100
AcDbEntity
  8
0
100
AcDbLine
 10
-37.12441336638382
 20
95.45573539589808
 30
0.0
 11
-33.58887946045107
 21
101.579459752856
 31
0.0
  0
LINE
  5
81E
330
799
100
AcDbEntity
  8
0
100
AcDbLine
 10
-33.58887946045107
 20
101.579459752856
 30
0.0
 11
-34.6495396322309
 21
102.1918321885518
 31
0.0
  0
LINE
  5
81F
330
799
100
AcDbEntity
  8
0
100
AcDbLine
 10
7.421145665329342
 20
-95.68416741132246
 30
0.0
 11
7.421145665329351
 21
-89.91066471942625
 31
0.0
  0
LINE
  5
820
330
799
100
AcDbEntity
  8
0
100
AcDbLine
 10
7.421145665329351
 20
-89.91066471942625
 30
0.0
 11
6.360485493549528
 21
-89.29829228373044
 31
0.0
  0
LINE
  5
821
330
799
100
AcDbEntity
  8
0
100
AcDbLine
 10
6.360485493549528
 20
-89.29829228373044
 30
0.0
 11
6.360485493549545
 21
-95.07179497562667
 31
0.0
  0
LINE
  5
822
330
799
100
AcDbEntity
  8
0
100
AcDbLine
 10
6.360485493549545
 20
-95.07179497562667
 30
0.0
 11
7.421145665329342
 21
-95.68416741132246
 31
0.0
  0
LINE
  5
823
330
799
100
AcDbEntity
  8
0
100
AcDbLine
 10
-65.41085279688504
 20
-47.86109080164836
 30
0.0
 11
-65.41085279688502
 21
-53.6345934935446
 31
0.0
  0
LINE
  5
824
330
799
100
AcDbEntity
  8
0
100
AcDbLine
 10
-65.41085279688502
 20
-53.6345934935446
 30
0.0
 11
-64.35019262510522
 21
-54.24696592924037
 31
0.0
  0
LINE
  5
825
330
799
100
AcDbEntity
  8
0
100
AcDbLine
 10
-64.35019262510522
 20
-54.24696592924037
 30
0.0
 11
-64.35019262510522
 21
-48.47346323734415
 31
0.0
  0
LINE
  5
826
330
799
100
AcDbEntity
  8
0
100
AcDbLine
 10
-64.35019262510522
 20
-48.47346323734415
 30
0.0
 11
-65.41085279688504
 21
-47.86109080164836
 31
0.0
  0
ELLIPSE
  5
827
330
799
100
AcDbEntity
  8
0
100
AcDbEllipse
 10
40.30377917354297
 20
54.91668015283654
 30
0.0
 11
1.250000000000128
 21
2.165063509461023
 31
0.0
210
0.0
220
0.0
230
0.9999999999999998
 40
0.5773502691896258
 41
0.0
 42
6.283185307179586
  0
ELLIPSE
  5
828
330
799
100
AcDbEntity
  8
0
100
AcDbEllipse
 10
40.30377917354297
 20
38.58674853428203
 30
0.0
 11
1.250000000000128
 21
2.165063509461023
 31
0.0
210
0.0
220
0.0
230
0.9999999999999998
 40
0.5773502691896258
 41
0.0
 42
6.283185307179586
  0
ELLIPSE
  5
829
330
799
100
AcDbEntity
  8
0
100
AcDbEllipse
 10
39.24311900176315
 20
55.52905258853235
 30
0.0
 11
1.249999999999864
 21
2.165063509461175
 31
0.0
210
0.0
220
0.0
230
0.9999999999999998
 40
0.5773502691896219
 41
3.579741684173546
 42
5.845036276594991
  0
ELLIPSE
  5
82A
330
799
100
AcDbEntity
  8
0
100
AcDbEllipse
 10
39.24311900176315
 20
39.19912096997782
 30
0.0
 11
1.249999999999864
 21
2.165063509461175
 31
0.0
210
0.0
220
0.0
230
0.9999999999999998
 40
0.5773502691896219
 41
3.579741684173548
 42
5.845036276594988
  0
ELLIPSE
  5
82B
330
799
100
AcDbEntity
  8
0
100
AcDbEllipse
 10
40.30377917354297
 20
22.25681691572749
 30
0.0
 11
1.250000000000128
 21
2.165063509461023
 31
0.0
210
0.0
220
0.0
230
0.9999999999999998
 40
0.5773502691896258
 41
0.0
 42
6.283185307179586
  0
ELLIPSE
  5
82C
330
799
100
AcDbEntity
  8
0
100
AcDbEllipse
 10
39.24311900176315
 20
22.86918935142329
 30
0.0
 11
1.249999999999864
 21
2.165063509461175
 31
0.0
210
0.0
220
0.0
230
0.9999999999999998
 40
0.5773502691896219
 41
3.579741684173548
 42
5.845036276594988
  0
LINE
  5
82D
330
799
100
AcDbEntity
  8
0
100
AcDbLine
 10
63.92114566517387
 20
25.68610255562387
 30
0.0
 11
63.92114566517388
 21
75.00249604365855
 31
0.0
  0
ELLIPSE
  5
82E
330
799
100
AcDbEntity
  8
0
100
AcDbEllipse
 10
62.4362214246821
 20
75.85981745363264
 30
0.0
 11
0.6000000000000049
 21
0.0
 31
0.0
210
0.0
220
0.0
230
1.0
 40
0.5773502691896259
 41
5.497787143782192
 42
7.068583470577037
  0
LINE
  5
82F
330
799
100
AcDbEntity
  8
0
100
AcDbLine
 10
62.86048549339402
 20
76.10476642791097
 30
0.0
 11
62.86048549339402
 21
75.61486847935433
 31
0.0
  0
ELLIPSE
  5
830
330
799
100
AcDbEntity
  8
0
100
AcDbEllipse
 10
62.4362214246821
 20
75.85981745363264
 30
0.0
 11
2.100000000000008
 21
0.0000000000000001
 31
0.0
210
0.0
220
0.0
230
1.0
 40
0.577350269189626
 41
5.497787143782161
 42
7.068583470577038
  0
ELLIPSE
  5
831
330
799
100
AcDbEntity
  8
0
100
AcDbEllipse
 10
62.4362214246821
 20
26.54342396559797
 30
0.0
 11
2.100000000000008
 21
0.0000000000000015
 31
0.0
210
0.0
220
0.0
230
1.0
 40
0.577350269189626
 41
5.497787143782145
 42
6.283185307179579
  0
LINE
  5
832
330
799
100
AcDbEntity
  8
0
100
AcDbLine
 10
-7.0016644878369
 20
116.4396975257406
 30
0.0
 11
-7.0016644878369
 21
67.12330403770595
 31
0.0
  0
ELLIPSE
  5
833
330
799
100
AcDbEntity
  8
0
100
AcDbEllipse
 10
-7.425928556548826
 20
116.1947485514623
 30
0.0
 11
0.5999999999999961
 21
-0.0000000000000359
 31
0.0
210
0.0
220
0.0
230
1.0
 40
0.5773502691896259
 41
0.7853981633976979
 42
2.356194490192603
  0
LINE
  5
834
330
799
100
AcDbEntity
  8
0
100
AcDbLine
 10
-7.850192625260752
 20
116.4396975257406
 30
0.0
 11
-7.850192625260752
 21
67.12330403770595
 31
0.0
  0
ELLIPSE
  5
835
330
799
100
AcDbEntity
  8
0
100
AcDbEllipse
 10
-7.425928556548826
 20
66.87835506342764
 30
0.0
 11
0.5999999999999961
 21
-0.0000000000000359
 31
0.0
210
0.0
220
0.0
230
1.0
 40
0.5773502691896259
 41
0.785398163397689
 42
2.356194490192594
  0
ELLIPSE
  5
836
330
799
100
AcDbEntity
  8
0
100
AcDbEllipse
 10
-7.425928556548826
 20
116.1947485514623
 30
0.0
 11
-2.099999999999999
 21
-0.000000000000125
 31
0.0
210
0.0
220
0.0
230
1.0
 40
0.5773502691896259
 41
3.926990816987004
 42
5.4977871437819
  0
LINE
  5
837
330
799
100
AcDbEntity
  8
0
100
AcDbLine
 10
64.53622142468211
 20
75.85981745363264
 30
0.0
 11
64.53622142468211
 21
26.54342396559796
 31
0.0
  0
ELLIPSE
  5
838
330
799
100
AcDbEntity
  8
0
100
AcDbEllipse
 10
-32.52821928867127
 20
92.88377116597571
 30
0.0
 11
1.24999999999987
 21
2.165063509461172
 31
0.0
210
0.0
220
0.0
230
0.9999999999999998
 40
0.5773502691896257
 41
3.579741684173544
 42
5.845036276594987
  0
ELLIPSE
  5
839
330
799
100
AcDbEntity
  8
0
100
AcDbEllipse
 10
-32.52821928867127
 20
76.55383954742119
 30
0.0
 11
1.24999999999987
 21
2.165063509461172
 31
0.0
210
0.0
220
0.0
230
0.9999999999999998
 40
0.5773502691896257
 41
3.57974168417355
 42
5.845036276594993
  0
ELLIPSE
  5
83A
330
799
100
AcDbEntity
  8
0
100
AcDbEllipse
 10
-31.46755911689144
 20
92.27139873027992
 30
0.0
 11
1.250000000000128
 21
2.165063509461023
 31
0.0
210
0.0
220
0.0
230
0.9999999999999998
 40
0.5773502691896258
 41
0.0
 42
6.283185307179586
  0
ELLIPSE
  5
83B
330
799
100
AcDbEntity
  8
0
100
AcDbEllipse
 10
-31.46755911689144
 20
75.9414671117254
 30
0.0
 11
1.250000000000128
 21
2.165063509461023
 31
0.0
210
0.0
220
0.0
230
0.9999999999999998
 40
0.5773502691896258
 41
0.0
 42
6.283185307179586
  0
ELLIPSE
  5
83C
330
799
100
AcDbEntity
  8
0
100
AcDbEllipse
 10
-32.52821928867127
 20
60.22390792886667
 30
0.0
 11
1.24999999999987
 21
2.165063509461172
 31
0.0
210
0.0
220
0.0
230
0.9999999999999998
 40
0.5773502691896257
 41
3.57974168417355
 42
5.845036276594993
  0
ELLIPSE
  5
83D
330
799
100
AcDbEntity
  8
0
100
AcDbEllipse
 10
-31.46755911689144
 20
59.61153549317085
 30
0.0
 11
1.250000000000128
 21
2.165063509461023
 31
0.0
210
0.0
220
0.0
230
0.9999999999999998
 40
0.5773502691896258
 41
0.0
 42
6.283185307179586
  0
LINE
  5
83E
330
799
100
AcDbEntity
  8
0
100
AcDbLine
 10
20.92114566474024
 20
-66.52797881894288
 30
0.0
 11
7.421145665329351
 21
-89.91066471942625
 31
0.0
  0
LINE
  5
83F
330
799
100
AcDbEntity
  8
0
100
AcDbLine
 10
19.86048549296013
 20
-65.91560638324693
 30
0.0
 11
6.360485493549528
 21
-89.29829228373044
 31
0.0
  0
LINE
  5
840
330
799
100
AcDbEntity
  8
0
100
AcDbLine
 10
25.62114566517387
 20
-106.1919423104838
 30
0.0
 11
62.32114566438593
 21
-42.6256776740708
 31
0.0
  0
LINE
  5
841
330
799
100
AcDbEntity
  8
0
100
AcDbLine
 10
61.01195735517897
 20
-42.1567930254235
 30
0.0
 11
61.99976670457221
 21
-40.44585704408286
 31
0.0
  0
LINE
  5
842
330
799
100
AcDbEntity
  8
0
100
AcDbLine
 10
25.95487477262962
 20
-106.3846209005094
 30
0.0
 11
25.6211456651741
 21
-106.1919423104835
 31
0.0
  0
LINE
  5
843
330
799
100
AcDbEntity
  8
0
100
AcDbLine
 10
62.99323474169186
 20
-42.23229960506836
 30
0.0
 11
25.95487477262962
 21
-106.3846209005095
 31
0.0
  0
LINE
  5
844
330
799
100
AcDbEntity
  8
0
100
AcDbLine
 10
20.92114566474024
 20
-66.52797881894288
 30
0.0
 11
19.86048549296013
 21
-65.91560638324693
 31
0.0
  0
LINE
  5
845
330
799
100
AcDbEntity
  8
0
100
AcDbLine
 10
62.32114566438593
 20
-42.6256776740708
 30
0.0
 11
20.92114566474024
 21
-66.52797881894288
 31
0.0
  0
LINE
  5
846
330
799
100
AcDbEntity
  8
0
100
AcDbLine
 10
-51.9108527974746
 20
-24.47840490116473
 30
0.0
 11
-10.51085279782853
 21
-0.5761037562928851
 31
0.0
  0
ELLIPSE
  5
847
330
799
100
AcDbEntity
  8
0
100
AcDbEllipse
 10
-4.758351280489616
 20
0.5297350100503207
 30
0.0
 11
-0.7499999999999996
 21
-1.299038105676659
 31
0.0
210
0.0
220
0.0
230
1.0
 40
0.8164965809277259
 41
0.0
 42
1.134458255166984
  0
LINE
  5
848
330
799
100
AcDbEntity
  8
0
100
AcDbLine
 10
-5.508351280489605
 20
-0.7693030956263303
 30
0.0
 11
-7.129856970699259
 21
0.1668736511087054
 31
0.0
  0
LINE
  5
849
330
799
100
AcDbEntity
  8
0
100
AcDbLine
 10
-7.129856970699259
 20
0.1668736511087054
 30
0.0
 11
-7.862383276658713
 21
-0.1109259462531953
 31
0.0
  0
LINE
  5
84A
330
799
100
AcDbEntity
  8
0
100
AcDbLine
 10
61.99976670457221
 20
-40.44585704408286
 30
0.0
 11
61.87408506006898
 21
-39.67257085550066
 31
0.0
  0
LINE
  5
84B
330
799
100
AcDbEntity
  8
0
100
AcDbLine
 10
61.87408506006898
 20
-39.67257085550066
 30
0.0
 11
60.25257936985934
 21
-38.73639410876559
 31
0.0
  0
ELLIPSE
  5
84C
330
799
100
AcDbEntity
  8
0
100
AcDbEllipse
 10
61.00257936985932
 20
-37.43735600308895
 30
0.0
 11
-0.7499999999999997
 21
-1.299038105676658
 31
0.0
210
0.0
220
0.0
230
1.0
 40
0.816496580927726
 41
5.148727052012594
 42
6.283185307179585
  0
SPLINE
  5
84D
330
799
100
AcDbEntity
  8
0
100
AcDbSpline
210
0.0
220
0.0
230
1.0
 70
     8
 71
     3
 72
     8
 73
     4
 74
     0
 42
0.000000001
 43
0.0000000001
 40
0.1302463606542655
 40
0.1302463606542655
 40
0.1302463606542655
 40
0.1302463606542655
 40
1.0
 40
1.0
 40
1.0
 40
1.0
 10
60.8041622356236
 20
-36.52812937725557
 30
0.0
 10
60.75133629983527
 20
-36.93755060469238
 30
0.0
 10
60.61972652571963
 20
-37.43546243985873
 30
0.0
 10
60.47432976750406
 20
-37.86437629422912
 30
0.0
  0
SPLINE
  5
84E
330
799
100
AcDbEntity
  8
0
100
AcDbSpline
210
0.0
220
0.0
230
1.0
 70
     8
 71
     3
 72
     8
 73
     4
 74
     0
 42
0.000000001
 43
0.0000000001
 40
-1.0
 40
-1.0
 40
-1.0
 40
-1.0
 40
0.0
 40
0.0
 40
0.0
 40
0.0
 10
59.72432976750406
 20
-37.4313635923369
 30
0.0
 10
59.70912112994586
 20
-37.25410866761244
 30
0.0
 10
59.72978430578196
 20
-37.07451066823004
 30
0.0
 10
59.76171572076193
 20
-36.9630504339576
 30
0.0
  0
SPLINE
  5
84F
330
799
100
AcDbEntity
  8
0
100
AcDbSpline
210
0.0
220
0.0
230
1.0
 70
     8
 71
     3
 72
     8
 73
     4
 74
     0
 42
0.000000001
 43
0.0000000001
 40
-1.0
 40
-1.0
 40
-1.0
 40
-1.0
 40
0.0
 40
0.0
 40
0.0
 40
0.0
 10
-3.902894715204849
 20
-0.2062704608995292
 30
0.0
 10
-3.870963300222913
 20
-0.3546019172416903
 30
0.0
 10
-3.95292531283339
 20
-0.4988090167113924
 30
0.0
 10
-4.114036899370794
 20
-0.5742654125906755
 30
0.0
  0
LINE
  5
850
330
799
100
AcDbEntity
  8
0
100
AcDbLine
 10
-50.85019262569488
 20
-25.09077733686047
 30
0.0
 11
-51.9108527974746
 21
-24.47840490116473
 31
0.0
  0
LINE
  5
851
330
799
100
AcDbEntity
  8
0
100
AcDbLine
 10
-9.45019262604867
 20
-1.188476191988705
 30
0.0
 11
-50.85019262569488
 21
-25.09077733686047
 31
0.0
  0
LINE
  5
852
330
799
100
AcDbEntity
  8
0
100
AcDbLine
 10
-9.45019262604867
 20
-1.188476191988705
 30
0.0
 11
-9.803392463251316
 21
-0.9845561709020177
 31
0.0
  0
LINE
  5
853
330
799
100
AcDbEntity
  8
0
100
AcDbLine
 10
-9.803392463251316
 20
-0.9845561709020177
 30
0.0
 11
-10.51085279782853
 21
-0.5761037562928851
 31
0.0
  0
SPLINE
  5
854
330
799
100
AcDbEntity
  8
0
100
AcDbSpline
210
0.0
220
0.0
230
1.0
 70
     8
 71
     3
 72
     8
 73
     4
 74
     0
 42
0.000000001
 43
0.0000000001
 40
-1.0
 40
-1.0
 40
-1.0
 40
-1.0
 40
0.0
 40
0.0
 40
0.0
 40
0.0
 10
-7.862383276658722
 20
-0.1109259462531953
 30
0.0
 10
-8.372375850459143
 20
-0.4812390634935882
 30
0.0
 10
-9.005264566476519
 20
-0.7805980599435159
 30
0.0
 10
-9.450192626048664
 20
-1.188476191988701
 30
0.0
  0
SPLINE
  5
855
330
799
100
AcDbEntity
  8
0
100
AcDbSpline
210
0.0
220
0.0
230
1.0
 70
     8
 71
     3
 72
     8
 73
     4
 74
     0
 42
0.000000001
 43
0.0000000001
 40
0.0
 40
0.0
 40
0.0
 40
0.0
 40
0.6081734479694071
 40
0.6081734479694071
 40
0.6081734479694071
 40
0.6081734479694071
 10
-10.51085279782853
 20
-0.5761037562928784
 30
0.0
 10
-10.00143021120907
 20
-0.4659311830345159
 30
0.0
 10
-9.24868084490027
 20
-0.4962433915306708
 30
0.0
 10
-8.497347981697526
 20
-0.5257377815773645
 30
0.0
  0
ELLIPSE
  5
856
330
799
100
AcDbEntity
  8
0
100
AcDbEllipse
 10
-4.951054822395901
 20
0.2114092306788007
 30
0.0
 11
0.7499999999999226
 21
-1.299038105676702
 31
0.0
210
0.0
220
0.0
230
0.9999999999999998
 40
0.577350269189626
 41
0.9390757175653323
 42
2.356194490192585
  0
LINE
  5
857
330
799
100
AcDbEntity
  8
0
100
AcDbLine
 10
62.32114566438593
 20
-42.6256776740708
 30
0.0
 11
61.61368532980894
 21
-42.21722525946178
 31
0.0
  0
LINE
  5
858
330
799
100
AcDbEntity
  8
0
100
AcDbLine
 10
61.61368532980894
 20
-42.21722525946178
 30
0.0
 11
61.26048549260609
 21
-42.013305238375
 31
0.0
  0
LINE
  5
859
330
799
100
AcDbEntity
  8
0
100
AcDbLine
 10
19.86048549296013
 20
-65.91560638324693
 30
0.0
 11
61.26048549260609
 21
-42.013305238375
 31
0.0
  0
LINE
  5
85A
330
799
100
AcDbEntity
  8
0
100
AcDbLine
 10
61.99976670457221
 20
-40.44585704408286
 30
0.0
 11
62.24951670457205
 21
-40.59005027381288
 31
0.0
  0
SPLINE
  5
85B
330
799
100
AcDbEntity
  8
0
100
AcDbSpline
210
0.0
220
0.0
230
1.0
 70
     8
 71
     3
 72
     8
 73
     4
 74
     0
 42
0.000000001
 43
0.0000000001
 40
-1.0
 40
-1.0
 40
-1.0
 40
-1.0
 40
0.0
 40
0.0
 40
0.0
 40
0.0
 10
61.26048549260609
 20
-42.01330523837499
 30
0.0
 10
61.70541355217832
 20
-41.60542710632968
 30
0.0
 10
61.9340624245875
 20
-41.07268012735581
 30
0.0
 10
61.99976670457218
 20
-40.44585704408287
 30
0.0
  0
SPLINE
  5
85C
330
799
100
AcDbEntity
  8
0
100
AcDbSpline
210
0.0
220
0.0
230
1.0
 70
     8
 71
     3
 72
     8
 73
     4
 74
     0
 42
0.000000001
 43
0.0000000001
 40
0.0
 40
0.0
 40
0.0
 40
0.0
 40
1.0
 40
1.0
 40
1.0
 40
1.0
 10
62.7497667045722
 20
-40.87886974597509
 30
0.0
 10
63.23942279185729
 20
-41.82633028678849
 30
0.0
 10
63.15877280565686
 20
-42.44452446255476
 30
0.0
 10
62.32114566438593
 20
-42.6256776740708
 30
0.0
  0
LINE
  5
85D
330
799
100
AcDbEntity
  8
0
100
AcDbLine
 10
62.24951670457205
 20
-40.59005027381288
 30
0.0
 11
62.7497667045722
 21
-40.87886974597508
 31
0.0
  0
ELLIPSE
  5
85E
330
799
100
AcDbEntity
  8
0
100
AcDbEllipse
 10
61.7525793698593
 20
-37.87036870498115
 30
0.0
 11
-0.749999999999999
 21
-1.299038105676658
 31
0.0
210
0.0
220
0.0
230
0.9999999999999998
 40
0.816496580927726
 41
5.148727052012593
 42
6.283185307179584
  0
LINE
  5
85F
330
799
100
AcDbEntity
  8
0
100
AcDbLine
 10
60.47432976750402
 20
-37.86437629422909
 30
0.0
 11
59.9740797684032
 21
-37.57555682258612
 31
0.0
  0
LINE
  5
860
330
799
100
AcDbEntity
  8
0
100
AcDbLine
 10
59.9740797684032
 20
-37.57555682258612
 30
0.0
 11
59.72432976750403
 21
-37.43136359233687
 31
0.0
  0
LINE
  5
861
330
799
100
AcDbEntity
  8
0
100
AcDbLine
 10
61.87408506006898
 20
-39.67257085550066
 30
0.0
 11
62.62408506006898
 21
-40.10558355739288
 31
0.0
  0
LINE
  5
862
330
799
100
AcDbEntity
  8
0
100
AcDbLine
 10
62.62408506006898
 20
-40.10558355739288
 30
0.0
 11
62.7497667045722
 21
-40.87886974597508
 31
0.0
  0
LINE
  5
863
330
799
100
AcDbEntity
  8
0
100
AcDbLine
 10
59.76171572076196
 20
-36.9630504339576
 30
0.0
 11
60.11491556116432
 21
-36.75913041102357
 31
0.0
  0
LINE
  5
864
330
799
100
AcDbEntity
  8
0
100
AcDbLine
 10
60.11491556116432
 20
-36.75913041102357
 30
0.0
 11
60.64751699790917
 21
-36.45163282814814
 31
0.0
  0
ELLIPSE
  5
865
330
799
100
AcDbEntity
  8
0
100
AcDbEllipse
 10
60.80987582795303
 20
-37.75568178246047
 30
0.0
 11
-0.7500000000000007
 21
1.299038105676658
 31
0.0
210
0.0
220
0.0
230
0.9999999999999998
 40
0.5773502691896259
 41
5.497787143782137
 42
6.914905916409352
  0
LINE
  5
866
330
799
100
AcDbEntity
  8
0
100
AcDbLine
 10
25.62114566517387
 20
-106.1919423104838
 30
0.0
 11
7.421145665329342
 21
-95.68416741132246
 31
0.0
  0
LINE
  5
867
330
799
100
AcDbEntity
  8
0
100
AcDbLine
 10
-64.35019262510522
 20
-54.24696592924037
 30
0.0
 11
-46.15019262526074
 21
-64.75474082840178
 31
0.0
  0
LINE
  5
868
330
799
100
AcDbEntity
  8
0
100
AcDbLine
 10
13.72078856227241
 20
-10.87120669382037
 30
0.0
 11
6.53416524653346
 21
-6.722007787914046
 31
0.0
  0
LINE
  5
869
330
799
100
AcDbEntity
  8
0
100
AcDbLine
 10
3.114186844474207
 20
-4.747482336862429
 30
0.0
 11
-4.114036899370785
 21
-0.5742654125906799
 31
0.0
  0
LINE
  5
86A
330
799
100
AcDbEntity
  8
0
100
AcDbLine
 10
-45.4259285565488
 20
-65.17289488343696
 30
0.0
 11
6.360485493549532
 21
-95.07179497562665
 31
0.0
  0
LINE
  5
86B
330
799
100
AcDbEntity
  8
0
100
AcDbLine
 10
59.72432976750403
 20
-37.43136359233687
 30
0.0
 11
52.49610602365907
 21
-33.25814666806515
 31
0.0
  0
LINE
  5
86C
330
799
100
AcDbEntity
  8
0
100
AcDbLine
 10
49.07612762159979
 20
-31.28362121701352
 30
0.0
 11
41.88950430586084
 21
-27.1344223111072
 31
0.0
  0
LINE
  5
86D
330
799
100
AcDbEntity
  8
0
100
AcDbLine
 10
34.93399199786884
 20
-23.11865540773626
 30
0.0
 11
20.67630087026441
 21
-14.88697359719131
 31
0.0
  0
LINE
  5
86E
330
799
100
AcDbEntity
  8
0
100
AcDbLine
 10
42.06407449260379
 20
-26.74531250685907
 30
0.0
 11
49.15008557228073
 21
-30.83642291119122
 31
0.0
  0
LINE
  5
86F
330
799
100
AcDbEntity
  8
0
100
AcDbLine
 10
6.708735433276404
 20
-6.332897983665919
 30
0.0
 11
13.79474651295334
 21
-10.42400838799807
 31
0.0
  0
LINE
  5
870
330
799
100
AcDbEntity
  8
0
100
AcDbLine
 10
20.85087105700736
 20
-14.49786379294318
 30
0.0
 11
35.00794994854978
 21
-22.67145710191396
 31
0.0
  0
LINE
  5
871
330
799
100
AcDbEntity
  8
0
100
AcDbLine
 10
52.67067621040201
 20
-32.86903686381702
 30
0.0
 11
59.76171572076196
 21
-36.9630504339576
 31
0.0
  0
LINE
  5
872
330
799
100
AcDbEntity
  8
0
100
AcDbLine
 10
-3.902894715204832
 20
-0.2062704608995292
 30
0.0
 11
3.188144795155132
 21
-4.300284031040124
 31
0.0
  0
ELLIPSE
  5
873
330
799
100
AcDbEntity
  8
0
100
AcDbEllipse
 10
15.17114566544303
 20
-85.72487526786707
 30
0.0
 11
1.250000000000128
 21
2.165063509461023
 31
0.0
210
0.0
220
0.0
230
1.0
 40
0.5773502691896254
 41
0.0
 42
6.283185307179586
  0
ELLIPSE
  5
874
330
799
100
AcDbEntity
  8
0
100
AcDbEllipse
 10
28.92114566564775
 20
-67.68267935580944
 30
0.0
 11
-0.400000000000042
 21
-0.6928203230275286
 31
0.0
210
0.0
220
0.0
230
1.0
 40
0.5773502691896255
 41
2.094395102375143
 42
2.276828566511582
  0
LINE
  5
875
330
799
100
AcDbEntity
  8
0
100
AcDbLine
 10
29.46755582715886
 20
-67.53626919430868
 30
0.0
 11
28.67508758183559
 21
-71.40886445851475
 31
0.0
  0
ELLIPSE
  5
876
330
799
100
AcDbEntity
  8
0
100
AcDbEllipse
 10
28.12867742032448
 20
-71.5552746200155
 30
0.0
 11
-0.4000000000000415
 21
-0.6928203230275272
 31
0.0
210
0.0
220
0.0
230
1.0
 40
0.5773502691896255
 41
0.0
 42
2.094395102375107
  0
LINE
  5
877
330
799
100
AcDbEntity
  8
0
100
AcDbLine
 10
27.72867742031721
 20
-72.24809494303887
 30
0.0
 11
25.5636139108955
 21
-70.99809494297062
 31
0.0
  0
ELLIPSE
  5
878
330
799
100
AcDbEntity
  8
0
100
AcDbEllipse
 10
25.96361391090277
 20
-70.30527461994728
 30
0.0
 11
-0.4000000000072804
 21
-0.6928203230233493
 31
0.0
210
0.0
220
0.0
230
1.0
 40
0.5773502691896255
 41
4.188790204822808
 42
6.2831853072524
  0
LINE
  5
879
330
799
100
AcDbEntity
  8
0
100
AcDbLine
 10
25.81720374939895
 20
-69.75886445842468
 30
0.0
 11
28.77473550414392
 21
-67.13626919428685
 31
0.0
  0
ELLIPSE
  5
87A
330
799
100
AcDbEntity
  8
0
100
AcDbEllipse
 10
28.92114566564775
 20
-67.68267935580944
 30
0.0
 11
0.4000000000000009
 21
0.6928203230275525
 31
0.0
210
0.0
220
0.0
230
0.9999999999999998
 40
0.5773502691896258
 41
0.0802385882704746
 42
1.047197551178412
  0
LINE
  5
87B
330
799
100
AcDbEntity
  8
0
100
AcDbLine
 10
29.28779770338199
 20
-66.97357767423316
 30
0.0
 11
29.48505041353211
 21
-67.40889599461076
 31
0.0
  0
ELLIPSE
  5
87C
330
799
100
AcDbEntity
  8
0
100
AcDbEllipse
 10
27.06801724854469
 20
-70.94290218431973
 30
0.0
 11
-0.4000000000072798
 21
-0.6928203230233483
 31
0.0
210
0.0
220
0.0
230
1.0
 40
0.5773502691896255
 41
0.0000000000727871
 42
2.094395102429588
  0
LINE
  5
87D
330
799
100
AcDbEntity
  8
0
100
AcDbLine
 10
27.61442741005578
 20
-70.79649202281896
 30
0.0
 11
28.67508758183559
 21
-71.40886445851475
 31
0.0
  0
LINE
  5
87E
330
799
100
AcDbEntity
  8
0
100
AcDbLine
 10
27.61442741005578
 20
-70.79649202281896
 30
0.0
 11
28.27225692620642
 21
-67.5818427495717
 31
0.0
  0
LINE
  5
87F
330
799
100
AcDbEntity
  8
0
100
AcDbLine
 10
28.77473550413129
 20
-67.13626919430867
 30
0.0
 11
29.46755582715886
 21
-67.53626919430868
 31
0.0
  0
LINE
  5
880
330
799
100
AcDbEntity
  8
0
100
AcDbLine
 10
28.87629663763712
 20
-67.05743183822758
 30
0.0
 11
29.48505041353211
 21
-67.40889599461076
 31
0.0
  0
ELLIPSE
  5
881
330
799
100
AcDbEntity
  8
0
100
AcDbEllipse
 10
14.11048549366324
 20
-85.11250283217128
 30
0.0
 11
1.24999999999987
 21
2.165063509461173
 31
0.0
210
0.0
220
0.0
230
1.0
 40
0.5773502691896257
 41
3.579741684173534
 42
5.845036276595006
  0
LINE
  5
882
330
799
100
AcDbEntity
  8
0
100
AcDbLine
 10
-51.9108527974746
 20
-24.47840490116473
 30
0.0
 11
-65.41085279688504
 21
-47.86109080164836
 31
0.0
  0
LINE
  5
883
330
799
100
AcDbEntity
  8
0
100
AcDbLine
 10
-50.85019262569488
 20
-25.09077733686047
 30
0.0
 11
-64.35019262510522
 21
-48.47346323734415
 31
0.0
  0
ELLIPSE
  5
884
330
799
100
AcDbEntity
  8
0
100
AcDbEllipse
 10
-60.16085279681682
 20
-48.00542836898514
 30
0.0
 11
1.249999999999869
 21
2.165063509461172
 31
0.0
210
0.0
220
0.0
230
0.9999999999999998
 40
0.5773502691896257
 41
3.579741684173537
 42
5.845036276595008
  0
ELLIPSE
  5
885
330
799
100
AcDbEntity
  8
0
100
AcDbEllipse
 10
-47.20332104193537
 20
-33.83582772113358
 30
0.0
 11
-0.4000000000072798
 21
-0.6928203230233483
 31
0.0
210
0.0
220
0.0
230
1.0
 40
0.5773502691896258
 41
0.000000000072788
 42
2.094395102429583
  0
LINE
  5
886
330
799
100
AcDbEntity
  8
0
100
AcDbLine
 10
-46.65691088042428
 20
-33.68941755963282
 30
0.0
 11
-45.99908136427362
 21
-30.47476828638556
 31
0.0
  0
LINE
  5
887
330
799
100
AcDbEntity
  8
0
100
AcDbLine
 10
-45.59625070864445
 20
-34.30178999532861
 30
0.0
 11
-46.65691088042428
 21
-33.68941755963282
 31
0.0
  0
LINE
  5
888
330
799
100
AcDbEntity
  8
0
100
AcDbLine
 10
-44.80378246332119
 20
-30.42919473112254
 30
0.0
 11
-45.59625070864445
 21
-34.30178999532861
 31
0.0
  0
LINE
  5
889
330
799
100
AcDbEntity
  8
0
100
AcDbLine
 10
-44.80378246332119
 20
-30.42919473112254
 30
0.0
 11
-45.49660278635601
 21
-30.02919473111834
 31
0.0
  0
ELLIPSE
  5
88A
330
799
100
AcDbEntity
  8
0
100
AcDbEllipse
 10
-45.35019262483231
 20
-30.57560489262328
 30
0.0
 11
0.4000000000000004
 21
0.6928203230275526
 31
0.0
210
0.0
220
0.0
230
1.0
 40
0.5773502691896257
 41
5.235987755964796
 42
7.330382858358005
  0
LINE
  5
88B
330
799
100
AcDbEntity
  8
0
100
AcDbLine
 10
-48.45413454108111
 20
-32.65178999523853
 30
0.0
 11
-45.49660278633613
 21
-30.02919473110069
 31
0.0
  0
ELLIPSE
  5
88C
330
799
100
AcDbEntity
  8
0
100
AcDbEllipse
 10
-48.30772437957728
 20
-33.19820015676112
 30
0.0
 11
-0.4000000000072796
 21
-0.6928203230233497
 31
0.0
210
0.0
220
0.0
230
0.9999999999999998
 40
0.5773502691896257
 41
4.188790204822788
 42
6.283185307252363
  0
LINE
  5
88D
330
799
100
AcDbEntity
  8
0
100
AcDbLine
 10
-46.54266087016283
 20
-35.14102047985272
 30
0.0
 11
-48.70772437958456
 21
-33.89102047978447
 31
0.0
  0
ELLIPSE
  5
88E
330
799
100
AcDbEntity
  8
0
100
AcDbEllipse
 10
-46.14266087015557
 20
-34.44820015682936
 30
0.0
 11
-0.4000000000000412
 21
-0.6928203230275269
 31
0.0
210
0.0
220
0.0
230
0.9999999999999998
 40
0.5773502691896258
 41
0.0
 42
2.094395102375102
  0
ELLIPSE
  5
88F
330
799
100
AcDbEntity
  8
0
100
AcDbEllipse
 10
-59.10019262503704
 20
-48.61780080468091
 30
0.0
 11
1.250000000000127
 21
2.165063509461023
 31
0.0
210
0.0
220
0.0
230
1.0
 40
0.5773502691896258
 41
0.0
 42
6.283185307179586
  0
LINE
  5
890
330
799
100
AcDbEntity
  8
0
100
AcDbLine
 10
-7.862383276658713
 20
-0.1109259462531953
 30
0.0
 11
-45.4259285565488
 21
-65.17289488343696
 31
0.0
  0
LINE
  5
891
330
799
100
AcDbEntity
  8
0
100
AcDbLine
 10
-46.1501926252607
 20
-64.75474082840181
 30
0.0
 11
-45.42592855654881
 21
-65.17289488343699
 31
0.0
  0
LINE
  5
892
330
799
100
AcDbEntity
  8
0
100
AcDbLine
 10
-46.15019262526074
 20
-64.75474082840178
 30
0.0
 11
-9.450192626048675
 21
-1.188476191988705
 31
0.0
  0
ENDBLK
  5
79B
330
799
100
AcDbEntity
  8
0
100
AcDbBlockEnd
  0
ENDSEC
  0
SECTION
  2
ENTITIES
  0
INSERT
  5
893
330
1F
100
AcDbEntity
  8
0
100
AcDbBlockReference
  2
SPR100_140-Front
 10
0.0
 20
0.0
 30
0.0
  0
INSERT
  5
894
330
1F
100
AcDbEntity
  8
0
100
AcDbBlockReference
  2
SPR100_140-Left
 10
151.4229986469886
 20
0.0
 30
0.0
  0
INSERT
  5
895
330
1F
100
AcDbEntity
  8
0
100
AcDbBlockReference
  2
SPR100_140-Right
 10
-151.4229986469887
 20
0.0
 30
0.0
  0
INSERT
  5
896
330
1F
100
AcDbEntity
  8
0
100
AcDbBlockReference
  2
SPR100_140-Top
 10
0.0
 20
-114.545601705951
 30
0.0
  0
INSERT
  5
897
330
1F
100
AcDbEntity
  8
0
100
AcDbBlockReference
  2
SPR100_140-Bottom
 10
0.0
 20
199.5659080859887
 30
0.0
  0
INSERT
  5
898
330
1F
100
AcDbEntity
  8
0
100
AcDbBlockReference
  2
SPR100_140-ISO
 10
216.8338514438737
 20
-231.9527858227115
 30
0.0
  0
MTEXT
  5
899
330
1F
100
AcDbEntity
  8
0
100
AcDbMText
 10
0.0
 20
-255.4445760657996
 30
0.0
 40
19.63196936199623
 41
0.0
 71
     5
 72
     5
  1
SPR100/140
 73
     1
 44
1.0
1001
ACAD
1000
MTEXTBEGIN
1070
    73
1070
     1
1070
    44
1040
1.0
1070
    74
1070
     0
1000
MTEXTEND
  0
ENDSEC
  0
SECTION
  2
OBJECTS
  0
DICTIONARY
  5
C
330
0
100
AcDbDictionary
281
     1
  3
ACAD_CIP_PREVIOUS_PRODUCT_INFO
350
216
  3
ACAD_COLOR
350
6B
  3
ACAD_DETAILVIEWSTYLE
350
21B
  3
ACAD_GROUP
350
D
  3
ACAD_LAYOUT
350
1A
  3
ACAD_MATERIAL
350
6A
  3
ACAD_MLEADERSTYLE
350
12D
  3
ACAD_MLINESTYLE
350
17
  3
ACAD_PLOTSETTINGS
350
19
  3
ACAD_PLOTSTYLENAME
350
E
  3
ACAD_SCALELIST
350
10C
  3
ACAD_SECTIONVIEWSTYLE
350
219
  3
ACAD_TABLESTYLE
350
7E
  3
ACAD_VISUALSTYLE
350
EF
  3
ACDB_RECOMPOSE_DATA
350
99A
  3
AcDbVariableDictionary
350
5E
  3
DWGPROPS
350
99B
  0
DICTIONARY
  5
8EA
330
8
100
AcDbDictionary
280
     1
281
     1
  0
DICTIONARY
  5
1FF
330
2
100
AcDbDictionary
280
     1
281
     1
  3
ACAD_LAYERSTATES
360
200
  0
DICTIONARY
  5
13C
330
10
100
AcDbDictionary
280
     1
281
     1
  0
DICTIONARY
  5
1CE
330
1F
100
AcDbDictionary
280
     1
281
     1
  3
ACAD_LAYOUTSELFREF
360
8F2
  0
DICTIONARY
  5
89D
330
D2
100
AcDbDictionary
280
     1
281
     1
  3
ACAD_LAYOUTSELFREF
360
8FB
  0
DICTIONARY
  5
89F
330
D6
100
AcDbDictionary
280
     1
281
     1
  3
ACAD_LAYOUTSELFREF
360
8FE
  0
XRECORD
  5
216
102
{ACAD_REACTORS
330
C
102
}
330
C
100
AcDbXrecord
280
     1
300
ACD
300
2021
300
87393ACD_2021_0F
  0
DICTIONARY
  5
6B
102
{ACAD_REACTORS
330
C
102
}
330
C
100
AcDbDictionary
281
     1
  0
DICTIONARY
  5
21B
102
{ACAD_REACTORS
330
C
102
}
330
C
100
AcDbDictionary
281
     1
  3
Metric50
350
21C
  0
DICTIONARY
  5
D
102
{ACAD_REACTORS
330
C
102
}
330
C
100
AcDbDictionary
281
     1
  0
DICTIONARY
  5
1A
102
{ACAD_REACTORS
330
C
102
}
330
C
100
AcDbDictionary
281
     1
  3
Layout1
350
D3
  3
Layout2
350
D7
  3
Model
350
22
  0
DICTIONARY
  5
6A
102
{ACAD_REACTORS
330
C
102
}
330
C
100
AcDbDictionary
281
     1
  3
ByBlock
350
ED
  3
ByLayer
350
EC
  3
Global
350
EE
  0
DICTIONARY
  5
12D
102
{ACAD_REACTORS
330
C
102
}
330
C
100
AcDbDictionary
281
     1
  3
Standard
350
12E
  0
DICTIONARY
  5
17
102
{ACAD_REACTORS
330
C
102
}
330
C
100
AcDbDictionary
281
     1
  3
Standard
350
18
  0
DICTIONARY
  5
19
102
{ACAD_REACTORS
330
C
102
}
330
C
100
AcDbDictionary
281
     1
  0
ACDBDICTIONARYWDFLT
  5
E
102
{ACAD_REACTORS
330
C
102
}
330
C
100
AcDbDictionary
281
     1
  3
Normal
350
F
100
AcDbDictionaryWithDefault
340
F
  0
DICTIONARY
  5
10C
102
{ACAD_REACTORS
330
C
102
}
330
C
100
AcDbDictionary
281
     1
  3
A0
350
10D
  3
A1
350
1BE
  3
A2
350
1BF
  3
A3
350
1C0
  3
A4
350
1C1
  3
A5
350
1C2
  3
A6
350
1C3
  3
A7
350
1C4
  3
A8
350
1C5
  3
A9
350
1C6
  3
B0
350
1C7
  3
B1
350
1C8
  3
B2
350
1C9
  3
B3
350
1CA
  3
B4
350
1CB
  3
B5
350
1CC
  3
B6
350
1CD
  0
DICTIONARY
  5
219
102
{ACAD_REACTORS
330
C
102
}
330
C
100
AcDbDictionary
281
     1
  3
Metric50
350
21A
  0
DICTIONARY
  5
7E
102
{ACAD_REACTORS
330
C
102
}
330
C
100
AcDbDictionary
281
     1
  3
Standard
350
7F
  0
DICTIONARY
  5
EF
102
{ACAD_REACTORS
330
C
102
}
330
C
100
AcDbDictionary
281
     1
  3
2dWireframe
350
F5
  3
Basic
350
F4
  3
Brighten
350
FB
  3
ColorChange
350
FF
  3
Conceptual
350
F8
  3
Dim
350
FA
  3
EdgeColorOff
350
1E6
  3
Facepattern
350
FE
  3
Flat
350
F0
  3
FlatWithEdges
350
F1
  3
Gouraud
350
F2
  3
GouraudWithEdges
350
F3
  3
Hidden
350
F7
  3
JitterOff
350
1E4
  3
Linepattern
350
FD
  3
OverhangOff
350
1E5
  3
Realistic
350
F9
  3
Shaded
350
1F3
  3
Shaded with edges
350
1F2
  3
Shades of Gray
350
1EF
  3
Sketchy
350
1F0
  3
Thicken
350
FC
  3
Wireframe
350
F6
  3
X-Ray
350
1F1
  0
XRECORD
  5
99A
102
{ACAD_REACTORS
330
C
102
}
330
C
100
AcDbXrecord
280
     1
 90
        1
330
7F
  0
DICTIONARY
  5
5E
102
{ACAD_REACTORS
330
C
102
}
330
C
100
AcDbDictionary
281
     1
  3
CANNOSCALE
350
146
  3
CENTEREXE
350
259
  3
CENTERLTYPEFILE
350
25A
  3
CMLEADERSTYLE
350
145
  3
CTABLESTYLE
350
84
  3
CVIEWDETAILSTYLE
350
227
  3
CVIEWSECTIONSTYLE
350
228
  3
DIMASSOC
350
5F
  3
HIDETEXT
350
63
  3
INDEXCTL
350
947
  3
LAYEREVAL
350
1AE
  3
LAYERNOTIFY
350
1AF
  3
LIGHTINGUNITS
350
945
  3
MSLTSCALE
350
944
  3
PSOLHEIGHT
350
997
  3
PSOLWIDTH
350
996
  3
SORTENTS
350
946
  3
XCLIPFRAME
350
998
  0
XRECORD
  5
99B
102
{ACAD_REACTORS
330
C
102
}
330
C
100
AcDbXrecord
280
     1
  1
DWGPROPS COOKIE
  2

  3

  4

  6

  7

  8
truole
  9

300
=
301
=
302
=
303
=
304
=
305
=
306
=
307
=
308
=
309
=
 40
0.0018634259259259
 41
2460719.40650463
 42
2460719.410219907
  1

 90
        0
  0
DICTIONARY
  5
200
102
{ACAD_REACTORS
330
1FF
102
}
330
1FF
100
AcDbDictionary
281
     1
  0
XRECORD
  5
8F2
102
{ACAD_REACTORS
330
1CE
102
}
330
1CE
100
AcDbXrecord
280
     1
340
1F
  0
XRECORD
  5
8FB
102
{ACAD_REACTORS
330
89D
102
}
330
89D
100
AcDbXrecord
280
     1
340
D2
  0
XRECORD
  5
8FE
102
{ACAD_REACTORS
330
89F
102
}
330
89F
100
AcDbXrecord
280
     1
340
D6
  0
ACDBDETAILVIEWSTYLE
  5
21C
102
{ACAD_XDICTIONARY
360
9DA
102
}
102
{ACAD_REACTORS
330
21B
102
}
330
21B
100
AcDbModelDocViewStyle
 70
     0
  3
Metric50
290
     0
100
AcDbDetailViewStyle
 70
     0
 71
     0
 90
        3
 71
     1
340
11
 40
5.0
340
0
 40
5.0
300

 40
0.0
280
     1
 71
     2
340
16
 90
       25
 71
     3
340
11
 40
5.0
 90
        0
 40
15.0
 90
        1
300
%<\AcVar ViewDetailId>% (%<\AcVar ViewScale \f "%sn">%)
 71
     4
340
16
 90
       25
340
16
 90
       25
280
     0
  0
LAYOUT
  5
D3
102
{ACAD_XDICTIONARY
360
99F
102
}
102
{ACAD_REACTORS
330
1A
102
}
330
1A
100
AcDbPlotSettings
  1

  2
C:\Documents and Settings\basas\Application Data\Autodesk\AutoCAD 2005\R16.1\enu\plotters\Default Windows System Printer.pc3
  4

  6

 40
0.0
 41
0.0
 42
0.0
 43
0.0
 44
0.0
 45
0.0
 46
0.0
 47
0.0
 48
0.0
 49
0.0
140
0.0
141
0.0
142
1.0
143
1.0
 70
   688
 72
     0
 73
     0
 74
     5
  7

 75
    16
147
1.0
148
0.0
149
0.0
100
AcDbLayout
  1
Layout1
 70
     1
 71
     1
 10
0.0
 20
0.0
 11
12.0
 21
9.0
 12
0.0
 22
0.0
 32
0.0
 14
0.0
 24
0.0
 34
0.0
 15
0.0
 25
0.0
 35
0.0
146
0.0
 13
0.0
 23
0.0
 33
0.0
 16
1.0
 26
0.0
 36
0.0
 17
0.0
 27
1.0
 37
0.0
 76
     0
330
D2
  0
LAYOUT
  5
D7
102
{ACAD_XDICTIONARY
360
9A1
102
}
102
{ACAD_REACTORS
330
1A
102
}
330
1A
100
AcDbPlotSettings
  1

  2
C:\Documents and Settings\basas\Application Data\Autodesk\AutoCAD 2005\R16.1\enu\plotters\Default Windows System Printer.pc3
  4

  6

 40
0.0
 41
0.0
 42
0.0
 43
0.0
 44
0.0
 45
0.0
 46
0.0
 47
0.0
 48
0.0
 49
0.0
140
0.0
141
0.0
142
1.0
143
1.0
 70
   688
 72
     0
 73
     0
 74
     5
  7

 75
    16
147
1.0
148
0.0
149
0.0
100
AcDbLayout
  1
Layout2
 70
     1
 71
     2
 10
0.0
 20
0.0
 11
12.0
 21
9.0
 12
0.0
 22
0.0
 32
0.0
 14
0.0
 24
0.0
 34
0.0
 15
0.0
 25
0.0
 35
0.0
146
0.0
 13
0.0
 23
0.0
 33
0.0
 16
1.0
 26
0.0
 36
0.0
 17
0.0
 27
1.0
 37
0.0
 76
     0
330
D6
  0
LAYOUT
  5
22
102
{ACAD_XDICTIONARY
360
99C
102
}
102
{ACAD_REACTORS
330
1A
102
}
330
1A
100
AcDbPlotSettings
  1

  2
none_device
  4
ISO_A4_(210.00_x_297.00_MM)
  6

 40
7.5
 41
20.0
 42
7.5
 43
20.0
 44
210.0
 45
297.0
 46
11.54999923706054
 47
-13.65000009536743
 48
0.0
 49
0.0
140
0.0
141
0.0
142
1.0
143
8.704084754739808
 70
 11952
 72
     1
 73
     0
 74
     0
  7

 75
     0
147
0.1148885871608098
148
0.0
149
0.0
100
AcDbLayout
  1
Model
 70
     1
 71
     0
 10
0.0
 20
0.0
 11
12.0
 21
9.0
 12
0.0
 22
0.0
 32
0.0
 14
0.0
 24
0.0
 34
0.0
 15
0.0
 25
0.0
 35
0.0
146
0.0
 13
0.0
 23
0.0
 33
0.0
 16
1.0
 26
0.0
 36
0.0
 17
0.0
 27
1.0
 37
0.0
 76
     0
330
1F
331
EA
1001
ACAD_PSEXT
1000
None
1000
None
1000
Not applicable
1000
The layout will not be plotted unless a new plotter configuration name is selected.
1070
     0
  0
MATERIAL
  5
ED
102
{ACAD_XDICTIONARY
360
1F9
102
}
102
{ACAD_REACTORS
330
6A
102
}
330
6A
100
AcDbMaterial
  1
ByBlock
  0
MATERIAL
  5
EC
102
{ACAD_XDICTIONARY
360
1F7
102
}
102
{ACAD_REACTORS
330
6A
102
}
330
6A
100
AcDbMaterial
  1
ByLayer
  0
MATERIAL
  5
EE
102
{ACAD_XDICTIONARY
360
173
102
}
102
{ACAD_REACTORS
330
6A
102
}
330
6A
100
AcDbMaterial
  1
Global
 43
0.0007999999797903
 43
0.0
 43
0.0
 43
0.0
 43
0.0
 43
0.0007999999797903
 43
0.0
 43
0.0
 43
0.0
 43
0.0
 43
1.0
 43
0.0
 43
0.0
 43
0.0
 43
0.0
 43
1.0
 49
0.0007999999797903
 49
0.0
 49
0.0
 49
0.0
 49
0.0
 49
0.0007999999797903
 49
0.0
 49
0.0
 49
0.0
 49
0.0
 49
1.0
 49
0.0
 49
0.0
 49
0.0
 49
0.0
 49
1.0
142
0.0007999999797903
142
0.0
142
0.0
142
0.0
142
0.0
142
0.0007999999797903
142
0.0
142
0.0
142
0.0
142
0.0
142
1.0
142
0.0
142
0.0
142
0.0
142
0.0
142
1.0
144
0.0007999999797903
144
0.0
144
0.0
144
0.0
144
0.0
144
0.0007999999797903
144
0.0
144
0.0
144
0.0
144
0.0
144
1.0
144
0.0
144
0.0
144
0.0
144
0.0
144
1.0
1001
ACAD
1070
    -1
1070
     3
1070
     0
1000

1071
        0
1070
     0
  0
MLEADERSTYLE
  5
12E
102
{ACAD_XDICTIONARY
360
9C6
102
}
102
{ACAD_REACTORS
330
12D
102
}
330
12D
100
AcDbMLeaderStyle
170
     2
171
     1
172
     0
 90
        2
 40
0.0
 41
0.0
173
     1
 91
-1056964608
340
14
 92
       -2
290
     1
 42
2.0
291
     1
 43
8.0
  3
Standard
 44
4.0
300

342
11
174
     1
178
     1
175
     1
176
     0
 93
-1056964608
 45
4.0
292
     0
297
     0
 46
4.0
 94
-1056964608
 47
1.0
 49
1.0
140
1.0
293
     1
141
0.0
294
     1
177
     0
142
1.0
295
     0
296
     0
143
3.75
1001
ACAD_MLEADERVER
1070
     2
  0
MLINESTYLE
  5
18
102
{ACAD_REACTORS
330
17
102
}
330
17
100
AcDbMlineStyle
  2
STANDARD
 70
     0
  3

 62
   256
 51
90.0
 52
90.0
 71
     2
 49
0.5
 62
   256
  6
BYLAYER
 49
-0.5
 62
   256
  6
BYLAYER
  0
ACDBPLACEHOLDER
  5
F
102
{ACAD_REACTORS
330
E
102
}
330
E
  0
SCALE
  5
10D
102
{ACAD_REACTORS
330
10C
102
}
330
10C
100
AcDbScale
 70
     0
300
1:1
140
1.0
141
1.0
290
     1
  0
SCALE
  5
1BE
102
{ACAD_REACTORS
330
10C
102
}
330
10C
100
AcDbScale
 70
     0
300
1:2
140
1.0
141
2.0
290
     0
  0
SCALE
  5
1BF
102
{ACAD_REACTORS
330
10C
102
}
330
10C
100
AcDbScale
 70
     0
300
1:4
140
1.0
141
4.0
290
     0
  0
SCALE
  5
1C0
102
{ACAD_REACTORS
330
10C
102
}
330
10C
100
AcDbScale
 70
     0
300
1:5
140
1.0
141
5.0
290
     0
  0
SCALE
  5
1C1
102
{ACAD_REACTORS
330
10C
102
}
330
10C
100
AcDbScale
 70
     0
300
1:8
140
1.0
141
8.0
290
     0
  0
SCALE
  5
1C2
102
{ACAD_REACTORS
330
10C
102
}
330
10C
100
AcDbScale
 70
     0
300
1:10
140
1.0
141
10.0
290
     0
  0
SCALE
  5
1C3
102
{ACAD_REACTORS
330
10C
102
}
330
10C
100
AcDbScale
 70
     0
300
1:16
140
1.0
141
16.0
290
     0
  0
SCALE
  5
1C4
102
{ACAD_REACTORS
330
10C
102
}
330
10C
100
AcDbScale
 70
     0
300
1:20
140
1.0
141
20.0
290
     0
  0
SCALE
  5
1C5
102
{ACAD_REACTORS
330
10C
102
}
330
10C
100
AcDbScale
 70
     0
300
1:30
140
1.0
141
30.0
290
     0
  0
SCALE
  5
1C6
102
{ACAD_REACTORS
330
10C
102
}
330
10C
100
AcDbScale
 70
     0
300
1:40
140
1.0
141
40.0
290
     0
  0
SCALE
  5
1C7
102
{ACAD_REACTORS
330
10C
102
}
330
10C
100
AcDbScale
 70
     0
300
1:50
140
1.0
141
50.0
290
     0
  0
SCALE
  5
1C8
102
{ACAD_REACTORS
330
10C
102
}
330
10C
100
AcDbScale
 70
     0
300
1:100
140
1.0
141
100.0
290
     0
  0
SCALE
  5
1C9
102
{ACAD_REACTORS
330
10C
102
}
330
10C
100
AcDbScale
 70
     0
300
2:1
140
2.0
141
1.0
290
     0
  0
SCALE
  5
1CA
102
{ACAD_REACTORS
330
10C
102
}
330
10C
100
AcDbScale
 70
     0
300
4:1
140
4.0
141
1.0
290
     0
  0
SCALE
  5
1CB
102
{ACAD_REACTORS
330
10C
102
}
330
10C
100
AcDbScale
 70
     0
300
8:1
140
8.0
141
1.0
290
     0
  0
SCALE
  5
1CC
102
{ACAD_REACTORS
330
10C
102
}
330
10C
100
AcDbScale
 70
     0
300
10:1
140
10.0
141
1.0
290
     0
  0
SCALE
  5
1CD
102
{ACAD_REACTORS
330
10C
102
}
330
10C
100
AcDbScale
 70
     0
300
100:1
140
100.0
141
1.0
290
     0
  0
ACDBSECTIONVIEWSTYLE
  5
21A
102
{ACAD_XDICTIONARY
360
9D8
102
}
102
{ACAD_REACTORS
330
219
102
}
330
219
100
AcDbModelDocViewStyle
 70
     0
  3
Metric50
290
     0
100
AcDbSectionViewStyle
 70
     0
 71
     0
 90
      102
 71
     1
340
11
 40
5.0
340
0
340
0
 40
5.0
300
I, O, Q, S, X, Z
 40
10.0
 90
        0
 40
2.5
 90
        0
 71
     2
340
16
 90
       25
340
16
 90
       50
 40
5.0
 40
2.5
 40
5.0
 71
     3
340
11
 40
5.0
 90
        0
 40
15.0
 90
        1
300
%<\AcVar ViewSectionStartId>%-%<\AcVar ViewSectionEndId>% (%<\AcVar ViewScale \f "%sn">%)
 71
     4
300
ANSI31
 40
1.0
 90
        0
290
     0
290
     0
 90
        6
 40
0.0
 40
1.570796326794896
 40
0.2617993877991494
 40
1.308996938995747
 40
-0.2617993877991494
 40
1.832595714594046
  0
TABLESTYLE
  5
7F
102
{ACAD_XDICTIONARY
360
162
102
}
102
{ACAD_REACTORS
330
7E
102
}
330
7E
100
AcDbTableStyle
  3
Standard
 70
     0
 71
     0
 40
1.5
 41
1.5
280
     0
281
     0
  7
Standard
140
4.5
170
     2
 62
     0
 63
     7
283
     0
274
    -2
284
     1
 64
     0
275
    -2
285
     1
 65
     0
276
    -2
286
     1
 66
     0
277
    -2
287
     1
 67
     0
278
    -2
288
     1
 68
     0
279
    -2
289
     1
 69
     0
  7
Standard
140
6.0
170
     5
 62
     0
 63
     7
283
     0
274
    -2
284
     1
 64
     0
275
    -2
285
     1
 65
     0
276
    -2
286
     1
 66
     0
277
    -2
287
     1
 67
     0
278
    -2
288
     1
 68
     0
279
    -2
289
     1
 69
     0
  7
Standard
140
4.5
170
     5
 62
     0
 63
     7
283
     0
274
    -2
284
     1
 64
     0
275
    -2
285
     1
 65
     0
276
    -2
286
     1
 66
     0
277
    -2
287
     1
 67
     0
278
    -2
288
     1
 68
     0
279
    -2
289
     1
 69
     0
  0
VISUALSTYLE
  5
F5
102
{ACAD_XDICTIONARY
360
9B0
102
}
102
{ACAD_REACTORS
330
EF
102
}
330
EF
100
AcDbVisualStyle
  2
2dWireframe
 70
     4
 71
     0
 72
     2
 73
     1
 90
        0
 40
-0.6
 41
-30.0
 62
     5
 63
     7
 74
     1
 91
        4
 64
     7
 65
   257
 75
     1
175
     1
 42
1.0
 92
        0
 66
   257
 43
1.0
 76
     1
 77
     6
 78
     2
 67
     7
 79
     5
170
     0
171
     0
290
     0
174
     0
 93
        1
 44
0.0
173
     0
291
     0
 45
0.0
1001
ACAD
1000
AcDbSavedByObjectVersion
1070
     0
  0
VISUALSTYLE
  5
F4
102
{ACAD_XDICTIONARY
360
9AE
102
}
102
{ACAD_REACTORS
330
EF
102
}
330
EF
100
AcDbVisualStyle
  2
Basic
 70
     7
 71
     1
 72
     0
 73
     1
 90
        0
 40
-0.6
 41
-30.0
 62
     5
 63
     7
 74
     0
 91
        4
 64
     7
 65
   257
 75
     1
175
     1
 42
1.0
 92
        8
 66
     7
 43
1.0
 76
     1
 77
     6
 78
     2
 67
     7
 79
     5
170
     0
171
     0
290
     0
174
     0
 93
        1
 44
0.0
173
     0
291
     1
 45
0.0
1001
ACAD
1000
AcDbSavedByObjectVersion
1070
     0
  0
VISUALSTYLE
  5
FB
102
{ACAD_XDICTIONARY
360
9BC
102
}
102
{ACAD_REACTORS
330
EF
102
}
330
EF
100
AcDbVisualStyle
  2
Brighten
 70
    12
 71
     2
 72
     2
 73
     1
 90
        0
 40
-0.6
 41
-30.0
 62
     5
 63
     7
 74
     1
 91
        4
 64
     7
 65
   257
 75
     1
175
     1
 42
1.0
 92
        8
 66
     7
 43
1.0
 76
     1
 77
     6
 78
     2
 67
     7
 79
     5
170
     0
171
     0
290
     0
174
     0
 93
        1
 44
50.0
173
     0
291
     1
 45
0.0
1001
ACAD
1000
AcDbSavedByObjectVersion
1070
     0
  0
VISUALSTYLE
  5
FF
102
{ACAD_XDICTIONARY
360
9C4
102
}
102
{ACAD_REACTORS
330
EF
102
}
330
EF
100
AcDbVisualStyle
  2
ColorChange
 70
    16
 71
     2
 72
     2
 73
     3
 90
        0
 40
-0.6
 41
-30.0
 62
     5
 63
     8
 74
     1
 91
        4
 64
     7
 65
   257
 75
     1
175
     1
 42
1.0
 92
        8
 66
     8
 43
1.0
 76
     1
 77
     6
 78
     2
 67
     7
 79
     5
170
     0
171
     0
290
     0
174
     0
 93
        1
 44
0.0
173
     0
291
     1
 45
0.0
1001
ACAD
1000
AcDbSavedByObjectVersion
1070
     0
  0
VISUALSTYLE
  5
F8
102
{ACAD_XDICTIONARY
360
9B6
102
}
102
{ACAD_REACTORS
330
EF
102
}
330
EF
100
AcDbVisualStyle
  2
Conceptual
 70
     9
 71
     3
 72
     2
 73
     1
 90
        0
 40
-0.6
 41
-30.0
 62
     5
 63
     7
 74
     2
 91
        2
 64
     7
 65
   257
 75
     1
175
     1
 42
40.0
 92
        8
 66
     7
 43
1.0
 76
     1
 77
     6
 78
     2
 67
     7
 79
     3
170
     0
171
     0
290
     0
174
     0
 93
        1
 44
0.0
173
     0
291
     0
 45
0.0
1001
ACAD
1000
AcDbSavedByObjectVersion
1070
     0
  0
VISUALSTYLE
  5
FA
102
{ACAD_XDICTIONARY
360
9BA
102
}
102
{ACAD_REACTORS
330
EF
102
}
330
EF
100
AcDbVisualStyle
  2
Dim
 70
    11
 71
     2
 72
     2
 73
     1
 90
        0
 40
-0.6
 41
-30.0
 62
     5
 63
     7
 74
     1
 91
        4
 64
     7
 65
   257
 75
     1
175
     1
 42
1.0
 92
        8
 66
     7
 43
1.0
 76
     1
 77
     6
 78
     2
 67
     7
 79
     5
170
     0
171
     0
290
     0
174
     0
 93
        1
 44
-50.0
173
     0
291
     1
 45
0.0
1001
ACAD
1000
AcDbSavedByObjectVersion
1070
     0
  0
VISUALSTYLE
  5
1E6
102
{ACAD_XDICTIONARY
360
9CC
102
}
102
{ACAD_REACTORS
330
EF
102
}
330
EF
100
AcDbVisualStyle
  2
EdgeColorOff
 70
    22
 71
     2
 72
     2
 73
     0
 90
        0
 40
-0.6
 41
-30.0
 62
     5
 63
     7
 74
     1
 91
        4
 64
     7
 65
   257
 75
     1
175
     1
 42
1.0
 92
        8
 66
     7
 43
1.0
 76
     1
 77
     6
 78
     2
 67
     7
 79
     5
170
     0
171
     0
290
     0
174
     0
 93
        1
 44
0.0
173
     0
291
     1
 45
0.0
1001
ACAD
1000
AcDbSavedByObjectVersion
1070
     0
  0
VISUALSTYLE
  5
FE
102
{ACAD_XDICTIONARY
360
9C2
102
}
102
{ACAD_REACTORS
330
EF
102
}
330
EF
100
AcDbVisualStyle
  2
Facepattern
 70
    15
 71
     2
 72
     2
 73
     1
 90
        0
 40
-0.6
 41
-30.0
 62
     5
 63
     7
 74
     1
 91
        4
 64
     7
 65
   257
 75
     1
175
     1
 42
1.0
 92
        8
 66
     7
 43
1.0
 76
     1
 77
     6
 78
     2
 67
     7
 79
     5
170
     0
171
     0
290
     0
174
     0
 93
        1
 44
0.0
173
     0
291
     1
 45
0.0
1001
ACAD
1000
AcDbSavedByObjectVersion
1070
     0
  0
VISUALSTYLE
  5
F0
102
{ACAD_XDICTIONARY
360
9A6
102
}
102
{ACAD_REACTORS
330
EF
102
}
330
EF
100
AcDbVisualStyle
  2
Flat
 70
     0
 71
     2
 72
     1
 73
     1
 90
        2
 40
-0.6
 41
30.0
 62
     5
 63
     7
 74
     0
 91
        0
 64
     7
 65
   257
 75
     1
175
     1
 42
1.0
 92
        8
 66
     7
 43
1.0
 76
     1
 77
     6
 78
     2
 67
     7
 79
     5
170
     0
171
     0
290
     0
174
     0
 93
       13
 44
0.0
173
     0
291
     1
 45
0.0
1001
ACAD
1000
AcDbSavedByObjectVersion
1070
     0
  0
VISUALSTYLE
  5
F1
102
{ACAD_XDICTIONARY
360
9A8
102
}
102
{ACAD_REACTORS
330
EF
102
}
330
EF
100
AcDbVisualStyle
  2
FlatWithEdges
 70
     1
 71
     2
 72
     1
 73
     1
 90
        2
 40
-0.6
 41
30.0
 62
     5
 63
     7
 74
     1
 91
        0
 64
     7
 65
   257
 75
     1
175
     1
 42
1.0
 92
        0
 66
   257
 43
1.0
 76
     1
 77
     6
 78
     2
 67
     7
 79
     5
170
     0
171
     0
290
     0
174
     0
 93
       13
 44
0.0
173
     0
291
     1
 45
0.0
1001
ACAD
1000
AcDbSavedByObjectVersion
1070
     0
  0
VISUALSTYLE
  5
F2
102
{ACAD_XDICTIONARY
360
9AA
102
}
102
{ACAD_REACTORS
330
EF
102
}
330
EF
100
AcDbVisualStyle
  2
Gouraud
 70
     2
 71
     2
 72
     2
 73
     1
 90
        2
 40
-0.6
 41
30.0
 62
     5
 63
     7
 74
     0
 91
        0
 64
     7
 65
   257
 75
     1
175
     1
 42
1.0
 92
        0
 66
     7
 43
1.0
 76
     1
 77
     6
 78
     2
 67
     7
 79
     5
170
     0
171
     0
290
     0
174
     0
 93
       13
 44
0.0
173
     0
291
     1
 45
0.0
1001
ACAD
1000
AcDbSavedByObjectVersion
1070
     0
  0
VISUALSTYLE
  5
F3
102
{ACAD_XDICTIONARY
360
9AC
102
}
102
{ACAD_REACTORS
330
EF
102
}
330
EF
100
AcDbVisualStyle
  2
GouraudWithEdges
 70
     3
 71
     2
 72
     2
 73
     1
 90
        2
 40
-0.6
 41
30.0
 62
     5
 63
     7
 74
     1
 91
        0
 64
     7
 65
   257
 75
     1
175
     1
 42
1.0
 92
        0
 66
   257
 43
1.0
 76
     1
 77
     6
 78
     2
 67
     7
 79
     5
170
     0
171
     0
290
     0
174
     0
 93
       13
 44
0.0
173
     0
291
     1
 45
0.0
1001
ACAD
1000
AcDbSavedByObjectVersion
1070
     0
  0
VISUALSTYLE
  5
F7
102
{ACAD_XDICTIONARY
360
9B4
102
}
102
{ACAD_REACTORS
330
EF
102
}
330
EF
100
AcDbVisualStyle
  2
Hidden
 70
     6
 71
     1
 72
     2
 73
     2
 90
        0
 40
-0.6
 41
-30.0
 62
     5
 63
     7
 74
     2
 91
        2
 64
     7
 65
   257
 75
     2
175
     1
 42
40.0
 92
        0
 66
   257
 43
1.0
 76
     1
 77
     6
 78
     2
 67
     7
 79
     3
170
     0
171
     0
290
     0
174
     0
 93
        1
 44
0.0
173
     0
291
     0
 45
0.0
1001
ACAD
1000
AcDbSavedByObjectVersion
1070
     0
  0
VISUALSTYLE
  5
1E4
102
{ACAD_XDICTIONARY
360
9C8
102
}
102
{ACAD_REACTORS
330
EF
102
}
330
EF
100
AcDbVisualStyle
  2
JitterOff
 70
    20
 71
     2
 72
     2
 73
     0
 90
        0
 40
-0.6
 41
-30.0
 62
     5
 63
     7
 74
     1
 91
        4
 64
     7
 65
   257
 75
     1
175
     1
 42
1.0
 92
       10
 66
     7
 43
1.0
 76
     1
 77
     6
 78
     2
 67
     7
 79
     5
170
     0
171
     0
290
     0
174
     0
 93
        1
 44
0.0
173
     0
291
     1
 45
0.0
1001
ACAD
1000
AcDbSavedByObjectVersion
1070
     0
  0
VISUALSTYLE
  5
FD
102
{ACAD_XDICTIONARY
360
9C0
102
}
102
{ACAD_REACTORS
330
EF
102
}
330
EF
100
AcDbVisualStyle
  2
Linepattern
 70
    14
 71
     2
 72
     2
 73
     1
 90
        0
 40
-0.6
 41
-30.0
 62
     5
 63
     7
 74
     1
 91
        4
 64
     7
 65
   257
 75
     7
175
     7
 42
1.0
 92
        8
 66
     7
 43
1.0
 76
     1
 77
     6
 78
     2
 67
     7
 79
     5
170
     0
171
     0
290
     0
174
     0
 93
        1
 44
0.0
173
     0
291
     1
 45
0.0
1001
ACAD
1000
AcDbSavedByObjectVersion
1070
     0
  0
VISUALSTYLE
  5
1E5
102
{ACAD_XDICTIONARY
360
9CA
102
}
102
{ACAD_REACTORS
330
EF
102
}
330
EF
100
AcDbVisualStyle
  2
OverhangOff
 70
    21
 71
     2
 72
     2
 73
     0
 90
        0
 40
-0.6
 41
-30.0
 62
     5
 63
     7
 74
     1
 91
        4
 64
     7
 65
   257
 75
     1
175
     1
 42
1.0
 92
        9
 66
     7
 43
1.0
 76
     1
 77
     6
 78
     2
 67
     7
 79
     5
170
     0
171
     0
290
     0
174
     0
 93
        1
 44
0.0
173
     0
291
     1
 45
0.0
1001
ACAD
1000
AcDbSavedByObjectVersion
1070
     0
  0
VISUALSTYLE
  5
F9
102
{ACAD_XDICTIONARY
360
9B8
102
}
102
{ACAD_REACTORS
330
EF
102
}
330
EF
100
AcDbVisualStyle
  2
Realistic
 70
     8
 71
     2
 72
     2
 73
     0
 90
        2
 40
-0.6
 41
30.0
 62
     5
 63
     7
 74
     0
 91
        0
 64
     7
 65
   257
 75
     1
175
     1
 42
1.0
 92
        8
 66
   257
 43
1.0
 76
     1
 77
     6
 78
     2
 67
     7
 79
     3
170
     0
171
     0
290
     0
174
     0
 93
       13
 44
0.0
173
     0
291
     0
 45
0.0
1001
ACAD
1000
AcDbSavedByObjectVersion
1070
     0
  0
VISUALSTYLE
  5
1F3
102
{ACAD_XDICTIONARY
360
9D6
102
}
102
{ACAD_REACTORS
330
EF
102
}
330
EF
100
AcDbVisualStyle
  2
Shaded
 70
    27
 71
     2
 72
     2
 73
     1
 90
        2
 40
-0.6
 41
30.0
 62
     5
 63
     7
 74
     0
 91
        4
 64
     7
 65
   257
 75
     1
175
     1
 42
1.0
 92
        8
 66
   257
 43
1.0
 76
     1
 77
     6
 78
     2
 67
     8
 79
     3
170
     0
171
     0
290
     0
174
     0
 93
        5
 44
0.0
173
     0
291
     0
 45
0.0
1001
ACAD
1000
AcDbSavedByObjectVersion
1070
     0
  0
VISUALSTYLE
  5
1F2
102
{ACAD_XDICTIONARY
360
9D4
102
}
102
{ACAD_REACTORS
330
EF
102
}
330
EF
100
AcDbVisualStyle
  2
Shaded with edges
 70
    26
 71
     2
 72
     2
 73
     1
 90
        2
 40
-0.6
 41
30.0
 62
     5
 63
     7
 74
     1
 91
        2
 64
     7
 65
   257
 75
     2
175
     1
 42
1.0
 92
        8
 66
   257
 43
1.0
 76
     1
 77
     6
 78
     2
 67
     7
 79
     3
170
     0
171
     0
290
     0
174
     0
 93
        5
 44
0.0
173
     0
291
     0
 45
0.0
1001
ACAD
1000
AcDbSavedByObjectVersion
1070
     0
  0
VISUALSTYLE
  5
1EF
102
{ACAD_XDICTIONARY
360
9CE
102
}
102
{ACAD_REACTORS
330
EF
102
}
330
EF
100
AcDbVisualStyle
  2
Shades of Gray
 70
    23
 71
     2
 72
     2
 73
     3
 90
        0
 40
-0.6
 41
-30.0
 62
     5
 63
     7
 74
     2
 91
        2
 64
     7
 65
     7
 75
     1
175
     1
 42
40.0
 92
        8
 66
     7
 43
1.0
 76
     1
 77
     6
 78
     2
 67
     7
 79
     3
170
     0
171
     0
290
     0
174
     0
 93
        1
 44
0.0
173
     0
291
     0
 45
0.0
1001
ACAD
1000
AcDbSavedByObjectVersion
1070
     0
  0
VISUALSTYLE
  5
1F0
102
{ACAD_XDICTIONARY
360
9D0
102
}
102
{ACAD_REACTORS
330
EF
102
}
330
EF
100
AcDbVisualStyle
  2
Sketchy
 70
    24
 71
     1
 72
     2
 73
     2
 90
        0
 40
-0.6
 41
-30.0
 62
     5
 63
     7
 74
     2
 91
        2
 64
     7
 65
     7
 75
     1
175
     1
 42
40.0
 92
       11
 66
     7
 43
1.0
 76
     1
 77
     6
 78
     2
 67
     7
 79
     6
170
     0
171
     0
290
     0
174
     0
 93
        1
 44
0.0
173
     0
291
     0
 45
0.0
1001
ACAD
1000
AcDbSavedByObjectVersion
1070
     0
  0
VISUALSTYLE
  5
FC
102
{ACAD_XDICTIONARY
360
9BE
102
}
102
{ACAD_REACTORS
330
EF
102
}
330
EF
100
AcDbVisualStyle
  2
Thicken
 70
    13
 71
     2
 72
     2
 73
     1
 90
        0
 40
-0.6
 41
-30.0
 62
     5
 63
     7
 74
     1
 91
        4
 64
     7
 65
   257
 75
     1
175
     1
 42
1.0
 92
       12
 66
     7
 43
1.0
 76
     1
 77
     6
 78
     2
 67
     7
 79
     5
170
     0
171
     0
290
     0
174
     0
 93
        1
 44
0.0
173
     0
291
     1
 45
0.0
1001
ACAD
1000
AcDbSavedByObjectVersion
1070
     0
  0
VISUALSTYLE
  5
F6
102
{ACAD_XDICTIONARY
360
9B2
102
}
102
{ACAD_REACTORS
330
EF
102
}
330
EF
100
AcDbVisualStyle
  2
Wireframe
 70
     5
 71
     0
 72
     2
 73
     0
 90
        0
 40
-0.6
 41
-30.0
 62
     5
 63
     7
 74
     1
 91
        4
 64
     7
 65
   257
 75
     1
175
     1
 42
1.0
 92
        0
 66
   257
 43
1.0
 76
     1
 77
     6
 78
     2
 67
     7
 79
     3
170
     0
171
     0
290
     0
174
     0
 93
        1
 44
0.0
173
     0
291
     0
 45
0.0
1001
ACAD
1000
AcDbSavedByObjectVersion
1070
     0
  0
VISUALSTYLE
  5
1F1
102
{ACAD_XDICTIONARY
360
9D2
102
}
102
{ACAD_REACTORS
330
EF
102
}
330
EF
100
AcDbVisualStyle
  2
X-Ray
 70
    25
 71
     2
 72
     2
 73
     1
 90
        1
 40
0.5
 41
-30.0
 62
     5
 63
     7
 74
     1
 91
        0
 64
     7
 65
   257
 75
     1
175
     1
 42
1.0
 92
        8
 66
     7
 43
1.0
 76
     1
 77
     6
 78
     2
 67
     7
 79
     3
170
     0
171
     0
290
     0
174
     0
 93
       13
 44
0.0
173
     0
291
     0
 45
0.0
1001
ACAD
1000
AcDbSavedByObjectVersion
1070
     0
  0
DICTIONARYVAR
  5
146
102
{ACAD_REACTORS
330
5E
102
}
330
5E
100
DictionaryVariables
280
     0
  1
1:1
  0
DICTIONARYVAR
  5
259
102
{ACAD_REACTORS
330
5E
102
}
330
5E
100
DictionaryVariables
280
     0
  1
3.500000
  0
DICTIONARYVAR
  5
25A
102
{ACAD_REACTORS
330
5E
102
}
330
5E
100
DictionaryVariables
280
     0
  1
acadiso.lin
  0
DICTIONARYVAR
  5
145
102
{ACAD_REACTORS
330
5E
102
}
330
5E
100
DictionaryVariables
280
     0
  1
STANDARD
  0
DICTIONARYVAR
  5
84
102
{ACAD_REACTORS
330
5E
102
}
330
5E
100
DictionaryVariables
280
     0
  1
STANDARD
  0
DICTIONARYVAR
  5
227
102
{ACAD_REACTORS
330
5E
102
}
330
5E
100
DictionaryVariables
280
     0
  1
Metric50
  0
DICTIONARYVAR
  5
228
102
{ACAD_REACTORS
330
5E
102
}
330
5E
100
DictionaryVariables
280
     0
  1
Metric50
  0
DICTIONARYVAR
  5
5F
102
{ACAD_REACTORS
330
5E
102
}
330
5E
100
DictionaryVariables
280
     0
  1
2
  0
DICTIONARYVAR
  5
63
102
{ACAD_REACTORS
330
5E
102
}
330
5E
100
DictionaryVariables
280
     0
  1
1
  0
DICTIONARYVAR
  5
947
102
{ACAD_REACTORS
330
5E
102
}
330
5E
100
DictionaryVariables
280
     0
  1
0
  0
DICTIONARYVAR
  5
1AE
102
{ACAD_REACTORS
330
5E
102
}
330
5E
100
DictionaryVariables
280
     0
  1
0
  0
DICTIONARYVAR
  5
1AF
102
{ACAD_REACTORS
330
5E
102
}
330
5E
100
DictionaryVariables
280
     0
  1
0
  0
DICTIONARYVAR
  5
945
102
{ACAD_REACTORS
330
5E
102
}
330
5E
100
DictionaryVariables
280
     0
  1
2
  0
DICTIONARYVAR
  5
944
102
{ACAD_REACTORS
330
5E
102
}
330
5E
100
DictionaryVariables
280
     0
  1
1
  0
DICTIONARYVAR
  5
997
102
{ACAD_REACTORS
330
5E
102
}
330
5E
100
DictionaryVariables
280
     0
  1
80.000000
  0
DICTIONARYVAR
  5
996
102
{ACAD_REACTORS
330
5E
102
}
330
5E
100
DictionaryVariables
280
     0
  1
5.000000
  0
DICTIONARYVAR
  5
946
102
{ACAD_REACTORS
330
5E
102
}
330
5E
100
DictionaryVariables
280
     0
  1
127
  0
DICTIONARYVAR
  5
998
102
{ACAD_REACTORS
330
5E
102
}
330
5E
100
DictionaryVariables
280
     0
  1
2
  0
DICTIONARY
  5
9DA
330
21C
100
AcDbDictionary
280
     1
281
     1
  3
ACAD_XREC_ROUNDTRIP
360
9DB
  0
DICTIONARY
  5
99F
330
D3
100
AcDbDictionary
280
     1
281
     1
  3
ACAD_XREC_ROUNDTRIP
360
9A0
  0
DICTIONARY
  5
9A1
330
D7
100
AcDbDictionary
280
     1
281
     1
  3
ACAD_XREC_ROUNDTRIP
360
9A2
  0
DICTIONARY
  5
99C
330
22
100
AcDbDictionary
280
     1
281
     1
  3
ACAD_XREC_ROUNDTRIP
360
99D
  0
DICTIONARY
  5
1F9
330
ED
100
AcDbDictionary
280
     1
281
     1
  3
ACAD_XREC_ROUNDTRIP
360
9A4
  3
FBXASSET
360
1FA
  0
DICTIONARY
  5
1F7
330
EC
100
AcDbDictionary
280
     1
281
     1
  3
ACAD_XREC_ROUNDTRIP
360
9A3
  3
FBXASSET
360
1F8
  0
DICTIONARY
  5
173
330
EE
100
AcDbDictionary
280
     1
281
     1
  3
ACAD_XREC_ROUNDTRIP
360
9A5
  3
BUMPTILE
360
175
  3
DIFFUSETILE
360
174
  3
FBXASSET
360
1FB
  3
OPACITYTILE
360
176
  3
REFLECTIONTILE
360
177
  0
DICTIONARY
  5
9C6
330
12E
100
AcDbDictionary
280
     1
281
     1
  3
ACAD_XREC_ROUNDTRIP
360
9C7
  0
DICTIONARY
  5
9D8
330
21A
100
AcDbDictionary
280
     1
281
     1
  3
ACAD_XREC_ROUNDTRIP
360
9D9
  0
DICTIONARY
  5
162
330
7F
100
AcDbDictionary
280
     1
281
     1
  3
ACAD_ROUNDTRIP_2008_TABLESTYLE_CELLSTYLEMAP
360
999
  3
ACAD_XREC_ROUNDTRIP
360
99E
  0
DICTIONARY
  5
9B0
330
F5
100
AcDbDictionary
280
     1
281
     1
  3
ACAD_XREC_ROUNDTRIP
360
9B1
  0
DICTIONARY
  5
9AE
330
F4
100
AcDbDictionary
280
     1
281
     1
  3
ACAD_XREC_ROUNDTRIP
360
9AF
  0
DICTIONARY
  5
9BC
330
FB
100
AcDbDictionary
280
     1
281
     1
  3
ACAD_XREC_ROUNDTRIP
360
9BD
  0
DICTIONARY
  5
9C4
330
FF
100
AcDbDictionary
280
     1
281
     1
  3
ACAD_XREC_ROUNDTRIP
360
9C5
  0
DICTIONARY
  5
9B6
330
F8
100
AcDbDictionary
280
     1
281
     1
  3
ACAD_XREC_ROUNDTRIP
360
9B7
  0
DICTIONARY
  5
9BA
330
FA
100
AcDbDictionary
280
     1
281
     1
  3
ACAD_XREC_ROUNDTRIP
360
9BB
  0
DICTIONARY
  5
9CC
330
1E6
100
AcDbDictionary
280
     1
281
     1
  3
ACAD_XREC_ROUNDTRIP
360
9CD
  0
DICTIONARY
  5
9C2
330
FE
100
AcDbDictionary
280
     1
281
     1
  3
ACAD_XREC_ROUNDTRIP
360
9C3
  0
DICTIONARY
  5
9A6
330
F0
100
AcDbDictionary
280
     1
281
     1
  3
ACAD_XREC_ROUNDTRIP
360
9A7
  0
DICTIONARY
  5
9A8
330
F1
100
AcDbDictionary
280
     1
281
     1
  3
ACAD_XREC_ROUNDTRIP
360
9A9
  0
DICTIONARY
  5
9AA
330
F2
100
AcDbDictionary
280
     1
281
     1
  3
ACAD_XREC_ROUNDTRIP
360
9AB
  0
DICTIONARY
  5
9AC
330
F3
100
AcDbDictionary
280
     1
281
     1
  3
ACAD_XREC_ROUNDTRIP
360
9AD
  0
DICTIONARY
  5
9B4
330
F7
100
AcDbDictionary
280
     1
281
     1
  3
ACAD_XREC_ROUNDTRIP
360
9B5
  0
DICTIONARY
  5
9C8
330
1E4
100
AcDbDictionary
280
     1
281
     1
  3
ACAD_XREC_ROUNDTRIP
360
9C9
  0
DICTIONARY
  5
9C0
330
FD
100
AcDbDictionary
280
     1
281
     1
  3
ACAD_XREC_ROUNDTRIP
360
9C1
  0
DICTIONARY
  5
9CA
330
1E5
100
AcDbDictionary
280
     1
281
     1
  3
ACAD_XREC_ROUNDTRIP
360
9CB
  0
DICTIONARY
  5
9B8
330
F9
100
AcDbDictionary
280
     1
281
     1
  3
ACAD_XREC_ROUNDTRIP
360
9B9
  0
DICTIONARY
  5
9D6
330
1F3
100
AcDbDictionary
280
     1
281
     1
  3
ACAD_XREC_ROUNDTRIP
360
9D7
  0
DICTIONARY
  5
9D4
330
1F2
100
AcDbDictionary
280
     1
281
     1
  3
ACAD_XREC_ROUNDTRIP
360
9D5
  0
DICTIONARY
  5
9CE
330
1EF
100
AcDbDictionary
280
     1
281
     1
  3
ACAD_XREC_ROUNDTRIP
360
9CF
  0
DICTIONARY
  5
9D0
330
1F0
100
AcDbDictionary
280
     1
281
     1
  3
ACAD_XREC_ROUNDTRIP
360
9D1
  0
DICTIONARY
  5
9BE
330
FC
100
AcDbDictionary
280
     1
281
     1
  3
ACAD_XREC_ROUNDTRIP
360
9BF
  0
DICTIONARY
  5
9B2
330
F6
100
AcDbDictionary
280
     1
281
     1
  3
ACAD_XREC_ROUNDTRIP
360
9B3
  0
DICTIONARY
  5
9D2
330
1F1
100
AcDbDictionary
280
     1
281
     1
  3
ACAD_XREC_ROUNDTRIP
360
9D3
  0
XRECORD
  5
9DB
102
{ACAD_REACTORS
330
9DA
102
}
330
9DA
100
AcDbXrecord
280
     1
102
DISPLAYNAME
  1
Metric50
102
FLAGS
 90
        0
  0
XRECORD
  5
9A0
102
{ACAD_REACTORS
330
99F
102
}
330
99F
100
AcDbXrecord
280
     1
102
SHADEPLOT
 70
     0
102
SHADEPLOTRESLEVEL
 70
     2
102
SHADEPLOTCUSTOMDPI
 70
   300
  0
XRECORD
  5
9A2
102
{ACAD_REACTORS
330
9A1
102
}
330
9A1
100
AcDbXrecord
280
     1
102
SHADEPLOT
 70
     0
102
SHADEPLOTRESLEVEL
 70
     2
102
SHADEPLOTCUSTOMDPI
 70
   300
  0
XRECORD
  5
99D
102
{ACAD_REACTORS
330
99C
102
}
330
99C
100
AcDbXrecord
280
     1
102
SHADEPLOT
 70
     0
102
SHADEPLOTRESLEVEL
 70
     2
102
SHADEPLOTCUSTOMDPI
 70
   300
  0
XRECORD
  5
9A4
102
{ACAD_REACTORS
330
1F9
102
}
330
1F9
100
AcDbXrecord
280
     1
102
MATERIAL
148
0.0
149
0.0
149
0.0
 93
        0
 94
       63
282
     0
 72
     1
 77
     1
171
     1
175
     1
179
     1
273
     0
  0
XRECORD
  5
1FA
102
{ACAD_REACTORS
330
1F9
102
}
330
1F9
100
AcDbXrecord
280
     1
 70
     1
 90
429727718
  1
D62C5603-E3A1-4AEA-B7FB-FE5D8D0755AF
310
504B03040A0000080000CC70623B3DEE336E79000000790000001B0000006175746F6465736B2D64657369676E2D7061636B6167652E786D6C3C3F786D6C2076657273696F6E3D22312E302220656E636F64696E673D227574662D3822203F3E3C666F726D6174733E3C666F726D61743E687474703A2F2F736368656D612E
310
6175746F6465736B2E636F6D2F64657369676E2D7061636B6167652F323030393C2F666F726D61743E3C2F666F726D6174733E504B0304140006080800CC70623BD486FD9CA0000000F4000000130000005B436F6E74656E745F54797065735D2E786D6C7D8EC10E82300C865F65E91D8A1E8C310C0EEA1BF002731658846E
310
D98AC1B77784ABF1D8FE5FBFBF75BBCE937A534CCEB38643598122B6FEE978D0B0485F9C41B54DDD7D022595594E1A469170414C76A4D9A4D207E29CF43ECE46F218070CC6BECC4078ACAA135ACF422C856C0E68EA1BF5669944DDD7BCDE7B1F8E415D77AECB980613C2E4AC91FC167A2B244592486606FC29C8FD7F045B9A
310
EF7053A7E60B504B0304140006080800CC70623B853B8169EB0000007C01000008000000636F72652E786D6C8D90416EC3201045AF62CDB6C206821CC7C244919D9CA01740401C94182C03558F5F9C3852BBEB6A467FFE9B197D7EFC9E1EC5975982F5AE035262288C535E5B377690E21535501C055FBC8FBF6C503839990E
310
5619041F179FE64D52DE45E362569DD7661365082642A11EB9E920A89B99642953CC8E702F67A9EE7234257977194EC9EAE275C4EABCCF5EAD5940D4AC6F0E35A568B8F43562CD7046CD199FD07E60174276A7BE677B5EADB0E0D14EEFFB6A31321A0D82627C4084204C3F096B71DD52F6819B16635EADF63F509AF53FA164
310
5DDCD1EDDD17164090FCC8732078B56691CB33A85CD7DCC40F504B0304140006080800CC70623B55019EA25F0000007C00000007000000636E782E786D6C4DCB3B0E80201045D1AD90E915ED2CF8AC45050C11660C8261F98AB1B07AC9C97D42D718D865D3E909258CFD00CCE24AC6E326A164D74DC0B4128928FF32603847
310
2BA13128B1252AC747C6BAB984FC68F0B87FE8960A5C09FE86CFB69FBA01504B0304140006080800CC70623BDBABAAF470010000D40300000C0000006662782F636F72652E786D6CC553D16E823014FD95A6AF4B694182CC941A83FA05FB810A9511A125A5257EFE2E82712ECEB8A7F100CD39F7F69E734AF9FADC366850B6
310
AF8DCE7018308C942E4C59EB2AC3DE1D498AD15A706B8CFB56869196ADCAF00863C12B6B7C374385D14E6907A836A59A41D9F7CA615434B0C8705F7CAA5606D23BA8E84F41278B93AC54100640439DE0BDB320004D43C63716C7C399D30917DCFBBA9CD9BA8469F5B156168B24CED3F7248AC8769F27244EB73B92EED8862C
310
B7F13E0C179B3C8F979C8ECD82BBBABDAA2BAC924E9558448CBD9330242CFA08E3154B5651FCC6D215639C8EE5774DBE2B5F6CF2B5768B68963BB5F5588420E442FC700B1139D4CB01F450C1E918227C2E09DF070D8140C84E1E9AAB8F1340832A9CB13130A5F1376A908D57309505ECF2A0DF179C4E9D30F5B239B87E3823
310
7A79C6F31DE1A8A5AEC08474B03C7837EAE4938639B44E5932B833D2C6B6B279CDC613877FA26EE21F4A2A4C63EC7F29A2F301D1F9F7A0E37D145F504B0304140006080800CC70623B9C113CC27E0000009D0000000B0000006662782F636E782E786D6C4DCCDF0A83201C86E15B91DFB94BFB330DD428C8FB886521330DA7
310
6397BF1A1DECE883878F57749FCDA1B7892F1BBC047A23808C7F84D9FA55424E0BE6803A256208E9EF06C84F9B91703228B1C690F78B66B34CD9A5439DF5CF0BFBF65E35BCA1B8D6A5C6F540381E886698B5741C695F9503EBA150A2F8958E3DC3EA0B504B0304140006080800CC70623B7DF2F77C2A010000120200003100
310
00006662782F41393633353835312D344632462D344230382D423046372D3739314545314133324237412F636F72652E786D6C8D51DB8EC22014FC15C2939B0D2DB4B45643319AE817EC0F6041255A68B86CFCFC856D4D76DF7CE190393373060EDB3DC707F856CE6B6B7A480A0C81328395DA5C7B18C3057510EC3873D686
310
3F34088C18550F330C39BB3A1BA7051AAC09CA84841A2BD5020AEF55806078A44B0FFD7053A328440C89E1EFC52486BBB8AA8214A99D789CF9E05200300FC927E4FB4D5B375D43103D5527440FB843077C5AA3F5861C8F645F5787F59E95B390B318B55CE45AA638FAA2957BD7248B390B7A7CC51F9C124149C82B8C378810
310
84AB2F42B7B8DD56F413775B8C5999E9FF4471926F8AA236A1AE96B8B3CC434E5839373893369E1FAF30EA395917409EB7F26AF8801C171837A4A6AC9C89E9F9C9B1A58BA30FD6A5EF5DDDCF894B9AD9B6A59C957943A9FCAE2FD5BC4DFE03504B0304140006080800CC70623BAD7543B64E01000033030000300000006662
310
782F41393633353835312D344632462D344230382D423046372D3739314545314133324237412F636E782E786D6CD593CD6EC32010845F0571AD6CE3D48AD20813A9873E410FBD12D82434182C7EAAE6EDBB2424CD25871E7B41D6EC30B3FA84F9E67BB2E40B4234DE8DB46F1925E094D7C6ED479AD3AE5951B2113C789FEE
310
6C943839C1488B4C05DF079FE72A69D8C96C13AAD6B8631503449F83828872B949AC57D26200B826A308D316B4064D6E46FCDA41C05550DC9E483A00797BFD207EFB092A45DE9514C1BBD22178396BD39D891265658C238DEA00936C654E5E433CB65A26D9F6EDB5EBC14EBF49A45CB856E66048291F6939A9A81BB5C89177
310
38143CA680F4AA299D66A042CEB3354A2684DC9D8D178FE0D9B8B41CAAD720F880EE7EF93C0C18769E099ECC04D5A102C8049A8A05632F4DDF376CF1DE0F6BB65C2F8627B65A33C6BB62177CEBBDAD973006829F89F22E814B54F4BC2BE347F8AA8F681390B50FA73F804400B5F542E796F19FF974E7F78DB802FE05E20750
310
4B0304140006080800CC70623BE75B7789680500003C100000340000006662782F41393633353835312D344632462D344230382D423046372D3739314545314133324237412F6F626A656374732E786D6CAD575B8F9B3818FD2B887D06C22499CB8AA1CA655245D5B455A356FB305264C061D8018C6C3393D95FBFC7600890
310
A4CD5EF210B0B1BFEBF98E3F7B1FF6596ABC522E1296DF9BAE3D320D9A872C4AF2F8DE2CE5CEBA358D0FBEC719939D65A691938CDE9B6ADAF4BD98B3B2D05311DD91329583D9D5FC0F438434A7A611A644887B5384CF34233629258BA878B12322891DEFF6B66BD70BFB62634E8AE781D082709A4B588AF91C528CDA28B73F
310
1C998EEF39EABBEFA97FBD6A7C7E9553F9D3D79FE442923C3C523610337627CB87ABE99D359D4CC6D6E4FACAB5E6ABF9D2726FC6A3C5F56271377BB88362213924694B38DD99FE47C48627A1E7D49F5A8BB5E1A74C0A599ED3B0F21F1E56366B89112D681E218F0915D0D6F17AD41FBA2A369DCF6335D62ABBD39779D5DDD1
310
11D4D8DE3CBB96B2E04FB8202E41051754A1AA8E8F76B4C6DFE810B580B1547F4B84911149794252234D024EF8BBE963A95AE27B3D310A9D5C215C7960FAEE415ED75694C6AFB17BCACA5D99A60A9AA65F217B0BFC53292ACB92BF283FAD0D3621576592CB5BED907C2FA8E9DF794E35E97BEA31BED21FEB401ABB94C44839
310
DCACBF0E1C5DA8DA5B2F4DFFD32AD86F543D9E565E7056502E157C00AD2671CD534549AB752FCA9CDA00677A313F04E51B22FF19E57B300579E3C97EB29F682D92935CEC18CF901B7B54FD8C51F362B56FC72FE0B3C1EAE335EDCCBF5AEC39ADB17DC238973F804BA5E6F6BFE7AF1FB32E523BE9F3BD571418E3631DCA4D48
310
5250CF639223210A9446CA30052EDF057BD35F8329C1ECD84552BF0DC8D18BE7BCE23BFE6BD960AB4A7DE79923A103BEBD80F911CBAA2C60DB19B01CF164A5583B772EE6D3FFA56666CBCDA74DC97724A48F9A58967497E489C4D979006FD7A05E227A1EBDD0F737C623387A9C844D3709995625106D157315F8B8392CD4E0
310
A0B9A720C4BE9829CEF37EA1E13111214D53925356365ADA634861B52519DD27A00AEB808EAF0628E6F435519D446F45CF2C9CF5214F0A15B2F6D06B79DA3EE3CBF7F56780D2F4E7EF73A0F5E5B02A38D07DC852C6B7C1FBB6664213E0C39E3EBA7FF4E1AD23EA2829407C85E586727488B751B2DB9502BC7B228A3FD68B6E
310
A65A22397E690AA8D158D7E404EC8CDA235CC3B7D1898680131CEC2CDF2638C65196279577750F15884AEE19F94199155B92B13297978469D4F8D358DF0AEF7631E28DC8F0D9F437D5D39A83B2231A1D52D543813A824EF8D44BCFF2FA6A31BD1E8DAD87F1CCB526B3879935BF59CDADD5C37479BB1CDD4CA7B3556B516589
310
EF352754B706114D9C885EC9131DE6EFEB43D99AFE2391C2F958179413D7CFEF6B1B6DB1E7600F00DE6E5C67454A339A4BA2E0FBA85ED26F045D454F463DBFCE484C2F90F2E5E3666003662ED8F755951A7D1BECD5B30B550B2785C8E7320B7292A4838DDA71BBC863ED7613CAF659337A3354231D4FF4A182A54904C2898C
310
98B28C4AD0CE056CCF332A80986E571EE9DBC305BB5FEB7E509220A58D25CF042D712A806AC0AD0C657FDEF80D2D9CEAA2EE4D1C76F60BFE74219A06527D6F82DF6412526107381E55E353090704D085B52408A8913C4ED159D79BDA71BB4BC506F4831350EB6F975CD22D69BF7AC49B91A2C0A9DDA3D5CA36AD20FC478E37
310
E61844E2352865EBCB61A275A65283CAAA9DD27703B4102F5AF51EF5F573B75CBB5AD38BC845F7A49F82A0966A49C2E3EA5EA0ECD326CD965F1DB402C6FA8B51A4658C5C5E2EC9E214602E55810345408596591009A82E7E7FFACA19EEA299B14A0081A705CB3296EBC14CDF658DCD336EA6D1136881AAEB87B81AB9EE53D5
310
F5EB8BC8362082DA24122F98680A4E7930C01A0079749CEA14382A0783E5EBA5A10F8C098456A03D6A4AEB6BB881E2513747552A5DB22C7EDAF83BD5528081A365F7FF06504B0304140006080000CC70623B000000000000000000000000350000006662782F41393633353835312D344632462D344230382D423046372D37
310
39314545314133324237412F76657274696365732E62696E504B0304140006080800CC70623BF270F1330600000004000000360000006662782F41393633353835312D344632462D344230382D423046372D3739314545314133324237412F747269616E676C65732E62696E636660600000504B0304140006080000CC7062
310
3B000000000000000000000000370000006662782F41393633353835312D344632462D344230382D423046372D3739314545314133324237412F617474726962757465732E62696E504B0304140006080800CC70623B08DA0BD19000000041010000360000006662782F41393633353835312D344632462D344230382D4230
310
46372D3739314545314133324237412F6469726563746F72792E786D6C858F410AC3201045AF22B36F53E9A60B35CBEEBAE80D244E44489C6234F4F835464A48035D0DF398FF9F8AF63D0E6CC63039F212F8F9020C7D47C6792B21C5FE7403D62A1188E2E60C98D7234A5830286103A55745067B9D86B8A3CF9C7F90C11DE6
310
07FB144396D7B6A82D282E9A152AD114D5EF2CB866EEE831B8EEA07A7BB5A8D7D61A2BAAEB7FD5F70921FF497D00504B0304140006080800CC70623BEDD1DC58FD000000A00100003B0000006662782F41393633353835312D344632462D344230382D423046372D3739314545314133324237412F7265736F75726365732F
310
636F72652E786D6C8D504B6E833010BD0A9A6D65B00922041947112427E8052C33A156828DFCA97AFC9A40A576D7CDCCE87D344F8F9FBFE667F689CE6B6B3A6039850C8DB2A336530731DC4903D95970676DF82583CCC8193B5861107C72362E3BA4AC096842428D1D7107A5F7182053CF7474E0D507CE32973124857FE48B
310
540F3961CEF244279DE03EB81420DB9EAC1384436FA353E879B1B182C7A8C75DA3C7F453DF353A1075D537A7BA6464B8F535A99AE14A9A2BBD90E350DD183B5CFABE3AF262350B1EF4FC9351399401471025A527C218A1E53BAB5A5AB765F5469B96525EACF23FA6B88CFF34456DC2A1DCE36E360F82A5202F42F062ED2BAD
310
579969AFDD8A6F504B010214000A0000080000CC70623B3DEE336E79000000790000001B00000000000000000000000000000000006175746F6465736B2D64657369676E2D7061636B6167652E786D6C504B01021400140006080800CC70623BD486FD9CA0000000F40000001300000000000000000000000000B20000005B
310
436F6E74656E745F54797065735D2E786D6C504B01021400140006080800CC70623B853B8169EB0000007C010000080000000000000000000000000083010000636F72652E786D6C504B01021400140006080800CC70623B55019EA25F0000007C000000070000000000000000000000000094020000636E782E786D6C504B
310
01021400140006080800CC70623BDBABAAF470010000D40300000C00000000000000000000000000180300006662782F636F72652E786D6C504B01021400140006080800CC70623B9C113CC27E0000009D0000000B00000000000000000000000000B20400006662782F636E782E786D6C504B01021400140006080800CC70
310
623B7DF2F77C2A010000120200003100000000000000000000000000590500006662782F41393633353835312D344632462D344230382D423046372D3739314545314133324237412F636F72652E786D6C504B01021400140006080800CC70623BAD7543B64E010000330300003000000000000000000000000000D2060000
310
6662782F41393633353835312D344632462D344230382D423046372D3739314545314133324237412F636E782E786D6C504B01021400140006080800CC70623BE75B7789680500003C10000034000000000000000000000000006E0800006662782F41393633353835312D344632462D344230382D423046372D3739314545
310
314133324237412F6F626A656374732E786D6C504B01021400140006080000CC70623B0000000000000000000000003500000000000000000000000000280E00006662782F41393633353835312D344632462D344230382D423046372D3739314545314133324237412F76657274696365732E62696E504B01021400140006
310
080800CC70623BF270F133060000000400000036000000000000000000000000007B0E00006662782F41393633353835312D344632462D344230382D423046372D3739314545314133324237412F747269616E676C65732E62696E504B01021400140006080000CC70623B0000000000000000000000003700000000000000
310
000000000000D50E00006662782F41393633353835312D344632462D344230382D423046372D3739314545314133324237412F617474726962757465732E62696E504B01021400140006080800CC70623B08DA0BD1900000004101000036000000000000000000000000002A0F00006662782F41393633353835312D344632
310
462D344230382D423046372D3739314545314133324237412F6469726563746F72792E786D6C504B01021400140006080800CC70623BEDD1DC58FD000000A00100003B000000000000000000000000000E1000006662782F41393633353835312D344632462D344230382D423046372D3739314545314133324237412F7265
310
736F75726365732F636F72652E786D6C504B0506000000000E000E0080040000641100000000
  0
XRECORD
  5
9A3
102
{ACAD_REACTORS
330
1F7
102
}
330
1F7
100
AcDbXrecord
280
     1
102
MATERIAL
148
0.0
149
0.0
149
0.0
 93
        0
 94
       63
282
     0
 72
     1
 77
     1
171
     1
175
     1
179
     1
273
     0
  0
XRECORD
  5
1F8
102
{ACAD_REACTORS
330
1F7
102
}
330
1F7
100
AcDbXrecord
280
     1
 70
     1
 90
429727718
  1
30362254-06B7-45E0-A893-8CFA70E3D6BC
310
504B03040A0000080000CC70623B3DEE336E79000000790000001B0000006175746F6465736B2D64657369676E2D7061636B6167652E786D6C3C3F786D6C2076657273696F6E3D22312E302220656E636F64696E673D227574662D3822203F3E3C666F726D6174733E3C666F726D61743E687474703A2F2F736368656D612E
310
6175746F6465736B2E636F6D2F64657369676E2D7061636B6167652F323030393C2F666F726D61743E3C2F666F726D6174733E504B0304140006080800CC70623BD486FD9CA0000000F4000000130000005B436F6E74656E745F54797065735D2E786D6C7D8EC10E82300C865F65E91D8A1E8C310C0EEA1BF002731658846E
310
D98AC1B77784ABF1D8FE5FBFBF75BBCE937A534CCEB38643598122B6FEE978D0B0485F9C41B54DDD7D022595594E1A469170414C76A4D9A4D207E29CF43ECE46F218070CC6BECC4078ACAA135ACF422C856C0E68EA1BF5669944DDD7BCDE7B1F8E415D77AECB980613C2E4AC91FC167A2B244592486606FC29C8FD7F045B9A
310
EF7053A7E60B504B0304140006080800CC70623B1EC5D7A3EB0000007C01000008000000636F72652E786D6C8D90416EC3201045AF82665B6103C6756C6122AB4D4ED00B204C5C94182C03558F5F9C3852BBEB6A467FFE9B197D71FC9E6FE8CBACC17AD7032D0820E3B41FAD9B7A48F1820F808E52ACDEC75F36404ECDA687
310
4D0629A6D5A76597B477D1B89855E747B38B2A041301E95B6E7A08FAD3CCAA50296647B8168BD2573599823EBB0CA76447F43862C7BCCF5EAC59410E4DDD9C7973C2755553CCCFA4C603E3040F1565ED3B1FDE4E432BCA0D9622DAF9795FAF464533826484B498524CD807E51D79ED187F21878E10516EF63F505AC67F42C9
310
BA58B1FDDD071640D2FCC87D2045B96591CB3DA85CB7DCE40F504B0304140006080800CC70623B55019EA25F0000007C00000007000000636E782E786D6C4DCB3B0E80201045D1AD90E915ED2CF8AC45050C11660C8261F98AB1B07AC9C97D42D718D865D3E909258CFD00CCE24AC6E326A164D74DC0B4128928FF32603847
310
2BA13128B1252AC747C6BAB984FC68F0B87FE8960A5C09FE86CFB69FBA01504B0304140006080800CC70623B8C9102E971010000D40300000C0000006662782F636F72652E786D6CC5535B6E833010BC8AE5DF0A6C08340F1947A84D4ED00B38C6A128602363A31CBFCB234A53A551FA553EC09AD9F5CE8C31DB9E9B1AF5CA
310
7695D1198E428A91D2D214952E33ECDD315861B4E5CC1AE3BE9561A445A3323CC098B3D21ADFCE9034DA29ED00D5A6503328BA4E398C640D8B0C77F253352214DE4145770A5B214FA2546114020D759C75CE8200340D19DE981F0F6746269C33EFAB6266AB02A655C74A59CCF365BADC27CB5D902ED22848F6340DF238A141
310
BE88E2F57B92BFEDF23523433367AE6A2EEAA455C2A902F398D2751045018D3FA264435F3771F242571B4A1919CA6F9A7C5B3CD9E42BED16F12C776AEB308F40C848FC700B1139D4891EF410CEC810227CC6846F8386402064270EF5C5C709A05E49676C024C61FC95EA45ED154CA5211D1FF4FB8291A913A68E9B83EBBB33
310
E2A7673CDE118E5AE8124C0807CB8377834E366998436B950D7A7746DAD846D4CFD978E0F04FD455FC5D49D2D4C6FE9722321F10997F0F32DC47FE05504B0304140006080800CC70623BFFEA85907E0000009D0000000B0000006662782F636E782E786D6C4DCCD10A83201886E15B91FFDC95D95A811AB6F23E625948A6C3
310
E9D8E5AF46073BFAE0E1E365ED67B3E8ADC3CB78C7815C7240DA3DFC64DCC221C519D7805AC182F7F1EF06C88D9BE6703008B6049F9E274D7A1E938DBB5AE3D6131B2589BA0D3D965551E0B2EA732C9B9A624AAEB41E3A557677029960D9AFB4EF11165F504B0304140006080800CC70623B4FEEA4082C0100001202000031
310
0000006662782F39464131463745442D413632322D343644302D413938332D3331353338454246344243312F636F72652E786D6C8D515B6EC32010BC0AE2AB55850DD871ED0813254D72825EC00192A2C460F1A872FC42ED48ED5F7E00CDCECCCEB26C731F6FE05B39AFADE921293004CA082BB5B9F43086336A21D870E6AC
310
0D7F68109861543DCC30E4ECE26C9C164858139409093556AA051CBC570102714B8F1E7AF1A5C6A11862480C7F2DA6415C878B2A4891CA89C7990F2E050073937C42DE1DB7E4F87ED8A36D4329AA9B3D46DBAEAD504556557BD81DEBDD0761E52CE42C462D17B996298E3E6BE59E35C962CE821E1FF18553435012728A7187
310
0841987E927A8D9B35ADDF70BBC6989599FE4F1427F9A4286A132ABAC49D651EF234CD5CE04CDA78BA3DC2A8FB645D00B9DF8B57E215725C60BCA2A463E54C4CE327C7A65E1C7DB02E7DEFCBF594B864C5CA6CDBD49C957943E9FA5D5FBAF336F90F504B0304140006080800CC70623BAD7543B64E01000033030000300000
310
006662782F39464131463745442D413632322D343644302D413938332D3331353338454246344243312F636E782E786D6CD593CD6EC32010845F0571AD6CE3D48AD20813A9873E410FBD12D82434182C7EAAE6EDBB2424CD25871E7B41D6EC30B3FA84F9E67BB2E40B4234DE8DB46F1925E094D7C6ED479AD3AE5951B2113C
310
789FEE6C943839C1488B4C05DF079FE72A69D8C96C13AAD6B8631503449F83828872B949AC57D26200B826A308D316B4064D6E46FCDA41C05550DC9E483A00797BFD207EFB092A45DE9514C1BBD22178396BD39D891265658C238DEA00936C654E5E433CB65A26D9F6EDB5EBC14EBF49A45CB856E66048291F6939A9A81BB5
310
C8917738143CA680F4AA299D66A042CEB3354A2684DC9D8D178FE0D9B8B41CAAD720F880EE7EF93C0C18769E099ECC04D5A102C8049A8A05632F4DDF376CF1DE0F6BB65C2F8627B65A33C6BB62177CEBBDAD973006829F89F22E814B54F4BC2BE347F8AA8F681390B50FA73F804400B5F542E796F19FF974E7F78DB802FE05
310
E207504B0304140006080800CC70623B16AB87BA640500003C100000340000006662782F39464131463745442D413632322D343644302D413938332D3331353338454246344243312F6F626A656374732E786D6CAD575B6FA33818FD2B887DE6924B3BED8A326A92B68A663B534DD4D13E548A0C38942D60649B369D5FBFC7
310
600890A493BDE42160637FD7F31D7FF63E6FB3D478A55C242CBF3247B66B1A340F5994E4F19559CA8D75611A9F7D8F33263BCB4C232719BD32D5B4E97B316765A1A722BA21652A07B3B7B33F0D11D29C9A46981221AE4C113ED38CD8A4942CA2E2C58E882476BCD9DA23BB5ED8171B73523C0F841684D35CC252CCE79062D4
310
468DFA43D7747CCF51DF7D4FFDEB5593E3AB9CCA9FBEFE241792E4E19EB28198C968BAB8199F5D5A67D3E9C49A9E8F47D6EC76B6B0469F26EEFC7C3EBFBCBEB98462213924694B38DD98FE1D62C393D073EA4FADC5DAF04326852CCF6958F90F0F2B9BB5C48816348F90C7840A68EB78EDF68723159BCEE7891A6B95DDE9D3
310
BCEAEEE8086A6C6F9E5D4B59F0175C10A7A0820BAA5055C7473B5AE3CFDD452D602CD5DF12616444529E90D448938013FE6EFA58AA96F85E4F8C42275708571E98FE6827AF6B2B4AE3D7D83D64E5A64C53054DD3AF90BD06FEA9149565C94FCA0F6B834DC85599E4F2423B24DF0B6AFA979E534DFA9E7A4CC6FA631D486393
310
921829879BF5D781A373557BCB85E97FB90DB62B558F8795179C15944B051F40AB495CF35451D26A4727654E6D8033BD98EF82F21D91FF8AF2DD9982BCF1643BDD4EB516C9492E368C67C88DED563FC36D5EACF66DFF057C3658BDBFA69DF9578B3DA735B64F18C7F20770A9D45CFCF7FCF563D6456A277DBEF78A02637CA2
310
43B90A490AEAB94F72244481D24819A6C0E59B606BFA4B3025981DBB48EAB701D97BF19C577CC77F2D1B6C55A9EF3C732474C0B727303F625995056C3B02963D9EAC146BE78EC5FCEC7FA999EBC5EACBAAE41B12D27B4D2C0BBA49F244E2ECDC81B76B502F113D8F5EE8FB1BE3111CDD4FC2AA9B844CAB1288B68AB90A7CDC
310
1C166AB0D3DC5310625FCC14E779BFD0709F8890A629C9292B1B2DED31A4B0DA928CEE135085754027E3018A397D4D5427D15BD1330B677DC8934285AC3DF45A9EB68FF8F2B8FC0A509AFEECFD0FF2DE25CC6047F7214B195F07EFEB9A094D800F7BFAE8FED187B78EA8A3A400F115961BCAD1215E47C966530AF0EE8128FE
310
58CEBB996A8964FFA529A046635D9353B0336A8F700DDF46271A024E70B0B37C9DE01847591E54DED53D54202AB947E4076556AC49C6CA5C9E1226B7F1A7B1BE15DEED62C41B91E1B3E9AFAAA735036547343A925075041DF0A9979E893B391F8FCFA6967B3EFB644DCF6E5CEBFAE272625DCC6FAF3FB93793C5F90CE1EF57
310
407342756B10D1C489E8953CD1617E5CEECAD6F4EF8914CE5D5D504E5C3F1F9736DA62CFC11E00BCDDB8CC8A9466349744C1F75EBDA4DF09BA8A9E8C7A7E9991989E20E5DBDD6A6003664ED8F7A04A8DBE0DF6EAD9B9AA858342E47399053949D2C146EDB85DE4B176BB0965FBAC19BD19AA918E27FA50C1D22402E144464C
310
59462568E704B6E71915404CB72B8FF4EDE184DDAF753F284990D2C6926782963815403548A70C657FDEF80D2D9CEAA2AE4C1C76F60BFE74219A06527D6582DF6412526107381E55E353090704D085B52408D0933C4ED159D79BDA71BB4BC506F4831350EB6F979CD22D69BF7AC49B91A2C0A9DDA3D5CA36AD20FC478E37E6
310
1844E2352865EBCB6EA275A652E3836BE04EFB400BF1A2556F515F1FBB35B2AB35BD889C744FFA1004B5544B121E57F70215746DD2F5E2C1412B602CBF19455AC6C8E5E9922C4E01E65215385004546899059180EAFCF7A707CE7017CD8CDB0410789AB32C63B91E5CEBBBACB17AC6CD347A022D5075FD106377347AAABA7E
310
7D11590744509B44E205134DC1290F06580320F78E537D3D73540E06CB970B431F185308AD40BBD794D6D77003C5A36E8EAA54BA64597CD8F83BD552A080A365F7FF06504B0304140006080000CC70623B000000000000000000000000350000006662782F39464131463745442D413632322D343644302D413938332D3331
310
353338454246344243312F76657274696365732E62696E504B0304140006080800CC70623BF270F1330600000004000000360000006662782F39464131463745442D413632322D343644302D413938332D3331353338454246344243312F747269616E676C65732E62696E636660600000504B0304140006080000CC70623B
310
000000000000000000000000370000006662782F39464131463745442D413632322D343644302D413938332D3331353338454246344243312F617474726962757465732E62696E504B0304140006080800CC70623B08DA0BD19000000041010000360000006662782F39464131463745442D413632322D343644302D413938
310
332D3331353338454246344243312F6469726563746F72792E786D6C858F410AC3201045AF22B36F53E9A60B35CBEEBAE80D244E44489C6234F4F835464A48035D0DF398FF9F8AF63D0E6CC63039F212F8F9020C7D47C6792B21C5FE7403D62A1188E2E60C98D7234A5830286103A55745067B9D86B8A3CF9C7F90C11DE607
310
FB144396D7B6A82D282E9A152AD114D5EF2CB866EEE831B8EEA07A7BB5A8D7D61A2BAAEB7FD5F70921FF497D00504B0304140006080800CC70623B0D6EF93BFE000000A00100003B0000006662782F39464131463745442D413632322D343644302D413938332D3331353338454246344243312F7265736F75726365732F63
310
6F72652E786D6C8D50596E833010BD0A9ADFCA60B334011947A8694ED00B586642AC041B79A97AFC9A40A5F6AF3F33A3B7689E1E3F7DCD8FEC139DD7D6F4C0720A191A65476DA61E62B892236427C19DB5E1970C322367EC618541F0C9D9B8EC90B226A009093576C41D94DE63804C3DD2D18357379C652E63480A7FCF17A9
310
EE72C29CE5894E3AC17D702940B63D59270887DE46A7D0F36263058F518FBB468FE9A7BE6A7420864373B8D4873369AA8691FA421B3294352543C5CAF65C0F6FEF43CB8BD52C78D0F34F46E550061C419494B6843142CB0F5677F4B52BEB177AEC28E5C52AFF638ACBF84F53D42654E51E77B379102C05791282176B5F693D
310
CB4C7BED567C03504B010214000A0000080000CC70623B3DEE336E79000000790000001B00000000000000000000000000000000006175746F6465736B2D64657369676E2D7061636B6167652E786D6C504B01021400140006080800CC70623BD486FD9CA0000000F40000001300000000000000000000000000B20000005B
310
436F6E74656E745F54797065735D2E786D6C504B01021400140006080800CC70623B1EC5D7A3EB0000007C010000080000000000000000000000000083010000636F72652E786D6C504B01021400140006080800CC70623B55019EA25F0000007C000000070000000000000000000000000094020000636E782E786D6C504B
310
01021400140006080800CC70623B8C9102E971010000D40300000C00000000000000000000000000180300006662782F636F72652E786D6C504B01021400140006080800CC70623BFFEA85907E0000009D0000000B00000000000000000000000000B30400006662782F636E782E786D6C504B01021400140006080800CC70
310
623B4FEEA4082C0100001202000031000000000000000000000000005A0500006662782F39464131463745442D413632322D343644302D413938332D3331353338454246344243312F636F72652E786D6C504B01021400140006080800CC70623BAD7543B64E010000330300003000000000000000000000000000D5060000
310
6662782F39464131463745442D413632322D343644302D413938332D3331353338454246344243312F636E782E786D6C504B01021400140006080800CC70623B16AB87BA640500003C1000003400000000000000000000000000710800006662782F39464131463745442D413632322D343644302D413938332D3331353338
310
454246344243312F6F626A656374732E786D6C504B01021400140006080000CC70623B0000000000000000000000003500000000000000000000000000270E00006662782F39464131463745442D413632322D343644302D413938332D3331353338454246344243312F76657274696365732E62696E504B01021400140006
310
080800CC70623BF270F133060000000400000036000000000000000000000000007A0E00006662782F39464131463745442D413632322D343644302D413938332D3331353338454246344243312F747269616E676C65732E62696E504B01021400140006080000CC70623B0000000000000000000000003700000000000000
310
000000000000D40E00006662782F39464131463745442D413632322D343644302D413938332D3331353338454246344243312F617474726962757465732E62696E504B01021400140006080800CC70623B08DA0BD190000000410100003600000000000000000000000000290F00006662782F39464131463745442D413632
310
322D343644302D413938332D3331353338454246344243312F6469726563746F72792E786D6C504B01021400140006080800CC70623B0D6EF93BFE000000A00100003B000000000000000000000000000D1000006662782F39464131463745442D413632322D343644302D413938332D3331353338454246344243312F7265
310
736F75726365732F636F72652E786D6C504B0506000000000E000E0080040000641100000000
  0
XRECORD
  5
9A5
102
{ACAD_REACTORS
330
173
102
}
330
173
100
AcDbXrecord
280
     1
102
MATERIAL
148
0.0
149
0.0
149
0.0
 93
        0
 94
       63
282
     0
 72
     1
 77
     1
171
     1
175
     1
179
     1
273
     0
  0
XRECORD
  5
175
102
{ACAD_REACTORS
330
173
102
}
330
173
100
AcDbXrecord
280
     1
270
     1
271
     1
  0
XRECORD
  5
174
102
{ACAD_REACTORS
330
173
102
}
330
173
100
AcDbXrecord
280
     1
270
     1
271
     1
  0
XRECORD
  5
1FB
102
{ACAD_REACTORS
330
173
102
}
330
173
100
AcDbXrecord
280
     1
 70
     0
 90
1673772943
  1
ECE7A1D2-D628-4531-984C-D00F80459256
310
504B03040A0000080000CC70623B3DEE336E79000000790000001B0000006175746F6465736B2D64657369676E2D7061636B6167652E786D6C3C3F786D6C2076657273696F6E3D22312E302220656E636F64696E673D227574662D3822203F3E3C666F726D6174733E3C666F726D61743E687474703A2F2F736368656D612E
310
6175746F6465736B2E636F6D2F64657369676E2D7061636B6167652F323030393C2F666F726D61743E3C2F666F726D6174733E504B0304140006080800CC70623BD486FD9CA0000000F4000000130000005B436F6E74656E745F54797065735D2E786D6C7D8EC10E82300C865F65E91D8A1E8C310C0EEA1BF002731658846E
310
D98AC1B77784ABF1D8FE5FBFBF75BBCE937A534CCEB38643598122B6FEE978D0B0485F9C41B54DDD7D022595594E1A469170414C76A4D9A4D207E29CF43ECE46F218070CC6BECC4078ACAA135ACF422C856C0E68EA1BF5669944DDD7BCDE7B1F8E415D77AECB980613C2E4AC91FC167A2B244592486606FC29C8FD7F045B9A
310
EF7053A7E60B504B0304140006080800CC70623BD9DDAED0EC0000007C01000008000000636F72652E786D6C8D90416EC3201045AF82665B61836D9CD8C2444DD39CA01740405C94182C03558F5F9C3852BBEB6A467FFE9B197D7EF89E6EE8CB2CC17A37002D0820E394D7D68D03A478C17B4007C117EFE32F1B20272733C0
310
2A83E0E3E2D3BC49CABB685CCCAAF3DA6CA20CC14440EA969B0182FA34932C648AD911AEC52CD5558EA6A0CF2EC329598D1E47ACCEFBECC59A050463A7EA5833865FEBDD0E37353BE3EE8DBDE3F6786A48D375FBF6CC78B9C282473B3DEFABC5C86834888A900E538A49F5419B9EB47DD5BC907D4F082F57FB1F28CDFA9F50
310
B22ED6D5F6EE030B20687EE43E10BC5CB3C8E51E54AE6B6EE207504B0304140006080800CC70623B55019EA25F0000007C00000007000000636E782E786D6C4DCB3B0E80201045D1AD90E915ED2CF8AC45050C11660C8261F98AB1B07AC9C97D42D718D865D3E909258CFD00CCE24AC6E326A164D74DC0B4128928FF326038
310
472BA13128B1252AC747C6BAB984FC68F0B87FE8960A5C09FE86CFB69FBA01504B0304140006080800CC70623BA24EB22D72010000D40300000C0000006662782F636F72652E786D6CC5535B6E833010BC8AE5DF0A6C5E49888CA3A6694ED00B38E05014B091B1518EDFE511A5A9D228FD2A1F60CDEC7A67C6986DCE4D8D7A
310
69BA4AAB0C073EC548AA5C17952A33ECECD15B61B4E1CC686DBF9561A44423333CC098B3D268D7CE50AE9595CA02AA74216750749DB418E5352C32DCE59FB211BE70162ABA93DF8AFC244AE9073ED050C759670D0840D390E18DF9F1706664C23973AE2A66B62A605A75ACA4C13C4976E1364A12EF355A2EBD384AF65EFA96
310
BC7B8BED2EA6719AAE16FB8491A199335B351775B991C2CA02F390D2D40B028F861F41BCA68B7518BFD0D59A524686F29B26D7164F36B94AD9289CE54E6D1DE6010819891F6E21228B3AD1831EC219194284CF98F06DD01008846CC5A1BEF83801D4CBDC6A1303536877A57A513B0953A94FC707FDBE6064EA84A9E3E6E0FA
310
EE8CF0E9198F7784A316AA0413C2C2F2E0ECA0934D1AE6D05A69BCDE9E91D2A611F573361E38FC1375157F5752AE6B6DFE4B11990F88CCBF0719EE23FF02504B0304140006080800CC70623B408A7D3B7C0000009D0000000B0000006662782F636E782E786D6C4DCCD10A83201886E15B91FFDC552A92A0064DBC8F581632
310
D3703A76F9ABD1C18E3E78F878E5F0D9027ABBFCF2292AE86E2D20171F69F6715550CB827B40839639A5F2770314A7CD293819B45C73AAFB45B35BA61ACAA1C1C7E7855C58C15BC331339661262CC762340413D68D77DA5B42298546CBE6573AF60CEB2F504B0304140006080800CC70623B449FB9BD290100001202000031
310
0000006662782F36394639363044362D344446342D343946362D394244322D3234314243333846323333332F636F72652E786D6C8D515B6EC32010BC0AE22B55850D98B871848994463E412FE002495162B07854397EA176A4F62F3F2C9A9D991D587EB84F37F0AD7D30CEF6905418026DA553C65E7A98E219ED203808EE9D
310
8B7F6810D871D23D2C3014FCE25D9A57483A1BB58D19B54EE9151C43D0110279CB971E06F9A5A7B11A53CC8C70ADE6515EC78BAE4895DB992778883E0700CB907242D17643D7E2538BD869608875438BBAE38922CAC8F1BDD90DB4691A5E2F42C153326A951B95E398B3D1FE599322163C9AE9115F7A3D46ADA0A018778810
310
84E907617BDCEE297BC5BB3DC6BC2EF47FA234AB2745C9D8D8D035EE220B50105E2F0DC1954B9FB747187D9F9D8FA0CCDB042D5FA0C015C65B42DF78BD10F3F3B363CB56C7109DCFDFBBB97E662ED92EB62D13BC2E1BCAE5777DB9966D8A1F504B0304140006080800CC70623BAD7543B64E01000033030000300000006662
310
782F36394639363044362D344446342D343946362D394244322D3234314243333846323333332F636E782E786D6CD593CD6EC32010845F0571AD6CE3D48AD20813A9873E410FBD12D82434182C7EAAE6EDBB2424CD25871E7B41D6EC30B3FA84F9E67BB2E40B4234DE8DB46F1925E094D7C6ED479AD3AE5951B2113C789FEE
310
6C943839C1488B4C05DF079FE72A69D8C96C13AAD6B8631503449F83828872B949AC57D26200B826A308D316B4064D6E46FCDA41C05550DC9E483A00797BFD207EFB092A45DE9514C1BBD22178396BD39D891265658C238DEA00936C654E5E433CB65A26D9F6EDB5EBC14EBF49A45CB856E66048291F6939A9A81BB5C89177
310
38143CA680F4AA299D66A042CEB3354A2684DC9D8D178FE0D9B8B41CAAD720F880EE7EF93C0C18769E099ECC04D5A102C8049A8A05632F4DDF376CF1DE0F6BB65C2F8627B65A33C6BB62177CEBBDAD973006829F89F22E814B54F4BC2BE347F8AA8F681390B50FA73F804400B5F542E796F19FF974E7F78DB802FE05E20750
310
4B0304140006080800CC70623B8D05915C650500003B100000340000006662782F36394639363044362D344446342D343946362D394244322D3234314243333846323333332F6F626A656374732E786D6CAD575B6FA33814FE2B887D06429276DA1565D4266D158D3A339A6846FB502932E050B66023DB74D2FDF5FB190C01
310
9276B2973C046C8ECFF53B17071F77456EBD502133CEAE6CDF9DD81665314F32965ED995DA3A17B6F5310C04E7AA47665B8C14F4CAD6DB7618A48257A5D94AE89654B91AEDDEDDFC61C998326A5B714EA4BCB265FC440BE2924AF184CA6737218AB8E976E7FA6E4338649B0A523E8D98964450A6A029F619B8588D52FE7039
310
B1BD30F0F4F730D0FF866AF6369557DB33949F31A9088B0F848DD8CCFCF9F2767A76E99CCDE733677E3EF59D9BBB9BA5E37F984D16E78BC5E5F5ED25044B25C0C96822E8D60EEFE11B91C581D77CEA34368A1F5329E68CD1B8B61F16D63A1B8E092D294B10C78C4A48EB593D192E7DED9BDEE7995E1B91FDEDD3ACEA9FE831
310
6A756F9F7D4D79F4274C90A7A04248AA51D5F8C718DAE06FB2F75AC4796EBE65D22A88A22223B995679120E2D50E41AA49C260C046A35368846B0BECD0DFF3EBEB8AD4F835768F69B9ADF25C43D30E6B646F807FAA64AD59F61715C7A54127C4AACA98BA3006A9D792DAE165E0D59B61A01FB3A9F9D838D2DAE62445C86166
310
F37564E842E7DE6A69879FEEA2DD5AE7E371E1A5E025154AC307D06A03D73EB5978C58FFA4C8E9033066E0F3BD53BEC1F39F91BE7B55103791EDE6BBB991A2046172CB4581D8B893FA674DDA17A77B3B7C413D1B511FD2743BFF8A38F03A658705E3ADF8015C3A3417FF3D7E439FF591DA0B5F18BC20C1B8981957AE6392A3
310
F43C640C01D1A0B4728E2DD4F26DB4B3C3152A252A3B4E913CEC1C72F012782FF88EFF8637AA552DBEF76408E8A8DE9E50F9E1CB3A2DA0DB1B6039A893B56063DC5B3E3FFB5F72E67AB9FEB4AEC496C4F4C1149625DD662C53E89D7BF0F6151A046260D1337DFDC94502430F83B0EE07A130A224BCAD7DAE1D9FB6CD422FF6
310
920702629C4BB9AE79C12F243C6432A6794E18E5552BA56B431AAB5D91317302B2B071E86C3A42B1A02F999E24061403B5D0EB639195DA655DD3EBEAB4FB862DDF579F014AD0E73C22F99E28DA57FB98E75C6CA2D74D53086D600F4786E0FE3144B771A8A7B900F03594DB8A633CBC49B2EDB69228BB479CF863B5E807AAAB
310
23872F6DFEB4129B949CA33823F58830E86D65621E10047D9DB34D862E8EAC3C2ABC2F7B2C40D67CDFE01F5545B92105AF983AC54D93D69E56FB8E797F88913F898A9FEC705D3F9D1B54EC8426FB500D40A03BD0119B06E1B95DDC7EB8F6975367793EBD70E66733DFB9BC982F9CE564727731999F5D4ECFCE3B8D6A4DC2A0
310
6D50FD148437D110834A64C6CDDF57FBACB5C307A2A477DFE4939736CFEF2B175371E0E10CF0DD1D5C15654E0BCA14D1E87DD02FF93782A162C0A3D95F1524A52770F972BF1EE9809D13CE7DD599467F8ECE9ADD85CE85A34CD45355448C64F9E8A031DC2D596ACC6E5DD93D9B82DE2EF5CAF81363A8E47996A0DE24564A79
310
4115AACE09C55E14540231FDA13C319787134EBF34E3A022514E5B4D9E0826E25C02D5805B15ABE1BEF51B26383D445DD9E875EE33FE4C22DA16427D65A3BCA92CA6D28DD01DF5DC53330704308475351050232CCD31583787BA75774AFB06E5070DD0C8EF484E19968C5D83BA5B90B244D31E54D55A372320FE4786B7EA58
310
44E135AA5467CB7EA333A61683CC6A8C3257034C10CF46F40EF9F5BE59BE5BD30C3C72D235E95D10345C1D45445A5F0BB47E46A5EBE5570F9380B5FA629579952296A773720405982B9DE04011506178964401AA8BDF1FBF0A8EAB6861DD6580C0E38217056766716DAEB2D6FA0917D3E4116581EADB879C4E7CFFB11EFACD
310
3D641311495D92C8676CB409A72D18610D803CE8A626049E8EC1887CB5B44CC39883690DDA8399B4B9855B481E7D71D4A9D22F96E5BB73BF5793020C02137BF837504B0304140006080000CC70623B000000000000000000000000350000006662782F36394639363044362D344446342D343946362D394244322D32343142
310
43333846323333332F76657274696365732E62696E504B0304140006080800CC70623BF270F1330600000004000000360000006662782F36394639363044362D344446342D343946362D394244322D3234314243333846323333332F747269616E676C65732E62696E636660600000504B0304140006080000CC70623B0000
310
00000000000000000000370000006662782F36394639363044362D344446342D343946362D394244322D3234314243333846323333332F617474726962757465732E62696E504B0304140006080800CC70623B08DA0BD19000000041010000360000006662782F36394639363044362D344446342D343946362D394244322D
310
3234314243333846323333332F6469726563746F72792E786D6C858F410AC3201045AF22B36F53E9A60B35CBEEBAE80D244E44489C6234F4F835464A48035D0DF398FF9F8AF63D0E6CC63039F212F8F9020C7D47C6792B21C5FE7403D62A1188E2E60C98D7234A5830286103A55745067B9D86B8A3CF9C7F90C11DE607FB14
310
4396D7B6A82D282E9A152AD114D5EF2CB866EEE831B8EEA07A7BB5A8D7D61A2BAAEB7FD5F70921FF497D00504B0304140006080800CC70623BCA768048FE000000A00100003B0000006662782F36394639363044362D344446342D343946362D394244322D3234314243333846323333332F7265736F75726365732F636F72
310
652E786D6C8D50596E833010BD0A9ADFCA60D600328E9AA639412F609909B1126CE4A5EAF16B0295DABFFECC8CDEA2797AECF8353F924FB44E193D409E5248504B332A3D0D10FC95B4901C39B3C6F85F3248B49871801506CE266BC2B243D2688FDA47549B11775038871E12F988C7004EDE7016A9083E2ADC3D5D84BC8B09
310
D33C8D74D471E6BC8D0192EDC93A815B742658898E651BCB59086ADC356A8C3FD555A1055ED7E7E254D615792D0F075295F585746FF53B694EE78A565DD736979A65AB9933AFE69F8CD2A2F038022F28ED489E135A7CE4554F9BBEA85E68DB53CAB255FEC71496F19FA6A0B42F8B3DEE6673C0F318E4497096AD7DC5F52C33
310
EEB55BFE0D504B010214000A0000080000CC70623B3DEE336E79000000790000001B00000000000000000000000000000000006175746F6465736B2D64657369676E2D7061636B6167652E786D6C504B01021400140006080800CC70623BD486FD9CA0000000F40000001300000000000000000000000000B20000005B436F
310
6E74656E745F54797065735D2E786D6C504B01021400140006080800CC70623BD9DDAED0EC0000007C010000080000000000000000000000000083010000636F72652E786D6C504B01021400140006080800CC70623B55019EA25F0000007C000000070000000000000000000000000095020000636E782E786D6C504B0102
310
1400140006080800CC70623BA24EB22D72010000D40300000C00000000000000000000000000190300006662782F636F72652E786D6C504B01021400140006080800CC70623B408A7D3B7C0000009D0000000B00000000000000000000000000B50400006662782F636E782E786D6C504B01021400140006080800CC70623B
310
449FB9BD290100001202000031000000000000000000000000005A0500006662782F36394639363044362D344446342D343946362D394244322D3234314243333846323333332F636F72652E786D6C504B01021400140006080800CC70623BAD7543B64E010000330300003000000000000000000000000000D20600006662
310
782F36394639363044362D344446342D343946362D394244322D3234314243333846323333332F636E782E786D6C504B01021400140006080800CC70623B8D05915C650500003B10000034000000000000000000000000006E0800006662782F36394639363044362D344446342D343946362D394244322D32343142433338
310
46323333332F6F626A656374732E786D6C504B01021400140006080000CC70623B0000000000000000000000003500000000000000000000000000250E00006662782F36394639363044362D344446342D343946362D394244322D3234314243333846323333332F76657274696365732E62696E504B010214001400060808
310
00CC70623BF270F13306000000040000003600000000000000000000000000780E00006662782F36394639363044362D344446342D343946362D394244322D3234314243333846323333332F747269616E676C65732E62696E504B01021400140006080000CC70623B00000000000000000000000037000000000000000000
310
00000000D20E00006662782F36394639363044362D344446342D343946362D394244322D3234314243333846323333332F617474726962757465732E62696E504B01021400140006080800CC70623B08DA0BD190000000410100003600000000000000000000000000270F00006662782F36394639363044362D344446342D
310
343946362D394244322D3234314243333846323333332F6469726563746F72792E786D6C504B01021400140006080800CC70623BCA768048FE000000A00100003B000000000000000000000000000B1000006662782F36394639363044362D344446342D343946362D394244322D3234314243333846323333332F7265736F
310
75726365732F636F72652E786D6C504B0506000000000E000E0080040000621100000000
  0
XRECORD
  5
176
102
{ACAD_REACTORS
330
173
102
}
330
173
100
AcDbXrecord
280
     1
270
     1
271
     1
  0
XRECORD
  5
177
102
{ACAD_REACTORS
330
173
102
}
330
173
100
AcDbXrecord
280
     1
270
     1
271
     1
  0
XRECORD
  5
9C7
102
{ACAD_REACTORS
330
9C6
102
}
330
9C6
100
AcDbXrecord
280
     1
102
ACAD_ROUNDTRIP_2012_MLEADER_STYLE
298
     1
  0
XRECORD
  5
9D9
102
{ACAD_REACTORS
330
9D8
102
}
330
9D8
100
AcDbXrecord
280
     1
102
DISPLAYNAME
  1
Metric50
102
FLAGS
 90
        0
  0
CELLSTYLEMAP
  5
999
102
{ACAD_REACTORS
330
162
102
}
330
162
100
AcDbCellStyleMap
 90
        3
300
CELLSTYLE
  1
TABLEFORMAT_BEGIN
 90
        5
170
     1
 91
        0
 92
    32768
 62
   257
 93
        1
300
CONTENTFORMAT
  1
CONTENTFORMAT_BEGIN
 90
        0
 91
        0
 92
      512
 93
        0
300

 40
0.0
140
1.0
 94
        5
 62
     0
340
11
144
6.0
309
CONTENTFORMAT_END
171
     1
301
MARGIN
  1
CELLMARGIN_BEGIN
 40
1.5
 40
1.5
 40
1.5
 40
1.5
 40
4.5
 40
4.5
309
CELLMARGIN_END
 94
        6
 95
        1
302
GRIDFORMAT
  1
GRIDFORMAT_BEGIN
 90
        0
 91
        1
 62
     0
 92
       -2
340
14
 93
        0
 40
1.125
309
GRIDFORMAT_END
 95
        2
302
GRIDFORMAT
  1
GRIDFORMAT_BEGIN
 90
        0
 91
        1
 62
     0
 92
       -2
340
14
 93
        0
 40
1.125
309
GRIDFORMAT_END
 95
        4
302
GRIDFORMAT
  1
GRIDFORMAT_BEGIN
 90
        0
 91
        1
 62
     0
 92
       -2
340
14
 93
        0
 40
1.125
309
GRIDFORMAT_END
 95
        8
302
GRIDFORMAT
  1
GRIDFORMAT_BEGIN
 90
        0
 91
        1
 62
     0
 92
       -2
340
14
 93
        0
 40
1.125
309
GRIDFORMAT_END
 95
       16
302
GRIDFORMAT
  1
GRIDFORMAT_BEGIN
 90
        0
 91
        1
 62
     0
 92
       -2
340
14
 93
        0
 40
1.125
309
GRIDFORMAT_END
 95
       32
302
GRIDFORMAT
  1
GRIDFORMAT_BEGIN
 90
        0
 91
        1
 62
     0
 92
       -2
340
14
 93
        0
 40
1.125
309
GRIDFORMAT_END
309
TABLEFORMAT_END
  1
CELLSTYLE_BEGIN
 90
        1
 91
        1
300
_TITLE
309
CELLSTYLE_END
300
CELLSTYLE
  1
TABLEFORMAT_BEGIN
 90
        5
170
     1
 91
        0
 92
        0
 62
   257
 93
        1
300
CONTENTFORMAT
  1
CONTENTFORMAT_BEGIN
 90
        0
 91
        0
 92
      512
 93
        0
300

 40
0.0
140
1.0
 94
        5
 62
     0
340
11
144
4.5
309
CONTENTFORMAT_END
171
     1
301
MARGIN
  1
CELLMARGIN_BEGIN
 40
1.5
 40
1.5
 40
1.5
 40
1.5
 40
4.5
 40
4.5
309
CELLMARGIN_END
 94
        6
 95
        1
302
GRIDFORMAT
  1
GRIDFORMAT_BEGIN
 90
        0
 91
        1
 62
     0
 92
       -2
340
14
 93
        0
 40
1.125
309
GRIDFORMAT_END
 95
        2
302
GRIDFORMAT
  1
GRIDFORMAT_BEGIN
 90
        0
 91
        1
 62
     0
 92
       -2
340
14
 93
        0
 40
1.125
309
GRIDFORMAT_END
 95
        4
302
GRIDFORMAT
  1
GRIDFORMAT_BEGIN
 90
        0
 91
        1
 62
     0
 92
       -2
340
14
 93
        0
 40
1.125
309
GRIDFORMAT_END
 95
        8
302
GRIDFORMAT
  1
GRIDFORMAT_BEGIN
 90
        0
 91
        1
 62
     0
 92
       -2
340
14
 93
        0
 40
1.125
309
GRIDFORMAT_END
 95
       16
302
GRIDFORMAT
  1
GRIDFORMAT_BEGIN
 90
        0
 91
        1
 62
     0
 92
       -2
340
14
 93
        0
 40
1.125
309
GRIDFORMAT_END
 95
       32
302
GRIDFORMAT
  1
GRIDFORMAT_BEGIN
 90
        0
 91
        1
 62
     0
 92
       -2
340
14
 93
        0
 40
1.125
309
GRIDFORMAT_END
309
TABLEFORMAT_END
  1
CELLSTYLE_BEGIN
 90
        2
 91
        1
300
_HEADER
309
CELLSTYLE_END
300
CELLSTYLE
  1
TABLEFORMAT_BEGIN
 90
        5
170
     1
 91
        0
 92
        0
 62
   257
 93
        1
300
CONTENTFORMAT
  1
CONTENTFORMAT_BEGIN
 90
        0
 91
        0
 92
      512
 93
        0
300

 40
0.0
140
1.0
 94
        2
 62
     0
340
11
144
4.5
309
CONTENTFORMAT_END
171
     1
301
MARGIN
  1
CELLMARGIN_BEGIN
 40
1.5
 40
1.5
 40
1.5
 40
1.5
 40
4.5
 40
4.5
309
CELLMARGIN_END
 94
        6
 95
        1
302
GRIDFORMAT
  1
GRIDFORMAT_BEGIN
 90
        0
 91
        1
 62
     0
 92
       -2
340
14
 93
        0
 40
1.125
309
GRIDFORMAT_END
 95
        2
302
GRIDFORMAT
  1
GRIDFORMAT_BEGIN
 90
        0
 91
        1
 62
     0
 92
       -2
340
14
 93
        0
 40
1.125
309
GRIDFORMAT_END
 95
        4
302
GRIDFORMAT
  1
GRIDFORMAT_BEGIN
 90
        0
 91
        1
 62
     0
 92
       -2
340
14
 93
        0
 40
1.125
309
GRIDFORMAT_END
 95
        8
302
GRIDFORMAT
  1
GRIDFORMAT_BEGIN
 90
        0
 91
        1
 62
     0
 92
       -2
340
14
 93
        0
 40
1.125
309
GRIDFORMAT_END
 95
       16
302
GRIDFORMAT
  1
GRIDFORMAT_BEGIN
 90
        0
 91
        1
 62
     0
 92
       -2
340
14
 93
        0
 40
1.125
309
GRIDFORMAT_END
 95
       32
302
GRIDFORMAT
  1
GRIDFORMAT_BEGIN
 90
        0
 91
        1
 62
     0
 92
       -2
340
14
 93
        0
 40
1.125
309
GRIDFORMAT_END
309
TABLEFORMAT_END
  1
CELLSTYLE_BEGIN
 90
        3
 91
        2
300
_DATA
309
CELLSTYLE_END
  0
XRECORD
  5
99E
102
{ACAD_REACTORS
330
162
102
}
330
162
100
AcDbXrecord
280
     1
102
ACAD_ROUNDTRIP_PRE2007_TABLESTYLE
 90
      512
 91
        0
  1

 92
      512
 93
        0
  2

 94
      512
 95
        0
  3

  0
XRECORD
  5
9B1
102
{ACAD_REACTORS
330
9B0
102
}
330
9B0
100
AcDbXrecord
280
     1
102
RTVSPost2010Prop28
280
     1
102
RTVSPost2010PropOp28
 70
     1
102
RTVSPost2010Prop29
280
     1
102
RTVSPost2010PropOp29
 70
     1
102
RTVSPost2010Prop30
280
     0
102
RTVSPost2010PropOp30
 70
     1
102
RTVSPost2010Prop31
280
     0
102
RTVSPost2010PropOp31
 70
     1
102
RTVSPost2010Prop32
280
     0
102
RTVSPost2010PropOp32
 70
     1
102
RTVSPost2010Prop33
280
     0
102
RTVSPost2010PropOp33
 70
     1
102
RTVSPost2010Prop34
280
     0
102
RTVSPost2010PropOp34
 70
     1
102
RTVSPost2010Prop35
280
     0
102
RTVSPost2010PropOp35
 70
     1
102
RTVSPost2010Prop36
280
     0
102
RTVSPost2010PropOp36
 70
     1
102
RTVSPost2010Prop37
 90
       50
102
RTVSPost2010PropOp37
 70
     1
102
RTVSPost2010Prop38
140
0.0
102
RTVSPost2010PropOp38
 70
     1
102
RTVSPost2010Prop39
140
1.0
102
RTVSPost2010PropOp39
 70
     1
102
RTVSPost2010Prop40
 90
        0
102
RTVSPost2010PropOp40
 70
     1
102
RTVSPost2010Prop41ColorIndex
 90
       18
102
RTVSPost2010Prop41ColorRGB
 90
        0
102
RTVSPost2010PropOp41
 70
     1
102
RTVSPost2010Prop42
 90
       50
102
RTVSPost2010PropOp42
 70
     1
102
RTVSPost2010Prop43
 90
        3
102
RTVSPost2010PropOp43
 70
     1
102
RTVSPost2010Prop44ColorIndex
 90
        5
102
RTVSPost2010Prop44ColorRGB
 90
      255
102
RTVSPost2010PropOp44
 70
     1
102
RTVSPost2010Prop45
280
     0
102
RTVSPost2010PropOp45
 70
     1
102
RTVSPost2010Prop46
 90
       50
102
RTVSPost2010PropOp46
 70
     1
102
RTVSPost2010Prop47
 90
       50
102
RTVSPost2010PropOp47
 70
     1
102
RTVSPost2010Prop48
 90
       50
102
RTVSPost2010PropOp48
 70
     1
102
RTVSPost2010Prop49
280
     0
102
RTVSPost2010PropOp49
 70
     1
102
RTVSPost2010Prop50
 90
       50
102
RTVSPost2010PropOp50
 70
     1
102
RTVSPost2010Prop51ColorIndex
 90
      256
102
RTVSPost2010Prop51ColorRGB
 90
-16777216
102
RTVSPost2010PropOp51
 70
     0
102
RTVSPost2010Prop52
140
1.0
102
RTVSPost2010PropOp52
 70
     0
102
RTVSPost2010Prop53
 90
        2
102
RTVSPost2010PropOp53
 70
     1
102
RTVSPost2010Prop54
  1
strokes_ogs.tif
102
RTVSPost2010PropOp54
 70
     1
102
RTVSPost2010Prop55
280
     0
102
RTVSPost2010PropOp55
 70
     1
102
RTVSPost2010Prop56
140
1.0
102
RTVSPost2010PropOp56
 70
     1
102
RTVSPost2010Prop57
140
1.0
102
RTVSPost2010PropOp57
 70
     1
102
RTVSPropertyOp0
 70
     1
102
RTVSPropertyOp1
 70
     1
102
RTVSPropertyOp2
 70
     1
102
RTVSPropertyOp3
 70
     1
102
RTVSPropertyOp4
 70
     1
102
RTVSPropertyOp5
 70
     1
102
RTVSPropertyOp6
 70
     1
102
RTVSPropertyOp7
 70
     1
102
RTVSPropertyOp8
 70
     1
102
RTVSPropertyOp9
 70
     1
102
RTVSPropertyOp10
 70
     1
102
RTVSPropertyOp11
 70
     1
102
RTVSPropertyOp12
 70
     1
102
RTVSPropertyOp13
 70
     1
102
RTVSPropertyOp14
 70
     1
102
RTVSPropertyOp15
 70
     1
102
RTVSPropertyOp16
 70
     1
102
RTVSPropertyOp17
 70
     1
102
RTVSPropertyOp18
 70
     1
102
RTVSPropertyOp19
 70
     1
102
RTVSPropertyOp20
 70
     1
102
RTVSPropertyOp21
 70
     1
102
RTVSPropertyOp22
 70
     1
102
RTVSPropertyOp23
 70
     1
102
RTVSPropertyOp24
 70
     1
102
RTVSPropertyOp25
 70
     1
102
RTVSPropertyOp26
 70
     1
102
RTVSPropertyOp27
 70
     1
102
RTVSPropertyOp28
 70
     1
102
RTVSPropertyOp29
 70
     1
102
RTVSPropertyOp30
 70
     1
102
RTVSPropertyOp31
 70
     1
102
RTVSPropertyOp32
 70
     1
102
RTVSPropertyOp33
 70
     1
102
RTVSPropertyOp34
 70
     1
102
RTVSPropertyOp35
 70
     1
102
RTVSPropertyOp36
 70
     1
102
RTVSPropertyOp37
 70
     1
102
RTVSPropertyOp38
 70
     1
102
RTVSPropertyOp39
 70
     1
102
RTVSPropertyOp40
 70
     1
102
RTVSPropertyOp41
 70
     1
102
RTVSPropertyOp42
 70
     1
102
RTVSPropertyOp43
 70
     1
102
RTVSPropertyOp44
 70
     1
102
RTVSPropertyOp45
 70
     1
102
RTVSPropertyOp46
 70
     1
102
RTVSPropertyOp47
 70
     1
102
RTVSPropertyOp48
 70
     1
102
RTVSPropertyOp49
 70
     1
102
RTVSPropertyOp50
 70
     1
102
RTVSPropertyOp51
 70
     0
102
RTVSPropertyOp52
 70
     0
102
RTVSPropertyOp53
 70
     1
102
RTVSPropertyOp54
 70
     1
102
RTVSPropertyOp55
 70
     1
102
RTVSPropertyOp56
 70
     1
102
RTVSPropertyOp57
 70
     1
102
RTVSPropertyOp58
 70
     1
102
RTVSPropertyOp59
 70
     1
102
RTVSPropertyOp60
 70
     1
102
RTVSPropertyOp61
 70
     1
102
RTVSPropertyOp62
 70
     1
  0
XRECORD
  5
9AF
102
{ACAD_REACTORS
330
9AE
102
}
330
9AE
100
AcDbXrecord
280
     1
102
RTVSPost2010Prop28
280
     0
102
RTVSPost2010PropOp28
 70
     1
102
RTVSPost2010Prop29
280
     1
102
RTVSPost2010PropOp29
 70
     1
102
RTVSPost2010Prop30
280
     1
102
RTVSPost2010PropOp30
 70
     1
102
RTVSPost2010Prop31
280
     0
102
RTVSPost2010PropOp31
 70
     1
102
RTVSPost2010Prop32
280
     0
102
RTVSPost2010PropOp32
 70
     1
102
RTVSPost2010Prop33
280
     0
102
RTVSPost2010PropOp33
 70
     1
102
RTVSPost2010Prop34
280
     0
102
RTVSPost2010PropOp34
 70
     1
102
RTVSPost2010Prop35
280
     0
102
RTVSPost2010PropOp35
 70
     1
102
RTVSPost2010Prop36
280
     0
102
RTVSPost2010PropOp36
 70
     1
102
RTVSPost2010Prop37
 90
       50
102
RTVSPost2010PropOp37
 70
     1
102
RTVSPost2010Prop38
140
0.0
102
RTVSPost2010PropOp38
 70
     1
102
RTVSPost2010Prop39
140
1.0
102
RTVSPost2010PropOp39
 70
     1
102
RTVSPost2010Prop40
 90
        0
102
RTVSPost2010PropOp40
 70
     1
102
RTVSPost2010Prop41ColorIndex
 90
       18
102
RTVSPost2010Prop41ColorRGB
 90
        0
102
RTVSPost2010PropOp41
 70
     1
102
RTVSPost2010Prop42
 90
       50
102
RTVSPost2010PropOp42
 70
     1
102
RTVSPost2010Prop43
 90
        3
102
RTVSPost2010PropOp43
 70
     1
102
RTVSPost2010Prop44ColorIndex
 90
        5
102
RTVSPost2010Prop44ColorRGB
 90
      255
102
RTVSPost2010PropOp44
 70
     1
102
RTVSPost2010Prop45
280
     0
102
RTVSPost2010PropOp45
 70
     1
102
RTVSPost2010Prop46
 90
       50
102
RTVSPost2010PropOp46
 70
     1
102
RTVSPost2010Prop47
 90
       50
102
RTVSPost2010PropOp47
 70
     1
102
RTVSPost2010Prop48
 90
       50
102
RTVSPost2010PropOp48
 70
     1
102
RTVSPost2010Prop49
280
     0
102
RTVSPost2010PropOp49
 70
     1
102
RTVSPost2010Prop50
 90
       50
102
RTVSPost2010PropOp50
 70
     1
102
RTVSPost2010Prop51ColorIndex
 90
      256
102
RTVSPost2010Prop51ColorRGB
 90
-16777216
102
RTVSPost2010PropOp51
 70
     0
102
RTVSPost2010Prop52
140
1.0
102
RTVSPost2010PropOp52
 70
     0
102
RTVSPost2010Prop53
 90
        2
102
RTVSPost2010PropOp53
 70
     1
102
RTVSPost2010Prop54
  1
strokes_ogs.tif
102
RTVSPost2010PropOp54
 70
     1
102
RTVSPost2010Prop55
280
     0
102
RTVSPost2010PropOp55
 70
     1
102
RTVSPost2010Prop56
140
1.0
102
RTVSPost2010PropOp56
 70
     1
102
RTVSPost2010Prop57
140
1.0
102
RTVSPost2010PropOp57
 70
     1
102
RTVSPropertyOp0
 70
     1
102
RTVSPropertyOp1
 70
     1
102
RTVSPropertyOp2
 70
     1
102
RTVSPropertyOp3
 70
     1
102
RTVSPropertyOp4
 70
     1
102
RTVSPropertyOp5
 70
     1
102
RTVSPropertyOp6
 70
     1
102
RTVSPropertyOp7
 70
     1
102
RTVSPropertyOp8
 70
     1
102
RTVSPropertyOp9
 70
     1
102
RTVSPropertyOp10
 70
     1
102
RTVSPropertyOp11
 70
     1
102
RTVSPropertyOp12
 70
     1
102
RTVSPropertyOp13
 70
     1
102
RTVSPropertyOp14
 70
     1
102
RTVSPropertyOp15
 70
     1
102
RTVSPropertyOp16
 70
     1
102
RTVSPropertyOp17
 70
     1
102
RTVSPropertyOp18
 70
     1
102
RTVSPropertyOp19
 70
     1
102
RTVSPropertyOp20
 70
     1
102
RTVSPropertyOp21
 70
     1
102
RTVSPropertyOp22
 70
     1
102
RTVSPropertyOp23
 70
     1
102
RTVSPropertyOp24
 70
     1
102
RTVSPropertyOp25
 70
     1
102
RTVSPropertyOp26
 70
     1
102
RTVSPropertyOp27
 70
     1
102
RTVSPropertyOp28
 70
     1
102
RTVSPropertyOp29
 70
     1
102
RTVSPropertyOp30
 70
     1
102
RTVSPropertyOp31
 70
     1
102
RTVSPropertyOp32
 70
     1
102
RTVSPropertyOp33
 70
     1
102
RTVSPropertyOp34
 70
     1
102
RTVSPropertyOp35
 70
     1
102
RTVSPropertyOp36
 70
     1
102
RTVSPropertyOp37
 70
     1
102
RTVSPropertyOp38
 70
     1
102
RTVSPropertyOp39
 70
     1
102
RTVSPropertyOp40
 70
     1
102
RTVSPropertyOp41
 70
     1
102
RTVSPropertyOp42
 70
     1
102
RTVSPropertyOp43
 70
     1
102
RTVSPropertyOp44
 70
     1
102
RTVSPropertyOp45
 70
     1
102
RTVSPropertyOp46
 70
     1
102
RTVSPropertyOp47
 70
     1
102
RTVSPropertyOp48
 70
     1
102
RTVSPropertyOp49
 70
     1
102
RTVSPropertyOp50
 70
     1
102
RTVSPropertyOp51
 70
     0
102
RTVSPropertyOp52
 70
     0
102
RTVSPropertyOp53
 70
     1
102
RTVSPropertyOp54
 70
     1
102
RTVSPropertyOp55
 70
     1
102
RTVSPropertyOp56
 70
     1
102
RTVSPropertyOp57
 70
     1
102
RTVSPropertyOp58
 70
     1
102
RTVSPropertyOp59
 70
     1
102
RTVSPropertyOp60
 70
     1
102
RTVSPropertyOp61
 70
     1
102
RTVSPropertyOp62
 70
     1
  0
XRECORD
  5
9BD
102
{ACAD_REACTORS
330
9BC
102
}
330
9BC
100
AcDbXrecord
280
     1
102
RTVSPost2010Prop28
280
     0
102
RTVSPost2010PropOp28
 70
     1
102
RTVSPost2010Prop29
280
     1
102
RTVSPost2010PropOp29
 70
     1
102
RTVSPost2010Prop30
280
     1
102
RTVSPost2010PropOp30
 70
     1
102
RTVSPost2010Prop31
280
     0
102
RTVSPost2010PropOp31
 70
     1
102
RTVSPost2010Prop32
280
     0
102
RTVSPost2010PropOp32
 70
     1
102
RTVSPost2010Prop33
280
     0
102
RTVSPost2010PropOp33
 70
     1
102
RTVSPost2010Prop34
280
     0
102
RTVSPost2010PropOp34
 70
     1
102
RTVSPost2010Prop35
280
     0
102
RTVSPost2010PropOp35
 70
     1
102
RTVSPost2010Prop36
280
     0
102
RTVSPost2010PropOp36
 70
     1
102
RTVSPost2010Prop37
 90
       50
102
RTVSPost2010PropOp37
 70
     1
102
RTVSPost2010Prop38
140
0.0
102
RTVSPost2010PropOp38
 70
     1
102
RTVSPost2010Prop39
140
1.0
102
RTVSPost2010PropOp39
 70
     1
102
RTVSPost2010Prop40
 90
        0
102
RTVSPost2010PropOp40
 70
     1
102
RTVSPost2010Prop41ColorIndex
 90
       18
102
RTVSPost2010Prop41ColorRGB
 90
        0
102
RTVSPost2010PropOp41
 70
     1
102
RTVSPost2010Prop42
 90
       50
102
RTVSPost2010PropOp42
 70
     1
102
RTVSPost2010Prop43
 90
        3
102
RTVSPost2010PropOp43
 70
     1
102
RTVSPost2010Prop44ColorIndex
 90
        5
102
RTVSPost2010Prop44ColorRGB
 90
      255
102
RTVSPost2010PropOp44
 70
     1
102
RTVSPost2010Prop45
280
     0
102
RTVSPost2010PropOp45
 70
     1
102
RTVSPost2010Prop46
 90
       50
102
RTVSPost2010PropOp46
 70
     1
102
RTVSPost2010Prop47
 90
       50
102
RTVSPost2010PropOp47
 70
     1
102
RTVSPost2010Prop48
 90
       50
102
RTVSPost2010PropOp48
 70
     1
102
RTVSPost2010Prop49
280
     0
102
RTVSPost2010PropOp49
 70
     1
102
RTVSPost2010Prop50
 90
       50
102
RTVSPost2010PropOp50
 70
     1
102
RTVSPost2010Prop51ColorIndex
 90
      256
102
RTVSPost2010Prop51ColorRGB
 90
-16777216
102
RTVSPost2010PropOp51
 70
     0
102
RTVSPost2010Prop52
140
1.0
102
RTVSPost2010PropOp52
 70
     0
102
RTVSPost2010Prop53
 90
        2
102
RTVSPost2010PropOp53
 70
     1
102
RTVSPost2010Prop54
  1
strokes_ogs.tif
102
RTVSPost2010PropOp54
 70
     1
102
RTVSPost2010Prop55
280
     0
102
RTVSPost2010PropOp55
 70
     1
102
RTVSPost2010Prop56
140
1.0
102
RTVSPost2010PropOp56
 70
     1
102
RTVSPost2010Prop57
140
1.0
102
RTVSPost2010PropOp57
 70
     1
102
RTVSPropertyOp0
 70
     1
102
RTVSPropertyOp1
 70
     1
102
RTVSPropertyOp2
 70
     1
102
RTVSPropertyOp3
 70
     1
102
RTVSPropertyOp4
 70
     1
102
RTVSPropertyOp5
 70
     1
102
RTVSPropertyOp6
 70
     1
102
RTVSPropertyOp7
 70
     1
102
RTVSPropertyOp8
 70
     1
102
RTVSPropertyOp9
 70
     1
102
RTVSPropertyOp10
 70
     1
102
RTVSPropertyOp11
 70
     1
102
RTVSPropertyOp12
 70
     1
102
RTVSPropertyOp13
 70
     1
102
RTVSPropertyOp14
 70
     1
102
RTVSPropertyOp15
 70
     1
102
RTVSPropertyOp16
 70
     1
102
RTVSPropertyOp17
 70
     1
102
RTVSPropertyOp18
 70
     1
102
RTVSPropertyOp19
 70
     1
102
RTVSPropertyOp20
 70
     1
102
RTVSPropertyOp21
 70
     1
102
RTVSPropertyOp22
 70
     1
102
RTVSPropertyOp23
 70
     1
102
RTVSPropertyOp24
 70
     1
102
RTVSPropertyOp25
 70
     1
102
RTVSPropertyOp26
 70
     1
102
RTVSPropertyOp27
 70
     1
102
RTVSPropertyOp28
 70
     1
102
RTVSPropertyOp29
 70
     1
102
RTVSPropertyOp30
 70
     1
102
RTVSPropertyOp31
 70
     1
102
RTVSPropertyOp32
 70
     1
102
RTVSPropertyOp33
 70
     1
102
RTVSPropertyOp34
 70
     1
102
RTVSPropertyOp35
 70
     1
102
RTVSPropertyOp36
 70
     1
102
RTVSPropertyOp37
 70
     1
102
RTVSPropertyOp38
 70
     1
102
RTVSPropertyOp39
 70
     1
102
RTVSPropertyOp40
 70
     1
102
RTVSPropertyOp41
 70
     1
102
RTVSPropertyOp42
 70
     1
102
RTVSPropertyOp43
 70
     1
102
RTVSPropertyOp44
 70
     1
102
RTVSPropertyOp45
 70
     1
102
RTVSPropertyOp46
 70
     1
102
RTVSPropertyOp47
 70
     1
102
RTVSPropertyOp48
 70
     1
102
RTVSPropertyOp49
 70
     1
102
RTVSPropertyOp50
 70
     1
102
RTVSPropertyOp51
 70
     0
102
RTVSPropertyOp52
 70
     0
102
RTVSPropertyOp53
 70
     1
102
RTVSPropertyOp54
 70
     1
102
RTVSPropertyOp55
 70
     1
102
RTVSPropertyOp56
 70
     1
102
RTVSPropertyOp57
 70
     1
102
RTVSPropertyOp58
 70
     1
102
RTVSPropertyOp59
 70
     1
102
RTVSPropertyOp60
 70
     1
102
RTVSPropertyOp61
 70
     1
102
RTVSPropertyOp62
 70
     1
  0
XRECORD
  5
9C5
102
{ACAD_REACTORS
330
9C4
102
}
330
9C4
100
AcDbXrecord
280
     1
102
RTVSPost2010Prop28
280
     0
102
RTVSPost2010PropOp28
 70
     1
102
RTVSPost2010Prop29
280
     1
102
RTVSPost2010PropOp29
 70
     1
102
RTVSPost2010Prop30
280
     1
102
RTVSPost2010PropOp30
 70
     1
102
RTVSPost2010Prop31
280
     0
102
RTVSPost2010PropOp31
 70
     1
102
RTVSPost2010Prop32
280
     0
102
RTVSPost2010PropOp32
 70
     1
102
RTVSPost2010Prop33
280
     0
102
RTVSPost2010PropOp33
 70
     1
102
RTVSPost2010Prop34
280
     0
102
RTVSPost2010PropOp34
 70
     1
102
RTVSPost2010Prop35
280
     0
102
RTVSPost2010PropOp35
 70
     1
102
RTVSPost2010Prop36
280
     0
102
RTVSPost2010PropOp36
 70
     1
102
RTVSPost2010Prop37
 90
       50
102
RTVSPost2010PropOp37
 70
     1
102
RTVSPost2010Prop38
140
0.0
102
RTVSPost2010PropOp38
 70
     1
102
RTVSPost2010Prop39
140
1.0
102
RTVSPost2010PropOp39
 70
     1
102
RTVSPost2010Prop40
 90
        0
102
RTVSPost2010PropOp40
 70
     1
102
RTVSPost2010Prop41ColorIndex
 90
       18
102
RTVSPost2010Prop41ColorRGB
 90
        0
102
RTVSPost2010PropOp41
 70
     1
102
RTVSPost2010Prop42
 90
       50
102
RTVSPost2010PropOp42
 70
     1
102
RTVSPost2010Prop43
 90
        3
102
RTVSPost2010PropOp43
 70
     1
102
RTVSPost2010Prop44ColorIndex
 90
        5
102
RTVSPost2010Prop44ColorRGB
 90
      255
102
RTVSPost2010PropOp44
 70
     1
102
RTVSPost2010Prop45
280
     0
102
RTVSPost2010PropOp45
 70
     1
102
RTVSPost2010Prop46
 90
       50
102
RTVSPost2010PropOp46
 70
     1
102
RTVSPost2010Prop47
 90
       50
102
RTVSPost2010PropOp47
 70
     1
102
RTVSPost2010Prop48
 90
       50
102
RTVSPost2010PropOp48
 70
     1
102
RTVSPost2010Prop49
280
     0
102
RTVSPost2010PropOp49
 70
     1
102
RTVSPost2010Prop50
 90
       50
102
RTVSPost2010PropOp50
 70
     1
102
RTVSPost2010Prop51ColorIndex
 90
      256
102
RTVSPost2010Prop51ColorRGB
 90
-16777216
102
RTVSPost2010PropOp51
 70
     0
102
RTVSPost2010Prop52
140
1.0
102
RTVSPost2010PropOp52
 70
     0
102
RTVSPost2010Prop53
 90
        2
102
RTVSPost2010PropOp53
 70
     1
102
RTVSPost2010Prop54
  1
strokes_ogs.tif
102
RTVSPost2010PropOp54
 70
     1
102
RTVSPost2010Prop55
280
     0
102
RTVSPost2010PropOp55
 70
     1
102
RTVSPost2010Prop56
140
1.0
102
RTVSPost2010PropOp56
 70
     1
102
RTVSPost2010Prop57
140
1.0
102
RTVSPost2010PropOp57
 70
     1
102
RTVSPropertyOp0
 70
     1
102
RTVSPropertyOp1
 70
     1
102
RTVSPropertyOp2
 70
     1
102
RTVSPropertyOp3
 70
     1
102
RTVSPropertyOp4
 70
     1
102
RTVSPropertyOp5
 70
     1
102
RTVSPropertyOp6
 70
     1
102
RTVSPropertyOp7
 70
     1
102
RTVSPropertyOp8
 70
     1
102
RTVSPropertyOp9
 70
     1
102
RTVSPropertyOp10
 70
     1
102
RTVSPropertyOp11
 70
     1
102
RTVSPropertyOp12
 70
     1
102
RTVSPropertyOp13
 70
     1
102
RTVSPropertyOp14
 70
     1
102
RTVSPropertyOp15
 70
     1
102
RTVSPropertyOp16
 70
     1
102
RTVSPropertyOp17
 70
     1
102
RTVSPropertyOp18
 70
     1
102
RTVSPropertyOp19
 70
     1
102
RTVSPropertyOp20
 70
     1
102
RTVSPropertyOp21
 70
     1
102
RTVSPropertyOp22
 70
     1
102
RTVSPropertyOp23
 70
     1
102
RTVSPropertyOp24
 70
     1
102
RTVSPropertyOp25
 70
     1
102
RTVSPropertyOp26
 70
     1
102
RTVSPropertyOp27
 70
     1
102
RTVSPropertyOp28
 70
     1
102
RTVSPropertyOp29
 70
     1
102
RTVSPropertyOp30
 70
     1
102
RTVSPropertyOp31
 70
     1
102
RTVSPropertyOp32
 70
     1
102
RTVSPropertyOp33
 70
     1
102
RTVSPropertyOp34
 70
     1
102
RTVSPropertyOp35
 70
     1
102
RTVSPropertyOp36
 70
     1
102
RTVSPropertyOp37
 70
     1
102
RTVSPropertyOp38
 70
     1
102
RTVSPropertyOp39
 70
     1
102
RTVSPropertyOp40
 70
     1
102
RTVSPropertyOp41
 70
     1
102
RTVSPropertyOp42
 70
     1
102
RTVSPropertyOp43
 70
     1
102
RTVSPropertyOp44
 70
     1
102
RTVSPropertyOp45
 70
     1
102
RTVSPropertyOp46
 70
     1
102
RTVSPropertyOp47
 70
     1
102
RTVSPropertyOp48
 70
     1
102
RTVSPropertyOp49
 70
     1
102
RTVSPropertyOp50
 70
     1
102
RTVSPropertyOp51
 70
     0
102
RTVSPropertyOp52
 70
     0
102
RTVSPropertyOp53
 70
     1
102
RTVSPropertyOp54
 70
     1
102
RTVSPropertyOp55
 70
     1
102
RTVSPropertyOp56
 70
     1
102
RTVSPropertyOp57
 70
     1
102
RTVSPropertyOp58
 70
     1
102
RTVSPropertyOp59
 70
     1
102
RTVSPropertyOp60
 70
     1
102
RTVSPropertyOp61
 70
     1
102
RTVSPropertyOp62
 70
     1
  0
XRECORD
  5
9B7
102
{ACAD_REACTORS
330
9B6
102
}
330
9B6
100
AcDbXrecord
280
     1
102
RTVSPost2010Prop28
280
     0
102
RTVSPost2010PropOp28
 70
     1
102
RTVSPost2010Prop29
280
     1
102
RTVSPost2010PropOp29
 70
     1
102
RTVSPost2010Prop30
280
     1
102
RTVSPost2010PropOp30
 70
     1
102
RTVSPost2010Prop31
280
     0
102
RTVSPost2010PropOp31
 70
     1
102
RTVSPost2010Prop32
280
     0
102
RTVSPost2010PropOp32
 70
     1
102
RTVSPost2010Prop33
280
     0
102
RTVSPost2010PropOp33
 70
     1
102
RTVSPost2010Prop34
280
     0
102
RTVSPost2010PropOp34
 70
     1
102
RTVSPost2010Prop35
280
     0
102
RTVSPost2010PropOp35
 70
     1
102
RTVSPost2010Prop36
280
     0
102
RTVSPost2010PropOp36
 70
     1
102
RTVSPost2010Prop37
 90
       50
102
RTVSPost2010PropOp37
 70
     1
102
RTVSPost2010Prop38
140
0.0
102
RTVSPost2010PropOp38
 70
     1
102
RTVSPost2010Prop39
140
1.0
102
RTVSPost2010PropOp39
 70
     1
102
RTVSPost2010Prop40
 90
        0
102
RTVSPost2010PropOp40
 70
     1
102
RTVSPost2010Prop41ColorIndex
 90
       18
102
RTVSPost2010Prop41ColorRGB
 90
        0
102
RTVSPost2010PropOp41
 70
     1
102
RTVSPost2010Prop42
 90
       50
102
RTVSPost2010PropOp42
 70
     1
102
RTVSPost2010Prop43
 90
        3
102
RTVSPost2010PropOp43
 70
     1
102
RTVSPost2010Prop44ColorIndex
 90
        5
102
RTVSPost2010Prop44ColorRGB
 90
      255
102
RTVSPost2010PropOp44
 70
     1
102
RTVSPost2010Prop45
280
     0
102
RTVSPost2010PropOp45
 70
     1
102
RTVSPost2010Prop46
 90
       50
102
RTVSPost2010PropOp46
 70
     1
102
RTVSPost2010Prop47
 90
       50
102
RTVSPost2010PropOp47
 70
     1
102
RTVSPost2010Prop48
 90
       50
102
RTVSPost2010PropOp48
 70
     1
102
RTVSPost2010Prop49
280
     0
102
RTVSPost2010PropOp49
 70
     1
102
RTVSPost2010Prop50
 90
       50
102
RTVSPost2010PropOp50
 70
     1
102
RTVSPost2010Prop51ColorIndex
 90
      256
102
RTVSPost2010Prop51ColorRGB
 90
-16777216
102
RTVSPost2010PropOp51
 70
     0
102
RTVSPost2010Prop52
140
1.0
102
RTVSPost2010PropOp52
 70
     0
102
RTVSPost2010Prop53
 90
        2
102
RTVSPost2010PropOp53
 70
     1
102
RTVSPost2010Prop54
  1
strokes_ogs.tif
102
RTVSPost2010PropOp54
 70
     1
102
RTVSPost2010Prop55
280
     0
102
RTVSPost2010PropOp55
 70
     1
102
RTVSPost2010Prop56
140
1.0
102
RTVSPost2010PropOp56
 70
     1
102
RTVSPost2010Prop57
140
1.0
102
RTVSPost2010PropOp57
 70
     1
102
RTVSPropertyOp0
 70
     1
102
RTVSPropertyOp1
 70
     1
102
RTVSPropertyOp2
 70
     1
102
RTVSPropertyOp3
 70
     1
102
RTVSPropertyOp4
 70
     1
102
RTVSPropertyOp5
 70
     1
102
RTVSPropertyOp6
 70
     1
102
RTVSPropertyOp7
 70
     1
102
RTVSPropertyOp8
 70
     1
102
RTVSPropertyOp9
 70
     1
102
RTVSPropertyOp10
 70
     1
102
RTVSPropertyOp11
 70
     1
102
RTVSPropertyOp12
 70
     1
102
RTVSPropertyOp13
 70
     1
102
RTVSPropertyOp14
 70
     1
102
RTVSPropertyOp15
 70
     1
102
RTVSPropertyOp16
 70
     1
102
RTVSPropertyOp17
 70
     1
102
RTVSPropertyOp18
 70
     1
102
RTVSPropertyOp19
 70
     1
102
RTVSPropertyOp20
 70
     1
102
RTVSPropertyOp21
 70
     1
102
RTVSPropertyOp22
 70
     1
102
RTVSPropertyOp23
 70
     1
102
RTVSPropertyOp24
 70
     1
102
RTVSPropertyOp25
 70
     1
102
RTVSPropertyOp26
 70
     1
102
RTVSPropertyOp27
 70
     1
102
RTVSPropertyOp28
 70
     1
102
RTVSPropertyOp29
 70
     1
102
RTVSPropertyOp30
 70
     1
102
RTVSPropertyOp31
 70
     1
102
RTVSPropertyOp32
 70
     1
102
RTVSPropertyOp33
 70
     1
102
RTVSPropertyOp34
 70
     1
102
RTVSPropertyOp35
 70
     1
102
RTVSPropertyOp36
 70
     1
102
RTVSPropertyOp37
 70
     1
102
RTVSPropertyOp38
 70
     1
102
RTVSPropertyOp39
 70
     1
102
RTVSPropertyOp40
 70
     1
102
RTVSPropertyOp41
 70
     1
102
RTVSPropertyOp42
 70
     1
102
RTVSPropertyOp43
 70
     1
102
RTVSPropertyOp44
 70
     1
102
RTVSPropertyOp45
 70
     1
102
RTVSPropertyOp46
 70
     1
102
RTVSPropertyOp47
 70
     1
102
RTVSPropertyOp48
 70
     1
102
RTVSPropertyOp49
 70
     1
102
RTVSPropertyOp50
 70
     1
102
RTVSPropertyOp51
 70
     0
102
RTVSPropertyOp52
 70
     0
102
RTVSPropertyOp53
 70
     1
102
RTVSPropertyOp54
 70
     1
102
RTVSPropertyOp55
 70
     1
102
RTVSPropertyOp56
 70
     1
102
RTVSPropertyOp57
 70
     1
102
RTVSPropertyOp58
 70
     1
102
RTVSPropertyOp59
 70
     1
102
RTVSPropertyOp60
 70
     1
102
RTVSPropertyOp61
 70
     1
102
RTVSPropertyOp62
 70
     1
  0
XRECORD
  5
9BB
102
{ACAD_REACTORS
330
9BA
102
}
330
9BA
100
AcDbXrecord
280
     1
102
RTVSPost2010Prop28
280
     0
102
RTVSPost2010PropOp28
 70
     1
102
RTVSPost2010Prop29
280
     1
102
RTVSPost2010PropOp29
 70
     1
102
RTVSPost2010Prop30
280
     1
102
RTVSPost2010PropOp30
 70
     1
102
RTVSPost2010Prop31
280
     0
102
RTVSPost2010PropOp31
 70
     1
102
RTVSPost2010Prop32
280
     0
102
RTVSPost2010PropOp32
 70
     1
102
RTVSPost2010Prop33
280
     0
102
RTVSPost2010PropOp33
 70
     1
102
RTVSPost2010Prop34
280
     0
102
RTVSPost2010PropOp34
 70
     1
102
RTVSPost2010Prop35
280
     0
102
RTVSPost2010PropOp35
 70
     1
102
RTVSPost2010Prop36
280
     0
102
RTVSPost2010PropOp36
 70
     1
102
RTVSPost2010Prop37
 90
       50
102
RTVSPost2010PropOp37
 70
     1
102
RTVSPost2010Prop38
140
0.0
102
RTVSPost2010PropOp38
 70
     1
102
RTVSPost2010Prop39
140
1.0
102
RTVSPost2010PropOp39
 70
     1
102
RTVSPost2010Prop40
 90
        0
102
RTVSPost2010PropOp40
 70
     1
102
RTVSPost2010Prop41ColorIndex
 90
       18
102
RTVSPost2010Prop41ColorRGB
 90
        0
102
RTVSPost2010PropOp41
 70
     1
102
RTVSPost2010Prop42
 90
       50
102
RTVSPost2010PropOp42
 70
     1
102
RTVSPost2010Prop43
 90
        3
102
RTVSPost2010PropOp43
 70
     1
102
RTVSPost2010Prop44ColorIndex
 90
        5
102
RTVSPost2010Prop44ColorRGB
 90
      255
102
RTVSPost2010PropOp44
 70
     1
102
RTVSPost2010Prop45
280
     0
102
RTVSPost2010PropOp45
 70
     1
102
RTVSPost2010Prop46
 90
       50
102
RTVSPost2010PropOp46
 70
     1
102
RTVSPost2010Prop47
 90
       50
102
RTVSPost2010PropOp47
 70
     1
102
RTVSPost2010Prop48
 90
       50
102
RTVSPost2010PropOp48
 70
     1
102
RTVSPost2010Prop49
280
     0
102
RTVSPost2010PropOp49
 70
     1
102
RTVSPost2010Prop50
 90
       50
102
RTVSPost2010PropOp50
 70
     1
102
RTVSPost2010Prop51ColorIndex
 90
      256
102
RTVSPost2010Prop51ColorRGB
 90
-16777216
102
RTVSPost2010PropOp51
 70
     0
102
RTVSPost2010Prop52
140
1.0
102
RTVSPost2010PropOp52
 70
     0
102
RTVSPost2010Prop53
 90
        2
102
RTVSPost2010PropOp53
 70
     1
102
RTVSPost2010Prop54
  1
strokes_ogs.tif
102
RTVSPost2010PropOp54
 70
     1
102
RTVSPost2010Prop55
280
     0
102
RTVSPost2010PropOp55
 70
     1
102
RTVSPost2010Prop56
140
1.0
102
RTVSPost2010PropOp56
 70
     1
102
RTVSPost2010Prop57
140
1.0
102
RTVSPost2010PropOp57
 70
     1
102
RTVSPropertyOp0
 70
     1
102
RTVSPropertyOp1
 70
     1
102
RTVSPropertyOp2
 70
     1
102
RTVSPropertyOp3
 70
     1
102
RTVSPropertyOp4
 70
     1
102
RTVSPropertyOp5
 70
     1
102
RTVSPropertyOp6
 70
     1
102
RTVSPropertyOp7
 70
     1
102
RTVSPropertyOp8
 70
     1
102
RTVSPropertyOp9
 70
     1
102
RTVSPropertyOp10
 70
     1
102
RTVSPropertyOp11
 70
     1
102
RTVSPropertyOp12
 70
     1
102
RTVSPropertyOp13
 70
     1
102
RTVSPropertyOp14
 70
     1
102
RTVSPropertyOp15
 70
     1
102
RTVSPropertyOp16
 70
     1
102
RTVSPropertyOp17
 70
     1
102
RTVSPropertyOp18
 70
     1
102
RTVSPropertyOp19
 70
     1
102
RTVSPropertyOp20
 70
     1
102
RTVSPropertyOp21
 70
     1
102
RTVSPropertyOp22
 70
     1
102
RTVSPropertyOp23
 70
     1
102
RTVSPropertyOp24
 70
     1
102
RTVSPropertyOp25
 70
     1
102
RTVSPropertyOp26
 70
     1
102
RTVSPropertyOp27
 70
     1
102
RTVSPropertyOp28
 70
     1
102
RTVSPropertyOp29
 70
     1
102
RTVSPropertyOp30
 70
     1
102
RTVSPropertyOp31
 70
     1
102
RTVSPropertyOp32
 70
     1
102
RTVSPropertyOp33
 70
     1
102
RTVSPropertyOp34
 70
     1
102
RTVSPropertyOp35
 70
     1
102
RTVSPropertyOp36
 70
     1
102
RTVSPropertyOp37
 70
     1
102
RTVSPropertyOp38
 70
     1
102
RTVSPropertyOp39
 70
     1
102
RTVSPropertyOp40
 70
     1
102
RTVSPropertyOp41
 70
     1
102
RTVSPropertyOp42
 70
     1
102
RTVSPropertyOp43
 70
     1
102
RTVSPropertyOp44
 70
     1
102
RTVSPropertyOp45
 70
     1
102
RTVSPropertyOp46
 70
     1
102
RTVSPropertyOp47
 70
     1
102
RTVSPropertyOp48
 70
     1
102
RTVSPropertyOp49
 70
     1
102
RTVSPropertyOp50
 70
     1
102
RTVSPropertyOp51
 70
     0
102
RTVSPropertyOp52
 70
     0
102
RTVSPropertyOp53
 70
     1
102
RTVSPropertyOp54
 70
     1
102
RTVSPropertyOp55
 70
     1
102
RTVSPropertyOp56
 70
     1
102
RTVSPropertyOp57
 70
     1
102
RTVSPropertyOp58
 70
     1
102
RTVSPropertyOp59
 70
     1
102
RTVSPropertyOp60
 70
     1
102
RTVSPropertyOp61
 70
     1
102
RTVSPropertyOp62
 70
     1
  0
XRECORD
  5
9CD
102
{ACAD_REACTORS
330
9CC
102
}
330
9CC
100
AcDbXrecord
280
     1
102
RTVSPost2010Prop28
280
     0
102
RTVSPost2010PropOp28
 70
     1
102
RTVSPost2010Prop29
280
     1
102
RTVSPost2010PropOp29
 70
     1
102
RTVSPost2010Prop30
280
     1
102
RTVSPost2010PropOp30
 70
     1
102
RTVSPost2010Prop31
280
     0
102
RTVSPost2010PropOp31
 70
     1
102
RTVSPost2010Prop32
280
     0
102
RTVSPost2010PropOp32
 70
     1
102
RTVSPost2010Prop33
280
     0
102
RTVSPost2010PropOp33
 70
     1
102
RTVSPost2010Prop34
280
     0
102
RTVSPost2010PropOp34
 70
     1
102
RTVSPost2010Prop35
280
     0
102
RTVSPost2010PropOp35
 70
     1
102
RTVSPost2010Prop36
280
     0
102
RTVSPost2010PropOp36
 70
     1
102
RTVSPost2010Prop37
 90
       50
102
RTVSPost2010PropOp37
 70
     1
102
RTVSPost2010Prop38
140
0.0
102
RTVSPost2010PropOp38
 70
     1
102
RTVSPost2010Prop39
140
1.0
102
RTVSPost2010PropOp39
 70
     1
102
RTVSPost2010Prop40
 90
        0
102
RTVSPost2010PropOp40
 70
     1
102
RTVSPost2010Prop41ColorIndex
 90
       18
102
RTVSPost2010Prop41ColorRGB
 90
        0
102
RTVSPost2010PropOp41
 70
     1
102
RTVSPost2010Prop42
 90
       50
102
RTVSPost2010PropOp42
 70
     1
102
RTVSPost2010Prop43
 90
        3
102
RTVSPost2010PropOp43
 70
     1
102
RTVSPost2010Prop44ColorIndex
 90
        5
102
RTVSPost2010Prop44ColorRGB
 90
      255
102
RTVSPost2010PropOp44
 70
     1
102
RTVSPost2010Prop45
280
     0
102
RTVSPost2010PropOp45
 70
     1
102
RTVSPost2010Prop46
 90
       50
102
RTVSPost2010PropOp46
 70
     1
102
RTVSPost2010Prop47
 90
       50
102
RTVSPost2010PropOp47
 70
     1
102
RTVSPost2010Prop48
 90
       50
102
RTVSPost2010PropOp48
 70
     1
102
RTVSPost2010Prop49
280
     0
102
RTVSPost2010PropOp49
 70
     1
102
RTVSPost2010Prop50
 90
       50
102
RTVSPost2010PropOp50
 70
     1
102
RTVSPost2010Prop51ColorIndex
 90
      256
102
RTVSPost2010Prop51ColorRGB
 90
-16777216
102
RTVSPost2010PropOp51
 70
     0
102
RTVSPost2010Prop52
140
1.0
102
RTVSPost2010PropOp52
 70
     0
102
RTVSPost2010Prop53
 90
        2
102
RTVSPost2010PropOp53
 70
     1
102
RTVSPost2010Prop54
  1
strokes_ogs.tif
102
RTVSPost2010PropOp54
 70
     1
102
RTVSPost2010Prop55
280
     0
102
RTVSPost2010PropOp55
 70
     1
102
RTVSPost2010Prop56
140
1.0
102
RTVSPost2010PropOp56
 70
     1
102
RTVSPost2010Prop57
140
1.0
102
RTVSPost2010PropOp57
 70
     1
102
RTVSPropertyOp0
 70
     0
102
RTVSPropertyOp1
 70
     0
102
RTVSPropertyOp2
 70
     0
102
RTVSPropertyOp3
 70
     0
102
RTVSPropertyOp4
 70
     0
102
RTVSPropertyOp5
 70
     0
102
RTVSPropertyOp6
 70
     0
102
RTVSPropertyOp7
 70
     0
102
RTVSPropertyOp8
 70
     0
102
RTVSPropertyOp9
 70
     0
102
RTVSPropertyOp10
 70
     0
102
RTVSPropertyOp11
 70
     0
102
RTVSPropertyOp12
 70
     0
102
RTVSPropertyOp13
 70
     0
102
RTVSPropertyOp14
 70
     2
102
RTVSPropertyOp15
 70
     0
102
RTVSPropertyOp16
 70
     0
102
RTVSPropertyOp17
 70
     0
102
RTVSPropertyOp18
 70
     0
102
RTVSPropertyOp19
 70
     0
102
RTVSPropertyOp20
 70
     0
102
RTVSPropertyOp21
 70
     0
102
RTVSPropertyOp22
 70
     0
102
RTVSPropertyOp23
 70
     0
102
RTVSPropertyOp24
 70
     0
102
RTVSPropertyOp25
 70
     0
102
RTVSPropertyOp26
 70
     0
102
RTVSPropertyOp27
 70
     0
102
RTVSPropertyOp28
 70
     1
102
RTVSPropertyOp29
 70
     1
102
RTVSPropertyOp30
 70
     1
102
RTVSPropertyOp31
 70
     1
102
RTVSPropertyOp32
 70
     1
102
RTVSPropertyOp33
 70
     1
102
RTVSPropertyOp34
 70
     1
102
RTVSPropertyOp35
 70
     1
102
RTVSPropertyOp36
 70
     1
102
RTVSPropertyOp37
 70
     1
102
RTVSPropertyOp38
 70
     1
102
RTVSPropertyOp39
 70
     1
102
RTVSPropertyOp40
 70
     1
102
RTVSPropertyOp41
 70
     1
102
RTVSPropertyOp42
 70
     1
102
RTVSPropertyOp43
 70
     1
102
RTVSPropertyOp44
 70
     1
102
RTVSPropertyOp45
 70
     1
102
RTVSPropertyOp46
 70
     1
102
RTVSPropertyOp47
 70
     1
102
RTVSPropertyOp48
 70
     1
102
RTVSPropertyOp49
 70
     1
102
RTVSPropertyOp50
 70
     1
102
RTVSPropertyOp51
 70
     0
102
RTVSPropertyOp52
 70
     0
102
RTVSPropertyOp53
 70
     1
102
RTVSPropertyOp54
 70
     1
102
RTVSPropertyOp55
 70
     1
102
RTVSPropertyOp56
 70
     1
102
RTVSPropertyOp57
 70
     1
102
RTVSPropertyOp58
 70
     1
102
RTVSPropertyOp59
 70
     1
102
RTVSPropertyOp60
 70
     1
102
RTVSPropertyOp61
 70
     1
102
RTVSPropertyOp62
 70
     1
  0
XRECORD
  5
9C3
102
{ACAD_REACTORS
330
9C2
102
}
330
9C2
100
AcDbXrecord
280
     1
102
RTVSPost2010Prop28
280
     0
102
RTVSPost2010PropOp28
 70
     1
102
RTVSPost2010Prop29
280
     1
102
RTVSPost2010PropOp29
 70
     1
102
RTVSPost2010Prop30
280
     1
102
RTVSPost2010PropOp30
 70
     1
102
RTVSPost2010Prop31
280
     0
102
RTVSPost2010PropOp31
 70
     1
102
RTVSPost2010Prop32
280
     0
102
RTVSPost2010PropOp32
 70
     1
102
RTVSPost2010Prop33
280
     0
102
RTVSPost2010PropOp33
 70
     1
102
RTVSPost2010Prop34
280
     0
102
RTVSPost2010PropOp34
 70
     1
102
RTVSPost2010Prop35
280
     0
102
RTVSPost2010PropOp35
 70
     1
102
RTVSPost2010Prop36
280
     0
102
RTVSPost2010PropOp36
 70
     1
102
RTVSPost2010Prop37
 90
       50
102
RTVSPost2010PropOp37
 70
     1
102
RTVSPost2010Prop38
140
0.0
102
RTVSPost2010PropOp38
 70
     1
102
RTVSPost2010Prop39
140
1.0
102
RTVSPost2010PropOp39
 70
     1
102
RTVSPost2010Prop40
 90
        0
102
RTVSPost2010PropOp40
 70
     1
102
RTVSPost2010Prop41ColorIndex
 90
       18
102
RTVSPost2010Prop41ColorRGB
 90
        0
102
RTVSPost2010PropOp41
 70
     1
102
RTVSPost2010Prop42
 90
       50
102
RTVSPost2010PropOp42
 70
     1
102
RTVSPost2010Prop43
 90
        3
102
RTVSPost2010PropOp43
 70
     1
102
RTVSPost2010Prop44ColorIndex
 90
        5
102
RTVSPost2010Prop44ColorRGB
 90
      255
102
RTVSPost2010PropOp44
 70
     1
102
RTVSPost2010Prop45
280
     0
102
RTVSPost2010PropOp45
 70
     1
102
RTVSPost2010Prop46
 90
       50
102
RTVSPost2010PropOp46
 70
     1
102
RTVSPost2010Prop47
 90
       50
102
RTVSPost2010PropOp47
 70
     1
102
RTVSPost2010Prop48
 90
       50
102
RTVSPost2010PropOp48
 70
     1
102
RTVSPost2010Prop49
280
     0
102
RTVSPost2010PropOp49
 70
     1
102
RTVSPost2010Prop50
 90
       50
102
RTVSPost2010PropOp50
 70
     1
102
RTVSPost2010Prop51ColorIndex
 90
      256
102
RTVSPost2010Prop51ColorRGB
 90
-16777216
102
RTVSPost2010PropOp51
 70
     0
102
RTVSPost2010Prop52
140
1.0
102
RTVSPost2010PropOp52
 70
     0
102
RTVSPost2010Prop53
 90
        2
102
RTVSPost2010PropOp53
 70
     1
102
RTVSPost2010Prop54
  1
strokes_ogs.tif
102
RTVSPost2010PropOp54
 70
     1
102
RTVSPost2010Prop55
280
     0
102
RTVSPost2010PropOp55
 70
     1
102
RTVSPost2010Prop56
140
1.0
102
RTVSPost2010PropOp56
 70
     1
102
RTVSPost2010Prop57
140
1.0
102
RTVSPost2010PropOp57
 70
     1
102
RTVSPropertyOp0
 70
     1
102
RTVSPropertyOp1
 70
     1
102
RTVSPropertyOp2
 70
     1
102
RTVSPropertyOp3
 70
     1
102
RTVSPropertyOp4
 70
     1
102
RTVSPropertyOp5
 70
     1
102
RTVSPropertyOp6
 70
     1
102
RTVSPropertyOp7
 70
     1
102
RTVSPropertyOp8
 70
     1
102
RTVSPropertyOp9
 70
     1
102
RTVSPropertyOp10
 70
     1
102
RTVSPropertyOp11
 70
     1
102
RTVSPropertyOp12
 70
     1
102
RTVSPropertyOp13
 70
     1
102
RTVSPropertyOp14
 70
     1
102
RTVSPropertyOp15
 70
     1
102
RTVSPropertyOp16
 70
     1
102
RTVSPropertyOp17
 70
     1
102
RTVSPropertyOp18
 70
     1
102
RTVSPropertyOp19
 70
     1
102
RTVSPropertyOp20
 70
     1
102
RTVSPropertyOp21
 70
     1
102
RTVSPropertyOp22
 70
     1
102
RTVSPropertyOp23
 70
     1
102
RTVSPropertyOp24
 70
     1
102
RTVSPropertyOp25
 70
     1
102
RTVSPropertyOp26
 70
     1
102
RTVSPropertyOp27
 70
     1
102
RTVSPropertyOp28
 70
     1
102
RTVSPropertyOp29
 70
     1
102
RTVSPropertyOp30
 70
     1
102
RTVSPropertyOp31
 70
     1
102
RTVSPropertyOp32
 70
     1
102
RTVSPropertyOp33
 70
     1
102
RTVSPropertyOp34
 70
     1
102
RTVSPropertyOp35
 70
     1
102
RTVSPropertyOp36
 70
     1
102
RTVSPropertyOp37
 70
     1
102
RTVSPropertyOp38
 70
     1
102
RTVSPropertyOp39
 70
     1
102
RTVSPropertyOp40
 70
     1
102
RTVSPropertyOp41
 70
     1
102
RTVSPropertyOp42
 70
     1
102
RTVSPropertyOp43
 70
     1
102
RTVSPropertyOp44
 70
     1
102
RTVSPropertyOp45
 70
     1
102
RTVSPropertyOp46
 70
     1
102
RTVSPropertyOp47
 70
     1
102
RTVSPropertyOp48
 70
     1
102
RTVSPropertyOp49
 70
     1
102
RTVSPropertyOp50
 70
     1
102
RTVSPropertyOp51
 70
     0
102
RTVSPropertyOp52
 70
     0
102
RTVSPropertyOp53
 70
     1
102
RTVSPropertyOp54
 70
     1
102
RTVSPropertyOp55
 70
     1
102
RTVSPropertyOp56
 70
     1
102
RTVSPropertyOp57
 70
     1
102
RTVSPropertyOp58
 70
     1
102
RTVSPropertyOp59
 70
     1
102
RTVSPropertyOp60
 70
     1
102
RTVSPropertyOp61
 70
     1
102
RTVSPropertyOp62
 70
     1
  0
XRECORD
  5
9A7
102
{ACAD_REACTORS
330
9A6
102
}
330
9A6
100
AcDbXrecord
280
     1
102
RTVSPost2010Prop28
280
     0
102
RTVSPost2010PropOp28
 70
     1
102
RTVSPost2010Prop29
280
     1
102
RTVSPost2010PropOp29
 70
     1
102
RTVSPost2010Prop30
280
     1
102
RTVSPost2010PropOp30
 70
     1
102
RTVSPost2010Prop31
280
     0
102
RTVSPost2010PropOp31
 70
     1
102
RTVSPost2010Prop32
280
     0
102
RTVSPost2010PropOp32
 70
     1
102
RTVSPost2010Prop33
280
     0
102
RTVSPost2010PropOp33
 70
     1
102
RTVSPost2010Prop34
280
     0
102
RTVSPost2010PropOp34
 70
     1
102
RTVSPost2010Prop35
280
     0
102
RTVSPost2010PropOp35
 70
     1
102
RTVSPost2010Prop36
280
     0
102
RTVSPost2010PropOp36
 70
     1
102
RTVSPost2010Prop37
 90
       50
102
RTVSPost2010PropOp37
 70
     1
102
RTVSPost2010Prop38
140
0.0
102
RTVSPost2010PropOp38
 70
     1
102
RTVSPost2010Prop39
140
1.0
102
RTVSPost2010PropOp39
 70
     1
102
RTVSPost2010Prop40
 90
        0
102
RTVSPost2010PropOp40
 70
     1
102
RTVSPost2010Prop41ColorIndex
 90
       18
102
RTVSPost2010Prop41ColorRGB
 90
        0
102
RTVSPost2010PropOp41
 70
     1
102
RTVSPost2010Prop42
 90
       50
102
RTVSPost2010PropOp42
 70
     1
102
RTVSPost2010Prop43
 90
        3
102
RTVSPost2010PropOp43
 70
     1
102
RTVSPost2010Prop44ColorIndex
 90
        5
102
RTVSPost2010Prop44ColorRGB
 90
      255
102
RTVSPost2010PropOp44
 70
     1
102
RTVSPost2010Prop45
280
     0
102
RTVSPost2010PropOp45
 70
     1
102
RTVSPost2010Prop46
 90
       50
102
RTVSPost2010PropOp46
 70
     1
102
RTVSPost2010Prop47
 90
       50
102
RTVSPost2010PropOp47
 70
     1
102
RTVSPost2010Prop48
 90
       50
102
RTVSPost2010PropOp48
 70
     1
102
RTVSPost2010Prop49
280
     0
102
RTVSPost2010PropOp49
 70
     1
102
RTVSPost2010Prop50
 90
       50
102
RTVSPost2010PropOp50
 70
     1
102
RTVSPost2010Prop51ColorIndex
 90
      256
102
RTVSPost2010Prop51ColorRGB
 90
-16777216
102
RTVSPost2010PropOp51
 70
     0
102
RTVSPost2010Prop52
140
1.0
102
RTVSPost2010PropOp52
 70
     0
102
RTVSPost2010Prop53
 90
        2
102
RTVSPost2010PropOp53
 70
     1
102
RTVSPost2010Prop54
  1
strokes_ogs.tif
102
RTVSPost2010PropOp54
 70
     1
102
RTVSPost2010Prop55
280
     0
102
RTVSPost2010PropOp55
 70
     1
102
RTVSPost2010Prop56
140
1.0
102
RTVSPost2010PropOp56
 70
     1
102
RTVSPost2010Prop57
140
1.0
102
RTVSPost2010PropOp57
 70
     1
102
RTVSPropertyOp0
 70
     1
102
RTVSPropertyOp1
 70
     1
102
RTVSPropertyOp2
 70
     1
102
RTVSPropertyOp3
 70
     1
102
RTVSPropertyOp4
 70
     1
102
RTVSPropertyOp5
 70
     1
102
RTVSPropertyOp6
 70
     1
102
RTVSPropertyOp7
 70
     1
102
RTVSPropertyOp8
 70
     1
102
RTVSPropertyOp9
 70
     1
102
RTVSPropertyOp10
 70
     1
102
RTVSPropertyOp11
 70
     1
102
RTVSPropertyOp12
 70
     1
102
RTVSPropertyOp13
 70
     1
102
RTVSPropertyOp14
 70
     1
102
RTVSPropertyOp15
 70
     1
102
RTVSPropertyOp16
 70
     1
102
RTVSPropertyOp17
 70
     1
102
RTVSPropertyOp18
 70
     1
102
RTVSPropertyOp19
 70
     1
102
RTVSPropertyOp20
 70
     1
102
RTVSPropertyOp21
 70
     1
102
RTVSPropertyOp22
 70
     1
102
RTVSPropertyOp23
 70
     1
102
RTVSPropertyOp24
 70
     1
102
RTVSPropertyOp25
 70
     1
102
RTVSPropertyOp26
 70
     1
102
RTVSPropertyOp27
 70
     1
102
RTVSPropertyOp28
 70
     1
102
RTVSPropertyOp29
 70
     1
102
RTVSPropertyOp30
 70
     1
102
RTVSPropertyOp31
 70
     1
102
RTVSPropertyOp32
 70
     1
102
RTVSPropertyOp33
 70
     1
102
RTVSPropertyOp34
 70
     1
102
RTVSPropertyOp35
 70
     1
102
RTVSPropertyOp36
 70
     1
102
RTVSPropertyOp37
 70
     1
102
RTVSPropertyOp38
 70
     1
102
RTVSPropertyOp39
 70
     1
102
RTVSPropertyOp40
 70
     1
102
RTVSPropertyOp41
 70
     1
102
RTVSPropertyOp42
 70
     1
102
RTVSPropertyOp43
 70
     1
102
RTVSPropertyOp44
 70
     1
102
RTVSPropertyOp45
 70
     1
102
RTVSPropertyOp46
 70
     1
102
RTVSPropertyOp47
 70
     1
102
RTVSPropertyOp48
 70
     1
102
RTVSPropertyOp49
 70
     1
102
RTVSPropertyOp50
 70
     1
102
RTVSPropertyOp51
 70
     0
102
RTVSPropertyOp52
 70
     0
102
RTVSPropertyOp53
 70
     1
102
RTVSPropertyOp54
 70
     1
102
RTVSPropertyOp55
 70
     1
102
RTVSPropertyOp56
 70
     1
102
RTVSPropertyOp57
 70
     1
102
RTVSPropertyOp58
 70
     1
102
RTVSPropertyOp59
 70
     1
102
RTVSPropertyOp60
 70
     1
102
RTVSPropertyOp61
 70
     1
102
RTVSPropertyOp62
 70
     1
  0
XRECORD
  5
9A9
102
{ACAD_REACTORS
330
9A8
102
}
330
9A8
100
AcDbXrecord
280
     1
102
RTVSPost2010Prop28
280
     0
102
RTVSPost2010PropOp28
 70
     1
102
RTVSPost2010Prop29
280
     1
102
RTVSPost2010PropOp29
 70
     1
102
RTVSPost2010Prop30
280
     1
102
RTVSPost2010PropOp30
 70
     1
102
RTVSPost2010Prop31
280
     0
102
RTVSPost2010PropOp31
 70
     1
102
RTVSPost2010Prop32
280
     0
102
RTVSPost2010PropOp32
 70
     1
102
RTVSPost2010Prop33
280
     0
102
RTVSPost2010PropOp33
 70
     1
102
RTVSPost2010Prop34
280
     0
102
RTVSPost2010PropOp34
 70
     1
102
RTVSPost2010Prop35
280
     0
102
RTVSPost2010PropOp35
 70
     1
102
RTVSPost2010Prop36
280
     0
102
RTVSPost2010PropOp36
 70
     1
102
RTVSPost2010Prop37
 90
       50
102
RTVSPost2010PropOp37
 70
     1
102
RTVSPost2010Prop38
140
0.0
102
RTVSPost2010PropOp38
 70
     1
102
RTVSPost2010Prop39
140
1.0
102
RTVSPost2010PropOp39
 70
     1
102
RTVSPost2010Prop40
 90
        0
102
RTVSPost2010PropOp40
 70
     1
102
RTVSPost2010Prop41ColorIndex
 90
       18
102
RTVSPost2010Prop41ColorRGB
 90
        0
102
RTVSPost2010PropOp41
 70
     1
102
RTVSPost2010Prop42
 90
       50
102
RTVSPost2010PropOp42
 70
     1
102
RTVSPost2010Prop43
 90
        3
102
RTVSPost2010PropOp43
 70
     1
102
RTVSPost2010Prop44ColorIndex
 90
        5
102
RTVSPost2010Prop44ColorRGB
 90
      255
102
RTVSPost2010PropOp44
 70
     1
102
RTVSPost2010Prop45
280
     0
102
RTVSPost2010PropOp45
 70
     1
102
RTVSPost2010Prop46
 90
       50
102
RTVSPost2010PropOp46
 70
     1
102
RTVSPost2010Prop47
 90
       50
102
RTVSPost2010PropOp47
 70
     1
102
RTVSPost2010Prop48
 90
       50
102
RTVSPost2010PropOp48
 70
     1
102
RTVSPost2010Prop49
280
     0
102
RTVSPost2010PropOp49
 70
     1
102
RTVSPost2010Prop50
 90
       50
102
RTVSPost2010PropOp50
 70
     1
102
RTVSPost2010Prop51ColorIndex
 90
      256
102
RTVSPost2010Prop51ColorRGB
 90
-16777216
102
RTVSPost2010PropOp51
 70
     0
102
RTVSPost2010Prop52
140
1.0
102
RTVSPost2010PropOp52
 70
     0
102
RTVSPost2010Prop53
 90
        2
102
RTVSPost2010PropOp53
 70
     1
102
RTVSPost2010Prop54
  1
strokes_ogs.tif
102
RTVSPost2010PropOp54
 70
     1
102
RTVSPost2010Prop55
280
     0
102
RTVSPost2010PropOp55
 70
     1
102
RTVSPost2010Prop56
140
1.0
102
RTVSPost2010PropOp56
 70
     1
102
RTVSPost2010Prop57
140
1.0
102
RTVSPost2010PropOp57
 70
     1
102
RTVSPropertyOp0
 70
     1
102
RTVSPropertyOp1
 70
     1
102
RTVSPropertyOp2
 70
     1
102
RTVSPropertyOp3
 70
     1
102
RTVSPropertyOp4
 70
     1
102
RTVSPropertyOp5
 70
     1
102
RTVSPropertyOp6
 70
     1
102
RTVSPropertyOp7
 70
     1
102
RTVSPropertyOp8
 70
     1
102
RTVSPropertyOp9
 70
     1
102
RTVSPropertyOp10
 70
     1
102
RTVSPropertyOp11
 70
     1
102
RTVSPropertyOp12
 70
     1
102
RTVSPropertyOp13
 70
     1
102
RTVSPropertyOp14
 70
     1
102
RTVSPropertyOp15
 70
     1
102
RTVSPropertyOp16
 70
     1
102
RTVSPropertyOp17
 70
     1
102
RTVSPropertyOp18
 70
     1
102
RTVSPropertyOp19
 70
     1
102
RTVSPropertyOp20
 70
     1
102
RTVSPropertyOp21
 70
     1
102
RTVSPropertyOp22
 70
     1
102
RTVSPropertyOp23
 70
     1
102
RTVSPropertyOp24
 70
     1
102
RTVSPropertyOp25
 70
     1
102
RTVSPropertyOp26
 70
     1
102
RTVSPropertyOp27
 70
     1
102
RTVSPropertyOp28
 70
     1
102
RTVSPropertyOp29
 70
     1
102
RTVSPropertyOp30
 70
     1
102
RTVSPropertyOp31
 70
     1
102
RTVSPropertyOp32
 70
     1
102
RTVSPropertyOp33
 70
     1
102
RTVSPropertyOp34
 70
     1
102
RTVSPropertyOp35
 70
     1
102
RTVSPropertyOp36
 70
     1
102
RTVSPropertyOp37
 70
     1
102
RTVSPropertyOp38
 70
     1
102
RTVSPropertyOp39
 70
     1
102
RTVSPropertyOp40
 70
     1
102
RTVSPropertyOp41
 70
     1
102
RTVSPropertyOp42
 70
     1
102
RTVSPropertyOp43
 70
     1
102
RTVSPropertyOp44
 70
     1
102
RTVSPropertyOp45
 70
     1
102
RTVSPropertyOp46
 70
     1
102
RTVSPropertyOp47
 70
     1
102
RTVSPropertyOp48
 70
     1
102
RTVSPropertyOp49
 70
     1
102
RTVSPropertyOp50
 70
     1
102
RTVSPropertyOp51
 70
     0
102
RTVSPropertyOp52
 70
     0
102
RTVSPropertyOp53
 70
     1
102
RTVSPropertyOp54
 70
     1
102
RTVSPropertyOp55
 70
     1
102
RTVSPropertyOp56
 70
     1
102
RTVSPropertyOp57
 70
     1
102
RTVSPropertyOp58
 70
     1
102
RTVSPropertyOp59
 70
     1
102
RTVSPropertyOp60
 70
     1
102
RTVSPropertyOp61
 70
     1
102
RTVSPropertyOp62
 70
     1
  0
XRECORD
  5
9AB
102
{ACAD_REACTORS
330
9AA
102
}
330
9AA
100
AcDbXrecord
280
     1
102
RTVSPost2010Prop28
280
     0
102
RTVSPost2010PropOp28
 70
     1
102
RTVSPost2010Prop29
280
     1
102
RTVSPost2010PropOp29
 70
     1
102
RTVSPost2010Prop30
280
     1
102
RTVSPost2010PropOp30
 70
     1
102
RTVSPost2010Prop31
280
     0
102
RTVSPost2010PropOp31
 70
     1
102
RTVSPost2010Prop32
280
     0
102
RTVSPost2010PropOp32
 70
     1
102
RTVSPost2010Prop33
280
     0
102
RTVSPost2010PropOp33
 70
     1
102
RTVSPost2010Prop34
280
     0
102
RTVSPost2010PropOp34
 70
     1
102
RTVSPost2010Prop35
280
     0
102
RTVSPost2010PropOp35
 70
     1
102
RTVSPost2010Prop36
280
     0
102
RTVSPost2010PropOp36
 70
     1
102
RTVSPost2010Prop37
 90
       50
102
RTVSPost2010PropOp37
 70
     1
102
RTVSPost2010Prop38
140
0.0
102
RTVSPost2010PropOp38
 70
     1
102
RTVSPost2010Prop39
140
1.0
102
RTVSPost2010PropOp39
 70
     1
102
RTVSPost2010Prop40
 90
        0
102
RTVSPost2010PropOp40
 70
     1
102
RTVSPost2010Prop41ColorIndex
 90
       18
102
RTVSPost2010Prop41ColorRGB
 90
        0
102
RTVSPost2010PropOp41
 70
     1
102
RTVSPost2010Prop42
 90
       50
102
RTVSPost2010PropOp42
 70
     1
102
RTVSPost2010Prop43
 90
        3
102
RTVSPost2010PropOp43
 70
     1
102
RTVSPost2010Prop44ColorIndex
 90
        5
102
RTVSPost2010Prop44ColorRGB
 90
      255
102
RTVSPost2010PropOp44
 70
     1
102
RTVSPost2010Prop45
280
     0
102
RTVSPost2010PropOp45
 70
     1
102
RTVSPost2010Prop46
 90
       50
102
RTVSPost2010PropOp46
 70
     1
102
RTVSPost2010Prop47
 90
       50
102
RTVSPost2010PropOp47
 70
     1
102
RTVSPost2010Prop48
 90
       50
102
RTVSPost2010PropOp48
 70
     1
102
RTVSPost2010Prop49
280
     0
102
RTVSPost2010PropOp49
 70
     1
102
RTVSPost2010Prop50
 90
       50
102
RTVSPost2010PropOp50
 70
     1
102
RTVSPost2010Prop51ColorIndex
 90
      256
102
RTVSPost2010Prop51ColorRGB
 90
-16777216
102
RTVSPost2010PropOp51
 70
     0
102
RTVSPost2010Prop52
140
1.0
102
RTVSPost2010PropOp52
 70
     0
102
RTVSPost2010Prop53
 90
        2
102
RTVSPost2010PropOp53
 70
     1
102
RTVSPost2010Prop54
  1
strokes_ogs.tif
102
RTVSPost2010PropOp54
 70
     1
102
RTVSPost2010Prop55
280
     0
102
RTVSPost2010PropOp55
 70
     1
102
RTVSPost2010Prop56
140
1.0
102
RTVSPost2010PropOp56
 70
     1
102
RTVSPost2010Prop57
140
1.0
102
RTVSPost2010PropOp57
 70
     1
102
RTVSPropertyOp0
 70
     1
102
RTVSPropertyOp1
 70
     1
102
RTVSPropertyOp2
 70
     1
102
RTVSPropertyOp3
 70
     1
102
RTVSPropertyOp4
 70
     1
102
RTVSPropertyOp5
 70
     1
102
RTVSPropertyOp6
 70
     1
102
RTVSPropertyOp7
 70
     1
102
RTVSPropertyOp8
 70
     1
102
RTVSPropertyOp9
 70
     1
102
RTVSPropertyOp10
 70
     1
102
RTVSPropertyOp11
 70
     1
102
RTVSPropertyOp12
 70
     1
102
RTVSPropertyOp13
 70
     1
102
RTVSPropertyOp14
 70
     1
102
RTVSPropertyOp15
 70
     1
102
RTVSPropertyOp16
 70
     1
102
RTVSPropertyOp17
 70
     1
102
RTVSPropertyOp18
 70
     1
102
RTVSPropertyOp19
 70
     1
102
RTVSPropertyOp20
 70
     1
102
RTVSPropertyOp21
 70
     1
102
RTVSPropertyOp22
 70
     1
102
RTVSPropertyOp23
 70
     1
102
RTVSPropertyOp24
 70
     1
102
RTVSPropertyOp25
 70
     1
102
RTVSPropertyOp26
 70
     1
102
RTVSPropertyOp27
 70
     1
102
RTVSPropertyOp28
 70
     1
102
RTVSPropertyOp29
 70
     1
102
RTVSPropertyOp30
 70
     1
102
RTVSPropertyOp31
 70
     1
102
RTVSPropertyOp32
 70
     1
102
RTVSPropertyOp33
 70
     1
102
RTVSPropertyOp34
 70
     1
102
RTVSPropertyOp35
 70
     1
102
RTVSPropertyOp36
 70
     1
102
RTVSPropertyOp37
 70
     1
102
RTVSPropertyOp38
 70
     1
102
RTVSPropertyOp39
 70
     1
102
RTVSPropertyOp40
 70
     1
102
RTVSPropertyOp41
 70
     1
102
RTVSPropertyOp42
 70
     1
102
RTVSPropertyOp43
 70
     1
102
RTVSPropertyOp44
 70
     1
102
RTVSPropertyOp45
 70
     1
102
RTVSPropertyOp46
 70
     1
102
RTVSPropertyOp47
 70
     1
102
RTVSPropertyOp48
 70
     1
102
RTVSPropertyOp49
 70
     1
102
RTVSPropertyOp50
 70
     1
102
RTVSPropertyOp51
 70
     0
102
RTVSPropertyOp52
 70
     0
102
RTVSPropertyOp53
 70
     1
102
RTVSPropertyOp54
 70
     1
102
RTVSPropertyOp55
 70
     1
102
RTVSPropertyOp56
 70
     1
102
RTVSPropertyOp57
 70
     1
102
RTVSPropertyOp58
 70
     1
102
RTVSPropertyOp59
 70
     1
102
RTVSPropertyOp60
 70
     1
102
RTVSPropertyOp61
 70
     1
102
RTVSPropertyOp62
 70
     1
  0
XRECORD
  5
9AD
102
{ACAD_REACTORS
330
9AC
102
}
330
9AC
100
AcDbXrecord
280
     1
102
RTVSPost2010Prop28
280
     0
102
RTVSPost2010PropOp28
 70
     1
102
RTVSPost2010Prop29
280
     1
102
RTVSPost2010PropOp29
 70
     1
102
RTVSPost2010Prop30
280
     1
102
RTVSPost2010PropOp30
 70
     1
102
RTVSPost2010Prop31
280
     0
102
RTVSPost2010PropOp31
 70
     1
102
RTVSPost2010Prop32
280
     0
102
RTVSPost2010PropOp32
 70
     1
102
RTVSPost2010Prop33
280
     0
102
RTVSPost2010PropOp33
 70
     1
102
RTVSPost2010Prop34
280
     0
102
RTVSPost2010PropOp34
 70
     1
102
RTVSPost2010Prop35
280
     0
102
RTVSPost2010PropOp35
 70
     1
102
RTVSPost2010Prop36
280
     0
102
RTVSPost2010PropOp36
 70
     1
102
RTVSPost2010Prop37
 90
       50
102
RTVSPost2010PropOp37
 70
     1
102
RTVSPost2010Prop38
140
0.0
102
RTVSPost2010PropOp38
 70
     1
102
RTVSPost2010Prop39
140
1.0
102
RTVSPost2010PropOp39
 70
     1
102
RTVSPost2010Prop40
 90
        0
102
RTVSPost2010PropOp40
 70
     1
102
RTVSPost2010Prop41ColorIndex
 90
       18
102
RTVSPost2010Prop41ColorRGB
 90
        0
102
RTVSPost2010PropOp41
 70
     1
102
RTVSPost2010Prop42
 90
       50
102
RTVSPost2010PropOp42
 70
     1
102
RTVSPost2010Prop43
 90
        3
102
RTVSPost2010PropOp43
 70
     1
102
RTVSPost2010Prop44ColorIndex
 90
        5
102
RTVSPost2010Prop44ColorRGB
 90
      255
102
RTVSPost2010PropOp44
 70
     1
102
RTVSPost2010Prop45
280
     0
102
RTVSPost2010PropOp45
 70
     1
102
RTVSPost2010Prop46
 90
       50
102
RTVSPost2010PropOp46
 70
     1
102
RTVSPost2010Prop47
 90
       50
102
RTVSPost2010PropOp47
 70
     1
102
RTVSPost2010Prop48
 90
       50
102
RTVSPost2010PropOp48
 70
     1
102
RTVSPost2010Prop49
280
     0
102
RTVSPost2010PropOp49
 70
     1
102
RTVSPost2010Prop50
 90
       50
102
RTVSPost2010PropOp50
 70
     1
102
RTVSPost2010Prop51ColorIndex
 90
      256
102
RTVSPost2010Prop51ColorRGB
 90
-16777216
102
RTVSPost2010PropOp51
 70
     0
102
RTVSPost2010Prop52
140
1.0
102
RTVSPost2010PropOp52
 70
     0
102
RTVSPost2010Prop53
 90
        2
102
RTVSPost2010PropOp53
 70
     1
102
RTVSPost2010Prop54
  1
strokes_ogs.tif
102
RTVSPost2010PropOp54
 70
     1
102
RTVSPost2010Prop55
280
     0
102
RTVSPost2010PropOp55
 70
     1
102
RTVSPost2010Prop56
140
1.0
102
RTVSPost2010PropOp56
 70
     1
102
RTVSPost2010Prop57
140
1.0
102
RTVSPost2010PropOp57
 70
     1
102
RTVSPropertyOp0
 70
     1
102
RTVSPropertyOp1
 70
     1
102
RTVSPropertyOp2
 70
     1
102
RTVSPropertyOp3
 70
     1
102
RTVSPropertyOp4
 70
     1
102
RTVSPropertyOp5
 70
     1
102
RTVSPropertyOp6
 70
     1
102
RTVSPropertyOp7
 70
     1
102
RTVSPropertyOp8
 70
     1
102
RTVSPropertyOp9
 70
     1
102
RTVSPropertyOp10
 70
     1
102
RTVSPropertyOp11
 70
     1
102
RTVSPropertyOp12
 70
     1
102
RTVSPropertyOp13
 70
     1
102
RTVSPropertyOp14
 70
     1
102
RTVSPropertyOp15
 70
     1
102
RTVSPropertyOp16
 70
     1
102
RTVSPropertyOp17
 70
     1
102
RTVSPropertyOp18
 70
     1
102
RTVSPropertyOp19
 70
     1
102
RTVSPropertyOp20
 70
     1
102
RTVSPropertyOp21
 70
     1
102
RTVSPropertyOp22
 70
     1
102
RTVSPropertyOp23
 70
     1
102
RTVSPropertyOp24
 70
     1
102
RTVSPropertyOp25
 70
     1
102
RTVSPropertyOp26
 70
     1
102
RTVSPropertyOp27
 70
     1
102
RTVSPropertyOp28
 70
     1
102
RTVSPropertyOp29
 70
     1
102
RTVSPropertyOp30
 70
     1
102
RTVSPropertyOp31
 70
     1
102
RTVSPropertyOp32
 70
     1
102
RTVSPropertyOp33
 70
     1
102
RTVSPropertyOp34
 70
     1
102
RTVSPropertyOp35
 70
     1
102
RTVSPropertyOp36
 70
     1
102
RTVSPropertyOp37
 70
     1
102
RTVSPropertyOp38
 70
     1
102
RTVSPropertyOp39
 70
     1
102
RTVSPropertyOp40
 70
     1
102
RTVSPropertyOp41
 70
     1
102
RTVSPropertyOp42
 70
     1
102
RTVSPropertyOp43
 70
     1
102
RTVSPropertyOp44
 70
     1
102
RTVSPropertyOp45
 70
     1
102
RTVSPropertyOp46
 70
     1
102
RTVSPropertyOp47
 70
     1
102
RTVSPropertyOp48
 70
     1
102
RTVSPropertyOp49
 70
     1
102
RTVSPropertyOp50
 70
     1
102
RTVSPropertyOp51
 70
     0
102
RTVSPropertyOp52
 70
     0
102
RTVSPropertyOp53
 70
     1
102
RTVSPropertyOp54
 70
     1
102
RTVSPropertyOp55
 70
     1
102
RTVSPropertyOp56
 70
     1
102
RTVSPropertyOp57
 70
     1
102
RTVSPropertyOp58
 70
     1
102
RTVSPropertyOp59
 70
     1
102
RTVSPropertyOp60
 70
     1
102
RTVSPropertyOp61
 70
     1
102
RTVSPropertyOp62
 70
     1
  0
XRECORD
  5
9B5
102
{ACAD_REACTORS
330
9B4
102
}
330
9B4
100
AcDbXrecord
280
     1
102
RTVSPost2010Prop28
280
     0
102
RTVSPost2010PropOp28
 70
     1
102
RTVSPost2010Prop29
280
     1
102
RTVSPost2010PropOp29
 70
     1
102
RTVSPost2010Prop30
280
     1
102
RTVSPost2010PropOp30
 70
     1
102
RTVSPost2010Prop31
280
     0
102
RTVSPost2010PropOp31
 70
     1
102
RTVSPost2010Prop32
280
     0
102
RTVSPost2010PropOp32
 70
     1
102
RTVSPost2010Prop33
280
     0
102
RTVSPost2010PropOp33
 70
     1
102
RTVSPost2010Prop34
280
     0
102
RTVSPost2010PropOp34
 70
     1
102
RTVSPost2010Prop35
280
     0
102
RTVSPost2010PropOp35
 70
     1
102
RTVSPost2010Prop36
280
     0
102
RTVSPost2010PropOp36
 70
     1
102
RTVSPost2010Prop37
 90
       50
102
RTVSPost2010PropOp37
 70
     1
102
RTVSPost2010Prop38
140
0.0
102
RTVSPost2010PropOp38
 70
     1
102
RTVSPost2010Prop39
140
1.0
102
RTVSPost2010PropOp39
 70
     1
102
RTVSPost2010Prop40
 90
        0
102
RTVSPost2010PropOp40
 70
     1
102
RTVSPost2010Prop41ColorIndex
 90
       18
102
RTVSPost2010Prop41ColorRGB
 90
        0
102
RTVSPost2010PropOp41
 70
     1
102
RTVSPost2010Prop42
 90
       50
102
RTVSPost2010PropOp42
 70
     1
102
RTVSPost2010Prop43
 90
        3
102
RTVSPost2010PropOp43
 70
     1
102
RTVSPost2010Prop44ColorIndex
 90
        5
102
RTVSPost2010Prop44ColorRGB
 90
      255
102
RTVSPost2010PropOp44
 70
     1
102
RTVSPost2010Prop45
280
     0
102
RTVSPost2010PropOp45
 70
     1
102
RTVSPost2010Prop46
 90
       50
102
RTVSPost2010PropOp46
 70
     1
102
RTVSPost2010Prop47
 90
       50
102
RTVSPost2010PropOp47
 70
     1
102
RTVSPost2010Prop48
 90
       50
102
RTVSPost2010PropOp48
 70
     1
102
RTVSPost2010Prop49
280
     0
102
RTVSPost2010PropOp49
 70
     1
102
RTVSPost2010Prop50
 90
       50
102
RTVSPost2010PropOp50
 70
     1
102
RTVSPost2010Prop51ColorIndex
 90
      256
102
RTVSPost2010Prop51ColorRGB
 90
-16777216
102
RTVSPost2010PropOp51
 70
     0
102
RTVSPost2010Prop52
140
1.0
102
RTVSPost2010PropOp52
 70
     0
102
RTVSPost2010Prop53
 90
        2
102
RTVSPost2010PropOp53
 70
     1
102
RTVSPost2010Prop54
  1
strokes_ogs.tif
102
RTVSPost2010PropOp54
 70
     1
102
RTVSPost2010Prop55
280
     0
102
RTVSPost2010PropOp55
 70
     1
102
RTVSPost2010Prop56
140
1.0
102
RTVSPost2010PropOp56
 70
     1
102
RTVSPost2010Prop57
140
1.0
102
RTVSPost2010PropOp57
 70
     1
102
RTVSPropertyOp0
 70
     1
102
RTVSPropertyOp1
 70
     1
102
RTVSPropertyOp2
 70
     1
102
RTVSPropertyOp3
 70
     1
102
RTVSPropertyOp4
 70
     1
102
RTVSPropertyOp5
 70
     1
102
RTVSPropertyOp6
 70
     1
102
RTVSPropertyOp7
 70
     1
102
RTVSPropertyOp8
 70
     1
102
RTVSPropertyOp9
 70
     1
102
RTVSPropertyOp10
 70
     1
102
RTVSPropertyOp11
 70
     1
102
RTVSPropertyOp12
 70
     1
102
RTVSPropertyOp13
 70
     1
102
RTVSPropertyOp14
 70
     1
102
RTVSPropertyOp15
 70
     1
102
RTVSPropertyOp16
 70
     1
102
RTVSPropertyOp17
 70
     1
102
RTVSPropertyOp18
 70
     1
102
RTVSPropertyOp19
 70
     1
102
RTVSPropertyOp20
 70
     1
102
RTVSPropertyOp21
 70
     1
102
RTVSPropertyOp22
 70
     1
102
RTVSPropertyOp23
 70
     1
102
RTVSPropertyOp24
 70
     1
102
RTVSPropertyOp25
 70
     1
102
RTVSPropertyOp26
 70
     1
102
RTVSPropertyOp27
 70
     1
102
RTVSPropertyOp28
 70
     1
102
RTVSPropertyOp29
 70
     1
102
RTVSPropertyOp30
 70
     1
102
RTVSPropertyOp31
 70
     1
102
RTVSPropertyOp32
 70
     1
102
RTVSPropertyOp33
 70
     1
102
RTVSPropertyOp34
 70
     1
102
RTVSPropertyOp35
 70
     1
102
RTVSPropertyOp36
 70
     1
102
RTVSPropertyOp37
 70
     1
102
RTVSPropertyOp38
 70
     1
102
RTVSPropertyOp39
 70
     1
102
RTVSPropertyOp40
 70
     1
102
RTVSPropertyOp41
 70
     1
102
RTVSPropertyOp42
 70
     1
102
RTVSPropertyOp43
 70
     1
102
RTVSPropertyOp44
 70
     1
102
RTVSPropertyOp45
 70
     1
102
RTVSPropertyOp46
 70
     1
102
RTVSPropertyOp47
 70
     1
102
RTVSPropertyOp48
 70
     1
102
RTVSPropertyOp49
 70
     1
102
RTVSPropertyOp50
 70
     1
102
RTVSPropertyOp51
 70
     0
102
RTVSPropertyOp52
 70
     0
102
RTVSPropertyOp53
 70
     1
102
RTVSPropertyOp54
 70
     1
102
RTVSPropertyOp55
 70
     1
102
RTVSPropertyOp56
 70
     1
102
RTVSPropertyOp57
 70
     1
102
RTVSPropertyOp58
 70
     1
102
RTVSPropertyOp59
 70
     1
102
RTVSPropertyOp60
 70
     1
102
RTVSPropertyOp61
 70
     1
102
RTVSPropertyOp62
 70
     1
  0
XRECORD
  5
9C9
102
{ACAD_REACTORS
330
9C8
102
}
330
9C8
100
AcDbXrecord
280
     1
102
RTVSPost2010Prop28
280
     0
102
RTVSPost2010PropOp28
 70
     1
102
RTVSPost2010Prop29
280
     1
102
RTVSPost2010PropOp29
 70
     1
102
RTVSPost2010Prop30
280
     1
102
RTVSPost2010PropOp30
 70
     1
102
RTVSPost2010Prop31
280
     0
102
RTVSPost2010PropOp31
 70
     1
102
RTVSPost2010Prop32
280
     0
102
RTVSPost2010PropOp32
 70
     1
102
RTVSPost2010Prop33
280
     0
102
RTVSPost2010PropOp33
 70
     1
102
RTVSPost2010Prop34
280
     0
102
RTVSPost2010PropOp34
 70
     1
102
RTVSPost2010Prop35
280
     0
102
RTVSPost2010PropOp35
 70
     1
102
RTVSPost2010Prop36
280
     0
102
RTVSPost2010PropOp36
 70
     1
102
RTVSPost2010Prop37
 90
       50
102
RTVSPost2010PropOp37
 70
     1
102
RTVSPost2010Prop38
140
0.0
102
RTVSPost2010PropOp38
 70
     1
102
RTVSPost2010Prop39
140
1.0
102
RTVSPost2010PropOp39
 70
     1
102
RTVSPost2010Prop40
 90
        0
102
RTVSPost2010PropOp40
 70
     1
102
RTVSPost2010Prop41ColorIndex
 90
       18
102
RTVSPost2010Prop41ColorRGB
 90
        0
102
RTVSPost2010PropOp41
 70
     1
102
RTVSPost2010Prop42
 90
       50
102
RTVSPost2010PropOp42
 70
     1
102
RTVSPost2010Prop43
 90
        3
102
RTVSPost2010PropOp43
 70
     1
102
RTVSPost2010Prop44ColorIndex
 90
        5
102
RTVSPost2010Prop44ColorRGB
 90
      255
102
RTVSPost2010PropOp44
 70
     1
102
RTVSPost2010Prop45
280
     0
102
RTVSPost2010PropOp45
 70
     1
102
RTVSPost2010Prop46
 90
       50
102
RTVSPost2010PropOp46
 70
     1
102
RTVSPost2010Prop47
 90
       50
102
RTVSPost2010PropOp47
 70
     1
102
RTVSPost2010Prop48
 90
       50
102
RTVSPost2010PropOp48
 70
     1
102
RTVSPost2010Prop49
280
     0
102
RTVSPost2010PropOp49
 70
     1
102
RTVSPost2010Prop50
 90
       50
102
RTVSPost2010PropOp50
 70
     1
102
RTVSPost2010Prop51ColorIndex
 90
      256
102
RTVSPost2010Prop51ColorRGB
 90
-16777216
102
RTVSPost2010PropOp51
 70
     0
102
RTVSPost2010Prop52
140
1.0
102
RTVSPost2010PropOp52
 70
     0
102
RTVSPost2010Prop53
 90
        2
102
RTVSPost2010PropOp53
 70
     1
102
RTVSPost2010Prop54
  1
strokes_ogs.tif
102
RTVSPost2010PropOp54
 70
     1
102
RTVSPost2010Prop55
280
     0
102
RTVSPost2010PropOp55
 70
     1
102
RTVSPost2010Prop56
140
1.0
102
RTVSPost2010PropOp56
 70
     1
102
RTVSPost2010Prop57
140
1.0
102
RTVSPost2010PropOp57
 70
     1
102
RTVSPropertyOp0
 70
     0
102
RTVSPropertyOp1
 70
     0
102
RTVSPropertyOp2
 70
     0
102
RTVSPropertyOp3
 70
     0
102
RTVSPropertyOp4
 70
     0
102
RTVSPropertyOp5
 70
     0
102
RTVSPropertyOp6
 70
     0
102
RTVSPropertyOp7
 70
     0
102
RTVSPropertyOp8
 70
     0
102
RTVSPropertyOp9
 70
     0
102
RTVSPropertyOp10
 70
     0
102
RTVSPropertyOp11
 70
     0
102
RTVSPropertyOp12
 70
     0
102
RTVSPropertyOp13
 70
     0
102
RTVSPropertyOp14
 70
     2
102
RTVSPropertyOp15
 70
     0
102
RTVSPropertyOp16
 70
     0
102
RTVSPropertyOp17
 70
     0
102
RTVSPropertyOp18
 70
     0
102
RTVSPropertyOp19
 70
     0
102
RTVSPropertyOp20
 70
     0
102
RTVSPropertyOp21
 70
     0
102
RTVSPropertyOp22
 70
     0
102
RTVSPropertyOp23
 70
     0
102
RTVSPropertyOp24
 70
     0
102
RTVSPropertyOp25
 70
     0
102
RTVSPropertyOp26
 70
     0
102
RTVSPropertyOp27
 70
     0
102
RTVSPropertyOp28
 70
     1
102
RTVSPropertyOp29
 70
     1
102
RTVSPropertyOp30
 70
     1
102
RTVSPropertyOp31
 70
     1
102
RTVSPropertyOp32
 70
     1
102
RTVSPropertyOp33
 70
     1
102
RTVSPropertyOp34
 70
     1
102
RTVSPropertyOp35
 70
     1
102
RTVSPropertyOp36
 70
     1
102
RTVSPropertyOp37
 70
     1
102
RTVSPropertyOp38
 70
     1
102
RTVSPropertyOp39
 70
     1
102
RTVSPropertyOp40
 70
     1
102
RTVSPropertyOp41
 70
     1
102
RTVSPropertyOp42
 70
     1
102
RTVSPropertyOp43
 70
     1
102
RTVSPropertyOp44
 70
     1
102
RTVSPropertyOp45
 70
     1
102
RTVSPropertyOp46
 70
     1
102
RTVSPropertyOp47
 70
     1
102
RTVSPropertyOp48
 70
     1
102
RTVSPropertyOp49
 70
     1
102
RTVSPropertyOp50
 70
     1
102
RTVSPropertyOp51
 70
     0
102
RTVSPropertyOp52
 70
     0
102
RTVSPropertyOp53
 70
     1
102
RTVSPropertyOp54
 70
     1
102
RTVSPropertyOp55
 70
     1
102
RTVSPropertyOp56
 70
     1
102
RTVSPropertyOp57
 70
     1
102
RTVSPropertyOp58
 70
     1
102
RTVSPropertyOp59
 70
     1
102
RTVSPropertyOp60
 70
     1
102
RTVSPropertyOp61
 70
     1
102
RTVSPropertyOp62
 70
     1
  0
XRECORD
  5
9C1
102
{ACAD_REACTORS
330
9C0
102
}
330
9C0
100
AcDbXrecord
280
     1
102
RTVSPost2010Prop28
280
     0
102
RTVSPost2010PropOp28
 70
     1
102
RTVSPost2010Prop29
280
     1
102
RTVSPost2010PropOp29
 70
     1
102
RTVSPost2010Prop30
280
     1
102
RTVSPost2010PropOp30
 70
     1
102
RTVSPost2010Prop31
280
     0
102
RTVSPost2010PropOp31
 70
     1
102
RTVSPost2010Prop32
280
     0
102
RTVSPost2010PropOp32
 70
     1
102
RTVSPost2010Prop33
280
     0
102
RTVSPost2010PropOp33
 70
     1
102
RTVSPost2010Prop34
280
     0
102
RTVSPost2010PropOp34
 70
     1
102
RTVSPost2010Prop35
280
     0
102
RTVSPost2010PropOp35
 70
     1
102
RTVSPost2010Prop36
280
     0
102
RTVSPost2010PropOp36
 70
     1
102
RTVSPost2010Prop37
 90
       50
102
RTVSPost2010PropOp37
 70
     1
102
RTVSPost2010Prop38
140
0.0
102
RTVSPost2010PropOp38
 70
     1
102
RTVSPost2010Prop39
140
1.0
102
RTVSPost2010PropOp39
 70
     1
102
RTVSPost2010Prop40
 90
        0
102
RTVSPost2010PropOp40
 70
     1
102
RTVSPost2010Prop41ColorIndex
 90
       18
102
RTVSPost2010Prop41ColorRGB
 90
        0
102
RTVSPost2010PropOp41
 70
     1
102
RTVSPost2010Prop42
 90
       50
102
RTVSPost2010PropOp42
 70
     1
102
RTVSPost2010Prop43
 90
        3
102
RTVSPost2010PropOp43
 70
     1
102
RTVSPost2010Prop44ColorIndex
 90
        5
102
RTVSPost2010Prop44ColorRGB
 90
      255
102
RTVSPost2010PropOp44
 70
     1
102
RTVSPost2010Prop45
280
     0
102
RTVSPost2010PropOp45
 70
     1
102
RTVSPost2010Prop46
 90
       50
102
RTVSPost2010PropOp46
 70
     1
102
RTVSPost2010Prop47
 90
       50
102
RTVSPost2010PropOp47
 70
     1
102
RTVSPost2010Prop48
 90
       50
102
RTVSPost2010PropOp48
 70
     1
102
RTVSPost2010Prop49
280
     0
102
RTVSPost2010PropOp49
 70
     1
102
RTVSPost2010Prop50
 90
       50
102
RTVSPost2010PropOp50
 70
     1
102
RTVSPost2010Prop51ColorIndex
 90
      256
102
RTVSPost2010Prop51ColorRGB
 90
-16777216
102
RTVSPost2010PropOp51
 70
     0
102
RTVSPost2010Prop52
140
1.0
102
RTVSPost2010PropOp52
 70
     0
102
RTVSPost2010Prop53
 90
        2
102
RTVSPost2010PropOp53
 70
     1
102
RTVSPost2010Prop54
  1
strokes_ogs.tif
102
RTVSPost2010PropOp54
 70
     1
102
RTVSPost2010Prop55
280
     0
102
RTVSPost2010PropOp55
 70
     1
102
RTVSPost2010Prop56
140
1.0
102
RTVSPost2010PropOp56
 70
     1
102
RTVSPost2010Prop57
140
1.0
102
RTVSPost2010PropOp57
 70
     1
102
RTVSPropertyOp0
 70
     1
102
RTVSPropertyOp1
 70
     1
102
RTVSPropertyOp2
 70
     1
102
RTVSPropertyOp3
 70
     1
102
RTVSPropertyOp4
 70
     1
102
RTVSPropertyOp5
 70
     1
102
RTVSPropertyOp6
 70
     1
102
RTVSPropertyOp7
 70
     1
102
RTVSPropertyOp8
 70
     1
102
RTVSPropertyOp9
 70
     1
102
RTVSPropertyOp10
 70
     1
102
RTVSPropertyOp11
 70
     1
102
RTVSPropertyOp12
 70
     1
102
RTVSPropertyOp13
 70
     1
102
RTVSPropertyOp14
 70
     1
102
RTVSPropertyOp15
 70
     1
102
RTVSPropertyOp16
 70
     1
102
RTVSPropertyOp17
 70
     1
102
RTVSPropertyOp18
 70
     1
102
RTVSPropertyOp19
 70
     1
102
RTVSPropertyOp20
 70
     1
102
RTVSPropertyOp21
 70
     1
102
RTVSPropertyOp22
 70
     1
102
RTVSPropertyOp23
 70
     1
102
RTVSPropertyOp24
 70
     1
102
RTVSPropertyOp25
 70
     1
102
RTVSPropertyOp26
 70
     1
102
RTVSPropertyOp27
 70
     1
102
RTVSPropertyOp28
 70
     1
102
RTVSPropertyOp29
 70
     1
102
RTVSPropertyOp30
 70
     1
102
RTVSPropertyOp31
 70
     1
102
RTVSPropertyOp32
 70
     1
102
RTVSPropertyOp33
 70
     1
102
RTVSPropertyOp34
 70
     1
102
RTVSPropertyOp35
 70
     1
102
RTVSPropertyOp36
 70
     1
102
RTVSPropertyOp37
 70
     1
102
RTVSPropertyOp38
 70
     1
102
RTVSPropertyOp39
 70
     1
102
RTVSPropertyOp40
 70
     1
102
RTVSPropertyOp41
 70
     1
102
RTVSPropertyOp42
 70
     1
102
RTVSPropertyOp43
 70
     1
102
RTVSPropertyOp44
 70
     1
102
RTVSPropertyOp45
 70
     1
102
RTVSPropertyOp46
 70
     1
102
RTVSPropertyOp47
 70
     1
102
RTVSPropertyOp48
 70
     1
102
RTVSPropertyOp49
 70
     1
102
RTVSPropertyOp50
 70
     1
102
RTVSPropertyOp51
 70
     0
102
RTVSPropertyOp52
 70
     0
102
RTVSPropertyOp53
 70
     1
102
RTVSPropertyOp54
 70
     1
102
RTVSPropertyOp55
 70
     1
102
RTVSPropertyOp56
 70
     1
102
RTVSPropertyOp57
 70
     1
102
RTVSPropertyOp58
 70
     1
102
RTVSPropertyOp59
 70
     1
102
RTVSPropertyOp60
 70
     1
102
RTVSPropertyOp61
 70
     1
102
RTVSPropertyOp62
 70
     1
  0
XRECORD
  5
9CB
102
{ACAD_REACTORS
330
9CA
102
}
330
9CA
100
AcDbXrecord
280
     1
102
RTVSPost2010Prop28
280
     0
102
RTVSPost2010PropOp28
 70
     1
102
RTVSPost2010Prop29
280
     1
102
RTVSPost2010PropOp29
 70
     1
102
RTVSPost2010Prop30
280
     1
102
RTVSPost2010PropOp30
 70
     1
102
RTVSPost2010Prop31
280
     0
102
RTVSPost2010PropOp31
 70
     1
102
RTVSPost2010Prop32
280
     0
102
RTVSPost2010PropOp32
 70
     1
102
RTVSPost2010Prop33
280
     0
102
RTVSPost2010PropOp33
 70
     1
102
RTVSPost2010Prop34
280
     0
102
RTVSPost2010PropOp34
 70
     1
102
RTVSPost2010Prop35
280
     0
102
RTVSPost2010PropOp35
 70
     1
102
RTVSPost2010Prop36
280
     0
102
RTVSPost2010PropOp36
 70
     1
102
RTVSPost2010Prop37
 90
       50
102
RTVSPost2010PropOp37
 70
     1
102
RTVSPost2010Prop38
140
0.0
102
RTVSPost2010PropOp38
 70
     1
102
RTVSPost2010Prop39
140
1.0
102
RTVSPost2010PropOp39
 70
     1
102
RTVSPost2010Prop40
 90
        0
102
RTVSPost2010PropOp40
 70
     1
102
RTVSPost2010Prop41ColorIndex
 90
       18
102
RTVSPost2010Prop41ColorRGB
 90
        0
102
RTVSPost2010PropOp41
 70
     1
102
RTVSPost2010Prop42
 90
       50
102
RTVSPost2010PropOp42
 70
     1
102
RTVSPost2010Prop43
 90
        3
102
RTVSPost2010PropOp43
 70
     1
102
RTVSPost2010Prop44ColorIndex
 90
        5
102
RTVSPost2010Prop44ColorRGB
 90
      255
102
RTVSPost2010PropOp44
 70
     1
102
RTVSPost2010Prop45
280
     0
102
RTVSPost2010PropOp45
 70
     1
102
RTVSPost2010Prop46
 90
       50
102
RTVSPost2010PropOp46
 70
     1
102
RTVSPost2010Prop47
 90
       50
102
RTVSPost2010PropOp47
 70
     1
102
RTVSPost2010Prop48
 90
       50
102
RTVSPost2010PropOp48
 70
     1
102
RTVSPost2010Prop49
280
     0
102
RTVSPost2010PropOp49
 70
     1
102
RTVSPost2010Prop50
 90
       50
102
RTVSPost2010PropOp50
 70
     1
102
RTVSPost2010Prop51ColorIndex
 90
      256
102
RTVSPost2010Prop51ColorRGB
 90
-16777216
102
RTVSPost2010PropOp51
 70
     0
102
RTVSPost2010Prop52
140
1.0
102
RTVSPost2010PropOp52
 70
     0
102
RTVSPost2010Prop53
 90
        2
102
RTVSPost2010PropOp53
 70
     1
102
RTVSPost2010Prop54
  1
strokes_ogs.tif
102
RTVSPost2010PropOp54
 70
     1
102
RTVSPost2010Prop55
280
     0
102
RTVSPost2010PropOp55
 70
     1
102
RTVSPost2010Prop56
140
1.0
102
RTVSPost2010PropOp56
 70
     1
102
RTVSPost2010Prop57
140
1.0
102
RTVSPost2010PropOp57
 70
     1
102
RTVSPropertyOp0
 70
     0
102
RTVSPropertyOp1
 70
     0
102
RTVSPropertyOp2
 70
     0
102
RTVSPropertyOp3
 70
     0
102
RTVSPropertyOp4
 70
     0
102
RTVSPropertyOp5
 70
     0
102
RTVSPropertyOp6
 70
     0
102
RTVSPropertyOp7
 70
     0
102
RTVSPropertyOp8
 70
     0
102
RTVSPropertyOp9
 70
     0
102
RTVSPropertyOp10
 70
     0
102
RTVSPropertyOp11
 70
     0
102
RTVSPropertyOp12
 70
     0
102
RTVSPropertyOp13
 70
     0
102
RTVSPropertyOp14
 70
     2
102
RTVSPropertyOp15
 70
     0
102
RTVSPropertyOp16
 70
     0
102
RTVSPropertyOp17
 70
     0
102
RTVSPropertyOp18
 70
     0
102
RTVSPropertyOp19
 70
     0
102
RTVSPropertyOp20
 70
     0
102
RTVSPropertyOp21
 70
     0
102
RTVSPropertyOp22
 70
     0
102
RTVSPropertyOp23
 70
     0
102
RTVSPropertyOp24
 70
     0
102
RTVSPropertyOp25
 70
     0
102
RTVSPropertyOp26
 70
     0
102
RTVSPropertyOp27
 70
     0
102
RTVSPropertyOp28
 70
     1
102
RTVSPropertyOp29
 70
     1
102
RTVSPropertyOp30
 70
     1
102
RTVSPropertyOp31
 70
     1
102
RTVSPropertyOp32
 70
     1
102
RTVSPropertyOp33
 70
     1
102
RTVSPropertyOp34
 70
     1
102
RTVSPropertyOp35
 70
     1
102
RTVSPropertyOp36
 70
     1
102
RTVSPropertyOp37
 70
     1
102
RTVSPropertyOp38
 70
     1
102
RTVSPropertyOp39
 70
     1
102
RTVSPropertyOp40
 70
     1
102
RTVSPropertyOp41
 70
     1
102
RTVSPropertyOp42
 70
     1
102
RTVSPropertyOp43
 70
     1
102
RTVSPropertyOp44
 70
     1
102
RTVSPropertyOp45
 70
     1
102
RTVSPropertyOp46
 70
     1
102
RTVSPropertyOp47
 70
     1
102
RTVSPropertyOp48
 70
     1
102
RTVSPropertyOp49
 70
     1
102
RTVSPropertyOp50
 70
     1
102
RTVSPropertyOp51
 70
     0
102
RTVSPropertyOp52
 70
     0
102
RTVSPropertyOp53
 70
     1
102
RTVSPropertyOp54
 70
     1
102
RTVSPropertyOp55
 70
     1
102
RTVSPropertyOp56
 70
     1
102
RTVSPropertyOp57
 70
     1
102
RTVSPropertyOp58
 70
     1
102
RTVSPropertyOp59
 70
     1
102
RTVSPropertyOp60
 70
     1
102
RTVSPropertyOp61
 70
     1
102
RTVSPropertyOp62
 70
     1
  0
XRECORD
  5
9B9
102
{ACAD_REACTORS
330
9B8
102
}
330
9B8
100
AcDbXrecord
280
     1
102
RTVSPost2010Prop28
280
     0
102
RTVSPost2010PropOp28
 70
     1
102
RTVSPost2010Prop29
280
     1
102
RTVSPost2010PropOp29
 70
     1
102
RTVSPost2010Prop30
280
     1
102
RTVSPost2010PropOp30
 70
     1
102
RTVSPost2010Prop31
280
     0
102
RTVSPost2010PropOp31
 70
     1
102
RTVSPost2010Prop32
280
     0
102
RTVSPost2010PropOp32
 70
     1
102
RTVSPost2010Prop33
280
     0
102
RTVSPost2010PropOp33
 70
     1
102
RTVSPost2010Prop34
280
     0
102
RTVSPost2010PropOp34
 70
     1
102
RTVSPost2010Prop35
280
     0
102
RTVSPost2010PropOp35
 70
     1
102
RTVSPost2010Prop36
280
     0
102
RTVSPost2010PropOp36
 70
     1
102
RTVSPost2010Prop37
 90
       50
102
RTVSPost2010PropOp37
 70
     1
102
RTVSPost2010Prop38
140
0.0
102
RTVSPost2010PropOp38
 70
     1
102
RTVSPost2010Prop39
140
1.0
102
RTVSPost2010PropOp39
 70
     1
102
RTVSPost2010Prop40
 90
        0
102
RTVSPost2010PropOp40
 70
     1
102
RTVSPost2010Prop41ColorIndex
 90
       18
102
RTVSPost2010Prop41ColorRGB
 90
        0
102
RTVSPost2010PropOp41
 70
     1
102
RTVSPost2010Prop42
 90
       50
102
RTVSPost2010PropOp42
 70
     1
102
RTVSPost2010Prop43
 90
        3
102
RTVSPost2010PropOp43
 70
     1
102
RTVSPost2010Prop44ColorIndex
 90
        5
102
RTVSPost2010Prop44ColorRGB
 90
      255
102
RTVSPost2010PropOp44
 70
     1
102
RTVSPost2010Prop45
280
     0
102
RTVSPost2010PropOp45
 70
     1
102
RTVSPost2010Prop46
 90
       50
102
RTVSPost2010PropOp46
 70
     1
102
RTVSPost2010Prop47
 90
       50
102
RTVSPost2010PropOp47
 70
     1
102
RTVSPost2010Prop48
 90
       50
102
RTVSPost2010PropOp48
 70
     1
102
RTVSPost2010Prop49
280
     0
102
RTVSPost2010PropOp49
 70
     1
102
RTVSPost2010Prop50
 90
       50
102
RTVSPost2010PropOp50
 70
     1
102
RTVSPost2010Prop51ColorIndex
 90
      256
102
RTVSPost2010Prop51ColorRGB
 90
-16777216
102
RTVSPost2010PropOp51
 70
     0
102
RTVSPost2010Prop52
140
1.0
102
RTVSPost2010PropOp52
 70
     0
102
RTVSPost2010Prop53
 90
        2
102
RTVSPost2010PropOp53
 70
     1
102
RTVSPost2010Prop54
  1
strokes_ogs.tif
102
RTVSPost2010PropOp54
 70
     1
102
RTVSPost2010Prop55
280
     0
102
RTVSPost2010PropOp55
 70
     1
102
RTVSPost2010Prop56
140
1.0
102
RTVSPost2010PropOp56
 70
     1
102
RTVSPost2010Prop57
140
1.0
102
RTVSPost2010PropOp57
 70
     1
102
RTVSPropertyOp0
 70
     1
102
RTVSPropertyOp1
 70
     1
102
RTVSPropertyOp2
 70
     1
102
RTVSPropertyOp3
 70
     1
102
RTVSPropertyOp4
 70
     1
102
RTVSPropertyOp5
 70
     1
102
RTVSPropertyOp6
 70
     1
102
RTVSPropertyOp7
 70
     1
102
RTVSPropertyOp8
 70
     1
102
RTVSPropertyOp9
 70
     1
102
RTVSPropertyOp10
 70
     1
102
RTVSPropertyOp11
 70
     1
102
RTVSPropertyOp12
 70
     1
102
RTVSPropertyOp13
 70
     1
102
RTVSPropertyOp14
 70
     1
102
RTVSPropertyOp15
 70
     1
102
RTVSPropertyOp16
 70
     1
102
RTVSPropertyOp17
 70
     1
102
RTVSPropertyOp18
 70
     1
102
RTVSPropertyOp19
 70
     1
102
RTVSPropertyOp20
 70
     1
102
RTVSPropertyOp21
 70
     1
102
RTVSPropertyOp22
 70
     1
102
RTVSPropertyOp23
 70
     1
102
RTVSPropertyOp24
 70
     1
102
RTVSPropertyOp25
 70
     1
102
RTVSPropertyOp26
 70
     1
102
RTVSPropertyOp27
 70
     1
102
RTVSPropertyOp28
 70
     1
102
RTVSPropertyOp29
 70
     1
102
RTVSPropertyOp30
 70
     1
102
RTVSPropertyOp31
 70
     1
102
RTVSPropertyOp32
 70
     1
102
RTVSPropertyOp33
 70
     1
102
RTVSPropertyOp34
 70
     1
102
RTVSPropertyOp35
 70
     1
102
RTVSPropertyOp36
 70
     1
102
RTVSPropertyOp37
 70
     1
102
RTVSPropertyOp38
 70
     1
102
RTVSPropertyOp39
 70
     1
102
RTVSPropertyOp40
 70
     1
102
RTVSPropertyOp41
 70
     1
102
RTVSPropertyOp42
 70
     1
102
RTVSPropertyOp43
 70
     1
102
RTVSPropertyOp44
 70
     1
102
RTVSPropertyOp45
 70
     1
102
RTVSPropertyOp46
 70
     1
102
RTVSPropertyOp47
 70
     1
102
RTVSPropertyOp48
 70
     1
102
RTVSPropertyOp49
 70
     1
102
RTVSPropertyOp50
 70
     1
102
RTVSPropertyOp51
 70
     0
102
RTVSPropertyOp52
 70
     0
102
RTVSPropertyOp53
 70
     1
102
RTVSPropertyOp54
 70
     1
102
RTVSPropertyOp55
 70
     1
102
RTVSPropertyOp56
 70
     1
102
RTVSPropertyOp57
 70
     1
102
RTVSPropertyOp58
 70
     1
102
RTVSPropertyOp59
 70
     1
102
RTVSPropertyOp60
 70
     1
102
RTVSPropertyOp61
 70
     1
102
RTVSPropertyOp62
 70
     1
  0
XRECORD
  5
9D7
102
{ACAD_REACTORS
330
9D6
102
}
330
9D6
100
AcDbXrecord
280
     1
102
RTVSPost2010Prop28
280
     0
102
RTVSPost2010PropOp28
 70
     1
102
RTVSPost2010Prop29
280
     1
102
RTVSPost2010PropOp29
 70
     1
102
RTVSPost2010Prop30
280
     1
102
RTVSPost2010PropOp30
 70
     1
102
RTVSPost2010Prop31
280
     0
102
RTVSPost2010PropOp31
 70
     1
102
RTVSPost2010Prop32
280
     0
102
RTVSPost2010PropOp32
 70
     1
102
RTVSPost2010Prop33
280
     0
102
RTVSPost2010PropOp33
 70
     1
102
RTVSPost2010Prop34
280
     0
102
RTVSPost2010PropOp34
 70
     1
102
RTVSPost2010Prop35
280
     0
102
RTVSPost2010PropOp35
 70
     1
102
RTVSPost2010Prop36
280
     0
102
RTVSPost2010PropOp36
 70
     1
102
RTVSPost2010Prop37
 90
       50
102
RTVSPost2010PropOp37
 70
     1
102
RTVSPost2010Prop38
140
0.0
102
RTVSPost2010PropOp38
 70
     1
102
RTVSPost2010Prop39
140
1.0
102
RTVSPost2010PropOp39
 70
     1
102
RTVSPost2010Prop40
 90
        0
102
RTVSPost2010PropOp40
 70
     1
102
RTVSPost2010Prop41ColorIndex
 90
       18
102
RTVSPost2010Prop41ColorRGB
 90
        0
102
RTVSPost2010PropOp41
 70
     1
102
RTVSPost2010Prop42
 90
       50
102
RTVSPost2010PropOp42
 70
     1
102
RTVSPost2010Prop43
 90
        3
102
RTVSPost2010PropOp43
 70
     1
102
RTVSPost2010Prop44ColorIndex
 90
        5
102
RTVSPost2010Prop44ColorRGB
 90
      255
102
RTVSPost2010PropOp44
 70
     1
102
RTVSPost2010Prop45
280
     0
102
RTVSPost2010PropOp45
 70
     1
102
RTVSPost2010Prop46
 90
       50
102
RTVSPost2010PropOp46
 70
     1
102
RTVSPost2010Prop47
 90
       50
102
RTVSPost2010PropOp47
 70
     1
102
RTVSPost2010Prop48
 90
       50
102
RTVSPost2010PropOp48
 70
     1
102
RTVSPost2010Prop49
280
     0
102
RTVSPost2010PropOp49
 70
     1
102
RTVSPost2010Prop50
 90
       50
102
RTVSPost2010PropOp50
 70
     1
102
RTVSPost2010Prop51ColorIndex
 90
      256
102
RTVSPost2010Prop51ColorRGB
 90
-16777216
102
RTVSPost2010PropOp51
 70
     0
102
RTVSPost2010Prop52
140
1.0
102
RTVSPost2010PropOp52
 70
     0
102
RTVSPost2010Prop53
 90
        2
102
RTVSPost2010PropOp53
 70
     1
102
RTVSPost2010Prop54
  1
strokes_ogs.tif
102
RTVSPost2010PropOp54
 70
     1
102
RTVSPost2010Prop55
280
     0
102
RTVSPost2010PropOp55
 70
     1
102
RTVSPost2010Prop56
140
1.0
102
RTVSPost2010PropOp56
 70
     1
102
RTVSPost2010Prop57
140
1.0
102
RTVSPost2010PropOp57
 70
     1
102
RTVSPropertyOp0
 70
     1
102
RTVSPropertyOp1
 70
     1
102
RTVSPropertyOp2
 70
     1
102
RTVSPropertyOp3
 70
     1
102
RTVSPropertyOp4
 70
     1
102
RTVSPropertyOp5
 70
     1
102
RTVSPropertyOp6
 70
     1
102
RTVSPropertyOp7
 70
     1
102
RTVSPropertyOp8
 70
     1
102
RTVSPropertyOp9
 70
     1
102
RTVSPropertyOp10
 70
     1
102
RTVSPropertyOp11
 70
     1
102
RTVSPropertyOp12
 70
     1
102
RTVSPropertyOp13
 70
     1
102
RTVSPropertyOp14
 70
     1
102
RTVSPropertyOp15
 70
     1
102
RTVSPropertyOp16
 70
     1
102
RTVSPropertyOp17
 70
     1
102
RTVSPropertyOp18
 70
     1
102
RTVSPropertyOp19
 70
     1
102
RTVSPropertyOp20
 70
     1
102
RTVSPropertyOp21
 70
     1
102
RTVSPropertyOp22
 70
     1
102
RTVSPropertyOp23
 70
     1
102
RTVSPropertyOp24
 70
     1
102
RTVSPropertyOp25
 70
     1
102
RTVSPropertyOp26
 70
     1
102
RTVSPropertyOp27
 70
     1
102
RTVSPropertyOp28
 70
     1
102
RTVSPropertyOp29
 70
     1
102
RTVSPropertyOp30
 70
     1
102
RTVSPropertyOp31
 70
     1
102
RTVSPropertyOp32
 70
     1
102
RTVSPropertyOp33
 70
     1
102
RTVSPropertyOp34
 70
     1
102
RTVSPropertyOp35
 70
     1
102
RTVSPropertyOp36
 70
     1
102
RTVSPropertyOp37
 70
     1
102
RTVSPropertyOp38
 70
     1
102
RTVSPropertyOp39
 70
     1
102
RTVSPropertyOp40
 70
     1
102
RTVSPropertyOp41
 70
     1
102
RTVSPropertyOp42
 70
     1
102
RTVSPropertyOp43
 70
     1
102
RTVSPropertyOp44
 70
     1
102
RTVSPropertyOp45
 70
     1
102
RTVSPropertyOp46
 70
     1
102
RTVSPropertyOp47
 70
     1
102
RTVSPropertyOp48
 70
     1
102
RTVSPropertyOp49
 70
     1
102
RTVSPropertyOp50
 70
     1
102
RTVSPropertyOp51
 70
     0
102
RTVSPropertyOp52
 70
     0
102
RTVSPropertyOp53
 70
     1
102
RTVSPropertyOp54
 70
     1
102
RTVSPropertyOp55
 70
     1
102
RTVSPropertyOp56
 70
     1
102
RTVSPropertyOp57
 70
     1
102
RTVSPropertyOp58
 70
     1
102
RTVSPropertyOp59
 70
     1
102
RTVSPropertyOp60
 70
     1
102
RTVSPropertyOp61
 70
     1
102
RTVSPropertyOp62
 70
     1
  0
XRECORD
  5
9D5
102
{ACAD_REACTORS
330
9D4
102
}
330
9D4
100
AcDbXrecord
280
     1
102
RTVSPost2010Prop28
280
     0
102
RTVSPost2010PropOp28
 70
     1
102
RTVSPost2010Prop29
280
     1
102
RTVSPost2010PropOp29
 70
     1
102
RTVSPost2010Prop30
280
     1
102
RTVSPost2010PropOp30
 70
     1
102
RTVSPost2010Prop31
280
     0
102
RTVSPost2010PropOp31
 70
     1
102
RTVSPost2010Prop32
280
     0
102
RTVSPost2010PropOp32
 70
     1
102
RTVSPost2010Prop33
280
     0
102
RTVSPost2010PropOp33
 70
     1
102
RTVSPost2010Prop34
280
     0
102
RTVSPost2010PropOp34
 70
     1
102
RTVSPost2010Prop35
280
     0
102
RTVSPost2010PropOp35
 70
     1
102
RTVSPost2010Prop36
280
     0
102
RTVSPost2010PropOp36
 70
     1
102
RTVSPost2010Prop37
 90
       50
102
RTVSPost2010PropOp37
 70
     1
102
RTVSPost2010Prop38
140
0.0
102
RTVSPost2010PropOp38
 70
     1
102
RTVSPost2010Prop39
140
1.0
102
RTVSPost2010PropOp39
 70
     1
102
RTVSPost2010Prop40
 90
        0
102
RTVSPost2010PropOp40
 70
     1
102
RTVSPost2010Prop41ColorIndex
 90
       18
102
RTVSPost2010Prop41ColorRGB
 90
        0
102
RTVSPost2010PropOp41
 70
     1
102
RTVSPost2010Prop42
 90
       50
102
RTVSPost2010PropOp42
 70
     1
102
RTVSPost2010Prop43
 90
        3
102
RTVSPost2010PropOp43
 70
     1
102
RTVSPost2010Prop44ColorIndex
 90
        5
102
RTVSPost2010Prop44ColorRGB
 90
      255
102
RTVSPost2010PropOp44
 70
     1
102
RTVSPost2010Prop45
280
     0
102
RTVSPost2010PropOp45
 70
     1
102
RTVSPost2010Prop46
 90
       50
102
RTVSPost2010PropOp46
 70
     1
102
RTVSPost2010Prop47
 90
       50
102
RTVSPost2010PropOp47
 70
     1
102
RTVSPost2010Prop48
 90
       50
102
RTVSPost2010PropOp48
 70
     1
102
RTVSPost2010Prop49
280
     0
102
RTVSPost2010PropOp49
 70
     1
102
RTVSPost2010Prop50
 90
       50
102
RTVSPost2010PropOp50
 70
     1
102
RTVSPost2010Prop51ColorIndex
 90
      256
102
RTVSPost2010Prop51ColorRGB
 90
-16777216
102
RTVSPost2010PropOp51
 70
     0
102
RTVSPost2010Prop52
140
1.0
102
RTVSPost2010PropOp52
 70
     0
102
RTVSPost2010Prop53
 90
        2
102
RTVSPost2010PropOp53
 70
     1
102
RTVSPost2010Prop54
  1
strokes_ogs.tif
102
RTVSPost2010PropOp54
 70
     1
102
RTVSPost2010Prop55
280
     0
102
RTVSPost2010PropOp55
 70
     1
102
RTVSPost2010Prop56
140
1.0
102
RTVSPost2010PropOp56
 70
     1
102
RTVSPost2010Prop57
140
1.0
102
RTVSPost2010PropOp57
 70
     1
102
RTVSPropertyOp0
 70
     1
102
RTVSPropertyOp1
 70
     1
102
RTVSPropertyOp2
 70
     1
102
RTVSPropertyOp3
 70
     1
102
RTVSPropertyOp4
 70
     1
102
RTVSPropertyOp5
 70
     1
102
RTVSPropertyOp6
 70
     1
102
RTVSPropertyOp7
 70
     1
102
RTVSPropertyOp8
 70
     1
102
RTVSPropertyOp9
 70
     1
102
RTVSPropertyOp10
 70
     1
102
RTVSPropertyOp11
 70
     1
102
RTVSPropertyOp12
 70
     1
102
RTVSPropertyOp13
 70
     1
102
RTVSPropertyOp14
 70
     1
102
RTVSPropertyOp15
 70
     1
102
RTVSPropertyOp16
 70
     1
102
RTVSPropertyOp17
 70
     1
102
RTVSPropertyOp18
 70
     1
102
RTVSPropertyOp19
 70
     1
102
RTVSPropertyOp20
 70
     1
102
RTVSPropertyOp21
 70
     1
102
RTVSPropertyOp22
 70
     1
102
RTVSPropertyOp23
 70
     1
102
RTVSPropertyOp24
 70
     1
102
RTVSPropertyOp25
 70
     1
102
RTVSPropertyOp26
 70
     1
102
RTVSPropertyOp27
 70
     1
102
RTVSPropertyOp28
 70
     1
102
RTVSPropertyOp29
 70
     1
102
RTVSPropertyOp30
 70
     1
102
RTVSPropertyOp31
 70
     1
102
RTVSPropertyOp32
 70
     1
102
RTVSPropertyOp33
 70
     1
102
RTVSPropertyOp34
 70
     1
102
RTVSPropertyOp35
 70
     1
102
RTVSPropertyOp36
 70
     1
102
RTVSPropertyOp37
 70
     1
102
RTVSPropertyOp38
 70
     1
102
RTVSPropertyOp39
 70
     1
102
RTVSPropertyOp40
 70
     1
102
RTVSPropertyOp41
 70
     1
102
RTVSPropertyOp42
 70
     1
102
RTVSPropertyOp43
 70
     1
102
RTVSPropertyOp44
 70
     1
102
RTVSPropertyOp45
 70
     1
102
RTVSPropertyOp46
 70
     1
102
RTVSPropertyOp47
 70
     1
102
RTVSPropertyOp48
 70
     1
102
RTVSPropertyOp49
 70
     1
102
RTVSPropertyOp50
 70
     1
102
RTVSPropertyOp51
 70
     0
102
RTVSPropertyOp52
 70
     0
102
RTVSPropertyOp53
 70
     1
102
RTVSPropertyOp54
 70
     1
102
RTVSPropertyOp55
 70
     1
102
RTVSPropertyOp56
 70
     1
102
RTVSPropertyOp57
 70
     1
102
RTVSPropertyOp58
 70
     1
102
RTVSPropertyOp59
 70
     1
102
RTVSPropertyOp60
 70
     1
102
RTVSPropertyOp61
 70
     1
102
RTVSPropertyOp62
 70
     1
  0
XRECORD
  5
9CF
102
{ACAD_REACTORS
330
9CE
102
}
330
9CE
100
AcDbXrecord
280
     1
102
RTVSPost2010Prop28
280
     0
102
RTVSPost2010PropOp28
 70
     1
102
RTVSPost2010Prop29
280
     1
102
RTVSPost2010PropOp29
 70
     1
102
RTVSPost2010Prop30
280
     1
102
RTVSPost2010PropOp30
 70
     1
102
RTVSPost2010Prop31
280
     0
102
RTVSPost2010PropOp31
 70
     1
102
RTVSPost2010Prop32
280
     0
102
RTVSPost2010PropOp32
 70
     1
102
RTVSPost2010Prop33
280
     0
102
RTVSPost2010PropOp33
 70
     1
102
RTVSPost2010Prop34
280
     0
102
RTVSPost2010PropOp34
 70
     1
102
RTVSPost2010Prop35
280
     0
102
RTVSPost2010PropOp35
 70
     1
102
RTVSPost2010Prop36
280
     0
102
RTVSPost2010PropOp36
 70
     1
102
RTVSPost2010Prop37
 90
       50
102
RTVSPost2010PropOp37
 70
     1
102
RTVSPost2010Prop38
140
0.0
102
RTVSPost2010PropOp38
 70
     1
102
RTVSPost2010Prop39
140
1.0
102
RTVSPost2010PropOp39
 70
     1
102
RTVSPost2010Prop40
 90
        0
102
RTVSPost2010PropOp40
 70
     1
102
RTVSPost2010Prop41ColorIndex
 90
       18
102
RTVSPost2010Prop41ColorRGB
 90
        0
102
RTVSPost2010PropOp41
 70
     1
102
RTVSPost2010Prop42
 90
       50
102
RTVSPost2010PropOp42
 70
     1
102
RTVSPost2010Prop43
 90
        3
102
RTVSPost2010PropOp43
 70
     1
102
RTVSPost2010Prop44ColorIndex
 90
        5
102
RTVSPost2010Prop44ColorRGB
 90
      255
102
RTVSPost2010PropOp44
 70
     1
102
RTVSPost2010Prop45
280
     0
102
RTVSPost2010PropOp45
 70
     1
102
RTVSPost2010Prop46
 90
       50
102
RTVSPost2010PropOp46
 70
     1
102
RTVSPost2010Prop47
 90
       50
102
RTVSPost2010PropOp47
 70
     1
102
RTVSPost2010Prop48
 90
       50
102
RTVSPost2010PropOp48
 70
     1
102
RTVSPost2010Prop49
280
     0
102
RTVSPost2010PropOp49
 70
     1
102
RTVSPost2010Prop50
 90
       50
102
RTVSPost2010PropOp50
 70
     1
102
RTVSPost2010Prop51ColorIndex
 90
      256
102
RTVSPost2010Prop51ColorRGB
 90
-16777216
102
RTVSPost2010PropOp51
 70
     0
102
RTVSPost2010Prop52
140
1.0
102
RTVSPost2010PropOp52
 70
     0
102
RTVSPost2010Prop53
 90
        2
102
RTVSPost2010PropOp53
 70
     1
102
RTVSPost2010Prop54
  1
strokes_ogs.tif
102
RTVSPost2010PropOp54
 70
     1
102
RTVSPost2010Prop55
280
     0
102
RTVSPost2010PropOp55
 70
     1
102
RTVSPost2010Prop56
140
1.0
102
RTVSPost2010PropOp56
 70
     1
102
RTVSPost2010Prop57
140
1.0
102
RTVSPost2010PropOp57
 70
     1
102
RTVSPropertyOp0
 70
     1
102
RTVSPropertyOp1
 70
     1
102
RTVSPropertyOp2
 70
     1
102
RTVSPropertyOp3
 70
     1
102
RTVSPropertyOp4
 70
     1
102
RTVSPropertyOp5
 70
     1
102
RTVSPropertyOp6
 70
     1
102
RTVSPropertyOp7
 70
     1
102
RTVSPropertyOp8
 70
     1
102
RTVSPropertyOp9
 70
     1
102
RTVSPropertyOp10
 70
     1
102
RTVSPropertyOp11
 70
     1
102
RTVSPropertyOp12
 70
     1
102
RTVSPropertyOp13
 70
     1
102
RTVSPropertyOp14
 70
     1
102
RTVSPropertyOp15
 70
     1
102
RTVSPropertyOp16
 70
     1
102
RTVSPropertyOp17
 70
     1
102
RTVSPropertyOp18
 70
     1
102
RTVSPropertyOp19
 70
     1
102
RTVSPropertyOp20
 70
     1
102
RTVSPropertyOp21
 70
     1
102
RTVSPropertyOp22
 70
     1
102
RTVSPropertyOp23
 70
     1
102
RTVSPropertyOp24
 70
     1
102
RTVSPropertyOp25
 70
     1
102
RTVSPropertyOp26
 70
     1
102
RTVSPropertyOp27
 70
     1
102
RTVSPropertyOp28
 70
     1
102
RTVSPropertyOp29
 70
     1
102
RTVSPropertyOp30
 70
     1
102
RTVSPropertyOp31
 70
     1
102
RTVSPropertyOp32
 70
     1
102
RTVSPropertyOp33
 70
     1
102
RTVSPropertyOp34
 70
     1
102
RTVSPropertyOp35
 70
     1
102
RTVSPropertyOp36
 70
     1
102
RTVSPropertyOp37
 70
     1
102
RTVSPropertyOp38
 70
     1
102
RTVSPropertyOp39
 70
     1
102
RTVSPropertyOp40
 70
     1
102
RTVSPropertyOp41
 70
     1
102
RTVSPropertyOp42
 70
     1
102
RTVSPropertyOp43
 70
     1
102
RTVSPropertyOp44
 70
     1
102
RTVSPropertyOp45
 70
     1
102
RTVSPropertyOp46
 70
     1
102
RTVSPropertyOp47
 70
     1
102
RTVSPropertyOp48
 70
     1
102
RTVSPropertyOp49
 70
     1
102
RTVSPropertyOp50
 70
     1
102
RTVSPropertyOp51
 70
     0
102
RTVSPropertyOp52
 70
     0
102
RTVSPropertyOp53
 70
     1
102
RTVSPropertyOp54
 70
     1
102
RTVSPropertyOp55
 70
     1
102
RTVSPropertyOp56
 70
     1
102
RTVSPropertyOp57
 70
     1
102
RTVSPropertyOp58
 70
     1
102
RTVSPropertyOp59
 70
     1
102
RTVSPropertyOp60
 70
     1
102
RTVSPropertyOp61
 70
     1
102
RTVSPropertyOp62
 70
     1
  0
XRECORD
  5
9D1
102
{ACAD_REACTORS
330
9D0
102
}
330
9D0
100
AcDbXrecord
280
     1
102
RTVSPost2010Prop28
280
     0
102
RTVSPost2010PropOp28
 70
     1
102
RTVSPost2010Prop29
280
     1
102
RTVSPost2010PropOp29
 70
     1
102
RTVSPost2010Prop30
280
     1
102
RTVSPost2010PropOp30
 70
     1
102
RTVSPost2010Prop31
280
     0
102
RTVSPost2010PropOp31
 70
     1
102
RTVSPost2010Prop32
280
     0
102
RTVSPost2010PropOp32
 70
     1
102
RTVSPost2010Prop33
280
     0
102
RTVSPost2010PropOp33
 70
     1
102
RTVSPost2010Prop34
280
     0
102
RTVSPost2010PropOp34
 70
     1
102
RTVSPost2010Prop35
280
     0
102
RTVSPost2010PropOp35
 70
     1
102
RTVSPost2010Prop36
280
     0
102
RTVSPost2010PropOp36
 70
     1
102
RTVSPost2010Prop37
 90
       50
102
RTVSPost2010PropOp37
 70
     1
102
RTVSPost2010Prop38
140
0.0
102
RTVSPost2010PropOp38
 70
     1
102
RTVSPost2010Prop39
140
1.0
102
RTVSPost2010PropOp39
 70
     1
102
RTVSPost2010Prop40
 90
        0
102
RTVSPost2010PropOp40
 70
     1
102
RTVSPost2010Prop41ColorIndex
 90
       18
102
RTVSPost2010Prop41ColorRGB
 90
        0
102
RTVSPost2010PropOp41
 70
     1
102
RTVSPost2010Prop42
 90
       50
102
RTVSPost2010PropOp42
 70
     1
102
RTVSPost2010Prop43
 90
        3
102
RTVSPost2010PropOp43
 70
     1
102
RTVSPost2010Prop44ColorIndex
 90
        5
102
RTVSPost2010Prop44ColorRGB
 90
      255
102
RTVSPost2010PropOp44
 70
     1
102
RTVSPost2010Prop45
280
     0
102
RTVSPost2010PropOp45
 70
     1
102
RTVSPost2010Prop46
 90
       50
102
RTVSPost2010PropOp46
 70
     1
102
RTVSPost2010Prop47
 90
       50
102
RTVSPost2010PropOp47
 70
     1
102
RTVSPost2010Prop48
 90
       50
102
RTVSPost2010PropOp48
 70
     1
102
RTVSPost2010Prop49
280
     0
102
RTVSPost2010PropOp49
 70
     1
102
RTVSPost2010Prop50
 90
       50
102
RTVSPost2010PropOp50
 70
     1
102
RTVSPost2010Prop51ColorIndex
 90
      256
102
RTVSPost2010Prop51ColorRGB
 90
-16777216
102
RTVSPost2010PropOp51
 70
     0
102
RTVSPost2010Prop52
140
1.0
102
RTVSPost2010PropOp52
 70
     0
102
RTVSPost2010Prop53
 90
        2
102
RTVSPost2010PropOp53
 70
     1
102
RTVSPost2010Prop54
  1
strokes_ogs.tif
102
RTVSPost2010PropOp54
 70
     1
102
RTVSPost2010Prop55
280
     0
102
RTVSPost2010PropOp55
 70
     1
102
RTVSPost2010Prop56
140
1.0
102
RTVSPost2010PropOp56
 70
     1
102
RTVSPost2010Prop57
140
1.0
102
RTVSPost2010PropOp57
 70
     1
102
RTVSPropertyOp0
 70
     1
102
RTVSPropertyOp1
 70
     1
102
RTVSPropertyOp2
 70
     1
102
RTVSPropertyOp3
 70
     1
102
RTVSPropertyOp4
 70
     1
102
RTVSPropertyOp5
 70
     1
102
RTVSPropertyOp6
 70
     1
102
RTVSPropertyOp7
 70
     1
102
RTVSPropertyOp8
 70
     1
102
RTVSPropertyOp9
 70
     1
102
RTVSPropertyOp10
 70
     1
102
RTVSPropertyOp11
 70
     1
102
RTVSPropertyOp12
 70
     1
102
RTVSPropertyOp13
 70
     1
102
RTVSPropertyOp14
 70
     1
102
RTVSPropertyOp15
 70
     1
102
RTVSPropertyOp16
 70
     1
102
RTVSPropertyOp17
 70
     1
102
RTVSPropertyOp18
 70
     1
102
RTVSPropertyOp19
 70
     1
102
RTVSPropertyOp20
 70
     1
102
RTVSPropertyOp21
 70
     1
102
RTVSPropertyOp22
 70
     1
102
RTVSPropertyOp23
 70
     1
102
RTVSPropertyOp24
 70
     1
102
RTVSPropertyOp25
 70
     1
102
RTVSPropertyOp26
 70
     1
102
RTVSPropertyOp27
 70
     1
102
RTVSPropertyOp28
 70
     1
102
RTVSPropertyOp29
 70
     1
102
RTVSPropertyOp30
 70
     1
102
RTVSPropertyOp31
 70
     1
102
RTVSPropertyOp32
 70
     1
102
RTVSPropertyOp33
 70
     1
102
RTVSPropertyOp34
 70
     1
102
RTVSPropertyOp35
 70
     1
102
RTVSPropertyOp36
 70
     1
102
RTVSPropertyOp37
 70
     1
102
RTVSPropertyOp38
 70
     1
102
RTVSPropertyOp39
 70
     1
102
RTVSPropertyOp40
 70
     1
102
RTVSPropertyOp41
 70
     1
102
RTVSPropertyOp42
 70
     1
102
RTVSPropertyOp43
 70
     1
102
RTVSPropertyOp44
 70
     1
102
RTVSPropertyOp45
 70
     1
102
RTVSPropertyOp46
 70
     1
102
RTVSPropertyOp47
 70
     1
102
RTVSPropertyOp48
 70
     1
102
RTVSPropertyOp49
 70
     1
102
RTVSPropertyOp50
 70
     1
102
RTVSPropertyOp51
 70
     0
102
RTVSPropertyOp52
 70
     0
102
RTVSPropertyOp53
 70
     1
102
RTVSPropertyOp54
 70
     1
102
RTVSPropertyOp55
 70
     1
102
RTVSPropertyOp56
 70
     1
102
RTVSPropertyOp57
 70
     1
102
RTVSPropertyOp58
 70
     1
102
RTVSPropertyOp59
 70
     1
102
RTVSPropertyOp60
 70
     1
102
RTVSPropertyOp61
 70
     1
102
RTVSPropertyOp62
 70
     1
  0
XRECORD
  5
9BF
102
{ACAD_REACTORS
330
9BE
102
}
330
9BE
100
AcDbXrecord
280
     1
102
RTVSPost2010Prop28
280
     0
102
RTVSPost2010PropOp28
 70
     1
102
RTVSPost2010Prop29
280
     1
102
RTVSPost2010PropOp29
 70
     1
102
RTVSPost2010Prop30
280
     1
102
RTVSPost2010PropOp30
 70
     1
102
RTVSPost2010Prop31
280
     0
102
RTVSPost2010PropOp31
 70
     1
102
RTVSPost2010Prop32
280
     0
102
RTVSPost2010PropOp32
 70
     1
102
RTVSPost2010Prop33
280
     0
102
RTVSPost2010PropOp33
 70
     1
102
RTVSPost2010Prop34
280
     0
102
RTVSPost2010PropOp34
 70
     1
102
RTVSPost2010Prop35
280
     0
102
RTVSPost2010PropOp35
 70
     1
102
RTVSPost2010Prop36
280
     0
102
RTVSPost2010PropOp36
 70
     1
102
RTVSPost2010Prop37
 90
       50
102
RTVSPost2010PropOp37
 70
     1
102
RTVSPost2010Prop38
140
0.0
102
RTVSPost2010PropOp38
 70
     1
102
RTVSPost2010Prop39
140
1.0
102
RTVSPost2010PropOp39
 70
     1
102
RTVSPost2010Prop40
 90
        0
102
RTVSPost2010PropOp40
 70
     1
102
RTVSPost2010Prop41ColorIndex
 90
       18
102
RTVSPost2010Prop41ColorRGB
 90
        0
102
RTVSPost2010PropOp41
 70
     1
102
RTVSPost2010Prop42
 90
       50
102
RTVSPost2010PropOp42
 70
     1
102
RTVSPost2010Prop43
 90
        3
102
RTVSPost2010PropOp43
 70
     1
102
RTVSPost2010Prop44ColorIndex
 90
        5
102
RTVSPost2010Prop44ColorRGB
 90
      255
102
RTVSPost2010PropOp44
 70
     1
102
RTVSPost2010Prop45
280
     0
102
RTVSPost2010PropOp45
 70
     1
102
RTVSPost2010Prop46
 90
       50
102
RTVSPost2010PropOp46
 70
     1
102
RTVSPost2010Prop47
 90
       50
102
RTVSPost2010PropOp47
 70
     1
102
RTVSPost2010Prop48
 90
       50
102
RTVSPost2010PropOp48
 70
     1
102
RTVSPost2010Prop49
280
     0
102
RTVSPost2010PropOp49
 70
     1
102
RTVSPost2010Prop50
 90
       50
102
RTVSPost2010PropOp50
 70
     1
102
RTVSPost2010Prop51ColorIndex
 90
      256
102
RTVSPost2010Prop51ColorRGB
 90
-16777216
102
RTVSPost2010PropOp51
 70
     0
102
RTVSPost2010Prop52
140
1.0
102
RTVSPost2010PropOp52
 70
     0
102
RTVSPost2010Prop53
 90
        2
102
RTVSPost2010PropOp53
 70
     1
102
RTVSPost2010Prop54
  1
strokes_ogs.tif
102
RTVSPost2010PropOp54
 70
     1
102
RTVSPost2010Prop55
280
     0
102
RTVSPost2010PropOp55
 70
     1
102
RTVSPost2010Prop56
140
1.0
102
RTVSPost2010PropOp56
 70
     1
102
RTVSPost2010Prop57
140
1.0
102
RTVSPost2010PropOp57
 70
     1
102
RTVSPropertyOp0
 70
     1
102
RTVSPropertyOp1
 70
     1
102
RTVSPropertyOp2
 70
     1
102
RTVSPropertyOp3
 70
     1
102
RTVSPropertyOp4
 70
     1
102
RTVSPropertyOp5
 70
     1
102
RTVSPropertyOp6
 70
     1
102
RTVSPropertyOp7
 70
     1
102
RTVSPropertyOp8
 70
     1
102
RTVSPropertyOp9
 70
     1
102
RTVSPropertyOp10
 70
     1
102
RTVSPropertyOp11
 70
     1
102
RTVSPropertyOp12
 70
     1
102
RTVSPropertyOp13
 70
     1
102
RTVSPropertyOp14
 70
     1
102
RTVSPropertyOp15
 70
     1
102
RTVSPropertyOp16
 70
     1
102
RTVSPropertyOp17
 70
     1
102
RTVSPropertyOp18
 70
     1
102
RTVSPropertyOp19
 70
     1
102
RTVSPropertyOp20
 70
     1
102
RTVSPropertyOp21
 70
     1
102
RTVSPropertyOp22
 70
     1
102
RTVSPropertyOp23
 70
     1
102
RTVSPropertyOp24
 70
     1
102
RTVSPropertyOp25
 70
     1
102
RTVSPropertyOp26
 70
     1
102
RTVSPropertyOp27
 70
     1
102
RTVSPropertyOp28
 70
     1
102
RTVSPropertyOp29
 70
     1
102
RTVSPropertyOp30
 70
     1
102
RTVSPropertyOp31
 70
     1
102
RTVSPropertyOp32
 70
     1
102
RTVSPropertyOp33
 70
     1
102
RTVSPropertyOp34
 70
     1
102
RTVSPropertyOp35
 70
     1
102
RTVSPropertyOp36
 70
     1
102
RTVSPropertyOp37
 70
     1
102
RTVSPropertyOp38
 70
     1
102
RTVSPropertyOp39
 70
     1
102
RTVSPropertyOp40
 70
     1
102
RTVSPropertyOp41
 70
     1
102
RTVSPropertyOp42
 70
     1
102
RTVSPropertyOp43
 70
     1
102
RTVSPropertyOp44
 70
     1
102
RTVSPropertyOp45
 70
     1
102
RTVSPropertyOp46
 70
     1
102
RTVSPropertyOp47
 70
     1
102
RTVSPropertyOp48
 70
     1
102
RTVSPropertyOp49
 70
     1
102
RTVSPropertyOp50
 70
     1
102
RTVSPropertyOp51
 70
     0
102
RTVSPropertyOp52
 70
     0
102
RTVSPropertyOp53
 70
     1
102
RTVSPropertyOp54
 70
     1
102
RTVSPropertyOp55
 70
     1
102
RTVSPropertyOp56
 70
     1
102
RTVSPropertyOp57
 70
     1
102
RTVSPropertyOp58
 70
     1
102
RTVSPropertyOp59
 70
     1
102
RTVSPropertyOp60
 70
     1
102
RTVSPropertyOp61
 70
     1
102
RTVSPropertyOp62
 70
     1
  0
XRECORD
  5
9B3
102
{ACAD_REACTORS
330
9B2
102
}
330
9B2
100
AcDbXrecord
280
     1
102
RTVSPost2010Prop28
280
     0
102
RTVSPost2010PropOp28
 70
     1
102
RTVSPost2010Prop29
280
     1
102
RTVSPost2010PropOp29
 70
     1
102
RTVSPost2010Prop30
280
     1
102
RTVSPost2010PropOp30
 70
     1
102
RTVSPost2010Prop31
280
     0
102
RTVSPost2010PropOp31
 70
     1
102
RTVSPost2010Prop32
280
     0
102
RTVSPost2010PropOp32
 70
     1
102
RTVSPost2010Prop33
280
     0
102
RTVSPost2010PropOp33
 70
     1
102
RTVSPost2010Prop34
280
     0
102
RTVSPost2010PropOp34
 70
     1
102
RTVSPost2010Prop35
280
     0
102
RTVSPost2010PropOp35
 70
     1
102
RTVSPost2010Prop36
280
     0
102
RTVSPost2010PropOp36
 70
     1
102
RTVSPost2010Prop37
 90
       50
102
RTVSPost2010PropOp37
 70
     1
102
RTVSPost2010Prop38
140
0.0
102
RTVSPost2010PropOp38
 70
     1
102
RTVSPost2010Prop39
140
1.0
102
RTVSPost2010PropOp39
 70
     1
102
RTVSPost2010Prop40
 90
        0
102
RTVSPost2010PropOp40
 70
     1
102
RTVSPost2010Prop41ColorIndex
 90
       18
102
RTVSPost2010Prop41ColorRGB
 90
        0
102
RTVSPost2010PropOp41
 70
     1
102
RTVSPost2010Prop42
 90
       50
102
RTVSPost2010PropOp42
 70
     1
102
RTVSPost2010Prop43
 90
        3
102
RTVSPost2010PropOp43
 70
     1
102
RTVSPost2010Prop44ColorIndex
 90
        5
102
RTVSPost2010Prop44ColorRGB
 90
      255
102
RTVSPost2010PropOp44
 70
     1
102
RTVSPost2010Prop45
280
     0
102
RTVSPost2010PropOp45
 70
     1
102
RTVSPost2010Prop46
 90
       50
102
RTVSPost2010PropOp46
 70
     1
102
RTVSPost2010Prop47
 90
       50
102
RTVSPost2010PropOp47
 70
     1
102
RTVSPost2010Prop48
 90
       50
102
RTVSPost2010PropOp48
 70
     1
102
RTVSPost2010Prop49
280
     0
102
RTVSPost2010PropOp49
 70
     1
102
RTVSPost2010Prop50
 90
       50
102
RTVSPost2010PropOp50
 70
     1
102
RTVSPost2010Prop51ColorIndex
 90
      256
102
RTVSPost2010Prop51ColorRGB
 90
-16777216
102
RTVSPost2010PropOp51
 70
     0
102
RTVSPost2010Prop52
140
1.0
102
RTVSPost2010PropOp52
 70
     0
102
RTVSPost2010Prop53
 90
        2
102
RTVSPost2010PropOp53
 70
     1
102
RTVSPost2010Prop54
  1
strokes_ogs.tif
102
RTVSPost2010PropOp54
 70
     1
102
RTVSPost2010Prop55
280
     0
102
RTVSPost2010PropOp55
 70
     1
102
RTVSPost2010Prop56
140
1.0
102
RTVSPost2010PropOp56
 70
     1
102
RTVSPost2010Prop57
140
1.0
102
RTVSPost2010PropOp57
 70
     1
102
RTVSPropertyOp0
 70
     1
102
RTVSPropertyOp1
 70
     1
102
RTVSPropertyOp2
 70
     1
102
RTVSPropertyOp3
 70
     1
102
RTVSPropertyOp4
 70
     1
102
RTVSPropertyOp5
 70
     1
102
RTVSPropertyOp6
 70
     1
102
RTVSPropertyOp7
 70
     1
102
RTVSPropertyOp8
 70
     1
102
RTVSPropertyOp9
 70
     1
102
RTVSPropertyOp10
 70
     1
102
RTVSPropertyOp11
 70
     1
102
RTVSPropertyOp12
 70
     1
102
RTVSPropertyOp13
 70
     1
102
RTVSPropertyOp14
 70
     1
102
RTVSPropertyOp15
 70
     1
102
RTVSPropertyOp16
 70
     1
102
RTVSPropertyOp17
 70
     1
102
RTVSPropertyOp18
 70
     1
102
RTVSPropertyOp19
 70
     1
102
RTVSPropertyOp20
 70
     1
102
RTVSPropertyOp21
 70
     1
102
RTVSPropertyOp22
 70
     1
102
RTVSPropertyOp23
 70
     1
102
RTVSPropertyOp24
 70
     1
102
RTVSPropertyOp25
 70
     1
102
RTVSPropertyOp26
 70
     1
102
RTVSPropertyOp27
 70
     1
102
RTVSPropertyOp28
 70
     1
102
RTVSPropertyOp29
 70
     1
102
RTVSPropertyOp30
 70
     1
102
RTVSPropertyOp31
 70
     1
102
RTVSPropertyOp32
 70
     1
102
RTVSPropertyOp33
 70
     1
102
RTVSPropertyOp34
 70
     1
102
RTVSPropertyOp35
 70
     1
102
RTVSPropertyOp36
 70
     1
102
RTVSPropertyOp37
 70
     1
102
RTVSPropertyOp38
 70
     1
102
RTVSPropertyOp39
 70
     1
102
RTVSPropertyOp40
 70
     1
102
RTVSPropertyOp41
 70
     1
102
RTVSPropertyOp42
 70
     1
102
RTVSPropertyOp43
 70
     1
102
RTVSPropertyOp44
 70
     1
102
RTVSPropertyOp45
 70
     1
102
RTVSPropertyOp46
 70
     1
102
RTVSPropertyOp47
 70
     1
102
RTVSPropertyOp48
 70
     1
102
RTVSPropertyOp49
 70
     1
102
RTVSPropertyOp50
 70
     1
102
RTVSPropertyOp51
 70
     0
102
RTVSPropertyOp52
 70
     0
102
RTVSPropertyOp53
 70
     1
102
RTVSPropertyOp54
 70
     1
102
RTVSPropertyOp55
 70
     1
102
RTVSPropertyOp56
 70
     1
102
RTVSPropertyOp57
 70
     1
102
RTVSPropertyOp58
 70
     1
102
RTVSPropertyOp59
 70
     1
102
RTVSPropertyOp60
 70
     1
102
RTVSPropertyOp61
 70
     1
102
RTVSPropertyOp62
 70
     1
  0
XRECORD
  5
9D3
102
{ACAD_REACTORS
330
9D2
102
}
330
9D2
100
AcDbXrecord
280
     1
102
RTVSPost2010Prop28
280
     0
102
RTVSPost2010PropOp28
 70
     1
102
RTVSPost2010Prop29
280
     1
102
RTVSPost2010PropOp29
 70
     1
102
RTVSPost2010Prop30
280
     1
102
RTVSPost2010PropOp30
 70
     1
102
RTVSPost2010Prop31
280
     0
102
RTVSPost2010PropOp31
 70
     1
102
RTVSPost2010Prop32
280
     0
102
RTVSPost2010PropOp32
 70
     1
102
RTVSPost2010Prop33
280
     0
102
RTVSPost2010PropOp33
 70
     1
102
RTVSPost2010Prop34
280
     0
102
RTVSPost2010PropOp34
 70
     1
102
RTVSPost2010Prop35
280
     0
102
RTVSPost2010PropOp35
 70
     1
102
RTVSPost2010Prop36
280
     0
102
RTVSPost2010PropOp36
 70
     1
102
RTVSPost2010Prop37
 90
       50
102
RTVSPost2010PropOp37
 70
     1
102
RTVSPost2010Prop38
140
0.0
102
RTVSPost2010PropOp38
 70
     1
102
RTVSPost2010Prop39
140
1.0
102
RTVSPost2010PropOp39
 70
     1
102
RTVSPost2010Prop40
 90
        0
102
RTVSPost2010PropOp40
 70
     1
102
RTVSPost2010Prop41ColorIndex
 90
       18
102
RTVSPost2010Prop41ColorRGB
 90
        0
102
RTVSPost2010PropOp41
 70
     1
102
RTVSPost2010Prop42
 90
       50
102
RTVSPost2010PropOp42
 70
     1
102
RTVSPost2010Prop43
 90
        3
102
RTVSPost2010PropOp43
 70
     1
102
RTVSPost2010Prop44ColorIndex
 90
        5
102
RTVSPost2010Prop44ColorRGB
 90
      255
102
RTVSPost2010PropOp44
 70
     1
102
RTVSPost2010Prop45
280
     0
102
RTVSPost2010PropOp45
 70
     1
102
RTVSPost2010Prop46
 90
       50
102
RTVSPost2010PropOp46
 70
     1
102
RTVSPost2010Prop47
 90
       50
102
RTVSPost2010PropOp47
 70
     1
102
RTVSPost2010Prop48
 90
       50
102
RTVSPost2010PropOp48
 70
     1
102
RTVSPost2010Prop49
280
     0
102
RTVSPost2010PropOp49
 70
     1
102
RTVSPost2010Prop50
 90
       50
102
RTVSPost2010PropOp50
 70
     1
102
RTVSPost2010Prop51ColorIndex
 90
      256
102
RTVSPost2010Prop51ColorRGB
 90
-16777216
102
RTVSPost2010PropOp51
 70
     0
102
RTVSPost2010Prop52
140
1.0
102
RTVSPost2010PropOp52
 70
     0
102
RTVSPost2010Prop53
 90
        2
102
RTVSPost2010PropOp53
 70
     1
102
RTVSPost2010Prop54
  1
strokes_ogs.tif
102
RTVSPost2010PropOp54
 70
     1
102
RTVSPost2010Prop55
280
     0
102
RTVSPost2010PropOp55
 70
     1
102
RTVSPost2010Prop56
140
1.0
102
RTVSPost2010PropOp56
 70
     1
102
RTVSPost2010Prop57
140
1.0
102
RTVSPost2010PropOp57
 70
     1
102
RTVSPropertyOp0
 70
     1
102
RTVSPropertyOp1
 70
     1
102
RTVSPropertyOp2
 70
     1
102
RTVSPropertyOp3
 70
     1
102
RTVSPropertyOp4
 70
     1
102
RTVSPropertyOp5
 70
     1
102
RTVSPropertyOp6
 70
     1
102
RTVSPropertyOp7
 70
     1
102
RTVSPropertyOp8
 70
     1
102
RTVSPropertyOp9
 70
     1
102
RTVSPropertyOp10
 70
     1
102
RTVSPropertyOp11
 70
     1
102
RTVSPropertyOp12
 70
     1
102
RTVSPropertyOp13
 70
     1
102
RTVSPropertyOp14
 70
     1
102
RTVSPropertyOp15
 70
     1
102
RTVSPropertyOp16
 70
     1
102
RTVSPropertyOp17
 70
     1
102
RTVSPropertyOp18
 70
     1
102
RTVSPropertyOp19
 70
     1
102
RTVSPropertyOp20
 70
     1
102
RTVSPropertyOp21
 70
     1
102
RTVSPropertyOp22
 70
     1
102
RTVSPropertyOp23
 70
     1
102
RTVSPropertyOp24
 70
     1
102
RTVSPropertyOp25
 70
     1
102
RTVSPropertyOp26
 70
     1
102
RTVSPropertyOp27
 70
     1
102
RTVSPropertyOp28
 70
     1
102
RTVSPropertyOp29
 70
     1
102
RTVSPropertyOp30
 70
     1
102
RTVSPropertyOp31
 70
     1
102
RTVSPropertyOp32
 70
     1
102
RTVSPropertyOp33
 70
     1
102
RTVSPropertyOp34
 70
     1
102
RTVSPropertyOp35
 70
     1
102
RTVSPropertyOp36
 70
     1
102
RTVSPropertyOp37
 70
     1
102
RTVSPropertyOp38
 70
     1
102
RTVSPropertyOp39
 70
     1
102
RTVSPropertyOp40
 70
     1
102
RTVSPropertyOp41
 70
     1
102
RTVSPropertyOp42
 70
     1
102
RTVSPropertyOp43
 70
     1
102
RTVSPropertyOp44
 70
     1
102
RTVSPropertyOp45
 70
     1
102
RTVSPropertyOp46
 70
     1
102
RTVSPropertyOp47
 70
     1
102
RTVSPropertyOp48
 70
     1
102
RTVSPropertyOp49
 70
     1
102
RTVSPropertyOp50
 70
     1
102
RTVSPropertyOp51
 70
     0
102
RTVSPropertyOp52
 70
     0
102
RTVSPropertyOp53
 70
     1
102
RTVSPropertyOp54
 70
     1
102
RTVSPropertyOp55
 70
     1
102
RTVSPropertyOp56
 70
     1
102
RTVSPropertyOp57
 70
     1
102
RTVSPropertyOp58
 70
     1
102
RTVSPropertyOp59
 70
     1
102
RTVSPropertyOp60
 70
     1
102
RTVSPropertyOp61
 70
     1
102
RTVSPropertyOp62
 70
     1
  0
ENDSEC
  0
EOF
