  0
SECTION
  2
HEADER
  9
$ACADVER
  1
AC1015
  9
$ACADMAINTVER
 70
    18
  9
$DWGCODEPAGE
  3
ANSI_1252
  9
$INSBASE
 10
0.0
 20
0.0
 30
0.0
  9
$EXTMIN
 10
-131.8395987849677
 20
-326.8921505679518
 30
-0.0015258207003583
  9
$EXTMAX
 10
97.43133605158812
 20
202.4291387650058
 30
0.0000000349246037
  9
$LIMMIN
 10
0.0
 20
0.0
  9
$LIMMAX
 10
420.0
 20
297.0
  9
$ORTHOMODE
 70
     0
  9
$REGENMODE
 70
     1
  9
$FILLMODE
 70
     1
  9
$QTEXTMODE
 70
     0
  9
$MIRRTEXT
 70
     0
  9
$LTSCALE
 40
1.0
  9
$ATTMODE
 70
     1
  9
$TEXTSIZE
 40
2.5
  9
$TRACEWID
 40
1.0
  9
$TEXTSTYLE
  7
Standard
  9
$CLAYER
  8
0
  9
$CELTYPE
  6
ByLayer
  9
$CECOLOR
 62
   256
  9
$CELTSCALE
 40
1.0
  9
$DISPSILH
 70
     0
  9
$DIMSCALE
 40
1.0
  9
$DIMASZ
 40
2.5
  9
$DIMEXO
 40
0.625
  9
$DIMDLI
 40
3.75
  9
$DIMRND
 40
0.0
  9
$DIMDLE
 40
0.0
  9
$DIMEXE
 40
1.25
  9
$DIMTP
 40
0.0
  9
$DIMTM
 40
0.0
  9
$DIMTXT
 40
2.5
  9
$DIMCEN
 40
2.5
  9
$DIMTSZ
 40
0.0
  9
$DIMTOL
 70
     0
  9
$DIMLIM
 70
     0
  9
$DIMTIH
 70
     0
  9
$DIMTOH
 70
     0
  9
$DIMSE1
 70
     0
  9
$DIMSE2
 70
     0
  9
$DIMTAD
 70
     1
  9
$DIMZIN
 70
     8
  9
$DIMBLK
  1

  9
$DIMASO
 70
     1
  9
$DIMSHO
 70
     1
  9
$DIMPOST
  1

  9
$DIMAPOST
  1

  9
$DIMALT
 70
     0
  9
$DIMALTD
 70
     3
  9
$DIMALTF
 40
0.03937007874016
  9
$DIMLFAC
 40
1.0
  9
$DIMTOFL
 70
     1
  9
$DIMTVP
 40
0.0
  9
$DIMTIX
 70
     0
  9
$DIMSOXD
 70
     0
  9
$DIMSAH
 70
     0
  9
$DIMBLK1
  1

  9
$DIMBLK2
  1

  9
$DIMSTYLE
  2
ISO-25
  9
$DIMCLRD
 70
     0
  9
$DIMCLRE
 70
     0
  9
$DIMCLRT
 70
     0
  9
$DIMTFAC
 40
1.0
  9
$DIMGAP
 40
0.625
  9
$DIMJUST
 70
     0
  9
$DIMSD1
 70
     0
  9
$DIMSD2
 70
     0
  9
$DIMTOLJ
 70
     0
  9
$DIMTZIN
 70
     8
  9
$DIMALTZ
 70
     0
  9
$DIMALTTZ
 70
     0
  9
$DIMUPT
 70
     0
  9
$DIMDEC
 70
     2
  9
$DIMTDEC
 70
     2
  9
$DIMALTU
 70
     2
  9
$DIMALTTD
 70
     3
  9
$DIMTXSTY
  7
Standard
  9
$DIMAUNIT
 70
     0
  9
$DIMADEC
 70
     0
  9
$DIMALTRND
 40
0.0
  9
$DIMAZIN
 70
     0
  9
$DIMDSEP
 70
    44
  9
$DIMATFIT
 70
     3
  9
$DIMFRAC
 70
     0
  9
$DIMLDRBLK
  1

  9
$DIMLUNIT
 70
     2
  9
$DIMLWD
 70
    -2
  9
$DIMLWE
 70
    -2
  9
$DIMTMOVE
 70
     0
  9
$LUNITS
 70
     2
  9
$LUPREC
 70
     4
  9
$SKETCHINC
 40
1.0
  9
$FILLETRAD
 40
0.0
  9
$AUNITS
 70
     0
  9
$AUPREC
 70
     0
  9
$MENU
  1
.
  9
$ELEVATION
 40
0.0
  9
$PELEVATION
 40
0.0
  9
$THICKNESS
 40
0.0
  9
$LIMCHECK
 70
     0
  9
$CHAMFERA
 40
0.0
  9
$CHAMFERB
 40
0.0
  9
$CHAMFERC
 40
0.0
  9
$CHAMFERD
 40
0.0
  9
$SKPOLY
 70
     0
  9
$TDCREATE
 40
2460924.425682870
  9
$TDUCREATE
 40
2460924.134016204
  9
$TDUPDATE
 40
2460924.442395834
  9
$TDUUPDATE
 40
2460924.150729167
  9
$TDINDWG
 40
0.0084490741
  9
$TDUSRTIMER
 40
0.0084490741
  9
$USRTIMER
 70
     1
  9
$ANGBASE
 50
0.0
  9
$ANGDIR
 70
     0
  9
$PDMODE
 70
     0
  9
$PDSIZE
 40
0.0
  9
$PLINEWID
 40
0.0
  9
$SPLFRAME
 70
     0
  9
$SPLINETYPE
 70
     6
  9
$SPLINESEGS
 70
     8
  9
$HANDSEED
  5
D30D
  9
$SURFTAB1
 70
     6
  9
$SURFTAB2
 70
     6
  9
$SURFTYPE
 70
     6
  9
$SURFU
 70
     6
  9
$SURFV
 70
     6
  9
$UCSBASE
  2

  9
$UCSNAME
  2

  9
$UCSORG
 10
0.0
 20
0.0
 30
0.0
  9
$UCSXDIR
 10
1.0
 20
0.0
 30
0.0
  9
$UCSYDIR
 10
0.0
 20
1.0
 30
0.0
  9
$UCSORTHOREF
  2

  9
$UCSORTHOVIEW
 70
     0
  9
$UCSORGTOP
 10
0.0
 20
0.0
 30
0.0
  9
$UCSORGBOTTOM
 10
0.0
 20
0.0
 30
0.0
  9
$UCSORGLEFT
 10
0.0
 20
0.0
 30
0.0
  9
$UCSORGRIGHT
 10
0.0
 20
0.0
 30
0.0
  9
$UCSORGFRONT
 10
0.0
 20
0.0
 30
0.0
  9
$UCSORGBACK
 10
0.0
 20
0.0
 30
0.0
  9
$PUCSBASE
  2

  9
$PUCSNAME
  2

  9
$PUCSORG
 10
0.0
 20
0.0
 30
0.0
  9
$PUCSXDIR
 10
1.0
 20
0.0
 30
0.0
  9
$PUCSYDIR
 10
0.0
 20
1.0
 30
0.0
  9
$PUCSORTHOREF
  2

  9
$PUCSORTHOVIEW
 70
     0
  9
$PUCSORGTOP
 10
0.0
 20
0.0
 30
0.0
  9
$PUCSORGBOTTOM
 10
0.0
 20
0.0
 30
0.0
  9
$PUCSORGLEFT
 10
0.0
 20
0.0
 30
0.0
  9
$PUCSORGRIGHT
 10
0.0
 20
0.0
 30
0.0
  9
$PUCSORGFRONT
 10
0.0
 20
0.0
 30
0.0
  9
$PUCSORGBACK
 10
0.0
 20
0.0
 30
0.0
  9
$USERI1
 70
     0
  9
$USERI2
 70
     0
  9
$USERI3
 70
     0
  9
$USERI4
 70
     0
  9
$USERI5
 70
     0
  9
$USERR1
 40
0.0
  9
$USERR2
 40
0.0
  9
$USERR3
 40
0.0
  9
$USERR4
 40
0.0
  9
$USERR5
 40
0.0
  9
$WORLDVIEW
 70
     1
  9
$SHADEDGE
 70
     3
  9
$SHADEDIF
 70
    70
  9
$TILEMODE
 70
     1
  9
$MAXACTVP
 70
    48
  9
$PINSBASE
 10
0.0
 20
0.0
 30
0.0
  9
$PLIMCHECK
 70
     0
  9
$PEXTMIN
 10
0.0
 20
0.0
 30
0.0
  9
$PEXTMAX
 10
0.0
 20
0.0
 30
0.0
  9
$PLIMMIN
 10
0.0
 20
0.0
  9
$PLIMMAX
 10
12.0
 20
9.0
  9
$UNITMODE
 70
     0
  9
$VISRETAIN
 70
     1
  9
$PLINEGEN
 70
     0
  9
$PSLTSCALE
 70
     1
  9
$TREEDEPTH
 70
  3020
  9
$CMLSTYLE
  2
Standard
  9
$CMLJUST
 70
     0
  9
$CMLSCALE
 40
20.0
  9
$PROXYGRAPHICS
 70
     1
  9
$MEASUREMENT
 70
     1
  9
$CELWEIGHT
370
    -1
  9
$ENDCAPS
280
     0
  9
$JOINSTYLE
280
     0
  9
$LWDISPLAY
290
     0
  9
$INSUNITS
 70
     4
  9
$HYPERLINKBASE
  1

  9
$STYLESHEET
  1

  9
$XEDIT
290
     1
  9
$CEPSNTYPE
380
     0
  9
$PSTYLEMODE
290
     1
  9
$FINGERPRINTGUID
  2
{A81DA12D-3CB0-C14E-8AEC-E7DDCFA6D4E5}
  9
$VERSIONGUID
  2
{2612870F-2C18-3745-A243-D77E262A6D9C}
  9
$EXTNAMES
290
     1
  9
$PSVPSCALE
 40
0.0
  9
$OLESTARTUP
290
     0
  0
ENDSEC
  0
SECTION
  2
CLASSES
  0
CLASS
  1
ACDBDICTIONARYWDFLT
  2
AcDbDictionaryWithDefault
  3
ObjectDBX Classes
 90
        0
280
     0
281
     0
  0
CLASS
  1
ACDBPLACEHOLDER
  2
AcDbPlaceHolder
  3
ObjectDBX Classes
 90
        0
280
     0
281
     0
  0
CLASS
  1
LAYOUT
  2
AcDbLayout
  3
ObjectDBX Classes
 90
        0
280
     0
281
     0
  0
CLASS
  1
DICTIONARYVAR
  2
AcDbDictionaryVar
  3
ObjectDBX Classes
 90
        0
280
     0
281
     0
  0
CLASS
  1
TABLESTYLE
  2
AcDbTableStyle
  3
ObjectDBX Classes
 90
     4095
280
     0
281
     0
  0
CLASS
  1
MATERIAL
  2
AcDbMaterial
  3
ObjectDBX Classes
 90
     1153
280
     0
281
     0
  0
CLASS
  1
VISUALSTYLE
  2
AcDbVisualStyle
  3
ObjectDBX Classes
 90
     4095
280
     0
281
     0
  0
CLASS
  1
SCALE
  2
AcDbScale
  3
ObjectDBX Classes
 90
     1153
280
     0
281
     0
  0
CLASS
  1
MLEADERSTYLE
  2
AcDbMLeaderStyle
  3
ACDB_MLEADERSTYLE_CLASS
 90
     4095
280
     0
281
     0
  0
CLASS
  1
CELLSTYLEMAP
  2
AcDbCellStyleMap
  3
ObjectDBX Classes
 90
     1152
280
     0
281
     0
  0
CLASS
  1
EXACXREFPANELOBJECT
  2
ExAcXREFPanelObject
  3
EXAC_ESW
 90
    33793
280
     0
281
     0
  0
CLASS
  1
NPOCOLLECTION
  2
AcDbImpNonPersistentObjectsCollection
  3
ObjectDBX Classes
 90
    33921
280
     0
281
     0
  0
CLASS
  1
LAYER_INDEX
  2
AcDbLayerIndex
  3
ObjectDBX Classes
 90
    32768
280
     0
281
     0
  0
CLASS
  1
SPATIAL_INDEX
  2
AcDbSpatialIndex
  3
ObjectDBX Classes
 90
    32768
280
     0
281
     0
  0
CLASS
  1
IDBUFFER
  2
AcDbIdBuffer
  3
ObjectDBX Classes
 90
    32768
280
     0
281
     0
  0
CLASS
  1
ACDBSECTIONVIEWSTYLE
  2
AcDbSectionViewStyle
  3
ObjectDBX Classes
 90
     1025
280
     0
281
     0
  0
CLASS
  1
ACDBDETAILVIEWSTYLE
  2
AcDbDetailViewStyle
  3
ObjectDBX Classes
 90
     1025
280
     0
281
     0
  0
CLASS
  1
XRECORD
  2
AcDbXrecord
  3
ObjectDBX Classes
 90
        0
280
     0
281
     0
  0
ENDSEC
  0
SECTION
  2
TABLES
  0
TABLE
  2
VPORT
  5
8
102
{ACAD_XDICTIONARY
360
D21B
102
}
330
0
100
AcDbSymbolTable
 70
     1
  0
VPORT
  5
EA
330
8
100
AcDbSymbolTableRecord
100
AcDbViewportTableRecord
  2
*Active
 70
     0
 10
0.0
 20
0.0
 11
1.0
 21
1.0
 12
-17.20413136668978
 22
-62.23150590147298
 13
0.0
 23
0.0
 14
10.0
 24
10.0
 15
10.0
 25
10.0
 16
0.0
 26
0.0
 36
1.0
 17
0.0
 27
0.0
 37
0.0
 40
562.885222355148
 41
0.9846153846153844
 42
50.0
 43
0.0
 44
0.0
 50
0.0
 51
0.0
 71
     0
 72
  1000
 73
     1
 74
     3
 75
     0
 76
     1
 77
     0
 78
     0
281
     0
 65
     1
110
0.0
120
0.0
130
0.0
111
1.0
121
0.0
131
0.0
112
0.0
122
1.0
132
0.0
 79
     0
146
0.0
1001
ACAD_NAV_VCDISPLAY
1070
     3
  0
ENDTAB
  0
TABLE
  2
LTYPE
  5
5
330
0
100
AcDbSymbolTable
 70
     1
  0
LTYPE
  5
14
330
5
100
AcDbSymbolTableRecord
100
AcDbLinetypeTableRecord
  2
ByBlock
 70
     0
  3

 72
    65
 73
     0
 40
0.0
  0
LTYPE
  5
15
330
5
100
AcDbSymbolTableRecord
100
AcDbLinetypeTableRecord
  2
ByLayer
 70
     0
  3

 72
    65
 73
     0
 40
0.0
  0
LTYPE
  5
16
330
5
100
AcDbSymbolTableRecord
100
AcDbLinetypeTableRecord
  2
Continuous
 70
     0
  3
Solid line
 72
    65
 73
     0
 40
0.0
  0
ENDTAB
  0
TABLE
  2
LAYER
  5
2
102
{ACAD_XDICTIONARY
360
1FF
102
}
330
0
100
AcDbSymbolTable
 70
     1
  0
LAYER
  5
10
102
{ACAD_XDICTIONARY
360
13C
102
}
330
2
100
AcDbSymbolTableRecord
100
AcDbLayerTableRecord
  2
0
 70
     0
 62
     7
  6
Continuous
370
    -3
390
F
  0
ENDTAB
  0
TABLE
  2
STYLE
  5
3
330
0
100
AcDbSymbolTable
 70
     1
  0
STYLE
  5
11
330
3
100
AcDbSymbolTableRecord
100
AcDbTextStyleTableRecord
  2
Standard
 70
     0
 40
0.0
 41
1.0
 50
0.0
 71
     0
 42
2.5
  3
arial.ttf
  4

1001
ACAD
1000
Arial
1071
       34
  0
ENDTAB
  0
TABLE
  2
VIEW
  5
6
330
0
100
AcDbSymbolTable
 70
     0
  0
ENDTAB
  0
TABLE
  2
UCS
  5
7
330
0
100
AcDbSymbolTable
 70
     0
  0
ENDTAB
  0
TABLE
  2
APPID
  5
9
330
0
100
AcDbSymbolTable
 70
     8
  0
APPID
  5
12
330
9
100
AcDbSymbolTableRecord
100
AcDbRegAppTableRecord
  2
ACAD
 70
     0
  0
APPID
  5
9E
330
9
100
AcDbSymbolTableRecord
100
AcDbRegAppTableRecord
  2
ACAD_PSEXT
 70
     0
  0
APPID
  5
133
330
9
100
AcDbSymbolTableRecord
100
AcDbRegAppTableRecord
  2
AcadAnnoPO
 70
     0
  0
APPID
  5
134
330
9
100
AcDbSymbolTableRecord
100
AcDbRegAppTableRecord
  2
AcadAnnotative
 70
     0
  0
APPID
  5
135
330
9
100
AcDbSymbolTableRecord
100
AcDbRegAppTableRecord
  2
ACAD_DSTYLE_DIMJAG
 70
     0
  0
APPID
  5
136
330
9
100
AcDbSymbolTableRecord
100
AcDbRegAppTableRecord
  2
ACAD_DSTYLE_DIMTALN
 70
     0
  0
APPID
  5
165
330
9
100
AcDbSymbolTableRecord
100
AcDbRegAppTableRecord
  2
ACAD_MLEADERVER
 70
     0
  0
APPID
  5
217
330
9
100
AcDbSymbolTableRecord
100
AcDbRegAppTableRecord
  2
ACAD_NAV_VCDISPLAY
 70
     0
  0
ENDTAB
  0
TABLE
  2
DIMSTYLE
  5
A
330
0
100
AcDbSymbolTable
 70
     1
100
AcDbDimStyleTable
 71
     0
  0
DIMSTYLE
105
27
330
A
100
AcDbSymbolTableRecord
100
AcDbDimStyleTableRecord
  2
ISO-25
 70
     0
 41
2.5
 42
0.625
 43
3.75
 44
1.25
 73
     0
 74
     0
 77
     1
 78
     8
140
2.5
141
2.5
143
0.03937007874016
147
0.625
171
     3
172
     1
271
     2
272
     2
274
     3
278
    44
283
     0
284
     8
340
11
  0
ENDTAB
  0
TABLE
  2
BLOCK_RECORD
  5
1
330
0
100
AcDbSymbolTable
 70
     7
  0
BLOCK_RECORD
  5
1F
102
{ACAD_XDICTIONARY
360
1CE
102
}
330
1
100
AcDbSymbolTableRecord
100
AcDbBlockTableRecord
  2
*Model_Space
340
22
  0
BLOCK_RECORD
  5
D2
102
{ACAD_XDICTIONARY
360
D1CE
102
}
330
1
100
AcDbSymbolTableRecord
100
AcDbBlockTableRecord
  2
*Paper_Space
340
D3
  0
BLOCK_RECORD
  5
D6
102
{ACAD_XDICTIONARY
360
D1D0
102
}
330
1
100
AcDbSymbolTableRecord
100
AcDbBlockTableRecord
  2
*Paper_Space0
340
D7
  0
BLOCK_RECORD
  5
D082
330
1
100
AcDbSymbolTableRecord
100
AcDbBlockTableRecord
  2
SPF210LZ-Front
340
0
102
{BLKREFS
331
D1C3
102
}
  0
BLOCK_RECORD
  5
D0B3
330
1
100
AcDbSymbolTableRecord
100
AcDbBlockTableRecord
  2
SPF210LZ-Left
340
0
102
{BLKREFS
331
D1C4
102
}
  0
BLOCK_RECORD
  5
D0E5
330
1
100
AcDbSymbolTableRecord
100
AcDbBlockTableRecord
  2
SPF210LZ-Right
340
0
102
{BLKREFS
331
D1C5
102
}
  0
BLOCK_RECORD
  5
D117
330
1
100
AcDbSymbolTableRecord
100
AcDbBlockTableRecord
  2
SPF210LZ-Top
340
0
102
{BLKREFS
331
D1C6
102
}
  0
BLOCK_RECORD
  5
D13B
330
1
100
AcDbSymbolTableRecord
100
AcDbBlockTableRecord
  2
SPF210LZ-Bottom
340
0
102
{BLKREFS
331
D1C7
102
}
  0
BLOCK_RECORD
  5
D160
330
1
100
AcDbSymbolTableRecord
100
AcDbBlockTableRecord
  2
SPF210LZ-ISO
340
0
102
{BLKREFS
331
D1C8
102
}
  0
ENDTAB
  0
ENDSEC
  0
SECTION
  2
BLOCKS
  0
BLOCK
  5
20
330
1F
100
AcDbEntity
  8
0
100
AcDbBlockBegin
  2
*Model_Space
 70
     0
 10
0.0
 20
0.0
 30
0.0
  3
*Model_Space
  1

  0
ENDBLK
  5
21
330
1F
100
AcDbEntity
  8
0
100
AcDbBlockEnd
  0
BLOCK
  5
D4
330
D2
100
AcDbEntity
 67
     1
  8
0
100
AcDbBlockBegin
  2
*Paper_Space
 70
     0
 10
0.0
 20
0.0
 30
0.0
  3
*Paper_Space
  1

  0
ENDBLK
  5
D5
330
D2
100
AcDbEntity
 67
     1
  8
0
100
AcDbBlockEnd
  0
BLOCK
  5
D8
330
D6
100
AcDbEntity
 67
     1
  8
0
100
AcDbBlockBegin
  2
*Paper_Space0
 70
     0
 10
0.0
 20
0.0
 30
0.0
  3
*Paper_Space0
  1

  0
ENDBLK
  5
D9
330
D6
100
AcDbEntity
 67
     1
  8
0
100
AcDbBlockEnd
  0
BLOCK
  5
D083
330
D082
100
AcDbEntity
  8
0
100
AcDbBlockBegin
  2
SPF210LZ-Front
 70
     0
 10
0.0
 20
0.0
 30
0.0
  3
SPF210LZ-Front
  1

  0
SPLINE
  5
D085
330
D082
100
AcDbEntity
  8
0
100
AcDbSpline
210
0.0
220
0.0
230
1.0
 70
     8
 71
     3
 72
    14
 73
    10
 74
     0
 42
0.000000001
 43
0.0000000001
 40
0.0
 40
0.0
 40
0.0
 40
0.0
 40
0.3674902801726788
 40
0.3674902801726788
 40
0.3674902801726788
 40
0.8544958201613873
 40
0.8544958201613873
 40
0.8544958201613873
 40
1.0
 40
1.0
 40
1.0
 40
1.0
 10
-0.7267311962306249
 20
-51.64721562375327
 30
0.0
 10
-0.8399347848408478
 20
-52.05263920166899
 30
0.0
 10
-1.027685833331951
 20
-52.38814887799215
 30
0.0
 10
-1.224536189750687
 20
-52.71376786393755
 30
0.0
 10
-1.485406257061389
 20
-53.14528471931236
 30
0.0
 10
-1.755291694000214
 20
-53.55978760870709
 30
0.0
 10
-1.866793449739729
 20
-54.11256748376776
 30
0.0
 10
-1.900107180667347
 20
-54.27772326896449
 30
0.0
 10
-1.917778455220539
 20
-54.45598735303627
 30
0.0
 10
-1.919000000000744
 20
-54.64721562380844
 30
0.0
  0
LINE
  5
D086
330
D082
100
AcDbEntity
  8
0
100
AcDbLine
 10
-2.363518495860887
 20
-51.64721562373096
 30
0.0
 11
-0.7267311962306278
 21
-51.6472156237533
 31
0.0
  0
SPLINE
  5
D087
330
D082
100
AcDbEntity
  8
0
100
AcDbSpline
210
0.0
220
0.0
230
1.0
 70
     8
 71
     3
 72
    14
 73
    10
 74
     0
 42
0.000000001
 43
0.0000000001
 40
0.0
 40
0.0
 40
0.0
 40
0.0
 40
0.3203790963197878
 40
0.3203790963197878
 40
0.3203790963197878
 40
0.8798267533562436
 40
0.8798267533562436
 40
0.8798267533562436
 40
1.0
 40
1.0
 40
1.0
 40
1.0
 10
-2.363518495864932
 20
-51.64721562373149
 30
0.0
 10
-2.405856261815927
 20
-51.98251224328834
 30
0.0
 10
-2.378357370952551
 20
-52.30040157248183
 30
0.0
 10
-2.318466896086336
 20
-52.61243796363146
 30
0.0
 10
-2.213885835000936
 20
-53.15731754517734
 30
0.0
 10
-2.005982175614344
 20
-53.68943098029394
 30
0.0
 10
-1.940379622197071
 20
-54.26742141921728
 30
0.0
 10
-1.926287737579954
 20
-54.39157778434071
 30
0.0
 10
-1.919003773382239
 20
-54.51798461880198
 30
0.0
 10
-1.919000000004114
 20
-54.64721562373383
 30
0.0
  0
LINE
  5
D088
330
D082
100
AcDbEntity
  8
0
100
AcDbLine
 10
-4.000305795503285
 20
-51.64721562373095
 30
0.0
 11
-2.363518495863097
 21
-51.64721562373095
 31
0.0
  0
ARC
  5
D089
330
D082
100
AcDbEntity
  8
0
100
AcDbCircle
 10
-1.919
 20
-52.56082982822768
 30
0.0
 40
2.086385795503284
100
AcDbArc
 50
180.0
 51
270.0
  0
SPLINE
  5
D08A
330
D082
100
AcDbEntity
  8
0
100
AcDbSpline
210
0.0
220
0.0
230
1.0
 70
     8
 71
     3
 72
    14
 73
    10
 74
     0
 42
0.000000001
 43
0.0000000001
 40
-1.0
 40
-1.0
 40
-1.0
 40
-1.0
 40
-0.6769197926955919
 40
-0.6769197926955919
 40
-0.6769197926955919
 40
-0.111284982148512
 40
-0.111284982148512
 40
-0.111284982148512
 40
0.0
 40
0.0
 40
0.0
 40
0.0
 10
-2.850989765972419
 20
51.64721562373096
 30
0.0
 10
-2.782721039494783
 20
51.9839765095288
 30
0.0
 10
-2.674839774523606
 20
52.30459750763603
 30
0.0
 10
-2.552538915223143
 20
52.61956662127066
 30
0.0
 10
-2.338419876618643
 20
53.17100088090962
 30
0.0
 10
-2.097030306659127
 20
53.70879515735402
 30
0.0
 10
-2.022944387444028
 20
54.29489497487425
 30
0.0
 10
-2.00836846311339
 20
54.41020631447675
 30
0.0
 10
-2.001051948693849
 20
54.52760773454607
 30
0.0
 10
-2.000305795503214
 20
54.6472156237342
 30
0.0
  0
LINE
  5
D08B
330
D082
100
AcDbEntity
  8
0
100
AcDbLine
 10
-2.000305795503285
 20
51.64721562373093
 30
0.0
 11
-2.850989765972427
 21
51.64721562373093
 31
0.0
  0
SPLINE
  5
D08C
330
D082
100
AcDbEntity
  8
0
100
AcDbSpline
210
0.0
220
0.0
230
1.0
 70
     8
 71
     3
 72
    10
 73
     6
 74
     0
 42
0.000000001
 43
0.0000000001
 40
0.0
 40
0.0
 40
0.0
 40
0.0
 40
0.002287985123873
 40
0.002287985123873
 40
0.0036332696428939
 40
0.0036332696428939
 40
0.0036332696428939
 40
0.0036332696428939
 10
-0.0000101922929476
 20
54.64658893362507
 30
0.0
 10
-0.0000568654432913
 20
54.63960892591508
 30
0.0
 10
-0.0001083998804498
 20
54.63283736435489
 30
0.0
 10
-0.0001939460087921
 20
54.62278606547237
 30
0.0
 10
-0.0002266206327383
 20
54.61919450325694
 30
0.0
 10
-0.0002589095282127
 20
54.61581919855733
 30
0.0
  0
SPLINE
  5
D08D
330
D082
100
AcDbEntity
  8
0
100
AcDbSpline
210
0.0
220
0.0
230
1.0
 70
     8
 71
     3
 72
    14
 73
    10
 74
     0
 42
0.000000001
 43
0.0000000001
 40
0.0
 40
0.0
 40
0.0
 40
0.0
 40
0.0024492535725079
 40
0.0024492535725079
 40
0.0038923513944413
 40
0.0038923513944413
 40
0.0057381017963464
 40
0.0057381017963464
 40
0.0067543768010431
 40
0.0067543768010431
 40
0.0067543768010431
 40
0.0067543768010431
 10
-0.00026894975276
 20
54.62579030234528
 30
0.0
 10
-0.0002575954303013
 20
54.61833500654678
 30
0.0
 10
-0.0002556317714448
 20
54.61087909386709
 30
0.0
 10
-0.0002632300592655
 20
54.60088992856833
 30
0.0
 10
-0.0002680083039605
 20
54.5975866835073
 30
0.0
 10
-0.0002795962922691
 20
54.59114354336197
 30
0.0
 10
-0.0002865986411113
 20
54.58824715812119
 30
0.0
 10
-0.0002951649002005
 20
54.58483696002794
 30
0.0
 10
-0.0002977787396754
 20
54.58382588650268
 30
0.0
 10
-0.0002999566657379
 20
54.58299426839975
 30
0.0
  0
SPLINE
  5
D08E
330
D082
100
AcDbEntity
  8
0
100
AcDbSpline
210
0.0
220
0.0
230
1.0
 70
     8
 71
     3
 72
    10
 73
     6
 74
     0
 42
0.000000001
 43
0.0000000001
 40
0.0076785361679223
 40
0.0076785361679223
 40
0.0076785361679223
 40
0.0076785361679223
 40
0.0079834300742323
 40
0.0079834300742323
 40
0.0096008286861515
 40
0.0096008286861515
 40
0.0096008286861515
 40
0.0096008286861515
 10
-0.0003047706138846
 20
54.58115760605169
 30
0.0
 10
-0.0003051705297329
 20
54.58100164199721
 30
0.0
 10
-0.0003055388953293
 20
54.58085985320885
 30
0.0
 10
-0.0003075639154881
 20
54.58005571608397
 30
0.0
 10
-0.000308184661085
 20
54.57976458096957
 30
0.0
 10
-0.0003081846606548
 20
54.57976458117574
 30
0.0
  0
SPLINE
  5
D08F
330
D082
100
AcDbEntity
  8
0
100
AcDbSpline
210
0.0
220
0.0
230
1.0
 70
     8
 71
     3
 72
    24
 73
    20
 74
     0
 42
0.000000001
 43
0.0000000001
 40
0.0168056029118923
 40
0.0168056029118923
 40
0.0168056029118923
 40
0.0168056029118923
 40
0.0184770682885825
 40
0.0184770682885825
 40
0.0227328053566934
 40
0.0227328053566934
 40
0.0278040264407763
 40
0.0278040264407763
 40
0.040479030325974
 40
0.040479030325974
 40
0.054898944329876
 40
0.054898944329876
 40
0.0931264331407651
 40
0.0931264331407651
 40
0.1633355949511454
 40
0.1633355949511454
 40
0.2349259952793329
 40
0.2349259952793329
 40
0.2810889456363208
 40
0.2810889456363208
 40
0.2810889456363208
 40
0.2810889456363208
 10
-0.0003053249455927
 20
54.5865706473836
 30
0.0
 10
-0.0003053249504059
 20
54.58657065185957
 30
0.0
 10
-0.000304912482804
 20
54.58620753483798
 30
0.0
 10
-0.0003010603836744
 20
54.58357559934985
 30
0.0
 10
-0.0002932884038201
 20
54.57910087901684
 30
0.0
 10
-0.0002761090291611
 20
54.56701032890551
 30
0.0
 10
-0.0002681346292744
 20
54.55908739963238
 30
0.0
 10
-0.000256815821345
 20
54.53359171485019
 30
0.0
 10
-0.0002643565643514
 20
54.52304360434151
 30
0.0
 10
-0.0002520657960122
 20
54.49338076858956
 30
0.0
 10
-0.0002384494059242
 20
54.47325005617829
 30
0.0
 10
-0.0002041723496049
 20
54.39605633179908
 30
0.0
 10
-0.0001733366807652
 20
54.33117811832545
 30
0.0
 10
-0.0000747316688564
 20
54.1178383662122
 30
0.0
 10
-0.0000086644151581
 20
53.94608037513768
 30
0.0
 10
0.0000025885244661
 20
53.56317866358605
 30
0.0
 10
-0.0000692412523227
 20
53.34720434261402
 30
0.0
 10
-0.0002327467411615
 20
52.97826037780184
 30
0.0
 10
-0.0003066763465199
 20
52.82878227290826
 30
0.0
 10
-0.000305800866849
 20
52.67759322936271
 30
0.0
  0
SPLINE
  5
D090
330
D082
100
AcDbEntity
  8
0
100
AcDbSpline
210
0.0
220
0.0
230
1.0
 70
     8
 71
     3
 72
    12
 73
     8
 74
     0
 42
0.000000001
 43
0.0000000001
 40
0.0133116348444101
 40
0.0133116348444101
 40
0.0133116348444101
 40
0.0133116348444101
 40
0.0142303571122573
 40
0.0142303571122573
 40
0.0162632571564493
 40
0.0162632571564493
 40
0.0167192843737855
 40
0.0167192843737855
 40
0.0167192843737855
 40
0.0167192843737855
 10
-2.000305795503291
 20
54.62988013647692
 30
0.0
 10
-2.000312939958923
 20
54.63070693972942
 30
0.0
 10
-2.000320080004942
 20
54.63148943421121
 30
0.0
 10
-2.000341530715056
 20
54.63374638719941
 30
0.0
 10
-2.00035407022971
 20
54.63490404429878
 30
0.0
 10
-2.000359009536362
 20
54.63534759515969
 30
0.0
 10
-2.00035949212985
 20
54.63538977945084
 30
0.0
 10
-2.000359492139821
 20
54.63538978032246
 30
0.0
  0
SPLINE
  5
D091
330
D082
100
AcDbEntity
  8
0
100
AcDbSpline
210
0.0
220
0.0
230
1.0
 70
     8
 71
     3
 72
    14
 73
    10
 74
     0
 42
0.000000001
 43
0.0000000001
 40
0.3126800015240049
 40
0.3126800015240049
 40
0.3126800015240049
 40
0.3126800015240049
 40
0.4432437125963423
 40
0.4432437125963423
 40
0.5834285218376061
 40
0.5834285218376061
 40
0.6466876268305276
 40
0.6466876268305276
 40
0.7061930309185998
 40
0.7061930309185998
 40
0.7061930309185998
 40
0.7061930309185998
 10
-2.850989765972427
 20
51.64721562374716
 30
0.0
 10
-2.924689966122858
 20
51.26708654018276
 30
0.0
 10
-3.014186522041185
 20
50.90320349884397
 30
0.0
 10
-3.234114917064078
 20
50.17880608160163
 30
0.0
 10
-3.369167349120459
 20
49.81358564666075
 30
0.0
 10
-3.600582693149538
 20
49.29350367233273
 30
0.0
 10
-3.677251027138761
 20
49.1337547677574
 30
0.0
 10
-3.835220776203358
 20
48.82714707627108
 30
0.0
 10
-3.914902481265507
 20
48.68239766857495
 30
0.0
 10
-4.000305795503301
 20
48.53523116274006
 30
0.0
  0
SPLINE
  5
D092
330
D082
100
AcDbEntity
  8
0
100
AcDbSpline
210
0.0
220
0.0
230
1.0
 70
     8
 71
     3
 72
    14
 73
    10
 74
     0
 42
0.000000001
 43
0.0000000001
 40
0.3126800015238131
 40
0.3126800015238131
 40
0.3126800015238131
 40
0.3126800015238131
 40
0.4432437125955649
 40
0.4432437125955649
 40
0.5834285218361752
 40
0.5834285218361752
 40
0.6466876268288085
 40
0.6466876268288085
 40
0.7061930309166037
 40
0.7061930309166037
 40
0.7061930309166037
 40
0.7061930309166037
 10
-2.363518495863097
 20
-51.6472156237472
 30
0.0
 10
-2.311767836855044
 20
-51.26708654018337
 30
0.0
 10
-2.256311050350525
 20
-50.90320349884454
 30
0.0
 10
-2.148541250212128
 20
-50.17880608160108
 30
0.0
 10
-2.095420255309583
 20
-49.81358564666059
 30
0.0
 10
-2.039259100395026
 20
-49.29350367233283
 30
0.0
 10
-2.024866670717945
 20
-49.13375476775728
 30
0.0
 10
-2.005638722248605
 20
-48.82714707627117
 30
0.0
 10
-2.000305795503285
 20
-48.68239766857478
 30
0.0
 10
-2.000305795503285
 20
-48.53523116274005
 30
0.0
  0
SPLINE
  5
D093
330
D082
100
AcDbEntity
  8
0
100
AcDbSpline
210
0.0
220
0.0
230
1.0
 70
     8
 71
     3
 72
    10
 73
     6
 74
     0
 42
0.000000001
 43
0.0000000001
 40
0.0
 40
0.0
 40
0.0
 40
0.0
 40
0.2929592573845465
 40
0.2929592573845465
 40
0.449429928765807
 40
0.449429928765807
 40
0.449429928765807
 40
0.449429928765807
 10
-0.0003057955032848
 20
-48.53523116274005
 30
0.0
 10
-0.0003057955032851
 20
-49.17330906136903
 30
0.0
 10
-0.1891008150725734
 20
-49.81467350587468
 30
0.0
 10
-0.5010970793235531
 20
-50.86657470239427
 30
0.0
 10
-0.6180442194421313
 20
-51.24804118161145
 30
0.0
 10
-0.7267311962306277
 20
-51.64721562377565
 30
0.0
  0
LINE
  5
D094
330
D082
100
AcDbEntity
  8
0
100
AcDbLine
 10
-1.350304951982027
 20
-48.53523116274009
 30
0.0
 11
-0.0003057955032848
 21
-48.53523116274009
 31
0.0
  0
LINE
  5
D095
330
D082
100
AcDbEntity
  8
0
100
AcDbLine
 10
-2.000305795503284
 20
-48.53523116274009
 30
0.0
 11
-1.350304951982027
 21
-48.53523116274009
 31
0.0
  0
ARC
  5
D096
330
D082
100
AcDbEntity
  8
0
100
AcDbCircle
 10
-11.91899999999999
 20
54.64213562373095
 30
0.0
 40
9.999999999999998
100
AcDbArc
 50
314.9999999999999
 51
322.3605565273607
  0
LINE
  5
D097
330
D082
100
AcDbEntity
  8
0
100
AcDbLine
 10
-2.000305795503284
 20
-47.57106781186547
 30
0.0
 11
-2.000305795503284
 21
-48.53523116274009
 31
0.0
  0
LINE
  5
D098
330
D082
100
AcDbEntity
  8
0
100
AcDbLine
 10
-0.0003057955032847
 20
-48.53523116274009
 30
0.0
 11
-0.0003057955032849
 21
-47.57106781186547
 31
0.0
  0
LINE
  5
D099
330
D082
100
AcDbEntity
  8
0
100
AcDbLine
 10
-17.419
 20
35.0
 30
0.0
 11
-4.84793218813452
 21
47.57106781186546
 31
0.0
  0
LINE
  5
D09A
330
D082
100
AcDbEntity
  8
0
100
AcDbLine
 10
-34.419
 20
35.0
 30
0.0
 11
-17.419
 21
35.0
 31
0.0
  0
LINE
  5
D09B
330
D082
100
AcDbEntity
  8
0
100
AcDbLine
 10
-34.419
 20
-105.0
 30
0.0
 11
-34.419
 21
35.0
 31
0.0
  0
LINE
  5
D09C
330
D082
100
AcDbEntity
  8
0
100
AcDbLine
 10
-17.419
 20
-105.0
 30
0.0
 11
-34.419
 21
-105.0
 31
0.0
  0
LINE
  5
D09D
330
D082
100
AcDbEntity
  8
0
100
AcDbLine
 10
-1.919
 20
-89.50000000000002
 30
0.0
 11
-17.419
 21
-105.0
 31
0.0
  0
LINE
  5
D09E
330
D082
100
AcDbEntity
  8
0
100
AcDbLine
 10
-1.919
 20
-54.64721562373096
 30
0.0
 11
-1.919
 21
-89.50000000000002
 31
0.0
  0
LINE
  5
D09F
330
D082
100
AcDbEntity
  8
0
100
AcDbLine
 10
-2.000305795503287
 20
-35.00000000000001
 30
0.0
 11
-2.000305795503285
 21
-47.57106781186547
 31
0.0
  0
LINE
  5
D0A0
330
D082
100
AcDbEntity
  8
0
100
AcDbLine
 10
-2.000305795503291
 20
105.0
 30
0.0
 11
-2.000305795503291
 21
-35.0
 31
0.0
  0
LINE
  5
D0A1
330
D082
100
AcDbEntity
  8
0
100
AcDbLine
 10
-0.0003057955032915
 20
-35.00000000000001
 30
0.0
 11
-0.0003057955032917
 21
105.0
 31
0.0
  0
LINE
  5
D0A2
330
D082
100
AcDbEntity
  8
0
100
AcDbLine
 10
-0.0003057955032848
 20
-47.57106781186547
 30
0.0
 11
-0.0003057955032876
 21
-35.00000000000001
 31
0.0
  0
LINE
  5
D0A3
330
D082
100
AcDbEntity
  8
0
100
AcDbLine
 10
-2.000305795503291
 20
105.0
 30
0.0
 11
-0.0003057955032917
 21
105.0
 31
0.0
  0
LINE
  5
D0A4
330
D082
100
AcDbEntity
  8
0
100
AcDbLine
 10
-2.000305795503291
 20
-35.00000000000001
 30
0.0
 11
-0.0003057955032915
 21
-35.00000000000001
 31
0.0
  0
CIRCLE
  5
D0A5
330
D082
100
AcDbEntity
  8
0
100
AcDbCircle
 10
-26.919
 20
-97.5
 30
0.0
 40
2.5
  0
CIRCLE
  5
D0A6
330
D082
100
AcDbEntity
  8
0
100
AcDbCircle
 10
-11.919
 20
-87.50000000000003
 30
0.0
 40
2.5
  0
CIRCLE
  5
D0A7
330
D082
100
AcDbEntity
  8
0
100
AcDbCircle
 10
-26.919
 20
-77.50000000000001
 30
0.0
 40
2.5
  0
CIRCLE
  5
D0A8
330
D082
100
AcDbEntity
  8
0
100
AcDbCircle
 10
-26.919
 20
-57.5
 30
0.0
 40
2.5
  0
CIRCLE
  5
D0A9
330
D082
100
AcDbEntity
  8
0
100
AcDbCircle
 10
-26.919
 20
-37.50000000000001
 30
0.0
 40
2.5
  0
CIRCLE
  5
D0AA
330
D082
100
AcDbEntity
  8
0
100
AcDbCircle
 10
-26.919
 20
-17.50000000000001
 30
0.0
 40
2.5
  0
CIRCLE
  5
D0AB
330
D082
100
AcDbEntity
  8
0
100
AcDbCircle
 10
-26.919
 20
2.499999999999991
 30
0.0
 40
2.5
  0
CIRCLE
  5
D0AC
330
D082
100
AcDbEntity
  8
0
100
AcDbCircle
 10
-26.919
 20
22.5
 30
0.0
 40
2.5
  0
CIRCLE
  5
D0AD
330
D082
100
AcDbEntity
  8
0
100
AcDbCircle
 10
-11.919
 20
-47.50000000000002
 30
0.0
 40
2.5
  0
CIRCLE
  5
D0AE
330
D082
100
AcDbEntity
  8
0
100
AcDbCircle
 10
-11.919
 20
-27.50000000000003
 30
0.0
 40
2.5
  0
CIRCLE
  5
D0AF
330
D082
100
AcDbEntity
  8
0
100
AcDbCircle
 10
-11.919
 20
-7.500000000000026
 30
0.0
 40
2.5
  0
CIRCLE
  5
D0B0
330
D082
100
AcDbEntity
  8
0
100
AcDbCircle
 10
-11.919
 20
12.49999999999997
 30
0.0
 40
2.5
  0
CIRCLE
  5
D0B1
330
D082
100
AcDbEntity
  8
0
100
AcDbCircle
 10
-11.919
 20
32.49999999999997
 30
0.0
 40
2.5
  0
CIRCLE
  5
D0B2
330
D082
100
AcDbEntity
  8
0
100
AcDbCircle
 10
-13.919
 20
-67.50000000000003
 30
0.0
 40
4.5
  0
ENDBLK
  5
D084
330
D082
100
AcDbEntity
  8
0
100
AcDbBlockEnd
  0
BLOCK
  5
D0B4
330
D0B3
100
AcDbEntity
  8
0
100
AcDbBlockBegin
  2
SPF210LZ-Left
 70
     0
 10
0.0
 20
0.0
 30
0.0
  3
SPF210LZ-Left
  1

  0
SPLINE
  5
D0B6
330
D0B3
100
AcDbEntity
  8
0
100
AcDbSpline
210
0.0
220
0.0
230
1.0
 70
     8
 71
     3
 72
    14
 73
    10
 74
     0
 42
0.000000001
 43
0.0000000001
 40
0.0
 40
0.0
 40
0.0
 40
0.0
 40
0.3203790963197878
 40
0.3203790963197878
 40
0.3203790963197878
 40
0.8798267533562436
 40
0.8798267533562436
 40
0.8798267533562436
 40
1.0
 40
1.0
 40
1.0
 40
1.0
 10
2.850683970466628
 20
-51.64721562373149
 30
0.0
 10
2.783281671994319
 20
-51.98251224328834
 30
0.0
 10
2.675642190077783
 20
-52.30040157248183
 30
0.0
 10
2.554809633446074
 20
-52.61243796363146
 30
0.0
 10
2.343811189796493
 20
-53.15731754517734
 30
0.0
 10
2.105275223994367
 20
-53.68943098029394
 30
0.0
 10
2.026370434780453
 20
-54.26742141921728
 30
0.0
 10
2.009421137422042
 20
-54.39157778434071
 30
0.0
 10
2.000652303573678
 20
-54.51798461880198
 30
0.0
 10
1.999999999999958
 20
-54.64721562373383
 30
0.0
  0
LINE
  5
D0B7
330
D0B3
100
AcDbEntity
  8
0
100
AcDbLine
 10
2.0
 20
-51.64721562373095
 30
0.0
 11
2.850683970469138
 21
-51.64721562373095
 31
0.0
  0
SPLINE
  5
D0B8
330
D0B3
100
AcDbEntity
  8
0
100
AcDbSpline
210
0.0
220
0.0
230
1.0
 70
     8
 71
     3
 72
     8
 73
     4
 74
     0
 42
0.000000001
 43
0.0000000001
 40
0.0
 40
0.0
 40
0.0
 40
0.0
 40
0.0036363221428428
 40
0.0036363221428428
 40
0.0036363221428428
 40
0.0036363221428428
 10
-0.0001753644924053
 20
-54.64689071598908
 30
0.0
 10
-0.0001392087300526
 20
-54.63538999188706
 30
0.0
 10
-0.0000815422926733
 20
-54.62411766214173
 30
0.0
 10
0.0000000116568662
 20
-54.61342248983406
 30
0.0
  0
SPLINE
  5
D0B9
330
D0B3
100
AcDbEntity
  8
0
100
AcDbSpline
210
0.0
220
0.0
230
1.0
 70
     8
 71
     3
 72
    20
 73
    16
 74
     0
 42
0.000000001
 43
0.0000000001
 40
0.0027035973883344
 40
0.0027035973883344
 40
0.0027035973883344
 40
0.0027035973883344
 40
0.0105781487203896
 40
0.0105781487203896
 40
0.0200924871046567
 40
0.0200924871046567
 40
0.0322065096791114
 40
0.0322065096791114
 40
0.0604900241493398
 40
0.0604900241493398
 40
0.1342406632524888
 40
0.1342406632524888
 40
0.202448638495765
 40
0.202448638495765
 40
0.2836049019016466
 40
0.2836049019016466
 40
0.2836049019016466
 40
0.2836049019016466
 10
0.0000011779808736
 20
-54.60880892492895
 30
0.0
 10
-0.0000391764775396
 20
-54.59446302694946
 30
0.0
 10
-0.0000546151561193
 20
-54.58311219216533
 30
0.0
 10
-0.0000763689406554
 20
-54.5672007138386
 30
0.0
 10
-0.0000843902304353
 20
-54.56213946991567
 30
0.0
 10
-0.0001161740863757
 20
-54.5413633427477
 30
0.0
 10
-0.0001329209938538
 20
-54.52579900364979
 30
0.0
 10
-0.0001630473611186
 20
-54.47838857792916
 30
0.0
 10
-0.0001849305381868
 20
-54.44263243765163
 30
0.0
 10
-0.0002810461314675
 20
-54.28429700229208
 30
0.0
 10
-0.000370879635817
 20
-54.12858359394842
 30
0.0
 10
-0.0004444541688783
 20
-53.77985886067939
 30
0.0
 10
-0.0004256764195856
 20
-53.58751123909076
 30
0.0
 10
-0.0002346507849901
 20
-53.14152704255684
 30
0.0
 10
0.0000004051453261
 20
-52.87797260581768
 30
0.0
 10
-0.0000000545519069
 20
-52.61125934909145
 30
0.0
  0
SPLINE
  5
D0BA
330
D0B3
100
AcDbEntity
  8
0
100
AcDbSpline
210
0.0
220
0.0
230
1.0
 70
     8
 71
     3
 72
    14
 73
    10
 74
     0
 42
0.000000001
 43
0.0000000001
 40
-1.0
 40
-1.0
 40
-1.0
 40
-1.0
 40
-0.6769197926955919
 40
-0.6769197926955919
 40
-0.6769197926955919
 40
-0.111284982148512
 40
-0.111284982148512
 40
-0.111284982148512
 40
0.0
 40
0.0
 40
0.0
 40
0.0
 10
2.36321270035981
 20
51.64721562373096
 30
0.0
 10
2.404977877427986
 20
51.9839765095288
 30
0.0
 10
2.377336560710543
 20
52.30459750763603
 30
0.0
 10
2.316543935766876
 20
52.61956662127066
 30
0.0
 10
2.210110845422002
 20
53.17100088090962
 30
0.0
 10
2.002621401312147
 20
53.70879515735402
 30
0.0
 10
1.938293351434588
 20
54.29489497487425
 30
0.0
 10
1.925637224639017
 20
54.41020631447675
 30
0.0
 10
1.918699700209802
 20
54.52760773454607
 30
0.0
 10
1.918694204501258
 20
54.6472156237342
 30
0.0
  0
SPLINE
  5
D0BB
330
D0B3
100
AcDbEntity
  8
0
100
AcDbSpline
210
0.0
220
0.0
230
1.0
 70
     8
 71
     3
 72
    11
 73
     7
 74
     0
 42
0.000000001
 43
0.0000000001
 40
-1.0
 40
-1.0
 40
-1.0
 40
-1.0
 40
-0.6490265332870804
 40
-0.6490265332870804
 40
-0.6490265332870804
 40
0.0
 40
0.0
 40
0.0
 40
0.0
 10
1.918694204496718
 20
54.64721562373094
 30
0.0
 10
1.918763616483033
 20
54.18314394863212
 30
0.0
 10
1.808256098253598
 20
53.81055397913524
 30
0.0
 10
1.653367645466004
 20
53.47593270559172
 30
0.0
 10
1.366945094780262
 20
52.85714494603237
 30
0.0
 10
0.9210065705661481
 20
52.36603791784362
 30
0.0
 10
0.726425400727343
 20
51.6472156237533
 30
0.0
  0
LINE
  5
D0BC
330
D0B3
100
AcDbEntity
  8
0
100
AcDbLine
 10
2.267326125961291
 20
51.64721562373093
 30
0.0
 11
0.7264254007273483
 21
51.6472156237533
 31
0.0
  0
ARC
  5
D0BD
330
D0B3
100
AcDbEntity
  8
0
100
AcDbCircle
 10
1.918694204496714
 20
52.56590982822765
 30
0.0
 40
2.081305795503288
100
AcDbArc
 50
1.283280972397198
 51
90.00000000000003
  0
LINE
  5
D0BE
330
D0B3
100
AcDbEntity
  8
0
100
AcDbLine
 10
3.999999999999997
 20
51.64721562373093
 30
0.0
 11
2.36321270035981
 21
51.64721562373093
 31
0.0
  0
LINE
  5
D0BF
330
D0B3
100
AcDbEntity
  8
0
100
AcDbLine
 10
3.999999999999999
 20
54.64213562373093
 30
0.0
 11
3.999999999999997
 21
54.64721562373093
 31
0.0
  0
LINE
  5
D0C0
330
D0B3
100
AcDbEntity
  8
0
100
AcDbLine
 10
3.999999999999997
 20
54.64721562373093
 30
0.0
 11
4.005079999999999
 21
54.64721562373093
 31
0.0
  0
SPLINE
  5
D0C1
330
D0B3
100
AcDbEntity
  8
0
100
AcDbSpline
210
0.0
220
0.0
230
1.0
 70
     8
 71
     3
 72
    14
 73
    10
 74
     0
 42
0.000000001
 43
0.0000000001
 40
0.3126800015240049
 40
0.3126800015240049
 40
0.3126800015240049
 40
0.3126800015240049
 40
0.4432437125963423
 40
0.4432437125963423
 40
0.5834285218376061
 40
0.5834285218376061
 40
0.6466876268305276
 40
0.6466876268305276
 40
0.7061930309185998
 40
0.7061930309185998
 40
0.7061930309185998
 40
0.7061930309185998
 10
2.36321270035981
 20
51.64721562374716
 30
0.0
 10
2.311462041351676
 20
51.26708654018276
 30
0.0
 10
2.256005254847151
 20
50.90320349884397
 30
0.0
 10
2.14823545470893
 20
50.17880608160163
 30
0.0
 10
2.09511445980632
 20
49.81358564666075
 30
0.0
 10
2.038953304891732
 20
49.29350367233273
 30
0.0
 10
2.024560875214666
 20
49.1337547677574
 30
0.0
 10
2.005332926745313
 20
48.82714707627108
 30
0.0
 10
2.0
 20
48.68239766857495
 30
0.0
 10
2.0
 20
48.53523116274006
 30
0.0
  0
SPLINE
  5
D0C2
330
D0B3
100
AcDbEntity
  8
0
100
AcDbSpline
210
0.0
220
0.0
230
1.0
 70
     8
 71
     3
 72
    14
 73
    10
 74
     0
 42
0.000000001
 43
0.0000000001
 40
0.3126800015238131
 40
0.3126800015238131
 40
0.3126800015238131
 40
0.3126800015238131
 40
0.4432437125955649
 40
0.4432437125955649
 40
0.5834285218361752
 40
0.5834285218361752
 40
0.6466876268288085
 40
0.6466876268288085
 40
0.7061930309166037
 40
0.7061930309166037
 40
0.7061930309166037
 40
0.7061930309166037
 10
2.850683970469138
 20
-51.6472156237472
 30
0.0
 10
2.924384170619455
 20
-51.26708654018337
 30
0.0
 10
3.013880726537717
 20
-50.90320349884454
 30
0.0
 10
3.23380912156097
 20
-50.17880608160108
 30
0.0
 10
3.368861553617264
 20
-49.81358564666059
 30
0.0
 10
3.600276897646217
 20
-49.29350367233283
 30
0.0
 10
3.676945231635527
 20
-49.13375476775728
 30
0.0
 10
3.834914980700015
 20
-48.82714707627117
 30
0.0
 10
3.914596685762311
 20
-48.68239766857478
 30
0.0
 10
4.000000000000011
 20
-48.53523116274005
 30
0.0
  0
SPLINE
  5
D0C3
330
D0B3
100
AcDbEntity
  8
0
100
AcDbSpline
210
0.0
220
0.0
230
1.0
 70
     8
 71
     3
 72
    10
 73
     6
 74
     0
 42
0.000000001
 43
0.0000000001
 40
0.0
 40
0.0
 40
0.0
 40
0.0
 40
0.2929592573877304
 40
0.2929592573877304
 40
0.4494299287699572
 40
0.4494299287699572
 40
0.4494299287699572
 40
0.4494299287699572
 10
0.0000000000000003
 20
48.53523116274006
 30
0.0
 10
0.0
 20
49.173309061376
 30
0.0
 10
0.1887950195726129
 20
49.81467350588631
 30
0.0
 10
0.5007912838219833
 20
50.8665747023998
 30
0.0
 10
0.61773842393963
 20
51.24804118161431
 30
0.0
 10
0.7264254007273486
 20
51.64721562377565
 30
0.0
  0
LINE
  5
D0C4
330
D0B3
100
AcDbEntity
  8
0
100
AcDbLine
 10
1.349999156478741
 20
48.53523116274008
 30
0.0
 11
0.0
 21
48.53523116274008
 31
0.0
  0
LINE
  5
D0C5
330
D0B3
100
AcDbEntity
  8
0
100
AcDbLine
 10
2.0
 20
48.53523116274008
 30
0.0
 11
1.349999156478741
 21
48.53523116274008
 31
0.0
  0
LINE
  5
D0C6
330
D0B3
100
AcDbEntity
  8
0
100
AcDbLine
 10
4.005079999999999
 20
54.64213562373093
 30
0.0
 11
3.999999999999999
 21
54.64213562373093
 31
0.0
  0
LINE
  5
D0C7
330
D0B3
100
AcDbEntity
  8
0
100
AcDbLine
 10
4.005079999999999
 20
54.64721562373093
 30
0.0
 11
4.005079999999999
 21
54.64213562373093
 31
0.0
  0
LINE
  5
D0C8
330
D0B3
100
AcDbEntity
  8
0
100
AcDbLine
 10
0.0
 20
35.0
 30
0.0
 11
0.0
 21
-105.0
 31
0.0
  0
LINE
  5
D0C9
330
D0B3
100
AcDbEntity
  8
0
100
AcDbLine
 10
0.0
 20
47.57106781186546
 30
0.0
 11
0.0
 21
35.0
 31
0.0
  0
LINE
  5
D0CA
330
D0B3
100
AcDbEntity
  8
0
100
AcDbLine
 10
2.0
 20
35.0
 30
0.0
 11
2.0
 21
47.57106781186546
 31
0.0
  0
LINE
  5
D0CB
330
D0B3
100
AcDbEntity
  8
0
100
AcDbLine
 10
2.0
 20
-105.0
 30
0.0
 11
2.0
 21
35.0
 31
0.0
  0
LINE
  5
D0CC
330
D0B3
100
AcDbEntity
  8
0
100
AcDbLine
 10
2.0
 20
35.0
 30
0.0
 11
0.0
 21
35.0
 31
0.0
  0
LINE
  5
D0CD
330
D0B3
100
AcDbEntity
  8
0
100
AcDbLine
 10
2.0
 20
-105.0
 30
0.0
 11
0.0
 21
-105.0
 31
0.0
  0
LINE
  5
D0CE
330
D0B3
100
AcDbEntity
  8
0
100
AcDbLine
 10
17.41869420449671
 20
-35.00000000000001
 30
0.0
 11
4.847626392631243
 21
-47.57106781186547
 31
0.0
  0
LINE
  5
D0CF
330
D0B3
100
AcDbEntity
  8
0
100
AcDbLine
 10
34.41869420449672
 20
-35.00000000000001
 30
0.0
 11
17.41869420449671
 21
-35.00000000000001
 31
0.0
  0
LINE
  5
D0D0
330
D0B3
100
AcDbEntity
  8
0
100
AcDbLine
 10
34.41869420449672
 20
105.0
 30
0.0
 11
34.41869420449672
 21
-35.0
 31
0.0
  0
LINE
  5
D0D1
330
D0B3
100
AcDbEntity
  8
0
100
AcDbLine
 10
17.41869420449671
 20
105.0
 30
0.0
 11
34.41869420449672
 21
105.0
 31
0.0
  0
LINE
  5
D0D2
330
D0B3
100
AcDbEntity
  8
0
100
AcDbLine
 10
1.918694204496715
 20
89.50000000000001
 30
0.0
 11
17.41869420449671
 21
105.0
 31
0.0
  0
LINE
  5
D0D3
330
D0B3
100
AcDbEntity
  8
0
100
AcDbLine
 10
1.918694204496714
 20
54.64721562373093
 30
0.0
 11
1.918694204496715
 21
89.50000000000001
 31
0.0
  0
LINE
  5
D0D4
330
D0B3
100
AcDbEntity
  8
0
100
AcDbLine
 10
0.0
 20
48.53523116274008
 30
0.0
 11
0.0
 21
47.57106781186546
 31
0.0
  0
LINE
  5
D0D5
330
D0B3
100
AcDbEntity
  8
0
100
AcDbLine
 10
2.0
 20
47.57106781186546
 30
0.0
 11
2.0
 21
48.53523116274008
 31
0.0
  0
ARC
  5
D0D6
330
D0B3
100
AcDbEntity
  8
0
100
AcDbCircle
 10
11.91869420449671
 20
-54.64213562373096
 30
0.0
 40
10.0
100
AcDbArc
 50
134.9999999999999
 51
142.3605565273606
  0
CIRCLE
  5
D0D7
330
D0B3
100
AcDbEntity
  8
0
100
AcDbCircle
 10
26.91869420449672
 20
-22.50000000000001
 30
0.0
 40
2.5
  0
CIRCLE
  5
D0D8
330
D0B3
100
AcDbEntity
  8
0
100
AcDbCircle
 10
11.91869420449671
 20
-32.50000000000001
 30
0.0
 40
2.5
  0
CIRCLE
  5
D0D9
330
D0B3
100
AcDbEntity
  8
0
100
AcDbCircle
 10
26.91869420449672
 20
-2.500000000000008
 30
0.0
 40
2.5
  0
CIRCLE
  5
D0DA
330
D0B3
100
AcDbEntity
  8
0
100
AcDbCircle
 10
11.91869420449671
 20
-12.50000000000001
 30
0.0
 40
2.5
  0
CIRCLE
  5
D0DB
330
D0B3
100
AcDbEntity
  8
0
100
AcDbCircle
 10
26.91869420449672
 20
17.49999999999999
 30
0.0
 40
2.5
  0
CIRCLE
  5
D0DC
330
D0B3
100
AcDbEntity
  8
0
100
AcDbCircle
 10
11.91869420449671
 20
7.499999999999991
 30
0.0
 40
2.5
  0
CIRCLE
  5
D0DD
330
D0B3
100
AcDbEntity
  8
0
100
AcDbCircle
 10
26.91869420449672
 20
37.5
 30
0.0
 40
2.5
  0
CIRCLE
  5
D0DE
330
D0B3
100
AcDbEntity
  8
0
100
AcDbCircle
 10
11.91869420449671
 20
27.5
 30
0.0
 40
2.5
  0
CIRCLE
  5
D0DF
330
D0B3
100
AcDbEntity
  8
0
100
AcDbCircle
 10
26.91869420449672
 20
57.5
 30
0.0
 40
2.5
  0
CIRCLE
  5
D0E0
330
D0B3
100
AcDbEntity
  8
0
100
AcDbCircle
 10
11.91869420449671
 20
47.49999999999999
 30
0.0
 40
2.5
  0
CIRCLE
  5
D0E1
330
D0B3
100
AcDbEntity
  8
0
100
AcDbCircle
 10
26.91869420449672
 20
77.49999999999999
 30
0.0
 40
2.5
  0
CIRCLE
  5
D0E2
330
D0B3
100
AcDbEntity
  8
0
100
AcDbCircle
 10
11.91869420449671
 20
67.49999999999999
 30
0.0
 40
2.5
  0
CIRCLE
  5
D0E3
330
D0B3
100
AcDbEntity
  8
0
100
AcDbCircle
 10
11.91869420449671
 20
87.5
 30
0.0
 40
2.5
  0
CIRCLE
  5
D0E4
330
D0B3
100
AcDbEntity
  8
0
100
AcDbCircle
 10
26.91869420449672
 20
97.5
 30
0.0
 40
2.5
  0
ENDBLK
  5
D0B5
330
D0B3
100
AcDbEntity
  8
0
100
AcDbBlockEnd
  0
BLOCK
  5
D0E6
330
D0E5
100
AcDbEntity
  8
0
100
AcDbBlockBegin
  2
SPF210LZ-Right
 70
     0
 10
0.0
 20
0.0
 30
0.0
  3
SPF210LZ-Right
  1

  0
LINE
  5
D0E8
330
D0E5
100
AcDbEntity
  8
0
100
AcDbLine
 10
0.0
 20
-51.64721562373095
 30
0.0
 11
-1.701367940927286
 21
-51.64721562373095
 31
0.0
  0
SPLINE
  5
D0E9
330
D0E5
100
AcDbEntity
  8
0
100
AcDbSpline
210
0.0
220
0.0
230
1.0
 70
     8
 71
     3
 72
    14
 73
    10
 74
     0
 42
0.000000001
 43
0.0000000001
 40
0.0
 40
0.0
 40
0.0
 40
0.0
 40
0.3674902801726788
 40
0.3674902801726788
 40
0.3674902801726788
 40
0.8544958201613873
 40
0.8544958201613873
 40
0.8544958201613873
 40
1.0
 40
1.0
 40
1.0
 40
1.0
 10
-1.701367940927276
 20
-51.64721562375327
 30
0.0
 10
-1.540203220945814
 20
-52.05263920166899
 30
0.0
 10
-1.271250862264714
 20
-52.38814887799215
 30
0.0
 10
-0.9915852062481389
 20
-52.71376786393755
 30
0.0
 10
-0.6209666316271976
 20
-53.14528471931236
 30
0.0
 10
-0.2305703565723249
 20
-53.55978760870709
 30
0.0
 10
-0.0726092479854673
 20
-54.11256748376776
 30
0.0
 10
-0.0254147098045224
 20
-54.27772326896449
 30
0.0
 10
-0.0000029614921096
 20
-54.45598735303627
 30
0.0
 10
-0.0000000001008432
 20
-54.64721562380844
 30
0.0
  0
LINE
  5
D0EA
330
D0E5
100
AcDbEntity
  8
0
100
AcDbLine
 10
0.0
 20
-54.64721562373096
 30
0.0
 11
0.0
 21
-54.64689107482214
 31
0.0
  0
LINE
  5
D0EB
330
D0E5
100
AcDbEntity
  8
0
100
AcDbLine
 10
0.0
 20
-54.64041725363184
 30
0.0
 11
0.0
 21
-54.63249341873029
 31
0.0
  0
LINE
  5
D0EC
330
D0E5
100
AcDbEntity
  8
0
100
AcDbLine
 10
0.0
 20
-52.61125934930564
 30
0.0
 11
0.0
 21
-52.56082982822768
 31
0.0
  0
LINE
  5
D0ED
330
D0E5
100
AcDbEntity
  8
0
100
AcDbLine
 10
0.0
 20
-51.64721562373095
 30
0.0
 11
0.0
 21
-52.56082982822768
 31
0.0
  0
LINE
  5
D0EE
330
D0E5
100
AcDbEntity
  8
0
100
AcDbLine
 10
-2.850683970472287
 20
-51.64721562373096
 30
0.0
 11
-1.701367940927286
 21
-51.6472156237533
 31
0.0
  0
SPLINE
  5
D0EF
330
D0E5
100
AcDbEntity
  8
0
100
AcDbSpline
210
0.0
220
0.0
230
1.0
 70
     8
 71
     3
 72
    14
 73
    10
 74
     0
 42
0.000000001
 43
0.0000000001
 40
0.0
 40
0.0
 40
0.0
 40
0.0
 40
0.3203790963197878
 40
0.3203790963197878
 40
0.3203790963197878
 40
0.8798267533562436
 40
0.8798267533562436
 40
0.8798267533562436
 40
1.0
 40
1.0
 40
1.0
 40
1.0
 10
-2.850683970466628
 20
-51.64721562373149
 30
0.0
 10
-2.783281671994319
 20
-51.98251224328834
 30
0.0
 10
-2.675642190077783
 20
-52.30040157248183
 30
0.0
 10
-2.554809633446074
 20
-52.61243796363146
 30
0.0
 10
-2.343811189796493
 20
-53.15731754517734
 30
0.0
 10
-2.105275223994367
 20
-53.68943098029394
 30
0.0
 10
-2.026370434780453
 20
-54.26742141921728
 30
0.0
 10
-2.009421137422042
 20
-54.39157778434071
 30
0.0
 10
-2.000652303573678
 20
-54.51798461880198
 30
0.0
 10
-1.999999999999958
 20
-54.64721562373383
 30
0.0
  0
SPLINE
  5
D0F0
330
D0E5
100
AcDbEntity
  8
0
100
AcDbSpline
210
0.0
220
0.0
230
1.0
 70
     8
 71
     3
 72
    18
 73
    14
 74
     0
 42
0.000000001
 43
0.0000000001
 40
0.0103755767071474
 40
0.0103755767071474
 40
0.0103755767071474
 40
0.0103755767071474
 40
0.0109949216202603
 40
0.0109949216202603
 40
0.012048162918316
 40
0.012048162918316
 40
0.013475417717271
 40
0.013475417717271
 40
0.0155701451127035
 40
0.0155701451127035
 40
0.0187762427989292
 40
0.0187762427989292
 40
0.0228693870454748
 40
0.0228693870454748
 40
0.0228693870454748
 40
0.0228693870454748
 10
-0.0006702635152963
 20
-54.55797756379326
 30
0.0
 10
-0.0006702634122888
 20
-54.55797757066211
 30
0.0
 10
-0.0006671495679914
 20
-54.55818404156153
 30
0.0
 10
-0.000651687779882
 20
-54.55918753770975
 30
0.0
 10
-0.0006342601175441
 20
-54.5603043029136
 30
0.0
 10
-0.0005822569996963
 20
-54.56365199043869
 30
0.0
 10
-0.0005435248370533
 20
-54.56615970690677
 30
0.0
 10
-0.0004403231388391
 20
-54.57312116433026
 30
0.0
 10
-0.0003716449206854
 20
-54.57799214994089
 30
0.0
 10
-0.0002045787487232
 20
-54.591194493904
 30
0.0
 10
-0.0001087518426367
 20
-54.60010900008435
 30
0.0
 10
0.000066244538152
 20
-54.62128107108431
 30
0.0
 10
0.0001346665715831
 20
-54.63394518453174
 30
0.0
 10
0.0001753644924053
 20
-54.64689071598911
 30
0.0
  0
SPLINE
  5
D0F1
330
D0E5
100
AcDbEntity
  8
0
100
AcDbSpline
210
0.0
220
0.0
230
1.0
 70
     8
 71
     3
 72
    18
 73
    14
 74
     0
 42
0.000000001
 43
0.0000000001
 40
0.0
 40
0.0
 40
0.0
 40
0.0
 40
0.0938258202092042
 40
0.0938258202092042
 40
0.1816952729371321
 40
0.1816952729371321
 40
0.2556656474627685
 40
0.2556656474627685
 40
0.2693689993086695
 40
0.2693689993086695
 40
0.2760982055912731
 40
0.2760982055912731
 40
0.2810898296514872
 40
0.2810898296514872
 40
0.2810898296514872
 40
0.2810898296514872
 10
0.0000000545519069
 20
-52.61125934909146
 30
0.0
 10
-0.0000004769100915
 20
-52.91961004222098
 30
0.0
 10
0.000293391038952
 20
-53.22454876359216
 30
0.0
 10
0.0004635007283134
 20
-53.75290754245742
 30
0.0
 10
0.0004177180544597
 20
-53.98779194505472
 30
0.0
 10
0.000262654264656
 20
-54.32717543408415
 30
0.0
 10
0.0002111448051699
 20
-54.44067924949209
 30
0.0
 10
0.0001138668123475
 20
-54.5446891808848
 30
0.0
 10
0.0000892563114926
 20
-54.55827706622735
 30
0.0
 10
0.0000680000466642
 20
-54.5731667263945
 30
0.0
 10
0.0000618979056481
 20
-54.57884588896613
 30
0.0
 10
0.000035197111212
 20
-54.59446093471247
 30
0.0
 10
0.0000173088772008
 20
-54.60284131199968
 30
0.0
 10
-0.0000106726368718
 20
-54.61213808417216
 30
0.0
  0
SPLINE
  5
D0F2
330
D0E5
100
AcDbEntity
  8
0
100
AcDbSpline
210
0.0
220
0.0
230
1.0
 70
     8
 71
     3
 72
    11
 73
     7
 74
     0
 42
0.000000001
 43
0.0000000001
 40
-1.0
 40
-1.0
 40
-1.0
 40
-1.0
 40
-0.6490265332870804
 40
-0.6490265332870804
 40
-0.6490265332870804
 40
0.0
 40
0.0
 40
0.0
 40
0.0
 10
-1.918694204496718
 20
54.64721562373094
 30
0.0
 10
-1.918763616483033
 20
54.18314394863212
 30
0.0
 10
-1.808256098253598
 20
53.81055397913524
 30
0.0
 10
-1.653367645466004
 20
53.47593270559172
 30
0.0
 10
-1.366945094780262
 20
52.85714494603237
 30
0.0
 10
-0.9210065705661481
 20
52.36603791784362
 30
0.0
 10
-0.726425400727343
 20
51.6472156237533
 30
0.0
  0
LINE
  5
D0F3
330
D0E5
100
AcDbEntity
  8
0
100
AcDbLine
 10
-3.999999999999998
 20
51.64721562373093
 30
0.0
 11
-0.726425400727348
 21
51.64721562373093
 31
0.0
  0
LINE
  5
D0F4
330
D0E5
100
AcDbEntity
  8
0
100
AcDbLine
 10
-4.0
 20
54.64213562373093
 30
0.0
 11
-3.999999999999998
 21
54.64721562373093
 31
0.0
  0
LINE
  5
D0F5
330
D0E5
100
AcDbEntity
  8
0
100
AcDbLine
 10
-4.00508
 20
54.64721562373093
 30
0.0
 11
-3.999999999999998
 21
54.64721562373093
 31
0.0
  0
SPLINE
  5
D0F6
330
D0E5
100
AcDbEntity
  8
0
100
AcDbSpline
210
0.0
220
0.0
230
1.0
 70
     8
 71
     3
 72
    14
 73
    10
 74
     0
 42
0.000000001
 43
0.0000000001
 40
0.3126800015238131
 40
0.3126800015238131
 40
0.3126800015238131
 40
0.3126800015238131
 40
0.4432437125955649
 40
0.4432437125955649
 40
0.5834285218361752
 40
0.5834285218361752
 40
0.6466876268288085
 40
0.6466876268288085
 40
0.7061930309166037
 40
0.7061930309166037
 40
0.7061930309166037
 40
0.7061930309166037
 10
-2.850683970469138
 20
-51.6472156237472
 30
0.0
 10
-2.924384170619455
 20
-51.26708654018337
 30
0.0
 10
-3.013880726537717
 20
-50.90320349884454
 30
0.0
 10
-3.23380912156097
 20
-50.17880608160108
 30
0.0
 10
-3.368861553617264
 20
-49.81358564666059
 30
0.0
 10
-3.600276897646217
 20
-49.29350367233283
 30
0.0
 10
-3.676945231635527
 20
-49.13375476775728
 30
0.0
 10
-3.834914980700015
 20
-48.82714707627117
 30
0.0
 10
-3.914596685762311
 20
-48.68239766857478
 30
0.0
 10
-4.000000000000011
 20
-48.53523116274005
 30
0.0
  0
SPLINE
  5
D0F7
330
D0E5
100
AcDbEntity
  8
0
100
AcDbSpline
210
0.0
220
0.0
230
1.0
 70
     8
 71
     3
 72
    10
 73
     6
 74
     0
 42
0.000000001
 43
0.0000000001
 40
0.0
 40
0.0
 40
0.0
 40
0.0
 40
0.2929592573845465
 40
0.2929592573845465
 40
0.449429928765807
 40
0.449429928765807
 40
0.449429928765807
 40
0.449429928765807
 10
-4.000000000000007
 20
-48.53523116274005
 30
0.0
 10
-3.260764508558456
 20
-49.17330906136903
 30
0.0
 10
-2.697493291699105
 20
-49.81467350587468
 30
0.0
 10
-2.045821758190094
 20
-50.86657470239427
 30
0.0
 10
-1.856153446977389
 20
-51.24804118161145
 30
0.0
 10
-1.701367940927287
 20
-51.64721562377565
 30
0.0
  0
LINE
  5
D0F8
330
D0E5
100
AcDbEntity
  8
0
100
AcDbLine
 10
0.0
 20
48.53523116274008
 30
0.0
 11
0.0
 21
-51.64721562373095
 31
0.0
  0
SPLINE
  5
D0F9
330
D0E5
100
AcDbEntity
  8
0
100
AcDbSpline
210
0.0
220
0.0
230
1.0
 70
     8
 71
     3
 72
    10
 73
     6
 74
     0
 42
0.000000001
 43
0.0000000001
 40
0.0
 40
0.0
 40
0.0
 40
0.0
 40
0.2929592573877304
 40
0.2929592573877304
 40
0.4494299287699572
 40
0.4494299287699572
 40
0.4494299287699572
 40
0.4494299287699572
 10
-0.0000000000000003
 20
48.53523116274006
 30
0.0
 10
0.0
 20
49.173309061376
 30
0.0
 10
-0.1887950195726129
 20
49.81467350588631
 30
0.0
 10
-0.5007912838219833
 20
50.8665747023998
 30
0.0
 10
-0.61773842393963
 20
51.24804118161431
 30
0.0
 10
-0.7264254007273486
 20
51.64721562377565
 30
0.0
  0
LINE
  5
D0FA
330
D0E5
100
AcDbEntity
  8
0
100
AcDbLine
 10
-4.0
 20
54.64213562373093
 30
0.0
 11
-4.00508
 21
54.64213562373093
 31
0.0
  0
LINE
  5
D0FB
330
D0E5
100
AcDbEntity
  8
0
100
AcDbLine
 10
-4.00508
 20
54.64213562373093
 30
0.0
 11
-4.00508
 21
54.64721562373093
 31
0.0
  0
LINE
  5
D0FC
330
D0E5
100
AcDbEntity
  8
0
100
AcDbLine
 10
0.0
 20
-89.50000000000002
 30
0.0
 11
0.0
 21
-54.64721562373096
 31
0.0
  0
LINE
  5
D0FD
330
D0E5
100
AcDbEntity
  8
0
100
AcDbLine
 10
0.0
 20
-105.0
 30
0.0
 11
0.0
 21
-89.50000000000002
 31
0.0
  0
LINE
  5
D0FE
330
D0E5
100
AcDbEntity
  8
0
100
AcDbLine
 10
-2.0
 20
-89.50000000000002
 30
0.0
 11
-2.0
 21
-105.0
 31
0.0
  0
LINE
  5
D0FF
330
D0E5
100
AcDbEntity
  8
0
100
AcDbLine
 10
-2.0
 20
-54.64721562373096
 30
0.0
 11
-2.0
 21
-89.50000000000002
 31
0.0
  0
LINE
  5
D100
330
D0E5
100
AcDbEntity
  8
0
100
AcDbLine
 10
-2.0
 20
-89.50000000000002
 30
0.0
 11
0.0
 21
-89.50000000000002
 31
0.0
  0
LINE
  5
D101
330
D0E5
100
AcDbEntity
  8
0
100
AcDbLine
 10
-2.0
 20
-105.0
 30
0.0
 11
0.0
 21
-105.0
 31
0.0
  0
LINE
  5
D102
330
D0E5
100
AcDbEntity
  8
0
100
AcDbLine
 10
-1.918694204496715
 20
89.50000000000001
 30
0.0
 11
-1.918694204496715
 21
54.64721562373093
 31
0.0
  0
LINE
  5
D103
330
D0E5
100
AcDbEntity
  8
0
100
AcDbLine
 10
-17.41869420449671
 20
105.0
 30
0.0
 11
-1.918694204496715
 21
89.50000000000001
 31
0.0
  0
LINE
  5
D104
330
D0E5
100
AcDbEntity
  8
0
100
AcDbLine
 10
-34.41869420449672
 20
105.0
 30
0.0
 11
-17.41869420449671
 21
105.0
 31
0.0
  0
LINE
  5
D105
330
D0E5
100
AcDbEntity
  8
0
100
AcDbLine
 10
-34.41869420449672
 20
-35.00000000000001
 30
0.0
 11
-34.41869420449672
 21
105.0
 31
0.0
  0
LINE
  5
D106
330
D0E5
100
AcDbEntity
  8
0
100
AcDbLine
 10
-17.41869420449671
 20
-35.00000000000001
 30
0.0
 11
-34.41869420449672
 21
-35.00000000000001
 31
0.0
  0
LINE
  5
D107
330
D0E5
100
AcDbEntity
  8
0
100
AcDbLine
 10
-4.847626392631243
 20
-47.57106781186547
 30
0.0
 11
-17.41869420449671
 21
-35.00000000000001
 31
0.0
  0
ARC
  5
D108
330
D0E5
100
AcDbEntity
  8
0
100
AcDbCircle
 10
-11.91869420449671
 20
-54.64213562373096
 30
0.0
 40
10.0
100
AcDbArc
 50
37.63944347263934
 51
45.00000000000007
  0
CIRCLE
  5
D109
330
D0E5
100
AcDbEntity
  8
0
100
AcDbCircle
 10
-26.91869420449672
 20
-22.50000000000001
 30
0.0
 40
2.5
  0
CIRCLE
  5
D10A
330
D0E5
100
AcDbEntity
  8
0
100
AcDbCircle
 10
-11.91869420449671
 20
-32.50000000000001
 30
0.0
 40
2.5
  0
CIRCLE
  5
D10B
330
D0E5
100
AcDbEntity
  8
0
100
AcDbCircle
 10
-26.91869420449672
 20
-2.500000000000008
 30
0.0
 40
2.5
  0
CIRCLE
  5
D10C
330
D0E5
100
AcDbEntity
  8
0
100
AcDbCircle
 10
-11.91869420449671
 20
-12.50000000000001
 30
0.0
 40
2.5
  0
CIRCLE
  5
D10D
330
D0E5
100
AcDbEntity
  8
0
100
AcDbCircle
 10
-26.91869420449672
 20
17.49999999999999
 30
0.0
 40
2.5
  0
CIRCLE
  5
D10E
330
D0E5
100
AcDbEntity
  8
0
100
AcDbCircle
 10
-11.91869420449671
 20
7.499999999999991
 30
0.0
 40
2.5
  0
CIRCLE
  5
D10F
330
D0E5
100
AcDbEntity
  8
0
100
AcDbCircle
 10
-26.91869420449672
 20
37.5
 30
0.0
 40
2.5
  0
CIRCLE
  5
D110
330
D0E5
100
AcDbEntity
  8
0
100
AcDbCircle
 10
-11.91869420449671
 20
27.5
 30
0.0
 40
2.5
  0
CIRCLE
  5
D111
330
D0E5
100
AcDbEntity
  8
0
100
AcDbCircle
 10
-26.91869420449672
 20
57.5
 30
0.0
 40
2.5
  0
CIRCLE
  5
D112
330
D0E5
100
AcDbEntity
  8
0
100
AcDbCircle
 10
-11.91869420449671
 20
47.49999999999999
 30
0.0
 40
2.5
  0
CIRCLE
  5
D113
330
D0E5
100
AcDbEntity
  8
0
100
AcDbCircle
 10
-26.91869420449672
 20
77.49999999999999
 30
0.0
 40
2.5
  0
CIRCLE
  5
D114
330
D0E5
100
AcDbEntity
  8
0
100
AcDbCircle
 10
-11.91869420449671
 20
67.49999999999999
 30
0.0
 40
2.5
  0
CIRCLE
  5
D115
330
D0E5
100
AcDbEntity
  8
0
100
AcDbCircle
 10
-11.91869420449671
 20
87.5
 30
0.0
 40
2.5
  0
CIRCLE
  5
D116
330
D0E5
100
AcDbEntity
  8
0
100
AcDbCircle
 10
-26.91869420449672
 20
97.5
 30
0.0
 40
2.5
  0
ENDBLK
  5
D0E7
330
D0E5
100
AcDbEntity
  8
0
100
AcDbBlockEnd
  0
BLOCK
  5
D118
330
D117
100
AcDbEntity
  8
0
100
AcDbBlockBegin
  2
SPF210LZ-Top
 70
     0
 10
0.0
 20
0.0
 30
0.0
  3
SPF210LZ-Top
  1

  0
SPLINE
  5
D11A
330
D117
100
AcDbEntity
  8
0
100
AcDbSpline
210
0.0
220
0.0
230
1.0
 70
     8
 71
     3
 72
    14
 73
    10
 74
     0
 42
0.000000001
 43
0.0000000001
 40
0.3071850031977688
 40
0.3071850031977688
 40
0.3071850031977688
 40
0.3071850031977688
 40
0.3674902801726788
 40
0.3674902801726788
 40
0.3674902801726788
 40
0.8544958201613873
 40
0.8544958201613873
 40
0.8544958201613873
 40
1.0
 40
1.0
 40
1.0
 40
1.0
 10
-1.128650885111724
 20
-1.127970418848089
 30
0.0
 10
-1.160174806599937
 20
-1.083083162722604
 30
0.0
 10
-1.192232980912446
 20
-1.037478433243216
 30
0.0
 10
-1.224536189750687
 20
-0.9915852062481389
 30
0.0
 10
-1.485406257061389
 20
-0.6209666316271976
 30
0.0
 10
-1.755291694000214
 20
-0.2305703565723249
 30
0.0
 10
-1.866793449739729
 20
-0.0726092479854673
 30
0.0
 10
-1.900107180667347
 20
-0.0254147098045224
 30
0.0
 10
-1.917778455220539
 20
-0.0000029614921096
 30
0.0
 10
-1.919000000000744
 20
-0.0000000001008432
 30
0.0
  0
LINE
  5
D11B
330
D117
100
AcDbEntity
  8
0
100
AcDbLine
 10
-1.919
 20
0.0
 30
0.0
 11
-2.081074081581552
 21
0.0
 31
0.0
  0
SPLINE
  5
D11C
330
D117
100
AcDbEntity
  8
0
100
AcDbSpline
210
0.0
220
0.0
230
1.0
 70
     8
 71
     3
 72
    20
 73
    16
 74
     0
 42
0.000000001
 43
0.0000000001
 40
0.009304993783223
 40
0.009304993783223
 40
0.009304993783223
 40
0.009304993783223
 40
0.0129224438183075
 40
0.0129224438183075
 40
0.0169483253563571
 40
0.0169483253563571
 40
0.0210784022979169
 40
0.0210784022979169
 40
0.0252523525640574
 40
0.0252523525640574
 40
0.0315506356955497
 40
0.0315506356955497
 40
0.0355384136902836
 40
0.0355384136902836
 40
0.0359121385315995
 40
0.0359121385315995
 40
0.0359121385315995
 40
0.0359121385315995
 10
-3.934016726813064
 20
-0.000550587345665
 30
0.0
 10
-3.922214368973298
 20
-0.0007222535413376
 30
0.0
 10
-3.91057023138328
 20
-0.0009389929392001
 30
0.0
 10
-3.887219729984132
 20
-0.0014727965478699
 30
0.0
 10
-3.875488268739601
 20
-0.0018017351634521
 30
0.0
 10
-3.855125539656906
 20
-0.0024411462254293
 30
0.0
 10
-3.846523163060908
 20
-0.0027480575458771
 30
0.0
 10
-3.832427063063876
 20
-0.0032729793883189
 30
0.0
 10
-3.826048305669226
 20
-0.003524668769381
 30
0.0
 10
-3.810034434930131
 20
-0.0041846116131711
 30
0.0
 10
-3.80209119530416
 20
-0.0045400359625597
 30
0.0
 10
-3.794458455801998
 20
-0.0048858755161471
 30
0.0
 10
-3.792776265278412
 20
-0.0049635063182527
 30
0.0
 10
-3.792491508246366
 20
-0.0049765314578684
 30
0.0
 10
-3.792479288517907
 20
-0.0049770897858619
 30
0.0
 10
-3.792479288511274
 20
-0.0049770897861648
 30
0.0
  0
SPLINE
  5
D11D
330
D117
100
AcDbEntity
  8
0
100
AcDbSpline
210
0.0
220
0.0
230
1.0
 70
     8
 71
     3
 72
    16
 73
    12
 74
     0
 42
0.000000001
 43
0.0000000001
 40
0.0062023576300611
 40
0.0062023576300611
 40
0.0062023576300611
 40
0.0062023576300611
 40
0.0307417900758621
 40
0.0307417900758621
 40
0.0736233923989926
 40
0.0736233923989926
 40
0.1515828605203118
 40
0.1515828605203118
 40
0.232649291335322
 40
0.232649291335322
 40
0.2985728006344251
 40
0.2985728006344251
 40
0.2985728006344251
 40
0.2985728006344251
 10
-4.000349418320915
 20
0.0000032169483168
 30
0.0
 10
-3.991717870046079
 20
0.0000097377213103
 30
0.0
 10
-3.974066757994787
 20
0.0000370974770774
 30
0.0
 10
-3.914239444326669
 20
0.0001438296756786
 30
0.0
 10
-3.862287518732424
 20
0.0002347984315328
 30
0.0
 10
-3.688258695004669
 20
0.0004190650429622
 30
0.0
 10
-3.539747723485244
 20
0.0004493581211332
 30
0.0
 10
-3.176034669193173
 20
0.0003629338232049
 30
0.0
 10
-2.951684567886188
 20
0.0002619389369908
 30
0.0
 10
-2.507811224469163
 20
0.0001274165363233
 30
0.0
 10
-2.292051911028654
 20
-0.000283227285086
 30
0.0
 10
-2.081074183296853
 20
-0.0002080031523835
 30
0.0
  0
SPLINE
  5
D11E
330
D117
100
AcDbEntity
  8
0
100
AcDbSpline
210
0.0
220
0.0
230
1.0
 70
     8
 71
     3
 72
    28
 73
    24
 74
     0
 42
0.000000001
 43
0.0000000001
 40
0.0486769240224324
 40
0.0486769240224324
 40
0.0486769240224324
 40
0.0486769240224324
 40
0.0500284930743486
 40
0.0500284930743486
 40
0.0583340484948392
 40
0.0583340484948392
 40
0.0649882824235693
 40
0.0649882824235693
 40
0.0654356057326361
 40
0.0654356057326361
 40
0.0657447849278706
 40
0.0657447849278706
 40
0.0658579649543565
 40
0.0658579649543565
 40
0.0659558124895316
 40
0.0659558124895316
 40
0.0660539926012065
 40
0.0660539926012065
 40
0.0661522009181326
 40
0.0661522009181326
 40
0.0663503314887795
 40
0.0663503314887795
 40
0.0667316217857776
 40
0.0667316217857776
 40
0.0667316217857776
 40
0.0667316217857776
 10
-3.84294187213632
 20
-2.006201024261324
 30
0.0
 10
-3.846281556863828
 20
-2.005975779657231
 30
0.0
 10
-3.849689838008312
 20
-2.005752327071792
 30
0.0
 10
-3.874370979783709
 20
-2.004191231088908
 30
0.0
 10
-3.897531178194553
 20
-2.003007442978248
 30
0.0
 10
-3.941359858049658
 20
-2.001344100011595
 30
0.0
 10
-3.961788923537496
 20
-2.000758028781722
 30
0.0
 10
-3.984980922924063
 20
-2.000319406377711
 30
0.0
 10
-3.986455597269089
 20
-2.000292426999503
 30
0.0
 10
-3.988967831281876
 20
-2.000248050604733
 30
0.0
 10
-3.990011093813146
 20
-2.000230077329007
 30
0.0
 10
-3.991406227436624
 20
-2.000206639501187
 30
0.0
 10
-3.991778621325079
 20
-2.000200442843908
 30
0.0
 10
-3.992450863724632
 20
-2.00018935634424
 30
0.0
 10
-3.992756232269558
 20
-2.000184361867182
 30
0.0
 10
-3.993327223733902
 20
-2.000175088155906
 30
0.0
 10
-3.993595899817861
 20
-2.000170759477895
 30
0.0
 10
-3.994065881764918
 20
-2.000163229187891
 30
0.0
 10
-3.994270599969494
 20
-2.000159971876708
 30
0.0
 10
-3.994783839456857
 20
-2.000151835273612
 30
0.0
 10
-3.994997941066974
 20
-2.000148481320514
 30
0.0
 10
-3.995414972431166
 20
-2.000141951239559
 30
0.0
 10
-3.995462030396514
 20
-2.000141229090183
 30
0.0
 10
-3.995462032585882
 20
-2.000141229056107
 30
0.0
  0
SPLINE
  5
D11F
330
D117
100
AcDbEntity
  8
0
100
AcDbSpline
210
0.0
220
0.0
230
1.0
 70
     8
 71
     3
 72
    10
 73
     6
 74
     0
 42
0.000000001
 43
0.0000000001
 40
0.0716921843393035
 40
0.0716921843393035
 40
0.0716921843393035
 40
0.0716921843393035
 40
0.0740910760851109
 40
0.0740910760851109
 40
0.0867965176184043
 40
0.0867965176184043
 40
0.0867965176184043
 40
0.0867965176184043
 10
-3.992852262750361
 20
-2.000182604998351
 30
0.0
 10
-3.992852264081886
 20
-2.000182604977038
 30
0.0
 10
-3.99308597648973
 20
-2.00017884927331
 30
0.0
 10
-3.995570919264697
 20
-2.000140233564598
 30
0.0
 10
-4.001449058619069
 20
-2.000060842243465
 30
0.0
 10
-4.005386020666408
 20
-2.00002493688812
 30
0.0
  0
SPLINE
  5
D120
330
D117
100
AcDbEntity
  8
0
100
AcDbSpline
210
0.0
220
0.0
230
1.0
 70
     8
 71
     3
 72
    14
 73
    10
 74
     0
 42
0.000000001
 43
0.0000000001
 40
-1.0
 40
-1.0
 40
-1.0
 40
-1.0
 40
-0.6769197926955919
 40
-0.6769197926955919
 40
-0.6769197926955919
 40
-0.111284982148512
 40
-0.111284982148512
 40
-0.111284982148512
 40
0.0
 40
0.0
 40
0.0
 40
0.0
 10
-2.850989765972419
 20
-2.36321270035981
 30
0.0
 10
-2.782721039494783
 20
-2.404977877427986
 30
0.0
 10
-2.674839774523606
 20
-2.377336560710543
 30
0.0
 10
-2.552538915223143
 20
-2.316543935766876
 30
0.0
 10
-2.338419876618643
 20
-2.210110845422002
 30
0.0
 10
-2.097030306659127
 20
-2.002621401312147
 30
0.0
 10
-2.022944387444028
 20
-1.938293351434588
 30
0.0
 10
-2.00836846311339
 20
-1.925637224639017
 30
0.0
 10
-2.001051948693849
 20
-1.918699700209802
 30
0.0
 10
-2.000305795503214
 20
-1.918694204501258
 30
0.0
  0
SPLINE
  5
D121
330
D117
100
AcDbEntity
  8
0
100
AcDbSpline
210
0.0
220
0.0
230
1.0
 70
     8
 71
     3
 72
    11
 73
     7
 74
     0
 42
0.000000001
 43
0.0000000001
 40
-1.0
 40
-1.0
 40
-1.0
 40
-1.0
 40
-0.6490265332870804
 40
-0.6490265332870804
 40
-0.6490265332870804
 40
0.0
 40
0.0
 40
0.0
 40
0.0
 10
-0.0003057955031949
 20
-1.918694204496718
 30
0.0
 10
-0.0054163780585154
 20
-1.918763616483033
 30
0.0
 10
-0.1573545886762984
 20
-1.808256098253598
 30
0.0
 10
-0.3790393565573322
 20
-1.653367645466004
 30
0.0
 10
-0.7889828708859104
 20
-1.366945094780262
 30
0.0
 10
-1.422123677156802
 20
-0.9210065705661481
 30
0.0
 10
-1.701673736430559
 20
-0.726425400727343
 30
0.0
  0
LINE
  5
D122
330
D117
100
AcDbEntity
  8
0
100
AcDbLine
 10
-2.783660323112558
 20
-2.267326125961291
 30
0.0
 11
-1.701673736430563
 21
-0.7264254007273483
 31
0.0
  0
ARC
  5
D123
330
D117
100
AcDbEntity
  8
0
100
AcDbCircle
 10
-4.000305795503285
 20
-4.0
 30
0.0
 40
2.0
100
AcDbArc
 50
4.479795195704756
 51
54.92431372197041
  0
SPLINE
  5
D124
330
D117
100
AcDbEntity
  8
0
100
AcDbSpline
210
0.0
220
0.0
230
1.0
 70
     8
 71
     3
 72
    24
 73
    20
 74
     0
 42
0.000000001
 43
0.0000000001
 40
0.0017556665406598
 40
0.0017556665406598
 40
0.0017556665406598
 40
0.0017556665406598
 40
0.0023127535375114
 40
0.0023127535375114
 40
0.0033787621645699
 40
0.0033787621645699
 40
0.0050175658656323
 40
0.0050175658656323
 40
0.0078303027925994
 40
0.0078303027925994
 40
0.013280318635868
 40
0.013280318635868
 40
0.0267238582915828
 40
0.0267238582915828
 40
0.0369651912420857
 40
0.0369651912420857
 40
0.0509651009467689
 40
0.0509651009467689
 40
0.0603728316794189
 40
0.0603728316794189
 40
0.0603728316794189
 40
0.0603728316794189
 10
-1.935605520819987
 20
-1.91850073072232
 30
0.0
 10
-1.935605520820943
 20
-1.918500730722318
 30
0.0
 10
-1.935437903318685
 20
-1.918500978991263
 30
0.0
 10
-1.934586660689337
 20
-1.918501890127082
 30
0.0
 10
-1.933570498723941
 20
-1.918502699637572
 30
0.0
 10
-1.930344469297803
 20
-1.91850387226921
 30
0.0
 10
-1.927769006381363
 20
-1.918503807597822
 30
0.0
 10
-1.919985426693115
 20
-1.918500242351326
 30
0.0
 10
-1.914156660886109
 20
-1.918494430635701
 30
0.0
 10
-1.896054809911866
 20
-1.918464034155209
 30
0.0
 10
-1.882657437002592
 20
-1.918425872217487
 30
0.0
 10
-1.835486189650954
 20
-1.918215111604983
 30
0.0
 10
-1.800865662365674
 20
-1.917921434910189
 30
0.0
 10
-1.751021370206013
 20
-1.917265437119574
 30
0.0
 10
-1.732604171401747
 20
-1.916930270484347
 30
0.0
 10
-1.697576057268896
 20
-1.916094905168664
 30
0.0
 10
-1.683731563122192
 20
-1.915563904131788
 30
0.0
 10
-1.670916313958786
 20
-1.91495078967101
 30
0.0
 10
-1.668478829602733
 20
-1.914780324001706
 30
0.0
 10
-1.668478830872004
 20
-1.914780324091583
 30
0.0
  0
SPLINE
  5
D125
330
D117
100
AcDbEntity
  8
0
100
AcDbSpline
210
0.0
220
0.0
230
1.0
 70
     8
 71
     3
 72
    20
 73
    16
 74
     0
 42
0.000000001
 43
0.0000000001
 40
0.0071484973826053
 40
0.0071484973826053
 40
0.0071484973826053
 40
0.0071484973826053
 40
0.0085540286218315
 40
0.0085540286218315
 40
0.0192070860676102
 40
0.0192070860676102
 40
0.0418942457555686
 40
0.0418942457555686
 40
0.1110860308265731
 40
0.1110860308265731
 40
0.174135286695186
 40
0.174135286695186
 40
0.2490789048450135
 40
0.2490789048450135
 40
0.2924580379766527
 40
0.2924580379766527
 40
0.2924580379766527
 40
0.2924580379766527
 10
-0.0003058822762131
 20
-2.161092403217097
 30
0.0
 10
-0.0002997271571874
 20
-2.165731511289763
 30
0.0
 10
-0.0002936601186351
 20
-2.170381556004667
 30
0.0
 10
-0.0002468806563265
 20
-2.210262585040208
 30
0.0
 10
-0.0002613646397521
 20
-2.245751754303761
 30
0.0
 10
-0.0003288714060879
 20
-2.353518663177536
 30
0.0
 10
-0.000262326235111
 20
-2.426710772055194
 30
0.0
 10
-0.0002623270861509
 20
-2.717750963021117
 30
0.0
 10
-0.000180626799796
 20
-2.924437597257758
 30
0.0
 10
-0.0000602990983957
 20
-3.27125059660196
 30
0.0
 10
-0.0000075470807789
 20
-3.418932084146282
 30
0.0
 10
0.0000023660720463
 20
-3.692173998699566
 30
0.0
 10
-0.0000819901504575
 20
-3.812644291265934
 30
0.0
 10
-0.0002508894933541
 20
-3.945754155918721
 30
0.0
 10
-0.0003072146276678
 20
-3.985434698673754
 30
0.0
 10
-0.0003057585886228
 20
-3.997369666086186
 30
0.0
  0
SPLINE
  5
D126
330
D117
100
AcDbEntity
  8
0
100
AcDbSpline
210
0.0
220
0.0
230
1.0
 70
     8
 71
     3
 72
    10
 73
     6
 74
     0
 42
0.000000001
 43
0.0000000001
 40
0.0
 40
0.0
 40
0.0
 40
0.0
 40
0.0128999614009682
 40
0.0128999614009682
 40
0.0147724569812351
 40
0.0147724569812351
 40
0.0147724569812351
 40
0.0147724569812351
 10
-2.000329346096556
 20
-4.000000293774672
 30
0.0
 10
-2.00038022786734
 20
-3.995331655344074
 30
0.0
 10
-2.000477687225715
 20
-3.98911058135898
 30
0.0
 10
-2.000510595255271
 20
-3.987205355664028
 30
0.0
 10
-2.000512897507889
 20
-3.987074753228219
 30
0.0
 10
-2.000512897530932
 20
-3.987074751917136
 30
0.0
  0
SPLINE
  5
D127
330
D117
100
AcDbEntity
  8
0
100
AcDbSpline
210
0.0
220
0.0
230
1.0
 70
     8
 71
     3
 72
    32
 73
    28
 74
     0
 42
0.000000001
 43
0.0000000001
 40
0.0182209326415193
 40
0.0182209326415193
 40
0.0182209326415193
 40
0.0182209326415193
 40
0.0185416455904835
 40
0.0185416455904835
 40
0.019191428865539
 40
0.019191428865539
 40
0.0193534669757436
 40
0.0193534669757436
 40
0.0195161965650078
 40
0.0195161965650078
 40
0.019679024156419
 40
0.019679024156419
 40
0.0200077165884317
 40
0.0200077165884317
 40
0.021330286143127
 40
0.021330286143127
 40
0.0265418524559188
 40
0.0265418524559188
 40
0.03344065842217
 40
0.03344065842217
 40
0.0397313959303177
 40
0.0397313959303177
 40
0.0446588504054251
 40
0.0446588504054251
 40
0.0473241359665404
 40
0.0473241359665404
 40
0.0499534628550584
 40
0.0499534628550584
 40
0.0499534628550584
 40
0.0499534628550584
 10
-2.000497838007452
 20
-3.98793083139592
 30
0.0
 10
-2.000497838007252
 20
-3.987930831407315
 30
0.0
 10
-2.000498126910659
 20
-3.987914338537923
 30
0.0
 10
-2.000500808655071
 20
-3.987761671783633
 30
0.0
 10
-2.000504030306161
 20
-3.987573747710203
 30
0.0
 10
-2.000521991170993
 20
-3.986569579898971
 30
0.0
 10
-2.000526402704149
 20
-3.986323800437142
 30
0.0
 10
-2.000537332974781
 20
-3.985719870937111
 30
0.0
 10
-2.000543976278355
 20
-3.985354953347904
 30
0.0
 10
-2.000559231291341
 20
-3.984526098422183
 30
0.0
 10
-2.000567959649547
 20
-3.9840560046442
 30
0.0
 10
-2.000595945428329
 20
-3.982567028441757
 30
0.0
 10
-2.000617241443005
 20
-3.981458392509846
 30
0.0
 10
-2.000725284441821
 20
-3.975975303901888
 30
0.0
 10
-2.000821292022382
 20
-3.971536382862609
 30
0.0
 10
-2.001317007042885
 20
-3.950452222649003
 30
0.0
 10
-2.001818173111416
 20
-3.93445793266445
 30
0.0
 10
-2.003193946229624
 20
-3.898910044198975
 30
0.0
 10
-2.004146512486616
 20
-3.879691275461911
 30
0.0
 10
-2.006204747810127
 20
-3.84520668100496
 30
0.0
 10
-2.007309142041335
 20
-3.829544758170677
 30
0.0
 10
-2.009205531805437
 20
-3.80555158259439
 30
0.0
 10
-2.01001837101376
 20
-3.796301171539946
 30
0.0
 10
-2.010931584382353
 20
-3.786375484514901
 30
0.0
 10
-2.011189542536296
 20
-3.783678654813919
 30
0.0
 10
-2.011530072372071
 20
-3.780160299732608
 30
0.0
 10
-2.0116173953478
 20
-3.779286192593451
 30
0.0
 10
-2.011617395366775
 20
-3.779286192402441
 30
0.0
  0
SPLINE
  5
D128
330
D117
100
AcDbEntity
  8
0
100
AcDbSpline
210
0.0
220
0.0
230
1.0
 70
     8
 71
     3
 72
    14
 73
    10
 74
     0
 42
0.000000001
 43
0.0000000001
 40
0.3126800015240049
 40
0.3126800015240049
 40
0.3126800015240049
 40
0.3126800015240049
 40
0.4432437125963423
 40
0.4432437125963423
 40
0.5834285218376061
 40
0.5834285218376061
 40
0.6466876268305276
 40
0.6466876268305276
 40
0.7061930309185998
 40
0.7061930309185998
 40
0.7061930309185998
 40
0.7061930309185998
 10
-2.850989765972427
 20
-2.36321270035981
 30
0.0
 10
-2.924689966122858
 20
-2.311462041351676
 30
0.0
 10
-3.014186522041185
 20
-2.256005254847151
 30
0.0
 10
-3.234114917064078
 20
-2.14823545470893
 30
0.0
 10
-3.369167349120459
 20
-2.09511445980632
 30
0.0
 10
-3.600582693149538
 20
-2.038953304891732
 30
0.0
 10
-3.677251027138761
 20
-2.024560875214666
 30
0.0
 10
-3.835220776203358
 20
-2.005332926745313
 30
0.0
 10
-3.914902481265507
 20
-2.0
 30
0.0
 10
-4.000305795503301
 20
-2.0
 30
0.0
  0
SPLINE
  5
D129
330
D117
100
AcDbEntity
  8
0
100
AcDbSpline
210
0.0
220
0.0
230
1.0
 70
     8
 71
     3
 72
    10
 73
     6
 74
     0
 42
0.000000001
 43
0.0000000001
 40
0.0
 40
0.0
 40
0.0
 40
0.0
 40
0.2929592573877304
 40
0.2929592573877304
 40
0.4494299287699572
 40
0.4494299287699572
 40
0.4494299287699572
 40
0.4494299287699572
 10
-4.000305795503292
 20
-0.0000000000000003
 30
0.0
 10
-3.261070304053727
 20
0.0
 30
0.0
 10
-2.697799087193799
 20
-0.1887950195726129
 30
0.0
 10
-2.046127553690675
 20
-0.5007912838219833
 30
0.0
 10
-1.856459242479556
 20
-0.61773842393963
 30
0.0
 10
-1.701673736430563
 20
-0.7264254007273486
 30
0.0
  0
LINE
  5
D12A
330
D117
100
AcDbEntity
  8
0
100
AcDbLine
 10
-4.000305795503285
 20
-1.349999156478741
 30
0.0
 11
-4.000305795503285
 21
0.0
 31
0.0
  0
LINE
  5
D12B
330
D117
100
AcDbEntity
  8
0
100
AcDbLine
 10
-4.000305795503285
 20
-2.0
 30
0.0
 11
-4.000305795503285
 21
-1.349999156478741
 31
0.0
  0
LINE
  5
D12C
330
D117
100
AcDbEntity
  8
0
100
AcDbLine
 10
-17.419
 20
0.0
 30
0.0
 11
-34.419
 21
0.0
 31
0.0
  0
LINE
  5
D12D
330
D117
100
AcDbEntity
  8
0
100
AcDbLine
 10
-4.847932188134521
 20
0.0
 30
0.0
 11
-17.419
 21
0.0
 31
0.0
  0
LINE
  5
D12E
330
D117
100
AcDbEntity
  8
0
100
AcDbLine
 10
-17.419
 20
-2.0
 30
0.0
 11
-4.84793218813452
 21
-2.0
 31
0.0
  0
LINE
  5
D12F
330
D117
100
AcDbEntity
  8
0
100
AcDbLine
 10
-34.419
 20
-2.0
 30
0.0
 11
-17.419
 21
-2.0
 31
0.0
  0
LINE
  5
D130
330
D117
100
AcDbEntity
  8
0
100
AcDbLine
 10
-17.419
 20
-2.0
 30
0.0
 11
-17.419
 21
0.0
 31
0.0
  0
LINE
  5
D131
330
D117
100
AcDbEntity
  8
0
100
AcDbLine
 10
-34.419
 20
-2.0
 30
0.0
 11
-34.419
 21
0.0
 31
0.0
  0
LINE
  5
D132
330
D117
100
AcDbEntity
  8
0
100
AcDbLine
 10
-2.000305795503288
 20
-17.41869420449671
 30
0.0
 11
-2.000305795503291
 21
-34.41869420449672
 31
0.0
  0
LINE
  5
D133
330
D117
100
AcDbEntity
  8
0
100
AcDbLine
 10
-2.000305795503284
 20
-1.918694204496715
 30
0.0
 11
-2.000305795503288
 21
-17.41869420449671
 31
0.0
  0
LINE
  5
D134
330
D117
100
AcDbEntity
  8
0
100
AcDbLine
 10
-0.0003057955032879
 20
-17.41869420449671
 30
0.0
 11
-0.0003057955032845
 21
-1.918694204496715
 31
0.0
  0
LINE
  5
D135
330
D117
100
AcDbEntity
  8
0
100
AcDbLine
 10
-0.0003057955032917
 20
-34.41869420449672
 30
0.0
 11
-0.0003057955032879
 21
-17.41869420449671
 31
0.0
  0
LINE
  5
D136
330
D117
100
AcDbEntity
  8
0
100
AcDbLine
 10
-2.000305795503284
 20
-1.918694204496715
 30
0.0
 11
-0.0003057955032845
 21
-1.918694204496715
 31
0.0
  0
LINE
  5
D137
330
D117
100
AcDbEntity
  8
0
100
AcDbLine
 10
-2.000305795503288
 20
-17.41869420449671
 30
0.0
 11
-0.0003057955032879
 21
-17.41869420449671
 31
0.0
  0
LINE
  5
D138
330
D117
100
AcDbEntity
  8
0
100
AcDbLine
 10
-2.000305795503291
 20
-34.41869420449672
 30
0.0
 11
-0.0003057955032917
 21
-34.41869420449672
 31
0.0
  0
LINE
  5
D139
330
D117
100
AcDbEntity
  8
0
100
AcDbLine
 10
-4.000305795503282
 20
0.0
 30
0.0
 11
-4.847932188134524
 21
0.0
 31
0.0
  0
LINE
  5
D13A
330
D117
100
AcDbEntity
  8
0
100
AcDbLine
 10
-4.847932188134525
 20
-2.0
 30
0.0
 11
-4.000305795503284
 21
-2.0
 31
0.0
  0
ENDBLK
  5
D119
330
D117
100
AcDbEntity
  8
0
100
AcDbBlockEnd
  0
BLOCK
  5
D13C
330
D13B
100
AcDbEntity
  8
0
100
AcDbBlockBegin
  2
SPF210LZ-Bottom
 70
     0
 10
0.0
 20
0.0
 30
0.0
  3
SPF210LZ-Bottom
  1

  0
SPLINE
  5
D13E
330
D13B
100
AcDbEntity
  8
0
100
AcDbSpline
210
0.0
220
0.0
230
1.0
 70
     8
 71
     3
 72
    14
 73
    10
 74
     0
 42
0.000000001
 43
0.0000000001
 40
0.0
 40
0.0
 40
0.0
 40
0.0
 40
0.3674902801726788
 40
0.3674902801726788
 40
0.3674902801726788
 40
0.8544958201613873
 40
0.8544958201613873
 40
0.8544958201613873
 40
1.0
 40
1.0
 40
1.0
 40
1.0
 10
-0.7267311962306249
 20
1.701367940927276
 30
0.0
 10
-0.8399347848408478
 20
1.540203220945814
 30
0.0
 10
-1.027685833331951
 20
1.271250862264714
 30
0.0
 10
-1.224536189750687
 20
0.9915852062481389
 30
0.0
 10
-1.485406257061389
 20
0.6209666316271976
 30
0.0
 10
-1.755291694000214
 20
0.2305703565723249
 30
0.0
 10
-1.866793449739729
 20
0.0726092479854673
 30
0.0
 10
-1.900107180667347
 20
0.0254147098045224
 30
0.0
 10
-1.917778455220539
 20
0.0000029614921096
 30
0.0
 10
-1.919000000000744
 20
0.0000000001008432
 30
0.0
  0
LINE
  5
D13F
330
D13B
100
AcDbEntity
  8
0
100
AcDbLine
 10
-2.363518495860887
 20
2.850683970472287
 30
0.0
 11
-0.7267311962306278
 21
1.701367940927286
 31
0.0
  0
SPLINE
  5
D140
330
D13B
100
AcDbEntity
  8
0
100
AcDbSpline
210
0.0
220
0.0
230
1.0
 70
     8
 71
     3
 72
    14
 73
    10
 74
     0
 42
0.000000001
 43
0.0000000001
 40
0.0
 40
0.0
 40
0.0
 40
0.0
 40
0.3203790963197878
 40
0.3203790963197878
 40
0.3203790963197878
 40
0.8798267533562436
 40
0.8798267533562436
 40
0.8798267533562436
 40
1.0
 40
1.0
 40
1.0
 40
1.0
 10
-2.363518495864932
 20
2.850683970466628
 30
0.0
 10
-2.405856261815927
 20
2.783281671994319
 30
0.0
 10
-2.378357370952551
 20
2.675642190077783
 30
0.0
 10
-2.318466896086336
 20
2.554809633446074
 30
0.0
 10
-2.213885835000936
 20
2.343811189796493
 30
0.0
 10
-2.005982175614344
 20
2.105275223994367
 30
0.0
 10
-1.940379622197071
 20
2.026370434780453
 30
0.0
 10
-1.926287737579954
 20
2.009421137422042
 30
0.0
 10
-1.919003773382239
 20
2.000652303573678
 30
0.0
 10
-1.919000000004114
 20
1.999999999999958
 30
0.0
  0
ARC
  5
D141
330
D13B
100
AcDbEntity
  8
0
100
AcDbCircle
 10
-4.000305795503285
 20
4.0
 30
0.0
 40
2.0
100
AcDbArc
 50
274.5337049718415
 51
324.9243137219703
  0
SPLINE
  5
D142
330
D13B
100
AcDbEntity
  8
0
100
AcDbSpline
210
0.0
220
0.0
230
1.0
 70
     8
 71
     3
 72
    20
 73
    16
 74
     0
 42
0.000000001
 43
0.0000000001
 40
0.0146678386922881
 40
0.0146678386922881
 40
0.0146678386922881
 40
0.0146678386922881
 40
0.0157210083376991
 40
0.0157210083376991
 40
0.0447721214286219
 40
0.0447721214286219
 40
0.0914515780861129
 40
0.0914515780861129
 40
0.1535269696436835
 40
0.1535269696436835
 40
0.2247138079106459
 40
0.2247138079106459
 40
0.261237067402334
 40
0.261237067402334
 40
0.2988946193773903
 40
0.2988946193773903
 40
0.2988946193773903
 40
0.2988946193773903
 10
-2.220340820411981
 20
0.0000007350438387
 30
0.0
 10
-2.223694603736831
 20
-0.0000037079774709
 30
0.0
 10
-2.227042710329024
 20
-0.0000086108817833
 30
0.0
 10
-2.323060238833324
 20
-0.0001200793511069
 30
0.0
 10
-2.418154408203397
 20
-0.0001168059522514
 30
0.0
 10
-2.657702439491375
 20
-0.0001749756158116
 30
0.0
 10
-2.799309264673384
 20
-0.0002140793131762
 30
0.0
 10
-3.106052197030786
 20
-0.0003222396954438
 30
0.0
 10
-3.265970669587922
 20
-0.000390094539318
 30
0.0
 10
-3.562087235523372
 20
-0.0004458516140644
 30
0.0
 10
-3.695069930730073
 20
-0.0004104245486564
 30
0.0
 10
-3.850892275979131
 20
-0.0002475712713498
 30
0.0
 10
-3.896450846028023
 20
-0.0001746824395621
 30
0.0
 10
-3.970021750810655
 20
-0.0000450268827598
 30
0.0
 10
-3.999718551881857
 20
0.000000322050409
 30
0.0
 10
-4.00486880506286
 20
-0.0000000613107398
 30
0.0
  0
SPLINE
  5
D143
330
D13B
100
AcDbEntity
  8
0
100
AcDbSpline
210
0.0
220
0.0
230
1.0
 70
     8
 71
     3
 72
    24
 73
    20
 74
     0
 42
0.000000001
 43
0.0000000001
 40
0.0014837485074299
 40
0.0014837485074299
 40
0.0014837485074299
 40
0.0014837485074299
 40
0.0018047125934872
 40
0.0018047125934872
 40
0.0029520617256458
 40
0.0029520617256458
 40
0.0046273825946325
 40
0.0046273825946325
 40
0.0073400405790148
 40
0.0073400405790148
 40
0.0124142757255189
 40
0.0124142757255189
 40
0.0245713110731584
 40
0.0245713110731584
 40
0.0436428624897893
 40
0.0436428624897893
 40
0.0603476016064325
 40
0.0603476016064325
 40
0.0625702179675194
 40
0.0625702179675194
 40
0.0625702179675194
 40
0.0625702179675194
 10
-1.918775883511656
 20
1.945820222421464
 30
0.0
 10
-1.918775883512815
 20
1.945820228333727
 30
0.0
 10
-1.918775873751063
 20
1.945774295431197
 30
0.0
 10
-1.918775671693926
 20
1.94538141222258
 30
0.0
 10
-1.918775003831394
 20
1.944562865340321
 30
0.0
 10
-1.91877095153974
 20
1.941788944889303
 30
0.0
 10
-1.91876647348579
 20
1.939470110128063
 30
0.0
 10
-1.918749633191229
 20
1.932500767310581
 30
0.0
 10
-1.918734226518928
 20
1.927271007096057
 30
0.0
 10
-1.918679527228602
 20
1.911203708982866
 30
0.0
 10
-1.918631333813472
 20
1.899327793880933
 30
0.0
 10
-1.918422766312436
 20
1.858099457426325
 30
0.0
 10
-1.918185049021124
 20
1.827418559046807
 30
0.0
 10
-1.917323544886684
 20
1.760730188166308
 30
0.0
 10
-1.916539094720155
 20
1.728039069542114
 30
0.0
 10
-1.915148399108989
 20
1.689196442776637
 30
0.0
 10
-1.914508057199329
 20
1.679224839298616
 30
0.0
 10
-1.914342855076928
 20
1.676938909645836
 30
0.0
 10
-1.914332413364437
 20
1.676805750063307
 30
0.0
 10
-1.914332413345435
 20
1.676805749821159
 30
0.0
  0
SPLINE
  5
D144
330
D13B
100
AcDbEntity
  8
0
100
AcDbSpline
210
0.0
220
0.0
230
1.0
 70
     8
 71
     3
 72
     8
 73
     4
 74
     0
 42
0.000000001
 43
0.0000000001
 40
0.0
 40
0.0
 40
0.0
 40
0.0
 40
0.0150865763685225
 40
0.0150865763685225
 40
0.0150865763685225
 40
0.0150865763685225
 10
-4.005386020666407
 20
2.000024936888119
 30
0.0
 10
-4.000711230071222
 20
2.000067571288824
 30
0.0
 10
-3.992852262783249
 20
2.000182604997824
 30
0.0
 10
-3.992852262740512
 20
2.000182604998508
 30
0.0
  0
SPLINE
  5
D145
330
D13B
100
AcDbEntity
  8
0
100
AcDbSpline
210
0.0
220
0.0
230
1.0
 70
     8
 71
     3
 72
    30
 73
    26
 74
     0
 42
0.000000001
 43
0.0000000001
 40
0.0200484116843376
 40
0.0200484116843376
 40
0.0200484116843376
 40
0.0200484116843376
 40
0.0204096741362659
 40
0.0204096741362659
 40
0.0206281538171963
 40
0.0206281538171963
 40
0.020737206744699
 40
0.020737206744699
 40
0.0208463945035935
 40
0.0208463945035935
 40
0.0210669645410941
 40
0.0210669645410941
 40
0.0219517517053839
 40
0.0219517517053839
 40
0.0254291388817129
 40
0.0254291388817129
 40
0.0315485726612241
 40
0.0315485726612241
 40
0.0374274751365961
 40
0.0374274751365961
 40
0.0439971373138365
 40
0.0439971373138365
 40
0.0475302036901654
 40
0.0475302036901654
 40
0.0522612893195505
 40
0.0522612893195505
 40
0.0522612893195505
 40
0.0522612893195505
 10
-3.995462032612946
 20
2.000141229055684
 30
0.0
 10
-3.995462033599242
 20
2.000141229040333
 30
0.0
 10
-3.995418191912668
 20
2.000141903960844
 30
0.0
 10
-3.995042497953482
 20
2.00014778215959
 30
0.0
 10
-3.994821596221012
 20
2.000151237065893
 30
0.0
 10
-3.994255782137244
 20
2.000160206609782
 30
0.0
 10
-3.994024098058659
 20
2.000163893886464
 30
0.0
 10
-3.993487697804575
 20
2.000172499484248
 30
0.0
 10
-3.993178525340726
 20
2.000177491041048
 30
0.0
 10
-3.992191941391998
 20
2.000193566396069
 30
0.0
 10
-3.991448266069394
 20
2.000205882802735
 30
0.0
 10
-3.987782253112408
 20
2.000267793161881
 30
0.0
 10
-3.9848063926212
 20
2.000321766004165
 30
0.0
 10
-3.970632589337412
 20
2.000596240401461
 30
0.0
 10
-3.959734417836879
 20
2.00086149282395
 30
0.0
 10
-3.930349903211618
 20
2.001718315791812
 30
0.0
 10
-3.912388261036208
 20
2.002406711686617
 30
0.0
 10
-3.878772790995795
 20
2.003993016910531
 30
0.0
 10
-3.862881637792701
 20
2.004892727308988
 30
0.0
 10
-3.831592578448235
 20
2.006936101924112
 30
0.0
 10
-3.816201691192424
 20
2.00812567870747
 30
0.0
 10
-3.798374864332766
 20
2.009634591688022
 30
0.0
 10
-3.793215899438453
 20
2.010100079839409
 30
0.0
 10
-3.784528444577927
 20
2.010904216204137
 30
0.0
 10
-3.781982673932802
 20
2.011157844204945
 30
0.0
 10
-3.781982672964914
 20
2.01115784429993
 30
0.0
  0
SPLINE
  5
D146
330
D13B
100
AcDbEntity
  8
0
100
AcDbSpline
210
0.0
220
0.0
230
1.0
 70
     8
 71
     3
 72
    11
 73
     7
 74
     0
 42
0.000000001
 43
0.0000000001
 40
-1.0
 40
-1.0
 40
-1.0
 40
-1.0
 40
-0.6490265332870804
 40
-0.6490265332870804
 40
-0.6490265332870804
 40
-0.3076299670988372
 40
-0.3076299670988372
 40
-0.3076299670988372
 40
-0.3076299670988372
 10
-0.0003057955031949
 20
1.918694204496718
 30
0.0
 10
-0.0054163780585154
 20
1.918763616483033
 30
0.0
 10
-0.1573545886762984
 20
1.808256098253598
 30
0.0
 10
-0.3790393565573322
 20
1.653367645466004
 30
0.0
 10
-0.5946750832110724
 20
1.502705584259119
 30
0.0
 10
-0.8720672586424543
 20
1.307907055433413
 30
0.0
 10
-1.127268659492325
 20
1.128771626076422
 30
0.0
  0
LINE
  5
D147
330
D13B
100
AcDbEntity
  8
0
100
AcDbLine
 10
-0.0003057955032842
 20
1.918694204496714
 30
0.0
 11
-0.0003057955032843
 21
2.092981343985126
 31
0.0
  0
LINE
  5
D148
330
D13B
100
AcDbEntity
  8
0
100
AcDbLine
 10
-2.000305795503284
 20
2.59559036848582
 30
0.0
 11
-2.000305795503284
 21
2.595644003617512
 31
0.0
  0
SPLINE
  5
D149
330
D13B
100
AcDbEntity
  8
0
100
AcDbSpline
210
0.0
220
0.0
230
1.0
 70
     8
 71
     3
 72
    20
 73
    16
 74
     0
 42
0.000000001
 43
0.0000000001
 40
0.0082840757441546
 40
0.0082840757441546
 40
0.0082840757441546
 40
0.0082840757441546
 40
0.0105055277586093
 40
0.0105055277586093
 40
0.0177259338803689
 40
0.0177259338803689
 40
0.022167313531362
 40
0.022167313531362
 40
0.0259836087585571
 40
0.0259836087585571
 40
0.0287359420229549
 40
0.0287359420229549
 40
0.0327857423167477
 40
0.0327857423167477
 40
0.0329425247003976
 40
0.0329425247003976
 40
0.0329425247003976
 40
0.0329425247003976
 10
-0.0009555071823394
 20
3.927935684645777
 30
0.0
 10
-0.0010666526353071
 20
3.920684683784933
 30
0.0
 10
-0.0011927376303679
 20
3.913469683538759
 30
0.0
 10
-0.001795707173809
 20
3.883186506640235
 30
0.0
 10
-0.0024347969470217
 20
3.860651958283882
 30
0.0
 10
-0.0036419281457536
 20
3.82720748796686
 30
0.0
 10
-0.0041453146752968
 20
3.81502201577047
 30
0.0
 10
-0.0050787495209106
 20
3.794349785068608
 30
0.0
 10
-0.0055135629604964
 20
3.785485953962735
 30
0.0
 10
-0.0061727532293504
 20
3.772622210958886
 30
0.0
 10
-0.0064237848599005
 20
3.767913868690198
 30
0.0
 10
-0.0069104371586842
 20
3.758920437477625
 30
0.0
 10
-0.0070794371970526
 20
3.75590548921587
 30
0.0
 10
-0.0070908699465384
 20
3.755698318136172
 30
0.0
 10
-0.0070910820530879
 20
3.755694472046094
 30
0.0
 10
-0.0070910820531501
 20
3.755694472044968
 30
0.0
  0
SPLINE
  5
D14A
330
D13B
100
AcDbEntity
  8
0
100
AcDbSpline
210
0.0
220
0.0
230
1.0
 70
     8
 71
     3
 72
    22
 73
    18
 74
     0
 42
0.000000001
 43
0.0000000001
 40
0.0
 40
0.0
 40
0.0
 40
0.0
 40
0.0342151421793574
 40
0.0342151421793574
 40
0.0833868387887492
 40
0.0833868387887492
 40
0.1645892553286118
 40
0.1645892553286118
 40
0.243605204400593
 40
0.243605204400593
 40
0.2678398066972716
 40
0.2678398066972716
 40
0.2800612643891452
 40
0.2800612643891452
 40
0.2861382386648501
 40
0.2861382386648501
 40
0.2923356200191457
 40
0.2923356200191457
 40
0.2923356200191457
 40
0.2923356200191457
 10
-0.0003057585886228
 20
3.997369666086188
 30
0.0
 10
-0.0003069070344157
 20
3.987956001555767
 30
0.0
 10
-0.0002736449395473
 20
3.960549584226074
 30
0.0
 10
-0.0001613594214757
 20
3.877178141069186
 30
0.0
 10
-0.0000832023410433
 20
3.811221043346369
 30
0.0
 10
0.0000248737203292
 20
3.602889784702201
 30
0.0
 10
-0.0000078574000805
 20
3.434108581447557
 30
0.0
 10
-0.0001378877194914
 20
3.039940042667748
 30
0.0
 10
-0.0002374790996947
 20
2.808797626368511
 30
0.0
 10
-0.0002683794472196
 20
2.487786756267835
 30
0.0
 10
-0.00031191066889
 20
2.409351223144788
 30
0.0
 10
-0.0003000107930666
 20
2.292171015835713
 30
0.0
 10
-0.0002473051038099
 20
2.252612407638172
 30
0.0
 10
-0.0002656770292212
 20
2.192046747587082
 30
0.0
 10
-0.0002914083126608
 20
2.171826559284414
 30
0.0
 10
-0.0003454003232066
 20
2.131539613967476
 30
0.0
 10
-0.0003688232348329
 20
2.110922545797761
 30
0.0
 10
-0.0003536233696092
 20
2.092981348048439
 30
0.0
  0
SPLINE
  5
D14B
330
D13B
100
AcDbEntity
  8
0
100
AcDbSpline
210
0.0
220
0.0
230
1.0
 70
     8
 71
     3
 72
    32
 73
    28
 74
     0
 42
0.000000001
 43
0.0000000001
 40
0.0483186942723236
 40
0.0483186942723236
 40
0.0483186942723236
 40
0.0483186942723236
 40
0.0521022740316577
 40
0.0521022740316577
 40
0.0579182521311218
 40
0.0579182521311218
 40
0.0608349711496718
 40
0.0608349711496718
 40
0.0627861880570727
 40
0.0627861880570727
 40
0.0631816080023008
 40
0.0631816080023008
 40
0.0634283022043609
 40
0.0634283022043609
 40
0.0636890045160322
 40
0.0636890045160322
 40
0.063828904183992
 40
0.063828904183992
 40
0.0640234211289275
 40
0.0640234211289275
 40
0.0642103239128342
 40
0.0642103239128342
 40
0.064470046017364
 40
0.064470046017364
 40
0.0649311430443987
 40
0.0649311430443987
 40
0.0651436655889453
 40
0.0651436655889453
 40
0.0651436655889453
 40
0.0651436655889453
 10
-2.005987815621291
 20
3.849348763299434
 30
0.0
 10
-2.005368455594572
 20
3.85893059106876
 30
0.0
 10
-2.004778893588079
 20
3.868933948051573
 30
0.0
 10
-2.003398068181611
 20
3.895029214173473
 30
0.0
 10
-2.002660755429359
 20
3.911633840523856
 30
0.0
 10
-2.001735791035633
 20
3.93774446956538
 30
0.0
 10
-2.001456368062496
 20
3.946688410288863
 30
0.0
 10
-2.00104402167806
 20
3.9619959290006
 30
0.0
 10
-2.000892394334799
 20
3.968261324395625
 30
0.0
 10
-2.000727179867458
 20
3.976005022004601
 30
0.0
 10
-2.000699825590037
 20
3.977322038121522
 30
0.0
 10
-2.000656603399729
 20
3.979461833211806
 30
0.0
 10
-2.000640207634064
 20
3.980288125589883
 30
0.0
 10
-2.000607566985801
 20
3.981962438800097
 30
0.0
 10
-2.000591095296484
 20
3.982824519164882
 30
0.0
 10
-2.000568387004679
 20
3.984033594853952
 30
0.0
 10
-2.000560873606312
 20
3.984437783812751
 30
0.0
 10
-2.000544761434963
 20
3.98531136433501
 30
0.0
 10
-2.000536750587576
 20
3.98575166545002
 30
0.0
 10
-2.000524350408205
 20
3.986437660754988
 30
0.0
 10
-2.00051963969307
 20
3.986700741445021
 30
0.0
 10
-2.000510772191986
 20
3.98719760983526
 30
0.0
 10
-2.000507409892192
 20
3.987387693469124
 30
0.0
 10
-2.000500628817266
 20
3.987771479516362
 30
0.0
 10
-2.000499052130753
 20
3.987861649294089
 30
0.0
 10
-2.000497969530607
 20
3.987923329237176
 30
0.0
 10
-2.000497838006093
 20
3.98793083147333
 30
0.0
 10
-2.000497838007439
 20
3.987930831396593
 30
0.0
  0
SPLINE
  5
D14C
330
D13B
100
AcDbEntity
  8
0
100
AcDbSpline
210
0.0
220
0.0
230
1.0
 70
     8
 71
     3
 72
    12
 73
     8
 74
     0
 42
0.000000001
 43
0.0000000001
 40
0.0685919636452298
 40
0.0685919636452298
 40
0.0685919636452298
 40
0.0685919636452298
 40
0.0693582617840134
 40
0.0693582617840134
 40
0.0793371746161945
 40
0.0793371746161945
 40
0.0833636578100105
 40
0.0833636578100105
 40
0.0833636578100105
 40
0.0833636578100105
 10
-2.000512897530946
 20
3.987074751916329
 30
0.0
 10
-2.000512897531462
 20
3.987074751886937
 30
0.0
 10
-2.000512518461168
 20
3.987096306769944
 30
0.0
 10
-2.000502143945122
 20
3.987689665234551
 30
0.0
 10
-2.000435090626515
 20
3.991626962184863
 30
0.0
 10
-2.00036399895641
 20
3.996985877225721
 30
0.0
 10
-2.000345227895622
 20
3.99854306505947
 30
0.0
 10
-2.000329346096556
 20
4.000000293774673
 30
0.0
  0
SPLINE
  5
D14D
330
D13B
100
AcDbEntity
  8
0
100
AcDbSpline
210
0.0
220
0.0
230
1.0
 70
     8
 71
     3
 72
    14
 73
    10
 74
     0
 42
0.000000001
 43
0.0000000001
 40
0.3126800015238131
 40
0.3126800015238131
 40
0.3126800015238131
 40
0.3126800015238131
 40
0.4432437125955649
 40
0.4432437125955649
 40
0.5834285218361752
 40
0.5834285218361752
 40
0.6466876268288085
 40
0.6466876268288085
 40
0.7061930309166037
 40
0.7061930309166037
 40
0.7061930309166037
 40
0.7061930309166037
 10
-2.363518495863097
 20
2.850683970469138
 30
0.0
 10
-2.311767836855044
 20
2.924384170619455
 30
0.0
 10
-2.256311050350525
 20
3.013880726537717
 30
0.0
 10
-2.148541250212128
 20
3.23380912156097
 30
0.0
 10
-2.095420255309583
 20
3.368861553617264
 30
0.0
 10
-2.039259100395026
 20
3.600276897646217
 30
0.0
 10
-2.024866670717945
 20
3.676945231635527
 30
0.0
 10
-2.005638722248605
 20
3.834914980700015
 30
0.0
 10
-2.000305795503285
 20
3.914596685762311
 30
0.0
 10
-2.000305795503285
 20
4.000000000000011
 30
0.0
  0
SPLINE
  5
D14E
330
D13B
100
AcDbEntity
  8
0
100
AcDbSpline
210
0.0
220
0.0
230
1.0
 70
     8
 71
     3
 72
    10
 73
     6
 74
     0
 42
0.000000001
 43
0.0000000001
 40
0.0
 40
0.0
 40
0.0
 40
0.0
 40
0.2929592573845465
 40
0.2929592573845465
 40
0.449429928765807
 40
0.449429928765807
 40
0.449429928765807
 40
0.449429928765807
 10
-0.0003057955032848
 20
4.000000000000007
 30
0.0
 10
-0.0003057955032851
 20
3.260764508558456
 30
0.0
 10
-0.1891008150725734
 20
2.697493291699105
 30
0.0
 10
-0.5010970793235531
 20
2.045821758190094
 30
0.0
 10
-0.6180442194421313
 20
1.856153446977389
 30
0.0
 10
-0.7267311962306277
 20
1.701367940927287
 30
0.0
  0
LINE
  5
D14F
330
D13B
100
AcDbEntity
  8
0
100
AcDbLine
 10
-1.350304951982027
 20
4.0
 30
0.0
 11
-0.0003057955032848
 21
4.0
 31
0.0
  0
LINE
  5
D150
330
D13B
100
AcDbEntity
  8
0
100
AcDbLine
 10
-2.000305795503284
 20
4.0
 30
0.0
 11
-1.350304951982027
 21
4.0
 31
0.0
  0
LINE
  5
D151
330
D13B
100
AcDbEntity
  8
0
100
AcDbLine
 10
-17.419
 20
0.0
 30
0.0
 11
-1.918999999999999
 21
0.0
 31
0.0
  0
LINE
  5
D152
330
D13B
100
AcDbEntity
  8
0
100
AcDbLine
 10
-34.419
 20
0.0
 30
0.0
 11
-17.419
 21
0.0
 31
0.0
  0
LINE
  5
D153
330
D13B
100
AcDbEntity
  8
0
100
AcDbLine
 10
-17.419
 20
2.0
 30
0.0
 11
-34.419
 21
2.0
 31
0.0
  0
LINE
  5
D154
330
D13B
100
AcDbEntity
  8
0
100
AcDbLine
 10
-1.919
 20
2.0
 30
0.0
 11
-17.419
 21
2.0
 31
0.0
  0
LINE
  5
D155
330
D13B
100
AcDbEntity
  8
0
100
AcDbLine
 10
-1.919
 20
2.0
 30
0.0
 11
-1.919
 21
0.0
 31
0.0
  0
LINE
  5
D156
330
D13B
100
AcDbEntity
  8
0
100
AcDbLine
 10
-34.419
 20
2.0
 30
0.0
 11
-34.419
 21
0.0
 31
0.0
  0
LINE
  5
D157
330
D13B
100
AcDbEntity
  8
0
100
AcDbLine
 10
-17.419
 20
2.0
 30
0.0
 11
-17.419
 21
0.0
 31
0.0
  0
LINE
  5
D158
330
D13B
100
AcDbEntity
  8
0
100
AcDbLine
 10
-2.000305795503287
 20
17.41869420449671
 30
0.0
 11
-2.000305795503285
 21
4.847626392631243
 31
0.0
  0
LINE
  5
D159
330
D13B
100
AcDbEntity
  8
0
100
AcDbLine
 10
-2.000305795503291
 20
34.41869420449672
 30
0.0
 11
-2.000305795503287
 21
17.41869420449671
 31
0.0
  0
LINE
  5
D15A
330
D13B
100
AcDbEntity
  8
0
100
AcDbLine
 10
-0.0003057955032876
 20
17.41869420449671
 30
0.0
 11
-0.0003057955032915
 21
34.41869420449672
 31
0.0
  0
LINE
  5
D15B
330
D13B
100
AcDbEntity
  8
0
100
AcDbLine
 10
-0.0003057955032848
 20
4.847626392631243
 30
0.0
 11
-0.0003057955032876
 21
17.41869420449671
 31
0.0
  0
LINE
  5
D15C
330
D13B
100
AcDbEntity
  8
0
100
AcDbLine
 10
-2.000305795503291
 20
34.41869420449672
 30
0.0
 11
-0.0003057955032915
 21
34.41869420449672
 31
0.0
  0
LINE
  5
D15D
330
D13B
100
AcDbEntity
  8
0
100
AcDbLine
 10
-2.000305795503287
 20
17.41869420449671
 30
0.0
 11
-0.0003057955032876
 21
17.41869420449671
 31
0.0
  0
LINE
  5
D15E
330
D13B
100
AcDbEntity
  8
0
100
AcDbLine
 10
-2.000305795503284
 20
4.84762639263124
 30
0.0
 11
-2.000305795503284
 21
3.999999999999995
 31
0.0
  0
LINE
  5
D15F
330
D13B
100
AcDbEntity
  8
0
100
AcDbLine
 10
-0.0003057955032847
 20
3.999999999999994
 30
0.0
 11
-0.0003057955032849
 21
4.84762639263124
 31
0.0
  0
ENDBLK
  5
D13D
330
D13B
100
AcDbEntity
  8
0
100
AcDbBlockEnd
  0
BLOCK
  5
D161
330
D160
100
AcDbEntity
  8
0
100
AcDbBlockBegin
  2
SPF210LZ-ISO
 70
     0
 10
0.0
 20
0.0
 30
0.0
  3
SPF210LZ-ISO
  1

  0
ELLIPSE
  5
D163
330
D160
100
AcDbEntity
  8
0
100
AcDbEllipse
 10
18.24148755998719
 20
-42.16981727633573
 30
0.0
 11
4.0
 21
-0.0000000000000002
 31
0.0
210
0.0
220
0.0
230
1.0
 40
0.5773502691896254
 41
6.109973356733708
 42
6.283185307179586
  0
SPLINE
  5
D164
330
D160
100
AcDbEntity
  8
0
100
AcDbSpline
210
0.0
220
0.0
230
1.0
 70
     8
 71
     3
 72
    14
 73
    10
 74
     0
 42
0.000000001
 43
0.0000000001
 40
0.0
 40
0.0
 40
0.0
 40
0.0
 40
0.3674902801726788
 40
0.3674902801726788
 40
0.3674902801726788
 40
0.8544958201613873
 40
0.8544958201613873
 40
0.8544958201613873
 40
1.0
 40
1.0
 40
1.0
 40
1.0
 10
22.18163267427605
 20
-42.56783590169108
 30
0.0
 10
22.21554631550203
 20
-42.78685247394673
 30
0.0
 10
22.2729643125786
 20
-42.87434659230568
 30
0.0
 10
22.33152357251023
 20
-42.94567653355989
 30
0.0
 10
22.4091274862544
 20
-43.04020441207016
 30
0.0
 10
22.49434151709274
 20
-43.10908572389965
 30
0.0
 10
22.52719324054063
 20
-43.4504208481876
 30
0.0
 10
22.5370084534778
 20
-43.55240261888939
 30
0.0
 10
22.54248179496254
 20
-43.68036606360331
 30
0.0
 10
22.54162012638479
 20
-43.83600339031434
 30
0.0
  0
LINE
  5
D165
330
D160
100
AcDbEntity
  8
0
100
AcDbLine
 10
20.21156011712979
 20
-42.36882658901031
 30
0.0
 11
22.18163267427603
 21
-42.5678359016911
 31
0.0
  0
SPLINE
  5
D166
330
D160
100
AcDbEntity
  8
0
100
AcDbSpline
210
0.0
220
0.0
230
1.0
 70
     8
 71
     3
 72
    14
 73
    10
 74
     0
 42
0.000000001
 43
0.0000000001
 40
0.0
 40
0.0
 40
0.0
 40
0.0
 40
0.3203790963197878
 40
0.3203790963197878
 40
0.3203790963197878
 40
0.8798267533562436
 40
0.8798267533562436
 40
0.8798267533562436
 40
1.0
 40
1.0
 40
1.0
 40
1.0
 10
20.21156011713094
 20
-42.36882658900677
 30
0.0
 10
20.22928341804403
 20
-42.59779393877536
 30
0.0
 10
20.32484067783522
 20
-42.82463222988105
 30
0.0
 10
20.45263115892399
 20
-43.05452937568168
 30
0.0
 10
20.67577956672559
 20
-43.45597697652375
 30
0.0
 10
20.99146005308691
 20
-43.87794019023504
 30
0.0
 10
21.09364217499267
 20
-44.34443679240153
 30
0.0
 10
21.11559160526361
 20
-44.44464350615845
 30
0.0
 10
21.12694264761902
 20
-44.54724805880553
 30
0.0
 10
21.12740656408064
 20
-44.65249997113859
 30
0.0
  0
LINE
  5
D167
330
D160
100
AcDbEntity
  8
0
100
AcDbLine
 10
22.48891653493722
 20
-43.86643182296119
 30
0.0
 11
21.12740656408352
 21
-44.65249997113794
 31
0.0
  0
LINE
  5
D168
330
D160
100
AcDbEntity
  8
0
100
AcDbLine
 10
22.54162012645662
 20
-43.83600339021021
 30
0.0
 11
22.48891653493722
 21
-43.86643182296119
 31
0.0
  0
ELLIPSE
  5
D169
330
D160
100
AcDbEntity
  8
0
100
AcDbEllipse
 10
18.24148755998719
 20
-42.16981727633573
 30
0.0
 11
2.0
 21
0.0
 31
0.0
210
0.0
220
0.0
230
1.0
 40
0.5773502691896259
 41
0.2790560794426344
 42
0.7853981633974501
  0
LINE
  5
D16A
330
D160
100
AcDbEntity
  8
0
100
AcDbLine
 10
19.65210901991186
 20
-41.35124679409245
 30
0.0
 11
19.65570112236029
 21
-41.353320695408
 31
0.0
  0
LINE
  5
D16B
330
D160
100
AcDbEntity
  8
0
100
AcDbLine
 10
19.65210901991186
 20
-42.09720966835103
 30
0.0
 11
19.65210901991186
 21
-41.35124679409245
 31
0.0
  0
ELLIPSE
  5
D16C
330
D160
100
AcDbEntity
  8
0
100
AcDbEllipse
 10
21.12740656408352
 20
-42.94897310261333
 30
0.0
 11
-1.043192897751534
 21
1.80686310100091
 31
0.0
210
0.0
220
0.0
230
1.0
 40
0.577350269189626
 41
0.785398163397689
 42
2.356194490192587
  0
SPLINE
  5
D16D
330
D160
100
AcDbEntity
  8
0
100
AcDbSpline
210
0.0
220
0.0
230
1.0
 70
     8
 71
     3
 72
    18
 73
    14
 74
     0
 42
0.000000001
 43
0.0000000001
 40
0.0009456376259441
 40
0.0009456376259441
 40
0.0009456376259441
 40
0.0009456376259441
 40
0.02117381236033
 40
0.02117381236033
 40
0.0431205558810663
 40
0.0431205558810663
 40
0.0813337688879412
 40
0.0813337688879412
 40
0.1365239275837632
 40
0.1365239275837632
 40
0.1658657942173717
 40
0.1658657942173717
 40
0.1965461172075918
 40
0.1965461172075918
 40
0.1965461172075918
 40
0.1965461172075918
 10
22.2414875599872
 20
-42.16408933309787
 30
0.0
 10
22.24200026702376
 20
-42.21669363041541
 30
0.0
 10
22.24247678048222
 20
-42.26250962955358
 30
0.0
 10
22.24417042326334
 20
-42.34214865577238
 30
0.0
 10
22.24542729742108
 20
-42.37608273795404
 30
0.0
 10
22.24996851321309
 20
-42.4577303485549
 30
0.0
 10
22.25391112515718
 20
-42.49792140907785
 30
0.0
 10
22.2681701532695
 20
-42.5989056867008
 30
0.0
 10
22.28041216825808
 20
-42.66211184449866
 30
0.0
 10
22.31964603049611
 20
-42.79550204329276
 30
0.0
 10
22.33732509281611
 20
-42.84855896984453
 30
0.0
 10
22.38383889621141
 20
-42.96952422414999
 30
0.0
 10
22.41366082604368
 20
-43.03898500800663
 30
0.0
 10
22.44885960058351
 20
-43.1131863331226
 30
0.0
  0
SPLINE
  5
D16E
330
D160
100
AcDbEntity
  8
0
100
AcDbSpline
210
0.0
220
0.0
230
1.0
 70
     8
 71
     3
 72
    11
 73
     7
 74
     0
 42
0.000000001
 43
0.0000000001
 40
-1.0
 40
-1.0
 40
-1.0
 40
-1.0
 40
-0.6490265332870804
 40
-0.6490265332870804
 40
-0.6490265332870804
 40
-0.6148666632389786
 40
-0.6148666632389786
 40
-0.6148666632389786
 40
-0.6148666632389786
 10
22.54162012645668
 20
43.83591877996543
 30
0.0
 10
22.53795731718978
 20
43.45906389320855
 30
0.0
 10
22.50866139365272
 20
43.2619884771678
 30
0.0
 10
22.46142926629188
 20
43.14250672498627
 30
0.0
 10
22.45683221413334
 20
43.13087769454739
 30
0.0
 10
22.4521104223124
 20
43.11997027559067
 30
0.0
 10
22.44728099614778
 20
43.10968337088183
 30
0.0
  0
LINE
  5
D16F
330
D160
100
AcDbEntity
  8
0
100
AcDbLine
 10
21.06991468473339
 20
40.53673950423551
 30
0.0
 11
21.06991468473339
 21
41.2868501811252
 31
0.0
  0
ELLIPSE
  5
D170
330
D160
100
AcDbEntity
  8
0
100
AcDbEllipse
 10
18.24148755998719
 20
42.16973266609096
 30
0.0
 11
4.000000000000001
 21
0.0000000000000001
 31
0.0
210
0.0
220
0.0
230
1.0
 40
0.5773502691896258
 41
5.497787143782139
 42
6.279189039437647
  0
ELLIPSE
  5
D171
330
D160
100
AcDbEntity
  8
0
100
AcDbEllipse
 10
22.54162012645662
 20
42.13653971407196
 30
0.0
 11
-1.040652897751537
 21
-1.802463691949689
 31
0.0
210
0.0
220
0.0
230
1.0
 40
0.5773502691896258
 41
3.926990816987
 42
4.132264939959881
  0
ELLIPSE
  5
D172
330
D160
100
AcDbEntity
  8
0
100
AcDbEllipse
 10
22.54162012645662
 20
42.13653971407196
 30
0.0
 11
-1.040652897751537
 21
-1.80246369194969
 31
0.0
210
0.0
220
0.0
230
1.0
 40
0.5773502691896259
 41
4.132264939959933
 42
5.442919491148088
  0
ELLIPSE
  5
D173
330
D160
100
AcDbEntity
  8
0
100
AcDbEllipse
 10
22.54162012645662
 20
42.13653971407196
 30
0.0
 11
-1.040652897751644
 21
-1.802463691949627
 31
0.0
210
0.0
220
0.0
230
1.0
 40
0.5773502691896259
 41
5.442919491148303
 42
5.497787143782135
  0
SPLINE
  5
D174
330
D160
100
AcDbEntity
  8
0
100
AcDbSpline
210
0.0
220
0.0
230
1.0
 70
     8
 71
     3
 72
    16
 73
    12
 74
     0
 42
0.000000001
 43
0.0000000001
 40
0.0
 40
0.0
 40
0.0
 40
0.0
 40
0.0462372365630564
 40
0.0462372365630564
 40
0.0904155253244745
 40
0.0904155253244745
 40
0.1513094354129319
 40
0.1513094354129319
 40
0.1728140577635269
 40
0.1728140577635269
 40
0.195337573218769
 40
0.195337573218769
 40
0.195337573218769
 40
0.195337573218769
 10
22.44727262847565
 20
43.1096733672929
 30
0.0
 10
22.3947668183917
 20
42.99788539425416
 30
0.0
 10
22.35428944299432
 20
42.89588937494183
 30
0.0
 10
22.30007411465866
 20
42.73278326459455
 30
0.0
 10
22.28391154599056
 20
42.66844152409436
 30
0.0
 10
22.25784481306571
 20
42.54003818898744
 30
0.0
 10
22.25124973323802
 20
42.48501203485143
 30
0.0
 10
22.24513351210687
 20
42.37740839788115
 30
0.0
 10
22.24393032304263
 20
42.34586316839419
 30
0.0
 10
22.24225469092908
 20
42.26764574517514
 30
0.0
 10
22.24186409192125
 20
42.21866708289119
 30
0.0
 10
22.241460288326
 20
42.1605036673038
 30
0.0
  0
LINE
  5
D175
330
D160
100
AcDbEntity
  8
0
100
AcDbLine
 10
21.06632258228496
 20
42.98415534570314
 30
0.0
 11
21.06991468473339
 21
42.98208144438759
 31
0.0
  0
LINE
  5
D176
330
D160
100
AcDbEntity
  8
0
100
AcDbLine
 10
21.06991468473339
 20
42.98208144438759
 30
0.0
 11
21.06991468473339
 21
42.9862292470187
 31
0.0
  0
LINE
  5
D177
330
D160
100
AcDbEntity
  8
0
100
AcDbLine
 10
21.06632258228496
 20
42.98415534570314
 30
0.0
 11
21.06991468473339
 21
42.9862292470187
 31
0.0
  0
LINE
  5
D178
330
D160
100
AcDbEntity
  8
0
100
AcDbLine
 10
19.65570112236029
 20
-41.353320695408
 30
0.0
 11
19.65570112236029
 21
-40.44538918496422
 31
0.0
  0
SPLINE
  5
D179
330
D160
100
AcDbEntity
  8
0
100
AcDbSpline
210
0.0
220
0.0
230
1.0
 70
     8
 71
     3
 72
    14
 73
    10
 74
     0
 42
0.000000001
 43
0.0000000001
 40
0.3126800015238131
 40
0.3126800015238131
 40
0.3126800015238131
 40
0.3126800015238131
 40
0.4432437125955649
 40
0.4432437125955649
 40
0.5834285218361752
 40
0.5834285218361752
 40
0.6466876268288085
 40
0.6466876268288085
 40
0.7061930309166037
 40
0.7061930309166037
 40
0.7061930309166037
 40
0.7061930309166037
 10
20.21156011713046
 20
-42.36882658902138
 30
0.0
 10
20.19603944774483
 20
-42.10966759076895
 30
0.0
 10
20.17196969596235
 20
-41.87173528589934
 30
0.0
 10
20.09266159295091
 20
-41.41404949945002
 30
0.0
 10
20.03472731814714
 20
-41.19266974290283
 30
0.0
 10
19.91080389259299
 20
-40.88542720313335
 30
0.0
 10
19.86676817834929
 20
-40.7921681698356
 30
0.0
 10
19.76866291031443
 20
-40.61416469514337
 30
0.0
 10
19.71609038499356
 20
-40.53068437676784
 30
0.0
 10
19.65570112236028
 20
-40.44538918496418
 30
0.0
  0
SPLINE
  5
D17A
330
D160
100
AcDbEntity
  8
0
100
AcDbSpline
210
0.0
220
0.0
230
1.0
 70
     8
 71
     3
 72
    10
 73
     6
 74
     0
 42
0.000000001
 43
0.0000000001
 40
0.0
 40
0.0
 40
0.0
 40
0.0
 40
0.2929592573845465
 40
0.2929592573845465
 40
0.449429928765807
 40
0.449429928765807
 40
0.449429928765807
 40
0.449429928765807
 10
21.06991468473338
 20
-41.26188576589192
 30
0.0
 10
21.59263311362547
 20
-41.4810825628568
 30
0.0
 10
21.85742777212222
 20
-41.69772468358668
 30
0.0
 10
22.09761445841595
 20
-42.16318268300812
 30
0.0
 10
22.14903609163243
 20
-42.34947352519168
 30
0.0
 10
22.18163267427604
 20
-42.56783590170935
 30
0.0
  0
LINE
  5
D17B
330
D160
100
AcDbEntity
  8
0
100
AcDbLine
 10
20.11532112659115
 20
-40.71075091813184
 30
0.0
 11
21.06991468473339
 21
-41.26188576589194
 31
0.0
  0
LINE
  5
D17C
330
D160
100
AcDbEntity
  8
0
100
AcDbLine
 10
19.65570112236029
 20
-40.44538918496421
 30
0.0
 11
20.11532112659115
 21
-40.71075091813184
 31
0.0
  0
LINE
  5
D17D
330
D160
100
AcDbEntity
  8
0
100
AcDbLine
 10
21.06991468473339
 20
-41.26188576589194
 30
0.0
 11
21.06991468473339
 21
40.5367395042355
 31
0.0
  0
LINE
  5
D17E
330
D160
100
AcDbEntity
  8
0
100
AcDbLine
 10
21.06991468473339
 20
42.98208144438759
 30
0.0
 11
21.06632258228496
 21
42.98000754307203
 31
0.0
  0
LINE
  5
D17F
330
D160
100
AcDbEntity
  8
0
100
AcDbLine
 10
21.06632258228496
 20
42.98000754307203
 30
0.0
 11
21.06632258228496
 21
42.98415534570314
 31
0.0
  0
LINE
  5
D180
330
D160
100
AcDbEntity
  8
0
100
AcDbLine
 10
22.2414875599872
 20
42.1644199747284
 30
0.0
 11
22.2414875599872
 21
-42.16981727633575
 31
0.0
  0
ELLIPSE
  5
D181
330
D160
100
AcDbEntity
  8
0
100
AcDbEllipse
 10
4.863950596792923
 20
-68.61894805507041
 30
0.0
 11
1.250000000000129
 21
-2.165063509461022
 31
0.0
210
0.0
220
0.0
230
1.0
 40
0.5773502691896259
 41
3.742856870268578
 42
5.681921090500119
  0
ELLIPSE
  5
D182
330
D160
100
AcDbEntity
  8
0
100
AcDbEllipse
 10
15.47055231459113
 20
-66.57770660275111
 30
0.0
 11
1.250000000000129
 21
-2.165063509461022
 31
0.0
210
0.0
220
0.0
230
1.0
 40
0.5773502691896259
 41
3.742856870268578
 42
5.681921090500119
  0
ELLIPSE
  5
D183
330
D160
100
AcDbEntity
  8
0
100
AcDbEllipse
 10
4.863950596792923
 20
-52.28901643651588
 30
0.0
 11
1.250000000000129
 21
-2.165063509461022
 31
0.0
210
0.0
220
0.0
230
1.0
 40
0.5773502691896259
 41
3.742856870268578
 42
5.681921090500119
  0
ELLIPSE
  5
D184
330
D160
100
AcDbEntity
  8
0
100
AcDbEllipse
 10
15.47055231459113
 20
-33.91784336564206
 30
0.0
 11
1.250000000000129
 21
-2.165063509461022
 31
0.0
210
0.0
220
0.0
230
1.0
 40
0.5773502691896259
 41
3.742856870268575
 42
3.806835780921371
  0
ELLIPSE
  5
D185
330
D160
100
AcDbEntity
  8
0
100
AcDbEllipse
 10
15.47055231459113
 20
-17.58791174708753
 30
0.0
 11
1.250000000000129
 21
-2.165063509461022
 31
0.0
210
0.0
220
0.0
230
1.0
 40
0.5773502691896259
 41
3.742856870268578
 42
3.806835780921372
  0
ELLIPSE
  5
D186
330
D160
100
AcDbEntity
  8
0
100
AcDbEllipse
 10
15.47055231459113
 20
-1.257980128533009
 30
0.0
 11
1.250000000000129
 21
-2.165063509461022
 31
0.0
210
0.0
220
0.0
230
1.0
 40
0.5773502691896259
 41
3.742856870268578
 42
3.806835780921373
  0
ELLIPSE
  5
D187
330
D160
100
AcDbEntity
  8
0
100
AcDbEllipse
 10
15.47055231459113
 20
15.07195149002151
 30
0.0
 11
1.250000000000129
 21
-2.165063509461022
 31
0.0
210
0.0
220
0.0
230
1.0
 40
0.5773502691896259
 41
3.742856870268578
 42
3.806835780921372
  0
ELLIPSE
  5
D188
330
D160
100
AcDbEntity
  8
0
100
AcDbEllipse
 10
15.47055231459113
 20
31.40188310857604
 30
0.0
 11
1.250000000000129
 21
-2.165063509461022
 31
0.0
210
0.0
220
0.0
230
1.0
 40
0.5773502691896259
 41
3.742856870268575
 42
3.806835780921371
  0
ELLIPSE
  5
D189
330
D160
100
AcDbEntity
  8
0
100
AcDbEllipse
 10
3.449737034419833
 20
-69.43544463599812
 30
0.0
 11
1.25
 21
-2.165063509461097
 31
0.0
210
0.0
220
0.0
230
1.0
 40
0.5773502691896259
 41
0.0
 42
6.283185307179586
  0
ELLIPSE
  5
D18A
330
D160
100
AcDbEntity
  8
0
100
AcDbEllipse
 10
14.05633875221804
 20
-67.39420318367883
 30
0.0
 11
1.25
 21
-2.165063509461097
 31
0.0
210
0.0
220
0.0
230
1.0
 40
0.5773502691896259
 41
0.0
 42
6.283185307179586
  0
ELLIPSE
  5
D18B
330
D160
100
AcDbEntity
  8
0
100
AcDbEllipse
 10
3.449737034419833
 20
-53.1055130174436
 30
0.0
 11
1.25
 21
-2.165063509461097
 31
0.0
210
0.0
220
0.0
230
1.0
 40
0.5773502691896259
 41
0.0
 42
6.283185307179586
  0
ELLIPSE
  5
D18C
330
D160
100
AcDbEntity
  8
0
100
AcDbEllipse
 10
14.05633875221804
 20
-34.73433994656978
 30
0.0
 11
1.24999999999987
 21
-2.165063509461171
 31
0.0
210
0.0
220
0.0
230
1.0
 40
0.5773502691896259
 41
2.389856166553753
 42
2.556069891078953
  0
ELLIPSE
  5
D18D
330
D160
100
AcDbEntity
  8
0
100
AcDbEllipse
 10
14.05633875221804
 20
-18.40440832801526
 30
0.0
 11
1.24999999999987
 21
-2.165063509461171
 31
0.0
210
0.0
220
0.0
230
1.0
 40
0.5773502691896258
 41
2.389856166553752
 42
2.556069891078951
  0
ELLIPSE
  5
D18E
330
D160
100
AcDbEntity
  8
0
100
AcDbEllipse
 10
14.05633875221804
 20
-2.074476709460732
 30
0.0
 11
1.24999999999987
 21
-2.165063509461171
 31
0.0
210
0.0
220
0.0
230
1.0
 40
0.5773502691896258
 41
2.389856166553753
 42
2.556069891078951
  0
ELLIPSE
  5
D18F
330
D160
100
AcDbEntity
  8
0
100
AcDbEllipse
 10
14.05633875221804
 20
14.25545490909379
 30
0.0
 11
1.24999999999987
 21
-2.165063509461171
 31
0.0
210
0.0
220
0.0
230
1.0
 40
0.5773502691896258
 41
2.389856166553753
 42
2.556069891078951
  0
ELLIPSE
  5
D190
330
D160
100
AcDbEntity
  8
0
100
AcDbEllipse
 10
14.05633875221804
 20
30.58538652764831
 30
0.0
 11
1.24999999999987
 21
-2.165063509461171
 31
0.0
210
0.0
220
0.0
230
1.0
 40
0.5773502691896258
 41
2.389856166553753
 42
2.556069891078951
  0
ELLIPSE
  5
D191
330
D160
100
AcDbEntity
  8
0
100
AcDbEllipse
 10
3.449737034419828
 20
-28.54422968557378
 30
0.0
 11
1.24999999999987
 21
2.165063509461171
 31
0.0
210
0.0
220
0.0
230
1.0
 40
0.577350269189626
 41
3.742856870268576
 42
5.681921090500117
  0
ELLIPSE
  5
D192
330
D160
100
AcDbEntity
  8
0
100
AcDbEllipse
 10
14.05633875221804
 20
-30.58547113789309
 30
0.0
 11
1.24999999999987
 21
2.165063509461171
 31
0.0
210
0.0
220
0.0
230
1.0
 40
0.577350269189626
 41
3.742856870268576
 42
5.681921090500117
  0
ELLIPSE
  5
D193
330
D160
100
AcDbEntity
  8
0
100
AcDbEllipse
 10
3.449737034419828
 20
-12.21429806701925
 30
0.0
 11
1.24999999999987
 21
2.165063509461171
 31
0.0
210
0.0
220
0.0
230
1.0
 40
0.5773502691896259
 41
3.742856870268576
 42
5.681921090500117
  0
ELLIPSE
  5
D194
330
D160
100
AcDbEntity
  8
0
100
AcDbEllipse
 10
14.05633875221804
 20
-14.25553951933857
 30
0.0
 11
1.24999999999987
 21
2.165063509461171
 31
0.0
210
0.0
220
0.0
230
1.0
 40
0.577350269189626
 41
3.742856870268576
 42
5.681921090500118
  0
ELLIPSE
  5
D195
330
D160
100
AcDbEntity
  8
0
100
AcDbEllipse
 10
3.449737034419828
 20
4.115633551535269
 30
0.0
 11
1.24999999999987
 21
2.165063509461171
 31
0.0
210
0.0
220
0.0
230
1.0
 40
0.577350269189626
 41
3.742856870268576
 42
5.681921090500118
  0
ELLIPSE
  5
D196
330
D160
100
AcDbEntity
  8
0
100
AcDbEllipse
 10
14.05633875221804
 20
2.074392099215955
 30
0.0
 11
1.24999999999987
 21
2.165063509461171
 31
0.0
210
0.0
220
0.0
230
1.0
 40
0.5773502691896259
 41
3.742856870268576
 42
5.681921090500118
  0
ELLIPSE
  5
D197
330
D160
100
AcDbEntity
  8
0
100
AcDbEllipse
 10
3.449737034419828
 20
20.44556517008979
 30
0.0
 11
1.24999999999987
 21
2.165063509461171
 31
0.0
210
0.0
220
0.0
230
1.0
 40
0.577350269189626
 41
3.742856870268576
 42
5.681921090500117
  0
ELLIPSE
  5
D198
330
D160
100
AcDbEntity
  8
0
100
AcDbEllipse
 10
14.05633875221804
 20
18.40432371777048
 30
0.0
 11
1.24999999999987
 21
2.165063509461171
 31
0.0
210
0.0
220
0.0
230
1.0
 40
0.577350269189626
 41
3.742856870268576
 42
5.681921090500117
  0
ELLIPSE
  5
D199
330
D160
100
AcDbEntity
  8
0
100
AcDbEllipse
 10
3.449737034419828
 20
36.77549678864431
 30
0.0
 11
1.24999999999987
 21
2.165063509461171
 31
0.0
210
0.0
220
0.0
230
1.0
 40
0.577350269189626
 41
3.742856870268576
 42
5.681921090500117
  0
ELLIPSE
  5
D19A
330
D160
100
AcDbEntity
  8
0
100
AcDbEllipse
 10
14.05633875221804
 20
34.734255336325
 30
0.0
 11
1.24999999999987
 21
2.165063509461171
 31
0.0
210
0.0
220
0.0
230
1.0
 40
0.577350269189626
 41
3.742856870268576
 42
5.681921090500117
  0
ELLIPSE
  5
D19B
330
D160
100
AcDbEntity
  8
0
100
AcDbEllipse
 10
3.449737034419828
 20
53.10542840719883
 30
0.0
 11
1.24999999999987
 21
2.165063509461171
 31
0.0
210
0.0
220
0.0
230
1.0
 40
0.577350269189626
 41
3.742856870268576
 42
5.681921090500117
  0
ELLIPSE
  5
D19C
330
D160
100
AcDbEntity
  8
0
100
AcDbEllipse
 10
14.05633875221804
 20
51.06418695487953
 30
0.0
 11
1.24999999999987
 21
2.165063509461171
 31
0.0
210
0.0
220
0.0
230
1.0
 40
0.577350269189626
 41
3.742856870268576
 42
5.681921090500117
  0
ELLIPSE
  5
D19D
330
D160
100
AcDbEntity
  8
0
100
AcDbEllipse
 10
14.05633875221804
 20
67.39411857343404
 30
0.0
 11
1.24999999999987
 21
2.165063509461171
 31
0.0
210
0.0
220
0.0
230
1.0
 40
0.577350269189626
 41
3.742856870268576
 42
5.681921090500117
  0
ELLIPSE
  5
D19E
330
D160
100
AcDbEntity
  8
0
100
AcDbEllipse
 10
3.449737034419828
 20
69.43536002575337
 30
0.0
 11
1.24999999999987
 21
2.165063509461171
 31
0.0
210
0.0
220
0.0
230
1.0
 40
0.577350269189626
 41
3.742856870268576
 42
5.681921090500117
  0
ELLIPSE
  5
D19F
330
D160
100
AcDbEntity
  8
0
100
AcDbEllipse
 10
4.86395059679292
 20
-29.3607262665015
 30
0.0
 11
1.250000000000129
 21
2.165063509461022
 31
0.0
210
0.0
220
0.0
230
1.0
 40
0.577350269189626
 41
0.0
 42
6.283185307179586
  0
ELLIPSE
  5
D1A0
330
D160
100
AcDbEntity
  8
0
100
AcDbEllipse
 10
15.47055231459114
 20
-31.40196771882081
 30
0.0
 11
1.250000000000129
 21
2.165063509461022
 31
0.0
210
0.0
220
0.0
230
1.0
 40
0.577350269189626
 41
0.0
 42
6.283185307179586
  0
ELLIPSE
  5
D1A1
330
D160
100
AcDbEntity
  8
0
100
AcDbEllipse
 10
4.86395059679292
 20
-13.03079464794697
 30
0.0
 11
1.250000000000129
 21
2.165063509461022
 31
0.0
210
0.0
220
0.0
230
1.0
 40
0.577350269189626
 41
0.0
 42
6.283185307179586
  0
ELLIPSE
  5
D1A2
330
D160
100
AcDbEntity
  8
0
100
AcDbEllipse
 10
15.47055231459114
 20
-15.07203610026629
 30
0.0
 11
1.250000000000129
 21
2.165063509461022
 31
0.0
210
0.0
220
0.0
230
1.0
 40
0.577350269189626
 41
0.0
 42
6.283185307179586
  0
ELLIPSE
  5
D1A3
330
D160
100
AcDbEntity
  8
0
100
AcDbEllipse
 10
4.86395059679292
 20
3.299136970607547
 30
0.0
 11
1.250000000000129
 21
2.165063509461022
 31
0.0
210
0.0
220
0.0
230
1.0
 40
0.577350269189626
 41
0.0
 42
6.283185307179586
  0
ELLIPSE
  5
D1A4
330
D160
100
AcDbEntity
  8
0
100
AcDbEllipse
 10
15.47055231459114
 20
1.257895518288231
 30
0.0
 11
1.250000000000129
 21
2.165063509461022
 31
0.0
210
0.0
220
0.0
230
1.0
 40
0.577350269189626
 41
0.0
 42
6.283185307179586
  0
ELLIPSE
  5
D1A5
330
D160
100
AcDbEntity
  8
0
100
AcDbEllipse
 10
4.86395059679292
 20
19.62906858916207
 30
0.0
 11
1.250000000000129
 21
2.165063509461022
 31
0.0
210
0.0
220
0.0
230
1.0
 40
0.577350269189626
 41
0.0
 42
6.283185307179586
  0
ELLIPSE
  5
D1A6
330
D160
100
AcDbEntity
  8
0
100
AcDbEllipse
 10
15.47055231459114
 20
17.58782713684275
 30
0.0
 11
1.250000000000129
 21
2.165063509461022
 31
0.0
210
0.0
220
0.0
230
1.0
 40
0.577350269189626
 41
0.0
 42
6.283185307179586
  0
ELLIPSE
  5
D1A7
330
D160
100
AcDbEntity
  8
0
100
AcDbEllipse
 10
4.86395059679292
 20
35.95900020771659
 30
0.0
 11
1.250000000000129
 21
2.165063509461022
 31
0.0
210
0.0
220
0.0
230
1.0
 40
0.577350269189626
 41
0.0
 42
6.283185307179586
  0
ELLIPSE
  5
D1A8
330
D160
100
AcDbEntity
  8
0
100
AcDbEllipse
 10
15.47055231459114
 20
33.91775875539728
 30
0.0
 11
1.250000000000129
 21
2.165063509461022
 31
0.0
210
0.0
220
0.0
230
1.0
 40
0.577350269189626
 41
0.0
 42
6.283185307179586
  0
ELLIPSE
  5
D1A9
330
D160
100
AcDbEntity
  8
0
100
AcDbEllipse
 10
4.86395059679292
 20
52.28893182627111
 30
0.0
 11
1.250000000000129
 21
2.165063509461022
 31
0.0
210
0.0
220
0.0
230
1.0
 40
0.577350269189626
 41
0.0
 42
6.283185307179586
  0
ELLIPSE
  5
D1AA
330
D160
100
AcDbEntity
  8
0
100
AcDbEllipse
 10
15.47055231459113
 20
50.2476903739518
 30
0.0
 11
1.250000000000129
 21
2.165063509461022
 31
0.0
210
0.0
220
0.0
230
1.0
 40
0.577350269189626
 41
0.0
 42
6.283185307179586
  0
ELLIPSE
  5
D1AB
330
D160
100
AcDbEntity
  8
0
100
AcDbEllipse
 10
15.47055231459113
 20
66.57762199250632
 30
0.0
 11
1.250000000000129
 21
2.165063509461022
 31
0.0
210
0.0
220
0.0
230
1.0
 40
0.577350269189626
 41
0.0
 42
6.283185307179586
  0
ELLIPSE
  5
D1AC
330
D160
100
AcDbEntity
  8
0
100
AcDbEllipse
 10
4.86395059679292
 20
68.61886344482565
 30
0.0
 11
1.250000000000129
 21
2.165063509461022
 31
0.0
210
0.0
220
0.0
230
1.0
 40
0.577350269189626
 41
0.0
 42
6.283185307179586
  0
ELLIPSE
  5
D1AD
330
D160
100
AcDbEntity
  8
0
100
AcDbEllipse
 10
14.05633875221804
 20
-49.43127840326885
 30
0.0
 11
-2.25
 21
3.897114317029974
 31
0.0
210
0.0
220
0.0
230
1.0
 40
0.5773502691896257
 41
0.3196872591302793
 42
2.821905394459514
  0
ELLIPSE
  5
D1AE
330
D160
100
AcDbEntity
  8
0
100
AcDbEllipse
 10
12.64212518984495
 20
-50.24777498419658
 30
0.0
 11
2.25
 21
-3.897114317029974
 31
0.0
210
0.0
220
0.0
230
1.0
 40
0.5773502691896259
 41
0.0
 42
6.283185307179586
  0
LINE
  5
D1AF
330
D160
100
AcDbEntity
  8
0
100
AcDbLine
 10
22.54162012645662
 20
-72.29318266924519
 30
0.0
 11
22.54162012645662
 21
-43.83600339021021
 31
0.0
  0
LINE
  5
D1B0
330
D160
100
AcDbEntity
  8
0
100
AcDbLine
 10
4.807364604705488
 20
37.96652569376191
 30
0.0
 11
5.216598100123497
 21
37.73025462502091
 31
0.0
  0
LINE
  5
D1B1
330
D160
100
AcDbEntity
  8
0
100
AcDbLine
 10
-1.853563824479276
 20
-72.49730681447708
 30
0.0
 11
-1.853563824479276
 21
-41.8122991256493
 31
0.0
  0
LINE
  5
D1B2
330
D160
100
AcDbEntity
  8
0
100
AcDbLine
 10
10.16725145569204
 20
-79.43752775236278
 30
0.0
 11
-1.853563824479276
 21
-72.49730681447708
 31
0.0
  0
LINE
  5
D1B3
330
D160
100
AcDbEntity
  8
0
100
AcDbLine
 10
21.12740656408352
 20
-73.10967925017291
 30
0.0
 11
10.16725145569204
 21
-79.43752775236278
 31
0.0
  0
LINE
  5
D1B4
330
D160
100
AcDbEntity
  8
0
100
AcDbLine
 10
21.12740656408352
 20
-44.65249997113794
 30
0.0
 11
21.12740656408352
 21
-73.10967925017291
 31
0.0
  0
LINE
  5
D1B5
330
D160
100
AcDbEntity
  8
0
100
AcDbLine
 10
21.12740656408352
 20
-73.10967925017291
 30
0.0
 11
22.54162012645662
 21
-72.29318266924519
 31
0.0
  0
LINE
  5
D1B6
330
D160
100
AcDbEntity
  8
0
100
AcDbLine
 10
-1.853563824479276
 20
72.49722220423233
 30
0.0
 11
-1.853563824479276
 21
-41.81229912564931
 31
0.0
  0
LINE
  5
D1B7
330
D160
100
AcDbEntity
  8
0
100
AcDbLine
 10
10.16725145569203
 20
79.437443142118
 30
0.0
 11
-1.853563824479276
 21
72.49722220423233
 31
0.0
  0
LINE
  5
D1B8
330
D160
100
AcDbEntity
  8
0
100
AcDbLine
 10
22.54162012645662
 20
72.2930980590004
 30
0.0
 11
22.54162012645662
 21
43.83591877996544
 31
0.0
  0
LINE
  5
D1B9
330
D160
100
AcDbEntity
  8
0
100
AcDbLine
 10
11.58146501806513
 20
78.62094656119028
 30
0.0
 11
22.54162012645662
 21
72.2930980590004
 31
0.0
  0
LINE
  5
D1BA
330
D160
100
AcDbEntity
  8
0
100
AcDbLine
 10
-0.4393502621061796
 20
71.68072562330459
 30
0.0
 11
11.58146501806513
 21
78.62094656119028
 31
0.0
  0
LINE
  5
D1BB
330
D160
100
AcDbEntity
  8
0
100
AcDbLine
 10
-0.4393502621061796
 20
-42.62879570657704
 30
0.0
 11
-0.4393502621061796
 21
71.68072562330459
 31
0.0
  0
LINE
  5
D1BC
330
D160
100
AcDbEntity
  8
0
100
AcDbLine
 10
11.58146501806513
 20
-35.68857476869137
 30
0.0
 11
-0.4393502621061796
 21
-42.62879570657704
 31
0.0
  0
LINE
  5
D1BD
330
D160
100
AcDbEntity
  8
0
100
AcDbLine
 10
20.47055231459115
 20
-40.82069171219075
 30
0.0
 11
11.58146501806513
 21
-35.68857476869137
 31
0.0
  0
LINE
  5
D1BE
330
D160
100
AcDbEntity
  8
0
100
AcDbLine
 10
10.16725145569203
 20
79.437443142118
 30
0.0
 11
11.58146501806513
 21
78.62094656119028
 31
0.0
  0
LINE
  5
D1BF
330
D160
100
AcDbEntity
  8
0
100
AcDbLine
 10
-1.853563824479276
 20
72.49722220423233
 30
0.0
 11
-0.4393502621061796
 21
71.68072562330459
 31
0.0
  0
LINE
  5
D1C0
330
D160
100
AcDbEntity
  8
0
100
AcDbLine
 10
-1.853563824479276
 20
-41.81229912564932
 30
0.0
 11
-0.4393502621061796
 21
-42.62879570657704
 31
0.0
  0
ELLIPSE
  5
D1C1
330
D160
100
AcDbEntity
  8
0
100
AcDbEllipse
 10
14.05633875221805
 20
-48.66444916910741
 30
0.0
 11
4.999999999999998
 21
8.660254037844389
 31
0.0
210
0.0
220
0.0
230
0.9999999999999998
 40
0.577350269189626
 41
6.15471936099798
 42
6.283185307179582
  0
ELLIPSE
  5
D1C2
330
D160
100
AcDbEntity
  8
0
100
AcDbEllipse
 10
15.47055231459114
 20
-49.48094575003515
 30
0.0
 11
5.000000000000001
 21
8.660254037844385
 31
0.0
210
0.0
220
0.0
230
1.0
 40
0.5773502691896259
 41
6.154719360997982
 42
6.283185307179588
  0
ENDBLK
  5
D162
330
D160
100
AcDbEntity
  8
0
100
AcDbBlockEnd
  0
ENDSEC
  0
SECTION
  2
ENTITIES
  0
INSERT
  5
D1C3
330
1F
100
AcDbEntity
  8
0
100
AcDbBlockReference
  2
SPF210LZ-Front
 10
0.0
 20
0.0
 30
0.0
  0
INSERT
  5
D1C4
330
1F
100
AcDbEntity
  8
0
100
AcDbBlockReference
  2
SPF210LZ-Left
 10
63.00044704269335
 20
0.0
 30
0.0
  0
INSERT
  5
D1C5
330
1F
100
AcDbEntity
  8
0
100
AcDbBlockReference
  2
SPF210LZ-Right
 10
-97.41946350072831
 20
0.0
 30
0.0
  0
INSERT
  5
D1C6
330
1F
100
AcDbEntity
  8
0
100
AcDbBlockReference
  2
SPF210LZ-Top
 10
0.0
 20
-168.0004493581211
 30
0.0
  0
INSERT
  5
D1C7
330
1F
100
AcDbEntity
  8
0
100
AcDbBlockReference
  2
SPF210LZ-Bottom
 10
0.0
 20
168.0004458516141
 30
0.0
  0
INSERT
  5
D1C8
330
1F
100
AcDbEntity
  8
0
100
AcDbBlockReference
  2
SPF210LZ-ISO
 10
64.85356641300374
 20
-247.437443142118
 30
0.0
  0
MTEXT
  5
D1C9
330
1F
100
AcDbEntity
  8
0
100
AcDbMText
 10
0.0
 20
-265.4191435626179
 30
0.0
 40
13.36825021571037
 41
0.0
 71
     5
 72
     5
  1
SPF210LZ
 73
     1
 44
1.0
1001
ACAD
1000
MTEXTBEGIN
1070
    73
1070
     1
1070
    44
1040
1.0
1070
    74
1070
     0
1000
MTEXTEND
  0
ENDSEC
  0
SECTION
  2
OBJECTS
  0
DICTIONARY
  5
C
330
0
100
AcDbDictionary
281
     1
  3
ACAD_CIP_PREVIOUS_PRODUCT_INFO
350
216
  3
ACAD_COLOR
350
6B
  3
ACAD_DETAILVIEWSTYLE
350
21B
  3
ACAD_GROUP
350
D
  3
ACAD_LAST_SAVED_VERSION_INFO
350
D1CA
  3
ACAD_LAYOUT
350
1A
  3
ACAD_MATERIAL
350
6A
  3
ACAD_MLEADERSTYLE
350
12D
  3
ACAD_MLINESTYLE
350
17
  3
ACAD_PLOTSETTINGS
350
19
  3
ACAD_PLOTSTYLENAME
350
E
  3
ACAD_SCALELIST
350
10C
  3
ACAD_SECTIONVIEWSTYLE
350
219
  3
ACAD_TABLESTYLE
350
7E
  3
ACAD_VISUALSTYLE
350
EF
  3
ACDB_RECOMPOSE_DATA
350
D2CB
  3
AcDbVariableDictionary
350
5E
  3
DWGPROPS
350
D2CC
  0
DICTIONARY
  5
D21B
330
8
100
AcDbDictionary
280
     1
281
     1
  0
DICTIONARY
  5
1FF
330
2
100
AcDbDictionary
280
     1
281
     1
  3
ACAD_LAYERSTATES
360
200
  0
DICTIONARY
  5
13C
330
10
100
AcDbDictionary
280
     1
281
     1
  0
DICTIONARY
  5
1CE
330
1F
100
AcDbDictionary
280
     1
281
     1
  3
ACAD_LAYOUTSELFREF
360
D223
  0
DICTIONARY
  5
D1CE
330
D2
100
AcDbDictionary
280
     1
281
     1
  3
ACAD_LAYOUTSELFREF
360
D22C
  0
DICTIONARY
  5
D1D0
330
D6
100
AcDbDictionary
280
     1
281
     1
  3
ACAD_LAYOUTSELFREF
360
D22F
  0
XRECORD
  5
216
102
{ACAD_REACTORS
330
C
102
}
330
C
100
AcDbXrecord
280
     1
300
ACD
300
2024
300

  0
DICTIONARY
  5
6B
102
{ACAD_REACTORS
330
C
102
}
330
C
100
AcDbDictionary
281
     1
  0
DICTIONARY
  5
21B
102
{ACAD_REACTORS
330
C
102
}
330
C
100
AcDbDictionary
281
     1
  3
Metric50
350
21C
  0
DICTIONARY
  5
D
102
{ACAD_REACTORS
330
C
102
}
330
C
100
AcDbDictionary
281
     1
  0
XRECORD
  5
D1CA
102
{ACAD_REACTORS
330
C
102
}
330
C
100
AcDbXrecord
280
     1
300
{2612870F-2C18-3745-A243-D77E262A6D9C}
301
{B7014238-3A41-3B41-977A-B40CF64773CC}
302
{2612870F-2C18-3745-A243-D77E262A6D9C}
303
\\105file\shardata$\@Technology\9.BIMCAD EU\2.PROJECTS\ES-25081211 EU BIM files for various products\Working\2D Contents\2D DWG\SPF210LZ.dwg
  0
DICTIONARY
  5
1A
102
{ACAD_REACTORS
330
C
102
}
330
C
100
AcDbDictionary
281
     1
  3
Layout1
350
D3
  3
Layout2
350
D7
  3
Model
350
22
  0
DICTIONARY
  5
6A
102
{ACAD_REACTORS
330
C
102
}
330
C
100
AcDbDictionary
281
     1
  3
ByBlock
350
ED
  3
ByLayer
350
EC
  3
Global
350
EE
  0
DICTIONARY
  5
12D
102
{ACAD_REACTORS
330
C
102
}
330
C
100
AcDbDictionary
281
     1
  3
Standard
350
12E
  0
DICTIONARY
  5
17
102
{ACAD_REACTORS
330
C
102
}
330
C
100
AcDbDictionary
281
     1
  3
Standard
350
18
  0
DICTIONARY
  5
19
102
{ACAD_REACTORS
330
C
102
}
330
C
100
AcDbDictionary
281
     1
  0
ACDBDICTIONARYWDFLT
  5
E
102
{ACAD_REACTORS
330
C
102
}
330
C
100
AcDbDictionary
281
     1
  3
Normal
350
F
100
AcDbDictionaryWithDefault
340
F
  0
DICTIONARY
  5
10C
102
{ACAD_REACTORS
330
C
102
}
330
C
100
AcDbDictionary
281
     1
  3
A0
350
10D
  3
A1
350
1BE
  3
A2
350
1BF
  3
A3
350
1C0
  3
A4
350
1C1
  3
A5
350
1C2
  3
A6
350
1C3
  3
A7
350
1C4
  3
A8
350
1C5
  3
A9
350
1C6
  3
B0
350
1C7
  3
B1
350
1C8
  3
B2
350
1C9
  3
B3
350
1CA
  3
B4
350
1CB
  3
B5
350
1CC
  3
B6
350
1CD
  0
DICTIONARY
  5
219
102
{ACAD_REACTORS
330
C
102
}
330
C
100
AcDbDictionary
281
     1
  3
Metric50
350
21A
  0
DICTIONARY
  5
7E
102
{ACAD_REACTORS
330
C
102
}
330
C
100
AcDbDictionary
281
     1
  3
Standard
350
7F
  0
DICTIONARY
  5
EF
102
{ACAD_REACTORS
330
C
102
}
330
C
100
AcDbDictionary
281
     1
  3
2dWireframe
350
F5
  3
Basic
350
F4
  3
Brighten
350
FB
  3
ColorChange
350
FF
  3
Conceptual
350
F8
  3
Dim
350
FA
  3
EdgeColorOff
350
1E6
  3
Facepattern
350
FE
  3
Flat
350
F0
  3
FlatWithEdges
350
F1
  3
Gouraud
350
F2
  3
GouraudWithEdges
350
F3
  3
Hidden
350
F7
  3
JitterOff
350
1E4
  3
Linepattern
350
FD
  3
OverhangOff
350
1E5
  3
Realistic
350
F9
  3
Shaded
350
1F3
  3
Shaded with edges
350
1F2
  3
Shades of Gray
350
1EF
  3
Sketchy
350
1F0
  3
Thicken
350
FC
  3
Wireframe
350
F6
  3
X-Ray
350
1F1
  0
XRECORD
  5
D2CB
102
{ACAD_REACTORS
330
C
102
}
330
C
100
AcDbXrecord
280
     1
 90
        1
330
7F
  0
DICTIONARY
  5
5E
102
{ACAD_REACTORS
330
C
102
}
330
C
100
AcDbDictionary
281
     1
  3
CANNOSCALE
350
146
  3
CENTEREXE
350
259
  3
CENTERLTYPEFILE
350
25A
  3
CMLEADERSTYLE
350
145
  3
CTABLESTYLE
350
84
  3
CVIEWDETAILSTYLE
350
227
  3
CVIEWSECTIONSTYLE
350
228
  3
DIMASSOC
350
5F
  3
HIDETEXT
350
63
  3
INDEXCTL
350
D278
  3
LAYEREVAL
350
1AE
  3
LAYERNOTIFY
350
1AF
  3
LIGHTINGUNITS
350
D276
  3
MSLTSCALE
350
D275
  3
PSOLHEIGHT
350
D2C8
  3
PSOLWIDTH
350
D2C7
  3
SORTENTS
350
D277
  3
XCLIPFRAME
350
D2C9
  0
XRECORD
  5
D2CC
102
{ACAD_REACTORS
330
C
102
}
330
C
100
AcDbXrecord
280
     1
  1
DWGPROPS COOKIE
  2

  3

  4

  6

  7

  8
KhuNguyen
  9

300
=
301
=
302
=
303
=
304
=
305
=
306
=
307
=
308
=
309
=
 40
0.0084490740740741
 41
2460924.42568287
 42
2460924.442395834
  1

 90
        0
  0
DICTIONARY
  5
200
102
{ACAD_REACTORS
330
1FF
102
}
330
1FF
100
AcDbDictionary
281
     1
  0
XRECORD
  5
D223
102
{ACAD_REACTORS
330
1CE
102
}
330
1CE
100
AcDbXrecord
280
     1
340
1F
  0
XRECORD
  5
D22C
102
{ACAD_REACTORS
330
D1CE
102
}
330
D1CE
100
AcDbXrecord
280
     1
340
D2
  0
XRECORD
  5
D22F
102
{ACAD_REACTORS
330
D1D0
102
}
330
D1D0
100
AcDbXrecord
280
     1
340
D6
  0
ACDBDETAILVIEWSTYLE
  5
21C
102
{ACAD_XDICTIONARY
360
D30B
102
}
102
{ACAD_REACTORS
330
21B
102
}
330
21B
100
AcDbModelDocViewStyle
 70
     0
  3
Metric50
290
     0
100
AcDbDetailViewStyle
 70
     0
 71
     0
 90
        3
 71
     1
340
11
 40
5.0
340
0
 40
5.0
300

 40
0.0
280
     1
 71
     2
340
16
 90
       25
 71
     3
340
11
 40
5.0
 90
        0
 40
15.0
 90
        1
300
%<\AcVar ViewDetailId>% (%<\AcVar ViewScale \f "%sn">%)
 71
     4
340
16
 90
       25
340
16
 90
       25
280
     0
  0
LAYOUT
  5
D3
102
{ACAD_XDICTIONARY
360
D2D0
102
}
102
{ACAD_REACTORS
330
1A
102
}
330
1A
100
AcDbPlotSettings
  1

  2
C:\Documents and Settings\basas\Application Data\Autodesk\AutoCAD 2005\R16.1\enu\plotters\Default Windows System Printer.pc3
  4

  6

 40
0.0
 41
0.0
 42
0.0
 43
0.0
 44
0.0
 45
0.0
 46
0.0
 47
0.0
 48
0.0
 49
0.0
140
0.0
141
0.0
142
1.0
143
1.0
 70
   688
 72
     0
 73
     0
 74
     5
  7

 75
    16
147
1.0
148
0.0
149
0.0
100
AcDbLayout
  1
Layout1
 70
     1
 71
     1
 10
0.0
 20
0.0
 11
12.0
 21
9.0
 12
0.0
 22
0.0
 32
0.0
 14
0.0
 24
0.0
 34
0.0
 15
0.0
 25
0.0
 35
0.0
146
0.0
 13
0.0
 23
0.0
 33
0.0
 16
1.0
 26
0.0
 36
0.0
 17
0.0
 27
1.0
 37
0.0
 76
     0
330
D2
  0
LAYOUT
  5
D7
102
{ACAD_XDICTIONARY
360
D2D2
102
}
102
{ACAD_REACTORS
330
1A
102
}
330
1A
100
AcDbPlotSettings
  1

  2
C:\Documents and Settings\basas\Application Data\Autodesk\AutoCAD 2005\R16.1\enu\plotters\Default Windows System Printer.pc3
  4

  6

 40
0.0
 41
0.0
 42
0.0
 43
0.0
 44
0.0
 45
0.0
 46
0.0
 47
0.0
 48
0.0
 49
0.0
140
0.0
141
0.0
142
1.0
143
1.0
 70
   688
 72
     0
 73
     0
 74
     5
  7

 75
    16
147
1.0
148
0.0
149
0.0
100
AcDbLayout
  1
Layout2
 70
     1
 71
     2
 10
0.0
 20
0.0
 11
12.0
 21
9.0
 12
0.0
 22
0.0
 32
0.0
 14
0.0
 24
0.0
 34
0.0
 15
0.0
 25
0.0
 35
0.0
146
0.0
 13
0.0
 23
0.0
 33
0.0
 16
1.0
 26
0.0
 36
0.0
 17
0.0
 27
1.0
 37
0.0
 76
     0
330
D6
  0
LAYOUT
  5
22
102
{ACAD_XDICTIONARY
360
D2CD
102
}
102
{ACAD_REACTORS
330
1A
102
}
330
1A
100
AcDbPlotSettings
  1

  2
none_device
  4
ISO_A4_(210.00_x_297.00_MM)
  6

 40
7.5
 41
20.0
 42
7.5
 43
20.0
 44
210.0
 45
297.0
 46
11.54999923706054
 47
-13.65000009536743
 48
0.0
 49
0.0
140
0.0
141
0.0
142
1.0
143
8.704084754739808
 70
 11952
 72
     1
 73
     0
 74
     0
  7

 75
     0
147
0.1148885871608098
148
0.0
149
0.0
100
AcDbLayout
  1
Model
 70
     1
 71
     0
 10
0.0
 20
0.0
 11
12.0
 21
9.0
 12
0.0
 22
0.0
 32
0.0
 14
0.0
 24
0.0
 34
0.0
 15
0.0
 25
0.0
 35
0.0
146
0.0
 13
0.0
 23
0.0
 33
0.0
 16
1.0
 26
0.0
 36
0.0
 17
0.0
 27
1.0
 37
0.0
 76
     0
330
1F
331
EA
1001
ACAD_PSEXT
1000
None
1000
None
1000
Not applicable
1000
The layout will not be plotted unless a new plotter configuration name is selected.
1070
     0
  0
MATERIAL
  5
ED
102
{ACAD_XDICTIONARY
360
1F9
102
}
102
{ACAD_REACTORS
330
6A
102
}
330
6A
100
AcDbMaterial
  1
ByBlock
  0
MATERIAL
  5
EC
102
{ACAD_XDICTIONARY
360
1F7
102
}
102
{ACAD_REACTORS
330
6A
102
}
330
6A
100
AcDbMaterial
  1
ByLayer
  0
MATERIAL
  5
EE
102
{ACAD_XDICTIONARY
360
173
102
}
102
{ACAD_REACTORS
330
6A
102
}
330
6A
100
AcDbMaterial
  1
Global
 43
0.0007999999797903
 43
0.0
 43
0.0
 43
0.0
 43
0.0
 43
0.0007999999797903
 43
0.0
 43
0.0
 43
0.0
 43
0.0
 43
1.0
 43
0.0
 43
0.0
 43
0.0
 43
0.0
 43
1.0
 49
0.0007999999797903
 49
0.0
 49
0.0
 49
0.0
 49
0.0
 49
0.0007999999797903
 49
0.0
 49
0.0
 49
0.0
 49
0.0
 49
1.0
 49
0.0
 49
0.0
 49
0.0
 49
0.0
 49
1.0
142
0.0007999999797903
142
0.0
142
0.0
142
0.0
142
0.0
142
0.0007999999797903
142
0.0
142
0.0
142
0.0
142
0.0
142
1.0
142
0.0
142
0.0
142
0.0
142
0.0
142
1.0
144
0.0007999999797903
144
0.0
144
0.0
144
0.0
144
0.0
144
0.0007999999797903
144
0.0
144
0.0
144
0.0
144
0.0
144
1.0
144
0.0
144
0.0
144
0.0
144
0.0
144
1.0
1001
ACAD
1070
    -1
1070
     3
1070
     0
1000

1071
        0
1070
     0
  0
MLEADERSTYLE
  5
12E
102
{ACAD_XDICTIONARY
360
D2F7
102
}
102
{ACAD_REACTORS
330
12D
102
}
330
12D
100
AcDbMLeaderStyle
170
     2
171
     1
172
     0
 90
        2
 40
0.0
 41
0.0
173
     1
 91
-1056964608
340
14
 92
       -2
290
     1
 42
2.0
291
     1
 43
8.0
  3
Standard
 44
4.0
300

342
11
174
     1
178
     1
175
     1
176
     0
 93
-1056964608
 45
4.0
292
     0
297
     0
 46
4.0
 94
-1056964608
 47
1.0
 49
1.0
140
1.0
293
     1
141
0.0
294
     1
177
     0
142
1.0
295
     0
296
     0
143
3.75
1001
ACAD_MLEADERVER
1070
     2
  0
MLINESTYLE
  5
18
102
{ACAD_REACTORS
330
17
102
}
330
17
100
AcDbMlineStyle
  2
STANDARD
 70
     0
  3

 62
   256
 51
90.0
 52
90.0
 71
     2
 49
0.5
 62
   256
  6
BYLAYER
 49
-0.5
 62
   256
  6
BYLAYER
  0
ACDBPLACEHOLDER
  5
F
102
{ACAD_REACTORS
330
E
102
}
330
E
  0
SCALE
  5
10D
102
{ACAD_REACTORS
330
10C
102
}
330
10C
100
AcDbScale
 70
     0
300
1:1
140
1.0
141
1.0
290
     1
  0
SCALE
  5
1BE
102
{ACAD_REACTORS
330
10C
102
}
330
10C
100
AcDbScale
 70
     0
300
1:2
140
1.0
141
2.0
290
     0
  0
SCALE
  5
1BF
102
{ACAD_REACTORS
330
10C
102
}
330
10C
100
AcDbScale
 70
     0
300
1:4
140
1.0
141
4.0
290
     0
  0
SCALE
  5
1C0
102
{ACAD_REACTORS
330
10C
102
}
330
10C
100
AcDbScale
 70
     0
300
1:5
140
1.0
141
5.0
290
     0
  0
SCALE
  5
1C1
102
{ACAD_REACTORS
330
10C
102
}
330
10C
100
AcDbScale
 70
     0
300
1:8
140
1.0
141
8.0
290
     0
  0
SCALE
  5
1C2
102
{ACAD_REACTORS
330
10C
102
}
330
10C
100
AcDbScale
 70
     0
300
1:10
140
1.0
141
10.0
290
     0
  0
SCALE
  5
1C3
102
{ACAD_REACTORS
330
10C
102
}
330
10C
100
AcDbScale
 70
     0
300
1:16
140
1.0
141
16.0
290
     0
  0
SCALE
  5
1C4
102
{ACAD_REACTORS
330
10C
102
}
330
10C
100
AcDbScale
 70
     0
300
1:20
140
1.0
141
20.0
290
     0
  0
SCALE
  5
1C5
102
{ACAD_REACTORS
330
10C
102
}
330
10C
100
AcDbScale
 70
     0
300
1:30
140
1.0
141
30.0
290
     0
  0
SCALE
  5
1C6
102
{ACAD_REACTORS
330
10C
102
}
330
10C
100
AcDbScale
 70
     0
300
1:40
140
1.0
141
40.0
290
     0
  0
SCALE
  5
1C7
102
{ACAD_REACTORS
330
10C
102
}
330
10C
100
AcDbScale
 70
     0
300
1:50
140
1.0
141
50.0
290
     0
  0
SCALE
  5
1C8
102
{ACAD_REACTORS
330
10C
102
}
330
10C
100
AcDbScale
 70
     0
300
1:100
140
1.0
141
100.0
290
     0
  0
SCALE
  5
1C9
102
{ACAD_REACTORS
330
10C
102
}
330
10C
100
AcDbScale
 70
     0
300
2:1
140
2.0
141
1.0
290
     0
  0
SCALE
  5
1CA
102
{ACAD_REACTORS
330
10C
102
}
330
10C
100
AcDbScale
 70
     0
300
4:1
140
4.0
141
1.0
290
     0
  0
SCALE
  5
1CB
102
{ACAD_REACTORS
330
10C
102
}
330
10C
100
AcDbScale
 70
     0
300
8:1
140
8.0
141
1.0
290
     0
  0
SCALE
  5
1CC
102
{ACAD_REACTORS
330
10C
102
}
330
10C
100
AcDbScale
 70
     0
300
10:1
140
10.0
141
1.0
290
     0
  0
SCALE
  5
1CD
102
{ACAD_REACTORS
330
10C
102
}
330
10C
100
AcDbScale
 70
     0
300
100:1
140
100.0
141
1.0
290
     0
  0
ACDBSECTIONVIEWSTYLE
  5
21A
102
{ACAD_XDICTIONARY
360
D309
102
}
102
{ACAD_REACTORS
330
219
102
}
330
219
100
AcDbModelDocViewStyle
 70
     0
  3
Metric50
290
     0
100
AcDbSectionViewStyle
 70
     0
 71
     0
 90
      102
 71
     1
340
11
 40
5.0
340
0
340
0
 40
5.0
300
I, O, Q, S, X, Z
 40
10.0
 90
        0
 40
2.5
 90
        0
 71
     2
340
16
 90
       25
340
16
 90
       50
 40
5.0
 40
2.5
 40
5.0
 71
     3
340
11
 40
5.0
 90
        0
 40
15.0
 90
        1
300
%<\AcVar ViewSectionStartId>%-%<\AcVar ViewSectionEndId>% (%<\AcVar ViewScale \f "%sn">%)
 71
     4
300
ANSI31
 40
1.0
 90
        0
290
     0
290
     0
 90
        6
 40
0.0
 40
1.570796326794896
 40
0.2617993877991494
 40
1.308996938995747
 40
-0.2617993877991494
 40
1.832595714594046
  0
TABLESTYLE
  5
7F
102
{ACAD_XDICTIONARY
360
162
102
}
102
{ACAD_REACTORS
330
7E
102
}
330
7E
100
AcDbTableStyle
  3
Standard
 70
     0
 71
     0
 40
1.5
 41
1.5
280
     0
281
     0
  7
Standard
140
4.5
170
     2
 62
     0
 63
     7
283
     0
274
    -2
284
     1
 64
     0
275
    -2
285
     1
 65
     0
276
    -2
286
     1
 66
     0
277
    -2
287
     1
 67
     0
278
    -2
288
     1
 68
     0
279
    -2
289
     1
 69
     0
  7
Standard
140
6.0
170
     5
 62
     0
 63
     7
283
     0
274
    -2
284
     1
 64
     0
275
    -2
285
     1
 65
     0
276
    -2
286
     1
 66
     0
277
    -2
287
     1
 67
     0
278
    -2
288
     1
 68
     0
279
    -2
289
     1
 69
     0
  7
Standard
140
4.5
170
     5
 62
     0
 63
     7
283
     0
274
    -2
284
     1
 64
     0
275
    -2
285
     1
 65
     0
276
    -2
286
     1
 66
     0
277
    -2
287
     1
 67
     0
278
    -2
288
     1
 68
     0
279
    -2
289
     1
 69
     0
  0
VISUALSTYLE
  5
F5
102
{ACAD_XDICTIONARY
360
D2E1
102
}
102
{ACAD_REACTORS
330
EF
102
}
330
EF
100
AcDbVisualStyle
  2
2dWireframe
 70
     4
 71
     0
 72
     2
 73
     1
 90
        0
 40
-0.6
 41
-30.0
 62
     5
 63
     7
 74
     1
 91
        4
 64
     7
 65
   257
 75
     1
175
     1
 42
1.0
 92
        0
 66
   257
 43
1.0
 76
     1
 77
     6
 78
     2
 67
     7
 79
     5
170
     0
171
     0
290
     0
174
     0
 93
        1
 44
0.0
173
     0
291
     0
 45
0.0
1001
ACAD
1000
AcDbSavedByObjectVersion
1070
     0
  0
VISUALSTYLE
  5
F4
102
{ACAD_XDICTIONARY
360
D2DF
102
}
102
{ACAD_REACTORS
330
EF
102
}
330
EF
100
AcDbVisualStyle
  2
Basic
 70
     7
 71
     1
 72
     0
 73
     1
 90
        0
 40
-0.6
 41
-30.0
 62
     5
 63
     7
 74
     0
 91
        4
 64
     7
 65
   257
 75
     1
175
     1
 42
1.0
 92
        8
 66
     7
 43
1.0
 76
     1
 77
     6
 78
     2
 67
     7
 79
     5
170
     0
171
     0
290
     0
174
     0
 93
        1
 44
0.0
173
     0
291
     1
 45
0.0
1001
ACAD
1000
AcDbSavedByObjectVersion
1070
     0
  0
VISUALSTYLE
  5
FB
102
{ACAD_XDICTIONARY
360
D2ED
102
}
102
{ACAD_REACTORS
330
EF
102
}
330
EF
100
AcDbVisualStyle
  2
Brighten
 70
    12
 71
     2
 72
     2
 73
     1
 90
        0
 40
-0.6
 41
-30.0
 62
     5
 63
     7
 74
     1
 91
        4
 64
     7
 65
   257
 75
     1
175
     1
 42
1.0
 92
        8
 66
     7
 43
1.0
 76
     1
 77
     6
 78
     2
 67
     7
 79
     5
170
     0
171
     0
290
     0
174
     0
 93
        1
 44
50.0
173
     0
291
     1
 45
0.0
1001
ACAD
1000
AcDbSavedByObjectVersion
1070
     0
  0
VISUALSTYLE
  5
FF
102
{ACAD_XDICTIONARY
360
D2F5
102
}
102
{ACAD_REACTORS
330
EF
102
}
330
EF
100
AcDbVisualStyle
  2
ColorChange
 70
    16
 71
     2
 72
     2
 73
     3
 90
        0
 40
-0.6
 41
-30.0
 62
     5
 63
     8
 74
     1
 91
        4
 64
     7
 65
   257
 75
     1
175
     1
 42
1.0
 92
        8
 66
     8
 43
1.0
 76
     1
 77
     6
 78
     2
 67
     7
 79
     5
170
     0
171
     0
290
     0
174
     0
 93
        1
 44
0.0
173
     0
291
     1
 45
0.0
1001
ACAD
1000
AcDbSavedByObjectVersion
1070
     0
  0
VISUALSTYLE
  5
F8
102
{ACAD_XDICTIONARY
360
D2E7
102
}
102
{ACAD_REACTORS
330
EF
102
}
330
EF
100
AcDbVisualStyle
  2
Conceptual
 70
     9
 71
     3
 72
     2
 73
     1
 90
        0
 40
-0.6
 41
-30.0
 62
     5
 63
     7
 74
     2
 91
        2
 64
     7
 65
   257
 75
     1
175
     1
 42
40.0
 92
        8
 66
     7
 43
1.0
 76
     1
 77
     6
 78
     2
 67
     7
 79
     3
170
     0
171
     0
290
     0
174
     0
 93
        1
 44
0.0
173
     0
291
     0
 45
0.0
1001
ACAD
1000
AcDbSavedByObjectVersion
1070
     0
  0
VISUALSTYLE
  5
FA
102
{ACAD_XDICTIONARY
360
D2EB
102
}
102
{ACAD_REACTORS
330
EF
102
}
330
EF
100
AcDbVisualStyle
  2
Dim
 70
    11
 71
     2
 72
     2
 73
     1
 90
        0
 40
-0.6
 41
-30.0
 62
     5
 63
     7
 74
     1
 91
        4
 64
     7
 65
   257
 75
     1
175
     1
 42
1.0
 92
        8
 66
     7
 43
1.0
 76
     1
 77
     6
 78
     2
 67
     7
 79
     5
170
     0
171
     0
290
     0
174
     0
 93
        1
 44
-50.0
173
     0
291
     1
 45
0.0
1001
ACAD
1000
AcDbSavedByObjectVersion
1070
     0
  0
VISUALSTYLE
  5
1E6
102
{ACAD_XDICTIONARY
360
D2FD
102
}
102
{ACAD_REACTORS
330
EF
102
}
330
EF
100
AcDbVisualStyle
  2
EdgeColorOff
 70
    22
 71
     2
 72
     2
 73
     0
 90
        0
 40
-0.6
 41
-30.0
 62
     5
 63
     7
 74
     1
 91
        4
 64
     7
 65
   257
 75
     1
175
     1
 42
1.0
 92
        8
 66
     7
 43
1.0
 76
     1
 77
     6
 78
     2
 67
     7
 79
     5
170
     0
171
     0
290
     0
174
     0
 93
        1
 44
0.0
173
     0
291
     1
 45
0.0
1001
ACAD
1000
AcDbSavedByObjectVersion
1070
     0
  0
VISUALSTYLE
  5
FE
102
{ACAD_XDICTIONARY
360
D2F3
102
}
102
{ACAD_REACTORS
330
EF
102
}
330
EF
100
AcDbVisualStyle
  2
Facepattern
 70
    15
 71
     2
 72
     2
 73
     1
 90
        0
 40
-0.6
 41
-30.0
 62
     5
 63
     7
 74
     1
 91
        4
 64
     7
 65
   257
 75
     1
175
     1
 42
1.0
 92
        8
 66
     7
 43
1.0
 76
     1
 77
     6
 78
     2
 67
     7
 79
     5
170
     0
171
     0
290
     0
174
     0
 93
        1
 44
0.0
173
     0
291
     1
 45
0.0
1001
ACAD
1000
AcDbSavedByObjectVersion
1070
     0
  0
VISUALSTYLE
  5
F0
102
{ACAD_XDICTIONARY
360
D2D7
102
}
102
{ACAD_REACTORS
330
EF
102
}
330
EF
100
AcDbVisualStyle
  2
Flat
 70
     0
 71
     2
 72
     1
 73
     1
 90
        2
 40
-0.6
 41
30.0
 62
     5
 63
     7
 74
     0
 91
        0
 64
     7
 65
   257
 75
     1
175
     1
 42
1.0
 92
        8
 66
     7
 43
1.0
 76
     1
 77
     6
 78
     2
 67
     7
 79
     5
170
     0
171
     0
290
     0
174
     0
 93
       13
 44
0.0
173
     0
291
     1
 45
0.0
1001
ACAD
1000
AcDbSavedByObjectVersion
1070
     0
  0
VISUALSTYLE
  5
F1
102
{ACAD_XDICTIONARY
360
D2D9
102
}
102
{ACAD_REACTORS
330
EF
102
}
330
EF
100
AcDbVisualStyle
  2
FlatWithEdges
 70
     1
 71
     2
 72
     1
 73
     1
 90
        2
 40
-0.6
 41
30.0
 62
     5
 63
     7
 74
     1
 91
        0
 64
     7
 65
   257
 75
     1
175
     1
 42
1.0
 92
        0
 66
   257
 43
1.0
 76
     1
 77
     6
 78
     2
 67
     7
 79
     5
170
     0
171
     0
290
     0
174
     0
 93
       13
 44
0.0
173
     0
291
     1
 45
0.0
1001
ACAD
1000
AcDbSavedByObjectVersion
1070
     0
  0
VISUALSTYLE
  5
F2
102
{ACAD_XDICTIONARY
360
D2DB
102
}
102
{ACAD_REACTORS
330
EF
102
}
330
EF
100
AcDbVisualStyle
  2
Gouraud
 70
     2
 71
     2
 72
     2
 73
     1
 90
        2
 40
-0.6
 41
30.0
 62
     5
 63
     7
 74
     0
 91
        0
 64
     7
 65
   257
 75
     1
175
     1
 42
1.0
 92
        0
 66
     7
 43
1.0
 76
     1
 77
     6
 78
     2
 67
     7
 79
     5
170
     0
171
     0
290
     0
174
     0
 93
       13
 44
0.0
173
     0
291
     1
 45
0.0
1001
ACAD
1000
AcDbSavedByObjectVersion
1070
     0
  0
VISUALSTYLE
  5
F3
102
{ACAD_XDICTIONARY
360
D2DD
102
}
102
{ACAD_REACTORS
330
EF
102
}
330
EF
100
AcDbVisualStyle
  2
GouraudWithEdges
 70
     3
 71
     2
 72
     2
 73
     1
 90
        2
 40
-0.6
 41
30.0
 62
     5
 63
     7
 74
     1
 91
        0
 64
     7
 65
   257
 75
     1
175
     1
 42
1.0
 92
        0
 66
   257
 43
1.0
 76
     1
 77
     6
 78
     2
 67
     7
 79
     5
170
     0
171
     0
290
     0
174
     0
 93
       13
 44
0.0
173
     0
291
     1
 45
0.0
1001
ACAD
1000
AcDbSavedByObjectVersion
1070
     0
  0
VISUALSTYLE
  5
F7
102
{ACAD_XDICTIONARY
360
D2E5
102
}
102
{ACAD_REACTORS
330
EF
102
}
330
EF
100
AcDbVisualStyle
  2
Hidden
 70
     6
 71
     1
 72
     2
 73
     2
 90
        0
 40
-0.6
 41
-30.0
 62
     5
 63
     7
 74
     2
 91
        2
 64
     7
 65
   257
 75
     2
175
     1
 42
40.0
 92
        0
 66
   257
 43
1.0
 76
     1
 77
     6
 78
     2
 67
     7
 79
     3
170
     0
171
     0
290
     0
174
     0
 93
        1
 44
0.0
173
     0
291
     0
 45
0.0
1001
ACAD
1000
AcDbSavedByObjectVersion
1070
     0
  0
VISUALSTYLE
  5
1E4
102
{ACAD_XDICTIONARY
360
D2F9
102
}
102
{ACAD_REACTORS
330
EF
102
}
330
EF
100
AcDbVisualStyle
  2
JitterOff
 70
    20
 71
     2
 72
     2
 73
     0
 90
        0
 40
-0.6
 41
-30.0
 62
     5
 63
     7
 74
     1
 91
        4
 64
     7
 65
   257
 75
     1
175
     1
 42
1.0
 92
       10
 66
     7
 43
1.0
 76
     1
 77
     6
 78
     2
 67
     7
 79
     5
170
     0
171
     0
290
     0
174
     0
 93
        1
 44
0.0
173
     0
291
     1
 45
0.0
1001
ACAD
1000
AcDbSavedByObjectVersion
1070
     0
  0
VISUALSTYLE
  5
FD
102
{ACAD_XDICTIONARY
360
D2F1
102
}
102
{ACAD_REACTORS
330
EF
102
}
330
EF
100
AcDbVisualStyle
  2
Linepattern
 70
    14
 71
     2
 72
     2
 73
     1
 90
        0
 40
-0.6
 41
-30.0
 62
     5
 63
     7
 74
     1
 91
        4
 64
     7
 65
   257
 75
     7
175
     7
 42
1.0
 92
        8
 66
     7
 43
1.0
 76
     1
 77
     6
 78
     2
 67
     7
 79
     5
170
     0
171
     0
290
     0
174
     0
 93
        1
 44
0.0
173
     0
291
     1
 45
0.0
1001
ACAD
1000
AcDbSavedByObjectVersion
1070
     0
  0
VISUALSTYLE
  5
1E5
102
{ACAD_XDICTIONARY
360
D2FB
102
}
102
{ACAD_REACTORS
330
EF
102
}
330
EF
100
AcDbVisualStyle
  2
OverhangOff
 70
    21
 71
     2
 72
     2
 73
     0
 90
        0
 40
-0.6
 41
-30.0
 62
     5
 63
     7
 74
     1
 91
        4
 64
     7
 65
   257
 75
     1
175
     1
 42
1.0
 92
        9
 66
     7
 43
1.0
 76
     1
 77
     6
 78
     2
 67
     7
 79
     5
170
     0
171
     0
290
     0
174
     0
 93
        1
 44
0.0
173
     0
291
     1
 45
0.0
1001
ACAD
1000
AcDbSavedByObjectVersion
1070
     0
  0
VISUALSTYLE
  5
F9
102
{ACAD_XDICTIONARY
360
D2E9
102
}
102
{ACAD_REACTORS
330
EF
102
}
330
EF
100
AcDbVisualStyle
  2
Realistic
 70
     8
 71
     2
 72
     2
 73
     0
 90
        2
 40
-0.6
 41
30.0
 62
     5
 63
     7
 74
     0
 91
        0
 64
     7
 65
   257
 75
     1
175
     1
 42
1.0
 92
        8
 66
   257
 43
1.0
 76
     1
 77
     6
 78
     2
 67
     7
 79
     3
170
     0
171
     0
290
     0
174
     0
 93
       13
 44
0.0
173
     0
291
     0
 45
0.0
1001
ACAD
1000
AcDbSavedByObjectVersion
1070
     0
  0
VISUALSTYLE
  5
1F3
102
{ACAD_XDICTIONARY
360
D307
102
}
102
{ACAD_REACTORS
330
EF
102
}
330
EF
100
AcDbVisualStyle
  2
Shaded
 70
    27
 71
     2
 72
     2
 73
     1
 90
        2
 40
-0.6
 41
30.0
 62
     5
 63
     7
 74
     0
 91
        4
 64
     7
 65
   257
 75
     1
175
     1
 42
1.0
 92
        8
 66
   257
 43
1.0
 76
     1
 77
     6
 78
     2
 67
     8
 79
     3
170
     0
171
     0
290
     0
174
     0
 93
        5
 44
0.0
173
     0
291
     0
 45
0.0
1001
ACAD
1000
AcDbSavedByObjectVersion
1070
     0
  0
VISUALSTYLE
  5
1F2
102
{ACAD_XDICTIONARY
360
D305
102
}
102
{ACAD_REACTORS
330
EF
102
}
330
EF
100
AcDbVisualStyle
  2
Shaded with edges
 70
    26
 71
     2
 72
     2
 73
     1
 90
        2
 40
-0.6
 41
30.0
 62
     5
 63
     7
 74
     1
 91
        2
 64
     7
 65
   257
 75
     2
175
     1
 42
1.0
 92
        8
 66
   257
 43
1.0
 76
     1
 77
     6
 78
     2
 67
     7
 79
     3
170
     0
171
     0
290
     0
174
     0
 93
        5
 44
0.0
173
     0
291
     0
 45
0.0
1001
ACAD
1000
AcDbSavedByObjectVersion
1070
     0
  0
VISUALSTYLE
  5
1EF
102
{ACAD_XDICTIONARY
360
D2FF
102
}
102
{ACAD_REACTORS
330
EF
102
}
330
EF
100
AcDbVisualStyle
  2
Shades of Gray
 70
    23
 71
     2
 72
     2
 73
     3
 90
        0
 40
-0.6
 41
-30.0
 62
     5
 63
     7
 74
     2
 91
        2
 64
     7
 65
     7
 75
     1
175
     1
 42
40.0
 92
        8
 66
     7
 43
1.0
 76
     1
 77
     6
 78
     2
 67
     7
 79
     3
170
     0
171
     0
290
     0
174
     0
 93
        1
 44
0.0
173
     0
291
     0
 45
0.0
1001
ACAD
1000
AcDbSavedByObjectVersion
1070
     0
  0
VISUALSTYLE
  5
1F0
102
{ACAD_XDICTIONARY
360
D301
102
}
102
{ACAD_REACTORS
330
EF
102
}
330
EF
100
AcDbVisualStyle
  2
Sketchy
 70
    24
 71
     1
 72
     2
 73
     2
 90
        0
 40
-0.6
 41
-30.0
 62
     5
 63
     7
 74
     2
 91
        2
 64
     7
 65
     7
 75
     1
175
     1
 42
40.0
 92
       11
 66
     7
 43
1.0
 76
     1
 77
     6
 78
     2
 67
     7
 79
     6
170
     0
171
     0
290
     0
174
     0
 93
        1
 44
0.0
173
     0
291
     0
 45
0.0
1001
ACAD
1000
AcDbSavedByObjectVersion
1070
     0
  0
VISUALSTYLE
  5
FC
102
{ACAD_XDICTIONARY
360
D2EF
102
}
102
{ACAD_REACTORS
330
EF
102
}
330
EF
100
AcDbVisualStyle
  2
Thicken
 70
    13
 71
     2
 72
     2
 73
     1
 90
        0
 40
-0.6
 41
-30.0
 62
     5
 63
     7
 74
     1
 91
        4
 64
     7
 65
   257
 75
     1
175
     1
 42
1.0
 92
       12
 66
     7
 43
1.0
 76
     1
 77
     6
 78
     2
 67
     7
 79
     5
170
     0
171
     0
290
     0
174
     0
 93
        1
 44
0.0
173
     0
291
     1
 45
0.0
1001
ACAD
1000
AcDbSavedByObjectVersion
1070
     0
  0
VISUALSTYLE
  5
F6
102
{ACAD_XDICTIONARY
360
D2E3
102
}
102
{ACAD_REACTORS
330
EF
102
}
330
EF
100
AcDbVisualStyle
  2
Wireframe
 70
     5
 71
     0
 72
     2
 73
     0
 90
        0
 40
-0.6
 41
-30.0
 62
     5
 63
     7
 74
     1
 91
        4
 64
     7
 65
   257
 75
     1
175
     1
 42
1.0
 92
        0
 66
   257
 43
1.0
 76
     1
 77
     6
 78
     2
 67
     7
 79
     3
170
     0
171
     0
290
     0
174
     0
 93
        1
 44
0.0
173
     0
291
     0
 45
0.0
1001
ACAD
1000
AcDbSavedByObjectVersion
1070
     0
  0
VISUALSTYLE
  5
1F1
102
{ACAD_XDICTIONARY
360
D303
102
}
102
{ACAD_REACTORS
330
EF
102
}
330
EF
100
AcDbVisualStyle
  2
X-Ray
 70
    25
 71
     2
 72
     2
 73
     1
 90
        1
 40
0.5
 41
-30.0
 62
     5
 63
     7
 74
     1
 91
        0
 64
     7
 65
   257
 75
     1
175
     1
 42
1.0
 92
        8
 66
     7
 43
1.0
 76
     1
 77
     6
 78
     2
 67
     7
 79
     3
170
     0
171
     0
290
     0
174
     0
 93
       13
 44
0.0
173
     0
291
     0
 45
0.0
1001
ACAD
1000
AcDbSavedByObjectVersion
1070
     0
  0
DICTIONARYVAR
  5
146
102
{ACAD_REACTORS
330
5E
102
}
330
5E
100
DictionaryVariables
280
     0
  1
1:1
  0
DICTIONARYVAR
  5
259
102
{ACAD_REACTORS
330
5E
102
}
330
5E
100
DictionaryVariables
280
     0
  1
3.500000
  0
DICTIONARYVAR
  5
25A
102
{ACAD_REACTORS
330
5E
102
}
330
5E
100
DictionaryVariables
280
     0
  1
acadiso.lin
  0
DICTIONARYVAR
  5
145
102
{ACAD_REACTORS
330
5E
102
}
330
5E
100
DictionaryVariables
280
     0
  1
STANDARD
  0
DICTIONARYVAR
  5
84
102
{ACAD_REACTORS
330
5E
102
}
330
5E
100
DictionaryVariables
280
     0
  1
STANDARD
  0
DICTIONARYVAR
  5
227
102
{ACAD_REACTORS
330
5E
102
}
330
5E
100
DictionaryVariables
280
     0
  1
Metric50
  0
DICTIONARYVAR
  5
228
102
{ACAD_REACTORS
330
5E
102
}
330
5E
100
DictionaryVariables
280
     0
  1
Metric50
  0
DICTIONARYVAR
  5
5F
102
{ACAD_REACTORS
330
5E
102
}
330
5E
100
DictionaryVariables
280
     0
  1
2
  0
DICTIONARYVAR
  5
63
102
{ACAD_REACTORS
330
5E
102
}
330
5E
100
DictionaryVariables
280
     0
  1
1
  0
DICTIONARYVAR
  5
D278
102
{ACAD_REACTORS
330
5E
102
}
330
5E
100
DictionaryVariables
280
     0
  1
0
  0
DICTIONARYVAR
  5
1AE
102
{ACAD_REACTORS
330
5E
102
}
330
5E
100
DictionaryVariables
280
     0
  1
0
  0
DICTIONARYVAR
  5
1AF
102
{ACAD_REACTORS
330
5E
102
}
330
5E
100
DictionaryVariables
280
     0
  1
0
  0
DICTIONARYVAR
  5
D276
102
{ACAD_REACTORS
330
5E
102
}
330
5E
100
DictionaryVariables
280
     0
  1
2
  0
DICTIONARYVAR
  5
D275
102
{ACAD_REACTORS
330
5E
102
}
330
5E
100
DictionaryVariables
280
     0
  1
1
  0
DICTIONARYVAR
  5
D2C8
102
{ACAD_REACTORS
330
5E
102
}
330
5E
100
DictionaryVariables
280
     0
  1
80.000000
  0
DICTIONARYVAR
  5
D2C7
102
{ACAD_REACTORS
330
5E
102
}
330
5E
100
DictionaryVariables
280
     0
  1
5.000000
  0
DICTIONARYVAR
  5
D277
102
{ACAD_REACTORS
330
5E
102
}
330
5E
100
DictionaryVariables
280
     0
  1
127
  0
DICTIONARYVAR
  5
D2C9
102
{ACAD_REACTORS
330
5E
102
}
330
5E
100
DictionaryVariables
280
     0
  1
2
  0
DICTIONARY
  5
D30B
330
21C
100
AcDbDictionary
280
     1
281
     1
  3
ACAD_XREC_ROUNDTRIP
360
D30C
  0
DICTIONARY
  5
D2D0
330
D3
100
AcDbDictionary
280
     1
281
     1
  3
ACAD_XREC_ROUNDTRIP
360
D2D1
  0
DICTIONARY
  5
D2D2
330
D7
100
AcDbDictionary
280
     1
281
     1
  3
ACAD_XREC_ROUNDTRIP
360
D2D3
  0
DICTIONARY
  5
D2CD
330
22
100
AcDbDictionary
280
     1
281
     1
  3
ACAD_XREC_ROUNDTRIP
360
D2CE
  0
DICTIONARY
  5
1F9
330
ED
100
AcDbDictionary
280
     1
281
     1
  3
ACAD_XREC_ROUNDTRIP
360
D2D5
  3
FBXASSET
360
1FA
  0
DICTIONARY
  5
1F7
330
EC
100
AcDbDictionary
280
     1
281
     1
  3
ACAD_XREC_ROUNDTRIP
360
D2D4
  3
FBXASSET
360
1F8
  0
DICTIONARY
  5
173
330
EE
100
AcDbDictionary
280
     1
281
     1
  3
ACAD_XREC_ROUNDTRIP
360
D2D6
  3
BUMPTILE
360
175
  3
DIFFUSETILE
360
174
  3
FBXASSET
360
1FB
  3
OPACITYTILE
360
176
  3
REFLECTIONTILE
360
177
  0
DICTIONARY
  5
D2F7
330
12E
100
AcDbDictionary
280
     1
281
     1
  3
ACAD_XREC_ROUNDTRIP
360
D2F8
  0
DICTIONARY
  5
D309
330
21A
100
AcDbDictionary
280
     1
281
     1
  3
ACAD_XREC_ROUNDTRIP
360
D30A
  0
DICTIONARY
  5
162
330
7F
100
AcDbDictionary
280
     1
281
     1
  3
ACAD_ROUNDTRIP_2008_TABLESTYLE_CELLSTYLEMAP
360
D2CA
  3
ACAD_XREC_ROUNDTRIP
360
D2CF
  0
DICTIONARY
  5
D2E1
330
F5
100
AcDbDictionary
280
     1
281
     1
  3
ACAD_XREC_ROUNDTRIP
360
D2E2
  0
DICTIONARY
  5
D2DF
330
F4
100
AcDbDictionary
280
     1
281
     1
  3
ACAD_XREC_ROUNDTRIP
360
D2E0
  0
DICTIONARY
  5
D2ED
330
FB
100
AcDbDictionary
280
     1
281
     1
  3
ACAD_XREC_ROUNDTRIP
360
D2EE
  0
DICTIONARY
  5
D2F5
330
FF
100
AcDbDictionary
280
     1
281
     1
  3
ACAD_XREC_ROUNDTRIP
360
D2F6
  0
DICTIONARY
  5
D2E7
330
F8
100
AcDbDictionary
280
     1
281
     1
  3
ACAD_XREC_ROUNDTRIP
360
D2E8
  0
DICTIONARY
  5
D2EB
330
FA
100
AcDbDictionary
280
     1
281
     1
  3
ACAD_XREC_ROUNDTRIP
360
D2EC
  0
DICTIONARY
  5
D2FD
330
1E6
100
AcDbDictionary
280
     1
281
     1
  3
ACAD_XREC_ROUNDTRIP
360
D2FE
  0
DICTIONARY
  5
D2F3
330
FE
100
AcDbDictionary
280
     1
281
     1
  3
ACAD_XREC_ROUNDTRIP
360
D2F4
  0
DICTIONARY
  5
D2D7
330
F0
100
AcDbDictionary
280
     1
281
     1
  3
ACAD_XREC_ROUNDTRIP
360
D2D8
  0
DICTIONARY
  5
D2D9
330
F1
100
AcDbDictionary
280
     1
281
     1
  3
ACAD_XREC_ROUNDTRIP
360
D2DA
  0
DICTIONARY
  5
D2DB
330
F2
100
AcDbDictionary
280
     1
281
     1
  3
ACAD_XREC_ROUNDTRIP
360
D2DC
  0
DICTIONARY
  5
D2DD
330
F3
100
AcDbDictionary
280
     1
281
     1
  3
ACAD_XREC_ROUNDTRIP
360
D2DE
  0
DICTIONARY
  5
D2E5
330
F7
100
AcDbDictionary
280
     1
281
     1
  3
ACAD_XREC_ROUNDTRIP
360
D2E6
  0
DICTIONARY
  5
D2F9
330
1E4
100
AcDbDictionary
280
     1
281
     1
  3
ACAD_XREC_ROUNDTRIP
360
D2FA
  0
DICTIONARY
  5
D2F1
330
FD
100
AcDbDictionary
280
     1
281
     1
  3
ACAD_XREC_ROUNDTRIP
360
D2F2
  0
DICTIONARY
  5
D2FB
330
1E5
100
AcDbDictionary
280
     1
281
     1
  3
ACAD_XREC_ROUNDTRIP
360
D2FC
  0
DICTIONARY
  5
D2E9
330
F9
100
AcDbDictionary
280
     1
281
     1
  3
ACAD_XREC_ROUNDTRIP
360
D2EA
  0
DICTIONARY
  5
D307
330
1F3
100
AcDbDictionary
280
     1
281
     1
  3
ACAD_XREC_ROUNDTRIP
360
D308
  0
DICTIONARY
  5
D305
330
1F2
100
AcDbDictionary
280
     1
281
     1
  3
ACAD_XREC_ROUNDTRIP
360
D306
  0
DICTIONARY
  5
D2FF
330
1EF
100
AcDbDictionary
280
     1
281
     1
  3
ACAD_XREC_ROUNDTRIP
360
D300
  0
DICTIONARY
  5
D301
330
1F0
100
AcDbDictionary
280
     1
281
     1
  3
ACAD_XREC_ROUNDTRIP
360
D302
  0
DICTIONARY
  5
D2EF
330
FC
100
AcDbDictionary
280
     1
281
     1
  3
ACAD_XREC_ROUNDTRIP
360
D2F0
  0
DICTIONARY
  5
D2E3
330
F6
100
AcDbDictionary
280
     1
281
     1
  3
ACAD_XREC_ROUNDTRIP
360
D2E4
  0
DICTIONARY
  5
D303
330
1F1
100
AcDbDictionary
280
     1
281
     1
  3
ACAD_XREC_ROUNDTRIP
360
D304
  0
XRECORD
  5
D30C
102
{ACAD_REACTORS
330
D30B
102
}
330
D30B
100
AcDbXrecord
280
     1
102
DISPLAYNAME
  1
Metric50
102
FLAGS
 90
        0
  0
XRECORD
  5
D2D1
102
{ACAD_REACTORS
330
D2D0
102
}
330
D2D0
100
AcDbXrecord
280
     1
102
SHADEPLOT
 70
     0
102
SHADEPLOTRESLEVEL
 70
     2
102
SHADEPLOTCUSTOMDPI
 70
   300
  0
XRECORD
  5
D2D3
102
{ACAD_REACTORS
330
D2D2
102
}
330
D2D2
100
AcDbXrecord
280
     1
102
SHADEPLOT
 70
     0
102
SHADEPLOTRESLEVEL
 70
     2
102
SHADEPLOTCUSTOMDPI
 70
   300
  0
XRECORD
  5
D2CE
102
{ACAD_REACTORS
330
D2CD
102
}
330
D2CD
100
AcDbXrecord
280
     1
102
SHADEPLOT
 70
     0
102
SHADEPLOTRESLEVEL
 70
     2
102
SHADEPLOTCUSTOMDPI
 70
   300
  0
XRECORD
  5
D2D5
102
{ACAD_REACTORS
330
1F9
102
}
330
1F9
100
AcDbXrecord
280
     1
102
MATERIAL
148
0.0
149
0.0
149
0.0
 93
        0
 94
       63
282
     0
 72
     1
 77
     1
171
     1
175
     1
179
     1
273
     0
  0
XRECORD
  5
1FA
102
{ACAD_REACTORS
330
1F9
102
}
330
1F9
100
AcDbXrecord
280
     1
 70
     1
 90
429727718
  1
D62C5603-E3A1-4AEA-B7FB-FE5D8D0755AF
310
504B03040A0000080000CC70623B3DEE336E79000000790000001B0000006175746F6465736B2D64657369676E2D7061636B6167652E786D6C3C3F786D6C2076657273696F6E3D22312E302220656E636F64696E673D227574662D3822203F3E3C666F726D6174733E3C666F726D61743E687474703A2F2F736368656D612E
310
6175746F6465736B2E636F6D2F64657369676E2D7061636B6167652F323030393C2F666F726D61743E3C2F666F726D6174733E504B0304140006080800CC70623BD486FD9CA0000000F4000000130000005B436F6E74656E745F54797065735D2E786D6C7D8EC10E82300C865F65E91D8A1E8C310C0EEA1BF002731658846E
310
D98AC1B77784ABF1D8FE5FBFBF75BBCE937A534CCEB38643598122B6FEE978D0B0485F9C41B54DDD7D022595594E1A469170414C76A4D9A4D207E29CF43ECE46F218070CC6BECC4078ACAA135ACF422C856C0E68EA1BF5669944DDD7BCDE7B1F8E415D77AECB980613C2E4AC91FC167A2B244592486606FC29C8FD7F045B9A
310
EF7053A7E60B504B0304140006080800CC70623B853B8169EB0000007C01000008000000636F72652E786D6C8D90416EC3201045AF62CDB6C206821CC7C244919D9CA01740401C94182C03558F5F9C3852BBEB6A467FFE9B197D7EFC9E1EC5975982F5AE035262288C535E5B377690E21535501C055FBC8FBF6C503839990E
310
5619041F179FE64D52DE45E362569DD7661365082642A11EB9E920A89B99642953CC8E702F67A9EE7234257977194EC9EAE275C4EABCCF5EAD5940D4AC6F0E35A568B8F43562CD7046CD199FD07E60174276A7BE677B5EADB0E0D14EEFFB6A31321A0D82627C4084204C3F096B71DD52F6819B16635EADF63F509AF53FA164
310
5DDCD1EDDD17164090FCC8732078B56691CB33A85CD7DCC40F504B0304140006080800CC70623B55019EA25F0000007C00000007000000636E782E786D6C4DCB3B0E80201045D1AD90E915ED2CF8AC45050C11660C8261F98AB1B07AC9C97D42D718D865D3E909258CFD00CCE24AC6E326A164D74DC0B4128928FF32603847
310
2BA13128B1252AC747C6BAB984FC68F0B87FE8960A5C09FE86CFB69FBA01504B0304140006080800CC70623BDBABAAF470010000D40300000C0000006662782F636F72652E786D6CC553D16E823014FD95A6AF4B694182CC941A83FA05FB810A9511A125A5257EFE2E82712ECEB8A7F100CD39F7F69E734AF9FADC366850B6
310
AF8DCE7018308C942E4C59EB2AC3DE1D498AD15A706B8CFB56869196ADCAF00863C12B6B7C374385D14E6907A836A59A41D9F7CA615434B0C8705F7CAA5606D23BA8E84F41278B93AC54100640439DE0BDB320004D43C63716C7C399D30917DCFBBA9CD9BA8469F5B156168B24CED3F7248AC8769F27244EB73B92EED8862C
310
B7F13E0C179B3C8F979C8ECD82BBBABDAA2BAC924E9558448CBD9330242CFA08E3154B5651FCC6D215639C8EE5774DBE2B5F6CF2B5768B68963BB5F5588420E442FC700B1139D4CB01F450C1E918227C2E09DF070D8140C84E1E9AAB8F1340832A9CB13130A5F1376A908D57309505ECF2A0DF179C4E9D30F5B239B87E3823
310
7A79C6F31DE1A8A5AEC08474B03C7837EAE4938639B44E5932B833D2C6B6B279CDC613877FA26EE21F4A2A4C63EC7F29A2F301D1F9F7A0E37D145F504B0304140006080800CC70623B9C113CC27E0000009D0000000B0000006662782F636E782E786D6C4DCCDF0A83201C86E15B91DFB94BFB330DD428C8FB886521330DA7
310
6397BF1A1DECE883878F57749FCDA1B7892F1BBC047A23808C7F84D9FA55424E0BE6803A256208E9EF06C84F9B91703228B1C690F78B66B34CD9A5439DF5CF0BFBF65E35BCA1B8D6A5C6F540381E886698B5741C695F9503EBA150A2F8958E3DC3EA0B504B0304140006080800CC70623B7DF2F77C2A010000120200003100
310
00006662782F41393633353835312D344632462D344230382D423046372D3739314545314133324237412F636F72652E786D6C8D51DB8EC22014FC15C2939B0D2DB4B45643319AE817EC0F6041255A68B86CFCFC856D4D76DF7CE190393373060EDB3DC707F856CE6B6B7A480A0C81328395DA5C7B18C3057510EC3873D686
310
3F34088C18550F330C39BB3A1BA7051AAC09CA84841A2BD5020AEF55806078A44B0FFD7053A328440C89E1EFC52486BBB8AA8214A99D789CF9E05200300FC927E4FB4D5B375D43103D5527440FB843077C5AA3F5861C8F645F5787F59E95B390B318B55CE45AA638FAA2957BD7248B390B7A7CC51F9C124149C82B8C378810
310
84AB2F42B7B8DD56F413775B8C5999E9FF4471926F8AA236A1AE96B8B3CC434E5839373893369E1FAF30EA395917409EB7F26AF8801C171837A4A6AC9C89E9F9C9B1A58BA30FD6A5EF5DDDCF894B9AD9B6A59C957943A9FCAE2FD5BC4DFE03504B0304140006080800CC70623BAD7543B64E01000033030000300000006662
310
782F41393633353835312D344632462D344230382D423046372D3739314545314133324237412F636E782E786D6CD593CD6EC32010845F0571AD6CE3D48AD20813A9873E410FBD12D82434182C7EAAE6EDBB2424CD25871E7B41D6EC30B3FA84F9E67BB2E40B4234DE8DB46F1925E094D7C6ED479AD3AE5951B2113C789FEE
310
6C943839C1488B4C05DF079FE72A69D8C96C13AAD6B8631503449F83828872B949AC57D26200B826A308D316B4064D6E46FCDA41C05550DC9E483A00797BFD207EFB092A45DE9514C1BBD22178396BD39D891265658C238DEA00936C654E5E433CB65A26D9F6EDB5EBC14EBF49A45CB856E66048291F6939A9A81BB5C89177
310
38143CA680F4AA299D66A042CEB3354A2684DC9D8D178FE0D9B8B41CAAD720F880EE7EF93C0C18769E099ECC04D5A102C8049A8A05632F4DDF376CF1DE0F6BB65C2F8627B65A33C6BB62177CEBBDAD973006829F89F22E814B54F4BC2BE347F8AA8F681390B50FA73F804400B5F542E796F19FF974E7F78DB802FE05E20750
310
4B0304140006080800CC70623BE75B7789680500003C100000340000006662782F41393633353835312D344632462D344230382D423046372D3739314545314133324237412F6F626A656374732E786D6CAD575B8F9B3818FD2B887D06C22499CB8AA1CA655245D5B455A356FB305264C061D8018C6C3393D95FBFC7600890
310
A4CD5EF210B0B1BFEBF98E3F7B1FF6596ABC522E1296DF9BAE3D320D9A872C4AF2F8DE2CE5CEBA358D0FBEC719939D65A691938CDE9B6ADAF4BD98B3B2D05311DD91329583D9D5FC0F438434A7A611A644887B5384CF34233629258BA878B12322891DEFF6B66BD70BFB62634E8AE781D082709A4B588AF91C528CDA28B73F
310
1C998EEF39EABBEFA97FBD6A7C7E9553F9D3D79FE442923C3C523610337627CB87ABE99D359D4CC6D6E4FACAB5E6ABF9D2726FC6A3C5F56271377BB88362213924694B38DD99FE47C48627A1E7D49F5A8BB5E1A74C0A599ED3B0F21F1E56366B89112D681E218F0915D0D6F17AD41FBA2A369DCF6335D62ABBD39779D5DDD1
310
11D4D8DE3CBB96B2E04FB8202E41051754A1AA8E8F76B4C6DFE810B580B1547F4B84911149794252234D024EF8BBE963A95AE27B3D310A9D5C215C7960FAEE415ED75694C6AFB17BCACA5D99A60A9AA65F217B0BFC53292ACB92BF283FAD0D3621576592CB5BED907C2FA8E9DF794E35E97BEA31BED21FEB401ABB94C44839
310
DCACBF0E1C5DA8DA5B2F4DFFD32AD86F543D9E565E7056502E157C00AD2671CD534549AB752FCA9CDA00677A313F04E51B22FF19E57B300579E3C97EB29F682D92935CEC18CF901B7B54FD8C51F362B56FC72FE0B3C1EAE335EDCCBF5AEC39ADB17DC238973F804BA5E6F6BFE7AF1FB32E523BE9F3BD571418E3631DCA4D48
310
5250CF639223210A9446CA30052EDF057BD35F8329C1ECD84552BF0DC8D18BE7BCE23BFE6BD960AB4A7DE79923A103BEBD80F911CBAA2C60DB19B01CF164A5583B772EE6D3FFA56666CBCDA74DC97724A48F9A58967497E489C4D979006FD7A05E227A1EBDD0F737C623387A9C844D3709995625106D157315F8B8392CD4E0
310
A0B9A720C4BE9829CEF37EA1E13111214D53925356365ADA634861B52519DD27A00AEB808EAF0628E6F435519D446F45CF2C9CF5214F0A15B2F6D06B79DA3EE3CBF7F56780D2F4E7EF73A0F5E5B02A38D07DC852C6B7C1FBB6664213E0C39E3EBA7FF4E1AD23EA2829407C85E586727488B751B2DB9502BC7B228A3FD68B6E
310
A65A22397E690AA8D158D7E404EC8CDA235CC3B7D1898680131CEC2CDF2638C65196279577750F15884AEE19F94199155B92B13297978469D4F8D358DF0AEF7631E28DC8F0D9F437D5D39A83B2231A1D52D543813A824EF8D44BCFF2FA6A31BD1E8DAD87F1CCB526B3879935BF59CDADD5C37479BB1CDD4CA7B3556B516589
310
EF352754B706114D9C885EC9131DE6EFEB43D99AFE2391C2F958179413D7CFEF6B1B6DB1E7600F00DE6E5C67454A339A4BA2E0FBA85ED26F045D454F463DBFCE484C2F90F2E5E3666003662ED8F755951A7D1BECD5B30B550B2785C8E7320B7292A4838DDA71BBC863ED7613CAF659337A3354231D4FF4A182A54904C2898C
310
98B28C4AD0CE056CCF332A80986E571EE9DBC305BB5FEB7E509220A58D25CF042D712A806AC0AD0C657FDEF80D2D9CEAA2EE4D1C76F60BFE74219A06527D6F82DF6412526107381E55E353090704D085B52408A8913C4ED159D79BDA71BB4BC506F4831350EB6F975CD22D69BF7AC49B91A2C0A9DDA3D5CA36AD20FC478E37
310
E61844E2352865EBCB61A275A65283CAAA9DD27703B4102F5AF51EF5F573B75CBB5AD38BC845F7A49F82A0966A49C2E3EA5EA0ECD326CD965F1DB402C6FA8B51A4658C5C5E2EC9E214602E55810345408596591009A82E7E7FFACA19EEA299B14A0081A705CB3296EBC14CDF658DCD336EA6D1136881AAEB87B81AB9EE53D5
310
F5EB8BC8362082DA24122F98680A4E7930C01A0079749CEA14382A0783E5EBA5A10F8C098456A03D6A4AEB6BB881E2513747552A5DB22C7EDAF83BD5528081A365F7FF06504B0304140006080000CC70623B000000000000000000000000350000006662782F41393633353835312D344632462D344230382D423046372D37
310
39314545314133324237412F76657274696365732E62696E504B0304140006080800CC70623BF270F1330600000004000000360000006662782F41393633353835312D344632462D344230382D423046372D3739314545314133324237412F747269616E676C65732E62696E636660600000504B0304140006080000CC7062
310
3B000000000000000000000000370000006662782F41393633353835312D344632462D344230382D423046372D3739314545314133324237412F617474726962757465732E62696E504B0304140006080800CC70623B08DA0BD19000000041010000360000006662782F41393633353835312D344632462D344230382D4230
310
46372D3739314545314133324237412F6469726563746F72792E786D6C858F410AC3201045AF22B36F53E9A60B35CBEEBAE80D244E44489C6234F4F835464A48035D0DF398FF9F8AF63D0E6CC63039F212F8F9020C7D47C6792B21C5FE7403D62A1188E2E60C98D7234A5830286103A55745067B9D86B8A3CF9C7F90C11DE6
310
07FB144396D7B6A82D282E9A152AD114D5EF2CB866EEE831B8EEA07A7BB5A8D7D61A2BAAEB7FD5F70921FF497D00504B0304140006080800CC70623BEDD1DC58FD000000A00100003B0000006662782F41393633353835312D344632462D344230382D423046372D3739314545314133324237412F7265736F75726365732F
310
636F72652E786D6C8D504B6E833010BD0A9A6D65B00922041947112427E8052C33A156828DFCA97AFC9A40A576D7CDCCE87D344F8F9FBFE667F689CE6B6B3A6039850C8DB2A336530731DC4903D95970676DF82583CCC8193B5861107C72362E3BA4AC096842428D1D7107A5F7182053CF7474E0D507CE32973124857FE48B
310
540F3961CEF244279DE03EB81420DB9EAC1384436FA353E879B1B182C7A8C75DA3C7F453DF353A1075D537A7BA6464B8F535A99AE14A9A2BBD90E350DD183B5CFABE3AF262350B1EF4FC9351399401471025A527C218A1E53BAB5A5AB765F5469B96525EACF23FA6B88CFF34456DC2A1DCE36E360F82A5202F42F062ED2BAD
310
579969AFDD8A6F504B010214000A0000080000CC70623B3DEE336E79000000790000001B00000000000000000000000000000000006175746F6465736B2D64657369676E2D7061636B6167652E786D6C504B01021400140006080800CC70623BD486FD9CA0000000F40000001300000000000000000000000000B20000005B
310
436F6E74656E745F54797065735D2E786D6C504B01021400140006080800CC70623B853B8169EB0000007C010000080000000000000000000000000083010000636F72652E786D6C504B01021400140006080800CC70623B55019EA25F0000007C000000070000000000000000000000000094020000636E782E786D6C504B
310
01021400140006080800CC70623BDBABAAF470010000D40300000C00000000000000000000000000180300006662782F636F72652E786D6C504B01021400140006080800CC70623B9C113CC27E0000009D0000000B00000000000000000000000000B20400006662782F636E782E786D6C504B01021400140006080800CC70
310
623B7DF2F77C2A010000120200003100000000000000000000000000590500006662782F41393633353835312D344632462D344230382D423046372D3739314545314133324237412F636F72652E786D6C504B01021400140006080800CC70623BAD7543B64E010000330300003000000000000000000000000000D2060000
310
6662782F41393633353835312D344632462D344230382D423046372D3739314545314133324237412F636E782E786D6C504B01021400140006080800CC70623BE75B7789680500003C10000034000000000000000000000000006E0800006662782F41393633353835312D344632462D344230382D423046372D3739314545
310
314133324237412F6F626A656374732E786D6C504B01021400140006080000CC70623B0000000000000000000000003500000000000000000000000000280E00006662782F41393633353835312D344632462D344230382D423046372D3739314545314133324237412F76657274696365732E62696E504B01021400140006
310
080800CC70623BF270F133060000000400000036000000000000000000000000007B0E00006662782F41393633353835312D344632462D344230382D423046372D3739314545314133324237412F747269616E676C65732E62696E504B01021400140006080000CC70623B0000000000000000000000003700000000000000
310
000000000000D50E00006662782F41393633353835312D344632462D344230382D423046372D3739314545314133324237412F617474726962757465732E62696E504B01021400140006080800CC70623B08DA0BD1900000004101000036000000000000000000000000002A0F00006662782F41393633353835312D344632
310
462D344230382D423046372D3739314545314133324237412F6469726563746F72792E786D6C504B01021400140006080800CC70623BEDD1DC58FD000000A00100003B000000000000000000000000000E1000006662782F41393633353835312D344632462D344230382D423046372D3739314545314133324237412F7265
310
736F75726365732F636F72652E786D6C504B0506000000000E000E0080040000641100000000
  0
XRECORD
  5
D2D4
102
{ACAD_REACTORS
330
1F7
102
}
330
1F7
100
AcDbXrecord
280
     1
102
MATERIAL
148
0.0
149
0.0
149
0.0
 93
        0
 94
       63
282
     0
 72
     1
 77
     1
171
     1
175
     1
179
     1
273
     0
  0
XRECORD
  5
1F8
102
{ACAD_REACTORS
330
1F7
102
}
330
1F7
100
AcDbXrecord
280
     1
 70
     1
 90
429727718
  1
30362254-06B7-45E0-A893-8CFA70E3D6BC
310
504B03040A0000080000CC70623B3DEE336E79000000790000001B0000006175746F6465736B2D64657369676E2D7061636B6167652E786D6C3C3F786D6C2076657273696F6E3D22312E302220656E636F64696E673D227574662D3822203F3E3C666F726D6174733E3C666F726D61743E687474703A2F2F736368656D612E
310
6175746F6465736B2E636F6D2F64657369676E2D7061636B6167652F323030393C2F666F726D61743E3C2F666F726D6174733E504B0304140006080800CC70623BD486FD9CA0000000F4000000130000005B436F6E74656E745F54797065735D2E786D6C7D8EC10E82300C865F65E91D8A1E8C310C0EEA1BF002731658846E
310
D98AC1B77784ABF1D8FE5FBFBF75BBCE937A534CCEB38643598122B6FEE978D0B0485F9C41B54DDD7D022595594E1A469170414C76A4D9A4D207E29CF43ECE46F218070CC6BECC4078ACAA135ACF422C856C0E68EA1BF5669944DDD7BCDE7B1F8E415D77AECB980613C2E4AC91FC167A2B244592486606FC29C8FD7F045B9A
310
EF7053A7E60B504B0304140006080800CC70623B1EC5D7A3EB0000007C01000008000000636F72652E786D6C8D90416EC3201045AF82665B6103C6756C6122AB4D4ED00B204C5C94182C03558F5F9C3852BBEB6A467FFE9B197D71FC9E6FE8CBACC17AD7032D0820E3B41FAD9B7A48F1820F808E52ACDEC75F36404ECDA687
310
4D0629A6D5A76597B477D1B89855E747B38B2A041301E95B6E7A08FAD3CCAA50296647B8168BD2573599823EBB0CA76447F43862C7BCCF5EAC59410E4DDD9C7973C2755553CCCFA4C603E3040F1565ED3B1FDE4E432BCA0D9622DAF9795FAF464533826484B498524CD807E51D79ED187F21878E10516EF63F505AC67F42C9
310
BA58B1FDDD071640D2FCC87D2045B96591CB3DA85CB7DCE40F504B0304140006080800CC70623B55019EA25F0000007C00000007000000636E782E786D6C4DCB3B0E80201045D1AD90E915ED2CF8AC45050C11660C8261F98AB1B07AC9C97D42D718D865D3E909258CFD00CCE24AC6E326A164D74DC0B4128928FF32603847
310
2BA13128B1252AC747C6BAB984FC68F0B87FE8960A5C09FE86CFB69FBA01504B0304140006080800CC70623B8C9102E971010000D40300000C0000006662782F636F72652E786D6CC5535B6E833010BC8AE5DF0A6C08340F1947A84D4ED00B38C6A128602363A31CBFCB234A53A551FA553EC09AD9F5CE8C31DB9E9B1AF5CA
310
7695D1198E428A91D2D214952E33ECDD315861B4E5CC1AE3BE9561A445A3323CC098B3D21ADFCE9034DA29ED00D5A6503328BA4E398C640D8B0C77F253352214DE4145770A5B214FA2546114020D759C75CE8200340D19DE981F0F6746269C33EFAB6266AB02A655C74A59CCF365BADC27CB5D902ED22848F6340DF238A141
310
BE88E2F57B92BFEDF23523433367AE6A2EEAA455C2A902F398D2751045018D3FA264435F3771F242571B4A1919CA6F9A7C5B3CD9E42BED16F12C776AEB308F40C848FC700B1139D4891EF410CEC810227CC6846F8386402064270EF5C5C709A05E49676C024C61FC95EA45ED154CA5211D1FF4FB8291A913A68E9B83EBBB33
310
E2A7673CDE118E5AE8124C0807CB8377834E366998436B950D7A7746DAD846D4CFD978E0F04FD455FC5D49D2D4C6FE9722321F10997F0F32DC47FE05504B0304140006080800CC70623BFFEA85907E0000009D0000000B0000006662782F636E782E786D6C4DCCD10A83201886E15B91FFDC95D95A811AB6F23E625948A6C3
310
E9D8E5AF46073BFAE0E1E365ED67B3E8ADC3CB78C7815C7240DA3DFC64DCC221C519D7805AC182F7F1EF06C88D9BE6703008B6049F9E274D7A1E938DBB5AE3D6131B2589BA0D3D965551E0B2EA732C9B9A624AAEB41E3A557677029960D9AFB4EF11165F504B0304140006080800CC70623B4FEEA4082C0100001202000031
310
0000006662782F39464131463745442D413632322D343644302D413938332D3331353338454246344243312F636F72652E786D6C8D515B6EC32010BC0AE2AB55850DD871ED0813254D72825EC00192A2C460F1A872FC42ED48ED5F7E00CDCECCCEB26C731F6FE05B39AFADE921293004CA082BB5B9F43086336A21D870E6AC
310
0D7F68109861543DCC30E4ECE26C9C164858139409093556AA051CBC570102714B8F1E7AF1A5C6A11862480C7F2DA6415C878B2A4891CA89C7990F2E050073937C42DE1DB7E4F87ED8A36D4329AA9B3D46DBAEAD504556557BD81DEBDD0761E52CE42C462D17B996298E3E6BE59E35C962CE821E1FF18553435012728A7187
310
0841987E927A8D9B35ADDF70BBC6989599FE4F1427F9A4286A132ABAC49D651EF234CD5CE04CDA78BA3DC2A8FB645D00B9DF8B57E215725C60BCA2A463E54C4CE327C7A65E1C7DB02E7DEFCBF594B864C5CA6CDBD49C957943E9FA5D5FBAF336F90F504B0304140006080800CC70623BAD7543B64E01000033030000300000
310
006662782F39464131463745442D413632322D343644302D413938332D3331353338454246344243312F636E782E786D6CD593CD6EC32010845F0571AD6CE3D48AD20813A9873E410FBD12D82434182C7EAAE6EDBB2424CD25871E7B41D6EC30B3FA84F9E67BB2E40B4234DE8DB46F1925E094D7C6ED479AD3AE5951B2113C
310
789FEE6C943839C1488B4C05DF079FE72A69D8C96C13AAD6B8631503449F83828872B949AC57D26200B826A308D316B4064D6E46FCDA41C05550DC9E483A00797BFD207EFB092A45DE9514C1BBD22178396BD39D891265658C238DEA00936C654E5E433CB65A26D9F6EDB5EBC14EBF49A45CB856E66048291F6939A9A81BB5
310
C8917738143CA680F4AA299D66A042CEB3354A2684DC9D8D178FE0D9B8B41CAAD720F880EE7EF93C0C18769E099ECC04D5A102C8049A8A05632F4DDF376CF1DE0F6BB65C2F8627B65A33C6BB62177CEBBDAD973006829F89F22E814B54F4BC2BE347F8AA8F681390B50FA73F804400B5F542E796F19FF974E7F78DB802FE05
310
E207504B0304140006080800CC70623B16AB87BA640500003C100000340000006662782F39464131463745442D413632322D343644302D413938332D3331353338454246344243312F6F626A656374732E786D6CAD575B6FA33818FD2B887DE6924B3BED8A326A92B68A663B534DD4D13E548A0C38942D60649B369D5FBFC7
310
600890A493BDE42160637FD7F31D7FF63E6FB3D478A55C242CBF3247B66B1A340F5994E4F19559CA8D75611A9F7D8F33263BCB4C232719BD32D5B4E97B316765A1A722BA21652A07B3B7B33F0D11D29C9A46981221AE4C113ED38CD8A4942CA2E2C58E882476BCD9DA23BB5ED8171B73523C0F841684D35CC252CCE79062D4
310
468DFA43D7747CCF51DF7D4FFDEB5593E3AB9CCA9FBEFE241792E4E19EB28198C968BAB8199F5D5A67D3E9C49A9E8F47D6EC76B6B0469F26EEFC7C3EBFBCBEB98462213924694B38DD98FE1D62C393D073EA4FADC5DAF04326852CCF6958F90F0F2B9BB5C48816348F90C7840A68EB78EDF68723159BCEE7891A6B95DDE9D3
310
BCEAEEE8086A6C6F9E5D4B59F0175C10A7A0820BAA5055C7473B5AE3CFDD452D602CD5DF12616444529E90D448938013FE6EFA58AA96F85E4F8C42275708571E98FE6827AF6B2B4AE3D7D83D64E5A64C53054DD3AF90BD06FEA9149565C94FCA0F6B834DC85599E4F2423B24DF0B6AFA979E534DFA9E7A4CC6FA631D486393
310
921829879BF5D781A373557BCB85E97FB90DB62B558F8795179C15944B051F40AB495CF35451D26A4727654E6D8033BD98EF82F21D91FF8AF2DD9982BCF1643BDD4EB516C9492E368C67C88DED563FC36D5EACF66DFF057C3658BDBFA69DF9578B3DA735B64F18C7F20770A9D45CFCF7FCF563D6456A277DBEF78A02637CA2
310
43B90A490AEAB94F72244481D24819A6C0E59B606BFA4B3025981DBB48EAB701D97BF19C577CC77F2D1B6C55A9EF3C732474C0B727303F625995056C3B02963D9EAC146BE78EC5FCEC7FA999EBC5EACBAAE41B12D27B4D2C0BBA49F244E2ECDC81B76B502F113D8F5EE8FB1BE3111CDD4FC2AA9B844CAB1288B68AB90A7CDC
310
1C166AB0D3DC5310625FCC14E779BFD0709F8890A629C9292B1B2DED31A4B0DA928CEE135085754027E3018A397D4D5427D15BD1330B677DC8934285AC3DF45A9EB68FF8F2B8FC0A509AFEECFD0FF2DE25CC6047F7214B195F07EFEB9A094D800F7BFAE8FED187B78EA8A3A400F115961BCAD1215E47C966530AF0EE8128FE
310
58CEBB996A8964FFA529A046635D9353B0336A8F700DDF46271A024E70B0B37C9DE01847591E54DED53D54202AB947E4076556AC49C6CA5C9E1226B7F1A7B1BE15DEED62C41B91E1B3E9AFAAA735036547343A925075041DF0A9979E893B391F8FCFA6967B3EFB644DCF6E5CEBFAE272625DCC6FAF3FB93793C5F90CE1EF57
310
407342756B10D1C489E8953CD1617E5CEECAD6F4EF8914CE5D5D504E5C3F1F9736DA62CFC11E00BCDDB8CC8A9466349744C1F75EBDA4DF09BA8A9E8C7A7E9991989E20E5DBDD6A6003664ED8F7A04A8DBE0DF6EAD9B9AA858342E47399053949D2C146EDB85DE4B176BB0965FBAC19BD19AA918E27FA50C1D22402E144464C
310
59462568E704B6E71915404CB72B8FF4EDE184DDAF753F284990D2C6926782963815403548A70C657FDEF80D2D9CEAA2AE4C1C76F60BFE74219A06527D6582DF6412526107381E55E353090704D085B52408D0933C4ED159D79BDA71BB4BC506F4831350EB6F979CD22D69BF7AC49B91A2C0A9DDA3D5CA36AD20FC478E37E6
310
1844E2352865EBCB6EA275A652E3836BE04EFB400BF1A2556F515F1FBB35B2AB35BD889C744FFA1004B5544B121E57F70215746DD2F5E2C1412B602CBF19455AC6C8E5E9922C4E01E65215385004546899059180EAFCF7A707CE7017CD8CDB0410789AB32C63B91E5CEBBBACB17AC6CD347A022D5075FD106377347AAABA7E
310
7D11590744509B44E205134DC1290F06580320F78E537D3D73540E06CB970B431F185308AD40BBD794D6D77003C5A36E8EAA54BA64597CD8F83BD552A080A365F7FF06504B0304140006080000CC70623B000000000000000000000000350000006662782F39464131463745442D413632322D343644302D413938332D3331
310
353338454246344243312F76657274696365732E62696E504B0304140006080800CC70623BF270F1330600000004000000360000006662782F39464131463745442D413632322D343644302D413938332D3331353338454246344243312F747269616E676C65732E62696E636660600000504B0304140006080000CC70623B
310
000000000000000000000000370000006662782F39464131463745442D413632322D343644302D413938332D3331353338454246344243312F617474726962757465732E62696E504B0304140006080800CC70623B08DA0BD19000000041010000360000006662782F39464131463745442D413632322D343644302D413938
310
332D3331353338454246344243312F6469726563746F72792E786D6C858F410AC3201045AF22B36F53E9A60B35CBEEBAE80D244E44489C6234F4F835464A48035D0DF398FF9F8AF63D0E6CC63039F212F8F9020C7D47C6792B21C5FE7403D62A1188E2E60C98D7234A5830286103A55745067B9D86B8A3CF9C7F90C11DE607
310
FB144396D7B6A82D282E9A152AD114D5EF2CB866EEE831B8EEA07A7BB5A8D7D61A2BAAEB7FD5F70921FF497D00504B0304140006080800CC70623B0D6EF93BFE000000A00100003B0000006662782F39464131463745442D413632322D343644302D413938332D3331353338454246344243312F7265736F75726365732F63
310
6F72652E786D6C8D50596E833010BD0A9ADFCA60B334011947A8694ED00B586642AC041B79A97AFC9A40A5F6AF3F33A3B7689E1E3F7DCD8FEC139DD7D6F4C0720A191A65476DA61E62B892236427C19DB5E1970C322367EC618541F0C9D9B8EC90B226A009093576C41D94DE63804C3DD2D18357379C652E63480A7FCF17A9
310
EE72C29CE5894E3AC17D702940B63D59270887DE46A7D0F36263058F518FBB468FE9A7BE6A7420864373B8D4873369AA8691FA421B3294352543C5CAF65C0F6FEF43CB8BD52C78D0F34F46E550061C419494B6843142CB0F5677F4B52BEB177AEC28E5C52AFF638ACBF84F53D42654E51E77B379102C05791282176B5F693D
310
CB4C7BED567C03504B010214000A0000080000CC70623B3DEE336E79000000790000001B00000000000000000000000000000000006175746F6465736B2D64657369676E2D7061636B6167652E786D6C504B01021400140006080800CC70623BD486FD9CA0000000F40000001300000000000000000000000000B20000005B
310
436F6E74656E745F54797065735D2E786D6C504B01021400140006080800CC70623B1EC5D7A3EB0000007C010000080000000000000000000000000083010000636F72652E786D6C504B01021400140006080800CC70623B55019EA25F0000007C000000070000000000000000000000000094020000636E782E786D6C504B
310
01021400140006080800CC70623B8C9102E971010000D40300000C00000000000000000000000000180300006662782F636F72652E786D6C504B01021400140006080800CC70623BFFEA85907E0000009D0000000B00000000000000000000000000B30400006662782F636E782E786D6C504B01021400140006080800CC70
310
623B4FEEA4082C0100001202000031000000000000000000000000005A0500006662782F39464131463745442D413632322D343644302D413938332D3331353338454246344243312F636F72652E786D6C504B01021400140006080800CC70623BAD7543B64E010000330300003000000000000000000000000000D5060000
310
6662782F39464131463745442D413632322D343644302D413938332D3331353338454246344243312F636E782E786D6C504B01021400140006080800CC70623B16AB87BA640500003C1000003400000000000000000000000000710800006662782F39464131463745442D413632322D343644302D413938332D3331353338
310
454246344243312F6F626A656374732E786D6C504B01021400140006080000CC70623B0000000000000000000000003500000000000000000000000000270E00006662782F39464131463745442D413632322D343644302D413938332D3331353338454246344243312F76657274696365732E62696E504B01021400140006
310
080800CC70623BF270F133060000000400000036000000000000000000000000007A0E00006662782F39464131463745442D413632322D343644302D413938332D3331353338454246344243312F747269616E676C65732E62696E504B01021400140006080000CC70623B0000000000000000000000003700000000000000
310
000000000000D40E00006662782F39464131463745442D413632322D343644302D413938332D3331353338454246344243312F617474726962757465732E62696E504B01021400140006080800CC70623B08DA0BD190000000410100003600000000000000000000000000290F00006662782F39464131463745442D413632
310
322D343644302D413938332D3331353338454246344243312F6469726563746F72792E786D6C504B01021400140006080800CC70623B0D6EF93BFE000000A00100003B000000000000000000000000000D1000006662782F39464131463745442D413632322D343644302D413938332D3331353338454246344243312F7265
310
736F75726365732F636F72652E786D6C504B0506000000000E000E0080040000641100000000
  0
XRECORD
  5
D2D6
102
{ACAD_REACTORS
330
173
102
}
330
173
100
AcDbXrecord
280
     1
102
MATERIAL
148
0.0
149
0.0
149
0.0
 93
        0
 94
       63
282
     0
 72
     1
 77
     1
171
     1
175
     1
179
     1
273
     0
  0
XRECORD
  5
175
102
{ACAD_REACTORS
330
173
102
}
330
173
100
AcDbXrecord
280
     1
270
     1
271
     1
  0
XRECORD
  5
174
102
{ACAD_REACTORS
330
173
102
}
330
173
100
AcDbXrecord
280
     1
270
     1
271
     1
  0
XRECORD
  5
1FB
102
{ACAD_REACTORS
330
173
102
}
330
173
100
AcDbXrecord
280
     1
 70
     0
 90
1673772943
  1
ECE7A1D2-D628-4531-984C-D00F80459256
310
504B03040A0000080000CC70623B3DEE336E79000000790000001B0000006175746F6465736B2D64657369676E2D7061636B6167652E786D6C3C3F786D6C2076657273696F6E3D22312E302220656E636F64696E673D227574662D3822203F3E3C666F726D6174733E3C666F726D61743E687474703A2F2F736368656D612E
310
6175746F6465736B2E636F6D2F64657369676E2D7061636B6167652F323030393C2F666F726D61743E3C2F666F726D6174733E504B0304140006080800CC70623BD486FD9CA0000000F4000000130000005B436F6E74656E745F54797065735D2E786D6C7D8EC10E82300C865F65E91D8A1E8C310C0EEA1BF002731658846E
310
D98AC1B77784ABF1D8FE5FBFBF75BBCE937A534CCEB38643598122B6FEE978D0B0485F9C41B54DDD7D022595594E1A469170414C76A4D9A4D207E29CF43ECE46F218070CC6BECC4078ACAA135ACF422C856C0E68EA1BF5669944DDD7BCDE7B1F8E415D77AECB980613C2E4AC91FC167A2B244592486606FC29C8FD7F045B9A
310
EF7053A7E60B504B0304140006080800CC70623BD9DDAED0EC0000007C01000008000000636F72652E786D6C8D90416EC3201045AF82665B61836D9CD8C2444DD39CA01740405C94182C03558F5F9C3852BBEB6A467FFE9B197D7EF89E6EE8CB2CC17A37002D0820E394D7D68D03A478C17B4007C117EFE32F1B20272733C0
310
2A83E0E3E2D3BC49CABB685CCCAAF3DA6CA20CC14440EA969B0182FA34932C648AD911AEC52CD5558EA6A0CF2EC329598D1E47ACCEFBECC59A050463A7EA5833865FEBDD0E37353BE3EE8DBDE3F6786A48D375FBF6CC78B9C282473B3DEFABC5C86834888A900E538A49F5419B9EB47DD5BC907D4F082F57FB1F28CDFA9F50
310
B22ED6D5F6EE030B20687EE43E10BC5CB3C8E51E54AE6B6EE207504B0304140006080800CC70623B55019EA25F0000007C00000007000000636E782E786D6C4DCB3B0E80201045D1AD90E915ED2CF8AC45050C11660C8261F98AB1B07AC9C97D42D718D865D3E909258CFD00CCE24AC6E326A164D74DC0B4128928FF326038
310
472BA13128B1252AC747C6BAB984FC68F0B87FE8960A5C09FE86CFB69FBA01504B0304140006080800CC70623BA24EB22D72010000D40300000C0000006662782F636F72652E786D6CC5535B6E833010BC8AE5DF0A6C5E49888CA3A6694ED00B38E05014B091B1518EDFE511A5A9D228FD2A1F60CDEC7A67C6986DCE4D8D7A
310
69BA4AAB0C073EC548AA5C17952A33ECECD15B61B4E1CC686DBF9561A44423333CC098B3D268D7CE50AE9595CA02AA74216750749DB418E5352C32DCE59FB211BE70162ABA93DF8AFC244AE9073ED050C759670D0840D390E18DF9F1706664C23973AE2A66B62A605A75ACA4C13C4976E1364A12EF355A2EBD384AF65EFA96
310
BC7B8BED2EA6719AAE16FB8491A199335B351775B991C2CA02F390D2D40B028F861F41BCA68B7518BFD0D59A524686F29B26D7164F36B94AD9289CE54E6D1DE6010819891F6E21228B3AD1831EC219194284CF98F06DD01008846CC5A1BEF83801D4CBDC6A1303536877A57A513B0953A94FC707FDBE6064EA84A9E3E6E0FA
310
EE8CF0E9198F7784A316AA0413C2C2F2E0ECA0934D1AE6D05A69BCDE9E91D2A611F573361E38FC1375157F5752AE6B6DFE4B11990F88CCBF0719EE23FF02504B0304140006080800CC70623B408A7D3B7C0000009D0000000B0000006662782F636E782E786D6C4DCCD10A83201886E15B91FFDC552A92A0064DBC8F581632
310
D3703A76F9ABD1C18E3E78F878E5F0D9027ABBFCF2292AE86E2D20171F69F6715550CB827B40839639A5F2770314A7CD293819B45C73AAFB45B35BA61ACAA1C1C7E7855C58C15BC331339661262CC762340413D68D77DA5B42298546CBE6573AF60CEB2F504B0304140006080800CC70623B449FB9BD290100001202000031
310
0000006662782F36394639363044362D344446342D343946362D394244322D3234314243333846323333332F636F72652E786D6C8D515B6EC32010BC0AE22B55850D98B871848994463E412FE002495162B07854397EA176A4F62F3F2C9A9D991D587EB84F37F0AD7D30CEF6905418026DA553C65E7A98E219ED203808EE9D
310
8B7F6810D871D23D2C3014FCE25D9A57483A1BB58D19B54EE9151C43D0110279CB971E06F9A5A7B11A53CC8C70ADE6515EC78BAE4895DB992778883E0700CB907242D17643D7E2538BD869608875438BBAE38922CAC8F1BDD90DB4691A5E2F42C153326A951B95E398B3D1FE599322163C9AE9115F7A3D46ADA0A018778810
310
84E907617BDCEE297BC5BB3DC6BC2EF47FA234AB2745C9D8D8D035EE220B50105E2F0DC1954B9FB747187D9F9D8FA0CCDB042D5FA0C015C65B42DF78BD10F3F3B363CB56C7109DCFDFBBB97E662ED92EB62D13BC2E1BCAE5777DB9966D8A1F504B0304140006080800CC70623BAD7543B64E01000033030000300000006662
310
782F36394639363044362D344446342D343946362D394244322D3234314243333846323333332F636E782E786D6CD593CD6EC32010845F0571AD6CE3D48AD20813A9873E410FBD12D82434182C7EAAE6EDBB2424CD25871E7B41D6EC30B3FA84F9E67BB2E40B4234DE8DB46F1925E094D7C6ED479AD3AE5951B2113C789FEE
310
6C943839C1488B4C05DF079FE72A69D8C96C13AAD6B8631503449F83828872B949AC57D26200B826A308D316B4064D6E46FCDA41C05550DC9E483A00797BFD207EFB092A45DE9514C1BBD22178396BD39D891265658C238DEA00936C654E5E433CB65A26D9F6EDB5EBC14EBF49A45CB856E66048291F6939A9A81BB5C89177
310
38143CA680F4AA299D66A042CEB3354A2684DC9D8D178FE0D9B8B41CAAD720F880EE7EF93C0C18769E099ECC04D5A102C8049A8A05632F4DDF376CF1DE0F6BB65C2F8627B65A33C6BB62177CEBBDAD973006829F89F22E814B54F4BC2BE347F8AA8F681390B50FA73F804400B5F542E796F19FF974E7F78DB802FE05E20750
310
4B0304140006080800CC70623B8D05915C650500003B100000340000006662782F36394639363044362D344446342D343946362D394244322D3234314243333846323333332F6F626A656374732E786D6CAD575B6FA33814FE2B887D06429276DA1565D4266D158D3A339A6846FB502932E050B66023DB74D2FDF5FB190C01
310
9276B2973C046C8ECFF53B17071F77456EBD502133CEAE6CDF9DD81665314F32965ED995DA3A17B6F5310C04E7AA47665B8C14F4CAD6DB7618A48257A5D94AE89654B91AEDDEDDFC61C998326A5B714EA4BCB265FC440BE2924AF184CA6737218AB8E976E7FA6E4338649B0A523E8D98964450A6A029F619B8588D52FE7039
310
B1BD30F0F4F730D0FF866AF6369557DB33949F31A9088B0F848DD8CCFCF9F2767A76E99CCDE733677E3EF59D9BBB9BA5E37F984D16E78BC5E5F5ED25044B25C0C96822E8D60EEFE11B91C581D77CEA34368A1F5329E68CD1B8B61F16D63A1B8E092D294B10C78C4A48EB593D192E7DED9BDEE7995E1B91FDEDD3ACEA9FE831
310
6A756F9F7D4D79F4274C90A7A04248AA51D5F8C718DAE06FB2F75AC4796EBE65D22A88A22223B995679120E2D50E41AA49C260C046A35368846B0BECD0DFF3EBEB8AD4F835768F69B9ADF25C43D30E6B646F807FAA64AD59F61715C7A54127C4AACA98BA3006A9D792DAE165E0D59B61A01FB3A9F9D838D2DAE62445C86166
310
F37564E842E7DE6A69879FEEA2DD5AE7E371E1A5E025154AC307D06A03D73EB5978C58FFA4C8E9033066E0F3BD53BEC1F39F91BE7B55103791EDE6BBB991A2046172CB4581D8B893FA674DDA17A77B3B7C413D1B511FD2743BFF8A38F03A658705E3ADF8015C3A3417FF3D7E439FF591DA0B5F18BC20C1B8981957AE6392A3
310
F43C640C01D1A0B4728E2DD4F26DB4B3C3152A252A3B4E913CEC1C72F012782FF88EFF8637AA552DBEF76408E8A8DE9E50F9E1CB3A2DA0DB1B6039A893B56063DC5B3E3FFB5F72E67AB9FEB4AEC496C4F4C1149625DD662C53E89D7BF0F6151A046260D1337DFDC94502430F83B0EE07A130A224BCAD7DAE1D9FB6CD422FF6
310
920702629C4BB9AE79C12F243C6432A6794E18E5552BA56B431AAB5D91317302B2B071E86C3A42B1A02F999E24061403B5D0EB639195DA655DD3EBEAB4FB862DDF579F014AD0E73C22F99E28DA57FB98E75C6CA2D74D53086D600F4786E0FE3144B771A8A7B900F03594DB8A633CBC49B2EDB69228BB479CF863B5E807AAAB
310
23872F6DFEB4129B949CA33823F58830E86D65621E10047D9DB34D862E8EAC3C2ABC2F7B2C40D67CDFE01F5545B92105AF983AC54D93D69E56FB8E797F88913F898A9FEC705D3F9D1B54EC8426FB500D40A03BD0119B06E1B95DDC7EB8F6975367793EBD70E66733DFB9BC982F9CE564727731999F5D4ECFCE3B8D6A4DC2A0
310
6D50FD148437D110834A64C6CDDF57FBACB5C307A2A477DFE4939736CFEF2B175371E0E10CF0DD1D5C15654E0BCA14D1E87DD02FF93782A162C0A3D95F1524A52770F972BF1EE9809D13CE7DD599467F8ECE9ADD85CE85A34CD45355448C64F9E8A031DC2D596ACC6E5DD93D9B82DE2EF5CAF81363A8E47996A0DE24564A79
310
4115AACE09C55E14540231FDA13C319787134EBF34E3A022514E5B4D9E0826E25C02D5805B15ABE1BEF51B26383D445DD9E875EE33FE4C22DA16427D65A3BCA92CA6D28DD01DF5DC53330704308475351050232CCD31583787BA75774AFB06E5070DD0C8EF484E19968C5D83BA5B90B244D31E54D55A372320FE4786B7EA58
310
44E135AA5467CB7EA333A61683CC6A8C3257034C10CF46F40EF9F5BE59BE5BD30C3C72D235E95D10345C1D45445A5F0BB47E46A5EBE5570F9380B5FA629579952296A773720405982B9DE04011506178964401AA8BDF1FBF0A8EAB6861DD6580C0E38217056766716DAEB2D6FA0917D3E4116581EADB879C4E7CFFB11EFACD
310
3D641311495D92C8676CB409A72D18610D803CE8A626049E8EC1887CB5B44CC39883690DDA8399B4B9855B481E7D71D4A9D22F96E5BB73BF5793020C02137BF837504B0304140006080000CC70623B000000000000000000000000350000006662782F36394639363044362D344446342D343946362D394244322D32343142
310
43333846323333332F76657274696365732E62696E504B0304140006080800CC70623BF270F1330600000004000000360000006662782F36394639363044362D344446342D343946362D394244322D3234314243333846323333332F747269616E676C65732E62696E636660600000504B0304140006080000CC70623B0000
310
00000000000000000000370000006662782F36394639363044362D344446342D343946362D394244322D3234314243333846323333332F617474726962757465732E62696E504B0304140006080800CC70623B08DA0BD19000000041010000360000006662782F36394639363044362D344446342D343946362D394244322D
310
3234314243333846323333332F6469726563746F72792E786D6C858F410AC3201045AF22B36F53E9A60B35CBEEBAE80D244E44489C6234F4F835464A48035D0DF398FF9F8AF63D0E6CC63039F212F8F9020C7D47C6792B21C5FE7403D62A1188E2E60C98D7234A5830286103A55745067B9D86B8A3CF9C7F90C11DE607FB14
310
4396D7B6A82D282E9A152AD114D5EF2CB866EEE831B8EEA07A7BB5A8D7D61A2BAAEB7FD5F70921FF497D00504B0304140006080800CC70623BCA768048FE000000A00100003B0000006662782F36394639363044362D344446342D343946362D394244322D3234314243333846323333332F7265736F75726365732F636F72
310
652E786D6C8D50596E833010BD0A9ADFCA60D600328E9AA639412F609909B1126CE4A5EAF16B0295DABFFECC8CDEA2797AECF8353F924FB44E193D409E5248504B332A3D0D10FC95B4901C39B3C6F85F3248B49871801506CE266BC2B243D2688FDA47549B11775038871E12F988C7004EDE7016A9083E2ADC3D5D84BC8B09
310
D33C8D74D471E6BC8D0192EDC93A815B742658898E651BCB59086ADC356A8C3FD555A1055ED7E7E254D615792D0F075295F585746FF53B694EE78A565DD736979A65AB9933AFE69F8CD2A2F038022F28ED489E135A7CE4554F9BBEA85E68DB53CAB255FEC71496F19FA6A0B42F8B3DEE6673C0F318E4497096AD7DC5F52C33
310
EEB55BFE0D504B010214000A0000080000CC70623B3DEE336E79000000790000001B00000000000000000000000000000000006175746F6465736B2D64657369676E2D7061636B6167652E786D6C504B01021400140006080800CC70623BD486FD9CA0000000F40000001300000000000000000000000000B20000005B436F
310
6E74656E745F54797065735D2E786D6C504B01021400140006080800CC70623BD9DDAED0EC0000007C010000080000000000000000000000000083010000636F72652E786D6C504B01021400140006080800CC70623B55019EA25F0000007C000000070000000000000000000000000095020000636E782E786D6C504B0102
310
1400140006080800CC70623BA24EB22D72010000D40300000C00000000000000000000000000190300006662782F636F72652E786D6C504B01021400140006080800CC70623B408A7D3B7C0000009D0000000B00000000000000000000000000B50400006662782F636E782E786D6C504B01021400140006080800CC70623B
310
449FB9BD290100001202000031000000000000000000000000005A0500006662782F36394639363044362D344446342D343946362D394244322D3234314243333846323333332F636F72652E786D6C504B01021400140006080800CC70623BAD7543B64E010000330300003000000000000000000000000000D20600006662
310
782F36394639363044362D344446342D343946362D394244322D3234314243333846323333332F636E782E786D6C504B01021400140006080800CC70623B8D05915C650500003B10000034000000000000000000000000006E0800006662782F36394639363044362D344446342D343946362D394244322D32343142433338
310
46323333332F6F626A656374732E786D6C504B01021400140006080000CC70623B0000000000000000000000003500000000000000000000000000250E00006662782F36394639363044362D344446342D343946362D394244322D3234314243333846323333332F76657274696365732E62696E504B010214001400060808
310
00CC70623BF270F13306000000040000003600000000000000000000000000780E00006662782F36394639363044362D344446342D343946362D394244322D3234314243333846323333332F747269616E676C65732E62696E504B01021400140006080000CC70623B00000000000000000000000037000000000000000000
310
00000000D20E00006662782F36394639363044362D344446342D343946362D394244322D3234314243333846323333332F617474726962757465732E62696E504B01021400140006080800CC70623B08DA0BD190000000410100003600000000000000000000000000270F00006662782F36394639363044362D344446342D
310
343946362D394244322D3234314243333846323333332F6469726563746F72792E786D6C504B01021400140006080800CC70623BCA768048FE000000A00100003B000000000000000000000000000B1000006662782F36394639363044362D344446342D343946362D394244322D3234314243333846323333332F7265736F
310
75726365732F636F72652E786D6C504B0506000000000E000E0080040000621100000000
  0
XRECORD
  5
176
102
{ACAD_REACTORS
330
173
102
}
330
173
100
AcDbXrecord
280
     1
270
     1
271
     1
  0
XRECORD
  5
177
102
{ACAD_REACTORS
330
173
102
}
330
173
100
AcDbXrecord
280
     1
270
     1
271
     1
  0
XRECORD
  5
D2F8
102
{ACAD_REACTORS
330
D2F7
102
}
330
D2F7
100
AcDbXrecord
280
     1
102
ACAD_ROUNDTRIP_2012_MLEADER_STYLE
298
     1
  0
XRECORD
  5
D30A
102
{ACAD_REACTORS
330
D309
102
}
330
D309
100
AcDbXrecord
280
     1
102
DISPLAYNAME
  1
Metric50
102
FLAGS
 90
        0
  0
CELLSTYLEMAP
  5
D2CA
102
{ACAD_REACTORS
330
162
102
}
330
162
100
AcDbCellStyleMap
 90
        3
300
CELLSTYLE
  1
TABLEFORMAT_BEGIN
 90
        5
170
     1
 91
        0
 92
    32768
 62
   257
 93
        1
300
CONTENTFORMAT
  1
CONTENTFORMAT_BEGIN
 90
        0
 91
        0
 92
      512
 93
        0
300

 40
0.0
140
1.0
 94
        5
 62
     0
340
11
144
6.0
309
CONTENTFORMAT_END
171
     1
301
MARGIN
  1
CELLMARGIN_BEGIN
 40
1.5
 40
1.5
 40
1.5
 40
1.5
 40
4.5
 40
4.5
309
CELLMARGIN_END
 94
        6
 95
        1
302
GRIDFORMAT
  1
GRIDFORMAT_BEGIN
 90
        0
 91
        1
 62
     0
 92
       -2
340
14
 93
        0
 40
1.125
309
GRIDFORMAT_END
 95
        2
302
GRIDFORMAT
  1
GRIDFORMAT_BEGIN
 90
        0
 91
        1
 62
     0
 92
       -2
340
14
 93
        0
 40
1.125
309
GRIDFORMAT_END
 95
        4
302
GRIDFORMAT
  1
GRIDFORMAT_BEGIN
 90
        0
 91
        1
 62
     0
 92
       -2
340
14
 93
        0
 40
1.125
309
GRIDFORMAT_END
 95
        8
302
GRIDFORMAT
  1
GRIDFORMAT_BEGIN
 90
        0
 91
        1
 62
     0
 92
       -2
340
14
 93
        0
 40
1.125
309
GRIDFORMAT_END
 95
       16
302
GRIDFORMAT
  1
GRIDFORMAT_BEGIN
 90
        0
 91
        1
 62
     0
 92
       -2
340
14
 93
        0
 40
1.125
309
GRIDFORMAT_END
 95
       32
302
GRIDFORMAT
  1
GRIDFORMAT_BEGIN
 90
        0
 91
        1
 62
     0
 92
       -2
340
14
 93
        0
 40
1.125
309
GRIDFORMAT_END
309
TABLEFORMAT_END
  1
CELLSTYLE_BEGIN
 90
        1
 91
        1
300
_TITLE
309
CELLSTYLE_END
300
CELLSTYLE
  1
TABLEFORMAT_BEGIN
 90
        5
170
     1
 91
        0
 92
        0
 62
   257
 93
        1
300
CONTENTFORMAT
  1
CONTENTFORMAT_BEGIN
 90
        0
 91
        0
 92
      512
 93
        0
300

 40
0.0
140
1.0
 94
        5
 62
     0
340
11
144
4.5
309
CONTENTFORMAT_END
171
     1
301
MARGIN
  1
CELLMARGIN_BEGIN
 40
1.5
 40
1.5
 40
1.5
 40
1.5
 40
4.5
 40
4.5
309
CELLMARGIN_END
 94
        6
 95
        1
302
GRIDFORMAT
  1
GRIDFORMAT_BEGIN
 90
        0
 91
        1
 62
     0
 92
       -2
340
14
 93
        0
 40
1.125
309
GRIDFORMAT_END
 95
        2
302
GRIDFORMAT
  1
GRIDFORMAT_BEGIN
 90
        0
 91
        1
 62
     0
 92
       -2
340
14
 93
        0
 40
1.125
309
GRIDFORMAT_END
 95
        4
302
GRIDFORMAT
  1
GRIDFORMAT_BEGIN
 90
        0
 91
        1
 62
     0
 92
       -2
340
14
 93
        0
 40
1.125
309
GRIDFORMAT_END
 95
        8
302
GRIDFORMAT
  1
GRIDFORMAT_BEGIN
 90
        0
 91
        1
 62
     0
 92
       -2
340
14
 93
        0
 40
1.125
309
GRIDFORMAT_END
 95
       16
302
GRIDFORMAT
  1
GRIDFORMAT_BEGIN
 90
        0
 91
        1
 62
     0
 92
       -2
340
14
 93
        0
 40
1.125
309
GRIDFORMAT_END
 95
       32
302
GRIDFORMAT
  1
GRIDFORMAT_BEGIN
 90
        0
 91
        1
 62
     0
 92
       -2
340
14
 93
        0
 40
1.125
309
GRIDFORMAT_END
309
TABLEFORMAT_END
  1
CELLSTYLE_BEGIN
 90
        2
 91
        1
300
_HEADER
309
CELLSTYLE_END
300
CELLSTYLE
  1
TABLEFORMAT_BEGIN
 90
        5
170
     1
 91
        0
 92
        0
 62
   257
 93
        1
300
CONTENTFORMAT
  1
CONTENTFORMAT_BEGIN
 90
        0
 91
        0
 92
      512
 93
        0
300

 40
0.0
140
1.0
 94
        2
 62
     0
340
11
144
4.5
309
CONTENTFORMAT_END
171
     1
301
MARGIN
  1
CELLMARGIN_BEGIN
 40
1.5
 40
1.5
 40
1.5
 40
1.5
 40
4.5
 40
4.5
309
CELLMARGIN_END
 94
        6
 95
        1
302
GRIDFORMAT
  1
GRIDFORMAT_BEGIN
 90
        0
 91
        1
 62
     0
 92
       -2
340
14
 93
        0
 40
1.125
309
GRIDFORMAT_END
 95
        2
302
GRIDFORMAT
  1
GRIDFORMAT_BEGIN
 90
        0
 91
        1
 62
     0
 92
       -2
340
14
 93
        0
 40
1.125
309
GRIDFORMAT_END
 95
        4
302
GRIDFORMAT
  1
GRIDFORMAT_BEGIN
 90
        0
 91
        1
 62
     0
 92
       -2
340
14
 93
        0
 40
1.125
309
GRIDFORMAT_END
 95
        8
302
GRIDFORMAT
  1
GRIDFORMAT_BEGIN
 90
        0
 91
        1
 62
     0
 92
       -2
340
14
 93
        0
 40
1.125
309
GRIDFORMAT_END
 95
       16
302
GRIDFORMAT
  1
GRIDFORMAT_BEGIN
 90
        0
 91
        1
 62
     0
 92
       -2
340
14
 93
        0
 40
1.125
309
GRIDFORMAT_END
 95
       32
302
GRIDFORMAT
  1
GRIDFORMAT_BEGIN
 90
        0
 91
        1
 62
     0
 92
       -2
340
14
 93
        0
 40
1.125
309
GRIDFORMAT_END
309
TABLEFORMAT_END
  1
CELLSTYLE_BEGIN
 90
        3
 91
        2
300
_DATA
309
CELLSTYLE_END
  0
XRECORD
  5
D2CF
102
{ACAD_REACTORS
330
162
102
}
330
162
100
AcDbXrecord
280
     1
102
ACAD_ROUNDTRIP_PRE2007_TABLESTYLE
 90
      512
 91
        0
  1

 92
      512
 93
        0
  2

 94
      512
 95
        0
  3

  0
XRECORD
  5
D2E2
102
{ACAD_REACTORS
330
D2E1
102
}
330
D2E1
100
AcDbXrecord
280
     1
102
RTVSPost2010Prop28
280
     1
102
RTVSPost2010PropOp28
 70
     1
102
RTVSPost2010Prop29
280
     1
102
RTVSPost2010PropOp29
 70
     1
102
RTVSPost2010Prop30
280
     0
102
RTVSPost2010PropOp30
 70
     1
102
RTVSPost2010Prop31
280
     0
102
RTVSPost2010PropOp31
 70
     1
102
RTVSPost2010Prop32
280
     0
102
RTVSPost2010PropOp32
 70
     1
102
RTVSPost2010Prop33
280
     0
102
RTVSPost2010PropOp33
 70
     1
102
RTVSPost2010Prop34
280
     0
102
RTVSPost2010PropOp34
 70
     1
102
RTVSPost2010Prop35
280
     0
102
RTVSPost2010PropOp35
 70
     1
102
RTVSPost2010Prop36
280
     0
102
RTVSPost2010PropOp36
 70
     1
102
RTVSPost2010Prop37
 90
       50
102
RTVSPost2010PropOp37
 70
     1
102
RTVSPost2010Prop38
140
0.0
102
RTVSPost2010PropOp38
 70
     1
102
RTVSPost2010Prop39
140
1.0
102
RTVSPost2010PropOp39
 70
     1
102
RTVSPost2010Prop40
 90
        0
102
RTVSPost2010PropOp40
 70
     1
102
RTVSPost2010Prop41ColorIndex
 90
       18
102
RTVSPost2010Prop41ColorRGB
 90
        0
102
RTVSPost2010PropOp41
 70
     1
102
RTVSPost2010Prop42
 90
       50
102
RTVSPost2010PropOp42
 70
     1
102
RTVSPost2010Prop43
 90
        3
102
RTVSPost2010PropOp43
 70
     1
102
RTVSPost2010Prop44ColorIndex
 90
        5
102
RTVSPost2010Prop44ColorRGB
 90
      255
102
RTVSPost2010PropOp44
 70
     1
102
RTVSPost2010Prop45
280
     0
102
RTVSPost2010PropOp45
 70
     1
102
RTVSPost2010Prop46
 90
       50
102
RTVSPost2010PropOp46
 70
     1
102
RTVSPost2010Prop47
 90
       50
102
RTVSPost2010PropOp47
 70
     1
102
RTVSPost2010Prop48
 90
       50
102
RTVSPost2010PropOp48
 70
     1
102
RTVSPost2010Prop49
280
     0
102
RTVSPost2010PropOp49
 70
     1
102
RTVSPost2010Prop50
 90
       50
102
RTVSPost2010PropOp50
 70
     1
102
RTVSPost2010Prop51ColorIndex
 90
      256
102
RTVSPost2010Prop51ColorRGB
 90
-16777216
102
RTVSPost2010PropOp51
 70
     0
102
RTVSPost2010Prop52
140
1.0
102
RTVSPost2010PropOp52
 70
     0
102
RTVSPost2010Prop53
 90
        2
102
RTVSPost2010PropOp53
 70
     1
102
RTVSPost2010Prop54
  1
strokes_ogs.tif
102
RTVSPost2010PropOp54
 70
     1
102
RTVSPost2010Prop55
280
     0
102
RTVSPost2010PropOp55
 70
     1
102
RTVSPost2010Prop56
140
1.0
102
RTVSPost2010PropOp56
 70
     1
102
RTVSPost2010Prop57
140
1.0
102
RTVSPost2010PropOp57
 70
     1
102
RTVSPropertyOp0
 70
     1
102
RTVSPropertyOp1
 70
     1
102
RTVSPropertyOp2
 70
     1
102
RTVSPropertyOp3
 70
     1
102
RTVSPropertyOp4
 70
     1
102
RTVSPropertyOp5
 70
     1
102
RTVSPropertyOp6
 70
     1
102
RTVSPropertyOp7
 70
     1
102
RTVSPropertyOp8
 70
     1
102
RTVSPropertyOp9
 70
     1
102
RTVSPropertyOp10
 70
     1
102
RTVSPropertyOp11
 70
     1
102
RTVSPropertyOp12
 70
     1
102
RTVSPropertyOp13
 70
     1
102
RTVSPropertyOp14
 70
     1
102
RTVSPropertyOp15
 70
     1
102
RTVSPropertyOp16
 70
     1
102
RTVSPropertyOp17
 70
     1
102
RTVSPropertyOp18
 70
     1
102
RTVSPropertyOp19
 70
     1
102
RTVSPropertyOp20
 70
     1
102
RTVSPropertyOp21
 70
     1
102
RTVSPropertyOp22
 70
     1
102
RTVSPropertyOp23
 70
     1
102
RTVSPropertyOp24
 70
     1
102
RTVSPropertyOp25
 70
     1
102
RTVSPropertyOp26
 70
     1
102
RTVSPropertyOp27
 70
     1
102
RTVSPropertyOp28
 70
     1
102
RTVSPropertyOp29
 70
     1
102
RTVSPropertyOp30
 70
     1
102
RTVSPropertyOp31
 70
     1
102
RTVSPropertyOp32
 70
     1
102
RTVSPropertyOp33
 70
     1
102
RTVSPropertyOp34
 70
     1
102
RTVSPropertyOp35
 70
     1
102
RTVSPropertyOp36
 70
     1
102
RTVSPropertyOp37
 70
     1
102
RTVSPropertyOp38
 70
     1
102
RTVSPropertyOp39
 70
     1
102
RTVSPropertyOp40
 70
     1
102
RTVSPropertyOp41
 70
     1
102
RTVSPropertyOp42
 70
     1
102
RTVSPropertyOp43
 70
     1
102
RTVSPropertyOp44
 70
     1
102
RTVSPropertyOp45
 70
     1
102
RTVSPropertyOp46
 70
     1
102
RTVSPropertyOp47
 70
     1
102
RTVSPropertyOp48
 70
     1
102
RTVSPropertyOp49
 70
     1
102
RTVSPropertyOp50
 70
     1
102
RTVSPropertyOp51
 70
     0
102
RTVSPropertyOp52
 70
     0
102
RTVSPropertyOp53
 70
     1
102
RTVSPropertyOp54
 70
     1
102
RTVSPropertyOp55
 70
     1
102
RTVSPropertyOp56
 70
     1
102
RTVSPropertyOp57
 70
     1
102
RTVSPropertyOp58
 70
     1
102
RTVSPropertyOp59
 70
     1
102
RTVSPropertyOp60
 70
     1
102
RTVSPropertyOp61
 70
     1
102
RTVSPropertyOp62
 70
     1
  0
XRECORD
  5
D2E0
102
{ACAD_REACTORS
330
D2DF
102
}
330
D2DF
100
AcDbXrecord
280
     1
102
RTVSPost2010Prop28
280
     0
102
RTVSPost2010PropOp28
 70
     1
102
RTVSPost2010Prop29
280
     1
102
RTVSPost2010PropOp29
 70
     1
102
RTVSPost2010Prop30
280
     1
102
RTVSPost2010PropOp30
 70
     1
102
RTVSPost2010Prop31
280
     0
102
RTVSPost2010PropOp31
 70
     1
102
RTVSPost2010Prop32
280
     0
102
RTVSPost2010PropOp32
 70
     1
102
RTVSPost2010Prop33
280
     0
102
RTVSPost2010PropOp33
 70
     1
102
RTVSPost2010Prop34
280
     0
102
RTVSPost2010PropOp34
 70
     1
102
RTVSPost2010Prop35
280
     0
102
RTVSPost2010PropOp35
 70
     1
102
RTVSPost2010Prop36
280
     0
102
RTVSPost2010PropOp36
 70
     1
102
RTVSPost2010Prop37
 90
       50
102
RTVSPost2010PropOp37
 70
     1
102
RTVSPost2010Prop38
140
0.0
102
RTVSPost2010PropOp38
 70
     1
102
RTVSPost2010Prop39
140
1.0
102
RTVSPost2010PropOp39
 70
     1
102
RTVSPost2010Prop40
 90
        0
102
RTVSPost2010PropOp40
 70
     1
102
RTVSPost2010Prop41ColorIndex
 90
       18
102
RTVSPost2010Prop41ColorRGB
 90
        0
102
RTVSPost2010PropOp41
 70
     1
102
RTVSPost2010Prop42
 90
       50
102
RTVSPost2010PropOp42
 70
     1
102
RTVSPost2010Prop43
 90
        3
102
RTVSPost2010PropOp43
 70
     1
102
RTVSPost2010Prop44ColorIndex
 90
        5
102
RTVSPost2010Prop44ColorRGB
 90
      255
102
RTVSPost2010PropOp44
 70
     1
102
RTVSPost2010Prop45
280
     0
102
RTVSPost2010PropOp45
 70
     1
102
RTVSPost2010Prop46
 90
       50
102
RTVSPost2010PropOp46
 70
     1
102
RTVSPost2010Prop47
 90
       50
102
RTVSPost2010PropOp47
 70
     1
102
RTVSPost2010Prop48
 90
       50
102
RTVSPost2010PropOp48
 70
     1
102
RTVSPost2010Prop49
280
     0
102
RTVSPost2010PropOp49
 70
     1
102
RTVSPost2010Prop50
 90
       50
102
RTVSPost2010PropOp50
 70
     1
102
RTVSPost2010Prop51ColorIndex
 90
      256
102
RTVSPost2010Prop51ColorRGB
 90
-16777216
102
RTVSPost2010PropOp51
 70
     0
102
RTVSPost2010Prop52
140
1.0
102
RTVSPost2010PropOp52
 70
     0
102
RTVSPost2010Prop53
 90
        2
102
RTVSPost2010PropOp53
 70
     1
102
RTVSPost2010Prop54
  1
strokes_ogs.tif
102
RTVSPost2010PropOp54
 70
     1
102
RTVSPost2010Prop55
280
     0
102
RTVSPost2010PropOp55
 70
     1
102
RTVSPost2010Prop56
140
1.0
102
RTVSPost2010PropOp56
 70
     1
102
RTVSPost2010Prop57
140
1.0
102
RTVSPost2010PropOp57
 70
     1
102
RTVSPropertyOp0
 70
     1
102
RTVSPropertyOp1
 70
     1
102
RTVSPropertyOp2
 70
     1
102
RTVSPropertyOp3
 70
     1
102
RTVSPropertyOp4
 70
     1
102
RTVSPropertyOp5
 70
     1
102
RTVSPropertyOp6
 70
     1
102
RTVSPropertyOp7
 70
     1
102
RTVSPropertyOp8
 70
     1
102
RTVSPropertyOp9
 70
     1
102
RTVSPropertyOp10
 70
     1
102
RTVSPropertyOp11
 70
     1
102
RTVSPropertyOp12
 70
     1
102
RTVSPropertyOp13
 70
     1
102
RTVSPropertyOp14
 70
     1
102
RTVSPropertyOp15
 70
     1
102
RTVSPropertyOp16
 70
     1
102
RTVSPropertyOp17
 70
     1
102
RTVSPropertyOp18
 70
     1
102
RTVSPropertyOp19
 70
     1
102
RTVSPropertyOp20
 70
     1
102
RTVSPropertyOp21
 70
     1
102
RTVSPropertyOp22
 70
     1
102
RTVSPropertyOp23
 70
     1
102
RTVSPropertyOp24
 70
     1
102
RTVSPropertyOp25
 70
     1
102
RTVSPropertyOp26
 70
     1
102
RTVSPropertyOp27
 70
     1
102
RTVSPropertyOp28
 70
     1
102
RTVSPropertyOp29
 70
     1
102
RTVSPropertyOp30
 70
     1
102
RTVSPropertyOp31
 70
     1
102
RTVSPropertyOp32
 70
     1
102
RTVSPropertyOp33
 70
     1
102
RTVSPropertyOp34
 70
     1
102
RTVSPropertyOp35
 70
     1
102
RTVSPropertyOp36
 70
     1
102
RTVSPropertyOp37
 70
     1
102
RTVSPropertyOp38
 70
     1
102
RTVSPropertyOp39
 70
     1
102
RTVSPropertyOp40
 70
     1
102
RTVSPropertyOp41
 70
     1
102
RTVSPropertyOp42
 70
     1
102
RTVSPropertyOp43
 70
     1
102
RTVSPropertyOp44
 70
     1
102
RTVSPropertyOp45
 70
     1
102
RTVSPropertyOp46
 70
     1
102
RTVSPropertyOp47
 70
     1
102
RTVSPropertyOp48
 70
     1
102
RTVSPropertyOp49
 70
     1
102
RTVSPropertyOp50
 70
     1
102
RTVSPropertyOp51
 70
     0
102
RTVSPropertyOp52
 70
     0
102
RTVSPropertyOp53
 70
     1
102
RTVSPropertyOp54
 70
     1
102
RTVSPropertyOp55
 70
     1
102
RTVSPropertyOp56
 70
     1
102
RTVSPropertyOp57
 70
     1
102
RTVSPropertyOp58
 70
     1
102
RTVSPropertyOp59
 70
     1
102
RTVSPropertyOp60
 70
     1
102
RTVSPropertyOp61
 70
     1
102
RTVSPropertyOp62
 70
     1
  0
XRECORD
  5
D2EE
102
{ACAD_REACTORS
330
D2ED
102
}
330
D2ED
100
AcDbXrecord
280
     1
102
RTVSPost2010Prop28
280
     0
102
RTVSPost2010PropOp28
 70
     1
102
RTVSPost2010Prop29
280
     1
102
RTVSPost2010PropOp29
 70
     1
102
RTVSPost2010Prop30
280
     1
102
RTVSPost2010PropOp30
 70
     1
102
RTVSPost2010Prop31
280
     0
102
RTVSPost2010PropOp31
 70
     1
102
RTVSPost2010Prop32
280
     0
102
RTVSPost2010PropOp32
 70
     1
102
RTVSPost2010Prop33
280
     0
102
RTVSPost2010PropOp33
 70
     1
102
RTVSPost2010Prop34
280
     0
102
RTVSPost2010PropOp34
 70
     1
102
RTVSPost2010Prop35
280
     0
102
RTVSPost2010PropOp35
 70
     1
102
RTVSPost2010Prop36
280
     0
102
RTVSPost2010PropOp36
 70
     1
102
RTVSPost2010Prop37
 90
       50
102
RTVSPost2010PropOp37
 70
     1
102
RTVSPost2010Prop38
140
0.0
102
RTVSPost2010PropOp38
 70
     1
102
RTVSPost2010Prop39
140
1.0
102
RTVSPost2010PropOp39
 70
     1
102
RTVSPost2010Prop40
 90
        0
102
RTVSPost2010PropOp40
 70
     1
102
RTVSPost2010Prop41ColorIndex
 90
       18
102
RTVSPost2010Prop41ColorRGB
 90
        0
102
RTVSPost2010PropOp41
 70
     1
102
RTVSPost2010Prop42
 90
       50
102
RTVSPost2010PropOp42
 70
     1
102
RTVSPost2010Prop43
 90
        3
102
RTVSPost2010PropOp43
 70
     1
102
RTVSPost2010Prop44ColorIndex
 90
        5
102
RTVSPost2010Prop44ColorRGB
 90
      255
102
RTVSPost2010PropOp44
 70
     1
102
RTVSPost2010Prop45
280
     0
102
RTVSPost2010PropOp45
 70
     1
102
RTVSPost2010Prop46
 90
       50
102
RTVSPost2010PropOp46
 70
     1
102
RTVSPost2010Prop47
 90
       50
102
RTVSPost2010PropOp47
 70
     1
102
RTVSPost2010Prop48
 90
       50
102
RTVSPost2010PropOp48
 70
     1
102
RTVSPost2010Prop49
280
     0
102
RTVSPost2010PropOp49
 70
     1
102
RTVSPost2010Prop50
 90
       50
102
RTVSPost2010PropOp50
 70
     1
102
RTVSPost2010Prop51ColorIndex
 90
      256
102
RTVSPost2010Prop51ColorRGB
 90
-16777216
102
RTVSPost2010PropOp51
 70
     0
102
RTVSPost2010Prop52
140
1.0
102
RTVSPost2010PropOp52
 70
     0
102
RTVSPost2010Prop53
 90
        2
102
RTVSPost2010PropOp53
 70
     1
102
RTVSPost2010Prop54
  1
strokes_ogs.tif
102
RTVSPost2010PropOp54
 70
     1
102
RTVSPost2010Prop55
280
     0
102
RTVSPost2010PropOp55
 70
     1
102
RTVSPost2010Prop56
140
1.0
102
RTVSPost2010PropOp56
 70
     1
102
RTVSPost2010Prop57
140
1.0
102
RTVSPost2010PropOp57
 70
     1
102
RTVSPropertyOp0
 70
     1
102
RTVSPropertyOp1
 70
     1
102
RTVSPropertyOp2
 70
     1
102
RTVSPropertyOp3
 70
     1
102
RTVSPropertyOp4
 70
     1
102
RTVSPropertyOp5
 70
     1
102
RTVSPropertyOp6
 70
     1
102
RTVSPropertyOp7
 70
     1
102
RTVSPropertyOp8
 70
     1
102
RTVSPropertyOp9
 70
     1
102
RTVSPropertyOp10
 70
     1
102
RTVSPropertyOp11
 70
     1
102
RTVSPropertyOp12
 70
     1
102
RTVSPropertyOp13
 70
     1
102
RTVSPropertyOp14
 70
     1
102
RTVSPropertyOp15
 70
     1
102
RTVSPropertyOp16
 70
     1
102
RTVSPropertyOp17
 70
     1
102
RTVSPropertyOp18
 70
     1
102
RTVSPropertyOp19
 70
     1
102
RTVSPropertyOp20
 70
     1
102
RTVSPropertyOp21
 70
     1
102
RTVSPropertyOp22
 70
     1
102
RTVSPropertyOp23
 70
     1
102
RTVSPropertyOp24
 70
     1
102
RTVSPropertyOp25
 70
     1
102
RTVSPropertyOp26
 70
     1
102
RTVSPropertyOp27
 70
     1
102
RTVSPropertyOp28
 70
     1
102
RTVSPropertyOp29
 70
     1
102
RTVSPropertyOp30
 70
     1
102
RTVSPropertyOp31
 70
     1
102
RTVSPropertyOp32
 70
     1
102
RTVSPropertyOp33
 70
     1
102
RTVSPropertyOp34
 70
     1
102
RTVSPropertyOp35
 70
     1
102
RTVSPropertyOp36
 70
     1
102
RTVSPropertyOp37
 70
     1
102
RTVSPropertyOp38
 70
     1
102
RTVSPropertyOp39
 70
     1
102
RTVSPropertyOp40
 70
     1
102
RTVSPropertyOp41
 70
     1
102
RTVSPropertyOp42
 70
     1
102
RTVSPropertyOp43
 70
     1
102
RTVSPropertyOp44
 70
     1
102
RTVSPropertyOp45
 70
     1
102
RTVSPropertyOp46
 70
     1
102
RTVSPropertyOp47
 70
     1
102
RTVSPropertyOp48
 70
     1
102
RTVSPropertyOp49
 70
     1
102
RTVSPropertyOp50
 70
     1
102
RTVSPropertyOp51
 70
     0
102
RTVSPropertyOp52
 70
     0
102
RTVSPropertyOp53
 70
     1
102
RTVSPropertyOp54
 70
     1
102
RTVSPropertyOp55
 70
     1
102
RTVSPropertyOp56
 70
     1
102
RTVSPropertyOp57
 70
     1
102
RTVSPropertyOp58
 70
     1
102
RTVSPropertyOp59
 70
     1
102
RTVSPropertyOp60
 70
     1
102
RTVSPropertyOp61
 70
     1
102
RTVSPropertyOp62
 70
     1
  0
XRECORD
  5
D2F6
102
{ACAD_REACTORS
330
D2F5
102
}
330
D2F5
100
AcDbXrecord
280
     1
102
RTVSPost2010Prop28
280
     0
102
RTVSPost2010PropOp28
 70
     1
102
RTVSPost2010Prop29
280
     1
102
RTVSPost2010PropOp29
 70
     1
102
RTVSPost2010Prop30
280
     1
102
RTVSPost2010PropOp30
 70
     1
102
RTVSPost2010Prop31
280
     0
102
RTVSPost2010PropOp31
 70
     1
102
RTVSPost2010Prop32
280
     0
102
RTVSPost2010PropOp32
 70
     1
102
RTVSPost2010Prop33
280
     0
102
RTVSPost2010PropOp33
 70
     1
102
RTVSPost2010Prop34
280
     0
102
RTVSPost2010PropOp34
 70
     1
102
RTVSPost2010Prop35
280
     0
102
RTVSPost2010PropOp35
 70
     1
102
RTVSPost2010Prop36
280
     0
102
RTVSPost2010PropOp36
 70
     1
102
RTVSPost2010Prop37
 90
       50
102
RTVSPost2010PropOp37
 70
     1
102
RTVSPost2010Prop38
140
0.0
102
RTVSPost2010PropOp38
 70
     1
102
RTVSPost2010Prop39
140
1.0
102
RTVSPost2010PropOp39
 70
     1
102
RTVSPost2010Prop40
 90
        0
102
RTVSPost2010PropOp40
 70
     1
102
RTVSPost2010Prop41ColorIndex
 90
       18
102
RTVSPost2010Prop41ColorRGB
 90
        0
102
RTVSPost2010PropOp41
 70
     1
102
RTVSPost2010Prop42
 90
       50
102
RTVSPost2010PropOp42
 70
     1
102
RTVSPost2010Prop43
 90
        3
102
RTVSPost2010PropOp43
 70
     1
102
RTVSPost2010Prop44ColorIndex
 90
        5
102
RTVSPost2010Prop44ColorRGB
 90
      255
102
RTVSPost2010PropOp44
 70
     1
102
RTVSPost2010Prop45
280
     0
102
RTVSPost2010PropOp45
 70
     1
102
RTVSPost2010Prop46
 90
       50
102
RTVSPost2010PropOp46
 70
     1
102
RTVSPost2010Prop47
 90
       50
102
RTVSPost2010PropOp47
 70
     1
102
RTVSPost2010Prop48
 90
       50
102
RTVSPost2010PropOp48
 70
     1
102
RTVSPost2010Prop49
280
     0
102
RTVSPost2010PropOp49
 70
     1
102
RTVSPost2010Prop50
 90
       50
102
RTVSPost2010PropOp50
 70
     1
102
RTVSPost2010Prop51ColorIndex
 90
      256
102
RTVSPost2010Prop51ColorRGB
 90
-16777216
102
RTVSPost2010PropOp51
 70
     0
102
RTVSPost2010Prop52
140
1.0
102
RTVSPost2010PropOp52
 70
     0
102
RTVSPost2010Prop53
 90
        2
102
RTVSPost2010PropOp53
 70
     1
102
RTVSPost2010Prop54
  1
strokes_ogs.tif
102
RTVSPost2010PropOp54
 70
     1
102
RTVSPost2010Prop55
280
     0
102
RTVSPost2010PropOp55
 70
     1
102
RTVSPost2010Prop56
140
1.0
102
RTVSPost2010PropOp56
 70
     1
102
RTVSPost2010Prop57
140
1.0
102
RTVSPost2010PropOp57
 70
     1
102
RTVSPropertyOp0
 70
     1
102
RTVSPropertyOp1
 70
     1
102
RTVSPropertyOp2
 70
     1
102
RTVSPropertyOp3
 70
     1
102
RTVSPropertyOp4
 70
     1
102
RTVSPropertyOp5
 70
     1
102
RTVSPropertyOp6
 70
     1
102
RTVSPropertyOp7
 70
     1
102
RTVSPropertyOp8
 70
     1
102
RTVSPropertyOp9
 70
     1
102
RTVSPropertyOp10
 70
     1
102
RTVSPropertyOp11
 70
     1
102
RTVSPropertyOp12
 70
     1
102
RTVSPropertyOp13
 70
     1
102
RTVSPropertyOp14
 70
     1
102
RTVSPropertyOp15
 70
     1
102
RTVSPropertyOp16
 70
     1
102
RTVSPropertyOp17
 70
     1
102
RTVSPropertyOp18
 70
     1
102
RTVSPropertyOp19
 70
     1
102
RTVSPropertyOp20
 70
     1
102
RTVSPropertyOp21
 70
     1
102
RTVSPropertyOp22
 70
     1
102
RTVSPropertyOp23
 70
     1
102
RTVSPropertyOp24
 70
     1
102
RTVSPropertyOp25
 70
     1
102
RTVSPropertyOp26
 70
     1
102
RTVSPropertyOp27
 70
     1
102
RTVSPropertyOp28
 70
     1
102
RTVSPropertyOp29
 70
     1
102
RTVSPropertyOp30
 70
     1
102
RTVSPropertyOp31
 70
     1
102
RTVSPropertyOp32
 70
     1
102
RTVSPropertyOp33
 70
     1
102
RTVSPropertyOp34
 70
     1
102
RTVSPropertyOp35
 70
     1
102
RTVSPropertyOp36
 70
     1
102
RTVSPropertyOp37
 70
     1
102
RTVSPropertyOp38
 70
     1
102
RTVSPropertyOp39
 70
     1
102
RTVSPropertyOp40
 70
     1
102
RTVSPropertyOp41
 70
     1
102
RTVSPropertyOp42
 70
     1
102
RTVSPropertyOp43
 70
     1
102
RTVSPropertyOp44
 70
     1
102
RTVSPropertyOp45
 70
     1
102
RTVSPropertyOp46
 70
     1
102
RTVSPropertyOp47
 70
     1
102
RTVSPropertyOp48
 70
     1
102
RTVSPropertyOp49
 70
     1
102
RTVSPropertyOp50
 70
     1
102
RTVSPropertyOp51
 70
     0
102
RTVSPropertyOp52
 70
     0
102
RTVSPropertyOp53
 70
     1
102
RTVSPropertyOp54
 70
     1
102
RTVSPropertyOp55
 70
     1
102
RTVSPropertyOp56
 70
     1
102
RTVSPropertyOp57
 70
     1
102
RTVSPropertyOp58
 70
     1
102
RTVSPropertyOp59
 70
     1
102
RTVSPropertyOp60
 70
     1
102
RTVSPropertyOp61
 70
     1
102
RTVSPropertyOp62
 70
     1
  0
XRECORD
  5
D2E8
102
{ACAD_REACTORS
330
D2E7
102
}
330
D2E7
100
AcDbXrecord
280
     1
102
RTVSPost2010Prop28
280
     0
102
RTVSPost2010PropOp28
 70
     1
102
RTVSPost2010Prop29
280
     1
102
RTVSPost2010PropOp29
 70
     1
102
RTVSPost2010Prop30
280
     1
102
RTVSPost2010PropOp30
 70
     1
102
RTVSPost2010Prop31
280
     0
102
RTVSPost2010PropOp31
 70
     1
102
RTVSPost2010Prop32
280
     0
102
RTVSPost2010PropOp32
 70
     1
102
RTVSPost2010Prop33
280
     0
102
RTVSPost2010PropOp33
 70
     1
102
RTVSPost2010Prop34
280
     0
102
RTVSPost2010PropOp34
 70
     1
102
RTVSPost2010Prop35
280
     0
102
RTVSPost2010PropOp35
 70
     1
102
RTVSPost2010Prop36
280
     0
102
RTVSPost2010PropOp36
 70
     1
102
RTVSPost2010Prop37
 90
       50
102
RTVSPost2010PropOp37
 70
     1
102
RTVSPost2010Prop38
140
0.0
102
RTVSPost2010PropOp38
 70
     1
102
RTVSPost2010Prop39
140
1.0
102
RTVSPost2010PropOp39
 70
     1
102
RTVSPost2010Prop40
 90
        0
102
RTVSPost2010PropOp40
 70
     1
102
RTVSPost2010Prop41ColorIndex
 90
       18
102
RTVSPost2010Prop41ColorRGB
 90
        0
102
RTVSPost2010PropOp41
 70
     1
102
RTVSPost2010Prop42
 90
       50
102
RTVSPost2010PropOp42
 70
     1
102
RTVSPost2010Prop43
 90
        3
102
RTVSPost2010PropOp43
 70
     1
102
RTVSPost2010Prop44ColorIndex
 90
        5
102
RTVSPost2010Prop44ColorRGB
 90
      255
102
RTVSPost2010PropOp44
 70
     1
102
RTVSPost2010Prop45
280
     0
102
RTVSPost2010PropOp45
 70
     1
102
RTVSPost2010Prop46
 90
       50
102
RTVSPost2010PropOp46
 70
     1
102
RTVSPost2010Prop47
 90
       50
102
RTVSPost2010PropOp47
 70
     1
102
RTVSPost2010Prop48
 90
       50
102
RTVSPost2010PropOp48
 70
     1
102
RTVSPost2010Prop49
280
     0
102
RTVSPost2010PropOp49
 70
     1
102
RTVSPost2010Prop50
 90
       50
102
RTVSPost2010PropOp50
 70
     1
102
RTVSPost2010Prop51ColorIndex
 90
      256
102
RTVSPost2010Prop51ColorRGB
 90
-16777216
102
RTVSPost2010PropOp51
 70
     0
102
RTVSPost2010Prop52
140
1.0
102
RTVSPost2010PropOp52
 70
     0
102
RTVSPost2010Prop53
 90
        2
102
RTVSPost2010PropOp53
 70
     1
102
RTVSPost2010Prop54
  1
strokes_ogs.tif
102
RTVSPost2010PropOp54
 70
     1
102
RTVSPost2010Prop55
280
     0
102
RTVSPost2010PropOp55
 70
     1
102
RTVSPost2010Prop56
140
1.0
102
RTVSPost2010PropOp56
 70
     1
102
RTVSPost2010Prop57
140
1.0
102
RTVSPost2010PropOp57
 70
     1
102
RTVSPropertyOp0
 70
     1
102
RTVSPropertyOp1
 70
     1
102
RTVSPropertyOp2
 70
     1
102
RTVSPropertyOp3
 70
     1
102
RTVSPropertyOp4
 70
     1
102
RTVSPropertyOp5
 70
     1
102
RTVSPropertyOp6
 70
     1
102
RTVSPropertyOp7
 70
     1
102
RTVSPropertyOp8
 70
     1
102
RTVSPropertyOp9
 70
     1
102
RTVSPropertyOp10
 70
     1
102
RTVSPropertyOp11
 70
     1
102
RTVSPropertyOp12
 70
     1
102
RTVSPropertyOp13
 70
     1
102
RTVSPropertyOp14
 70
     1
102
RTVSPropertyOp15
 70
     1
102
RTVSPropertyOp16
 70
     1
102
RTVSPropertyOp17
 70
     1
102
RTVSPropertyOp18
 70
     1
102
RTVSPropertyOp19
 70
     1
102
RTVSPropertyOp20
 70
     1
102
RTVSPropertyOp21
 70
     1
102
RTVSPropertyOp22
 70
     1
102
RTVSPropertyOp23
 70
     1
102
RTVSPropertyOp24
 70
     1
102
RTVSPropertyOp25
 70
     1
102
RTVSPropertyOp26
 70
     1
102
RTVSPropertyOp27
 70
     1
102
RTVSPropertyOp28
 70
     1
102
RTVSPropertyOp29
 70
     1
102
RTVSPropertyOp30
 70
     1
102
RTVSPropertyOp31
 70
     1
102
RTVSPropertyOp32
 70
     1
102
RTVSPropertyOp33
 70
     1
102
RTVSPropertyOp34
 70
     1
102
RTVSPropertyOp35
 70
     1
102
RTVSPropertyOp36
 70
     1
102
RTVSPropertyOp37
 70
     1
102
RTVSPropertyOp38
 70
     1
102
RTVSPropertyOp39
 70
     1
102
RTVSPropertyOp40
 70
     1
102
RTVSPropertyOp41
 70
     1
102
RTVSPropertyOp42
 70
     1
102
RTVSPropertyOp43
 70
     1
102
RTVSPropertyOp44
 70
     1
102
RTVSPropertyOp45
 70
     1
102
RTVSPropertyOp46
 70
     1
102
RTVSPropertyOp47
 70
     1
102
RTVSPropertyOp48
 70
     1
102
RTVSPropertyOp49
 70
     1
102
RTVSPropertyOp50
 70
     1
102
RTVSPropertyOp51
 70
     0
102
RTVSPropertyOp52
 70
     0
102
RTVSPropertyOp53
 70
     1
102
RTVSPropertyOp54
 70
     1
102
RTVSPropertyOp55
 70
     1
102
RTVSPropertyOp56
 70
     1
102
RTVSPropertyOp57
 70
     1
102
RTVSPropertyOp58
 70
     1
102
RTVSPropertyOp59
 70
     1
102
RTVSPropertyOp60
 70
     1
102
RTVSPropertyOp61
 70
     1
102
RTVSPropertyOp62
 70
     1
  0
XRECORD
  5
D2EC
102
{ACAD_REACTORS
330
D2EB
102
}
330
D2EB
100
AcDbXrecord
280
     1
102
RTVSPost2010Prop28
280
     0
102
RTVSPost2010PropOp28
 70
     1
102
RTVSPost2010Prop29
280
     1
102
RTVSPost2010PropOp29
 70
     1
102
RTVSPost2010Prop30
280
     1
102
RTVSPost2010PropOp30
 70
     1
102
RTVSPost2010Prop31
280
     0
102
RTVSPost2010PropOp31
 70
     1
102
RTVSPost2010Prop32
280
     0
102
RTVSPost2010PropOp32
 70
     1
102
RTVSPost2010Prop33
280
     0
102
RTVSPost2010PropOp33
 70
     1
102
RTVSPost2010Prop34
280
     0
102
RTVSPost2010PropOp34
 70
     1
102
RTVSPost2010Prop35
280
     0
102
RTVSPost2010PropOp35
 70
     1
102
RTVSPost2010Prop36
280
     0
102
RTVSPost2010PropOp36
 70
     1
102
RTVSPost2010Prop37
 90
       50
102
RTVSPost2010PropOp37
 70
     1
102
RTVSPost2010Prop38
140
0.0
102
RTVSPost2010PropOp38
 70
     1
102
RTVSPost2010Prop39
140
1.0
102
RTVSPost2010PropOp39
 70
     1
102
RTVSPost2010Prop40
 90
        0
102
RTVSPost2010PropOp40
 70
     1
102
RTVSPost2010Prop41ColorIndex
 90
       18
102
RTVSPost2010Prop41ColorRGB
 90
        0
102
RTVSPost2010PropOp41
 70
     1
102
RTVSPost2010Prop42
 90
       50
102
RTVSPost2010PropOp42
 70
     1
102
RTVSPost2010Prop43
 90
        3
102
RTVSPost2010PropOp43
 70
     1
102
RTVSPost2010Prop44ColorIndex
 90
        5
102
RTVSPost2010Prop44ColorRGB
 90
      255
102
RTVSPost2010PropOp44
 70
     1
102
RTVSPost2010Prop45
280
     0
102
RTVSPost2010PropOp45
 70
     1
102
RTVSPost2010Prop46
 90
       50
102
RTVSPost2010PropOp46
 70
     1
102
RTVSPost2010Prop47
 90
       50
102
RTVSPost2010PropOp47
 70
     1
102
RTVSPost2010Prop48
 90
       50
102
RTVSPost2010PropOp48
 70
     1
102
RTVSPost2010Prop49
280
     0
102
RTVSPost2010PropOp49
 70
     1
102
RTVSPost2010Prop50
 90
       50
102
RTVSPost2010PropOp50
 70
     1
102
RTVSPost2010Prop51ColorIndex
 90
      256
102
RTVSPost2010Prop51ColorRGB
 90
-16777216
102
RTVSPost2010PropOp51
 70
     0
102
RTVSPost2010Prop52
140
1.0
102
RTVSPost2010PropOp52
 70
     0
102
RTVSPost2010Prop53
 90
        2
102
RTVSPost2010PropOp53
 70
     1
102
RTVSPost2010Prop54
  1
strokes_ogs.tif
102
RTVSPost2010PropOp54
 70
     1
102
RTVSPost2010Prop55
280
     0
102
RTVSPost2010PropOp55
 70
     1
102
RTVSPost2010Prop56
140
1.0
102
RTVSPost2010PropOp56
 70
     1
102
RTVSPost2010Prop57
140
1.0
102
RTVSPost2010PropOp57
 70
     1
102
RTVSPropertyOp0
 70
     1
102
RTVSPropertyOp1
 70
     1
102
RTVSPropertyOp2
 70
     1
102
RTVSPropertyOp3
 70
     1
102
RTVSPropertyOp4
 70
     1
102
RTVSPropertyOp5
 70
     1
102
RTVSPropertyOp6
 70
     1
102
RTVSPropertyOp7
 70
     1
102
RTVSPropertyOp8
 70
     1
102
RTVSPropertyOp9
 70
     1
102
RTVSPropertyOp10
 70
     1
102
RTVSPropertyOp11
 70
     1
102
RTVSPropertyOp12
 70
     1
102
RTVSPropertyOp13
 70
     1
102
RTVSPropertyOp14
 70
     1
102
RTVSPropertyOp15
 70
     1
102
RTVSPropertyOp16
 70
     1
102
RTVSPropertyOp17
 70
     1
102
RTVSPropertyOp18
 70
     1
102
RTVSPropertyOp19
 70
     1
102
RTVSPropertyOp20
 70
     1
102
RTVSPropertyOp21
 70
     1
102
RTVSPropertyOp22
 70
     1
102
RTVSPropertyOp23
 70
     1
102
RTVSPropertyOp24
 70
     1
102
RTVSPropertyOp25
 70
     1
102
RTVSPropertyOp26
 70
     1
102
RTVSPropertyOp27
 70
     1
102
RTVSPropertyOp28
 70
     1
102
RTVSPropertyOp29
 70
     1
102
RTVSPropertyOp30
 70
     1
102
RTVSPropertyOp31
 70
     1
102
RTVSPropertyOp32
 70
     1
102
RTVSPropertyOp33
 70
     1
102
RTVSPropertyOp34
 70
     1
102
RTVSPropertyOp35
 70
     1
102
RTVSPropertyOp36
 70
     1
102
RTVSPropertyOp37
 70
     1
102
RTVSPropertyOp38
 70
     1
102
RTVSPropertyOp39
 70
     1
102
RTVSPropertyOp40
 70
     1
102
RTVSPropertyOp41
 70
     1
102
RTVSPropertyOp42
 70
     1
102
RTVSPropertyOp43
 70
     1
102
RTVSPropertyOp44
 70
     1
102
RTVSPropertyOp45
 70
     1
102
RTVSPropertyOp46
 70
     1
102
RTVSPropertyOp47
 70
     1
102
RTVSPropertyOp48
 70
     1
102
RTVSPropertyOp49
 70
     1
102
RTVSPropertyOp50
 70
     1
102
RTVSPropertyOp51
 70
     0
102
RTVSPropertyOp52
 70
     0
102
RTVSPropertyOp53
 70
     1
102
RTVSPropertyOp54
 70
     1
102
RTVSPropertyOp55
 70
     1
102
RTVSPropertyOp56
 70
     1
102
RTVSPropertyOp57
 70
     1
102
RTVSPropertyOp58
 70
     1
102
RTVSPropertyOp59
 70
     1
102
RTVSPropertyOp60
 70
     1
102
RTVSPropertyOp61
 70
     1
102
RTVSPropertyOp62
 70
     1
  0
XRECORD
  5
D2FE
102
{ACAD_REACTORS
330
D2FD
102
}
330
D2FD
100
AcDbXrecord
280
     1
102
RTVSPost2010Prop28
280
     0
102
RTVSPost2010PropOp28
 70
     1
102
RTVSPost2010Prop29
280
     1
102
RTVSPost2010PropOp29
 70
     1
102
RTVSPost2010Prop30
280
     1
102
RTVSPost2010PropOp30
 70
     1
102
RTVSPost2010Prop31
280
     0
102
RTVSPost2010PropOp31
 70
     1
102
RTVSPost2010Prop32
280
     0
102
RTVSPost2010PropOp32
 70
     1
102
RTVSPost2010Prop33
280
     0
102
RTVSPost2010PropOp33
 70
     1
102
RTVSPost2010Prop34
280
     0
102
RTVSPost2010PropOp34
 70
     1
102
RTVSPost2010Prop35
280
     0
102
RTVSPost2010PropOp35
 70
     1
102
RTVSPost2010Prop36
280
     0
102
RTVSPost2010PropOp36
 70
     1
102
RTVSPost2010Prop37
 90
       50
102
RTVSPost2010PropOp37
 70
     1
102
RTVSPost2010Prop38
140
0.0
102
RTVSPost2010PropOp38
 70
     1
102
RTVSPost2010Prop39
140
1.0
102
RTVSPost2010PropOp39
 70
     1
102
RTVSPost2010Prop40
 90
        0
102
RTVSPost2010PropOp40
 70
     1
102
RTVSPost2010Prop41ColorIndex
 90
       18
102
RTVSPost2010Prop41ColorRGB
 90
        0
102
RTVSPost2010PropOp41
 70
     1
102
RTVSPost2010Prop42
 90
       50
102
RTVSPost2010PropOp42
 70
     1
102
RTVSPost2010Prop43
 90
        3
102
RTVSPost2010PropOp43
 70
     1
102
RTVSPost2010Prop44ColorIndex
 90
        5
102
RTVSPost2010Prop44ColorRGB
 90
      255
102
RTVSPost2010PropOp44
 70
     1
102
RTVSPost2010Prop45
280
     0
102
RTVSPost2010PropOp45
 70
     1
102
RTVSPost2010Prop46
 90
       50
102
RTVSPost2010PropOp46
 70
     1
102
RTVSPost2010Prop47
 90
       50
102
RTVSPost2010PropOp47
 70
     1
102
RTVSPost2010Prop48
 90
       50
102
RTVSPost2010PropOp48
 70
     1
102
RTVSPost2010Prop49
280
     0
102
RTVSPost2010PropOp49
 70
     1
102
RTVSPost2010Prop50
 90
       50
102
RTVSPost2010PropOp50
 70
     1
102
RTVSPost2010Prop51ColorIndex
 90
      256
102
RTVSPost2010Prop51ColorRGB
 90
-16777216
102
RTVSPost2010PropOp51
 70
     0
102
RTVSPost2010Prop52
140
1.0
102
RTVSPost2010PropOp52
 70
     0
102
RTVSPost2010Prop53
 90
        2
102
RTVSPost2010PropOp53
 70
     1
102
RTVSPost2010Prop54
  1
strokes_ogs.tif
102
RTVSPost2010PropOp54
 70
     1
102
RTVSPost2010Prop55
280
     0
102
RTVSPost2010PropOp55
 70
     1
102
RTVSPost2010Prop56
140
1.0
102
RTVSPost2010PropOp56
 70
     1
102
RTVSPost2010Prop57
140
1.0
102
RTVSPost2010PropOp57
 70
     1
102
RTVSPropertyOp0
 70
     0
102
RTVSPropertyOp1
 70
     0
102
RTVSPropertyOp2
 70
     0
102
RTVSPropertyOp3
 70
     0
102
RTVSPropertyOp4
 70
     0
102
RTVSPropertyOp5
 70
     0
102
RTVSPropertyOp6
 70
     0
102
RTVSPropertyOp7
 70
     0
102
RTVSPropertyOp8
 70
     0
102
RTVSPropertyOp9
 70
     0
102
RTVSPropertyOp10
 70
     0
102
RTVSPropertyOp11
 70
     0
102
RTVSPropertyOp12
 70
     0
102
RTVSPropertyOp13
 70
     0
102
RTVSPropertyOp14
 70
     2
102
RTVSPropertyOp15
 70
     0
102
RTVSPropertyOp16
 70
     0
102
RTVSPropertyOp17
 70
     0
102
RTVSPropertyOp18
 70
     0
102
RTVSPropertyOp19
 70
     0
102
RTVSPropertyOp20
 70
     0
102
RTVSPropertyOp21
 70
     0
102
RTVSPropertyOp22
 70
     0
102
RTVSPropertyOp23
 70
     0
102
RTVSPropertyOp24
 70
     0
102
RTVSPropertyOp25
 70
     0
102
RTVSPropertyOp26
 70
     0
102
RTVSPropertyOp27
 70
     0
102
RTVSPropertyOp28
 70
     1
102
RTVSPropertyOp29
 70
     1
102
RTVSPropertyOp30
 70
     1
102
RTVSPropertyOp31
 70
     1
102
RTVSPropertyOp32
 70
     1
102
RTVSPropertyOp33
 70
     1
102
RTVSPropertyOp34
 70
     1
102
RTVSPropertyOp35
 70
     1
102
RTVSPropertyOp36
 70
     1
102
RTVSPropertyOp37
 70
     1
102
RTVSPropertyOp38
 70
     1
102
RTVSPropertyOp39
 70
     1
102
RTVSPropertyOp40
 70
     1
102
RTVSPropertyOp41
 70
     1
102
RTVSPropertyOp42
 70
     1
102
RTVSPropertyOp43
 70
     1
102
RTVSPropertyOp44
 70
     1
102
RTVSPropertyOp45
 70
     1
102
RTVSPropertyOp46
 70
     1
102
RTVSPropertyOp47
 70
     1
102
RTVSPropertyOp48
 70
     1
102
RTVSPropertyOp49
 70
     1
102
RTVSPropertyOp50
 70
     1
102
RTVSPropertyOp51
 70
     0
102
RTVSPropertyOp52
 70
     0
102
RTVSPropertyOp53
 70
     1
102
RTVSPropertyOp54
 70
     1
102
RTVSPropertyOp55
 70
     1
102
RTVSPropertyOp56
 70
     1
102
RTVSPropertyOp57
 70
     1
102
RTVSPropertyOp58
 70
     1
102
RTVSPropertyOp59
 70
     1
102
RTVSPropertyOp60
 70
     1
102
RTVSPropertyOp61
 70
     1
102
RTVSPropertyOp62
 70
     1
  0
XRECORD
  5
D2F4
102
{ACAD_REACTORS
330
D2F3
102
}
330
D2F3
100
AcDbXrecord
280
     1
102
RTVSPost2010Prop28
280
     0
102
RTVSPost2010PropOp28
 70
     1
102
RTVSPost2010Prop29
280
     1
102
RTVSPost2010PropOp29
 70
     1
102
RTVSPost2010Prop30
280
     1
102
RTVSPost2010PropOp30
 70
     1
102
RTVSPost2010Prop31
280
     0
102
RTVSPost2010PropOp31
 70
     1
102
RTVSPost2010Prop32
280
     0
102
RTVSPost2010PropOp32
 70
     1
102
RTVSPost2010Prop33
280
     0
102
RTVSPost2010PropOp33
 70
     1
102
RTVSPost2010Prop34
280
     0
102
RTVSPost2010PropOp34
 70
     1
102
RTVSPost2010Prop35
280
     0
102
RTVSPost2010PropOp35
 70
     1
102
RTVSPost2010Prop36
280
     0
102
RTVSPost2010PropOp36
 70
     1
102
RTVSPost2010Prop37
 90
       50
102
RTVSPost2010PropOp37
 70
     1
102
RTVSPost2010Prop38
140
0.0
102
RTVSPost2010PropOp38
 70
     1
102
RTVSPost2010Prop39
140
1.0
102
RTVSPost2010PropOp39
 70
     1
102
RTVSPost2010Prop40
 90
        0
102
RTVSPost2010PropOp40
 70
     1
102
RTVSPost2010Prop41ColorIndex
 90
       18
102
RTVSPost2010Prop41ColorRGB
 90
        0
102
RTVSPost2010PropOp41
 70
     1
102
RTVSPost2010Prop42
 90
       50
102
RTVSPost2010PropOp42
 70
     1
102
RTVSPost2010Prop43
 90
        3
102
RTVSPost2010PropOp43
 70
     1
102
RTVSPost2010Prop44ColorIndex
 90
        5
102
RTVSPost2010Prop44ColorRGB
 90
      255
102
RTVSPost2010PropOp44
 70
     1
102
RTVSPost2010Prop45
280
     0
102
RTVSPost2010PropOp45
 70
     1
102
RTVSPost2010Prop46
 90
       50
102
RTVSPost2010PropOp46
 70
     1
102
RTVSPost2010Prop47
 90
       50
102
RTVSPost2010PropOp47
 70
     1
102
RTVSPost2010Prop48
 90
       50
102
RTVSPost2010PropOp48
 70
     1
102
RTVSPost2010Prop49
280
     0
102
RTVSPost2010PropOp49
 70
     1
102
RTVSPost2010Prop50
 90
       50
102
RTVSPost2010PropOp50
 70
     1
102
RTVSPost2010Prop51ColorIndex
 90
      256
102
RTVSPost2010Prop51ColorRGB
 90
-16777216
102
RTVSPost2010PropOp51
 70
     0
102
RTVSPost2010Prop52
140
1.0
102
RTVSPost2010PropOp52
 70
     0
102
RTVSPost2010Prop53
 90
        2
102
RTVSPost2010PropOp53
 70
     1
102
RTVSPost2010Prop54
  1
strokes_ogs.tif
102
RTVSPost2010PropOp54
 70
     1
102
RTVSPost2010Prop55
280
     0
102
RTVSPost2010PropOp55
 70
     1
102
RTVSPost2010Prop56
140
1.0
102
RTVSPost2010PropOp56
 70
     1
102
RTVSPost2010Prop57
140
1.0
102
RTVSPost2010PropOp57
 70
     1
102
RTVSPropertyOp0
 70
     1
102
RTVSPropertyOp1
 70
     1
102
RTVSPropertyOp2
 70
     1
102
RTVSPropertyOp3
 70
     1
102
RTVSPropertyOp4
 70
     1
102
RTVSPropertyOp5
 70
     1
102
RTVSPropertyOp6
 70
     1
102
RTVSPropertyOp7
 70
     1
102
RTVSPropertyOp8
 70
     1
102
RTVSPropertyOp9
 70
     1
102
RTVSPropertyOp10
 70
     1
102
RTVSPropertyOp11
 70
     1
102
RTVSPropertyOp12
 70
     1
102
RTVSPropertyOp13
 70
     1
102
RTVSPropertyOp14
 70
     1
102
RTVSPropertyOp15
 70
     1
102
RTVSPropertyOp16
 70
     1
102
RTVSPropertyOp17
 70
     1
102
RTVSPropertyOp18
 70
     1
102
RTVSPropertyOp19
 70
     1
102
RTVSPropertyOp20
 70
     1
102
RTVSPropertyOp21
 70
     1
102
RTVSPropertyOp22
 70
     1
102
RTVSPropertyOp23
 70
     1
102
RTVSPropertyOp24
 70
     1
102
RTVSPropertyOp25
 70
     1
102
RTVSPropertyOp26
 70
     1
102
RTVSPropertyOp27
 70
     1
102
RTVSPropertyOp28
 70
     1
102
RTVSPropertyOp29
 70
     1
102
RTVSPropertyOp30
 70
     1
102
RTVSPropertyOp31
 70
     1
102
RTVSPropertyOp32
 70
     1
102
RTVSPropertyOp33
 70
     1
102
RTVSPropertyOp34
 70
     1
102
RTVSPropertyOp35
 70
     1
102
RTVSPropertyOp36
 70
     1
102
RTVSPropertyOp37
 70
     1
102
RTVSPropertyOp38
 70
     1
102
RTVSPropertyOp39
 70
     1
102
RTVSPropertyOp40
 70
     1
102
RTVSPropertyOp41
 70
     1
102
RTVSPropertyOp42
 70
     1
102
RTVSPropertyOp43
 70
     1
102
RTVSPropertyOp44
 70
     1
102
RTVSPropertyOp45
 70
     1
102
RTVSPropertyOp46
 70
     1
102
RTVSPropertyOp47
 70
     1
102
RTVSPropertyOp48
 70
     1
102
RTVSPropertyOp49
 70
     1
102
RTVSPropertyOp50
 70
     1
102
RTVSPropertyOp51
 70
     0
102
RTVSPropertyOp52
 70
     0
102
RTVSPropertyOp53
 70
     1
102
RTVSPropertyOp54
 70
     1
102
RTVSPropertyOp55
 70
     1
102
RTVSPropertyOp56
 70
     1
102
RTVSPropertyOp57
 70
     1
102
RTVSPropertyOp58
 70
     1
102
RTVSPropertyOp59
 70
     1
102
RTVSPropertyOp60
 70
     1
102
RTVSPropertyOp61
 70
     1
102
RTVSPropertyOp62
 70
     1
  0
XRECORD
  5
D2D8
102
{ACAD_REACTORS
330
D2D7
102
}
330
D2D7
100
AcDbXrecord
280
     1
102
RTVSPost2010Prop28
280
     0
102
RTVSPost2010PropOp28
 70
     1
102
RTVSPost2010Prop29
280
     1
102
RTVSPost2010PropOp29
 70
     1
102
RTVSPost2010Prop30
280
     1
102
RTVSPost2010PropOp30
 70
     1
102
RTVSPost2010Prop31
280
     0
102
RTVSPost2010PropOp31
 70
     1
102
RTVSPost2010Prop32
280
     0
102
RTVSPost2010PropOp32
 70
     1
102
RTVSPost2010Prop33
280
     0
102
RTVSPost2010PropOp33
 70
     1
102
RTVSPost2010Prop34
280
     0
102
RTVSPost2010PropOp34
 70
     1
102
RTVSPost2010Prop35
280
     0
102
RTVSPost2010PropOp35
 70
     1
102
RTVSPost2010Prop36
280
     0
102
RTVSPost2010PropOp36
 70
     1
102
RTVSPost2010Prop37
 90
       50
102
RTVSPost2010PropOp37
 70
     1
102
RTVSPost2010Prop38
140
0.0
102
RTVSPost2010PropOp38
 70
     1
102
RTVSPost2010Prop39
140
1.0
102
RTVSPost2010PropOp39
 70
     1
102
RTVSPost2010Prop40
 90
        0
102
RTVSPost2010PropOp40
 70
     1
102
RTVSPost2010Prop41ColorIndex
 90
       18
102
RTVSPost2010Prop41ColorRGB
 90
        0
102
RTVSPost2010PropOp41
 70
     1
102
RTVSPost2010Prop42
 90
       50
102
RTVSPost2010PropOp42
 70
     1
102
RTVSPost2010Prop43
 90
        3
102
RTVSPost2010PropOp43
 70
     1
102
RTVSPost2010Prop44ColorIndex
 90
        5
102
RTVSPost2010Prop44ColorRGB
 90
      255
102
RTVSPost2010PropOp44
 70
     1
102
RTVSPost2010Prop45
280
     0
102
RTVSPost2010PropOp45
 70
     1
102
RTVSPost2010Prop46
 90
       50
102
RTVSPost2010PropOp46
 70
     1
102
RTVSPost2010Prop47
 90
       50
102
RTVSPost2010PropOp47
 70
     1
102
RTVSPost2010Prop48
 90
       50
102
RTVSPost2010PropOp48
 70
     1
102
RTVSPost2010Prop49
280
     0
102
RTVSPost2010PropOp49
 70
     1
102
RTVSPost2010Prop50
 90
       50
102
RTVSPost2010PropOp50
 70
     1
102
RTVSPost2010Prop51ColorIndex
 90
      256
102
RTVSPost2010Prop51ColorRGB
 90
-16777216
102
RTVSPost2010PropOp51
 70
     0
102
RTVSPost2010Prop52
140
1.0
102
RTVSPost2010PropOp52
 70
     0
102
RTVSPost2010Prop53
 90
        2
102
RTVSPost2010PropOp53
 70
     1
102
RTVSPost2010Prop54
  1
strokes_ogs.tif
102
RTVSPost2010PropOp54
 70
     1
102
RTVSPost2010Prop55
280
     0
102
RTVSPost2010PropOp55
 70
     1
102
RTVSPost2010Prop56
140
1.0
102
RTVSPost2010PropOp56
 70
     1
102
RTVSPost2010Prop57
140
1.0
102
RTVSPost2010PropOp57
 70
     1
102
RTVSPropertyOp0
 70
     1
102
RTVSPropertyOp1
 70
     1
102
RTVSPropertyOp2
 70
     1
102
RTVSPropertyOp3
 70
     1
102
RTVSPropertyOp4
 70
     1
102
RTVSPropertyOp5
 70
     1
102
RTVSPropertyOp6
 70
     1
102
RTVSPropertyOp7
 70
     1
102
RTVSPropertyOp8
 70
     1
102
RTVSPropertyOp9
 70
     1
102
RTVSPropertyOp10
 70
     1
102
RTVSPropertyOp11
 70
     1
102
RTVSPropertyOp12
 70
     1
102
RTVSPropertyOp13
 70
     1
102
RTVSPropertyOp14
 70
     1
102
RTVSPropertyOp15
 70
     1
102
RTVSPropertyOp16
 70
     1
102
RTVSPropertyOp17
 70
     1
102
RTVSPropertyOp18
 70
     1
102
RTVSPropertyOp19
 70
     1
102
RTVSPropertyOp20
 70
     1
102
RTVSPropertyOp21
 70
     1
102
RTVSPropertyOp22
 70
     1
102
RTVSPropertyOp23
 70
     1
102
RTVSPropertyOp24
 70
     1
102
RTVSPropertyOp25
 70
     1
102
RTVSPropertyOp26
 70
     1
102
RTVSPropertyOp27
 70
     1
102
RTVSPropertyOp28
 70
     1
102
RTVSPropertyOp29
 70
     1
102
RTVSPropertyOp30
 70
     1
102
RTVSPropertyOp31
 70
     1
102
RTVSPropertyOp32
 70
     1
102
RTVSPropertyOp33
 70
     1
102
RTVSPropertyOp34
 70
     1
102
RTVSPropertyOp35
 70
     1
102
RTVSPropertyOp36
 70
     1
102
RTVSPropertyOp37
 70
     1
102
RTVSPropertyOp38
 70
     1
102
RTVSPropertyOp39
 70
     1
102
RTVSPropertyOp40
 70
     1
102
RTVSPropertyOp41
 70
     1
102
RTVSPropertyOp42
 70
     1
102
RTVSPropertyOp43
 70
     1
102
RTVSPropertyOp44
 70
     1
102
RTVSPropertyOp45
 70
     1
102
RTVSPropertyOp46
 70
     1
102
RTVSPropertyOp47
 70
     1
102
RTVSPropertyOp48
 70
     1
102
RTVSPropertyOp49
 70
     1
102
RTVSPropertyOp50
 70
     1
102
RTVSPropertyOp51
 70
     0
102
RTVSPropertyOp52
 70
     0
102
RTVSPropertyOp53
 70
     1
102
RTVSPropertyOp54
 70
     1
102
RTVSPropertyOp55
 70
     1
102
RTVSPropertyOp56
 70
     1
102
RTVSPropertyOp57
 70
     1
102
RTVSPropertyOp58
 70
     1
102
RTVSPropertyOp59
 70
     1
102
RTVSPropertyOp60
 70
     1
102
RTVSPropertyOp61
 70
     1
102
RTVSPropertyOp62
 70
     1
  0
XRECORD
  5
D2DA
102
{ACAD_REACTORS
330
D2D9
102
}
330
D2D9
100
AcDbXrecord
280
     1
102
RTVSPost2010Prop28
280
     0
102
RTVSPost2010PropOp28
 70
     1
102
RTVSPost2010Prop29
280
     1
102
RTVSPost2010PropOp29
 70
     1
102
RTVSPost2010Prop30
280
     1
102
RTVSPost2010PropOp30
 70
     1
102
RTVSPost2010Prop31
280
     0
102
RTVSPost2010PropOp31
 70
     1
102
RTVSPost2010Prop32
280
     0
102
RTVSPost2010PropOp32
 70
     1
102
RTVSPost2010Prop33
280
     0
102
RTVSPost2010PropOp33
 70
     1
102
RTVSPost2010Prop34
280
     0
102
RTVSPost2010PropOp34
 70
     1
102
RTVSPost2010Prop35
280
     0
102
RTVSPost2010PropOp35
 70
     1
102
RTVSPost2010Prop36
280
     0
102
RTVSPost2010PropOp36
 70
     1
102
RTVSPost2010Prop37
 90
       50
102
RTVSPost2010PropOp37
 70
     1
102
RTVSPost2010Prop38
140
0.0
102
RTVSPost2010PropOp38
 70
     1
102
RTVSPost2010Prop39
140
1.0
102
RTVSPost2010PropOp39
 70
     1
102
RTVSPost2010Prop40
 90
        0
102
RTVSPost2010PropOp40
 70
     1
102
RTVSPost2010Prop41ColorIndex
 90
       18
102
RTVSPost2010Prop41ColorRGB
 90
        0
102
RTVSPost2010PropOp41
 70
     1
102
RTVSPost2010Prop42
 90
       50
102
RTVSPost2010PropOp42
 70
     1
102
RTVSPost2010Prop43
 90
        3
102
RTVSPost2010PropOp43
 70
     1
102
RTVSPost2010Prop44ColorIndex
 90
        5
102
RTVSPost2010Prop44ColorRGB
 90
      255
102
RTVSPost2010PropOp44
 70
     1
102
RTVSPost2010Prop45
280
     0
102
RTVSPost2010PropOp45
 70
     1
102
RTVSPost2010Prop46
 90
       50
102
RTVSPost2010PropOp46
 70
     1
102
RTVSPost2010Prop47
 90
       50
102
RTVSPost2010PropOp47
 70
     1
102
RTVSPost2010Prop48
 90
       50
102
RTVSPost2010PropOp48
 70
     1
102
RTVSPost2010Prop49
280
     0
102
RTVSPost2010PropOp49
 70
     1
102
RTVSPost2010Prop50
 90
       50
102
RTVSPost2010PropOp50
 70
     1
102
RTVSPost2010Prop51ColorIndex
 90
      256
102
RTVSPost2010Prop51ColorRGB
 90
-16777216
102
RTVSPost2010PropOp51
 70
     0
102
RTVSPost2010Prop52
140
1.0
102
RTVSPost2010PropOp52
 70
     0
102
RTVSPost2010Prop53
 90
        2
102
RTVSPost2010PropOp53
 70
     1
102
RTVSPost2010Prop54
  1
strokes_ogs.tif
102
RTVSPost2010PropOp54
 70
     1
102
RTVSPost2010Prop55
280
     0
102
RTVSPost2010PropOp55
 70
     1
102
RTVSPost2010Prop56
140
1.0
102
RTVSPost2010PropOp56
 70
     1
102
RTVSPost2010Prop57
140
1.0
102
RTVSPost2010PropOp57
 70
     1
102
RTVSPropertyOp0
 70
     1
102
RTVSPropertyOp1
 70
     1
102
RTVSPropertyOp2
 70
     1
102
RTVSPropertyOp3
 70
     1
102
RTVSPropertyOp4
 70
     1
102
RTVSPropertyOp5
 70
     1
102
RTVSPropertyOp6
 70
     1
102
RTVSPropertyOp7
 70
     1
102
RTVSPropertyOp8
 70
     1
102
RTVSPropertyOp9
 70
     1
102
RTVSPropertyOp10
 70
     1
102
RTVSPropertyOp11
 70
     1
102
RTVSPropertyOp12
 70
     1
102
RTVSPropertyOp13
 70
     1
102
RTVSPropertyOp14
 70
     1
102
RTVSPropertyOp15
 70
     1
102
RTVSPropertyOp16
 70
     1
102
RTVSPropertyOp17
 70
     1
102
RTVSPropertyOp18
 70
     1
102
RTVSPropertyOp19
 70
     1
102
RTVSPropertyOp20
 70
     1
102
RTVSPropertyOp21
 70
     1
102
RTVSPropertyOp22
 70
     1
102
RTVSPropertyOp23
 70
     1
102
RTVSPropertyOp24
 70
     1
102
RTVSPropertyOp25
 70
     1
102
RTVSPropertyOp26
 70
     1
102
RTVSPropertyOp27
 70
     1
102
RTVSPropertyOp28
 70
     1
102
RTVSPropertyOp29
 70
     1
102
RTVSPropertyOp30
 70
     1
102
RTVSPropertyOp31
 70
     1
102
RTVSPropertyOp32
 70
     1
102
RTVSPropertyOp33
 70
     1
102
RTVSPropertyOp34
 70
     1
102
RTVSPropertyOp35
 70
     1
102
RTVSPropertyOp36
 70
     1
102
RTVSPropertyOp37
 70
     1
102
RTVSPropertyOp38
 70
     1
102
RTVSPropertyOp39
 70
     1
102
RTVSPropertyOp40
 70
     1
102
RTVSPropertyOp41
 70
     1
102
RTVSPropertyOp42
 70
     1
102
RTVSPropertyOp43
 70
     1
102
RTVSPropertyOp44
 70
     1
102
RTVSPropertyOp45
 70
     1
102
RTVSPropertyOp46
 70
     1
102
RTVSPropertyOp47
 70
     1
102
RTVSPropertyOp48
 70
     1
102
RTVSPropertyOp49
 70
     1
102
RTVSPropertyOp50
 70
     1
102
RTVSPropertyOp51
 70
     0
102
RTVSPropertyOp52
 70
     0
102
RTVSPropertyOp53
 70
     1
102
RTVSPropertyOp54
 70
     1
102
RTVSPropertyOp55
 70
     1
102
RTVSPropertyOp56
 70
     1
102
RTVSPropertyOp57
 70
     1
102
RTVSPropertyOp58
 70
     1
102
RTVSPropertyOp59
 70
     1
102
RTVSPropertyOp60
 70
     1
102
RTVSPropertyOp61
 70
     1
102
RTVSPropertyOp62
 70
     1
  0
XRECORD
  5
D2DC
102
{ACAD_REACTORS
330
D2DB
102
}
330
D2DB
100
AcDbXrecord
280
     1
102
RTVSPost2010Prop28
280
     0
102
RTVSPost2010PropOp28
 70
     1
102
RTVSPost2010Prop29
280
     1
102
RTVSPost2010PropOp29
 70
     1
102
RTVSPost2010Prop30
280
     1
102
RTVSPost2010PropOp30
 70
     1
102
RTVSPost2010Prop31
280
     0
102
RTVSPost2010PropOp31
 70
     1
102
RTVSPost2010Prop32
280
     0
102
RTVSPost2010PropOp32
 70
     1
102
RTVSPost2010Prop33
280
     0
102
RTVSPost2010PropOp33
 70
     1
102
RTVSPost2010Prop34
280
     0
102
RTVSPost2010PropOp34
 70
     1
102
RTVSPost2010Prop35
280
     0
102
RTVSPost2010PropOp35
 70
     1
102
RTVSPost2010Prop36
280
     0
102
RTVSPost2010PropOp36
 70
     1
102
RTVSPost2010Prop37
 90
       50
102
RTVSPost2010PropOp37
 70
     1
102
RTVSPost2010Prop38
140
0.0
102
RTVSPost2010PropOp38
 70
     1
102
RTVSPost2010Prop39
140
1.0
102
RTVSPost2010PropOp39
 70
     1
102
RTVSPost2010Prop40
 90
        0
102
RTVSPost2010PropOp40
 70
     1
102
RTVSPost2010Prop41ColorIndex
 90
       18
102
RTVSPost2010Prop41ColorRGB
 90
        0
102
RTVSPost2010PropOp41
 70
     1
102
RTVSPost2010Prop42
 90
       50
102
RTVSPost2010PropOp42
 70
     1
102
RTVSPost2010Prop43
 90
        3
102
RTVSPost2010PropOp43
 70
     1
102
RTVSPost2010Prop44ColorIndex
 90
        5
102
RTVSPost2010Prop44ColorRGB
 90
      255
102
RTVSPost2010PropOp44
 70
     1
102
RTVSPost2010Prop45
280
     0
102
RTVSPost2010PropOp45
 70
     1
102
RTVSPost2010Prop46
 90
       50
102
RTVSPost2010PropOp46
 70
     1
102
RTVSPost2010Prop47
 90
       50
102
RTVSPost2010PropOp47
 70
     1
102
RTVSPost2010Prop48
 90
       50
102
RTVSPost2010PropOp48
 70
     1
102
RTVSPost2010Prop49
280
     0
102
RTVSPost2010PropOp49
 70
     1
102
RTVSPost2010Prop50
 90
       50
102
RTVSPost2010PropOp50
 70
     1
102
RTVSPost2010Prop51ColorIndex
 90
      256
102
RTVSPost2010Prop51ColorRGB
 90
-16777216
102
RTVSPost2010PropOp51
 70
     0
102
RTVSPost2010Prop52
140
1.0
102
RTVSPost2010PropOp52
 70
     0
102
RTVSPost2010Prop53
 90
        2
102
RTVSPost2010PropOp53
 70
     1
102
RTVSPost2010Prop54
  1
strokes_ogs.tif
102
RTVSPost2010PropOp54
 70
     1
102
RTVSPost2010Prop55
280
     0
102
RTVSPost2010PropOp55
 70
     1
102
RTVSPost2010Prop56
140
1.0
102
RTVSPost2010PropOp56
 70
     1
102
RTVSPost2010Prop57
140
1.0
102
RTVSPost2010PropOp57
 70
     1
102
RTVSPropertyOp0
 70
     1
102
RTVSPropertyOp1
 70
     1
102
RTVSPropertyOp2
 70
     1
102
RTVSPropertyOp3
 70
     1
102
RTVSPropertyOp4
 70
     1
102
RTVSPropertyOp5
 70
     1
102
RTVSPropertyOp6
 70
     1
102
RTVSPropertyOp7
 70
     1
102
RTVSPropertyOp8
 70
     1
102
RTVSPropertyOp9
 70
     1
102
RTVSPropertyOp10
 70
     1
102
RTVSPropertyOp11
 70
     1
102
RTVSPropertyOp12
 70
     1
102
RTVSPropertyOp13
 70
     1
102
RTVSPropertyOp14
 70
     1
102
RTVSPropertyOp15
 70
     1
102
RTVSPropertyOp16
 70
     1
102
RTVSPropertyOp17
 70
     1
102
RTVSPropertyOp18
 70
     1
102
RTVSPropertyOp19
 70
     1
102
RTVSPropertyOp20
 70
     1
102
RTVSPropertyOp21
 70
     1
102
RTVSPropertyOp22
 70
     1
102
RTVSPropertyOp23
 70
     1
102
RTVSPropertyOp24
 70
     1
102
RTVSPropertyOp25
 70
     1
102
RTVSPropertyOp26
 70
     1
102
RTVSPropertyOp27
 70
     1
102
RTVSPropertyOp28
 70
     1
102
RTVSPropertyOp29
 70
     1
102
RTVSPropertyOp30
 70
     1
102
RTVSPropertyOp31
 70
     1
102
RTVSPropertyOp32
 70
     1
102
RTVSPropertyOp33
 70
     1
102
RTVSPropertyOp34
 70
     1
102
RTVSPropertyOp35
 70
     1
102
RTVSPropertyOp36
 70
     1
102
RTVSPropertyOp37
 70
     1
102
RTVSPropertyOp38
 70
     1
102
RTVSPropertyOp39
 70
     1
102
RTVSPropertyOp40
 70
     1
102
RTVSPropertyOp41
 70
     1
102
RTVSPropertyOp42
 70
     1
102
RTVSPropertyOp43
 70
     1
102
RTVSPropertyOp44
 70
     1
102
RTVSPropertyOp45
 70
     1
102
RTVSPropertyOp46
 70
     1
102
RTVSPropertyOp47
 70
     1
102
RTVSPropertyOp48
 70
     1
102
RTVSPropertyOp49
 70
     1
102
RTVSPropertyOp50
 70
     1
102
RTVSPropertyOp51
 70
     0
102
RTVSPropertyOp52
 70
     0
102
RTVSPropertyOp53
 70
     1
102
RTVSPropertyOp54
 70
     1
102
RTVSPropertyOp55
 70
     1
102
RTVSPropertyOp56
 70
     1
102
RTVSPropertyOp57
 70
     1
102
RTVSPropertyOp58
 70
     1
102
RTVSPropertyOp59
 70
     1
102
RTVSPropertyOp60
 70
     1
102
RTVSPropertyOp61
 70
     1
102
RTVSPropertyOp62
 70
     1
  0
XRECORD
  5
D2DE
102
{ACAD_REACTORS
330
D2DD
102
}
330
D2DD
100
AcDbXrecord
280
     1
102
RTVSPost2010Prop28
280
     0
102
RTVSPost2010PropOp28
 70
     1
102
RTVSPost2010Prop29
280
     1
102
RTVSPost2010PropOp29
 70
     1
102
RTVSPost2010Prop30
280
     1
102
RTVSPost2010PropOp30
 70
     1
102
RTVSPost2010Prop31
280
     0
102
RTVSPost2010PropOp31
 70
     1
102
RTVSPost2010Prop32
280
     0
102
RTVSPost2010PropOp32
 70
     1
102
RTVSPost2010Prop33
280
     0
102
RTVSPost2010PropOp33
 70
     1
102
RTVSPost2010Prop34
280
     0
102
RTVSPost2010PropOp34
 70
     1
102
RTVSPost2010Prop35
280
     0
102
RTVSPost2010PropOp35
 70
     1
102
RTVSPost2010Prop36
280
     0
102
RTVSPost2010PropOp36
 70
     1
102
RTVSPost2010Prop37
 90
       50
102
RTVSPost2010PropOp37
 70
     1
102
RTVSPost2010Prop38
140
0.0
102
RTVSPost2010PropOp38
 70
     1
102
RTVSPost2010Prop39
140
1.0
102
RTVSPost2010PropOp39
 70
     1
102
RTVSPost2010Prop40
 90
        0
102
RTVSPost2010PropOp40
 70
     1
102
RTVSPost2010Prop41ColorIndex
 90
       18
102
RTVSPost2010Prop41ColorRGB
 90
        0
102
RTVSPost2010PropOp41
 70
     1
102
RTVSPost2010Prop42
 90
       50
102
RTVSPost2010PropOp42
 70
     1
102
RTVSPost2010Prop43
 90
        3
102
RTVSPost2010PropOp43
 70
     1
102
RTVSPost2010Prop44ColorIndex
 90
        5
102
RTVSPost2010Prop44ColorRGB
 90
      255
102
RTVSPost2010PropOp44
 70
     1
102
RTVSPost2010Prop45
280
     0
102
RTVSPost2010PropOp45
 70
     1
102
RTVSPost2010Prop46
 90
       50
102
RTVSPost2010PropOp46
 70
     1
102
RTVSPost2010Prop47
 90
       50
102
RTVSPost2010PropOp47
 70
     1
102
RTVSPost2010Prop48
 90
       50
102
RTVSPost2010PropOp48
 70
     1
102
RTVSPost2010Prop49
280
     0
102
RTVSPost2010PropOp49
 70
     1
102
RTVSPost2010Prop50
 90
       50
102
RTVSPost2010PropOp50
 70
     1
102
RTVSPost2010Prop51ColorIndex
 90
      256
102
RTVSPost2010Prop51ColorRGB
 90
-16777216
102
RTVSPost2010PropOp51
 70
     0
102
RTVSPost2010Prop52
140
1.0
102
RTVSPost2010PropOp52
 70
     0
102
RTVSPost2010Prop53
 90
        2
102
RTVSPost2010PropOp53
 70
     1
102
RTVSPost2010Prop54
  1
strokes_ogs.tif
102
RTVSPost2010PropOp54
 70
     1
102
RTVSPost2010Prop55
280
     0
102
RTVSPost2010PropOp55
 70
     1
102
RTVSPost2010Prop56
140
1.0
102
RTVSPost2010PropOp56
 70
     1
102
RTVSPost2010Prop57
140
1.0
102
RTVSPost2010PropOp57
 70
     1
102
RTVSPropertyOp0
 70
     1
102
RTVSPropertyOp1
 70
     1
102
RTVSPropertyOp2
 70
     1
102
RTVSPropertyOp3
 70
     1
102
RTVSPropertyOp4
 70
     1
102
RTVSPropertyOp5
 70
     1
102
RTVSPropertyOp6
 70
     1
102
RTVSPropertyOp7
 70
     1
102
RTVSPropertyOp8
 70
     1
102
RTVSPropertyOp9
 70
     1
102
RTVSPropertyOp10
 70
     1
102
RTVSPropertyOp11
 70
     1
102
RTVSPropertyOp12
 70
     1
102
RTVSPropertyOp13
 70
     1
102
RTVSPropertyOp14
 70
     1
102
RTVSPropertyOp15
 70
     1
102
RTVSPropertyOp16
 70
     1
102
RTVSPropertyOp17
 70
     1
102
RTVSPropertyOp18
 70
     1
102
RTVSPropertyOp19
 70
     1
102
RTVSPropertyOp20
 70
     1
102
RTVSPropertyOp21
 70
     1
102
RTVSPropertyOp22
 70
     1
102
RTVSPropertyOp23
 70
     1
102
RTVSPropertyOp24
 70
     1
102
RTVSPropertyOp25
 70
     1
102
RTVSPropertyOp26
 70
     1
102
RTVSPropertyOp27
 70
     1
102
RTVSPropertyOp28
 70
     1
102
RTVSPropertyOp29
 70
     1
102
RTVSPropertyOp30
 70
     1
102
RTVSPropertyOp31
 70
     1
102
RTVSPropertyOp32
 70
     1
102
RTVSPropertyOp33
 70
     1
102
RTVSPropertyOp34
 70
     1
102
RTVSPropertyOp35
 70
     1
102
RTVSPropertyOp36
 70
     1
102
RTVSPropertyOp37
 70
     1
102
RTVSPropertyOp38
 70
     1
102
RTVSPropertyOp39
 70
     1
102
RTVSPropertyOp40
 70
     1
102
RTVSPropertyOp41
 70
     1
102
RTVSPropertyOp42
 70
     1
102
RTVSPropertyOp43
 70
     1
102
RTVSPropertyOp44
 70
     1
102
RTVSPropertyOp45
 70
     1
102
RTVSPropertyOp46
 70
     1
102
RTVSPropertyOp47
 70
     1
102
RTVSPropertyOp48
 70
     1
102
RTVSPropertyOp49
 70
     1
102
RTVSPropertyOp50
 70
     1
102
RTVSPropertyOp51
 70
     0
102
RTVSPropertyOp52
 70
     0
102
RTVSPropertyOp53
 70
     1
102
RTVSPropertyOp54
 70
     1
102
RTVSPropertyOp55
 70
     1
102
RTVSPropertyOp56
 70
     1
102
RTVSPropertyOp57
 70
     1
102
RTVSPropertyOp58
 70
     1
102
RTVSPropertyOp59
 70
     1
102
RTVSPropertyOp60
 70
     1
102
RTVSPropertyOp61
 70
     1
102
RTVSPropertyOp62
 70
     1
  0
XRECORD
  5
D2E6
102
{ACAD_REACTORS
330
D2E5
102
}
330
D2E5
100
AcDbXrecord
280
     1
102
RTVSPost2010Prop28
280
     0
102
RTVSPost2010PropOp28
 70
     1
102
RTVSPost2010Prop29
280
     1
102
RTVSPost2010PropOp29
 70
     1
102
RTVSPost2010Prop30
280
     1
102
RTVSPost2010PropOp30
 70
     1
102
RTVSPost2010Prop31
280
     0
102
RTVSPost2010PropOp31
 70
     1
102
RTVSPost2010Prop32
280
     0
102
RTVSPost2010PropOp32
 70
     1
102
RTVSPost2010Prop33
280
     0
102
RTVSPost2010PropOp33
 70
     1
102
RTVSPost2010Prop34
280
     0
102
RTVSPost2010PropOp34
 70
     1
102
RTVSPost2010Prop35
280
     0
102
RTVSPost2010PropOp35
 70
     1
102
RTVSPost2010Prop36
280
     0
102
RTVSPost2010PropOp36
 70
     1
102
RTVSPost2010Prop37
 90
       50
102
RTVSPost2010PropOp37
 70
     1
102
RTVSPost2010Prop38
140
0.0
102
RTVSPost2010PropOp38
 70
     1
102
RTVSPost2010Prop39
140
1.0
102
RTVSPost2010PropOp39
 70
     1
102
RTVSPost2010Prop40
 90
        0
102
RTVSPost2010PropOp40
 70
     1
102
RTVSPost2010Prop41ColorIndex
 90
       18
102
RTVSPost2010Prop41ColorRGB
 90
        0
102
RTVSPost2010PropOp41
 70
     1
102
RTVSPost2010Prop42
 90
       50
102
RTVSPost2010PropOp42
 70
     1
102
RTVSPost2010Prop43
 90
        3
102
RTVSPost2010PropOp43
 70
     1
102
RTVSPost2010Prop44ColorIndex
 90
        5
102
RTVSPost2010Prop44ColorRGB
 90
      255
102
RTVSPost2010PropOp44
 70
     1
102
RTVSPost2010Prop45
280
     0
102
RTVSPost2010PropOp45
 70
     1
102
RTVSPost2010Prop46
 90
       50
102
RTVSPost2010PropOp46
 70
     1
102
RTVSPost2010Prop47
 90
       50
102
RTVSPost2010PropOp47
 70
     1
102
RTVSPost2010Prop48
 90
       50
102
RTVSPost2010PropOp48
 70
     1
102
RTVSPost2010Prop49
280
     0
102
RTVSPost2010PropOp49
 70
     1
102
RTVSPost2010Prop50
 90
       50
102
RTVSPost2010PropOp50
 70
     1
102
RTVSPost2010Prop51ColorIndex
 90
      256
102
RTVSPost2010Prop51ColorRGB
 90
-16777216
102
RTVSPost2010PropOp51
 70
     0
102
RTVSPost2010Prop52
140
1.0
102
RTVSPost2010PropOp52
 70
     0
102
RTVSPost2010Prop53
 90
        2
102
RTVSPost2010PropOp53
 70
     1
102
RTVSPost2010Prop54
  1
strokes_ogs.tif
102
RTVSPost2010PropOp54
 70
     1
102
RTVSPost2010Prop55
280
     0
102
RTVSPost2010PropOp55
 70
     1
102
RTVSPost2010Prop56
140
1.0
102
RTVSPost2010PropOp56
 70
     1
102
RTVSPost2010Prop57
140
1.0
102
RTVSPost2010PropOp57
 70
     1
102
RTVSPropertyOp0
 70
     1
102
RTVSPropertyOp1
 70
     1
102
RTVSPropertyOp2
 70
     1
102
RTVSPropertyOp3
 70
     1
102
RTVSPropertyOp4
 70
     1
102
RTVSPropertyOp5
 70
     1
102
RTVSPropertyOp6
 70
     1
102
RTVSPropertyOp7
 70
     1
102
RTVSPropertyOp8
 70
     1
102
RTVSPropertyOp9
 70
     1
102
RTVSPropertyOp10
 70
     1
102
RTVSPropertyOp11
 70
     1
102
RTVSPropertyOp12
 70
     1
102
RTVSPropertyOp13
 70
     1
102
RTVSPropertyOp14
 70
     1
102
RTVSPropertyOp15
 70
     1
102
RTVSPropertyOp16
 70
     1
102
RTVSPropertyOp17
 70
     1
102
RTVSPropertyOp18
 70
     1
102
RTVSPropertyOp19
 70
     1
102
RTVSPropertyOp20
 70
     1
102
RTVSPropertyOp21
 70
     1
102
RTVSPropertyOp22
 70
     1
102
RTVSPropertyOp23
 70
     1
102
RTVSPropertyOp24
 70
     1
102
RTVSPropertyOp25
 70
     1
102
RTVSPropertyOp26
 70
     1
102
RTVSPropertyOp27
 70
     1
102
RTVSPropertyOp28
 70
     1
102
RTVSPropertyOp29
 70
     1
102
RTVSPropertyOp30
 70
     1
102
RTVSPropertyOp31
 70
     1
102
RTVSPropertyOp32
 70
     1
102
RTVSPropertyOp33
 70
     1
102
RTVSPropertyOp34
 70
     1
102
RTVSPropertyOp35
 70
     1
102
RTVSPropertyOp36
 70
     1
102
RTVSPropertyOp37
 70
     1
102
RTVSPropertyOp38
 70
     1
102
RTVSPropertyOp39
 70
     1
102
RTVSPropertyOp40
 70
     1
102
RTVSPropertyOp41
 70
     1
102
RTVSPropertyOp42
 70
     1
102
RTVSPropertyOp43
 70
     1
102
RTVSPropertyOp44
 70
     1
102
RTVSPropertyOp45
 70
     1
102
RTVSPropertyOp46
 70
     1
102
RTVSPropertyOp47
 70
     1
102
RTVSPropertyOp48
 70
     1
102
RTVSPropertyOp49
 70
     1
102
RTVSPropertyOp50
 70
     1
102
RTVSPropertyOp51
 70
     0
102
RTVSPropertyOp52
 70
     0
102
RTVSPropertyOp53
 70
     1
102
RTVSPropertyOp54
 70
     1
102
RTVSPropertyOp55
 70
     1
102
RTVSPropertyOp56
 70
     1
102
RTVSPropertyOp57
 70
     1
102
RTVSPropertyOp58
 70
     1
102
RTVSPropertyOp59
 70
     1
102
RTVSPropertyOp60
 70
     1
102
RTVSPropertyOp61
 70
     1
102
RTVSPropertyOp62
 70
     1
  0
XRECORD
  5
D2FA
102
{ACAD_REACTORS
330
D2F9
102
}
330
D2F9
100
AcDbXrecord
280
     1
102
RTVSPost2010Prop28
280
     0
102
RTVSPost2010PropOp28
 70
     1
102
RTVSPost2010Prop29
280
     1
102
RTVSPost2010PropOp29
 70
     1
102
RTVSPost2010Prop30
280
     1
102
RTVSPost2010PropOp30
 70
     1
102
RTVSPost2010Prop31
280
     0
102
RTVSPost2010PropOp31
 70
     1
102
RTVSPost2010Prop32
280
     0
102
RTVSPost2010PropOp32
 70
     1
102
RTVSPost2010Prop33
280
     0
102
RTVSPost2010PropOp33
 70
     1
102
RTVSPost2010Prop34
280
     0
102
RTVSPost2010PropOp34
 70
     1
102
RTVSPost2010Prop35
280
     0
102
RTVSPost2010PropOp35
 70
     1
102
RTVSPost2010Prop36
280
     0
102
RTVSPost2010PropOp36
 70
     1
102
RTVSPost2010Prop37
 90
       50
102
RTVSPost2010PropOp37
 70
     1
102
RTVSPost2010Prop38
140
0.0
102
RTVSPost2010PropOp38
 70
     1
102
RTVSPost2010Prop39
140
1.0
102
RTVSPost2010PropOp39
 70
     1
102
RTVSPost2010Prop40
 90
        0
102
RTVSPost2010PropOp40
 70
     1
102
RTVSPost2010Prop41ColorIndex
 90
       18
102
RTVSPost2010Prop41ColorRGB
 90
        0
102
RTVSPost2010PropOp41
 70
     1
102
RTVSPost2010Prop42
 90
       50
102
RTVSPost2010PropOp42
 70
     1
102
RTVSPost2010Prop43
 90
        3
102
RTVSPost2010PropOp43
 70
     1
102
RTVSPost2010Prop44ColorIndex
 90
        5
102
RTVSPost2010Prop44ColorRGB
 90
      255
102
RTVSPost2010PropOp44
 70
     1
102
RTVSPost2010Prop45
280
     0
102
RTVSPost2010PropOp45
 70
     1
102
RTVSPost2010Prop46
 90
       50
102
RTVSPost2010PropOp46
 70
     1
102
RTVSPost2010Prop47
 90
       50
102
RTVSPost2010PropOp47
 70
     1
102
RTVSPost2010Prop48
 90
       50
102
RTVSPost2010PropOp48
 70
     1
102
RTVSPost2010Prop49
280
     0
102
RTVSPost2010PropOp49
 70
     1
102
RTVSPost2010Prop50
 90
       50
102
RTVSPost2010PropOp50
 70
     1
102
RTVSPost2010Prop51ColorIndex
 90
      256
102
RTVSPost2010Prop51ColorRGB
 90
-16777216
102
RTVSPost2010PropOp51
 70
     0
102
RTVSPost2010Prop52
140
1.0
102
RTVSPost2010PropOp52
 70
     0
102
RTVSPost2010Prop53
 90
        2
102
RTVSPost2010PropOp53
 70
     1
102
RTVSPost2010Prop54
  1
strokes_ogs.tif
102
RTVSPost2010PropOp54
 70
     1
102
RTVSPost2010Prop55
280
     0
102
RTVSPost2010PropOp55
 70
     1
102
RTVSPost2010Prop56
140
1.0
102
RTVSPost2010PropOp56
 70
     1
102
RTVSPost2010Prop57
140
1.0
102
RTVSPost2010PropOp57
 70
     1
102
RTVSPropertyOp0
 70
     0
102
RTVSPropertyOp1
 70
     0
102
RTVSPropertyOp2
 70
     0
102
RTVSPropertyOp3
 70
     0
102
RTVSPropertyOp4
 70
     0
102
RTVSPropertyOp5
 70
     0
102
RTVSPropertyOp6
 70
     0
102
RTVSPropertyOp7
 70
     0
102
RTVSPropertyOp8
 70
     0
102
RTVSPropertyOp9
 70
     0
102
RTVSPropertyOp10
 70
     0
102
RTVSPropertyOp11
 70
     0
102
RTVSPropertyOp12
 70
     0
102
RTVSPropertyOp13
 70
     0
102
RTVSPropertyOp14
 70
     2
102
RTVSPropertyOp15
 70
     0
102
RTVSPropertyOp16
 70
     0
102
RTVSPropertyOp17
 70
     0
102
RTVSPropertyOp18
 70
     0
102
RTVSPropertyOp19
 70
     0
102
RTVSPropertyOp20
 70
     0
102
RTVSPropertyOp21
 70
     0
102
RTVSPropertyOp22
 70
     0
102
RTVSPropertyOp23
 70
     0
102
RTVSPropertyOp24
 70
     0
102
RTVSPropertyOp25
 70
     0
102
RTVSPropertyOp26
 70
     0
102
RTVSPropertyOp27
 70
     0
102
RTVSPropertyOp28
 70
     1
102
RTVSPropertyOp29
 70
     1
102
RTVSPropertyOp30
 70
     1
102
RTVSPropertyOp31
 70
     1
102
RTVSPropertyOp32
 70
     1
102
RTVSPropertyOp33
 70
     1
102
RTVSPropertyOp34
 70
     1
102
RTVSPropertyOp35
 70
     1
102
RTVSPropertyOp36
 70
     1
102
RTVSPropertyOp37
 70
     1
102
RTVSPropertyOp38
 70
     1
102
RTVSPropertyOp39
 70
     1
102
RTVSPropertyOp40
 70
     1
102
RTVSPropertyOp41
 70
     1
102
RTVSPropertyOp42
 70
     1
102
RTVSPropertyOp43
 70
     1
102
RTVSPropertyOp44
 70
     1
102
RTVSPropertyOp45
 70
     1
102
RTVSPropertyOp46
 70
     1
102
RTVSPropertyOp47
 70
     1
102
RTVSPropertyOp48
 70
     1
102
RTVSPropertyOp49
 70
     1
102
RTVSPropertyOp50
 70
     1
102
RTVSPropertyOp51
 70
     0
102
RTVSPropertyOp52
 70
     0
102
RTVSPropertyOp53
 70
     1
102
RTVSPropertyOp54
 70
     1
102
RTVSPropertyOp55
 70
     1
102
RTVSPropertyOp56
 70
     1
102
RTVSPropertyOp57
 70
     1
102
RTVSPropertyOp58
 70
     1
102
RTVSPropertyOp59
 70
     1
102
RTVSPropertyOp60
 70
     1
102
RTVSPropertyOp61
 70
     1
102
RTVSPropertyOp62
 70
     1
  0
XRECORD
  5
D2F2
102
{ACAD_REACTORS
330
D2F1
102
}
330
D2F1
100
AcDbXrecord
280
     1
102
RTVSPost2010Prop28
280
     0
102
RTVSPost2010PropOp28
 70
     1
102
RTVSPost2010Prop29
280
     1
102
RTVSPost2010PropOp29
 70
     1
102
RTVSPost2010Prop30
280
     1
102
RTVSPost2010PropOp30
 70
     1
102
RTVSPost2010Prop31
280
     0
102
RTVSPost2010PropOp31
 70
     1
102
RTVSPost2010Prop32
280
     0
102
RTVSPost2010PropOp32
 70
     1
102
RTVSPost2010Prop33
280
     0
102
RTVSPost2010PropOp33
 70
     1
102
RTVSPost2010Prop34
280
     0
102
RTVSPost2010PropOp34
 70
     1
102
RTVSPost2010Prop35
280
     0
102
RTVSPost2010PropOp35
 70
     1
102
RTVSPost2010Prop36
280
     0
102
RTVSPost2010PropOp36
 70
     1
102
RTVSPost2010Prop37
 90
       50
102
RTVSPost2010PropOp37
 70
     1
102
RTVSPost2010Prop38
140
0.0
102
RTVSPost2010PropOp38
 70
     1
102
RTVSPost2010Prop39
140
1.0
102
RTVSPost2010PropOp39
 70
     1
102
RTVSPost2010Prop40
 90
        0
102
RTVSPost2010PropOp40
 70
     1
102
RTVSPost2010Prop41ColorIndex
 90
       18
102
RTVSPost2010Prop41ColorRGB
 90
        0
102
RTVSPost2010PropOp41
 70
     1
102
RTVSPost2010Prop42
 90
       50
102
RTVSPost2010PropOp42
 70
     1
102
RTVSPost2010Prop43
 90
        3
102
RTVSPost2010PropOp43
 70
     1
102
RTVSPost2010Prop44ColorIndex
 90
        5
102
RTVSPost2010Prop44ColorRGB
 90
      255
102
RTVSPost2010PropOp44
 70
     1
102
RTVSPost2010Prop45
280
     0
102
RTVSPost2010PropOp45
 70
     1
102
RTVSPost2010Prop46
 90
       50
102
RTVSPost2010PropOp46
 70
     1
102
RTVSPost2010Prop47
 90
       50
102
RTVSPost2010PropOp47
 70
     1
102
RTVSPost2010Prop48
 90
       50
102
RTVSPost2010PropOp48
 70
     1
102
RTVSPost2010Prop49
280
     0
102
RTVSPost2010PropOp49
 70
     1
102
RTVSPost2010Prop50
 90
       50
102
RTVSPost2010PropOp50
 70
     1
102
RTVSPost2010Prop51ColorIndex
 90
      256
102
RTVSPost2010Prop51ColorRGB
 90
-16777216
102
RTVSPost2010PropOp51
 70
     0
102
RTVSPost2010Prop52
140
1.0
102
RTVSPost2010PropOp52
 70
     0
102
RTVSPost2010Prop53
 90
        2
102
RTVSPost2010PropOp53
 70
     1
102
RTVSPost2010Prop54
  1
strokes_ogs.tif
102
RTVSPost2010PropOp54
 70
     1
102
RTVSPost2010Prop55
280
     0
102
RTVSPost2010PropOp55
 70
     1
102
RTVSPost2010Prop56
140
1.0
102
RTVSPost2010PropOp56
 70
     1
102
RTVSPost2010Prop57
140
1.0
102
RTVSPost2010PropOp57
 70
     1
102
RTVSPropertyOp0
 70
     1
102
RTVSPropertyOp1
 70
     1
102
RTVSPropertyOp2
 70
     1
102
RTVSPropertyOp3
 70
     1
102
RTVSPropertyOp4
 70
     1
102
RTVSPropertyOp5
 70
     1
102
RTVSPropertyOp6
 70
     1
102
RTVSPropertyOp7
 70
     1
102
RTVSPropertyOp8
 70
     1
102
RTVSPropertyOp9
 70
     1
102
RTVSPropertyOp10
 70
     1
102
RTVSPropertyOp11
 70
     1
102
RTVSPropertyOp12
 70
     1
102
RTVSPropertyOp13
 70
     1
102
RTVSPropertyOp14
 70
     1
102
RTVSPropertyOp15
 70
     1
102
RTVSPropertyOp16
 70
     1
102
RTVSPropertyOp17
 70
     1
102
RTVSPropertyOp18
 70
     1
102
RTVSPropertyOp19
 70
     1
102
RTVSPropertyOp20
 70
     1
102
RTVSPropertyOp21
 70
     1
102
RTVSPropertyOp22
 70
     1
102
RTVSPropertyOp23
 70
     1
102
RTVSPropertyOp24
 70
     1
102
RTVSPropertyOp25
 70
     1
102
RTVSPropertyOp26
 70
     1
102
RTVSPropertyOp27
 70
     1
102
RTVSPropertyOp28
 70
     1
102
RTVSPropertyOp29
 70
     1
102
RTVSPropertyOp30
 70
     1
102
RTVSPropertyOp31
 70
     1
102
RTVSPropertyOp32
 70
     1
102
RTVSPropertyOp33
 70
     1
102
RTVSPropertyOp34
 70
     1
102
RTVSPropertyOp35
 70
     1
102
RTVSPropertyOp36
 70
     1
102
RTVSPropertyOp37
 70
     1
102
RTVSPropertyOp38
 70
     1
102
RTVSPropertyOp39
 70
     1
102
RTVSPropertyOp40
 70
     1
102
RTVSPropertyOp41
 70
     1
102
RTVSPropertyOp42
 70
     1
102
RTVSPropertyOp43
 70
     1
102
RTVSPropertyOp44
 70
     1
102
RTVSPropertyOp45
 70
     1
102
RTVSPropertyOp46
 70
     1
102
RTVSPropertyOp47
 70
     1
102
RTVSPropertyOp48
 70
     1
102
RTVSPropertyOp49
 70
     1
102
RTVSPropertyOp50
 70
     1
102
RTVSPropertyOp51
 70
     0
102
RTVSPropertyOp52
 70
     0
102
RTVSPropertyOp53
 70
     1
102
RTVSPropertyOp54
 70
     1
102
RTVSPropertyOp55
 70
     1
102
RTVSPropertyOp56
 70
     1
102
RTVSPropertyOp57
 70
     1
102
RTVSPropertyOp58
 70
     1
102
RTVSPropertyOp59
 70
     1
102
RTVSPropertyOp60
 70
     1
102
RTVSPropertyOp61
 70
     1
102
RTVSPropertyOp62
 70
     1
  0
XRECORD
  5
D2FC
102
{ACAD_REACTORS
330
D2FB
102
}
330
D2FB
100
AcDbXrecord
280
     1
102
RTVSPost2010Prop28
280
     0
102
RTVSPost2010PropOp28
 70
     1
102
RTVSPost2010Prop29
280
     1
102
RTVSPost2010PropOp29
 70
     1
102
RTVSPost2010Prop30
280
     1
102
RTVSPost2010PropOp30
 70
     1
102
RTVSPost2010Prop31
280
     0
102
RTVSPost2010PropOp31
 70
     1
102
RTVSPost2010Prop32
280
     0
102
RTVSPost2010PropOp32
 70
     1
102
RTVSPost2010Prop33
280
     0
102
RTVSPost2010PropOp33
 70
     1
102
RTVSPost2010Prop34
280
     0
102
RTVSPost2010PropOp34
 70
     1
102
RTVSPost2010Prop35
280
     0
102
RTVSPost2010PropOp35
 70
     1
102
RTVSPost2010Prop36
280
     0
102
RTVSPost2010PropOp36
 70
     1
102
RTVSPost2010Prop37
 90
       50
102
RTVSPost2010PropOp37
 70
     1
102
RTVSPost2010Prop38
140
0.0
102
RTVSPost2010PropOp38
 70
     1
102
RTVSPost2010Prop39
140
1.0
102
RTVSPost2010PropOp39
 70
     1
102
RTVSPost2010Prop40
 90
        0
102
RTVSPost2010PropOp40
 70
     1
102
RTVSPost2010Prop41ColorIndex
 90
       18
102
RTVSPost2010Prop41ColorRGB
 90
        0
102
RTVSPost2010PropOp41
 70
     1
102
RTVSPost2010Prop42
 90
       50
102
RTVSPost2010PropOp42
 70
     1
102
RTVSPost2010Prop43
 90
        3
102
RTVSPost2010PropOp43
 70
     1
102
RTVSPost2010Prop44ColorIndex
 90
        5
102
RTVSPost2010Prop44ColorRGB
 90
      255
102
RTVSPost2010PropOp44
 70
     1
102
RTVSPost2010Prop45
280
     0
102
RTVSPost2010PropOp45
 70
     1
102
RTVSPost2010Prop46
 90
       50
102
RTVSPost2010PropOp46
 70
     1
102
RTVSPost2010Prop47
 90
       50
102
RTVSPost2010PropOp47
 70
     1
102
RTVSPost2010Prop48
 90
       50
102
RTVSPost2010PropOp48
 70
     1
102
RTVSPost2010Prop49
280
     0
102
RTVSPost2010PropOp49
 70
     1
102
RTVSPost2010Prop50
 90
       50
102
RTVSPost2010PropOp50
 70
     1
102
RTVSPost2010Prop51ColorIndex
 90
      256
102
RTVSPost2010Prop51ColorRGB
 90
-16777216
102
RTVSPost2010PropOp51
 70
     0
102
RTVSPost2010Prop52
140
1.0
102
RTVSPost2010PropOp52
 70
     0
102
RTVSPost2010Prop53
 90
        2
102
RTVSPost2010PropOp53
 70
     1
102
RTVSPost2010Prop54
  1
strokes_ogs.tif
102
RTVSPost2010PropOp54
 70
     1
102
RTVSPost2010Prop55
280
     0
102
RTVSPost2010PropOp55
 70
     1
102
RTVSPost2010Prop56
140
1.0
102
RTVSPost2010PropOp56
 70
     1
102
RTVSPost2010Prop57
140
1.0
102
RTVSPost2010PropOp57
 70
     1
102
RTVSPropertyOp0
 70
     0
102
RTVSPropertyOp1
 70
     0
102
RTVSPropertyOp2
 70
     0
102
RTVSPropertyOp3
 70
     0
102
RTVSPropertyOp4
 70
     0
102
RTVSPropertyOp5
 70
     0
102
RTVSPropertyOp6
 70
     0
102
RTVSPropertyOp7
 70
     0
102
RTVSPropertyOp8
 70
     0
102
RTVSPropertyOp9
 70
     0
102
RTVSPropertyOp10
 70
     0
102
RTVSPropertyOp11
 70
     0
102
RTVSPropertyOp12
 70
     0
102
RTVSPropertyOp13
 70
     0
102
RTVSPropertyOp14
 70
     2
102
RTVSPropertyOp15
 70
     0
102
RTVSPropertyOp16
 70
     0
102
RTVSPropertyOp17
 70
     0
102
RTVSPropertyOp18
 70
     0
102
RTVSPropertyOp19
 70
     0
102
RTVSPropertyOp20
 70
     0
102
RTVSPropertyOp21
 70
     0
102
RTVSPropertyOp22
 70
     0
102
RTVSPropertyOp23
 70
     0
102
RTVSPropertyOp24
 70
     0
102
RTVSPropertyOp25
 70
     0
102
RTVSPropertyOp26
 70
     0
102
RTVSPropertyOp27
 70
     0
102
RTVSPropertyOp28
 70
     1
102
RTVSPropertyOp29
 70
     1
102
RTVSPropertyOp30
 70
     1
102
RTVSPropertyOp31
 70
     1
102
RTVSPropertyOp32
 70
     1
102
RTVSPropertyOp33
 70
     1
102
RTVSPropertyOp34
 70
     1
102
RTVSPropertyOp35
 70
     1
102
RTVSPropertyOp36
 70
     1
102
RTVSPropertyOp37
 70
     1
102
RTVSPropertyOp38
 70
     1
102
RTVSPropertyOp39
 70
     1
102
RTVSPropertyOp40
 70
     1
102
RTVSPropertyOp41
 70
     1
102
RTVSPropertyOp42
 70
     1
102
RTVSPropertyOp43
 70
     1
102
RTVSPropertyOp44
 70
     1
102
RTVSPropertyOp45
 70
     1
102
RTVSPropertyOp46
 70
     1
102
RTVSPropertyOp47
 70
     1
102
RTVSPropertyOp48
 70
     1
102
RTVSPropertyOp49
 70
     1
102
RTVSPropertyOp50
 70
     1
102
RTVSPropertyOp51
 70
     0
102
RTVSPropertyOp52
 70
     0
102
RTVSPropertyOp53
 70
     1
102
RTVSPropertyOp54
 70
     1
102
RTVSPropertyOp55
 70
     1
102
RTVSPropertyOp56
 70
     1
102
RTVSPropertyOp57
 70
     1
102
RTVSPropertyOp58
 70
     1
102
RTVSPropertyOp59
 70
     1
102
RTVSPropertyOp60
 70
     1
102
RTVSPropertyOp61
 70
     1
102
RTVSPropertyOp62
 70
     1
  0
XRECORD
  5
D2EA
102
{ACAD_REACTORS
330
D2E9
102
}
330
D2E9
100
AcDbXrecord
280
     1
102
RTVSPost2010Prop28
280
     0
102
RTVSPost2010PropOp28
 70
     1
102
RTVSPost2010Prop29
280
     1
102
RTVSPost2010PropOp29
 70
     1
102
RTVSPost2010Prop30
280
     1
102
RTVSPost2010PropOp30
 70
     1
102
RTVSPost2010Prop31
280
     0
102
RTVSPost2010PropOp31
 70
     1
102
RTVSPost2010Prop32
280
     0
102
RTVSPost2010PropOp32
 70
     1
102
RTVSPost2010Prop33
280
     0
102
RTVSPost2010PropOp33
 70
     1
102
RTVSPost2010Prop34
280
     0
102
RTVSPost2010PropOp34
 70
     1
102
RTVSPost2010Prop35
280
     0
102
RTVSPost2010PropOp35
 70
     1
102
RTVSPost2010Prop36
280
     0
102
RTVSPost2010PropOp36
 70
     1
102
RTVSPost2010Prop37
 90
       50
102
RTVSPost2010PropOp37
 70
     1
102
RTVSPost2010Prop38
140
0.0
102
RTVSPost2010PropOp38
 70
     1
102
RTVSPost2010Prop39
140
1.0
102
RTVSPost2010PropOp39
 70
     1
102
RTVSPost2010Prop40
 90
        0
102
RTVSPost2010PropOp40
 70
     1
102
RTVSPost2010Prop41ColorIndex
 90
       18
102
RTVSPost2010Prop41ColorRGB
 90
        0
102
RTVSPost2010PropOp41
 70
     1
102
RTVSPost2010Prop42
 90
       50
102
RTVSPost2010PropOp42
 70
     1
102
RTVSPost2010Prop43
 90
        3
102
RTVSPost2010PropOp43
 70
     1
102
RTVSPost2010Prop44ColorIndex
 90
        5
102
RTVSPost2010Prop44ColorRGB
 90
      255
102
RTVSPost2010PropOp44
 70
     1
102
RTVSPost2010Prop45
280
     0
102
RTVSPost2010PropOp45
 70
     1
102
RTVSPost2010Prop46
 90
       50
102
RTVSPost2010PropOp46
 70
     1
102
RTVSPost2010Prop47
 90
       50
102
RTVSPost2010PropOp47
 70
     1
102
RTVSPost2010Prop48
 90
       50
102
RTVSPost2010PropOp48
 70
     1
102
RTVSPost2010Prop49
280
     0
102
RTVSPost2010PropOp49
 70
     1
102
RTVSPost2010Prop50
 90
       50
102
RTVSPost2010PropOp50
 70
     1
102
RTVSPost2010Prop51ColorIndex
 90
      256
102
RTVSPost2010Prop51ColorRGB
 90
-16777216
102
RTVSPost2010PropOp51
 70
     0
102
RTVSPost2010Prop52
140
1.0
102
RTVSPost2010PropOp52
 70
     0
102
RTVSPost2010Prop53
 90
        2
102
RTVSPost2010PropOp53
 70
     1
102
RTVSPost2010Prop54
  1
strokes_ogs.tif
102
RTVSPost2010PropOp54
 70
     1
102
RTVSPost2010Prop55
280
     0
102
RTVSPost2010PropOp55
 70
     1
102
RTVSPost2010Prop56
140
1.0
102
RTVSPost2010PropOp56
 70
     1
102
RTVSPost2010Prop57
140
1.0
102
RTVSPost2010PropOp57
 70
     1
102
RTVSPropertyOp0
 70
     1
102
RTVSPropertyOp1
 70
     1
102
RTVSPropertyOp2
 70
     1
102
RTVSPropertyOp3
 70
     1
102
RTVSPropertyOp4
 70
     1
102
RTVSPropertyOp5
 70
     1
102
RTVSPropertyOp6
 70
     1
102
RTVSPropertyOp7
 70
     1
102
RTVSPropertyOp8
 70
     1
102
RTVSPropertyOp9
 70
     1
102
RTVSPropertyOp10
 70
     1
102
RTVSPropertyOp11
 70
     1
102
RTVSPropertyOp12
 70
     1
102
RTVSPropertyOp13
 70
     1
102
RTVSPropertyOp14
 70
     1
102
RTVSPropertyOp15
 70
     1
102
RTVSPropertyOp16
 70
     1
102
RTVSPropertyOp17
 70
     1
102
RTVSPropertyOp18
 70
     1
102
RTVSPropertyOp19
 70
     1
102
RTVSPropertyOp20
 70
     1
102
RTVSPropertyOp21
 70
     1
102
RTVSPropertyOp22
 70
     1
102
RTVSPropertyOp23
 70
     1
102
RTVSPropertyOp24
 70
     1
102
RTVSPropertyOp25
 70
     1
102
RTVSPropertyOp26
 70
     1
102
RTVSPropertyOp27
 70
     1
102
RTVSPropertyOp28
 70
     1
102
RTVSPropertyOp29
 70
     1
102
RTVSPropertyOp30
 70
     1
102
RTVSPropertyOp31
 70
     1
102
RTVSPropertyOp32
 70
     1
102
RTVSPropertyOp33
 70
     1
102
RTVSPropertyOp34
 70
     1
102
RTVSPropertyOp35
 70
     1
102
RTVSPropertyOp36
 70
     1
102
RTVSPropertyOp37
 70
     1
102
RTVSPropertyOp38
 70
     1
102
RTVSPropertyOp39
 70
     1
102
RTVSPropertyOp40
 70
     1
102
RTVSPropertyOp41
 70
     1
102
RTVSPropertyOp42
 70
     1
102
RTVSPropertyOp43
 70
     1
102
RTVSPropertyOp44
 70
     1
102
RTVSPropertyOp45
 70
     1
102
RTVSPropertyOp46
 70
     1
102
RTVSPropertyOp47
 70
     1
102
RTVSPropertyOp48
 70
     1
102
RTVSPropertyOp49
 70
     1
102
RTVSPropertyOp50
 70
     1
102
RTVSPropertyOp51
 70
     0
102
RTVSPropertyOp52
 70
     0
102
RTVSPropertyOp53
 70
     1
102
RTVSPropertyOp54
 70
     1
102
RTVSPropertyOp55
 70
     1
102
RTVSPropertyOp56
 70
     1
102
RTVSPropertyOp57
 70
     1
102
RTVSPropertyOp58
 70
     1
102
RTVSPropertyOp59
 70
     1
102
RTVSPropertyOp60
 70
     1
102
RTVSPropertyOp61
 70
     1
102
RTVSPropertyOp62
 70
     1
  0
XRECORD
  5
D308
102
{ACAD_REACTORS
330
D307
102
}
330
D307
100
AcDbXrecord
280
     1
102
RTVSPost2010Prop28
280
     0
102
RTVSPost2010PropOp28
 70
     1
102
RTVSPost2010Prop29
280
     1
102
RTVSPost2010PropOp29
 70
     1
102
RTVSPost2010Prop30
280
     1
102
RTVSPost2010PropOp30
 70
     1
102
RTVSPost2010Prop31
280
     0
102
RTVSPost2010PropOp31
 70
     1
102
RTVSPost2010Prop32
280
     0
102
RTVSPost2010PropOp32
 70
     1
102
RTVSPost2010Prop33
280
     0
102
RTVSPost2010PropOp33
 70
     1
102
RTVSPost2010Prop34
280
     0
102
RTVSPost2010PropOp34
 70
     1
102
RTVSPost2010Prop35
280
     0
102
RTVSPost2010PropOp35
 70
     1
102
RTVSPost2010Prop36
280
     0
102
RTVSPost2010PropOp36
 70
     1
102
RTVSPost2010Prop37
 90
       50
102
RTVSPost2010PropOp37
 70
     1
102
RTVSPost2010Prop38
140
0.0
102
RTVSPost2010PropOp38
 70
     1
102
RTVSPost2010Prop39
140
1.0
102
RTVSPost2010PropOp39
 70
     1
102
RTVSPost2010Prop40
 90
        0
102
RTVSPost2010PropOp40
 70
     1
102
RTVSPost2010Prop41ColorIndex
 90
       18
102
RTVSPost2010Prop41ColorRGB
 90
        0
102
RTVSPost2010PropOp41
 70
     1
102
RTVSPost2010Prop42
 90
       50
102
RTVSPost2010PropOp42
 70
     1
102
RTVSPost2010Prop43
 90
        3
102
RTVSPost2010PropOp43
 70
     1
102
RTVSPost2010Prop44ColorIndex
 90
        5
102
RTVSPost2010Prop44ColorRGB
 90
      255
102
RTVSPost2010PropOp44
 70
     1
102
RTVSPost2010Prop45
280
     0
102
RTVSPost2010PropOp45
 70
     1
102
RTVSPost2010Prop46
 90
       50
102
RTVSPost2010PropOp46
 70
     1
102
RTVSPost2010Prop47
 90
       50
102
RTVSPost2010PropOp47
 70
     1
102
RTVSPost2010Prop48
 90
       50
102
RTVSPost2010PropOp48
 70
     1
102
RTVSPost2010Prop49
280
     0
102
RTVSPost2010PropOp49
 70
     1
102
RTVSPost2010Prop50
 90
       50
102
RTVSPost2010PropOp50
 70
     1
102
RTVSPost2010Prop51ColorIndex
 90
      256
102
RTVSPost2010Prop51ColorRGB
 90
-16777216
102
RTVSPost2010PropOp51
 70
     0
102
RTVSPost2010Prop52
140
1.0
102
RTVSPost2010PropOp52
 70
     0
102
RTVSPost2010Prop53
 90
        2
102
RTVSPost2010PropOp53
 70
     1
102
RTVSPost2010Prop54
  1
strokes_ogs.tif
102
RTVSPost2010PropOp54
 70
     1
102
RTVSPost2010Prop55
280
     0
102
RTVSPost2010PropOp55
 70
     1
102
RTVSPost2010Prop56
140
1.0
102
RTVSPost2010PropOp56
 70
     1
102
RTVSPost2010Prop57
140
1.0
102
RTVSPost2010PropOp57
 70
     1
102
RTVSPropertyOp0
 70
     1
102
RTVSPropertyOp1
 70
     1
102
RTVSPropertyOp2
 70
     1
102
RTVSPropertyOp3
 70
     1
102
RTVSPropertyOp4
 70
     1
102
RTVSPropertyOp5
 70
     1
102
RTVSPropertyOp6
 70
     1
102
RTVSPropertyOp7
 70
     1
102
RTVSPropertyOp8
 70
     1
102
RTVSPropertyOp9
 70
     1
102
RTVSPropertyOp10
 70
     1
102
RTVSPropertyOp11
 70
     1
102
RTVSPropertyOp12
 70
     1
102
RTVSPropertyOp13
 70
     1
102
RTVSPropertyOp14
 70
     1
102
RTVSPropertyOp15
 70
     1
102
RTVSPropertyOp16
 70
     1
102
RTVSPropertyOp17
 70
     1
102
RTVSPropertyOp18
 70
     1
102
RTVSPropertyOp19
 70
     1
102
RTVSPropertyOp20
 70
     1
102
RTVSPropertyOp21
 70
     1
102
RTVSPropertyOp22
 70
     1
102
RTVSPropertyOp23
 70
     1
102
RTVSPropertyOp24
 70
     1
102
RTVSPropertyOp25
 70
     1
102
RTVSPropertyOp26
 70
     1
102
RTVSPropertyOp27
 70
     1
102
RTVSPropertyOp28
 70
     1
102
RTVSPropertyOp29
 70
     1
102
RTVSPropertyOp30
 70
     1
102
RTVSPropertyOp31
 70
     1
102
RTVSPropertyOp32
 70
     1
102
RTVSPropertyOp33
 70
     1
102
RTVSPropertyOp34
 70
     1
102
RTVSPropertyOp35
 70
     1
102
RTVSPropertyOp36
 70
     1
102
RTVSPropertyOp37
 70
     1
102
RTVSPropertyOp38
 70
     1
102
RTVSPropertyOp39
 70
     1
102
RTVSPropertyOp40
 70
     1
102
RTVSPropertyOp41
 70
     1
102
RTVSPropertyOp42
 70
     1
102
RTVSPropertyOp43
 70
     1
102
RTVSPropertyOp44
 70
     1
102
RTVSPropertyOp45
 70
     1
102
RTVSPropertyOp46
 70
     1
102
RTVSPropertyOp47
 70
     1
102
RTVSPropertyOp48
 70
     1
102
RTVSPropertyOp49
 70
     1
102
RTVSPropertyOp50
 70
     1
102
RTVSPropertyOp51
 70
     0
102
RTVSPropertyOp52
 70
     0
102
RTVSPropertyOp53
 70
     1
102
RTVSPropertyOp54
 70
     1
102
RTVSPropertyOp55
 70
     1
102
RTVSPropertyOp56
 70
     1
102
RTVSPropertyOp57
 70
     1
102
RTVSPropertyOp58
 70
     1
102
RTVSPropertyOp59
 70
     1
102
RTVSPropertyOp60
 70
     1
102
RTVSPropertyOp61
 70
     1
102
RTVSPropertyOp62
 70
     1
  0
XRECORD
  5
D306
102
{ACAD_REACTORS
330
D305
102
}
330
D305
100
AcDbXrecord
280
     1
102
RTVSPost2010Prop28
280
     0
102
RTVSPost2010PropOp28
 70
     1
102
RTVSPost2010Prop29
280
     1
102
RTVSPost2010PropOp29
 70
     1
102
RTVSPost2010Prop30
280
     1
102
RTVSPost2010PropOp30
 70
     1
102
RTVSPost2010Prop31
280
     0
102
RTVSPost2010PropOp31
 70
     1
102
RTVSPost2010Prop32
280
     0
102
RTVSPost2010PropOp32
 70
     1
102
RTVSPost2010Prop33
280
     0
102
RTVSPost2010PropOp33
 70
     1
102
RTVSPost2010Prop34
280
     0
102
RTVSPost2010PropOp34
 70
     1
102
RTVSPost2010Prop35
280
     0
102
RTVSPost2010PropOp35
 70
     1
102
RTVSPost2010Prop36
280
     0
102
RTVSPost2010PropOp36
 70
     1
102
RTVSPost2010Prop37
 90
       50
102
RTVSPost2010PropOp37
 70
     1
102
RTVSPost2010Prop38
140
0.0
102
RTVSPost2010PropOp38
 70
     1
102
RTVSPost2010Prop39
140
1.0
102
RTVSPost2010PropOp39
 70
     1
102
RTVSPost2010Prop40
 90
        0
102
RTVSPost2010PropOp40
 70
     1
102
RTVSPost2010Prop41ColorIndex
 90
       18
102
RTVSPost2010Prop41ColorRGB
 90
        0
102
RTVSPost2010PropOp41
 70
     1
102
RTVSPost2010Prop42
 90
       50
102
RTVSPost2010PropOp42
 70
     1
102
RTVSPost2010Prop43
 90
        3
102
RTVSPost2010PropOp43
 70
     1
102
RTVSPost2010Prop44ColorIndex
 90
        5
102
RTVSPost2010Prop44ColorRGB
 90
      255
102
RTVSPost2010PropOp44
 70
     1
102
RTVSPost2010Prop45
280
     0
102
RTVSPost2010PropOp45
 70
     1
102
RTVSPost2010Prop46
 90
       50
102
RTVSPost2010PropOp46
 70
     1
102
RTVSPost2010Prop47
 90
       50
102
RTVSPost2010PropOp47
 70
     1
102
RTVSPost2010Prop48
 90
       50
102
RTVSPost2010PropOp48
 70
     1
102
RTVSPost2010Prop49
280
     0
102
RTVSPost2010PropOp49
 70
     1
102
RTVSPost2010Prop50
 90
       50
102
RTVSPost2010PropOp50
 70
     1
102
RTVSPost2010Prop51ColorIndex
 90
      256
102
RTVSPost2010Prop51ColorRGB
 90
-16777216
102
RTVSPost2010PropOp51
 70
     0
102
RTVSPost2010Prop52
140
1.0
102
RTVSPost2010PropOp52
 70
     0
102
RTVSPost2010Prop53
 90
        2
102
RTVSPost2010PropOp53
 70
     1
102
RTVSPost2010Prop54
  1
strokes_ogs.tif
102
RTVSPost2010PropOp54
 70
     1
102
RTVSPost2010Prop55
280
     0
102
RTVSPost2010PropOp55
 70
     1
102
RTVSPost2010Prop56
140
1.0
102
RTVSPost2010PropOp56
 70
     1
102
RTVSPost2010Prop57
140
1.0
102
RTVSPost2010PropOp57
 70
     1
102
RTVSPropertyOp0
 70
     1
102
RTVSPropertyOp1
 70
     1
102
RTVSPropertyOp2
 70
     1
102
RTVSPropertyOp3
 70
     1
102
RTVSPropertyOp4
 70
     1
102
RTVSPropertyOp5
 70
     1
102
RTVSPropertyOp6
 70
     1
102
RTVSPropertyOp7
 70
     1
102
RTVSPropertyOp8
 70
     1
102
RTVSPropertyOp9
 70
     1
102
RTVSPropertyOp10
 70
     1
102
RTVSPropertyOp11
 70
     1
102
RTVSPropertyOp12
 70
     1
102
RTVSPropertyOp13
 70
     1
102
RTVSPropertyOp14
 70
     1
102
RTVSPropertyOp15
 70
     1
102
RTVSPropertyOp16
 70
     1
102
RTVSPropertyOp17
 70
     1
102
RTVSPropertyOp18
 70
     1
102
RTVSPropertyOp19
 70
     1
102
RTVSPropertyOp20
 70
     1
102
RTVSPropertyOp21
 70
     1
102
RTVSPropertyOp22
 70
     1
102
RTVSPropertyOp23
 70
     1
102
RTVSPropertyOp24
 70
     1
102
RTVSPropertyOp25
 70
     1
102
RTVSPropertyOp26
 70
     1
102
RTVSPropertyOp27
 70
     1
102
RTVSPropertyOp28
 70
     1
102
RTVSPropertyOp29
 70
     1
102
RTVSPropertyOp30
 70
     1
102
RTVSPropertyOp31
 70
     1
102
RTVSPropertyOp32
 70
     1
102
RTVSPropertyOp33
 70
     1
102
RTVSPropertyOp34
 70
     1
102
RTVSPropertyOp35
 70
     1
102
RTVSPropertyOp36
 70
     1
102
RTVSPropertyOp37
 70
     1
102
RTVSPropertyOp38
 70
     1
102
RTVSPropertyOp39
 70
     1
102
RTVSPropertyOp40
 70
     1
102
RTVSPropertyOp41
 70
     1
102
RTVSPropertyOp42
 70
     1
102
RTVSPropertyOp43
 70
     1
102
RTVSPropertyOp44
 70
     1
102
RTVSPropertyOp45
 70
     1
102
RTVSPropertyOp46
 70
     1
102
RTVSPropertyOp47
 70
     1
102
RTVSPropertyOp48
 70
     1
102
RTVSPropertyOp49
 70
     1
102
RTVSPropertyOp50
 70
     1
102
RTVSPropertyOp51
 70
     0
102
RTVSPropertyOp52
 70
     0
102
RTVSPropertyOp53
 70
     1
102
RTVSPropertyOp54
 70
     1
102
RTVSPropertyOp55
 70
     1
102
RTVSPropertyOp56
 70
     1
102
RTVSPropertyOp57
 70
     1
102
RTVSPropertyOp58
 70
     1
102
RTVSPropertyOp59
 70
     1
102
RTVSPropertyOp60
 70
     1
102
RTVSPropertyOp61
 70
     1
102
RTVSPropertyOp62
 70
     1
  0
XRECORD
  5
D300
102
{ACAD_REACTORS
330
D2FF
102
}
330
D2FF
100
AcDbXrecord
280
     1
102
RTVSPost2010Prop28
280
     0
102
RTVSPost2010PropOp28
 70
     1
102
RTVSPost2010Prop29
280
     1
102
RTVSPost2010PropOp29
 70
     1
102
RTVSPost2010Prop30
280
     1
102
RTVSPost2010PropOp30
 70
     1
102
RTVSPost2010Prop31
280
     0
102
RTVSPost2010PropOp31
 70
     1
102
RTVSPost2010Prop32
280
     0
102
RTVSPost2010PropOp32
 70
     1
102
RTVSPost2010Prop33
280
     0
102
RTVSPost2010PropOp33
 70
     1
102
RTVSPost2010Prop34
280
     0
102
RTVSPost2010PropOp34
 70
     1
102
RTVSPost2010Prop35
280
     0
102
RTVSPost2010PropOp35
 70
     1
102
RTVSPost2010Prop36
280
     0
102
RTVSPost2010PropOp36
 70
     1
102
RTVSPost2010Prop37
 90
       50
102
RTVSPost2010PropOp37
 70
     1
102
RTVSPost2010Prop38
140
0.0
102
RTVSPost2010PropOp38
 70
     1
102
RTVSPost2010Prop39
140
1.0
102
RTVSPost2010PropOp39
 70
     1
102
RTVSPost2010Prop40
 90
        0
102
RTVSPost2010PropOp40
 70
     1
102
RTVSPost2010Prop41ColorIndex
 90
       18
102
RTVSPost2010Prop41ColorRGB
 90
        0
102
RTVSPost2010PropOp41
 70
     1
102
RTVSPost2010Prop42
 90
       50
102
RTVSPost2010PropOp42
 70
     1
102
RTVSPost2010Prop43
 90
        3
102
RTVSPost2010PropOp43
 70
     1
102
RTVSPost2010Prop44ColorIndex
 90
        5
102
RTVSPost2010Prop44ColorRGB
 90
      255
102
RTVSPost2010PropOp44
 70
     1
102
RTVSPost2010Prop45
280
     0
102
RTVSPost2010PropOp45
 70
     1
102
RTVSPost2010Prop46
 90
       50
102
RTVSPost2010PropOp46
 70
     1
102
RTVSPost2010Prop47
 90
       50
102
RTVSPost2010PropOp47
 70
     1
102
RTVSPost2010Prop48
 90
       50
102
RTVSPost2010PropOp48
 70
     1
102
RTVSPost2010Prop49
280
     0
102
RTVSPost2010PropOp49
 70
     1
102
RTVSPost2010Prop50
 90
       50
102
RTVSPost2010PropOp50
 70
     1
102
RTVSPost2010Prop51ColorIndex
 90
      256
102
RTVSPost2010Prop51ColorRGB
 90
-16777216
102
RTVSPost2010PropOp51
 70
     0
102
RTVSPost2010Prop52
140
1.0
102
RTVSPost2010PropOp52
 70
     0
102
RTVSPost2010Prop53
 90
        2
102
RTVSPost2010PropOp53
 70
     1
102
RTVSPost2010Prop54
  1
strokes_ogs.tif
102
RTVSPost2010PropOp54
 70
     1
102
RTVSPost2010Prop55
280
     0
102
RTVSPost2010PropOp55
 70
     1
102
RTVSPost2010Prop56
140
1.0
102
RTVSPost2010PropOp56
 70
     1
102
RTVSPost2010Prop57
140
1.0
102
RTVSPost2010PropOp57
 70
     1
102
RTVSPropertyOp0
 70
     1
102
RTVSPropertyOp1
 70
     1
102
RTVSPropertyOp2
 70
     1
102
RTVSPropertyOp3
 70
     1
102
RTVSPropertyOp4
 70
     1
102
RTVSPropertyOp5
 70
     1
102
RTVSPropertyOp6
 70
     1
102
RTVSPropertyOp7
 70
     1
102
RTVSPropertyOp8
 70
     1
102
RTVSPropertyOp9
 70
     1
102
RTVSPropertyOp10
 70
     1
102
RTVSPropertyOp11
 70
     1
102
RTVSPropertyOp12
 70
     1
102
RTVSPropertyOp13
 70
     1
102
RTVSPropertyOp14
 70
     1
102
RTVSPropertyOp15
 70
     1
102
RTVSPropertyOp16
 70
     1
102
RTVSPropertyOp17
 70
     1
102
RTVSPropertyOp18
 70
     1
102
RTVSPropertyOp19
 70
     1
102
RTVSPropertyOp20
 70
     1
102
RTVSPropertyOp21
 70
     1
102
RTVSPropertyOp22
 70
     1
102
RTVSPropertyOp23
 70
     1
102
RTVSPropertyOp24
 70
     1
102
RTVSPropertyOp25
 70
     1
102
RTVSPropertyOp26
 70
     1
102
RTVSPropertyOp27
 70
     1
102
RTVSPropertyOp28
 70
     1
102
RTVSPropertyOp29
 70
     1
102
RTVSPropertyOp30
 70
     1
102
RTVSPropertyOp31
 70
     1
102
RTVSPropertyOp32
 70
     1
102
RTVSPropertyOp33
 70
     1
102
RTVSPropertyOp34
 70
     1
102
RTVSPropertyOp35
 70
     1
102
RTVSPropertyOp36
 70
     1
102
RTVSPropertyOp37
 70
     1
102
RTVSPropertyOp38
 70
     1
102
RTVSPropertyOp39
 70
     1
102
RTVSPropertyOp40
 70
     1
102
RTVSPropertyOp41
 70
     1
102
RTVSPropertyOp42
 70
     1
102
RTVSPropertyOp43
 70
     1
102
RTVSPropertyOp44
 70
     1
102
RTVSPropertyOp45
 70
     1
102
RTVSPropertyOp46
 70
     1
102
RTVSPropertyOp47
 70
     1
102
RTVSPropertyOp48
 70
     1
102
RTVSPropertyOp49
 70
     1
102
RTVSPropertyOp50
 70
     1
102
RTVSPropertyOp51
 70
     0
102
RTVSPropertyOp52
 70
     0
102
RTVSPropertyOp53
 70
     1
102
RTVSPropertyOp54
 70
     1
102
RTVSPropertyOp55
 70
     1
102
RTVSPropertyOp56
 70
     1
102
RTVSPropertyOp57
 70
     1
102
RTVSPropertyOp58
 70
     1
102
RTVSPropertyOp59
 70
     1
102
RTVSPropertyOp60
 70
     1
102
RTVSPropertyOp61
 70
     1
102
RTVSPropertyOp62
 70
     1
  0
XRECORD
  5
D302
102
{ACAD_REACTORS
330
D301
102
}
330
D301
100
AcDbXrecord
280
     1
102
RTVSPost2010Prop28
280
     0
102
RTVSPost2010PropOp28
 70
     1
102
RTVSPost2010Prop29
280
     1
102
RTVSPost2010PropOp29
 70
     1
102
RTVSPost2010Prop30
280
     1
102
RTVSPost2010PropOp30
 70
     1
102
RTVSPost2010Prop31
280
     0
102
RTVSPost2010PropOp31
 70
     1
102
RTVSPost2010Prop32
280
     0
102
RTVSPost2010PropOp32
 70
     1
102
RTVSPost2010Prop33
280
     0
102
RTVSPost2010PropOp33
 70
     1
102
RTVSPost2010Prop34
280
     0
102
RTVSPost2010PropOp34
 70
     1
102
RTVSPost2010Prop35
280
     0
102
RTVSPost2010PropOp35
 70
     1
102
RTVSPost2010Prop36
280
     0
102
RTVSPost2010PropOp36
 70
     1
102
RTVSPost2010Prop37
 90
       50
102
RTVSPost2010PropOp37
 70
     1
102
RTVSPost2010Prop38
140
0.0
102
RTVSPost2010PropOp38
 70
     1
102
RTVSPost2010Prop39
140
1.0
102
RTVSPost2010PropOp39
 70
     1
102
RTVSPost2010Prop40
 90
        0
102
RTVSPost2010PropOp40
 70
     1
102
RTVSPost2010Prop41ColorIndex
 90
       18
102
RTVSPost2010Prop41ColorRGB
 90
        0
102
RTVSPost2010PropOp41
 70
     1
102
RTVSPost2010Prop42
 90
       50
102
RTVSPost2010PropOp42
 70
     1
102
RTVSPost2010Prop43
 90
        3
102
RTVSPost2010PropOp43
 70
     1
102
RTVSPost2010Prop44ColorIndex
 90
        5
102
RTVSPost2010Prop44ColorRGB
 90
      255
102
RTVSPost2010PropOp44
 70
     1
102
RTVSPost2010Prop45
280
     0
102
RTVSPost2010PropOp45
 70
     1
102
RTVSPost2010Prop46
 90
       50
102
RTVSPost2010PropOp46
 70
     1
102
RTVSPost2010Prop47
 90
       50
102
RTVSPost2010PropOp47
 70
     1
102
RTVSPost2010Prop48
 90
       50
102
RTVSPost2010PropOp48
 70
     1
102
RTVSPost2010Prop49
280
     0
102
RTVSPost2010PropOp49
 70
     1
102
RTVSPost2010Prop50
 90
       50
102
RTVSPost2010PropOp50
 70
     1
102
RTVSPost2010Prop51ColorIndex
 90
      256
102
RTVSPost2010Prop51ColorRGB
 90
-16777216
102
RTVSPost2010PropOp51
 70
     0
102
RTVSPost2010Prop52
140
1.0
102
RTVSPost2010PropOp52
 70
     0
102
RTVSPost2010Prop53
 90
        2
102
RTVSPost2010PropOp53
 70
     1
102
RTVSPost2010Prop54
  1
strokes_ogs.tif
102
RTVSPost2010PropOp54
 70
     1
102
RTVSPost2010Prop55
280
     0
102
RTVSPost2010PropOp55
 70
     1
102
RTVSPost2010Prop56
140
1.0
102
RTVSPost2010PropOp56
 70
     1
102
RTVSPost2010Prop57
140
1.0
102
RTVSPost2010PropOp57
 70
     1
102
RTVSPropertyOp0
 70
     1
102
RTVSPropertyOp1
 70
     1
102
RTVSPropertyOp2
 70
     1
102
RTVSPropertyOp3
 70
     1
102
RTVSPropertyOp4
 70
     1
102
RTVSPropertyOp5
 70
     1
102
RTVSPropertyOp6
 70
     1
102
RTVSPropertyOp7
 70
     1
102
RTVSPropertyOp8
 70
     1
102
RTVSPropertyOp9
 70
     1
102
RTVSPropertyOp10
 70
     1
102
RTVSPropertyOp11
 70
     1
102
RTVSPropertyOp12
 70
     1
102
RTVSPropertyOp13
 70
     1
102
RTVSPropertyOp14
 70
     1
102
RTVSPropertyOp15
 70
     1
102
RTVSPropertyOp16
 70
     1
102
RTVSPropertyOp17
 70
     1
102
RTVSPropertyOp18
 70
     1
102
RTVSPropertyOp19
 70
     1
102
RTVSPropertyOp20
 70
     1
102
RTVSPropertyOp21
 70
     1
102
RTVSPropertyOp22
 70
     1
102
RTVSPropertyOp23
 70
     1
102
RTVSPropertyOp24
 70
     1
102
RTVSPropertyOp25
 70
     1
102
RTVSPropertyOp26
 70
     1
102
RTVSPropertyOp27
 70
     1
102
RTVSPropertyOp28
 70
     1
102
RTVSPropertyOp29
 70
     1
102
RTVSPropertyOp30
 70
     1
102
RTVSPropertyOp31
 70
     1
102
RTVSPropertyOp32
 70
     1
102
RTVSPropertyOp33
 70
     1
102
RTVSPropertyOp34
 70
     1
102
RTVSPropertyOp35
 70
     1
102
RTVSPropertyOp36
 70
     1
102
RTVSPropertyOp37
 70
     1
102
RTVSPropertyOp38
 70
     1
102
RTVSPropertyOp39
 70
     1
102
RTVSPropertyOp40
 70
     1
102
RTVSPropertyOp41
 70
     1
102
RTVSPropertyOp42
 70
     1
102
RTVSPropertyOp43
 70
     1
102
RTVSPropertyOp44
 70
     1
102
RTVSPropertyOp45
 70
     1
102
RTVSPropertyOp46
 70
     1
102
RTVSPropertyOp47
 70
     1
102
RTVSPropertyOp48
 70
     1
102
RTVSPropertyOp49
 70
     1
102
RTVSPropertyOp50
 70
     1
102
RTVSPropertyOp51
 70
     0
102
RTVSPropertyOp52
 70
     0
102
RTVSPropertyOp53
 70
     1
102
RTVSPropertyOp54
 70
     1
102
RTVSPropertyOp55
 70
     1
102
RTVSPropertyOp56
 70
     1
102
RTVSPropertyOp57
 70
     1
102
RTVSPropertyOp58
 70
     1
102
RTVSPropertyOp59
 70
     1
102
RTVSPropertyOp60
 70
     1
102
RTVSPropertyOp61
 70
     1
102
RTVSPropertyOp62
 70
     1
  0
XRECORD
  5
D2F0
102
{ACAD_REACTORS
330
D2EF
102
}
330
D2EF
100
AcDbXrecord
280
     1
102
RTVSPost2010Prop28
280
     0
102
RTVSPost2010PropOp28
 70
     1
102
RTVSPost2010Prop29
280
     1
102
RTVSPost2010PropOp29
 70
     1
102
RTVSPost2010Prop30
280
     1
102
RTVSPost2010PropOp30
 70
     1
102
RTVSPost2010Prop31
280
     0
102
RTVSPost2010PropOp31
 70
     1
102
RTVSPost2010Prop32
280
     0
102
RTVSPost2010PropOp32
 70
     1
102
RTVSPost2010Prop33
280
     0
102
RTVSPost2010PropOp33
 70
     1
102
RTVSPost2010Prop34
280
     0
102
RTVSPost2010PropOp34
 70
     1
102
RTVSPost2010Prop35
280
     0
102
RTVSPost2010PropOp35
 70
     1
102
RTVSPost2010Prop36
280
     0
102
RTVSPost2010PropOp36
 70
     1
102
RTVSPost2010Prop37
 90
       50
102
RTVSPost2010PropOp37
 70
     1
102
RTVSPost2010Prop38
140
0.0
102
RTVSPost2010PropOp38
 70
     1
102
RTVSPost2010Prop39
140
1.0
102
RTVSPost2010PropOp39
 70
     1
102
RTVSPost2010Prop40
 90
        0
102
RTVSPost2010PropOp40
 70
     1
102
RTVSPost2010Prop41ColorIndex
 90
       18
102
RTVSPost2010Prop41ColorRGB
 90
        0
102
RTVSPost2010PropOp41
 70
     1
102
RTVSPost2010Prop42
 90
       50
102
RTVSPost2010PropOp42
 70
     1
102
RTVSPost2010Prop43
 90
        3
102
RTVSPost2010PropOp43
 70
     1
102
RTVSPost2010Prop44ColorIndex
 90
        5
102
RTVSPost2010Prop44ColorRGB
 90
      255
102
RTVSPost2010PropOp44
 70
     1
102
RTVSPost2010Prop45
280
     0
102
RTVSPost2010PropOp45
 70
     1
102
RTVSPost2010Prop46
 90
       50
102
RTVSPost2010PropOp46
 70
     1
102
RTVSPost2010Prop47
 90
       50
102
RTVSPost2010PropOp47
 70
     1
102
RTVSPost2010Prop48
 90
       50
102
RTVSPost2010PropOp48
 70
     1
102
RTVSPost2010Prop49
280
     0
102
RTVSPost2010PropOp49
 70
     1
102
RTVSPost2010Prop50
 90
       50
102
RTVSPost2010PropOp50
 70
     1
102
RTVSPost2010Prop51ColorIndex
 90
      256
102
RTVSPost2010Prop51ColorRGB
 90
-16777216
102
RTVSPost2010PropOp51
 70
     0
102
RTVSPost2010Prop52
140
1.0
102
RTVSPost2010PropOp52
 70
     0
102
RTVSPost2010Prop53
 90
        2
102
RTVSPost2010PropOp53
 70
     1
102
RTVSPost2010Prop54
  1
strokes_ogs.tif
102
RTVSPost2010PropOp54
 70
     1
102
RTVSPost2010Prop55
280
     0
102
RTVSPost2010PropOp55
 70
     1
102
RTVSPost2010Prop56
140
1.0
102
RTVSPost2010PropOp56
 70
     1
102
RTVSPost2010Prop57
140
1.0
102
RTVSPost2010PropOp57
 70
     1
102
RTVSPropertyOp0
 70
     1
102
RTVSPropertyOp1
 70
     1
102
RTVSPropertyOp2
 70
     1
102
RTVSPropertyOp3
 70
     1
102
RTVSPropertyOp4
 70
     1
102
RTVSPropertyOp5
 70
     1
102
RTVSPropertyOp6
 70
     1
102
RTVSPropertyOp7
 70
     1
102
RTVSPropertyOp8
 70
     1
102
RTVSPropertyOp9
 70
     1
102
RTVSPropertyOp10
 70
     1
102
RTVSPropertyOp11
 70
     1
102
RTVSPropertyOp12
 70
     1
102
RTVSPropertyOp13
 70
     1
102
RTVSPropertyOp14
 70
     1
102
RTVSPropertyOp15
 70
     1
102
RTVSPropertyOp16
 70
     1
102
RTVSPropertyOp17
 70
     1
102
RTVSPropertyOp18
 70
     1
102
RTVSPropertyOp19
 70
     1
102
RTVSPropertyOp20
 70
     1
102
RTVSPropertyOp21
 70
     1
102
RTVSPropertyOp22
 70
     1
102
RTVSPropertyOp23
 70
     1
102
RTVSPropertyOp24
 70
     1
102
RTVSPropertyOp25
 70
     1
102
RTVSPropertyOp26
 70
     1
102
RTVSPropertyOp27
 70
     1
102
RTVSPropertyOp28
 70
     1
102
RTVSPropertyOp29
 70
     1
102
RTVSPropertyOp30
 70
     1
102
RTVSPropertyOp31
 70
     1
102
RTVSPropertyOp32
 70
     1
102
RTVSPropertyOp33
 70
     1
102
RTVSPropertyOp34
 70
     1
102
RTVSPropertyOp35
 70
     1
102
RTVSPropertyOp36
 70
     1
102
RTVSPropertyOp37
 70
     1
102
RTVSPropertyOp38
 70
     1
102
RTVSPropertyOp39
 70
     1
102
RTVSPropertyOp40
 70
     1
102
RTVSPropertyOp41
 70
     1
102
RTVSPropertyOp42
 70
     1
102
RTVSPropertyOp43
 70
     1
102
RTVSPropertyOp44
 70
     1
102
RTVSPropertyOp45
 70
     1
102
RTVSPropertyOp46
 70
     1
102
RTVSPropertyOp47
 70
     1
102
RTVSPropertyOp48
 70
     1
102
RTVSPropertyOp49
 70
     1
102
RTVSPropertyOp50
 70
     1
102
RTVSPropertyOp51
 70
     0
102
RTVSPropertyOp52
 70
     0
102
RTVSPropertyOp53
 70
     1
102
RTVSPropertyOp54
 70
     1
102
RTVSPropertyOp55
 70
     1
102
RTVSPropertyOp56
 70
     1
102
RTVSPropertyOp57
 70
     1
102
RTVSPropertyOp58
 70
     1
102
RTVSPropertyOp59
 70
     1
102
RTVSPropertyOp60
 70
     1
102
RTVSPropertyOp61
 70
     1
102
RTVSPropertyOp62
 70
     1
  0
XRECORD
  5
D2E4
102
{ACAD_REACTORS
330
D2E3
102
}
330
D2E3
100
AcDbXrecord
280
     1
102
RTVSPost2010Prop28
280
     0
102
RTVSPost2010PropOp28
 70
     1
102
RTVSPost2010Prop29
280
     1
102
RTVSPost2010PropOp29
 70
     1
102
RTVSPost2010Prop30
280
     1
102
RTVSPost2010PropOp30
 70
     1
102
RTVSPost2010Prop31
280
     0
102
RTVSPost2010PropOp31
 70
     1
102
RTVSPost2010Prop32
280
     0
102
RTVSPost2010PropOp32
 70
     1
102
RTVSPost2010Prop33
280
     0
102
RTVSPost2010PropOp33
 70
     1
102
RTVSPost2010Prop34
280
     0
102
RTVSPost2010PropOp34
 70
     1
102
RTVSPost2010Prop35
280
     0
102
RTVSPost2010PropOp35
 70
     1
102
RTVSPost2010Prop36
280
     0
102
RTVSPost2010PropOp36
 70
     1
102
RTVSPost2010Prop37
 90
       50
102
RTVSPost2010PropOp37
 70
     1
102
RTVSPost2010Prop38
140
0.0
102
RTVSPost2010PropOp38
 70
     1
102
RTVSPost2010Prop39
140
1.0
102
RTVSPost2010PropOp39
 70
     1
102
RTVSPost2010Prop40
 90
        0
102
RTVSPost2010PropOp40
 70
     1
102
RTVSPost2010Prop41ColorIndex
 90
       18
102
RTVSPost2010Prop41ColorRGB
 90
        0
102
RTVSPost2010PropOp41
 70
     1
102
RTVSPost2010Prop42
 90
       50
102
RTVSPost2010PropOp42
 70
     1
102
RTVSPost2010Prop43
 90
        3
102
RTVSPost2010PropOp43
 70
     1
102
RTVSPost2010Prop44ColorIndex
 90
        5
102
RTVSPost2010Prop44ColorRGB
 90
      255
102
RTVSPost2010PropOp44
 70
     1
102
RTVSPost2010Prop45
280
     0
102
RTVSPost2010PropOp45
 70
     1
102
RTVSPost2010Prop46
 90
       50
102
RTVSPost2010PropOp46
 70
     1
102
RTVSPost2010Prop47
 90
       50
102
RTVSPost2010PropOp47
 70
     1
102
RTVSPost2010Prop48
 90
       50
102
RTVSPost2010PropOp48
 70
     1
102
RTVSPost2010Prop49
280
     0
102
RTVSPost2010PropOp49
 70
     1
102
RTVSPost2010Prop50
 90
       50
102
RTVSPost2010PropOp50
 70
     1
102
RTVSPost2010Prop51ColorIndex
 90
      256
102
RTVSPost2010Prop51ColorRGB
 90
-16777216
102
RTVSPost2010PropOp51
 70
     0
102
RTVSPost2010Prop52
140
1.0
102
RTVSPost2010PropOp52
 70
     0
102
RTVSPost2010Prop53
 90
        2
102
RTVSPost2010PropOp53
 70
     1
102
RTVSPost2010Prop54
  1
strokes_ogs.tif
102
RTVSPost2010PropOp54
 70
     1
102
RTVSPost2010Prop55
280
     0
102
RTVSPost2010PropOp55
 70
     1
102
RTVSPost2010Prop56
140
1.0
102
RTVSPost2010PropOp56
 70
     1
102
RTVSPost2010Prop57
140
1.0
102
RTVSPost2010PropOp57
 70
     1
102
RTVSPropertyOp0
 70
     1
102
RTVSPropertyOp1
 70
     1
102
RTVSPropertyOp2
 70
     1
102
RTVSPropertyOp3
 70
     1
102
RTVSPropertyOp4
 70
     1
102
RTVSPropertyOp5
 70
     1
102
RTVSPropertyOp6
 70
     1
102
RTVSPropertyOp7
 70
     1
102
RTVSPropertyOp8
 70
     1
102
RTVSPropertyOp9
 70
     1
102
RTVSPropertyOp10
 70
     1
102
RTVSPropertyOp11
 70
     1
102
RTVSPropertyOp12
 70
     1
102
RTVSPropertyOp13
 70
     1
102
RTVSPropertyOp14
 70
     1
102
RTVSPropertyOp15
 70
     1
102
RTVSPropertyOp16
 70
     1
102
RTVSPropertyOp17
 70
     1
102
RTVSPropertyOp18
 70
     1
102
RTVSPropertyOp19
 70
     1
102
RTVSPropertyOp20
 70
     1
102
RTVSPropertyOp21
 70
     1
102
RTVSPropertyOp22
 70
     1
102
RTVSPropertyOp23
 70
     1
102
RTVSPropertyOp24
 70
     1
102
RTVSPropertyOp25
 70
     1
102
RTVSPropertyOp26
 70
     1
102
RTVSPropertyOp27
 70
     1
102
RTVSPropertyOp28
 70
     1
102
RTVSPropertyOp29
 70
     1
102
RTVSPropertyOp30
 70
     1
102
RTVSPropertyOp31
 70
     1
102
RTVSPropertyOp32
 70
     1
102
RTVSPropertyOp33
 70
     1
102
RTVSPropertyOp34
 70
     1
102
RTVSPropertyOp35
 70
     1
102
RTVSPropertyOp36
 70
     1
102
RTVSPropertyOp37
 70
     1
102
RTVSPropertyOp38
 70
     1
102
RTVSPropertyOp39
 70
     1
102
RTVSPropertyOp40
 70
     1
102
RTVSPropertyOp41
 70
     1
102
RTVSPropertyOp42
 70
     1
102
RTVSPropertyOp43
 70
     1
102
RTVSPropertyOp44
 70
     1
102
RTVSPropertyOp45
 70
     1
102
RTVSPropertyOp46
 70
     1
102
RTVSPropertyOp47
 70
     1
102
RTVSPropertyOp48
 70
     1
102
RTVSPropertyOp49
 70
     1
102
RTVSPropertyOp50
 70
     1
102
RTVSPropertyOp51
 70
     0
102
RTVSPropertyOp52
 70
     0
102
RTVSPropertyOp53
 70
     1
102
RTVSPropertyOp54
 70
     1
102
RTVSPropertyOp55
 70
     1
102
RTVSPropertyOp56
 70
     1
102
RTVSPropertyOp57
 70
     1
102
RTVSPropertyOp58
 70
     1
102
RTVSPropertyOp59
 70
     1
102
RTVSPropertyOp60
 70
     1
102
RTVSPropertyOp61
 70
     1
102
RTVSPropertyOp62
 70
     1
  0
XRECORD
  5
D304
102
{ACAD_REACTORS
330
D303
102
}
330
D303
100
AcDbXrecord
280
     1
102
RTVSPost2010Prop28
280
     0
102
RTVSPost2010PropOp28
 70
     1
102
RTVSPost2010Prop29
280
     1
102
RTVSPost2010PropOp29
 70
     1
102
RTVSPost2010Prop30
280
     1
102
RTVSPost2010PropOp30
 70
     1
102
RTVSPost2010Prop31
280
     0
102
RTVSPost2010PropOp31
 70
     1
102
RTVSPost2010Prop32
280
     0
102
RTVSPost2010PropOp32
 70
     1
102
RTVSPost2010Prop33
280
     0
102
RTVSPost2010PropOp33
 70
     1
102
RTVSPost2010Prop34
280
     0
102
RTVSPost2010PropOp34
 70
     1
102
RTVSPost2010Prop35
280
     0
102
RTVSPost2010PropOp35
 70
     1
102
RTVSPost2010Prop36
280
     0
102
RTVSPost2010PropOp36
 70
     1
102
RTVSPost2010Prop37
 90
       50
102
RTVSPost2010PropOp37
 70
     1
102
RTVSPost2010Prop38
140
0.0
102
RTVSPost2010PropOp38
 70
     1
102
RTVSPost2010Prop39
140
1.0
102
RTVSPost2010PropOp39
 70
     1
102
RTVSPost2010Prop40
 90
        0
102
RTVSPost2010PropOp40
 70
     1
102
RTVSPost2010Prop41ColorIndex
 90
       18
102
RTVSPost2010Prop41ColorRGB
 90
        0
102
RTVSPost2010PropOp41
 70
     1
102
RTVSPost2010Prop42
 90
       50
102
RTVSPost2010PropOp42
 70
     1
102
RTVSPost2010Prop43
 90
        3
102
RTVSPost2010PropOp43
 70
     1
102
RTVSPost2010Prop44ColorIndex
 90
        5
102
RTVSPost2010Prop44ColorRGB
 90
      255
102
RTVSPost2010PropOp44
 70
     1
102
RTVSPost2010Prop45
280
     0
102
RTVSPost2010PropOp45
 70
     1
102
RTVSPost2010Prop46
 90
       50
102
RTVSPost2010PropOp46
 70
     1
102
RTVSPost2010Prop47
 90
       50
102
RTVSPost2010PropOp47
 70
     1
102
RTVSPost2010Prop48
 90
       50
102
RTVSPost2010PropOp48
 70
     1
102
RTVSPost2010Prop49
280
     0
102
RTVSPost2010PropOp49
 70
     1
102
RTVSPost2010Prop50
 90
       50
102
RTVSPost2010PropOp50
 70
     1
102
RTVSPost2010Prop51ColorIndex
 90
      256
102
RTVSPost2010Prop51ColorRGB
 90
-16777216
102
RTVSPost2010PropOp51
 70
     0
102
RTVSPost2010Prop52
140
1.0
102
RTVSPost2010PropOp52
 70
     0
102
RTVSPost2010Prop53
 90
        2
102
RTVSPost2010PropOp53
 70
     1
102
RTVSPost2010Prop54
  1
strokes_ogs.tif
102
RTVSPost2010PropOp54
 70
     1
102
RTVSPost2010Prop55
280
     0
102
RTVSPost2010PropOp55
 70
     1
102
RTVSPost2010Prop56
140
1.0
102
RTVSPost2010PropOp56
 70
     1
102
RTVSPost2010Prop57
140
1.0
102
RTVSPost2010PropOp57
 70
     1
102
RTVSPropertyOp0
 70
     1
102
RTVSPropertyOp1
 70
     1
102
RTVSPropertyOp2
 70
     1
102
RTVSPropertyOp3
 70
     1
102
RTVSPropertyOp4
 70
     1
102
RTVSPropertyOp5
 70
     1
102
RTVSPropertyOp6
 70
     1
102
RTVSPropertyOp7
 70
     1
102
RTVSPropertyOp8
 70
     1
102
RTVSPropertyOp9
 70
     1
102
RTVSPropertyOp10
 70
     1
102
RTVSPropertyOp11
 70
     1
102
RTVSPropertyOp12
 70
     1
102
RTVSPropertyOp13
 70
     1
102
RTVSPropertyOp14
 70
     1
102
RTVSPropertyOp15
 70
     1
102
RTVSPropertyOp16
 70
     1
102
RTVSPropertyOp17
 70
     1
102
RTVSPropertyOp18
 70
     1
102
RTVSPropertyOp19
 70
     1
102
RTVSPropertyOp20
 70
     1
102
RTVSPropertyOp21
 70
     1
102
RTVSPropertyOp22
 70
     1
102
RTVSPropertyOp23
 70
     1
102
RTVSPropertyOp24
 70
     1
102
RTVSPropertyOp25
 70
     1
102
RTVSPropertyOp26
 70
     1
102
RTVSPropertyOp27
 70
     1
102
RTVSPropertyOp28
 70
     1
102
RTVSPropertyOp29
 70
     1
102
RTVSPropertyOp30
 70
     1
102
RTVSPropertyOp31
 70
     1
102
RTVSPropertyOp32
 70
     1
102
RTVSPropertyOp33
 70
     1
102
RTVSPropertyOp34
 70
     1
102
RTVSPropertyOp35
 70
     1
102
RTVSPropertyOp36
 70
     1
102
RTVSPropertyOp37
 70
     1
102
RTVSPropertyOp38
 70
     1
102
RTVSPropertyOp39
 70
     1
102
RTVSPropertyOp40
 70
     1
102
RTVSPropertyOp41
 70
     1
102
RTVSPropertyOp42
 70
     1
102
RTVSPropertyOp43
 70
     1
102
RTVSPropertyOp44
 70
     1
102
RTVSPropertyOp45
 70
     1
102
RTVSPropertyOp46
 70
     1
102
RTVSPropertyOp47
 70
     1
102
RTVSPropertyOp48
 70
     1
102
RTVSPropertyOp49
 70
     1
102
RTVSPropertyOp50
 70
     1
102
RTVSPropertyOp51
 70
     0
102
RTVSPropertyOp52
 70
     0
102
RTVSPropertyOp53
 70
     1
102
RTVSPropertyOp54
 70
     1
102
RTVSPropertyOp55
 70
     1
102
RTVSPropertyOp56
 70
     1
102
RTVSPropertyOp57
 70
     1
102
RTVSPropertyOp58
 70
     1
102
RTVSPropertyOp59
 70
     1
102
RTVSPropertyOp60
 70
     1
102
RTVSPropertyOp61
 70
     1
102
RTVSPropertyOp62
 70
     1
  0
ENDSEC
  0
EOF
