  0
SECTION
  2
HEADER
  9
$ACADVER
  1
AC1015
  9
$ACADMAINTVER
 70
    18
  9
$DWGCODEPAGE
  3
ANSI_1252
  9
$INSBASE
 10
0.0
 20
0.0
 30
0.0
  9
$EXTMIN
 10
-326.4000802602098
 20
-456.6230724633609
 30
0.0
  9
$EXTMAX
 10
434.4000072963826
 20
401.4000072963825
 30
0.0
  9
$LIMMIN
 10
0.0
 20
0.0
  9
$LIMMAX
 10
12.0
 20
9.0
  9
$ORTHOMODE
 70
     0
  9
$REGENMODE
 70
     1
  9
$FILLMODE
 70
     1
  9
$QTEXTMODE
 70
     0
  9
$MIRRTEXT
 70
     0
  9
$LTSCALE
 40
1.0
  9
$ATTMODE
 70
     1
  9
$TEXTSIZE
 40
0.2
  9
$TRACEWID
 40
0.05
  9
$TEXTSTYLE
  7
Standard
  9
$CLAYER
  8
0
  9
$CELTYPE
  6
ByLayer
  9
$CECOLOR
 62
   256
  9
$CELTSCALE
 40
1.0
  9
$DISPSILH
 70
     0
  9
$DIMSCALE
 40
1.0
  9
$DIMASZ
 40
0.18
  9
$DIMEXO
 40
0.0625
  9
$DIMDLI
 40
0.38
  9
$DIMRND
 40
0.0
  9
$DIMDLE
 40
0.0
  9
$DIMEXE
 40
0.18
  9
$DIMTP
 40
0.0
  9
$DIMTM
 40
0.0
  9
$DIMTXT
 40
0.18
  9
$DIMCEN
 40
0.09
  9
$DIMTSZ
 40
0.0
  9
$DIMTOL
 70
     0
  9
$DIMLIM
 70
     0
  9
$DIMTIH
 70
     1
  9
$DIMTOH
 70
     1
  9
$DIMSE1
 70
     0
  9
$DIMSE2
 70
     0
  9
$DIMTAD
 70
     0
  9
$DIMZIN
 70
     0
  9
$DIMBLK
  1

  9
$DIMASO
 70
     1
  9
$DIMSHO
 70
     1
  9
$DIMPOST
  1

  9
$DIMAPOST
  1

  9
$DIMALT
 70
     0
  9
$DIMALTD
 70
     2
  9
$DIMALTF
 40
25.4
  9
$DIMLFAC
 40
1.0
  9
$DIMTOFL
 70
     0
  9
$DIMTVP
 40
0.0
  9
$DIMTIX
 70
     0
  9
$DIMSOXD
 70
     0
  9
$DIMSAH
 70
     0
  9
$DIMBLK1
  1

  9
$DIMBLK2
  1

  9
$DIMSTYLE
  2
Standard
  9
$DIMCLRD
 70
     0
  9
$DIMCLRE
 70
     0
  9
$DIMCLRT
 70
     0
  9
$DIMTFAC
 40
1.0
  9
$DIMGAP
 40
0.09
  9
$DIMJUST
 70
     0
  9
$DIMSD1
 70
     0
  9
$DIMSD2
 70
     0
  9
$DIMTOLJ
 70
     1
  9
$DIMTZIN
 70
     0
  9
$DIMALTZ
 70
     0
  9
$DIMALTTZ
 70
     0
  9
$DIMUPT
 70
     0
  9
$DIMDEC
 70
     4
  9
$DIMTDEC
 70
     4
  9
$DIMALTU
 70
     2
  9
$DIMALTTD
 70
     2
  9
$DIMTXSTY
  7
Standard
  9
$DIMAUNIT
 70
     0
  9
$DIMADEC
 70
     0
  9
$DIMALTRND
 40
0.0
  9
$DIMAZIN
 70
     0
  9
$DIMDSEP
 70
    46
  9
$DIMATFIT
 70
     3
  9
$DIMFRAC
 70
     0
  9
$DIMLDRBLK
  1

  9
$DIMLUNIT
 70
     2
  9
$DIMLWD
 70
    -2
  9
$DIMLWE
 70
    -2
  9
$DIMTMOVE
 70
     0
  9
$LUNITS
 70
     2
  9
$LUPREC
 70
     4
  9
$SKETCHINC
 40
0.1
  9
$FILLETRAD
 40
0.0
  9
$AUNITS
 70
     0
  9
$AUPREC
 70
     0
  9
$MENU
  1
.
  9
$ELEVATION
 40
0.0
  9
$PELEVATION
 40
0.0
  9
$THICKNESS
 40
0.0
  9
$LIMCHECK
 70
     0
  9
$CHAMFERA
 40
0.0
  9
$CHAMFERB
 40
0.0
  9
$CHAMFERC
 40
0.0
  9
$CHAMFERD
 40
0.0
  9
$SKPOLY
 70
     0
  9
$TDCREATE
 40
2460802.673344907
  9
$TDUCREATE
 40
2460802.381678241
  9
$TDUPDATE
 40
2460802.680856482
  9
$TDUUPDATE
 40
2460802.389189815
  9
$TDINDWG
 40
0.0013888889
  9
$TDUSRTIMER
 40
0.0013888889
  9
$USRTIMER
 70
     1
  9
$ANGBASE
 50
0.0
  9
$ANGDIR
 70
     0
  9
$PDMODE
 70
     0
  9
$PDSIZE
 40
0.0
  9
$PLINEWID
 40
0.0
  9
$SPLFRAME
 70
     0
  9
$SPLINETYPE
 70
     6
  9
$SPLINESEGS
 70
     8
  9
$HANDSEED
  5
404D
  9
$SURFTAB1
 70
     6
  9
$SURFTAB2
 70
     6
  9
$SURFTYPE
 70
     6
  9
$SURFU
 70
     6
  9
$SURFV
 70
     6
  9
$UCSBASE
  2

  9
$UCSNAME
  2

  9
$UCSORG
 10
0.0
 20
0.0
 30
0.0
  9
$UCSXDIR
 10
1.0
 20
0.0
 30
0.0
  9
$UCSYDIR
 10
0.0
 20
1.0
 30
0.0
  9
$UCSORTHOREF
  2

  9
$UCSORTHOVIEW
 70
     0
  9
$UCSORGTOP
 10
0.0
 20
0.0
 30
0.0
  9
$UCSORGBOTTOM
 10
0.0
 20
0.0
 30
0.0
  9
$UCSORGLEFT
 10
0.0
 20
0.0
 30
0.0
  9
$UCSORGRIGHT
 10
0.0
 20
0.0
 30
0.0
  9
$UCSORGFRONT
 10
0.0
 20
0.0
 30
0.0
  9
$UCSORGBACK
 10
0.0
 20
0.0
 30
0.0
  9
$PUCSBASE
  2

  9
$PUCSNAME
  2

  9
$PUCSORG
 10
0.0
 20
0.0
 30
0.0
  9
$PUCSXDIR
 10
1.0
 20
0.0
 30
0.0
  9
$PUCSYDIR
 10
0.0
 20
1.0
 30
0.0
  9
$PUCSORTHOREF
  2

  9
$PUCSORTHOVIEW
 70
     0
  9
$PUCSORGTOP
 10
0.0
 20
0.0
 30
0.0
  9
$PUCSORGBOTTOM
 10
0.0
 20
0.0
 30
0.0
  9
$PUCSORGLEFT
 10
0.0
 20
0.0
 30
0.0
  9
$PUCSORGRIGHT
 10
0.0
 20
0.0
 30
0.0
  9
$PUCSORGFRONT
 10
0.0
 20
0.0
 30
0.0
  9
$PUCSORGBACK
 10
0.0
 20
0.0
 30
0.0
  9
$USERI1
 70
     0
  9
$USERI2
 70
     0
  9
$USERI3
 70
     0
  9
$USERI4
 70
     0
  9
$USERI5
 70
     0
  9
$USERR1
 40
0.0
  9
$USERR2
 40
0.0
  9
$USERR3
 40
0.0
  9
$USERR4
 40
0.0
  9
$USERR5
 40
0.0
  9
$WORLDVIEW
 70
     1
  9
$SHADEDGE
 70
     3
  9
$SHADEDIF
 70
    70
  9
$TILEMODE
 70
     1
  9
$MAXACTVP
 70
    48
  9
$PINSBASE
 10
0.0
 20
0.0
 30
0.0
  9
$PLIMCHECK
 70
     0
  9
$PEXTMIN
 10
0.0
 20
0.0
 30
0.0
  9
$PEXTMAX
 10
0.0
 20
0.0
 30
0.0
  9
$PLIMMIN
 10
0.0
 20
0.0
  9
$PLIMMAX
 10
12.0
 20
9.0
  9
$UNITMODE
 70
     0
  9
$VISRETAIN
 70
     1
  9
$PLINEGEN
 70
     0
  9
$PSLTSCALE
 70
     1
  9
$TREEDEPTH
 70
  3020
  9
$CMLSTYLE
  2
Standard
  9
$CMLJUST
 70
     0
  9
$CMLSCALE
 40
1.0
  9
$PROXYGRAPHICS
 70
     1
  9
$MEASUREMENT
 70
     0
  9
$CELWEIGHT
370
    -1
  9
$ENDCAPS
280
     0
  9
$JOINSTYLE
280
     0
  9
$LWDISPLAY
290
     0
  9
$INSUNITS
 70
     1
  9
$HYPERLINKBASE
  1

  9
$STYLESHEET
  1

  9
$XEDIT
290
     1
  9
$CEPSNTYPE
380
     0
  9
$PSTYLEMODE
290
     1
  9
$FINGERPRINTGUID
  2
{D8D3FC51-BF3E-FD41-BE64-93922A54423B}
  9
$VERSIONGUID
  2
{AE3793A8-79B5-B54D-A1B9-84350DD51C68}
  9
$EXTNAMES
290
     1
  9
$PSVPSCALE
 40
0.0
  9
$OLESTARTUP
290
     0
  0
ENDSEC
  0
SECTION
  2
CLASSES
  0
CLASS
  1
ACDBDICTIONARYWDFLT
  2
AcDbDictionaryWithDefault
  3
ObjectDBX Classes
 90
        0
280
     0
281
     0
  0
CLASS
  1
ACDBPLACEHOLDER
  2
AcDbPlaceHolder
  3
ObjectDBX Classes
 90
        0
280
     0
281
     0
  0
CLASS
  1
LAYOUT
  2
AcDbLayout
  3
ObjectDBX Classes
 90
        0
280
     0
281
     0
  0
CLASS
  1
DICTIONARYVAR
  2
AcDbDictionaryVar
  3
ObjectDBX Classes
 90
        0
280
     0
281
     0
  0
CLASS
  1
TABLESTYLE
  2
AcDbTableStyle
  3
ObjectDBX Classes
 90
     4095
280
     0
281
     0
  0
CLASS
  1
MATERIAL
  2
AcDbMaterial
  3
ObjectDBX Classes
 90
     1153
280
     0
281
     0
  0
CLASS
  1
VISUALSTYLE
  2
AcDbVisualStyle
  3
ObjectDBX Classes
 90
     4095
280
     0
281
     0
  0
CLASS
  1
SCALE
  2
AcDbScale
  3
ObjectDBX Classes
 90
     1153
280
     0
281
     0
  0
CLASS
  1
MLEADERSTYLE
  2
AcDbMLeaderStyle
  3
ACDB_MLEADERSTYLE_CLASS
 90
     4095
280
     0
281
     0
  0
CLASS
  1
CELLSTYLEMAP
  2
AcDbCellStyleMap
  3
ObjectDBX Classes
 90
     1152
280
     0
281
     0
  0
CLASS
  1
EXACXREFPANELOBJECT
  2
ExAcXREFPanelObject
  3
EXAC_ESW
 90
    33793
280
     0
281
     0
  0
CLASS
  1
NPOCOLLECTION
  2
AcDbImpNonPersistentObjectsCollection
  3
ObjectDBX Classes
 90
    33921
280
     0
281
     0
  0
CLASS
  1
LAYER_INDEX
  2
AcDbLayerIndex
  3
ObjectDBX Classes
 90
    32768
280
     0
281
     0
  0
CLASS
  1
SPATIAL_INDEX
  2
AcDbSpatialIndex
  3
ObjectDBX Classes
 90
    32768
280
     0
281
     0
  0
CLASS
  1
IDBUFFER
  2
AcDbIdBuffer
  3
ObjectDBX Classes
 90
    32768
280
     0
281
     0
  0
CLASS
  1
ACDBSECTIONVIEWSTYLE
  2
AcDbSectionViewStyle
  3
ObjectDBX Classes
 90
     1025
280
     0
281
     0
  0
CLASS
  1
ACDBDETAILVIEWSTYLE
  2
AcDbDetailViewStyle
  3
ObjectDBX Classes
 90
     1025
280
     0
281
     0
  0
CLASS
  1
XRECORD
  2
AcDbXrecord
  3
ObjectDBX Classes
 90
        0
280
     0
281
     0
  0
ENDSEC
  0
SECTION
  2
TABLES
  0
TABLE
  2
VPORT
  5
8
102
{ACAD_XDICTIONARY
360
3F63
102
}
330
0
100
AcDbSymbolTable
 70
     1
  0
VPORT
  5
94
330
8
100
AcDbSymbolTableRecord
100
AcDbViewportTableRecord
  2
*Active
 70
     0
 10
0.0
 20
0.0
 11
1.0
 21
1.0
 12
53.99996351808637
 22
-27.61153258348912
 13
0.0
 23
0.0
 14
0.5
 24
0.5
 15
0.5
 25
0.5
 16
0.0
 26
0.0
 36
1.0
 17
0.0
 27
0.0
 37
0.0
 40
912.4297884278213
 41
0.9846153846153846
 42
50.0
 43
0.0
 44
0.0
 50
0.0
 51
0.0
 71
     0
 72
  1000
 73
     1
 74
     3
 75
     0
 76
     1
 77
     0
 78
     0
281
     0
 65
     1
110
0.0
120
0.0
130
0.0
111
1.0
121
0.0
131
0.0
112
0.0
122
1.0
132
0.0
 79
     0
146
0.0
1001
ACAD_NAV_VCDISPLAY
1070
     3
  0
ENDTAB
  0
TABLE
  2
LTYPE
  5
5
330
0
100
AcDbSymbolTable
 70
     1
  0
LTYPE
  5
14
330
5
100
AcDbSymbolTableRecord
100
AcDbLinetypeTableRecord
  2
ByBlock
 70
     0
  3

 72
    65
 73
     0
 40
0.0
  0
LTYPE
  5
15
330
5
100
AcDbSymbolTableRecord
100
AcDbLinetypeTableRecord
  2
ByLayer
 70
     0
  3

 72
    65
 73
     0
 40
0.0
  0
LTYPE
  5
16
330
5
100
AcDbSymbolTableRecord
100
AcDbLinetypeTableRecord
  2
Continuous
 70
     0
  3
Solid line
 72
    65
 73
     0
 40
0.0
  0
ENDTAB
  0
TABLE
  2
LAYER
  5
2
102
{ACAD_XDICTIONARY
360
18E
102
}
330
0
100
AcDbSymbolTable
 70
     1
  0
LAYER
  5
10
102
{ACAD_XDICTIONARY
360
E6
102
}
330
2
100
AcDbSymbolTableRecord
100
AcDbLayerTableRecord
  2
0
 70
     0
 62
     7
  6
Continuous
370
    -3
390
F
  0
ENDTAB
  0
TABLE
  2
STYLE
  5
3
330
0
100
AcDbSymbolTable
 70
     1
  0
STYLE
  5
11
330
3
100
AcDbSymbolTableRecord
100
AcDbTextStyleTableRecord
  2
Standard
 70
     0
 40
0.0
 41
1.0
 50
0.0
 71
     0
 42
0.2
  3
arial.ttf
  4

1001
ACAD
1000
Arial
1071
       34
  0
ENDTAB
  0
TABLE
  2
VIEW
  5
6
330
0
100
AcDbSymbolTable
 70
     0
  0
ENDTAB
  0
TABLE
  2
UCS
  5
7
330
0
100
AcDbSymbolTable
 70
     0
  0
ENDTAB
  0
TABLE
  2
APPID
  5
9
330
0
100
AcDbSymbolTable
 70
     7
  0
APPID
  5
12
330
9
100
AcDbSymbolTableRecord
100
AcDbRegAppTableRecord
  2
ACAD
 70
     0
  0
APPID
  5
DD
330
9
100
AcDbSymbolTableRecord
100
AcDbRegAppTableRecord
  2
AcadAnnoPO
 70
     0
  0
APPID
  5
DE
330
9
100
AcDbSymbolTableRecord
100
AcDbRegAppTableRecord
  2
AcadAnnotative
 70
     0
  0
APPID
  5
DF
330
9
100
AcDbSymbolTableRecord
100
AcDbRegAppTableRecord
  2
ACAD_DSTYLE_DIMJAG
 70
     0
  0
APPID
  5
E0
330
9
100
AcDbSymbolTableRecord
100
AcDbRegAppTableRecord
  2
ACAD_DSTYLE_DIMTALN
 70
     0
  0
APPID
  5
107
330
9
100
AcDbSymbolTableRecord
100
AcDbRegAppTableRecord
  2
ACAD_MLEADERVER
 70
     0
  0
APPID
  5
1A6
330
9
100
AcDbSymbolTableRecord
100
AcDbRegAppTableRecord
  2
ACAD_NAV_VCDISPLAY
 70
     0
  0
ENDTAB
  0
TABLE
  2
DIMSTYLE
  5
A
330
0
100
AcDbSymbolTable
 70
     1
100
AcDbDimStyleTable
 71
     0
  0
DIMSTYLE
105
27
330
A
100
AcDbSymbolTableRecord
100
AcDbDimStyleTableRecord
  2
Standard
 70
     0
340
11
  0
ENDTAB
  0
TABLE
  2
BLOCK_RECORD
  5
1
330
0
100
AcDbSymbolTable
 70
     7
  0
BLOCK_RECORD
  5
1F
102
{ACAD_XDICTIONARY
360
15D
102
}
330
1
100
AcDbSymbolTableRecord
100
AcDbBlockTableRecord
  2
*Model_Space
340
22
  0
BLOCK_RECORD
  5
58
102
{ACAD_XDICTIONARY
360
3F17
102
}
330
1
100
AcDbSymbolTableRecord
100
AcDbBlockTableRecord
  2
*Paper_Space
340
59
  0
BLOCK_RECORD
  5
5D
102
{ACAD_XDICTIONARY
360
3F19
102
}
330
1
100
AcDbSymbolTableRecord
100
AcDbBlockTableRecord
  2
*Paper_Space0
340
5E
  0
BLOCK_RECORD
  5
3D54
330
1
100
AcDbSymbolTableRecord
100
AcDbBlockTableRecord
  2
SFHS-BR-Front
340
0
102
{BLKREFS
331
3F0D
102
}
  0
BLOCK_RECORD
  5
3D78
330
1
100
AcDbSymbolTableRecord
100
AcDbBlockTableRecord
  2
SFHS-BR-Left
340
0
102
{BLKREFS
331
3F0E
102
}
  0
BLOCK_RECORD
  5
3DB6
330
1
100
AcDbSymbolTableRecord
100
AcDbBlockTableRecord
  2
SFHS-BR-Right
340
0
102
{BLKREFS
331
3F0F
102
}
  0
BLOCK_RECORD
  5
3DEB
330
1
100
AcDbSymbolTableRecord
100
AcDbBlockTableRecord
  2
SFHS-BR-Top
340
0
102
{BLKREFS
331
3F10
102
}
  0
BLOCK_RECORD
  5
3E22
330
1
100
AcDbSymbolTableRecord
100
AcDbBlockTableRecord
  2
SFHS-BR-Bottom
340
0
102
{BLKREFS
331
3F11
102
}
  0
BLOCK_RECORD
  5
3E67
330
1
100
AcDbSymbolTableRecord
100
AcDbBlockTableRecord
  2
SFHS-BR-ISO
340
0
102
{BLKREFS
331
3F12
102
}
  0
ENDTAB
  0
ENDSEC
  0
SECTION
  2
BLOCKS
  0
BLOCK
  5
20
330
1F
100
AcDbEntity
  8
0
100
AcDbBlockBegin
  2
*Model_Space
 70
     0
 10
0.0
 20
0.0
 30
0.0
  3
*Model_Space
  1

  0
ENDBLK
  5
21
330
1F
100
AcDbEntity
  8
0
100
AcDbBlockEnd
  0
BLOCK
  5
5A
330
58
100
AcDbEntity
 67
     1
  8
0
100
AcDbBlockBegin
  2
*Paper_Space
 70
     0
 10
0.0
 20
0.0
 30
0.0
  3
*Paper_Space
  1

  0
ENDBLK
  5
5B
330
58
100
AcDbEntity
 67
     1
  8
0
100
AcDbBlockEnd
  0
BLOCK
  5
5F
330
5D
100
AcDbEntity
 67
     1
  8
0
100
AcDbBlockBegin
  2
*Paper_Space0
 70
     0
 10
0.0
 20
0.0
 30
0.0
  3
*Paper_Space0
  1

  0
ENDBLK
  5
60
330
5D
100
AcDbEntity
 67
     1
  8
0
100
AcDbBlockEnd
  0
BLOCK
  5
3D55
330
3D54
100
AcDbEntity
  8
0
100
AcDbBlockBegin
  2
SFHS-BR-Front
 70
     0
 10
0.0
 20
0.0
 30
0.0
  3
SFHS-BR-Front
  1

  0
SPLINE
  5
3D57
330
3D54
100
AcDbEntity
  8
0
100
AcDbSpline
210
0.0
220
0.0
230
1.0
 70
     8
 71
     3
 72
     8
 73
     4
 74
     0
 42
0.000000001
 43
0.0000000001
 40
0.1456348773095466
 40
0.1456348773095466
 40
0.1456348773095466
 40
0.1456348773095466
 40
0.1457757336231934
 40
0.1457757336231934
 40
0.1457757336231934
 40
0.1457757336231934
 10
5.197470221043278
 20
3.142631219450179
 30
0.0
 10
5.197232106788742
 20
3.142718644528046
 30
0.0
 10
5.196994011911265
 20
3.142806105266711
 30
0.0
 10
5.196755936409208
 20
3.142893601653346
 30
0.0
  0
SPLINE
  5
3D58
330
3D54
100
AcDbEntity
  8
0
100
AcDbSpline
210
0.0
220
0.0
230
1.0
 70
     8
 71
     3
 72
     8
 73
     4
 74
     0
 42
0.000000001
 43
0.0000000001
 40
0.4344886055219825
 40
0.4344886055219825
 40
0.4344886055219825
 40
0.4344886055219825
 40
0.4385215661833039
 40
0.4385215661833039
 40
0.4385215661833039
 40
0.4385215661833039
 10
3.972069422366015
 20
4.008491061690606
 30
0.0
 10
3.967513702725824
 20
4.013425460790532
 30
0.0
 10
3.96297416073157
 20
4.018364574209768
 30
0.0
 10
3.958450782954058
 20
4.023308103721482
 30
0.0
  0
LINE
  5
3D59
330
3D54
100
AcDbEntity
  8
0
100
AcDbLine
 10
0.0
 20
5.49999999999999
 30
0.0
 11
0.0
 21
5.993477718858713
 31
0.0
  0
SPLINE
  5
3D5A
330
3D54
100
AcDbEntity
  8
0
100
AcDbSpline
210
0.0
220
0.0
230
1.0
 70
     8
 71
     3
 72
     8
 73
     4
 74
     0
 42
0.000000001
 43
0.0000000001
 40
-1.0
 40
-1.0
 40
-1.0
 40
-1.0
 40
-0.9428865384898344
 40
-0.9428865384898344
 40
-0.9428865384898344
 40
-0.9428865384898344
 10
-0.000000000000009
 20
5.499999999999992
 30
0.0
 10
0.0000006175298715
 20
5.498670924620771
 30
0.0
 10
0.0087214603565793
 20
5.480338300990096
 30
0.0
 10
0.0257648112431521
 20
5.446559153524669
 30
0.0
  0
SPLINE
  5
3D5B
330
3D54
100
AcDbEntity
  8
0
100
AcDbSpline
210
0.0
220
0.0
230
1.0
 70
     8
 71
     3
 72
    22
 73
    18
 74
     0
 42
0.000000001
 43
0.0000000001
 40
0.0008445990425483
 40
0.0008445990425483
 40
0.0008445990425483
 40
0.0008445990425483
 40
0.0080367246045205
 40
0.0080367246045205
 40
0.0149227221448502
 40
0.0149227221448502
 40
0.0230411353697531
 40
0.0230411353697531
 40
0.0379530120098605
 40
0.0379530120098605
 40
0.0720209644935763
 40
0.0720209644935763
 40
0.1286664247027698
 40
0.1286664247027698
 40
0.2257410000974111
 40
0.2257410000974111
 40
0.2377655515272743
 40
0.2377655515272743
 40
0.2377655515272743
 40
0.2377655515272743
 10
3.00031503551418
 20
5.998299067555049
 30
0.0
 10
3.00125160358538
 20
5.99305671881371
 30
0.0
 10
3.002886995948261
 20
5.98396117346372
 30
0.0
 10
3.007453685087394
 20
5.959450394251514
 30
0.0
 10
3.010343371161691
 20
5.944269079280914
 30
0.0
 10
3.017496338225982
 20
5.908064277186956
 30
0.0
 10
3.021943860416604
 20
5.886325372663144
 30
0.0
 10
3.035468013850276
 20
5.823022754538651
 30
0.0
 10
3.045378995218372
 20
5.779701920204546
 30
0.0
 10
3.080909891673179
 20
5.635655331216868
 30
0.0
 10
3.110834205190448
 20
5.530855293785577
 30
0.0
 10
3.202812232711141
 20
5.253111994312215
 30
0.0
 10
3.273570787353446
 20
5.079007834465793
 30
0.0
 10
3.497336267176577
 20
4.624039011479023
 30
0.0
 10
3.676168993390968
 20
4.350645088202785
 30
0.0
 10
3.907292377902835
 20
4.08114063297017
 30
0.0
 10
3.93317502464574
 20
4.051925272230906
 30
0.0
 10
3.959393844978446
 20
4.023272652809394
 30
0.0
  0
SPLINE
  5
3D5C
330
3D54
100
AcDbEntity
  8
0
100
AcDbSpline
210
0.0
220
0.0
230
1.0
 70
     8
 71
     3
 72
     8
 73
     4
 74
     0
 42
0.000000001
 43
0.0000000001
 40
0.0490428047193254
 40
0.0490428047193254
 40
0.0490428047193254
 40
0.0490428047193254
 40
0.0495270380343622
 40
0.0495270380343622
 40
0.0495270380343622
 40
0.0495270380343622
 10
5.998518295458019
 20
3.000274156156228
 30
0.0
 10
5.999009769347707
 20
3.000267022553142
 30
0.0
 10
5.999505123250314
 20
3.000259949160063
 30
0.0
 10
6.000004149923642
 20
3.000252942813453
 30
0.0
  0
ARC
  5
3D5D
330
3D54
100
AcDbEntity
  8
0
100
AcDbCircle
 10
6.0
 20
5.999999999999991
 30
0.0
 40
3.0
100
AcDbArc
 50
256.9812093288023
 51
256.9952297851771
  0
SPLINE
  5
3D5E
330
3D54
100
AcDbEntity
  8
0
100
AcDbSpline
210
0.0
220
0.0
230
1.0
 70
     8
 71
     3
 72
    14
 73
    10
 74
     0
 42
0.000000001
 43
0.0000000001
 40
-1.0
 40
-1.0
 40
-1.0
 40
-1.0
 40
-0.6434500067457547
 40
-0.6434500067457547
 40
-0.6434500067457547
 40
-0.2563502858785579
 40
-0.2563502858785579
 40
-0.2563502858785579
 40
0.0
 40
0.0
 40
0.0
 40
0.0
 10
3.000000000000015
 20
5.999999999999974
 30
0.0
 10
2.999931953603232
 20
5.324540315872789
 30
0.0
 10
3.318158177393322
 20
4.711155059203742
 30
0.0
 10
3.728372995769229
 20
4.256897444892882
 30
0.0
 10
4.173735622871202
 20
3.763718370349624
 30
0.0
 10
4.721258469326401
 20
3.405999597706497
 30
0.0
 10
5.090794347824198
 20
3.199371338120338
 30
0.0
 10
5.335513274211112
 20
3.062535245092843
 30
0.0
 10
5.491515683512805
 20
3.000007199283319
 30
0.0
 10
5.500000000000051
 20
2.99999999999788
 30
0.0
  0
ARC
  5
3D5F
330
3D54
100
AcDbEntity
  8
0
100
AcDbCircle
 10
6.0
 20
5.999999999999991
 30
0.0
 40
6.0
100
AcDbArc
 50
182.9805356188836
 51
264.7160354857222
  0
SPLINE
  5
3D60
330
3D54
100
AcDbEntity
  8
0
100
AcDbSpline
210
0.0
220
0.0
230
1.0
 70
     8
 71
     3
 72
    14
 73
    10
 74
     0
 42
0.000000001
 43
0.0000000001
 40
-1.0
 40
-1.0
 40
-1.0
 40
-1.0
 40
-0.819349259516202
 40
-0.819349259516202
 40
-0.819349259516202
 40
-0.2712553180531303
 40
-0.2712553180531303
 40
-0.2712553180531303
 40
0.0
 40
0.0
 40
0.0
 40
0.0
 10
5.500000000000012
 20
-0.0000000000000082
 30
0.0
 10
5.495800283489745
 20
0.0000019380480603
 30
0.0
 10
5.321476933221483
 20
0.0872783039436435
 30
0.0
 10
5.026314744070282
 20
0.2492196791557613
 30
0.0
 10
4.130793324177405
 20
0.7405494483460551
 30
0.0
 10
2.187377619355394
 20
1.929372261642963
 30
0.0
 10
0.9934138192878418
 20
3.47133461278287
 30
0.0
 10
0.4025132348611681
 20
4.234461982641946
 30
0.0
 10
0.0000004299674381
 20
5.119195612952478
 30
0.0
 10
0.0000000000237561
 20
5.999999999984164
 30
0.0
  0
SPLINE
  5
3D61
330
3D54
100
AcDbEntity
  8
0
100
AcDbSpline
210
0.0
220
0.0
230
1.0
 70
     8
 71
     3
 72
     8
 73
     4
 74
     0
 42
0.000000001
 43
0.0000000001
 40
0.0387049869849193
 40
0.0387049869849193
 40
0.0387049869849193
 40
0.0387049869849193
 40
0.0394956983820434
 40
0.0394956983820434
 40
0.0394956983820434
 40
0.0394956983820434
 10
5.999025623872682
 20
3.000184218102743
 30
0.0
 10
5.999345382247948
 20
3.000175790194281
 30
0.0
 10
5.999671763364178
 20
3.000167304706803
 30
0.0
 10
6.000004108073797
 20
3.000158788296796
 30
0.0
  0
SPLINE
  5
3D62
330
3D54
100
AcDbEntity
  8
0
100
AcDbSpline
210
0.0
220
0.0
230
1.0
 70
     8
 71
     3
 72
    10
 73
     6
 74
     0
 42
0.000000001
 43
0.0000000001
 40
0.0
 40
0.0
 40
0.0
 40
0.0
 40
0.0144832580993883
 40
0.0144832580993883
 40
0.0178641831301258
 40
0.0178641831301258
 40
0.0178641831301258
 40
0.0178641831301258
 10
3.000288467043035
 20
6.000004535470204
 30
0.0
 10
3.000546359632547
 20
5.98315674459002
 30
0.0
 10
3.000906426142306
 20
5.969696008467195
 30
0.0
 10
3.001052533482822
 20
5.96461812142963
 30
0.0
 10
3.001067158377451
 20
5.964140616062879
 30
0.0
 10
3.001067158315305
 20
5.964140618104234
 30
0.0
  0
SPLINE
  5
3D63
330
3D54
100
AcDbEntity
  8
0
100
AcDbSpline
210
0.0
220
0.0
230
1.0
 70
     8
 71
     3
 72
    16
 73
    12
 74
     0
 42
0.000000001
 43
0.0000000001
 40
0.0589349930883303
 40
0.0589349930883303
 40
0.0589349930883303
 40
0.0589349930883303
 40
0.0597446583292311
 40
0.0597446583292311
 40
0.0621641036676309
 40
0.0621641036676309
 40
0.0669768729396298
 40
0.0669768729396298
 40
0.1054151915921332
 40
0.1054151915921332
 40
0.107992131822201
 40
0.107992131822201
 40
0.107992131822201
 40
0.107992131822201
 10
3.000548280962893
 20
5.985340139498825
 30
0.0
 10
3.000593777995229
 20
5.984173877579696
 30
0.0
 10
3.000644917940173
 20
5.982873962226462
 30
0.0
 10
3.000873975516817
 20
5.977125719280257
 30
0.0
 10
3.001109642464161
 20
5.971374760054825
 30
0.0
 10
3.001932173048497
 20
5.952416657657626
 30
0.0
 10
3.002628683155326
 20
5.937704499585131
 30
0.0
 10
3.009497819773536
 20
5.807384727952885
 30
0.0
 10
3.021276406944008
 20
5.689729643897556
 30
0.0
 10
3.034636753012708
 20
5.595522248210852
 30
0.0
 10
3.035479278949867
 20
5.589705039767932
 30
0.0
 10
3.036322268388569
 20
5.583997723883312
 30
0.0
  0
SPLINE
  5
3D64
330
3D54
100
AcDbEntity
  8
0
100
AcDbSpline
210
0.0
220
0.0
230
1.0
 70
     8
 71
     3
 72
    18
 73
    14
 74
     0
 42
0.000000001
 43
0.0000000001
 40
0.002459843018853
 40
0.002459843018853
 40
0.002459843018853
 40
0.002459843018853
 40
0.0818280342855535
 40
0.0818280342855535
 40
0.1896897810179673
 40
0.1896897810179673
 40
0.2113534962930941
 40
0.2113534962930941
 40
0.2229796329156719
 40
0.2229796329156719
 40
0.2294938309617156
 40
0.2294938309617156
 40
0.2367366006300523
 40
0.2367366006300523
 40
0.2367366006300523
 40
0.2367366006300523
 10
4.044679877615436
 20
3.942767626611231
 30
0.0
 10
4.236274057894282
 20
3.771147271085141
 30
0.0
 10
4.450590644022416
 20
3.615740207217428
 30
0.0
 10
4.982309896849687
 20
3.305846415114189
 30
0.0
 10
5.322353902957369
 20
3.166741496151673
 30
0.0
 10
5.713402180980844
 20
3.061039994230212
 30
0.0
 10
5.778391025313984
 20
3.045275034890688
 30
0.0
 10
5.873260066945401
 20
3.024486377464831
 30
0.0
 10
5.906004039634131
 20
3.017769730633438
 30
0.0
 10
5.949717930289929
 20
3.009244691203875
 30
0.0
 10
5.963960049662154
 20
3.006566550351121
 30
0.0
 10
5.98734482728184
 20
3.002256457754608
 30
0.0
 10
5.995606405423156
 20
3.000789278818263
 30
0.0
 10
6.000002104474379
 20
3.000011292824742
 30
0.0
  0
SPLINE
  5
3D65
330
3D54
100
AcDbEntity
  8
0
100
AcDbSpline
210
0.0
220
0.0
230
1.0
 70
     8
 71
     3
 72
    12
 73
     8
 74
     0
 42
0.000000001
 43
0.0000000001
 40
0.0
 40
0.0
 40
0.0
 40
0.0
 40
0.0158491112282928
 40
0.0158491112282928
 40
0.0237731499499713
 40
0.0237731499499713
 40
0.0271904939645107
 40
0.0271904939645107
 40
0.0271904939645107
 40
0.0271904939645107
 10
0.0079491267969298
 20
5.68801107983057
 30
0.0
 10
0.0052987450152548
 20
5.740654711979148
 30
0.0
 10
0.0033837372420125
 20
5.793520681504979
 30
0.0
 10
0.0014787856388948
 20
5.872587186127065
 30
0.0
 10
0.0010006985883146
 20
5.899088382748565
 30
0.0
 10
0.0005136014497144
 20
5.935998320194965
 30
0.0
 10
0.0003903806976472
 20
5.9471806177487
 30
0.0
 10
0.0002938562125986
 20
5.957546376983255
 30
0.0
  0
SPLINE
  5
3D66
330
3D54
100
AcDbEntity
  8
0
100
AcDbSpline
210
0.0
220
0.0
230
1.0
 70
     8
 71
     3
 72
    18
 73
    14
 74
     0
 42
0.000000001
 43
0.0000000001
 40
0.176355552625414
 40
0.176355552625414
 40
0.176355552625414
 40
0.176355552625414
 40
0.1865482881190992
 40
0.1865482881190992
 40
0.1983595804573828
 40
0.1983595804573828
 40
0.2099206110062295
 40
0.2099206110062295
 40
0.2201843128546388
 40
0.2201843128546388
 40
0.2373444032433908
 40
0.2373444032433908
 40
0.2414110955192936
 40
0.2414110955192936
 40
0.2414110955192936
 40
0.2414110955192936
 10
0.0353219809407579
 20
5.510038518211191
 30
0.0
 10
0.0353219805003604
 20
5.510038521497201
 30
0.0
 10
0.0350930923680636
 20
5.511745602638377
 30
0.0
 10
0.0341151956698145
 20
5.51894390129196
 30
0.0
 10
0.0328702013933875
 20
5.527989960259885
 30
0.0
 10
0.0289874098827564
 20
5.557395644608236
 30
0.0
 10
0.026419646796335
 20
5.577284563732362
 30
0.0
 10
0.0211942738901997
 20
5.621462639266892
 30
0.0
 10
0.0185468470839093
 20
5.645293373242799
 30
0.0
 10
0.011732462301386
 20
5.714998625031222
 30
0.0
 10
0.0077012488259933
 20
5.766477542479452
 30
0.0
 10
0.0043406960290873
 20
5.833102044831153
 30
0.0
 10
0.003761106424962
 20
5.846039705754687
 30
0.0
 10
0.0032458971288965
 20
5.859096051164353
 30
0.0
  0
SPLINE
  5
3D67
330
3D54
100
AcDbEntity
  8
0
100
AcDbSpline
210
0.0
220
0.0
230
1.0
 70
     8
 71
     3
 72
     8
 73
     4
 74
     0
 42
0.000000001
 43
0.0000000001
 40
0.2551697279795432
 40
0.2551697279795432
 40
0.2551697279795432
 40
0.2551697279795432
 40
0.2559834479868784
 40
0.2559834479868784
 40
0.2559834479868784
 40
0.2559834479868784
 10
0.0000085640718001
 20
5.992749119624489
 30
0.0
 10
-0.0000205740378278
 20
5.995216585825534
 30
0.0
 10
-0.0000477570222979
 20
5.997634627622725
 30
0.0
 10
-0.0000729638271226
 20
5.999990707720717
 30
0.0
  0
LINE
  5
3D68
330
3D54
100
AcDbEntity
  8
0
100
AcDbLine
 10
0.0
 20
74.99999999999999
 30
0.0
 11
0.0
 21
5.999999999999996
 31
0.0
  0
LINE
  5
3D69
330
3D54
100
AcDbEntity
  8
0
100
AcDbLine
 10
3.0
 20
5.999999999999996
 30
0.0
 11
3.0
 21
74.99999999999999
 31
0.0
  0
LINE
  5
3D6A
330
3D54
100
AcDbEntity
  8
0
100
AcDbLine
 10
0.0
 20
74.99999999999999
 30
0.0
 11
3.0
 21
74.99999999999999
 31
0.0
  0
LINE
  5
3D6B
330
3D54
100
AcDbEntity
  8
0
100
AcDbLine
 10
5.500000000000014
 20
2.999999999999988
 30
0.0
 11
108.0
 21
2.99999999999998
 31
0.0
  0
LINE
  5
3D6C
330
3D54
100
AcDbEntity
  8
0
100
AcDbLine
 10
108.0
 20
-3.000000000000029
 30
0.0
 11
108.0
 21
2.999999999999988
 31
0.0
  0
LINE
  5
3D6D
330
3D54
100
AcDbEntity
  8
0
100
AcDbLine
 10
5.500000000000014
 20
-50.00000000000006
 30
0.0
 11
5.500000000000014
 21
-3.000000000000024
 31
0.0
  0
LINE
  5
3D6E
330
3D54
100
AcDbEntity
  8
0
100
AcDbLine
 10
5.500000000000014
 20
2.999999999999939
 30
0.0
 11
5.500000000000014
 21
-3.000000000000028
 31
0.0
  0
CIRCLE
  5
3D6F
330
3D54
100
AcDbEntity
  8
0
100
AcDbCircle
 10
19.99999999999997
 20
-40.00000000000006
 30
0.0
 40
2.5
  0
CIRCLE
  5
3D70
330
3D54
100
AcDbEntity
  8
0
100
AcDbCircle
 10
19.99999999999997
 20
-20.00000000000006
 30
0.0
 40
2.5
  0
CIRCLE
  5
3D71
330
3D54
100
AcDbEntity
  8
0
100
AcDbCircle
 10
59.99999999999997
 20
-40.00000000000007
 30
0.0
 40
2.5
  0
CIRCLE
  5
3D72
330
3D54
100
AcDbEntity
  8
0
100
AcDbCircle
 10
39.99999999999997
 20
-30.00000000000007
 30
0.0
 40
2.5
  0
CIRCLE
  5
3D73
330
3D54
100
AcDbEntity
  8
0
100
AcDbCircle
 10
59.99999999999997
 20
-20.00000000000007
 30
0.0
 40
2.5
  0
CIRCLE
  5
3D74
330
3D54
100
AcDbEntity
  8
0
100
AcDbCircle
 10
79.99999999999997
 20
-30.00000000000009
 30
0.0
 40
2.5
  0
CIRCLE
  5
3D75
330
3D54
100
AcDbEntity
  8
0
100
AcDbCircle
 10
99.99999999999998
 20
-40.00000000000008
 30
0.0
 40
2.5
  0
LINE
  5
3D76
330
3D54
100
AcDbEntity
  8
0
100
AcDbLine
 10
108.0
 20
-3.000000000000028
 30
0.0
 11
108.0
 21
-50.00000000000008
 31
0.0
  0
LINE
  5
3D77
330
3D54
100
AcDbEntity
  8
0
100
AcDbLine
 10
108.0
 20
-50.00000000000008
 30
0.0
 11
5.500000000000007
 21
-50.00000000000006
 31
0.0
  0
ENDBLK
  5
3D56
330
3D54
100
AcDbEntity
  8
0
100
AcDbBlockEnd
  0
BLOCK
  5
3D79
330
3D78
100
AcDbEntity
  8
0
100
AcDbBlockBegin
  2
SFHS-BR-Left
 70
     0
 10
0.0
 20
0.0
 30
0.0
  3
SFHS-BR-Left
  1

  0
SPLINE
  5
3D7B
330
3D78
100
AcDbEntity
  8
0
100
AcDbSpline
210
0.0
220
0.0
230
1.0
 70
     8
 71
     3
 72
     8
 73
     4
 74
     0
 42
0.000000001
 43
0.0000000001
 40
0.730648425756446
 40
0.730648425756446
 40
0.730648425756446
 40
0.730648425756446
 40
0.9061517382581271
 40
0.9061517382581271
 40
0.9061517382581271
 40
0.9061517382581271
 10
-1.621501950167549
 20
5.05358631785013
 30
0.0
 10
-1.878183873559723
 20
5.22749131878979
 30
0.0
 10
-2.158178842780403
 20
5.363881455355513
 30
0.0
 10
-2.471635660354619
 20
5.437852089084036
 30
0.0
  0
LINE
  5
3D7C
330
3D78
100
AcDbEntity
  8
0
100
AcDbLine
 10
2.999999999999998
 20
0.0
 30
0.0
 11
0.0
 21
0.0
 31
0.0
  0
LINE
  5
3D7D
330
3D78
100
AcDbEntity
  8
0
100
AcDbLine
 10
2.999999999999998
 20
0.0
 30
0.0
 11
2.999999999999997
 21
5.999999999999979
 31
0.0
  0
LINE
  5
3D7E
330
3D78
100
AcDbEntity
  8
0
100
AcDbLine
 10
-0.0050799999999995
 20
5.999999999999974
 30
0.0
 11
2.999999999999998
 21
5.999999999999975
 31
0.0
  0
ARC
  5
3D7F
330
3D78
100
AcDbEntity
  8
0
100
AcDbCircle
 10
-0.0050799999999966
 20
-3.250000000000374
 30
0.0
 40
9.250000000000346
100
AcDbArc
 50
90.00000000000005
 51
108.9246444160505
  0
SPLINE
  5
3D80
330
3D78
100
AcDbEntity
  8
0
100
AcDbSpline
210
0.0
220
0.0
230
1.0
 70
     8
 71
     3
 72
    14
 73
    10
 74
     0
 42
0.000000001
 43
0.0000000001
 40
-1.0
 40
-1.0
 40
-1.0
 40
-1.0
 40
-0.8193063180892082
 40
-0.8193063180892082
 40
-0.8193063180892082
 40
-0.2706742009803313
 40
-0.2706742009803313
 40
-0.2706742009803313
 40
0.0
 40
0.0
 40
0.0
 40
0.0
 10
-3.005080000000003
 20
5.499999999999992
 30
0.0
 10
-2.306352118812452
 20
5.49579511524151
 30
0.0
 10
-1.772166459137386
 20
5.321394552231342
 30
0.0
 10
-1.349774547959191
 20
5.026105344836331
 30
0.0
 10
-0.067284944400353
 20
4.12953197658481
 30
0.0
 10
0.0996063910640905
 20
2.18305732362471
 30
0.0
 10
0.0740008631048947
 20
0.989622367107712
 30
0.0
 10
0.0613680703738417
 20
0.4008269918396446
 30
0.0
 10
0.0012874747330383
 20
0.0000004248682561
 30
0.0
 10
0.0000000000000044
 20
0.0000000000236522
 30
0.0
  0
LINE
  5
3D81
330
3D78
100
AcDbEntity
  8
0
100
AcDbLine
 10
0.0
 20
0.0
 30
0.0
 11
0.0
 21
0.7346499457371625
 31
0.0
  0
LINE
  5
3D82
330
3D78
100
AcDbEntity
  8
0
100
AcDbLine
 10
0.0
 20
1.385653033466702
 30
0.0
 11
0.0
 21
1.748126081420842
 31
0.0
  0
SPLINE
  5
3D83
330
3D78
100
AcDbEntity
  8
0
100
AcDbSpline
210
0.0
220
0.0
230
1.0
 70
     8
 71
     3
 72
    28
 73
    24
 74
     0
 42
0.000000001
 43
0.0000000001
 40
0.0
 40
0.0
 40
0.0
 40
0.0
 40
0.0000208572017483
 40
0.0000208572017483
 40
0.0000625716073767
 40
0.0000625716073767
 40
0.0001460004355462
 40
0.0001460004355462
 40
0.0004797170685057
 40
0.0004797170685057
 40
0.0011471581892192
 40
0.0011471581892192
 40
0.0024820956846713
 40
0.0024820956846713
 40
0.0061021205025639
 40
0.0061021205025639
 40
0.0127587993078235
 40
0.0127587993078235
 40
0.0585300344975094
 40
0.0585300344975094
 40
0.1439938762271613
 40
0.1439938762271613
 40
0.1707218611500228
 40
0.1707218611500228
 40
0.1707218611500228
 40
0.1707218611500228
 10
-0.0000352886140478
 20
0.044136626008144
 30
0.0
 10
-0.0000352774604554
 20
0.0442030469090101
 30
0.0
 10
-0.0000352663074692
 20
0.0442694716136073
 30
0.0
 10
-0.0000352328502407
 20
0.0444687571129143
 30
0.0
 10
-0.0000352105477273
 20
0.0446016292997439
 30
0.0
 10
-0.0000351436464013
 20
0.0450002912108787
 30
0.0
 10
-0.0000350990537923
 20
0.0452661263395808
 30
0.0
 10
-0.000034876122258
 20
0.0465956052715457
 30
0.0
 10
-0.0000346978785622
 20
0.047660151908403
 30
0.0
 10
-0.0000341631071268
 20
0.0508565759211285
 30
0.0
 10
-0.000033806528546
 20
0.0529912638680586
 30
0.0
 10
-0.0000327340569915
 20
0.0594057182259593
 30
0.0
 10
-0.0000320153015005
 20
0.0636960726458356
 30
0.0
 10
-0.0000293126566438
 20
0.0796640619418627
 30
0.0
 10
-0.0000272631422397
 20
0.0914208134738136
 30
0.0
 10
-0.0000210570990408
 20
0.1249511515367788
 30
0.0
 10
-0.0000165415848224
 20
0.1468808591669101
 30
0.0
 10
0.0000219609233312
 20
0.3201709947668961
 30
0.0
 10
0.0000443713546944
 20
0.4737261777504384
 30
0.0
 10
0.0000147718369743
 20
0.9110759221644057
 30
0.0
 10
0.0000210854874949
 20
1.196135369996656
 30
0.0
 10
-0.0000045766653481
 20
1.569957516827461
 30
0.0
 10
-0.0000119686129934
 20
1.65920738241219
 30
0.0
 10
-0.0000020375573693
 20
1.748162055520037
 30
0.0
  0
SPLINE
  5
3D84
330
3D78
100
AcDbEntity
  8
0
100
AcDbSpline
210
0.0
220
0.0
230
1.0
 70
     8
 71
     3
 72
    14
 73
    10
 74
     0
 42
0.000000001
 43
0.0000000001
 40
0.0
 40
0.0
 40
0.0
 40
0.0
 40
0.003857623581376
 40
0.003857623581376
 40
0.0115813039420245
 40
0.0115813039420245
 40
0.0271505658412315
 40
0.0271505658412315
 40
0.0364900716987464
 40
0.0364900716987464
 40
0.0364900716987464
 40
0.0364900716987464
 10
-3.798190633602012
 20
5.482208085757752
 30
0.0
 10
-3.805556593545007
 20
5.481812915154026
 30
0.0
 10
-3.812684698473431
 20
5.48142364817084
 30
0.0
 10
-3.833293742822032
 20
5.480280456806664
 30
0.0
 10
-3.846009519173017
 20
5.479550407029428
 30
0.0
 10
-3.880525061245839
 20
5.477518300102881
 30
0.0
 10
-3.898715884876455
 20
5.476370189737677
 30
0.0
 10
-3.91548274427356
 20
5.475288982855607
 30
0.0
 10
-3.919067888251814
 20
5.4750494245334
 30
0.0
 10
-3.919067885616004
 20
5.475049424709261
 30
0.0
  0
SPLINE
  5
3D85
330
3D78
100
AcDbEntity
  8
0
100
AcDbSpline
210
0.0
220
0.0
230
1.0
 70
     8
 71
     3
 72
     8
 73
     4
 74
     0
 42
0.000000001
 43
0.0000000001
 40
0.0
 40
0.0
 40
0.0
 40
0.0
 40
0.065100308803644
 40
0.065100308803644
 40
0.065100308803644
 40
0.065100308803644
 10
0.0000253042864208
 20
0.7346499457371626
 30
0.0
 10
0.0000058589420829
 20
0.9516200728954931
 30
0.0
 10
0.0000069215425358
 20
1.168727459698984
 30
0.0
 10
0.000005314674548
 20
1.385653033466702
 30
0.0
  0
SPLINE
  5
3D86
330
3D78
100
AcDbEntity
  8
0
100
AcDbSpline
210
0.0
220
0.0
230
1.0
 70
     8
 71
     3
 72
    24
 73
    20
 74
     0
 42
0.000000001
 43
0.0000000001
 40
0.1880152885474758
 40
0.1880152885474758
 40
0.1880152885474758
 40
0.1880152885474758
 40
0.1969491136394507
 40
0.1969491136394507
 40
0.2368865686726279
 40
0.2368865686726279
 40
0.2840229376769445
 40
0.2840229376769445
 40
0.3373942127226392
 40
0.3373942127226392
 40
0.3987978855302444
 40
0.3987978855302444
 40
0.4657223325344844
 40
0.4657223325344844
 40
0.5388822176471068
 40
0.5388822176471068
 40
0.6225610200243161
 40
0.6225610200243161
 40
0.6730069416697069
 40
0.6730069416697069
 40
0.6730069416697069
 40
0.6730069416697069
 10
0.0037067717502175
 20
1.668014680585918
 30
0.0
 10
0.0037067717146049
 20
1.668014681888532
 30
0.0
 10
0.0036788416705259
 20
1.669037250941952
 30
0.0
 10
0.003331646857662
 20
1.679864539652339
 30
0.0
 10
0.0023400981122343
 20
1.708191095189019
 30
0.0
 10
-0.0032815673726176
 20
1.804209985948495
 30
0.0
 10
-0.0086495510486066
 20
1.879456278667524
 30
0.0
 10
-0.028223827383197
 20
2.072916035940492
 30
0.0
 10
-0.0437166006219859
 20
2.197343392359474
 30
0.0
 10
-0.0924903675388958
 20
2.491478727150511
 30
0.0
 10
-0.1287625857985523
 20
2.668496175342469
 30
0.0
 10
-0.2299671556949974
 20
3.049868704284761
 30
0.0
 10
-0.2984569493051079
 20
3.259609919995147
 30
0.0
 10
-0.4749125122740845
 20
3.687330185489791
 30
0.0
 10
-0.5878469185558276
 20
3.908752881507213
 30
0.0
 10
-0.8693974468574118
 20
4.347476507422593
 30
0.0
 10
-1.046992372878776
 20
4.564669184074125
 30
0.0
 10
-1.364047548581289
 20
4.863545284196367
 30
0.0
 10
-1.492708900567109
 20
4.966542280067936
 30
0.0
 10
-1.621746703542138
 20
5.053660674211664
 30
0.0
  0
SPLINE
  5
3D87
330
3D78
100
AcDbEntity
  8
0
100
AcDbSpline
210
0.0
220
0.0
230
1.0
 70
     8
 71
     3
 72
     8
 73
     4
 74
     0
 42
0.000000001
 43
0.0000000001
 40
0.0245101399549473
 40
0.0245101399549473
 40
0.0245101399549473
 40
0.0245101399549473
 40
0.0249305534505403
 40
0.0249305534505403
 40
0.0249305534505403
 40
0.0249305534505403
 10
-3.003464505315936
 20
5.499929875732592
 30
0.0
 10
-3.003961018367816
 20
5.499938341687405
 30
0.0
 10
-3.00449684677648
 20
5.49994739449248
 30
0.0
 10
-3.005080708216957
 20
5.499957138344933
 30
0.0
  0
SPLINE
  5
3D88
330
3D78
100
AcDbEntity
  8
0
100
AcDbSpline
210
0.0
220
0.0
230
1.0
 70
     8
 71
     3
 72
     8
 73
     4
 74
     0
 42
0.000000001
 43
0.0000000001
 40
0.0225793695766687
 40
0.0225793695766687
 40
0.0225793695766687
 40
0.0225793695766687
 40
0.0349429239688338
 40
0.0349429239688338
 40
0.0349429239688338
 40
0.0349429239688338
 10
-3.00110564137991
 20
5.499924686148339
 30
0.0
 10
-3.001105641372268
 20
5.499924686148221
 30
0.0
 10
-3.00236056183468
 20
5.499944560923597
 30
0.0
 10
-3.005080249928886
 20
5.499974798255614
 30
0.0
  0
SPLINE
  5
3D89
330
3D78
100
AcDbEntity
  8
0
100
AcDbSpline
210
0.0
220
0.0
230
1.0
 70
     8
 71
     3
 72
    38
 73
    34
 74
     0
 42
0.000000001
 43
0.0000000001
 40
0.092166911021524
 40
0.092166911021524
 40
0.092166911021524
 40
0.092166911021524
 40
0.1009259522156193
 40
0.1009259522156193
 40
0.1159552641369846
 40
0.1159552641369846
 40
0.1332591437971815
 40
0.1332591437971815
 40
0.1538237284328201
 40
0.1538237284328201
 40
0.1796861863486605
 40
0.1796861863486605
 40
0.1869046755325164
 40
0.1869046755325164
 40
0.1896130773171023
 40
0.1896130773171023
 40
0.1902447913900327
 40
0.1902447913900327
 40
0.1909717665137333
 40
0.1909717665137333
 40
0.1913071705282146
 40
0.1913071705282146
 40
0.1917633814297919
 40
0.1917633814297919
 40
0.1922473642601941
 40
0.1922473642601941
 40
0.1929927986870766
 40
0.1929927986870766
 40
0.1944728624436171
 40
0.1944728624436171
 40
0.1986734729309916
 40
0.1986734729309916
 40
0.1987245395477404
 40
0.1987245395477404
 40
0.1987245395477404
 40
0.1987245395477404
 10
-2.346491096875848
 20
5.40668094949833
 30
0.0
 10
-2.346491093388881
 20
5.406680948531502
 30
0.0
 10
-2.349235595427903
 20
5.407445526770149
 30
0.0
 10
-2.363019241980398
 20
5.411168618514668
 30
0.0
 10
-2.378952101579356
 20
5.415405691664735
 30
0.0
 10
-2.425299815199594
 20
5.42673409994847
 30
0.0
 10
-2.457764805871047
 20
5.434185661026983
 30
0.0
 10
-2.539950182437832
 20
5.450740256836493
 30
0.0
 10
-2.592251441350428
 20
5.459953635743383
 30
0.0
 10
-2.719234688725407
 20
5.478168697446478
 30
0.0
 10
-2.797716258087913
 20
5.48671339914569
 30
0.0
 10
-2.902232393082957
 20
5.494409628294645
 30
0.0
 10
-2.925369812381656
 20
5.495907596628146
 30
0.0
 10
-2.957666902141868
 20
5.497717856559988
 30
0.0
 10
-2.966569882454907
 20
5.498188586309896
 30
0.0
 10
-2.977680134419529
 20
5.498740289430001
 30
0.0
 10
-2.979794054971162
 20
5.498843684981027
 30
0.0
 10
-2.984295873097592
 20
5.49906057161229
 30
0.0
 10
-2.986737992166306
 20
5.499176037374279
 30
0.0
 10
-2.989933019712739
 20
5.499324732346313
 30
0.0
 10
-2.990894922721295
 20
5.499369136011376
 30
0.0
 10
-2.992944236821465
 20
5.499463162307022
 30
0.0
 10
-2.993969002832867
 20
5.499509700435244
 30
0.0
 10
-2.995712806786314
 20
5.49958847826932
 30
0.0
 10
-2.996435041916953
 20
5.499620844366871
 30
0.0
 10
-2.997966686936599
 20
5.499689249055722
 30
0.0
 10
-2.998634227536585
 20
5.499718800891391
 30
0.0
 10
-3.000270215835975
 20
5.499791046842096
 30
0.0
 10
-3.000917024244126
 20
5.499819289102569
 30
0.0
 10
-3.002993573536427
 20
5.499909855116539
 30
0.0
 10
-3.003619742670084
 20
5.499936627939866
 30
0.0
 10
-3.004289460023649
 20
5.499965316577766
 30
0.0
 10
-3.004297485358952
 20
5.499965660328223
 30
0.0
 10
-3.004305492227075
 20
5.499966003257562
 30
0.0
  0
LINE
  5
3D8A
330
3D78
100
AcDbEntity
  8
0
100
AcDbLine
 10
77.0
 20
5.999999999999991
 30
0.0
 11
80.0
 21
5.999999999999992
 31
0.0
  0
SPLINE
  5
3D8B
330
3D78
100
AcDbEntity
  8
0
100
AcDbSpline
210
0.0
220
0.0
230
1.0
 70
     8
 71
     3
 72
    14
 73
    10
 74
     0
 42
0.000000001
 43
0.0000000001
 40
-1.0
 40
-1.0
 40
-1.0
 40
-1.0
 40
-0.6434500067457547
 40
-0.6434500067457547
 40
-0.6434500067457547
 40
-0.2563502858785579
 40
-0.2563502858785579
 40
-0.2563502858785579
 40
0.0
 40
0.0
 40
0.0
 40
0.0
 10
80.0
 20
5.999999999999974
 30
0.0
 10
80.00358349573236
 20
5.324540315872789
 30
0.0
 10
80.13293689476737
 20
4.711155059203742
 30
0.0
 10
80.39165301113074
 20
4.256897444892882
 30
0.0
 10
80.67253630470212
 20
3.763718370349624
 30
0.0
 10
81.10113192097664
 20
3.405999597706497
 30
0.0
 10
81.67407810316635
 20
3.199371338120338
 30
0.0
 10
82.05350208535969
 20
3.062535245092843
 30
0.0
 10
82.507751386098
 20
3.000007199283319
 30
0.0
 10
83.00000000000144
 20
2.99999999999788
 30
0.0
  0
LINE
  5
3D8C
330
3D78
100
AcDbEntity
  8
0
100
AcDbLine
 10
77.0
 20
5.999999999999991
 30
0.0
 11
77.0
 21
0.0
 31
0.0
  0
LINE
  5
3D8D
330
3D78
100
AcDbEntity
  8
0
100
AcDbLine
 10
80.0
 20
0.0
 30
0.0
 11
77.0
 21
0.0
 31
0.0
  0
LINE
  5
3D8E
330
3D78
100
AcDbEntity
  8
0
100
AcDbLine
 10
83.0
 20
0.0
 30
0.0
 11
80.0
 21
0.0
 31
0.0
  0
SPLINE
  5
3D8F
330
3D78
100
AcDbEntity
  8
0
100
AcDbSpline
210
0.0
220
0.0
230
1.0
 70
     8
 71
     3
 72
    14
 73
    10
 74
     0
 42
0.000000001
 43
0.0000000001
 40
-1.0
 40
-1.0
 40
-1.0
 40
-1.0
 40
-0.819349259516202
 40
-0.819349259516202
 40
-0.819349259516202
 40
-0.2712553180531303
 40
-0.2712553180531303
 40
-0.2712553180531303
 40
0.0
 40
0.0
 40
0.0
 40
0.0
 10
83.00000000000004
 20
-0.0000000000000082
 30
0.0
 10
82.30143742257842
 20
0.0000019380480603
 30
0.0
 10
81.76752284710838
 20
0.0872783039436435
 30
0.0
 10
81.34544450776767
 20
0.2492196791557613
 30
0.0
 10
80.06485977284828
 20
0.7405494483460551
 30
0.0
 10
79.8987639289136
 20
1.929372261642963
 30
0.0
 10
79.92500413467277
 20
3.47133461278287
 30
0.0
 10
79.93799058611938
 20
4.234461982641946
 30
0.0
 10
79.9987016579746
 20
5.119195612952478
 30
0.0
 10
80.00000000000003
 20
5.999999999984164
 30
0.0
  0
LINE
  5
3D90
330
3D78
100
AcDbEntity
  8
0
100
AcDbLine
 10
83.0
 20
2.999999999999989
 30
0.0
 11
83.0
 21
0.0
 31
0.0
  0
LINE
  5
3D91
330
3D78
100
AcDbEntity
  8
0
100
AcDbLine
 10
79.99999999999999
 20
74.99999999999999
 30
0.0
 11
80.0
 21
5.999999999999996
 31
0.0
  0
LINE
  5
3D92
330
3D78
100
AcDbEntity
  8
0
100
AcDbLine
 10
-120.0
 20
74.99999999999997
 30
0.0
 11
79.99999999999997
 21
74.99999999999999
 31
0.0
  0
LINE
  5
3D93
330
3D78
100
AcDbEntity
  8
0
100
AcDbLine
 10
-120.0
 20
5.499999999999976
 30
0.0
 11
-120.0
 21
74.99999999999997
 31
0.0
  0
LINE
  5
3D94
330
3D78
100
AcDbEntity
  8
0
100
AcDbLine
 10
-3.005080000000006
 20
5.499999999999993
 30
0.0
 11
-120.0
 21
5.499999999999976
 31
0.0
  0
CIRCLE
  5
3D95
330
3D78
100
AcDbEntity
  8
0
100
AcDbCircle
 10
-110.0
 20
54.99999999999997
 30
0.0
 40
2.5
  0
CIRCLE
  5
3D96
330
3D78
100
AcDbEntity
  8
0
100
AcDbCircle
 10
-90.00000000000005
 20
64.99999999999997
 30
0.0
 40
2.5
  0
CIRCLE
  5
3D97
330
3D78
100
AcDbEntity
  8
0
100
AcDbCircle
 10
-90.00000000000003
 20
24.99999999999998
 30
0.0
 40
2.5
  0
CIRCLE
  5
3D98
330
3D78
100
AcDbEntity
  8
0
100
AcDbCircle
 10
-90.00000000000005
 20
44.99999999999997
 30
0.0
 40
2.5
  0
CIRCLE
  5
3D99
330
3D78
100
AcDbEntity
  8
0
100
AcDbCircle
 10
-110.0
 20
34.99999999999997
 30
0.0
 40
2.5
  0
CIRCLE
  5
3D9A
330
3D78
100
AcDbEntity
  8
0
100
AcDbCircle
 10
-70.00000000000003
 20
54.99999999999997
 30
0.0
 40
2.5
  0
CIRCLE
  5
3D9B
330
3D78
100
AcDbEntity
  8
0
100
AcDbCircle
 10
-50.00000000000004
 20
64.99999999999997
 30
0.0
 40
2.5
  0
CIRCLE
  5
3D9C
330
3D78
100
AcDbEntity
  8
0
100
AcDbCircle
 10
-50.00000000000003
 20
24.99999999999998
 30
0.0
 40
2.5
  0
CIRCLE
  5
3D9D
330
3D78
100
AcDbEntity
  8
0
100
AcDbCircle
 10
-50.00000000000004
 20
44.99999999999997
 30
0.0
 40
2.5
  0
CIRCLE
  5
3D9E
330
3D78
100
AcDbEntity
  8
0
100
AcDbCircle
 10
-70.00000000000003
 20
34.99999999999997
 30
0.0
 40
2.5
  0
CIRCLE
  5
3D9F
330
3D78
100
AcDbEntity
  8
0
100
AcDbCircle
 10
-30.00000000000003
 20
54.99999999999997
 30
0.0
 40
2.5
  0
CIRCLE
  5
3DA0
330
3D78
100
AcDbEntity
  8
0
100
AcDbCircle
 10
-10.00000000000004
 20
64.99999999999997
 30
0.0
 40
2.5
  0
CIRCLE
  5
3DA1
330
3D78
100
AcDbEntity
  8
0
100
AcDbCircle
 10
-10.00000000000003
 20
24.99999999999998
 30
0.0
 40
2.5
  0
CIRCLE
  5
3DA2
330
3D78
100
AcDbEntity
  8
0
100
AcDbCircle
 10
-10.00000000000004
 20
44.99999999999997
 30
0.0
 40
2.5
  0
CIRCLE
  5
3DA3
330
3D78
100
AcDbEntity
  8
0
100
AcDbCircle
 10
-30.00000000000003
 20
34.99999999999997
 30
0.0
 40
2.5
  0
CIRCLE
  5
3DA4
330
3D78
100
AcDbEntity
  8
0
100
AcDbCircle
 10
9.999999999999969
 20
54.99999999999997
 30
0.0
 40
2.5
  0
CIRCLE
  5
3DA5
330
3D78
100
AcDbEntity
  8
0
100
AcDbCircle
 10
29.99999999999996
 20
64.99999999999997
 30
0.0
 40
2.5
  0
CIRCLE
  5
3DA6
330
3D78
100
AcDbEntity
  8
0
100
AcDbCircle
 10
29.99999999999997
 20
24.99999999999998
 30
0.0
 40
2.5
  0
CIRCLE
  5
3DA7
330
3D78
100
AcDbEntity
  8
0
100
AcDbCircle
 10
29.99999999999996
 20
44.99999999999997
 30
0.0
 40
2.5
  0
CIRCLE
  5
3DA8
330
3D78
100
AcDbEntity
  8
0
100
AcDbCircle
 10
9.999999999999975
 20
34.99999999999998
 30
0.0
 40
2.5
  0
CIRCLE
  5
3DA9
330
3D78
100
AcDbEntity
  8
0
100
AcDbCircle
 10
49.99999999999997
 20
54.99999999999997
 30
0.0
 40
2.5
  0
CIRCLE
  5
3DAA
330
3D78
100
AcDbEntity
  8
0
100
AcDbCircle
 10
69.99999999999994
 20
64.99999999999999
 30
0.0
 40
2.5
  0
CIRCLE
  5
3DAB
330
3D78
100
AcDbEntity
  8
0
100
AcDbCircle
 10
69.99999999999996
 20
24.99999999999998
 30
0.0
 40
2.5
  0
CIRCLE
  5
3DAC
330
3D78
100
AcDbEntity
  8
0
100
AcDbCircle
 10
69.99999999999996
 20
44.99999999999997
 30
0.0
 40
2.5
  0
CIRCLE
  5
3DAD
330
3D78
100
AcDbEntity
  8
0
100
AcDbCircle
 10
49.99999999999997
 20
34.99999999999998
 30
0.0
 40
2.5
  0
LINE
  5
3DAE
330
3D78
100
AcDbEntity
  8
0
100
AcDbLine
 10
137.0
 20
2.999999999999988
 30
0.0
 11
83.0
 21
2.999999999999989
 31
0.0
  0
LINE
  5
3DAF
330
3D78
100
AcDbEntity
  8
0
100
AcDbLine
 10
83.0
 20
0.0
 30
0.0
 11
137.0
 21
0.0
 31
0.0
  0
ARC
  5
3DB0
330
3D78
100
AcDbEntity
  8
0
100
AcDbCircle
 10
136.9999999999999
 20
-3.00000000000002
 30
0.0
 40
2.999999999999998
100
AcDbArc
 50
0.0
 51
89.99999999999936
  0
LINE
  5
3DB1
330
3D78
100
AcDbEntity
  8
0
100
AcDbLine
 10
139.9999999999999
 20
-3.000000000000029
 30
0.0
 11
139.9999999999999
 21
-50.00000000000006
 31
0.0
  0
LINE
  5
3DB2
330
3D78
100
AcDbEntity
  8
0
100
AcDbLine
 10
139.9999999999999
 20
-50.00000000000007
 30
0.0
 11
142.9999999999999
 21
-50.00000000000006
 31
0.0
  0
LINE
  5
3DB3
330
3D78
100
AcDbEntity
  8
0
100
AcDbLine
 10
142.9999999999999
 20
-50.00000000000006
 30
0.0
 11
142.9999999999999
 21
-3.000000000000024
 31
0.0
  0
ARC
  5
3DB4
330
3D78
100
AcDbEntity
  8
0
100
AcDbCircle
 10
136.9999999999999
 20
-3.00000000000002
 30
0.0
 40
5.99999999999996
100
AcDbArc
 50
0.0
 51
90.0
  0
LINE
  5
3DB5
330
3D78
100
AcDbEntity
  8
0
100
AcDbLine
 10
77.0
 20
0.0
 30
0.0
 11
2.999999999999998
 21
0.0
 31
0.0
  0
ENDBLK
  5
3D7A
330
3D78
100
AcDbEntity
  8
0
100
AcDbBlockEnd
  0
BLOCK
  5
3DB7
330
3DB6
100
AcDbEntity
  8
0
100
AcDbBlockBegin
  2
SFHS-BR-Right
 70
     0
 10
0.0
 20
0.0
 30
0.0
  3
SFHS-BR-Right
  1

  0
SPLINE
  5
3DB9
330
3DB6
100
AcDbEntity
  8
0
100
AcDbSpline
210
0.0
220
0.0
230
1.0
 70
     8
 71
     3
 72
    17
 73
    13
 74
     0
 42
0.000000001
 43
0.0000000001
 40
0.0
 40
0.0
 40
0.0
 40
0.0
 40
0.2923303629772381
 40
0.2923303629772381
 40
0.2923303629772381
 40
0.7134424300659939
 40
0.7134424300659939
 40
0.7134424300659939
 40
0.9796687136939619
 40
0.9796687136939619
 40
0.9796687136939619
 40
1.0
 40
1.0
 40
1.0
 40
1.0
 10
-0.0000000000000082
 20
3.000000000000051
 30
0.0
 10
0.003098596991798
 20
2.999941161822605
 30
0.0
 10
0.088163550557235
 20
3.210604044667664
 30
0.0
 10
0.2651959854360117
 20
3.517325696214279
 30
0.0
 10
0.5202173723159019
 20
3.959168915605522
 30
0.0
 10
0.9415086240561608
 20
4.567027712863902
 30
0.0
 10
1.546670847986409
 20
5.001380167059656
 30
0.0
 10
1.929253306339543
 20
5.275976999358102
 30
0.0
 10
2.363191387839894
 20
5.46986753910335
 30
0.0
 10
2.883910237567989
 20
5.496120305604636
 30
0.0
 10
2.923676724462151
 20
5.49812518846139
 30
0.0
 10
2.964086442147059
 20
5.499293393863434
 30
0.0
 10
3.005080000001468
 20
5.500000000000081
 30
0.0
  0
ARC
  5
3DBA
330
3DB6
100
AcDbEntity
  8
0
100
AcDbCircle
 10
0.0050799999999966
 20
-3.250000000000374
 30
0.0
 40
9.250000000000346
100
AcDbArc
 50
71.07535558394949
 51
89.99999999999998
  0
LINE
  5
3DBB
330
3DB6
100
AcDbEntity
  8
0
100
AcDbLine
 10
-2.999999999999998
 20
5.999999999999975
 30
0.0
 11
0.0050799999999995
 21
5.999999999999974
 31
0.0
  0
LINE
  5
3DBC
330
3DB6
100
AcDbEntity
  8
0
100
AcDbLine
 10
-2.999999999999997
 20
2.999999999999975
 30
0.0
 11
-2.999999999999997
 21
5.999999999999979
 31
0.0
  0
SPLINE
  5
3DBD
330
3DB6
100
AcDbEntity
  8
0
100
AcDbSpline
210
0.0
220
0.0
230
1.0
 70
     8
 71
     3
 72
    16
 73
    12
 74
     0
 42
0.000000001
 43
0.0000000001
 40
0.0537453690844427
 40
0.0537453690844427
 40
0.0537453690844427
 40
0.0537453690844427
 40
0.0549456244058686
 40
0.0549456244058686
 40
0.0649659822775724
 40
0.0649659822775724
 40
0.1057619455350892
 40
0.1057619455350892
 40
0.1297739721645008
 40
0.1297739721645008
 40
0.1837082774125983
 40
0.1837082774125983
 40
0.1837082774125983
 40
0.1837082774125983
 10
0.0000000000000031
 20
2.790671815540657
 30
0.0
 10
0.0000391501565564
 20
2.786688618314249
 30
0.0
 10
0.0000788529400684
 20
2.782689967541297
 30
0.0
 10
0.000451185127051
 20
2.745333263011002
 30
0.0
 10
0.0007869827114456
 20
2.711899840616474
 30
0.0
 10
0.0020197488446548
 20
2.543723433507197
 30
0.0
 10
0.0010577673053924
 20
2.403972992067797
 30
0.0
 10
0.0001962883107278
 20
2.192412447631119
 30
0.0
 10
0.0000683453440431
 20
2.117645466896149
 30
0.0
 10
-0.0000894001914133
 20
1.863285349473695
 30
0.0
 10
0.0000137570564044
 20
1.681836232076704
 30
0.0
 10
0.0000000000000003
 20
1.501990017651701
 30
0.0
  0
SPLINE
  5
3DBE
330
3DB6
100
AcDbEntity
  8
0
100
AcDbSpline
210
0.0
220
0.0
230
1.0
 70
     8
 71
     3
 72
     8
 73
     4
 74
     0
 42
0.000000001
 43
0.0000000001
 40
0.0
 40
0.0
 40
0.0
 40
0.0
 40
0.0651003088035415
 40
0.0651003088035415
 40
0.0651003088035415
 40
0.0651003088035415
 10
-0.000005314674548
 20
1.385653033466658
 30
0.0
 10
-0.0000069215425358
 20
1.168727459699281
 30
0.0
 10
-0.0000058589420828
 20
0.9516200728961322
 30
0.0
 10
-0.0000253042864207
 20
0.7346499457381432
 30
0.0
  0
SPLINE
  5
3DBF
330
3DB6
100
AcDbEntity
  8
0
100
AcDbSpline
210
0.0
220
0.0
230
1.0
 70
     8
 71
     3
 72
    12
 73
     8
 74
     0
 42
0.000000001
 43
0.0000000001
 40
0.0
 40
0.0
 40
0.0
 40
0.0
 40
0.0021748237117332
 40
0.0021748237117332
 40
0.0050452671863848
 40
0.0050452671863848
 40
0.0081311185183473
 40
0.0081311185183473
 40
0.0081311185183473
 40
0.0081311185183473
 10
3.005080708216956
 20
5.499957138344932
 30
0.0
 10
3.002060358684041
 20
5.499906732823745
 30
0.0
 10
3.000224102167405
 20
5.49987363034282
 30
0.0
 10
2.997062963651568
 20
5.499816014925583
 30
0.0
 10
2.996091714502711
 20
5.499797161026821
 30
0.0
 10
2.994771609906021
 20
5.499771392210178
 30
0.0
 10
2.994493849610665
 20
5.499765627502481
 30
0.0
 10
2.994493849693812
 20
5.49976562750419
 30
0.0
  0
SPLINE
  5
3DC0
330
3DB6
100
AcDbEntity
  8
0
100
AcDbSpline
210
0.0
220
0.0
230
1.0
 70
     8
 71
     3
 72
    30
 73
    26
 74
     0
 42
0.000000001
 43
0.0000000001
 40
0.0034215732560487
 40
0.0034215732560487
 40
0.0034215732560487
 40
0.0034215732560487
 40
0.0060115110994326
 40
0.0060115110994326
 40
0.008275107153085
 40
0.008275107153085
 40
0.0088810916965174
 40
0.0088810916965174
 40
0.0091831565020346
 40
0.0091831565020346
 40
0.0094854627424441
 40
0.0094854627424441
 40
0.0100958332025321
 40
0.0100958332025321
 40
0.0125624840130043
 40
0.0125624840130043
 40
0.0173774330673743
 40
0.0173774330673743
 40
0.0318544451483504
 40
0.0318544451483504
 40
0.060219244016287
 40
0.060219244016287
 40
0.0741528926162375
 40
0.0741528926162375
 40
0.0798179749939524
 40
0.0798179749939524
 40
0.0798179749939524
 40
0.0798179749939524
 10
3.00346450531641
 20
5.499929875732609
 30
0.0
 10
3.002979422377789
 20
5.499908976596201
 30
0.0
 10
3.002418190080267
 20
5.49988475592689
 30
0.0
 10
3.00065534437929
 20
5.499807880191736
 30
0.0
 10
2.999819471481571
 20
5.499772059401488
 30
0.0
 10
2.996171275544546
 20
5.499609046013365
 30
0.0
 10
2.995202069388589
 20
5.49956557340141
 30
0.0
 10
2.993304574119557
 20
5.499479466472808
 30
0.0
 10
2.99259336904628
 20
5.499447054313004
 30
0.0
 10
2.991034856487607
 20
5.499375565365918
 30
0.0
 10
2.990179519195973
 20
5.499336115010299
 30
0.0
 10
2.98747013729694
 20
5.499210246526846
 30
0.0
 10
2.985457345390585
 20
5.499115511606342
 30
0.0
 10
2.97532991159829
 20
5.498631288086544
 30
0.0
 10
2.966952915337115
 20
5.498206617953908
 30
0.0
 10
2.943124015828828
 20
5.496928727041701
 30
0.0
 10
2.927565699689841
 20
5.496005108643668
 30
0.0
 10
2.865798111206418
 20
5.491979795434446
 30
0.0
 10
2.8205327297999
 20
5.488202079957652
 30
0.0
 10
2.691734572581596
 20
5.475023237548817
 30
0.0
 10
2.61140072881508
 20
5.463337867624302
 30
0.0
 10
2.510076144811382
 20
5.444898686349828
 30
0.0
 10
2.479367192204822
 20
5.438638062669904
 30
0.0
 10
2.442097514683159
 20
5.430447729299444
 30
0.0
 10
2.431910605663778
 20
5.42813074756747
 30
0.0
 10
2.422440223712602
 20
5.425917029366424
 30
0.0
  0
SPLINE
  5
3DC1
330
3DB6
100
AcDbEntity
  8
0
100
AcDbSpline
210
0.0
220
0.0
230
1.0
 70
     8
 71
     3
 72
     8
 73
     4
 74
     0
 42
0.000000001
 43
0.0000000001
 40
0.0
 40
0.0
 40
0.0
 40
0.0
 40
0.0012339102479503
 40
0.0012339102479503
 40
0.0012339102479503
 40
0.0012339102479503
 10
3.005080249928886
 20
5.499974798255616
 30
0.0
 10
3.004808819003436
 20
5.499971780502575
 30
0.0
 10
3.004550328039413
 20
5.499968841615019
 30
0.0
 10
3.004305492266606
 20
5.499966003258021
 30
0.0
  0
SPLINE
  5
3DC2
330
3DB6
100
AcDbEntity
  8
0
100
AcDbSpline
210
0.0
220
0.0
230
1.0
 70
     8
 71
     3
 72
    20
 73
    16
 74
     0
 42
0.000000001
 43
0.0000000001
 40
0.0267621403644413
 40
0.0267621403644413
 40
0.0267621403644413
 40
0.0267621403644413
 40
0.0519436079150111
 40
0.0519436079150111
 40
0.1206114709605343
 40
0.1206114709605343
 40
0.2159158312089658
 40
0.2159158312089658
 40
0.299386278167235
 40
0.299386278167235
 40
0.3703442198991298
 40
0.3703442198991298
 40
0.4342303772255976
 40
0.4342303772255976
 40
0.4367543827748418
 40
0.4367543827748418
 40
0.4367543827748418
 40
0.4367543827748418
 10
1.417898749053198
 20
4.902558927193241
 30
0.0
 10
1.354939330658044
 20
4.851543250508231
 30
0.0
 10
1.293443900629974
 20
4.797468504275074
 30
0.0
 10
1.072435836303211
 20
4.58717280358353
 30
0.0
 10
0.924565243169061
 20
4.413134759103074
 30
0.0
 10
0.614222622724062
 20
3.966942339176864
 30
0.0
 10
0.4643357997238537
 20
3.675132122401572
 30
0.0
 10
0.2505585713129905
 20
3.127656334191456
 30
0.0
 10
0.1752621579724464
 20
2.864732163006343
 30
0.0
 10
0.0784715627446938
 20
2.425670853555542
 30
0.0
 10
0.0489841280433407
 20
2.236617008925
 30
0.0
 10
0.0135027356652839
 20
1.943679512840757
 30
0.0
 10
0.0047841028243127
 20
1.82861586955308
 30
0.0
 10
0.0003221402754311
 20
1.753674343427414
 30
0.0
 10
0.0001589774856395
 20
1.750887006636058
 30
0.0
 10
0.0000020375573694
 20
1.748162055520038
 30
0.0
  0
LINE
  5
3DC3
330
3DB6
100
AcDbEntity
  8
0
100
AcDbLine
 10
-77.0
 20
5.999999999999991
 30
0.0
 11
-77.0
 21
2.99999999999999
 31
0.0
  0
LINE
  5
3DC4
330
3DB6
100
AcDbEntity
  8
0
100
AcDbLine
 10
-80.0
 20
5.999999999999992
 30
0.0
 11
-77.0
 21
5.999999999999991
 31
0.0
  0
SPLINE
  5
3DC5
330
3DB6
100
AcDbEntity
  8
0
100
AcDbSpline
210
0.0
220
0.0
230
1.0
 70
     8
 71
     3
 72
    14
 73
    10
 74
     0
 42
0.000000001
 43
0.0000000001
 40
-1.0
 40
-1.0
 40
-1.0
 40
-1.0
 40
-0.6434500067457547
 40
-0.6434500067457547
 40
-0.6434500067457547
 40
-0.2563502858785579
 40
-0.2563502858785579
 40
-0.2563502858785579
 40
0.0
 40
0.0
 40
0.0
 40
0.0
 10
-80.0
 20
5.999999999999974
 30
0.0
 10
-80.00358349573236
 20
5.324540315872789
 30
0.0
 10
-80.13293689476737
 20
4.711155059203742
 30
0.0
 10
-80.39165301113074
 20
4.256897444892882
 30
0.0
 10
-80.67253630470212
 20
3.763718370349624
 30
0.0
 10
-81.10113192097664
 20
3.405999597706497
 30
0.0
 10
-81.67407810316635
 20
3.199371338120338
 30
0.0
 10
-82.05350208535969
 20
3.062535245092843
 30
0.0
 10
-82.507751386098
 20
3.000007199283319
 30
0.0
 10
-83.00000000000144
 20
2.99999999999788
 30
0.0
  0
LINE
  5
3DC6
330
3DB6
100
AcDbEntity
  8
0
100
AcDbLine
 10
0.0
 20
2.999999999999962
 30
0.0
 11
-137.0
 21
2.99999999999998
 31
0.0
  0
LINE
  5
3DC7
330
3DB6
100
AcDbEntity
  8
0
100
AcDbLine
 10
0.0
 20
0.0
 30
0.0
 11
-137.0
 21
0.0
 31
0.0
  0
LINE
  5
3DC8
330
3DB6
100
AcDbEntity
  8
0
100
AcDbLine
 10
0.0
 20
0.0
 30
0.0
 11
0.0
 21
2.999999999999962
 31
0.0
  0
CIRCLE
  5
3DC9
330
3DB6
100
AcDbEntity
  8
0
100
AcDbCircle
 10
-49.99999999999997
 20
34.99999999999998
 30
0.0
 40
2.5
  0
CIRCLE
  5
3DCA
330
3DB6
100
AcDbEntity
  8
0
100
AcDbCircle
 10
-69.99999999999996
 20
44.99999999999997
 30
0.0
 40
2.5
  0
CIRCLE
  5
3DCB
330
3DB6
100
AcDbEntity
  8
0
100
AcDbCircle
 10
-69.99999999999996
 20
24.99999999999998
 30
0.0
 40
2.5
  0
CIRCLE
  5
3DCC
330
3DB6
100
AcDbEntity
  8
0
100
AcDbCircle
 10
-69.99999999999994
 20
64.99999999999999
 30
0.0
 40
2.5
  0
CIRCLE
  5
3DCD
330
3DB6
100
AcDbEntity
  8
0
100
AcDbCircle
 10
-49.99999999999997
 20
54.99999999999997
 30
0.0
 40
2.5
  0
CIRCLE
  5
3DCE
330
3DB6
100
AcDbEntity
  8
0
100
AcDbCircle
 10
-9.999999999999975
 20
34.99999999999998
 30
0.0
 40
2.5
  0
CIRCLE
  5
3DCF
330
3DB6
100
AcDbEntity
  8
0
100
AcDbCircle
 10
-29.99999999999996
 20
44.99999999999997
 30
0.0
 40
2.5
  0
CIRCLE
  5
3DD0
330
3DB6
100
AcDbEntity
  8
0
100
AcDbCircle
 10
-29.99999999999997
 20
24.99999999999998
 30
0.0
 40
2.5
  0
CIRCLE
  5
3DD1
330
3DB6
100
AcDbEntity
  8
0
100
AcDbCircle
 10
-29.99999999999996
 20
64.99999999999997
 30
0.0
 40
2.5
  0
CIRCLE
  5
3DD2
330
3DB6
100
AcDbEntity
  8
0
100
AcDbCircle
 10
-9.999999999999969
 20
54.99999999999997
 30
0.0
 40
2.5
  0
CIRCLE
  5
3DD3
330
3DB6
100
AcDbEntity
  8
0
100
AcDbCircle
 10
30.00000000000003
 20
34.99999999999997
 30
0.0
 40
2.5
  0
CIRCLE
  5
3DD4
330
3DB6
100
AcDbEntity
  8
0
100
AcDbCircle
 10
10.00000000000004
 20
44.99999999999997
 30
0.0
 40
2.5
  0
CIRCLE
  5
3DD5
330
3DB6
100
AcDbEntity
  8
0
100
AcDbCircle
 10
10.00000000000003
 20
24.99999999999998
 30
0.0
 40
2.5
  0
CIRCLE
  5
3DD6
330
3DB6
100
AcDbEntity
  8
0
100
AcDbCircle
 10
10.00000000000004
 20
64.99999999999997
 30
0.0
 40
2.5
  0
CIRCLE
  5
3DD7
330
3DB6
100
AcDbEntity
  8
0
100
AcDbCircle
 10
30.00000000000003
 20
54.99999999999997
 30
0.0
 40
2.5
  0
CIRCLE
  5
3DD8
330
3DB6
100
AcDbEntity
  8
0
100
AcDbCircle
 10
70.00000000000003
 20
34.99999999999997
 30
0.0
 40
2.5
  0
CIRCLE
  5
3DD9
330
3DB6
100
AcDbEntity
  8
0
100
AcDbCircle
 10
50.00000000000004
 20
44.99999999999997
 30
0.0
 40
2.5
  0
CIRCLE
  5
3DDA
330
3DB6
100
AcDbEntity
  8
0
100
AcDbCircle
 10
50.00000000000003
 20
24.99999999999998
 30
0.0
 40
2.5
  0
CIRCLE
  5
3DDB
330
3DB6
100
AcDbEntity
  8
0
100
AcDbCircle
 10
50.00000000000004
 20
64.99999999999997
 30
0.0
 40
2.5
  0
CIRCLE
  5
3DDC
330
3DB6
100
AcDbEntity
  8
0
100
AcDbCircle
 10
70.00000000000003
 20
54.99999999999997
 30
0.0
 40
2.5
  0
CIRCLE
  5
3DDD
330
3DB6
100
AcDbEntity
  8
0
100
AcDbCircle
 10
110.0
 20
34.99999999999997
 30
0.0
 40
2.5
  0
CIRCLE
  5
3DDE
330
3DB6
100
AcDbEntity
  8
0
100
AcDbCircle
 10
90.00000000000005
 20
44.99999999999997
 30
0.0
 40
2.5
  0
CIRCLE
  5
3DDF
330
3DB6
100
AcDbEntity
  8
0
100
AcDbCircle
 10
90.00000000000003
 20
24.99999999999998
 30
0.0
 40
2.5
  0
CIRCLE
  5
3DE0
330
3DB6
100
AcDbEntity
  8
0
100
AcDbCircle
 10
90.00000000000005
 20
64.99999999999997
 30
0.0
 40
2.5
  0
CIRCLE
  5
3DE1
330
3DB6
100
AcDbEntity
  8
0
100
AcDbCircle
 10
110.0
 20
54.99999999999997
 30
0.0
 40
2.5
  0
ARC
  5
3DE2
330
3DB6
100
AcDbEntity
  8
0
100
AcDbCircle
 10
-137.0
 20
-3.00000000000002
 30
0.0
 40
6.000000000000009
100
AcDbArc
 50
90.0
 51
180.0
  0
ARC
  5
3DE3
330
3DB6
100
AcDbEntity
  8
0
100
AcDbCircle
 10
-137.0
 20
-3.00000000000002
 30
0.0
 40
3.000000000000015
100
AcDbArc
 50
90.0
 51
180.0
  0
LINE
  5
3DE4
330
3DB6
100
AcDbEntity
  8
0
100
AcDbLine
 10
-139.9999999999999
 20
-3.000000000000029
 30
0.0
 11
-139.9999999999999
 21
-50.00000000000008
 31
0.0
  0
LINE
  5
3DE5
330
3DB6
100
AcDbEntity
  8
0
100
AcDbLine
 10
-142.9999999999999
 20
-3.000000000000028
 30
0.0
 11
-142.9999999999999
 21
-50.00000000000008
 31
0.0
  0
LINE
  5
3DE6
330
3DB6
100
AcDbEntity
  8
0
100
AcDbLine
 10
-139.9999999999999
 20
-50.0000000000001
 30
0.0
 11
-142.9999999999999
 21
-50.00000000000008
 31
0.0
  0
LINE
  5
3DE7
330
3DB6
100
AcDbEntity
  8
0
100
AcDbLine
 10
-80.0
 20
5.999999999999996
 30
0.0
 11
-79.99999999999999
 21
74.99999999999999
 31
0.0
  0
LINE
  5
3DE8
330
3DB6
100
AcDbEntity
  8
0
100
AcDbLine
 10
120.0
 20
5.499999999999976
 30
0.0
 11
3.005080000000006
 21
5.499999999999993
 31
0.0
  0
LINE
  5
3DE9
330
3DB6
100
AcDbEntity
  8
0
100
AcDbLine
 10
120.0
 20
74.99999999999997
 30
0.0
 11
120.0
 21
5.49999999999998
 31
0.0
  0
LINE
  5
3DEA
330
3DB6
100
AcDbEntity
  8
0
100
AcDbLine
 10
-79.99999999999999
 20
74.99999999999999
 30
0.0
 11
120.0
 21
74.99999999999997
 31
0.0
  0
ENDBLK
  5
3DB8
330
3DB6
100
AcDbEntity
  8
0
100
AcDbBlockEnd
  0
BLOCK
  5
3DEC
330
3DEB
100
AcDbEntity
  8
0
100
AcDbBlockBegin
  2
SFHS-BR-Top
 70
     0
 10
0.0
 20
0.0
 30
0.0
  3
SFHS-BR-Top
  1

  0
SPLINE
  5
3DEE
330
3DEB
100
AcDbEntity
  8
0
100
AcDbSpline
210
0.0
220
0.0
230
1.0
 70
     8
 71
     3
 72
    17
 73
    13
 74
     0
 42
0.000000001
 43
0.0000000001
 40
0.0
 40
0.0
 40
0.0
 40
0.0
 40
0.2923303629772381
 40
0.2923303629772381
 40
0.2923303629772381
 40
0.7134424300659939
 40
0.7134424300659939
 40
0.7134424300659939
 40
0.9796687136939619
 40
0.9796687136939619
 40
0.9796687136939619
 40
1.0
 40
1.0
 40
1.0
 40
1.0
 10
6.000000000000001
 20
-0.0000000000000082
 30
0.0
 10
5.419030022889039
 20
0.003098596991798
 30
0.0
 10
4.928816097535832
 20
0.088163550557235
 30
0.0
 10
4.514714799029765
 20
0.2651959854360117
 30
0.0
 10
3.918187459132454
 20
0.5202173723159019
 30
0.0
 10
3.503206695463083
 20
0.9415086240561608
 30
0.0
 10
3.254483787504407
 20
1.546670847986409
 30
0.0
 10
3.097241617037172
 20
1.929253306339543
 30
0.0
 10
3.010785522866836
 20
2.363191387839894
 30
0.0
 10
3.001073777181339
 20
2.883910237567989
 30
0.0
 10
3.000332106301317
 20
2.923676724462151
 30
0.0
 10
3.000000607791047
 20
2.964086442147059
 30
0.0
 10
2.999999999997892
 20
3.005080000001468
 30
0.0
  0
LINE
  5
3DEF
330
3DEB
100
AcDbEntity
  8
0
100
AcDbLine
 10
6.0
 20
-2.999999999999997
 30
0.0
 11
3.0
 21
-2.999999999999997
 31
0.0
  0
LINE
  5
3DF0
330
3DEB
100
AcDbEntity
  8
0
100
AcDbLine
 10
6.000000000000009
 20
0.0
 30
0.0
 11
6.000000000000009
 21
-2.999999999999998
 31
0.0
  0
LINE
  5
3DF1
330
3DEB
100
AcDbEntity
  8
0
100
AcDbLine
 10
3.0
 20
-77.0
 30
0.0
 11
6.0
 21
-77.0
 31
0.0
  0
ARC
  5
3DF2
330
3DEB
100
AcDbEntity
  8
0
100
AcDbCircle
 10
-3.250000000000269
 20
-80.0
 30
0.0
 40
9.250000000000268
100
AcDbArc
 50
341.0753555839493
 51
0.0
  0
LINE
  5
3DF3
330
3DEB
100
AcDbEntity
  8
0
100
AcDbLine
 10
6.000000000000009
 20
-77.0
 30
0.0
 11
6.000000000000009
 21
-80.0
 31
0.0
  0
SPLINE
  5
3DF4
330
3DEB
100
AcDbEntity
  8
0
100
AcDbSpline
210
0.0
220
0.0
230
1.0
 70
     8
 71
     3
 72
    14
 73
    10
 74
     0
 42
0.000000001
 43
0.0000000001
 40
-1.0
 40
-1.0
 40
-1.0
 40
-1.0
 40
-0.6434500067457547
 40
-0.6434500067457547
 40
-0.6434500067457547
 40
-0.2563502858785579
 40
-0.2563502858785579
 40
-0.2563502858785579
 40
0.0
 40
0.0
 40
0.0
 40
0.0
 10
3.000000000000015
 20
-80.0
 30
0.0
 10
2.999931953603232
 20
-80.00358349573236
 30
0.0
 10
3.318158177393322
 20
-80.13293689476737
 30
0.0
 10
3.728372995769229
 20
-80.39165301113074
 30
0.0
 10
4.173735622871202
 20
-80.67253630470212
 30
0.0
 10
4.721258469326401
 20
-81.10113192097664
 30
0.0
 10
5.090794347824198
 20
-81.67407810316635
 30
0.0
 10
5.335513274211112
 20
-82.05350208535969
 30
0.0
 10
5.491515683512805
 20
-82.507751386098
 30
0.0
 10
5.500000000000051
 20
-83.00000000000144
 30
0.0
  0
SPLINE
  5
3DF5
330
3DEB
100
AcDbEntity
  8
0
100
AcDbSpline
210
0.0
220
0.0
230
1.0
 70
     8
 71
     3
 72
    16
 73
    12
 74
     0
 42
0.000000001
 43
0.0000000001
 40
0.0536556141464053
 40
0.0536556141464053
 40
0.0536556141464053
 40
0.0536556141464053
 40
0.0608108403416841
 40
0.0608108403416841
 40
0.0722277241017429
 40
0.0722277241017429
 40
0.0877950973468677
 40
0.0877950973468677
 40
0.1265726929656804
 40
0.1265726929656804
 40
0.1842167293104852
 40
0.1842167293104852
 40
0.1842167293104852
 40
0.1842167293104852
 10
2.790847173974586
 20
-80.00000000000216
 30
0.0
 10
2.767161418971251
 20
-80.00023268680813
 30
0.0
 10
2.742841998086945
 20
-80.00048408644964
 30
0.0
 10
2.681224033377697
 20
-80.00104208270943
 30
0.0
 10
2.64352108588393
 20
-80.00129919156591
 30
0.0
 10
2.553968252014842
 20
-80.00159266242949
 30
0.0
 10
2.501996844237798
 20
-80.001514827215
 30
0.0
 10
2.320868354820762
 20
-80.00084786325642
 30
0.0
 10
2.19526072091737
 20
-80.00015332652877
 30
0.0
 10
1.883074019925795
 20
-79.99988136984466
 30
0.0
 10
1.689170320292784
 20
-80.00001633728007
 30
0.0
 10
1.496030173521738
 20
-80.00000000000003
 30
0.0
  0
SPLINE
  5
3DF6
330
3DEB
100
AcDbEntity
  8
0
100
AcDbSpline
210
0.0
220
0.0
230
1.0
 70
     8
 71
     3
 72
    12
 73
     8
 74
     0
 42
0.000000001
 43
0.0000000001
 40
0.0
 40
0.0
 40
0.0
 40
0.0
 40
0.0021888090513077
 40
0.0021888090513077
 40
0.0050908572264873
 40
0.0050908572264873
 40
0.0081854022175757
 40
0.0081854022175757
 40
0.0081854022175757
 40
0.0081854022175757
 10
5.499957653917906
 20
-83.00000066018229
 30
0.0
 10
5.499907426381827
 20
-82.99698964897016
 30
0.0
 10
5.499874665982863
 20
-82.99517190959807
 30
0.0
 10
5.49981755422441
 20
-82.992036327107
 30
0.0
 10
5.499798994228433
 20
-82.99108002588708
 30
0.0
 10
5.499773904377462
 20
-82.98979397003112
 30
0.0
 10
5.499768579939657
 20
-82.98953757803676
 30
0.0
 10
5.499768579940407
 20
-82.98953757807325
 30
0.0
  0
SPLINE
  5
3DF7
330
3DEB
100
AcDbEntity
  8
0
100
AcDbSpline
210
0.0
220
0.0
230
1.0
 70
     8
 71
     3
 72
    28
 73
    24
 74
     0
 42
0.000000001
 43
0.0000000001
 40
0.0034025086708841
 40
0.0034025086708841
 40
0.0034025086708841
 40
0.0034025086708841
 40
0.0060226343965777
 40
0.0060226343965777
 40
0.0082904454412435
 40
0.0082904454412435
 40
0.008897603229704
 40
0.008897603229704
 40
0.0092002702103562
 40
0.0092002702103562
 40
0.0095031826915839
 40
0.0095031826915839
 40
0.0101147560050259
 40
0.0101147560050259
 40
0.0125843781625116
 40
0.0125843781625116
 40
0.0174081231216622
 40
0.0174081231216622
 40
0.0319121429251027
 40
0.0319121429251027
 40
0.060287424232846
 40
0.060287424232846
 40
0.0686144682115518
 40
0.0686144682115518
 40
0.0686144682115518
 40
0.0686144682115518
 10
5.499930753511019
 20
-82.99840505350696
 30
0.0
 10
5.499909864199972
 20
-82.99792029571426
 30
0.0
 10
5.499885831169635
 20
-82.99736347551371
 30
0.0
 10
5.499808822078734
 20
-82.99559797189408
 30
0.0
 10
5.49977282632321
 20
-82.99475833158044
 30
0.0
 10
5.499609983581173
 20
-82.99111474594935
 30
0.0
 10
5.499566520293153
 20
-82.99014592488402
 30
0.0
 10
5.499480140333292
 20
-82.98824286073742
 30
0.0
 10
5.49944757826945
 20
-82.98752854107675
 30
0.0
 10
5.49937571322585
 20
-82.98596227464228
 30
0.0
 10
5.499336027261987
 20
-82.98510209976271
 30
0.0
 10
5.49920947044457
 20
-82.9823788697422
 30
0.0
 10
5.499114302410954
 20
-82.98035776812017
 30
0.0
 10
5.498628706042775
 20
-82.97020649907413
 30
0.0
 10
5.498203920344138
 20
-82.96183240529799
 30
0.0
 10
5.496923541709138
 20
-82.93797174181046
 30
0.0
 10
5.495997674755503
 20
-82.92238775677533
 30
0.0
 10
5.491962194111189
 20
-82.86052220393429
 30
0.0
 10
5.488174026877866
 20
-82.81519135167984
 30
0.0
 10
5.474971025575076
 20
-82.68635279948091
 30
0.0
 10
5.463271831802469
 20
-82.60603885712805
 30
0.0
 10
5.447266141137059
 20
-82.51820142771693
 30
0.0
 10
5.443570633992351
 20
-82.49921634135548
 30
0.0
 10
5.439939575046911
 20
-82.48152679254259
 30
0.0
  0
SPLINE
  5
3DF8
330
3DEB
100
AcDbEntity
  8
0
100
AcDbSpline
210
0.0
220
0.0
230
1.0
 70
     8
 71
     3
 72
    20
 73
    16
 74
     0
 42
0.000000001
 43
0.0000000001
 40
0.0
 40
0.0
 40
0.0
 40
0.0
 40
0.0523260144728494
 40
0.0523260144728494
 40
0.121520722884705
 40
0.121520722884705
 40
0.2163664216124546
 40
0.2163664216124546
 40
0.2993188440571726
 40
0.2993188440571726
 40
0.3699066342219876
 40
0.3699066342219876
 40
0.433390887168459
 40
0.433390887168459
 40
0.4338023887519192
 40
0.4338023887519192
 40
0.4338023887519192
 40
0.4338023887519192
 10
5.045619328571024
 20
-81.60604348865311
 30
0.0
 10
4.954336997749405
 20
-81.47242111389173
 30
0.0
 10
4.846086987555276
 20
-81.33954130823852
 30
0.0
 10
4.571732841593784
 20
-81.05499578418784
 30
0.0
 10
4.395087223377068
 20
-80.90711268790757
 30
0.0
 10
3.946058454064976
 20
-80.5998538889724
 30
0.0
 10
3.654662095561222
 20
-80.45255800815832
 30
0.0
 10
3.109953812136596
 20
-80.24310451023703
 30
0.0
 10
2.849240325300291
 20
-80.16960669039804
 30
0.0
 10
2.414841357508698
 20
-80.07530172009046
 30
0.0
 10
2.228242408005688
 20
-80.04669705252855
 30
0.0
 10
1.940512641481836
 20
-80.01244315451442
 30
0.0
 10
1.828230487202818
 20
-80.00412547605311
 30
0.0
 10
1.758494108884215
 20
-80.00005802111921
 30
0.0
 10
1.758046634598886
 20
-80.00003199285382
 30
0.0
 10
1.757600808938982
 20
-80.00000613070895
 30
0.0
  0
SPLINE
  5
3DF9
330
3DEB
100
AcDbEntity
  8
0
100
AcDbSpline
210
0.0
220
0.0
230
1.0
 70
     8
 71
     3
 72
     8
 73
     4
 74
     0
 42
0.000000001
 43
0.0000000001
 40
0.0
 40
0.0
 40
0.0
 40
0.0
 40
0.0485195814250012
 40
0.0485195814250012
 40
0.0485195814250012
 40
0.0485195814250012
 10
1.308545165257021
 20
-79.99999568161197
 30
0.0
 10
1.14683794182041
 20
-80.00000021907252
 30
0.0
 10
0.9850704301919748
 20
-79.99999714325308
 30
0.0
 10
0.8233493511850499
 20
-79.99998253744374
 30
0.0
  0
LINE
  5
3DFA
330
3DEB
100
AcDbEntity
  8
0
100
AcDbLine
 10
0.0
 20
120.0
 30
0.0
 11
0.0
 21
-79.99999999999997
 31
0.0
  0
LINE
  5
3DFB
330
3DEB
100
AcDbEntity
  8
0
100
AcDbLine
 10
0.0
 20
-79.99999999999999
 30
0.0
 11
3.0
 21
-79.99999999999999
 31
0.0
  0
LINE
  5
3DFC
330
3DEB
100
AcDbEntity
  8
0
100
AcDbLine
 10
3.0
 20
-79.99999999999999
 30
0.0
 11
3.0
 21
120.0
 31
0.0
  0
LINE
  5
3DFD
330
3DEB
100
AcDbEntity
  8
0
100
AcDbLine
 10
0.0
 20
120.0
 30
0.0
 11
3.0
 21
120.0
 31
0.0
  0
LINE
  5
3DFE
330
3DEB
100
AcDbEntity
  8
0
100
AcDbLine
 10
5.500000000000014
 20
-137.0
 30
0.0
 11
5.500000000000014
 21
-83.0
 31
0.0
  0
LINE
  5
3DFF
330
3DEB
100
AcDbEntity
  8
0
100
AcDbLine
 10
5.500000000000014
 20
-136.9999999999999
 30
0.0
 11
5.500000000000014
 21
-142.9999999999999
 31
0.0
  0
LINE
  5
3E00
330
3DEB
100
AcDbEntity
  8
0
100
AcDbLine
 10
108.0
 20
0.0
 30
0.0
 11
108.0
 21
-137.0
 31
0.0
  0
LINE
  5
3E01
330
3DEB
100
AcDbEntity
  8
0
100
AcDbLine
 10
6.0
 20
0.0
 30
0.0
 11
108.0
 21
0.0
 31
0.0
  0
CIRCLE
  5
3E02
330
3DEB
100
AcDbEntity
  8
0
100
AcDbCircle
 10
95.00000000000001
 20
-17.5
 30
0.0
 40
2.5
  0
CIRCLE
  5
3E03
330
3DEB
100
AcDbEntity
  8
0
100
AcDbCircle
 10
75.00000000000001
 20
-7.499999999999999
 30
0.0
 40
2.5
  0
CIRCLE
  5
3E04
330
3DEB
100
AcDbEntity
  8
0
100
AcDbCircle
 10
95.00000000000001
 20
-37.5
 30
0.0
 40
2.5
  0
CIRCLE
  5
3E05
330
3DEB
100
AcDbEntity
  8
0
100
AcDbCircle
 10
75.00000000000001
 20
-27.5
 30
0.0
 40
2.5
  0
CIRCLE
  5
3E06
330
3DEB
100
AcDbEntity
  8
0
100
AcDbCircle
 10
95.00000000000001
 20
-57.5
 30
0.0
 40
2.5
  0
CIRCLE
  5
3E07
330
3DEB
100
AcDbEntity
  8
0
100
AcDbCircle
 10
75.00000000000001
 20
-47.5
 30
0.0
 40
2.5
  0
CIRCLE
  5
3E08
330
3DEB
100
AcDbEntity
  8
0
100
AcDbCircle
 10
95.00000000000001
 20
-77.5
 30
0.0
 40
2.5
  0
CIRCLE
  5
3E09
330
3DEB
100
AcDbEntity
  8
0
100
AcDbCircle
 10
75.0
 20
-67.5
 30
0.0
 40
2.5
  0
CIRCLE
  5
3E0A
330
3DEB
100
AcDbEntity
  8
0
100
AcDbCircle
 10
95.00000000000001
 20
-97.5
 30
0.0
 40
2.5
  0
CIRCLE
  5
3E0B
330
3DEB
100
AcDbEntity
  8
0
100
AcDbCircle
 10
75.0
 20
-87.5
 30
0.0
 40
2.5
  0
CIRCLE
  5
3E0C
330
3DEB
100
AcDbEntity
  8
0
100
AcDbCircle
 10
95.0
 20
-117.5
 30
0.0
 40
2.5
  0
CIRCLE
  5
3E0D
330
3DEB
100
AcDbEntity
  8
0
100
AcDbCircle
 10
75.0
 20
-107.5
 30
0.0
 40
2.5
  0
CIRCLE
  5
3E0E
330
3DEB
100
AcDbEntity
  8
0
100
AcDbCircle
 10
55.00000000000001
 20
-17.5
 30
0.0
 40
2.5
  0
CIRCLE
  5
3E0F
330
3DEB
100
AcDbEntity
  8
0
100
AcDbCircle
 10
35.00000000000001
 20
-7.499999999999999
 30
0.0
 40
2.5
  0
CIRCLE
  5
3E10
330
3DEB
100
AcDbEntity
  8
0
100
AcDbCircle
 10
15.00000000000001
 20
-17.5
 30
0.0
 40
2.5
  0
CIRCLE
  5
3E11
330
3DEB
100
AcDbEntity
  8
0
100
AcDbCircle
 10
55.00000000000001
 20
-37.5
 30
0.0
 40
2.5
  0
CIRCLE
  5
3E12
330
3DEB
100
AcDbEntity
  8
0
100
AcDbCircle
 10
35.00000000000001
 20
-27.5
 30
0.0
 40
2.5
  0
CIRCLE
  5
3E13
330
3DEB
100
AcDbEntity
  8
0
100
AcDbCircle
 10
55.00000000000001
 20
-57.5
 30
0.0
 40
2.5
  0
CIRCLE
  5
3E14
330
3DEB
100
AcDbEntity
  8
0
100
AcDbCircle
 10
35.00000000000001
 20
-47.5
 30
0.0
 40
2.5
  0
CIRCLE
  5
3E15
330
3DEB
100
AcDbEntity
  8
0
100
AcDbCircle
 10
55.00000000000001
 20
-77.5
 30
0.0
 40
2.5
  0
CIRCLE
  5
3E16
330
3DEB
100
AcDbEntity
  8
0
100
AcDbCircle
 10
35.0
 20
-67.5
 30
0.0
 40
2.5
  0
CIRCLE
  5
3E17
330
3DEB
100
AcDbEntity
  8
0
100
AcDbCircle
 10
55.00000000000001
 20
-97.5
 30
0.0
 40
2.5
  0
CIRCLE
  5
3E18
330
3DEB
100
AcDbEntity
  8
0
100
AcDbCircle
 10
35.0
 20
-87.5
 30
0.0
 40
2.5
  0
CIRCLE
  5
3E19
330
3DEB
100
AcDbEntity
  8
0
100
AcDbCircle
 10
55.0
 20
-117.5
 30
0.0
 40
2.5
  0
CIRCLE
  5
3E1A
330
3DEB
100
AcDbEntity
  8
0
100
AcDbCircle
 10
35.0
 20
-107.5
 30
0.0
 40
2.5
  0
CIRCLE
  5
3E1B
330
3DEB
100
AcDbEntity
  8
0
100
AcDbCircle
 10
15.00000000000001
 20
-37.5
 30
0.0
 40
2.5
  0
CIRCLE
  5
3E1C
330
3DEB
100
AcDbEntity
  8
0
100
AcDbCircle
 10
15.00000000000001
 20
-57.5
 30
0.0
 40
2.5
  0
CIRCLE
  5
3E1D
330
3DEB
100
AcDbEntity
  8
0
100
AcDbCircle
 10
15.00000000000001
 20
-77.5
 30
0.0
 40
2.5
  0
CIRCLE
  5
3E1E
330
3DEB
100
AcDbEntity
  8
0
100
AcDbCircle
 10
15.00000000000001
 20
-97.5
 30
0.0
 40
2.5
  0
CIRCLE
  5
3E1F
330
3DEB
100
AcDbEntity
  8
0
100
AcDbCircle
 10
15.0
 20
-117.5
 30
0.0
 40
2.5
  0
LINE
  5
3E20
330
3DEB
100
AcDbEntity
  8
0
100
AcDbLine
 10
108.0
 20
-142.9999999999999
 30
0.0
 11
5.500000000000007
 21
-142.9999999999999
 31
0.0
  0
LINE
  5
3E21
330
3DEB
100
AcDbEntity
  8
0
100
AcDbLine
 10
108.0
 20
-143.0
 30
0.0
 11
108.0
 21
-137.0
 31
0.0
  0
ENDBLK
  5
3DED
330
3DEB
100
AcDbEntity
  8
0
100
AcDbBlockEnd
  0
BLOCK
  5
3E23
330
3E22
100
AcDbEntity
  8
0
100
AcDbBlockBegin
  2
SFHS-BR-Bottom
 70
     0
 10
0.0
 20
0.0
 30
0.0
  3
SFHS-BR-Bottom
  1

  0
SPLINE
  5
3E25
330
3E22
100
AcDbEntity
  8
0
100
AcDbSpline
210
0.0
220
0.0
230
1.0
 70
     8
 71
     3
 72
    17
 73
    13
 74
     0
 42
0.000000001
 43
0.0000000001
 40
0.0
 40
0.0
 40
0.0
 40
0.0
 40
0.2923303629772381
 40
0.2923303629772381
 40
0.2923303629772381
 40
0.7134424300659939
 40
0.7134424300659939
 40
0.7134424300659939
 40
0.9796687136939619
 40
0.9796687136939619
 40
0.9796687136939619
 40
1.0
 40
1.0
 40
1.0
 40
1.0
 10
6.000000000000001
 20
0.0000000000000082
 30
0.0
 10
5.419030022889039
 20
-0.003098596991798
 30
0.0
 10
4.928816097535832
 20
-0.088163550557235
 30
0.0
 10
4.514714799029765
 20
-0.2651959854360117
 30
0.0
 10
3.918187459132454
 20
-0.5202173723159019
 30
0.0
 10
3.503206695463083
 20
-0.9415086240561608
 30
0.0
 10
3.254483787504407
 20
-1.546670847986409
 30
0.0
 10
3.097241617037172
 20
-1.929253306339543
 30
0.0
 10
3.010785522866836
 20
-2.363191387839894
 30
0.0
 10
3.001073777181339
 20
-2.883910237567989
 30
0.0
 10
3.000332106301317
 20
-2.923676724462151
 30
0.0
 10
3.000000607791047
 20
-2.964086442147059
 30
0.0
 10
2.999999999997892
 20
-3.005080000001468
 30
0.0
  0
LINE
  5
3E26
330
3E22
100
AcDbEntity
  8
0
100
AcDbLine
 10
6.000000000000009
 20
2.999999999999998
 30
0.0
 11
6.000000000000009
 21
0.0
 31
0.0
  0
LINE
  5
3E27
330
3E22
100
AcDbEntity
  8
0
100
AcDbLine
 10
6.0
 20
2.999999999999998
 30
0.0
 11
0.0
 21
2.999999999999997
 31
0.0
  0
LINE
  5
3E28
330
3E22
100
AcDbEntity
  8
0
100
AcDbLine
 10
0.0
 20
-0.0050799999999995
 30
0.0
 11
0.0
 21
2.999999999999998
 31
0.0
  0
LINE
  5
3E29
330
3E22
100
AcDbEntity
  8
0
100
AcDbLine
 10
0.0
 20
-3.005079999999999
 30
0.0
 11
0.0
 21
-0.0050800000000034
 31
0.0
  0
SPLINE
  5
3E2A
330
3E22
100
AcDbEntity
  8
0
100
AcDbSpline
210
0.0
220
0.0
230
1.0
 70
     8
 71
     3
 72
    14
 73
    10
 74
     0
 42
0.000000001
 43
0.0000000001
 40
-1.0
 40
-1.0
 40
-1.0
 40
-1.0
 40
-0.8193063180892082
 40
-0.8193063180892082
 40
-0.8193063180892082
 40
-0.2706742009803313
 40
-0.2706742009803313
 40
-0.2706742009803313
 40
0.0
 40
0.0
 40
0.0
 40
0.0
 10
-0.000000000000009
 20
-3.005080000000003
 30
0.0
 10
0.0000019537206172
 20
-2.306352118812452
 30
0.0
 10
0.0872883163747719
 20
-1.772166459137386
 30
0.0
 10
0.2492643867734784
 20
-1.349774547959191
 30
0.0
 10
0.7410650600681402
 20
-0.067284944400353
 30
0.0
 10
1.931486216091986
 20
0.0996063910640905
 30
0.0
 10
3.475861499890447
 20
0.0740008631048947
 30
0.0
 10
4.237797472867697
 20
0.0613680703738417
 30
0.0
 10
5.120843980084245
 20
0.0012874747330383
 30
0.0
 10
5.999999999984196
 20
0.0000000000000044
 30
0.0
  0
LINE
  5
3E2B
330
3E22
100
AcDbEntity
  8
0
100
AcDbLine
 10
3.0
 20
-3.005079999999989
 30
0.0
 11
0.0
 21
-3.005079999999989
 31
0.0
  0
LINE
  5
3E2C
330
3E22
100
AcDbEntity
  8
0
100
AcDbLine
 10
0.0
 20
2.999999999999998
 30
0.0
 11
0.0
 21
77.0
 31
0.0
  0
LINE
  5
3E2D
330
3E22
100
AcDbEntity
  8
0
100
AcDbLine
 10
0.0
 20
77.0
 30
0.0
 11
0.0
 21
80.0
 31
0.0
  0
SPLINE
  5
3E2E
330
3E22
100
AcDbEntity
  8
0
100
AcDbSpline
210
0.0
220
0.0
230
1.0
 70
     8
 71
     3
 72
    11
 73
     7
 74
     0
 42
0.000000001
 43
0.0000000001
 40
-0.2718280664379017
 40
-0.2718280664379017
 40
-0.2718280664379017
 40
-0.2718280664379017
 40
-0.2563502858785579
 40
-0.2563502858785579
 40
-0.2563502858785579
 40
-0.094371803491646
 40
-0.094371803491646
 40
-0.094371803491646
 40
-0.094371803491646
 10
5.045632077536551
 20
81.60604467000466
 30
0.0
 10
5.06095877988876
 20
81.62849156206011
 30
0.0
 10
5.076018839272087
 20
81.65116944474526
 30
0.0
 10
5.090794347824198
 20
81.67407810316635
 30
0.0
 10
5.245423394449428
 20
81.91382240696631
 30
0.0
 10
5.364632199191435
 20
82.18344086463218
 30
0.0
 10
5.433586719417097
 20
82.47364327386859
 30
0.0
  0
LINE
  5
3E2F
330
3E22
100
AcDbEntity
  8
0
100
AcDbLine
 10
0.0
 20
77.0
 30
0.0
 11
6.0
 21
77.0
 31
0.0
  0
LINE
  5
3E30
330
3E22
100
AcDbEntity
  8
0
100
AcDbLine
 10
6.000000000000009
 20
80.0
 30
0.0
 11
6.000000000000009
 21
77.0
 31
0.0
  0
ARC
  5
3E31
330
3E22
100
AcDbEntity
  8
0
100
AcDbCircle
 10
-3.250000000000269
 20
80.0
 30
0.0
 40
9.250000000000268
100
AcDbArc
 50
0.0
 51
18.92464441605071
  0
SPLINE
  5
3E32
330
3E22
100
AcDbEntity
  8
0
100
AcDbSpline
210
0.0
220
0.0
230
1.0
 70
     8
 71
     3
 72
    14
 73
    10
 74
     0
 42
0.000000001
 43
0.0000000001
 40
-1.0
 40
-1.0
 40
-1.0
 40
-1.0
 40
-0.819349259516202
 40
-0.819349259516202
 40
-0.819349259516202
 40
-0.2712553180531303
 40
-0.2712553180531303
 40
-0.2712553180531303
 40
0.0
 40
0.0
 40
0.0
 40
0.0
 10
5.500000000000012
 20
83.00000000000004
 30
0.0
 10
5.495800283489745
 20
82.30143742257842
 30
0.0
 10
5.321476933221483
 20
81.76752284710838
 30
0.0
 10
5.026314744070282
 20
81.34544450776767
 30
0.0
 10
4.130793324177405
 20
80.06485977284828
 30
0.0
 10
2.187377619355394
 20
79.8987639289136
 30
0.0
 10
0.9934138192878418
 20
79.92500413467277
 30
0.0
 10
0.4025132348611681
 20
79.93799058611938
 30
0.0
 10
0.0000004299674381
 20
79.9987016579746
 30
0.0
 10
0.0000000000237561
 20
80.00000000000003
 30
0.0
  0
LINE
  5
3E33
330
3E22
100
AcDbEntity
  8
0
100
AcDbLine
 10
0.0
 20
80.0
 30
0.0
 11
0.8233493511674158
 21
80.0
 31
0.0
  0
LINE
  5
3E34
330
3E22
100
AcDbEntity
  8
0
100
AcDbLine
 10
1.308545165185282
 20
80.0
 30
0.0
 11
1.757555512694371
 21
80.0
 31
0.0
  0
SPLINE
  5
3E35
330
3E22
100
AcDbEntity
  8
0
100
AcDbSpline
210
0.0
220
0.0
230
1.0
 70
     8
 71
     3
 72
    26
 73
    22
 74
     0
 42
0.000000001
 43
0.0000000001
 40
0.0
 40
0.0
 40
0.0
 40
0.0
 40
0.0000152587892036
 40
0.0000152587892036
 40
0.0000457763684545
 40
0.0000457763684545
 40
0.0005340620762061
 40
0.0005340620762061
 40
0.0015106574409412
 40
0.0015106574409412
 40
0.0042906802530217
 40
0.0042906802530217
 40
0.0094537643237609
 40
0.0094537643237609
 40
0.018826066669897
 40
0.018826066669897
 40
0.1439267813809565
 40
0.1439267813809565
 40
0.1578398702880461
 40
0.1578398702880461
 40
0.1716374508255114
 40
0.1716374508255114
 40
0.1716374508255114
 40
0.1716374508255114
 10
0.0442969683646121
 20
80.00003562366883
 30
0.0
 10
0.0443456016648822
 20
80.00003561557514
 30
0.0
 10
0.0443942369916999
 20
80.00003560748181
 30
0.0
 10
0.0445401490442678
 20
80.00003558320303
 30
0.0
 10
0.044637431843426
 20
80.00003556701868
 30
0.0
 10
0.0462913906333396
 20
80.00003529190488
 30
0.0
 10
0.0478501372906124
 20
80.00003503332024
 30
0.0
 10
0.0525322823591357
 20
80.00003425755213
 30
0.0
 10
0.0556616689991353
 20
80.0000337403128
 30
0.0
 10
0.0677259555400062
 20
80.00003174104628
 30
0.0
 10
0.0767126669096782
 20
80.00003023884133
 30
0.0
 10
0.102502806321277
 20
80.00002577267876
 30
0.0
 10
0.1194178968100497
 20
80.00002264409012
 30
0.0
 10
0.1672319540887964
 20
80.00001308499202
 30
0.0
 10
0.1983378313062925
 20
80.00000600381921
 30
0.0
 10
0.64516672410433
 20
79.99990514548938
 30
0.0
 10
1.06367511554796
 20
79.9999671269198
 30
0.0
 10
1.526805618476473
 20
80.00000226493614
 30
0.0
 10
1.573156674997938
 20
80.00000815395091
 30
0.0
 10
1.66546360709682
 20
80.00001326905985
 30
0.0
 10
1.711564865053131
 20
80.00001170711199
 30
0.0
 10
1.757600808936398
 20
80.00000613070886
 30
0.0
  0
SPLINE
  5
3E36
330
3E22
100
AcDbEntity
  8
0
100
AcDbSpline
210
0.0
220
0.0
230
1.0
 70
     8
 71
     3
 72
    16
 73
    12
 74
     0
 42
0.000000001
 43
0.0000000001
 40
0.0
 40
0.0
 40
0.0
 40
0.0
 40
0.0004961587640796
 40
0.0004961587640796
 40
0.0014884896472246
 40
0.0014884896472246
 40
0.0034732643877112
 40
0.0034732643877112
 40
0.0074438304351286
 40
0.0074438304351286
 40
0.0358723050805687
 40
0.0358723050805687
 40
0.0358723050805687
 40
0.0358723050805687
 10
5.482160350642346
 20
83.79362374178445
 30
0.0
 10
5.48210955706771
 20
83.79456902740617
 30
0.0
 10
5.482058864218971
 20
83.79551033668207
 30
0.0
 10
5.481907102328253
 20
83.79832220444567
 30
0.0
 10
5.481806348591412
 20
83.80018072708852
 30
0.0
 10
5.481505468901582
 20
83.80570703624167
 30
0.0
 10
5.481306713281572
 20
83.80932575656373
 30
0.0
 10
5.480716919721367
 20
83.81997643479184
 30
0.0
 10
5.480332259994705
 20
83.8268044181898
 30
0.0
 10
5.477288503469864
 20
83.88003933641934
 30
0.0
 10
5.475036473210098
 20
83.91378776593144
 30
0.0
 10
5.475036471697373
 20
83.91378778859218
 30
0.0
  0
SPLINE
  5
3E37
330
3E22
100
AcDbEntity
  8
0
100
AcDbSpline
210
0.0
220
0.0
230
1.0
 70
     8
 71
     3
 72
     8
 73
     4
 74
     0
 42
0.000000001
 43
0.0000000001
 40
0.0244097338405915
 40
0.0244097338405915
 40
0.0244097338405915
 40
0.0244097338405915
 40
0.0248288302714233
 40
0.0248288302714233
 40
0.0248288302714233
 40
0.0248288302714233
 10
5.499930753510994
 20
82.99840505350642
 30
0.0
 10
5.499939104730893
 20
82.99889515932406
 30
0.0
 10
5.499948036733121
 20
82.9994241347647
 30
0.0
 10
5.499957653917904
 20
83.00000066018229
 30
0.0
  0
SPLINE
  5
3E38
330
3E22
100
AcDbEntity
  8
0
100
AcDbSpline
210
0.0
220
0.0
230
1.0
 70
     8
 71
     3
 72
     8
 73
     4
 74
     0
 42
0.000000001
 43
0.0000000001
 40
0.0105298835004795
 40
0.0105298835004795
 40
0.0105298835004795
 40
0.0105298835004795
 40
0.0283910136279861
 40
0.0283910136279861
 40
0.0283910136279861
 40
0.0283910136279861
 10
5.499972892971332
 20
82.99935060858656
 30
0.0
 10
5.499972892971531
 20
82.9993506085913
 30
0.0
 10
5.49998848834141
 20
82.9997287577429
 30
0.0
 10
5.499999150745855
 20
83.0000000338949
 30
0.0
  0
SPLINE
  5
3E39
330
3E22
100
AcDbEntity
  8
0
100
AcDbSpline
210
0.0
220
0.0
230
1.0
 70
     8
 71
     3
 72
     8
 73
     4
 74
     0
 42
0.000000001
 43
0.0000000001
 40
0.0216957170305871
 40
0.0216957170305871
 40
0.0216957170305871
 40
0.0216957170305871
 40
0.0349340039411168
 40
0.0349340039411168
 40
0.0349340039411168
 40
0.0349340039411168
 10
5.499935589821531
 20
82.99665843733192
 30
0.0
 10
5.499935589821607
 20
82.9966584373367
 30
0.0
 10
5.499950303436698
 20
82.99753853735914
 30
0.0
 10
5.499977642753799
 20
83.00000020634103
 30
0.0
  0
SPLINE
  5
3E3A
330
3E22
100
AcDbEntity
  8
0
100
AcDbSpline
210
0.0
220
0.0
230
1.0
 70
     8
 71
     3
 72
    38
 73
    34
 74
     0
 42
0.000000001
 43
0.0000000001
 40
0.092226699437923
 40
0.092226699437923
 40
0.092226699437923
 40
0.092226699437923
 40
0.1010183070234812
 40
0.1010183070234812
 40
0.116052656710221
 40
0.116052656710221
 40
0.1333380549018781
 40
0.1333380549018781
 40
0.1538999755584698
 40
0.1538999755584698
 40
0.1797915261266554
 40
0.1797915261266554
 40
0.1870168648253225
 40
0.1870168648253225
 40
0.1897187132995451
 40
0.1897187132995451
 40
0.1903016388018883
 40
0.1903016388018883
 40
0.1909683217992837
 40
0.1909683217992837
 40
0.1912926815288829
 40
0.1912926815288829
 40
0.1917444893092988
 40
0.1917444893092988
 40
0.1922208401984848
 40
0.1922208401984848
 40
0.1929517616688036
 40
0.1929517616688036
 40
0.1944005184382402
 40
0.1944005184382402
 40
0.198428624725181
 40
0.198428624725181
 40
0.1989160864255022
 40
0.1989160864255022
 40
0.1989160864255022
 40
0.1989160864255022
 10
5.406742417370317
 20
82.34189897448642
 30
0.0
 10
5.406742416428771
 20
82.34189897109102
 30
0.0
 10
5.407512370118796
 20
82.34466230803437
 30
0.0
 10
5.41125557764367
 20
82.35852136461899
 30
0.0
 10
5.415505252842265
 20
82.37450453389373
 30
0.0
 10
5.4268492549626
 20
82.42093574354674
 30
0.0
 10
5.434297219959848
 20
82.45340432781482
 30
0.0
 10
5.450847639747136
 20
82.53562259054968
 30
0.0
 10
5.460057090736448
 20
82.58795198468646
 30
0.0
 10
5.478266983956191
 20
82.71505296992463
 30
0.0
 10
5.486804237160265
 20
82.79363112926043
 30
0.0
 10
5.494483741464666
 20
82.898281155695
 30
0.0
 10
5.495977440596023
 20
82.92144513223806
 30
0.0
 10
5.497779946615271
 20
82.95375695146589
 30
0.0
 10
5.498248002673462
 20
82.96265280460008
 30
0.0
 10
5.498788102091079
 20
82.97358472696819
 30
0.0
 10
5.498883117023297
 20
82.97553506539195
 30
0.0
 10
5.499081697071414
 20
82.97966857950319
 30
0.0
 10
5.499186784642039
 20
82.98189394207405
 30
0.0
 10
5.499325635542878
 20
82.98487725706328
 30
0.0
 10
5.499368689667647
 20
82.98580961000041
 30
0.0
 10
5.499461479916316
 20
82.98783099964429
 30
0.0
 10
5.49950796497961
 20
82.98885405506537
 30
0.0
 10
5.499586425751388
 20
82.9905899346693
 30
0.0
 10
5.499618640884428
 20
82.9913083764441
 30
0.0
 10
5.499686659221691
 20
82.99283047361987
 30
0.0
 10
5.49971614633401
 20
82.99349609897349
 30
0.0
 10
5.499788375240028
 20
82.99513065162484
 30
0.0
 10
5.499816805133707
 20
82.99578130983821
 30
0.0
 10
5.499905938743118
 20
82.99782367072495
 30
0.0
 10
5.499932359153279
 20
82.99844084334045
 30
0.0
 10
5.49996341030201
 20
82.99916485870717
 30
0.0
 10
5.499966683098293
 20
82.99924123552257
 30
0.0
 10
5.49996988217333
 20
82.99931595351003
 30
0.0
  0
SPLINE
  5
3E3B
330
3E22
100
AcDbEntity
  8
0
100
AcDbSpline
210
0.0
220
0.0
230
1.0
 70
     8
 71
     3
 72
     8
 73
     4
 74
     0
 42
0.000000001
 43
0.0000000001
 40
0.0
 40
0.0
 40
0.0
 40
0.0
 40
0.0485195814195906
 40
0.0485195814195906
 40
0.0485195814195906
 40
0.0485195814195906
 10
0.8233493511674174
 20
79.99998253744371
 30
0.0
 10
0.9850704301563567
 20
79.99999714325307
 30
0.0
 10
1.146837941766748
 20
80.00000021907254
 30
0.0
 10
1.308545165185282
 20
79.99999568161199
 30
0.0
  0
SPLINE
  5
3E3C
330
3E22
100
AcDbEntity
  8
0
100
AcDbSpline
210
0.0
220
0.0
230
1.0
 70
     8
 71
     3
 72
    24
 73
    20
 74
     0
 42
0.000000001
 43
0.0000000001
 40
0.1871831875452347
 40
0.1871831875452347
 40
0.1871831875452347
 40
0.1871831875452347
 40
0.1956891140894809
 40
0.1956891140894809
 40
0.2354126348126846
 40
0.2354126348126846
 40
0.2823072251635093
 40
0.2823072251635093
 40
0.3354358426069605
 40
0.3354358426069605
 40
0.3965801175759521
 40
0.3965801175759521
 40
0.4632508185248465
 40
0.4632508185248465
 40
0.5362167799988211
 40
0.5362167799988211
 40
0.6196382954180257
 40
0.6196382954180257
 40
0.6693277372787437
 40
0.6693277372787437
 40
0.6693277372787437
 40
0.6693277372787437
 10
1.676889834287627
 20
79.99624527709599
 30
0.0
 10
1.676889835306405
 20
79.99624527712402
 30
0.0
 10
1.677819251023512
 20
79.9962708243404
 30
0.0
 10
1.688032877159217
 20
79.99659792354598
 30
0.0
 10
1.715820626355296
 20
79.99756591129124
 30
0.0
 10
1.810521049916803
 20
80.00309627145298
 30
0.0
 10
1.884948933348892
 20
80.00838839880547
 30
0.0
 10
2.076631210553421
 20
80.02771987112353
 30
0.0
 10
2.200093967133046
 20
80.04303748430183
 30
0.0
 10
2.492220771854118
 20
80.09129954459107
 30
0.0
 10
2.668201897401143
 20
80.12721584756318
 30
0.0
 10
3.047648394373188
 20
80.22748874973872
 30
0.0
 10
3.256503877949158
 20
80.29538517776444
 30
0.0
 10
3.682960762258552
 20
80.47049532615316
 30
0.0
 10
3.904016569121262
 20
80.5826923216262
 30
0.0
 10
4.342196769974935
 20
80.86248863159399
 30
0.0
 10
4.559268066905186
 20
81.03900903059189
 30
0.0
 10
4.856930417696549
 20
81.35285371853536
 30
0.0
 10
4.958936478444445
 20
81.47915399995641
 30
0.0
 10
5.045619328571011
 20
81.60604348865309
 30
0.0
  0
LINE
  5
3E3D
330
3E22
100
AcDbEntity
  8
0
100
AcDbLine
 10
0.0
 20
-3.005080000000006
 30
0.0
 11
0.0
 21
-120.0
 31
0.0
  0
LINE
  5
3E3E
330
3E22
100
AcDbEntity
  8
0
100
AcDbLine
 10
3.0
 20
-120.0
 30
0.0
 11
3.0
 21
-3.005080000000006
 31
0.0
  0
LINE
  5
3E3F
330
3E22
100
AcDbEntity
  8
0
100
AcDbLine
 10
0.0
 20
-120.0
 30
0.0
 11
3.0
 21
-120.0
 31
0.0
  0
LINE
  5
3E40
330
3E22
100
AcDbEntity
  8
0
100
AcDbLine
 10
5.500000000000014
 20
83.0
 30
0.0
 11
5.500000000000014
 21
137.0
 31
0.0
  0
LINE
  5
3E41
330
3E22
100
AcDbEntity
  8
0
100
AcDbLine
 10
5.500000000000014
 20
137.0
 30
0.0
 11
5.500000000000014
 21
139.9999999999999
 31
0.0
  0
LINE
  5
3E42
330
3E22
100
AcDbEntity
  8
0
100
AcDbLine
 10
5.500000000000014
 20
139.9999999999999
 30
0.0
 11
5.500000000000014
 21
142.9999999999999
 31
0.0
  0
LINE
  5
3E43
330
3E22
100
AcDbEntity
  8
0
100
AcDbLine
 10
6.0
 20
0.0
 30
0.0
 11
108.0
 21
0.0
 31
0.0
  0
LINE
  5
3E44
330
3E22
100
AcDbEntity
  8
0
100
AcDbLine
 10
108.0
 20
0.0
 30
0.0
 11
108.0
 21
137.0
 31
0.0
  0
CIRCLE
  5
3E45
330
3E22
100
AcDbEntity
  8
0
100
AcDbCircle
 10
95.00000000000001
 20
17.5
 30
0.0
 40
2.5
  0
CIRCLE
  5
3E46
330
3E22
100
AcDbEntity
  8
0
100
AcDbCircle
 10
75.00000000000001
 20
7.5
 30
0.0
 40
2.5
  0
CIRCLE
  5
3E47
330
3E22
100
AcDbEntity
  8
0
100
AcDbCircle
 10
95.00000000000001
 20
37.5
 30
0.0
 40
2.5
  0
CIRCLE
  5
3E48
330
3E22
100
AcDbEntity
  8
0
100
AcDbCircle
 10
75.00000000000001
 20
27.5
 30
0.0
 40
2.5
  0
CIRCLE
  5
3E49
330
3E22
100
AcDbEntity
  8
0
100
AcDbCircle
 10
95.00000000000001
 20
57.5
 30
0.0
 40
2.5
  0
CIRCLE
  5
3E4A
330
3E22
100
AcDbEntity
  8
0
100
AcDbCircle
 10
75.00000000000001
 20
47.5
 30
0.0
 40
2.5
  0
CIRCLE
  5
3E4B
330
3E22
100
AcDbEntity
  8
0
100
AcDbCircle
 10
95.00000000000001
 20
77.5
 30
0.0
 40
2.5
  0
CIRCLE
  5
3E4C
330
3E22
100
AcDbEntity
  8
0
100
AcDbCircle
 10
75.0
 20
67.5
 30
0.0
 40
2.5
  0
CIRCLE
  5
3E4D
330
3E22
100
AcDbEntity
  8
0
100
AcDbCircle
 10
95.00000000000001
 20
97.5
 30
0.0
 40
2.5
  0
CIRCLE
  5
3E4E
330
3E22
100
AcDbEntity
  8
0
100
AcDbCircle
 10
75.0
 20
87.5
 30
0.0
 40
2.5
  0
CIRCLE
  5
3E4F
330
3E22
100
AcDbEntity
  8
0
100
AcDbCircle
 10
95.0
 20
117.5
 30
0.0
 40
2.5
  0
CIRCLE
  5
3E50
330
3E22
100
AcDbEntity
  8
0
100
AcDbCircle
 10
75.0
 20
107.5
 30
0.0
 40
2.5
  0
CIRCLE
  5
3E51
330
3E22
100
AcDbEntity
  8
0
100
AcDbCircle
 10
55.00000000000001
 20
17.5
 30
0.0
 40
2.5
  0
CIRCLE
  5
3E52
330
3E22
100
AcDbEntity
  8
0
100
AcDbCircle
 10
35.00000000000001
 20
7.5
 30
0.0
 40
2.5
  0
CIRCLE
  5
3E53
330
3E22
100
AcDbEntity
  8
0
100
AcDbCircle
 10
15.00000000000001
 20
17.5
 30
0.0
 40
2.5
  0
CIRCLE
  5
3E54
330
3E22
100
AcDbEntity
  8
0
100
AcDbCircle
 10
55.00000000000001
 20
37.5
 30
0.0
 40
2.5
  0
CIRCLE
  5
3E55
330
3E22
100
AcDbEntity
  8
0
100
AcDbCircle
 10
35.00000000000001
 20
27.5
 30
0.0
 40
2.5
  0
CIRCLE
  5
3E56
330
3E22
100
AcDbEntity
  8
0
100
AcDbCircle
 10
55.00000000000001
 20
57.5
 30
0.0
 40
2.5
  0
CIRCLE
  5
3E57
330
3E22
100
AcDbEntity
  8
0
100
AcDbCircle
 10
35.00000000000001
 20
47.5
 30
0.0
 40
2.5
  0
CIRCLE
  5
3E58
330
3E22
100
AcDbEntity
  8
0
100
AcDbCircle
 10
55.00000000000001
 20
77.5
 30
0.0
 40
2.5
  0
CIRCLE
  5
3E59
330
3E22
100
AcDbEntity
  8
0
100
AcDbCircle
 10
35.0
 20
67.5
 30
0.0
 40
2.5
  0
CIRCLE
  5
3E5A
330
3E22
100
AcDbEntity
  8
0
100
AcDbCircle
 10
55.00000000000001
 20
97.5
 30
0.0
 40
2.5
  0
CIRCLE
  5
3E5B
330
3E22
100
AcDbEntity
  8
0
100
AcDbCircle
 10
35.0
 20
87.5
 30
0.0
 40
2.5
  0
CIRCLE
  5
3E5C
330
3E22
100
AcDbEntity
  8
0
100
AcDbCircle
 10
55.0
 20
117.5
 30
0.0
 40
2.5
  0
CIRCLE
  5
3E5D
330
3E22
100
AcDbEntity
  8
0
100
AcDbCircle
 10
35.0
 20
107.5
 30
0.0
 40
2.5
  0
CIRCLE
  5
3E5E
330
3E22
100
AcDbEntity
  8
0
100
AcDbCircle
 10
15.00000000000001
 20
37.5
 30
0.0
 40
2.5
  0
CIRCLE
  5
3E5F
330
3E22
100
AcDbEntity
  8
0
100
AcDbCircle
 10
15.00000000000001
 20
57.5
 30
0.0
 40
2.5
  0
CIRCLE
  5
3E60
330
3E22
100
AcDbEntity
  8
0
100
AcDbCircle
 10
15.00000000000001
 20
77.5
 30
0.0
 40
2.5
  0
CIRCLE
  5
3E61
330
3E22
100
AcDbEntity
  8
0
100
AcDbCircle
 10
15.00000000000001
 20
97.5
 30
0.0
 40
2.5
  0
CIRCLE
  5
3E62
330
3E22
100
AcDbEntity
  8
0
100
AcDbCircle
 10
15.0
 20
117.5
 30
0.0
 40
2.5
  0
LINE
  5
3E63
330
3E22
100
AcDbEntity
  8
0
100
AcDbLine
 10
108.0
 20
139.9999999999999
 30
0.0
 11
5.500000000000007
 21
139.9999999999999
 31
0.0
  0
LINE
  5
3E64
330
3E22
100
AcDbEntity
  8
0
100
AcDbLine
 10
108.0
 20
139.9999999999999
 30
0.0
 11
108.0
 21
142.9999999999999
 31
0.0
  0
LINE
  5
3E65
330
3E22
100
AcDbEntity
  8
0
100
AcDbLine
 10
108.0
 20
142.9999999999999
 30
0.0
 11
5.500000000000007
 21
142.9999999999999
 31
0.0
  0
LINE
  5
3E66
330
3E22
100
AcDbEntity
  8
0
100
AcDbLine
 10
108.0
 20
137.0
 30
0.0
 11
108.0
 21
140.0
 31
0.0
  0
ENDBLK
  5
3E24
330
3E22
100
AcDbEntity
  8
0
100
AcDbBlockEnd
  0
BLOCK
  5
3E68
330
3E67
100
AcDbEntity
  8
0
100
AcDbBlockBegin
  2
SFHS-BR-ISO
 70
     0
 10
0.0
 20
0.0
 30
0.0
  3
SFHS-BR-ISO
  1

  0
SPLINE
  5
3E6A
330
3E67
100
AcDbEntity
  8
0
100
AcDbSpline
210
0.0
220
0.0
230
1.0
 70
     8
 71
     3
 72
    17
 73
    13
 74
     0
 42
0.000000001
 43
0.0000000001
 40
0.0
 40
0.0
 40
0.0
 40
0.0
 40
0.2923303629772381
 40
0.2923303629772381
 40
0.2923303629772381
 40
0.7134424300659939
 40
0.7134424300659939
 40
0.7134424300659939
 40
0.9796687136939619
 40
0.9796687136939619
 40
0.9796687136939619
 40
1.0
 40
1.0
 40
1.0
 40
1.0
 10
-25.39972844312655
 20
16.29753321583803
 30
0.0
 10
-25.80834521466244
 20
16.53593017155844
 30
0.0
 10
-26.09482880000432
 20
16.94279231398831
 30
0.0
 10
-26.26246180108337
 20
17.43455882986251
 30
0.0
 10
-26.50394297627756
 20
18.14296561975503
 30
0.0
 10
-26.49948078737005
 20
18.98068687005709
 30
0.0
 10
-26.24744012996505
 20
19.68393130917165
 30
0.0
 10
-26.0881004843264
 20
20.12852116574312
 30
0.0
 10
-25.84239361474517
 20
20.49928216110426
 30
0.0
 10
-25.48105702624214
 20
20.73726483897978
 30
0.0
 10
-25.453462314204
 20
20.75543920513863
 30
0.0
 10
-25.42512273364773
 20
20.77302557271833
 30
0.0
 10
-25.39613634067857
 20
20.79033831225757
 30
0.0
  0
ELLIPSE
  5
3E6B
330
3E67
100
AcDbEntity
  8
0
100
AcDbEllipse
 10
-27.51745668423776
 20
12.42124835774654
 30
0.0
 11
4.625000000000177
 21
8.010734985006362
 31
0.0
210
0.0
220
0.0
230
1.0
 40
0.5773502691896258
 41
0.4551008085682078
 42
0.7853981633974483
  0
LINE
  5
3E6C
330
3E67
100
AcDbEntity
  8
0
100
AcDbLine
 10
-29.64236913024583
 20
18.74702295862115
 30
0.0
 11
-27.51745668423776
 21
19.97384173132829
 31
0.0
  0
ELLIPSE
  5
3E6D
330
3E67
100
AcDbEntity
  8
0
100
AcDbEllipse
 10
-27.52104878668618
 20
17.52227808722956
 30
0.0
 11
-1.499999999999844
 21
2.598076211353407
 31
0.0
210
0.0
220
0.0
230
1.0
 40
0.5773502691896259
 41
0.785398163397689
 42
2.356194490192587
  0
LINE
  5
3E6E
330
3E67
100
AcDbEntity
  8
0
100
AcDbLine
 10
-25.39972844312654
 20
16.29753321583796
 30
0.0
 11
-27.52104878668618
 21
15.07278834444637
 31
0.0
  0
LINE
  5
3E6F
330
3E67
100
AcDbEntity
  8
0
100
AcDbLine
 10
-81.96827093805035
 20
-11.4633505357047
 30
0.0
 11
-29.64236913024583
 21
18.74702295862115
 31
0.0
  0
LINE
  5
3E70
330
3E67
100
AcDbEntity
  8
0
100
AcDbLine
 10
-27.52104878668618
 20
15.07278834444637
 30
0.0
 11
-79.84695059449069
 21
-15.13758514987948
 31
0.0
  0
ELLIPSE
  5
3E71
330
3E67
100
AcDbEntity
  8
0
100
AcDbEllipse
 10
-79.84695059449072
 20
-12.68809540709629
 30
0.0
 11
1.500000000000154
 21
-2.598076211353228
 31
0.0
210
0.0
220
0.0
230
1.0
 40
0.577350269189626
 41
3.926990816987002
 42
5.497787143781895
  0
ELLIPSE
  5
3E72
330
3E67
100
AcDbEntity
  8
0
100
AcDbEllipse
 10
-88.50900866402611
 20
-12.58603333448023
 30
0.0
 11
-9.250000000000271
 21
0.0000000000005534
 31
0.0
210
0.0
220
0.0
230
1.0
 40
0.5773502691896257
 41
2.025897135363258
 42
2.356194490192587
  0
LINE
  5
3E73
330
3E67
100
AcDbEntity
  8
0
100
AcDbLine
 10
-79.84695059449069
 20
-15.13758514987948
 30
0.0
 11
-81.96827093805035
 21
-16.36233002127107
 31
0.0
  0
LINE
  5
3E74
330
3E67
100
AcDbEntity
  8
0
100
AcDbLine
 10
-84.08959128160999
 20
-12.68809540709629
 30
0.0
 11
-81.96827093805035
 21
-11.4633505357047
 31
0.0
  0
SPLINE
  5
3E75
330
3E67
100
AcDbEntity
  8
0
100
AcDbSpline
210
0.0
220
0.0
230
1.0
 70
     8
 71
     3
 72
    14
 73
    10
 74
     0
 42
0.000000001
 43
0.0000000001
 40
-1.0
 40
-1.0
 40
-1.0
 40
-1.0
 40
-0.6434500067457547
 40
-0.6434500067457547
 40
-0.6434500067457547
 40
-0.2563502858785579
 40
-0.2563502858785579
 40
-0.2563502858785579
 40
0.0
 40
0.0
 40
0.0
 40
0.0
 10
-84.08959128160999
 20
-12.68809540709632
 30
0.0
 10
-84.0921733118113
 20
-13.24104110592214
 30
0.0
 10
-83.95862005664513
 20
-13.92459168664871
 30
0.0
 10
-83.85149429711109
 20
-14.56858138613961
 30
0.0
 10
-83.73518984500657
 20
-15.26774906986054
 30
0.0
 10
-83.65109559407807
 20
-15.95832391835693
 30
0.0
 10
-83.79492839918185
 20
-16.51180187590061
 30
0.0
 10
-83.89017925760269
 20
-16.8783333534381
 30
0.0
 10
-84.10107165700532
 20
-17.17852150643015
 30
0.0
 10
-84.44314467220426
 20
-17.38295074743305
 30
0.0
  0
SPLINE
  5
3E76
330
3E67
100
AcDbEntity
  8
0
100
AcDbSpline
210
0.0
220
0.0
230
1.0
 70
     8
 71
     3
 72
    11
 73
     7
 74
     0
 42
0.000000001
 43
0.0000000001
 40
-0.5871732443840675
 40
-0.5871732443840675
 40
-0.5871732443840675
 40
-0.5871732443840675
 40
-0.2712553180531303
 40
-0.2712553180531303
 40
-0.2712553180531303
 40
0.0
 40
0.0
 40
0.0
 40
0.0
 10
-83.93907363345807
 20
-16.87789419841572
 30
0.0
 10
-84.32991135219738
 20
-15.9358080724039
 30
0.0
 10
-84.95811098495982
 20
-14.90340260779731
 30
0.0
 10
-85.45543189209295
 20
-13.90293973831351
 30
0.0
 10
-85.88244451022958
 20
-13.04391639318719
 30
0.0
 10
-86.20999325468631
 20
-12.18199443581631
 30
0.0
 10
-86.21091162515288
 20
-11.46335053572734
 30
0.0
  0
LINE
  5
3E77
330
3E67
100
AcDbEntity
  8
0
100
AcDbLine
 10
-86.21091162516965
 20
-11.4633505357047
 30
0.0
 11
-84.08959128160999
 21
-12.68809540709629
 31
0.0
  0
LINE
  5
3E78
330
3E67
100
AcDbEntity
  8
0
100
AcDbLine
 10
-86.21091162516963
 20
44.8749135483084
 30
0.0
 11
-86.21091162516965
 21
-11.4633505357047
 31
0.0
  0
LINE
  5
3E79
330
3E67
100
AcDbEntity
  8
0
100
AcDbLine
 10
55.21044461213991
 20
126.524571641081
 30
0.0
 11
-86.21091162516961
 21
44.8749135483084
 31
0.0
  0
LINE
  5
3E7A
330
3E67
100
AcDbEntity
  8
0
100
AcDbLine
 10
-84.08959128160999
 20
-12.68809540709629
 30
0.0
 11
-84.08959128160999
 21
43.65016867691681
 31
0.0
  0
LINE
  5
3E7B
330
3E67
100
AcDbEntity
  8
0
100
AcDbLine
 10
-86.21091162516963
 20
44.8749135483084
 30
0.0
 11
-84.08959128160999
 21
43.65016867691681
 31
0.0
  0
LINE
  5
3E7C
330
3E67
100
AcDbEntity
  8
0
100
AcDbLine
 10
57.33176495569951
 20
68.55331439521245
 30
0.0
 11
-25.39613634067811
 21
20.79033831225605
 31
0.0
  0
LINE
  5
3E7D
330
3E67
100
AcDbEntity
  8
0
100
AcDbLine
 10
57.33176495569956
 20
125.2998267696894
 30
0.0
 11
57.33176495569951
 21
68.55331439521247
 31
0.0
  0
LINE
  5
3E7E
330
3E67
100
AcDbEntity
  8
0
100
AcDbLine
 10
-84.08959128160999
 20
43.65016867691681
 30
0.0
 11
57.33176495569953
 21
125.2998267696894
 31
0.0
  0
LINE
  5
3E7F
330
3E67
100
AcDbEntity
  8
0
100
AcDbLine
 10
55.21044461213991
 20
126.524571641081
 30
0.0
 11
57.33176495569956
 21
125.2998267696894
 31
0.0
  0
ELLIPSE
  5
3E80
330
3E67
100
AcDbEntity
  8
0
100
AcDbEllipse
 10
48.13937680027443
 20
106.1121571178879
 30
0.0
 11
1.24999999999987
 21
2.165063509461171
 31
0.0
210
0.0
220
0.0
230
1.0
 40
0.5773502691896259
 41
4.154790153685041
 42
5.269987807084103
  0
ELLIPSE
  5
3E81
330
3E67
100
AcDbEntity
  8
0
100
AcDbEllipse
 10
33.9972411765435
 20
106.1121571178879
 30
0.0
 11
1.24999999999987
 21
2.165063509461171
 31
0.0
210
0.0
220
0.0
230
1.0
 40
0.5773502691896259
 41
4.154790153685036
 42
5.269987807084103
  0
ELLIPSE
  5
3E82
330
3E67
100
AcDbEntity
  8
0
100
AcDbEllipse
 10
33.99724117654349
 20
73.45229388077884
 30
0.0
 11
1.24999999999987
 21
2.165063509461171
 31
0.0
210
0.0
220
0.0
230
1.0
 40
0.5773502691896259
 41
4.154790153685038
 42
5.269987807084106
  0
ELLIPSE
  5
3E83
330
3E67
100
AcDbEntity
  8
0
100
AcDbEllipse
 10
33.9972411765435
 20
89.78222549933335
 30
0.0
 11
1.24999999999987
 21
2.165063509461171
 31
0.0
210
0.0
220
0.0
230
1.0
 40
0.5773502691896259
 41
4.154790153685036
 42
5.269987807084103
  0
ELLIPSE
  5
3E84
330
3E67
100
AcDbEntity
  8
0
100
AcDbEllipse
 10
48.13937680027443
 20
89.78222549933333
 30
0.0
 11
1.24999999999987
 21
2.165063509461171
 31
0.0
210
0.0
220
0.0
230
1.0
 40
0.5773502691896259
 41
4.154790153685041
 42
5.269987807084103
  0
ELLIPSE
  5
3E85
330
3E67
100
AcDbEntity
  8
0
100
AcDbEllipse
 10
50.26069714383407
 20
88.55748062794175
 30
0.0
 11
-1.250000000000129
 21
-2.165063509461022
 31
0.0
210
0.0
220
0.0
230
1.0
 40
0.5773502691896259
 41
0.0
 42
6.283185307179586
  0
ELLIPSE
  5
3E86
330
3E67
100
AcDbEntity
  8
0
100
AcDbEllipse
 10
36.11856152010314
 20
88.55748062794177
 30
0.0
 11
-1.250000000000129
 21
-2.165063509461022
 31
0.0
210
0.0
220
0.0
230
1.0
 40
0.5773502691896259
 41
0.0
 42
6.283185307179586
  0
ELLIPSE
  5
3E87
330
3E67
100
AcDbEntity
  8
0
100
AcDbEllipse
 10
36.11856152010314
 20
72.22754900938723
 30
0.0
 11
-1.250000000000129
 21
-2.165063509461022
 31
0.0
210
0.0
220
0.0
230
1.0
 40
0.5773502691896259
 41
0.0
 42
6.283185307179586
  0
ELLIPSE
  5
3E88
330
3E67
100
AcDbEntity
  8
0
100
AcDbEllipse
 10
36.11856152010314
 20
104.8874122464963
 30
0.0
 11
-1.250000000000129
 21
-2.165063509461022
 31
0.0
210
0.0
220
0.0
230
1.0
 40
0.5773502691896259
 41
0.0
 42
6.283185307179586
  0
ELLIPSE
  5
3E89
330
3E67
100
AcDbEntity
  8
0
100
AcDbEllipse
 10
50.26069714383409
 20
104.8874122464963
 30
0.0
 11
-1.250000000000129
 21
-2.165063509461022
 31
0.0
210
0.0
220
0.0
230
1.0
 40
0.5773502691896259
 41
0.0
 42
6.283185307179586
  0
ELLIPSE
  5
3E8A
330
3E67
100
AcDbEntity
  8
0
100
AcDbEllipse
 10
19.85510555281252
 20
89.78222549933335
 30
0.0
 11
1.24999999999987
 21
2.165063509461171
 31
0.0
210
0.0
220
0.0
230
1.0
 40
0.5773502691896259
 41
4.154790153685034
 42
5.269987807084103
  0
ELLIPSE
  5
3E8B
330
3E67
100
AcDbEntity
  8
0
100
AcDbEllipse
 10
5.712969929081586
 20
89.78222549933335
 30
0.0
 11
1.24999999999987
 21
2.165063509461171
 31
0.0
210
0.0
220
0.0
230
1.0
 40
0.5773502691896259
 41
4.154790153685034
 42
5.269987807084103
  0
ELLIPSE
  5
3E8C
330
3E67
100
AcDbEntity
  8
0
100
AcDbEllipse
 10
5.712969929081577
 20
57.1223622622243
 30
0.0
 11
1.24999999999987
 21
2.165063509461171
 31
0.0
210
0.0
220
0.0
230
1.0
 40
0.5773502691896259
 41
4.154790153685032
 42
5.269987807084107
  0
ELLIPSE
  5
3E8D
330
3E67
100
AcDbEntity
  8
0
100
AcDbEllipse
 10
5.712969929081586
 20
73.45229388077884
 30
0.0
 11
1.24999999999987
 21
2.165063509461171
 31
0.0
210
0.0
220
0.0
230
1.0
 40
0.5773502691896259
 41
4.154790153685032
 42
5.269987807084103
  0
ELLIPSE
  5
3E8E
330
3E67
100
AcDbEntity
  8
0
100
AcDbEllipse
 10
19.85510555281252
 20
73.45229388077881
 30
0.0
 11
1.24999999999987
 21
2.165063509461171
 31
0.0
210
0.0
220
0.0
230
1.0
 40
0.5773502691896259
 41
4.154790153685034
 42
5.269987807084107
  0
ELLIPSE
  5
3E8F
330
3E67
100
AcDbEntity
  8
0
100
AcDbEllipse
 10
-8.42916569464938
 20
73.45229388077884
 30
0.0
 11
1.249999999999871
 21
2.165063509461172
 31
0.0
210
0.0
220
0.0
230
1.0
 40
0.5773502691896258
 41
4.154790153685032
 42
5.269987807084108
  0
ELLIPSE
  5
3E90
330
3E67
100
AcDbEntity
  8
0
100
AcDbEllipse
 10
-22.57130131838033
 20
73.45229388077884
 30
0.0
 11
1.24999999999987
 21
2.165063509461171
 31
0.0
210
0.0
220
0.0
230
1.0
 40
0.5773502691896258
 41
4.154790153685029
 42
5.269987807084107
  0
ELLIPSE
  5
3E91
330
3E67
100
AcDbEntity
  8
0
100
AcDbEllipse
 10
-22.57130131838033
 20
40.79243064366977
 30
0.0
 11
1.24999999999987
 21
2.165063509461171
 31
0.0
210
0.0
220
0.0
230
1.0
 40
0.5773502691896258
 41
4.154790153685034
 42
5.269987807084106
  0
ELLIPSE
  5
3E92
330
3E67
100
AcDbEntity
  8
0
100
AcDbEllipse
 10
-22.57130131838032
 20
57.1223622622243
 30
0.0
 11
1.24999999999987
 21
2.165063509461171
 31
0.0
210
0.0
220
0.0
230
1.0
 40
0.5773502691896258
 41
4.154790153685031
 42
5.269987807084107
  0
ELLIPSE
  5
3E93
330
3E67
100
AcDbEntity
  8
0
100
AcDbEllipse
 10
-8.42916569464938
 20
57.12236226222429
 30
0.0
 11
1.24999999999987
 21
2.165063509461171
 31
0.0
210
0.0
220
0.0
230
1.0
 40
0.5773502691896258
 41
4.154790153685031
 42
5.269987807084107
  0
ELLIPSE
  5
3E94
330
3E67
100
AcDbEntity
  8
0
100
AcDbEllipse
 10
-36.71343694211129
 20
57.12236226222429
 30
0.0
 11
1.249999999999871
 21
2.165063509461172
 31
0.0
210
0.0
220
0.0
230
1.0
 40
0.5773502691896258
 41
4.154790153685032
 42
5.269987807084103
  0
ELLIPSE
  5
3E95
330
3E67
100
AcDbEntity
  8
0
100
AcDbEllipse
 10
-50.85557256584223
 20
57.1223622622243
 30
0.0
 11
1.249999999999871
 21
2.165063509461172
 31
0.0
210
0.0
220
0.0
230
1.0
 40
0.5773502691896258
 41
4.154790153685032
 42
5.269987807084108
  0
ELLIPSE
  5
3E96
330
3E67
100
AcDbEntity
  8
0
100
AcDbEllipse
 10
-50.85557256584223
 20
24.46249902511525
 30
0.0
 11
1.24999999999987
 21
2.165063509461171
 31
0.0
210
0.0
220
0.0
230
1.0
 40
0.5773502691896258
 41
4.154790153685031
 42
5.269987807084107
  0
ELLIPSE
  5
3E97
330
3E67
100
AcDbEntity
  8
0
100
AcDbEllipse
 10
-50.85557256584223
 20
40.79243064366977
 30
0.0
 11
1.249999999999871
 21
2.165063509461172
 31
0.0
210
0.0
220
0.0
230
1.0
 40
0.5773502691896258
 41
4.154790153685031
 42
5.269987807084108
  0
ELLIPSE
  5
3E98
330
3E67
100
AcDbEntity
  8
0
100
AcDbEllipse
 10
-36.71343694211129
 20
40.79243064366977
 30
0.0
 11
1.24999999999987
 21
2.165063509461171
 31
0.0
210
0.0
220
0.0
230
1.0
 40
0.5773502691896258
 41
4.154790153685034
 42
5.269987807084106
  0
ELLIPSE
  5
3E99
330
3E67
100
AcDbEntity
  8
0
100
AcDbEllipse
 10
-64.99770818957319
 20
40.79243064366977
 30
0.0
 11
1.24999999999987
 21
2.165063509461171
 31
0.0
210
0.0
220
0.0
230
1.0
 40
0.5773502691896259
 41
4.154790153685031
 42
5.269987807084103
  0
ELLIPSE
  5
3E9A
330
3E67
100
AcDbEntity
  8
0
100
AcDbEllipse
 10
-79.13984381330414
 20
40.79243064366978
 30
0.0
 11
1.249999999999871
 21
2.165063509461171
 31
0.0
210
0.0
220
0.0
230
1.0
 40
0.5773502691896258
 41
4.154790153685031
 42
5.269987807084103
  0
ELLIPSE
  5
3E9B
330
3E67
100
AcDbEntity
  8
0
100
AcDbEllipse
 10
-79.13984381330414
 20
8.132567406560731
 30
0.0
 11
1.24999999999987
 21
2.165063509461171
 31
0.0
210
0.0
220
0.0
230
1.0
 40
0.5773502691896259
 41
4.154790153685031
 42
5.269987807084106
  0
ELLIPSE
  5
3E9C
330
3E67
100
AcDbEntity
  8
0
100
AcDbEllipse
 10
-79.13984381330414
 20
24.46249902511525
 30
0.0
 11
1.24999999999987
 21
2.165063509461171
 31
0.0
210
0.0
220
0.0
230
1.0
 40
0.5773502691896259
 41
4.154790153685031
 42
5.269987807084105
  0
ELLIPSE
  5
3E9D
330
3E67
100
AcDbEntity
  8
0
100
AcDbEllipse
 10
-64.99770818957319
 20
24.46249902511525
 30
0.0
 11
1.24999999999987
 21
2.165063509461171
 31
0.0
210
0.0
220
0.0
230
1.0
 40
0.5773502691896259
 41
4.154790153685031
 42
5.269987807084105
  0
ELLIPSE
  5
3E9E
330
3E67
100
AcDbEntity
  8
0
100
AcDbEllipse
 10
-62.87638784601355
 20
23.23775415372367
 30
0.0
 11
-1.250000000000129
 21
-2.165063509461022
 31
0.0
210
0.0
220
0.0
230
1.0
 40
0.5773502691896259
 41
0.0
 42
6.283185307179586
  0
ELLIPSE
  5
3E9F
330
3E67
100
AcDbEntity
  8
0
100
AcDbEllipse
 10
-77.01852346974449
 20
23.23775415372367
 30
0.0
 11
-1.250000000000129
 21
-2.165063509461022
 31
0.0
210
0.0
220
0.0
230
1.0
 40
0.5773502691896259
 41
0.0
 42
6.283185307179586
  0
ELLIPSE
  5
3EA0
330
3E67
100
AcDbEntity
  8
0
100
AcDbEllipse
 10
-77.01852346974449
 20
6.907822535169144
 30
0.0
 11
-1.250000000000129
 21
-2.165063509461022
 31
0.0
210
0.0
220
0.0
230
1.0
 40
0.5773502691896259
 41
0.0
 42
6.283185307179586
  0
ELLIPSE
  5
3EA1
330
3E67
100
AcDbEntity
  8
0
100
AcDbEllipse
 10
-77.01852346974447
 20
39.56768577227819
 30
0.0
 11
-1.250000000000129
 21
-2.165063509461022
 31
0.0
210
0.0
220
0.0
230
1.0
 40
0.5773502691896259
 41
0.0
 42
6.283185307179586
  0
ELLIPSE
  5
3EA2
330
3E67
100
AcDbEntity
  8
0
100
AcDbEllipse
 10
-62.87638784601355
 20
39.56768577227819
 30
0.0
 11
-1.250000000000129
 21
-2.165063509461022
 31
0.0
210
0.0
220
0.0
230
1.0
 40
0.5773502691896259
 41
0.0
 42
6.283185307179586
  0
ELLIPSE
  5
3EA3
330
3E67
100
AcDbEntity
  8
0
100
AcDbEllipse
 10
-34.59211659855165
 20
39.56768577227819
 30
0.0
 11
-1.250000000000129
 21
-2.165063509461022
 31
0.0
210
0.0
220
0.0
230
1.0
 40
0.5773502691896259
 41
0.0
 42
6.283185307179586
  0
ELLIPSE
  5
3EA4
330
3E67
100
AcDbEntity
  8
0
100
AcDbEllipse
 10
-48.73425222228258
 20
39.56768577227819
 30
0.0
 11
-1.250000000000129
 21
-2.165063509461022
 31
0.0
210
0.0
220
0.0
230
1.0
 40
0.5773502691896259
 41
0.0
 42
6.283185307179586
  0
ELLIPSE
  5
3EA5
330
3E67
100
AcDbEntity
  8
0
100
AcDbEllipse
 10
-48.73425222228259
 20
23.23775415372367
 30
0.0
 11
-1.250000000000129
 21
-2.165063509461022
 31
0.0
210
0.0
220
0.0
230
1.0
 40
0.5773502691896259
 41
0.0
 42
6.283185307179586
  0
ELLIPSE
  5
3EA6
330
3E67
100
AcDbEntity
  8
0
100
AcDbEllipse
 10
-48.73425222228259
 20
55.89761739083272
 30
0.0
 11
-1.250000000000129
 21
-2.165063509461022
 31
0.0
210
0.0
220
0.0
230
1.0
 40
0.5773502691896259
 41
0.0
 42
6.283185307179586
  0
ELLIPSE
  5
3EA7
330
3E67
100
AcDbEntity
  8
0
100
AcDbEllipse
 10
-34.59211659855165
 20
55.89761739083272
 30
0.0
 11
-1.250000000000129
 21
-2.165063509461022
 31
0.0
210
0.0
220
0.0
230
1.0
 40
0.5773502691896259
 41
0.0
 42
6.283185307179586
  0
ELLIPSE
  5
3EA8
330
3E67
100
AcDbEntity
  8
0
100
AcDbEllipse
 10
-6.307845351089738
 20
55.89761739083271
 30
0.0
 11
-1.250000000000129
 21
-2.165063509461022
 31
0.0
210
0.0
220
0.0
230
1.0
 40
0.5773502691896259
 41
0.0
 42
6.283185307179586
  0
ELLIPSE
  5
3EA9
330
3E67
100
AcDbEntity
  8
0
100
AcDbEllipse
 10
-20.44998097482068
 20
55.89761739083272
 30
0.0
 11
-1.250000000000129
 21
-2.165063509461022
 31
0.0
210
0.0
220
0.0
230
1.0
 40
0.5773502691896259
 41
0.0
 42
6.283185307179586
  0
ELLIPSE
  5
3EAA
330
3E67
100
AcDbEntity
  8
0
100
AcDbEllipse
 10
-20.44998097482069
 20
39.56768577227819
 30
0.0
 11
-1.250000000000129
 21
-2.165063509461022
 31
0.0
210
0.0
220
0.0
230
1.0
 40
0.5773502691896259
 41
0.0
 42
6.283185307179586
  0
ELLIPSE
  5
3EAB
330
3E67
100
AcDbEntity
  8
0
100
AcDbEllipse
 10
-20.44998097482068
 20
72.22754900938724
 30
0.0
 11
-1.250000000000129
 21
-2.165063509461022
 31
0.0
210
0.0
220
0.0
230
1.0
 40
0.5773502691896259
 41
0.0
 42
6.283185307179586
  0
ELLIPSE
  5
3EAC
330
3E67
100
AcDbEntity
  8
0
100
AcDbEllipse
 10
-6.307845351089738
 20
72.22754900938723
 30
0.0
 11
-1.250000000000129
 21
-2.165063509461022
 31
0.0
210
0.0
220
0.0
230
1.0
 40
0.5773502691896259
 41
0.0
 42
6.283185307179586
  0
ELLIPSE
  5
3EAD
330
3E67
100
AcDbEntity
  8
0
100
AcDbEllipse
 10
21.97642589637217
 20
72.22754900938723
 30
0.0
 11
-1.250000000000129
 21
-2.165063509461022
 31
0.0
210
0.0
220
0.0
230
1.0
 40
0.5773502691896259
 41
0.0
 42
6.283185307179586
  0
ELLIPSE
  5
3EAE
330
3E67
100
AcDbEntity
  8
0
100
AcDbEllipse
 10
7.834290272641228
 20
72.22754900938723
 30
0.0
 11
-1.250000000000129
 21
-2.165063509461022
 31
0.0
210
0.0
220
0.0
230
1.0
 40
0.5773502691896259
 41
0.0
 42
6.283185307179586
  0
ELLIPSE
  5
3EAF
330
3E67
100
AcDbEntity
  8
0
100
AcDbEllipse
 10
7.83429027264122
 20
55.89761739083272
 30
0.0
 11
-1.250000000000129
 21
-2.165063509461022
 31
0.0
210
0.0
220
0.0
230
1.0
 40
0.5773502691896259
 41
0.0
 42
6.283185307179586
  0
ELLIPSE
  5
3EB0
330
3E67
100
AcDbEntity
  8
0
100
AcDbEllipse
 10
7.834290272641228
 20
88.55748062794177
 30
0.0
 11
-1.250000000000129
 21
-2.165063509461022
 31
0.0
210
0.0
220
0.0
230
1.0
 40
0.5773502691896259
 41
0.0
 42
6.283185307179586
  0
ELLIPSE
  5
3EB1
330
3E67
100
AcDbEntity
  8
0
100
AcDbEllipse
 10
21.97642589637217
 20
88.55748062794175
 30
0.0
 11
-1.250000000000129
 21
-2.165063509461022
 31
0.0
210
0.0
220
0.0
230
1.0
 40
0.5773502691896259
 41
0.0
 42
6.283185307179586
  0
LINE
  5
3EB2
330
3E67
100
AcDbEntity
  8
0
100
AcDbLine
 10
-122.6269108562768
 20
-39.42835843247934
 30
0.0
 11
-84.44314467220326
 21
-17.38295074743073
 31
0.0
  0
LINE
  5
3EB3
330
3E67
100
AcDbEntity
  8
0
100
AcDbLine
 10
-126.869551543396
 20
-85.15216696443202
 30
0.0
 11
-126.869551543396
 21
-46.77682766082885
 31
0.0
  0
ELLIPSE
  5
3EB4
330
3E67
100
AcDbEntity
  8
0
100
AcDbEllipse
 10
-122.6269108562768
 20
-44.32733791804569
 30
0.0
 11
3.000000000000291
 21
5.196152422706419
 31
0.0
210
0.0
220
0.0
230
1.0
 40
0.5773502691896261
 41
0.7853981633976917
 42
2.356194490192585
  0
LINE
  5
3EB5
330
3E67
100
AcDbEntity
  8
0
100
AcDbLine
 10
-122.6269108562768
 20
-39.42835843247934
 30
0.0
 11
-50.14846578465572
 21
-81.2738082050253
 31
0.0
  0
LINE
  5
3EB6
330
3E67
100
AcDbEntity
  8
0
100
AcDbLine
 10
-54.39110647177496
 20
-88.62227743337486
 30
0.0
 11
-126.869551543396
 21
-46.77682766082885
 31
0.0
  0
ELLIPSE
  5
3EB7
330
3E67
100
AcDbEntity
  8
0
100
AcDbEllipse
 10
-50.14846578465571
 20
-86.17278769059167
 30
0.0
 11
-2.999999999999697
 21
-5.196152422706819
 31
0.0
210
0.0
220
0.0
230
1.0
 40
0.577350269189626
 41
3.926990816987002
 42
5.497787143781899
  0
LINE
  5
3EB8
330
3E67
100
AcDbEntity
  8
0
100
AcDbLine
 10
-52.26978612821534
 20
-87.39753256198328
 30
0.0
 11
-54.39110647177496
 21
-88.62227743337486
 31
0.0
  0
ELLIPSE
  5
3EB9
330
3E67
100
AcDbEntity
  8
0
100
AcDbEllipse
 10
-50.14846578465571
 20
-86.17278769059167
 30
0.0
 11
-1.499999999999854
 21
-2.598076211353419
 31
0.0
210
0.0
220
0.0
230
1.0
 40
0.5773502691896259
 41
3.926990816987002
 42
5.497787143781895
  0
LINE
  5
3EBA
330
3E67
100
AcDbEntity
  8
0
100
AcDbLine
 10
-50.14846578465572
 20
-81.2738082050253
 30
0.0
 11
-50.14846578465572
 21
-83.72329794780846
 31
0.0
  0
LINE
  5
3EBB
330
3E67
100
AcDbEntity
  8
0
100
AcDbLine
 10
46.72516323790133
 20
-25.34379241147608
 30
0.0
 11
-50.14846578465572
 21
-81.2738082050253
 31
0.0
  0
LINE
  5
3EBC
330
3E67
100
AcDbEntity
  8
0
100
AcDbLine
 10
-25.39972844312655
 20
16.29753321583797
 30
0.0
 11
46.72516323790133
 21
-25.34379241147608
 31
0.0
  0
LINE
  5
3EBD
330
3E67
100
AcDbEntity
  8
0
100
AcDbLine
 10
46.72516323790133
 20
-27.79328215425926
 30
0.0
 11
-50.14846578465572
 21
-83.72329794780846
 31
0.0
  0
LINE
  5
3EBE
330
3E67
100
AcDbEntity
  8
0
100
AcDbLine
 10
46.72516323790133
 20
-27.79328215425926
 30
0.0
 11
46.72516323790133
 21
-25.34379241147608
 31
0.0
  0
ELLIPSE
  5
3EBF
330
3E67
100
AcDbEntity
  8
0
100
AcDbEllipse
 10
25.15840641171163
 20
-27.18090971856348
 30
0.0
 11
2.5
 21
-0.0000000000001496
 31
0.0
210
0.0
220
0.0
230
1.0
 40
0.5773502691896258
 41
0.0
 42
6.283185307179586
  0
ELLIPSE
  5
3EC0
330
3E67
100
AcDbEntity
  8
0
100
AcDbEllipse
 10
18.08733859984615
 20
-14.93346100464757
 30
0.0
 11
2.5
 21
-0.0000000000001496
 31
0.0
210
0.0
220
0.0
230
1.0
 40
0.5773502691896258
 41
0.0
 42
6.283185307179586
  0
ELLIPSE
  5
3EC1
330
3E67
100
AcDbEntity
  8
0
100
AcDbEllipse
 10
25.15840641171163
 20
-29.63039946134666
 30
0.0
 11
-2.5
 21
-0.000000000000149
 31
0.0
210
0.0
220
0.0
230
1.0
 40
0.5773502691896258
 41
4.154790153685036
 42
5.269987807084099
  0
ELLIPSE
  5
3EC2
330
3E67
100
AcDbEntity
  8
0
100
AcDbEllipse
 10
18.08733859984615
 20
-17.38295074743076
 30
0.0
 11
-2.5
 21
-0.000000000000149
 31
0.0
210
0.0
220
0.0
230
1.0
 40
0.5773502691896258
 41
4.154790153685038
 42
5.269987807084101
  0
ELLIPSE
  5
3EC3
330
3E67
100
AcDbEntity
  8
0
100
AcDbEllipse
 10
11.01627078798067
 20
-35.34587552784073
 30
0.0
 11
2.5
 21
-0.0000000000001496
 31
0.0
210
0.0
220
0.0
230
1.0
 40
0.5773502691896258
 41
0.0
 42
6.283185307179586
  0
ELLIPSE
  5
3EC4
330
3E67
100
AcDbEntity
  8
0
100
AcDbEllipse
 10
3.945202976115189
 20
-23.09842681392485
 30
0.0
 11
2.5
 21
-0.0000000000001496
 31
0.0
210
0.0
220
0.0
230
1.0
 40
0.5773502691896258
 41
0.0
 42
6.283185307179586
  0
ELLIPSE
  5
3EC5
330
3E67
100
AcDbEntity
  8
0
100
AcDbEllipse
 10
-3.12586483575028
 20
-43.510841337118
 30
0.0
 11
2.5
 21
-0.0000000000001496
 31
0.0
210
0.0
220
0.0
230
1.0
 40
0.5773502691896258
 41
0.0
 42
6.283185307179586
  0
ELLIPSE
  5
3EC6
330
3E67
100
AcDbEntity
  8
0
100
AcDbEllipse
 10
-10.19693264761576
 20
-31.2633926232021
 30
0.0
 11
2.5
 21
-0.0000000000001496
 31
0.0
210
0.0
220
0.0
230
1.0
 40
0.5773502691896258
 41
0.0
 42
6.283185307179586
  0
ELLIPSE
  5
3EC7
330
3E67
100
AcDbEntity
  8
0
100
AcDbEllipse
 10
-17.26800045948124
 20
-51.67580714639524
 30
0.0
 11
2.5
 21
-0.0000000000001496
 31
0.0
210
0.0
220
0.0
230
1.0
 40
0.5773502691896258
 41
0.0
 42
6.283185307179586
  0
ELLIPSE
  5
3EC8
330
3E67
100
AcDbEntity
  8
0
100
AcDbEllipse
 10
-24.33906827134673
 20
-39.42835843247934
 30
0.0
 11
2.5
 21
-0.0000000000001496
 31
0.0
210
0.0
220
0.0
230
1.0
 40
0.5773502691896258
 41
0.0
 42
6.283185307179586
  0
ELLIPSE
  5
3EC9
330
3E67
100
AcDbEntity
  8
0
100
AcDbEllipse
 10
-31.41013608321219
 20
-59.8407729556725
 30
0.0
 11
2.5
 21
-0.0000000000001496
 31
0.0
210
0.0
220
0.0
230
1.0
 40
0.5773502691896258
 41
0.0
 42
6.283185307179586
  0
ELLIPSE
  5
3ECA
330
3E67
100
AcDbEntity
  8
0
100
AcDbEllipse
 10
-38.48120389507768
 20
-47.5933242417566
 30
0.0
 11
2.5
 21
-0.0000000000001496
 31
0.0
210
0.0
220
0.0
230
1.0
 40
0.5773502691896258
 41
0.0
 42
6.283185307179586
  0
ELLIPSE
  5
3ECB
330
3E67
100
AcDbEntity
  8
0
100
AcDbEllipse
 10
-45.55227170694315
 20
-68.00573876494976
 30
0.0
 11
2.5
 21
-0.0000000000001496
 31
0.0
210
0.0
220
0.0
230
1.0
 40
0.5773502691896258
 41
0.0
 42
6.283185307179586
  0
ELLIPSE
  5
3ECC
330
3E67
100
AcDbEntity
  8
0
100
AcDbEllipse
 10
-52.62333951880863
 20
-55.75829005103386
 30
0.0
 11
2.5
 21
-0.0000000000001496
 31
0.0
210
0.0
220
0.0
230
1.0
 40
0.5773502691896258
 41
0.0
 42
6.283185307179586
  0
ELLIPSE
  5
3ECD
330
3E67
100
AcDbEntity
  8
0
100
AcDbEllipse
 10
11.01627078798067
 20
-37.79536527062391
 30
0.0
 11
-2.5
 21
-0.0000000000001486
 31
0.0
210
0.0
220
0.0
230
1.0
 40
0.5773502691896258
 41
4.154790153685038
 42
5.2699878070841
  0
ELLIPSE
  5
3ECE
330
3E67
100
AcDbEntity
  8
0
100
AcDbEllipse
 10
3.945202976115189
 20
-25.54791655670802
 30
0.0
 11
-2.5
 21
-0.0000000000001486
 31
0.0
210
0.0
220
0.0
230
1.0
 40
0.5773502691896258
 41
4.154790153685038
 42
5.2699878070841
  0
ELLIPSE
  5
3ECF
330
3E67
100
AcDbEntity
  8
0
100
AcDbEllipse
 10
-3.12586483575028
 20
-45.96033107990117
 30
0.0
 11
-2.5
 21
-0.0000000000001486
 31
0.0
210
0.0
220
0.0
230
1.0
 40
0.5773502691896258
 41
4.154790153685038
 42
5.269987807084103
  0
ELLIPSE
  5
3ED0
330
3E67
100
AcDbEntity
  8
0
100
AcDbEllipse
 10
-10.19693264761576
 20
-33.71288236598528
 30
0.0
 11
-2.5
 21
-0.0000000000001486
 31
0.0
210
0.0
220
0.0
230
1.0
 40
0.5773502691896258
 41
4.154790153685038
 42
5.269987807084101
  0
ELLIPSE
  5
3ED1
330
3E67
100
AcDbEntity
  8
0
100
AcDbEllipse
 10
-17.26800045948124
 20
-54.12529688917842
 30
0.0
 11
-2.5
 21
-0.0000000000001486
 31
0.0
210
0.0
220
0.0
230
1.0
 40
0.5773502691896258
 41
4.154790153685038
 42
5.269987807084103
  0
ELLIPSE
  5
3ED2
330
3E67
100
AcDbEntity
  8
0
100
AcDbEllipse
 10
-24.33906827134673
 20
-41.87784817526253
 30
0.0
 11
-2.5
 21
-0.0000000000001486
 31
0.0
210
0.0
220
0.0
230
1.0
 40
0.5773502691896258
 41
4.154790153685038
 42
5.269987807084102
  0
ELLIPSE
  5
3ED3
330
3E67
100
AcDbEntity
  8
0
100
AcDbEllipse
 10
-31.41013608321219
 20
-62.29026269845569
 30
0.0
 11
-2.5
 21
-0.0000000000001486
 31
0.0
210
0.0
220
0.0
230
1.0
 40
0.5773502691896258
 41
4.154790153685038
 42
5.269987807084102
  0
ELLIPSE
  5
3ED4
330
3E67
100
AcDbEntity
  8
0
100
AcDbEllipse
 10
-38.48120389507768
 20
-50.04281398453979
 30
0.0
 11
-2.5
 21
-0.0000000000001486
 31
0.0
210
0.0
220
0.0
230
1.0
 40
0.5773502691896258
 41
4.154790153685038
 42
5.269987807084102
  0
ELLIPSE
  5
3ED5
330
3E67
100
AcDbEntity
  8
0
100
AcDbEllipse
 10
-45.55227170694315
 20
-70.45522850773292
 30
0.0
 11
-2.5
 21
-0.0000000000001486
 31
0.0
210
0.0
220
0.0
230
1.0
 40
0.5773502691896258
 41
4.15479015368504
 42
5.269987807084103
  0
ELLIPSE
  5
3ED6
330
3E67
100
AcDbEntity
  8
0
100
AcDbEllipse
 10
-52.62333951880863
 20
-58.20777979381706
 30
0.0
 11
-2.5
 21
-0.0000000000001486
 31
0.0
210
0.0
220
0.0
230
1.0
 40
0.5773502691896258
 41
4.15479015368504
 42
5.269987807084103
  0
ELLIPSE
  5
3ED7
330
3E67
100
AcDbEntity
  8
0
100
AcDbEllipse
 10
-3.12586483575028
 20
-10.85097810000895
 30
0.0
 11
2.5
 21
-0.0000000000001496
 31
0.0
210
0.0
220
0.0
230
1.0
 40
0.5773502691896258
 41
0.0
 42
6.283185307179586
  0
ELLIPSE
  5
3ED8
330
3E67
100
AcDbEntity
  8
0
100
AcDbEllipse
 10
-10.19693264761576
 20
1.396470613906948
 30
0.0
 11
2.5
 21
-0.0000000000001496
 31
0.0
210
0.0
220
0.0
230
1.0
 40
0.5773502691896258
 41
0.0
 42
6.283185307179586
  0
ELLIPSE
  5
3ED9
330
3E67
100
AcDbEntity
  8
0
100
AcDbEllipse
 10
-31.4101360832122
 20
5.478953518545579
 30
0.0
 11
2.5
 21
-0.0000000000001496
 31
0.0
210
0.0
220
0.0
230
1.0
 40
0.5773502691896258
 41
0.0
 42
6.283185307179586
  0
ELLIPSE
  5
3EDA
330
3E67
100
AcDbEntity
  8
0
100
AcDbEllipse
 10
-17.26800045948123
 20
-19.01594390928621
 30
0.0
 11
2.5
 21
-0.0000000000001496
 31
0.0
210
0.0
220
0.0
230
1.0
 40
0.5773502691896258
 41
0.0
 42
6.283185307179586
  0
ELLIPSE
  5
3EDB
330
3E67
100
AcDbEntity
  8
0
100
AcDbEllipse
 10
-24.33906827134671
 20
-6.768495195370311
 30
0.0
 11
2.5
 21
-0.0000000000001496
 31
0.0
210
0.0
220
0.0
230
1.0
 40
0.5773502691896258
 41
0.0
 42
6.283185307179586
  0
ELLIPSE
  5
3EDC
330
3E67
100
AcDbEntity
  8
0
100
AcDbEllipse
 10
-31.41013608321219
 20
-27.18090971856347
 30
0.0
 11
2.5
 21
-0.0000000000001496
 31
0.0
210
0.0
220
0.0
230
1.0
 40
0.5773502691896258
 41
0.0
 42
6.283185307179586
  0
ELLIPSE
  5
3EDD
330
3E67
100
AcDbEntity
  8
0
100
AcDbEllipse
 10
-38.48120389507767
 20
-14.93346100464757
 30
0.0
 11
2.5
 21
-0.0000000000001496
 31
0.0
210
0.0
220
0.0
230
1.0
 40
0.5773502691896258
 41
0.0
 42
6.283185307179586
  0
ELLIPSE
  5
3EDE
330
3E67
100
AcDbEntity
  8
0
100
AcDbEllipse
 10
-45.55227170694315
 20
-35.34587552784072
 30
0.0
 11
2.5
 21
-0.0000000000001496
 31
0.0
210
0.0
220
0.0
230
1.0
 40
0.5773502691896258
 41
0.0
 42
6.283185307179586
  0
ELLIPSE
  5
3EDF
330
3E67
100
AcDbEntity
  8
0
100
AcDbEllipse
 10
-52.62333951880863
 20
-23.09842681392483
 30
0.0
 11
2.5
 21
-0.0000000000001496
 31
0.0
210
0.0
220
0.0
230
1.0
 40
0.5773502691896258
 41
0.0
 42
6.283185307179586
  0
ELLIPSE
  5
3EE0
330
3E67
100
AcDbEntity
  8
0
100
AcDbEllipse
 10
-59.69440733067409
 20
-43.51084133711798
 30
0.0
 11
2.5
 21
-0.0000000000001496
 31
0.0
210
0.0
220
0.0
230
1.0
 40
0.5773502691896258
 41
0.0
 42
6.283185307179586
  0
ELLIPSE
  5
3EE1
330
3E67
100
AcDbEntity
  8
0
100
AcDbEllipse
 10
-66.76547514253957
 20
-31.26339262320208
 30
0.0
 11
2.5
 21
-0.0000000000001496
 31
0.0
210
0.0
220
0.0
230
1.0
 40
0.5773502691896258
 41
0.0
 42
6.283185307179586
  0
ELLIPSE
  5
3EE2
330
3E67
100
AcDbEntity
  8
0
100
AcDbEllipse
 10
-73.83654295440506
 20
-51.67580714639523
 30
0.0
 11
2.5
 21
-0.0000000000001496
 31
0.0
210
0.0
220
0.0
230
1.0
 40
0.5773502691896258
 41
0.0
 42
6.283185307179586
  0
ELLIPSE
  5
3EE3
330
3E67
100
AcDbEntity
  8
0
100
AcDbEllipse
 10
-80.90761076627053
 20
-39.42835843247934
 30
0.0
 11
2.5
 21
-0.0000000000001496
 31
0.0
210
0.0
220
0.0
230
1.0
 40
0.5773502691896258
 41
0.0
 42
6.283185307179586
  0
ELLIPSE
  5
3EE4
330
3E67
100
AcDbEntity
  8
0
100
AcDbEllipse
 10
-45.55227170694315
 20
-2.68601229073168
 30
0.0
 11
2.5
 21
-0.0000000000001496
 31
0.0
210
0.0
220
0.0
230
1.0
 40
0.5773502691896258
 41
0.0
 42
6.283185307179586
  0
ELLIPSE
  5
3EE5
330
3E67
100
AcDbEntity
  8
0
100
AcDbEllipse
 10
-59.69440733067409
 20
-10.85097810000894
 30
0.0
 11
2.5
 21
-0.0000000000001496
 31
0.0
210
0.0
220
0.0
230
1.0
 40
0.5773502691896258
 41
0.0
 42
6.283185307179586
  0
ELLIPSE
  5
3EE6
330
3E67
100
AcDbEntity
  8
0
100
AcDbEllipse
 10
-73.83654295440506
 20
-19.0159439092862
 30
0.0
 11
2.5
 21
-0.0000000000001496
 31
0.0
210
0.0
220
0.0
230
1.0
 40
0.5773502691896258
 41
0.0
 42
6.283185307179586
  0
ELLIPSE
  5
3EE7
330
3E67
100
AcDbEntity
  8
0
100
AcDbEllipse
 10
-87.97867857813599
 20
-27.18090971856346
 30
0.0
 11
2.5
 21
-0.0000000000001496
 31
0.0
210
0.0
220
0.0
230
1.0
 40
0.5773502691896258
 41
0.0
 42
6.283185307179586
  0
ELLIPSE
  5
3EE8
330
3E67
100
AcDbEntity
  8
0
100
AcDbEllipse
 10
-102.120814201867
 20
-35.34587552784071
 30
0.0
 11
2.5
 21
-0.0000000000001496
 31
0.0
210
0.0
220
0.0
230
1.0
 40
0.5773502691896258
 41
0.0
 42
6.283185307179586
  0
ELLIPSE
  5
3EE9
330
3E67
100
AcDbEntity
  8
0
100
AcDbEllipse
 10
-3.12586483575028
 20
-13.30046784279213
 30
0.0
 11
-2.5
 21
-0.000000000000149
 31
0.0
210
0.0
220
0.0
230
1.0
 40
0.5773502691896258
 41
4.154790153685038
 42
5.2699878070841
  0
ELLIPSE
  5
3EEA
330
3E67
100
AcDbEntity
  8
0
100
AcDbEllipse
 10
-10.19693264761576
 20
-1.053019128876235
 30
0.0
 11
-2.5
 21
-0.000000000000149
 31
0.0
210
0.0
220
0.0
230
1.0
 40
0.5773502691896258
 41
4.154790153685038
 42
5.269987807084101
  0
ELLIPSE
  5
3EEB
330
3E67
100
AcDbEntity
  8
0
100
AcDbEllipse
 10
-31.4101360832122
 20
3.029463775762395
 30
0.0
 11
-2.5
 21
-0.0000000000001485
 31
0.0
210
0.0
220
0.0
230
1.0
 40
0.5773502691896259
 41
4.154790153685036
 42
5.269987807084099
  0
ELLIPSE
  5
3EEC
330
3E67
100
AcDbEntity
  8
0
100
AcDbEllipse
 10
-17.26800045948123
 20
-21.46543365206939
 30
0.0
 11
-2.5
 21
-0.0000000000001486
 31
0.0
210
0.0
220
0.0
230
1.0
 40
0.5773502691896258
 41
4.154790153685038
 42
5.269987807084101
  0
ELLIPSE
  5
3EED
330
3E67
100
AcDbEntity
  8
0
100
AcDbEllipse
 10
-24.33906827134671
 20
-9.217984938153495
 30
0.0
 11
-2.5
 21
-0.0000000000001486
 31
0.0
210
0.0
220
0.0
230
1.0
 40
0.5773502691896258
 41
4.154790153685038
 42
5.269987807084101
  0
ELLIPSE
  5
3EEE
330
3E67
100
AcDbEntity
  8
0
100
AcDbEllipse
 10
-31.41013608321219
 20
-29.63039946134665
 30
0.0
 11
-2.5
 21
-0.0000000000001486
 31
0.0
210
0.0
220
0.0
230
1.0
 40
0.5773502691896258
 41
4.154790153685038
 42
5.269987807084099
  0
ELLIPSE
  5
3EEF
330
3E67
100
AcDbEntity
  8
0
100
AcDbEllipse
 10
-38.48120389507767
 20
-17.38295074743075
 30
0.0
 11
-2.5
 21
-0.0000000000001486
 31
0.0
210
0.0
220
0.0
230
1.0
 40
0.5773502691896258
 41
4.154790153685038
 42
5.269987807084099
  0
ELLIPSE
  5
3EF0
330
3E67
100
AcDbEntity
  8
0
100
AcDbEllipse
 10
-45.55227170694315
 20
-37.7953652706239
 30
0.0
 11
-2.5
 21
-0.0000000000001486
 31
0.0
210
0.0
220
0.0
230
1.0
 40
0.5773502691896258
 41
4.154790153685036
 42
5.269987807084099
  0
ELLIPSE
  5
3EF1
330
3E67
100
AcDbEntity
  8
0
100
AcDbEllipse
 10
-52.62333951880863
 20
-25.54791655670801
 30
0.0
 11
-2.5
 21
-0.0000000000001486
 31
0.0
210
0.0
220
0.0
230
1.0
 40
0.5773502691896258
 41
4.154790153685036
 42
5.269987807084099
  0
ELLIPSE
  5
3EF2
330
3E67
100
AcDbEntity
  8
0
100
AcDbEllipse
 10
-59.69440733067409
 20
-45.96033107990116
 30
0.0
 11
-2.5
 21
-0.0000000000001486
 31
0.0
210
0.0
220
0.0
230
1.0
 40
0.5773502691896258
 41
4.15479015368504
 42
5.269987807084103
  0
ELLIPSE
  5
3EF3
330
3E67
100
AcDbEntity
  8
0
100
AcDbEllipse
 10
-66.76547514253957
 20
-33.71288236598527
 30
0.0
 11
-2.5
 21
-0.0000000000001486
 31
0.0
210
0.0
220
0.0
230
1.0
 40
0.5773502691896258
 41
4.154790153685036
 42
5.269987807084099
  0
ELLIPSE
  5
3EF4
330
3E67
100
AcDbEntity
  8
0
100
AcDbEllipse
 10
-73.83654295440506
 20
-54.12529688917842
 30
0.0
 11
-2.5
 21
-0.0000000000001486
 31
0.0
210
0.0
220
0.0
230
1.0
 40
0.5773502691896258
 41
4.15479015368504
 42
5.269987807084103
  0
ELLIPSE
  5
3EF5
330
3E67
100
AcDbEntity
  8
0
100
AcDbEllipse
 10
-80.90761076627053
 20
-41.87784817526252
 30
0.0
 11
-2.5
 21
-0.0000000000001486
 31
0.0
210
0.0
220
0.0
230
1.0
 40
0.5773502691896258
 41
4.15479015368504
 42
5.269987807084097
  0
ELLIPSE
  5
3EF6
330
3E67
100
AcDbEntity
  8
0
100
AcDbEllipse
 10
-45.55227170694315
 20
-5.135502033514864
 30
0.0
 11
-2.5
 21
-0.0000000000001488
 31
0.0
210
0.0
220
0.0
230
1.0
 40
0.5773502691896258
 41
4.154790153685034
 42
5.269987807084099
  0
ELLIPSE
  5
3EF7
330
3E67
100
AcDbEntity
  8
0
100
AcDbEllipse
 10
-59.69440733067409
 20
-13.30046784279212
 30
0.0
 11
-2.5
 21
-0.0000000000001488
 31
0.0
210
0.0
220
0.0
230
1.0
 40
0.5773502691896258
 41
4.154790153685034
 42
5.269987807084099
  0
ELLIPSE
  5
3EF8
330
3E67
100
AcDbEntity
  8
0
100
AcDbEllipse
 10
-73.83654295440506
 20
-21.46543365206939
 30
0.0
 11
-2.5
 21
-0.0000000000001488
 31
0.0
210
0.0
220
0.0
230
1.0
 40
0.5773502691896258
 41
4.154790153685036
 42
5.269987807084099
  0
ELLIPSE
  5
3EF9
330
3E67
100
AcDbEntity
  8
0
100
AcDbEllipse
 10
-87.97867857813599
 20
-29.63039946134664
 30
0.0
 11
-2.5
 21
-0.0000000000001488
 31
0.0
210
0.0
220
0.0
230
1.0
 40
0.5773502691896258
 41
4.154790153685036
 42
5.269987807084095
  0
ELLIPSE
  5
3EFA
330
3E67
100
AcDbEntity
  8
0
100
AcDbEllipse
 10
-102.120814201867
 20
-37.7953652706239
 30
0.0
 11
-2.5
 21
-0.0000000000001488
 31
0.0
210
0.0
220
0.0
230
1.0
 40
0.5773502691896258
 41
4.154790153685036
 42
5.269987807084095
  0
ELLIPSE
  5
3EFB
330
3E67
100
AcDbEntity
  8
0
100
AcDbEllipse
 10
-114.4951828726315
 20
-81.68205649548916
 30
0.0
 11
1.250000000000132
 21
-2.16506350946102
 31
0.0
210
0.0
220
0.0
230
0.9999999999999998
 40
0.5773502691896252
 41
4.154790153685018
 42
5.269987807084117
  0
ELLIPSE
  5
3EFC
330
3E67
100
AcDbEntity
  8
0
100
AcDbEllipse
 10
-116.6165032161911
 20
-82.90680136688074
 30
0.0
 11
-1.250000000000002
 21
2.165063509461095
 31
0.0
210
0.0
220
0.0
230
1.0
 40
0.5773502691896248
 41
0.0
 42
6.283185307179586
  0
ELLIPSE
  5
3EFD
330
3E67
100
AcDbEntity
  8
0
100
AcDbEllipse
 10
-114.4951828726315
 20
-65.35212487693465
 30
0.0
 11
1.250000000000133
 21
-2.16506350946102
 31
0.0
210
0.0
220
0.0
230
1.0
 40
0.5773502691896253
 41
4.154790153685008
 42
5.269987807084126
  0
ELLIPSE
  5
3EFE
330
3E67
100
AcDbEntity
  8
0
100
AcDbEllipse
 10
-116.6165032161911
 20
-66.57686974832623
 30
0.0
 11
-1.250000000000002
 21
2.165063509461095
 31
0.0
210
0.0
220
0.0
230
1.0
 40
0.5773502691896248
 41
0.0
 42
6.283185307179586
  0
ELLIPSE
  5
3EFF
330
3E67
100
AcDbEntity
  8
0
100
AcDbEllipse
 10
-86.21091162516959
 20
-98.0119881140437
 30
0.0
 11
1.250000000000132
 21
-2.16506350946102
 31
0.0
210
0.0
220
0.0
230
0.9999999999999998
 40
0.5773502691896252
 41
4.154790153685013
 42
5.269987807084129
  0
ELLIPSE
  5
3F00
330
3E67
100
AcDbEntity
  8
0
100
AcDbEllipse
 10
-88.3322319687292
 20
-99.23673298543526
 30
0.0
 11
-1.250000000000002
 21
2.165063509461095
 31
0.0
210
0.0
220
0.0
230
1.0
 40
0.5773502691896248
 41
0.0
 42
6.283185307179586
  0
ELLIPSE
  5
3F01
330
3E67
100
AcDbEntity
  8
0
100
AcDbEllipse
 10
-100.3530472489005
 20
-81.68205649548916
 30
0.0
 11
1.250000000000132
 21
-2.16506350946102
 31
0.0
210
0.0
220
0.0
230
0.9999999999999998
 40
0.5773502691896253
 41
4.154790153685038
 42
5.269987807084106
  0
ELLIPSE
  5
3F02
330
3E67
100
AcDbEntity
  8
0
100
AcDbEllipse
 10
-102.4743675924602
 20
-82.90680136688076
 30
0.0
 11
-1.250000000000002
 21
2.165063509461095
 31
0.0
210
0.0
220
0.0
230
1.0
 40
0.5773502691896248
 41
0.0
 42
6.283185307179586
  0
ELLIPSE
  5
3F03
330
3E67
100
AcDbEntity
  8
0
100
AcDbEllipse
 10
-86.21091162516961
 20
-81.68205649548921
 30
0.0
 11
1.250000000000132
 21
-2.16506350946102
 31
0.0
210
0.0
220
0.0
230
0.9999999999999998
 40
0.5773502691896252
 41
4.154790153685018
 42
5.269987807084117
  0
ELLIPSE
  5
3F04
330
3E67
100
AcDbEntity
  8
0
100
AcDbEllipse
 10
-88.33223196872925
 20
-82.90680136688079
 30
0.0
 11
-1.250000000000002
 21
2.165063509461095
 31
0.0
210
0.0
220
0.0
230
1.0
 40
0.5773502691896248
 41
0.0
 42
6.283185307179586
  0
ELLIPSE
  5
3F05
330
3E67
100
AcDbEntity
  8
0
100
AcDbEllipse
 10
-72.06877600143866
 20
-98.01198811404374
 30
0.0
 11
1.250000000000132
 21
-2.16506350946102
 31
0.0
210
0.0
220
0.0
230
0.9999999999999998
 40
0.5773502691896252
 41
4.154790153685018
 42
5.269987807084117
  0
ELLIPSE
  5
3F06
330
3E67
100
AcDbEntity
  8
0
100
AcDbEllipse
 10
-74.19009634499829
 20
-99.23673298543532
 30
0.0
 11
-1.250000000000002
 21
2.165063509461095
 31
0.0
210
0.0
220
0.0
230
1.0
 40
0.5773502691896248
 41
0.0
 42
6.283185307179586
  0
ELLIPSE
  5
3F07
330
3E67
100
AcDbEntity
  8
0
100
AcDbEllipse
 10
-57.92664037770771
 20
-114.3419197325982
 30
0.0
 11
1.250000000000132
 21
-2.16506350946102
 31
0.0
210
0.0
220
0.0
230
0.9999999999999998
 40
0.5773502691896252
 41
4.154790153685018
 42
5.269987807084105
  0
ELLIPSE
  5
3F08
330
3E67
100
AcDbEntity
  8
0
100
AcDbEllipse
 10
-60.04796072126733
 20
-115.5666646039898
 30
0.0
 11
-1.250000000000002
 21
2.165063509461095
 31
0.0
210
0.0
220
0.0
230
1.0
 40
0.5773502691896248
 41
0.0
 42
6.283185307179586
  0
LINE
  5
3F09
330
3E67
100
AcDbEntity
  8
0
100
AcDbLine
 10
-52.26978612821534
 20
-87.39753256198328
 30
0.0
 11
-52.26978612821532
 21
-125.7728718655864
 31
0.0
  0
LINE
  5
3F0A
330
3E67
100
AcDbEntity
  8
0
100
AcDbLine
 10
-54.39110647177496
 20
-88.62227743337486
 30
0.0
 11
-54.39110647177495
 21
-126.997616736978
 31
0.0
  0
LINE
  5
3F0B
330
3E67
100
AcDbEntity
  8
0
100
AcDbLine
 10
-52.26978612821532
 20
-125.7728718655864
 30
0.0
 11
-54.39110647177495
 21
-126.997616736978
 31
0.0
  0
LINE
  5
3F0C
330
3E67
100
AcDbEntity
  8
0
100
AcDbLine
 10
-54.39110647177495
 20
-126.997616736978
 30
0.0
 11
-126.869551543396
 21
-85.15216696443202
 31
0.0
  0
ENDBLK
  5
3E69
330
3E67
100
AcDbEntity
  8
0
100
AcDbBlockEnd
  0
ENDSEC
  0
SECTION
  2
ENTITIES
  0
INSERT
  5
3F0D
330
1F
100
AcDbEntity
  8
0
100
AcDbBlockReference
  2
SFHS-BR-Front
 10
0.0
 20
0.0
 30
0.0
  0
INSERT
  5
3F0E
330
1F
100
AcDbEntity
  8
0
100
AcDbBlockReference
  2
SFHS-BR-Left
 10
291.4000072963828
 20
0.0
 30
0.0
  0
INSERT
  5
3F0F
330
1F
100
AcDbEntity
  8
0
100
AcDbBlockReference
  2
SFHS-BR-Right
 10
-183.4000802602098
 20
0.0
 30
0.0
  0
INSERT
  5
3F10
330
1F
100
AcDbEntity
  8
0
100
AcDbBlockReference
  2
SFHS-BR-Top
 10
0.0
 20
-233.4000072963828
 30
0.0
  0
INSERT
  5
3F11
330
1F
100
AcDbEntity
  8
0
100
AcDbBlockReference
  2
SFHS-BR-Bottom
 10
0.0
 20
258.4000072963827
 30
0.0
  0
INSERT
  5
3F12
330
1F
100
AcDbEntity
  8
0
100
AcDbBlockReference
  2
SFHS-BR-ISO
 10
298.2695588397789
 20
-239.9245789374638
 30
0.0
  0
MTEXT
  5
3F13
330
1F
100
AcDbEntity
  8
0
100
AcDbMText
 10
0.0
 20
-439.8000145927654
 30
0.0
 40
21.1333357654609
 41
0.0
 71
     5
 72
     5
  1
SFHS-BR
 73
     1
 44
1.0
1001
ACAD
1000
MTEXTBEGIN
1070
    73
1070
     1
1070
    44
1040
1.0
1070
    74
1070
     0
1000
MTEXTEND
  0
ENDSEC
  0
SECTION
  2
OBJECTS
  0
DICTIONARY
  5
C
330
0
100
AcDbDictionary
281
     1
  3
ACAD_CIP_PREVIOUS_PRODUCT_INFO
350
1A5
  3
ACAD_COLOR
350
73
  3
ACAD_DETAILVIEWSTYLE
350
1AB
  3
ACAD_GROUP
350
D
  3
ACAD_LAYOUT
350
1A
  3
ACAD_MATERIAL
350
72
  3
ACAD_MLEADERSTYLE
350
D7
  3
ACAD_MLINESTYLE
350
17
  3
ACAD_PLOTSETTINGS
350
19
  3
ACAD_PLOTSTYLENAME
350
E
  3
ACAD_SCALELIST
350
B6
  3
ACAD_SECTIONVIEWSTYLE
350
1A8
  3
ACAD_TABLESTYLE
350
86
  3
ACAD_VISUALSTYLE
350
99
  3
ACDB_RECOMPOSE_DATA
350
400B
  3
AcDbVariableDictionary
350
66
  3
DWGPROPS
350
400C
  0
DICTIONARY
  5
3F63
330
8
100
AcDbDictionary
280
     1
281
     1
  0
DICTIONARY
  5
18E
330
2
100
AcDbDictionary
280
     1
281
     1
  3
ACAD_LAYERSTATES
360
18F
  0
DICTIONARY
  5
E6
330
10
100
AcDbDictionary
280
     1
281
     1
  0
DICTIONARY
  5
15D
330
1F
100
AcDbDictionary
280
     1
281
     1
  3
ACAD_LAYOUTSELFREF
360
3F6B
  0
DICTIONARY
  5
3F17
330
58
100
AcDbDictionary
280
     1
281
     1
  3
ACAD_LAYOUTSELFREF
360
3F6D
  0
DICTIONARY
  5
3F19
330
5D
100
AcDbDictionary
280
     1
281
     1
  3
ACAD_LAYOUTSELFREF
360
3F70
  0
XRECORD
  5
1A5
102
{ACAD_REACTORS
330
C
102
}
330
C
100
AcDbXrecord
280
     1
300
ACD
300
2021
300
87393ACD_2021_0F
  0
DICTIONARY
  5
73
102
{ACAD_REACTORS
330
C
102
}
330
C
100
AcDbDictionary
281
     1
  0
DICTIONARY
  5
1AB
102
{ACAD_REACTORS
330
C
102
}
330
C
100
AcDbDictionary
281
     1
  3
Imperial24
350
1AC
  0
DICTIONARY
  5
D
102
{ACAD_REACTORS
330
C
102
}
330
C
100
AcDbDictionary
281
     1
  0
DICTIONARY
  5
1A
102
{ACAD_REACTORS
330
C
102
}
330
C
100
AcDbDictionary
281
     1
  3
Layout1
350
59
  3
Layout2
350
5E
  3
Model
350
22
  0
DICTIONARY
  5
72
102
{ACAD_REACTORS
330
C
102
}
330
C
100
AcDbDictionary
281
     1
  3
ByBlock
350
97
  3
ByLayer
350
96
  3
Global
350
98
  0
DICTIONARY
  5
D7
102
{ACAD_REACTORS
330
C
102
}
330
C
100
AcDbDictionary
281
     1
  3
Standard
350
D8
  0
DICTIONARY
  5
17
102
{ACAD_REACTORS
330
C
102
}
330
C
100
AcDbDictionary
281
     1
  3
Standard
350
18
  0
DICTIONARY
  5
19
102
{ACAD_REACTORS
330
C
102
}
330
C
100
AcDbDictionary
281
     1
  0
ACDBDICTIONARYWDFLT
  5
E
102
{ACAD_REACTORS
330
C
102
}
330
C
100
AcDbDictionary
281
     1
  3
Normal
350
F
100
AcDbDictionaryWithDefault
340
F
  0
DICTIONARY
  5
B6
102
{ACAD_REACTORS
330
C
102
}
330
C
100
AcDbDictionary
281
     1
  3
A0
350
B7
  3
A1
350
124
  3
A2
350
125
  3
A3
350
126
  3
A4
350
127
  3
A5
350
128
  3
A6
350
129
  3
A7
350
12A
  3
A8
350
12B
  3
A9
350
12C
  3
B0
350
12D
  3
B1
350
12E
  3
B2
350
12F
  3
B3
350
130
  3
B4
350
131
  3
B5
350
132
  3
B6
350
133
  3
B7
350
134
  3
B8
350
135
  3
B9
350
136
  3
C0
350
137
  3
C1
350
138
  3
C2
350
139
  3
C3
350
13A
  3
C4
350
13B
  3
C5
350
13C
  3
C6
350
13D
  3
C7
350
13E
  3
C8
350
13F
  3
C9
350
140
  3
D0
350
141
  3
D1
350
142
  3
D2
350
143
  0
DICTIONARY
  5
1A8
102
{ACAD_REACTORS
330
C
102
}
330
C
100
AcDbDictionary
281
     1
  3
Imperial24
350
1AA
  0
DICTIONARY
  5
86
102
{ACAD_REACTORS
330
C
102
}
330
C
100
AcDbDictionary
281
     1
  3
Standard
350
87
  0
DICTIONARY
  5
99
102
{ACAD_REACTORS
330
C
102
}
330
C
100
AcDbDictionary
281
     1
  3
2dWireframe
350
9F
  3
Basic
350
9E
  3
Brighten
350
A5
  3
ColorChange
350
A9
  3
Conceptual
350
A2
  3
Dim
350
A4
  3
EdgeColorOff
350
175
  3
Facepattern
350
A8
  3
Flat
350
9A
  3
FlatWithEdges
350
9B
  3
Gouraud
350
9C
  3
GouraudWithEdges
350
9D
  3
Hidden
350
A1
  3
JitterOff
350
173
  3
Linepattern
350
A7
  3
OverhangOff
350
174
  3
Realistic
350
A3
  3
Shaded
350
182
  3
Shaded with edges
350
181
  3
Shades of Gray
350
17E
  3
Sketchy
350
17F
  3
Thicken
350
A6
  3
Wireframe
350
A0
  3
X-Ray
350
180
  0
XRECORD
  5
400B
102
{ACAD_REACTORS
330
C
102
}
330
C
100
AcDbXrecord
280
     1
 90
        1
330
87
  0
DICTIONARY
  5
66
102
{ACAD_REACTORS
330
C
102
}
330
C
100
AcDbDictionary
281
     1
  3
CANNOSCALE
350
F0
  3
CMLEADERSTYLE
350
EF
  3
CTABLESTYLE
350
89
  3
CVIEWDETAILSTYLE
350
1B7
  3
CVIEWSECTIONSTYLE
350
1B8
  3
DIMASSOC
350
67
  3
HIDETEXT
350
6B
  3
INDEXCTL
350
3FBE
  3
LAYEREVAL
350
14D
  3
LAYERNOTIFY
350
14E
  3
LIGHTINGUNITS
350
3FBC
  3
MSLTSCALE
350
3FBB
  3
SORTENTS
350
3FBD
  3
XCLIPFRAME
350
4009
  0
XRECORD
  5
400C
102
{ACAD_REACTORS
330
C
102
}
330
C
100
AcDbXrecord
280
     1
  1
DWGPROPS COOKIE
  2

  3

  4

  6

  7

  8
truole
  9

300
=
301
=
302
=
303
=
304
=
305
=
306
=
307
=
308
=
309
=
 40
0.0013888888888889
 41
2460802.673344907
 42
2460802.680856482
  1

 90
        0
  0
DICTIONARY
  5
18F
102
{ACAD_REACTORS
330
18E
102
}
330
18E
100
AcDbDictionary
281
     1
  0
XRECORD
  5
3F6B
102
{ACAD_REACTORS
330
15D
102
}
330
15D
100
AcDbXrecord
280
     1
340
1F
  0
XRECORD
  5
3F6D
102
{ACAD_REACTORS
330
3F17
102
}
330
3F17
100
AcDbXrecord
280
     1
340
58
  0
XRECORD
  5
3F70
102
{ACAD_REACTORS
330
3F19
102
}
330
3F19
100
AcDbXrecord
280
     1
340
5D
  0
ACDBDETAILVIEWSTYLE
  5
1AC
102
{ACAD_XDICTIONARY
360
404B
102
}
102
{ACAD_REACTORS
330
1AB
102
}
330
1AB
100
AcDbModelDocViewStyle
 70
     0
  3
Imperial24
290
     0
100
AcDbDetailViewStyle
 70
     0
 71
     0
 90
        3
 71
     1
340
11
 40
0.24
340
0
 40
0.24
300

 40
0.36
280
     3
 71
     2
340
16
 90
       25
 71
     3
340
11
 40
0.24
 90
        1
 40
0.75
 90
        1
300
%<\AcVar ViewType \f "%tc1">% %<\AcVar ViewDetailId>%\PSCALE %<\AcVar ViewScale \f "%sn">%
 71
     4
340
16
 90
       25
340
16
 90
       25
280
     0
  0
LAYOUT
  5
59
102
{ACAD_XDICTIONARY
360
400F
102
}
102
{ACAD_REACTORS
330
1A
102
}
330
1A
100
AcDbPlotSettings
  1

  2
None
  4

  6

 40
0.0
 41
0.0
 42
0.0
 43
0.0
 44
0.0
 45
0.0
 46
0.0
 47
0.0
 48
0.0
 49
0.0
140
0.0
141
0.0
142
1.0
143
1.0
 70
   688
 72
     0
 73
     0
 74
     5
  7

 75
    16
147
1.0
148
0.0
149
0.0
100
AcDbLayout
  1
Layout1
 70
     1
 71
     1
 10
0.0
 20
0.0
 11
12.0
 21
9.0
 12
0.0
 22
0.0
 32
0.0
 14
0.0
 24
0.0
 34
0.0
 15
0.0
 25
0.0
 35
0.0
146
0.0
 13
0.0
 23
0.0
 33
0.0
 16
1.0
 26
0.0
 36
0.0
 17
0.0
 27
1.0
 37
0.0
 76
     0
330
58
  0
LAYOUT
  5
5E
102
{ACAD_XDICTIONARY
360
4011
102
}
102
{ACAD_REACTORS
330
1A
102
}
330
1A
100
AcDbPlotSettings
  1

  2
None
  4

  6

 40
0.0
 41
0.0
 42
0.0
 43
0.0
 44
0.0
 45
0.0
 46
0.0
 47
0.0
 48
0.0
 49
0.0
140
0.0
141
0.0
142
1.0
143
1.0
 70
   688
 72
     0
 73
     0
 74
     5
  7

 75
    16
147
1.0
148
0.0
149
0.0
100
AcDbLayout
  1
Layout2
 70
     1
 71
     2
 10
0.0
 20
0.0
 11
12.0
 21
9.0
 12
0.0
 22
0.0
 32
0.0
 14
0.0
 24
0.0
 34
0.0
 15
0.0
 25
0.0
 35
0.0
146
0.0
 13
0.0
 23
0.0
 33
0.0
 16
1.0
 26
0.0
 36
0.0
 17
0.0
 27
1.0
 37
0.0
 76
     0
330
5D
  0
LAYOUT
  5
22
102
{ACAD_XDICTIONARY
360
400D
102
}
102
{ACAD_REACTORS
330
1A
102
}
330
1A
100
AcDbPlotSettings
  1

  2
none_device
  4
ANSI_A_(8.50_x_11.00_Inches)
  6

 40
6.349999904632568
 41
19.04999923706055
 42
6.350006103515625
 43
19.04998779296875
 44
215.8999938964844
 45
279.3999938964844
 46
0.0
 47
0.0
 48
0.0
 49
0.0
140
0.0
141
0.0
142
1.0
143
2.584895464708373
 70
 11952
 72
     0
 73
     1
 74
     0
  7

 75
     0
147
0.3868628397755418
148
0.0
149
0.0
100
AcDbLayout
  1
Model
 70
     1
 71
     0
 10
0.0
 20
0.0
 11
12.0
 21
9.0
 12
0.0
 22
0.0
 32
0.0
 14
0.0
 24
0.0
 34
0.0
 15
0.0
 25
0.0
 35
0.0
146
0.0
 13
0.0
 23
0.0
 33
0.0
 16
1.0
 26
0.0
 36
0.0
 17
0.0
 27
1.0
 37
0.0
 76
     0
330
1F
331
94
  0
MATERIAL
  5
97
102
{ACAD_XDICTIONARY
360
188
102
}
102
{ACAD_REACTORS
330
72
102
}
330
72
100
AcDbMaterial
  1
ByBlock
  0
MATERIAL
  5
96
102
{ACAD_XDICTIONARY
360
186
102
}
102
{ACAD_REACTORS
330
72
102
}
330
72
100
AcDbMaterial
  1
ByLayer
  0
MATERIAL
  5
98
102
{ACAD_XDICTIONARY
360
110
102
}
102
{ACAD_REACTORS
330
72
102
}
330
72
100
AcDbMaterial
  1
Global
 43
0.0208000000566244
 43
0.0
 43
0.0
 43
0.0
 43
0.0
 43
0.0208000000566244
 43
0.0
 43
0.0
 43
0.0
 43
0.0
 43
1.0
 43
0.0
 43
0.0
 43
0.0
 43
0.0
 43
1.0
 49
0.0208000000566244
 49
0.0
 49
0.0
 49
0.0
 49
0.0
 49
0.0208000000566244
 49
0.0
 49
0.0
 49
0.0
 49
0.0
 49
1.0
 49
0.0
 49
0.0
 49
0.0
 49
0.0
 49
1.0
142
0.0208000000566244
142
0.0
142
0.0
142
0.0
142
0.0
142
0.0208000000566244
142
0.0
142
0.0
142
0.0
142
0.0
142
1.0
142
0.0
142
0.0
142
0.0
142
0.0
142
1.0
144
0.0208000000566244
144
0.0
144
0.0
144
0.0
144
0.0
144
0.0208000000566244
144
0.0
144
0.0
144
0.0
144
0.0
144
1.0
144
0.0
144
0.0
144
0.0
144
0.0
144
1.0
1001
ACAD
1070
    -1
1070
     3
1070
     0
1000

1071
        0
1070
     0
  0
MLEADERSTYLE
  5
D8
102
{ACAD_XDICTIONARY
360
4037
102
}
102
{ACAD_REACTORS
330
D7
102
}
330
D7
100
AcDbMLeaderStyle
170
     2
171
     1
172
     0
 90
        2
 40
0.0
 41
0.0
173
     1
 91
-1056964608
340
14
 92
       -2
290
     1
 42
0.09
291
     1
 43
0.36
  3
Standard
 44
0.18
300

342
11
174
     1
178
     1
175
     1
176
     0
 93
-1056964608
 45
0.18
292
     0
297
     0
 46
0.18
 94
-1056964608
 47
1.0
 49
1.0
140
1.0
293
     1
141
0.0
294
     1
177
     0
142
1.0
295
     0
296
     0
143
0.125
1001
ACAD_MLEADERVER
1070
     2
  0
MLINESTYLE
  5
18
102
{ACAD_REACTORS
330
17
102
}
330
17
100
AcDbMlineStyle
  2
STANDARD
 70
     0
  3

 62
   256
 51
90.0
 52
90.0
 71
     2
 49
0.5
 62
   256
  6
BYLAYER
 49
-0.5
 62
   256
  6
BYLAYER
  0
ACDBPLACEHOLDER
  5
F
102
{ACAD_REACTORS
330
E
102
}
330
E
  0
SCALE
  5
B7
102
{ACAD_REACTORS
330
B6
102
}
330
B6
100
AcDbScale
 70
     0
300
1:1
140
1.0
141
1.0
290
     1
  0
SCALE
  5
124
102
{ACAD_REACTORS
330
B6
102
}
330
B6
100
AcDbScale
 70
     0
300
1:2
140
1.0
141
2.0
290
     0
  0
SCALE
  5
125
102
{ACAD_REACTORS
330
B6
102
}
330
B6
100
AcDbScale
 70
     0
300
1:4
140
1.0
141
4.0
290
     0
  0
SCALE
  5
126
102
{ACAD_REACTORS
330
B6
102
}
330
B6
100
AcDbScale
 70
     0
300
1:5
140
1.0
141
5.0
290
     0
  0
SCALE
  5
127
102
{ACAD_REACTORS
330
B6
102
}
330
B6
100
AcDbScale
 70
     0
300
1:8
140
1.0
141
8.0
290
     0
  0
SCALE
  5
128
102
{ACAD_REACTORS
330
B6
102
}
330
B6
100
AcDbScale
 70
     0
300
1:10
140
1.0
141
10.0
290
     0
  0
SCALE
  5
129
102
{ACAD_REACTORS
330
B6
102
}
330
B6
100
AcDbScale
 70
     0
300
1:16
140
1.0
141
16.0
290
     0
  0
SCALE
  5
12A
102
{ACAD_REACTORS
330
B6
102
}
330
B6
100
AcDbScale
 70
     0
300
1:20
140
1.0
141
20.0
290
     0
  0
SCALE
  5
12B
102
{ACAD_REACTORS
330
B6
102
}
330
B6
100
AcDbScale
 70
     0
300
1:30
140
1.0
141
30.0
290
     0
  0
SCALE
  5
12C
102
{ACAD_REACTORS
330
B6
102
}
330
B6
100
AcDbScale
 70
     0
300
1:40
140
1.0
141
40.0
290
     0
  0
SCALE
  5
12D
102
{ACAD_REACTORS
330
B6
102
}
330
B6
100
AcDbScale
 70
     0
300
1:50
140
1.0
141
50.0
290
     0
  0
SCALE
  5
12E
102
{ACAD_REACTORS
330
B6
102
}
330
B6
100
AcDbScale
 70
     0
300
1:100
140
1.0
141
100.0
290
     0
  0
SCALE
  5
12F
102
{ACAD_REACTORS
330
B6
102
}
330
B6
100
AcDbScale
 70
     0
300
2:1
140
2.0
141
1.0
290
     0
  0
SCALE
  5
130
102
{ACAD_REACTORS
330
B6
102
}
330
B6
100
AcDbScale
 70
     0
300
4:1
140
4.0
141
1.0
290
     0
  0
SCALE
  5
131
102
{ACAD_REACTORS
330
B6
102
}
330
B6
100
AcDbScale
 70
     0
300
8:1
140
8.0
141
1.0
290
     0
  0
SCALE
  5
132
102
{ACAD_REACTORS
330
B6
102
}
330
B6
100
AcDbScale
 70
     0
300
10:1
140
10.0
141
1.0
290
     0
  0
SCALE
  5
133
102
{ACAD_REACTORS
330
B6
102
}
330
B6
100
AcDbScale
 70
     0
300
100:1
140
100.0
141
1.0
290
     0
  0
SCALE
  5
134
102
{ACAD_REACTORS
330
B6
102
}
330
B6
100
AcDbScale
 70
     0
300
1/128" = 1'-0"
140
0.0078125
141
12.0
290
     0
  0
SCALE
  5
135
102
{ACAD_REACTORS
330
B6
102
}
330
B6
100
AcDbScale
 70
     0
300
1/64" = 1'-0"
140
0.015625
141
12.0
290
     0
  0
SCALE
  5
136
102
{ACAD_REACTORS
330
B6
102
}
330
B6
100
AcDbScale
 70
     0
300
1/32" = 1'-0"
140
0.03125
141
12.0
290
     0
  0
SCALE
  5
137
102
{ACAD_REACTORS
330
B6
102
}
330
B6
100
AcDbScale
 70
     0
300
1/16" = 1'-0"
140
0.0625
141
12.0
290
     0
  0
SCALE
  5
138
102
{ACAD_REACTORS
330
B6
102
}
330
B6
100
AcDbScale
 70
     0
300
3/32" = 1'-0"
140
0.09375
141
12.0
290
     0
  0
SCALE
  5
139
102
{ACAD_REACTORS
330
B6
102
}
330
B6
100
AcDbScale
 70
     0
300
1/8" = 1'-0"
140
0.125
141
12.0
290
     0
  0
SCALE
  5
13A
102
{ACAD_REACTORS
330
B6
102
}
330
B6
100
AcDbScale
 70
     0
300
3/16" = 1'-0"
140
0.1875
141
12.0
290
     0
  0
SCALE
  5
13B
102
{ACAD_REACTORS
330
B6
102
}
330
B6
100
AcDbScale
 70
     0
300
1/4" = 1'-0"
140
0.25
141
12.0
290
     0
  0
SCALE
  5
13C
102
{ACAD_REACTORS
330
B6
102
}
330
B6
100
AcDbScale
 70
     0
300
3/8" = 1'-0"
140
0.375
141
12.0
290
     0
  0
SCALE
  5
13D
102
{ACAD_REACTORS
330
B6
102
}
330
B6
100
AcDbScale
 70
     0
300
1/2" = 1'-0"
140
0.5
141
12.0
290
     0
  0
SCALE
  5
13E
102
{ACAD_REACTORS
330
B6
102
}
330
B6
100
AcDbScale
 70
     0
300
3/4" = 1'-0"
140
0.75
141
12.0
290
     0
  0
SCALE
  5
13F
102
{ACAD_REACTORS
330
B6
102
}
330
B6
100
AcDbScale
 70
     0
300
1" = 1'-0"
140
1.0
141
12.0
290
     0
  0
SCALE
  5
140
102
{ACAD_REACTORS
330
B6
102
}
330
B6
100
AcDbScale
 70
     0
300
1-1/2" = 1'-0"
140
1.5
141
12.0
290
     0
  0
SCALE
  5
141
102
{ACAD_REACTORS
330
B6
102
}
330
B6
100
AcDbScale
 70
     0
300
3" = 1'-0"
140
3.0
141
12.0
290
     0
  0
SCALE
  5
142
102
{ACAD_REACTORS
330
B6
102
}
330
B6
100
AcDbScale
 70
     0
300
6" = 1'-0"
140
6.0
141
12.0
290
     0
  0
SCALE
  5
143
102
{ACAD_REACTORS
330
B6
102
}
330
B6
100
AcDbScale
 70
     0
300
1'-0" = 1'-0"
140
12.0
141
12.0
290
     0
  0
ACDBSECTIONVIEWSTYLE
  5
1AA
102
{ACAD_XDICTIONARY
360
4049
102
}
102
{ACAD_REACTORS
330
1A8
102
}
330
1A8
100
AcDbModelDocViewStyle
 70
     0
  3
Imperial24
290
     0
100
AcDbSectionViewStyle
 70
     0
 71
     0
 90
       78
 71
     1
340
11
 40
0.24
340
0
340
0
 40
0.24
300
I, O, Q, S, X, Z
 40
0.48
 90
        3
 40
0.18
 90
        1
 71
     2
340
16
 90
       25
340
16
 90
       50
 40
0.24
 40
0.0
 40
0.24
 71
     3
340
11
 40
0.24
 90
        1
 40
0.75
 90
        1
300
%<\AcVar ViewType \f "%tc1">% %<\AcVar ViewSectionStartId>%-%<\AcVar ViewSectionEndId>%\PSCALE %<\AcVar ViewScale \f "%sn">%
 71
     4
300
ANSI31
 40
1.0
 90
        0
290
     0
290
     0
 90
        6
 40
0.0
 40
1.570796326794896
 40
0.2617993877991494
 40
1.308996938995747
 40
-0.2617993877991494
 40
1.832595714594046
  0
TABLESTYLE
  5
87
102
{ACAD_XDICTIONARY
360
104
102
}
102
{ACAD_REACTORS
330
86
102
}
330
86
100
AcDbTableStyle
  3
Standard
 70
     0
 71
     0
 40
0.06
 41
0.06
280
     0
281
     0
  7
Standard
140
0.18
170
     2
 62
     0
 63
     7
283
     0
274
    -2
284
     1
 64
     0
275
    -2
285
     1
 65
     0
276
    -2
286
     1
 66
     0
277
    -2
287
     1
 67
     0
278
    -2
288
     1
 68
     0
279
    -2
289
     1
 69
     0
  7
Standard
140
0.25
170
     5
 62
     0
 63
     7
283
     0
274
    -2
284
     1
 64
     0
275
    -2
285
     1
 65
     0
276
    -2
286
     1
 66
     0
277
    -2
287
     1
 67
     0
278
    -2
288
     1
 68
     0
279
    -2
289
     1
 69
     0
  7
Standard
140
0.18
170
     5
 62
     0
 63
     7
283
     0
274
    -2
284
     1
 64
     0
275
    -2
285
     1
 65
     0
276
    -2
286
     1
 66
     0
277
    -2
287
     1
 67
     0
278
    -2
288
     1
 68
     0
279
    -2
289
     1
 69
     0
  0
VISUALSTYLE
  5
9F
102
{ACAD_XDICTIONARY
360
4021
102
}
102
{ACAD_REACTORS
330
99
102
}
330
99
100
AcDbVisualStyle
  2
2dWireframe
 70
     4
 71
     0
 72
     2
 73
     1
 90
        0
 40
-0.6
 41
-30.0
 62
     5
 63
     7
 74
     1
 91
        4
 64
     7
 65
   257
 75
     1
175
     1
 42
1.0
 92
        0
 66
   257
 43
1.0
 76
     1
 77
     6
 78
     2
 67
     7
 79
     5
170
     0
171
     0
290
     0
174
     0
 93
        1
 44
0.0
173
     0
291
     0
 45
0.0
1001
ACAD
1000
AcDbSavedByObjectVersion
1070
     0
  0
VISUALSTYLE
  5
9E
102
{ACAD_XDICTIONARY
360
401F
102
}
102
{ACAD_REACTORS
330
99
102
}
330
99
100
AcDbVisualStyle
  2
Basic
 70
     7
 71
     1
 72
     0
 73
     1
 90
        0
 40
-0.6
 41
-30.0
 62
     5
 63
     7
 74
     0
 91
        4
 64
     7
 65
   257
 75
     1
175
     1
 42
1.0
 92
        8
 66
     7
 43
1.0
 76
     1
 77
     6
 78
     2
 67
     7
 79
     5
170
     0
171
     0
290
     0
174
     0
 93
        1
 44
0.0
173
     0
291
     1
 45
0.0
1001
ACAD
1000
AcDbSavedByObjectVersion
1070
     0
  0
VISUALSTYLE
  5
A5
102
{ACAD_XDICTIONARY
360
402D
102
}
102
{ACAD_REACTORS
330
99
102
}
330
99
100
AcDbVisualStyle
  2
Brighten
 70
    12
 71
     2
 72
     2
 73
     1
 90
        0
 40
-0.6
 41
-30.0
 62
     5
 63
     7
 74
     1
 91
        4
 64
     7
 65
   257
 75
     1
175
     1
 42
1.0
 92
        8
 66
     7
 43
1.0
 76
     1
 77
     6
 78
     2
 67
     7
 79
     5
170
     0
171
     0
290
     0
174
     0
 93
        1
 44
50.0
173
     0
291
     1
 45
0.0
1001
ACAD
1000
AcDbSavedByObjectVersion
1070
     0
  0
VISUALSTYLE
  5
A9
102
{ACAD_XDICTIONARY
360
4035
102
}
102
{ACAD_REACTORS
330
99
102
}
330
99
100
AcDbVisualStyle
  2
ColorChange
 70
    16
 71
     2
 72
     2
 73
     3
 90
        0
 40
-0.6
 41
-30.0
 62
     5
 63
     8
 74
     1
 91
        4
 64
     7
 65
   257
 75
     1
175
     1
 42
1.0
 92
        8
 66
     8
 43
1.0
 76
     1
 77
     6
 78
     2
 67
     7
 79
     5
170
     0
171
     0
290
     0
174
     0
 93
        1
 44
0.0
173
     0
291
     1
 45
0.0
1001
ACAD
1000
AcDbSavedByObjectVersion
1070
     0
  0
VISUALSTYLE
  5
A2
102
{ACAD_XDICTIONARY
360
4027
102
}
102
{ACAD_REACTORS
330
99
102
}
330
99
100
AcDbVisualStyle
  2
Conceptual
 70
     9
 71
     3
 72
     2
 73
     1
 90
        0
 40
-0.6
 41
-30.0
 62
     5
 63
     7
 74
     2
 91
        2
 64
     7
 65
   257
 75
     1
175
     1
 42
40.0
 92
        8
 66
     7
 43
1.0
 76
     1
 77
     6
 78
     2
 67
     7
 79
     3
170
     0
171
     0
290
     0
174
     0
 93
        1
 44
0.0
173
     0
291
     0
 45
0.0
1001
ACAD
1000
AcDbSavedByObjectVersion
1070
     0
  0
VISUALSTYLE
  5
A4
102
{ACAD_XDICTIONARY
360
402B
102
}
102
{ACAD_REACTORS
330
99
102
}
330
99
100
AcDbVisualStyle
  2
Dim
 70
    11
 71
     2
 72
     2
 73
     1
 90
        0
 40
-0.6
 41
-30.0
 62
     5
 63
     7
 74
     1
 91
        4
 64
     7
 65
   257
 75
     1
175
     1
 42
1.0
 92
        8
 66
     7
 43
1.0
 76
     1
 77
     6
 78
     2
 67
     7
 79
     5
170
     0
171
     0
290
     0
174
     0
 93
        1
 44
-50.0
173
     0
291
     1
 45
0.0
1001
ACAD
1000
AcDbSavedByObjectVersion
1070
     0
  0
VISUALSTYLE
  5
175
102
{ACAD_XDICTIONARY
360
403D
102
}
102
{ACAD_REACTORS
330
99
102
}
330
99
100
AcDbVisualStyle
  2
EdgeColorOff
 70
    22
 71
     2
 72
     2
 73
     0
 90
        0
 40
-0.6
 41
-30.0
 62
     5
 63
     7
 74
     1
 91
        4
 64
     7
 65
   257
 75
     1
175
     1
 42
1.0
 92
        8
 66
     7
 43
1.0
 76
     1
 77
     6
 78
     2
 67
     7
 79
     5
170
     0
171
     0
290
     0
174
     0
 93
        1
 44
0.0
173
     0
291
     1
 45
0.0
1001
ACAD
1000
AcDbSavedByObjectVersion
1070
     0
  0
VISUALSTYLE
  5
A8
102
{ACAD_XDICTIONARY
360
4033
102
}
102
{ACAD_REACTORS
330
99
102
}
330
99
100
AcDbVisualStyle
  2
Facepattern
 70
    15
 71
     2
 72
     2
 73
     1
 90
        0
 40
-0.6
 41
-30.0
 62
     5
 63
     7
 74
     1
 91
        4
 64
     7
 65
   257
 75
     1
175
     1
 42
1.0
 92
        8
 66
     7
 43
1.0
 76
     1
 77
     6
 78
     2
 67
     7
 79
     5
170
     0
171
     0
290
     0
174
     0
 93
        1
 44
0.0
173
     0
291
     1
 45
0.0
1001
ACAD
1000
AcDbSavedByObjectVersion
1070
     0
  0
VISUALSTYLE
  5
9A
102
{ACAD_XDICTIONARY
360
4017
102
}
102
{ACAD_REACTORS
330
99
102
}
330
99
100
AcDbVisualStyle
  2
Flat
 70
     0
 71
     2
 72
     1
 73
     1
 90
        2
 40
-0.6
 41
30.0
 62
     5
 63
     7
 74
     0
 91
        0
 64
     7
 65
   257
 75
     1
175
     1
 42
1.0
 92
        8
 66
     7
 43
1.0
 76
     1
 77
     6
 78
     2
 67
     7
 79
     5
170
     0
171
     0
290
     0
174
     0
 93
       13
 44
0.0
173
     0
291
     1
 45
0.0
1001
ACAD
1000
AcDbSavedByObjectVersion
1070
     0
  0
VISUALSTYLE
  5
9B
102
{ACAD_XDICTIONARY
360
4019
102
}
102
{ACAD_REACTORS
330
99
102
}
330
99
100
AcDbVisualStyle
  2
FlatWithEdges
 70
     1
 71
     2
 72
     1
 73
     1
 90
        2
 40
-0.6
 41
30.0
 62
     5
 63
     7
 74
     1
 91
        0
 64
     7
 65
   257
 75
     1
175
     1
 42
1.0
 92
        0
 66
   257
 43
1.0
 76
     1
 77
     6
 78
     2
 67
     7
 79
     5
170
     0
171
     0
290
     0
174
     0
 93
       13
 44
0.0
173
     0
291
     1
 45
0.0
1001
ACAD
1000
AcDbSavedByObjectVersion
1070
     0
  0
VISUALSTYLE
  5
9C
102
{ACAD_XDICTIONARY
360
401B
102
}
102
{ACAD_REACTORS
330
99
102
}
330
99
100
AcDbVisualStyle
  2
Gouraud
 70
     2
 71
     2
 72
     2
 73
     1
 90
        2
 40
-0.6
 41
30.0
 62
     5
 63
     7
 74
     0
 91
        0
 64
     7
 65
   257
 75
     1
175
     1
 42
1.0
 92
        0
 66
     7
 43
1.0
 76
     1
 77
     6
 78
     2
 67
     7
 79
     5
170
     0
171
     0
290
     0
174
     0
 93
       13
 44
0.0
173
     0
291
     1
 45
0.0
1001
ACAD
1000
AcDbSavedByObjectVersion
1070
     0
  0
VISUALSTYLE
  5
9D
102
{ACAD_XDICTIONARY
360
401D
102
}
102
{ACAD_REACTORS
330
99
102
}
330
99
100
AcDbVisualStyle
  2
GouraudWithEdges
 70
     3
 71
     2
 72
     2
 73
     1
 90
        2
 40
-0.6
 41
30.0
 62
     5
 63
     7
 74
     1
 91
        0
 64
     7
 65
   257
 75
     1
175
     1
 42
1.0
 92
        0
 66
   257
 43
1.0
 76
     1
 77
     6
 78
     2
 67
     7
 79
     5
170
     0
171
     0
290
     0
174
     0
 93
       13
 44
0.0
173
     0
291
     1
 45
0.0
1001
ACAD
1000
AcDbSavedByObjectVersion
1070
     0
  0
VISUALSTYLE
  5
A1
102
{ACAD_XDICTIONARY
360
4025
102
}
102
{ACAD_REACTORS
330
99
102
}
330
99
100
AcDbVisualStyle
  2
Hidden
 70
     6
 71
     1
 72
     2
 73
     2
 90
        0
 40
-0.6
 41
-30.0
 62
     5
 63
     7
 74
     2
 91
        2
 64
     7
 65
   257
 75
     2
175
     1
 42
40.0
 92
        0
 66
   257
 43
1.0
 76
     1
 77
     6
 78
     2
 67
     7
 79
     3
170
     0
171
     0
290
     0
174
     0
 93
        1
 44
0.0
173
     0
291
     0
 45
0.0
1001
ACAD
1000
AcDbSavedByObjectVersion
1070
     0
  0
VISUALSTYLE
  5
173
102
{ACAD_XDICTIONARY
360
4039
102
}
102
{ACAD_REACTORS
330
99
102
}
330
99
100
AcDbVisualStyle
  2
JitterOff
 70
    20
 71
     2
 72
     2
 73
     0
 90
        0
 40
-0.6
 41
-30.0
 62
     5
 63
     7
 74
     1
 91
        4
 64
     7
 65
   257
 75
     1
175
     1
 42
1.0
 92
       10
 66
     7
 43
1.0
 76
     1
 77
     6
 78
     2
 67
     7
 79
     5
170
     0
171
     0
290
     0
174
     0
 93
        1
 44
0.0
173
     0
291
     1
 45
0.0
1001
ACAD
1000
AcDbSavedByObjectVersion
1070
     0
  0
VISUALSTYLE
  5
A7
102
{ACAD_XDICTIONARY
360
4031
102
}
102
{ACAD_REACTORS
330
99
102
}
330
99
100
AcDbVisualStyle
  2
Linepattern
 70
    14
 71
     2
 72
     2
 73
     1
 90
        0
 40
-0.6
 41
-30.0
 62
     5
 63
     7
 74
     1
 91
        4
 64
     7
 65
   257
 75
     7
175
     7
 42
1.0
 92
        8
 66
     7
 43
1.0
 76
     1
 77
     6
 78
     2
 67
     7
 79
     5
170
     0
171
     0
290
     0
174
     0
 93
        1
 44
0.0
173
     0
291
     1
 45
0.0
1001
ACAD
1000
AcDbSavedByObjectVersion
1070
     0
  0
VISUALSTYLE
  5
174
102
{ACAD_XDICTIONARY
360
403B
102
}
102
{ACAD_REACTORS
330
99
102
}
330
99
100
AcDbVisualStyle
  2
OverhangOff
 70
    21
 71
     2
 72
     2
 73
     0
 90
        0
 40
-0.6
 41
-30.0
 62
     5
 63
     7
 74
     1
 91
        4
 64
     7
 65
   257
 75
     1
175
     1
 42
1.0
 92
        9
 66
     7
 43
1.0
 76
     1
 77
     6
 78
     2
 67
     7
 79
     5
170
     0
171
     0
290
     0
174
     0
 93
        1
 44
0.0
173
     0
291
     1
 45
0.0
1001
ACAD
1000
AcDbSavedByObjectVersion
1070
     0
  0
VISUALSTYLE
  5
A3
102
{ACAD_XDICTIONARY
360
4029
102
}
102
{ACAD_REACTORS
330
99
102
}
330
99
100
AcDbVisualStyle
  2
Realistic
 70
     8
 71
     2
 72
     2
 73
     0
 90
        2
 40
-0.6
 41
30.0
 62
     5
 63
     7
 74
     0
 91
        0
 64
     7
 65
   257
 75
     1
175
     1
 42
1.0
 92
        8
 66
   257
 43
1.0
 76
     1
 77
     6
 78
     2
 67
     7
 79
     3
170
     0
171
     0
290
     0
174
     0
 93
       13
 44
0.0
173
     0
291
     0
 45
0.0
1001
ACAD
1000
AcDbSavedByObjectVersion
1070
     0
  0
VISUALSTYLE
  5
182
102
{ACAD_XDICTIONARY
360
4047
102
}
102
{ACAD_REACTORS
330
99
102
}
330
99
100
AcDbVisualStyle
  2
Shaded
 70
    27
 71
     2
 72
     2
 73
     1
 90
        2
 40
-0.6
 41
30.0
 62
     5
 63
     7
 74
     0
 91
        4
 64
     7
 65
   257
 75
     1
175
     1
 42
1.0
 92
        8
 66
   257
 43
1.0
 76
     1
 77
     6
 78
     2
 67
     8
 79
     3
170
     0
171
     0
290
     0
174
     0
 93
        5
 44
0.0
173
     0
291
     0
 45
0.0
1001
ACAD
1000
AcDbSavedByObjectVersion
1070
     0
  0
VISUALSTYLE
  5
181
102
{ACAD_XDICTIONARY
360
4045
102
}
102
{ACAD_REACTORS
330
99
102
}
330
99
100
AcDbVisualStyle
  2
Shaded with edges
 70
    26
 71
     2
 72
     2
 73
     1
 90
        2
 40
-0.6
 41
30.0
 62
     5
 63
     7
 74
     1
 91
        2
 64
     7
 65
   257
 75
     2
175
     1
 42
1.0
 92
        8
 66
   257
 43
1.0
 76
     1
 77
     6
 78
     2
 67
     7
 79
     3
170
     0
171
     0
290
     0
174
     0
 93
        5
 44
0.0
173
     0
291
     0
 45
0.0
1001
ACAD
1000
AcDbSavedByObjectVersion
1070
     0
  0
VISUALSTYLE
  5
17E
102
{ACAD_XDICTIONARY
360
403F
102
}
102
{ACAD_REACTORS
330
99
102
}
330
99
100
AcDbVisualStyle
  2
Shades of Gray
 70
    23
 71
     2
 72
     2
 73
     3
 90
        0
 40
-0.6
 41
-30.0
 62
     5
 63
     7
 74
     2
 91
        2
 64
     7
 65
     7
 75
     1
175
     1
 42
40.0
 92
        8
 66
     7
 43
1.0
 76
     1
 77
     6
 78
     2
 67
     7
 79
     3
170
     0
171
     0
290
     0
174
     0
 93
        1
 44
0.0
173
     0
291
     0
 45
0.0
1001
ACAD
1000
AcDbSavedByObjectVersion
1070
     0
  0
VISUALSTYLE
  5
17F
102
{ACAD_XDICTIONARY
360
4041
102
}
102
{ACAD_REACTORS
330
99
102
}
330
99
100
AcDbVisualStyle
  2
Sketchy
 70
    24
 71
     1
 72
     2
 73
     2
 90
        0
 40
-0.6
 41
-30.0
 62
     5
 63
     7
 74
     2
 91
        2
 64
     7
 65
     7
 75
     1
175
     1
 42
40.0
 92
       11
 66
     7
 43
1.0
 76
     1
 77
     6
 78
     2
 67
     7
 79
     6
170
     0
171
     0
290
     0
174
     0
 93
        1
 44
0.0
173
     0
291
     0
 45
0.0
1001
ACAD
1000
AcDbSavedByObjectVersion
1070
     0
  0
VISUALSTYLE
  5
A6
102
{ACAD_XDICTIONARY
360
402F
102
}
102
{ACAD_REACTORS
330
99
102
}
330
99
100
AcDbVisualStyle
  2
Thicken
 70
    13
 71
     2
 72
     2
 73
     1
 90
        0
 40
-0.6
 41
-30.0
 62
     5
 63
     7
 74
     1
 91
        4
 64
     7
 65
   257
 75
     1
175
     1
 42
1.0
 92
       12
 66
     7
 43
1.0
 76
     1
 77
     6
 78
     2
 67
     7
 79
     5
170
     0
171
     0
290
     0
174
     0
 93
        1
 44
0.0
173
     0
291
     1
 45
0.0
1001
ACAD
1000
AcDbSavedByObjectVersion
1070
     0
  0
VISUALSTYLE
  5
A0
102
{ACAD_XDICTIONARY
360
4023
102
}
102
{ACAD_REACTORS
330
99
102
}
330
99
100
AcDbVisualStyle
  2
Wireframe
 70
     5
 71
     0
 72
     2
 73
     0
 90
        0
 40
-0.6
 41
-30.0
 62
     5
 63
     7
 74
     1
 91
        4
 64
     7
 65
   257
 75
     1
175
     1
 42
1.0
 92
        0
 66
   257
 43
1.0
 76
     1
 77
     6
 78
     2
 67
     7
 79
     3
170
     0
171
     0
290
     0
174
     0
 93
        1
 44
0.0
173
     0
291
     0
 45
0.0
1001
ACAD
1000
AcDbSavedByObjectVersion
1070
     0
  0
VISUALSTYLE
  5
180
102
{ACAD_XDICTIONARY
360
4043
102
}
102
{ACAD_REACTORS
330
99
102
}
330
99
100
AcDbVisualStyle
  2
X-Ray
 70
    25
 71
     2
 72
     2
 73
     1
 90
        1
 40
0.5
 41
-30.0
 62
     5
 63
     7
 74
     1
 91
        0
 64
     7
 65
   257
 75
     1
175
     1
 42
1.0
 92
        8
 66
     7
 43
1.0
 76
     1
 77
     6
 78
     2
 67
     7
 79
     3
170
     0
171
     0
290
     0
174
     0
 93
       13
 44
0.0
173
     0
291
     0
 45
0.0
1001
ACAD
1000
AcDbSavedByObjectVersion
1070
     0
  0
DICTIONARYVAR
  5
F0
102
{ACAD_REACTORS
330
66
102
}
330
66
100
DictionaryVariables
280
     0
  1
1:1
  0
DICTIONARYVAR
  5
EF
102
{ACAD_REACTORS
330
66
102
}
330
66
100
DictionaryVariables
280
     0
  1
STANDARD
  0
DICTIONARYVAR
  5
89
102
{ACAD_REACTORS
330
66
102
}
330
66
100
DictionaryVariables
280
     0
  1
STANDARD
  0
DICTIONARYVAR
  5
1B7
102
{ACAD_REACTORS
330
66
102
}
330
66
100
DictionaryVariables
280
     0
  1
Imperial24
  0
DICTIONARYVAR
  5
1B8
102
{ACAD_REACTORS
330
66
102
}
330
66
100
DictionaryVariables
280
     0
  1
Imperial24
  0
DICTIONARYVAR
  5
67
102
{ACAD_REACTORS
330
66
102
}
330
66
100
DictionaryVariables
280
     0
  1
2
  0
DICTIONARYVAR
  5
6B
102
{ACAD_REACTORS
330
66
102
}
330
66
100
DictionaryVariables
280
     0
  1
1
  0
DICTIONARYVAR
  5
3FBE
102
{ACAD_REACTORS
330
66
102
}
330
66
100
DictionaryVariables
280
     0
  1
0
  0
DICTIONARYVAR
  5
14D
102
{ACAD_REACTORS
330
66
102
}
330
66
100
DictionaryVariables
280
     0
  1
0
  0
DICTIONARYVAR
  5
14E
102
{ACAD_REACTORS
330
66
102
}
330
66
100
DictionaryVariables
280
     0
  1
0
  0
DICTIONARYVAR
  5
3FBC
102
{ACAD_REACTORS
330
66
102
}
330
66
100
DictionaryVariables
280
     0
  1
2
  0
DICTIONARYVAR
  5
3FBB
102
{ACAD_REACTORS
330
66
102
}
330
66
100
DictionaryVariables
280
     0
  1
1
  0
DICTIONARYVAR
  5
3FBD
102
{ACAD_REACTORS
330
66
102
}
330
66
100
DictionaryVariables
280
     0
  1
127
  0
DICTIONARYVAR
  5
4009
102
{ACAD_REACTORS
330
66
102
}
330
66
100
DictionaryVariables
280
     0
  1
2
  0
DICTIONARY
  5
404B
330
1AC
100
AcDbDictionary
280
     1
281
     1
  3
ACAD_XREC_ROUNDTRIP
360
404C
  0
DICTIONARY
  5
400F
330
59
100
AcDbDictionary
280
     1
281
     1
  3
ACAD_XREC_ROUNDTRIP
360
4010
  0
DICTIONARY
  5
4011
330
5E
100
AcDbDictionary
280
     1
281
     1
  3
ACAD_XREC_ROUNDTRIP
360
4012
  0
DICTIONARY
  5
400D
330
22
100
AcDbDictionary
280
     1
281
     1
  3
ACAD_XREC_ROUNDTRIP
360
400E
  0
DICTIONARY
  5
188
330
97
100
AcDbDictionary
280
     1
281
     1
  3
ACAD_XREC_ROUNDTRIP
360
4015
  3
FBXASSET
360
189
  0
DICTIONARY
  5
186
330
96
100
AcDbDictionary
280
     1
281
     1
  3
ACAD_XREC_ROUNDTRIP
360
4014
  3
FBXASSET
360
187
  0
DICTIONARY
  5
110
330
98
100
AcDbDictionary
280
     1
281
     1
  3
ACAD_XREC_ROUNDTRIP
360
4016
  3
BUMPTILE
360
112
  3
DIFFUSETILE
360
111
  3
FBXASSET
360
18A
  3
OPACITYTILE
360
113
  3
REFLECTIONTILE
360
114
  0
DICTIONARY
  5
4037
330
D8
100
AcDbDictionary
280
     1
281
     1
  3
ACAD_XREC_ROUNDTRIP
360
4038
  0
DICTIONARY
  5
4049
330
1AA
100
AcDbDictionary
280
     1
281
     1
  3
ACAD_XREC_ROUNDTRIP
360
404A
  0
DICTIONARY
  5
104
330
87
100
AcDbDictionary
280
     1
281
     1
  3
ACAD_ROUNDTRIP_2008_TABLESTYLE_CELLSTYLEMAP
360
400A
  3
ACAD_XREC_ROUNDTRIP
360
4013
  0
DICTIONARY
  5
4021
330
9F
100
AcDbDictionary
280
     1
281
     1
  3
ACAD_XREC_ROUNDTRIP
360
4022
  0
DICTIONARY
  5
401F
330
9E
100
AcDbDictionary
280
     1
281
     1
  3
ACAD_XREC_ROUNDTRIP
360
4020
  0
DICTIONARY
  5
402D
330
A5
100
AcDbDictionary
280
     1
281
     1
  3
ACAD_XREC_ROUNDTRIP
360
402E
  0
DICTIONARY
  5
4035
330
A9
100
AcDbDictionary
280
     1
281
     1
  3
ACAD_XREC_ROUNDTRIP
360
4036
  0
DICTIONARY
  5
4027
330
A2
100
AcDbDictionary
280
     1
281
     1
  3
ACAD_XREC_ROUNDTRIP
360
4028
  0
DICTIONARY
  5
402B
330
A4
100
AcDbDictionary
280
     1
281
     1
  3
ACAD_XREC_ROUNDTRIP
360
402C
  0
DICTIONARY
  5
403D
330
175
100
AcDbDictionary
280
     1
281
     1
  3
ACAD_XREC_ROUNDTRIP
360
403E
  0
DICTIONARY
  5
4033
330
A8
100
AcDbDictionary
280
     1
281
     1
  3
ACAD_XREC_ROUNDTRIP
360
4034
  0
DICTIONARY
  5
4017
330
9A
100
AcDbDictionary
280
     1
281
     1
  3
ACAD_XREC_ROUNDTRIP
360
4018
  0
DICTIONARY
  5
4019
330
9B
100
AcDbDictionary
280
     1
281
     1
  3
ACAD_XREC_ROUNDTRIP
360
401A
  0
DICTIONARY
  5
401B
330
9C
100
AcDbDictionary
280
     1
281
     1
  3
ACAD_XREC_ROUNDTRIP
360
401C
  0
DICTIONARY
  5
401D
330
9D
100
AcDbDictionary
280
     1
281
     1
  3
ACAD_XREC_ROUNDTRIP
360
401E
  0
DICTIONARY
  5
4025
330
A1
100
AcDbDictionary
280
     1
281
     1
  3
ACAD_XREC_ROUNDTRIP
360
4026
  0
DICTIONARY
  5
4039
330
173
100
AcDbDictionary
280
     1
281
     1
  3
ACAD_XREC_ROUNDTRIP
360
403A
  0
DICTIONARY
  5
4031
330
A7
100
AcDbDictionary
280
     1
281
     1
  3
ACAD_XREC_ROUNDTRIP
360
4032
  0
DICTIONARY
  5
403B
330
174
100
AcDbDictionary
280
     1
281
     1
  3
ACAD_XREC_ROUNDTRIP
360
403C
  0
DICTIONARY
  5
4029
330
A3
100
AcDbDictionary
280
     1
281
     1
  3
ACAD_XREC_ROUNDTRIP
360
402A
  0
DICTIONARY
  5
4047
330
182
100
AcDbDictionary
280
     1
281
     1
  3
ACAD_XREC_ROUNDTRIP
360
4048
  0
DICTIONARY
  5
4045
330
181
100
AcDbDictionary
280
     1
281
     1
  3
ACAD_XREC_ROUNDTRIP
360
4046
  0
DICTIONARY
  5
403F
330
17E
100
AcDbDictionary
280
     1
281
     1
  3
ACAD_XREC_ROUNDTRIP
360
4040
  0
DICTIONARY
  5
4041
330
17F
100
AcDbDictionary
280
     1
281
     1
  3
ACAD_XREC_ROUNDTRIP
360
4042
  0
DICTIONARY
  5
402F
330
A6
100
AcDbDictionary
280
     1
281
     1
  3
ACAD_XREC_ROUNDTRIP
360
4030
  0
DICTIONARY
  5
4023
330
A0
100
AcDbDictionary
280
     1
281
     1
  3
ACAD_XREC_ROUNDTRIP
360
4024
  0
DICTIONARY
  5
4043
330
180
100
AcDbDictionary
280
     1
281
     1
  3
ACAD_XREC_ROUNDTRIP
360
4044
  0
XRECORD
  5
404C
102
{ACAD_REACTORS
330
404B
102
}
330
404B
100
AcDbXrecord
280
     1
102
DISPLAYNAME
  1
Imperial24
102
FLAGS
 90
        0
  0
XRECORD
  5
4010
102
{ACAD_REACTORS
330
400F
102
}
330
400F
100
AcDbXrecord
280
     1
102
SHADEPLOT
 70
     0
102
SHADEPLOTRESLEVEL
 70
     2
102
SHADEPLOTCUSTOMDPI
 70
   300
  0
XRECORD
  5
4012
102
{ACAD_REACTORS
330
4011
102
}
330
4011
100
AcDbXrecord
280
     1
102
SHADEPLOT
 70
     0
102
SHADEPLOTRESLEVEL
 70
     2
102
SHADEPLOTCUSTOMDPI
 70
   300
  0
XRECORD
  5
400E
102
{ACAD_REACTORS
330
400D
102
}
330
400D
100
AcDbXrecord
280
     1
102
SHADEPLOT
 70
     0
102
SHADEPLOTRESLEVEL
 70
     2
102
SHADEPLOTCUSTOMDPI
 70
   300
  0
XRECORD
  5
4015
102
{ACAD_REACTORS
330
188
102
}
330
188
100
AcDbXrecord
280
     1
102
MATERIAL
148
0.0
149
0.0
149
0.0
 93
        0
 94
       63
282
     0
 72
     1
 77
     1
171
     1
175
     1
179
     1
273
     0
  0
XRECORD
  5
189
102
{ACAD_REACTORS
330
188
102
}
330
188
100
AcDbXrecord
280
     1
 70
     1
 90
429727718
  1
508B35C9-AEE7-456F-BE74-D52651303AC6
310
504B03040A0000080000B670623B3DEE336E79000000790000001B0000006175746F6465736B2D64657369676E2D7061636B6167652E786D6C3C3F786D6C2076657273696F6E3D22312E302220656E636F64696E673D227574662D3822203F3E3C666F726D6174733E3C666F726D61743E687474703A2F2F736368656D612E
310
6175746F6465736B2E636F6D2F64657369676E2D7061636B6167652F323030393C2F666F726D61743E3C2F666F726D6174733E504B0304140006080800B670623BD486FD9CA0000000F4000000130000005B436F6E74656E745F54797065735D2E786D6C7D8EC10E82300C865F65E91D8A1E8C310C0EEA1BF002731658846E
310
D98AC1B77784ABF1D8FE5FBFBF75BBCE937A534CCEB38643598122B6FEE978D0B0485F9C41B54DDD7D022595594E1A469170414C76A4D9A4D207E29CF43ECE46F218070CC6BECC4078ACAA135ACF422C856C0E68EA1BF5669944DDD7BCDE7B1F8E415D77AECB980613C2E4AC91FC167A2B244592486606FC29C8FD7F045B9A
310
EF7053A7E60B504B0304140006080800B670623B28ED286BEB0000007C01000008000000636F72652E786D6C8D90416EC3201045AF82665B6183218D6D61A254764FD00B204C5C94182C03558F5F9C3852BBEB6A467FFE9B197D71FA9E6FE8CBACC17AD7012D0820E3B41FAD9B3A48F1826B40272956EFE32F1B20A766D3C1
310
268314D3EAD3B24BDABB685CCCAAF3A3D94515828980F42D371D04FD696655A814B3235C8B45E9AB9A4C419F5D8653B2237A1CB163DE672FD6AC209BF3C08E0D1B30EB19C3FC9D72FCC6EB231EFA33EDE96BDD341517E5064B11EDFCBCAF57A3A2194156843498524CAA0FCA5B7268F9E185D42D21A2DCEC7FA0B48CFF8492
310
759155FBBB0F2C80A4F991FB408A72CB22977B50B96EB9C91F504B0304140006080800B670623B55019EA25F0000007C00000007000000636E782E786D6C4DCB3B0E80201045D1AD90E915ED2CF8AC45050C11660C8261F98AB1B07AC9C97D42D718D865D3E909258CFD00CCE24AC6E326A164D74DC0B4128928FF32603847
310
2BA13128B1252AC747C6BAB984FC68F0B87FE8960A5C09FE86CFB69FBA01504B0304140006080800B670623B7BC41AC871010000D40300000C0000006662782F636F72652E786D6CC553ED6E8320147D15C2DF4501B56B6D90A64BBB27D80B50A5CE54C120983EFEAE1F4DD7A56BBA5FF3879273EEE59E7310BE393735EA95
310
ED2AA333CC428A91D2B9292A5D66D8BB63B0C26823B835C67D2BC348CB46657880B1E0A535BE9DA1DC68A7B403549B42CDA0EC3AE530CA6B5864B8CB3F552343E91D5474A7B095F949962A6421D0502778E72C0840D390E18DC5F170E664C205F7BE2A66B62A605A75AC94C522DDEEE3651AEF837817C741F2CE92E02D592D
310
83FD6ECB76EC7595A651C2C9D02CB8AB9A8BBADC2AE954814544691A3016D0E883256BBA58278B17BA5A53CAC9507ED3E4DBE2C9265F691747B3DCA9ADC382819091F8E1162272A8933DE82182932144F88C09DF060D8140C84E1EEA8B8F1340BDCA9DB1093085F157AA97B557309586747CD0EF0B4EA64E983A6E0EAEEFCE
310
889E9EF17847386AA94B30211D2C0FDE0D3AF9A4610EAD5536E8DD1969631B593F67E381C33F5157F17725E5A636F6BF1491F980C8FC7B90E13E8A2F504B0304140006080800B670623B70102A487D0000009D0000000B0000006662782F636E782E786D6C4DCCD10A83201886E15B91FFDC95A5C30335ACCDFB886521330D
310
A76397BF1A1DECE883878F57749FD5A3B74D2F17830472A901D9F088930B8B849267CC01754AA418F3DF0D5018572BE160506249B16C274D761E8BCFBB7A179E27F65CB39A0F14D396184C9921B81F34C3ACA1B4B99ABB6E6F062A25AA5F69DF23ACBE504B0304140006080800B670623B3610CA3329010000120200003100
310
00006662782F42384135303843342D343331462D343546312D424341352D3532343432364645413344462F636F72652E786D6C8D515B6EC32010BC0AE22B55850D0E446E848992B43E412FE000495162B07854397EA176A4F62F3F2C9A9D991D58BEBB8F37F0AD7D30CE76905418026DA553C65E3A98E219B510EC04F7CEC5
310
3F3408EC30EA0E16180A7EF12E4D0B249D8DDAC68C5AA7F4020E21E80881BCE54B0783FCD2E3500D296646B856D320AFC34557A4CAEDCC133C449F0380794839A138B47B86DB2345744D7A44594FD0E1B867883594369BFE63BF7EEF793D0B054FC9A8456E548E63CE46FB674D8A58F068C6477CE9F510B582A2C1F80D1182
310
70F349E816B32D65AFB8DD62CCEB42FF274A937A52948C8DEB66893BCB021484D7734370E5D2E9F608A3EF93F3119479ABA0E50B14B8C298119A43CCC4FCFCECB8A18B6388CEE7EF5D5D4F994BD86CBBA182D76543B9FCAE2FD7B24DF103504B0304140006080800B670623B1B8617914E0100003303000030000000666278
310
2F42384135303843342D343331462D343546312D424341352D3532343432364645413344462F636E782E786D6CD593C16EC32010447F0571AD6CE3D489D20813A9877E410FBD62D82434182CC055F3F75D1292E692438FBD206B7698593D61BEFD1E2DF982108D773D6D6B460938E5B571FB9ECE6957AD29D90A1EBC4F7736
310
4A9C1CA1A759A682EF839FA72269D8C9D92654AD71C72206887E0E0A22CAF926B15E498B01E0AA19451807D01A34B919F16B070157417138917400F2F6FA41FCF0092A45DEE414C19BDC21783E4BD39D891265658C3D8DEA00A3ACE59CBC8678ACB54CB26EEB6BD7839D7E9348BE70AD9C8321B9BCA7F9A4A26C542347DEE0
310
50F09802D22BA6749A800A394DD62899107273365E3C82CFC6A55557BC06C10774B7ABE7AEC3B0F34CF06446280E154026D0542C187BA9DAB6628BF7B6DBB0E5A65B3EB1F58631DE64BBE083F7B65CC218087E22CABB042E51D1F2268F1FE12B3EA24D40D63E9CFE00120194D60B9D5BC67FE6D39CDF37E20AF817881F504B
310
0304140006080800B670623BBFEF2E3B690500003C100000340000006662782F42384135303843342D343331462D343546312D424341352D3532343432364645413344462F6F626A656374732E786D6CAD575D739B3814FD2B0CFB0C98D84E931D4227B6938EA793B6534F3BFB90198F0099B001899144EAECAFDF231018B0
310
D37A3FFC609090EEE7B94757C1FB7D915B2F54C88CB31BDB7727B64559CC938CA53776A576CE956DBD0F03C1B9EA2DB32D460A7A63EB693B0C52C1ABD24C257447AA5C8D66EF177F5832A68CDA569C13296F6C193FD182B8A4523CA1F2D94D88226EBADBBBBEDB2C1C8A4D05299F46424B222853B014F30C52ACC6287F389C
310
D85E1878FA7B18E87FB36AFAF62AAFF667A83F635211161F291B8999FAB3D5DDC5FCDA99CF6653677679E13B8BFBC5CAF1DF4D27CBCBE5F2FAF6EE1A8AA51290642C117467871F101B91C581D77CEA2C36869F3229E68CD1B8F61F1ED6361B89092D294B90C78C4A68EB793D190E7D1D9BDEE7A91E1B95FDE9F3BCEAEFE809
310
6A6D6F9F7D4B79F4275C90E7A04248AA51D5C4C738DAE06F72885AC4796EBE65D22A88A22223B995679120E2D50EB1542F098381188D4EA111AE3DB043FF20AF6F2B4AE3D7D83D65E5AECA730D4D3BAC91BD05FEA992B565D95F549CD6069B90AB2A63EACA38A45E4B6A87D781574F86817E4C2FCCC72690D62E2729520E37
310
9BAF234797BAF6D62B3BFC781FED37BA1E4F2B2F052FA9501A3E80569BB8F6A9A364D4FA67654E6F803383981F82F21591FF84F23D9882BC896C3FDBCF8C162508933B2E0AE4C69DD43F6BD2BE38DDDBF10BF86CB4FA784D37F3AF16075E67EC9030DECA1FC0A55373F5DFF3378C591FA9BDF485C10B0A8C8BA909E5262639
310
A8E72163488806A595734C81CB77D1DE0ED7604A303B76913CEC0272F412782FF88EFF4636D8AA56DF7B322474C4B767303F625997056C7B032C473C592B36CEBD15F3F9FF5233B7ABCDC74D257624A60F8658567497B14CE1EC3C80B76FD02011038F9EE9EB0F2E12387A9C844D3F09855125116D1D731DF8B43D2CF4E0A0
310
79A020C6BE946BCE0B7EA1E1219331CD73C228AF5A2DDD31A4B1DA918CE91350854D40A71723140BFA92E94E62B0626016CEFA5864A50E5977E8753CEDBEE1CBB7F52780D20E17AF0BA0F5F9B02A3AD07DCC732EB6D1EBB661421BE0C39E21BABF0FE16D22EA6929407C8DE596724C88B749B6DB5512BC7B228ADFD7CB7EA6
310
3A22397E690BA8D5D8D4E40CEC8CDA23C2C0B7D5898640101CEC9C6D331CE328CB93CAFBBAC70A642DF70DF95155945B52F08AA973C23469FD69ADEF84F7BB18F983A8F8C90E37F5D35980B2139A1C523540813E824EF83448CF7C72B598CE97D7CEEDDDDD3B6736BFBC771677EF66CE6A7E7139F7A793E9EDF2B2B3A8B624
310
0CDA13AA5F8388264EC4A0129909F3B7F5A16CEDF08128E97D680ACA4B9BE7B7B58BB638F0B00700EF36AE8B32A705658A68F83EE897FC2B41573190D1CCAF0B92D233A47CFEB019D9809933F67DD1A5467F8CF69AD9A5AE859342D45355448C64F968A371DC2D596ADC6E43D93D1B466F877A64E2893E54F23C4B40388995
310
525E5005DA3983ED45412510D3EFCA13737B3863F74BD30F2A12E5B4B5E489A025CE25500DB855B11ACE5BBFA185D35DD48D8DC3CE7DC69F2944DB42AA6F6CF09BCA622ADD08C7A36E7C6AE18000BAB08E040135C2D21C9D75B3A91B77BB746C403F38018DFE6EC939DD92F16B40BC05294B9CDA035AAD6D330AE27FE4786B
310
8E45145EA34A75BE1C263A676A35A8ACC6297337400BF16C54EF515F3F77CB77EB3583889C754FFA29081AA98E2222ADEF05DA3E63D2EDEA8B8756C05A7FB6CABC4A91CBF325398202CC952E70A008A830324BA200D5E5EF8F5F04C75DB4B0EE3340E071C98B823333B83577596BF3849B69F2085AA0FAFA212F26BEFF5877
310
FDE622B28D88A42E49E43326DA82D31E8CB006401E1DA726059ECEC168F97A6599036306A135688F9AD2E61A6EA178F4CD51974A9F2CCB9F36FE5EBD14601068D9C3BF01504B0304140006080000B670623B000000000000000000000000350000006662782F42384135303843342D343331462D343546312D424341352D35
310
32343432364645413344462F76657274696365732E62696E504B0304140006080800B670623BF270F1330600000004000000360000006662782F42384135303843342D343331462D343546312D424341352D3532343432364645413344462F747269616E676C65732E62696E636660600000504B0304140006080000B67062
310
3B000000000000000000000000370000006662782F42384135303843342D343331462D343546312D424341352D3532343432364645413344462F617474726962757465732E62696E504B0304140006080800B670623B08DA0BD19000000041010000360000006662782F42384135303843342D343331462D343546312D4243
310
41352D3532343432364645413344462F6469726563746F72792E786D6C858F410AC3201045AF22B36F53E9A60B35CBEEBAE80D244E44489C6234F4F835464A48035D0DF398FF9F8AF63D0E6CC63039F212F8F9020C7D47C6792B21C5FE7403D62A1188E2E60C98D7234A5830286103A55745067B9D86B8A3CF9C7F90C11DE6
310
07FB144396D7B6A82D282E9A152AD114D5EF2CB866EEE831B8EEA07A7BB5A8D7D61A2BAAEB7FD5F70921FF497D00504B0304140006080800B670623B3B4606F3FE000000A00100003B0000006662782F42384135303843342D343331462D343546312D424341352D3532343432364645413344462F7265736F75726365732F
310
636F72652E786D6C8D504B6E833010BD0A9A6D65B08134808CA354A427E8052C332156828DFCA97AFC9A40A576D7CDCCE87D344F8F9FBEE647F689CE6B6B7A6039850C8DB2A336530F315C4903D94970676DF82583CCC8197B5861107C72362E3BA4AC096842428D1D7107A5F71820538F74F4E0D50D6799CB1892C2DFF345
310
AABB9C306779A2934E701F5C0A906D4FD609C2A1B7D129F4BCD858C163D4E3AED163FAA9AF1A1D88F67CA98E6D35906AA82A52BFB39ABCD5CD915C86331BD86BD3B665CD8BD52C78D0F34F46E550061C419494B6843142CB0F5677F4D0D58717DA7494F26295FF31C565FCA7296A13AA728FBBD93C0896823C09C18BB5AFB4
310
9E65A6BD762BBE01504B010214000A0000080000B670623B3DEE336E79000000790000001B00000000000000000000000000000000006175746F6465736B2D64657369676E2D7061636B6167652E786D6C504B01021400140006080800B670623BD486FD9CA0000000F40000001300000000000000000000000000B2000000
310
5B436F6E74656E745F54797065735D2E786D6C504B01021400140006080800B670623B28ED286BEB0000007C010000080000000000000000000000000083010000636F72652E786D6C504B01021400140006080800B670623B55019EA25F0000007C000000070000000000000000000000000094020000636E782E786D6C50
310
4B01021400140006080800B670623B7BC41AC871010000D40300000C00000000000000000000000000180300006662782F636F72652E786D6C504B01021400140006080800B670623B70102A487D0000009D0000000B00000000000000000000000000B30400006662782F636E782E786D6C504B01021400140006080800B6
310
70623B3610CA3329010000120200003100000000000000000000000000590500006662782F42384135303843342D343331462D343546312D424341352D3532343432364645413344462F636F72652E786D6C504B01021400140006080800B670623B1B8617914E010000330300003000000000000000000000000000D10600
310
006662782F42384135303843342D343331462D343546312D424341352D3532343432364645413344462F636E782E786D6C504B01021400140006080800B670623BBFEF2E3B690500003C10000034000000000000000000000000006D0800006662782F42384135303843342D343331462D343546312D424341352D35323434
310
32364645413344462F6F626A656374732E786D6C504B01021400140006080000B670623B0000000000000000000000003500000000000000000000000000280E00006662782F42384135303843342D343331462D343546312D424341352D3532343432364645413344462F76657274696365732E62696E504B010214001400
310
06080800B670623BF270F133060000000400000036000000000000000000000000007B0E00006662782F42384135303843342D343331462D343546312D424341352D3532343432364645413344462F747269616E676C65732E62696E504B01021400140006080000B670623B00000000000000000000000037000000000000
310
00000000000000D50E00006662782F42384135303843342D343331462D343546312D424341352D3532343432364645413344462F617474726962757465732E62696E504B01021400140006080800B670623B08DA0BD1900000004101000036000000000000000000000000002A0F00006662782F42384135303843342D3433
310
31462D343546312D424341352D3532343432364645413344462F6469726563746F72792E786D6C504B01021400140006080800B670623B3B4606F3FE000000A00100003B000000000000000000000000000E1000006662782F42384135303843342D343331462D343546312D424341352D3532343432364645413344462F72
310
65736F75726365732F636F72652E786D6C504B0506000000000E000E0080040000651100000000
  0
XRECORD
  5
4014
102
{ACAD_REACTORS
330
186
102
}
330
186
100
AcDbXrecord
280
     1
102
MATERIAL
148
0.0
149
0.0
149
0.0
 93
        0
 94
       63
282
     0
 72
     1
 77
     1
171
     1
175
     1
179
     1
273
     0
  0
XRECORD
  5
187
102
{ACAD_REACTORS
330
186
102
}
330
186
100
AcDbXrecord
280
     1
 70
     1
 90
429727718
  1
887D55A9-D0DD-414E-B741-A7DCD4DA2B4C
310
504B03040A0000080000B670623B3DEE336E79000000790000001B0000006175746F6465736B2D64657369676E2D7061636B6167652E786D6C3C3F786D6C2076657273696F6E3D22312E302220656E636F64696E673D227574662D3822203F3E3C666F726D6174733E3C666F726D61743E687474703A2F2F736368656D612E
310
6175746F6465736B2E636F6D2F64657369676E2D7061636B6167652F323030393C2F666F726D61743E3C2F666F726D6174733E504B0304140006080800B670623BD486FD9CA0000000F4000000130000005B436F6E74656E745F54797065735D2E786D6C7D8EC10E82300C865F65E91D8A1E8C310C0EEA1BF002731658846E
310
D98AC1B77784ABF1D8FE5FBFBF75BBCE937A534CCEB38643598122B6FEE978D0B0485F9C41B54DDD7D022595594E1A469170414C76A4D9A4D207E29CF43ECE46F218070CC6BECC4078ACAA135ACF422C856C0E68EA1BF5669944DDD7BCDE7B1F8E415D77AECB980613C2E4AC91FC167A2B244592486606FC29C8FD7F045B9A
310
EF7053A7E60B504B0304140006080800B670623BBC1638F5EC0000007C01000008000000636F72652E786D6C8D90416EC3201045AF82665B61836BE2D8C24471DB9CA01740401C94182C03558F5F9C3852BBEB6A467FFE9B197D7EF89E6EE8CB2CC17AD7032D0820E394D7D68D3DA478C67B4007C117EFE32F1B202727D3C3
310
2A83E0E3E2D3BC49CABB685CCCAAF3DA6CA20CC14440EA969B1E82BA98491632C5EC08D76296EA2A4753D06797E194AC468F2356E77DF66CCD02825543D50CACC62D39ED70FDC68EB8FD68F6F8787A6784342D1DDA1D2F5758F068A7E77DB518198D065111D2624A31A93E69DD11D6D5EC85EC3B4278B9DAFF4069D6FF8492
310
75F1B5DADE7D600104CD8FDC0782976B16B9DC83CA75CD4DFC00504B0304140006080800B670623B55019EA25F0000007C00000007000000636E782E786D6C4DCB3B0E80201045D1AD90E915ED2CF8AC45050C11660C8261F98AB1B07AC9C97D42D718D865D3E909258CFD00CCE24AC6E326A164D74DC0B4128928FF326038
310
472BA13128B1252AC747C6BAB984FC68F0B87FE8960A5C09FE86CFB69FBA01504B0304140006080800B670623B3586FFB671010000D40300000C0000006662782F636F72652E786D6CC553ED6E8320147D15C2DF4541A76D6D90A6DDD627D80B50A4CE54C120983EFEAE1F4DD7A55BBA5FF3879273EEE59E7310B6393735EA
310
95ED2AA3731C851423A5A5292A5DE6D8BB63B0C268C39935C67D29C3488B46E578803167A535BE9D2169B453DA01AA4DA16650749D7218C91A1639EEE4876A4428BC838AEE14B6429E44A9C228041AEA38EB9C0501681A32BC313F1ECE8C4C3867DE57C5CC56054CAB8E95B298A7F12E5EEED224C8E87E11242FE936C8DE96
310
AB60BB7F4D295D66D12E5B30323473E6AAE6A24E5A259C2A308F29CD82280A68FC1E256B9AAE93F489AED694323294DF34F9B678B0C957DA3DC7B3DCA9ADC33C022123F1CD2D44E450277AD04338234388F01913BE0D1A0281909D38D4171F27807A259DB1093085F157AA17B557309586747CD0CF0B46A64E983A6E0EAEEF
310
CE881F9EF1FB8E70D44297604238581EBC1B74B249C31C5AAB6CD0BB33D2C636A27ECCC62F0EFF445DC5DF95244D6DEC7F2922F30191F9F720C37DE49F504B0304140006080800B670623B4220A0FF7D0000009D0000000B0000006662782F636E782E786D6C4DCCD10A83201886E15B91FFDCE542CB0335D0EC3E6259C84A
310
C3E9D8E5AF46073BFAE0E1E315DD675BD1DBA5978F41C2FD4600B9F088930F8B849267CC01754AA418F3DF0D50183727E164506249B1EC174D6E1ECB9A0F5D7D785E68DB8151CD286E5A5363CA6B8A39E90D36D40E96B086F55A43A544F52B1D7B86D517504B0304140006080800B670623B2FA3FEDE290100001202000031
310
0000006662782F45374635344235342D363743322D343832342D383044432D4334454645303536354442422F636F72652E786D6C8D515B6EC32010BC0AE22B55850D2E386E848994D7097A0117488A1283C5A3CAF10BB523B57FF961D1ECCCECC0F2ED7DBC816FED8371B687A4C210682B9D32F6D2C314CFA883602BB8772E
310
FEA141608751F7B0C050F08B77695A20E96CD43666D43AA5177008414708E42D5F7A18E4971E876A483133C2B59A06791D2EBA22556E679EE021FA1C00CC43CA09C5717D6274C7286AD7FB06D1AEA1A8C3873DDAD3E3E98859CB0EBB1DAF67A1E02919B5C88DCA71CCD968FFAC49110B1ECDF8882FBD1EA256503418BF2342
310
106E3E08DD60B6A1EC15771B8C795DE8FF4469524F8A92B1F1AD59E2CEB20005E1F5DC105CB9F4797B84D1F7C9F908CABC55D0F2050A5C61CC1AD2F27A26E6E767C7962E8E213A9FBF7775FDCC5CC266DB960A5E970DE5F2BBBE5CCB36C50F504B0304140006080800B670623B1B8617914E01000033030000300000006662
310
782F45374635344235342D363743322D343832342D383044432D4334454645303536354442422F636E782E786D6CD593C16EC32010447F0571AD6CE3D489D20813A9877E410FBD62D82434182CC055F3F75D1292E692438FBD206B7698593D61BEFD1E2DF982108D773D6D6B460938E5B571FB9ECE6957AD29D90A1EBC4F77
310
364A9C1CA1A759A682EF839FA72269D8C9D92654AD71C72206887E0E0A22CAF926B15E498B01E0AA19451807D01A34B919F16B070157417138917400F2F6FA41FCF0092A45DEE414C19BDC21783E4BD39D891265658C3D8DEA00A3ACE59CBC8678ACB54CB26EEB6BD7839D7E9348BE70AD9C8321B9BCA7F9A4A26C542347DE
310
E050F09802D22BA6749A800A394DD62899107273365E3C82CFC6A55557BC06C10774B7ABE7AEC3B0F34CF06446280E154026D0542C187BA9DAB6628BF7B6DBB0E5A65B3EB1F58631DE64BBE083F7B65CC218087E22CABB042E51D1F2268F1FE12B3EA24D40D63E9CFE00120194D60B9D5BC67FE6D39CDF37E20AF817881F50
310
4B0304140006080800B670623B29652116630500003C100000340000006662782F45374635344235342D363743322D343832342D383044432D4334454645303536354442422F6F626A656374732E786D6CAD575D739B3814FD2B0CFB0C989834C90EA1639B24E3E9A6EDD4D3CE3E64C623834CD8006224913AFDF57B040203
310
B65BEF871F0C12D2FD3CF7E8CA7FBFCB33E3957291B2E2D674ED8969D02262715A24B76625B7D6B569BC0F7CCE98EC2D338D82E4F4D654D366E0279C55A59E8AE99654991CCDDECFFF3444440B6A1A514684B83545F44C7362934AB2988A173B2692D8C97667BB76B3702836E1A47C1E092D09A78584A5982F20C5688C7287
310
C389E904BEA3BE07BEFAD7ABA6A75739B53F43FD69212429A20365233153D70BEF2E2E6FAC4BCF9B5ADEBB0BD79ADFCF43CBBD9A4E16EF168B9BD9DD0D140BC921495BC2E9D60C1E101B9E46BED37CEA2CD6861F3329624541A3DA7F7858DBAC25C6B4A4458C3CA654405BCFEBC970E8AAD8F43E4FD558ABEC4F9FE7557F47
310
4F506B7BFBEC5BCA367FC105710E2AB8A00A554D7CB4A30DFE26FBA86D18CBF4B75418399194A72433B274C3097F33032C554B027F2046A1932B842B0FCCC0DDCBEBDB8AD2F835768F59B9ADB24C41D30C6A64AF817F2A456D59FA83F2E3DA60137255A585BCD60EC9B7929AC18DEFD49381AF1ED30BFDB109A4B1CD488294
310
C3CDE6EBC8D185AABD6568061FEE37BB95AAC7E3CA4BCE4ACAA5820FA0D526AE7DAA2869B5EE5999531BE0CC20E6FBA07C41E43FA27CF7A6206F3CDD793B4F6B919C1462CB788EDCD893FA674CDA17AB7B3B7C019F8D561FAEE966FED562DFE98C1D12C6A9FC015C2A35D7FF3D7FC398F591DA4B5FE0BFA2C0189FEA50AE22
310
92817A1ED3020951A03432862970F976B33383259812CC8E5D240BBA801CBCF8CE2BBEE3BF910DB6AAD5F79E05123AE2DB33981FB1ACCB02B69D00CB014FD68AB573A7627EF9BFD4CC2C5C7D58557C4B22FAA88925A4DBB44825CECE3D78FB060D1231F0E885BE7D673C86A3874958F593906B5502D1563157814FDAC3420D
310
F69A070A22EC4B98E23CFF171A1E5311D12C23056555ABA53B8614563B92D17D02AAB009E8F46284624E5F53D5490C560CCCC2591FF1B45421EB0EBD8EA7ED13BE7C5D7E0428CD60FEF60779EB13E6664FF711CB185F6FDED60D139A001FF60CD1FD6D086F1D51474901E26B2CB794A343BC8ED3EDB612E0DD2351FCB65CF4
310
33D511C9E14B5B40ADC6A6263DB0336A8F700DDF56271A024E70B0B3629DE21847591E55DED73D56206AB927E46FAABC5C939C55853C274C93D69FD6FA4E78BF8B11DF898C9ECD60553FAD39283BA6F18984AA23E8884F83F45C5F5F859797B31B2B9C84A1E5B9DE9D35BFF25C6B76152E422F9C5DCC3D847F5801ED09D5AF
310
41441327A25FF15487F9EB725FB666F048A4701E9A827292E6F97569A32DF61DEC01C0BB8DCBBCCC684E0B49147C1FD54BF685A0AB18C868E6973949E819523E3DAC463660E68C7D9F55A9D1EFA3BD7A76A16AE1A810F95CE59B82A4D968A376DC2E8B44BBDD86B27B368CDE0ED548C7137DA860591A83706223A12CA712B4
310
7306DBF39C0A20A6DF95C7FAF670C6EED7A61F946493D1D6926782963813403548A78AE470DEF80D2D9CEAA26E4D1C76F60BFE74219A06527D6B82DF641A51616F703CAAC6A7160E08A00BEB4810A0274592A1B36E3675E36E978A0DE80727A0D6DF2D39A75BD27E0D8837276589537B40ABB56D5A41F48F1C6FCD3188C4EB
310
A6929D2FFB89CE995A4D00AE813BDD032DC48B56BD437DFDDC2DD7AED70C2272D63DE9A72068A45A92F0A4BE17A8A06B9366E16707AD80B1FC649459952097E74BB23805982B55E0401150A165964402AA8BDF9F3E7386BB686EDCA780C0D382E5392BF460A6EFB2C6EA1937D3F809B440D5F5435C4C5CF7A9EEFAF54564BD
310
2182DA24162F98680B4E7930C21A0079709CEAEB99A372305ABE0C0D7D6078105A83F6A0296DAEE1068A47DD1C55A9F4C9B2FC69E3EFD44B81028E963DF81B504B0304140006080000B670623B000000000000000000000000350000006662782F45374635344235342D363743322D343832342D383044432D433445464530
310
3536354442422F76657274696365732E62696E504B0304140006080800B670623BF270F1330600000004000000360000006662782F45374635344235342D363743322D343832342D383044432D4334454645303536354442422F747269616E676C65732E62696E636660600000504B0304140006080000B670623B00000000
310
0000000000000000370000006662782F45374635344235342D363743322D343832342D383044432D4334454645303536354442422F617474726962757465732E62696E504B0304140006080800B670623B08DA0BD19000000041010000360000006662782F45374635344235342D363743322D343832342D383044432D4334
310
454645303536354442422F6469726563746F72792E786D6C858F410AC3201045AF22B36F53E9A60B35CBEEBAE80D244E44489C6234F4F835464A48035D0DF398FF9F8AF63D0E6CC63039F212F8F9020C7D47C6792B21C5FE7403D62A1188E2E60C98D7234A5830286103A55745067B9D86B8A3CF9C7F90C11DE607FB144396
310
D7B6A82D282E9A152AD114D5EF2CB866EEE831B8EEA07A7BB5A8D7D61A2BAAEB7FD5F70921FF497D00504B0304140006080800B670623B6378F24DFF000000A00100003B0000006662782F45374635344235342D363743322D343832342D383044432D4334454645303536354442422F7265736F75726365732F636F72652E
310
786D6C8D504B6E833010BD0A9A6D65B0094E42641C85B639412F6099496225D8C89FAAC7AF09546A77DDCC8CDE47F3F4C4F16B7C149FE88371B603565228D06A37187BED20C50BD9437194C23B177FC9A0B06AC40E6618A4B87A97A615D2CE46B431A3D60DB8822A048C50E8473E3A08FA86A32A558A5911EEE5A4F45D5DB1
310
6465A6B34E8A107D0E502C4FE609D26370C96B0CA25A58295232C3AA3143FE692E063D485EF7F5AEE71BD2D2F39634AFFC44DAF7DD9E9CCE6F9CD25DCBFA762BAAD92C4534E34F46ED51451C40D694B6843142EB0FD61C283F34FC85EE0F948A6A96FF31A569F8A729191B37F51A77B105902C0779125254735F793DCBCC7B
310
EE567E03504B010214000A0000080000B670623B3DEE336E79000000790000001B00000000000000000000000000000000006175746F6465736B2D64657369676E2D7061636B6167652E786D6C504B01021400140006080800B670623BD486FD9CA0000000F40000001300000000000000000000000000B20000005B436F6E
310
74656E745F54797065735D2E786D6C504B01021400140006080800B670623BBC1638F5EC0000007C010000080000000000000000000000000083010000636F72652E786D6C504B01021400140006080800B670623B55019EA25F0000007C000000070000000000000000000000000095020000636E782E786D6C504B010214
310
00140006080800B670623B3586FFB671010000D40300000C00000000000000000000000000190300006662782F636F72652E786D6C504B01021400140006080800B670623B4220A0FF7D0000009D0000000B00000000000000000000000000B40400006662782F636E782E786D6C504B01021400140006080800B670623B2F
310
A3FEDE290100001202000031000000000000000000000000005A0500006662782F45374635344235342D363743322D343832342D383044432D4334454645303536354442422F636F72652E786D6C504B01021400140006080800B670623B1B8617914E010000330300003000000000000000000000000000D2060000666278
310
2F45374635344235342D363743322D343832342D383044432D4334454645303536354442422F636E782E786D6C504B01021400140006080800B670623B29652116630500003C10000034000000000000000000000000006E0800006662782F45374635344235342D363743322D343832342D383044432D4334454645303536
310
354442422F6F626A656374732E786D6C504B01021400140006080000B670623B0000000000000000000000003500000000000000000000000000230E00006662782F45374635344235342D363743322D343832342D383044432D4334454645303536354442422F76657274696365732E62696E504B01021400140006080800
310
B670623BF270F13306000000040000003600000000000000000000000000760E00006662782F45374635344235342D363743322D343832342D383044432D4334454645303536354442422F747269616E676C65732E62696E504B01021400140006080000B670623B0000000000000000000000003700000000000000000000
310
000000D00E00006662782F45374635344235342D363743322D343832342D383044432D4334454645303536354442422F617474726962757465732E62696E504B01021400140006080800B670623B08DA0BD190000000410100003600000000000000000000000000250F00006662782F45374635344235342D363743322D34
310
3832342D383044432D4334454645303536354442422F6469726563746F72792E786D6C504B01021400140006080800B670623B6378F24DFF000000A00100003B00000000000000000000000000091000006662782F45374635344235342D363743322D343832342D383044432D4334454645303536354442422F7265736F75
310
726365732F636F72652E786D6C504B0506000000000E000E0080040000611100000000
  0
XRECORD
  5
4016
102
{ACAD_REACTORS
330
110
102
}
330
110
100
AcDbXrecord
280
     1
102
MATERIAL
148
0.0
149
0.0
149
0.0
 93
        0
 94
       63
282
     0
 72
     1
 77
     1
171
     1
175
     1
179
     1
273
     0
  0
XRECORD
  5
112
102
{ACAD_REACTORS
330
110
102
}
330
110
100
AcDbXrecord
280
     1
270
     1
271
     1
  0
XRECORD
  5
111
102
{ACAD_REACTORS
330
110
102
}
330
110
100
AcDbXrecord
280
     1
270
     1
271
     1
  0
XRECORD
  5
18A
102
{ACAD_REACTORS
330
110
102
}
330
110
100
AcDbXrecord
280
     1
 70
     0
 90
1778669749
  1
9BF507EE-FAF7-4A99-A33D-4EE51894BC40
310
504B03040A0000080000B670623B3DEE336E79000000790000001B0000006175746F6465736B2D64657369676E2D7061636B6167652E786D6C3C3F786D6C2076657273696F6E3D22312E302220656E636F64696E673D227574662D3822203F3E3C666F726D6174733E3C666F726D61743E687474703A2F2F736368656D612E
310
6175746F6465736B2E636F6D2F64657369676E2D7061636B6167652F323030393C2F666F726D61743E3C2F666F726D6174733E504B0304140006080800B670623BD486FD9CA0000000F4000000130000005B436F6E74656E745F54797065735D2E786D6C7D8EC10E82300C865F65E91D8A1E8C310C0EEA1BF002731658846E
310
D98AC1B77784ABF1D8FE5FBFBF75BBCE937A534CCEB38643598122B6FEE978D0B0485F9C41B54DDD7D022595594E1A469170414C76A4D9A4D207E29CF43ECE46F218070CC6BECC4078ACAA135ACF422C856C0E68EA1BF5669944DDD7BCDE7B1F8E415D77AECB980613C2E4AC91FC167A2B244592486606FC29C8FD7F045B9A
310
EF7053A7E60B504B0304140006080800B670623BCA089DFFEC0000007C01000008000000636F72652E786D6C8D90416E83301045AF62CDB632D8402020E32882F604BD80653BC44AB011B6AB1EBF262152BBEB6A467FFE9B197D76FA9EEFE84BAFDE38DB03CD08206DA553C64E3DC470C1474027CE56E7C22F1B202B66DDC3
310
260367D3EAE2B24BD2D9A06D48AA754AEFA2F05E0740F29E9A1EBCBCEA59642286E4F0B76C11F226269DD15797E0188D42CF2346A57DE662F40ABCAEC77628C6120F654571D50C04B7F5B9C1E3997CD4F550BE3745C3F20DE62C98F9755FAE5A04AD801784B498524C8A4F5A75E4D055873772EC0861F966FF03C545FD138A
310
C686B2D8DF7D621E384D8F3C069CE55B16A93C824A75CB8DFF00504B0304140006080800B670623B55019EA25F0000007C00000007000000636E782E786D6C4DCB3B0E80201045D1AD90E915ED2CF8AC45050C11660C8261F98AB1B07AC9C97D42D718D865D3E909258CFD00CCE24AC6E326A164D74DC0B4128928FF326038
310
472BA13128B1252AC747C6BAB984FC68F0B87FE8960A5C09FE86CFB69FBA01504B0304140006080800B670623B68FC0B7272010000D40300000C0000006662782F636F72652E786D6CC5535B6E833010BC8AE5DF0A6C1E8124328E22D29EA01770C0A128602363A31CBFCB234A53A555FA553EC09AD9F5CE8C31DB5DDA060D
310
D2F4B556190E7C8A9154852E6B5565D8D993B7C668C799D1DA7E29C3488956667884316795D1AE5BA0422B2B950554E9522EA0E87B69312A1A5864B82F3E642B7CE12C54F467BF13C55954D20F7CA0A18EB3DE1A1080E621E31BF3D3F1C2C88C73E65C5D2E6C5DC2B4FA544B8379921C36797888BC3C8A032F4E73EA6D927D
310
EA1DF6F42D49F2E8350D5346C666CE6CDD5ED515460A2B4BCC434A375E1078347C0FE22D5D6DE3D50B5D6F2965642CBF6B725DF96493AB958DC245EEDCD6631E809089F8E61622B2A81703E8219C913144F84C09DF070D8140C8561C9BAB8F3340832CAC363130A576376A108D933095FA747AD0CF0B46E64E983A6D0EAE1F
310
CE089F9EF1FB8E70D44255604258581E9D1D75B259C3125A278D37D80B52DAB4A279CEC62F0EFF44DDC43F9454E8469BFF5244960322CBEF41C6FBC83F01504B0304140006080800B670623B0F71DDB67E0000009D0000000B0000006662782F636E782E786D6C4DCCD10A83201886E15B91FFDCA54DB73F502386BB8F5816
310
32D3703976F9ABD1C18E3E78F87855FB990379BBFCF2296AE02706C4C5471A7C9C349475A408A4352AA7B4FEDD80C47E761A7606A3A69CCA72D0E0C6BE8475D3E0E3F3409428EA6B27A84079A782899AA2EC1A7AE3ECCC2FD858CB2D544655BFD2B67BD87C01504B0304140006080800B670623BE134B4FB28010000120200
310
00310000006662782F38353834323741342D343835462D343034322D383541392D4331303331363839454531452F636F72652E786D6C8D515B6EC32010BC0AE22B55850D0EA424C24451959EA0172086A42831583CAA1CBF503B52FB971F16CDCECC0EACD8DFC71BF836215AEF7A481A0C817183D7D65D7A98D3197108F652
310
04EFD31F1A044E8DA6871586525C82CFD3020DDE25E352419DD76601558C264130DCCAA58771F832A36A544E8511AFCDA486ABBA988634A55D7852C4144A00300FA927949C71DABD1D28A29C7D208A6987383B6CD13BC16BB2E1DBE3911C453B0BA5C8D9EA456E758963CFD684674DAA588A64C747FC2118958C86B2C3788B
310
0841B8FB247487D98EB257CC77188BB6D2FF89F2A49F1465EBD2BA5BE2CEB2082511EDDC9042FB7CBA3DC298FBE4430275DE2A9AE1054ADC60CC08E3A29D89E5F9C5714317C7987C28DFBBBA9E0A97B0D97643A568EB864AF95D5FA9759BF207504B0304140006080800B670623B1B8617914E010000330300003000000066
310
62782F38353834323741342D343835462D343034322D383541392D4331303331363839454531452F636E782E786D6CD593C16EC32010447F0571AD6CE3D489D20813A9877E410FBD62D82434182CC055F3F75D1292E692438FBD206B7698593D61BEFD1E2DF982108D773D6D6B460938E5B571FB9ECE6957AD29D90A1EBC4F
310
77364A9C1CA1A759A682EF839FA72269D8C9D92654AD71C72206887E0E0A22CAF926B15E498B01E0AA19451807D01A34B919F16B070157417138917400F2F6FA41FCF0092A45DEE414C19BDC21783E4BD39D891265658C3D8DEA00A3ACE59CBC8678ACB54CB26EEB6BD7839D7E9348BE70AD9C8321B9BCA7F9A4A26C542347
310
DEE050F09802D22BA6749A800A394DD62899107273365E3C82CFC6A55557BC06C10774B7ABE7AEC3B0F34CF06446280E154026D0542C187BA9DAB6628BF7B6DBB0E5A65B3EB1F58631DE64BBE083F7B65CC218087E22CABB042E51D1F2268F1FE12B3EA24D40D63E9CFE00120194D60B9D5BC67FE6D39CDF37E20AF817881F
310
504B0304140006080800B670623B5933D422630500003B100000340000006662782F38353834323741342D343835462D343034322D383541392D4331303331363839454531452F6F626A656374732E786D6CAD575B6FA33814FE2B887D0642934E9B156594264D158D3A534DD4D13E548A0C38942D60649B4EBABF7E3F8321
310
40924EF6928780CDF1B97EE762EFF32E4B8D37CA45C2F21BD3B547A641F39045491EDF98A5DC5AD7A6F1D9F73863B243661A39C9E88DA9B64DDF8B392B0BBD15D12D295339D85DDEFE618890E6D434C2940871638AF08566C426A5641115AF764424B1E3EDCE76ED9AB0CF36E6A47819302D08A7B984A6D8CFC1C5A89572FB
310
CB91E9F89EA3BEFB9EFAD754E3D3544E654F5F7E920B49F2F040D880CDD89D2CEE2E2EA7D6E56432B6269F2E5CEB7679BBB0DCABF168FE693E9FCEEEA6102C240727AD09A75BD3BF876F78127A4EFDA9D5582B7E4CA590E5390D2BFB6161A5B3E618D182E611E2985001691DAB47FDA5AB7CD3F93C566B2DB2BB7D9E55DD13
310
1D468DEECDB3AB290BFE8409E21C54704115AA6AFF68436BFC8DF65E0B184BF5B74418199194272435D224E084BF9B3E481589EFF5D828747285706581E9BB7B7E5D5D911ABFC6EE312DB7659A2A689A7E85EC0DF04FA5A8344BFEA2FCB834E8845895492EAFB541F2BDA0A63FF59C6AD3F7D4637CA13FD68E34B629891172
310
98597F1D183A57B9B75A98FE9765B05BAB7C3C2EBCE0ACA05C2AF8005A4DE09AA7F29216EB9E15397500C6F47CBE77CA7778FE2BD277AF0AE2C693DD6437D1522427B9D8329E2136F6A8FA19A3E6C56ADF0E5F50CF06D48734EDCEBF22F69C56D97EC138153F804B85E6FABFC7AFEFB32E523BE1F3BD372418E363EDCA7548
310
52949E8724474014288D94610BB57C1BEC4C7F854A89CA8E5324F55B871CBC78CE1BBEE3BFE68D6A5589EF3C730474506FCFA8FCF0659516D0ED04580EEA6425581B77CAE797FF4BCECC16EB2FEB926F49481F746159D06D922712BD730FDEAE42BD40F42C7AA5EF3F198F60E86110D6DD20645A9480B795CF95E3E3A659A8
310
C55E724F408873315335CFFB8584874484344D494E59D94869DB90C26A5B64F49C802CAC1D3ABE18A098D3B7444D123D8A9E5AE8F5214F0AE5B2B6E9B575DA3E61CBD3EA2B4009FA940524DD1305FB6A1FB294F14DF0BEA90BA109ECE1481FDC3FFAE8D60E75141700BE82725371B4873751B2DD960265F788137FACE6DD40
310
B575E4F0A5C99F46629D92131467A41EE11ABD8D4CCC039CA0AFB37C93A08B232B8F0AEFCA1E0A1015DF13FC83322B362463652ECF71D3A8B1A7D1BE65DE1D62C44F22C317D35F574FEB16153BA2D13E543D10A80E74C4A65E78A6B7CBCBD1D5DD9DB59C2DAFACC96C3AB566E3F1C29ADCDD5DBAD7D3C9ED7C822ED74F80A6
310
41755310DE4443F44A9E68373FADF6596BFA0F440AE7BECE2727AE9F4F2B1B53B1E7E00CF0DD1E5C65454A339A4BA2D0FBA05ED2EF0443458F47BDBFCA484CCFE0F2ED7E3DD0013B679C7B5499467F0ECEEADDB9CA85A34CE44B99053949D2C1416DB85DE4B136BB7165FBAC0B7AB3542BED4F8CA182A549847A1319316519
310
95A83A67147B9E5101C47487F2485F1ECE38FD568F839204296D3479219888530154036E6528FBFBC66F98E0D4107563A2D7D9AFF8D389681A08F58D89F22693900A3B407754734FC51C10C010D6D640809EE4718AC1BA3ED4AEDB53CA37283F68805A7E4B72CEB0A4EDEAD5DD8C14059A76AFAA56BA6901E13F32BC51C720
310
12AF41295B5BF61BAD3195181FB506E6B40F4C10AF5AF40EF9F5B159AE5DD1F43C72D635E94310D45C2D49785C5D0B94D3B54AB3C5A38349C0587D338AB48C11CBF339599C02CCA54A70A008A8D03C0B2201D5F9EFCF8F9CE12A9A19CB0410789EB32C63B95ECCF455D658BFE0621A3DA32C5075FB101723D77DAE867E7D0F
310
D90444509B44E2151B4DC2290B065803200FBAA9BE9D392A0603F2D5C2D00D6302A615680F66D2FA166E2079D4C551A54AB758161FCEFD4E450A14704CECFEDF504B0304140006080000B670623B000000000000000000000000350000006662782F38353834323741342D343835462D343034322D383541392D4331303331
310
363839454531452F76657274696365732E62696E504B0304140006080800B670623BF270F1330600000004000000360000006662782F38353834323741342D343835462D343034322D383541392D4331303331363839454531452F747269616E676C65732E62696E636660600000504B0304140006080000B670623B000000
310
000000000000000000370000006662782F38353834323741342D343835462D343034322D383541392D4331303331363839454531452F617474726962757465732E62696E504B0304140006080800B670623B08DA0BD19000000041010000360000006662782F38353834323741342D343835462D343034322D383541392D43
310
31303331363839454531452F6469726563746F72792E786D6C858F410AC3201045AF22B36F53E9A60B35CBEEBAE80D244E44489C6234F4F835464A48035D0DF398FF9F8AF63D0E6CC63039F212F8F9020C7D47C6792B21C5FE7403D62A1188E2E60C98D7234A5830286103A55745067B9D86B8A3CF9C7F90C11DE607FB1443
310
96D7B6A82D282E9A152AD114D5EF2CB866EEE831B8EEA07A7BB5A8D7D61A2BAAEB7FD5F70921FF497D00504B0304140006080800B670623BD9A3B367FE000000A00100003B0000006662782F38353834323741342D343835462D343034322D383541392D4331303331363839454531452F7265736F75726365732F636F7265
310
2E786D6C8D504B6E833010BD0A9A6D65B01D0201194711694FD00B586642AD043BF2A7EAF16B122AB5BB6E6646EFA3797AE2F8B5DC8A4FF4C1383B002B291468B59B8C9D0748F1420E501CA5F0CEC55F3228AC5A708015062966EFD27D83B4B3116DCCA875136EA00A012314FA968F0182FEC045952AC5AC08D7F2AEF455CD
310
58B232D3592745883E07289E4FD609D26370C96B0CA27AB252A464A64D63A6FCD35C0C7A904D73EE467EE664DCD58CD4ED4849D79C5A723ED1B7A61977AF2D6F45B59AA58866F9C9A83DAA8813484E6947182394BFB3BAA7FBBEDEBFD0434FA9A856F91F53BA4FFF342563E38E6F719FB60092E5200F428A6AED2BAF479979
310
AFDDCA6F504B010214000A0000080000B670623B3DEE336E79000000790000001B00000000000000000000000000000000006175746F6465736B2D64657369676E2D7061636B6167652E786D6C504B01021400140006080800B670623BD486FD9CA0000000F40000001300000000000000000000000000B20000005B436F6E
310
74656E745F54797065735D2E786D6C504B01021400140006080800B670623BCA089DFFEC0000007C010000080000000000000000000000000083010000636F72652E786D6C504B01021400140006080800B670623B55019EA25F0000007C000000070000000000000000000000000095020000636E782E786D6C504B010214
310
00140006080800B670623B68FC0B7272010000D40300000C00000000000000000000000000190300006662782F636F72652E786D6C504B01021400140006080800B670623B0F71DDB67E0000009D0000000B00000000000000000000000000B50400006662782F636E782E786D6C504B01021400140006080800B670623BE1
310
34B4FB280100001202000031000000000000000000000000005C0500006662782F38353834323741342D343835462D343034322D383541392D4331303331363839454531452F636F72652E786D6C504B01021400140006080800B670623B1B8617914E010000330300003000000000000000000000000000D3060000666278
310
2F38353834323741342D343835462D343034322D383541392D4331303331363839454531452F636E782E786D6C504B01021400140006080800B670623B5933D422630500003B10000034000000000000000000000000006F0800006662782F38353834323741342D343835462D343034322D383541392D4331303331363839
310
454531452F6F626A656374732E786D6C504B01021400140006080000B670623B0000000000000000000000003500000000000000000000000000240E00006662782F38353834323741342D343835462D343034322D383541392D4331303331363839454531452F76657274696365732E62696E504B01021400140006080800
310
B670623BF270F13306000000040000003600000000000000000000000000770E00006662782F38353834323741342D343835462D343034322D383541392D4331303331363839454531452F747269616E676C65732E62696E504B01021400140006080000B670623B0000000000000000000000003700000000000000000000
310
000000D10E00006662782F38353834323741342D343835462D343034322D383541392D4331303331363839454531452F617474726962757465732E62696E504B01021400140006080800B670623B08DA0BD190000000410100003600000000000000000000000000260F00006662782F38353834323741342D343835462D34
310
3034322D383541392D4331303331363839454531452F6469726563746F72792E786D6C504B01021400140006080800B670623BD9A3B367FE000000A00100003B000000000000000000000000000A1000006662782F38353834323741342D343835462D343034322D383541392D4331303331363839454531452F7265736F75
310
726365732F636F72652E786D6C504B0506000000000E000E0080040000611100000000
  0
XRECORD
  5
113
102
{ACAD_REACTORS
330
110
102
}
330
110
100
AcDbXrecord
280
     1
270
     1
271
     1
  0
XRECORD
  5
114
102
{ACAD_REACTORS
330
110
102
}
330
110
100
AcDbXrecord
280
     1
270
     1
271
     1
  0
XRECORD
  5
4038
102
{ACAD_REACTORS
330
4037
102
}
330
4037
100
AcDbXrecord
280
     1
102
ACAD_ROUNDTRIP_2012_MLEADER_STYLE
298
     1
  0
XRECORD
  5
404A
102
{ACAD_REACTORS
330
4049
102
}
330
4049
100
AcDbXrecord
280
     1
102
DISPLAYNAME
  1
Imperial24
102
FLAGS
 90
        0
  0
CELLSTYLEMAP
  5
400A
102
{ACAD_REACTORS
330
104
102
}
330
104
100
AcDbCellStyleMap
 90
        3
300
CELLSTYLE
  1
TABLEFORMAT_BEGIN
 90
        5
170
     1
 91
        0
 92
    32768
 62
   257
 93
        1
300
CONTENTFORMAT
  1
CONTENTFORMAT_BEGIN
 90
        0
 91
        0
 92
      512
 93
        0
300

 40
0.0
140
1.0
 94
        5
 62
     0
340
11
144
0.25
309
CONTENTFORMAT_END
171
     1
301
MARGIN
  1
CELLMARGIN_BEGIN
 40
0.06
 40
0.06
 40
0.06
 40
0.06
 40
0.18
 40
0.18
309
CELLMARGIN_END
 94
        6
 95
        1
302
GRIDFORMAT
  1
GRIDFORMAT_BEGIN
 90
        0
 91
        1
 62
     0
 92
       -2
340
0
 93
        0
 40
0.045
309
GRIDFORMAT_END
 95
        2
302
GRIDFORMAT
  1
GRIDFORMAT_BEGIN
 90
        0
 91
        1
 62
     0
 92
       -2
340
0
 93
        0
 40
0.045
309
GRIDFORMAT_END
 95
        4
302
GRIDFORMAT
  1
GRIDFORMAT_BEGIN
 90
        0
 91
        1
 62
     0
 92
       -2
340
0
 93
        0
 40
0.045
309
GRIDFORMAT_END
 95
        8
302
GRIDFORMAT
  1
GRIDFORMAT_BEGIN
 90
        0
 91
        1
 62
     0
 92
       -2
340
0
 93
        0
 40
0.045
309
GRIDFORMAT_END
 95
       16
302
GRIDFORMAT
  1
GRIDFORMAT_BEGIN
 90
        0
 91
        1
 62
     0
 92
       -2
340
0
 93
        0
 40
0.045
309
GRIDFORMAT_END
 95
       32
302
GRIDFORMAT
  1
GRIDFORMAT_BEGIN
 90
        0
 91
        1
 62
     0
 92
       -2
340
0
 93
        0
 40
0.045
309
GRIDFORMAT_END
309
TABLEFORMAT_END
  1
CELLSTYLE_BEGIN
 90
        1
 91
        1
300
_TITLE
309
CELLSTYLE_END
300
CELLSTYLE
  1
TABLEFORMAT_BEGIN
 90
        5
170
     1
 91
        0
 92
        0
 62
   257
 93
        1
300
CONTENTFORMAT
  1
CONTENTFORMAT_BEGIN
 90
        0
 91
        0
 92
      512
 93
        0
300

 40
0.0
140
1.0
 94
        5
 62
     0
340
11
144
0.18
309
CONTENTFORMAT_END
171
     1
301
MARGIN
  1
CELLMARGIN_BEGIN
 40
0.06
 40
0.06
 40
0.06
 40
0.06
 40
0.18
 40
0.18
309
CELLMARGIN_END
 94
        6
 95
        1
302
GRIDFORMAT
  1
GRIDFORMAT_BEGIN
 90
        0
 91
        1
 62
     0
 92
       -2
340
0
 93
        0
 40
0.045
309
GRIDFORMAT_END
 95
        2
302
GRIDFORMAT
  1
GRIDFORMAT_BEGIN
 90
        0
 91
        1
 62
     0
 92
       -2
340
0
 93
        0
 40
0.045
309
GRIDFORMAT_END
 95
        4
302
GRIDFORMAT
  1
GRIDFORMAT_BEGIN
 90
        0
 91
        1
 62
     0
 92
       -2
340
0
 93
        0
 40
0.045
309
GRIDFORMAT_END
 95
        8
302
GRIDFORMAT
  1
GRIDFORMAT_BEGIN
 90
        0
 91
        1
 62
     0
 92
       -2
340
0
 93
        0
 40
0.045
309
GRIDFORMAT_END
 95
       16
302
GRIDFORMAT
  1
GRIDFORMAT_BEGIN
 90
        0
 91
        1
 62
     0
 92
       -2
340
0
 93
        0
 40
0.045
309
GRIDFORMAT_END
 95
       32
302
GRIDFORMAT
  1
GRIDFORMAT_BEGIN
 90
        0
 91
        1
 62
     0
 92
       -2
340
0
 93
        0
 40
0.045
309
GRIDFORMAT_END
309
TABLEFORMAT_END
  1
CELLSTYLE_BEGIN
 90
        2
 91
        1
300
_HEADER
309
CELLSTYLE_END
300
CELLSTYLE
  1
TABLEFORMAT_BEGIN
 90
        5
170
     1
 91
        0
 92
        0
 62
   257
 93
        1
300
CONTENTFORMAT
  1
CONTENTFORMAT_BEGIN
 90
        0
 91
        0
 92
      512
 93
        0
300

 40
0.0
140
1.0
 94
        2
 62
     0
340
11
144
0.18
309
CONTENTFORMAT_END
171
     1
301
MARGIN
  1
CELLMARGIN_BEGIN
 40
0.06
 40
0.06
 40
0.06
 40
0.06
 40
0.18
 40
0.18
309
CELLMARGIN_END
 94
        6
 95
        1
302
GRIDFORMAT
  1
GRIDFORMAT_BEGIN
 90
        0
 91
        1
 62
     0
 92
       -2
340
0
 93
        0
 40
0.045
309
GRIDFORMAT_END
 95
        2
302
GRIDFORMAT
  1
GRIDFORMAT_BEGIN
 90
        0
 91
        1
 62
     0
 92
       -2
340
0
 93
        0
 40
0.045
309
GRIDFORMAT_END
 95
        4
302
GRIDFORMAT
  1
GRIDFORMAT_BEGIN
 90
        0
 91
        1
 62
     0
 92
       -2
340
0
 93
        0
 40
0.045
309
GRIDFORMAT_END
 95
        8
302
GRIDFORMAT
  1
GRIDFORMAT_BEGIN
 90
        0
 91
        1
 62
     0
 92
       -2
340
0
 93
        0
 40
0.045
309
GRIDFORMAT_END
 95
       16
302
GRIDFORMAT
  1
GRIDFORMAT_BEGIN
 90
        0
 91
        1
 62
     0
 92
       -2
340
0
 93
        0
 40
0.045
309
GRIDFORMAT_END
 95
       32
302
GRIDFORMAT
  1
GRIDFORMAT_BEGIN
 90
        0
 91
        1
 62
     0
 92
       -2
340
0
 93
        0
 40
0.045
309
GRIDFORMAT_END
309
TABLEFORMAT_END
  1
CELLSTYLE_BEGIN
 90
        3
 91
        2
300
_DATA
309
CELLSTYLE_END
  0
XRECORD
  5
4013
102
{ACAD_REACTORS
330
104
102
}
330
104
100
AcDbXrecord
280
     1
102
ACAD_ROUNDTRIP_PRE2007_TABLESTYLE
 90
      512
 91
        0
  1

 92
      512
 93
        0
  2

 94
      512
 95
        0
  3

  0
XRECORD
  5
4022
102
{ACAD_REACTORS
330
4021
102
}
330
4021
100
AcDbXrecord
280
     1
102
RTVSPost2010Prop28
280
     1
102
RTVSPost2010PropOp28
 70
     1
102
RTVSPost2010Prop29
280
     1
102
RTVSPost2010PropOp29
 70
     1
102
RTVSPost2010Prop30
280
     0
102
RTVSPost2010PropOp30
 70
     1
102
RTVSPost2010Prop31
280
     0
102
RTVSPost2010PropOp31
 70
     1
102
RTVSPost2010Prop32
280
     0
102
RTVSPost2010PropOp32
 70
     1
102
RTVSPost2010Prop33
280
     0
102
RTVSPost2010PropOp33
 70
     1
102
RTVSPost2010Prop34
280
     0
102
RTVSPost2010PropOp34
 70
     1
102
RTVSPost2010Prop35
280
     0
102
RTVSPost2010PropOp35
 70
     1
102
RTVSPost2010Prop36
280
     0
102
RTVSPost2010PropOp36
 70
     1
102
RTVSPost2010Prop37
 90
       50
102
RTVSPost2010PropOp37
 70
     1
102
RTVSPost2010Prop38
140
0.0
102
RTVSPost2010PropOp38
 70
     1
102
RTVSPost2010Prop39
140
1.0
102
RTVSPost2010PropOp39
 70
     1
102
RTVSPost2010Prop40
 90
        0
102
RTVSPost2010PropOp40
 70
     1
102
RTVSPost2010Prop41ColorIndex
 90
       18
102
RTVSPost2010Prop41ColorRGB
 90
        0
102
RTVSPost2010PropOp41
 70
     1
102
RTVSPost2010Prop42
 90
       50
102
RTVSPost2010PropOp42
 70
     1
102
RTVSPost2010Prop43
 90
        3
102
RTVSPost2010PropOp43
 70
     1
102
RTVSPost2010Prop44ColorIndex
 90
        5
102
RTVSPost2010Prop44ColorRGB
 90
      255
102
RTVSPost2010PropOp44
 70
     1
102
RTVSPost2010Prop45
280
     0
102
RTVSPost2010PropOp45
 70
     1
102
RTVSPost2010Prop46
 90
       50
102
RTVSPost2010PropOp46
 70
     1
102
RTVSPost2010Prop47
 90
       50
102
RTVSPost2010PropOp47
 70
     1
102
RTVSPost2010Prop48
 90
       50
102
RTVSPost2010PropOp48
 70
     1
102
RTVSPost2010Prop49
280
     0
102
RTVSPost2010PropOp49
 70
     1
102
RTVSPost2010Prop50
 90
       50
102
RTVSPost2010PropOp50
 70
     1
102
RTVSPost2010Prop51ColorIndex
 90
      256
102
RTVSPost2010Prop51ColorRGB
 90
-16777216
102
RTVSPost2010PropOp51
 70
     0
102
RTVSPost2010Prop52
140
1.0
102
RTVSPost2010PropOp52
 70
     0
102
RTVSPost2010Prop53
 90
        2
102
RTVSPost2010PropOp53
 70
     1
102
RTVSPost2010Prop54
  1
strokes_ogs.tif
102
RTVSPost2010PropOp54
 70
     1
102
RTVSPost2010Prop55
280
     0
102
RTVSPost2010PropOp55
 70
     1
102
RTVSPost2010Prop56
140
1.0
102
RTVSPost2010PropOp56
 70
     1
102
RTVSPost2010Prop57
140
1.0
102
RTVSPost2010PropOp57
 70
     1
102
RTVSPropertyOp0
 70
     1
102
RTVSPropertyOp1
 70
     1
102
RTVSPropertyOp2
 70
     1
102
RTVSPropertyOp3
 70
     1
102
RTVSPropertyOp4
 70
     1
102
RTVSPropertyOp5
 70
     1
102
RTVSPropertyOp6
 70
     1
102
RTVSPropertyOp7
 70
     1
102
RTVSPropertyOp8
 70
     1
102
RTVSPropertyOp9
 70
     1
102
RTVSPropertyOp10
 70
     1
102
RTVSPropertyOp11
 70
     1
102
RTVSPropertyOp12
 70
     1
102
RTVSPropertyOp13
 70
     1
102
RTVSPropertyOp14
 70
     1
102
RTVSPropertyOp15
 70
     1
102
RTVSPropertyOp16
 70
     1
102
RTVSPropertyOp17
 70
     1
102
RTVSPropertyOp18
 70
     1
102
RTVSPropertyOp19
 70
     1
102
RTVSPropertyOp20
 70
     1
102
RTVSPropertyOp21
 70
     1
102
RTVSPropertyOp22
 70
     1
102
RTVSPropertyOp23
 70
     1
102
RTVSPropertyOp24
 70
     1
102
RTVSPropertyOp25
 70
     1
102
RTVSPropertyOp26
 70
     1
102
RTVSPropertyOp27
 70
     1
102
RTVSPropertyOp28
 70
     1
102
RTVSPropertyOp29
 70
     1
102
RTVSPropertyOp30
 70
     1
102
RTVSPropertyOp31
 70
     1
102
RTVSPropertyOp32
 70
     1
102
RTVSPropertyOp33
 70
     1
102
RTVSPropertyOp34
 70
     1
102
RTVSPropertyOp35
 70
     1
102
RTVSPropertyOp36
 70
     1
102
RTVSPropertyOp37
 70
     1
102
RTVSPropertyOp38
 70
     1
102
RTVSPropertyOp39
 70
     1
102
RTVSPropertyOp40
 70
     1
102
RTVSPropertyOp41
 70
     1
102
RTVSPropertyOp42
 70
     1
102
RTVSPropertyOp43
 70
     1
102
RTVSPropertyOp44
 70
     1
102
RTVSPropertyOp45
 70
     1
102
RTVSPropertyOp46
 70
     1
102
RTVSPropertyOp47
 70
     1
102
RTVSPropertyOp48
 70
     1
102
RTVSPropertyOp49
 70
     1
102
RTVSPropertyOp50
 70
     1
102
RTVSPropertyOp51
 70
     0
102
RTVSPropertyOp52
 70
     0
102
RTVSPropertyOp53
 70
     1
102
RTVSPropertyOp54
 70
     1
102
RTVSPropertyOp55
 70
     1
102
RTVSPropertyOp56
 70
     1
102
RTVSPropertyOp57
 70
     1
102
RTVSPropertyOp58
 70
     1
102
RTVSPropertyOp59
 70
     1
102
RTVSPropertyOp60
 70
     1
102
RTVSPropertyOp61
 70
     1
102
RTVSPropertyOp62
 70
     1
  0
XRECORD
  5
4020
102
{ACAD_REACTORS
330
401F
102
}
330
401F
100
AcDbXrecord
280
     1
102
RTVSPost2010Prop28
280
     0
102
RTVSPost2010PropOp28
 70
     1
102
RTVSPost2010Prop29
280
     1
102
RTVSPost2010PropOp29
 70
     1
102
RTVSPost2010Prop30
280
     1
102
RTVSPost2010PropOp30
 70
     1
102
RTVSPost2010Prop31
280
     0
102
RTVSPost2010PropOp31
 70
     1
102
RTVSPost2010Prop32
280
     0
102
RTVSPost2010PropOp32
 70
     1
102
RTVSPost2010Prop33
280
     0
102
RTVSPost2010PropOp33
 70
     1
102
RTVSPost2010Prop34
280
     0
102
RTVSPost2010PropOp34
 70
     1
102
RTVSPost2010Prop35
280
     0
102
RTVSPost2010PropOp35
 70
     1
102
RTVSPost2010Prop36
280
     0
102
RTVSPost2010PropOp36
 70
     1
102
RTVSPost2010Prop37
 90
       50
102
RTVSPost2010PropOp37
 70
     1
102
RTVSPost2010Prop38
140
0.0
102
RTVSPost2010PropOp38
 70
     1
102
RTVSPost2010Prop39
140
1.0
102
RTVSPost2010PropOp39
 70
     1
102
RTVSPost2010Prop40
 90
        0
102
RTVSPost2010PropOp40
 70
     1
102
RTVSPost2010Prop41ColorIndex
 90
       18
102
RTVSPost2010Prop41ColorRGB
 90
        0
102
RTVSPost2010PropOp41
 70
     1
102
RTVSPost2010Prop42
 90
       50
102
RTVSPost2010PropOp42
 70
     1
102
RTVSPost2010Prop43
 90
        3
102
RTVSPost2010PropOp43
 70
     1
102
RTVSPost2010Prop44ColorIndex
 90
        5
102
RTVSPost2010Prop44ColorRGB
 90
      255
102
RTVSPost2010PropOp44
 70
     1
102
RTVSPost2010Prop45
280
     0
102
RTVSPost2010PropOp45
 70
     1
102
RTVSPost2010Prop46
 90
       50
102
RTVSPost2010PropOp46
 70
     1
102
RTVSPost2010Prop47
 90
       50
102
RTVSPost2010PropOp47
 70
     1
102
RTVSPost2010Prop48
 90
       50
102
RTVSPost2010PropOp48
 70
     1
102
RTVSPost2010Prop49
280
     0
102
RTVSPost2010PropOp49
 70
     1
102
RTVSPost2010Prop50
 90
       50
102
RTVSPost2010PropOp50
 70
     1
102
RTVSPost2010Prop51ColorIndex
 90
      256
102
RTVSPost2010Prop51ColorRGB
 90
-16777216
102
RTVSPost2010PropOp51
 70
     0
102
RTVSPost2010Prop52
140
1.0
102
RTVSPost2010PropOp52
 70
     0
102
RTVSPost2010Prop53
 90
        2
102
RTVSPost2010PropOp53
 70
     1
102
RTVSPost2010Prop54
  1
strokes_ogs.tif
102
RTVSPost2010PropOp54
 70
     1
102
RTVSPost2010Prop55
280
     0
102
RTVSPost2010PropOp55
 70
     1
102
RTVSPost2010Prop56
140
1.0
102
RTVSPost2010PropOp56
 70
     1
102
RTVSPost2010Prop57
140
1.0
102
RTVSPost2010PropOp57
 70
     1
102
RTVSPropertyOp0
 70
     1
102
RTVSPropertyOp1
 70
     1
102
RTVSPropertyOp2
 70
     1
102
RTVSPropertyOp3
 70
     1
102
RTVSPropertyOp4
 70
     1
102
RTVSPropertyOp5
 70
     1
102
RTVSPropertyOp6
 70
     1
102
RTVSPropertyOp7
 70
     1
102
RTVSPropertyOp8
 70
     1
102
RTVSPropertyOp9
 70
     1
102
RTVSPropertyOp10
 70
     1
102
RTVSPropertyOp11
 70
     1
102
RTVSPropertyOp12
 70
     1
102
RTVSPropertyOp13
 70
     1
102
RTVSPropertyOp14
 70
     1
102
RTVSPropertyOp15
 70
     1
102
RTVSPropertyOp16
 70
     1
102
RTVSPropertyOp17
 70
     1
102
RTVSPropertyOp18
 70
     1
102
RTVSPropertyOp19
 70
     1
102
RTVSPropertyOp20
 70
     1
102
RTVSPropertyOp21
 70
     1
102
RTVSPropertyOp22
 70
     1
102
RTVSPropertyOp23
 70
     1
102
RTVSPropertyOp24
 70
     1
102
RTVSPropertyOp25
 70
     1
102
RTVSPropertyOp26
 70
     1
102
RTVSPropertyOp27
 70
     1
102
RTVSPropertyOp28
 70
     1
102
RTVSPropertyOp29
 70
     1
102
RTVSPropertyOp30
 70
     1
102
RTVSPropertyOp31
 70
     1
102
RTVSPropertyOp32
 70
     1
102
RTVSPropertyOp33
 70
     1
102
RTVSPropertyOp34
 70
     1
102
RTVSPropertyOp35
 70
     1
102
RTVSPropertyOp36
 70
     1
102
RTVSPropertyOp37
 70
     1
102
RTVSPropertyOp38
 70
     1
102
RTVSPropertyOp39
 70
     1
102
RTVSPropertyOp40
 70
     1
102
RTVSPropertyOp41
 70
     1
102
RTVSPropertyOp42
 70
     1
102
RTVSPropertyOp43
 70
     1
102
RTVSPropertyOp44
 70
     1
102
RTVSPropertyOp45
 70
     1
102
RTVSPropertyOp46
 70
     1
102
RTVSPropertyOp47
 70
     1
102
RTVSPropertyOp48
 70
     1
102
RTVSPropertyOp49
 70
     1
102
RTVSPropertyOp50
 70
     1
102
RTVSPropertyOp51
 70
     0
102
RTVSPropertyOp52
 70
     0
102
RTVSPropertyOp53
 70
     1
102
RTVSPropertyOp54
 70
     1
102
RTVSPropertyOp55
 70
     1
102
RTVSPropertyOp56
 70
     1
102
RTVSPropertyOp57
 70
     1
102
RTVSPropertyOp58
 70
     1
102
RTVSPropertyOp59
 70
     1
102
RTVSPropertyOp60
 70
     1
102
RTVSPropertyOp61
 70
     1
102
RTVSPropertyOp62
 70
     1
  0
XRECORD
  5
402E
102
{ACAD_REACTORS
330
402D
102
}
330
402D
100
AcDbXrecord
280
     1
102
RTVSPost2010Prop28
280
     0
102
RTVSPost2010PropOp28
 70
     1
102
RTVSPost2010Prop29
280
     1
102
RTVSPost2010PropOp29
 70
     1
102
RTVSPost2010Prop30
280
     1
102
RTVSPost2010PropOp30
 70
     1
102
RTVSPost2010Prop31
280
     0
102
RTVSPost2010PropOp31
 70
     1
102
RTVSPost2010Prop32
280
     0
102
RTVSPost2010PropOp32
 70
     1
102
RTVSPost2010Prop33
280
     0
102
RTVSPost2010PropOp33
 70
     1
102
RTVSPost2010Prop34
280
     0
102
RTVSPost2010PropOp34
 70
     1
102
RTVSPost2010Prop35
280
     0
102
RTVSPost2010PropOp35
 70
     1
102
RTVSPost2010Prop36
280
     0
102
RTVSPost2010PropOp36
 70
     1
102
RTVSPost2010Prop37
 90
       50
102
RTVSPost2010PropOp37
 70
     1
102
RTVSPost2010Prop38
140
0.0
102
RTVSPost2010PropOp38
 70
     1
102
RTVSPost2010Prop39
140
1.0
102
RTVSPost2010PropOp39
 70
     1
102
RTVSPost2010Prop40
 90
        0
102
RTVSPost2010PropOp40
 70
     1
102
RTVSPost2010Prop41ColorIndex
 90
       18
102
RTVSPost2010Prop41ColorRGB
 90
        0
102
RTVSPost2010PropOp41
 70
     1
102
RTVSPost2010Prop42
 90
       50
102
RTVSPost2010PropOp42
 70
     1
102
RTVSPost2010Prop43
 90
        3
102
RTVSPost2010PropOp43
 70
     1
102
RTVSPost2010Prop44ColorIndex
 90
        5
102
RTVSPost2010Prop44ColorRGB
 90
      255
102
RTVSPost2010PropOp44
 70
     1
102
RTVSPost2010Prop45
280
     0
102
RTVSPost2010PropOp45
 70
     1
102
RTVSPost2010Prop46
 90
       50
102
RTVSPost2010PropOp46
 70
     1
102
RTVSPost2010Prop47
 90
       50
102
RTVSPost2010PropOp47
 70
     1
102
RTVSPost2010Prop48
 90
       50
102
RTVSPost2010PropOp48
 70
     1
102
RTVSPost2010Prop49
280
     0
102
RTVSPost2010PropOp49
 70
     1
102
RTVSPost2010Prop50
 90
       50
102
RTVSPost2010PropOp50
 70
     1
102
RTVSPost2010Prop51ColorIndex
 90
      256
102
RTVSPost2010Prop51ColorRGB
 90
-16777216
102
RTVSPost2010PropOp51
 70
     0
102
RTVSPost2010Prop52
140
1.0
102
RTVSPost2010PropOp52
 70
     0
102
RTVSPost2010Prop53
 90
        2
102
RTVSPost2010PropOp53
 70
     1
102
RTVSPost2010Prop54
  1
strokes_ogs.tif
102
RTVSPost2010PropOp54
 70
     1
102
RTVSPost2010Prop55
280
     0
102
RTVSPost2010PropOp55
 70
     1
102
RTVSPost2010Prop56
140
1.0
102
RTVSPost2010PropOp56
 70
     1
102
RTVSPost2010Prop57
140
1.0
102
RTVSPost2010PropOp57
 70
     1
102
RTVSPropertyOp0
 70
     1
102
RTVSPropertyOp1
 70
     1
102
RTVSPropertyOp2
 70
     1
102
RTVSPropertyOp3
 70
     1
102
RTVSPropertyOp4
 70
     1
102
RTVSPropertyOp5
 70
     1
102
RTVSPropertyOp6
 70
     1
102
RTVSPropertyOp7
 70
     1
102
RTVSPropertyOp8
 70
     1
102
RTVSPropertyOp9
 70
     1
102
RTVSPropertyOp10
 70
     1
102
RTVSPropertyOp11
 70
     1
102
RTVSPropertyOp12
 70
     1
102
RTVSPropertyOp13
 70
     1
102
RTVSPropertyOp14
 70
     1
102
RTVSPropertyOp15
 70
     1
102
RTVSPropertyOp16
 70
     1
102
RTVSPropertyOp17
 70
     1
102
RTVSPropertyOp18
 70
     1
102
RTVSPropertyOp19
 70
     1
102
RTVSPropertyOp20
 70
     1
102
RTVSPropertyOp21
 70
     1
102
RTVSPropertyOp22
 70
     1
102
RTVSPropertyOp23
 70
     1
102
RTVSPropertyOp24
 70
     1
102
RTVSPropertyOp25
 70
     1
102
RTVSPropertyOp26
 70
     1
102
RTVSPropertyOp27
 70
     1
102
RTVSPropertyOp28
 70
     1
102
RTVSPropertyOp29
 70
     1
102
RTVSPropertyOp30
 70
     1
102
RTVSPropertyOp31
 70
     1
102
RTVSPropertyOp32
 70
     1
102
RTVSPropertyOp33
 70
     1
102
RTVSPropertyOp34
 70
     1
102
RTVSPropertyOp35
 70
     1
102
RTVSPropertyOp36
 70
     1
102
RTVSPropertyOp37
 70
     1
102
RTVSPropertyOp38
 70
     1
102
RTVSPropertyOp39
 70
     1
102
RTVSPropertyOp40
 70
     1
102
RTVSPropertyOp41
 70
     1
102
RTVSPropertyOp42
 70
     1
102
RTVSPropertyOp43
 70
     1
102
RTVSPropertyOp44
 70
     1
102
RTVSPropertyOp45
 70
     1
102
RTVSPropertyOp46
 70
     1
102
RTVSPropertyOp47
 70
     1
102
RTVSPropertyOp48
 70
     1
102
RTVSPropertyOp49
 70
     1
102
RTVSPropertyOp50
 70
     1
102
RTVSPropertyOp51
 70
     0
102
RTVSPropertyOp52
 70
     0
102
RTVSPropertyOp53
 70
     1
102
RTVSPropertyOp54
 70
     1
102
RTVSPropertyOp55
 70
     1
102
RTVSPropertyOp56
 70
     1
102
RTVSPropertyOp57
 70
     1
102
RTVSPropertyOp58
 70
     1
102
RTVSPropertyOp59
 70
     1
102
RTVSPropertyOp60
 70
     1
102
RTVSPropertyOp61
 70
     1
102
RTVSPropertyOp62
 70
     1
  0
XRECORD
  5
4036
102
{ACAD_REACTORS
330
4035
102
}
330
4035
100
AcDbXrecord
280
     1
102
RTVSPost2010Prop28
280
     0
102
RTVSPost2010PropOp28
 70
     1
102
RTVSPost2010Prop29
280
     1
102
RTVSPost2010PropOp29
 70
     1
102
RTVSPost2010Prop30
280
     1
102
RTVSPost2010PropOp30
 70
     1
102
RTVSPost2010Prop31
280
     0
102
RTVSPost2010PropOp31
 70
     1
102
RTVSPost2010Prop32
280
     0
102
RTVSPost2010PropOp32
 70
     1
102
RTVSPost2010Prop33
280
     0
102
RTVSPost2010PropOp33
 70
     1
102
RTVSPost2010Prop34
280
     0
102
RTVSPost2010PropOp34
 70
     1
102
RTVSPost2010Prop35
280
     0
102
RTVSPost2010PropOp35
 70
     1
102
RTVSPost2010Prop36
280
     0
102
RTVSPost2010PropOp36
 70
     1
102
RTVSPost2010Prop37
 90
       50
102
RTVSPost2010PropOp37
 70
     1
102
RTVSPost2010Prop38
140
0.0
102
RTVSPost2010PropOp38
 70
     1
102
RTVSPost2010Prop39
140
1.0
102
RTVSPost2010PropOp39
 70
     1
102
RTVSPost2010Prop40
 90
        0
102
RTVSPost2010PropOp40
 70
     1
102
RTVSPost2010Prop41ColorIndex
 90
       18
102
RTVSPost2010Prop41ColorRGB
 90
        0
102
RTVSPost2010PropOp41
 70
     1
102
RTVSPost2010Prop42
 90
       50
102
RTVSPost2010PropOp42
 70
     1
102
RTVSPost2010Prop43
 90
        3
102
RTVSPost2010PropOp43
 70
     1
102
RTVSPost2010Prop44ColorIndex
 90
        5
102
RTVSPost2010Prop44ColorRGB
 90
      255
102
RTVSPost2010PropOp44
 70
     1
102
RTVSPost2010Prop45
280
     0
102
RTVSPost2010PropOp45
 70
     1
102
RTVSPost2010Prop46
 90
       50
102
RTVSPost2010PropOp46
 70
     1
102
RTVSPost2010Prop47
 90
       50
102
RTVSPost2010PropOp47
 70
     1
102
RTVSPost2010Prop48
 90
       50
102
RTVSPost2010PropOp48
 70
     1
102
RTVSPost2010Prop49
280
     0
102
RTVSPost2010PropOp49
 70
     1
102
RTVSPost2010Prop50
 90
       50
102
RTVSPost2010PropOp50
 70
     1
102
RTVSPost2010Prop51ColorIndex
 90
      256
102
RTVSPost2010Prop51ColorRGB
 90
-16777216
102
RTVSPost2010PropOp51
 70
     0
102
RTVSPost2010Prop52
140
1.0
102
RTVSPost2010PropOp52
 70
     0
102
RTVSPost2010Prop53
 90
        2
102
RTVSPost2010PropOp53
 70
     1
102
RTVSPost2010Prop54
  1
strokes_ogs.tif
102
RTVSPost2010PropOp54
 70
     1
102
RTVSPost2010Prop55
280
     0
102
RTVSPost2010PropOp55
 70
     1
102
RTVSPost2010Prop56
140
1.0
102
RTVSPost2010PropOp56
 70
     1
102
RTVSPost2010Prop57
140
1.0
102
RTVSPost2010PropOp57
 70
     1
102
RTVSPropertyOp0
 70
     1
102
RTVSPropertyOp1
 70
     1
102
RTVSPropertyOp2
 70
     1
102
RTVSPropertyOp3
 70
     1
102
RTVSPropertyOp4
 70
     1
102
RTVSPropertyOp5
 70
     1
102
RTVSPropertyOp6
 70
     1
102
RTVSPropertyOp7
 70
     1
102
RTVSPropertyOp8
 70
     1
102
RTVSPropertyOp9
 70
     1
102
RTVSPropertyOp10
 70
     1
102
RTVSPropertyOp11
 70
     1
102
RTVSPropertyOp12
 70
     1
102
RTVSPropertyOp13
 70
     1
102
RTVSPropertyOp14
 70
     1
102
RTVSPropertyOp15
 70
     1
102
RTVSPropertyOp16
 70
     1
102
RTVSPropertyOp17
 70
     1
102
RTVSPropertyOp18
 70
     1
102
RTVSPropertyOp19
 70
     1
102
RTVSPropertyOp20
 70
     1
102
RTVSPropertyOp21
 70
     1
102
RTVSPropertyOp22
 70
     1
102
RTVSPropertyOp23
 70
     1
102
RTVSPropertyOp24
 70
     1
102
RTVSPropertyOp25
 70
     1
102
RTVSPropertyOp26
 70
     1
102
RTVSPropertyOp27
 70
     1
102
RTVSPropertyOp28
 70
     1
102
RTVSPropertyOp29
 70
     1
102
RTVSPropertyOp30
 70
     1
102
RTVSPropertyOp31
 70
     1
102
RTVSPropertyOp32
 70
     1
102
RTVSPropertyOp33
 70
     1
102
RTVSPropertyOp34
 70
     1
102
RTVSPropertyOp35
 70
     1
102
RTVSPropertyOp36
 70
     1
102
RTVSPropertyOp37
 70
     1
102
RTVSPropertyOp38
 70
     1
102
RTVSPropertyOp39
 70
     1
102
RTVSPropertyOp40
 70
     1
102
RTVSPropertyOp41
 70
     1
102
RTVSPropertyOp42
 70
     1
102
RTVSPropertyOp43
 70
     1
102
RTVSPropertyOp44
 70
     1
102
RTVSPropertyOp45
 70
     1
102
RTVSPropertyOp46
 70
     1
102
RTVSPropertyOp47
 70
     1
102
RTVSPropertyOp48
 70
     1
102
RTVSPropertyOp49
 70
     1
102
RTVSPropertyOp50
 70
     1
102
RTVSPropertyOp51
 70
     0
102
RTVSPropertyOp52
 70
     0
102
RTVSPropertyOp53
 70
     1
102
RTVSPropertyOp54
 70
     1
102
RTVSPropertyOp55
 70
     1
102
RTVSPropertyOp56
 70
     1
102
RTVSPropertyOp57
 70
     1
102
RTVSPropertyOp58
 70
     1
102
RTVSPropertyOp59
 70
     1
102
RTVSPropertyOp60
 70
     1
102
RTVSPropertyOp61
 70
     1
102
RTVSPropertyOp62
 70
     1
  0
XRECORD
  5
4028
102
{ACAD_REACTORS
330
4027
102
}
330
4027
100
AcDbXrecord
280
     1
102
RTVSPost2010Prop28
280
     0
102
RTVSPost2010PropOp28
 70
     1
102
RTVSPost2010Prop29
280
     1
102
RTVSPost2010PropOp29
 70
     1
102
RTVSPost2010Prop30
280
     1
102
RTVSPost2010PropOp30
 70
     1
102
RTVSPost2010Prop31
280
     0
102
RTVSPost2010PropOp31
 70
     1
102
RTVSPost2010Prop32
280
     0
102
RTVSPost2010PropOp32
 70
     1
102
RTVSPost2010Prop33
280
     0
102
RTVSPost2010PropOp33
 70
     1
102
RTVSPost2010Prop34
280
     0
102
RTVSPost2010PropOp34
 70
     1
102
RTVSPost2010Prop35
280
     0
102
RTVSPost2010PropOp35
 70
     1
102
RTVSPost2010Prop36
280
     0
102
RTVSPost2010PropOp36
 70
     1
102
RTVSPost2010Prop37
 90
       50
102
RTVSPost2010PropOp37
 70
     1
102
RTVSPost2010Prop38
140
0.0
102
RTVSPost2010PropOp38
 70
     1
102
RTVSPost2010Prop39
140
1.0
102
RTVSPost2010PropOp39
 70
     1
102
RTVSPost2010Prop40
 90
        0
102
RTVSPost2010PropOp40
 70
     1
102
RTVSPost2010Prop41ColorIndex
 90
       18
102
RTVSPost2010Prop41ColorRGB
 90
        0
102
RTVSPost2010PropOp41
 70
     1
102
RTVSPost2010Prop42
 90
       50
102
RTVSPost2010PropOp42
 70
     1
102
RTVSPost2010Prop43
 90
        3
102
RTVSPost2010PropOp43
 70
     1
102
RTVSPost2010Prop44ColorIndex
 90
        5
102
RTVSPost2010Prop44ColorRGB
 90
      255
102
RTVSPost2010PropOp44
 70
     1
102
RTVSPost2010Prop45
280
     0
102
RTVSPost2010PropOp45
 70
     1
102
RTVSPost2010Prop46
 90
       50
102
RTVSPost2010PropOp46
 70
     1
102
RTVSPost2010Prop47
 90
       50
102
RTVSPost2010PropOp47
 70
     1
102
RTVSPost2010Prop48
 90
       50
102
RTVSPost2010PropOp48
 70
     1
102
RTVSPost2010Prop49
280
     0
102
RTVSPost2010PropOp49
 70
     1
102
RTVSPost2010Prop50
 90
       50
102
RTVSPost2010PropOp50
 70
     1
102
RTVSPost2010Prop51ColorIndex
 90
      256
102
RTVSPost2010Prop51ColorRGB
 90
-16777216
102
RTVSPost2010PropOp51
 70
     0
102
RTVSPost2010Prop52
140
1.0
102
RTVSPost2010PropOp52
 70
     0
102
RTVSPost2010Prop53
 90
        2
102
RTVSPost2010PropOp53
 70
     1
102
RTVSPost2010Prop54
  1
strokes_ogs.tif
102
RTVSPost2010PropOp54
 70
     1
102
RTVSPost2010Prop55
280
     0
102
RTVSPost2010PropOp55
 70
     1
102
RTVSPost2010Prop56
140
1.0
102
RTVSPost2010PropOp56
 70
     1
102
RTVSPost2010Prop57
140
1.0
102
RTVSPost2010PropOp57
 70
     1
102
RTVSPropertyOp0
 70
     1
102
RTVSPropertyOp1
 70
     1
102
RTVSPropertyOp2
 70
     1
102
RTVSPropertyOp3
 70
     1
102
RTVSPropertyOp4
 70
     1
102
RTVSPropertyOp5
 70
     1
102
RTVSPropertyOp6
 70
     1
102
RTVSPropertyOp7
 70
     1
102
RTVSPropertyOp8
 70
     1
102
RTVSPropertyOp9
 70
     1
102
RTVSPropertyOp10
 70
     1
102
RTVSPropertyOp11
 70
     1
102
RTVSPropertyOp12
 70
     1
102
RTVSPropertyOp13
 70
     1
102
RTVSPropertyOp14
 70
     1
102
RTVSPropertyOp15
 70
     1
102
RTVSPropertyOp16
 70
     1
102
RTVSPropertyOp17
 70
     1
102
RTVSPropertyOp18
 70
     1
102
RTVSPropertyOp19
 70
     1
102
RTVSPropertyOp20
 70
     1
102
RTVSPropertyOp21
 70
     1
102
RTVSPropertyOp22
 70
     1
102
RTVSPropertyOp23
 70
     1
102
RTVSPropertyOp24
 70
     1
102
RTVSPropertyOp25
 70
     1
102
RTVSPropertyOp26
 70
     1
102
RTVSPropertyOp27
 70
     1
102
RTVSPropertyOp28
 70
     1
102
RTVSPropertyOp29
 70
     1
102
RTVSPropertyOp30
 70
     1
102
RTVSPropertyOp31
 70
     1
102
RTVSPropertyOp32
 70
     1
102
RTVSPropertyOp33
 70
     1
102
RTVSPropertyOp34
 70
     1
102
RTVSPropertyOp35
 70
     1
102
RTVSPropertyOp36
 70
     1
102
RTVSPropertyOp37
 70
     1
102
RTVSPropertyOp38
 70
     1
102
RTVSPropertyOp39
 70
     1
102
RTVSPropertyOp40
 70
     1
102
RTVSPropertyOp41
 70
     1
102
RTVSPropertyOp42
 70
     1
102
RTVSPropertyOp43
 70
     1
102
RTVSPropertyOp44
 70
     1
102
RTVSPropertyOp45
 70
     1
102
RTVSPropertyOp46
 70
     1
102
RTVSPropertyOp47
 70
     1
102
RTVSPropertyOp48
 70
     1
102
RTVSPropertyOp49
 70
     1
102
RTVSPropertyOp50
 70
     1
102
RTVSPropertyOp51
 70
     0
102
RTVSPropertyOp52
 70
     0
102
RTVSPropertyOp53
 70
     1
102
RTVSPropertyOp54
 70
     1
102
RTVSPropertyOp55
 70
     1
102
RTVSPropertyOp56
 70
     1
102
RTVSPropertyOp57
 70
     1
102
RTVSPropertyOp58
 70
     1
102
RTVSPropertyOp59
 70
     1
102
RTVSPropertyOp60
 70
     1
102
RTVSPropertyOp61
 70
     1
102
RTVSPropertyOp62
 70
     1
  0
XRECORD
  5
402C
102
{ACAD_REACTORS
330
402B
102
}
330
402B
100
AcDbXrecord
280
     1
102
RTVSPost2010Prop28
280
     0
102
RTVSPost2010PropOp28
 70
     1
102
RTVSPost2010Prop29
280
     1
102
RTVSPost2010PropOp29
 70
     1
102
RTVSPost2010Prop30
280
     1
102
RTVSPost2010PropOp30
 70
     1
102
RTVSPost2010Prop31
280
     0
102
RTVSPost2010PropOp31
 70
     1
102
RTVSPost2010Prop32
280
     0
102
RTVSPost2010PropOp32
 70
     1
102
RTVSPost2010Prop33
280
     0
102
RTVSPost2010PropOp33
 70
     1
102
RTVSPost2010Prop34
280
     0
102
RTVSPost2010PropOp34
 70
     1
102
RTVSPost2010Prop35
280
     0
102
RTVSPost2010PropOp35
 70
     1
102
RTVSPost2010Prop36
280
     0
102
RTVSPost2010PropOp36
 70
     1
102
RTVSPost2010Prop37
 90
       50
102
RTVSPost2010PropOp37
 70
     1
102
RTVSPost2010Prop38
140
0.0
102
RTVSPost2010PropOp38
 70
     1
102
RTVSPost2010Prop39
140
1.0
102
RTVSPost2010PropOp39
 70
     1
102
RTVSPost2010Prop40
 90
        0
102
RTVSPost2010PropOp40
 70
     1
102
RTVSPost2010Prop41ColorIndex
 90
       18
102
RTVSPost2010Prop41ColorRGB
 90
        0
102
RTVSPost2010PropOp41
 70
     1
102
RTVSPost2010Prop42
 90
       50
102
RTVSPost2010PropOp42
 70
     1
102
RTVSPost2010Prop43
 90
        3
102
RTVSPost2010PropOp43
 70
     1
102
RTVSPost2010Prop44ColorIndex
 90
        5
102
RTVSPost2010Prop44ColorRGB
 90
      255
102
RTVSPost2010PropOp44
 70
     1
102
RTVSPost2010Prop45
280
     0
102
RTVSPost2010PropOp45
 70
     1
102
RTVSPost2010Prop46
 90
       50
102
RTVSPost2010PropOp46
 70
     1
102
RTVSPost2010Prop47
 90
       50
102
RTVSPost2010PropOp47
 70
     1
102
RTVSPost2010Prop48
 90
       50
102
RTVSPost2010PropOp48
 70
     1
102
RTVSPost2010Prop49
280
     0
102
RTVSPost2010PropOp49
 70
     1
102
RTVSPost2010Prop50
 90
       50
102
RTVSPost2010PropOp50
 70
     1
102
RTVSPost2010Prop51ColorIndex
 90
      256
102
RTVSPost2010Prop51ColorRGB
 90
-16777216
102
RTVSPost2010PropOp51
 70
     0
102
RTVSPost2010Prop52
140
1.0
102
RTVSPost2010PropOp52
 70
     0
102
RTVSPost2010Prop53
 90
        2
102
RTVSPost2010PropOp53
 70
     1
102
RTVSPost2010Prop54
  1
strokes_ogs.tif
102
RTVSPost2010PropOp54
 70
     1
102
RTVSPost2010Prop55
280
     0
102
RTVSPost2010PropOp55
 70
     1
102
RTVSPost2010Prop56
140
1.0
102
RTVSPost2010PropOp56
 70
     1
102
RTVSPost2010Prop57
140
1.0
102
RTVSPost2010PropOp57
 70
     1
102
RTVSPropertyOp0
 70
     1
102
RTVSPropertyOp1
 70
     1
102
RTVSPropertyOp2
 70
     1
102
RTVSPropertyOp3
 70
     1
102
RTVSPropertyOp4
 70
     1
102
RTVSPropertyOp5
 70
     1
102
RTVSPropertyOp6
 70
     1
102
RTVSPropertyOp7
 70
     1
102
RTVSPropertyOp8
 70
     1
102
RTVSPropertyOp9
 70
     1
102
RTVSPropertyOp10
 70
     1
102
RTVSPropertyOp11
 70
     1
102
RTVSPropertyOp12
 70
     1
102
RTVSPropertyOp13
 70
     1
102
RTVSPropertyOp14
 70
     1
102
RTVSPropertyOp15
 70
     1
102
RTVSPropertyOp16
 70
     1
102
RTVSPropertyOp17
 70
     1
102
RTVSPropertyOp18
 70
     1
102
RTVSPropertyOp19
 70
     1
102
RTVSPropertyOp20
 70
     1
102
RTVSPropertyOp21
 70
     1
102
RTVSPropertyOp22
 70
     1
102
RTVSPropertyOp23
 70
     1
102
RTVSPropertyOp24
 70
     1
102
RTVSPropertyOp25
 70
     1
102
RTVSPropertyOp26
 70
     1
102
RTVSPropertyOp27
 70
     1
102
RTVSPropertyOp28
 70
     1
102
RTVSPropertyOp29
 70
     1
102
RTVSPropertyOp30
 70
     1
102
RTVSPropertyOp31
 70
     1
102
RTVSPropertyOp32
 70
     1
102
RTVSPropertyOp33
 70
     1
102
RTVSPropertyOp34
 70
     1
102
RTVSPropertyOp35
 70
     1
102
RTVSPropertyOp36
 70
     1
102
RTVSPropertyOp37
 70
     1
102
RTVSPropertyOp38
 70
     1
102
RTVSPropertyOp39
 70
     1
102
RTVSPropertyOp40
 70
     1
102
RTVSPropertyOp41
 70
     1
102
RTVSPropertyOp42
 70
     1
102
RTVSPropertyOp43
 70
     1
102
RTVSPropertyOp44
 70
     1
102
RTVSPropertyOp45
 70
     1
102
RTVSPropertyOp46
 70
     1
102
RTVSPropertyOp47
 70
     1
102
RTVSPropertyOp48
 70
     1
102
RTVSPropertyOp49
 70
     1
102
RTVSPropertyOp50
 70
     1
102
RTVSPropertyOp51
 70
     0
102
RTVSPropertyOp52
 70
     0
102
RTVSPropertyOp53
 70
     1
102
RTVSPropertyOp54
 70
     1
102
RTVSPropertyOp55
 70
     1
102
RTVSPropertyOp56
 70
     1
102
RTVSPropertyOp57
 70
     1
102
RTVSPropertyOp58
 70
     1
102
RTVSPropertyOp59
 70
     1
102
RTVSPropertyOp60
 70
     1
102
RTVSPropertyOp61
 70
     1
102
RTVSPropertyOp62
 70
     1
  0
XRECORD
  5
403E
102
{ACAD_REACTORS
330
403D
102
}
330
403D
100
AcDbXrecord
280
     1
102
RTVSPost2010Prop28
280
     0
102
RTVSPost2010PropOp28
 70
     1
102
RTVSPost2010Prop29
280
     1
102
RTVSPost2010PropOp29
 70
     1
102
RTVSPost2010Prop30
280
     1
102
RTVSPost2010PropOp30
 70
     1
102
RTVSPost2010Prop31
280
     0
102
RTVSPost2010PropOp31
 70
     1
102
RTVSPost2010Prop32
280
     0
102
RTVSPost2010PropOp32
 70
     1
102
RTVSPost2010Prop33
280
     0
102
RTVSPost2010PropOp33
 70
     1
102
RTVSPost2010Prop34
280
     0
102
RTVSPost2010PropOp34
 70
     1
102
RTVSPost2010Prop35
280
     0
102
RTVSPost2010PropOp35
 70
     1
102
RTVSPost2010Prop36
280
     0
102
RTVSPost2010PropOp36
 70
     1
102
RTVSPost2010Prop37
 90
       50
102
RTVSPost2010PropOp37
 70
     1
102
RTVSPost2010Prop38
140
0.0
102
RTVSPost2010PropOp38
 70
     1
102
RTVSPost2010Prop39
140
1.0
102
RTVSPost2010PropOp39
 70
     1
102
RTVSPost2010Prop40
 90
        0
102
RTVSPost2010PropOp40
 70
     1
102
RTVSPost2010Prop41ColorIndex
 90
       18
102
RTVSPost2010Prop41ColorRGB
 90
        0
102
RTVSPost2010PropOp41
 70
     1
102
RTVSPost2010Prop42
 90
       50
102
RTVSPost2010PropOp42
 70
     1
102
RTVSPost2010Prop43
 90
        3
102
RTVSPost2010PropOp43
 70
     1
102
RTVSPost2010Prop44ColorIndex
 90
        5
102
RTVSPost2010Prop44ColorRGB
 90
      255
102
RTVSPost2010PropOp44
 70
     1
102
RTVSPost2010Prop45
280
     0
102
RTVSPost2010PropOp45
 70
     1
102
RTVSPost2010Prop46
 90
       50
102
RTVSPost2010PropOp46
 70
     1
102
RTVSPost2010Prop47
 90
       50
102
RTVSPost2010PropOp47
 70
     1
102
RTVSPost2010Prop48
 90
       50
102
RTVSPost2010PropOp48
 70
     1
102
RTVSPost2010Prop49
280
     0
102
RTVSPost2010PropOp49
 70
     1
102
RTVSPost2010Prop50
 90
       50
102
RTVSPost2010PropOp50
 70
     1
102
RTVSPost2010Prop51ColorIndex
 90
      256
102
RTVSPost2010Prop51ColorRGB
 90
-16777216
102
RTVSPost2010PropOp51
 70
     0
102
RTVSPost2010Prop52
140
1.0
102
RTVSPost2010PropOp52
 70
     0
102
RTVSPost2010Prop53
 90
        2
102
RTVSPost2010PropOp53
 70
     1
102
RTVSPost2010Prop54
  1
strokes_ogs.tif
102
RTVSPost2010PropOp54
 70
     1
102
RTVSPost2010Prop55
280
     0
102
RTVSPost2010PropOp55
 70
     1
102
RTVSPost2010Prop56
140
1.0
102
RTVSPost2010PropOp56
 70
     1
102
RTVSPost2010Prop57
140
1.0
102
RTVSPost2010PropOp57
 70
     1
102
RTVSPropertyOp0
 70
     0
102
RTVSPropertyOp1
 70
     0
102
RTVSPropertyOp2
 70
     0
102
RTVSPropertyOp3
 70
     0
102
RTVSPropertyOp4
 70
     0
102
RTVSPropertyOp5
 70
     0
102
RTVSPropertyOp6
 70
     0
102
RTVSPropertyOp7
 70
     0
102
RTVSPropertyOp8
 70
     0
102
RTVSPropertyOp9
 70
     0
102
RTVSPropertyOp10
 70
     0
102
RTVSPropertyOp11
 70
     0
102
RTVSPropertyOp12
 70
     0
102
RTVSPropertyOp13
 70
     0
102
RTVSPropertyOp14
 70
     2
102
RTVSPropertyOp15
 70
     0
102
RTVSPropertyOp16
 70
     0
102
RTVSPropertyOp17
 70
     0
102
RTVSPropertyOp18
 70
     0
102
RTVSPropertyOp19
 70
     0
102
RTVSPropertyOp20
 70
     0
102
RTVSPropertyOp21
 70
     0
102
RTVSPropertyOp22
 70
     0
102
RTVSPropertyOp23
 70
     0
102
RTVSPropertyOp24
 70
     0
102
RTVSPropertyOp25
 70
     0
102
RTVSPropertyOp26
 70
     0
102
RTVSPropertyOp27
 70
     0
102
RTVSPropertyOp28
 70
     1
102
RTVSPropertyOp29
 70
     1
102
RTVSPropertyOp30
 70
     1
102
RTVSPropertyOp31
 70
     1
102
RTVSPropertyOp32
 70
     1
102
RTVSPropertyOp33
 70
     1
102
RTVSPropertyOp34
 70
     1
102
RTVSPropertyOp35
 70
     1
102
RTVSPropertyOp36
 70
     1
102
RTVSPropertyOp37
 70
     1
102
RTVSPropertyOp38
 70
     1
102
RTVSPropertyOp39
 70
     1
102
RTVSPropertyOp40
 70
     1
102
RTVSPropertyOp41
 70
     1
102
RTVSPropertyOp42
 70
     1
102
RTVSPropertyOp43
 70
     1
102
RTVSPropertyOp44
 70
     1
102
RTVSPropertyOp45
 70
     1
102
RTVSPropertyOp46
 70
     1
102
RTVSPropertyOp47
 70
     1
102
RTVSPropertyOp48
 70
     1
102
RTVSPropertyOp49
 70
     1
102
RTVSPropertyOp50
 70
     1
102
RTVSPropertyOp51
 70
     0
102
RTVSPropertyOp52
 70
     0
102
RTVSPropertyOp53
 70
     1
102
RTVSPropertyOp54
 70
     1
102
RTVSPropertyOp55
 70
     1
102
RTVSPropertyOp56
 70
     1
102
RTVSPropertyOp57
 70
     1
102
RTVSPropertyOp58
 70
     1
102
RTVSPropertyOp59
 70
     1
102
RTVSPropertyOp60
 70
     1
102
RTVSPropertyOp61
 70
     1
102
RTVSPropertyOp62
 70
     1
  0
XRECORD
  5
4034
102
{ACAD_REACTORS
330
4033
102
}
330
4033
100
AcDbXrecord
280
     1
102
RTVSPost2010Prop28
280
     0
102
RTVSPost2010PropOp28
 70
     1
102
RTVSPost2010Prop29
280
     1
102
RTVSPost2010PropOp29
 70
     1
102
RTVSPost2010Prop30
280
     1
102
RTVSPost2010PropOp30
 70
     1
102
RTVSPost2010Prop31
280
     0
102
RTVSPost2010PropOp31
 70
     1
102
RTVSPost2010Prop32
280
     0
102
RTVSPost2010PropOp32
 70
     1
102
RTVSPost2010Prop33
280
     0
102
RTVSPost2010PropOp33
 70
     1
102
RTVSPost2010Prop34
280
     0
102
RTVSPost2010PropOp34
 70
     1
102
RTVSPost2010Prop35
280
     0
102
RTVSPost2010PropOp35
 70
     1
102
RTVSPost2010Prop36
280
     0
102
RTVSPost2010PropOp36
 70
     1
102
RTVSPost2010Prop37
 90
       50
102
RTVSPost2010PropOp37
 70
     1
102
RTVSPost2010Prop38
140
0.0
102
RTVSPost2010PropOp38
 70
     1
102
RTVSPost2010Prop39
140
1.0
102
RTVSPost2010PropOp39
 70
     1
102
RTVSPost2010Prop40
 90
        0
102
RTVSPost2010PropOp40
 70
     1
102
RTVSPost2010Prop41ColorIndex
 90
       18
102
RTVSPost2010Prop41ColorRGB
 90
        0
102
RTVSPost2010PropOp41
 70
     1
102
RTVSPost2010Prop42
 90
       50
102
RTVSPost2010PropOp42
 70
     1
102
RTVSPost2010Prop43
 90
        3
102
RTVSPost2010PropOp43
 70
     1
102
RTVSPost2010Prop44ColorIndex
 90
        5
102
RTVSPost2010Prop44ColorRGB
 90
      255
102
RTVSPost2010PropOp44
 70
     1
102
RTVSPost2010Prop45
280
     0
102
RTVSPost2010PropOp45
 70
     1
102
RTVSPost2010Prop46
 90
       50
102
RTVSPost2010PropOp46
 70
     1
102
RTVSPost2010Prop47
 90
       50
102
RTVSPost2010PropOp47
 70
     1
102
RTVSPost2010Prop48
 90
       50
102
RTVSPost2010PropOp48
 70
     1
102
RTVSPost2010Prop49
280
     0
102
RTVSPost2010PropOp49
 70
     1
102
RTVSPost2010Prop50
 90
       50
102
RTVSPost2010PropOp50
 70
     1
102
RTVSPost2010Prop51ColorIndex
 90
      256
102
RTVSPost2010Prop51ColorRGB
 90
-16777216
102
RTVSPost2010PropOp51
 70
     0
102
RTVSPost2010Prop52
140
1.0
102
RTVSPost2010PropOp52
 70
     0
102
RTVSPost2010Prop53
 90
        2
102
RTVSPost2010PropOp53
 70
     1
102
RTVSPost2010Prop54
  1
strokes_ogs.tif
102
RTVSPost2010PropOp54
 70
     1
102
RTVSPost2010Prop55
280
     0
102
RTVSPost2010PropOp55
 70
     1
102
RTVSPost2010Prop56
140
1.0
102
RTVSPost2010PropOp56
 70
     1
102
RTVSPost2010Prop57
140
1.0
102
RTVSPost2010PropOp57
 70
     1
102
RTVSPropertyOp0
 70
     1
102
RTVSPropertyOp1
 70
     1
102
RTVSPropertyOp2
 70
     1
102
RTVSPropertyOp3
 70
     1
102
RTVSPropertyOp4
 70
     1
102
RTVSPropertyOp5
 70
     1
102
RTVSPropertyOp6
 70
     1
102
RTVSPropertyOp7
 70
     1
102
RTVSPropertyOp8
 70
     1
102
RTVSPropertyOp9
 70
     1
102
RTVSPropertyOp10
 70
     1
102
RTVSPropertyOp11
 70
     1
102
RTVSPropertyOp12
 70
     1
102
RTVSPropertyOp13
 70
     1
102
RTVSPropertyOp14
 70
     1
102
RTVSPropertyOp15
 70
     1
102
RTVSPropertyOp16
 70
     1
102
RTVSPropertyOp17
 70
     1
102
RTVSPropertyOp18
 70
     1
102
RTVSPropertyOp19
 70
     1
102
RTVSPropertyOp20
 70
     1
102
RTVSPropertyOp21
 70
     1
102
RTVSPropertyOp22
 70
     1
102
RTVSPropertyOp23
 70
     1
102
RTVSPropertyOp24
 70
     1
102
RTVSPropertyOp25
 70
     1
102
RTVSPropertyOp26
 70
     1
102
RTVSPropertyOp27
 70
     1
102
RTVSPropertyOp28
 70
     1
102
RTVSPropertyOp29
 70
     1
102
RTVSPropertyOp30
 70
     1
102
RTVSPropertyOp31
 70
     1
102
RTVSPropertyOp32
 70
     1
102
RTVSPropertyOp33
 70
     1
102
RTVSPropertyOp34
 70
     1
102
RTVSPropertyOp35
 70
     1
102
RTVSPropertyOp36
 70
     1
102
RTVSPropertyOp37
 70
     1
102
RTVSPropertyOp38
 70
     1
102
RTVSPropertyOp39
 70
     1
102
RTVSPropertyOp40
 70
     1
102
RTVSPropertyOp41
 70
     1
102
RTVSPropertyOp42
 70
     1
102
RTVSPropertyOp43
 70
     1
102
RTVSPropertyOp44
 70
     1
102
RTVSPropertyOp45
 70
     1
102
RTVSPropertyOp46
 70
     1
102
RTVSPropertyOp47
 70
     1
102
RTVSPropertyOp48
 70
     1
102
RTVSPropertyOp49
 70
     1
102
RTVSPropertyOp50
 70
     1
102
RTVSPropertyOp51
 70
     0
102
RTVSPropertyOp52
 70
     0
102
RTVSPropertyOp53
 70
     1
102
RTVSPropertyOp54
 70
     1
102
RTVSPropertyOp55
 70
     1
102
RTVSPropertyOp56
 70
     1
102
RTVSPropertyOp57
 70
     1
102
RTVSPropertyOp58
 70
     1
102
RTVSPropertyOp59
 70
     1
102
RTVSPropertyOp60
 70
     1
102
RTVSPropertyOp61
 70
     1
102
RTVSPropertyOp62
 70
     1
  0
XRECORD
  5
4018
102
{ACAD_REACTORS
330
4017
102
}
330
4017
100
AcDbXrecord
280
     1
102
RTVSPost2010Prop28
280
     0
102
RTVSPost2010PropOp28
 70
     1
102
RTVSPost2010Prop29
280
     1
102
RTVSPost2010PropOp29
 70
     1
102
RTVSPost2010Prop30
280
     1
102
RTVSPost2010PropOp30
 70
     1
102
RTVSPost2010Prop31
280
     0
102
RTVSPost2010PropOp31
 70
     1
102
RTVSPost2010Prop32
280
     0
102
RTVSPost2010PropOp32
 70
     1
102
RTVSPost2010Prop33
280
     0
102
RTVSPost2010PropOp33
 70
     1
102
RTVSPost2010Prop34
280
     0
102
RTVSPost2010PropOp34
 70
     1
102
RTVSPost2010Prop35
280
     0
102
RTVSPost2010PropOp35
 70
     1
102
RTVSPost2010Prop36
280
     0
102
RTVSPost2010PropOp36
 70
     1
102
RTVSPost2010Prop37
 90
       50
102
RTVSPost2010PropOp37
 70
     1
102
RTVSPost2010Prop38
140
0.0
102
RTVSPost2010PropOp38
 70
     1
102
RTVSPost2010Prop39
140
1.0
102
RTVSPost2010PropOp39
 70
     1
102
RTVSPost2010Prop40
 90
        0
102
RTVSPost2010PropOp40
 70
     1
102
RTVSPost2010Prop41ColorIndex
 90
       18
102
RTVSPost2010Prop41ColorRGB
 90
        0
102
RTVSPost2010PropOp41
 70
     1
102
RTVSPost2010Prop42
 90
       50
102
RTVSPost2010PropOp42
 70
     1
102
RTVSPost2010Prop43
 90
        3
102
RTVSPost2010PropOp43
 70
     1
102
RTVSPost2010Prop44ColorIndex
 90
        5
102
RTVSPost2010Prop44ColorRGB
 90
      255
102
RTVSPost2010PropOp44
 70
     1
102
RTVSPost2010Prop45
280
     0
102
RTVSPost2010PropOp45
 70
     1
102
RTVSPost2010Prop46
 90
       50
102
RTVSPost2010PropOp46
 70
     1
102
RTVSPost2010Prop47
 90
       50
102
RTVSPost2010PropOp47
 70
     1
102
RTVSPost2010Prop48
 90
       50
102
RTVSPost2010PropOp48
 70
     1
102
RTVSPost2010Prop49
280
     0
102
RTVSPost2010PropOp49
 70
     1
102
RTVSPost2010Prop50
 90
       50
102
RTVSPost2010PropOp50
 70
     1
102
RTVSPost2010Prop51ColorIndex
 90
      256
102
RTVSPost2010Prop51ColorRGB
 90
-16777216
102
RTVSPost2010PropOp51
 70
     0
102
RTVSPost2010Prop52
140
1.0
102
RTVSPost2010PropOp52
 70
     0
102
RTVSPost2010Prop53
 90
        2
102
RTVSPost2010PropOp53
 70
     1
102
RTVSPost2010Prop54
  1
strokes_ogs.tif
102
RTVSPost2010PropOp54
 70
     1
102
RTVSPost2010Prop55
280
     0
102
RTVSPost2010PropOp55
 70
     1
102
RTVSPost2010Prop56
140
1.0
102
RTVSPost2010PropOp56
 70
     1
102
RTVSPost2010Prop57
140
1.0
102
RTVSPost2010PropOp57
 70
     1
102
RTVSPropertyOp0
 70
     1
102
RTVSPropertyOp1
 70
     1
102
RTVSPropertyOp2
 70
     1
102
RTVSPropertyOp3
 70
     1
102
RTVSPropertyOp4
 70
     1
102
RTVSPropertyOp5
 70
     1
102
RTVSPropertyOp6
 70
     1
102
RTVSPropertyOp7
 70
     1
102
RTVSPropertyOp8
 70
     1
102
RTVSPropertyOp9
 70
     1
102
RTVSPropertyOp10
 70
     1
102
RTVSPropertyOp11
 70
     1
102
RTVSPropertyOp12
 70
     1
102
RTVSPropertyOp13
 70
     1
102
RTVSPropertyOp14
 70
     1
102
RTVSPropertyOp15
 70
     1
102
RTVSPropertyOp16
 70
     1
102
RTVSPropertyOp17
 70
     1
102
RTVSPropertyOp18
 70
     1
102
RTVSPropertyOp19
 70
     1
102
RTVSPropertyOp20
 70
     1
102
RTVSPropertyOp21
 70
     1
102
RTVSPropertyOp22
 70
     1
102
RTVSPropertyOp23
 70
     1
102
RTVSPropertyOp24
 70
     1
102
RTVSPropertyOp25
 70
     1
102
RTVSPropertyOp26
 70
     1
102
RTVSPropertyOp27
 70
     1
102
RTVSPropertyOp28
 70
     1
102
RTVSPropertyOp29
 70
     1
102
RTVSPropertyOp30
 70
     1
102
RTVSPropertyOp31
 70
     1
102
RTVSPropertyOp32
 70
     1
102
RTVSPropertyOp33
 70
     1
102
RTVSPropertyOp34
 70
     1
102
RTVSPropertyOp35
 70
     1
102
RTVSPropertyOp36
 70
     1
102
RTVSPropertyOp37
 70
     1
102
RTVSPropertyOp38
 70
     1
102
RTVSPropertyOp39
 70
     1
102
RTVSPropertyOp40
 70
     1
102
RTVSPropertyOp41
 70
     1
102
RTVSPropertyOp42
 70
     1
102
RTVSPropertyOp43
 70
     1
102
RTVSPropertyOp44
 70
     1
102
RTVSPropertyOp45
 70
     1
102
RTVSPropertyOp46
 70
     1
102
RTVSPropertyOp47
 70
     1
102
RTVSPropertyOp48
 70
     1
102
RTVSPropertyOp49
 70
     1
102
RTVSPropertyOp50
 70
     1
102
RTVSPropertyOp51
 70
     0
102
RTVSPropertyOp52
 70
     0
102
RTVSPropertyOp53
 70
     1
102
RTVSPropertyOp54
 70
     1
102
RTVSPropertyOp55
 70
     1
102
RTVSPropertyOp56
 70
     1
102
RTVSPropertyOp57
 70
     1
102
RTVSPropertyOp58
 70
     1
102
RTVSPropertyOp59
 70
     1
102
RTVSPropertyOp60
 70
     1
102
RTVSPropertyOp61
 70
     1
102
RTVSPropertyOp62
 70
     1
  0
XRECORD
  5
401A
102
{ACAD_REACTORS
330
4019
102
}
330
4019
100
AcDbXrecord
280
     1
102
RTVSPost2010Prop28
280
     0
102
RTVSPost2010PropOp28
 70
     1
102
RTVSPost2010Prop29
280
     1
102
RTVSPost2010PropOp29
 70
     1
102
RTVSPost2010Prop30
280
     1
102
RTVSPost2010PropOp30
 70
     1
102
RTVSPost2010Prop31
280
     0
102
RTVSPost2010PropOp31
 70
     1
102
RTVSPost2010Prop32
280
     0
102
RTVSPost2010PropOp32
 70
     1
102
RTVSPost2010Prop33
280
     0
102
RTVSPost2010PropOp33
 70
     1
102
RTVSPost2010Prop34
280
     0
102
RTVSPost2010PropOp34
 70
     1
102
RTVSPost2010Prop35
280
     0
102
RTVSPost2010PropOp35
 70
     1
102
RTVSPost2010Prop36
280
     0
102
RTVSPost2010PropOp36
 70
     1
102
RTVSPost2010Prop37
 90
       50
102
RTVSPost2010PropOp37
 70
     1
102
RTVSPost2010Prop38
140
0.0
102
RTVSPost2010PropOp38
 70
     1
102
RTVSPost2010Prop39
140
1.0
102
RTVSPost2010PropOp39
 70
     1
102
RTVSPost2010Prop40
 90
        0
102
RTVSPost2010PropOp40
 70
     1
102
RTVSPost2010Prop41ColorIndex
 90
       18
102
RTVSPost2010Prop41ColorRGB
 90
        0
102
RTVSPost2010PropOp41
 70
     1
102
RTVSPost2010Prop42
 90
       50
102
RTVSPost2010PropOp42
 70
     1
102
RTVSPost2010Prop43
 90
        3
102
RTVSPost2010PropOp43
 70
     1
102
RTVSPost2010Prop44ColorIndex
 90
        5
102
RTVSPost2010Prop44ColorRGB
 90
      255
102
RTVSPost2010PropOp44
 70
     1
102
RTVSPost2010Prop45
280
     0
102
RTVSPost2010PropOp45
 70
     1
102
RTVSPost2010Prop46
 90
       50
102
RTVSPost2010PropOp46
 70
     1
102
RTVSPost2010Prop47
 90
       50
102
RTVSPost2010PropOp47
 70
     1
102
RTVSPost2010Prop48
 90
       50
102
RTVSPost2010PropOp48
 70
     1
102
RTVSPost2010Prop49
280
     0
102
RTVSPost2010PropOp49
 70
     1
102
RTVSPost2010Prop50
 90
       50
102
RTVSPost2010PropOp50
 70
     1
102
RTVSPost2010Prop51ColorIndex
 90
      256
102
RTVSPost2010Prop51ColorRGB
 90
-16777216
102
RTVSPost2010PropOp51
 70
     0
102
RTVSPost2010Prop52
140
1.0
102
RTVSPost2010PropOp52
 70
     0
102
RTVSPost2010Prop53
 90
        2
102
RTVSPost2010PropOp53
 70
     1
102
RTVSPost2010Prop54
  1
strokes_ogs.tif
102
RTVSPost2010PropOp54
 70
     1
102
RTVSPost2010Prop55
280
     0
102
RTVSPost2010PropOp55
 70
     1
102
RTVSPost2010Prop56
140
1.0
102
RTVSPost2010PropOp56
 70
     1
102
RTVSPost2010Prop57
140
1.0
102
RTVSPost2010PropOp57
 70
     1
102
RTVSPropertyOp0
 70
     1
102
RTVSPropertyOp1
 70
     1
102
RTVSPropertyOp2
 70
     1
102
RTVSPropertyOp3
 70
     1
102
RTVSPropertyOp4
 70
     1
102
RTVSPropertyOp5
 70
     1
102
RTVSPropertyOp6
 70
     1
102
RTVSPropertyOp7
 70
     1
102
RTVSPropertyOp8
 70
     1
102
RTVSPropertyOp9
 70
     1
102
RTVSPropertyOp10
 70
     1
102
RTVSPropertyOp11
 70
     1
102
RTVSPropertyOp12
 70
     1
102
RTVSPropertyOp13
 70
     1
102
RTVSPropertyOp14
 70
     1
102
RTVSPropertyOp15
 70
     1
102
RTVSPropertyOp16
 70
     1
102
RTVSPropertyOp17
 70
     1
102
RTVSPropertyOp18
 70
     1
102
RTVSPropertyOp19
 70
     1
102
RTVSPropertyOp20
 70
     1
102
RTVSPropertyOp21
 70
     1
102
RTVSPropertyOp22
 70
     1
102
RTVSPropertyOp23
 70
     1
102
RTVSPropertyOp24
 70
     1
102
RTVSPropertyOp25
 70
     1
102
RTVSPropertyOp26
 70
     1
102
RTVSPropertyOp27
 70
     1
102
RTVSPropertyOp28
 70
     1
102
RTVSPropertyOp29
 70
     1
102
RTVSPropertyOp30
 70
     1
102
RTVSPropertyOp31
 70
     1
102
RTVSPropertyOp32
 70
     1
102
RTVSPropertyOp33
 70
     1
102
RTVSPropertyOp34
 70
     1
102
RTVSPropertyOp35
 70
     1
102
RTVSPropertyOp36
 70
     1
102
RTVSPropertyOp37
 70
     1
102
RTVSPropertyOp38
 70
     1
102
RTVSPropertyOp39
 70
     1
102
RTVSPropertyOp40
 70
     1
102
RTVSPropertyOp41
 70
     1
102
RTVSPropertyOp42
 70
     1
102
RTVSPropertyOp43
 70
     1
102
RTVSPropertyOp44
 70
     1
102
RTVSPropertyOp45
 70
     1
102
RTVSPropertyOp46
 70
     1
102
RTVSPropertyOp47
 70
     1
102
RTVSPropertyOp48
 70
     1
102
RTVSPropertyOp49
 70
     1
102
RTVSPropertyOp50
 70
     1
102
RTVSPropertyOp51
 70
     0
102
RTVSPropertyOp52
 70
     0
102
RTVSPropertyOp53
 70
     1
102
RTVSPropertyOp54
 70
     1
102
RTVSPropertyOp55
 70
     1
102
RTVSPropertyOp56
 70
     1
102
RTVSPropertyOp57
 70
     1
102
RTVSPropertyOp58
 70
     1
102
RTVSPropertyOp59
 70
     1
102
RTVSPropertyOp60
 70
     1
102
RTVSPropertyOp61
 70
     1
102
RTVSPropertyOp62
 70
     1
  0
XRECORD
  5
401C
102
{ACAD_REACTORS
330
401B
102
}
330
401B
100
AcDbXrecord
280
     1
102
RTVSPost2010Prop28
280
     0
102
RTVSPost2010PropOp28
 70
     1
102
RTVSPost2010Prop29
280
     1
102
RTVSPost2010PropOp29
 70
     1
102
RTVSPost2010Prop30
280
     1
102
RTVSPost2010PropOp30
 70
     1
102
RTVSPost2010Prop31
280
     0
102
RTVSPost2010PropOp31
 70
     1
102
RTVSPost2010Prop32
280
     0
102
RTVSPost2010PropOp32
 70
     1
102
RTVSPost2010Prop33
280
     0
102
RTVSPost2010PropOp33
 70
     1
102
RTVSPost2010Prop34
280
     0
102
RTVSPost2010PropOp34
 70
     1
102
RTVSPost2010Prop35
280
     0
102
RTVSPost2010PropOp35
 70
     1
102
RTVSPost2010Prop36
280
     0
102
RTVSPost2010PropOp36
 70
     1
102
RTVSPost2010Prop37
 90
       50
102
RTVSPost2010PropOp37
 70
     1
102
RTVSPost2010Prop38
140
0.0
102
RTVSPost2010PropOp38
 70
     1
102
RTVSPost2010Prop39
140
1.0
102
RTVSPost2010PropOp39
 70
     1
102
RTVSPost2010Prop40
 90
        0
102
RTVSPost2010PropOp40
 70
     1
102
RTVSPost2010Prop41ColorIndex
 90
       18
102
RTVSPost2010Prop41ColorRGB
 90
        0
102
RTVSPost2010PropOp41
 70
     1
102
RTVSPost2010Prop42
 90
       50
102
RTVSPost2010PropOp42
 70
     1
102
RTVSPost2010Prop43
 90
        3
102
RTVSPost2010PropOp43
 70
     1
102
RTVSPost2010Prop44ColorIndex
 90
        5
102
RTVSPost2010Prop44ColorRGB
 90
      255
102
RTVSPost2010PropOp44
 70
     1
102
RTVSPost2010Prop45
280
     0
102
RTVSPost2010PropOp45
 70
     1
102
RTVSPost2010Prop46
 90
       50
102
RTVSPost2010PropOp46
 70
     1
102
RTVSPost2010Prop47
 90
       50
102
RTVSPost2010PropOp47
 70
     1
102
RTVSPost2010Prop48
 90
       50
102
RTVSPost2010PropOp48
 70
     1
102
RTVSPost2010Prop49
280
     0
102
RTVSPost2010PropOp49
 70
     1
102
RTVSPost2010Prop50
 90
       50
102
RTVSPost2010PropOp50
 70
     1
102
RTVSPost2010Prop51ColorIndex
 90
      256
102
RTVSPost2010Prop51ColorRGB
 90
-16777216
102
RTVSPost2010PropOp51
 70
     0
102
RTVSPost2010Prop52
140
1.0
102
RTVSPost2010PropOp52
 70
     0
102
RTVSPost2010Prop53
 90
        2
102
RTVSPost2010PropOp53
 70
     1
102
RTVSPost2010Prop54
  1
strokes_ogs.tif
102
RTVSPost2010PropOp54
 70
     1
102
RTVSPost2010Prop55
280
     0
102
RTVSPost2010PropOp55
 70
     1
102
RTVSPost2010Prop56
140
1.0
102
RTVSPost2010PropOp56
 70
     1
102
RTVSPost2010Prop57
140
1.0
102
RTVSPost2010PropOp57
 70
     1
102
RTVSPropertyOp0
 70
     1
102
RTVSPropertyOp1
 70
     1
102
RTVSPropertyOp2
 70
     1
102
RTVSPropertyOp3
 70
     1
102
RTVSPropertyOp4
 70
     1
102
RTVSPropertyOp5
 70
     1
102
RTVSPropertyOp6
 70
     1
102
RTVSPropertyOp7
 70
     1
102
RTVSPropertyOp8
 70
     1
102
RTVSPropertyOp9
 70
     1
102
RTVSPropertyOp10
 70
     1
102
RTVSPropertyOp11
 70
     1
102
RTVSPropertyOp12
 70
     1
102
RTVSPropertyOp13
 70
     1
102
RTVSPropertyOp14
 70
     1
102
RTVSPropertyOp15
 70
     1
102
RTVSPropertyOp16
 70
     1
102
RTVSPropertyOp17
 70
     1
102
RTVSPropertyOp18
 70
     1
102
RTVSPropertyOp19
 70
     1
102
RTVSPropertyOp20
 70
     1
102
RTVSPropertyOp21
 70
     1
102
RTVSPropertyOp22
 70
     1
102
RTVSPropertyOp23
 70
     1
102
RTVSPropertyOp24
 70
     1
102
RTVSPropertyOp25
 70
     1
102
RTVSPropertyOp26
 70
     1
102
RTVSPropertyOp27
 70
     1
102
RTVSPropertyOp28
 70
     1
102
RTVSPropertyOp29
 70
     1
102
RTVSPropertyOp30
 70
     1
102
RTVSPropertyOp31
 70
     1
102
RTVSPropertyOp32
 70
     1
102
RTVSPropertyOp33
 70
     1
102
RTVSPropertyOp34
 70
     1
102
RTVSPropertyOp35
 70
     1
102
RTVSPropertyOp36
 70
     1
102
RTVSPropertyOp37
 70
     1
102
RTVSPropertyOp38
 70
     1
102
RTVSPropertyOp39
 70
     1
102
RTVSPropertyOp40
 70
     1
102
RTVSPropertyOp41
 70
     1
102
RTVSPropertyOp42
 70
     1
102
RTVSPropertyOp43
 70
     1
102
RTVSPropertyOp44
 70
     1
102
RTVSPropertyOp45
 70
     1
102
RTVSPropertyOp46
 70
     1
102
RTVSPropertyOp47
 70
     1
102
RTVSPropertyOp48
 70
     1
102
RTVSPropertyOp49
 70
     1
102
RTVSPropertyOp50
 70
     1
102
RTVSPropertyOp51
 70
     0
102
RTVSPropertyOp52
 70
     0
102
RTVSPropertyOp53
 70
     1
102
RTVSPropertyOp54
 70
     1
102
RTVSPropertyOp55
 70
     1
102
RTVSPropertyOp56
 70
     1
102
RTVSPropertyOp57
 70
     1
102
RTVSPropertyOp58
 70
     1
102
RTVSPropertyOp59
 70
     1
102
RTVSPropertyOp60
 70
     1
102
RTVSPropertyOp61
 70
     1
102
RTVSPropertyOp62
 70
     1
  0
XRECORD
  5
401E
102
{ACAD_REACTORS
330
401D
102
}
330
401D
100
AcDbXrecord
280
     1
102
RTVSPost2010Prop28
280
     0
102
RTVSPost2010PropOp28
 70
     1
102
RTVSPost2010Prop29
280
     1
102
RTVSPost2010PropOp29
 70
     1
102
RTVSPost2010Prop30
280
     1
102
RTVSPost2010PropOp30
 70
     1
102
RTVSPost2010Prop31
280
     0
102
RTVSPost2010PropOp31
 70
     1
102
RTVSPost2010Prop32
280
     0
102
RTVSPost2010PropOp32
 70
     1
102
RTVSPost2010Prop33
280
     0
102
RTVSPost2010PropOp33
 70
     1
102
RTVSPost2010Prop34
280
     0
102
RTVSPost2010PropOp34
 70
     1
102
RTVSPost2010Prop35
280
     0
102
RTVSPost2010PropOp35
 70
     1
102
RTVSPost2010Prop36
280
     0
102
RTVSPost2010PropOp36
 70
     1
102
RTVSPost2010Prop37
 90
       50
102
RTVSPost2010PropOp37
 70
     1
102
RTVSPost2010Prop38
140
0.0
102
RTVSPost2010PropOp38
 70
     1
102
RTVSPost2010Prop39
140
1.0
102
RTVSPost2010PropOp39
 70
     1
102
RTVSPost2010Prop40
 90
        0
102
RTVSPost2010PropOp40
 70
     1
102
RTVSPost2010Prop41ColorIndex
 90
       18
102
RTVSPost2010Prop41ColorRGB
 90
        0
102
RTVSPost2010PropOp41
 70
     1
102
RTVSPost2010Prop42
 90
       50
102
RTVSPost2010PropOp42
 70
     1
102
RTVSPost2010Prop43
 90
        3
102
RTVSPost2010PropOp43
 70
     1
102
RTVSPost2010Prop44ColorIndex
 90
        5
102
RTVSPost2010Prop44ColorRGB
 90
      255
102
RTVSPost2010PropOp44
 70
     1
102
RTVSPost2010Prop45
280
     0
102
RTVSPost2010PropOp45
 70
     1
102
RTVSPost2010Prop46
 90
       50
102
RTVSPost2010PropOp46
 70
     1
102
RTVSPost2010Prop47
 90
       50
102
RTVSPost2010PropOp47
 70
     1
102
RTVSPost2010Prop48
 90
       50
102
RTVSPost2010PropOp48
 70
     1
102
RTVSPost2010Prop49
280
     0
102
RTVSPost2010PropOp49
 70
     1
102
RTVSPost2010Prop50
 90
       50
102
RTVSPost2010PropOp50
 70
     1
102
RTVSPost2010Prop51ColorIndex
 90
      256
102
RTVSPost2010Prop51ColorRGB
 90
-16777216
102
RTVSPost2010PropOp51
 70
     0
102
RTVSPost2010Prop52
140
1.0
102
RTVSPost2010PropOp52
 70
     0
102
RTVSPost2010Prop53
 90
        2
102
RTVSPost2010PropOp53
 70
     1
102
RTVSPost2010Prop54
  1
strokes_ogs.tif
102
RTVSPost2010PropOp54
 70
     1
102
RTVSPost2010Prop55
280
     0
102
RTVSPost2010PropOp55
 70
     1
102
RTVSPost2010Prop56
140
1.0
102
RTVSPost2010PropOp56
 70
     1
102
RTVSPost2010Prop57
140
1.0
102
RTVSPost2010PropOp57
 70
     1
102
RTVSPropertyOp0
 70
     1
102
RTVSPropertyOp1
 70
     1
102
RTVSPropertyOp2
 70
     1
102
RTVSPropertyOp3
 70
     1
102
RTVSPropertyOp4
 70
     1
102
RTVSPropertyOp5
 70
     1
102
RTVSPropertyOp6
 70
     1
102
RTVSPropertyOp7
 70
     1
102
RTVSPropertyOp8
 70
     1
102
RTVSPropertyOp9
 70
     1
102
RTVSPropertyOp10
 70
     1
102
RTVSPropertyOp11
 70
     1
102
RTVSPropertyOp12
 70
     1
102
RTVSPropertyOp13
 70
     1
102
RTVSPropertyOp14
 70
     1
102
RTVSPropertyOp15
 70
     1
102
RTVSPropertyOp16
 70
     1
102
RTVSPropertyOp17
 70
     1
102
RTVSPropertyOp18
 70
     1
102
RTVSPropertyOp19
 70
     1
102
RTVSPropertyOp20
 70
     1
102
RTVSPropertyOp21
 70
     1
102
RTVSPropertyOp22
 70
     1
102
RTVSPropertyOp23
 70
     1
102
RTVSPropertyOp24
 70
     1
102
RTVSPropertyOp25
 70
     1
102
RTVSPropertyOp26
 70
     1
102
RTVSPropertyOp27
 70
     1
102
RTVSPropertyOp28
 70
     1
102
RTVSPropertyOp29
 70
     1
102
RTVSPropertyOp30
 70
     1
102
RTVSPropertyOp31
 70
     1
102
RTVSPropertyOp32
 70
     1
102
RTVSPropertyOp33
 70
     1
102
RTVSPropertyOp34
 70
     1
102
RTVSPropertyOp35
 70
     1
102
RTVSPropertyOp36
 70
     1
102
RTVSPropertyOp37
 70
     1
102
RTVSPropertyOp38
 70
     1
102
RTVSPropertyOp39
 70
     1
102
RTVSPropertyOp40
 70
     1
102
RTVSPropertyOp41
 70
     1
102
RTVSPropertyOp42
 70
     1
102
RTVSPropertyOp43
 70
     1
102
RTVSPropertyOp44
 70
     1
102
RTVSPropertyOp45
 70
     1
102
RTVSPropertyOp46
 70
     1
102
RTVSPropertyOp47
 70
     1
102
RTVSPropertyOp48
 70
     1
102
RTVSPropertyOp49
 70
     1
102
RTVSPropertyOp50
 70
     1
102
RTVSPropertyOp51
 70
     0
102
RTVSPropertyOp52
 70
     0
102
RTVSPropertyOp53
 70
     1
102
RTVSPropertyOp54
 70
     1
102
RTVSPropertyOp55
 70
     1
102
RTVSPropertyOp56
 70
     1
102
RTVSPropertyOp57
 70
     1
102
RTVSPropertyOp58
 70
     1
102
RTVSPropertyOp59
 70
     1
102
RTVSPropertyOp60
 70
     1
102
RTVSPropertyOp61
 70
     1
102
RTVSPropertyOp62
 70
     1
  0
XRECORD
  5
4026
102
{ACAD_REACTORS
330
4025
102
}
330
4025
100
AcDbXrecord
280
     1
102
RTVSPost2010Prop28
280
     0
102
RTVSPost2010PropOp28
 70
     1
102
RTVSPost2010Prop29
280
     1
102
RTVSPost2010PropOp29
 70
     1
102
RTVSPost2010Prop30
280
     1
102
RTVSPost2010PropOp30
 70
     1
102
RTVSPost2010Prop31
280
     0
102
RTVSPost2010PropOp31
 70
     1
102
RTVSPost2010Prop32
280
     0
102
RTVSPost2010PropOp32
 70
     1
102
RTVSPost2010Prop33
280
     0
102
RTVSPost2010PropOp33
 70
     1
102
RTVSPost2010Prop34
280
     0
102
RTVSPost2010PropOp34
 70
     1
102
RTVSPost2010Prop35
280
     0
102
RTVSPost2010PropOp35
 70
     1
102
RTVSPost2010Prop36
280
     0
102
RTVSPost2010PropOp36
 70
     1
102
RTVSPost2010Prop37
 90
       50
102
RTVSPost2010PropOp37
 70
     1
102
RTVSPost2010Prop38
140
0.0
102
RTVSPost2010PropOp38
 70
     1
102
RTVSPost2010Prop39
140
1.0
102
RTVSPost2010PropOp39
 70
     1
102
RTVSPost2010Prop40
 90
        0
102
RTVSPost2010PropOp40
 70
     1
102
RTVSPost2010Prop41ColorIndex
 90
       18
102
RTVSPost2010Prop41ColorRGB
 90
        0
102
RTVSPost2010PropOp41
 70
     1
102
RTVSPost2010Prop42
 90
       50
102
RTVSPost2010PropOp42
 70
     1
102
RTVSPost2010Prop43
 90
        3
102
RTVSPost2010PropOp43
 70
     1
102
RTVSPost2010Prop44ColorIndex
 90
        5
102
RTVSPost2010Prop44ColorRGB
 90
      255
102
RTVSPost2010PropOp44
 70
     1
102
RTVSPost2010Prop45
280
     0
102
RTVSPost2010PropOp45
 70
     1
102
RTVSPost2010Prop46
 90
       50
102
RTVSPost2010PropOp46
 70
     1
102
RTVSPost2010Prop47
 90
       50
102
RTVSPost2010PropOp47
 70
     1
102
RTVSPost2010Prop48
 90
       50
102
RTVSPost2010PropOp48
 70
     1
102
RTVSPost2010Prop49
280
     0
102
RTVSPost2010PropOp49
 70
     1
102
RTVSPost2010Prop50
 90
       50
102
RTVSPost2010PropOp50
 70
     1
102
RTVSPost2010Prop51ColorIndex
 90
      256
102
RTVSPost2010Prop51ColorRGB
 90
-16777216
102
RTVSPost2010PropOp51
 70
     0
102
RTVSPost2010Prop52
140
1.0
102
RTVSPost2010PropOp52
 70
     0
102
RTVSPost2010Prop53
 90
        2
102
RTVSPost2010PropOp53
 70
     1
102
RTVSPost2010Prop54
  1
strokes_ogs.tif
102
RTVSPost2010PropOp54
 70
     1
102
RTVSPost2010Prop55
280
     0
102
RTVSPost2010PropOp55
 70
     1
102
RTVSPost2010Prop56
140
1.0
102
RTVSPost2010PropOp56
 70
     1
102
RTVSPost2010Prop57
140
1.0
102
RTVSPost2010PropOp57
 70
     1
102
RTVSPropertyOp0
 70
     1
102
RTVSPropertyOp1
 70
     1
102
RTVSPropertyOp2
 70
     1
102
RTVSPropertyOp3
 70
     1
102
RTVSPropertyOp4
 70
     1
102
RTVSPropertyOp5
 70
     1
102
RTVSPropertyOp6
 70
     1
102
RTVSPropertyOp7
 70
     1
102
RTVSPropertyOp8
 70
     1
102
RTVSPropertyOp9
 70
     1
102
RTVSPropertyOp10
 70
     1
102
RTVSPropertyOp11
 70
     1
102
RTVSPropertyOp12
 70
     1
102
RTVSPropertyOp13
 70
     1
102
RTVSPropertyOp14
 70
     1
102
RTVSPropertyOp15
 70
     1
102
RTVSPropertyOp16
 70
     1
102
RTVSPropertyOp17
 70
     1
102
RTVSPropertyOp18
 70
     1
102
RTVSPropertyOp19
 70
     1
102
RTVSPropertyOp20
 70
     1
102
RTVSPropertyOp21
 70
     1
102
RTVSPropertyOp22
 70
     1
102
RTVSPropertyOp23
 70
     1
102
RTVSPropertyOp24
 70
     1
102
RTVSPropertyOp25
 70
     1
102
RTVSPropertyOp26
 70
     1
102
RTVSPropertyOp27
 70
     1
102
RTVSPropertyOp28
 70
     1
102
RTVSPropertyOp29
 70
     1
102
RTVSPropertyOp30
 70
     1
102
RTVSPropertyOp31
 70
     1
102
RTVSPropertyOp32
 70
     1
102
RTVSPropertyOp33
 70
     1
102
RTVSPropertyOp34
 70
     1
102
RTVSPropertyOp35
 70
     1
102
RTVSPropertyOp36
 70
     1
102
RTVSPropertyOp37
 70
     1
102
RTVSPropertyOp38
 70
     1
102
RTVSPropertyOp39
 70
     1
102
RTVSPropertyOp40
 70
     1
102
RTVSPropertyOp41
 70
     1
102
RTVSPropertyOp42
 70
     1
102
RTVSPropertyOp43
 70
     1
102
RTVSPropertyOp44
 70
     1
102
RTVSPropertyOp45
 70
     1
102
RTVSPropertyOp46
 70
     1
102
RTVSPropertyOp47
 70
     1
102
RTVSPropertyOp48
 70
     1
102
RTVSPropertyOp49
 70
     1
102
RTVSPropertyOp50
 70
     1
102
RTVSPropertyOp51
 70
     0
102
RTVSPropertyOp52
 70
     0
102
RTVSPropertyOp53
 70
     1
102
RTVSPropertyOp54
 70
     1
102
RTVSPropertyOp55
 70
     1
102
RTVSPropertyOp56
 70
     1
102
RTVSPropertyOp57
 70
     1
102
RTVSPropertyOp58
 70
     1
102
RTVSPropertyOp59
 70
     1
102
RTVSPropertyOp60
 70
     1
102
RTVSPropertyOp61
 70
     1
102
RTVSPropertyOp62
 70
     1
  0
XRECORD
  5
403A
102
{ACAD_REACTORS
330
4039
102
}
330
4039
100
AcDbXrecord
280
     1
102
RTVSPost2010Prop28
280
     0
102
RTVSPost2010PropOp28
 70
     1
102
RTVSPost2010Prop29
280
     1
102
RTVSPost2010PropOp29
 70
     1
102
RTVSPost2010Prop30
280
     1
102
RTVSPost2010PropOp30
 70
     1
102
RTVSPost2010Prop31
280
     0
102
RTVSPost2010PropOp31
 70
     1
102
RTVSPost2010Prop32
280
     0
102
RTVSPost2010PropOp32
 70
     1
102
RTVSPost2010Prop33
280
     0
102
RTVSPost2010PropOp33
 70
     1
102
RTVSPost2010Prop34
280
     0
102
RTVSPost2010PropOp34
 70
     1
102
RTVSPost2010Prop35
280
     0
102
RTVSPost2010PropOp35
 70
     1
102
RTVSPost2010Prop36
280
     0
102
RTVSPost2010PropOp36
 70
     1
102
RTVSPost2010Prop37
 90
       50
102
RTVSPost2010PropOp37
 70
     1
102
RTVSPost2010Prop38
140
0.0
102
RTVSPost2010PropOp38
 70
     1
102
RTVSPost2010Prop39
140
1.0
102
RTVSPost2010PropOp39
 70
     1
102
RTVSPost2010Prop40
 90
        0
102
RTVSPost2010PropOp40
 70
     1
102
RTVSPost2010Prop41ColorIndex
 90
       18
102
RTVSPost2010Prop41ColorRGB
 90
        0
102
RTVSPost2010PropOp41
 70
     1
102
RTVSPost2010Prop42
 90
       50
102
RTVSPost2010PropOp42
 70
     1
102
RTVSPost2010Prop43
 90
        3
102
RTVSPost2010PropOp43
 70
     1
102
RTVSPost2010Prop44ColorIndex
 90
        5
102
RTVSPost2010Prop44ColorRGB
 90
      255
102
RTVSPost2010PropOp44
 70
     1
102
RTVSPost2010Prop45
280
     0
102
RTVSPost2010PropOp45
 70
     1
102
RTVSPost2010Prop46
 90
       50
102
RTVSPost2010PropOp46
 70
     1
102
RTVSPost2010Prop47
 90
       50
102
RTVSPost2010PropOp47
 70
     1
102
RTVSPost2010Prop48
 90
       50
102
RTVSPost2010PropOp48
 70
     1
102
RTVSPost2010Prop49
280
     0
102
RTVSPost2010PropOp49
 70
     1
102
RTVSPost2010Prop50
 90
       50
102
RTVSPost2010PropOp50
 70
     1
102
RTVSPost2010Prop51ColorIndex
 90
      256
102
RTVSPost2010Prop51ColorRGB
 90
-16777216
102
RTVSPost2010PropOp51
 70
     0
102
RTVSPost2010Prop52
140
1.0
102
RTVSPost2010PropOp52
 70
     0
102
RTVSPost2010Prop53
 90
        2
102
RTVSPost2010PropOp53
 70
     1
102
RTVSPost2010Prop54
  1
strokes_ogs.tif
102
RTVSPost2010PropOp54
 70
     1
102
RTVSPost2010Prop55
280
     0
102
RTVSPost2010PropOp55
 70
     1
102
RTVSPost2010Prop56
140
1.0
102
RTVSPost2010PropOp56
 70
     1
102
RTVSPost2010Prop57
140
1.0
102
RTVSPost2010PropOp57
 70
     1
102
RTVSPropertyOp0
 70
     0
102
RTVSPropertyOp1
 70
     0
102
RTVSPropertyOp2
 70
     0
102
RTVSPropertyOp3
 70
     0
102
RTVSPropertyOp4
 70
     0
102
RTVSPropertyOp5
 70
     0
102
RTVSPropertyOp6
 70
     0
102
RTVSPropertyOp7
 70
     0
102
RTVSPropertyOp8
 70
     0
102
RTVSPropertyOp9
 70
     0
102
RTVSPropertyOp10
 70
     0
102
RTVSPropertyOp11
 70
     0
102
RTVSPropertyOp12
 70
     0
102
RTVSPropertyOp13
 70
     0
102
RTVSPropertyOp14
 70
     2
102
RTVSPropertyOp15
 70
     0
102
RTVSPropertyOp16
 70
     0
102
RTVSPropertyOp17
 70
     0
102
RTVSPropertyOp18
 70
     0
102
RTVSPropertyOp19
 70
     0
102
RTVSPropertyOp20
 70
     0
102
RTVSPropertyOp21
 70
     0
102
RTVSPropertyOp22
 70
     0
102
RTVSPropertyOp23
 70
     0
102
RTVSPropertyOp24
 70
     0
102
RTVSPropertyOp25
 70
     0
102
RTVSPropertyOp26
 70
     0
102
RTVSPropertyOp27
 70
     0
102
RTVSPropertyOp28
 70
     1
102
RTVSPropertyOp29
 70
     1
102
RTVSPropertyOp30
 70
     1
102
RTVSPropertyOp31
 70
     1
102
RTVSPropertyOp32
 70
     1
102
RTVSPropertyOp33
 70
     1
102
RTVSPropertyOp34
 70
     1
102
RTVSPropertyOp35
 70
     1
102
RTVSPropertyOp36
 70
     1
102
RTVSPropertyOp37
 70
     1
102
RTVSPropertyOp38
 70
     1
102
RTVSPropertyOp39
 70
     1
102
RTVSPropertyOp40
 70
     1
102
RTVSPropertyOp41
 70
     1
102
RTVSPropertyOp42
 70
     1
102
RTVSPropertyOp43
 70
     1
102
RTVSPropertyOp44
 70
     1
102
RTVSPropertyOp45
 70
     1
102
RTVSPropertyOp46
 70
     1
102
RTVSPropertyOp47
 70
     1
102
RTVSPropertyOp48
 70
     1
102
RTVSPropertyOp49
 70
     1
102
RTVSPropertyOp50
 70
     1
102
RTVSPropertyOp51
 70
     0
102
RTVSPropertyOp52
 70
     0
102
RTVSPropertyOp53
 70
     1
102
RTVSPropertyOp54
 70
     1
102
RTVSPropertyOp55
 70
     1
102
RTVSPropertyOp56
 70
     1
102
RTVSPropertyOp57
 70
     1
102
RTVSPropertyOp58
 70
     1
102
RTVSPropertyOp59
 70
     1
102
RTVSPropertyOp60
 70
     1
102
RTVSPropertyOp61
 70
     1
102
RTVSPropertyOp62
 70
     1
  0
XRECORD
  5
4032
102
{ACAD_REACTORS
330
4031
102
}
330
4031
100
AcDbXrecord
280
     1
102
RTVSPost2010Prop28
280
     0
102
RTVSPost2010PropOp28
 70
     1
102
RTVSPost2010Prop29
280
     1
102
RTVSPost2010PropOp29
 70
     1
102
RTVSPost2010Prop30
280
     1
102
RTVSPost2010PropOp30
 70
     1
102
RTVSPost2010Prop31
280
     0
102
RTVSPost2010PropOp31
 70
     1
102
RTVSPost2010Prop32
280
     0
102
RTVSPost2010PropOp32
 70
     1
102
RTVSPost2010Prop33
280
     0
102
RTVSPost2010PropOp33
 70
     1
102
RTVSPost2010Prop34
280
     0
102
RTVSPost2010PropOp34
 70
     1
102
RTVSPost2010Prop35
280
     0
102
RTVSPost2010PropOp35
 70
     1
102
RTVSPost2010Prop36
280
     0
102
RTVSPost2010PropOp36
 70
     1
102
RTVSPost2010Prop37
 90
       50
102
RTVSPost2010PropOp37
 70
     1
102
RTVSPost2010Prop38
140
0.0
102
RTVSPost2010PropOp38
 70
     1
102
RTVSPost2010Prop39
140
1.0
102
RTVSPost2010PropOp39
 70
     1
102
RTVSPost2010Prop40
 90
        0
102
RTVSPost2010PropOp40
 70
     1
102
RTVSPost2010Prop41ColorIndex
 90
       18
102
RTVSPost2010Prop41ColorRGB
 90
        0
102
RTVSPost2010PropOp41
 70
     1
102
RTVSPost2010Prop42
 90
       50
102
RTVSPost2010PropOp42
 70
     1
102
RTVSPost2010Prop43
 90
        3
102
RTVSPost2010PropOp43
 70
     1
102
RTVSPost2010Prop44ColorIndex
 90
        5
102
RTVSPost2010Prop44ColorRGB
 90
      255
102
RTVSPost2010PropOp44
 70
     1
102
RTVSPost2010Prop45
280
     0
102
RTVSPost2010PropOp45
 70
     1
102
RTVSPost2010Prop46
 90
       50
102
RTVSPost2010PropOp46
 70
     1
102
RTVSPost2010Prop47
 90
       50
102
RTVSPost2010PropOp47
 70
     1
102
RTVSPost2010Prop48
 90
       50
102
RTVSPost2010PropOp48
 70
     1
102
RTVSPost2010Prop49
280
     0
102
RTVSPost2010PropOp49
 70
     1
102
RTVSPost2010Prop50
 90
       50
102
RTVSPost2010PropOp50
 70
     1
102
RTVSPost2010Prop51ColorIndex
 90
      256
102
RTVSPost2010Prop51ColorRGB
 90
-16777216
102
RTVSPost2010PropOp51
 70
     0
102
RTVSPost2010Prop52
140
1.0
102
RTVSPost2010PropOp52
 70
     0
102
RTVSPost2010Prop53
 90
        2
102
RTVSPost2010PropOp53
 70
     1
102
RTVSPost2010Prop54
  1
strokes_ogs.tif
102
RTVSPost2010PropOp54
 70
     1
102
RTVSPost2010Prop55
280
     0
102
RTVSPost2010PropOp55
 70
     1
102
RTVSPost2010Prop56
140
1.0
102
RTVSPost2010PropOp56
 70
     1
102
RTVSPost2010Prop57
140
1.0
102
RTVSPost2010PropOp57
 70
     1
102
RTVSPropertyOp0
 70
     1
102
RTVSPropertyOp1
 70
     1
102
RTVSPropertyOp2
 70
     1
102
RTVSPropertyOp3
 70
     1
102
RTVSPropertyOp4
 70
     1
102
RTVSPropertyOp5
 70
     1
102
RTVSPropertyOp6
 70
     1
102
RTVSPropertyOp7
 70
     1
102
RTVSPropertyOp8
 70
     1
102
RTVSPropertyOp9
 70
     1
102
RTVSPropertyOp10
 70
     1
102
RTVSPropertyOp11
 70
     1
102
RTVSPropertyOp12
 70
     1
102
RTVSPropertyOp13
 70
     1
102
RTVSPropertyOp14
 70
     1
102
RTVSPropertyOp15
 70
     1
102
RTVSPropertyOp16
 70
     1
102
RTVSPropertyOp17
 70
     1
102
RTVSPropertyOp18
 70
     1
102
RTVSPropertyOp19
 70
     1
102
RTVSPropertyOp20
 70
     1
102
RTVSPropertyOp21
 70
     1
102
RTVSPropertyOp22
 70
     1
102
RTVSPropertyOp23
 70
     1
102
RTVSPropertyOp24
 70
     1
102
RTVSPropertyOp25
 70
     1
102
RTVSPropertyOp26
 70
     1
102
RTVSPropertyOp27
 70
     1
102
RTVSPropertyOp28
 70
     1
102
RTVSPropertyOp29
 70
     1
102
RTVSPropertyOp30
 70
     1
102
RTVSPropertyOp31
 70
     1
102
RTVSPropertyOp32
 70
     1
102
RTVSPropertyOp33
 70
     1
102
RTVSPropertyOp34
 70
     1
102
RTVSPropertyOp35
 70
     1
102
RTVSPropertyOp36
 70
     1
102
RTVSPropertyOp37
 70
     1
102
RTVSPropertyOp38
 70
     1
102
RTVSPropertyOp39
 70
     1
102
RTVSPropertyOp40
 70
     1
102
RTVSPropertyOp41
 70
     1
102
RTVSPropertyOp42
 70
     1
102
RTVSPropertyOp43
 70
     1
102
RTVSPropertyOp44
 70
     1
102
RTVSPropertyOp45
 70
     1
102
RTVSPropertyOp46
 70
     1
102
RTVSPropertyOp47
 70
     1
102
RTVSPropertyOp48
 70
     1
102
RTVSPropertyOp49
 70
     1
102
RTVSPropertyOp50
 70
     1
102
RTVSPropertyOp51
 70
     0
102
RTVSPropertyOp52
 70
     0
102
RTVSPropertyOp53
 70
     1
102
RTVSPropertyOp54
 70
     1
102
RTVSPropertyOp55
 70
     1
102
RTVSPropertyOp56
 70
     1
102
RTVSPropertyOp57
 70
     1
102
RTVSPropertyOp58
 70
     1
102
RTVSPropertyOp59
 70
     1
102
RTVSPropertyOp60
 70
     1
102
RTVSPropertyOp61
 70
     1
102
RTVSPropertyOp62
 70
     1
  0
XRECORD
  5
403C
102
{ACAD_REACTORS
330
403B
102
}
330
403B
100
AcDbXrecord
280
     1
102
RTVSPost2010Prop28
280
     0
102
RTVSPost2010PropOp28
 70
     1
102
RTVSPost2010Prop29
280
     1
102
RTVSPost2010PropOp29
 70
     1
102
RTVSPost2010Prop30
280
     1
102
RTVSPost2010PropOp30
 70
     1
102
RTVSPost2010Prop31
280
     0
102
RTVSPost2010PropOp31
 70
     1
102
RTVSPost2010Prop32
280
     0
102
RTVSPost2010PropOp32
 70
     1
102
RTVSPost2010Prop33
280
     0
102
RTVSPost2010PropOp33
 70
     1
102
RTVSPost2010Prop34
280
     0
102
RTVSPost2010PropOp34
 70
     1
102
RTVSPost2010Prop35
280
     0
102
RTVSPost2010PropOp35
 70
     1
102
RTVSPost2010Prop36
280
     0
102
RTVSPost2010PropOp36
 70
     1
102
RTVSPost2010Prop37
 90
       50
102
RTVSPost2010PropOp37
 70
     1
102
RTVSPost2010Prop38
140
0.0
102
RTVSPost2010PropOp38
 70
     1
102
RTVSPost2010Prop39
140
1.0
102
RTVSPost2010PropOp39
 70
     1
102
RTVSPost2010Prop40
 90
        0
102
RTVSPost2010PropOp40
 70
     1
102
RTVSPost2010Prop41ColorIndex
 90
       18
102
RTVSPost2010Prop41ColorRGB
 90
        0
102
RTVSPost2010PropOp41
 70
     1
102
RTVSPost2010Prop42
 90
       50
102
RTVSPost2010PropOp42
 70
     1
102
RTVSPost2010Prop43
 90
        3
102
RTVSPost2010PropOp43
 70
     1
102
RTVSPost2010Prop44ColorIndex
 90
        5
102
RTVSPost2010Prop44ColorRGB
 90
      255
102
RTVSPost2010PropOp44
 70
     1
102
RTVSPost2010Prop45
280
     0
102
RTVSPost2010PropOp45
 70
     1
102
RTVSPost2010Prop46
 90
       50
102
RTVSPost2010PropOp46
 70
     1
102
RTVSPost2010Prop47
 90
       50
102
RTVSPost2010PropOp47
 70
     1
102
RTVSPost2010Prop48
 90
       50
102
RTVSPost2010PropOp48
 70
     1
102
RTVSPost2010Prop49
280
     0
102
RTVSPost2010PropOp49
 70
     1
102
RTVSPost2010Prop50
 90
       50
102
RTVSPost2010PropOp50
 70
     1
102
RTVSPost2010Prop51ColorIndex
 90
      256
102
RTVSPost2010Prop51ColorRGB
 90
-16777216
102
RTVSPost2010PropOp51
 70
     0
102
RTVSPost2010Prop52
140
1.0
102
RTVSPost2010PropOp52
 70
     0
102
RTVSPost2010Prop53
 90
        2
102
RTVSPost2010PropOp53
 70
     1
102
RTVSPost2010Prop54
  1
strokes_ogs.tif
102
RTVSPost2010PropOp54
 70
     1
102
RTVSPost2010Prop55
280
     0
102
RTVSPost2010PropOp55
 70
     1
102
RTVSPost2010Prop56
140
1.0
102
RTVSPost2010PropOp56
 70
     1
102
RTVSPost2010Prop57
140
1.0
102
RTVSPost2010PropOp57
 70
     1
102
RTVSPropertyOp0
 70
     0
102
RTVSPropertyOp1
 70
     0
102
RTVSPropertyOp2
 70
     0
102
RTVSPropertyOp3
 70
     0
102
RTVSPropertyOp4
 70
     0
102
RTVSPropertyOp5
 70
     0
102
RTVSPropertyOp6
 70
     0
102
RTVSPropertyOp7
 70
     0
102
RTVSPropertyOp8
 70
     0
102
RTVSPropertyOp9
 70
     0
102
RTVSPropertyOp10
 70
     0
102
RTVSPropertyOp11
 70
     0
102
RTVSPropertyOp12
 70
     0
102
RTVSPropertyOp13
 70
     0
102
RTVSPropertyOp14
 70
     2
102
RTVSPropertyOp15
 70
     0
102
RTVSPropertyOp16
 70
     0
102
RTVSPropertyOp17
 70
     0
102
RTVSPropertyOp18
 70
     0
102
RTVSPropertyOp19
 70
     0
102
RTVSPropertyOp20
 70
     0
102
RTVSPropertyOp21
 70
     0
102
RTVSPropertyOp22
 70
     0
102
RTVSPropertyOp23
 70
     0
102
RTVSPropertyOp24
 70
     0
102
RTVSPropertyOp25
 70
     0
102
RTVSPropertyOp26
 70
     0
102
RTVSPropertyOp27
 70
     0
102
RTVSPropertyOp28
 70
     1
102
RTVSPropertyOp29
 70
     1
102
RTVSPropertyOp30
 70
     1
102
RTVSPropertyOp31
 70
     1
102
RTVSPropertyOp32
 70
     1
102
RTVSPropertyOp33
 70
     1
102
RTVSPropertyOp34
 70
     1
102
RTVSPropertyOp35
 70
     1
102
RTVSPropertyOp36
 70
     1
102
RTVSPropertyOp37
 70
     1
102
RTVSPropertyOp38
 70
     1
102
RTVSPropertyOp39
 70
     1
102
RTVSPropertyOp40
 70
     1
102
RTVSPropertyOp41
 70
     1
102
RTVSPropertyOp42
 70
     1
102
RTVSPropertyOp43
 70
     1
102
RTVSPropertyOp44
 70
     1
102
RTVSPropertyOp45
 70
     1
102
RTVSPropertyOp46
 70
     1
102
RTVSPropertyOp47
 70
     1
102
RTVSPropertyOp48
 70
     1
102
RTVSPropertyOp49
 70
     1
102
RTVSPropertyOp50
 70
     1
102
RTVSPropertyOp51
 70
     0
102
RTVSPropertyOp52
 70
     0
102
RTVSPropertyOp53
 70
     1
102
RTVSPropertyOp54
 70
     1
102
RTVSPropertyOp55
 70
     1
102
RTVSPropertyOp56
 70
     1
102
RTVSPropertyOp57
 70
     1
102
RTVSPropertyOp58
 70
     1
102
RTVSPropertyOp59
 70
     1
102
RTVSPropertyOp60
 70
     1
102
RTVSPropertyOp61
 70
     1
102
RTVSPropertyOp62
 70
     1
  0
XRECORD
  5
402A
102
{ACAD_REACTORS
330
4029
102
}
330
4029
100
AcDbXrecord
280
     1
102
RTVSPost2010Prop28
280
     0
102
RTVSPost2010PropOp28
 70
     1
102
RTVSPost2010Prop29
280
     1
102
RTVSPost2010PropOp29
 70
     1
102
RTVSPost2010Prop30
280
     1
102
RTVSPost2010PropOp30
 70
     1
102
RTVSPost2010Prop31
280
     0
102
RTVSPost2010PropOp31
 70
     1
102
RTVSPost2010Prop32
280
     0
102
RTVSPost2010PropOp32
 70
     1
102
RTVSPost2010Prop33
280
     0
102
RTVSPost2010PropOp33
 70
     1
102
RTVSPost2010Prop34
280
     0
102
RTVSPost2010PropOp34
 70
     1
102
RTVSPost2010Prop35
280
     0
102
RTVSPost2010PropOp35
 70
     1
102
RTVSPost2010Prop36
280
     0
102
RTVSPost2010PropOp36
 70
     1
102
RTVSPost2010Prop37
 90
       50
102
RTVSPost2010PropOp37
 70
     1
102
RTVSPost2010Prop38
140
0.0
102
RTVSPost2010PropOp38
 70
     1
102
RTVSPost2010Prop39
140
1.0
102
RTVSPost2010PropOp39
 70
     1
102
RTVSPost2010Prop40
 90
        0
102
RTVSPost2010PropOp40
 70
     1
102
RTVSPost2010Prop41ColorIndex
 90
       18
102
RTVSPost2010Prop41ColorRGB
 90
        0
102
RTVSPost2010PropOp41
 70
     1
102
RTVSPost2010Prop42
 90
       50
102
RTVSPost2010PropOp42
 70
     1
102
RTVSPost2010Prop43
 90
        3
102
RTVSPost2010PropOp43
 70
     1
102
RTVSPost2010Prop44ColorIndex
 90
        5
102
RTVSPost2010Prop44ColorRGB
 90
      255
102
RTVSPost2010PropOp44
 70
     1
102
RTVSPost2010Prop45
280
     0
102
RTVSPost2010PropOp45
 70
     1
102
RTVSPost2010Prop46
 90
       50
102
RTVSPost2010PropOp46
 70
     1
102
RTVSPost2010Prop47
 90
       50
102
RTVSPost2010PropOp47
 70
     1
102
RTVSPost2010Prop48
 90
       50
102
RTVSPost2010PropOp48
 70
     1
102
RTVSPost2010Prop49
280
     0
102
RTVSPost2010PropOp49
 70
     1
102
RTVSPost2010Prop50
 90
       50
102
RTVSPost2010PropOp50
 70
     1
102
RTVSPost2010Prop51ColorIndex
 90
      256
102
RTVSPost2010Prop51ColorRGB
 90
-16777216
102
RTVSPost2010PropOp51
 70
     0
102
RTVSPost2010Prop52
140
1.0
102
RTVSPost2010PropOp52
 70
     0
102
RTVSPost2010Prop53
 90
        2
102
RTVSPost2010PropOp53
 70
     1
102
RTVSPost2010Prop54
  1
strokes_ogs.tif
102
RTVSPost2010PropOp54
 70
     1
102
RTVSPost2010Prop55
280
     0
102
RTVSPost2010PropOp55
 70
     1
102
RTVSPost2010Prop56
140
1.0
102
RTVSPost2010PropOp56
 70
     1
102
RTVSPost2010Prop57
140
1.0
102
RTVSPost2010PropOp57
 70
     1
102
RTVSPropertyOp0
 70
     1
102
RTVSPropertyOp1
 70
     1
102
RTVSPropertyOp2
 70
     1
102
RTVSPropertyOp3
 70
     1
102
RTVSPropertyOp4
 70
     1
102
RTVSPropertyOp5
 70
     1
102
RTVSPropertyOp6
 70
     1
102
RTVSPropertyOp7
 70
     1
102
RTVSPropertyOp8
 70
     1
102
RTVSPropertyOp9
 70
     1
102
RTVSPropertyOp10
 70
     1
102
RTVSPropertyOp11
 70
     1
102
RTVSPropertyOp12
 70
     1
102
RTVSPropertyOp13
 70
     1
102
RTVSPropertyOp14
 70
     1
102
RTVSPropertyOp15
 70
     1
102
RTVSPropertyOp16
 70
     1
102
RTVSPropertyOp17
 70
     1
102
RTVSPropertyOp18
 70
     1
102
RTVSPropertyOp19
 70
     1
102
RTVSPropertyOp20
 70
     1
102
RTVSPropertyOp21
 70
     1
102
RTVSPropertyOp22
 70
     1
102
RTVSPropertyOp23
 70
     1
102
RTVSPropertyOp24
 70
     1
102
RTVSPropertyOp25
 70
     1
102
RTVSPropertyOp26
 70
     1
102
RTVSPropertyOp27
 70
     1
102
RTVSPropertyOp28
 70
     1
102
RTVSPropertyOp29
 70
     1
102
RTVSPropertyOp30
 70
     1
102
RTVSPropertyOp31
 70
     1
102
RTVSPropertyOp32
 70
     1
102
RTVSPropertyOp33
 70
     1
102
RTVSPropertyOp34
 70
     1
102
RTVSPropertyOp35
 70
     1
102
RTVSPropertyOp36
 70
     1
102
RTVSPropertyOp37
 70
     1
102
RTVSPropertyOp38
 70
     1
102
RTVSPropertyOp39
 70
     1
102
RTVSPropertyOp40
 70
     1
102
RTVSPropertyOp41
 70
     1
102
RTVSPropertyOp42
 70
     1
102
RTVSPropertyOp43
 70
     1
102
RTVSPropertyOp44
 70
     1
102
RTVSPropertyOp45
 70
     1
102
RTVSPropertyOp46
 70
     1
102
RTVSPropertyOp47
 70
     1
102
RTVSPropertyOp48
 70
     1
102
RTVSPropertyOp49
 70
     1
102
RTVSPropertyOp50
 70
     1
102
RTVSPropertyOp51
 70
     0
102
RTVSPropertyOp52
 70
     0
102
RTVSPropertyOp53
 70
     1
102
RTVSPropertyOp54
 70
     1
102
RTVSPropertyOp55
 70
     1
102
RTVSPropertyOp56
 70
     1
102
RTVSPropertyOp57
 70
     1
102
RTVSPropertyOp58
 70
     1
102
RTVSPropertyOp59
 70
     1
102
RTVSPropertyOp60
 70
     1
102
RTVSPropertyOp61
 70
     1
102
RTVSPropertyOp62
 70
     1
  0
XRECORD
  5
4048
102
{ACAD_REACTORS
330
4047
102
}
330
4047
100
AcDbXrecord
280
     1
102
RTVSPost2010Prop28
280
     0
102
RTVSPost2010PropOp28
 70
     1
102
RTVSPost2010Prop29
280
     1
102
RTVSPost2010PropOp29
 70
     1
102
RTVSPost2010Prop30
280
     1
102
RTVSPost2010PropOp30
 70
     1
102
RTVSPost2010Prop31
280
     0
102
RTVSPost2010PropOp31
 70
     1
102
RTVSPost2010Prop32
280
     0
102
RTVSPost2010PropOp32
 70
     1
102
RTVSPost2010Prop33
280
     0
102
RTVSPost2010PropOp33
 70
     1
102
RTVSPost2010Prop34
280
     0
102
RTVSPost2010PropOp34
 70
     1
102
RTVSPost2010Prop35
280
     0
102
RTVSPost2010PropOp35
 70
     1
102
RTVSPost2010Prop36
280
     0
102
RTVSPost2010PropOp36
 70
     1
102
RTVSPost2010Prop37
 90
       50
102
RTVSPost2010PropOp37
 70
     1
102
RTVSPost2010Prop38
140
0.0
102
RTVSPost2010PropOp38
 70
     1
102
RTVSPost2010Prop39
140
1.0
102
RTVSPost2010PropOp39
 70
     1
102
RTVSPost2010Prop40
 90
        0
102
RTVSPost2010PropOp40
 70
     1
102
RTVSPost2010Prop41ColorIndex
 90
       18
102
RTVSPost2010Prop41ColorRGB
 90
        0
102
RTVSPost2010PropOp41
 70
     1
102
RTVSPost2010Prop42
 90
       50
102
RTVSPost2010PropOp42
 70
     1
102
RTVSPost2010Prop43
 90
        3
102
RTVSPost2010PropOp43
 70
     1
102
RTVSPost2010Prop44ColorIndex
 90
        5
102
RTVSPost2010Prop44ColorRGB
 90
      255
102
RTVSPost2010PropOp44
 70
     1
102
RTVSPost2010Prop45
280
     0
102
RTVSPost2010PropOp45
 70
     1
102
RTVSPost2010Prop46
 90
       50
102
RTVSPost2010PropOp46
 70
     1
102
RTVSPost2010Prop47
 90
       50
102
RTVSPost2010PropOp47
 70
     1
102
RTVSPost2010Prop48
 90
       50
102
RTVSPost2010PropOp48
 70
     1
102
RTVSPost2010Prop49
280
     0
102
RTVSPost2010PropOp49
 70
     1
102
RTVSPost2010Prop50
 90
       50
102
RTVSPost2010PropOp50
 70
     1
102
RTVSPost2010Prop51ColorIndex
 90
      256
102
RTVSPost2010Prop51ColorRGB
 90
-16777216
102
RTVSPost2010PropOp51
 70
     0
102
RTVSPost2010Prop52
140
1.0
102
RTVSPost2010PropOp52
 70
     0
102
RTVSPost2010Prop53
 90
        2
102
RTVSPost2010PropOp53
 70
     1
102
RTVSPost2010Prop54
  1
strokes_ogs.tif
102
RTVSPost2010PropOp54
 70
     1
102
RTVSPost2010Prop55
280
     0
102
RTVSPost2010PropOp55
 70
     1
102
RTVSPost2010Prop56
140
1.0
102
RTVSPost2010PropOp56
 70
     1
102
RTVSPost2010Prop57
140
1.0
102
RTVSPost2010PropOp57
 70
     1
102
RTVSPropertyOp0
 70
     1
102
RTVSPropertyOp1
 70
     1
102
RTVSPropertyOp2
 70
     1
102
RTVSPropertyOp3
 70
     1
102
RTVSPropertyOp4
 70
     1
102
RTVSPropertyOp5
 70
     1
102
RTVSPropertyOp6
 70
     1
102
RTVSPropertyOp7
 70
     1
102
RTVSPropertyOp8
 70
     1
102
RTVSPropertyOp9
 70
     1
102
RTVSPropertyOp10
 70
     1
102
RTVSPropertyOp11
 70
     1
102
RTVSPropertyOp12
 70
     1
102
RTVSPropertyOp13
 70
     1
102
RTVSPropertyOp14
 70
     1
102
RTVSPropertyOp15
 70
     1
102
RTVSPropertyOp16
 70
     1
102
RTVSPropertyOp17
 70
     1
102
RTVSPropertyOp18
 70
     1
102
RTVSPropertyOp19
 70
     1
102
RTVSPropertyOp20
 70
     1
102
RTVSPropertyOp21
 70
     1
102
RTVSPropertyOp22
 70
     1
102
RTVSPropertyOp23
 70
     1
102
RTVSPropertyOp24
 70
     1
102
RTVSPropertyOp25
 70
     1
102
RTVSPropertyOp26
 70
     1
102
RTVSPropertyOp27
 70
     1
102
RTVSPropertyOp28
 70
     1
102
RTVSPropertyOp29
 70
     1
102
RTVSPropertyOp30
 70
     1
102
RTVSPropertyOp31
 70
     1
102
RTVSPropertyOp32
 70
     1
102
RTVSPropertyOp33
 70
     1
102
RTVSPropertyOp34
 70
     1
102
RTVSPropertyOp35
 70
     1
102
RTVSPropertyOp36
 70
     1
102
RTVSPropertyOp37
 70
     1
102
RTVSPropertyOp38
 70
     1
102
RTVSPropertyOp39
 70
     1
102
RTVSPropertyOp40
 70
     1
102
RTVSPropertyOp41
 70
     1
102
RTVSPropertyOp42
 70
     1
102
RTVSPropertyOp43
 70
     1
102
RTVSPropertyOp44
 70
     1
102
RTVSPropertyOp45
 70
     1
102
RTVSPropertyOp46
 70
     1
102
RTVSPropertyOp47
 70
     1
102
RTVSPropertyOp48
 70
     1
102
RTVSPropertyOp49
 70
     1
102
RTVSPropertyOp50
 70
     1
102
RTVSPropertyOp51
 70
     0
102
RTVSPropertyOp52
 70
     0
102
RTVSPropertyOp53
 70
     1
102
RTVSPropertyOp54
 70
     1
102
RTVSPropertyOp55
 70
     1
102
RTVSPropertyOp56
 70
     1
102
RTVSPropertyOp57
 70
     1
102
RTVSPropertyOp58
 70
     1
102
RTVSPropertyOp59
 70
     1
102
RTVSPropertyOp60
 70
     1
102
RTVSPropertyOp61
 70
     1
102
RTVSPropertyOp62
 70
     1
  0
XRECORD
  5
4046
102
{ACAD_REACTORS
330
4045
102
}
330
4045
100
AcDbXrecord
280
     1
102
RTVSPost2010Prop28
280
     0
102
RTVSPost2010PropOp28
 70
     1
102
RTVSPost2010Prop29
280
     1
102
RTVSPost2010PropOp29
 70
     1
102
RTVSPost2010Prop30
280
     1
102
RTVSPost2010PropOp30
 70
     1
102
RTVSPost2010Prop31
280
     0
102
RTVSPost2010PropOp31
 70
     1
102
RTVSPost2010Prop32
280
     0
102
RTVSPost2010PropOp32
 70
     1
102
RTVSPost2010Prop33
280
     0
102
RTVSPost2010PropOp33
 70
     1
102
RTVSPost2010Prop34
280
     0
102
RTVSPost2010PropOp34
 70
     1
102
RTVSPost2010Prop35
280
     0
102
RTVSPost2010PropOp35
 70
     1
102
RTVSPost2010Prop36
280
     0
102
RTVSPost2010PropOp36
 70
     1
102
RTVSPost2010Prop37
 90
       50
102
RTVSPost2010PropOp37
 70
     1
102
RTVSPost2010Prop38
140
0.0
102
RTVSPost2010PropOp38
 70
     1
102
RTVSPost2010Prop39
140
1.0
102
RTVSPost2010PropOp39
 70
     1
102
RTVSPost2010Prop40
 90
        0
102
RTVSPost2010PropOp40
 70
     1
102
RTVSPost2010Prop41ColorIndex
 90
       18
102
RTVSPost2010Prop41ColorRGB
 90
        0
102
RTVSPost2010PropOp41
 70
     1
102
RTVSPost2010Prop42
 90
       50
102
RTVSPost2010PropOp42
 70
     1
102
RTVSPost2010Prop43
 90
        3
102
RTVSPost2010PropOp43
 70
     1
102
RTVSPost2010Prop44ColorIndex
 90
        5
102
RTVSPost2010Prop44ColorRGB
 90
      255
102
RTVSPost2010PropOp44
 70
     1
102
RTVSPost2010Prop45
280
     0
102
RTVSPost2010PropOp45
 70
     1
102
RTVSPost2010Prop46
 90
       50
102
RTVSPost2010PropOp46
 70
     1
102
RTVSPost2010Prop47
 90
       50
102
RTVSPost2010PropOp47
 70
     1
102
RTVSPost2010Prop48
 90
       50
102
RTVSPost2010PropOp48
 70
     1
102
RTVSPost2010Prop49
280
     0
102
RTVSPost2010PropOp49
 70
     1
102
RTVSPost2010Prop50
 90
       50
102
RTVSPost2010PropOp50
 70
     1
102
RTVSPost2010Prop51ColorIndex
 90
      256
102
RTVSPost2010Prop51ColorRGB
 90
-16777216
102
RTVSPost2010PropOp51
 70
     0
102
RTVSPost2010Prop52
140
1.0
102
RTVSPost2010PropOp52
 70
     0
102
RTVSPost2010Prop53
 90
        2
102
RTVSPost2010PropOp53
 70
     1
102
RTVSPost2010Prop54
  1
strokes_ogs.tif
102
RTVSPost2010PropOp54
 70
     1
102
RTVSPost2010Prop55
280
     0
102
RTVSPost2010PropOp55
 70
     1
102
RTVSPost2010Prop56
140
1.0
102
RTVSPost2010PropOp56
 70
     1
102
RTVSPost2010Prop57
140
1.0
102
RTVSPost2010PropOp57
 70
     1
102
RTVSPropertyOp0
 70
     1
102
RTVSPropertyOp1
 70
     1
102
RTVSPropertyOp2
 70
     1
102
RTVSPropertyOp3
 70
     1
102
RTVSPropertyOp4
 70
     1
102
RTVSPropertyOp5
 70
     1
102
RTVSPropertyOp6
 70
     1
102
RTVSPropertyOp7
 70
     1
102
RTVSPropertyOp8
 70
     1
102
RTVSPropertyOp9
 70
     1
102
RTVSPropertyOp10
 70
     1
102
RTVSPropertyOp11
 70
     1
102
RTVSPropertyOp12
 70
     1
102
RTVSPropertyOp13
 70
     1
102
RTVSPropertyOp14
 70
     1
102
RTVSPropertyOp15
 70
     1
102
RTVSPropertyOp16
 70
     1
102
RTVSPropertyOp17
 70
     1
102
RTVSPropertyOp18
 70
     1
102
RTVSPropertyOp19
 70
     1
102
RTVSPropertyOp20
 70
     1
102
RTVSPropertyOp21
 70
     1
102
RTVSPropertyOp22
 70
     1
102
RTVSPropertyOp23
 70
     1
102
RTVSPropertyOp24
 70
     1
102
RTVSPropertyOp25
 70
     1
102
RTVSPropertyOp26
 70
     1
102
RTVSPropertyOp27
 70
     1
102
RTVSPropertyOp28
 70
     1
102
RTVSPropertyOp29
 70
     1
102
RTVSPropertyOp30
 70
     1
102
RTVSPropertyOp31
 70
     1
102
RTVSPropertyOp32
 70
     1
102
RTVSPropertyOp33
 70
     1
102
RTVSPropertyOp34
 70
     1
102
RTVSPropertyOp35
 70
     1
102
RTVSPropertyOp36
 70
     1
102
RTVSPropertyOp37
 70
     1
102
RTVSPropertyOp38
 70
     1
102
RTVSPropertyOp39
 70
     1
102
RTVSPropertyOp40
 70
     1
102
RTVSPropertyOp41
 70
     1
102
RTVSPropertyOp42
 70
     1
102
RTVSPropertyOp43
 70
     1
102
RTVSPropertyOp44
 70
     1
102
RTVSPropertyOp45
 70
     1
102
RTVSPropertyOp46
 70
     1
102
RTVSPropertyOp47
 70
     1
102
RTVSPropertyOp48
 70
     1
102
RTVSPropertyOp49
 70
     1
102
RTVSPropertyOp50
 70
     1
102
RTVSPropertyOp51
 70
     0
102
RTVSPropertyOp52
 70
     0
102
RTVSPropertyOp53
 70
     1
102
RTVSPropertyOp54
 70
     1
102
RTVSPropertyOp55
 70
     1
102
RTVSPropertyOp56
 70
     1
102
RTVSPropertyOp57
 70
     1
102
RTVSPropertyOp58
 70
     1
102
RTVSPropertyOp59
 70
     1
102
RTVSPropertyOp60
 70
     1
102
RTVSPropertyOp61
 70
     1
102
RTVSPropertyOp62
 70
     1
  0
XRECORD
  5
4040
102
{ACAD_REACTORS
330
403F
102
}
330
403F
100
AcDbXrecord
280
     1
102
RTVSPost2010Prop28
280
     0
102
RTVSPost2010PropOp28
 70
     1
102
RTVSPost2010Prop29
280
     1
102
RTVSPost2010PropOp29
 70
     1
102
RTVSPost2010Prop30
280
     1
102
RTVSPost2010PropOp30
 70
     1
102
RTVSPost2010Prop31
280
     0
102
RTVSPost2010PropOp31
 70
     1
102
RTVSPost2010Prop32
280
     0
102
RTVSPost2010PropOp32
 70
     1
102
RTVSPost2010Prop33
280
     0
102
RTVSPost2010PropOp33
 70
     1
102
RTVSPost2010Prop34
280
     0
102
RTVSPost2010PropOp34
 70
     1
102
RTVSPost2010Prop35
280
     0
102
RTVSPost2010PropOp35
 70
     1
102
RTVSPost2010Prop36
280
     0
102
RTVSPost2010PropOp36
 70
     1
102
RTVSPost2010Prop37
 90
       50
102
RTVSPost2010PropOp37
 70
     1
102
RTVSPost2010Prop38
140
0.0
102
RTVSPost2010PropOp38
 70
     1
102
RTVSPost2010Prop39
140
1.0
102
RTVSPost2010PropOp39
 70
     1
102
RTVSPost2010Prop40
 90
        0
102
RTVSPost2010PropOp40
 70
     1
102
RTVSPost2010Prop41ColorIndex
 90
       18
102
RTVSPost2010Prop41ColorRGB
 90
        0
102
RTVSPost2010PropOp41
 70
     1
102
RTVSPost2010Prop42
 90
       50
102
RTVSPost2010PropOp42
 70
     1
102
RTVSPost2010Prop43
 90
        3
102
RTVSPost2010PropOp43
 70
     1
102
RTVSPost2010Prop44ColorIndex
 90
        5
102
RTVSPost2010Prop44ColorRGB
 90
      255
102
RTVSPost2010PropOp44
 70
     1
102
RTVSPost2010Prop45
280
     0
102
RTVSPost2010PropOp45
 70
     1
102
RTVSPost2010Prop46
 90
       50
102
RTVSPost2010PropOp46
 70
     1
102
RTVSPost2010Prop47
 90
       50
102
RTVSPost2010PropOp47
 70
     1
102
RTVSPost2010Prop48
 90
       50
102
RTVSPost2010PropOp48
 70
     1
102
RTVSPost2010Prop49
280
     0
102
RTVSPost2010PropOp49
 70
     1
102
RTVSPost2010Prop50
 90
       50
102
RTVSPost2010PropOp50
 70
     1
102
RTVSPost2010Prop51ColorIndex
 90
      256
102
RTVSPost2010Prop51ColorRGB
 90
-16777216
102
RTVSPost2010PropOp51
 70
     0
102
RTVSPost2010Prop52
140
1.0
102
RTVSPost2010PropOp52
 70
     0
102
RTVSPost2010Prop53
 90
        2
102
RTVSPost2010PropOp53
 70
     1
102
RTVSPost2010Prop54
  1
strokes_ogs.tif
102
RTVSPost2010PropOp54
 70
     1
102
RTVSPost2010Prop55
280
     0
102
RTVSPost2010PropOp55
 70
     1
102
RTVSPost2010Prop56
140
1.0
102
RTVSPost2010PropOp56
 70
     1
102
RTVSPost2010Prop57
140
1.0
102
RTVSPost2010PropOp57
 70
     1
102
RTVSPropertyOp0
 70
     1
102
RTVSPropertyOp1
 70
     1
102
RTVSPropertyOp2
 70
     1
102
RTVSPropertyOp3
 70
     1
102
RTVSPropertyOp4
 70
     1
102
RTVSPropertyOp5
 70
     1
102
RTVSPropertyOp6
 70
     1
102
RTVSPropertyOp7
 70
     1
102
RTVSPropertyOp8
 70
     1
102
RTVSPropertyOp9
 70
     1
102
RTVSPropertyOp10
 70
     1
102
RTVSPropertyOp11
 70
     1
102
RTVSPropertyOp12
 70
     1
102
RTVSPropertyOp13
 70
     1
102
RTVSPropertyOp14
 70
     1
102
RTVSPropertyOp15
 70
     1
102
RTVSPropertyOp16
 70
     1
102
RTVSPropertyOp17
 70
     1
102
RTVSPropertyOp18
 70
     1
102
RTVSPropertyOp19
 70
     1
102
RTVSPropertyOp20
 70
     1
102
RTVSPropertyOp21
 70
     1
102
RTVSPropertyOp22
 70
     1
102
RTVSPropertyOp23
 70
     1
102
RTVSPropertyOp24
 70
     1
102
RTVSPropertyOp25
 70
     1
102
RTVSPropertyOp26
 70
     1
102
RTVSPropertyOp27
 70
     1
102
RTVSPropertyOp28
 70
     1
102
RTVSPropertyOp29
 70
     1
102
RTVSPropertyOp30
 70
     1
102
RTVSPropertyOp31
 70
     1
102
RTVSPropertyOp32
 70
     1
102
RTVSPropertyOp33
 70
     1
102
RTVSPropertyOp34
 70
     1
102
RTVSPropertyOp35
 70
     1
102
RTVSPropertyOp36
 70
     1
102
RTVSPropertyOp37
 70
     1
102
RTVSPropertyOp38
 70
     1
102
RTVSPropertyOp39
 70
     1
102
RTVSPropertyOp40
 70
     1
102
RTVSPropertyOp41
 70
     1
102
RTVSPropertyOp42
 70
     1
102
RTVSPropertyOp43
 70
     1
102
RTVSPropertyOp44
 70
     1
102
RTVSPropertyOp45
 70
     1
102
RTVSPropertyOp46
 70
     1
102
RTVSPropertyOp47
 70
     1
102
RTVSPropertyOp48
 70
     1
102
RTVSPropertyOp49
 70
     1
102
RTVSPropertyOp50
 70
     1
102
RTVSPropertyOp51
 70
     0
102
RTVSPropertyOp52
 70
     0
102
RTVSPropertyOp53
 70
     1
102
RTVSPropertyOp54
 70
     1
102
RTVSPropertyOp55
 70
     1
102
RTVSPropertyOp56
 70
     1
102
RTVSPropertyOp57
 70
     1
102
RTVSPropertyOp58
 70
     1
102
RTVSPropertyOp59
 70
     1
102
RTVSPropertyOp60
 70
     1
102
RTVSPropertyOp61
 70
     1
102
RTVSPropertyOp62
 70
     1
  0
XRECORD
  5
4042
102
{ACAD_REACTORS
330
4041
102
}
330
4041
100
AcDbXrecord
280
     1
102
RTVSPost2010Prop28
280
     0
102
RTVSPost2010PropOp28
 70
     1
102
RTVSPost2010Prop29
280
     1
102
RTVSPost2010PropOp29
 70
     1
102
RTVSPost2010Prop30
280
     1
102
RTVSPost2010PropOp30
 70
     1
102
RTVSPost2010Prop31
280
     0
102
RTVSPost2010PropOp31
 70
     1
102
RTVSPost2010Prop32
280
     0
102
RTVSPost2010PropOp32
 70
     1
102
RTVSPost2010Prop33
280
     0
102
RTVSPost2010PropOp33
 70
     1
102
RTVSPost2010Prop34
280
     0
102
RTVSPost2010PropOp34
 70
     1
102
RTVSPost2010Prop35
280
     0
102
RTVSPost2010PropOp35
 70
     1
102
RTVSPost2010Prop36
280
     0
102
RTVSPost2010PropOp36
 70
     1
102
RTVSPost2010Prop37
 90
       50
102
RTVSPost2010PropOp37
 70
     1
102
RTVSPost2010Prop38
140
0.0
102
RTVSPost2010PropOp38
 70
     1
102
RTVSPost2010Prop39
140
1.0
102
RTVSPost2010PropOp39
 70
     1
102
RTVSPost2010Prop40
 90
        0
102
RTVSPost2010PropOp40
 70
     1
102
RTVSPost2010Prop41ColorIndex
 90
       18
102
RTVSPost2010Prop41ColorRGB
 90
        0
102
RTVSPost2010PropOp41
 70
     1
102
RTVSPost2010Prop42
 90
       50
102
RTVSPost2010PropOp42
 70
     1
102
RTVSPost2010Prop43
 90
        3
102
RTVSPost2010PropOp43
 70
     1
102
RTVSPost2010Prop44ColorIndex
 90
        5
102
RTVSPost2010Prop44ColorRGB
 90
      255
102
RTVSPost2010PropOp44
 70
     1
102
RTVSPost2010Prop45
280
     0
102
RTVSPost2010PropOp45
 70
     1
102
RTVSPost2010Prop46
 90
       50
102
RTVSPost2010PropOp46
 70
     1
102
RTVSPost2010Prop47
 90
       50
102
RTVSPost2010PropOp47
 70
     1
102
RTVSPost2010Prop48
 90
       50
102
RTVSPost2010PropOp48
 70
     1
102
RTVSPost2010Prop49
280
     0
102
RTVSPost2010PropOp49
 70
     1
102
RTVSPost2010Prop50
 90
       50
102
RTVSPost2010PropOp50
 70
     1
102
RTVSPost2010Prop51ColorIndex
 90
      256
102
RTVSPost2010Prop51ColorRGB
 90
-16777216
102
RTVSPost2010PropOp51
 70
     0
102
RTVSPost2010Prop52
140
1.0
102
RTVSPost2010PropOp52
 70
     0
102
RTVSPost2010Prop53
 90
        2
102
RTVSPost2010PropOp53
 70
     1
102
RTVSPost2010Prop54
  1
strokes_ogs.tif
102
RTVSPost2010PropOp54
 70
     1
102
RTVSPost2010Prop55
280
     0
102
RTVSPost2010PropOp55
 70
     1
102
RTVSPost2010Prop56
140
1.0
102
RTVSPost2010PropOp56
 70
     1
102
RTVSPost2010Prop57
140
1.0
102
RTVSPost2010PropOp57
 70
     1
102
RTVSPropertyOp0
 70
     1
102
RTVSPropertyOp1
 70
     1
102
RTVSPropertyOp2
 70
     1
102
RTVSPropertyOp3
 70
     1
102
RTVSPropertyOp4
 70
     1
102
RTVSPropertyOp5
 70
     1
102
RTVSPropertyOp6
 70
     1
102
RTVSPropertyOp7
 70
     1
102
RTVSPropertyOp8
 70
     1
102
RTVSPropertyOp9
 70
     1
102
RTVSPropertyOp10
 70
     1
102
RTVSPropertyOp11
 70
     1
102
RTVSPropertyOp12
 70
     1
102
RTVSPropertyOp13
 70
     1
102
RTVSPropertyOp14
 70
     1
102
RTVSPropertyOp15
 70
     1
102
RTVSPropertyOp16
 70
     1
102
RTVSPropertyOp17
 70
     1
102
RTVSPropertyOp18
 70
     1
102
RTVSPropertyOp19
 70
     1
102
RTVSPropertyOp20
 70
     1
102
RTVSPropertyOp21
 70
     1
102
RTVSPropertyOp22
 70
     1
102
RTVSPropertyOp23
 70
     1
102
RTVSPropertyOp24
 70
     1
102
RTVSPropertyOp25
 70
     1
102
RTVSPropertyOp26
 70
     1
102
RTVSPropertyOp27
 70
     1
102
RTVSPropertyOp28
 70
     1
102
RTVSPropertyOp29
 70
     1
102
RTVSPropertyOp30
 70
     1
102
RTVSPropertyOp31
 70
     1
102
RTVSPropertyOp32
 70
     1
102
RTVSPropertyOp33
 70
     1
102
RTVSPropertyOp34
 70
     1
102
RTVSPropertyOp35
 70
     1
102
RTVSPropertyOp36
 70
     1
102
RTVSPropertyOp37
 70
     1
102
RTVSPropertyOp38
 70
     1
102
RTVSPropertyOp39
 70
     1
102
RTVSPropertyOp40
 70
     1
102
RTVSPropertyOp41
 70
     1
102
RTVSPropertyOp42
 70
     1
102
RTVSPropertyOp43
 70
     1
102
RTVSPropertyOp44
 70
     1
102
RTVSPropertyOp45
 70
     1
102
RTVSPropertyOp46
 70
     1
102
RTVSPropertyOp47
 70
     1
102
RTVSPropertyOp48
 70
     1
102
RTVSPropertyOp49
 70
     1
102
RTVSPropertyOp50
 70
     1
102
RTVSPropertyOp51
 70
     0
102
RTVSPropertyOp52
 70
     0
102
RTVSPropertyOp53
 70
     1
102
RTVSPropertyOp54
 70
     1
102
RTVSPropertyOp55
 70
     1
102
RTVSPropertyOp56
 70
     1
102
RTVSPropertyOp57
 70
     1
102
RTVSPropertyOp58
 70
     1
102
RTVSPropertyOp59
 70
     1
102
RTVSPropertyOp60
 70
     1
102
RTVSPropertyOp61
 70
     1
102
RTVSPropertyOp62
 70
     1
  0
XRECORD
  5
4030
102
{ACAD_REACTORS
330
402F
102
}
330
402F
100
AcDbXrecord
280
     1
102
RTVSPost2010Prop28
280
     0
102
RTVSPost2010PropOp28
 70
     1
102
RTVSPost2010Prop29
280
     1
102
RTVSPost2010PropOp29
 70
     1
102
RTVSPost2010Prop30
280
     1
102
RTVSPost2010PropOp30
 70
     1
102
RTVSPost2010Prop31
280
     0
102
RTVSPost2010PropOp31
 70
     1
102
RTVSPost2010Prop32
280
     0
102
RTVSPost2010PropOp32
 70
     1
102
RTVSPost2010Prop33
280
     0
102
RTVSPost2010PropOp33
 70
     1
102
RTVSPost2010Prop34
280
     0
102
RTVSPost2010PropOp34
 70
     1
102
RTVSPost2010Prop35
280
     0
102
RTVSPost2010PropOp35
 70
     1
102
RTVSPost2010Prop36
280
     0
102
RTVSPost2010PropOp36
 70
     1
102
RTVSPost2010Prop37
 90
       50
102
RTVSPost2010PropOp37
 70
     1
102
RTVSPost2010Prop38
140
0.0
102
RTVSPost2010PropOp38
 70
     1
102
RTVSPost2010Prop39
140
1.0
102
RTVSPost2010PropOp39
 70
     1
102
RTVSPost2010Prop40
 90
        0
102
RTVSPost2010PropOp40
 70
     1
102
RTVSPost2010Prop41ColorIndex
 90
       18
102
RTVSPost2010Prop41ColorRGB
 90
        0
102
RTVSPost2010PropOp41
 70
     1
102
RTVSPost2010Prop42
 90
       50
102
RTVSPost2010PropOp42
 70
     1
102
RTVSPost2010Prop43
 90
        3
102
RTVSPost2010PropOp43
 70
     1
102
RTVSPost2010Prop44ColorIndex
 90
        5
102
RTVSPost2010Prop44ColorRGB
 90
      255
102
RTVSPost2010PropOp44
 70
     1
102
RTVSPost2010Prop45
280
     0
102
RTVSPost2010PropOp45
 70
     1
102
RTVSPost2010Prop46
 90
       50
102
RTVSPost2010PropOp46
 70
     1
102
RTVSPost2010Prop47
 90
       50
102
RTVSPost2010PropOp47
 70
     1
102
RTVSPost2010Prop48
 90
       50
102
RTVSPost2010PropOp48
 70
     1
102
RTVSPost2010Prop49
280
     0
102
RTVSPost2010PropOp49
 70
     1
102
RTVSPost2010Prop50
 90
       50
102
RTVSPost2010PropOp50
 70
     1
102
RTVSPost2010Prop51ColorIndex
 90
      256
102
RTVSPost2010Prop51ColorRGB
 90
-16777216
102
RTVSPost2010PropOp51
 70
     0
102
RTVSPost2010Prop52
140
1.0
102
RTVSPost2010PropOp52
 70
     0
102
RTVSPost2010Prop53
 90
        2
102
RTVSPost2010PropOp53
 70
     1
102
RTVSPost2010Prop54
  1
strokes_ogs.tif
102
RTVSPost2010PropOp54
 70
     1
102
RTVSPost2010Prop55
280
     0
102
RTVSPost2010PropOp55
 70
     1
102
RTVSPost2010Prop56
140
1.0
102
RTVSPost2010PropOp56
 70
     1
102
RTVSPost2010Prop57
140
1.0
102
RTVSPost2010PropOp57
 70
     1
102
RTVSPropertyOp0
 70
     1
102
RTVSPropertyOp1
 70
     1
102
RTVSPropertyOp2
 70
     1
102
RTVSPropertyOp3
 70
     1
102
RTVSPropertyOp4
 70
     1
102
RTVSPropertyOp5
 70
     1
102
RTVSPropertyOp6
 70
     1
102
RTVSPropertyOp7
 70
     1
102
RTVSPropertyOp8
 70
     1
102
RTVSPropertyOp9
 70
     1
102
RTVSPropertyOp10
 70
     1
102
RTVSPropertyOp11
 70
     1
102
RTVSPropertyOp12
 70
     1
102
RTVSPropertyOp13
 70
     1
102
RTVSPropertyOp14
 70
     1
102
RTVSPropertyOp15
 70
     1
102
RTVSPropertyOp16
 70
     1
102
RTVSPropertyOp17
 70
     1
102
RTVSPropertyOp18
 70
     1
102
RTVSPropertyOp19
 70
     1
102
RTVSPropertyOp20
 70
     1
102
RTVSPropertyOp21
 70
     1
102
RTVSPropertyOp22
 70
     1
102
RTVSPropertyOp23
 70
     1
102
RTVSPropertyOp24
 70
     1
102
RTVSPropertyOp25
 70
     1
102
RTVSPropertyOp26
 70
     1
102
RTVSPropertyOp27
 70
     1
102
RTVSPropertyOp28
 70
     1
102
RTVSPropertyOp29
 70
     1
102
RTVSPropertyOp30
 70
     1
102
RTVSPropertyOp31
 70
     1
102
RTVSPropertyOp32
 70
     1
102
RTVSPropertyOp33
 70
     1
102
RTVSPropertyOp34
 70
     1
102
RTVSPropertyOp35
 70
     1
102
RTVSPropertyOp36
 70
     1
102
RTVSPropertyOp37
 70
     1
102
RTVSPropertyOp38
 70
     1
102
RTVSPropertyOp39
 70
     1
102
RTVSPropertyOp40
 70
     1
102
RTVSPropertyOp41
 70
     1
102
RTVSPropertyOp42
 70
     1
102
RTVSPropertyOp43
 70
     1
102
RTVSPropertyOp44
 70
     1
102
RTVSPropertyOp45
 70
     1
102
RTVSPropertyOp46
 70
     1
102
RTVSPropertyOp47
 70
     1
102
RTVSPropertyOp48
 70
     1
102
RTVSPropertyOp49
 70
     1
102
RTVSPropertyOp50
 70
     1
102
RTVSPropertyOp51
 70
     0
102
RTVSPropertyOp52
 70
     0
102
RTVSPropertyOp53
 70
     1
102
RTVSPropertyOp54
 70
     1
102
RTVSPropertyOp55
 70
     1
102
RTVSPropertyOp56
 70
     1
102
RTVSPropertyOp57
 70
     1
102
RTVSPropertyOp58
 70
     1
102
RTVSPropertyOp59
 70
     1
102
RTVSPropertyOp60
 70
     1
102
RTVSPropertyOp61
 70
     1
102
RTVSPropertyOp62
 70
     1
  0
XRECORD
  5
4024
102
{ACAD_REACTORS
330
4023
102
}
330
4023
100
AcDbXrecord
280
     1
102
RTVSPost2010Prop28
280
     0
102
RTVSPost2010PropOp28
 70
     1
102
RTVSPost2010Prop29
280
     1
102
RTVSPost2010PropOp29
 70
     1
102
RTVSPost2010Prop30
280
     1
102
RTVSPost2010PropOp30
 70
     1
102
RTVSPost2010Prop31
280
     0
102
RTVSPost2010PropOp31
 70
     1
102
RTVSPost2010Prop32
280
     0
102
RTVSPost2010PropOp32
 70
     1
102
RTVSPost2010Prop33
280
     0
102
RTVSPost2010PropOp33
 70
     1
102
RTVSPost2010Prop34
280
     0
102
RTVSPost2010PropOp34
 70
     1
102
RTVSPost2010Prop35
280
     0
102
RTVSPost2010PropOp35
 70
     1
102
RTVSPost2010Prop36
280
     0
102
RTVSPost2010PropOp36
 70
     1
102
RTVSPost2010Prop37
 90
       50
102
RTVSPost2010PropOp37
 70
     1
102
RTVSPost2010Prop38
140
0.0
102
RTVSPost2010PropOp38
 70
     1
102
RTVSPost2010Prop39
140
1.0
102
RTVSPost2010PropOp39
 70
     1
102
RTVSPost2010Prop40
 90
        0
102
RTVSPost2010PropOp40
 70
     1
102
RTVSPost2010Prop41ColorIndex
 90
       18
102
RTVSPost2010Prop41ColorRGB
 90
        0
102
RTVSPost2010PropOp41
 70
     1
102
RTVSPost2010Prop42
 90
       50
102
RTVSPost2010PropOp42
 70
     1
102
RTVSPost2010Prop43
 90
        3
102
RTVSPost2010PropOp43
 70
     1
102
RTVSPost2010Prop44ColorIndex
 90
        5
102
RTVSPost2010Prop44ColorRGB
 90
      255
102
RTVSPost2010PropOp44
 70
     1
102
RTVSPost2010Prop45
280
     0
102
RTVSPost2010PropOp45
 70
     1
102
RTVSPost2010Prop46
 90
       50
102
RTVSPost2010PropOp46
 70
     1
102
RTVSPost2010Prop47
 90
       50
102
RTVSPost2010PropOp47
 70
     1
102
RTVSPost2010Prop48
 90
       50
102
RTVSPost2010PropOp48
 70
     1
102
RTVSPost2010Prop49
280
     0
102
RTVSPost2010PropOp49
 70
     1
102
RTVSPost2010Prop50
 90
       50
102
RTVSPost2010PropOp50
 70
     1
102
RTVSPost2010Prop51ColorIndex
 90
      256
102
RTVSPost2010Prop51ColorRGB
 90
-16777216
102
RTVSPost2010PropOp51
 70
     0
102
RTVSPost2010Prop52
140
1.0
102
RTVSPost2010PropOp52
 70
     0
102
RTVSPost2010Prop53
 90
        2
102
RTVSPost2010PropOp53
 70
     1
102
RTVSPost2010Prop54
  1
strokes_ogs.tif
102
RTVSPost2010PropOp54
 70
     1
102
RTVSPost2010Prop55
280
     0
102
RTVSPost2010PropOp55
 70
     1
102
RTVSPost2010Prop56
140
1.0
102
RTVSPost2010PropOp56
 70
     1
102
RTVSPost2010Prop57
140
1.0
102
RTVSPost2010PropOp57
 70
     1
102
RTVSPropertyOp0
 70
     1
102
RTVSPropertyOp1
 70
     1
102
RTVSPropertyOp2
 70
     1
102
RTVSPropertyOp3
 70
     1
102
RTVSPropertyOp4
 70
     1
102
RTVSPropertyOp5
 70
     1
102
RTVSPropertyOp6
 70
     1
102
RTVSPropertyOp7
 70
     1
102
RTVSPropertyOp8
 70
     1
102
RTVSPropertyOp9
 70
     1
102
RTVSPropertyOp10
 70
     1
102
RTVSPropertyOp11
 70
     1
102
RTVSPropertyOp12
 70
     1
102
RTVSPropertyOp13
 70
     1
102
RTVSPropertyOp14
 70
     1
102
RTVSPropertyOp15
 70
     1
102
RTVSPropertyOp16
 70
     1
102
RTVSPropertyOp17
 70
     1
102
RTVSPropertyOp18
 70
     1
102
RTVSPropertyOp19
 70
     1
102
RTVSPropertyOp20
 70
     1
102
RTVSPropertyOp21
 70
     1
102
RTVSPropertyOp22
 70
     1
102
RTVSPropertyOp23
 70
     1
102
RTVSPropertyOp24
 70
     1
102
RTVSPropertyOp25
 70
     1
102
RTVSPropertyOp26
 70
     1
102
RTVSPropertyOp27
 70
     1
102
RTVSPropertyOp28
 70
     1
102
RTVSPropertyOp29
 70
     1
102
RTVSPropertyOp30
 70
     1
102
RTVSPropertyOp31
 70
     1
102
RTVSPropertyOp32
 70
     1
102
RTVSPropertyOp33
 70
     1
102
RTVSPropertyOp34
 70
     1
102
RTVSPropertyOp35
 70
     1
102
RTVSPropertyOp36
 70
     1
102
RTVSPropertyOp37
 70
     1
102
RTVSPropertyOp38
 70
     1
102
RTVSPropertyOp39
 70
     1
102
RTVSPropertyOp40
 70
     1
102
RTVSPropertyOp41
 70
     1
102
RTVSPropertyOp42
 70
     1
102
RTVSPropertyOp43
 70
     1
102
RTVSPropertyOp44
 70
     1
102
RTVSPropertyOp45
 70
     1
102
RTVSPropertyOp46
 70
     1
102
RTVSPropertyOp47
 70
     1
102
RTVSPropertyOp48
 70
     1
102
RTVSPropertyOp49
 70
     1
102
RTVSPropertyOp50
 70
     1
102
RTVSPropertyOp51
 70
     0
102
RTVSPropertyOp52
 70
     0
102
RTVSPropertyOp53
 70
     1
102
RTVSPropertyOp54
 70
     1
102
RTVSPropertyOp55
 70
     1
102
RTVSPropertyOp56
 70
     1
102
RTVSPropertyOp57
 70
     1
102
RTVSPropertyOp58
 70
     1
102
RTVSPropertyOp59
 70
     1
102
RTVSPropertyOp60
 70
     1
102
RTVSPropertyOp61
 70
     1
102
RTVSPropertyOp62
 70
     1
  0
XRECORD
  5
4044
102
{ACAD_REACTORS
330
4043
102
}
330
4043
100
AcDbXrecord
280
     1
102
RTVSPost2010Prop28
280
     0
102
RTVSPost2010PropOp28
 70
     1
102
RTVSPost2010Prop29
280
     1
102
RTVSPost2010PropOp29
 70
     1
102
RTVSPost2010Prop30
280
     1
102
RTVSPost2010PropOp30
 70
     1
102
RTVSPost2010Prop31
280
     0
102
RTVSPost2010PropOp31
 70
     1
102
RTVSPost2010Prop32
280
     0
102
RTVSPost2010PropOp32
 70
     1
102
RTVSPost2010Prop33
280
     0
102
RTVSPost2010PropOp33
 70
     1
102
RTVSPost2010Prop34
280
     0
102
RTVSPost2010PropOp34
 70
     1
102
RTVSPost2010Prop35
280
     0
102
RTVSPost2010PropOp35
 70
     1
102
RTVSPost2010Prop36
280
     0
102
RTVSPost2010PropOp36
 70
     1
102
RTVSPost2010Prop37
 90
       50
102
RTVSPost2010PropOp37
 70
     1
102
RTVSPost2010Prop38
140
0.0
102
RTVSPost2010PropOp38
 70
     1
102
RTVSPost2010Prop39
140
1.0
102
RTVSPost2010PropOp39
 70
     1
102
RTVSPost2010Prop40
 90
        0
102
RTVSPost2010PropOp40
 70
     1
102
RTVSPost2010Prop41ColorIndex
 90
       18
102
RTVSPost2010Prop41ColorRGB
 90
        0
102
RTVSPost2010PropOp41
 70
     1
102
RTVSPost2010Prop42
 90
       50
102
RTVSPost2010PropOp42
 70
     1
102
RTVSPost2010Prop43
 90
        3
102
RTVSPost2010PropOp43
 70
     1
102
RTVSPost2010Prop44ColorIndex
 90
        5
102
RTVSPost2010Prop44ColorRGB
 90
      255
102
RTVSPost2010PropOp44
 70
     1
102
RTVSPost2010Prop45
280
     0
102
RTVSPost2010PropOp45
 70
     1
102
RTVSPost2010Prop46
 90
       50
102
RTVSPost2010PropOp46
 70
     1
102
RTVSPost2010Prop47
 90
       50
102
RTVSPost2010PropOp47
 70
     1
102
RTVSPost2010Prop48
 90
       50
102
RTVSPost2010PropOp48
 70
     1
102
RTVSPost2010Prop49
280
     0
102
RTVSPost2010PropOp49
 70
     1
102
RTVSPost2010Prop50
 90
       50
102
RTVSPost2010PropOp50
 70
     1
102
RTVSPost2010Prop51ColorIndex
 90
      256
102
RTVSPost2010Prop51ColorRGB
 90
-16777216
102
RTVSPost2010PropOp51
 70
     0
102
RTVSPost2010Prop52
140
1.0
102
RTVSPost2010PropOp52
 70
     0
102
RTVSPost2010Prop53
 90
        2
102
RTVSPost2010PropOp53
 70
     1
102
RTVSPost2010Prop54
  1
strokes_ogs.tif
102
RTVSPost2010PropOp54
 70
     1
102
RTVSPost2010Prop55
280
     0
102
RTVSPost2010PropOp55
 70
     1
102
RTVSPost2010Prop56
140
1.0
102
RTVSPost2010PropOp56
 70
     1
102
RTVSPost2010Prop57
140
1.0
102
RTVSPost2010PropOp57
 70
     1
102
RTVSPropertyOp0
 70
     1
102
RTVSPropertyOp1
 70
     1
102
RTVSPropertyOp2
 70
     1
102
RTVSPropertyOp3
 70
     1
102
RTVSPropertyOp4
 70
     1
102
RTVSPropertyOp5
 70
     1
102
RTVSPropertyOp6
 70
     1
102
RTVSPropertyOp7
 70
     1
102
RTVSPropertyOp8
 70
     1
102
RTVSPropertyOp9
 70
     1
102
RTVSPropertyOp10
 70
     1
102
RTVSPropertyOp11
 70
     1
102
RTVSPropertyOp12
 70
     1
102
RTVSPropertyOp13
 70
     1
102
RTVSPropertyOp14
 70
     1
102
RTVSPropertyOp15
 70
     1
102
RTVSPropertyOp16
 70
     1
102
RTVSPropertyOp17
 70
     1
102
RTVSPropertyOp18
 70
     1
102
RTVSPropertyOp19
 70
     1
102
RTVSPropertyOp20
 70
     1
102
RTVSPropertyOp21
 70
     1
102
RTVSPropertyOp22
 70
     1
102
RTVSPropertyOp23
 70
     1
102
RTVSPropertyOp24
 70
     1
102
RTVSPropertyOp25
 70
     1
102
RTVSPropertyOp26
 70
     1
102
RTVSPropertyOp27
 70
     1
102
RTVSPropertyOp28
 70
     1
102
RTVSPropertyOp29
 70
     1
102
RTVSPropertyOp30
 70
     1
102
RTVSPropertyOp31
 70
     1
102
RTVSPropertyOp32
 70
     1
102
RTVSPropertyOp33
 70
     1
102
RTVSPropertyOp34
 70
     1
102
RTVSPropertyOp35
 70
     1
102
RTVSPropertyOp36
 70
     1
102
RTVSPropertyOp37
 70
     1
102
RTVSPropertyOp38
 70
     1
102
RTVSPropertyOp39
 70
     1
102
RTVSPropertyOp40
 70
     1
102
RTVSPropertyOp41
 70
     1
102
RTVSPropertyOp42
 70
     1
102
RTVSPropertyOp43
 70
     1
102
RTVSPropertyOp44
 70
     1
102
RTVSPropertyOp45
 70
     1
102
RTVSPropertyOp46
 70
     1
102
RTVSPropertyOp47
 70
     1
102
RTVSPropertyOp48
 70
     1
102
RTVSPropertyOp49
 70
     1
102
RTVSPropertyOp50
 70
     1
102
RTVSPropertyOp51
 70
     0
102
RTVSPropertyOp52
 70
     0
102
RTVSPropertyOp53
 70
     1
102
RTVSPropertyOp54
 70
     1
102
RTVSPropertyOp55
 70
     1
102
RTVSPropertyOp56
 70
     1
102
RTVSPropertyOp57
 70
     1
102
RTVSPropertyOp58
 70
     1
102
RTVSPropertyOp59
 70
     1
102
RTVSPropertyOp60
 70
     1
102
RTVSPropertyOp61
 70
     1
102
RTVSPropertyOp62
 70
     1
  0
ENDSEC
  0
EOF
