  0
SECTION
  2
HEADER
  9
$ACADVER
  1
AC1015
  9
$ACADMAINTVER
 70
    18
  9
$DWGCODEPAGE
  3
ANSI_1252
  9
$INSBASE
 10
0.0
 20
0.0
 30
0.0
  9
$EXTMIN
 10
-434.4000058059629
 20
-456.6230690870417
 30
0.0
  9
$EXTMAX
 10
326.4000638655923
 20
401.4000058059625
 30
0.0
  9
$LIMMIN
 10
0.0
 20
0.0
  9
$LIMMAX
 10
12.0
 20
9.0
  9
$ORTHOMODE
 70
     0
  9
$REGENMODE
 70
     1
  9
$FILLMODE
 70
     1
  9
$QTEXTMODE
 70
     0
  9
$MIRRTEXT
 70
     0
  9
$LTSCALE
 40
1.0
  9
$ATTMODE
 70
     1
  9
$TEXTSIZE
 40
0.2
  9
$TRACEWID
 40
0.05
  9
$TEXTSTYLE
  7
Standard
  9
$CLAYER
  8
0
  9
$CELTYPE
  6
ByLayer
  9
$CECOLOR
 62
   256
  9
$CELTSCALE
 40
1.0
  9
$DISPSILH
 70
     0
  9
$DIMSCALE
 40
1.0
  9
$DIMASZ
 40
0.18
  9
$DIMEXO
 40
0.0625
  9
$DIMDLI
 40
0.38
  9
$DIMRND
 40
0.0
  9
$DIMDLE
 40
0.0
  9
$DIMEXE
 40
0.18
  9
$DIMTP
 40
0.0
  9
$DIMTM
 40
0.0
  9
$DIMTXT
 40
0.18
  9
$DIMCEN
 40
0.09
  9
$DIMTSZ
 40
0.0
  9
$DIMTOL
 70
     0
  9
$DIMLIM
 70
     0
  9
$DIMTIH
 70
     1
  9
$DIMTOH
 70
     1
  9
$DIMSE1
 70
     0
  9
$DIMSE2
 70
     0
  9
$DIMTAD
 70
     0
  9
$DIMZIN
 70
     0
  9
$DIMBLK
  1

  9
$DIMASO
 70
     1
  9
$DIMSHO
 70
     1
  9
$DIMPOST
  1

  9
$DIMAPOST
  1

  9
$DIMALT
 70
     0
  9
$DIMALTD
 70
     2
  9
$DIMALTF
 40
25.4
  9
$DIMLFAC
 40
1.0
  9
$DIMTOFL
 70
     0
  9
$DIMTVP
 40
0.0
  9
$DIMTIX
 70
     0
  9
$DIMSOXD
 70
     0
  9
$DIMSAH
 70
     0
  9
$DIMBLK1
  1

  9
$DIMBLK2
  1

  9
$DIMSTYLE
  2
Standard
  9
$DIMCLRD
 70
     0
  9
$DIMCLRE
 70
     0
  9
$DIMCLRT
 70
     0
  9
$DIMTFAC
 40
1.0
  9
$DIMGAP
 40
0.09
  9
$DIMJUST
 70
     0
  9
$DIMSD1
 70
     0
  9
$DIMSD2
 70
     0
  9
$DIMTOLJ
 70
     1
  9
$DIMTZIN
 70
     0
  9
$DIMALTZ
 70
     0
  9
$DIMALTTZ
 70
     0
  9
$DIMUPT
 70
     0
  9
$DIMDEC
 70
     4
  9
$DIMTDEC
 70
     4
  9
$DIMALTU
 70
     2
  9
$DIMALTTD
 70
     2
  9
$DIMTXSTY
  7
Standard
  9
$DIMAUNIT
 70
     0
  9
$DIMADEC
 70
     0
  9
$DIMALTRND
 40
0.0
  9
$DIMAZIN
 70
     0
  9
$DIMDSEP
 70
    46
  9
$DIMATFIT
 70
     3
  9
$DIMFRAC
 70
     0
  9
$DIMLDRBLK
  1

  9
$DIMLUNIT
 70
     2
  9
$DIMLWD
 70
    -2
  9
$DIMLWE
 70
    -2
  9
$DIMTMOVE
 70
     0
  9
$LUNITS
 70
     2
  9
$LUPREC
 70
     4
  9
$SKETCHINC
 40
0.1
  9
$FILLETRAD
 40
0.0
  9
$AUNITS
 70
     0
  9
$AUPREC
 70
     0
  9
$MENU
  1
.
  9
$ELEVATION
 40
0.0
  9
$PELEVATION
 40
0.0
  9
$THICKNESS
 40
0.0
  9
$LIMCHECK
 70
     0
  9
$CHAMFERA
 40
0.0
  9
$CHAMFERB
 40
0.0
  9
$CHAMFERC
 40
0.0
  9
$CHAMFERD
 40
0.0
  9
$SKPOLY
 70
     0
  9
$TDCREATE
 40
2460802.673344907
  9
$TDUCREATE
 40
2460802.381678241
  9
$TDUPDATE
 40
2460802.680787037
  9
$TDUUPDATE
 40
2460802.389120370
  9
$TDINDWG
 40
0.0013888889
  9
$TDUSRTIMER
 40
0.0013888889
  9
$USRTIMER
 70
     1
  9
$ANGBASE
 50
0.0
  9
$ANGDIR
 70
     0
  9
$PDMODE
 70
     0
  9
$PDSIZE
 40
0.0
  9
$PLINEWID
 40
0.0
  9
$SPLFRAME
 70
     0
  9
$SPLINETYPE
 70
     6
  9
$SPLINESEGS
 70
     8
  9
$HANDSEED
  5
3DE1
  9
$SURFTAB1
 70
     6
  9
$SURFTAB2
 70
     6
  9
$SURFTYPE
 70
     6
  9
$SURFU
 70
     6
  9
$SURFV
 70
     6
  9
$UCSBASE
  2

  9
$UCSNAME
  2

  9
$UCSORG
 10
0.0
 20
0.0
 30
0.0
  9
$UCSXDIR
 10
1.0
 20
0.0
 30
0.0
  9
$UCSYDIR
 10
0.0
 20
1.0
 30
0.0
  9
$UCSORTHOREF
  2

  9
$UCSORTHOVIEW
 70
     0
  9
$UCSORGTOP
 10
0.0
 20
0.0
 30
0.0
  9
$UCSORGBOTTOM
 10
0.0
 20
0.0
 30
0.0
  9
$UCSORGLEFT
 10
0.0
 20
0.0
 30
0.0
  9
$UCSORGRIGHT
 10
0.0
 20
0.0
 30
0.0
  9
$UCSORGFRONT
 10
0.0
 20
0.0
 30
0.0
  9
$UCSORGBACK
 10
0.0
 20
0.0
 30
0.0
  9
$PUCSBASE
  2

  9
$PUCSNAME
  2

  9
$PUCSORG
 10
0.0
 20
0.0
 30
0.0
  9
$PUCSXDIR
 10
1.0
 20
0.0
 30
0.0
  9
$PUCSYDIR
 10
0.0
 20
1.0
 30
0.0
  9
$PUCSORTHOREF
  2

  9
$PUCSORTHOVIEW
 70
     0
  9
$PUCSORGTOP
 10
0.0
 20
0.0
 30
0.0
  9
$PUCSORGBOTTOM
 10
0.0
 20
0.0
 30
0.0
  9
$PUCSORGLEFT
 10
0.0
 20
0.0
 30
0.0
  9
$PUCSORGRIGHT
 10
0.0
 20
0.0
 30
0.0
  9
$PUCSORGFRONT
 10
0.0
 20
0.0
 30
0.0
  9
$PUCSORGBACK
 10
0.0
 20
0.0
 30
0.0
  9
$USERI1
 70
     0
  9
$USERI2
 70
     0
  9
$USERI3
 70
     0
  9
$USERI4
 70
     0
  9
$USERI5
 70
     0
  9
$USERR1
 40
0.0
  9
$USERR2
 40
0.0
  9
$USERR3
 40
0.0
  9
$USERR4
 40
0.0
  9
$USERR5
 40
0.0
  9
$WORLDVIEW
 70
     1
  9
$SHADEDGE
 70
     3
  9
$SHADEDIF
 70
    70
  9
$TILEMODE
 70
     1
  9
$MAXACTVP
 70
    48
  9
$PINSBASE
 10
0.0
 20
0.0
 30
0.0
  9
$PLIMCHECK
 70
     0
  9
$PEXTMIN
 10
0.0
 20
0.0
 30
0.0
  9
$PEXTMAX
 10
0.0
 20
0.0
 30
0.0
  9
$PLIMMIN
 10
0.0
 20
0.0
  9
$PLIMMAX
 10
12.0
 20
9.0
  9
$UNITMODE
 70
     0
  9
$VISRETAIN
 70
     1
  9
$PLINEGEN
 70
     0
  9
$PSLTSCALE
 70
     1
  9
$TREEDEPTH
 70
  3020
  9
$CMLSTYLE
  2
Standard
  9
$CMLJUST
 70
     0
  9
$CMLSCALE
 40
1.0
  9
$PROXYGRAPHICS
 70
     1
  9
$MEASUREMENT
 70
     0
  9
$CELWEIGHT
370
    -1
  9
$ENDCAPS
280
     0
  9
$JOINSTYLE
280
     0
  9
$LWDISPLAY
290
     0
  9
$INSUNITS
 70
     1
  9
$HYPERLINKBASE
  1

  9
$STYLESHEET
  1

  9
$XEDIT
290
     1
  9
$CEPSNTYPE
380
     0
  9
$PSTYLEMODE
290
     1
  9
$FINGERPRINTGUID
  2
{D8D3FC51-BF3E-FD41-BE64-93922A54423B}
  9
$VERSIONGUID
  2
{8C960F66-9E16-B642-8B06-E7E2030AD8AF}
  9
$EXTNAMES
290
     1
  9
$PSVPSCALE
 40
0.0
  9
$OLESTARTUP
290
     0
  0
ENDSEC
  0
SECTION
  2
CLASSES
  0
CLASS
  1
ACDBDICTIONARYWDFLT
  2
AcDbDictionaryWithDefault
  3
ObjectDBX Classes
 90
        0
280
     0
281
     0
  0
CLASS
  1
ACDBPLACEHOLDER
  2
AcDbPlaceHolder
  3
ObjectDBX Classes
 90
        0
280
     0
281
     0
  0
CLASS
  1
LAYOUT
  2
AcDbLayout
  3
ObjectDBX Classes
 90
        0
280
     0
281
     0
  0
CLASS
  1
DICTIONARYVAR
  2
AcDbDictionaryVar
  3
ObjectDBX Classes
 90
        0
280
     0
281
     0
  0
CLASS
  1
TABLESTYLE
  2
AcDbTableStyle
  3
ObjectDBX Classes
 90
     4095
280
     0
281
     0
  0
CLASS
  1
MATERIAL
  2
AcDbMaterial
  3
ObjectDBX Classes
 90
     1153
280
     0
281
     0
  0
CLASS
  1
VISUALSTYLE
  2
AcDbVisualStyle
  3
ObjectDBX Classes
 90
     4095
280
     0
281
     0
  0
CLASS
  1
SCALE
  2
AcDbScale
  3
ObjectDBX Classes
 90
     1153
280
     0
281
     0
  0
CLASS
  1
MLEADERSTYLE
  2
AcDbMLeaderStyle
  3
ACDB_MLEADERSTYLE_CLASS
 90
     4095
280
     0
281
     0
  0
CLASS
  1
CELLSTYLEMAP
  2
AcDbCellStyleMap
  3
ObjectDBX Classes
 90
     1152
280
     0
281
     0
  0
CLASS
  1
EXACXREFPANELOBJECT
  2
ExAcXREFPanelObject
  3
EXAC_ESW
 90
    33793
280
     0
281
     0
  0
CLASS
  1
NPOCOLLECTION
  2
AcDbImpNonPersistentObjectsCollection
  3
ObjectDBX Classes
 90
    33921
280
     0
281
     0
  0
CLASS
  1
LAYER_INDEX
  2
AcDbLayerIndex
  3
ObjectDBX Classes
 90
    32768
280
     0
281
     0
  0
CLASS
  1
SPATIAL_INDEX
  2
AcDbSpatialIndex
  3
ObjectDBX Classes
 90
    32768
280
     0
281
     0
  0
CLASS
  1
IDBUFFER
  2
AcDbIdBuffer
  3
ObjectDBX Classes
 90
    32768
280
     0
281
     0
  0
CLASS
  1
ACDBSECTIONVIEWSTYLE
  2
AcDbSectionViewStyle
  3
ObjectDBX Classes
 90
     1025
280
     0
281
     0
  0
CLASS
  1
ACDBDETAILVIEWSTYLE
  2
AcDbDetailViewStyle
  3
ObjectDBX Classes
 90
     1025
280
     0
281
     0
  0
CLASS
  1
XRECORD
  2
AcDbXrecord
  3
ObjectDBX Classes
 90
        0
280
     0
281
     0
  0
ENDSEC
  0
SECTION
  2
TABLES
  0
TABLE
  2
VPORT
  5
8
102
{ACAD_XDICTIONARY
360
3CF7
102
}
330
0
100
AcDbSymbolTable
 70
     1
  0
VPORT
  5
94
330
8
100
AcDbSymbolTableRecord
100
AcDbViewportTableRecord
  2
*Active
 70
     0
 10
0.0
 20
0.0
 11
1.0
 21
1.0
 12
-53.9999709701853
 22
-27.61153164053957
 13
0.0
 23
0.0
 14
0.5
 24
0.5
 15
0.5
 25
0.5
 16
0.0
 26
0.0
 36
1.0
 17
0.0
 27
0.0
 37
0.0
 40
912.4297832524854
 41
0.9846153846153846
 42
50.0
 43
0.0
 44
0.0
 50
0.0
 51
0.0
 71
     0
 72
  1000
 73
     1
 74
     3
 75
     0
 76
     1
 77
     0
 78
     0
281
     0
 65
     1
110
0.0
120
0.0
130
0.0
111
1.0
121
0.0
131
0.0
112
0.0
122
1.0
132
0.0
 79
     0
146
0.0
1001
ACAD_NAV_VCDISPLAY
1070
     3
  0
ENDTAB
  0
TABLE
  2
LTYPE
  5
5
330
0
100
AcDbSymbolTable
 70
     1
  0
LTYPE
  5
14
330
5
100
AcDbSymbolTableRecord
100
AcDbLinetypeTableRecord
  2
ByBlock
 70
     0
  3

 72
    65
 73
     0
 40
0.0
  0
LTYPE
  5
15
330
5
100
AcDbSymbolTableRecord
100
AcDbLinetypeTableRecord
  2
ByLayer
 70
     0
  3

 72
    65
 73
     0
 40
0.0
  0
LTYPE
  5
16
330
5
100
AcDbSymbolTableRecord
100
AcDbLinetypeTableRecord
  2
Continuous
 70
     0
  3
Solid line
 72
    65
 73
     0
 40
0.0
  0
ENDTAB
  0
TABLE
  2
LAYER
  5
2
102
{ACAD_XDICTIONARY
360
18E
102
}
330
0
100
AcDbSymbolTable
 70
     1
  0
LAYER
  5
10
102
{ACAD_XDICTIONARY
360
E6
102
}
330
2
100
AcDbSymbolTableRecord
100
AcDbLayerTableRecord
  2
0
 70
     0
 62
     7
  6
Continuous
370
    -3
390
F
  0
ENDTAB
  0
TABLE
  2
STYLE
  5
3
330
0
100
AcDbSymbolTable
 70
     1
  0
STYLE
  5
11
330
3
100
AcDbSymbolTableRecord
100
AcDbTextStyleTableRecord
  2
Standard
 70
     0
 40
0.0
 41
1.0
 50
0.0
 71
     0
 42
0.2
  3
arial.ttf
  4

1001
ACAD
1000
Arial
1071
       34
  0
ENDTAB
  0
TABLE
  2
VIEW
  5
6
330
0
100
AcDbSymbolTable
 70
     0
  0
ENDTAB
  0
TABLE
  2
UCS
  5
7
330
0
100
AcDbSymbolTable
 70
     0
  0
ENDTAB
  0
TABLE
  2
APPID
  5
9
330
0
100
AcDbSymbolTable
 70
     7
  0
APPID
  5
12
330
9
100
AcDbSymbolTableRecord
100
AcDbRegAppTableRecord
  2
ACAD
 70
     0
  0
APPID
  5
DD
330
9
100
AcDbSymbolTableRecord
100
AcDbRegAppTableRecord
  2
AcadAnnoPO
 70
     0
  0
APPID
  5
DE
330
9
100
AcDbSymbolTableRecord
100
AcDbRegAppTableRecord
  2
AcadAnnotative
 70
     0
  0
APPID
  5
DF
330
9
100
AcDbSymbolTableRecord
100
AcDbRegAppTableRecord
  2
ACAD_DSTYLE_DIMJAG
 70
     0
  0
APPID
  5
E0
330
9
100
AcDbSymbolTableRecord
100
AcDbRegAppTableRecord
  2
ACAD_DSTYLE_DIMTALN
 70
     0
  0
APPID
  5
107
330
9
100
AcDbSymbolTableRecord
100
AcDbRegAppTableRecord
  2
ACAD_MLEADERVER
 70
     0
  0
APPID
  5
1A6
330
9
100
AcDbSymbolTableRecord
100
AcDbRegAppTableRecord
  2
ACAD_NAV_VCDISPLAY
 70
     0
  0
ENDTAB
  0
TABLE
  2
DIMSTYLE
  5
A
330
0
100
AcDbSymbolTable
 70
     1
100
AcDbDimStyleTable
 71
     0
  0
DIMSTYLE
105
27
330
A
100
AcDbSymbolTableRecord
100
AcDbDimStyleTableRecord
  2
Standard
 70
     0
340
11
  0
ENDTAB
  0
TABLE
  2
BLOCK_RECORD
  5
1
330
0
100
AcDbSymbolTable
 70
     7
  0
BLOCK_RECORD
  5
1F
102
{ACAD_XDICTIONARY
360
15D
102
}
330
1
100
AcDbSymbolTableRecord
100
AcDbBlockTableRecord
  2
*Model_Space
340
22
  0
BLOCK_RECORD
  5
58
102
{ACAD_XDICTIONARY
360
3CAB
102
}
330
1
100
AcDbSymbolTableRecord
100
AcDbBlockTableRecord
  2
*Paper_Space
340
59
  0
BLOCK_RECORD
  5
5D
102
{ACAD_XDICTIONARY
360
3CAD
102
}
330
1
100
AcDbSymbolTableRecord
100
AcDbBlockTableRecord
  2
*Paper_Space0
340
5E
  0
BLOCK_RECORD
  5
3AF0
330
1
100
AcDbSymbolTableRecord
100
AcDbBlockTableRecord
  2
SFHS-BL-Front
340
0
102
{BLKREFS
331
3CA1
102
}
  0
BLOCK_RECORD
  5
3B14
330
1
100
AcDbSymbolTableRecord
100
AcDbBlockTableRecord
  2
SFHS-BL-Left
340
0
102
{BLKREFS
331
3CA2
102
}
  0
BLOCK_RECORD
  5
3B49
330
1
100
AcDbSymbolTableRecord
100
AcDbBlockTableRecord
  2
SFHS-BL-Right
340
0
102
{BLKREFS
331
3CA3
102
}
  0
BLOCK_RECORD
  5
3B8A
330
1
100
AcDbSymbolTableRecord
100
AcDbBlockTableRecord
  2
SFHS-BL-Top
340
0
102
{BLKREFS
331
3CA4
102
}
  0
BLOCK_RECORD
  5
3BC2
330
1
100
AcDbSymbolTableRecord
100
AcDbBlockTableRecord
  2
SFHS-BL-Bottom
340
0
102
{BLKREFS
331
3CA5
102
}
  0
BLOCK_RECORD
  5
3C07
330
1
100
AcDbSymbolTableRecord
100
AcDbBlockTableRecord
  2
SFHS-BL-ISO
340
0
102
{BLKREFS
331
3CA6
102
}
  0
ENDTAB
  0
ENDSEC
  0
SECTION
  2
BLOCKS
  0
BLOCK
  5
20
330
1F
100
AcDbEntity
  8
0
100
AcDbBlockBegin
  2
*Model_Space
 70
     0
 10
0.0
 20
0.0
 30
0.0
  3
*Model_Space
  1

  0
ENDBLK
  5
21
330
1F
100
AcDbEntity
  8
0
100
AcDbBlockEnd
  0
BLOCK
  5
5A
330
58
100
AcDbEntity
 67
     1
  8
0
100
AcDbBlockBegin
  2
*Paper_Space
 70
     0
 10
0.0
 20
0.0
 30
0.0
  3
*Paper_Space
  1

  0
ENDBLK
  5
5B
330
58
100
AcDbEntity
 67
     1
  8
0
100
AcDbBlockEnd
  0
BLOCK
  5
5F
330
5D
100
AcDbEntity
 67
     1
  8
0
100
AcDbBlockBegin
  2
*Paper_Space0
 70
     0
 10
0.0
 20
0.0
 30
0.0
  3
*Paper_Space0
  1

  0
ENDBLK
  5
60
330
5D
100
AcDbEntity
 67
     1
  8
0
100
AcDbBlockEnd
  0
BLOCK
  5
3AF1
330
3AF0
100
AcDbEntity
  8
0
100
AcDbBlockBegin
  2
SFHS-BL-Front
 70
     0
 10
0.0
 20
0.0
 30
0.0
  3
SFHS-BL-Front
  1

  0
SPLINE
  5
3AF3
330
3AF0
100
AcDbEntity
  8
0
100
AcDbSpline
210
0.0
220
0.0
230
1.0
 70
     8
 71
     3
 72
    17
 73
    13
 74
     0
 42
0.000000001
 43
0.0000000001
 40
0.0
 40
0.0
 40
0.0
 40
0.0
 40
0.2694424910466671
 40
0.2694424910466671
 40
0.2694424910466671
 40
0.7071094242287566
 40
0.7071094242287566
 40
0.7071094242287566
 40
0.9844972725243144
 40
0.9844972725243144
 40
0.9844972725243144
 40
1.0
 40
1.0
 40
1.0
 40
1.0
 10
-5.499999999999993
 20
3.000000000000034
 30
0.0
 10
-5.490629044466281
 20
3.000007940917366
 30
0.0
 10
-5.320639674833962
 20
3.072024969223688
 30
0.0
 10
-5.052873941440822
 20
3.223134382439126
 30
0.0
 10
-4.617930637249313
 20
3.468587848965642
 30
0.0
 10
-3.975743382570673
 20
3.895181953490167
 30
0.0
 10
-3.519827582172643
 20
4.516207190738619
 30
0.0
 10
-3.230873829242578
 20
4.909805247245015
 30
0.0
 10
-3.019998917922248
 20
5.364256207930235
 30
0.0
 10
-3.001526268011078
 20
5.907589857665853
 30
0.0
 10
-3.000493863530903
 20
5.937955836391952
 30
0.0
 10
-2.999996847277745
 20
5.968725632677722
 30
0.0
 10
-2.999999999918638
 20
6.000000000001595
 30
0.0
  0
ARC
  5
3AF4
330
3AF0
100
AcDbEntity
  8
0
100
AcDbCircle
 10
-6.0
 20
5.999999999999991
 30
0.0
 40
6.0
100
AcDbArc
 50
276.2137710794373
 51
356.4919253812353
  0
SPLINE
  5
3AF5
330
3AF0
100
AcDbEntity
  8
0
100
AcDbSpline
210
0.0
220
0.0
230
1.0
 70
     8
 71
     3
 72
    17
 73
    13
 74
     0
 42
0.000000001
 43
0.0000000001
 40
-1.0
 40
-1.0
 40
-1.0
 40
-1.0
 40
-0.5670462169936381
 40
-0.5670462169936381
 40
-0.5670462169936381
 40
-0.2599160099248599
 40
-0.2599160099248599
 40
-0.2599160099248599
 40
-0.0522841329454479
 40
-0.0522841329454479
 40
-0.0522841329454479
 40
0.0
 40
0.0
 40
0.0
 40
0.0
 10
0.0000000000000433
 20
6.000000000000009
 30
0.0
 10
-0.0000006952480147
 20
4.575880928416045
 30
0.0
 10
-1.036569657870075
 20
3.233838917656797
 30
0.0
 10
-2.203481635673952
 20
2.204937000284745
 30
0.0
 10
-3.031269569261948
 20
1.47505110636406
 30
0.0
 10
-3.929739307925532
 20
0.8804047614666554
 30
0.0
 10
-4.578611778938697
 20
0.5010245430187645
 30
0.0
 10
-5.017274619570853
 20
0.2445488690790934
 30
0.0
 10
-5.342587416163829
 20
0.0797264354768327
 30
0.0
 10
-5.456679263242304
 20
0.0227358595894073
 30
0.0
 10
-5.485408923578775
 20
0.0083849666066721
 30
0.0
 10
-5.498782806708566
 20
0.0000005650497232
 30
0.0
 10
-5.500000000020608
 20
0.000000001499459
 30
0.0
  0
ARC
  5
3AF6
330
3AF0
100
AcDbEntity
  8
0
100
AcDbCircle
 10
-6.0
 20
5.999999999999991
 30
0.0
 40
6.0
100
AcDbArc
 50
275.2403383635244
 51
276.2137710794373
  0
SPLINE
  5
3AF7
330
3AF0
100
AcDbEntity
  8
0
100
AcDbSpline
210
0.0
220
0.0
230
1.0
 70
     8
 71
     3
 72
    20
 73
    16
 74
     0
 42
0.000000001
 43
0.0000000001
 40
0.0
 40
0.0
 40
0.0
 40
0.0
 40
0.0082611396740446
 40
0.0082611396740446
 40
0.014943360136901
 40
0.014943360136901
 40
0.0230133060838683
 40
0.0230133060838683
 40
0.0378971795423813
 40
0.0378971795423813
 40
0.0725369879252608
 40
0.0725369879252608
 40
0.1315781900102711
 40
0.1315781900102711
 40
0.2384465956141736
 40
0.2384465956141736
 40
0.2384465956141736
 40
0.2384465956141736
 10
-6.000002106420883
 20
3.000011338654698
 30
0.0
 10
-5.995069737817543
 20
3.000884842088795
 30
0.0
 10
-5.985120794572016
 20
3.002652770478922
 30
0.0
 10
-5.958475333062899
 20
3.00759955696049
 30
0.0
 10
-5.94355906892619
 20
3.010429141103098
 30
0.0
 10
-5.907671014319076
 20
3.017490786525112
 30
0.0
 10
-5.885925112135014
 20
3.021923715718873
 30
0.0
 10
-5.822500118898124
 20
3.035429925949015
 30
0.0
 10
-5.779103507651117
 20
3.045335572587519
 30
0.0
 10
-5.633091509329627
 20
3.081292486606055
 30
0.0
 10
-5.52651593715836
 20
3.111799085073438
 30
0.0
 10
-5.239903548888618
 20
3.20721604939125
 30
0.0
 10
-5.058929851731575
 20
3.281791231184158
 30
0.0
 10
-4.570205250452373
 20
3.526909684789214
 30
0.0
 10
-4.270873034516282
 20
3.731171121907564
 30
0.0
 10
-4.016795755103601
 20
3.965304204888405
 30
0.0
  0
SPLINE
  5
3AF8
330
3AF0
100
AcDbEntity
  8
0
100
AcDbSpline
210
0.0
220
0.0
230
1.0
 70
     8
 71
     3
 72
     8
 73
     4
 74
     0
 42
0.000000001
 43
0.0000000001
 40
0.0
 40
0.0
 40
0.0
 40
0.0
 40
0.0001267750229208
 40
0.0001267750229208
 40
0.0001267750229208
 40
0.0001267750229208
 10
-6.000000371326818
 20
3.000032103489654
 30
0.0
 10
-5.999956885294333
 20
3.000032941443889
 30
0.0
 10
-5.999913669166497
 20
3.000033776514506
 30
0.0
 10
-5.999870726834526
 20
3.000034608568218
 30
0.0
  0
SPLINE
  5
3AF9
330
3AF0
100
AcDbEntity
  8
0
100
AcDbSpline
210
0.0
220
0.0
230
1.0
 70
     8
 71
     3
 72
    10
 73
     6
 74
     0
 42
0.000000001
 43
0.0000000001
 40
0.0310059990149184
 40
0.0310059990149184
 40
0.0310059990149184
 40
0.0310059990149184
 40
0.0362065714109301
 40
0.0362065714109301
 40
0.0488969675733245
 40
0.0488969675733245
 40
0.0488969675733245
 40
0.0488969675733245
 10
-3.000943849250065
 20
5.967820456434419
 30
0.0
 10
-3.000943849284307
 20
5.967820455260093
 30
0.0
 10
-3.000914419204165
 20
5.968817879913405
 30
0.0
 10
-3.000733972006812
 20
5.97565258034444
 30
0.0
 10
-3.000472549387871
 20
5.986571235874835
 30
0.0
 10
-3.000271072849138
 20
6.000004082868319
 30
0.0
  0
SPLINE
  5
3AFA
330
3AF0
100
AcDbEntity
  8
0
100
AcDbSpline
210
0.0
220
0.0
230
1.0
 70
     8
 71
     3
 72
    20
 73
    16
 74
     0
 42
0.000000001
 43
0.0000000001
 40
0.1443580545591058
 40
0.1443580545591058
 40
0.1443580545591058
 40
0.1443580545591058
 40
0.1588830627839192
 40
0.1588830627839192
 40
0.1817799707164768
 40
0.1817799707164768
 40
0.1889760614700016
 40
0.1889760614700016
 40
0.191678739889438
 40
0.191678739889438
 40
0.1932445120679749
 40
0.1932445120679749
 40
0.1946422396336454
 40
0.1946422396336454
 40
0.1957467307555256
 40
0.1957467307555256
 40
0.1957467307555256
 40
0.1957467307555256
 10
-3.03825728751098
 20
5.571685843818347
 30
0.0
 10
-3.033530923028442
 20
5.60264640225313
 30
0.0
 10
-3.028717092250328
 20
5.637596883393918
 30
0.0
 10
-3.017217326071071
 20
5.734518281879028
 30
0.0
 10
-3.010966539200873
 20
5.801853379508978
 30
0.0
 10
-3.005037242107528
 20
5.893051273226809
 30
0.0
 10
-3.003774307219751
 20
5.915225043269289
 30
0.0
 10
-3.00230479428143
 20
5.944786825658954
 30
0.0
 10
-3.001930121447214
 20
5.952781265012681
 30
0.0
 10
-3.001406635635456
 20
5.964544612974036
 30
0.0
 10
-3.001228570827327
 20
5.968687315770293
 30
0.0
 10
-3.000933607709836
 20
5.975733866370712
 30
0.0
 10
-3.000811462414843
 20
5.978738274979421
 30
0.0
 10
-3.000630008348772
 20
5.983279564162586
 30
0.0
 10
-3.000561989379733
 20
5.985013388269112
 30
0.0
 10
-3.000504311579203
 20
5.986498420416991
 30
0.0
  0
SPLINE
  5
3AFB
330
3AF0
100
AcDbEntity
  8
0
100
AcDbSpline
210
0.0
220
0.0
230
1.0
 70
     8
 71
     3
 72
     8
 73
     4
 74
     0
 42
0.000000001
 43
0.0000000001
 40
0.0
 40
0.0
 40
0.0
 40
0.0
 40
0.000691178683303
 40
0.000691178683303
 40
0.000691178683303
 40
0.000691178683303
 10
0.0000580596293109
 20
5.999996167266732
 30
0.0
 10
0.0000381832473449
 20
5.998062249894147
 30
0.0
 10
0.0000169413702693
 20
5.996071211866949
 30
0.0
 10
-0.0000057061793278
 20
5.994034643641859
 30
0.0
  0
SPLINE
  5
3AFC
330
3AF0
100
AcDbEntity
  8
0
100
AcDbSpline
210
0.0
220
0.0
230
1.0
 70
     8
 71
     3
 72
    18
 73
    14
 74
     0
 42
0.000000001
 43
0.0000000001
 40
0.0147182640899808
 40
0.0147182640899808
 40
0.0147182640899808
 40
0.0147182640899808
 40
0.0159001483458726
 40
0.0159001483458726
 40
0.0306782415389725
 40
0.0306782415389725
 40
0.0467904406277191
 40
0.0467904406277191
 40
0.0615359417364911
 40
0.0615359417364911
 40
0.0749267381371512
 40
0.0749267381371512
 40
0.079197036746899
 40
0.079197036746899
 40
0.079197036746899
 40
0.079197036746899
 10
-0.0032116519946591
 20
5.858905470386477
 30
0.0
 10
-0.0033598562990963
 20
5.855122361542481
 30
0.0
 10
-0.0035134790213166
 20
5.851348105957326
 30
0.0
 10
-0.0056619743463077
 20
5.800512717257605
 30
0.0
 10
-0.0086156281378422
 20
5.75457794970747
 30
0.0
 10
-0.0157443619713063
 20
5.669260130529921
 30
0.0
 10
-0.0200234847638676
 20
5.629639108356459
 30
0.0
 10
-0.0271577951191152
 20
5.569161262958348
 30
0.0
 10
-0.0301843767993687
 20
5.546182179497314
 30
0.0
 10
-0.0336294862432532
 20
5.520247245849968
 30
0.0
 10
-0.0341099769684893
 20
5.516753556788711
 30
0.0
 10
-0.034508687130142
 20
5.51376838721357
 30
0.0
 10
-0.0346186121464009
 20
5.512942541789972
 30
0.0
 10
-0.0346186121515906
 20
5.512942541750876
 30
0.0
  0
SPLINE
  5
3AFD
330
3AF0
100
AcDbEntity
  8
0
100
AcDbSpline
210
0.0
220
0.0
230
1.0
 70
     8
 71
     3
 72
    16
 73
    12
 74
     0
 42
0.000000001
 43
0.0000000001
 40
0.0069193578595619
 40
0.0069193578595619
 40
0.0069193578595619
 40
0.0069193578595619
 40
0.0079741489890004
 40
0.0079741489890004
 40
0.0115585334061044
 40
0.0115585334061044
 40
0.0180339696792836
 40
0.0180339696792836
 40
0.0335032122166059
 40
0.0335032122166059
 40
0.0396602211803383
 40
0.0396602211803383
 40
0.0396602211803383
 40
0.0396602211803383
 10
-0.0002981419087095
 20
5.956913910540556
 30
0.0
 10
-0.0003281010403787
 20
5.953747045513417
 30
0.0
 10
-0.0003604829246132
 20
5.950509090388861
 30
0.0
 10
-0.0005130737855664
 20
5.936114299559718
 30
0.0
 10
-0.0006595976653721
 20
5.924452644425719
 30
0.0
 10
-0.0011528498778662
 20
5.891573195372319
 30
0.0
 10
-0.0015689053609766
 20
5.86998835627832
 30
0.0
 10
-0.003348479328782
 20
5.79701110560933
 30
0.0
 10
-0.0052447739926655
 20
5.745365719072296
 30
0.0
 10
-0.0088709334189576
 20
5.673546042223734
 30
0.0
 10
-0.0100124751895958
 20
5.653127614723518
 30
0.0
 10
-0.0112518725538179
 20
5.632865322168184
 30
0.0
  0
LINE
  5
3AFE
330
3AF0
100
AcDbEntity
  8
0
100
AcDbLine
 10
-5.500000000000068
 20
-3.000000000000083
 30
0.0
 11
-5.500000000000069
 21
2.999999999999984
 31
0.0
  0
LINE
  5
3AFF
330
3AF0
100
AcDbEntity
  8
0
100
AcDbLine
 10
-5.500000000000067
 20
-3.000000000000091
 30
0.0
 11
-5.500000000000547
 21
-50.00000000000006
 31
0.0
  0
SPLINE
  5
3B00
330
3AF0
100
AcDbEntity
  8
0
100
AcDbSpline
210
0.0
220
0.0
230
1.0
 70
     8
 71
     3
 72
     8
 73
     4
 74
     0
 42
0.000000001
 43
0.0000000001
 40
0.5627086636553452
 40
0.5627086636553452
 40
0.5627086636553452
 40
0.5627086636553452
 40
0.5687284328961081
 40
0.5687284328961081
 40
0.5687284328961081
 40
0.5687284328961081
 10
-3.96389391163875
 20
4.017783188818451
 30
0.0
 10
-3.970689329475576
 20
4.010410952820848
 30
0.0
 10
-3.97752073714028
 20
4.00304939595769
 30
0.0
 10
-3.984388170169876
 20
3.995699542387694
 30
0.0
  0
SPLINE
  5
3B01
330
3AF0
100
AcDbEntity
  8
0
100
AcDbSpline
210
0.0
220
0.0
230
1.0
 70
     8
 71
     3
 72
     8
 73
     4
 74
     0
 42
0.000000001
 43
0.0000000001
 40
0.8528962141829435
 40
0.8528962141829435
 40
0.8528962141829435
 40
0.8528962141829435
 40
0.852989446760732
 40
0.852989446760732
 40
0.852989446760732
 40
0.852989446760732
 10
-5.190811843345787
 20
3.145524922803668
 30
0.0
 10
-5.190968310494767
 20
3.145465999943894
 30
0.0
 10
-5.191124786200922
 20
3.145407092693133
 30
0.0
 10
-5.191281270465309
 20
3.145348201055726
 30
0.0
  0
SPLINE
  5
3B02
330
3AF0
100
AcDbEntity
  8
0
100
AcDbSpline
210
0.0
220
0.0
230
1.0
 70
     8
 71
     3
 72
     8
 73
     4
 74
     0
 42
0.000000001
 43
0.0000000001
 40
0.9420231473031565
 40
0.9420231473031565
 40
0.9420231473031565
 40
0.9420231473031565
 40
1.0
 40
1.0
 40
1.0
 40
1.0
 10
-0.0253916473322928
 20
5.445346207811166
 30
0.0
 10
-0.0083553230109053
 20
5.479817277162784
 30
0.0
 10
-0.0000006456207388
 20
5.498618183609571
 30
0.0
 10
-0.0000000014854379
 20
5.500000000020341
 30
0.0
  0
LINE
  5
3B03
330
3AF0
100
AcDbEntity
  8
0
100
AcDbLine
 10
0.0
 20
5.994549485596659
 30
0.0
 11
0.0
 21
5.49999999999999
 31
0.0
  0
SPLINE
  5
3B04
330
3AF0
100
AcDbEntity
  8
0
100
AcDbSpline
210
0.0
220
0.0
230
1.0
 70
     8
 71
     3
 72
     8
 73
     4
 74
     0
 42
0.000000001
 43
0.0000000001
 40
0.0
 40
0.0
 40
0.0
 40
0.0
 40
0.0005084358778323
 40
0.0005084358778323
 40
0.0005084358778323
 40
0.0005084358778323
 10
-6.000004055616587
 20
3.000269385767726
 30
0.0
 10
-5.999468986880144
 20
3.000277406149348
 30
0.0
 10
-5.9989376445829
 20
3.000285509713149
 30
0.0
 10
-5.99841029343557
 20
3.00029368817832
 30
0.0
  0
SPLINE
  5
3B05
330
3AF0
100
AcDbEntity
  8
0
100
AcDbSpline
210
0.0
220
0.0
230
1.0
 70
     8
 71
     3
 72
    20
 73
    16
 74
     0
 42
0.000000001
 43
0.0000000001
 40
0.0
 40
0.0
 40
0.0
 40
0.0
 40
0.0776201856128006
 40
0.0776201856128006
 40
0.1783954391437432
 40
0.1783954391437432
 40
0.2059822939930269
 40
0.2059822939930269
 40
0.2207823532700984
 40
0.2207823532700984
 40
0.228931109846017
 40
0.228931109846017
 40
0.2334743930877715
 40
0.2334743930877715
 40
0.2374456848986414
 40
0.2374456848986414
 40
0.2374456848986414
 40
0.2374456848986414
 10
-3.964677014293438
 20
4.016786231047275
 30
0.0
 10
-3.794646416852232
 20
4.201348243018562
 30
0.0
 10
-3.639916144440646
 20
4.409885111031799
 30
0.0
 10
-3.338242950053805
 20
4.914920324658893
 30
0.0
 10
-3.202612762532571
 20
5.228760739273169
 30
0.0
 10
-3.08523858835592
 20
5.619994169854281
 30
0.0
 10
-3.063122863125254
 20
5.703766403213176
 30
0.0
 10
-3.034384511367118
 20
5.826963531936961
 30
0.0
 10
-3.025179691754589
 20
5.869696094265428
 30
0.0
 10
-3.013227161898235
 20
5.929007427457234
 30
0.0
 10
-3.009423173362411
 20
5.948775377309409
 30
0.0
 10
-3.00486045621642
 20
5.973163610603889
 30
0.0
 10
-3.003479092497575
 20
5.980708727300827
 30
0.0
 10
-3.001485917893523
 20
5.991713387215948
 30
0.0
 10
-3.000795164885334
 20
5.995583394116279
 30
0.0
 10
-3.000295575331112
 20
5.998398378030808
 30
0.0
  0
LINE
  5
3B06
330
3AF0
100
AcDbEntity
  8
0
100
AcDbLine
 10
-3.0
 20
74.99999999999999
 30
0.0
 11
-3.0
 21
5.999999999999996
 31
0.0
  0
LINE
  5
3B07
330
3AF0
100
AcDbEntity
  8
0
100
AcDbLine
 10
0.0
 20
5.999999999999996
 30
0.0
 11
0.0
 21
74.99999999999999
 31
0.0
  0
LINE
  5
3B08
330
3AF0
100
AcDbEntity
  8
0
100
AcDbLine
 10
-3.0
 20
74.99999999999999
 30
0.0
 11
0.0
 21
74.99999999999999
 31
0.0
  0
CIRCLE
  5
3B09
330
3AF0
100
AcDbEntity
  8
0
100
AcDbCircle
 10
-19.99999999999999
 20
-40.00000000000001
 30
0.0
 40
2.5
  0
CIRCLE
  5
3B0A
330
3AF0
100
AcDbEntity
  8
0
100
AcDbCircle
 10
-20.0
 20
-20.00000000000003
 30
0.0
 40
2.5
  0
CIRCLE
  5
3B0B
330
3AF0
100
AcDbEntity
  8
0
100
AcDbCircle
 10
-60.0
 20
-40.00000000000003
 30
0.0
 40
2.5
  0
CIRCLE
  5
3B0C
330
3AF0
100
AcDbEntity
  8
0
100
AcDbCircle
 10
-40.0
 20
-30.00000000000004
 30
0.0
 40
2.5
  0
CIRCLE
  5
3B0D
330
3AF0
100
AcDbEntity
  8
0
100
AcDbCircle
 10
-60.0
 20
-20.00000000000005
 30
0.0
 40
2.5
  0
CIRCLE
  5
3B0E
330
3AF0
100
AcDbEntity
  8
0
100
AcDbCircle
 10
-79.99999999999999
 20
-30.00000000000006
 30
0.0
 40
2.5
  0
CIRCLE
  5
3B0F
330
3AF0
100
AcDbEntity
  8
0
100
AcDbCircle
 10
-100.0
 20
-40.00000000000006
 30
0.0
 40
2.5
  0
LINE
  5
3B10
330
3AF0
100
AcDbEntity
  8
0
100
AcDbLine
 10
-108.0
 20
-3.000000000000046
 30
0.0
 11
-108.0
 21
-50.00000000000003
 31
0.0
  0
LINE
  5
3B11
330
3AF0
100
AcDbEntity
  8
0
100
AcDbLine
 10
-108.0
 20
-50.00000000000003
 30
0.0
 11
-5.50000000000054
 21
-50.00000000000006
 31
0.0
  0
LINE
  5
3B12
330
3AF0
100
AcDbEntity
  8
0
100
AcDbLine
 10
-108.0
 20
-3.000000000000047
 30
0.0
 11
-108.0
 21
2.999999999999993
 31
0.0
  0
LINE
  5
3B13
330
3AF0
100
AcDbEntity
  8
0
100
AcDbLine
 10
-108.0
 20
2.999999999999997
 30
0.0
 11
-5.500000000000007
 21
2.999999999999993
 31
0.0
  0
ENDBLK
  5
3AF2
330
3AF0
100
AcDbEntity
  8
0
100
AcDbBlockEnd
  0
BLOCK
  5
3B15
330
3B14
100
AcDbEntity
  8
0
100
AcDbBlockBegin
  2
SFHS-BL-Left
 70
     0
 10
0.0
 20
0.0
 30
0.0
  3
SFHS-BL-Left
  1

  0
LINE
  5
3B17
330
3B14
100
AcDbEntity
  8
0
100
AcDbLine
 10
77.0
 20
2.999999999999991
 30
0.0
 11
77.0
 21
5.999999999999991
 31
0.0
  0
SPLINE
  5
3B18
330
3B14
100
AcDbEntity
  8
0
100
AcDbSpline
210
0.0
220
0.0
230
1.0
 70
     8
 71
     3
 72
    17
 73
    13
 74
     0
 42
0.000000001
 43
0.0000000001
 40
0.0
 40
0.0
 40
0.0
 40
0.0
 40
0.2694424910466671
 40
0.2694424910466671
 40
0.2694424910466671
 40
0.7071094242287566
 40
0.7071094242287566
 40
0.7071094242287566
 40
0.9844972725243144
 40
0.9844972725243144
 40
0.9844972725243144
 40
1.0
 40
1.0
 40
1.0
 40
1.0
 10
82.99999999999995
 20
3.000000000000034
 30
0.0
 10
82.45629404899586
 20
3.000007940917366
 30
0.0
 10
82.01226313683438
 20
3.072024969223688
 30
0.0
 10
81.61671236510105
 20
3.223134382439126
 30
0.0
 10
80.97420237155908
 20
3.468587848965642
 30
0.0
 10
80.52879027869153
 20
3.895181953490167
 30
0.0
 10
80.26503368999321
 20
4.516207190738619
 30
0.0
 10
80.09786805086015
 20
4.909805247245015
 30
0.0
 10
80.00993070259511
 20
5.364256207930235
 30
0.0
 10
80.00096941801031
 20
5.907589857665853
 30
0.0
 10
80.00046858730122
 20
5.937955836391952
 30
0.0
 10
80.00016597196731
 20
5.968725632677722
 30
0.0
 10
79.99999999999841
 20
6.000000000001595
 30
0.0
  0
LINE
  5
3B19
330
3B14
100
AcDbEntity
  8
0
100
AcDbLine
 10
77.0
 20
5.999999999999991
 30
0.0
 11
80.0
 21
5.999999999999992
 31
0.0
  0
LINE
  5
3B1A
330
3B14
100
AcDbEntity
  8
0
100
AcDbLine
 10
3.000000000000006
 20
5.999999999999966
 30
0.0
 11
3.000000000000006
 21
2.999999999999976
 31
0.0
  0
LINE
  5
3B1B
330
3B14
100
AcDbEntity
  8
0
100
AcDbLine
 10
-0.0050799999999906
 20
5.999999999999974
 30
0.0
 11
3.000000000000007
 21
5.999999999999975
 31
0.0
  0
ARC
  5
3B1C
330
3B14
100
AcDbEntity
  8
0
100
AcDbCircle
 10
-0.0050799999999877
 20
-3.250000000000374
 30
0.0
 40
9.250000000000346
100
AcDbArc
 50
90.00000000000005
 51
108.9246444160505
  0
SPLINE
  5
3B1D
330
3B14
100
AcDbEntity
  8
0
100
AcDbSpline
210
0.0
220
0.0
230
1.0
 70
     8
 71
     3
 72
    17
 73
    13
 74
     0
 42
0.000000001
 43
0.0000000001
 40
0.0
 40
0.0
 40
0.0
 40
0.0
 40
0.269487791023405
 40
0.269487791023405
 40
0.269487791023405
 40
0.7069412638142899
 40
0.7069412638142899
 40
0.7069412638142899
 40
0.9842844473091696
 40
0.9842844473091696
 40
0.9842844473091696
 40
1.0
 40
1.0
 40
1.0
 40
1.0
 10
-3.005079999999998
 20
5.499999999999939
 30
0.0
 10
-2.461232824140936
 20
5.490625974024476
 30
0.0
 10
-2.016513335271833
 20
5.320556872969754
 30
0.0
 10
-1.620370802641811
 20
5.052731258498108
 30
0.0
 10
-0.9773215351366692
 20
4.617975959536169
 30
0.0
 10
-0.5308548394623656
 20
3.976172783718929
 30
0.0
 10
-0.2662627730894215
 20
3.520349594686607
 30
0.0
 10
-0.0985128051964009
 20
3.231360108443701
 30
0.0
 10
-0.0100898672724077
 20
3.020314238230681
 30
0.0
 10
-0.0009947362153813
 20
3.001570121811507
 30
0.0
 10
-0.0004793638541229
 20
3.000507993132099
 30
0.0
 10
-0.0001692819446093
 20
2.999996784437106
 30
0.0
 10
0.0000000000015314
 20
2.9999999999188
 30
0.0
  0
SPLINE
  5
3B1E
330
3B14
100
AcDbEntity
  8
0
100
AcDbSpline
210
0.0
220
0.0
230
1.0
 70
     8
 71
     3
 72
    26
 73
    22
 74
     0
 42
0.000000001
 43
0.0000000001
 40
0.1344789846776151
 40
0.1344789846776151
 40
0.1344789846776151
 40
0.1344789846776151
 40
0.1379119657159942
 40
0.1379119657159942
 40
0.1654518830084756
 40
0.1654518830084756
 40
0.1825497217985125
 40
0.1825497217985125
 40
0.1904057654590256
 40
0.1904057654590256
 40
0.1924294146630171
 40
0.1924294146630171
 40
0.1929258653153618
 40
0.1929258653153618
 40
0.1934230186337092
 40
0.1934230186337092
 40
0.1939150099652865
 40
0.1939150099652865
 40
0.1952277866715846
 40
0.1952277866715846
 40
0.1982579757695556
 40
0.1982579757695556
 40
0.1982579757695556
 40
0.1982579757695556
 10
-2.492473221068318
 20
5.44120084713626
 30
0.0
 10
-2.499848724124275
 20
5.442695120308252
 30
0.0
 10
-2.507421856398028
 20
5.444196577418002
 30
0.0
 10
-2.577319057736197
 20
5.457702597274952
 30
0.0
 10
-2.652131574615437
 20
5.469605556937536
 30
0.0
 10
-2.782658985604603
 20
5.48471547050545
 30
0.0
 10
-2.835550767441863
 20
5.489642323205478
 30
0.0
 10
-2.915000061110435
 20
5.495269130875875
 30
0.0
 10
-2.940354618038609
 20
5.496821446324294
 30
0.0
 10
-2.972886690922686
 20
5.498507785300636
 30
0.0
 10
-2.979884336913008
 20
5.498853418741832
 30
0.0
 10
-2.988036953549004
 20
5.499237271884794
 30
0.0
 10
-2.989621459061695
 20
5.499310920750193
 30
0.0
 10
-2.992422398142204
 20
5.499439817019156
 30
0.0
 10
-2.993659177752938
 20
5.499496039253881
 30
0.0
 10
-2.995616815255312
 20
5.49958448826517
 30
0.0
 10
-2.996384247598041
 20
5.499618857272286
 30
0.0
 10
-2.998687935297165
 20
5.499721678671434
 30
0.0
 10
-2.999532146016691
 20
5.499758675945979
 30
0.0
 10
-3.001805129489856
 20
5.499858419660102
 30
0.0
 10
-3.002556676105426
 20
5.499890953653249
 30
0.0
 10
-3.003186108725852
 20
5.499918118565338
 30
0.0
  0
SPLINE
  5
3B1F
330
3B14
100
AcDbEntity
  8
0
100
AcDbSpline
210
0.0
220
0.0
230
1.0
 70
     8
 71
     3
 72
     8
 73
     4
 74
     0
 42
0.000000001
 43
0.0000000001
 40
0.2863319957267347
 40
0.2863319957267347
 40
0.2863319957267347
 40
0.2863319957267347
 40
0.2992272350447681
 40
0.2992272350447681
 40
0.2992272350447681
 40
0.2992272350447681
 10
-2.996839468261835
 20
5.499794540475999
 30
0.0
 10
-2.996839468262432
 20
5.499794540476012
 30
0.0
 10
-2.996104592135512
 20
5.49979581451197
 30
0.0
 10
-3.005080517890936
 20
5.49994789822175
 30
0.0
  0
SPLINE
  5
3B20
330
3B14
100
AcDbEntity
  8
0
100
AcDbSpline
210
0.0
220
0.0
230
1.0
 70
     8
 71
     3
 72
    20
 73
    16
 74
     0
 42
0.000000001
 43
0.0000000001
 40
0.230863090337435
 40
0.230863090337435
 40
0.230863090337435
 40
0.230863090337435
 40
0.2605528321462369
 40
0.2605528321462369
 40
0.3112262397443056
 40
0.3112262397443056
 40
0.3700534791072561
 40
0.3700534791072561
 40
0.4347726301760086
 40
0.4347726301760086
 40
0.5052619453945403
 40
0.5052619453945403
 40
0.5844257012724725
 40
0.5844257012724725
 40
0.6676434245315824
 40
0.6676434245315824
 40
0.6676434245315824
 40
0.6676434245315824
 10
-0.0000053748409124
 20
1.747792790505904
 30
0.0
 10
-0.0018524160818602
 20
1.77989537960425
 30
0.0
 10
-0.0045911215370602
 20
1.821093799403405
 30
0.0
 10
-0.0154296508826769
 20
1.952142800173533
 30
0.0
 10
-0.0261002152635628
 20
2.057162544363291
 30
0.0
 10
-0.0613148563582553
 20
2.313129936508431
 30
0.0
 10
-0.0883677145480468
 20
2.472165572539507
 30
0.0
 10
-0.1669000412307157
 20
2.824518722006266
 30
0.0
 10
-0.2215724096582969
 20
3.023702973377626
 30
0.0
 10
-0.3661969470178111
 20
3.437918684703459
 30
0.0
 10
-0.460450674253258
 20
3.65710818266312
 30
0.0
 10
-0.6975568072214193
 20
4.095997329833699
 30
0.0
 10
-0.8476216322763796
 20
4.317262226699956
 30
0.0
 10
-1.196264926874104
 20
4.720351344320442
 30
0.0
 10
-1.404804294207842
 20
4.906646598619193
 30
0.0
 10
-1.617517282365452
 20
5.050799750157821
 30
0.0
  0
SPLINE
  5
3B21
330
3B14
100
AcDbEntity
  8
0
100
AcDbSpline
210
0.0
220
0.0
230
1.0
 70
     8
 71
     3
 72
    32
 73
    28
 74
     0
 42
0.000000001
 43
0.0000000001
 40
0.132716502675674
 40
0.132716502675674
 40
0.132716502675674
 40
0.132716502675674
 40
0.1333396097257687
 40
0.1333396097257687
 40
0.15416223833573
 40
0.15416223833573
 40
0.1803393424112196
 40
0.1803393424112196
 40
0.1871647196209974
 40
0.1871647196209974
 40
0.1897251443841695
 40
0.1897251443841695
 40
0.1903523336229894
 40
0.1903523336229894
 40
0.1910473128966732
 40
0.1910473128966732
 40
0.191352426508632
 40
0.191352426508632
 40
0.1917698980486007
 40
0.1917698980486007
 40
0.1922242723678438
 40
0.1922242723678438
 40
0.1929396372825648
 40
0.1929396372825648
 40
0.1944005408802551
 40
0.1944005408802551
 40
0.1965055213689293
 40
0.1965055213689293
 40
0.1965055213689293
 40
0.1965055213689293
 10
-2.492474110791259
 20
5.441202329033163
 30
0.0
 10
-2.493811388021314
 20
5.441473260720565
 30
0.0
 10
-2.495154876083362
 20
5.441744474808282
 30
0.0
 10
-2.541595134486831
 20
5.451074934864495
 30
0.0
 10
-2.594246025299438
 20
5.460313855185882
 30
0.0
 10
-2.722680103861309
 20
5.478611309006572
 30
0.0
 10
-2.802533228575972
 20
5.487209140163006
 30
0.0
 10
-2.907423600528913
 20
5.494754283797181
 30
0.0
 10
-2.929423662323483
 20
5.496151835669501
 30
0.0
 10
-2.960040429459981
 20
5.497845742414241
 30
0.0
 10
-2.968465671057824
 20
5.498286572040559
 30
0.0
 10
-2.979069927267329
 20
5.498809269754028
 30
0.0
 10
-2.981169647947013
 20
5.498911215389084
 30
0.0
 10
-2.985546908828154
 20
5.499120558122369
 30
0.0
 10
-2.987883235698153
 20
5.499230283202082
 30
0.0
 10
-2.990853963931044
 20
5.499367731211083
 30
0.0
 10
-2.991714512530151
 20
5.499407254568065
 30
0.0
 10
-2.993548719936546
 20
5.499491040008893
 30
0.0
 10
-2.994462607436047
 20
5.499532401612533
 30
0.0
 10
-2.996040324040384
 20
5.499603475550967
 30
0.0
 10
-2.996698140724197
 20
5.499632890970057
 30
0.0
 10
-2.998112963398036
 20
5.499695962047368
 30
0.0
 10
-2.998730279158801
 20
5.499723256122173
 30
0.0
 10
-3.000278595260086
 20
5.499791559017285
 30
0.0
 10
-3.000890480196098
 20
5.499818261393699
 30
0.0
 10
-3.00214937289926
 20
5.499873141787423
 30
0.0
 10
-3.002677494491291
 20
5.499896037112476
 30
0.0
 10
-3.003114279679127
 20
5.499914887789807
 30
0.0
  0
SPLINE
  5
3B22
330
3B14
100
AcDbEntity
  8
0
100
AcDbSpline
210
0.0
220
0.0
230
1.0
 70
     8
 71
     3
 72
     8
 73
     4
 74
     0
 42
0.000000001
 43
0.0000000001
 40
0.0875819044950921
 40
0.0875819044950921
 40
0.0875819044950921
 40
0.0875819044950921
 40
0.1119176861058614
 40
0.1119176861058614
 40
0.1119176861058614
 40
0.1119176861058614
 10
-2.999917189754683
 20
5.499779213432514
 30
0.0
 10
-3.000988051125658
 20
5.4998084125759
 30
0.0
 10
-3.002574448703112
 20
5.499848161170209
 30
0.0
 10
-3.00508200977772
 20
5.499895466465181
 30
0.0
  0
SPLINE
  5
3B23
330
3B14
100
AcDbEntity
  8
0
100
AcDbSpline
210
0.0
220
0.0
230
1.0
 70
     8
 71
     3
 72
     8
 73
     4
 74
     0
 42
0.000000001
 43
0.0000000001
 40
0.0321708326181638
 40
0.0321708326181638
 40
0.0321708326181638
 40
0.0321708326181638
 40
0.0450887524046517
 40
0.0450887524046517
 40
0.0450887524046517
 40
0.0450887524046517
 10
-2.996839468261804
 20
5.499794540475999
 30
0.0
 10
-2.996839467800626
 20
5.499794540465638
 30
0.0
 10
-2.99608880505348
 20
5.499795547023349
 30
0.0
 10
-3.005080517890936
 20
5.49994789822175
 30
0.0
  0
LINE
  5
3B24
330
3B14
100
AcDbEntity
  8
0
100
AcDbLine
 10
0.0
 20
0.0
 30
0.0
 11
137.0
 21
0.0
 31
0.0
  0
LINE
  5
3B25
330
3B14
100
AcDbEntity
  8
0
100
AcDbLine
 10
0.0
 20
2.999999999999967
 30
0.0
 11
137.0
 21
2.999999999999997
 31
0.0
  0
LINE
  5
3B26
330
3B14
100
AcDbEntity
  8
0
100
AcDbLine
 10
0.0
 20
2.999999999999967
 30
0.0
 11
0.0
 21
0.0
 31
0.0
  0
LINE
  5
3B27
330
3B14
100
AcDbEntity
  8
0
100
AcDbLine
 10
-3.005079999999997
 20
5.499999999999993
 30
0.0
 11
-120.0
 21
5.499999999999976
 31
0.0
  0
LINE
  5
3B28
330
3B14
100
AcDbEntity
  8
0
100
AcDbLine
 10
79.99999999999999
 20
74.99999999999999
 30
0.0
 11
80.0
 21
5.999999999999996
 31
0.0
  0
LINE
  5
3B29
330
3B14
100
AcDbEntity
  8
0
100
AcDbLine
 10
-120.0
 20
74.99999999999997
 30
0.0
 11
79.99999999999997
 21
74.99999999999999
 31
0.0
  0
LINE
  5
3B2A
330
3B14
100
AcDbEntity
  8
0
100
AcDbLine
 10
-120.0
 20
5.499999999999976
 30
0.0
 11
-120.0
 21
74.99999999999997
 31
0.0
  0
CIRCLE
  5
3B2B
330
3B14
100
AcDbEntity
  8
0
100
AcDbCircle
 10
-110.0
 20
54.99999999999997
 30
0.0
 40
2.5
  0
CIRCLE
  5
3B2C
330
3B14
100
AcDbEntity
  8
0
100
AcDbCircle
 10
-90.00000000000003
 20
64.99999999999997
 30
0.0
 40
2.5
  0
CIRCLE
  5
3B2D
330
3B14
100
AcDbEntity
  8
0
100
AcDbCircle
 10
-90.00000000000003
 20
24.99999999999998
 30
0.0
 40
2.5
  0
CIRCLE
  5
3B2E
330
3B14
100
AcDbEntity
  8
0
100
AcDbCircle
 10
-90.00000000000003
 20
44.99999999999997
 30
0.0
 40
2.5
  0
CIRCLE
  5
3B2F
330
3B14
100
AcDbEntity
  8
0
100
AcDbCircle
 10
-110.0
 20
34.99999999999997
 30
0.0
 40
2.5
  0
CIRCLE
  5
3B30
330
3B14
100
AcDbEntity
  8
0
100
AcDbCircle
 10
-70.00000000000001
 20
54.99999999999997
 30
0.0
 40
2.5
  0
CIRCLE
  5
3B31
330
3B14
100
AcDbEntity
  8
0
100
AcDbCircle
 10
-50.00000000000003
 20
64.99999999999997
 30
0.0
 40
2.5
  0
CIRCLE
  5
3B32
330
3B14
100
AcDbEntity
  8
0
100
AcDbCircle
 10
-50.00000000000003
 20
24.99999999999998
 30
0.0
 40
2.5
  0
CIRCLE
  5
3B33
330
3B14
100
AcDbEntity
  8
0
100
AcDbCircle
 10
-50.00000000000003
 20
44.99999999999997
 30
0.0
 40
2.5
  0
CIRCLE
  5
3B34
330
3B14
100
AcDbEntity
  8
0
100
AcDbCircle
 10
-70.00000000000001
 20
34.99999999999997
 30
0.0
 40
2.5
  0
CIRCLE
  5
3B35
330
3B14
100
AcDbEntity
  8
0
100
AcDbCircle
 10
-30.00000000000002
 20
54.99999999999997
 30
0.0
 40
2.5
  0
CIRCLE
  5
3B36
330
3B14
100
AcDbEntity
  8
0
100
AcDbCircle
 10
-10.00000000000003
 20
64.99999999999997
 30
0.0
 40
2.5
  0
CIRCLE
  5
3B37
330
3B14
100
AcDbEntity
  8
0
100
AcDbCircle
 10
-10.00000000000002
 20
24.99999999999998
 30
0.0
 40
2.5
  0
CIRCLE
  5
3B38
330
3B14
100
AcDbEntity
  8
0
100
AcDbCircle
 10
-10.00000000000003
 20
44.99999999999997
 30
0.0
 40
2.5
  0
CIRCLE
  5
3B39
330
3B14
100
AcDbEntity
  8
0
100
AcDbCircle
 10
-30.00000000000002
 20
34.99999999999997
 30
0.0
 40
2.5
  0
CIRCLE
  5
3B3A
330
3B14
100
AcDbEntity
  8
0
100
AcDbCircle
 10
9.999999999999978
 20
54.99999999999997
 30
0.0
 40
2.5
  0
CIRCLE
  5
3B3B
330
3B14
100
AcDbEntity
  8
0
100
AcDbCircle
 10
29.99999999999997
 20
64.99999999999997
 30
0.0
 40
2.5
  0
CIRCLE
  5
3B3C
330
3B14
100
AcDbEntity
  8
0
100
AcDbCircle
 10
29.99999999999998
 20
24.99999999999998
 30
0.0
 40
2.5
  0
CIRCLE
  5
3B3D
330
3B14
100
AcDbEntity
  8
0
100
AcDbCircle
 10
29.99999999999996
 20
44.99999999999997
 30
0.0
 40
2.5
  0
CIRCLE
  5
3B3E
330
3B14
100
AcDbEntity
  8
0
100
AcDbCircle
 10
9.999999999999984
 20
34.99999999999998
 30
0.0
 40
2.5
  0
CIRCLE
  5
3B3F
330
3B14
100
AcDbEntity
  8
0
100
AcDbCircle
 10
49.99999999999999
 20
54.99999999999997
 30
0.0
 40
2.5
  0
CIRCLE
  5
3B40
330
3B14
100
AcDbEntity
  8
0
100
AcDbCircle
 10
69.99999999999996
 20
64.99999999999999
 30
0.0
 40
2.5
  0
CIRCLE
  5
3B41
330
3B14
100
AcDbEntity
  8
0
100
AcDbCircle
 10
69.99999999999997
 20
24.99999999999998
 30
0.0
 40
2.5
  0
CIRCLE
  5
3B42
330
3B14
100
AcDbEntity
  8
0
100
AcDbCircle
 10
69.99999999999997
 20
44.99999999999997
 30
0.0
 40
2.5
  0
CIRCLE
  5
3B43
330
3B14
100
AcDbEntity
  8
0
100
AcDbCircle
 10
49.99999999999999
 20
34.99999999999998
 30
0.0
 40
2.5
  0
ARC
  5
3B44
330
3B14
100
AcDbEntity
  8
0
100
AcDbCircle
 10
137.0
 20
-3.000000000000011
 30
0.0
 40
2.999999999999971
100
AcDbArc
 50
0.0
 51
90.00000000000031
  0
ARC
  5
3B45
330
3B14
100
AcDbEntity
  8
0
100
AcDbCircle
 10
137.0
 20
-3.000000000000011
 30
0.0
 40
6.000000000000005
100
AcDbArc
 50
0.0
 51
90.00000000000024
  0
LINE
  5
3B46
330
3B14
100
AcDbEntity
  8
0
100
AcDbLine
 10
143.0
 20
-3.000000000000046
 30
0.0
 11
142.9999999999996
 21
-50.00000000000003
 31
0.0
  0
LINE
  5
3B47
330
3B14
100
AcDbEntity
  8
0
100
AcDbLine
 10
140.0
 20
-3.000000000000047
 30
0.0
 11
139.9999999999996
 21
-50.00000000000003
 31
0.0
  0
LINE
  5
3B48
330
3B14
100
AcDbEntity
  8
0
100
AcDbLine
 10
142.9999999999996
 20
-50.00000000000003
 30
0.0
 11
139.9999999999996
 21
-50.00000000000004
 31
0.0
  0
ENDBLK
  5
3B16
330
3B14
100
AcDbEntity
  8
0
100
AcDbBlockEnd
  0
BLOCK
  5
3B4A
330
3B49
100
AcDbEntity
  8
0
100
AcDbBlockBegin
  2
SFHS-BL-Right
 70
     0
 10
0.0
 20
0.0
 30
0.0
  3
SFHS-BL-Right
  1

  0
SPLINE
  5
3B4C
330
3B49
100
AcDbEntity
  8
0
100
AcDbSpline
210
0.0
220
0.0
230
1.0
 70
     8
 71
     3
 72
    17
 73
    13
 74
     0
 42
0.000000001
 43
0.0000000001
 40
0.0
 40
0.0
 40
0.0
 40
0.0
 40
0.2694424910466671
 40
0.2694424910466671
 40
0.2694424910466671
 40
0.7071094242287566
 40
0.7071094242287566
 40
0.7071094242287566
 40
0.9844972725243144
 40
0.9844972725243144
 40
0.9844972725243144
 40
1.0
 40
1.0
 40
1.0
 40
1.0
 10
-82.99999999999995
 20
3.000000000000034
 30
0.0
 10
-82.45629404899586
 20
3.000007940917366
 30
0.0
 10
-82.01226313683438
 20
3.072024969223688
 30
0.0
 10
-81.61671236510105
 20
3.223134382439126
 30
0.0
 10
-80.97420237155908
 20
3.468587848965642
 30
0.0
 10
-80.52879027869153
 20
3.895181953490167
 30
0.0
 10
-80.26503368999321
 20
4.516207190738619
 30
0.0
 10
-80.09786805086015
 20
4.909805247245015
 30
0.0
 10
-80.00993070259511
 20
5.364256207930235
 30
0.0
 10
-80.00096941801031
 20
5.907589857665853
 30
0.0
 10
-80.00046858730122
 20
5.937955836391952
 30
0.0
 10
-80.00016597196731
 20
5.968725632677722
 30
0.0
 10
-79.99999999999841
 20
6.000000000001595
 30
0.0
  0
LINE
  5
3B4D
330
3B49
100
AcDbEntity
  8
0
100
AcDbLine
 10
-77.0
 20
0.035250134766307
 30
0.0
 11
-77.0
 21
5.999999999999991
 31
0.0
  0
LINE
  5
3B4E
330
3B49
100
AcDbEntity
  8
0
100
AcDbLine
 10
-80.0
 20
5.999999999999992
 30
0.0
 11
-77.0
 21
5.999999999999991
 31
0.0
  0
SPLINE
  5
3B4F
330
3B49
100
AcDbEntity
  8
0
100
AcDbSpline
210
0.0
220
0.0
230
1.0
 70
     8
 71
     3
 72
    17
 73
    13
 74
     0
 42
0.000000001
 43
0.0000000001
 40
-1.0
 40
-1.0
 40
-1.0
 40
-1.0
 40
-0.5670462169936381
 40
-0.5670462169936381
 40
-0.5670462169936381
 40
-0.2599160099248599
 40
-0.2599160099248599
 40
-0.2599160099248599
 40
-0.0522841329454479
 40
-0.0522841329454479
 40
-0.0522841329454479
 40
0.0
 40
0.0
 40
0.0
 40
0.0
 10
-80.00000000000007
 20
6.000000000000009
 30
0.0
 10
-79.99790055588021
 20
4.575880928416045
 30
0.0
 10
-79.84335289814952
 20
3.233838917656797
 30
0.0
 10
-79.97698455233583
 20
2.204937000284745
 30
0.0
 10
-80.07178062349197
 20
1.47505110636406
 30
0.0
 10
-80.31197050384893
 20
0.8804047614666554
 30
0.0
 10
-80.85827451228965
 20
0.5010245430187645
 30
0.0
 10
-81.22759711248747
 20
0.2445488690790934
 30
0.0
 10
-81.73611662525036
 20
0.0797264354768327
 30
0.0
 10
-82.43506899011993
 20
0.0227358595894073
 30
0.0
 10
-82.61107336333573
 20
0.0083849666066721
 30
0.0
 10
-82.79751883715409
 20
0.0000005650497232
 30
0.0
 10
-83.00000000331312
 20
0.000000001499459
 30
0.0
  0
LINE
  5
3B50
330
3B49
100
AcDbEntity
  8
0
100
AcDbLine
 10
-80.0
 20
0.0
 30
0.0
 11
-83.0
 21
0.0
 31
0.0
  0
LINE
  5
3B51
330
3B49
100
AcDbEntity
  8
0
100
AcDbLine
 10
-77.0
 20
0.0
 30
0.0
 11
-80.0
 21
0.0
 31
0.0
  0
LINE
  5
3B52
330
3B49
100
AcDbEntity
  8
0
100
AcDbLine
 10
-77.0
 20
0.0
 30
0.0
 11
-77.0
 21
0.035250134766307
 31
0.0
  0
LINE
  5
3B53
330
3B49
100
AcDbEntity
  8
0
100
AcDbLine
 10
-83.00000000000009
 20
0.0
 30
0.0
 11
-83.00000000000009
 21
2.999999999999994
 31
0.0
  0
LINE
  5
3B54
330
3B49
100
AcDbEntity
  8
0
100
AcDbLine
 10
-137.0
 20
0.0
 30
0.0
 11
-83.0
 21
0.0
 31
0.0
  0
LINE
  5
3B55
330
3B49
100
AcDbEntity
  8
0
100
AcDbLine
 10
-83.0
 20
2.99999999999998
 30
0.0
 11
-137.0
 21
2.999999999999993
 31
0.0
  0
ARC
  5
3B56
330
3B49
100
AcDbEntity
  8
0
100
AcDbCircle
 10
-137.0
 20
-3.000000000000011
 30
0.0
 40
5.999999999999996
100
AcDbArc
 50
90.0
 51
180.0
  0
LINE
  5
3B57
330
3B49
100
AcDbEntity
  8
0
100
AcDbLine
 10
-142.9999999999999
 20
-3.000000000000091
 30
0.0
 11
-142.9999999999995
 21
-50.00000000000006
 31
0.0
  0
LINE
  5
3B58
330
3B49
100
AcDbEntity
  8
0
100
AcDbLine
 10
-142.9999999999995
 20
-50.00000000000006
 30
0.0
 11
-139.9999999999995
 21
-50.00000000000003
 31
0.0
  0
LINE
  5
3B59
330
3B49
100
AcDbEntity
  8
0
100
AcDbLine
 10
-139.9999999999995
 20
-50.00000000000003
 30
0.0
 11
-139.9999999999999
 21
-3.000000000000051
 31
0.0
  0
ARC
  5
3B5A
330
3B49
100
AcDbEntity
  8
0
100
AcDbCircle
 10
-137.0
 20
-3.000000000000011
 30
0.0
 40
2.999999999999953
100
AcDbArc
 50
90.0
 51
180.0
  0
LINE
  5
3B5B
330
3B49
100
AcDbEntity
  8
0
100
AcDbLine
 10
0.0
 20
0.0
 30
0.0
 11
-3.000000000000007
 21
0.0
 31
0.0
  0
SPLINE
  5
3B5C
330
3B49
100
AcDbEntity
  8
0
100
AcDbSpline
210
0.0
220
0.0
230
1.0
 70
     8
 71
     3
 72
    11
 73
     7
 74
     0
 42
0.000000001
 43
0.0000000001
 40
0.0936520190202783
 40
0.0936520190202783
 40
0.0936520190202783
 40
0.0936520190202783
 40
0.269487791023405
 40
0.269487791023405
 40
0.269487791023405
 40
0.270135139121543
 40
0.270135139121543
 40
0.270135139121543
 40
0.270135139121543
 10
2.471882093901311
 20
5.43464752203363
 30
0.0
 10
2.158002837500677
 20
5.360615649777125
 30
0.0
 10
1.878846438156683
 20
5.227482491212557
 30
0.0
 10
1.620370802641811
 20
5.052731258498108
 30
0.0
 10
1.619419211795652
 20
5.052087903185044
 30
0.0
 10
1.618468051433506
 20
5.051444094470642
 30
0.0
 10
1.617517321507712
 20
5.050799833628527
 30
0.0
  0
SPLINE
  5
3B5D
330
3B49
100
AcDbEntity
  8
0
100
AcDbSpline
210
0.0
220
0.0
230
1.0
 70
     8
 71
     3
 72
    17
 73
    13
 74
     0
 42
0.000000001
 43
0.0000000001
 40
0.0
 40
0.0
 40
0.0
 40
0.0
 40
0.3565110529525992
 40
0.3565110529525992
 40
0.3565110529525992
 40
0.6782555264762995
 40
0.6782555264762995
 40
0.6782555264762995
 40
0.8956678868726413
 40
0.8956678868726413
 40
0.8956678868726413
 40
1.0
 40
1.0
 40
1.0
 40
1.0
 10
-0.0000000000000444
 20
-0.0000000000000444
 30
0.0
 10
-0.0017535006817315
 20
0.0000005786461621
 30
0.0
 10
-0.1058430776429107
 20
0.7003107676386211
 30
0.0
 10
-0.0677564324994014
 20
1.59903725562922
 30
0.0
 10
-0.0333839565593269
 20
2.410120890555922
 30
0.0
 10
0.1175488749522076
 20
3.384824141391238
 30
0.0
 10
0.565256347313806
 20
4.153835775725349
 30
0.0
 10
0.8677856721136755
 20
4.673479929241826
 30
0.0
 10
1.327983495265564
 20
5.114462833529458
 30
0.0
 10
1.951937302880041
 20
5.333503642433092
 30
0.0
 10
2.251361029864126
 20
5.438617217449626
 30
0.0
 10
2.591835091711151
 20
5.497513355447835
 30
0.0
 10
3.005080003270737
 20
5.500000000020341
 30
0.0
  0
ARC
  5
3B5E
330
3B49
100
AcDbEntity
  8
0
100
AcDbCircle
 10
0.0050799999999877
 20
-3.250000000000374
 30
0.0
 40
9.250000000000346
100
AcDbArc
 50
71.07535558394949
 51
89.99999999999998
  0
LINE
  5
3B5F
330
3B49
100
AcDbEntity
  8
0
100
AcDbLine
 10
-3.000000000000007
 20
5.999999999999975
 30
0.0
 11
0.0050799999999906
 21
5.999999999999974
 31
0.0
  0
LINE
  5
3B60
330
3B49
100
AcDbEntity
  8
0
100
AcDbLine
 10
-3.000000000000006
 20
5.999999999999965
 30
0.0
 11
-3.000000000000006
 21
5.354408754284754
 31
0.0
  0
LINE
  5
3B61
330
3B49
100
AcDbEntity
  8
0
100
AcDbLine
 10
-3.000000000000006
 20
5.354408754284756
 30
0.0
 11
-3.000000000000007
 21
0.0
 31
0.0
  0
LINE
  5
3B62
330
3B49
100
AcDbEntity
  8
0
100
AcDbLine
 10
0.0
 20
1.747793395763833
 30
0.0
 11
0.0
 21
1.375419894719036
 31
0.0
  0
LINE
  5
3B63
330
3B49
100
AcDbEntity
  8
0
100
AcDbLine
 10
0.0
 20
0.5645114054450057
 30
0.0
 11
0.0
 21
0.3598339112831805
 31
0.0
  0
LINE
  5
3B64
330
3B49
100
AcDbEntity
  8
0
100
AcDbLine
 10
0.0
 20
0.3598339112831805
 30
0.0
 11
0.0
 21
0.0
 31
0.0
  0
SPLINE
  5
3B65
330
3B49
100
AcDbEntity
  8
0
100
AcDbSpline
210
0.0
220
0.0
230
1.0
 70
     8
 71
     3
 72
     8
 73
     4
 74
     0
 42
0.000000001
 43
0.0000000001
 40
0.0206534080265282
 40
0.0206534080265282
 40
0.0206534080265282
 40
0.0206534080265282
 40
0.0229004272118
 40
0.0229004272118
 40
0.0229004272118
 40
0.0229004272118
 10
3.006872301108527
 20
5.499995978793233
 30
0.0
 10
3.004550163229071
 20
5.499958545752811
 30
0.0
 10
3.002909869158664
 20
5.499928467150033
 30
0.0
 10
3.001623678149606
 20
5.499905887502583
 30
0.0
  0
SPLINE
  5
3B66
330
3B49
100
AcDbEntity
  8
0
100
AcDbSpline
210
0.0
220
0.0
230
1.0
 70
     8
 71
     3
 72
    32
 73
    28
 74
     0
 42
0.000000001
 43
0.0000000001
 40
0.1255827567022252
 40
0.1255827567022252
 40
0.1255827567022252
 40
0.1255827567022252
 40
0.125812512281113
 40
0.125812512281113
 40
0.1268336062585272
 40
0.1268336062585272
 40
0.1273252524650099
 40
0.1273252524650099
 40
0.1278220865386068
 40
0.1278220865386068
 40
0.1283175957765601
 40
0.1283175957765601
 40
0.1303339486697942
 40
0.1303339486697942
 40
0.138180105882181
 40
0.138180105882181
 40
0.1553995014486242
 40
0.1553995014486242
 40
0.1829456512077048
 40
0.1829456512077048
 40
0.1962700178799696
 40
0.1962700178799696
 40
0.2076050852850313
 40
0.2076050852850313
 40
0.2264675792362191
 40
0.2264675792362191
 40
0.2267434102701175
 40
0.2267434102701175
 40
0.2267434102701175
 40
0.2267434102701175
 10
3.000078529426091
 20
5.499782662694581
 30
0.0
 10
2.999952363782214
 20
5.499777121709749
 30
0.0
 10
2.999808054844686
 20
5.499770765762262
 30
0.0
 10
2.99902680183156
 20
5.499736379655656
 30
0.0
 10
2.998230606929448
 20
5.499701302247124
 30
0.0
 10
2.996247194204224
 20
5.499612720438037
 30
0.0
 10
2.995457200121921
 20
5.499577315418728
 30
0.0
 10
2.9934480788914
 20
5.499486454306121
 30
0.0
 10
2.992181782901211
 20
5.499428821804135
 30
0.0
 10
2.989344090441077
 20
5.499298063487946
 30
0.0
 10
2.987753126341755
 20
5.499224005834635
 30
0.0
 10
2.979599566822567
 20
5.49883956573243
 30
0.0
 10
2.972650314422806
 20
5.498495860655253
 30
0.0
 10
2.940181208821875
 20
5.49681115435357
 30
0.0
 10
2.914858450727453
 20
5.495259809118973
 30
0.0
 10
2.835057183743061
 20
5.489605808752307
 30
0.0
 10
2.781801576126162
 20
5.484634421480248
 30
0.0
 10
2.651008852627507
 20
5.469445909897081
 30
0.0
 10
2.576264364871029
 20
5.457522524065423
 30
0.0
 10
2.484211366922679
 20
5.439699941204112
 30
0.0
 10
2.456839898156462
 20
5.433837083716829
 30
0.0
 10
2.413449702027558
 20
5.423919007794819
 30
0.0
 10
2.396315090260033
 20
5.419723357945807
 30
0.0
 10
2.360303942935782
 20
5.410595024858246
 30
0.0
 10
2.347337432771296
 20
5.406946148906009
 30
0.0
 10
2.346962328608849
 20
5.406842303841129
 30
0.0
 10
2.346959616767886
 20
5.406841552759697
 30
0.0
 10
2.34695961714924
 20
5.406841552865317
 30
0.0
  0
SPLINE
  5
3B67
330
3B49
100
AcDbEntity
  8
0
100
AcDbSpline
210
0.0
220
0.0
230
1.0
 70
     8
 71
     3
 72
     8
 73
     4
 74
     0
 42
0.000000001
 43
0.0000000001
 40
0.0
 40
0.0
 40
0.0
 40
0.0
 40
0.0810908489299642
 40
0.0810908489299642
 40
0.0810908489299642
 40
0.0810908489299642
 10
-0.00000498995488
 20
1.375419894719036
 30
0.0
 10
-0.0000039656249663
 20
1.105188029262508
 30
0.0
 10
0.0000092217209425
 20
0.834798125843951
 30
0.0
 10
0.0000014549438839
 20
0.5645114054450056
 30
0.0
  0
SPLINE
  5
3B68
330
3B49
100
AcDbEntity
  8
0
100
AcDbSpline
210
0.0
220
0.0
230
1.0
 70
     8
 71
     3
 72
    20
 73
    16
 74
     0
 42
0.000000001
 43
0.0000000001
 40
0.0
 40
0.0
 40
0.0
 40
0.0
 40
0.0522997913160257
 40
0.0522997913160257
 40
0.1213560010129602
 40
0.1213560010129602
 40
0.2164169150269616
 40
0.2164169150269616
 40
0.2996538317744798
 40
0.2996538317744798
 40
0.3705371302045589
 40
0.3705371302045589
 40
0.4343891170187011
 40
0.4343891170187011
 40
0.48340069397539
 40
0.48340069397539
 40
0.48340069397539
 40
0.48340069397539
 10
1.617517282365441
 20
5.050799750157816
 30
0.0
 10
1.483833681623175
 20
4.960203907736803
 30
0.0
 10
1.350719825357379
 20
4.852617899998819
 30
0.0
 10
1.065678350442932
 20
4.579902022033436
 30
0.0
 10
0.9174718711093278
 20
4.404327120965024
 30
0.0
 10
0.6083615379719448
 20
3.956531780965595
 30
0.0
 10
0.4596920642244691
 20
3.665027551189007
 30
0.0
 10
0.2478248183183095
 20
3.118890402661981
 30
0.0
 10
0.1732838601931424
 20
2.856951220556535
 30
0.0
 10
0.0774202216792679
 20
2.419521498878438
 30
0.0
 10
0.0482386320113081
 20
2.231184235905485
 30
0.0
 10
0.0131610077527266
 20
1.939644491601242
 30
0.0
 10
0.0045770155742044
 20
1.825326157211931
 30
0.0
 10
-0.0028567054742136
 20
1.699381680483832
 30
0.0
 10
-0.0036937475958554
 20
1.667874518947546
 30
0.0
 10
-0.0036937468208176
 20
1.667874547156229
 30
0.0
  0
SPLINE
  5
3B69
330
3B49
100
AcDbEntity
  8
0
100
AcDbSpline
210
0.0
220
0.0
230
1.0
 70
     8
 71
     3
 72
     8
 73
     4
 74
     0
 42
0.000000001
 43
0.0000000001
 40
0.0
 40
0.0
 40
0.0
 40
0.0
 40
0.043429363779635
 40
0.043429363779635
 40
0.043429363779635
 40
0.043429363779635
 10
3.00508200977772
 20
5.499895466465181
 30
0.0
 10
3.000607044319555
 20
5.499811045964667
 30
0.0
 10
2.998793147134604
 20
5.499744929138211
 30
0.0
 10
2.998793147809316
 20
5.499744929160417
 30
0.0
  0
SPLINE
  5
3B6A
330
3B49
100
AcDbEntity
  8
0
100
AcDbSpline
210
0.0
220
0.0
230
1.0
 70
     8
 71
     3
 72
    30
 73
    26
 74
     0
 42
0.000000001
 43
0.0000000001
 40
0.0068946272416457
 40
0.0068946272416457
 40
0.0068946272416457
 40
0.0068946272416457
 40
0.0071758554288442
 40
0.0071758554288442
 40
0.0082241412649176
 40
0.0082241412649176
 40
0.008750755451266
 40
0.008750755451266
 40
0.0090129231361222
 40
0.0090129231361222
 40
0.0095447145575151
 40
0.0095447145575151
 40
0.0106076099277577
 40
0.0106076099277577
 40
0.019076949308587
 40
0.019076949308587
 40
0.0281236605379899
 40
0.0281236605379899
 40
0.0550401166563355
 40
0.0550401166563355
 40
0.0828969588156478
 40
0.0828969588156478
 40
0.0940601778462622
 40
0.0940601778462622
 40
0.1079517669095418
 40
0.1079517669095418
 40
0.1079517669095418
 40
0.1079517669095418
 10
3.00007327599676
 20
5.499782426756762
 30
0.0
 10
2.999918784587798
 20
5.499775641751533
 30
0.0
 10
2.999747644009669
 20
5.499768109894932
 30
0.0
 10
2.99889154163858
 20
5.499730409543871
 30
0.0
 10
2.998042372659966
 20
5.4996929935323
 30
0.0
 10
2.995829000217227
 20
5.499593975954613
 30
0.0
 10
2.994900032033718
 20
5.499552255567014
 30
0.0
 10
2.993135969811249
 20
5.499472177187233
 30
0.0
 10
2.992483332240242
 20
5.499442431063727
 30
0.0
 10
2.990351516780638
 20
5.499344701248686
 30
0.0
 10
2.988676670377547
 20
5.499267144779725
 30
0.0
 10
2.983555810758671
 20
5.499026677449034
 30
0.0
 10
2.979917607403418
 20
5.498851509453786
 30
0.0
 10
2.9482198419792
 20
5.497284611769353
 30
0.0
 10
2.920846158854768
 20
5.495654222561128
 30
0.0
 10
2.86499013697223
 20
5.491754227485068
 30
0.0
 10
2.836603423119212
 20
5.489446884244719
 30
0.0
 10
2.726381710785499
 20
5.479199741831446
 30
0.0
 10
2.648354778136358
 20
5.468856551068225
 30
0.0
 10
2.510421945971332
 20
5.445718815960789
 30
0.0
 10
2.448598707693131
 20
5.432317024443048
 30
0.0
 10
2.389979666193023
 20
5.418174091641304
 30
0.0
 10
2.376268053003747
 20
5.414658654612002
 30
0.0
 10
2.353873137381727
 20
5.408776818798131
 30
0.0
 10
2.346959639698383
 20
5.406841559110575
 30
0.0
 10
2.346959617149224
 20
5.406841552865316
 30
0.0
  0
SPLINE
  5
3B6B
330
3B49
100
AcDbEntity
  8
0
100
AcDbSpline
210
0.0
220
0.0
230
1.0
 70
     8
 71
     3
 72
     8
 73
     4
 74
     0
 42
0.000000001
 43
0.0000000001
 40
0.0
 40
0.0
 40
0.0
 40
0.0
 40
0.001105877685004
 40
0.001105877685004
 40
0.001105877685004
 40
0.001105877685004
 10
3.005080517890937
 20
5.49994789822175
 30
0.0
 10
3.004310755054423
 20
5.499934855735547
 30
0.0
 10
3.003613645715711
 20
5.499922952238761
 30
0.0
 10
3.00303761432139
 20
5.499912839754913
 30
0.0
  0
LINE
  5
3B6C
330
3B49
100
AcDbEntity
  8
0
100
AcDbLine
 10
-3.000000000000007
 20
0.0
 30
0.0
 11
-77.0
 21
0.0
 31
0.0
  0
LINE
  5
3B6D
330
3B49
100
AcDbEntity
  8
0
100
AcDbLine
 10
120.0
 20
5.499999999999976
 30
0.0
 11
3.005080000000006
 21
5.499999999999993
 31
0.0
  0
LINE
  5
3B6E
330
3B49
100
AcDbEntity
  8
0
100
AcDbLine
 10
-80.0
 20
5.999999999999996
 30
0.0
 11
-79.99999999999999
 21
74.99999999999999
 31
0.0
  0
LINE
  5
3B6F
330
3B49
100
AcDbEntity
  8
0
100
AcDbLine
 10
120.0
 20
74.99999999999997
 30
0.0
 11
120.0
 21
5.49999999999998
 31
0.0
  0
LINE
  5
3B70
330
3B49
100
AcDbEntity
  8
0
100
AcDbLine
 10
-79.99999999999999
 20
74.99999999999999
 30
0.0
 11
120.0
 21
74.99999999999997
 31
0.0
  0
CIRCLE
  5
3B71
330
3B49
100
AcDbEntity
  8
0
100
AcDbCircle
 10
-49.99999999999999
 20
34.99999999999998
 30
0.0
 40
2.5
  0
CIRCLE
  5
3B72
330
3B49
100
AcDbEntity
  8
0
100
AcDbCircle
 10
-69.99999999999997
 20
44.99999999999997
 30
0.0
 40
2.5
  0
CIRCLE
  5
3B73
330
3B49
100
AcDbEntity
  8
0
100
AcDbCircle
 10
-69.99999999999997
 20
24.99999999999998
 30
0.0
 40
2.5
  0
CIRCLE
  5
3B74
330
3B49
100
AcDbEntity
  8
0
100
AcDbCircle
 10
-69.99999999999996
 20
64.99999999999999
 30
0.0
 40
2.5
  0
CIRCLE
  5
3B75
330
3B49
100
AcDbEntity
  8
0
100
AcDbCircle
 10
-49.99999999999999
 20
54.99999999999997
 30
0.0
 40
2.5
  0
CIRCLE
  5
3B76
330
3B49
100
AcDbEntity
  8
0
100
AcDbCircle
 10
-9.999999999999984
 20
34.99999999999998
 30
0.0
 40
2.5
  0
CIRCLE
  5
3B77
330
3B49
100
AcDbEntity
  8
0
100
AcDbCircle
 10
-29.99999999999996
 20
44.99999999999997
 30
0.0
 40
2.5
  0
CIRCLE
  5
3B78
330
3B49
100
AcDbEntity
  8
0
100
AcDbCircle
 10
-29.99999999999998
 20
24.99999999999998
 30
0.0
 40
2.5
  0
CIRCLE
  5
3B79
330
3B49
100
AcDbEntity
  8
0
100
AcDbCircle
 10
-29.99999999999997
 20
64.99999999999997
 30
0.0
 40
2.5
  0
CIRCLE
  5
3B7A
330
3B49
100
AcDbEntity
  8
0
100
AcDbCircle
 10
-9.999999999999978
 20
54.99999999999997
 30
0.0
 40
2.5
  0
CIRCLE
  5
3B7B
330
3B49
100
AcDbEntity
  8
0
100
AcDbCircle
 10
30.00000000000002
 20
34.99999999999997
 30
0.0
 40
2.5
  0
CIRCLE
  5
3B7C
330
3B49
100
AcDbEntity
  8
0
100
AcDbCircle
 10
10.00000000000003
 20
44.99999999999997
 30
0.0
 40
2.5
  0
CIRCLE
  5
3B7D
330
3B49
100
AcDbEntity
  8
0
100
AcDbCircle
 10
10.00000000000002
 20
24.99999999999998
 30
0.0
 40
2.5
  0
CIRCLE
  5
3B7E
330
3B49
100
AcDbEntity
  8
0
100
AcDbCircle
 10
10.00000000000003
 20
64.99999999999997
 30
0.0
 40
2.5
  0
CIRCLE
  5
3B7F
330
3B49
100
AcDbEntity
  8
0
100
AcDbCircle
 10
30.00000000000002
 20
54.99999999999997
 30
0.0
 40
2.5
  0
CIRCLE
  5
3B80
330
3B49
100
AcDbEntity
  8
0
100
AcDbCircle
 10
70.00000000000001
 20
34.99999999999997
 30
0.0
 40
2.5
  0
CIRCLE
  5
3B81
330
3B49
100
AcDbEntity
  8
0
100
AcDbCircle
 10
50.00000000000003
 20
44.99999999999997
 30
0.0
 40
2.5
  0
CIRCLE
  5
3B82
330
3B49
100
AcDbEntity
  8
0
100
AcDbCircle
 10
50.00000000000003
 20
24.99999999999998
 30
0.0
 40
2.5
  0
CIRCLE
  5
3B83
330
3B49
100
AcDbEntity
  8
0
100
AcDbCircle
 10
50.00000000000003
 20
64.99999999999997
 30
0.0
 40
2.5
  0
CIRCLE
  5
3B84
330
3B49
100
AcDbEntity
  8
0
100
AcDbCircle
 10
70.00000000000001
 20
54.99999999999997
 30
0.0
 40
2.5
  0
CIRCLE
  5
3B85
330
3B49
100
AcDbEntity
  8
0
100
AcDbCircle
 10
110.0
 20
34.99999999999997
 30
0.0
 40
2.5
  0
CIRCLE
  5
3B86
330
3B49
100
AcDbEntity
  8
0
100
AcDbCircle
 10
90.00000000000003
 20
44.99999999999997
 30
0.0
 40
2.5
  0
CIRCLE
  5
3B87
330
3B49
100
AcDbEntity
  8
0
100
AcDbCircle
 10
90.00000000000003
 20
24.99999999999998
 30
0.0
 40
2.5
  0
CIRCLE
  5
3B88
330
3B49
100
AcDbEntity
  8
0
100
AcDbCircle
 10
90.00000000000003
 20
64.99999999999997
 30
0.0
 40
2.5
  0
CIRCLE
  5
3B89
330
3B49
100
AcDbEntity
  8
0
100
AcDbCircle
 10
110.0
 20
54.99999999999997
 30
0.0
 40
2.5
  0
ENDBLK
  5
3B4B
330
3B49
100
AcDbEntity
  8
0
100
AcDbBlockEnd
  0
BLOCK
  5
3B8B
330
3B8A
100
AcDbEntity
  8
0
100
AcDbBlockBegin
  2
SFHS-BL-Top
 70
     0
 10
0.0
 20
0.0
 30
0.0
  3
SFHS-BL-Top
  1

  0
LINE
  5
3B8D
330
3B8A
100
AcDbEntity
  8
0
100
AcDbLine
 10
-6.0
 20
-77.0
 30
0.0
 11
-3.000000000000001
 21
-77.0
 31
0.0
  0
LINE
  5
3B8E
330
3B8A
100
AcDbEntity
  8
0
100
AcDbLine
 10
-6.000000000000007
 20
-80.0
 30
0.0
 11
-6.000000000000007
 21
-77.0
 31
0.0
  0
ARC
  5
3B8F
330
3B8A
100
AcDbEntity
  8
0
100
AcDbCircle
 10
3.250000000000852
 20
-80.0
 30
0.0
 40
9.250000000000811
100
AcDbArc
 50
180.0
 51
198.9246444160495
  0
SPLINE
  5
3B90
330
3B8A
100
AcDbEntity
  8
0
100
AcDbSpline
210
0.0
220
0.0
230
1.0
 70
     8
 71
     3
 72
    17
 73
    13
 74
     0
 42
0.000000001
 43
0.0000000001
 40
0.0
 40
0.0
 40
0.0
 40
0.0
 40
0.2694424910466671
 40
0.2694424910466671
 40
0.2694424910466671
 40
0.7071094242287566
 40
0.7071094242287566
 40
0.7071094242287566
 40
0.9844972725243144
 40
0.9844972725243144
 40
0.9844972725243144
 40
1.0
 40
1.0
 40
1.0
 40
1.0
 10
-5.499999999999993
 20
-82.99999999999995
 30
0.0
 10
-5.490629044466281
 20
-82.45629404899586
 30
0.0
 10
-5.320639674833962
 20
-82.01226313683438
 30
0.0
 10
-5.052873941440822
 20
-81.61671236510105
 30
0.0
 10
-4.617930637249313
 20
-80.97420237155908
 30
0.0
 10
-3.975743382570673
 20
-80.52879027869153
 30
0.0
 10
-3.519827582172643
 20
-80.26503368999321
 30
0.0
 10
-3.230873829242578
 20
-80.09786805086015
 30
0.0
 10
-3.019998917922248
 20
-80.00993070259511
 30
0.0
 10
-3.001526268011078
 20
-80.00096941801031
 30
0.0
 10
-3.000493863530903
 20
-80.00046858730122
 30
0.0
 10
-2.999996847277745
 20
-80.00016597196731
 30
0.0
 10
-2.999999999918638
 20
-79.99999999999841
 30
0.0
  0
SPLINE
  5
3B91
330
3B8A
100
AcDbEntity
  8
0
100
AcDbSpline
210
0.0
220
0.0
230
1.0
 70
     8
 71
     3
 72
    26
 73
    22
 74
     0
 42
0.000000001
 43
0.0000000001
 40
0.1345308762189707
 40
0.1345308762189707
 40
0.1345308762189707
 40
0.1345308762189707
 40
0.1382294925592252
 40
0.1382294925592252
 40
0.1657380688511108
 40
0.1657380688511108
 40
0.1826573779774092
 40
0.1826573779774092
 40
0.1903967179930019
 40
0.1903967179930019
 40
0.1923872586191673
 40
0.1923872586191673
 40
0.1928759583284591
 40
0.1928759583284591
 40
0.1933657790386734
 40
0.1933657790386734
 40
0.1938506482864457
 40
0.1938506482864457
 40
0.1952787935043873
 40
0.1952787935043873
 40
0.198220416738315
 40
0.198220416738315
 40
0.198220416738315
 40
0.198220416738315
 10
-5.441301381732493
 20
-82.48807345412402
 30
0.0
 10
-5.442911617138074
 20
-82.49602585047808
 30
0.0
 10
-5.444528249587233
 20
-82.50420694442119
 30
0.0
 10
-5.458135268609329
 20
-82.57494120942574
 30
0.0
 10
-5.469986916803764
 20
-82.64987120004938
 30
0.0
 10
-5.484948575640013
 20
-82.78005159105163
 30
0.0
 10
-5.489797780605044
 20
-82.83244694527219
 30
0.0
 10
-5.495334530720751
 20
-82.91100276621623
 30
0.0
 10
-5.496859423707494
 20
-82.9359898714631
 30
0.0
 10
-5.498518572857488
 20
-82.96803467811379
 30
0.0
 10
-5.49885787645893
 20
-82.97490671926679
 30
0.0
 10
-5.499236199455306
 20
-82.98293930826048
 30
0.0
 10
-5.499308925718357
 20
-82.9845031136552
 30
0.0
 10
-5.499437147908058
 20
-82.98728780619041
 30
0.0
 10
-5.499493574713917
 20
-82.98852824258094
 30
0.0
 10
-5.499582735305463
 20
-82.99050053399728
 30
0.0
 10
-5.499617546629992
 20
-82.99127745901522
 30
0.0
 10
-5.499729313850362
 20
-82.99378048500773
 30
0.0
 10
-5.499766647405808
 20
-82.99463457253501
 30
0.0
 10
-5.499861127047431
 20
-82.99678922393756
 30
0.0
 10
-5.499888485921764
 20
-82.99742419626532
 30
0.0
 10
-5.499914561236396
 20
-82.99802827921205
 30
0.0
  0
SPLINE
  5
3B92
330
3B8A
100
AcDbEntity
  8
0
100
AcDbSpline
210
0.0
220
0.0
230
1.0
 70
     8
 71
     3
 72
     8
 73
     4
 74
     0
 42
0.000000001
 43
0.0000000001
 40
0.2860664015617791
 40
0.2860664015617791
 40
0.2860664015617791
 40
0.2860664015617791
 40
0.2990958757898504
 40
0.2990958757898504
 40
0.2990958757898504
 40
0.2990958757898504
 10
-5.499796935794144
 20
-82.99187605627256
 30
0.0
 10
-5.49979693579416
 20
-82.99187605627324
 30
0.0
 10
-5.499798735149024
 20
-82.99118030399533
 30
0.0
 10
-5.499948253175221
 20
-83.00000073881768
 30
0.0
  0
SPLINE
  5
3B93
330
3B8A
100
AcDbEntity
  8
0
100
AcDbSpline
210
0.0
220
0.0
230
1.0
 70
     8
 71
     3
 72
     8
 73
     4
 74
     0
 42
0.000000001
 43
0.0000000001
 40
0.0677449472300649
 40
0.0677449472300649
 40
0.0677449472300649
 40
0.0677449472300649
 40
0.1113329214739442
 40
0.1113329214739442
 40
0.1113329214739442
 40
0.1113329214739442
 10
-5.499747452674093
 20
-82.99378327652313
 30
0.0
 10
-5.499747452708481
 20
-82.99378327756583
 30
0.0
 10
-5.499810477673037
 20
-82.99549328744005
 30
0.0
 10
-5.499895550159101
 20
-83.00000195096178
 30
0.0
  0
SPLINE
  5
3B94
330
3B8A
100
AcDbEntity
  8
0
100
AcDbSpline
210
0.0
220
0.0
230
1.0
 70
     8
 71
     3
 72
     8
 73
     4
 74
     0
 42
0.000000001
 43
0.0000000001
 40
0.0321141233716212
 40
0.0321141233716212
 40
0.0321141233716212
 40
0.0321141233716212
 40
0.0451651896684954
 40
0.0451651896684954
 40
0.0451651896684954
 40
0.0451651896684954
 10
-5.499796935794142
 20
-82.99187605627251
 30
0.0
 10
-5.499796935771781
 20
-82.99187605527979
 30
0.0
 10
-5.499798487372064
 20
-82.99116568702523
 30
0.0
 10
-5.499948253175221
 20
-83.00000073881768
 30
0.0
  0
SPLINE
  5
3B95
330
3B8A
100
AcDbEntity
  8
0
100
AcDbSpline
210
0.0
220
0.0
230
1.0
 70
     8
 71
     3
 72
    20
 73
    16
 74
     0
 42
0.000000001
 43
0.0000000001
 40
0.23016712065233
 40
0.23016712065233
 40
0.23016712065233
 40
0.23016712065233
 40
0.2562954810076415
 40
0.2562954810076415
 40
0.3064205710350562
 40
0.3064205710350562
 40
0.3645114861047157
 40
0.3645114861047157
 40
0.4286724140260766
 40
0.4286724140260766
 40
0.4986210967394302
 40
0.4986210967394302
 40
0.5769126408403428
 40
0.5769126408403428
 40
0.664699340685689
 40
0.664699340685689
 40
0.664699340685689
 40
0.664699340685689
 10
-1.757071687146507
 20
-80.00000000000003
 30
0.0
 10
-1.78546697845247
 20
-80.00164508262455
 30
0.0
 10
-1.82096407493835
 20
-80.00398981729425
 30
0.0
 10
-1.941099855792094
 20
-80.01359583972462
 30
0.0
 10
-2.042542693091371
 20
-80.02355472228806
 30
0.0
 10
-2.290945712971483
 20
-80.05668649745238
 30
0.0
 10
-2.44586878877869
 20
-80.0822215457633
 30
0.0
 10
-2.791326040657791
 20
-80.1569165047902
 30
0.0
 10
-2.987781870965278
 20
-80.20922789327981
 30
0.0
 10
-3.398105689126532
 20
-80.34836746154594
 30
0.0
 10
-3.616253020550865
 20
-80.43943086942178
 30
0.0
 10
-4.053821138896013
 20
-80.66893111048138
 30
0.0
 10
-4.275074195820113
 20
-80.81428308374396
 30
0.0
 10
-4.693992300251832
 20
-81.16447292952322
 30
0.0
 10
-4.893621917552987
 20
-81.38326135256015
 30
0.0
 10
-5.04646469022386
 20
-81.60728154580088
 30
0.0
  0
SPLINE
  5
3B96
330
3B8A
100
AcDbEntity
  8
0
100
AcDbSpline
210
0.0
220
0.0
230
1.0
 70
     8
 71
     3
 72
    32
 73
    28
 74
     0
 42
0.000000001
 43
0.0000000001
 40
0.132790689657447
 40
0.132790689657447
 40
0.132790689657447
 40
0.132790689657447
 40
0.1334275006533981
 40
0.1334275006533981
 40
0.1542685902992428
 40
0.1542685902992428
 40
0.1804178002532237
 40
0.1804178002532237
 40
0.1872362361788217
 40
0.1872362361788217
 40
0.1897944454433275
 40
0.1897944454433275
 40
0.190376499126299
 40
0.190376499126299
 40
0.1910287398840099
 40
0.1910287398840099
 40
0.1913304384489937
 40
0.1913304384489937
 40
0.1917482831528759
 40
0.1917482831528759
 40
0.1921970207426733
 40
0.1921970207426733
 40
0.1928963185688702
 40
0.1928963185688702
 40
0.1943072728397899
 40
0.1943072728397899
 40
0.1964894583611907
 40
0.1964894583611907
 40
0.1964894583611907
 40
0.1964894583611907
 10
-5.441301381732554
 20
-82.48807345412433
 30
0.0
 10
-5.441578318482851
 20
-82.48944114905624
 30
0.0
 10
-5.441855367806177
 20
-82.49081521803965
 30
0.0
 10
-5.451201277755481
 20
-82.53736812221177
 30
0.0
 10
-5.460445811685596
 20
-82.59011358795362
 30
0.0
 10
-5.478722441162208
 20
-82.71863718819993
 30
0.0
 10
-5.487296745212698
 20
-82.79846276282775
 30
0.0
 10
-5.494814415976128
 20
-82.90328444727499
 30
0.0
 10
-5.496206419807533
 20
-82.92526855024702
 30
0.0
 10
-5.497893410337876
 20
-82.95587035389274
 30
0.0
 10
-5.498332817910296
 20
-82.96430028816992
 30
0.0
 10
-5.498845924099187
 20
-82.97475157128182
 30
0.0
 10
-5.498940220803691
 20
-82.97669951611741
 30
0.0
 10
-5.499135038206154
 20
-82.98078074905319
 30
0.0
 10
-5.499237376758133
 20
-82.9829613584954
 30
0.0
 10
-5.49936896266719
 20
-82.98580496351261
 30
0.0
 10
-5.49940826703375
 20
-82.98666055973985
 30
0.0
 10
-5.499492403222712
 20
-82.98850204984717
 30
0.0
 10
-5.499534242608479
 20
-82.98942637651334
 30
0.0
 10
-5.499605528709632
 20
-82.99100869532168
 30
0.0
 10
-5.49963489289121
 20
-82.99166530617586
 30
0.0
 10
-5.499697396584712
 20
-82.99306727151865
 30
0.0
 10
-5.499724387881395
 20
-82.99367762002166
 30
0.0
 10
-5.499791200371538
 20
-82.99519181190346
 30
0.0
 10
-5.499817206190559
 20
-82.9957874273186
 30
0.0
 10
-5.499873282817469
 20
-82.99707308031319
 30
0.0
 10
-5.499895232703054
 20
-82.99758049794679
 30
0.0
 10
-5.499914561236409
 20
-82.99802827921233
 30
0.0
  0
LINE
  5
3B97
330
3B8A
100
AcDbEntity
  8
0
100
AcDbLine
 10
-3.000000000000001
 20
-3.000000000000006
 30
0.0
 11
-6.0
 21
-3.000000000000006
 31
0.0
  0
LINE
  5
3B98
330
3B8A
100
AcDbEntity
  8
0
100
AcDbLine
 10
-6.000000000000007
 20
-3.000000000000007
 30
0.0
 11
-6.000000000000007
 21
0.0
 31
0.0
  0
SPLINE
  5
3B99
330
3B8A
100
AcDbEntity
  8
0
100
AcDbSpline
210
0.0
220
0.0
230
1.0
 70
     8
 71
     3
 72
    17
 73
    13
 74
     0
 42
0.000000001
 43
0.0000000001
 40
0.0
 40
0.0
 40
0.0
 40
0.0
 40
0.269487791023405
 40
0.269487791023405
 40
0.269487791023405
 40
0.7069412638142899
 40
0.7069412638142899
 40
0.7069412638142899
 40
0.9842844473091696
 40
0.9842844473091696
 40
0.9842844473091696
 40
1.0
 40
1.0
 40
1.0
 40
1.0
 10
-2.999999999999996
 20
3.005079999999998
 30
0.0
 10
-3.000008052431933
 20
2.461232824140936
 30
0.0
 10
-3.071923499238033
 20
2.016513335271833
 30
0.0
 10
-3.222951229437283
 20
1.620370802641811
 30
0.0
 10
-3.468111148602782
 20
0.9773215351366692
 30
0.0
 10
-3.894186913135336
 20
0.5308548394623656
 30
0.0
 10
-4.514816093365151
 20
0.2662627730894215
 30
0.0
 10
-4.908291704649272
 20
0.0985128051964009
 30
0.0
 10
-5.362809351388825
 20
0.0100898672724077
 30
0.0
 10
-5.906266462917435
 20
0.0009947362153813
 30
0.0
 10
-5.937061266538748
 20
0.0004793638541229
 30
0.0
 10
-5.968270687013179
 20
0.0001692819446093
 30
0.0
 10
-6.000000000001652
 20
-0.0000000000015314
 30
0.0
  0
LINE
  5
3B9A
330
3B8A
100
AcDbEntity
  8
0
100
AcDbLine
 10
-5.500000000000021
 20
-83.0
 30
0.0
 11
-5.500000000000007
 21
-137.0
 31
0.0
  0
LINE
  5
3B9B
330
3B8A
100
AcDbEntity
  8
0
100
AcDbLine
 10
-5.500000000000068
 20
-143.0
 30
0.0
 11
-5.500000000000069
 21
-137.0
 31
0.0
  0
LINE
  5
3B9C
330
3B8A
100
AcDbEntity
  8
0
100
AcDbLine
 10
-3.0
 20
120.0
 30
0.0
 11
-3.0
 21
-79.99999999999997
 31
0.0
  0
LINE
  5
3B9D
330
3B8A
100
AcDbEntity
  8
0
100
AcDbLine
 10
-3.0
 20
-79.99999999999999
 30
0.0
 11
0.0
 21
-79.99999999999999
 31
0.0
  0
LINE
  5
3B9E
330
3B8A
100
AcDbEntity
  8
0
100
AcDbLine
 10
0.0
 20
-79.99999999999999
 30
0.0
 11
0.0
 21
120.0
 31
0.0
  0
LINE
  5
3B9F
330
3B8A
100
AcDbEntity
  8
0
100
AcDbLine
 10
-3.0
 20
120.0
 30
0.0
 11
0.0
 21
120.0
 31
0.0
  0
CIRCLE
  5
3BA0
330
3B8A
100
AcDbEntity
  8
0
100
AcDbCircle
 10
-15.0
 20
-117.5
 30
0.0
 40
2.5
  0
CIRCLE
  5
3BA1
330
3B8A
100
AcDbEntity
  8
0
100
AcDbCircle
 10
-15.00000000000001
 20
-97.5
 30
0.0
 40
2.5
  0
CIRCLE
  5
3BA2
330
3B8A
100
AcDbEntity
  8
0
100
AcDbCircle
 10
-15.00000000000001
 20
-77.50000000000001
 30
0.0
 40
2.5
  0
CIRCLE
  5
3BA3
330
3B8A
100
AcDbEntity
  8
0
100
AcDbCircle
 10
-15.00000000000001
 20
-57.5
 30
0.0
 40
2.5
  0
CIRCLE
  5
3BA4
330
3B8A
100
AcDbEntity
  8
0
100
AcDbCircle
 10
-15.00000000000001
 20
-37.50000000000001
 30
0.0
 40
2.5
  0
CIRCLE
  5
3BA5
330
3B8A
100
AcDbEntity
  8
0
100
AcDbCircle
 10
-35.0
 20
-107.5
 30
0.0
 40
2.5
  0
CIRCLE
  5
3BA6
330
3B8A
100
AcDbEntity
  8
0
100
AcDbCircle
 10
-55.0
 20
-117.5
 30
0.0
 40
2.5
  0
CIRCLE
  5
3BA7
330
3B8A
100
AcDbEntity
  8
0
100
AcDbCircle
 10
-35.0
 20
-87.5
 30
0.0
 40
2.5
  0
CIRCLE
  5
3BA8
330
3B8A
100
AcDbEntity
  8
0
100
AcDbCircle
 10
-55.00000000000001
 20
-97.5
 30
0.0
 40
2.5
  0
CIRCLE
  5
3BA9
330
3B8A
100
AcDbEntity
  8
0
100
AcDbCircle
 10
-35.0
 20
-67.50000000000001
 30
0.0
 40
2.5
  0
CIRCLE
  5
3BAA
330
3B8A
100
AcDbEntity
  8
0
100
AcDbCircle
 10
-55.00000000000001
 20
-77.50000000000001
 30
0.0
 40
2.5
  0
CIRCLE
  5
3BAB
330
3B8A
100
AcDbEntity
  8
0
100
AcDbCircle
 10
-35.0
 20
-47.5
 30
0.0
 40
2.5
  0
CIRCLE
  5
3BAC
330
3B8A
100
AcDbEntity
  8
0
100
AcDbCircle
 10
-55.00000000000001
 20
-57.5
 30
0.0
 40
2.5
  0
CIRCLE
  5
3BAD
330
3B8A
100
AcDbEntity
  8
0
100
AcDbCircle
 10
-35.0
 20
-27.50000000000001
 30
0.0
 40
2.5
  0
CIRCLE
  5
3BAE
330
3B8A
100
AcDbEntity
  8
0
100
AcDbCircle
 10
-55.00000000000001
 20
-37.50000000000001
 30
0.0
 40
2.5
  0
CIRCLE
  5
3BAF
330
3B8A
100
AcDbEntity
  8
0
100
AcDbCircle
 10
-15.00000000000001
 20
-17.50000000000001
 30
0.0
 40
2.5
  0
CIRCLE
  5
3BB0
330
3B8A
100
AcDbEntity
  8
0
100
AcDbCircle
 10
-35.0
 20
-7.500000000000007
 30
0.0
 40
2.5
  0
CIRCLE
  5
3BB1
330
3B8A
100
AcDbEntity
  8
0
100
AcDbCircle
 10
-55.00000000000001
 20
-17.50000000000001
 30
0.0
 40
2.5
  0
CIRCLE
  5
3BB2
330
3B8A
100
AcDbEntity
  8
0
100
AcDbCircle
 10
-74.99999999999999
 20
-107.5
 30
0.0
 40
2.5
  0
CIRCLE
  5
3BB3
330
3B8A
100
AcDbEntity
  8
0
100
AcDbCircle
 10
-95.0
 20
-117.5
 30
0.0
 40
2.5
  0
CIRCLE
  5
3BB4
330
3B8A
100
AcDbEntity
  8
0
100
AcDbCircle
 10
-74.99999999999999
 20
-87.5
 30
0.0
 40
2.5
  0
CIRCLE
  5
3BB5
330
3B8A
100
AcDbEntity
  8
0
100
AcDbCircle
 10
-95.00000000000001
 20
-97.5
 30
0.0
 40
2.5
  0
CIRCLE
  5
3BB6
330
3B8A
100
AcDbEntity
  8
0
100
AcDbCircle
 10
-74.99999999999999
 20
-67.50000000000001
 30
0.0
 40
2.5
  0
CIRCLE
  5
3BB7
330
3B8A
100
AcDbEntity
  8
0
100
AcDbCircle
 10
-95.00000000000001
 20
-77.50000000000001
 30
0.0
 40
2.5
  0
CIRCLE
  5
3BB8
330
3B8A
100
AcDbEntity
  8
0
100
AcDbCircle
 10
-75.0
 20
-47.5
 30
0.0
 40
2.5
  0
CIRCLE
  5
3BB9
330
3B8A
100
AcDbEntity
  8
0
100
AcDbCircle
 10
-95.00000000000001
 20
-57.5
 30
0.0
 40
2.5
  0
CIRCLE
  5
3BBA
330
3B8A
100
AcDbEntity
  8
0
100
AcDbCircle
 10
-75.0
 20
-27.50000000000001
 30
0.0
 40
2.5
  0
CIRCLE
  5
3BBB
330
3B8A
100
AcDbEntity
  8
0
100
AcDbCircle
 10
-95.00000000000001
 20
-37.50000000000001
 30
0.0
 40
2.5
  0
CIRCLE
  5
3BBC
330
3B8A
100
AcDbEntity
  8
0
100
AcDbCircle
 10
-75.0
 20
-7.500000000000007
 30
0.0
 40
2.5
  0
CIRCLE
  5
3BBD
330
3B8A
100
AcDbEntity
  8
0
100
AcDbCircle
 10
-95.00000000000001
 20
-17.50000000000001
 30
0.0
 40
2.5
  0
LINE
  5
3BBE
330
3B8A
100
AcDbEntity
  8
0
100
AcDbLine
 10
-108.0
 20
-143.0
 30
0.0
 11
-5.50000000000006
 21
-142.9999999999999
 31
0.0
  0
LINE
  5
3BBF
330
3B8A
100
AcDbEntity
  8
0
100
AcDbLine
 10
-108.0
 20
-143.0
 30
0.0
 11
-108.0
 21
-137.0
 31
0.0
  0
LINE
  5
3BC0
330
3B8A
100
AcDbEntity
  8
0
100
AcDbLine
 10
-108.0
 20
0.0
 30
0.0
 11
-108.0
 21
-137.0
 31
0.0
  0
LINE
  5
3BC1
330
3B8A
100
AcDbEntity
  8
0
100
AcDbLine
 10
-108.0
 20
0.0
 30
0.0
 11
-5.999999999999996
 21
0.0
 31
0.0
  0
ENDBLK
  5
3B8C
330
3B8A
100
AcDbEntity
  8
0
100
AcDbBlockEnd
  0
BLOCK
  5
3BC3
330
3BC2
100
AcDbEntity
  8
0
100
AcDbBlockBegin
  2
SFHS-BL-Bottom
 70
     0
 10
0.0
 20
0.0
 30
0.0
  3
SFHS-BL-Bottom
  1

  0
SPLINE
  5
3BC5
330
3BC2
100
AcDbEntity
  8
0
100
AcDbSpline
210
0.0
220
0.0
230
1.0
 70
     8
 71
     3
 72
    11
 73
     7
 74
     0
 42
0.000000001
 43
0.0000000001
 40
0.0935283570356077
 40
0.0935283570356077
 40
0.0935283570356077
 40
0.0935283570356077
 40
0.2694424910466671
 40
0.2694424910466671
 40
0.2694424910466671
 40
0.2715869893249474
 40
0.2715869893249474
 40
0.2715869893249474
 40
0.2715869893249474
 10
-5.43481066130234
 20
82.46769813743785
 30
0.0
 10
-5.360835113907306
 20
82.15387316226312
 30
0.0
 10
-5.227693350676211
 20
81.87496031699822
 30
0.0
 10
-5.052873941440822
 20
81.61671236510105
 30
0.0
 10
-5.050742788510883
 20
81.61356416844633
 30
0.0
 10
-5.048606659977105
 20
81.61042070380464
 30
0.0
 10
-5.046465602131665
 20
81.60728196935933
 30
0.0
  0
LINE
  5
3BC6
330
3BC2
100
AcDbEntity
  8
0
100
AcDbLine
 10
-5.350570215346768
 20
77.0
 30
0.0
 11
0.0
 21
77.0
 31
0.0
  0
LINE
  5
3BC7
330
3BC2
100
AcDbEntity
  8
0
100
AcDbLine
 10
0.0
 20
80.0
 30
0.0
 11
0.0
 21
77.0
 31
0.0
  0
SPLINE
  5
3BC8
330
3BC2
100
AcDbEntity
  8
0
100
AcDbSpline
210
0.0
220
0.0
230
1.0
 70
     8
 71
     3
 72
    17
 73
    13
 74
     0
 42
0.000000001
 43
0.0000000001
 40
-1.0
 40
-1.0
 40
-1.0
 40
-1.0
 40
-0.5670462169936381
 40
-0.5670462169936381
 40
-0.5670462169936381
 40
-0.2599160099248599
 40
-0.2599160099248599
 40
-0.2599160099248599
 40
-0.0522841329454479
 40
-0.0522841329454479
 40
-0.0522841329454479
 40
0.0
 40
0.0
 40
0.0
 40
0.0
 10
0.0000000000000433
 20
80.00000000000007
 30
0.0
 10
-0.0000006952480147
 20
79.99790055588021
 30
0.0
 10
-1.036569657870075
 20
79.84335289814952
 30
0.0
 10
-2.203481635673952
 20
79.97698455233583
 30
0.0
 10
-3.031269569261948
 20
80.07178062349197
 30
0.0
 10
-3.929739307925532
 20
80.31197050384893
 30
0.0
 10
-4.578611778938697
 20
80.85827451228965
 30
0.0
 10
-5.017274619570853
 20
81.22759711248747
 30
0.0
 10
-5.342587416163829
 20
81.73611662525036
 30
0.0
 10
-5.456679263242304
 20
82.43506899011993
 30
0.0
 10
-5.485408923578775
 20
82.61107336333573
 30
0.0
 10
-5.498782806708566
 20
82.79751883715409
 30
0.0
 10
-5.500000000020608
 20
83.00000000331312
 30
0.0
  0
ARC
  5
3BC9
330
3BC2
100
AcDbEntity
  8
0
100
AcDbCircle
 10
3.250000000000852
 20
80.0
 30
0.0
 40
9.250000000000813
100
AcDbArc
 50
161.0753555839504
 51
180.0
  0
LINE
  5
3BCA
330
3BC2
100
AcDbEntity
  8
0
100
AcDbLine
 10
-6.000000000000007
 20
77.0
 30
0.0
 11
-6.000000000000007
 21
80.0
 31
0.0
  0
LINE
  5
3BCB
330
3BC2
100
AcDbEntity
  8
0
100
AcDbLine
 10
-6.0
 20
77.0
 30
0.0
 11
-5.350570215346768
 21
77.0
 31
0.0
  0
LINE
  5
3BCC
330
3BC2
100
AcDbEntity
  8
0
100
AcDbLine
 10
-1.757075353692927
 20
80.0
 30
0.0
 11
-1.275097587655058
 21
80.0
 31
0.0
  0
LINE
  5
3BCD
330
3BC2
100
AcDbEntity
  8
0
100
AcDbLine
 10
-0.7151645427303705
 20
80.0
 30
0.0
 11
0.0
 21
80.0
 31
0.0
  0
SPLINE
  5
3BCE
330
3BC2
100
AcDbEntity
  8
0
100
AcDbSpline
210
0.0
220
0.0
230
1.0
 70
     8
 71
     3
 72
     8
 73
     4
 74
     0
 42
0.000000001
 43
0.0000000001
 40
0.0203512190408282
 40
0.0203512190408282
 40
0.0203512190408282
 40
0.0203512190408282
 40
0.0223619201801002
 40
0.0223619201801002
 40
0.0223619201801002
 40
0.0223619201801002
 10
-5.499999999905639
 20
83.00313177308602
 30
0.0
 10
-5.499963784106387
 20
83.00088584573598
 30
0.0
 10
-5.499935448040962
 20
82.99923605865931
 30
0.0
 10
-5.499914001068745
 20
82.99801530243417
 30
0.0
  0
SPLINE
  5
3BCF
330
3BC2
100
AcDbEntity
  8
0
100
AcDbSpline
210
0.0
220
0.0
230
1.0
 70
     8
 71
     3
 72
    30
 73
    26
 74
     0
 42
0.000000001
 43
0.0000000001
 40
0.1246102369724719
 40
0.1246102369724719
 40
0.1246102369724719
 40
0.1246102369724719
 40
0.1258682370051446
 40
0.1258682370051446
 40
0.126353563075775
 40
0.126353563075775
 40
0.1268438463504555
 40
0.1268438463504555
 40
0.1273322833792463
 40
0.1273322833792463
 40
0.1293177220114968
 40
0.1293177220114968
 40
0.1370586316055841
 40
0.1370586316055841
 40
0.1541712812689933
 40
0.1541712812689933
 40
0.1816926729520914
 40
0.1816926729520914
 40
0.1950074832691516
 40
0.1950074832691516
 40
0.206374407089925
 40
0.206374407089925
 40
0.2252644104913509
 40
0.2252644104913509
 40
0.2256695698238838
 40
0.2256695698238838
 40
0.2256695698238838
 40
0.2256695698238838
 10
-5.499783353467552
 20
82.99501584642975
 30
0.0
 10
-5.499752915492015
 20
82.99432291416056
 30
0.0
 10
-5.499715274880074
 20
82.99346483597748
 30
0.0
 10
-5.499609966532168
 20
82.99110826198266
 30
0.0
 10
-5.499573803892356
 20
82.99030190035328
 30
0.0
 10
-5.499481526249615
 20
82.98826307438151
 30
0.0
 10
-5.499423304530179
 20
82.98698508896855
 30
0.0
 10
-5.499292642056923
 20
82.98415207271899
 30
0.0
 10
-5.499219300846396
 20
82.9825779673931
 30
0.0
 10
-5.498839558859392
 20
82.97452984047851
 30
0.0
 10
-5.498501880263663
 20
82.96770309508998
 30
0.0
 10
-5.496841432935582
 20
82.93567930065851
 30
0.0
 10
-5.495314337354788
 20
82.91068759762016
 30
0.0
 10
-5.489728016328396
 20
82.83152108588332
 30
0.0
 10
-5.48480659229199
 20
82.77855004847905
 30
0.0
 10
-5.46971515460217
 20
82.64794878381312
 30
0.0
 10
-5.457827273540122
 20
82.57312849848933
 30
0.0
 10
-5.440019896346182
 20
82.48087744520475
 30
0.0
 10
-5.434155663946448
 20
82.4534255946291
 30
0.0
 10
-5.424197214722108
 20
82.40976133942073
 30
0.0
 10
-5.419966231156942
 20
82.39245344618758
 30
0.0
 10
-5.410757810939207
 20
82.35608237383889
 30
0.0
 10
-5.407057208887636
 20
82.34292442766637
 30
0.0
 10
-5.406903694450942
 20
82.34236985933311
 30
0.0
 10
-5.406902073881363
 20
82.34236400887571
 30
0.0
 10
-5.406902073800511
 20
82.34236400858382
 30
0.0
  0
SPLINE
  5
3BD0
330
3BC2
100
AcDbEntity
  8
0
100
AcDbSpline
210
0.0
220
0.0
230
1.0
 70
     8
 71
     3
 72
     8
 73
     4
 74
     0
 42
0.000000001
 43
0.0000000001
 40
0.0
 40
0.0
 40
0.0
 40
0.0
 40
0.0435832005254353
 40
0.0435832005254353
 40
0.0435832005254353
 40
0.0435832005254353
 10
-5.4998955501591
 20
83.00000195096174
 30
0.0
 10
-5.499810486990105
 20
82.99549378122513
 30
0.0
 10
-5.499747452684033
 20
82.99378327682482
 30
0.0
 10
-5.499747452674395
 20
82.99378327653228
 30
0.0
  0
SPLINE
  5
3BD1
330
3BC2
100
AcDbEntity
  8
0
100
AcDbSpline
210
0.0
220
0.0
230
1.0
 70
     8
 71
     3
 72
    30
 73
    26
 74
     0
 42
0.000000001
 43
0.0000000001
 40
0.006871342774231
 40
0.006871342774231
 40
0.006871342774231
 40
0.006871342774231
 40
0.0071364530917581
 40
0.0071364530917581
 40
0.0081791343490471
 40
0.0081791343490471
 40
0.0087029483076873
 40
0.0087029483076873
 40
0.0089636799766938
 40
0.0089636799766938
 40
0.0094924296076954
 40
0.0094924296076954
 40
0.0105492143205733
 40
0.0105492143205733
 40
0.0189715674660792
 40
0.0189715674660792
 40
0.0279958223537319
 40
0.0279958223537319
 40
0.0549172189409934
 40
0.0549172189409934
 40
0.0827282631727162
 40
0.0827282631727162
 40
0.0938974924402407
 40
0.0938974924402407
 40
0.1078287373121291
 40
0.1078287373121291
 40
0.1078287373121291
 40
0.1078287373121291
 10
-5.499783353467503
 20
82.99501584642857
 30
0.0
 10
-5.49977697440256
 20
82.99487062455135
 30
0.0
 10
-5.499770125420053
 20
82.9947148725693
 30
0.0
 10
-5.499733287843978
 20
82.99387837637238
 30
0.0
 10
-5.499696109126083
 20
82.99303451417532
 30
0.0
 10
-5.499597193411228
 20
82.99082330556704
 30
0.0
 10
-5.499555445701055
 20
82.98989368515647
 30
0.0
 10
-5.499475426216459
 20
82.98813083914948
 30
0.0
 10
-5.499445722644803
 20
82.9874791079581
 30
0.0
 10
-5.499348250461821
 20
82.98535279491435
 30
0.0
 10
-5.499271070286964
 20
82.98368596776143
 30
0.0
 10
-5.499031908082031
 20
82.97859217650817
 30
0.0
 10
-5.498857857885316
 20
82.97497626637383
 30
0.0
 10
-5.497300271925258
 20
82.94345446744683
 30
0.0
 10
-5.495680464589699
 20
82.91622597510254
 30
0.0
 10
-5.491801833182112
 20
82.86057769339093
 30
0.0
 10
-5.489503669304117
 20
82.8322518508105
 30
0.0
 10
-5.479275714086936
 20
82.72203231468822
 30
0.0
 10
-5.468935324866724
 20
82.64394075677927
 30
0.0
 10
-5.445818303533185
 20
82.50604454322346
 30
0.0
 10
-5.43244354084835
 20
82.44429646647638
 30
0.0
 10
-5.418284813741047
 20
82.38558084303669
 30
0.0
 10
-5.414759299247569
 20
82.37182562828875
 30
0.0
 10
-5.408847826589266
 20
82.34931341462569
 30
0.0
 10
-5.406902080676853
 20
82.34236403340858
 30
0.0
 10
-5.406902073800605
 20
82.34236400858414
 30
0.0
  0
SPLINE
  5
3BD2
330
3BC2
100
AcDbEntity
  8
0
100
AcDbSpline
210
0.0
220
0.0
230
1.0
 70
     8
 71
     3
 72
     8
 73
     4
 74
     0
 42
0.000000001
 43
0.0000000001
 40
0.0
 40
0.0
 40
0.0
 40
0.0
 40
0.0559933044935785
 40
0.0559933044935785
 40
0.0559933044935785
 40
0.0559933044935785
 10
-1.275097587655058
 20
79.99999739520396
 30
0.0
 10
-1.088468389982376
 20
80.00000379801239
 30
0.0
 10
-0.901804418440779
 20
79.99999605965188
 30
0.0
 10
-0.7151645427303708
 20
80.00000092044572
 30
0.0
  0
SPLINE
  5
3BD3
330
3BC2
100
AcDbEntity
  8
0
100
AcDbSpline
210
0.0
220
0.0
230
1.0
 70
     8
 71
     3
 72
    20
 73
    16
 74
     0
 42
0.000000001
 43
0.0000000001
 40
0.0
 40
0.0
 40
0.0
 40
0.0
 40
0.0520510074882829
 40
0.0520510074882829
 40
0.1209256022689255
 40
0.1209256022689255
 40
0.2157278665735058
 40
0.2157278665735058
 40
0.2987498720505421
 40
0.2987498720505421
 40
0.3694373476680653
 40
0.3694373476680653
 40
0.4330219678375768
 40
0.4330219678375768
 40
0.4812696734245038
 40
0.4812696734245038
 40
0.4812696734245038
 40
0.4812696734245038
 10
-5.046464690223512
 20
81.60728154580045
 30
0.0
 10
-4.955840252594333
 20
81.47445417244647
 30
0.0
 10
-4.848377764339298
 20
81.34224724428163
 30
0.0
 10
-4.57585175923075
 20
81.05878770434088
 30
0.0
 10
-4.400375557527027
 20
80.91132798923815
 30
0.0
 10
-3.953090207237033
 20
80.60385329747905
 30
0.0
 10
-3.66214386017774
 20
80.45605369508834
 30
0.0
 10
-3.117443006028344
 20
80.24551210868381
 30
0.0
 10
-2.85634247622036
 20
80.1714874657518
 30
0.0
 10
-2.420727714839651
 20
80.07637043967122
 30
0.0
 10
-2.233354553199091
 20
80.04745901606604
 30
0.0
 10
-1.943993145300247
 20
80.01278689086575
 30
0.0
 10
-1.830828366393929
 20
80.00433342380468
 30
0.0
 10
-1.707377241301769
 20
79.99707780777322
 30
0.0
 10
-1.676734457136038
 20
79.99625778038311
 30
0.0
 10
-1.676734427169281
 20
79.99625777955476
 30
0.0
  0
LINE
  5
3BD4
330
3BC2
100
AcDbEntity
  8
0
100
AcDbLine
 10
-5.500000000000038
 20
137.0
 30
0.0
 11
-5.500000000000051
 21
83.0
 31
0.0
  0
LINE
  5
3BD5
330
3BC2
100
AcDbEntity
  8
0
100
AcDbLine
 10
-5.500000000000547
 20
142.9999999999995
 30
0.0
 11
-5.500000000000547
 21
139.9999999999995
 31
0.0
  0
LINE
  5
3BD6
330
3BC2
100
AcDbEntity
  8
0
100
AcDbLine
 10
-5.500000000000069
 20
139.9999999999999
 30
0.0
 11
-5.500000000000069
 21
137.0
 31
0.0
  0
LINE
  5
3BD7
330
3BC2
100
AcDbEntity
  8
0
100
AcDbLine
 10
-108.0
 20
0.0
 30
0.0
 11
-108.0
 21
137.0
 31
0.0
  0
LINE
  5
3BD8
330
3BC2
100
AcDbEntity
  8
0
100
AcDbLine
 10
-5.999999999999998
 20
0.0
 30
0.0
 11
-108.0
 21
0.0
 31
0.0
  0
LINE
  5
3BD9
330
3BC2
100
AcDbEntity
  8
0
100
AcDbLine
 10
-6.000000000000007
 20
0.0
 30
0.0
 11
-6.000000000000007
 21
3.000000000000007
 31
0.0
  0
SPLINE
  5
3BDA
330
3BC2
100
AcDbEntity
  8
0
100
AcDbSpline
210
0.0
220
0.0
230
1.0
 70
     8
 71
     3
 72
    17
 73
    13
 74
     0
 42
0.000000001
 43
0.0000000001
 40
0.0
 40
0.0
 40
0.0
 40
0.0
 40
0.269487791023405
 40
0.269487791023405
 40
0.269487791023405
 40
0.7069412638142899
 40
0.7069412638142899
 40
0.7069412638142899
 40
0.9842844473091696
 40
0.9842844473091696
 40
0.9842844473091696
 40
1.0
 40
1.0
 40
1.0
 40
1.0
 10
-2.999999999999996
 20
-3.005079999999998
 30
0.0
 10
-3.000008052431933
 20
-2.461232824140936
 30
0.0
 10
-3.071923499238033
 20
-2.016513335271833
 30
0.0
 10
-3.222951229437283
 20
-1.620370802641811
 30
0.0
 10
-3.468111148602782
 20
-0.9773215351366692
 30
0.0
 10
-3.894186913135336
 20
-0.5308548394623656
 30
0.0
 10
-4.514816093365151
 20
-0.2662627730894215
 30
0.0
 10
-4.908291704649272
 20
-0.0985128051964009
 30
0.0
 10
-5.362809351388825
 20
-0.0100898672724077
 30
0.0
 10
-5.906266462917435
 20
-0.0009947362153813
 30
0.0
 10
-5.937061266538748
 20
-0.0004793638541229
 30
0.0
 10
-5.968270687013179
 20
-0.0001692819446093
 30
0.0
 10
-6.000000000001652
 20
0.0000000000015314
 30
0.0
  0
SPLINE
  5
3BDB
330
3BC2
100
AcDbEntity
  8
0
100
AcDbSpline
210
0.0
220
0.0
230
1.0
 70
     8
 71
     3
 72
    17
 73
    13
 74
     0
 42
0.000000001
 43
0.0000000001
 40
0.0
 40
0.0
 40
0.0
 40
0.0
 40
0.3565110529525992
 40
0.3565110529525992
 40
0.3565110529525992
 40
0.6782555264762995
 40
0.6782555264762995
 40
0.6782555264762995
 40
0.8956678868726413
 40
0.8956678868726413
 40
0.8956678868726413
 40
1.0
 40
1.0
 40
1.0
 40
1.0
 10
-6.000000000000012
 20
0.0000000000000444
 30
0.0
 10
-4.802752427277401
 20
0.0017535006817315
 30
0.0
 10
-3.704207670901051
 20
0.1058430776429107
 30
0.0
 10
-2.780525701430428
 20
0.0677564324994014
 30
0.0
 10
-1.946920217086093
 20
0.0333839565593269
 30
0.0
 10
-1.243897911322067
 20
-0.1175488749522076
 30
0.0
 10
-0.7614394042968211
 20
-0.565256347313806
 30
0.0
 10
-0.4354277663753159
 20
-0.8677856721136755
 30
0.0
 10
-0.1998046674971071
 20
-1.327983495265564
 30
0.0
 10
-0.0830730841452004
 20
-1.951937302880041
 30
0.0
 10
-0.0270557871635346
 20
-2.251361029864126
 30
0.0
 10
-0.0000011606376504
 20
-2.591835091711151
 30
0.0
 10
-0.0000000014854379
 20
-3.005080003270737
 30
0.0
  0
LINE
  5
3BDC
330
3BC2
100
AcDbEntity
  8
0
100
AcDbLine
 10
0.0
 20
-0.0050799999999931
 30
0.0
 11
0.0
 21
-3.005079999999989
 31
0.0
  0
LINE
  5
3BDD
330
3BC2
100
AcDbEntity
  8
0
100
AcDbLine
 10
0.0
 20
3.000000000000007
 30
0.0
 11
0.0
 21
-0.0050799999999906
 31
0.0
  0
LINE
  5
3BDE
330
3BC2
100
AcDbEntity
  8
0
100
AcDbLine
 10
0.0
 20
3.000000000000006
 30
0.0
 11
-0.0348334521611338
 21
3.000000000000006
 31
0.0
  0
LINE
  5
3BDF
330
3BC2
100
AcDbEntity
  8
0
100
AcDbLine
 10
-0.0348334521611338
 20
3.000000000000006
 30
0.0
 11
-5.999999999999998
 21
3.000000000000007
 31
0.0
  0
LINE
  5
3BE0
330
3BC2
100
AcDbEntity
  8
0
100
AcDbLine
 10
0.0
 20
-3.00507999999998
 30
0.0
 11
-3.0
 21
-3.00507999999998
 31
0.0
  0
CIRCLE
  5
3BE1
330
3BC2
100
AcDbEntity
  8
0
100
AcDbCircle
 10
-95.00000000000001
 20
17.50000000000001
 30
0.0
 40
2.5
  0
CIRCLE
  5
3BE2
330
3BC2
100
AcDbEntity
  8
0
100
AcDbCircle
 10
-75.0
 20
7.500000000000008
 30
0.0
 40
2.5
  0
CIRCLE
  5
3BE3
330
3BC2
100
AcDbEntity
  8
0
100
AcDbCircle
 10
-95.00000000000001
 20
37.50000000000001
 30
0.0
 40
2.5
  0
CIRCLE
  5
3BE4
330
3BC2
100
AcDbEntity
  8
0
100
AcDbCircle
 10
-75.0
 20
27.50000000000001
 30
0.0
 40
2.5
  0
CIRCLE
  5
3BE5
330
3BC2
100
AcDbEntity
  8
0
100
AcDbCircle
 10
-95.00000000000001
 20
57.5
 30
0.0
 40
2.5
  0
CIRCLE
  5
3BE6
330
3BC2
100
AcDbEntity
  8
0
100
AcDbCircle
 10
-75.0
 20
47.5
 30
0.0
 40
2.5
  0
CIRCLE
  5
3BE7
330
3BC2
100
AcDbEntity
  8
0
100
AcDbCircle
 10
-95.00000000000001
 20
77.50000000000001
 30
0.0
 40
2.5
  0
CIRCLE
  5
3BE8
330
3BC2
100
AcDbEntity
  8
0
100
AcDbCircle
 10
-74.99999999999999
 20
67.50000000000001
 30
0.0
 40
2.5
  0
CIRCLE
  5
3BE9
330
3BC2
100
AcDbEntity
  8
0
100
AcDbCircle
 10
-95.00000000000001
 20
97.5
 30
0.0
 40
2.5
  0
CIRCLE
  5
3BEA
330
3BC2
100
AcDbEntity
  8
0
100
AcDbCircle
 10
-74.99999999999999
 20
87.5
 30
0.0
 40
2.5
  0
CIRCLE
  5
3BEB
330
3BC2
100
AcDbEntity
  8
0
100
AcDbCircle
 10
-95.0
 20
117.5
 30
0.0
 40
2.5
  0
CIRCLE
  5
3BEC
330
3BC2
100
AcDbEntity
  8
0
100
AcDbCircle
 10
-74.99999999999999
 20
107.5
 30
0.0
 40
2.5
  0
CIRCLE
  5
3BED
330
3BC2
100
AcDbEntity
  8
0
100
AcDbCircle
 10
-55.00000000000001
 20
17.50000000000001
 30
0.0
 40
2.5
  0
CIRCLE
  5
3BEE
330
3BC2
100
AcDbEntity
  8
0
100
AcDbCircle
 10
-35.0
 20
7.500000000000008
 30
0.0
 40
2.5
  0
CIRCLE
  5
3BEF
330
3BC2
100
AcDbEntity
  8
0
100
AcDbCircle
 10
-15.00000000000001
 20
17.50000000000001
 30
0.0
 40
2.5
  0
CIRCLE
  5
3BF0
330
3BC2
100
AcDbEntity
  8
0
100
AcDbCircle
 10
-55.00000000000001
 20
37.50000000000001
 30
0.0
 40
2.5
  0
CIRCLE
  5
3BF1
330
3BC2
100
AcDbEntity
  8
0
100
AcDbCircle
 10
-35.0
 20
27.50000000000001
 30
0.0
 40
2.5
  0
CIRCLE
  5
3BF2
330
3BC2
100
AcDbEntity
  8
0
100
AcDbCircle
 10
-55.00000000000001
 20
57.5
 30
0.0
 40
2.5
  0
CIRCLE
  5
3BF3
330
3BC2
100
AcDbEntity
  8
0
100
AcDbCircle
 10
-35.0
 20
47.5
 30
0.0
 40
2.5
  0
CIRCLE
  5
3BF4
330
3BC2
100
AcDbEntity
  8
0
100
AcDbCircle
 10
-55.00000000000001
 20
77.50000000000001
 30
0.0
 40
2.5
  0
CIRCLE
  5
3BF5
330
3BC2
100
AcDbEntity
  8
0
100
AcDbCircle
 10
-35.0
 20
67.50000000000001
 30
0.0
 40
2.5
  0
CIRCLE
  5
3BF6
330
3BC2
100
AcDbEntity
  8
0
100
AcDbCircle
 10
-55.00000000000001
 20
97.5
 30
0.0
 40
2.5
  0
CIRCLE
  5
3BF7
330
3BC2
100
AcDbEntity
  8
0
100
AcDbCircle
 10
-35.0
 20
87.5
 30
0.0
 40
2.5
  0
CIRCLE
  5
3BF8
330
3BC2
100
AcDbEntity
  8
0
100
AcDbCircle
 10
-55.0
 20
117.5
 30
0.0
 40
2.5
  0
CIRCLE
  5
3BF9
330
3BC2
100
AcDbEntity
  8
0
100
AcDbCircle
 10
-35.0
 20
107.5
 30
0.0
 40
2.5
  0
CIRCLE
  5
3BFA
330
3BC2
100
AcDbEntity
  8
0
100
AcDbCircle
 10
-15.00000000000001
 20
37.50000000000001
 30
0.0
 40
2.5
  0
CIRCLE
  5
3BFB
330
3BC2
100
AcDbEntity
  8
0
100
AcDbCircle
 10
-15.00000000000001
 20
57.5
 30
0.0
 40
2.5
  0
CIRCLE
  5
3BFC
330
3BC2
100
AcDbEntity
  8
0
100
AcDbCircle
 10
-15.00000000000001
 20
77.50000000000001
 30
0.0
 40
2.5
  0
CIRCLE
  5
3BFD
330
3BC2
100
AcDbEntity
  8
0
100
AcDbCircle
 10
-15.00000000000001
 20
97.5
 30
0.0
 40
2.5
  0
CIRCLE
  5
3BFE
330
3BC2
100
AcDbEntity
  8
0
100
AcDbCircle
 10
-15.0
 20
117.5
 30
0.0
 40
2.5
  0
LINE
  5
3BFF
330
3BC2
100
AcDbEntity
  8
0
100
AcDbLine
 10
0.0
 20
77.0
 30
0.0
 11
0.0
 21
3.000000000000007
 31
0.0
  0
LINE
  5
3C00
330
3BC2
100
AcDbEntity
  8
0
100
AcDbLine
 10
-3.0
 20
-3.005079999999997
 30
0.0
 11
-3.0
 21
-120.0
 31
0.0
  0
LINE
  5
3C01
330
3BC2
100
AcDbEntity
  8
0
100
AcDbLine
 10
-3.0
 20
-120.0
 30
0.0
 11
0.0
 21
-120.0
 31
0.0
  0
LINE
  5
3C02
330
3BC2
100
AcDbEntity
  8
0
100
AcDbLine
 10
0.0
 20
-120.0
 30
0.0
 11
0.0
 21
-3.005080000000006
 31
0.0
  0
LINE
  5
3C03
330
3BC2
100
AcDbEntity
  8
0
100
AcDbLine
 10
-108.0
 20
137.0
 30
0.0
 11
-108.0
 21
140.0
 31
0.0
  0
LINE
  5
3C04
330
3BC2
100
AcDbEntity
  8
0
100
AcDbLine
 10
-108.0
 20
142.9999999999996
 30
0.0
 11
-5.50000000000054
 21
142.9999999999995
 31
0.0
  0
LINE
  5
3C05
330
3BC2
100
AcDbEntity
  8
0
100
AcDbLine
 10
-108.0
 20
142.9999999999996
 30
0.0
 11
-108.0
 21
139.9999999999996
 31
0.0
  0
LINE
  5
3C06
330
3BC2
100
AcDbEntity
  8
0
100
AcDbLine
 10
-108.0
 20
139.9999999999996
 30
0.0
 11
-5.50000000000054
 21
139.9999999999995
 31
0.0
  0
ENDBLK
  5
3BC4
330
3BC2
100
AcDbEntity
  8
0
100
AcDbBlockEnd
  0
BLOCK
  5
3C08
330
3C07
100
AcDbEntity
  8
0
100
AcDbBlockBegin
  2
SFHS-BL-ISO
 70
     0
 10
0.0
 20
0.0
 30
0.0
  3
SFHS-BL-ISO
  1

  0
LINE
  5
3C0A
330
3C07
100
AcDbEntity
  8
0
100
AcDbLine
 10
-14.90532851637826
 20
-55.08113788107187
 30
0.0
 11
-12.7840081728186
 21
-53.85639300968026
 31
0.0
  0
ELLIPSE
  5
3C0B
330
3C07
100
AcDbEntity
  8
0
100
AcDbEllipse
 10
-8.364590790402086
 20
-58.85743456786293
 30
0.0
 11
9.25000000000081
 21
-0.0000000000005546
 31
0.0
210
0.0
220
0.0
230
1.0
 40
0.5773502691896257
 41
2.356194490192672
 42
2.686491845021981
  0
SPLINE
  5
3C0C
330
3C07
100
AcDbEntity
  8
0
100
AcDbSpline
210
0.0
220
0.0
230
1.0
 70
     8
 71
     3
 72
    17
 73
    13
 74
     0
 42
0.000000001
 43
0.0000000001
 40
0.0
 40
0.0
 40
0.0
 40
0.0
 40
0.2694424910466671
 40
0.2694424910466671
 40
0.2694424910466671
 40
0.7071094242287566
 40
0.7071094242287566
 40
0.7071094242287566
 40
0.9844972725243144
 40
0.9844972725243144
 40
0.9844972725243144
 40
1.0
 40
1.0
 40
1.0
 40
1.0
 10
-16.67309546934456
 20
-56.51000689769531
 30
0.0
 10
-16.282011038214
 20
-56.29185906552766
 30
0.0
 10
-15.84783313317154
 20
-56.12118041689337
 30
0.0
 10
-15.37879753432366
 20
-55.94563207420775
 30
0.0
 10
-14.6169230010845
 20
-55.66048141192741
 30
0.0
 10
-13.84787412722052
 20
-55.39250190755433
 30
0.0
 10
-13.33898890065779
 20
-54.96388559434445
 30
0.0
 10
-13.01646378549925
 20
-54.69223391620361
 30
0.0
 10
-12.80517161044478
 20
-54.37136531055593
 30
0.0
 10
-12.78577288932803
 20
-53.93161824187828
 30
0.0
 10
-12.78468872832855
 20
-53.90704153815519
 30
0.0
 10
-12.78412330341089
 20
-53.88199746853496
 30
0.0
 10
-12.78400817275995
 20
-53.85639300971153
 30
0.0
  0
ELLIPSE
  5
3C0D
330
3C07
100
AcDbEntity
  8
0
100
AcDbEllipse
 10
-12.7840081728186
 20
-51.40690326689709
 30
0.0
 11
3.0
 21
-5.196152422706632
 31
0.0
210
0.0
220
0.0
230
0.9999999999999998
 40
0.577350269189626
 41
6.16821294192241
 42
7.068583470577035
  0
LINE
  5
3C0E
330
3C07
100
AcDbEntity
  8
0
100
AcDbLine
 10
-10.66268782925896
 20
-55.08113788107187
 30
0.0
 11
-8.541367485699318
 21
-53.85639300968026
 31
0.0
  0
SPLINE
  5
3C0F
330
3C07
100
AcDbEntity
  8
0
100
AcDbSpline
210
0.0
220
0.0
230
1.0
 70
     8
 71
     3
 72
    17
 73
    13
 74
     0
 42
0.000000001
 43
0.0000000001
 40
-1.0
 40
-1.0
 40
-1.0
 40
-1.0
 40
-0.5670462169936381
 40
-0.5670462169936381
 40
-0.5670462169936381
 40
-0.2599160099248599
 40
-0.2599160099248599
 40
-0.2599160099248599
 40
-0.0522841329454479
 40
-0.0522841329454479
 40
-0.0522841329454479
 40
0.0
 40
0.0
 40
0.0
 40
0.0
 10
-10.66268782925899
 20
-55.08113788107189
 30
0.0
 10
-10.66120378969972
 20
-56.24306885554748
 30
0.0
 10
-11.28488703553941
 20
-56.85257024479167
 30
0.0
 10
-12.20451025694866
 20
-57.27083021674911
 30
0.0
 10
-12.85687566291748
 20
-57.56753687884099
 30
0.0
 10
-13.66202960099019
 20
-57.78432195951042
 30
0.0
 10
-14.5071469943267
 20
-58.05221121124404
 30
0.0
 10
-15.07847897863757
 20
-58.23331468748924
 30
0.0
 10
-15.66808745895556
 20
-58.44268546966354
 30
0.0
 10
-16.24299653462849
 20
-58.72798638656876
 30
0.0
 10
-16.38776535809296
 20
-58.79982849138395
 30
0.0
 10
-16.52905898040335
 20
-58.8773305076148
 30
0.0
 10
-16.6730954717019
 20
-58.9594966405984
 30
0.0
  0
LINE
  5
3C10
330
3C07
100
AcDbEntity
  8
0
100
AcDbLine
 10
-16.67309546934465
 20
-58.95949664047859
 30
0.0
 11
-16.67309546934465
 21
-56.5100068976954
 31
0.0
  0
LINE
  5
3C11
330
3C07
100
AcDbEntity
  8
0
100
AcDbLine
 10
-12.7840081728186
 20
-53.85639300968026
 30
0.0
 11
-10.66268782925896
 21
-55.08113788107187
 31
0.0
  0
SPLINE
  5
3C12
330
3C07
100
AcDbEntity
  8
0
100
AcDbSpline
210
0.0
220
0.0
230
1.0
 70
     8
 71
     3
 72
    18
 73
    14
 74
     0
 42
0.000000001
 43
0.0000000001
 40
0.0
 40
0.0
 40
0.0
 40
0.0
 40
0.1229844950932807
 40
0.1229844950932807
 40
0.1894426952823629
 40
0.1894426952823629
 40
0.2201382130948908
 40
0.2201382130948908
 40
0.2607765077671542
 40
0.2607765077671542
 40
0.3003414734107304
 40
0.3003414734107304
 40
0.3554608779841355
 40
0.3554608779841355
 40
0.3554608779841355
 40
0.3554608779841355
 10
-10.14797228979151
 20
-56.76744919030593
 30
0.0
 10
-10.53417470457381
 20
-56.89808540349931
 30
0.0
 10
-10.93684769961268
 20
-56.99673397118339
 30
0.0
 10
-11.5187834616058
 20
-57.12847265848177
 30
0.0
 10
-11.71997141875073
 20
-57.1724686055611
 30
0.0
 10
-11.96548730000652
 20
-57.23038894226213
 30
0.0
 10
-12.03652172936763
 20
-57.24785536982125
 30
0.0
 10
-12.17584132258229
 20
-57.28382650263572
 30
0.0
 10
-12.23656538247792
 20
-57.30102067623407
 30
0.0
 10
-12.3181488292407
 20
-57.32552129354382
 30
0.0
 10
-12.34168948888163
 20
-57.3334247027655
 30
0.0
 10
-12.37602837152668
 20
-57.34534216186971
 30
0.0
 10
-12.38003039928177
 20
-57.34710898482981
 30
0.0
 10
-12.38583327443755
 20
-57.34951699690016
 30
0.0
  0
LINE
  5
3C13
330
3C07
100
AcDbEntity
  8
0
100
AcDbLine
 10
-54.85686165341821
 20
-81.00490432552712
 30
0.0
 11
-16.67309546934466
 21
-58.95949664047854
 31
0.0
  0
LINE
  5
3C14
330
3C07
100
AcDbEntity
  8
0
100
AcDbLine
 10
-16.67309546934464
 20
-56.51000689769539
 30
0.0
 11
-54.85686165341818
 21
-78.55541458274396
 31
0.0
  0
ELLIPSE
  5
3C15
330
3C07
100
AcDbEntity
  8
0
100
AcDbEllipse
 10
-54.85686165341822
 20
-83.45439406831031
 30
0.0
 11
-2.999999999999685
 21
-5.196152422706808
 31
0.0
210
0.0
220
0.0
230
1.0
 40
0.5773502691896257
 41
3.926990816986998
 42
5.497787143781906
  0
LINE
  5
3C16
330
3C07
100
AcDbEntity
  8
0
100
AcDbLine
 10
-59.09950234053749
 20
-85.90388381109354
 30
0.0
 11
-59.09950234053753
 21
-124.2792231146962
 31
0.0
  0
LINE
  5
3C17
330
3C07
100
AcDbEntity
  8
0
100
AcDbLine
 10
-59.09950234053753
 20
-124.2792231146962
 30
0.0
 11
-56.97818199697789
 21
-123.0544782433046
 31
0.0
  0
LINE
  5
3C18
330
3C07
100
AcDbEntity
  8
0
100
AcDbLine
 10
-56.97818199697789
 20
-123.0544782433046
 30
0.0
 11
-56.97818199697782
 21
-84.67913893970191
 31
0.0
  0
ELLIPSE
  5
3C19
330
3C07
100
AcDbEntity
  8
0
100
AcDbEllipse
 10
-54.85686165341822
 20
-83.45439406831031
 30
0.0
 11
1.500000000000131
 21
2.598076211353186
 31
0.0
210
0.0
220
0.0
230
1.0
 40
0.5773502691896259
 41
0.7853981633976872
 42
2.356194490192601
  0
ELLIPSE
  5
3C1A
330
3C07
100
AcDbEntity
  8
0
100
AcDbEllipse
 10
-33.64365821782177
 20
4.318988381420192
 30
0.0
 11
-2.5
 21
-0.0000000000001492
 31
0.0
210
0.0
220
0.0
230
1.0
 40
0.5773502691896255
 41
4.154790153685038
 42
5.269987807084101
  0
ELLIPSE
  5
3C1B
330
3C07
100
AcDbEntity
  8
0
100
AcDbEllipse
 10
-12.43045478222533
 20
0.2365054767815522
 30
0.0
 11
-2.5
 21
0.0000000000000002
 31
0.0
210
0.0
220
0.0
230
1.0
 40
0.5773502691896254
 41
4.854286034988849
 42
5.269987807084222
  0
ELLIPSE
  5
3C1C
330
3C07
100
AcDbEntity
  8
0
100
AcDbEllipse
 10
-12.43045478222533
 20
2.685995219564736
 30
0.0
 11
-2.5
 21
0.0000000000000003
 31
0.0
210
0.0
220
0.0
230
1.0
 40
0.5773502691896254
 41
3.926990816987234
 42
7.712084579370321
  0
ELLIPSE
  5
3C1D
330
3C07
100
AcDbEntity
  8
0
100
AcDbEllipse
 10
-33.64365821782177
 20
6.768478124203376
 30
0.0
 11
-2.499999999999999
 21
0.0000000000001495
 31
0.0
210
0.0
220
0.0
230
1.0
 40
0.5773502691896255
 41
0.0
 42
6.283185307179586
  0
ELLIPSE
  5
3C1E
330
3C07
100
AcDbEntity
  8
0
100
AcDbEllipse
 10
-47.78579384155272
 20
-3.845977427857061
 30
0.0
 11
-2.5
 21
-0.0000000000001488
 31
0.0
210
0.0
220
0.0
230
1.0
 40
0.5773502691896255
 41
4.15479015368504
 42
5.269987807084103
  0
ELLIPSE
  5
3C1F
330
3C07
100
AcDbEntity
  8
0
100
AcDbEllipse
 10
-26.57259040595628
 20
-7.928460332495699
 30
0.0
 11
-2.5
 21
-0.0000000000001488
 31
0.0
210
0.0
220
0.0
230
1.0
 40
0.5773502691896255
 41
4.154790153685038
 42
5.269987807084101
  0
ELLIPSE
  5
3C20
330
3C07
100
AcDbEntity
  8
0
100
AcDbEllipse
 10
-61.92792946528368
 20
-12.01094323713431
 30
0.0
 11
-2.5
 21
-0.0000000000001488
 31
0.0
210
0.0
220
0.0
230
1.0
 40
0.5773502691896255
 41
4.154790153685038
 42
5.269987807084103
  0
ELLIPSE
  5
3C21
330
3C07
100
AcDbEntity
  8
0
100
AcDbEllipse
 10
-40.71472602968722
 20
-16.09342614177295
 30
0.0
 11
-2.5
 21
-0.0000000000001488
 31
0.0
210
0.0
220
0.0
230
1.0
 40
0.5773502691896255
 41
4.154790153685038
 42
5.269987807084103
  0
ELLIPSE
  5
3C22
330
3C07
100
AcDbEntity
  8
0
100
AcDbEllipse
 10
-76.07006508901462
 20
-20.17590904641157
 30
0.0
 11
-2.5
 21
-0.0000000000001488
 31
0.0
210
0.0
220
0.0
230
1.0
 40
0.5773502691896255
 41
4.15479015368504
 42
5.269987807084103
  0
ELLIPSE
  5
3C23
330
3C07
100
AcDbEntity
  8
0
100
AcDbEllipse
 10
-54.85686165341818
 20
-24.25839195105022
 30
0.0
 11
-2.5
 21
-0.0000000000001488
 31
0.0
210
0.0
220
0.0
230
1.0
 40
0.5773502691896255
 41
4.15479015368504
 42
5.269987807084103
  0
ELLIPSE
  5
3C24
330
3C07
100
AcDbEntity
  8
0
100
AcDbEllipse
 10
-90.21220071274555
 20
-28.34087485568883
 30
0.0
 11
-2.5
 21
-0.0000000000001488
 31
0.0
210
0.0
220
0.0
230
1.0
 40
0.5773502691896255
 41
4.154790153685036
 42
5.269987807084097
  0
ELLIPSE
  5
3C25
330
3C07
100
AcDbEntity
  8
0
100
AcDbEllipse
 10
-68.99899727714913
 20
-32.42335776032747
 30
0.0
 11
-2.5
 21
-0.0000000000001488
 31
0.0
210
0.0
220
0.0
230
1.0
 40
0.5773502691896255
 41
4.15479015368504
 42
5.269987807084103
  0
ELLIPSE
  5
3C26
330
3C07
100
AcDbEntity
  8
0
100
AcDbEllipse
 10
-104.3543363364765
 20
-36.50584066496609
 30
0.0
 11
-2.5
 21
-0.0000000000001488
 31
0.0
210
0.0
220
0.0
230
1.0
 40
0.5773502691896255
 41
4.154790153685036
 42
5.269987807084097
  0
ELLIPSE
  5
3C27
330
3C07
100
AcDbEntity
  8
0
100
AcDbEllipse
 10
-83.14113290088005
 20
-40.58832356960472
 30
0.0
 11
-2.5
 21
-0.0000000000001488
 31
0.0
210
0.0
220
0.0
230
1.0
 40
0.5773502691896255
 41
4.154790153685036
 42
5.269987807084097
  0
ELLIPSE
  5
3C28
330
3C07
100
AcDbEntity
  8
0
100
AcDbEllipse
 10
-83.14113290088005
 20
-38.13883382682154
 30
0.0
 11
-2.499999999999999
 21
0.0000000000001495
 31
0.0
210
0.0
220
0.0
230
1.0
 40
0.5773502691896255
 41
0.0
 42
6.283185307179586
  0
ELLIPSE
  5
3C29
330
3C07
100
AcDbEntity
  8
0
100
AcDbEllipse
 10
-104.3543363364765
 20
-34.05635092218291
 30
0.0
 11
-2.499999999999999
 21
0.0000000000001495
 31
0.0
210
0.0
220
0.0
230
1.0
 40
0.5773502691896255
 41
0.0
 42
6.283185307179586
  0
ELLIPSE
  5
3C2A
330
3C07
100
AcDbEntity
  8
0
100
AcDbEllipse
 10
-68.99899727714913
 20
-29.97386801754429
 30
0.0
 11
-2.499999999999999
 21
0.0000000000001495
 31
0.0
210
0.0
220
0.0
230
1.0
 40
0.5773502691896255
 41
0.0
 42
6.283185307179586
  0
ELLIPSE
  5
3C2B
330
3C07
100
AcDbEntity
  8
0
100
AcDbEllipse
 10
-90.21220071274555
 20
-25.89138511290564
 30
0.0
 11
-2.499999999999999
 21
0.0000000000001495
 31
0.0
210
0.0
220
0.0
230
1.0
 40
0.5773502691896255
 41
0.0
 42
6.283185307179586
  0
ELLIPSE
  5
3C2C
330
3C07
100
AcDbEntity
  8
0
100
AcDbEllipse
 10
-54.85686165341818
 20
-21.80890220826704
 30
0.0
 11
-2.499999999999999
 21
0.0000000000001495
 31
0.0
210
0.0
220
0.0
230
1.0
 40
0.5773502691896255
 41
0.0
 42
6.283185307179586
  0
ELLIPSE
  5
3C2D
330
3C07
100
AcDbEntity
  8
0
100
AcDbEllipse
 10
-76.07006508901462
 20
-17.72641930362838
 30
0.0
 11
-2.499999999999999
 21
0.0000000000001495
 31
0.0
210
0.0
220
0.0
230
1.0
 40
0.5773502691896255
 41
0.0
 42
6.283185307179586
  0
ELLIPSE
  5
3C2E
330
3C07
100
AcDbEntity
  8
0
100
AcDbEllipse
 10
-40.71472602968722
 20
-13.64393639898977
 30
0.0
 11
-2.499999999999999
 21
0.0000000000001495
 31
0.0
210
0.0
220
0.0
230
1.0
 40
0.5773502691896255
 41
0.0
 42
6.283185307179586
  0
ELLIPSE
  5
3C2F
330
3C07
100
AcDbEntity
  8
0
100
AcDbEllipse
 10
-61.92792946528368
 20
-9.56145349435113
 30
0.0
 11
-2.499999999999999
 21
0.0000000000001495
 31
0.0
210
0.0
220
0.0
230
1.0
 40
0.5773502691896255
 41
0.0
 42
6.283185307179586
  0
ELLIPSE
  5
3C30
330
3C07
100
AcDbEntity
  8
0
100
AcDbEllipse
 10
-26.57259040595628
 20
-5.478970589712517
 30
0.0
 11
-2.499999999999999
 21
0.0000000000001495
 31
0.0
210
0.0
220
0.0
230
1.0
 40
0.5773502691896255
 41
0.0
 42
6.283185307179586
  0
ELLIPSE
  5
3C31
330
3C07
100
AcDbEntity
  8
0
100
AcDbEllipse
 10
-47.78579384155272
 20
-1.396487685073877
 30
0.0
 11
-2.499999999999999
 21
0.0000000000001495
 31
0.0
210
0.0
220
0.0
230
1.0
 40
0.5773502691896255
 41
0.0
 42
6.283185307179586
  0
ELLIPSE
  5
3C32
330
3C07
100
AcDbEntity
  8
0
100
AcDbEllipse
 10
-19.50152259409082
 20
-20.17590904641158
 30
0.0
 11
-2.5
 21
-0.0000000000001488
 31
0.0
210
0.0
220
0.0
230
1.0
 40
0.5773502691896255
 41
4.154790153685038
 42
5.269987807084102
  0
ELLIPSE
  5
3C33
330
3C07
100
AcDbEntity
  8
0
100
AcDbEllipse
 10
-33.64365821782177
 20
-28.34087485568883
 30
0.0
 11
-2.5
 21
-0.0000000000001488
 31
0.0
210
0.0
220
0.0
230
1.0
 40
0.5773502691896255
 41
4.154790153685038
 42
5.269987807084102
  0
ELLIPSE
  5
3C34
330
3C07
100
AcDbEntity
  8
0
100
AcDbEllipse
 10
-12.43045478222533
 20
-32.42335776032747
 30
0.0
 11
-2.5
 21
0.0000000000000005
 31
0.0
210
0.0
220
0.0
230
1.0
 40
0.5773502691896255
 41
4.854286034988851
 42
5.269987807084221
  0
ELLIPSE
  5
3C35
330
3C07
100
AcDbEntity
  8
0
100
AcDbEllipse
 10
-47.78579384155272
 20
-36.50584066496609
 30
0.0
 11
-2.5
 21
-0.0000000000001488
 31
0.0
210
0.0
220
0.0
230
1.0
 40
0.5773502691896255
 41
4.15479015368504
 42
5.269987807084103
  0
ELLIPSE
  5
3C36
330
3C07
100
AcDbEntity
  8
0
100
AcDbEllipse
 10
-26.57259040595627
 20
-40.58832356960472
 30
0.0
 11
-2.5
 21
-0.0000000000001488
 31
0.0
210
0.0
220
0.0
230
1.0
 40
0.5773502691896255
 41
4.154790153685038
 42
5.269987807084102
  0
ELLIPSE
  5
3C37
330
3C07
100
AcDbEntity
  8
0
100
AcDbEllipse
 10
-61.92792946528367
 20
-44.67080647424333
 30
0.0
 11
-2.5
 21
-0.0000000000001488
 31
0.0
210
0.0
220
0.0
230
1.0
 40
0.5773502691896255
 41
4.15479015368504
 42
5.269987807084103
  0
ELLIPSE
  5
3C38
330
3C07
100
AcDbEntity
  8
0
100
AcDbEllipse
 10
-40.71472602968722
 20
-48.75328937888198
 30
0.0
 11
-2.5
 21
-0.0000000000001488
 31
0.0
210
0.0
220
0.0
230
1.0
 40
0.5773502691896255
 41
4.154790153685038
 42
5.269987807084103
  0
ELLIPSE
  5
3C39
330
3C07
100
AcDbEntity
  8
0
100
AcDbEllipse
 10
-76.0700650890146
 20
-52.8357722835206
 30
0.0
 11
-2.5
 21
-0.0000000000001488
 31
0.0
210
0.0
220
0.0
230
1.0
 40
0.5773502691896255
 41
4.15479015368504
 42
5.269987807084103
  0
ELLIPSE
  5
3C3A
330
3C07
100
AcDbEntity
  8
0
100
AcDbEllipse
 10
-54.85686165341817
 20
-56.91825518815924
 30
0.0
 11
-2.5
 21
-0.0000000000001488
 31
0.0
210
0.0
220
0.0
230
1.0
 40
0.5773502691896255
 41
4.15479015368504
 42
5.269987807084103
  0
ELLIPSE
  5
3C3B
330
3C07
100
AcDbEntity
  8
0
100
AcDbEllipse
 10
-19.50152259409083
 20
-52.8357722835206
 30
0.0
 11
-2.499999999999999
 21
-0.0000000000001489
 31
0.0
210
0.0
220
0.0
230
1.0
 40
0.5773502691896257
 41
4.154790153685038
 42
5.2699878070841
  0
ELLIPSE
  5
3C3C
330
3C07
100
AcDbEntity
  8
0
100
AcDbEllipse
 10
-33.64365821782178
 20
-61.00073809279785
 30
0.0
 11
-2.499999999999999
 21
-0.0000000000001489
 31
0.0
210
0.0
220
0.0
230
1.0
 40
0.5773502691896257
 41
4.154790153685036
 42
5.2699878070841
  0
ELLIPSE
  5
3C3D
330
3C07
100
AcDbEntity
  8
0
100
AcDbEllipse
 10
-47.7857938415527
 20
-69.1657039020751
 30
0.0
 11
-2.499999999999999
 21
-0.0000000000001489
 31
0.0
210
0.0
220
0.0
230
1.0
 40
0.5773502691896257
 41
4.154790153685036
 42
5.2699878070841
  0
ELLIPSE
  5
3C3E
330
3C07
100
AcDbEntity
  8
0
100
AcDbEllipse
 10
-47.7857938415527
 20
-66.71621415929194
 30
0.0
 11
-2.499999999999999
 21
0.0000000000001495
 31
0.0
210
0.0
220
0.0
230
1.0
 40
0.5773502691896255
 41
0.0
 42
6.283185307179586
  0
ELLIPSE
  5
3C3F
330
3C07
100
AcDbEntity
  8
0
100
AcDbEllipse
 10
-33.64365821782178
 20
-58.55124835001467
 30
0.0
 11
-2.499999999999999
 21
0.0000000000001495
 31
0.0
210
0.0
220
0.0
230
1.0
 40
0.5773502691896255
 41
0.0
 42
6.283185307179586
  0
ELLIPSE
  5
3C40
330
3C07
100
AcDbEntity
  8
0
100
AcDbEllipse
 10
-19.50152259409083
 20
-50.38628254073742
 30
0.0
 11
-2.499999999999999
 21
0.0000000000001495
 31
0.0
210
0.0
220
0.0
230
1.0
 40
0.5773502691896255
 41
0.0
 42
6.283185307179586
  0
ELLIPSE
  5
3C41
330
3C07
100
AcDbEntity
  8
0
100
AcDbEllipse
 10
-54.85686165341817
 20
-54.46876544537605
 30
0.0
 11
-2.499999999999999
 21
0.0000000000001495
 31
0.0
210
0.0
220
0.0
230
1.0
 40
0.5773502691896255
 41
0.0
 42
6.283185307179586
  0
ELLIPSE
  5
3C42
330
3C07
100
AcDbEntity
  8
0
100
AcDbEllipse
 10
-76.0700650890146
 20
-50.38628254073742
 30
0.0
 11
-2.499999999999999
 21
0.0000000000001495
 31
0.0
210
0.0
220
0.0
230
1.0
 40
0.5773502691896255
 41
0.0
 42
6.283185307179586
  0
ELLIPSE
  5
3C43
330
3C07
100
AcDbEntity
  8
0
100
AcDbEllipse
 10
-40.71472602968722
 20
-46.30379963609879
 30
0.0
 11
-2.499999999999999
 21
0.0000000000001495
 31
0.0
210
0.0
220
0.0
230
1.0
 40
0.5773502691896255
 41
0.0
 42
6.283185307179586
  0
ELLIPSE
  5
3C44
330
3C07
100
AcDbEntity
  8
0
100
AcDbEllipse
 10
-61.92792946528367
 20
-42.22131673146015
 30
0.0
 11
-2.499999999999999
 21
0.0000000000001495
 31
0.0
210
0.0
220
0.0
230
1.0
 40
0.5773502691896255
 41
0.0
 42
6.283185307179586
  0
ELLIPSE
  5
3C45
330
3C07
100
AcDbEntity
  8
0
100
AcDbEllipse
 10
-26.57259040595627
 20
-38.13883382682155
 30
0.0
 11
-2.499999999999999
 21
0.0000000000001495
 31
0.0
210
0.0
220
0.0
230
1.0
 40
0.5773502691896255
 41
0.0
 42
6.283185307179586
  0
ELLIPSE
  5
3C46
330
3C07
100
AcDbEntity
  8
0
100
AcDbEllipse
 10
-47.78579384155272
 20
-34.0563509221829
 30
0.0
 11
-2.499999999999999
 21
0.0000000000001495
 31
0.0
210
0.0
220
0.0
230
1.0
 40
0.5773502691896255
 41
0.0
 42
6.283185307179586
  0
ELLIPSE
  5
3C47
330
3C07
100
AcDbEntity
  8
0
100
AcDbEllipse
 10
-12.43045478222533
 20
-29.97386801754429
 30
0.0
 11
-2.5
 21
0.0000000000000003
 31
0.0
210
0.0
220
0.0
230
1.0
 40
0.5773502691896255
 41
4.854286034988851
 42
7.712084579370323
  0
ELLIPSE
  5
3C48
330
3C07
100
AcDbEntity
  8
0
100
AcDbEllipse
 10
-33.64365821782177
 20
-25.89138511290565
 30
0.0
 11
-2.499999999999999
 21
0.0000000000001495
 31
0.0
210
0.0
220
0.0
230
1.0
 40
0.5773502691896255
 41
0.0
 42
6.283185307179586
  0
ELLIPSE
  5
3C49
330
3C07
100
AcDbEntity
  8
0
100
AcDbEllipse
 10
-19.50152259409082
 20
-17.72641930362839
 30
0.0
 11
-2.499999999999999
 21
0.0000000000001495
 31
0.0
210
0.0
220
0.0
230
1.0
 40
0.5773502691896255
 41
0.0
 42
6.283185307179586
  0
SPLINE
  5
3C4A
330
3C07
100
AcDbEntity
  8
0
100
AcDbSpline
210
0.0
220
0.0
230
1.0
 70
     8
 71
     3
 72
    14
 73
    10
 74
     0
 42
0.000000001
 43
0.0000000001
 40
0.461668033123879
 40
0.461668033123879
 40
0.461668033123879
 40
0.461668033123879
 40
0.6782555264762995
 40
0.6782555264762995
 40
0.6782555264762995
 40
0.8956678868726413
 40
0.8956678868726413
 40
0.8956678868726413
 40
1.0
 40
1.0
 40
1.0
 40
1.0
 10
44.49265090624179
 20
-24.50928281755352
 30
0.0
 10
44.90603365055195
 20
-24.1936939132158
 30
0.0
 10
45.32437295454198
 20
-23.80016782431118
 30
0.0
 10
45.76713229571824
 20
-23.38704014835345
 30
0.0
 10
46.21157787271204
 20
-22.97233908789621
 30
0.0
 10
46.703597565171
 20
-22.52059580703166
 30
0.0
 10
47.22734122784914
 20
-22.13467712953772
 30
0.0
 10
47.47867598620721
 20
-21.94948199599124
 30
0.0
 10
47.73855801403629
 20
-21.77344055201784
 30
0.0
 10
48.03076711293531
 20
-21.60270415976123
 30
0.0
  0
ELLIPSE
  5
3C4B
330
3C07
100
AcDbEntity
  8
0
100
AcDbEllipse
 10
45.90944676811325
 20
-29.97179411622904
 30
0.0
 11
4.625000000000172
 21
8.010734985006353
 31
0.0
210
0.0
220
0.0
230
1.0
 40
0.5773502691896259
 41
0.4551008085682087
 42
0.7853981633974483
  0
LINE
  5
3C4C
330
3C07
100
AcDbEntity
  8
0
100
AcDbLine
 10
43.78453432210519
 20
-23.64601951535443
 30
0.0
 11
45.90944676811325
 21
-22.41920074264729
 31
0.0
  0
ELLIPSE
  5
3C4D
330
3C07
100
AcDbEntity
  8
0
100
AcDbEllipse
 10
39.54189363498591
 20
-21.19652977257125
 30
0.0
 11
-3.000000000000308
 21
5.196152422706451
 31
0.0
210
0.0
220
0.0
230
0.9999999999999998
 40
0.5773502691896259
 41
3.819183567471855
 42
3.92699081698697
  0
ELLIPSE
  5
3C4E
330
3C07
100
AcDbEntity
  8
0
100
AcDbEllipse
 10
39.54189363498591
 20
-21.19652977257125
 30
0.0
 11
3.0
 21
-5.196152422706632
 31
0.0
210
0.0
220
0.0
230
0.9999999999999998
 40
0.577350269189626
 41
0.0
 42
0.6775909138823622
  0
SPLINE
  5
3C4F
330
3C07
100
AcDbEntity
  8
0
100
AcDbSpline
210
0.0
220
0.0
230
1.0
 70
     8
 71
     3
 72
    22
 73
    18
 74
     0
 42
0.000000001
 43
0.0000000001
 40
0.0
 40
0.0
 40
0.0
 40
0.0
 40
0.0545733681686375
 40
0.0545733681686375
 40
0.0900499147187011
 40
0.0900499147187011
 40
0.1208633597038904
 40
0.1208633597038904
 40
0.1628320658850801
 40
0.1628320658850801
 40
0.2021588600018645
 40
0.2021588600018645
 40
0.2552235208134251
 40
0.2552235208134251
 40
0.3405361284327868
 40
0.3405361284327868
 40
0.3554269144755525
 40
0.3554269144755525
 40
0.3554269144755525
 40
0.3554269144755525
 10
44.49556974219291
 20
-24.5096516984036
 30
0.0
 10
44.48698979628346
 20
-24.51622061490625
 30
0.0
 10
44.48326895502851
 20
-24.51905002998771
 30
0.0
 10
44.45714245107237
 20
-24.54161974849279
 30
0.0
 10
44.44117320379932
 20
-24.55568868742043
 30
0.0
 10
44.39343028892849
 20
-24.60019945051484
 30
0.0
 10
44.3637010300487
 20
-24.62860524671106
 30
0.0
 10
44.27565749081273
 20
-24.71592854289058
 30
0.0
 10
44.20956493001847
 20
-24.78373235647119
 30
0.0
 10
44.06664542340474
 20
-24.93482547949755
 30
0.0
 10
43.98984000003442
 20
-25.01771568476172
 30
0.0
 10
43.80273510989829
 20
-25.22065127302509
 30
0.0
 10
43.68862042177862
 20
-25.34504449470578
 30
0.0
 10
43.38312540567399
 20
-25.66935142243398
 30
0.0
 10
43.18425578013015
 20
-25.87156487653763
 30
0.0
 10
42.93895931826559
 20
-26.09522256955852
 30
0.0
 10
42.90217935344137
 20
-26.12814288505361
 30
0.0
 10
42.86508033445353
 20
-26.16069932645882
 30
0.0
  0
LINE
  5
3C50
330
3C07
100
AcDbEntity
  8
0
100
AcDbLine
 10
-8.541367485699318
 20
-53.85639300968026
 30
0.0
 11
43.78453432210519
 21
-23.64601951535443
 31
0.0
  0
LINE
  5
3C51
330
3C07
100
AcDbEntity
  8
0
100
AcDbLine
 10
-9.784008172818605
 20
-56.60305568960372
 30
0.0
 11
42.5418936349859
 21
-26.39268219527789
 31
0.0
  0
LINE
  5
3C52
330
3C07
100
AcDbEntity
  8
0
100
AcDbLine
 10
130.7586684080505
 20
26.16027192123685
 30
0.0
 11
48.03076711167289
 21
-21.60270416171955
 31
0.0
  0
LINE
  5
3C53
330
3C07
100
AcDbEntity
  8
0
100
AcDbLine
 10
-12.7840081728186
 20
2.48187107433281
 30
0.0
 11
-12.7840081728186
 21
-53.85639300968026
 31
0.0
  0
LINE
  5
3C54
330
3C07
100
AcDbEntity
  8
0
100
AcDbLine
 10
128.6373480644909
 20
84.13152916710538
 30
0.0
 11
-12.78400817281859
 21
2.481871074332815
 31
0.0
  0
LINE
  5
3C55
330
3C07
100
AcDbEntity
  8
0
100
AcDbLine
 10
-10.66268782925896
 20
-55.08113788107187
 30
0.0
 11
-10.66268782925895
 21
1.257126202941218
 31
0.0
  0
LINE
  5
3C56
330
3C07
100
AcDbEntity
  8
0
100
AcDbLine
 10
-12.7840081728186
 20
2.48187107433281
 30
0.0
 11
-10.66268782925895
 21
1.257126202941223
 31
0.0
  0
LINE
  5
3C57
330
3C07
100
AcDbEntity
  8
0
100
AcDbLine
 10
130.7586684080505
 20
82.90678429571379
 30
0.0
 11
130.7586684080505
 21
26.16027192123685
 31
0.0
  0
LINE
  5
3C58
330
3C07
100
AcDbEntity
  8
0
100
AcDbLine
 10
-10.66268782925895
 20
1.257126202941223
 30
0.0
 11
130.7586684080505
 21
82.90678429571379
 31
0.0
  0
LINE
  5
3C59
330
3C07
100
AcDbEntity
  8
0
100
AcDbLine
 10
128.6373480644909
 20
84.13152916710538
 30
0.0
 11
130.7586684080505
 21
82.90678429571379
 31
0.0
  0
ELLIPSE
  5
3C5A
330
3C07
100
AcDbEntity
  8
0
100
AcDbEllipse
 10
121.5662802526254
 20
63.71911464391224
 30
0.0
 11
1.249999999999871
 21
2.16506350946117
 31
0.0
210
0.0
220
0.0
230
1.0
 40
0.5773502691896259
 41
4.154790153685036
 42
5.269987807084105
  0
ELLIPSE
  5
3C5B
330
3C07
100
AcDbEntity
  8
0
100
AcDbEllipse
 10
107.4241446288945
 20
63.71911464391224
 30
0.0
 11
1.249999999999871
 21
2.16506350946117
 31
0.0
210
0.0
220
0.0
230
1.0
 40
0.5773502691896259
 41
4.154790153685036
 42
5.269987807084105
  0
ELLIPSE
  5
3C5C
330
3C07
100
AcDbEntity
  8
0
100
AcDbEllipse
 10
107.4241446288945
 20
31.05925140680322
 30
0.0
 11
1.249999999999871
 21
2.16506350946117
 31
0.0
210
0.0
220
0.0
230
1.0
 40
0.5773502691896259
 41
4.154790153685038
 42
5.26998780708411
  0
ELLIPSE
  5
3C5D
330
3C07
100
AcDbEntity
  8
0
100
AcDbEllipse
 10
107.4241446288945
 20
47.38918302535772
 30
0.0
 11
1.249999999999871
 21
2.16506350946117
 31
0.0
210
0.0
220
0.0
230
1.0
 40
0.5773502691896259
 41
4.154790153685036
 42
5.269987807084105
  0
ELLIPSE
  5
3C5E
330
3C07
100
AcDbEntity
  8
0
100
AcDbEllipse
 10
121.5662802526254
 20
47.38918302535772
 30
0.0
 11
1.249999999999871
 21
2.16506350946117
 31
0.0
210
0.0
220
0.0
230
1.0
 40
0.5773502691896259
 41
4.154790153685036
 42
5.26998780708411
  0
ELLIPSE
  5
3C5F
330
3C07
100
AcDbEntity
  8
0
100
AcDbEllipse
 10
123.687600596185
 20
46.16443815396613
 30
0.0
 11
-1.250000000000128
 21
-2.165063509461021
 31
0.0
210
0.0
220
0.0
230
1.0
 40
0.5773502691896259
 41
0.0
 42
6.283185307179586
  0
ELLIPSE
  5
3C60
330
3C07
100
AcDbEntity
  8
0
100
AcDbEllipse
 10
109.5454649724541
 20
46.16443815396614
 30
0.0
 11
-1.250000000000128
 21
-2.165063509461021
 31
0.0
210
0.0
220
0.0
230
1.0
 40
0.5773502691896259
 41
0.0
 42
6.283185307179586
  0
ELLIPSE
  5
3C61
330
3C07
100
AcDbEntity
  8
0
100
AcDbEllipse
 10
109.5454649724541
 20
29.83450653541162
 30
0.0
 11
-1.250000000000128
 21
-2.165063509461021
 31
0.0
210
0.0
220
0.0
230
1.0
 40
0.5773502691896259
 41
0.0
 42
6.283185307179586
  0
ELLIPSE
  5
3C62
330
3C07
100
AcDbEntity
  8
0
100
AcDbEllipse
 10
109.5454649724541
 20
62.49436977252066
 30
0.0
 11
-1.250000000000128
 21
-2.165063509461021
 31
0.0
210
0.0
220
0.0
230
1.0
 40
0.5773502691896259
 41
0.0
 42
6.283185307179586
  0
ELLIPSE
  5
3C63
330
3C07
100
AcDbEntity
  8
0
100
AcDbEllipse
 10
123.6876005961851
 20
62.49436977252066
 30
0.0
 11
-1.250000000000128
 21
-2.165063509461021
 31
0.0
210
0.0
220
0.0
230
1.0
 40
0.5773502691896259
 41
0.0
 42
6.283185307179586
  0
ELLIPSE
  5
3C64
330
3C07
100
AcDbEntity
  8
0
100
AcDbEllipse
 10
93.28200900516353
 20
47.38918302535772
 30
0.0
 11
1.249999999999871
 21
2.16506350946117
 31
0.0
210
0.0
220
0.0
230
1.0
 40
0.5773502691896259
 41
4.154790153685036
 42
5.26998780708411
  0
ELLIPSE
  5
3C65
330
3C07
100
AcDbEntity
  8
0
100
AcDbEllipse
 10
79.13987338143259
 20
47.38918302535772
 30
0.0
 11
1.249999999999871
 21
2.16506350946117
 31
0.0
210
0.0
220
0.0
230
1.0
 40
0.5773502691896259
 41
4.154790153685031
 42
5.269987807084103
  0
ELLIPSE
  5
3C66
330
3C07
100
AcDbEntity
  8
0
100
AcDbEllipse
 10
79.13987338143259
 20
14.72931978824869
 30
0.0
 11
1.249999999999871
 21
2.16506350946117
 31
0.0
210
0.0
220
0.0
230
1.0
 40
0.5773502691896259
 41
4.154790153685031
 42
5.269987807084106
  0
ELLIPSE
  5
3C67
330
3C07
100
AcDbEntity
  8
0
100
AcDbEllipse
 10
79.13987338143259
 20
31.05925140680322
 30
0.0
 11
1.249999999999871
 21
2.16506350946117
 31
0.0
210
0.0
220
0.0
230
1.0
 40
0.5773502691896259
 41
4.154790153685031
 42
5.269987807084103
  0
ELLIPSE
  5
3C68
330
3C07
100
AcDbEntity
  8
0
100
AcDbEllipse
 10
93.28200900516353
 20
31.0592514068032
 30
0.0
 11
1.249999999999871
 21
2.16506350946117
 31
0.0
210
0.0
220
0.0
230
1.0
 40
0.5773502691896259
 41
4.154790153685038
 42
5.269987807084111
  0
ELLIPSE
  5
3C69
330
3C07
100
AcDbEntity
  8
0
100
AcDbEllipse
 10
64.99773775770164
 20
31.05925140680322
 30
0.0
 11
1.249999999999871
 21
2.16506350946117
 31
0.0
210
0.0
220
0.0
230
1.0
 40
0.5773502691896259
 41
4.154790153685032
 42
5.269987807084106
  0
ELLIPSE
  5
3C6A
330
3C07
100
AcDbEntity
  8
0
100
AcDbEllipse
 10
50.85560213397069
 20
31.05925140680322
 30
0.0
 11
1.24999999999987
 21
2.16506350946117
 31
0.0
210
0.0
220
0.0
230
1.0
 40
0.5773502691896258
 41
4.154790153685027
 42
5.269987807084103
  0
ELLIPSE
  5
3C6B
330
3C07
100
AcDbEntity
  8
0
100
AcDbEllipse
 10
50.85560213397068
 20
-1.60061183030582
 30
0.0
 11
1.24999999999987
 21
2.16506350946117
 31
0.0
210
0.0
220
0.0
230
1.0
 40
0.5773502691896258
 41
4.154790153685031
 42
5.269987807084108
  0
ELLIPSE
  5
3C6C
330
3C07
100
AcDbEntity
  8
0
100
AcDbEllipse
 10
50.85560213397069
 20
14.72931978824869
 30
0.0
 11
1.24999999999987
 21
2.16506350946117
 31
0.0
210
0.0
220
0.0
230
1.0
 40
0.5773502691896258
 41
4.154790153685031
 42
5.269987807084103
  0
ELLIPSE
  5
3C6D
330
3C07
100
AcDbEntity
  8
0
100
AcDbEllipse
 10
64.99773775770163
 20
14.72931978824869
 30
0.0
 11
1.24999999999987
 21
2.16506350946117
 31
0.0
210
0.0
220
0.0
230
1.0
 40
0.5773502691896258
 41
4.154790153685031
 42
5.269987807084107
  0
ELLIPSE
  5
3C6E
330
3C07
100
AcDbEntity
  8
0
100
AcDbEllipse
 10
36.71346651023974
 20
14.72931978824869
 30
0.0
 11
1.249999999999871
 21
2.16506350946117
 31
0.0
210
0.0
220
0.0
230
1.0
 40
0.5773502691896259
 41
4.154790153685031
 42
5.269987807084103
  0
ELLIPSE
  5
3C6F
330
3C07
100
AcDbEntity
  8
0
100
AcDbEllipse
 10
22.57133088650879
 20
14.72931978824869
 30
0.0
 11
1.249999999999871
 21
2.16506350946117
 31
0.0
210
0.0
220
0.0
230
1.0
 40
0.5773502691896259
 41
4.154790153685031
 42
5.269987807084106
  0
ELLIPSE
  5
3C70
330
3C07
100
AcDbEntity
  8
0
100
AcDbEllipse
 10
22.57133088650879
 20
-17.93054344886034
 30
0.0
 11
1.24999999999987
 21
2.16506350946117
 31
0.0
210
0.0
220
0.0
230
1.0
 40
0.5773502691896258
 41
4.154790153685034
 42
5.269987807084106
  0
ELLIPSE
  5
3C71
330
3C07
100
AcDbEntity
  8
0
100
AcDbEllipse
 10
22.5713308865088
 20
-1.600611830305815
 30
0.0
 11
1.249999999999871
 21
2.16506350946117
 31
0.0
210
0.0
220
0.0
230
1.0
 40
0.5773502691896259
 41
4.154790153685031
 42
5.269987807084104
  0
ELLIPSE
  5
3C72
330
3C07
100
AcDbEntity
  8
0
100
AcDbEllipse
 10
36.71346651023974
 20
-1.600611830305824
 30
0.0
 11
1.24999999999987
 21
2.16506350946117
 31
0.0
210
0.0
220
0.0
230
1.0
 40
0.5773502691896258
 41
4.154790153685034
 42
5.269987807084107
  0
ELLIPSE
  5
3C73
330
3C07
100
AcDbEntity
  8
0
100
AcDbEllipse
 10
8.429195262777833
 20
-1.60061183030582
 30
0.0
 11
1.249999999999871
 21
2.16506350946117
 31
0.0
210
0.0
220
0.0
230
1.0
 40
0.5773502691896259
 41
4.154790153685032
 42
5.269987807084103
  0
ELLIPSE
  5
3C74
330
3C07
100
AcDbEntity
  8
0
100
AcDbEllipse
 10
-5.712940360953089
 20
-1.600611830305811
 30
0.0
 11
1.249999999999871
 21
2.16506350946117
 31
0.0
210
0.0
220
0.0
230
1.0
 40
0.577350269189626
 41
4.154790153685034
 42
5.269987807084104
  0
ELLIPSE
  5
3C75
330
3C07
100
AcDbEntity
  8
0
100
AcDbEllipse
 10
-5.712940360953107
 20
-34.26047506741485
 30
0.0
 11
1.249999999999871
 21
2.16506350946117
 31
0.0
210
0.0
220
0.0
230
1.0
 40
0.5773502691896259
 41
4.154790153685034
 42
5.269987807084108
  0
ELLIPSE
  5
3C76
330
3C07
100
AcDbEntity
  8
0
100
AcDbEllipse
 10
-5.712940360953107
 20
-17.93054344886033
 30
0.0
 11
1.249999999999871
 21
2.16506350946117
 31
0.0
210
0.0
220
0.0
230
1.0
 40
0.5773502691896259
 41
4.154790153685032
 42
5.269987807084103
  0
ELLIPSE
  5
3C77
330
3C07
100
AcDbEntity
  8
0
100
AcDbEllipse
 10
8.429195262777833
 20
-17.93054344886034
 30
0.0
 11
1.249999999999871
 21
2.16506350946117
 31
0.0
210
0.0
220
0.0
230
1.0
 40
0.5773502691896259
 41
4.154790153685034
 42
5.269987807084106
  0
ELLIPSE
  5
3C78
330
3C07
100
AcDbEntity
  8
0
100
AcDbEllipse
 10
10.55051560633748
 20
-19.15528832025193
 30
0.0
 11
-1.250000000000128
 21
-2.165063509461021
 31
0.0
210
0.0
220
0.0
230
1.0
 40
0.5773502691896259
 41
0.0
 42
6.283185307179586
  0
ELLIPSE
  5
3C79
330
3C07
100
AcDbEntity
  8
0
100
AcDbEllipse
 10
-3.591620017393459
 20
-19.15528832025192
 30
0.0
 11
-1.250000000000128
 21
-2.165063509461021
 31
0.0
210
0.0
220
0.0
230
1.0
 40
0.5773502691896259
 41
0.0
 42
6.283185307179586
  0
ELLIPSE
  5
3C7A
330
3C07
100
AcDbEntity
  8
0
100
AcDbEllipse
 10
-3.591620017393459
 20
-35.48521993880644
 30
0.0
 11
-1.250000000000128
 21
-2.165063509461021
 31
0.0
210
0.0
220
0.0
230
1.0
 40
0.5773502691896259
 41
0.0
 42
6.283185307179586
  0
ELLIPSE
  5
3C7B
330
3C07
100
AcDbEntity
  8
0
100
AcDbEllipse
 10
-3.59162001739345
 20
-2.825356701697399
 30
0.0
 11
-1.250000000000128
 21
-2.165063509461021
 31
0.0
210
0.0
220
0.0
230
1.0
 40
0.5773502691896259
 41
0.0
 42
6.283185307179586
  0
ELLIPSE
  5
3C7C
330
3C07
100
AcDbEntity
  8
0
100
AcDbEllipse
 10
10.55051560633748
 20
-2.825356701697412
 30
0.0
 11
-1.250000000000128
 21
-2.165063509461021
 31
0.0
210
0.0
220
0.0
230
1.0
 40
0.5773502691896259
 41
0.0
 42
6.283185307179586
  0
ELLIPSE
  5
3C7D
330
3C07
100
AcDbEntity
  8
0
100
AcDbEllipse
 10
38.83478685379937
 20
-2.825356701697412
 30
0.0
 11
-1.250000000000128
 21
-2.165063509461021
 31
0.0
210
0.0
220
0.0
230
1.0
 40
0.5773502691896259
 41
0.0
 42
6.283185307179586
  0
ELLIPSE
  5
3C7E
330
3C07
100
AcDbEntity
  8
0
100
AcDbEllipse
 10
24.69265123006844
 20
-2.825356701697407
 30
0.0
 11
-1.250000000000128
 21
-2.165063509461021
 31
0.0
210
0.0
220
0.0
230
1.0
 40
0.5773502691896259
 41
0.0
 42
6.283185307179586
  0
ELLIPSE
  5
3C7F
330
3C07
100
AcDbEntity
  8
0
100
AcDbEllipse
 10
24.69265123006843
 20
-19.15528832025193
 30
0.0
 11
-1.250000000000128
 21
-2.165063509461021
 31
0.0
210
0.0
220
0.0
230
1.0
 40
0.5773502691896259
 41
0.0
 42
6.283185307179586
  0
ELLIPSE
  5
3C80
330
3C07
100
AcDbEntity
  8
0
100
AcDbEllipse
 10
24.69265123006844
 20
13.5045749168571
 30
0.0
 11
-1.250000000000128
 21
-2.165063509461021
 31
0.0
210
0.0
220
0.0
230
1.0
 40
0.5773502691896259
 41
0.0
 42
6.283185307179586
  0
ELLIPSE
  5
3C81
330
3C07
100
AcDbEntity
  8
0
100
AcDbEllipse
 10
38.83478685379938
 20
13.50457491685711
 30
0.0
 11
-1.250000000000128
 21
-2.165063509461021
 31
0.0
210
0.0
220
0.0
230
1.0
 40
0.5773502691896259
 41
0.0
 42
6.283185307179586
  0
ELLIPSE
  5
3C82
330
3C07
100
AcDbEntity
  8
0
100
AcDbEllipse
 10
67.11905810126127
 20
13.5045749168571
 30
0.0
 11
-1.250000000000128
 21
-2.165063509461021
 31
0.0
210
0.0
220
0.0
230
1.0
 40
0.5773502691896259
 41
0.0
 42
6.283185307179586
  0
ELLIPSE
  5
3C83
330
3C07
100
AcDbEntity
  8
0
100
AcDbEllipse
 10
52.97692247753033
 20
13.50457491685711
 30
0.0
 11
-1.250000000000128
 21
-2.165063509461021
 31
0.0
210
0.0
220
0.0
230
1.0
 40
0.5773502691896259
 41
0.0
 42
6.283185307179586
  0
ELLIPSE
  5
3C84
330
3C07
100
AcDbEntity
  8
0
100
AcDbEllipse
 10
52.97692247753033
 20
-2.825356701697412
 30
0.0
 11
-1.250000000000128
 21
-2.165063509461021
 31
0.0
210
0.0
220
0.0
230
1.0
 40
0.5773502691896259
 41
0.0
 42
6.283185307179586
  0
ELLIPSE
  5
3C85
330
3C07
100
AcDbEntity
  8
0
100
AcDbEllipse
 10
52.97692247753033
 20
29.83450653541162
 30
0.0
 11
-1.250000000000128
 21
-2.165063509461021
 31
0.0
210
0.0
220
0.0
230
1.0
 40
0.5773502691896259
 41
0.0
 42
6.283185307179586
  0
ELLIPSE
  5
3C86
330
3C07
100
AcDbEntity
  8
0
100
AcDbEllipse
 10
67.11905810126127
 20
29.83450653541162
 30
0.0
 11
-1.250000000000128
 21
-2.165063509461021
 31
0.0
210
0.0
220
0.0
230
1.0
 40
0.5773502691896259
 41
0.0
 42
6.283185307179586
  0
ELLIPSE
  5
3C87
330
3C07
100
AcDbEntity
  8
0
100
AcDbEllipse
 10
95.40332934872317
 20
29.83450653541162
 30
0.0
 11
-1.250000000000128
 21
-2.165063509461021
 31
0.0
210
0.0
220
0.0
230
1.0
 40
0.5773502691896259
 41
0.0
 42
6.283185307179586
  0
ELLIPSE
  5
3C88
330
3C07
100
AcDbEntity
  8
0
100
AcDbEllipse
 10
81.26119372499223
 20
29.83450653541162
 30
0.0
 11
-1.250000000000128
 21
-2.165063509461021
 31
0.0
210
0.0
220
0.0
230
1.0
 40
0.5773502691896259
 41
0.0
 42
6.283185307179586
  0
ELLIPSE
  5
3C89
330
3C07
100
AcDbEntity
  8
0
100
AcDbEllipse
 10
81.26119372499223
 20
13.50457491685711
 30
0.0
 11
-1.250000000000128
 21
-2.165063509461021
 31
0.0
210
0.0
220
0.0
230
1.0
 40
0.5773502691896259
 41
0.0
 42
6.283185307179586
  0
ELLIPSE
  5
3C8A
330
3C07
100
AcDbEntity
  8
0
100
AcDbEllipse
 10
81.26119372499223
 20
46.16443815396614
 30
0.0
 11
-1.250000000000128
 21
-2.165063509461021
 31
0.0
210
0.0
220
0.0
230
1.0
 40
0.5773502691896259
 41
0.0
 42
6.283185307179586
  0
ELLIPSE
  5
3C8B
330
3C07
100
AcDbEntity
  8
0
100
AcDbEllipse
 10
95.40332934872317
 20
46.16443815396613
 30
0.0
 11
-1.250000000000128
 21
-2.165063509461021
 31
0.0
210
0.0
220
0.0
230
1.0
 40
0.5773502691896259
 41
0.0
 42
6.283185307179586
  0
ELLIPSE
  5
3C8C
330
3C07
100
AcDbEntity
  8
0
100
AcDbEllipse
 10
-69.35255066774214
 20
-110.1946570936932
 30
0.0
 11
1.250000000000017
 21
-2.165063509461085
 31
0.0
210
0.0
220
0.0
230
0.9999999999999998
 40
0.5773502691896208
 41
0.0
 42
6.283185307179586
  0
ELLIPSE
  5
3C8D
330
3C07
100
AcDbEntity
  8
0
100
AcDbEllipse
 10
-67.23123032418249
 20
-108.9699122223016
 30
0.0
 11
1.250000000000149
 21
-2.165063509461009
 31
0.0
210
0.0
220
0.0
230
1.0
 40
0.577350269189622
 41
4.154790153685047
 42
5.269987807084073
  0
ELLIPSE
  5
3C8E
330
3C07
100
AcDbEntity
  8
0
100
AcDbEllipse
 10
-69.35255066774229
 20
-93.86472547513879
 30
0.0
 11
1.250000000000017
 21
-2.165063509461085
 31
0.0
210
0.0
220
0.0
230
0.9999999999999998
 40
0.5773502691896208
 41
0.0
 42
6.283185307179586
  0
ELLIPSE
  5
3C8F
330
3C07
100
AcDbEntity
  8
0
100
AcDbEllipse
 10
-67.23123032418262
 20
-92.63998060374717
 30
0.0
 11
1.250000000000149
 21
-2.165063509461008
 31
0.0
210
0.0
220
0.0
230
1.0
 40
0.5773502691896221
 41
4.154790153685045
 42
5.269987807084072
  0
ELLIPSE
  5
3C90
330
3C07
100
AcDbEntity
  8
0
100
AcDbEllipse
 10
-97.63682191520405
 20
-93.86472547513873
 30
0.0
 11
1.250000000000017
 21
-2.165063509461085
 31
0.0
210
0.0
220
0.0
230
0.9999999999999998
 40
0.5773502691896208
 41
0.0
 42
6.283185307179586
  0
ELLIPSE
  5
3C91
330
3C07
100
AcDbEntity
  8
0
100
AcDbEllipse
 10
-95.51550157164442
 20
-92.63998060374715
 30
0.0
 11
1.250000000000149
 21
-2.165063509461009
 31
0.0
210
0.0
220
0.0
230
1.0
 40
0.5773502691896219
 41
4.154790153685055
 42
5.269987807084085
  0
ELLIPSE
  5
3C92
330
3C07
100
AcDbEntity
  8
0
100
AcDbEllipse
 10
-83.49468629147317
 20
-93.86472547513875
 30
0.0
 11
1.250000000000017
 21
-2.165063509461085
 31
0.0
210
0.0
220
0.0
230
0.9999999999999998
 40
0.5773502691896208
 41
0.0
 42
6.283185307179586
  0
ELLIPSE
  5
3C93
330
3C07
100
AcDbEntity
  8
0
100
AcDbEllipse
 10
-81.37336594791349
 20
-92.63998060374715
 30
0.0
 11
1.250000000000149
 21
-2.165063509461009
 31
0.0
210
0.0
220
0.0
230
1.0
 40
0.577350269189622
 41
4.154790153685048
 42
5.269987807084081
  0
ELLIPSE
  5
3C94
330
3C07
100
AcDbEntity
  8
0
100
AcDbEllipse
 10
-97.63682191520416
 20
-77.53479385658429
 30
0.0
 11
1.250000000000017
 21
-2.165063509461085
 31
0.0
210
0.0
220
0.0
230
0.9999999999999998
 40
0.5773502691896208
 41
0.0
 42
6.283185307179586
  0
ELLIPSE
  5
3C95
330
3C07
100
AcDbEntity
  8
0
100
AcDbEllipse
 10
-95.51550157164454
 20
-76.31004898519266
 30
0.0
 11
1.250000000000149
 21
-2.165063509461009
 31
0.0
210
0.0
220
0.0
230
1.0
 40
0.577350269189622
 41
4.154790153685057
 42
5.269987807084083
  0
ELLIPSE
  5
3C96
330
3C07
100
AcDbEntity
  8
0
100
AcDbEllipse
 10
-111.778957538935
 20
-77.53479385658426
 30
0.0
 11
1.250000000000017
 21
-2.165063509461085
 31
0.0
210
0.0
220
0.0
230
0.9999999999999998
 40
0.5773502691896208
 41
0.0
 42
6.283185307179586
  0
ELLIPSE
  5
3C97
330
3C07
100
AcDbEntity
  8
0
100
AcDbEllipse
 10
-109.6576371953754
 20
-76.31004898519264
 30
0.0
 11
1.250000000000149
 21
-2.165063509461009
 31
0.0
210
0.0
220
0.0
230
1.0
 40
0.577350269189622
 41
4.154790153685057
 42
5.269987807084084
  0
ELLIPSE
  5
3C98
330
3C07
100
AcDbEntity
  8
0
100
AcDbEllipse
 10
-125.9210931626659
 20
-77.53479385658422
 30
0.0
 11
1.250000000000017
 21
-2.165063509461085
 31
0.0
210
0.0
220
0.0
230
0.9999999999999998
 40
0.5773502691896208
 41
0.0
 42
6.283185307179586
  0
ELLIPSE
  5
3C99
330
3C07
100
AcDbEntity
  8
0
100
AcDbEllipse
 10
-123.7997728191063
 20
-76.31004898519262
 30
0.0
 11
1.250000000000149
 21
-2.165063509461009
 31
0.0
210
0.0
220
0.0
230
1.0
 40
0.577350269189622
 41
4.154790153685052
 42
5.269987807084084
  0
LINE
  5
3C9A
330
3C07
100
AcDbEntity
  8
0
100
AcDbLine
 10
-131.5779474121586
 20
-44.05843403854759
 30
0.0
 11
-59.09950234053749
 21
-85.90388381109354
 31
0.0
  0
ELLIPSE
  5
3C9B
330
3C07
100
AcDbEntity
  8
0
100
AcDbEllipse
 10
-127.3353067250393
 20
-41.60894429576439
 30
0.0
 11
-2.999999999999691
 21
-5.196152422706816
 31
0.0
210
0.0
220
0.0
230
1.0
 40
0.5773502691896257
 41
3.926990816986997
 42
5.497787143781899
  0
LINE
  5
3C9C
330
3C07
100
AcDbEntity
  8
0
100
AcDbLine
 10
-127.3353067250393
 20
-36.70996481019803
 30
0.0
 11
-54.85686165341818
 21
-78.55541458274396
 31
0.0
  0
LINE
  5
3C9D
330
3C07
100
AcDbEntity
  8
0
100
AcDbLine
 10
-131.5779474121586
 20
-44.05843403854759
 30
0.0
 11
-131.5779474121583
 21
-82.43377334215052
 31
0.0
  0
LINE
  5
3C9E
330
3C07
100
AcDbEntity
  8
0
100
AcDbLine
 10
-131.5779474121583
 20
-82.43377334215052
 30
0.0
 11
-59.09950234053753
 21
-124.2792231146962
 31
0.0
  0
LINE
  5
3C9F
330
3C07
100
AcDbEntity
  8
0
100
AcDbLine
 10
-30.4616777024823
 20
19.22005098335117
 30
0.0
 11
-127.3353067250393
 21
-36.70996481019803
 31
0.0
  0
LINE
  5
3CA0
330
3C07
100
AcDbEntity
  8
0
100
AcDbLine
 10
-30.4616777024823
 20
19.22005098335117
 30
0.0
 11
-7.127153923326234
 21
5.747857398043692
 31
0.0
  0
ENDBLK
  5
3C09
330
3C07
100
AcDbEntity
  8
0
100
AcDbBlockEnd
  0
ENDSEC
  0
SECTION
  2
ENTITIES
  0
INSERT
  5
3CA1
330
1F
100
AcDbEntity
  8
0
100
AcDbBlockReference
  2
SFHS-BL-Front
 10
0.0
 20
0.0
 30
0.0
  0
INSERT
  5
3CA2
330
1F
100
AcDbEntity
  8
0
100
AcDbBlockReference
  2
SFHS-BL-Left
 10
183.4000638655922
 20
0.0
 30
0.0
  0
INSERT
  5
3CA3
330
1F
100
AcDbEntity
  8
0
100
AcDbBlockReference
  2
SFHS-BL-Right
 10
-291.400005805963
 20
0.0
 30
0.0
  0
INSERT
  5
3CA4
330
1F
100
AcDbEntity
  8
0
100
AcDbBlockReference
  2
SFHS-BL-Top
 10
0.0
 20
-233.400005805963
 30
0.0
  0
INSERT
  5
3CA5
330
1F
100
AcDbEntity
  8
0
100
AcDbBlockReference
  2
SFHS-BL-Bottom
 10
0.0
 20
258.400005805963
 30
0.0
  0
INSERT
  5
3CA6
330
1F
100
AcDbEntity
  8
0
100
AcDbBlockReference
  2
SFHS-BL-ISO
 10
194.9780112777508
 20
-197.5315349730684
 30
0.0
  0
MTEXT
  5
3CA7
330
1F
100
AcDbEntity
  8
0
100
AcDbMText
 10
0.0
 20
-439.800011611926
 30
0.0
 40
21.13333526865432
 41
0.0
 71
     5
 72
     5
  1
SFHS-BL
 73
     1
 44
1.0
1001
ACAD
1000
MTEXTBEGIN
1070
    73
1070
     1
1070
    44
1040
1.0
1070
    74
1070
     0
1000
MTEXTEND
  0
ENDSEC
  0
SECTION
  2
OBJECTS
  0
DICTIONARY
  5
C
330
0
100
AcDbDictionary
281
     1
  3
ACAD_CIP_PREVIOUS_PRODUCT_INFO
350
1A5
  3
ACAD_COLOR
350
73
  3
ACAD_DETAILVIEWSTYLE
350
1AB
  3
ACAD_GROUP
350
D
  3
ACAD_LAYOUT
350
1A
  3
ACAD_MATERIAL
350
72
  3
ACAD_MLEADERSTYLE
350
D7
  3
ACAD_MLINESTYLE
350
17
  3
ACAD_PLOTSETTINGS
350
19
  3
ACAD_PLOTSTYLENAME
350
E
  3
ACAD_SCALELIST
350
B6
  3
ACAD_SECTIONVIEWSTYLE
350
1A8
  3
ACAD_TABLESTYLE
350
86
  3
ACAD_VISUALSTYLE
350
99
  3
ACDB_RECOMPOSE_DATA
350
3D9F
  3
AcDbVariableDictionary
350
66
  3
DWGPROPS
350
3DA0
  0
DICTIONARY
  5
3CF7
330
8
100
AcDbDictionary
280
     1
281
     1
  0
DICTIONARY
  5
18E
330
2
100
AcDbDictionary
280
     1
281
     1
  3
ACAD_LAYERSTATES
360
18F
  0
DICTIONARY
  5
E6
330
10
100
AcDbDictionary
280
     1
281
     1
  0
DICTIONARY
  5
15D
330
1F
100
AcDbDictionary
280
     1
281
     1
  3
ACAD_LAYOUTSELFREF
360
3CFF
  0
DICTIONARY
  5
3CAB
330
58
100
AcDbDictionary
280
     1
281
     1
  3
ACAD_LAYOUTSELFREF
360
3D01
  0
DICTIONARY
  5
3CAD
330
5D
100
AcDbDictionary
280
     1
281
     1
  3
ACAD_LAYOUTSELFREF
360
3D04
  0
XRECORD
  5
1A5
102
{ACAD_REACTORS
330
C
102
}
330
C
100
AcDbXrecord
280
     1
300
ACD
300
2021
300
87393ACD_2021_0F
  0
DICTIONARY
  5
73
102
{ACAD_REACTORS
330
C
102
}
330
C
100
AcDbDictionary
281
     1
  0
DICTIONARY
  5
1AB
102
{ACAD_REACTORS
330
C
102
}
330
C
100
AcDbDictionary
281
     1
  3
Imperial24
350
1AC
  0
DICTIONARY
  5
D
102
{ACAD_REACTORS
330
C
102
}
330
C
100
AcDbDictionary
281
     1
  0
DICTIONARY
  5
1A
102
{ACAD_REACTORS
330
C
102
}
330
C
100
AcDbDictionary
281
     1
  3
Layout1
350
59
  3
Layout2
350
5E
  3
Model
350
22
  0
DICTIONARY
  5
72
102
{ACAD_REACTORS
330
C
102
}
330
C
100
AcDbDictionary
281
     1
  3
ByBlock
350
97
  3
ByLayer
350
96
  3
Global
350
98
  0
DICTIONARY
  5
D7
102
{ACAD_REACTORS
330
C
102
}
330
C
100
AcDbDictionary
281
     1
  3
Standard
350
D8
  0
DICTIONARY
  5
17
102
{ACAD_REACTORS
330
C
102
}
330
C
100
AcDbDictionary
281
     1
  3
Standard
350
18
  0
DICTIONARY
  5
19
102
{ACAD_REACTORS
330
C
102
}
330
C
100
AcDbDictionary
281
     1
  0
ACDBDICTIONARYWDFLT
  5
E
102
{ACAD_REACTORS
330
C
102
}
330
C
100
AcDbDictionary
281
     1
  3
Normal
350
F
100
AcDbDictionaryWithDefault
340
F
  0
DICTIONARY
  5
B6
102
{ACAD_REACTORS
330
C
102
}
330
C
100
AcDbDictionary
281
     1
  3
A0
350
B7
  3
A1
350
124
  3
A2
350
125
  3
A3
350
126
  3
A4
350
127
  3
A5
350
128
  3
A6
350
129
  3
A7
350
12A
  3
A8
350
12B
  3
A9
350
12C
  3
B0
350
12D
  3
B1
350
12E
  3
B2
350
12F
  3
B3
350
130
  3
B4
350
131
  3
B5
350
132
  3
B6
350
133
  3
B7
350
134
  3
B8
350
135
  3
B9
350
136
  3
C0
350
137
  3
C1
350
138
  3
C2
350
139
  3
C3
350
13A
  3
C4
350
13B
  3
C5
350
13C
  3
C6
350
13D
  3
C7
350
13E
  3
C8
350
13F
  3
C9
350
140
  3
D0
350
141
  3
D1
350
142
  3
D2
350
143
  0
DICTIONARY
  5
1A8
102
{ACAD_REACTORS
330
C
102
}
330
C
100
AcDbDictionary
281
     1
  3
Imperial24
350
1AA
  0
DICTIONARY
  5
86
102
{ACAD_REACTORS
330
C
102
}
330
C
100
AcDbDictionary
281
     1
  3
Standard
350
87
  0
DICTIONARY
  5
99
102
{ACAD_REACTORS
330
C
102
}
330
C
100
AcDbDictionary
281
     1
  3
2dWireframe
350
9F
  3
Basic
350
9E
  3
Brighten
350
A5
  3
ColorChange
350
A9
  3
Conceptual
350
A2
  3
Dim
350
A4
  3
EdgeColorOff
350
175
  3
Facepattern
350
A8
  3
Flat
350
9A
  3
FlatWithEdges
350
9B
  3
Gouraud
350
9C
  3
GouraudWithEdges
350
9D
  3
Hidden
350
A1
  3
JitterOff
350
173
  3
Linepattern
350
A7
  3
OverhangOff
350
174
  3
Realistic
350
A3
  3
Shaded
350
182
  3
Shaded with edges
350
181
  3
Shades of Gray
350
17E
  3
Sketchy
350
17F
  3
Thicken
350
A6
  3
Wireframe
350
A0
  3
X-Ray
350
180
  0
XRECORD
  5
3D9F
102
{ACAD_REACTORS
330
C
102
}
330
C
100
AcDbXrecord
280
     1
 90
        1
330
87
  0
DICTIONARY
  5
66
102
{ACAD_REACTORS
330
C
102
}
330
C
100
AcDbDictionary
281
     1
  3
CANNOSCALE
350
F0
  3
CMLEADERSTYLE
350
EF
  3
CTABLESTYLE
350
89
  3
CVIEWDETAILSTYLE
350
1B7
  3
CVIEWSECTIONSTYLE
350
1B8
  3
DIMASSOC
350
67
  3
HIDETEXT
350
6B
  3
INDEXCTL
350
3D52
  3
LAYEREVAL
350
14D
  3
LAYERNOTIFY
350
14E
  3
LIGHTINGUNITS
350
3D50
  3
MSLTSCALE
350
3D4F
  3
SORTENTS
350
3D51
  3
XCLIPFRAME
350
3D9D
  0
XRECORD
  5
3DA0
102
{ACAD_REACTORS
330
C
102
}
330
C
100
AcDbXrecord
280
     1
  1
DWGPROPS COOKIE
  2

  3

  4

  6

  7

  8
truole
  9

300
=
301
=
302
=
303
=
304
=
305
=
306
=
307
=
308
=
309
=
 40
0.0013888888888889
 41
2460802.673344907
 42
2460802.680787037
  1

 90
        0
  0
DICTIONARY
  5
18F
102
{ACAD_REACTORS
330
18E
102
}
330
18E
100
AcDbDictionary
281
     1
  0
XRECORD
  5
3CFF
102
{ACAD_REACTORS
330
15D
102
}
330
15D
100
AcDbXrecord
280
     1
340
1F
  0
XRECORD
  5
3D01
102
{ACAD_REACTORS
330
3CAB
102
}
330
3CAB
100
AcDbXrecord
280
     1
340
58
  0
XRECORD
  5
3D04
102
{ACAD_REACTORS
330
3CAD
102
}
330
3CAD
100
AcDbXrecord
280
     1
340
5D
  0
ACDBDETAILVIEWSTYLE
  5
1AC
102
{ACAD_XDICTIONARY
360
3DDF
102
}
102
{ACAD_REACTORS
330
1AB
102
}
330
1AB
100
AcDbModelDocViewStyle
 70
     0
  3
Imperial24
290
     0
100
AcDbDetailViewStyle
 70
     0
 71
     0
 90
        3
 71
     1
340
11
 40
0.24
340
0
 40
0.24
300

 40
0.36
280
     3
 71
     2
340
16
 90
       25
 71
     3
340
11
 40
0.24
 90
        1
 40
0.75
 90
        1
300
%<\AcVar ViewType \f "%tc1">% %<\AcVar ViewDetailId>%\PSCALE %<\AcVar ViewScale \f "%sn">%
 71
     4
340
16
 90
       25
340
16
 90
       25
280
     0
  0
LAYOUT
  5
59
102
{ACAD_XDICTIONARY
360
3DA3
102
}
102
{ACAD_REACTORS
330
1A
102
}
330
1A
100
AcDbPlotSettings
  1

  2
None
  4

  6

 40
0.0
 41
0.0
 42
0.0
 43
0.0
 44
0.0
 45
0.0
 46
0.0
 47
0.0
 48
0.0
 49
0.0
140
0.0
141
0.0
142
1.0
143
1.0
 70
   688
 72
     0
 73
     0
 74
     5
  7

 75
    16
147
1.0
148
0.0
149
0.0
100
AcDbLayout
  1
Layout1
 70
     1
 71
     1
 10
0.0
 20
0.0
 11
12.0
 21
9.0
 12
0.0
 22
0.0
 32
0.0
 14
0.0
 24
0.0
 34
0.0
 15
0.0
 25
0.0
 35
0.0
146
0.0
 13
0.0
 23
0.0
 33
0.0
 16
1.0
 26
0.0
 36
0.0
 17
0.0
 27
1.0
 37
0.0
 76
     0
330
58
  0
LAYOUT
  5
5E
102
{ACAD_XDICTIONARY
360
3DA5
102
}
102
{ACAD_REACTORS
330
1A
102
}
330
1A
100
AcDbPlotSettings
  1

  2
None
  4

  6

 40
0.0
 41
0.0
 42
0.0
 43
0.0
 44
0.0
 45
0.0
 46
0.0
 47
0.0
 48
0.0
 49
0.0
140
0.0
141
0.0
142
1.0
143
1.0
 70
   688
 72
     0
 73
     0
 74
     5
  7

 75
    16
147
1.0
148
0.0
149
0.0
100
AcDbLayout
  1
Layout2
 70
     1
 71
     2
 10
0.0
 20
0.0
 11
12.0
 21
9.0
 12
0.0
 22
0.0
 32
0.0
 14
0.0
 24
0.0
 34
0.0
 15
0.0
 25
0.0
 35
0.0
146
0.0
 13
0.0
 23
0.0
 33
0.0
 16
1.0
 26
0.0
 36
0.0
 17
0.0
 27
1.0
 37
0.0
 76
     0
330
5D
  0
LAYOUT
  5
22
102
{ACAD_XDICTIONARY
360
3DA1
102
}
102
{ACAD_REACTORS
330
1A
102
}
330
1A
100
AcDbPlotSettings
  1

  2
none_device
  4
ANSI_A_(8.50_x_11.00_Inches)
  6

 40
6.349999904632568
 41
19.04999923706055
 42
6.350006103515625
 43
19.04998779296875
 44
215.8999938964844
 45
279.3999938964844
 46
0.0
 47
0.0
 48
0.0
 49
0.0
140
0.0
141
0.0
142
1.0
143
2.584895464708373
 70
 11952
 72
     0
 73
     1
 74
     0
  7

 75
     0
147
0.3868628397755418
148
0.0
149
0.0
100
AcDbLayout
  1
Model
 70
     1
 71
     0
 10
0.0
 20
0.0
 11
12.0
 21
9.0
 12
0.0
 22
0.0
 32
0.0
 14
0.0
 24
0.0
 34
0.0
 15
0.0
 25
0.0
 35
0.0
146
0.0
 13
0.0
 23
0.0
 33
0.0
 16
1.0
 26
0.0
 36
0.0
 17
0.0
 27
1.0
 37
0.0
 76
     0
330
1F
331
94
  0
MATERIAL
  5
97
102
{ACAD_XDICTIONARY
360
188
102
}
102
{ACAD_REACTORS
330
72
102
}
330
72
100
AcDbMaterial
  1
ByBlock
  0
MATERIAL
  5
96
102
{ACAD_XDICTIONARY
360
186
102
}
102
{ACAD_REACTORS
330
72
102
}
330
72
100
AcDbMaterial
  1
ByLayer
  0
MATERIAL
  5
98
102
{ACAD_XDICTIONARY
360
110
102
}
102
{ACAD_REACTORS
330
72
102
}
330
72
100
AcDbMaterial
  1
Global
 43
0.0208000000566244
 43
0.0
 43
0.0
 43
0.0
 43
0.0
 43
0.0208000000566244
 43
0.0
 43
0.0
 43
0.0
 43
0.0
 43
1.0
 43
0.0
 43
0.0
 43
0.0
 43
0.0
 43
1.0
 49
0.0208000000566244
 49
0.0
 49
0.0
 49
0.0
 49
0.0
 49
0.0208000000566244
 49
0.0
 49
0.0
 49
0.0
 49
0.0
 49
1.0
 49
0.0
 49
0.0
 49
0.0
 49
0.0
 49
1.0
142
0.0208000000566244
142
0.0
142
0.0
142
0.0
142
0.0
142
0.0208000000566244
142
0.0
142
0.0
142
0.0
142
0.0
142
1.0
142
0.0
142
0.0
142
0.0
142
0.0
142
1.0
144
0.0208000000566244
144
0.0
144
0.0
144
0.0
144
0.0
144
0.0208000000566244
144
0.0
144
0.0
144
0.0
144
0.0
144
1.0
144
0.0
144
0.0
144
0.0
144
0.0
144
1.0
1001
ACAD
1070
    -1
1070
     3
1070
     0
1000

1071
        0
1070
     0
  0
MLEADERSTYLE
  5
D8
102
{ACAD_XDICTIONARY
360
3DCB
102
}
102
{ACAD_REACTORS
330
D7
102
}
330
D7
100
AcDbMLeaderStyle
170
     2
171
     1
172
     0
 90
        2
 40
0.0
 41
0.0
173
     1
 91
-1056964608
340
14
 92
       -2
290
     1
 42
0.09
291
     1
 43
0.36
  3
Standard
 44
0.18
300

342
11
174
     1
178
     1
175
     1
176
     0
 93
-1056964608
 45
0.18
292
     0
297
     0
 46
0.18
 94
-1056964608
 47
1.0
 49
1.0
140
1.0
293
     1
141
0.0
294
     1
177
     0
142
1.0
295
     0
296
     0
143
0.125
1001
ACAD_MLEADERVER
1070
     2
  0
MLINESTYLE
  5
18
102
{ACAD_REACTORS
330
17
102
}
330
17
100
AcDbMlineStyle
  2
STANDARD
 70
     0
  3

 62
   256
 51
90.0
 52
90.0
 71
     2
 49
0.5
 62
   256
  6
BYLAYER
 49
-0.5
 62
   256
  6
BYLAYER
  0
ACDBPLACEHOLDER
  5
F
102
{ACAD_REACTORS
330
E
102
}
330
E
  0
SCALE
  5
B7
102
{ACAD_REACTORS
330
B6
102
}
330
B6
100
AcDbScale
 70
     0
300
1:1
140
1.0
141
1.0
290
     1
  0
SCALE
  5
124
102
{ACAD_REACTORS
330
B6
102
}
330
B6
100
AcDbScale
 70
     0
300
1:2
140
1.0
141
2.0
290
     0
  0
SCALE
  5
125
102
{ACAD_REACTORS
330
B6
102
}
330
B6
100
AcDbScale
 70
     0
300
1:4
140
1.0
141
4.0
290
     0
  0
SCALE
  5
126
102
{ACAD_REACTORS
330
B6
102
}
330
B6
100
AcDbScale
 70
     0
300
1:5
140
1.0
141
5.0
290
     0
  0
SCALE
  5
127
102
{ACAD_REACTORS
330
B6
102
}
330
B6
100
AcDbScale
 70
     0
300
1:8
140
1.0
141
8.0
290
     0
  0
SCALE
  5
128
102
{ACAD_REACTORS
330
B6
102
}
330
B6
100
AcDbScale
 70
     0
300
1:10
140
1.0
141
10.0
290
     0
  0
SCALE
  5
129
102
{ACAD_REACTORS
330
B6
102
}
330
B6
100
AcDbScale
 70
     0
300
1:16
140
1.0
141
16.0
290
     0
  0
SCALE
  5
12A
102
{ACAD_REACTORS
330
B6
102
}
330
B6
100
AcDbScale
 70
     0
300
1:20
140
1.0
141
20.0
290
     0
  0
SCALE
  5
12B
102
{ACAD_REACTORS
330
B6
102
}
330
B6
100
AcDbScale
 70
     0
300
1:30
140
1.0
141
30.0
290
     0
  0
SCALE
  5
12C
102
{ACAD_REACTORS
330
B6
102
}
330
B6
100
AcDbScale
 70
     0
300
1:40
140
1.0
141
40.0
290
     0
  0
SCALE
  5
12D
102
{ACAD_REACTORS
330
B6
102
}
330
B6
100
AcDbScale
 70
     0
300
1:50
140
1.0
141
50.0
290
     0
  0
SCALE
  5
12E
102
{ACAD_REACTORS
330
B6
102
}
330
B6
100
AcDbScale
 70
     0
300
1:100
140
1.0
141
100.0
290
     0
  0
SCALE
  5
12F
102
{ACAD_REACTORS
330
B6
102
}
330
B6
100
AcDbScale
 70
     0
300
2:1
140
2.0
141
1.0
290
     0
  0
SCALE
  5
130
102
{ACAD_REACTORS
330
B6
102
}
330
B6
100
AcDbScale
 70
     0
300
4:1
140
4.0
141
1.0
290
     0
  0
SCALE
  5
131
102
{ACAD_REACTORS
330
B6
102
}
330
B6
100
AcDbScale
 70
     0
300
8:1
140
8.0
141
1.0
290
     0
  0
SCALE
  5
132
102
{ACAD_REACTORS
330
B6
102
}
330
B6
100
AcDbScale
 70
     0
300
10:1
140
10.0
141
1.0
290
     0
  0
SCALE
  5
133
102
{ACAD_REACTORS
330
B6
102
}
330
B6
100
AcDbScale
 70
     0
300
100:1
140
100.0
141
1.0
290
     0
  0
SCALE
  5
134
102
{ACAD_REACTORS
330
B6
102
}
330
B6
100
AcDbScale
 70
     0
300
1/128" = 1'-0"
140
0.0078125
141
12.0
290
     0
  0
SCALE
  5
135
102
{ACAD_REACTORS
330
B6
102
}
330
B6
100
AcDbScale
 70
     0
300
1/64" = 1'-0"
140
0.015625
141
12.0
290
     0
  0
SCALE
  5
136
102
{ACAD_REACTORS
330
B6
102
}
330
B6
100
AcDbScale
 70
     0
300
1/32" = 1'-0"
140
0.03125
141
12.0
290
     0
  0
SCALE
  5
137
102
{ACAD_REACTORS
330
B6
102
}
330
B6
100
AcDbScale
 70
     0
300
1/16" = 1'-0"
140
0.0625
141
12.0
290
     0
  0
SCALE
  5
138
102
{ACAD_REACTORS
330
B6
102
}
330
B6
100
AcDbScale
 70
     0
300
3/32" = 1'-0"
140
0.09375
141
12.0
290
     0
  0
SCALE
  5
139
102
{ACAD_REACTORS
330
B6
102
}
330
B6
100
AcDbScale
 70
     0
300
1/8" = 1'-0"
140
0.125
141
12.0
290
     0
  0
SCALE
  5
13A
102
{ACAD_REACTORS
330
B6
102
}
330
B6
100
AcDbScale
 70
     0
300
3/16" = 1'-0"
140
0.1875
141
12.0
290
     0
  0
SCALE
  5
13B
102
{ACAD_REACTORS
330
B6
102
}
330
B6
100
AcDbScale
 70
     0
300
1/4" = 1'-0"
140
0.25
141
12.0
290
     0
  0
SCALE
  5
13C
102
{ACAD_REACTORS
330
B6
102
}
330
B6
100
AcDbScale
 70
     0
300
3/8" = 1'-0"
140
0.375
141
12.0
290
     0
  0
SCALE
  5
13D
102
{ACAD_REACTORS
330
B6
102
}
330
B6
100
AcDbScale
 70
     0
300
1/2" = 1'-0"
140
0.5
141
12.0
290
     0
  0
SCALE
  5
13E
102
{ACAD_REACTORS
330
B6
102
}
330
B6
100
AcDbScale
 70
     0
300
3/4" = 1'-0"
140
0.75
141
12.0
290
     0
  0
SCALE
  5
13F
102
{ACAD_REACTORS
330
B6
102
}
330
B6
100
AcDbScale
 70
     0
300
1" = 1'-0"
140
1.0
141
12.0
290
     0
  0
SCALE
  5
140
102
{ACAD_REACTORS
330
B6
102
}
330
B6
100
AcDbScale
 70
     0
300
1-1/2" = 1'-0"
140
1.5
141
12.0
290
     0
  0
SCALE
  5
141
102
{ACAD_REACTORS
330
B6
102
}
330
B6
100
AcDbScale
 70
     0
300
3" = 1'-0"
140
3.0
141
12.0
290
     0
  0
SCALE
  5
142
102
{ACAD_REACTORS
330
B6
102
}
330
B6
100
AcDbScale
 70
     0
300
6" = 1'-0"
140
6.0
141
12.0
290
     0
  0
SCALE
  5
143
102
{ACAD_REACTORS
330
B6
102
}
330
B6
100
AcDbScale
 70
     0
300
1'-0" = 1'-0"
140
12.0
141
12.0
290
     0
  0
ACDBSECTIONVIEWSTYLE
  5
1AA
102
{ACAD_XDICTIONARY
360
3DDD
102
}
102
{ACAD_REACTORS
330
1A8
102
}
330
1A8
100
AcDbModelDocViewStyle
 70
     0
  3
Imperial24
290
     0
100
AcDbSectionViewStyle
 70
     0
 71
     0
 90
       78
 71
     1
340
11
 40
0.24
340
0
340
0
 40
0.24
300
I, O, Q, S, X, Z
 40
0.48
 90
        3
 40
0.18
 90
        1
 71
     2
340
16
 90
       25
340
16
 90
       50
 40
0.24
 40
0.0
 40
0.24
 71
     3
340
11
 40
0.24
 90
        1
 40
0.75
 90
        1
300
%<\AcVar ViewType \f "%tc1">% %<\AcVar ViewSectionStartId>%-%<\AcVar ViewSectionEndId>%\PSCALE %<\AcVar ViewScale \f "%sn">%
 71
     4
300
ANSI31
 40
1.0
 90
        0
290
     0
290
     0
 90
        6
 40
0.0
 40
1.570796326794896
 40
0.2617993877991494
 40
1.308996938995747
 40
-0.2617993877991494
 40
1.832595714594046
  0
TABLESTYLE
  5
87
102
{ACAD_XDICTIONARY
360
104
102
}
102
{ACAD_REACTORS
330
86
102
}
330
86
100
AcDbTableStyle
  3
Standard
 70
     0
 71
     0
 40
0.06
 41
0.06
280
     0
281
     0
  7
Standard
140
0.18
170
     2
 62
     0
 63
     7
283
     0
274
    -2
284
     1
 64
     0
275
    -2
285
     1
 65
     0
276
    -2
286
     1
 66
     0
277
    -2
287
     1
 67
     0
278
    -2
288
     1
 68
     0
279
    -2
289
     1
 69
     0
  7
Standard
140
0.25
170
     5
 62
     0
 63
     7
283
     0
274
    -2
284
     1
 64
     0
275
    -2
285
     1
 65
     0
276
    -2
286
     1
 66
     0
277
    -2
287
     1
 67
     0
278
    -2
288
     1
 68
     0
279
    -2
289
     1
 69
     0
  7
Standard
140
0.18
170
     5
 62
     0
 63
     7
283
     0
274
    -2
284
     1
 64
     0
275
    -2
285
     1
 65
     0
276
    -2
286
     1
 66
     0
277
    -2
287
     1
 67
     0
278
    -2
288
     1
 68
     0
279
    -2
289
     1
 69
     0
  0
VISUALSTYLE
  5
9F
102
{ACAD_XDICTIONARY
360
3DB5
102
}
102
{ACAD_REACTORS
330
99
102
}
330
99
100
AcDbVisualStyle
  2
2dWireframe
 70
     4
 71
     0
 72
     2
 73
     1
 90
        0
 40
-0.6
 41
-30.0
 62
     5
 63
     7
 74
     1
 91
        4
 64
     7
 65
   257
 75
     1
175
     1
 42
1.0
 92
        0
 66
   257
 43
1.0
 76
     1
 77
     6
 78
     2
 67
     7
 79
     5
170
     0
171
     0
290
     0
174
     0
 93
        1
 44
0.0
173
     0
291
     0
 45
0.0
1001
ACAD
1000
AcDbSavedByObjectVersion
1070
     0
  0
VISUALSTYLE
  5
9E
102
{ACAD_XDICTIONARY
360
3DB3
102
}
102
{ACAD_REACTORS
330
99
102
}
330
99
100
AcDbVisualStyle
  2
Basic
 70
     7
 71
     1
 72
     0
 73
     1
 90
        0
 40
-0.6
 41
-30.0
 62
     5
 63
     7
 74
     0
 91
        4
 64
     7
 65
   257
 75
     1
175
     1
 42
1.0
 92
        8
 66
     7
 43
1.0
 76
     1
 77
     6
 78
     2
 67
     7
 79
     5
170
     0
171
     0
290
     0
174
     0
 93
        1
 44
0.0
173
     0
291
     1
 45
0.0
1001
ACAD
1000
AcDbSavedByObjectVersion
1070
     0
  0
VISUALSTYLE
  5
A5
102
{ACAD_XDICTIONARY
360
3DC1
102
}
102
{ACAD_REACTORS
330
99
102
}
330
99
100
AcDbVisualStyle
  2
Brighten
 70
    12
 71
     2
 72
     2
 73
     1
 90
        0
 40
-0.6
 41
-30.0
 62
     5
 63
     7
 74
     1
 91
        4
 64
     7
 65
   257
 75
     1
175
     1
 42
1.0
 92
        8
 66
     7
 43
1.0
 76
     1
 77
     6
 78
     2
 67
     7
 79
     5
170
     0
171
     0
290
     0
174
     0
 93
        1
 44
50.0
173
     0
291
     1
 45
0.0
1001
ACAD
1000
AcDbSavedByObjectVersion
1070
     0
  0
VISUALSTYLE
  5
A9
102
{ACAD_XDICTIONARY
360
3DC9
102
}
102
{ACAD_REACTORS
330
99
102
}
330
99
100
AcDbVisualStyle
  2
ColorChange
 70
    16
 71
     2
 72
     2
 73
     3
 90
        0
 40
-0.6
 41
-30.0
 62
     5
 63
     8
 74
     1
 91
        4
 64
     7
 65
   257
 75
     1
175
     1
 42
1.0
 92
        8
 66
     8
 43
1.0
 76
     1
 77
     6
 78
     2
 67
     7
 79
     5
170
     0
171
     0
290
     0
174
     0
 93
        1
 44
0.0
173
     0
291
     1
 45
0.0
1001
ACAD
1000
AcDbSavedByObjectVersion
1070
     0
  0
VISUALSTYLE
  5
A2
102
{ACAD_XDICTIONARY
360
3DBB
102
}
102
{ACAD_REACTORS
330
99
102
}
330
99
100
AcDbVisualStyle
  2
Conceptual
 70
     9
 71
     3
 72
     2
 73
     1
 90
        0
 40
-0.6
 41
-30.0
 62
     5
 63
     7
 74
     2
 91
        2
 64
     7
 65
   257
 75
     1
175
     1
 42
40.0
 92
        8
 66
     7
 43
1.0
 76
     1
 77
     6
 78
     2
 67
     7
 79
     3
170
     0
171
     0
290
     0
174
     0
 93
        1
 44
0.0
173
     0
291
     0
 45
0.0
1001
ACAD
1000
AcDbSavedByObjectVersion
1070
     0
  0
VISUALSTYLE
  5
A4
102
{ACAD_XDICTIONARY
360
3DBF
102
}
102
{ACAD_REACTORS
330
99
102
}
330
99
100
AcDbVisualStyle
  2
Dim
 70
    11
 71
     2
 72
     2
 73
     1
 90
        0
 40
-0.6
 41
-30.0
 62
     5
 63
     7
 74
     1
 91
        4
 64
     7
 65
   257
 75
     1
175
     1
 42
1.0
 92
        8
 66
     7
 43
1.0
 76
     1
 77
     6
 78
     2
 67
     7
 79
     5
170
     0
171
     0
290
     0
174
     0
 93
        1
 44
-50.0
173
     0
291
     1
 45
0.0
1001
ACAD
1000
AcDbSavedByObjectVersion
1070
     0
  0
VISUALSTYLE
  5
175
102
{ACAD_XDICTIONARY
360
3DD1
102
}
102
{ACAD_REACTORS
330
99
102
}
330
99
100
AcDbVisualStyle
  2
EdgeColorOff
 70
    22
 71
     2
 72
     2
 73
     0
 90
        0
 40
-0.6
 41
-30.0
 62
     5
 63
     7
 74
     1
 91
        4
 64
     7
 65
   257
 75
     1
175
     1
 42
1.0
 92
        8
 66
     7
 43
1.0
 76
     1
 77
     6
 78
     2
 67
     7
 79
     5
170
     0
171
     0
290
     0
174
     0
 93
        1
 44
0.0
173
     0
291
     1
 45
0.0
1001
ACAD
1000
AcDbSavedByObjectVersion
1070
     0
  0
VISUALSTYLE
  5
A8
102
{ACAD_XDICTIONARY
360
3DC7
102
}
102
{ACAD_REACTORS
330
99
102
}
330
99
100
AcDbVisualStyle
  2
Facepattern
 70
    15
 71
     2
 72
     2
 73
     1
 90
        0
 40
-0.6
 41
-30.0
 62
     5
 63
     7
 74
     1
 91
        4
 64
     7
 65
   257
 75
     1
175
     1
 42
1.0
 92
        8
 66
     7
 43
1.0
 76
     1
 77
     6
 78
     2
 67
     7
 79
     5
170
     0
171
     0
290
     0
174
     0
 93
        1
 44
0.0
173
     0
291
     1
 45
0.0
1001
ACAD
1000
AcDbSavedByObjectVersion
1070
     0
  0
VISUALSTYLE
  5
9A
102
{ACAD_XDICTIONARY
360
3DAB
102
}
102
{ACAD_REACTORS
330
99
102
}
330
99
100
AcDbVisualStyle
  2
Flat
 70
     0
 71
     2
 72
     1
 73
     1
 90
        2
 40
-0.6
 41
30.0
 62
     5
 63
     7
 74
     0
 91
        0
 64
     7
 65
   257
 75
     1
175
     1
 42
1.0
 92
        8
 66
     7
 43
1.0
 76
     1
 77
     6
 78
     2
 67
     7
 79
     5
170
     0
171
     0
290
     0
174
     0
 93
       13
 44
0.0
173
     0
291
     1
 45
0.0
1001
ACAD
1000
AcDbSavedByObjectVersion
1070
     0
  0
VISUALSTYLE
  5
9B
102
{ACAD_XDICTIONARY
360
3DAD
102
}
102
{ACAD_REACTORS
330
99
102
}
330
99
100
AcDbVisualStyle
  2
FlatWithEdges
 70
     1
 71
     2
 72
     1
 73
     1
 90
        2
 40
-0.6
 41
30.0
 62
     5
 63
     7
 74
     1
 91
        0
 64
     7
 65
   257
 75
     1
175
     1
 42
1.0
 92
        0
 66
   257
 43
1.0
 76
     1
 77
     6
 78
     2
 67
     7
 79
     5
170
     0
171
     0
290
     0
174
     0
 93
       13
 44
0.0
173
     0
291
     1
 45
0.0
1001
ACAD
1000
AcDbSavedByObjectVersion
1070
     0
  0
VISUALSTYLE
  5
9C
102
{ACAD_XDICTIONARY
360
3DAF
102
}
102
{ACAD_REACTORS
330
99
102
}
330
99
100
AcDbVisualStyle
  2
Gouraud
 70
     2
 71
     2
 72
     2
 73
     1
 90
        2
 40
-0.6
 41
30.0
 62
     5
 63
     7
 74
     0
 91
        0
 64
     7
 65
   257
 75
     1
175
     1
 42
1.0
 92
        0
 66
     7
 43
1.0
 76
     1
 77
     6
 78
     2
 67
     7
 79
     5
170
     0
171
     0
290
     0
174
     0
 93
       13
 44
0.0
173
     0
291
     1
 45
0.0
1001
ACAD
1000
AcDbSavedByObjectVersion
1070
     0
  0
VISUALSTYLE
  5
9D
102
{ACAD_XDICTIONARY
360
3DB1
102
}
102
{ACAD_REACTORS
330
99
102
}
330
99
100
AcDbVisualStyle
  2
GouraudWithEdges
 70
     3
 71
     2
 72
     2
 73
     1
 90
        2
 40
-0.6
 41
30.0
 62
     5
 63
     7
 74
     1
 91
        0
 64
     7
 65
   257
 75
     1
175
     1
 42
1.0
 92
        0
 66
   257
 43
1.0
 76
     1
 77
     6
 78
     2
 67
     7
 79
     5
170
     0
171
     0
290
     0
174
     0
 93
       13
 44
0.0
173
     0
291
     1
 45
0.0
1001
ACAD
1000
AcDbSavedByObjectVersion
1070
     0
  0
VISUALSTYLE
  5
A1
102
{ACAD_XDICTIONARY
360
3DB9
102
}
102
{ACAD_REACTORS
330
99
102
}
330
99
100
AcDbVisualStyle
  2
Hidden
 70
     6
 71
     1
 72
     2
 73
     2
 90
        0
 40
-0.6
 41
-30.0
 62
     5
 63
     7
 74
     2
 91
        2
 64
     7
 65
   257
 75
     2
175
     1
 42
40.0
 92
        0
 66
   257
 43
1.0
 76
     1
 77
     6
 78
     2
 67
     7
 79
     3
170
     0
171
     0
290
     0
174
     0
 93
        1
 44
0.0
173
     0
291
     0
 45
0.0
1001
ACAD
1000
AcDbSavedByObjectVersion
1070
     0
  0
VISUALSTYLE
  5
173
102
{ACAD_XDICTIONARY
360
3DCD
102
}
102
{ACAD_REACTORS
330
99
102
}
330
99
100
AcDbVisualStyle
  2
JitterOff
 70
    20
 71
     2
 72
     2
 73
     0
 90
        0
 40
-0.6
 41
-30.0
 62
     5
 63
     7
 74
     1
 91
        4
 64
     7
 65
   257
 75
     1
175
     1
 42
1.0
 92
       10
 66
     7
 43
1.0
 76
     1
 77
     6
 78
     2
 67
     7
 79
     5
170
     0
171
     0
290
     0
174
     0
 93
        1
 44
0.0
173
     0
291
     1
 45
0.0
1001
ACAD
1000
AcDbSavedByObjectVersion
1070
     0
  0
VISUALSTYLE
  5
A7
102
{ACAD_XDICTIONARY
360
3DC5
102
}
102
{ACAD_REACTORS
330
99
102
}
330
99
100
AcDbVisualStyle
  2
Linepattern
 70
    14
 71
     2
 72
     2
 73
     1
 90
        0
 40
-0.6
 41
-30.0
 62
     5
 63
     7
 74
     1
 91
        4
 64
     7
 65
   257
 75
     7
175
     7
 42
1.0
 92
        8
 66
     7
 43
1.0
 76
     1
 77
     6
 78
     2
 67
     7
 79
     5
170
     0
171
     0
290
     0
174
     0
 93
        1
 44
0.0
173
     0
291
     1
 45
0.0
1001
ACAD
1000
AcDbSavedByObjectVersion
1070
     0
  0
VISUALSTYLE
  5
174
102
{ACAD_XDICTIONARY
360
3DCF
102
}
102
{ACAD_REACTORS
330
99
102
}
330
99
100
AcDbVisualStyle
  2
OverhangOff
 70
    21
 71
     2
 72
     2
 73
     0
 90
        0
 40
-0.6
 41
-30.0
 62
     5
 63
     7
 74
     1
 91
        4
 64
     7
 65
   257
 75
     1
175
     1
 42
1.0
 92
        9
 66
     7
 43
1.0
 76
     1
 77
     6
 78
     2
 67
     7
 79
     5
170
     0
171
     0
290
     0
174
     0
 93
        1
 44
0.0
173
     0
291
     1
 45
0.0
1001
ACAD
1000
AcDbSavedByObjectVersion
1070
     0
  0
VISUALSTYLE
  5
A3
102
{ACAD_XDICTIONARY
360
3DBD
102
}
102
{ACAD_REACTORS
330
99
102
}
330
99
100
AcDbVisualStyle
  2
Realistic
 70
     8
 71
     2
 72
     2
 73
     0
 90
        2
 40
-0.6
 41
30.0
 62
     5
 63
     7
 74
     0
 91
        0
 64
     7
 65
   257
 75
     1
175
     1
 42
1.0
 92
        8
 66
   257
 43
1.0
 76
     1
 77
     6
 78
     2
 67
     7
 79
     3
170
     0
171
     0
290
     0
174
     0
 93
       13
 44
0.0
173
     0
291
     0
 45
0.0
1001
ACAD
1000
AcDbSavedByObjectVersion
1070
     0
  0
VISUALSTYLE
  5
182
102
{ACAD_XDICTIONARY
360
3DDB
102
}
102
{ACAD_REACTORS
330
99
102
}
330
99
100
AcDbVisualStyle
  2
Shaded
 70
    27
 71
     2
 72
     2
 73
     1
 90
        2
 40
-0.6
 41
30.0
 62
     5
 63
     7
 74
     0
 91
        4
 64
     7
 65
   257
 75
     1
175
     1
 42
1.0
 92
        8
 66
   257
 43
1.0
 76
     1
 77
     6
 78
     2
 67
     8
 79
     3
170
     0
171
     0
290
     0
174
     0
 93
        5
 44
0.0
173
     0
291
     0
 45
0.0
1001
ACAD
1000
AcDbSavedByObjectVersion
1070
     0
  0
VISUALSTYLE
  5
181
102
{ACAD_XDICTIONARY
360
3DD9
102
}
102
{ACAD_REACTORS
330
99
102
}
330
99
100
AcDbVisualStyle
  2
Shaded with edges
 70
    26
 71
     2
 72
     2
 73
     1
 90
        2
 40
-0.6
 41
30.0
 62
     5
 63
     7
 74
     1
 91
        2
 64
     7
 65
   257
 75
     2
175
     1
 42
1.0
 92
        8
 66
   257
 43
1.0
 76
     1
 77
     6
 78
     2
 67
     7
 79
     3
170
     0
171
     0
290
     0
174
     0
 93
        5
 44
0.0
173
     0
291
     0
 45
0.0
1001
ACAD
1000
AcDbSavedByObjectVersion
1070
     0
  0
VISUALSTYLE
  5
17E
102
{ACAD_XDICTIONARY
360
3DD3
102
}
102
{ACAD_REACTORS
330
99
102
}
330
99
100
AcDbVisualStyle
  2
Shades of Gray
 70
    23
 71
     2
 72
     2
 73
     3
 90
        0
 40
-0.6
 41
-30.0
 62
     5
 63
     7
 74
     2
 91
        2
 64
     7
 65
     7
 75
     1
175
     1
 42
40.0
 92
        8
 66
     7
 43
1.0
 76
     1
 77
     6
 78
     2
 67
     7
 79
     3
170
     0
171
     0
290
     0
174
     0
 93
        1
 44
0.0
173
     0
291
     0
 45
0.0
1001
ACAD
1000
AcDbSavedByObjectVersion
1070
     0
  0
VISUALSTYLE
  5
17F
102
{ACAD_XDICTIONARY
360
3DD5
102
}
102
{ACAD_REACTORS
330
99
102
}
330
99
100
AcDbVisualStyle
  2
Sketchy
 70
    24
 71
     1
 72
     2
 73
     2
 90
        0
 40
-0.6
 41
-30.0
 62
     5
 63
     7
 74
     2
 91
        2
 64
     7
 65
     7
 75
     1
175
     1
 42
40.0
 92
       11
 66
     7
 43
1.0
 76
     1
 77
     6
 78
     2
 67
     7
 79
     6
170
     0
171
     0
290
     0
174
     0
 93
        1
 44
0.0
173
     0
291
     0
 45
0.0
1001
ACAD
1000
AcDbSavedByObjectVersion
1070
     0
  0
VISUALSTYLE
  5
A6
102
{ACAD_XDICTIONARY
360
3DC3
102
}
102
{ACAD_REACTORS
330
99
102
}
330
99
100
AcDbVisualStyle
  2
Thicken
 70
    13
 71
     2
 72
     2
 73
     1
 90
        0
 40
-0.6
 41
-30.0
 62
     5
 63
     7
 74
     1
 91
        4
 64
     7
 65
   257
 75
     1
175
     1
 42
1.0
 92
       12
 66
     7
 43
1.0
 76
     1
 77
     6
 78
     2
 67
     7
 79
     5
170
     0
171
     0
290
     0
174
     0
 93
        1
 44
0.0
173
     0
291
     1
 45
0.0
1001
ACAD
1000
AcDbSavedByObjectVersion
1070
     0
  0
VISUALSTYLE
  5
A0
102
{ACAD_XDICTIONARY
360
3DB7
102
}
102
{ACAD_REACTORS
330
99
102
}
330
99
100
AcDbVisualStyle
  2
Wireframe
 70
     5
 71
     0
 72
     2
 73
     0
 90
        0
 40
-0.6
 41
-30.0
 62
     5
 63
     7
 74
     1
 91
        4
 64
     7
 65
   257
 75
     1
175
     1
 42
1.0
 92
        0
 66
   257
 43
1.0
 76
     1
 77
     6
 78
     2
 67
     7
 79
     3
170
     0
171
     0
290
     0
174
     0
 93
        1
 44
0.0
173
     0
291
     0
 45
0.0
1001
ACAD
1000
AcDbSavedByObjectVersion
1070
     0
  0
VISUALSTYLE
  5
180
102
{ACAD_XDICTIONARY
360
3DD7
102
}
102
{ACAD_REACTORS
330
99
102
}
330
99
100
AcDbVisualStyle
  2
X-Ray
 70
    25
 71
     2
 72
     2
 73
     1
 90
        1
 40
0.5
 41
-30.0
 62
     5
 63
     7
 74
     1
 91
        0
 64
     7
 65
   257
 75
     1
175
     1
 42
1.0
 92
        8
 66
     7
 43
1.0
 76
     1
 77
     6
 78
     2
 67
     7
 79
     3
170
     0
171
     0
290
     0
174
     0
 93
       13
 44
0.0
173
     0
291
     0
 45
0.0
1001
ACAD
1000
AcDbSavedByObjectVersion
1070
     0
  0
DICTIONARYVAR
  5
F0
102
{ACAD_REACTORS
330
66
102
}
330
66
100
DictionaryVariables
280
     0
  1
1:1
  0
DICTIONARYVAR
  5
EF
102
{ACAD_REACTORS
330
66
102
}
330
66
100
DictionaryVariables
280
     0
  1
STANDARD
  0
DICTIONARYVAR
  5
89
102
{ACAD_REACTORS
330
66
102
}
330
66
100
DictionaryVariables
280
     0
  1
STANDARD
  0
DICTIONARYVAR
  5
1B7
102
{ACAD_REACTORS
330
66
102
}
330
66
100
DictionaryVariables
280
     0
  1
Imperial24
  0
DICTIONARYVAR
  5
1B8
102
{ACAD_REACTORS
330
66
102
}
330
66
100
DictionaryVariables
280
     0
  1
Imperial24
  0
DICTIONARYVAR
  5
67
102
{ACAD_REACTORS
330
66
102
}
330
66
100
DictionaryVariables
280
     0
  1
2
  0
DICTIONARYVAR
  5
6B
102
{ACAD_REACTORS
330
66
102
}
330
66
100
DictionaryVariables
280
     0
  1
1
  0
DICTIONARYVAR
  5
3D52
102
{ACAD_REACTORS
330
66
102
}
330
66
100
DictionaryVariables
280
     0
  1
0
  0
DICTIONARYVAR
  5
14D
102
{ACAD_REACTORS
330
66
102
}
330
66
100
DictionaryVariables
280
     0
  1
0
  0
DICTIONARYVAR
  5
14E
102
{ACAD_REACTORS
330
66
102
}
330
66
100
DictionaryVariables
280
     0
  1
0
  0
DICTIONARYVAR
  5
3D50
102
{ACAD_REACTORS
330
66
102
}
330
66
100
DictionaryVariables
280
     0
  1
2
  0
DICTIONARYVAR
  5
3D4F
102
{ACAD_REACTORS
330
66
102
}
330
66
100
DictionaryVariables
280
     0
  1
1
  0
DICTIONARYVAR
  5
3D51
102
{ACAD_REACTORS
330
66
102
}
330
66
100
DictionaryVariables
280
     0
  1
127
  0
DICTIONARYVAR
  5
3D9D
102
{ACAD_REACTORS
330
66
102
}
330
66
100
DictionaryVariables
280
     0
  1
2
  0
DICTIONARY
  5
3DDF
330
1AC
100
AcDbDictionary
280
     1
281
     1
  3
ACAD_XREC_ROUNDTRIP
360
3DE0
  0
DICTIONARY
  5
3DA3
330
59
100
AcDbDictionary
280
     1
281
     1
  3
ACAD_XREC_ROUNDTRIP
360
3DA4
  0
DICTIONARY
  5
3DA5
330
5E
100
AcDbDictionary
280
     1
281
     1
  3
ACAD_XREC_ROUNDTRIP
360
3DA6
  0
DICTIONARY
  5
3DA1
330
22
100
AcDbDictionary
280
     1
281
     1
  3
ACAD_XREC_ROUNDTRIP
360
3DA2
  0
DICTIONARY
  5
188
330
97
100
AcDbDictionary
280
     1
281
     1
  3
ACAD_XREC_ROUNDTRIP
360
3DA9
  3
FBXASSET
360
189
  0
DICTIONARY
  5
186
330
96
100
AcDbDictionary
280
     1
281
     1
  3
ACAD_XREC_ROUNDTRIP
360
3DA8
  3
FBXASSET
360
187
  0
DICTIONARY
  5
110
330
98
100
AcDbDictionary
280
     1
281
     1
  3
ACAD_XREC_ROUNDTRIP
360
3DAA
  3
BUMPTILE
360
112
  3
DIFFUSETILE
360
111
  3
FBXASSET
360
18A
  3
OPACITYTILE
360
113
  3
REFLECTIONTILE
360
114
  0
DICTIONARY
  5
3DCB
330
D8
100
AcDbDictionary
280
     1
281
     1
  3
ACAD_XREC_ROUNDTRIP
360
3DCC
  0
DICTIONARY
  5
3DDD
330
1AA
100
AcDbDictionary
280
     1
281
     1
  3
ACAD_XREC_ROUNDTRIP
360
3DDE
  0
DICTIONARY
  5
104
330
87
100
AcDbDictionary
280
     1
281
     1
  3
ACAD_ROUNDTRIP_2008_TABLESTYLE_CELLSTYLEMAP
360
3D9E
  3
ACAD_XREC_ROUNDTRIP
360
3DA7
  0
DICTIONARY
  5
3DB5
330
9F
100
AcDbDictionary
280
     1
281
     1
  3
ACAD_XREC_ROUNDTRIP
360
3DB6
  0
DICTIONARY
  5
3DB3
330
9E
100
AcDbDictionary
280
     1
281
     1
  3
ACAD_XREC_ROUNDTRIP
360
3DB4
  0
DICTIONARY
  5
3DC1
330
A5
100
AcDbDictionary
280
     1
281
     1
  3
ACAD_XREC_ROUNDTRIP
360
3DC2
  0
DICTIONARY
  5
3DC9
330
A9
100
AcDbDictionary
280
     1
281
     1
  3
ACAD_XREC_ROUNDTRIP
360
3DCA
  0
DICTIONARY
  5
3DBB
330
A2
100
AcDbDictionary
280
     1
281
     1
  3
ACAD_XREC_ROUNDTRIP
360
3DBC
  0
DICTIONARY
  5
3DBF
330
A4
100
AcDbDictionary
280
     1
281
     1
  3
ACAD_XREC_ROUNDTRIP
360
3DC0
  0
DICTIONARY
  5
3DD1
330
175
100
AcDbDictionary
280
     1
281
     1
  3
ACAD_XREC_ROUNDTRIP
360
3DD2
  0
DICTIONARY
  5
3DC7
330
A8
100
AcDbDictionary
280
     1
281
     1
  3
ACAD_XREC_ROUNDTRIP
360
3DC8
  0
DICTIONARY
  5
3DAB
330
9A
100
AcDbDictionary
280
     1
281
     1
  3
ACAD_XREC_ROUNDTRIP
360
3DAC
  0
DICTIONARY
  5
3DAD
330
9B
100
AcDbDictionary
280
     1
281
     1
  3
ACAD_XREC_ROUNDTRIP
360
3DAE
  0
DICTIONARY
  5
3DAF
330
9C
100
AcDbDictionary
280
     1
281
     1
  3
ACAD_XREC_ROUNDTRIP
360
3DB0
  0
DICTIONARY
  5
3DB1
330
9D
100
AcDbDictionary
280
     1
281
     1
  3
ACAD_XREC_ROUNDTRIP
360
3DB2
  0
DICTIONARY
  5
3DB9
330
A1
100
AcDbDictionary
280
     1
281
     1
  3
ACAD_XREC_ROUNDTRIP
360
3DBA
  0
DICTIONARY
  5
3DCD
330
173
100
AcDbDictionary
280
     1
281
     1
  3
ACAD_XREC_ROUNDTRIP
360
3DCE
  0
DICTIONARY
  5
3DC5
330
A7
100
AcDbDictionary
280
     1
281
     1
  3
ACAD_XREC_ROUNDTRIP
360
3DC6
  0
DICTIONARY
  5
3DCF
330
174
100
AcDbDictionary
280
     1
281
     1
  3
ACAD_XREC_ROUNDTRIP
360
3DD0
  0
DICTIONARY
  5
3DBD
330
A3
100
AcDbDictionary
280
     1
281
     1
  3
ACAD_XREC_ROUNDTRIP
360
3DBE
  0
DICTIONARY
  5
3DDB
330
182
100
AcDbDictionary
280
     1
281
     1
  3
ACAD_XREC_ROUNDTRIP
360
3DDC
  0
DICTIONARY
  5
3DD9
330
181
100
AcDbDictionary
280
     1
281
     1
  3
ACAD_XREC_ROUNDTRIP
360
3DDA
  0
DICTIONARY
  5
3DD3
330
17E
100
AcDbDictionary
280
     1
281
     1
  3
ACAD_XREC_ROUNDTRIP
360
3DD4
  0
DICTIONARY
  5
3DD5
330
17F
100
AcDbDictionary
280
     1
281
     1
  3
ACAD_XREC_ROUNDTRIP
360
3DD6
  0
DICTIONARY
  5
3DC3
330
A6
100
AcDbDictionary
280
     1
281
     1
  3
ACAD_XREC_ROUNDTRIP
360
3DC4
  0
DICTIONARY
  5
3DB7
330
A0
100
AcDbDictionary
280
     1
281
     1
  3
ACAD_XREC_ROUNDTRIP
360
3DB8
  0
DICTIONARY
  5
3DD7
330
180
100
AcDbDictionary
280
     1
281
     1
  3
ACAD_XREC_ROUNDTRIP
360
3DD8
  0
XRECORD
  5
3DE0
102
{ACAD_REACTORS
330
3DDF
102
}
330
3DDF
100
AcDbXrecord
280
     1
102
DISPLAYNAME
  1
Imperial24
102
FLAGS
 90
        0
  0
XRECORD
  5
3DA4
102
{ACAD_REACTORS
330
3DA3
102
}
330
3DA3
100
AcDbXrecord
280
     1
102
SHADEPLOT
 70
     0
102
SHADEPLOTRESLEVEL
 70
     2
102
SHADEPLOTCUSTOMDPI
 70
   300
  0
XRECORD
  5
3DA6
102
{ACAD_REACTORS
330
3DA5
102
}
330
3DA5
100
AcDbXrecord
280
     1
102
SHADEPLOT
 70
     0
102
SHADEPLOTRESLEVEL
 70
     2
102
SHADEPLOTCUSTOMDPI
 70
   300
  0
XRECORD
  5
3DA2
102
{ACAD_REACTORS
330
3DA1
102
}
330
3DA1
100
AcDbXrecord
280
     1
102
SHADEPLOT
 70
     0
102
SHADEPLOTRESLEVEL
 70
     2
102
SHADEPLOTCUSTOMDPI
 70
   300
  0
XRECORD
  5
3DA9
102
{ACAD_REACTORS
330
188
102
}
330
188
100
AcDbXrecord
280
     1
102
MATERIAL
148
0.0
149
0.0
149
0.0
 93
        0
 94
       63
282
     0
 72
     1
 77
     1
171
     1
175
     1
179
     1
273
     0
  0
XRECORD
  5
189
102
{ACAD_REACTORS
330
188
102
}
330
188
100
AcDbXrecord
280
     1
 70
     1
 90
429727718
  1
508B35C9-AEE7-456F-BE74-D52651303AC6
310
504B03040A0000080000B670623B3DEE336E79000000790000001B0000006175746F6465736B2D64657369676E2D7061636B6167652E786D6C3C3F786D6C2076657273696F6E3D22312E302220656E636F64696E673D227574662D3822203F3E3C666F726D6174733E3C666F726D61743E687474703A2F2F736368656D612E
310
6175746F6465736B2E636F6D2F64657369676E2D7061636B6167652F323030393C2F666F726D61743E3C2F666F726D6174733E504B0304140006080800B670623BD486FD9CA0000000F4000000130000005B436F6E74656E745F54797065735D2E786D6C7D8EC10E82300C865F65E91D8A1E8C310C0EEA1BF002731658846E
310
D98AC1B77784ABF1D8FE5FBFBF75BBCE937A534CCEB38643598122B6FEE978D0B0485F9C41B54DDD7D022595594E1A469170414C76A4D9A4D207E29CF43ECE46F218070CC6BECC4078ACAA135ACF422C856C0E68EA1BF5669944DDD7BCDE7B1F8E415D77AECB980613C2E4AC91FC167A2B244592486606FC29C8FD7F045B9A
310
EF7053A7E60B504B0304140006080800B670623B28ED286BEB0000007C01000008000000636F72652E786D6C8D90416EC3201045AF82665B6183218D6D61A254764FD00B204C5C94182C03558F5F9C3852BBEB6A467FFE9B197D71FA9E6FE8CBACC17AD7012D0820E3B41FAD9B3A48F1826B40272956EFE32F1B20A766D3C1
310
268314D3EAD3B24BDABB685CCCAAF3A3D94515828980F42D371D04FD696655A814B3235C8B45E9AB9A4C419F5D8653B2237A1CB163DE672FD6AC209BF3C08E0D1B30EB19C3FC9D72FCC6EB231EFA33EDE96BDD341517E5064B11EDFCBCAF57A3A2194156843498524CAA0FCA5B7268F9E185D42D21A2DCEC7FA0B48CFF8492
310
759155FBBB0F2C80A4F991FB408A72CB22977B50B96EB9C91F504B0304140006080800B670623B55019EA25F0000007C00000007000000636E782E786D6C4DCB3B0E80201045D1AD90E915ED2CF8AC45050C11660C8261F98AB1B07AC9C97D42D718D865D3E909258CFD00CCE24AC6E326A164D74DC0B4128928FF32603847
310
2BA13128B1252AC747C6BAB984FC68F0B87FE8960A5C09FE86CFB69FBA01504B0304140006080800B670623B7BC41AC871010000D40300000C0000006662782F636F72652E786D6CC553ED6E8320147D15C2DF4501B56B6D90A64BBB27D80B50A5CE54C120983EFEAE1F4DD7A56BBA5FF3879273EEE59E7310BE393735EA95
310
ED2AA333CC428A91D2B9292A5D66D8BB63B0C26823B835C67D2BC348CB46657880B1E0A535BE9DA1DC68A7B403549B42CDA0EC3AE530CA6B5864B8CB3F552343E91D5474A7B095F949962A6421D0502778E72C0840D390E18DC5F170E664C205F7BE2A66B62A605A75AC94C522DDEEE3651AEF837817C741F2CE92E02D592D
310
83FD6ECB76EC7595A651C2C9D02CB8AB9A8BBADC2AE954814544691A3016D0E883256BBA58278B17BA5A53CAC9507ED3E4DBE2C9265F691747B3DCA9ADC382819091F8E1162272A8933DE82182932144F88C09DF060D8140C84E1EEA8B8F1340BDCA9DB1093085F157AA97B557309586747CD0EF0B4EA64E983A6E0EAEEFCE
310
889E9EF17847386AA94B30211D2C0FDE0D3AF9A4610EAD5536E8DD1969631B593F67E381C33F5157F17725E5A636F6BF1491F980C8FC7B90E13E8A2F504B0304140006080800B670623B70102A487D0000009D0000000B0000006662782F636E782E786D6C4DCCD10A83201886E15B91FFDC95A5C30335ACCDFB886521330D
310
A76397BF1A1DECE883878F57749FD5A3B74D2F17830472A901D9F088930B8B849267CC01754AA418F3DF0D5018572BE160506249B16C274D761E8BCFBB7A179E27F65CB39A0F14D396184C9921B81F34C3ACA1B4B99ABB6E6F062A25AA5F69DF23ACBE504B0304140006080800B670623B3610CA3329010000120200003100
310
00006662782F42384135303843342D343331462D343546312D424341352D3532343432364645413344462F636F72652E786D6C8D515B6EC32010BC0AE22B55850D0E446E848992B43E412FE000495162B07854397EA176A4F62F3F2C9A9D991D58BEBB8F37F0AD7D30CE76905418026DA553C65E3A98E219B510EC04F7CEC5
310
3F3408EC30EA0E16180A7EF12E4D0B249D8DDAC68C5AA7F4020E21E80881BCE54B0783FCD2E3500D296646B856D320AFC34557A4CAEDCC133C449F0380794839A138B47B86DB2345744D7A44594FD0E1B867883594369BFE63BF7EEF793D0B054FC9A8456E548E63CE46FB674D8A58F068C6477CE9F510B582A2C1F80D1182
310
70F349E816B32D65AFB8DD62CCEB42FF274A937A52948C8DEB66893BCB021484D7734370E5D2E9F608A3EF93F3119479ABA0E50B14B8C298119A43CCC4FCFCECB8A18B6388CEE7EF5D5D4F994BD86CBBA182D76543B9FCAE2FD7B24DF103504B0304140006080800B670623B1B8617914E0100003303000030000000666278
310
2F42384135303843342D343331462D343546312D424341352D3532343432364645413344462F636E782E786D6CD593C16EC32010447F0571AD6CE3D489D20813A9877E410FBD62D82434182CC055F3F75D1292E692438FBD206B7698593D61BEFD1E2DF982108D773D6D6B460938E5B571FB9ECE6957AD29D90A1EBC4F7736
310
4A9C1CA1A759A682EF839FA72269D8C9D92654AD71C72206887E0E0A22CAF926B15E498B01E0AA19451807D01A34B919F16B070157417138917400F2F6FA41FCF0092A45DEE414C19BDC21783E4BD39D891265658C3D8DEA00A3ACE59CBC8678ACB54CB26EEB6BD7839D7E9348BE70AD9C8321B9BCA7F9A4A26C542347DEE0
310
50F09802D22BA6749A800A394DD62899107273365E3C82CFC6A55557BC06C10774B7ABE7AEC3B0F34CF06446280E154026D0542C187BA9DAB6628BF7B6DBB0E5A65B3EB1F58631DE64BBE083F7B65CC218087E22CABB042E51D1F2268F1FE12B3EA24D40D63E9CFE00120194D60B9D5BC67FE6D39CDF37E20AF817881F504B
310
0304140006080800B670623BBFEF2E3B690500003C100000340000006662782F42384135303843342D343331462D343546312D424341352D3532343432364645413344462F6F626A656374732E786D6CAD575D739B3814FD2B0CFB0C98D84E931D4227B6938EA793B6534F3BFB90198F0099B001899144EAECAFDF231018B0
310
D37A3FFC609090EEE7B94757C1FB7D915B2F54C88CB31BDB7727B64559CC938CA53776A576CE956DBD0F03C1B9EA2DB32D460A7A63EB693B0C52C1ABD24C257447AA5C8D66EF177F5832A68CDA569C13296F6C193FD182B8A4523CA1F2D94D88226EBADBBBBEDB2C1C8A4D05299F46424B222853B014F30C52ACC6287F389C
310
D85E1878FA7B18E87FB36AFAF62AAFF667A83F635211161F291B8999FAB3D5DDC5FCDA99CF6653677679E13B8BFBC5CAF1DF4D27CBCBE5F2FAF6EE1A8AA51290642C117467871F101B91C581D77CEA2C36869F3229E68CD1B8F61F1ED6361B89092D294B90C78C4A68EB793D190E7D1D9BDEE7A91E1B95FDE9F3BCEAEFE809
310
6A6D6F9F7D4B79F4275C90E7A04248AA51D5C4C738DAE06F72885AC4796EBE65D22A88A22223B995679120E2D50EB1542F098381188D4EA111AE3DB043FF20AF6F2B4AE3D7D83D65E5AECA730D4D3BAC91BD05FEA992B565D95F549CD6069B90AB2A63EACA38A45E4B6A87D781574F86817E4C2FCCC72690D62E2729520E37
310
9BAF234797BAF6D62B3BFC781FED37BA1E4F2B2F052FA9501A3E80569BB8F6A9A364D4FA67654E6F803383981F82F21591FF84F23D9882BC896C3FDBCF8C162508933B2E0AE4C69DD43F6BD2BE38DDDBF10BF86CB4FA784D37F3AF16075E67EC9030DECA1FC0A55373F5DFF3378C591FA9BDF485C10B0A8C8BA909E5262639
310
A8E72163488806A595734C81CB77D1DE0ED7604A303B76913CEC0272F412782FF88EFF4636D8AA56DF7B322474C4B767303F625997056C7B032C473C592B36CEBD15F3F9FF5233B7ABCDC74D257624A60F8658567497B14CE1EC3C80B76FD02011038F9EE9EB0F2E12387A9C844D3F09855125116D1D731DF8B43D2CF4E0A0
310
79A020C6BE946BCE0B7EA1E1219331CD73C228AF5A2DDD31A4B1DA918CE91350854D40A71723140BFA92E94E62B0626016CEFA5864A50E5977E8753CEDBEE1CBB7F52780D20E17AF0BA0F5F9B02A3AD07DCC732EB6D1EBB661421BE0C39E21BABF0FE16D22EA6929407C8DE596724C88B749B6DB5512BC7B228ADFD7CB7EA6
310
3A22397E690BA8D5D8D4E40CEC8CDA23C2C0B7D5898640101CEC9C6D331CE328CB93CAFBBAC70A642DF70DF95155945B52F08AA973C23469FD69ADEF84F7BB18F983A8F8C90E37F5D35980B2139A1C523540813E824EF83448CF7C72B598CE97D7CEEDDDDD3B6736BFBC771677EF66CE6A7E7139F7A793E9EDF2B2B3A8B624
310
0CDA13AA5F8388264EC4A0129909F3B7F5A16CEDF08128E97D680ACA4B9BE7B7B58BB638F0B00700EF36AE8B32A705658A68F83EE897FC2B41573190D1CCAF0B92D233A47CFEB019D9809933F67DD1A5467F8CF69AD9A5AE859342D45355448C64F968A371DC2D596ADC6E43D93D1B466F877A64E2893E54F23C4B40388995
310
525E5005DA3983ED45412510D3EFCA13737B3863F74BD30F2A12E5B4B5E489A025CE25500DB855B11ACE5BBFA185D35DD48D8DC3CE7DC69F2944DB42AA6F6CF09BCA622ADD08C7A36E7C6AE18000BAB08E040135C2D21C9D75B3A91B77BB746C403F38018DFE6EC939DD92F16B40BC05294B9CDA035AAD6D330AE27FE4786B
310
8E45145EA34A75BE1C263A676A35A8ACC6297337400BF16C54EF515F3F77CB77EB3583889C754FFA29081AA98E2222ADEF05DA3E63D2EDEA8B8756C05A7FB6CABC4A91CBF325398202CC952E70A008A830324BA200D5E5EF8F5F04C75DB4B0EE3340E071C98B823333B83577596BF3849B69F2085AA0FAFA212F26BEFF5877
310
FDE622B28D88A42E49E43326DA82D31E8CB006401E1DA726059ECEC168F97A6599036306A135688F9AD2E61A6EA178F4CD51974A9F2CCB9F36FE5EBD14601068D9C3BF01504B0304140006080000B670623B000000000000000000000000350000006662782F42384135303843342D343331462D343546312D424341352D35
310
32343432364645413344462F76657274696365732E62696E504B0304140006080800B670623BF270F1330600000004000000360000006662782F42384135303843342D343331462D343546312D424341352D3532343432364645413344462F747269616E676C65732E62696E636660600000504B0304140006080000B67062
310
3B000000000000000000000000370000006662782F42384135303843342D343331462D343546312D424341352D3532343432364645413344462F617474726962757465732E62696E504B0304140006080800B670623B08DA0BD19000000041010000360000006662782F42384135303843342D343331462D343546312D4243
310
41352D3532343432364645413344462F6469726563746F72792E786D6C858F410AC3201045AF22B36F53E9A60B35CBEEBAE80D244E44489C6234F4F835464A48035D0DF398FF9F8AF63D0E6CC63039F212F8F9020C7D47C6792B21C5FE7403D62A1188E2E60C98D7234A5830286103A55745067B9D86B8A3CF9C7F90C11DE6
310
07FB144396D7B6A82D282E9A152AD114D5EF2CB866EEE831B8EEA07A7BB5A8D7D61A2BAAEB7FD5F70921FF497D00504B0304140006080800B670623B3B4606F3FE000000A00100003B0000006662782F42384135303843342D343331462D343546312D424341352D3532343432364645413344462F7265736F75726365732F
310
636F72652E786D6C8D504B6E833010BD0A9A6D65B08134808CA354A427E8052C332156828DFCA97AFC9A40A576D7CDCCE87D344F8F9FBEE647F689CE6B6B7A6039850C8DB2A336530F315C4903D94970676DF82583CCC8197B5861107C72362E3BA4AC096842428D1D7107A5F71820538F74F4E0D50D6799CB1892C2DFF345
310
AABB9C306779A2934E701F5C0A906D4FD609C2A1B7D129F4BCD858C163D4E3AED163FAA9AF1A1D88F67CA98E6D35906AA82A52BFB39ABCD5CD915C86331BD86BD3B665CD8BD52C78D0F34F46E550061C419494B6843142CB0F5677F4D0D58717DA7494F26295FF31C565FCA7296A13AA728FBBD93C0896823C09C18BB5AFB4
310
9E65A6BD762BBE01504B010214000A0000080000B670623B3DEE336E79000000790000001B00000000000000000000000000000000006175746F6465736B2D64657369676E2D7061636B6167652E786D6C504B01021400140006080800B670623BD486FD9CA0000000F40000001300000000000000000000000000B2000000
310
5B436F6E74656E745F54797065735D2E786D6C504B01021400140006080800B670623B28ED286BEB0000007C010000080000000000000000000000000083010000636F72652E786D6C504B01021400140006080800B670623B55019EA25F0000007C000000070000000000000000000000000094020000636E782E786D6C50
310
4B01021400140006080800B670623B7BC41AC871010000D40300000C00000000000000000000000000180300006662782F636F72652E786D6C504B01021400140006080800B670623B70102A487D0000009D0000000B00000000000000000000000000B30400006662782F636E782E786D6C504B01021400140006080800B6
310
70623B3610CA3329010000120200003100000000000000000000000000590500006662782F42384135303843342D343331462D343546312D424341352D3532343432364645413344462F636F72652E786D6C504B01021400140006080800B670623B1B8617914E010000330300003000000000000000000000000000D10600
310
006662782F42384135303843342D343331462D343546312D424341352D3532343432364645413344462F636E782E786D6C504B01021400140006080800B670623BBFEF2E3B690500003C10000034000000000000000000000000006D0800006662782F42384135303843342D343331462D343546312D424341352D35323434
310
32364645413344462F6F626A656374732E786D6C504B01021400140006080000B670623B0000000000000000000000003500000000000000000000000000280E00006662782F42384135303843342D343331462D343546312D424341352D3532343432364645413344462F76657274696365732E62696E504B010214001400
310
06080800B670623BF270F133060000000400000036000000000000000000000000007B0E00006662782F42384135303843342D343331462D343546312D424341352D3532343432364645413344462F747269616E676C65732E62696E504B01021400140006080000B670623B00000000000000000000000037000000000000
310
00000000000000D50E00006662782F42384135303843342D343331462D343546312D424341352D3532343432364645413344462F617474726962757465732E62696E504B01021400140006080800B670623B08DA0BD1900000004101000036000000000000000000000000002A0F00006662782F42384135303843342D3433
310
31462D343546312D424341352D3532343432364645413344462F6469726563746F72792E786D6C504B01021400140006080800B670623B3B4606F3FE000000A00100003B000000000000000000000000000E1000006662782F42384135303843342D343331462D343546312D424341352D3532343432364645413344462F72
310
65736F75726365732F636F72652E786D6C504B0506000000000E000E0080040000651100000000
  0
XRECORD
  5
3DA8
102
{ACAD_REACTORS
330
186
102
}
330
186
100
AcDbXrecord
280
     1
102
MATERIAL
148
0.0
149
0.0
149
0.0
 93
        0
 94
       63
282
     0
 72
     1
 77
     1
171
     1
175
     1
179
     1
273
     0
  0
XRECORD
  5
187
102
{ACAD_REACTORS
330
186
102
}
330
186
100
AcDbXrecord
280
     1
 70
     1
 90
429727718
  1
887D55A9-D0DD-414E-B741-A7DCD4DA2B4C
310
504B03040A0000080000B670623B3DEE336E79000000790000001B0000006175746F6465736B2D64657369676E2D7061636B6167652E786D6C3C3F786D6C2076657273696F6E3D22312E302220656E636F64696E673D227574662D3822203F3E3C666F726D6174733E3C666F726D61743E687474703A2F2F736368656D612E
310
6175746F6465736B2E636F6D2F64657369676E2D7061636B6167652F323030393C2F666F726D61743E3C2F666F726D6174733E504B0304140006080800B670623BD486FD9CA0000000F4000000130000005B436F6E74656E745F54797065735D2E786D6C7D8EC10E82300C865F65E91D8A1E8C310C0EEA1BF002731658846E
310
D98AC1B77784ABF1D8FE5FBFBF75BBCE937A534CCEB38643598122B6FEE978D0B0485F9C41B54DDD7D022595594E1A469170414C76A4D9A4D207E29CF43ECE46F218070CC6BECC4078ACAA135ACF422C856C0E68EA1BF5669944DDD7BCDE7B1F8E415D77AECB980613C2E4AC91FC167A2B244592486606FC29C8FD7F045B9A
310
EF7053A7E60B504B0304140006080800B670623BBC1638F5EC0000007C01000008000000636F72652E786D6C8D90416EC3201045AF82665B61836BE2D8C24471DB9CA01740401C94182C03558F5F9C3852BBEB6A467FFE9B197D7EF89E6EE8CB2CC17AD7032D0820E394D7D68D3DA478C67B4007C117EFE32F1B202727D3C3
310
2A83E0E3E2D3BC49CABB685CCCAAF3DA6CA20CC14440EA969B1E82BA98491632C5EC08D76296EA2A4753D06797E194AC468F2356E77DF66CCD02825543D50CACC62D39ED70FDC68EB8FD68F6F8787A6784342D1DDA1D2F5758F068A7E77DB518198D065111D2624A31A93E69DD11D6D5EC85EC3B4278B9DAFF4069D6FF8492
310
75F1B5DADE7D600104CD8FDC0782976B16B9DC83CA75CD4DFC00504B0304140006080800B670623B55019EA25F0000007C00000007000000636E782E786D6C4DCB3B0E80201045D1AD90E915ED2CF8AC45050C11660C8261F98AB1B07AC9C97D42D718D865D3E909258CFD00CCE24AC6E326A164D74DC0B4128928FF326038
310
472BA13128B1252AC747C6BAB984FC68F0B87FE8960A5C09FE86CFB69FBA01504B0304140006080800B670623B3586FFB671010000D40300000C0000006662782F636F72652E786D6CC553ED6E8320147D15C2DF4541A76D6D90A6DDD627D80B50A4CE54C120983EFEAE1F4DD7A55BBA5FF3879273EEE59E7310B6393735EA
310
95ED2AA3731C851423A5A5292A5DE6D8BB63B0C268C39935C67D29C3488B46E578803167A535BE9D2169B453DA01AA4DA16650749D7218C91A1639EEE4876A4428BC838AEE14B6429E44A9C228041AEA38EB9C0501681A32BC313F1ECE8C4C3867DE57C5CC56054CAB8E95B298A7F12E5EEED224C8E87E11242FE936C8DE96
310
AB60BB7F4D295D66D12E5B30323473E6AAE6A24E5A259C2A308F29CD82280A68FC1E256B9AAE93F489AED694323294DF34F9B678B0C957DA3DC7B3DCA9ADC33C022123F1CD2D44E450277AD04338234388F01913BE0D1A0281909D38D4171F27807A259DB1093085F157AA17B557309586747CD0CF0B46A64E983A6E0EAEEF
310
CE881F9EF1FB8E70D44297604238581EBC1B74B249C31C5AAB6CD0BB33D2C636A27ECCC62F0EFF445DC5DF95244D6DEC7F2922F30191F9F720C37DE49F504B0304140006080800B670623B4220A0FF7D0000009D0000000B0000006662782F636E782E786D6C4DCCD10A83201886E15B91FFDCE542CB0335D0EC3E6259C84A
310
C3E9D8E5AF46073BFAE0E1E315DD675BD1DBA5978F41C2FD4600B9F088930F8B849267CC01754AA418F3DF0D50183727E164506249B1EC174D6E1ECB9A0F5D7D785E68DB8151CD286E5A5363CA6B8A39E90D36D40E96B086F55A43A544F52B1D7B86D517504B0304140006080800B670623B2FA3FEDE290100001202000031
310
0000006662782F45374635344235342D363743322D343832342D383044432D4334454645303536354442422F636F72652E786D6C8D515B6EC32010BC0AE22B55850D2E386E848994D7097A0117488A1283C5A3CAF10BB523B57FF961D1ECCCECC0F2ED7DBC816FED8371B687A4C210682B9D32F6D2C314CFA883602BB8772E
310
FEA141608751F7B0C050F08B77695A20E96CD43666D43AA5177008414708E42D5F7A18E4971E876A483133C2B59A06791D2EBA22556E679EE021FA1C00CC43CA09C5717D6274C7286AD7FB06D1AEA1A8C3873DDAD3E3E98859CB0EBB1DAF67A1E02919B5C88DCA71CCD968FFAC49110B1ECDF8882FBD1EA256503418BF2342
310
106E3E08DD60B6A1EC15771B8C795DE8FF4469524F8A92B1F1AD59E2CEB20005E1F5DC105CB9F4797B84D1F7C9F908CABC55D0F2050A5C61CC1AD2F27A26E6E767C7962E8E213A9FBF7775FDCC5CC266DB960A5E970DE5F2BBBE5CCB36C50F504B0304140006080800B670623B1B8617914E01000033030000300000006662
310
782F45374635344235342D363743322D343832342D383044432D4334454645303536354442422F636E782E786D6CD593C16EC32010447F0571AD6CE3D489D20813A9877E410FBD62D82434182CC055F3F75D1292E692438FBD206B7698593D61BEFD1E2DF982108D773D6D6B460938E5B571FB9ECE6957AD29D90A1EBC4F77
310
364A9C1CA1A759A682EF839FA72269D8C9D92654AD71C72206887E0E0A22CAF926B15E498B01E0AA19451807D01A34B919F16B070157417138917400F2F6FA41FCF0092A45DEE414C19BDC21783E4BD39D891265658C3D8DEA00A3ACE59CBC8678ACB54CB26EEB6BD7839D7E9348BE70AD9C8321B9BCA7F9A4A26C542347DE
310
E050F09802D22BA6749A800A394DD62899107273365E3C82CFC6A55557BC06C10774B7ABE7AEC3B0F34CF06446280E154026D0542C187BA9DAB6628BF7B6DBB0E5A65B3EB1F58631DE64BBE083F7B65CC218087E22CABB042E51D1F2268F1FE12B3EA24D40D63E9CFE00120194D60B9D5BC67FE6D39CDF37E20AF817881F50
310
4B0304140006080800B670623B29652116630500003C100000340000006662782F45374635344235342D363743322D343832342D383044432D4334454645303536354442422F6F626A656374732E786D6CAD575D739B3814FD2B0CFB0C989834C90EA1639B24E3E9A6EDD4D3CE3E64C623834CD8006224913AFDF57B040203
310
B65BEF871F0C12D2FD3CF7E8CA7FBFCB33E3957291B2E2D674ED8969D02262715A24B76625B7D6B569BC0F7CCE98EC2D338D82E4F4D654D366E0279C55A59E8AE99654991CCDDECFFF3444440B6A1A514684B83545F44C7362934AB2988A173B2692D8C97667BB76B3702836E1A47C1E092D09A78584A5982F20C5688C7287
310
C389E904BEA3BE07BEFAD7ABA6A75739B53F43FD69212429A20365233153D70BEF2E2E6FAC4BCF9B5ADEBB0BD79ADFCF43CBBD9A4E16EF168B9BD9DD0D140BC921495BC2E9D60C1E101B9E46BED37CEA2CD6861F3329624541A3DA7F7858DBAC25C6B4A4458C3CA654405BCFEBC970E8AAD8F43E4FD558ABEC4F9FE7557F47
310
4F506B7BFBEC5BCA367FC105710E2AB8A00A554D7CB4A30DFE26FBA86D18CBF4B75418399194A72433B274C3097F33032C554B027F2046A1932B842B0FCCC0DDCBEBDB8AD2F835768F59B9ADB24C41D30C6A64AF817F2A456D59FA83F2E3DA60137255A585BCD60EC9B7929AC18DEFD49381AF1ED30BFDB109A4B1CD488294
310
C3CDE6EBC8D185AABD6568061FEE37BB95AAC7E3CA4BCE4ACAA5820FA0D526AE7DAA2869B5EE5999531BE0CC20E6FBA07C41E43FA27CF7A6206F3CDD793B4F6B919C1462CB788EDCD893FA674CDA17AB7B3B7C019F8D561FAEE966FED562DFE98C1D12C6A9FC015C2A35D7FF3D7FC398F591DA4B5FE0BFA2C0189FEA50AE22
310
92817A1ED3020951A03432862970F976B33383259812CC8E5D240BBA801CBCF8CE2BBEE3BF910DB6AAD5F79E05123AE2DB33981FB1ACCB02B69D00CB014FD68AB573A7627EF9BFD4CC2C5C7D58557C4B22FAA88925A4DBB44825CECE3D78FB060D1231F0E885BE7D673C86A3874958F593906B5502D1563157814FDAC3420D
310
F69A070A22EC4B98E23CFF171A1E5311D12C23056555ABA53B8614563B92D17D02AAB009E8F46284624E5F53D5490C560CCCC2591FF1B45421EB0EBD8EA7ED13BE7C5D7E0428CD60FEF60779EB13E6664FF711CB185F6FDED60D139A001FF60CD1FD6D086F1D51474901E26B2CB794A343BC8ED3EDB612E0DD2351FCB65CF4
310
33D511C9E14B5B40ADC6A6263DB0336A8F700DDF56271A024E70B0B3629DE21847591E55DED73D56206AB927E46FAABC5C939C55853C274C93D69FD6FA4E78BF8B11DF898C9ECD60553FAD39283BA6F18984AA23E8884F83F45C5F5F859797B31B2B9C84A1E5B9DE9D35BFF25C6B76152E422F9C5DCC3D847F5801ED09D5AF
310
41441327A25FF15487F9EB725FB666F048A4701E9A827292E6F97569A32DF61DEC01C0BB8DCBBCCC684E0B49147C1FD54BF685A0AB18C868E6973949E819523E3DAC463660E68C7D9F55A9D1EFA3BD7A76A16AE1A810F95CE59B82A4D968A376DC2E8B44BBDD86B27B368CDE0ED548C7137DA860591A83706223A12CA712B4
310
7306DBF39C0A20A6DF95C7FAF670C6EED7A61F946493D1D6926782963813403548A78AE470DEF80D2D9CEAA26E4D1C76F60BFE74219A06527D6B82DF641A51616F703CAAC6A7160E08A00BEB4810A0274592A1B36E3675E36E978A0DE80727A0D6DF2D39A75BD27E0D8837276589537B40ABB56D5A41F48F1C6FCD3188C4EB
310
A6929D2FFB89CE995A4D00AE813BDD032DC48B56BD437DFDDC2DD7AED70C2272D63DE9A72068A45A92F0A4BE17A8A06B9366E16707AD80B1FC649459952097E74BB23805982B55E0401150A165964402AA8BDF9F3E7386BB686EDCA780C0D382E5392BF460A6EFB2C6EA1937D3F809B440D5F5435C4C5CF7A9EEFAF54564BD
310
2182DA24162F98680B4E7930C21A0079709CEAEB99A372305ABE0C0D7D6078105A83F6A0296DAEE1068A47DD1C55A9F4C9B2FC69E3EFD44B81028E963DF81B504B0304140006080000B670623B000000000000000000000000350000006662782F45374635344235342D363743322D343832342D383044432D433445464530
310
3536354442422F76657274696365732E62696E504B0304140006080800B670623BF270F1330600000004000000360000006662782F45374635344235342D363743322D343832342D383044432D4334454645303536354442422F747269616E676C65732E62696E636660600000504B0304140006080000B670623B00000000
310
0000000000000000370000006662782F45374635344235342D363743322D343832342D383044432D4334454645303536354442422F617474726962757465732E62696E504B0304140006080800B670623B08DA0BD19000000041010000360000006662782F45374635344235342D363743322D343832342D383044432D4334
310
454645303536354442422F6469726563746F72792E786D6C858F410AC3201045AF22B36F53E9A60B35CBEEBAE80D244E44489C6234F4F835464A48035D0DF398FF9F8AF63D0E6CC63039F212F8F9020C7D47C6792B21C5FE7403D62A1188E2E60C98D7234A5830286103A55745067B9D86B8A3CF9C7F90C11DE607FB144396
310
D7B6A82D282E9A152AD114D5EF2CB866EEE831B8EEA07A7BB5A8D7D61A2BAAEB7FD5F70921FF497D00504B0304140006080800B670623B6378F24DFF000000A00100003B0000006662782F45374635344235342D363743322D343832342D383044432D4334454645303536354442422F7265736F75726365732F636F72652E
310
786D6C8D504B6E833010BD0A9A6D65B0094E42641C85B639412F6099496225D8C89FAAC7AF09546A77DDCC8CDE47F3F4C4F16B7C149FE88371B603565228D06A37187BED20C50BD9437194C23B177FC9A0B06AC40E6618A4B87A97A615D2CE46B431A3D60DB8822A048C50E8473E3A08FA86A32A558A5911EEE5A4F45D5DB1
310
6465A6B34E8A107D0E502C4FE609D26370C96B0CA25A58295232C3AA3143FE692E063D485EF7F5AEE71BD2D2F39634AFFC44DAF7DD9E9CCE6F9CD25DCBFA762BAAD92C4534E34F46ED51451C40D694B6843142EB0FD61C283F34FC85EE0F948A6A96FF31A569F8A729191B37F51A77B105902C0779125254735F793DCBCC7B
310
EE567E03504B010214000A0000080000B670623B3DEE336E79000000790000001B00000000000000000000000000000000006175746F6465736B2D64657369676E2D7061636B6167652E786D6C504B01021400140006080800B670623BD486FD9CA0000000F40000001300000000000000000000000000B20000005B436F6E
310
74656E745F54797065735D2E786D6C504B01021400140006080800B670623BBC1638F5EC0000007C010000080000000000000000000000000083010000636F72652E786D6C504B01021400140006080800B670623B55019EA25F0000007C000000070000000000000000000000000095020000636E782E786D6C504B010214
310
00140006080800B670623B3586FFB671010000D40300000C00000000000000000000000000190300006662782F636F72652E786D6C504B01021400140006080800B670623B4220A0FF7D0000009D0000000B00000000000000000000000000B40400006662782F636E782E786D6C504B01021400140006080800B670623B2F
310
A3FEDE290100001202000031000000000000000000000000005A0500006662782F45374635344235342D363743322D343832342D383044432D4334454645303536354442422F636F72652E786D6C504B01021400140006080800B670623B1B8617914E010000330300003000000000000000000000000000D2060000666278
310
2F45374635344235342D363743322D343832342D383044432D4334454645303536354442422F636E782E786D6C504B01021400140006080800B670623B29652116630500003C10000034000000000000000000000000006E0800006662782F45374635344235342D363743322D343832342D383044432D4334454645303536
310
354442422F6F626A656374732E786D6C504B01021400140006080000B670623B0000000000000000000000003500000000000000000000000000230E00006662782F45374635344235342D363743322D343832342D383044432D4334454645303536354442422F76657274696365732E62696E504B01021400140006080800
310
B670623BF270F13306000000040000003600000000000000000000000000760E00006662782F45374635344235342D363743322D343832342D383044432D4334454645303536354442422F747269616E676C65732E62696E504B01021400140006080000B670623B0000000000000000000000003700000000000000000000
310
000000D00E00006662782F45374635344235342D363743322D343832342D383044432D4334454645303536354442422F617474726962757465732E62696E504B01021400140006080800B670623B08DA0BD190000000410100003600000000000000000000000000250F00006662782F45374635344235342D363743322D34
310
3832342D383044432D4334454645303536354442422F6469726563746F72792E786D6C504B01021400140006080800B670623B6378F24DFF000000A00100003B00000000000000000000000000091000006662782F45374635344235342D363743322D343832342D383044432D4334454645303536354442422F7265736F75
310
726365732F636F72652E786D6C504B0506000000000E000E0080040000611100000000
  0
XRECORD
  5
3DAA
102
{ACAD_REACTORS
330
110
102
}
330
110
100
AcDbXrecord
280
     1
102
MATERIAL
148
0.0
149
0.0
149
0.0
 93
        0
 94
       63
282
     0
 72
     1
 77
     1
171
     1
175
     1
179
     1
273
     0
  0
XRECORD
  5
112
102
{ACAD_REACTORS
330
110
102
}
330
110
100
AcDbXrecord
280
     1
270
     1
271
     1
  0
XRECORD
  5
111
102
{ACAD_REACTORS
330
110
102
}
330
110
100
AcDbXrecord
280
     1
270
     1
271
     1
  0
XRECORD
  5
18A
102
{ACAD_REACTORS
330
110
102
}
330
110
100
AcDbXrecord
280
     1
 70
     0
 90
1778669749
  1
9BF507EE-FAF7-4A99-A33D-4EE51894BC40
310
504B03040A0000080000B670623B3DEE336E79000000790000001B0000006175746F6465736B2D64657369676E2D7061636B6167652E786D6C3C3F786D6C2076657273696F6E3D22312E302220656E636F64696E673D227574662D3822203F3E3C666F726D6174733E3C666F726D61743E687474703A2F2F736368656D612E
310
6175746F6465736B2E636F6D2F64657369676E2D7061636B6167652F323030393C2F666F726D61743E3C2F666F726D6174733E504B0304140006080800B670623BD486FD9CA0000000F4000000130000005B436F6E74656E745F54797065735D2E786D6C7D8EC10E82300C865F65E91D8A1E8C310C0EEA1BF002731658846E
310
D98AC1B77784ABF1D8FE5FBFBF75BBCE937A534CCEB38643598122B6FEE978D0B0485F9C41B54DDD7D022595594E1A469170414C76A4D9A4D207E29CF43ECE46F218070CC6BECC4078ACAA135ACF422C856C0E68EA1BF5669944DDD7BCDE7B1F8E415D77AECB980613C2E4AC91FC167A2B244592486606FC29C8FD7F045B9A
310
EF7053A7E60B504B0304140006080800B670623BCA089DFFEC0000007C01000008000000636F72652E786D6C8D90416E83301045AF62CDB632D8402020E32882F604BD80653BC44AB011B6AB1EBF262152BBEB6A467FFE9B197D76FA9EEFE84BAFDE38DB03CD08206DA553C64E3DC470C1474027CE56E7C22F1B202B66DDC3
310
260367D3EAE2B24BD2D9A06D48AA754AEFA2F05E0740F29E9A1EBCBCEA59642286E4F0B76C11F226269DD15797E0188D42CF2346A57DE662F40ABCAEC77628C6120F654571D50C04B7F5B9C1E3997CD4F550BE3745C3F20DE62C98F9755FAE5A04AD801784B498524C8A4F5A75E4D055873772EC0861F966FF03C545FD138A
310
C686B2D8DF7D621E384D8F3C069CE55B16A93C824A75CB8DFF00504B0304140006080800B670623B55019EA25F0000007C00000007000000636E782E786D6C4DCB3B0E80201045D1AD90E915ED2CF8AC45050C11660C8261F98AB1B07AC9C97D42D718D865D3E909258CFD00CCE24AC6E326A164D74DC0B4128928FF326038
310
472BA13128B1252AC747C6BAB984FC68F0B87FE8960A5C09FE86CFB69FBA01504B0304140006080800B670623B68FC0B7272010000D40300000C0000006662782F636F72652E786D6CC5535B6E833010BC8AE5DF0A6C1E8124328E22D29EA01770C0A128602363A31CBFCB234A53A555FA553EC09AD9F5CE8C31DB5DDA060D
310
D2F4B556190E7C8A9154852E6B5565D8D993B7C668C799D1DA7E29C3488956667884316795D1AE5BA0422B2B950554E9522EA0E87B69312A1A5864B82F3E642B7CE12C54F467BF13C55954D20F7CA0A18EB3DE1A1080E621E31BF3D3F1C2C88C73E65C5D2E6C5DC2B4FA544B8379921C36797888BC3C8A032F4E73EA6D927D
310
EA1DF6F42D49F2E8350D5346C666CE6CDD5ED515460A2B4BCC434A375E1078347C0FE22D5D6DE3D50B5D6F2965642CBF6B725DF96493AB958DC245EEDCD6631E809089F8E61622B2A81703E8219C913144F84C09DF070D8140C8561C9BAB8F3340832CAC363130A576376A108D933095FA747AD0CF0B46E64E983A6D0EAE1F
310
CE089F9EF1FB8E70D44255604258581E9D1D75B259C3125A278D37D80B52DAB4A279CEC62F0EFF44DDC43F9454E8469BFF5244960322CBEF41C6FBC83F01504B0304140006080800B670623B0F71DDB67E0000009D0000000B0000006662782F636E782E786D6C4DCCD10A83201886E15B91FFDCA54DB73F502386BB8F5816
310
32D3703976F9ABD1C18E3E78F87855FB990379BBFCF2296AE02706C4C5471A7C9C349475A408A4352AA7B4FEDD80C47E761A7606A3A69CCA72D0E0C6BE8475D3E0E3F3409428EA6B27A84079A782899AA2EC1A7AE3ECCC2FD858CB2D544655BFD2B67BD87C01504B0304140006080800B670623BE134B4FB28010000120200
310
00310000006662782F38353834323741342D343835462D343034322D383541392D4331303331363839454531452F636F72652E786D6C8D515B6EC32010BC0AE22B55850D0EA424C24451959EA0172086A42831583CAA1CBF503B52FB971F16CDCECC0EACD8DFC71BF836215AEF7A481A0C817183D7D65D7A98D3197108F652
310
04EFD31F1A044E8DA6871586525C82CFD3020DDE25E352419DD76601558C264130DCCAA58771F832A36A544E8511AFCDA486ABBA988634A55D7852C4144A00300FA927949C71DABD1D28A29C7D208A6987383B6CD13BC16BB2E1DBE3911C453B0BA5C8D9EA456E758963CFD684674DAA588A64C747FC2118958C86B2C3788B
310
0841B8FB247487D98EB257CC77188BB6D2FF89F2A49F1465EBD2BA5BE2CEB2082511EDDC9042FB7CBA3DC298FBE4430275DE2A9AE1054ADC60CC08E3A29D89E5F9C5714317C7987C28DFBBBA9E0A97B0D97643A568EB864AF95D5FA9759BF207504B0304140006080800B670623B1B8617914E010000330300003000000066
310
62782F38353834323741342D343835462D343034322D383541392D4331303331363839454531452F636E782E786D6CD593C16EC32010447F0571AD6CE3D489D20813A9877E410FBD62D82434182CC055F3F75D1292E692438FBD206B7698593D61BEFD1E2DF982108D773D6D6B460938E5B571FB9ECE6957AD29D90A1EBC4F
310
77364A9C1CA1A759A682EF839FA72269D8C9D92654AD71C72206887E0E0A22CAF926B15E498B01E0AA19451807D01A34B919F16B070157417138917400F2F6FA41FCF0092A45DEE414C19BDC21783E4BD39D891265658C3D8DEA00A3ACE59CBC8678ACB54CB26EEB6BD7839D7E9348BE70AD9C8321B9BCA7F9A4A26C542347
310
DEE050F09802D22BA6749A800A394DD62899107273365E3C82CFC6A55557BC06C10774B7ABE7AEC3B0F34CF06446280E154026D0542C187BA9DAB6628BF7B6DBB0E5A65B3EB1F58631DE64BBE083F7B65CC218087E22CABB042E51D1F2268F1FE12B3EA24D40D63E9CFE00120194D60B9D5BC67FE6D39CDF37E20AF817881F
310
504B0304140006080800B670623B5933D422630500003B100000340000006662782F38353834323741342D343835462D343034322D383541392D4331303331363839454531452F6F626A656374732E786D6CAD575B6FA33814FE2B887D0642934E9B156594264D158D3A534DD4D13E548A0C38942D60649B4EBABF7E3F8321
310
40924EF6928780CDF1B97EE762EFF32E4B8D37CA45C2F21BD3B547A641F39045491EDF98A5DC5AD7A6F1D9F73863B243661A39C9E88DA9B64DDF8B392B0BBD15D12D295339D85DDEFE618890E6D434C2940871638AF08566C426A5641115AF764424B1E3EDCE76ED9AB0CF36E6A47819302D08A7B984A6D8CFC1C5A89572FB
310
CB91E9F89EA3BEFB9EFAD754E3D3544E654F5F7E920B49F2F040D880CDD89D2CEE2E2EA7D6E56432B6269F2E5CEB7679BBB0DCABF168FE693E9FCEEEA6102C240727AD09A75BD3BF876F78127A4EFDA9D5582B7E4CA590E5390D2BFB6161A5B3E618D182E611E2985001691DAB47FDA5AB7CD3F93C566B2DB2BB7D9E55DD13
310
1D468DEECDB3AB290BFE8409E21C54704115AA6AFF68436BFC8DF65E0B184BF5B74418199194272435D224E084BF9B3E481589EFF5D828747285706581E9BB7B7E5D5D911ABFC6EE312DB7659A2A689A7E85EC0DF04FA5A8344BFEA2FCB834E8845895492EAFB541F2BDA0A63FF59C6AD3F7D4637CA13FD68E34B629891172
310
98597F1D183A57B9B75A98FE9765B05BAB7C3C2EBCE0ACA05C2AF8005A4DE09AA7F29216EB9E15397500C6F47CBE77CA7778FE2BD277AF0AE2C693DD6437D1522427B9D8329E2136F6A8FA19A3E6C56ADF0E5F50CF06D48734EDCEBF22F69C56D97EC138153F804B85E6FABFC7AFEFB32E523BE1F3BD372418E363EDCA7548
310
52949E8724474014288D94610BB57C1BEC4C7F854A89CA8E5324F55B871CBC78CE1BBEE3BFE68D6A5589EF3C730474506FCFA8FCF0659516D0ED04580EEA6425581B77CAE797FF4BCECC16EB2FEB926F49481F746159D06D922712BD730FDEAE42BD40F42C7AA5EF3F198F60E86110D6DD20645A9480B795CF95E3E3A659A8
310
C55E724F408873315335CFFB8584874484344D494E59D94869DB90C26A5B64F49C802CAC1D3ABE18A098D3B7444D123D8A9E5AE8F5214F0AE5B2B6E9B575DA3E61CBD3EA2B4009FA940524DD1305FB6A1FB294F14DF0BEA90BA109ECE1481FDC3FFAE8D60E75141700BE82725371B4873751B2DD960265F788137FACE6DD40
310
B575E4F0A5C99F46629D92131467A41EE11ABD8D4CCC039CA0AFB37C93A08B232B8F0AEFCA1E0A1015DF13FC83322B362463652ECF71D3A8B1A7D1BE65DE1D62C44F22C317D35F574FEB16153BA2D13E543D10A80E74C4A65E78A6B7CBCBD1D5DD9DB59C2DAFACC96C3AB566E3F1C29ADCDD5DBAD7D3C9ED7C822ED74F80A6
310
41755310DE4443F44A9E68373FADF6596BFA0F440AE7BECE2727AE9F4F2B1B53B1E7E00CF0DD1E5C65454A339A4BA2D0FBA05ED2EF0443458F47BDBFCA484CCFE0F2ED7E3DD0013B679C7B5499467F0ECEEADDB9CA85A34CE44B99053949D2C1416DB85DE4B136BB7165FBAC0B7AB3542BED4F8CA182A549847A1319316519
310
95A83A67147B9E5101C47487F2485F1ECE38FD568F839204296D3479219888530154036E6528FBFBC66F98E0D4107563A2D7D9AFF8D389681A08F58D89F22693900A3B407754734FC51C10C010D6D640809EE4718AC1BA3ED4AEDB53CA37283F68805A7E4B72CEB0A4EDEAD5DD8C14059A76AFAA56BA6901E13F32BC51C720
310
12AF41295B5BF61BAD3195181FB506E6B40F4C10AF5AF40EF9F5B159AE5DD1F43C72D635E94310D45C2D49785C5D0B94D3B54AB3C5A38349C0587D338AB48C11CBF339599C02CCA54A70A008A8D03C0B2201D5F9EFCF8F9CE12A9A19CB0410789EB32C63B95ECCF455D658BFE0621A3DA32C5075FB101723D77DAE867E7D0F
310
D90444509B44E2151B4DC2290B065803200FBAA9BE9D392A0603F2D5C2D00D6302A615680F66D2FA166E2079D4C551A54AB758161FCEFD4E450A14704CECFEDF504B0304140006080000B670623B000000000000000000000000350000006662782F38353834323741342D343835462D343034322D383541392D4331303331
310
363839454531452F76657274696365732E62696E504B0304140006080800B670623BF270F1330600000004000000360000006662782F38353834323741342D343835462D343034322D383541392D4331303331363839454531452F747269616E676C65732E62696E636660600000504B0304140006080000B670623B000000
310
000000000000000000370000006662782F38353834323741342D343835462D343034322D383541392D4331303331363839454531452F617474726962757465732E62696E504B0304140006080800B670623B08DA0BD19000000041010000360000006662782F38353834323741342D343835462D343034322D383541392D43
310
31303331363839454531452F6469726563746F72792E786D6C858F410AC3201045AF22B36F53E9A60B35CBEEBAE80D244E44489C6234F4F835464A48035D0DF398FF9F8AF63D0E6CC63039F212F8F9020C7D47C6792B21C5FE7403D62A1188E2E60C98D7234A5830286103A55745067B9D86B8A3CF9C7F90C11DE607FB1443
310
96D7B6A82D282E9A152AD114D5EF2CB866EEE831B8EEA07A7BB5A8D7D61A2BAAEB7FD5F70921FF497D00504B0304140006080800B670623BD9A3B367FE000000A00100003B0000006662782F38353834323741342D343835462D343034322D383541392D4331303331363839454531452F7265736F75726365732F636F7265
310
2E786D6C8D504B6E833010BD0A9A6D65B01D0201194711694FD00B586642AD043BF2A7EAF16B122AB5BB6E6646EFA3797AE2F8B5DC8A4FF4C1383B002B291468B59B8C9D0748F1420E501CA5F0CEC55F3228AC5A708015062966EFD27D83B4B3116DCCA875136EA00A012314FA968F0182FEC045952AC5AC08D7F2AEF455CD
310
58B232D3592745883E07289E4FD609D26370C96B0CA27AB252A464A64D63A6FCD35C0C7A904D73EE467EE664DCD58CD4ED4849D79C5A723ED1B7A61977AF2D6F45B59AA58866F9C9A83DAA8813484E6947182394BFB3BAA7FBBEDEBFD0434FA9A856F91F53BA4FFF342563E38E6F719FB60092E5200F428A6AED2BAF479979
310
AFDDCA6F504B010214000A0000080000B670623B3DEE336E79000000790000001B00000000000000000000000000000000006175746F6465736B2D64657369676E2D7061636B6167652E786D6C504B01021400140006080800B670623BD486FD9CA0000000F40000001300000000000000000000000000B20000005B436F6E
310
74656E745F54797065735D2E786D6C504B01021400140006080800B670623BCA089DFFEC0000007C010000080000000000000000000000000083010000636F72652E786D6C504B01021400140006080800B670623B55019EA25F0000007C000000070000000000000000000000000095020000636E782E786D6C504B010214
310
00140006080800B670623B68FC0B7272010000D40300000C00000000000000000000000000190300006662782F636F72652E786D6C504B01021400140006080800B670623B0F71DDB67E0000009D0000000B00000000000000000000000000B50400006662782F636E782E786D6C504B01021400140006080800B670623BE1
310
34B4FB280100001202000031000000000000000000000000005C0500006662782F38353834323741342D343835462D343034322D383541392D4331303331363839454531452F636F72652E786D6C504B01021400140006080800B670623B1B8617914E010000330300003000000000000000000000000000D3060000666278
310
2F38353834323741342D343835462D343034322D383541392D4331303331363839454531452F636E782E786D6C504B01021400140006080800B670623B5933D422630500003B10000034000000000000000000000000006F0800006662782F38353834323741342D343835462D343034322D383541392D4331303331363839
310
454531452F6F626A656374732E786D6C504B01021400140006080000B670623B0000000000000000000000003500000000000000000000000000240E00006662782F38353834323741342D343835462D343034322D383541392D4331303331363839454531452F76657274696365732E62696E504B01021400140006080800
310
B670623BF270F13306000000040000003600000000000000000000000000770E00006662782F38353834323741342D343835462D343034322D383541392D4331303331363839454531452F747269616E676C65732E62696E504B01021400140006080000B670623B0000000000000000000000003700000000000000000000
310
000000D10E00006662782F38353834323741342D343835462D343034322D383541392D4331303331363839454531452F617474726962757465732E62696E504B01021400140006080800B670623B08DA0BD190000000410100003600000000000000000000000000260F00006662782F38353834323741342D343835462D34
310
3034322D383541392D4331303331363839454531452F6469726563746F72792E786D6C504B01021400140006080800B670623BD9A3B367FE000000A00100003B000000000000000000000000000A1000006662782F38353834323741342D343835462D343034322D383541392D4331303331363839454531452F7265736F75
310
726365732F636F72652E786D6C504B0506000000000E000E0080040000611100000000
  0
XRECORD
  5
113
102
{ACAD_REACTORS
330
110
102
}
330
110
100
AcDbXrecord
280
     1
270
     1
271
     1
  0
XRECORD
  5
114
102
{ACAD_REACTORS
330
110
102
}
330
110
100
AcDbXrecord
280
     1
270
     1
271
     1
  0
XRECORD
  5
3DCC
102
{ACAD_REACTORS
330
3DCB
102
}
330
3DCB
100
AcDbXrecord
280
     1
102
ACAD_ROUNDTRIP_2012_MLEADER_STYLE
298
     1
  0
XRECORD
  5
3DDE
102
{ACAD_REACTORS
330
3DDD
102
}
330
3DDD
100
AcDbXrecord
280
     1
102
DISPLAYNAME
  1
Imperial24
102
FLAGS
 90
        0
  0
CELLSTYLEMAP
  5
3D9E
102
{ACAD_REACTORS
330
104
102
}
330
104
100
AcDbCellStyleMap
 90
        3
300
CELLSTYLE
  1
TABLEFORMAT_BEGIN
 90
        5
170
     1
 91
        0
 92
    32768
 62
   257
 93
        1
300
CONTENTFORMAT
  1
CONTENTFORMAT_BEGIN
 90
        0
 91
        0
 92
      512
 93
        0
300

 40
0.0
140
1.0
 94
        5
 62
     0
340
11
144
0.25
309
CONTENTFORMAT_END
171
     1
301
MARGIN
  1
CELLMARGIN_BEGIN
 40
0.06
 40
0.06
 40
0.06
 40
0.06
 40
0.18
 40
0.18
309
CELLMARGIN_END
 94
        6
 95
        1
302
GRIDFORMAT
  1
GRIDFORMAT_BEGIN
 90
        0
 91
        1
 62
     0
 92
       -2
340
0
 93
        0
 40
0.045
309
GRIDFORMAT_END
 95
        2
302
GRIDFORMAT
  1
GRIDFORMAT_BEGIN
 90
        0
 91
        1
 62
     0
 92
       -2
340
0
 93
        0
 40
0.045
309
GRIDFORMAT_END
 95
        4
302
GRIDFORMAT
  1
GRIDFORMAT_BEGIN
 90
        0
 91
        1
 62
     0
 92
       -2
340
0
 93
        0
 40
0.045
309
GRIDFORMAT_END
 95
        8
302
GRIDFORMAT
  1
GRIDFORMAT_BEGIN
 90
        0
 91
        1
 62
     0
 92
       -2
340
0
 93
        0
 40
0.045
309
GRIDFORMAT_END
 95
       16
302
GRIDFORMAT
  1
GRIDFORMAT_BEGIN
 90
        0
 91
        1
 62
     0
 92
       -2
340
0
 93
        0
 40
0.045
309
GRIDFORMAT_END
 95
       32
302
GRIDFORMAT
  1
GRIDFORMAT_BEGIN
 90
        0
 91
        1
 62
     0
 92
       -2
340
0
 93
        0
 40
0.045
309
GRIDFORMAT_END
309
TABLEFORMAT_END
  1
CELLSTYLE_BEGIN
 90
        1
 91
        1
300
_TITLE
309
CELLSTYLE_END
300
CELLSTYLE
  1
TABLEFORMAT_BEGIN
 90
        5
170
     1
 91
        0
 92
        0
 62
   257
 93
        1
300
CONTENTFORMAT
  1
CONTENTFORMAT_BEGIN
 90
        0
 91
        0
 92
      512
 93
        0
300

 40
0.0
140
1.0
 94
        5
 62
     0
340
11
144
0.18
309
CONTENTFORMAT_END
171
     1
301
MARGIN
  1
CELLMARGIN_BEGIN
 40
0.06
 40
0.06
 40
0.06
 40
0.06
 40
0.18
 40
0.18
309
CELLMARGIN_END
 94
        6
 95
        1
302
GRIDFORMAT
  1
GRIDFORMAT_BEGIN
 90
        0
 91
        1
 62
     0
 92
       -2
340
0
 93
        0
 40
0.045
309
GRIDFORMAT_END
 95
        2
302
GRIDFORMAT
  1
GRIDFORMAT_BEGIN
 90
        0
 91
        1
 62
     0
 92
       -2
340
0
 93
        0
 40
0.045
309
GRIDFORMAT_END
 95
        4
302
GRIDFORMAT
  1
GRIDFORMAT_BEGIN
 90
        0
 91
        1
 62
     0
 92
       -2
340
0
 93
        0
 40
0.045
309
GRIDFORMAT_END
 95
        8
302
GRIDFORMAT
  1
GRIDFORMAT_BEGIN
 90
        0
 91
        1
 62
     0
 92
       -2
340
0
 93
        0
 40
0.045
309
GRIDFORMAT_END
 95
       16
302
GRIDFORMAT
  1
GRIDFORMAT_BEGIN
 90
        0
 91
        1
 62
     0
 92
       -2
340
0
 93
        0
 40
0.045
309
GRIDFORMAT_END
 95
       32
302
GRIDFORMAT
  1
GRIDFORMAT_BEGIN
 90
        0
 91
        1
 62
     0
 92
       -2
340
0
 93
        0
 40
0.045
309
GRIDFORMAT_END
309
TABLEFORMAT_END
  1
CELLSTYLE_BEGIN
 90
        2
 91
        1
300
_HEADER
309
CELLSTYLE_END
300
CELLSTYLE
  1
TABLEFORMAT_BEGIN
 90
        5
170
     1
 91
        0
 92
        0
 62
   257
 93
        1
300
CONTENTFORMAT
  1
CONTENTFORMAT_BEGIN
 90
        0
 91
        0
 92
      512
 93
        0
300

 40
0.0
140
1.0
 94
        2
 62
     0
340
11
144
0.18
309
CONTENTFORMAT_END
171
     1
301
MARGIN
  1
CELLMARGIN_BEGIN
 40
0.06
 40
0.06
 40
0.06
 40
0.06
 40
0.18
 40
0.18
309
CELLMARGIN_END
 94
        6
 95
        1
302
GRIDFORMAT
  1
GRIDFORMAT_BEGIN
 90
        0
 91
        1
 62
     0
 92
       -2
340
0
 93
        0
 40
0.045
309
GRIDFORMAT_END
 95
        2
302
GRIDFORMAT
  1
GRIDFORMAT_BEGIN
 90
        0
 91
        1
 62
     0
 92
       -2
340
0
 93
        0
 40
0.045
309
GRIDFORMAT_END
 95
        4
302
GRIDFORMAT
  1
GRIDFORMAT_BEGIN
 90
        0
 91
        1
 62
     0
 92
       -2
340
0
 93
        0
 40
0.045
309
GRIDFORMAT_END
 95
        8
302
GRIDFORMAT
  1
GRIDFORMAT_BEGIN
 90
        0
 91
        1
 62
     0
 92
       -2
340
0
 93
        0
 40
0.045
309
GRIDFORMAT_END
 95
       16
302
GRIDFORMAT
  1
GRIDFORMAT_BEGIN
 90
        0
 91
        1
 62
     0
 92
       -2
340
0
 93
        0
 40
0.045
309
GRIDFORMAT_END
 95
       32
302
GRIDFORMAT
  1
GRIDFORMAT_BEGIN
 90
        0
 91
        1
 62
     0
 92
       -2
340
0
 93
        0
 40
0.045
309
GRIDFORMAT_END
309
TABLEFORMAT_END
  1
CELLSTYLE_BEGIN
 90
        3
 91
        2
300
_DATA
309
CELLSTYLE_END
  0
XRECORD
  5
3DA7
102
{ACAD_REACTORS
330
104
102
}
330
104
100
AcDbXrecord
280
     1
102
ACAD_ROUNDTRIP_PRE2007_TABLESTYLE
 90
      512
 91
        0
  1

 92
      512
 93
        0
  2

 94
      512
 95
        0
  3

  0
XRECORD
  5
3DB6
102
{ACAD_REACTORS
330
3DB5
102
}
330
3DB5
100
AcDbXrecord
280
     1
102
RTVSPost2010Prop28
280
     1
102
RTVSPost2010PropOp28
 70
     1
102
RTVSPost2010Prop29
280
     1
102
RTVSPost2010PropOp29
 70
     1
102
RTVSPost2010Prop30
280
     0
102
RTVSPost2010PropOp30
 70
     1
102
RTVSPost2010Prop31
280
     0
102
RTVSPost2010PropOp31
 70
     1
102
RTVSPost2010Prop32
280
     0
102
RTVSPost2010PropOp32
 70
     1
102
RTVSPost2010Prop33
280
     0
102
RTVSPost2010PropOp33
 70
     1
102
RTVSPost2010Prop34
280
     0
102
RTVSPost2010PropOp34
 70
     1
102
RTVSPost2010Prop35
280
     0
102
RTVSPost2010PropOp35
 70
     1
102
RTVSPost2010Prop36
280
     0
102
RTVSPost2010PropOp36
 70
     1
102
RTVSPost2010Prop37
 90
       50
102
RTVSPost2010PropOp37
 70
     1
102
RTVSPost2010Prop38
140
0.0
102
RTVSPost2010PropOp38
 70
     1
102
RTVSPost2010Prop39
140
1.0
102
RTVSPost2010PropOp39
 70
     1
102
RTVSPost2010Prop40
 90
        0
102
RTVSPost2010PropOp40
 70
     1
102
RTVSPost2010Prop41ColorIndex
 90
       18
102
RTVSPost2010Prop41ColorRGB
 90
        0
102
RTVSPost2010PropOp41
 70
     1
102
RTVSPost2010Prop42
 90
       50
102
RTVSPost2010PropOp42
 70
     1
102
RTVSPost2010Prop43
 90
        3
102
RTVSPost2010PropOp43
 70
     1
102
RTVSPost2010Prop44ColorIndex
 90
        5
102
RTVSPost2010Prop44ColorRGB
 90
      255
102
RTVSPost2010PropOp44
 70
     1
102
RTVSPost2010Prop45
280
     0
102
RTVSPost2010PropOp45
 70
     1
102
RTVSPost2010Prop46
 90
       50
102
RTVSPost2010PropOp46
 70
     1
102
RTVSPost2010Prop47
 90
       50
102
RTVSPost2010PropOp47
 70
     1
102
RTVSPost2010Prop48
 90
       50
102
RTVSPost2010PropOp48
 70
     1
102
RTVSPost2010Prop49
280
     0
102
RTVSPost2010PropOp49
 70
     1
102
RTVSPost2010Prop50
 90
       50
102
RTVSPost2010PropOp50
 70
     1
102
RTVSPost2010Prop51ColorIndex
 90
      256
102
RTVSPost2010Prop51ColorRGB
 90
-16777216
102
RTVSPost2010PropOp51
 70
     0
102
RTVSPost2010Prop52
140
1.0
102
RTVSPost2010PropOp52
 70
     0
102
RTVSPost2010Prop53
 90
        2
102
RTVSPost2010PropOp53
 70
     1
102
RTVSPost2010Prop54
  1
strokes_ogs.tif
102
RTVSPost2010PropOp54
 70
     1
102
RTVSPost2010Prop55
280
     0
102
RTVSPost2010PropOp55
 70
     1
102
RTVSPost2010Prop56
140
1.0
102
RTVSPost2010PropOp56
 70
     1
102
RTVSPost2010Prop57
140
1.0
102
RTVSPost2010PropOp57
 70
     1
102
RTVSPropertyOp0
 70
     1
102
RTVSPropertyOp1
 70
     1
102
RTVSPropertyOp2
 70
     1
102
RTVSPropertyOp3
 70
     1
102
RTVSPropertyOp4
 70
     1
102
RTVSPropertyOp5
 70
     1
102
RTVSPropertyOp6
 70
     1
102
RTVSPropertyOp7
 70
     1
102
RTVSPropertyOp8
 70
     1
102
RTVSPropertyOp9
 70
     1
102
RTVSPropertyOp10
 70
     1
102
RTVSPropertyOp11
 70
     1
102
RTVSPropertyOp12
 70
     1
102
RTVSPropertyOp13
 70
     1
102
RTVSPropertyOp14
 70
     1
102
RTVSPropertyOp15
 70
     1
102
RTVSPropertyOp16
 70
     1
102
RTVSPropertyOp17
 70
     1
102
RTVSPropertyOp18
 70
     1
102
RTVSPropertyOp19
 70
     1
102
RTVSPropertyOp20
 70
     1
102
RTVSPropertyOp21
 70
     1
102
RTVSPropertyOp22
 70
     1
102
RTVSPropertyOp23
 70
     1
102
RTVSPropertyOp24
 70
     1
102
RTVSPropertyOp25
 70
     1
102
RTVSPropertyOp26
 70
     1
102
RTVSPropertyOp27
 70
     1
102
RTVSPropertyOp28
 70
     1
102
RTVSPropertyOp29
 70
     1
102
RTVSPropertyOp30
 70
     1
102
RTVSPropertyOp31
 70
     1
102
RTVSPropertyOp32
 70
     1
102
RTVSPropertyOp33
 70
     1
102
RTVSPropertyOp34
 70
     1
102
RTVSPropertyOp35
 70
     1
102
RTVSPropertyOp36
 70
     1
102
RTVSPropertyOp37
 70
     1
102
RTVSPropertyOp38
 70
     1
102
RTVSPropertyOp39
 70
     1
102
RTVSPropertyOp40
 70
     1
102
RTVSPropertyOp41
 70
     1
102
RTVSPropertyOp42
 70
     1
102
RTVSPropertyOp43
 70
     1
102
RTVSPropertyOp44
 70
     1
102
RTVSPropertyOp45
 70
     1
102
RTVSPropertyOp46
 70
     1
102
RTVSPropertyOp47
 70
     1
102
RTVSPropertyOp48
 70
     1
102
RTVSPropertyOp49
 70
     1
102
RTVSPropertyOp50
 70
     1
102
RTVSPropertyOp51
 70
     0
102
RTVSPropertyOp52
 70
     0
102
RTVSPropertyOp53
 70
     1
102
RTVSPropertyOp54
 70
     1
102
RTVSPropertyOp55
 70
     1
102
RTVSPropertyOp56
 70
     1
102
RTVSPropertyOp57
 70
     1
102
RTVSPropertyOp58
 70
     1
102
RTVSPropertyOp59
 70
     1
102
RTVSPropertyOp60
 70
     1
102
RTVSPropertyOp61
 70
     1
102
RTVSPropertyOp62
 70
     1
  0
XRECORD
  5
3DB4
102
{ACAD_REACTORS
330
3DB3
102
}
330
3DB3
100
AcDbXrecord
280
     1
102
RTVSPost2010Prop28
280
     0
102
RTVSPost2010PropOp28
 70
     1
102
RTVSPost2010Prop29
280
     1
102
RTVSPost2010PropOp29
 70
     1
102
RTVSPost2010Prop30
280
     1
102
RTVSPost2010PropOp30
 70
     1
102
RTVSPost2010Prop31
280
     0
102
RTVSPost2010PropOp31
 70
     1
102
RTVSPost2010Prop32
280
     0
102
RTVSPost2010PropOp32
 70
     1
102
RTVSPost2010Prop33
280
     0
102
RTVSPost2010PropOp33
 70
     1
102
RTVSPost2010Prop34
280
     0
102
RTVSPost2010PropOp34
 70
     1
102
RTVSPost2010Prop35
280
     0
102
RTVSPost2010PropOp35
 70
     1
102
RTVSPost2010Prop36
280
     0
102
RTVSPost2010PropOp36
 70
     1
102
RTVSPost2010Prop37
 90
       50
102
RTVSPost2010PropOp37
 70
     1
102
RTVSPost2010Prop38
140
0.0
102
RTVSPost2010PropOp38
 70
     1
102
RTVSPost2010Prop39
140
1.0
102
RTVSPost2010PropOp39
 70
     1
102
RTVSPost2010Prop40
 90
        0
102
RTVSPost2010PropOp40
 70
     1
102
RTVSPost2010Prop41ColorIndex
 90
       18
102
RTVSPost2010Prop41ColorRGB
 90
        0
102
RTVSPost2010PropOp41
 70
     1
102
RTVSPost2010Prop42
 90
       50
102
RTVSPost2010PropOp42
 70
     1
102
RTVSPost2010Prop43
 90
        3
102
RTVSPost2010PropOp43
 70
     1
102
RTVSPost2010Prop44ColorIndex
 90
        5
102
RTVSPost2010Prop44ColorRGB
 90
      255
102
RTVSPost2010PropOp44
 70
     1
102
RTVSPost2010Prop45
280
     0
102
RTVSPost2010PropOp45
 70
     1
102
RTVSPost2010Prop46
 90
       50
102
RTVSPost2010PropOp46
 70
     1
102
RTVSPost2010Prop47
 90
       50
102
RTVSPost2010PropOp47
 70
     1
102
RTVSPost2010Prop48
 90
       50
102
RTVSPost2010PropOp48
 70
     1
102
RTVSPost2010Prop49
280
     0
102
RTVSPost2010PropOp49
 70
     1
102
RTVSPost2010Prop50
 90
       50
102
RTVSPost2010PropOp50
 70
     1
102
RTVSPost2010Prop51ColorIndex
 90
      256
102
RTVSPost2010Prop51ColorRGB
 90
-16777216
102
RTVSPost2010PropOp51
 70
     0
102
RTVSPost2010Prop52
140
1.0
102
RTVSPost2010PropOp52
 70
     0
102
RTVSPost2010Prop53
 90
        2
102
RTVSPost2010PropOp53
 70
     1
102
RTVSPost2010Prop54
  1
strokes_ogs.tif
102
RTVSPost2010PropOp54
 70
     1
102
RTVSPost2010Prop55
280
     0
102
RTVSPost2010PropOp55
 70
     1
102
RTVSPost2010Prop56
140
1.0
102
RTVSPost2010PropOp56
 70
     1
102
RTVSPost2010Prop57
140
1.0
102
RTVSPost2010PropOp57
 70
     1
102
RTVSPropertyOp0
 70
     1
102
RTVSPropertyOp1
 70
     1
102
RTVSPropertyOp2
 70
     1
102
RTVSPropertyOp3
 70
     1
102
RTVSPropertyOp4
 70
     1
102
RTVSPropertyOp5
 70
     1
102
RTVSPropertyOp6
 70
     1
102
RTVSPropertyOp7
 70
     1
102
RTVSPropertyOp8
 70
     1
102
RTVSPropertyOp9
 70
     1
102
RTVSPropertyOp10
 70
     1
102
RTVSPropertyOp11
 70
     1
102
RTVSPropertyOp12
 70
     1
102
RTVSPropertyOp13
 70
     1
102
RTVSPropertyOp14
 70
     1
102
RTVSPropertyOp15
 70
     1
102
RTVSPropertyOp16
 70
     1
102
RTVSPropertyOp17
 70
     1
102
RTVSPropertyOp18
 70
     1
102
RTVSPropertyOp19
 70
     1
102
RTVSPropertyOp20
 70
     1
102
RTVSPropertyOp21
 70
     1
102
RTVSPropertyOp22
 70
     1
102
RTVSPropertyOp23
 70
     1
102
RTVSPropertyOp24
 70
     1
102
RTVSPropertyOp25
 70
     1
102
RTVSPropertyOp26
 70
     1
102
RTVSPropertyOp27
 70
     1
102
RTVSPropertyOp28
 70
     1
102
RTVSPropertyOp29
 70
     1
102
RTVSPropertyOp30
 70
     1
102
RTVSPropertyOp31
 70
     1
102
RTVSPropertyOp32
 70
     1
102
RTVSPropertyOp33
 70
     1
102
RTVSPropertyOp34
 70
     1
102
RTVSPropertyOp35
 70
     1
102
RTVSPropertyOp36
 70
     1
102
RTVSPropertyOp37
 70
     1
102
RTVSPropertyOp38
 70
     1
102
RTVSPropertyOp39
 70
     1
102
RTVSPropertyOp40
 70
     1
102
RTVSPropertyOp41
 70
     1
102
RTVSPropertyOp42
 70
     1
102
RTVSPropertyOp43
 70
     1
102
RTVSPropertyOp44
 70
     1
102
RTVSPropertyOp45
 70
     1
102
RTVSPropertyOp46
 70
     1
102
RTVSPropertyOp47
 70
     1
102
RTVSPropertyOp48
 70
     1
102
RTVSPropertyOp49
 70
     1
102
RTVSPropertyOp50
 70
     1
102
RTVSPropertyOp51
 70
     0
102
RTVSPropertyOp52
 70
     0
102
RTVSPropertyOp53
 70
     1
102
RTVSPropertyOp54
 70
     1
102
RTVSPropertyOp55
 70
     1
102
RTVSPropertyOp56
 70
     1
102
RTVSPropertyOp57
 70
     1
102
RTVSPropertyOp58
 70
     1
102
RTVSPropertyOp59
 70
     1
102
RTVSPropertyOp60
 70
     1
102
RTVSPropertyOp61
 70
     1
102
RTVSPropertyOp62
 70
     1
  0
XRECORD
  5
3DC2
102
{ACAD_REACTORS
330
3DC1
102
}
330
3DC1
100
AcDbXrecord
280
     1
102
RTVSPost2010Prop28
280
     0
102
RTVSPost2010PropOp28
 70
     1
102
RTVSPost2010Prop29
280
     1
102
RTVSPost2010PropOp29
 70
     1
102
RTVSPost2010Prop30
280
     1
102
RTVSPost2010PropOp30
 70
     1
102
RTVSPost2010Prop31
280
     0
102
RTVSPost2010PropOp31
 70
     1
102
RTVSPost2010Prop32
280
     0
102
RTVSPost2010PropOp32
 70
     1
102
RTVSPost2010Prop33
280
     0
102
RTVSPost2010PropOp33
 70
     1
102
RTVSPost2010Prop34
280
     0
102
RTVSPost2010PropOp34
 70
     1
102
RTVSPost2010Prop35
280
     0
102
RTVSPost2010PropOp35
 70
     1
102
RTVSPost2010Prop36
280
     0
102
RTVSPost2010PropOp36
 70
     1
102
RTVSPost2010Prop37
 90
       50
102
RTVSPost2010PropOp37
 70
     1
102
RTVSPost2010Prop38
140
0.0
102
RTVSPost2010PropOp38
 70
     1
102
RTVSPost2010Prop39
140
1.0
102
RTVSPost2010PropOp39
 70
     1
102
RTVSPost2010Prop40
 90
        0
102
RTVSPost2010PropOp40
 70
     1
102
RTVSPost2010Prop41ColorIndex
 90
       18
102
RTVSPost2010Prop41ColorRGB
 90
        0
102
RTVSPost2010PropOp41
 70
     1
102
RTVSPost2010Prop42
 90
       50
102
RTVSPost2010PropOp42
 70
     1
102
RTVSPost2010Prop43
 90
        3
102
RTVSPost2010PropOp43
 70
     1
102
RTVSPost2010Prop44ColorIndex
 90
        5
102
RTVSPost2010Prop44ColorRGB
 90
      255
102
RTVSPost2010PropOp44
 70
     1
102
RTVSPost2010Prop45
280
     0
102
RTVSPost2010PropOp45
 70
     1
102
RTVSPost2010Prop46
 90
       50
102
RTVSPost2010PropOp46
 70
     1
102
RTVSPost2010Prop47
 90
       50
102
RTVSPost2010PropOp47
 70
     1
102
RTVSPost2010Prop48
 90
       50
102
RTVSPost2010PropOp48
 70
     1
102
RTVSPost2010Prop49
280
     0
102
RTVSPost2010PropOp49
 70
     1
102
RTVSPost2010Prop50
 90
       50
102
RTVSPost2010PropOp50
 70
     1
102
RTVSPost2010Prop51ColorIndex
 90
      256
102
RTVSPost2010Prop51ColorRGB
 90
-16777216
102
RTVSPost2010PropOp51
 70
     0
102
RTVSPost2010Prop52
140
1.0
102
RTVSPost2010PropOp52
 70
     0
102
RTVSPost2010Prop53
 90
        2
102
RTVSPost2010PropOp53
 70
     1
102
RTVSPost2010Prop54
  1
strokes_ogs.tif
102
RTVSPost2010PropOp54
 70
     1
102
RTVSPost2010Prop55
280
     0
102
RTVSPost2010PropOp55
 70
     1
102
RTVSPost2010Prop56
140
1.0
102
RTVSPost2010PropOp56
 70
     1
102
RTVSPost2010Prop57
140
1.0
102
RTVSPost2010PropOp57
 70
     1
102
RTVSPropertyOp0
 70
     1
102
RTVSPropertyOp1
 70
     1
102
RTVSPropertyOp2
 70
     1
102
RTVSPropertyOp3
 70
     1
102
RTVSPropertyOp4
 70
     1
102
RTVSPropertyOp5
 70
     1
102
RTVSPropertyOp6
 70
     1
102
RTVSPropertyOp7
 70
     1
102
RTVSPropertyOp8
 70
     1
102
RTVSPropertyOp9
 70
     1
102
RTVSPropertyOp10
 70
     1
102
RTVSPropertyOp11
 70
     1
102
RTVSPropertyOp12
 70
     1
102
RTVSPropertyOp13
 70
     1
102
RTVSPropertyOp14
 70
     1
102
RTVSPropertyOp15
 70
     1
102
RTVSPropertyOp16
 70
     1
102
RTVSPropertyOp17
 70
     1
102
RTVSPropertyOp18
 70
     1
102
RTVSPropertyOp19
 70
     1
102
RTVSPropertyOp20
 70
     1
102
RTVSPropertyOp21
 70
     1
102
RTVSPropertyOp22
 70
     1
102
RTVSPropertyOp23
 70
     1
102
RTVSPropertyOp24
 70
     1
102
RTVSPropertyOp25
 70
     1
102
RTVSPropertyOp26
 70
     1
102
RTVSPropertyOp27
 70
     1
102
RTVSPropertyOp28
 70
     1
102
RTVSPropertyOp29
 70
     1
102
RTVSPropertyOp30
 70
     1
102
RTVSPropertyOp31
 70
     1
102
RTVSPropertyOp32
 70
     1
102
RTVSPropertyOp33
 70
     1
102
RTVSPropertyOp34
 70
     1
102
RTVSPropertyOp35
 70
     1
102
RTVSPropertyOp36
 70
     1
102
RTVSPropertyOp37
 70
     1
102
RTVSPropertyOp38
 70
     1
102
RTVSPropertyOp39
 70
     1
102
RTVSPropertyOp40
 70
     1
102
RTVSPropertyOp41
 70
     1
102
RTVSPropertyOp42
 70
     1
102
RTVSPropertyOp43
 70
     1
102
RTVSPropertyOp44
 70
     1
102
RTVSPropertyOp45
 70
     1
102
RTVSPropertyOp46
 70
     1
102
RTVSPropertyOp47
 70
     1
102
RTVSPropertyOp48
 70
     1
102
RTVSPropertyOp49
 70
     1
102
RTVSPropertyOp50
 70
     1
102
RTVSPropertyOp51
 70
     0
102
RTVSPropertyOp52
 70
     0
102
RTVSPropertyOp53
 70
     1
102
RTVSPropertyOp54
 70
     1
102
RTVSPropertyOp55
 70
     1
102
RTVSPropertyOp56
 70
     1
102
RTVSPropertyOp57
 70
     1
102
RTVSPropertyOp58
 70
     1
102
RTVSPropertyOp59
 70
     1
102
RTVSPropertyOp60
 70
     1
102
RTVSPropertyOp61
 70
     1
102
RTVSPropertyOp62
 70
     1
  0
XRECORD
  5
3DCA
102
{ACAD_REACTORS
330
3DC9
102
}
330
3DC9
100
AcDbXrecord
280
     1
102
RTVSPost2010Prop28
280
     0
102
RTVSPost2010PropOp28
 70
     1
102
RTVSPost2010Prop29
280
     1
102
RTVSPost2010PropOp29
 70
     1
102
RTVSPost2010Prop30
280
     1
102
RTVSPost2010PropOp30
 70
     1
102
RTVSPost2010Prop31
280
     0
102
RTVSPost2010PropOp31
 70
     1
102
RTVSPost2010Prop32
280
     0
102
RTVSPost2010PropOp32
 70
     1
102
RTVSPost2010Prop33
280
     0
102
RTVSPost2010PropOp33
 70
     1
102
RTVSPost2010Prop34
280
     0
102
RTVSPost2010PropOp34
 70
     1
102
RTVSPost2010Prop35
280
     0
102
RTVSPost2010PropOp35
 70
     1
102
RTVSPost2010Prop36
280
     0
102
RTVSPost2010PropOp36
 70
     1
102
RTVSPost2010Prop37
 90
       50
102
RTVSPost2010PropOp37
 70
     1
102
RTVSPost2010Prop38
140
0.0
102
RTVSPost2010PropOp38
 70
     1
102
RTVSPost2010Prop39
140
1.0
102
RTVSPost2010PropOp39
 70
     1
102
RTVSPost2010Prop40
 90
        0
102
RTVSPost2010PropOp40
 70
     1
102
RTVSPost2010Prop41ColorIndex
 90
       18
102
RTVSPost2010Prop41ColorRGB
 90
        0
102
RTVSPost2010PropOp41
 70
     1
102
RTVSPost2010Prop42
 90
       50
102
RTVSPost2010PropOp42
 70
     1
102
RTVSPost2010Prop43
 90
        3
102
RTVSPost2010PropOp43
 70
     1
102
RTVSPost2010Prop44ColorIndex
 90
        5
102
RTVSPost2010Prop44ColorRGB
 90
      255
102
RTVSPost2010PropOp44
 70
     1
102
RTVSPost2010Prop45
280
     0
102
RTVSPost2010PropOp45
 70
     1
102
RTVSPost2010Prop46
 90
       50
102
RTVSPost2010PropOp46
 70
     1
102
RTVSPost2010Prop47
 90
       50
102
RTVSPost2010PropOp47
 70
     1
102
RTVSPost2010Prop48
 90
       50
102
RTVSPost2010PropOp48
 70
     1
102
RTVSPost2010Prop49
280
     0
102
RTVSPost2010PropOp49
 70
     1
102
RTVSPost2010Prop50
 90
       50
102
RTVSPost2010PropOp50
 70
     1
102
RTVSPost2010Prop51ColorIndex
 90
      256
102
RTVSPost2010Prop51ColorRGB
 90
-16777216
102
RTVSPost2010PropOp51
 70
     0
102
RTVSPost2010Prop52
140
1.0
102
RTVSPost2010PropOp52
 70
     0
102
RTVSPost2010Prop53
 90
        2
102
RTVSPost2010PropOp53
 70
     1
102
RTVSPost2010Prop54
  1
strokes_ogs.tif
102
RTVSPost2010PropOp54
 70
     1
102
RTVSPost2010Prop55
280
     0
102
RTVSPost2010PropOp55
 70
     1
102
RTVSPost2010Prop56
140
1.0
102
RTVSPost2010PropOp56
 70
     1
102
RTVSPost2010Prop57
140
1.0
102
RTVSPost2010PropOp57
 70
     1
102
RTVSPropertyOp0
 70
     1
102
RTVSPropertyOp1
 70
     1
102
RTVSPropertyOp2
 70
     1
102
RTVSPropertyOp3
 70
     1
102
RTVSPropertyOp4
 70
     1
102
RTVSPropertyOp5
 70
     1
102
RTVSPropertyOp6
 70
     1
102
RTVSPropertyOp7
 70
     1
102
RTVSPropertyOp8
 70
     1
102
RTVSPropertyOp9
 70
     1
102
RTVSPropertyOp10
 70
     1
102
RTVSPropertyOp11
 70
     1
102
RTVSPropertyOp12
 70
     1
102
RTVSPropertyOp13
 70
     1
102
RTVSPropertyOp14
 70
     1
102
RTVSPropertyOp15
 70
     1
102
RTVSPropertyOp16
 70
     1
102
RTVSPropertyOp17
 70
     1
102
RTVSPropertyOp18
 70
     1
102
RTVSPropertyOp19
 70
     1
102
RTVSPropertyOp20
 70
     1
102
RTVSPropertyOp21
 70
     1
102
RTVSPropertyOp22
 70
     1
102
RTVSPropertyOp23
 70
     1
102
RTVSPropertyOp24
 70
     1
102
RTVSPropertyOp25
 70
     1
102
RTVSPropertyOp26
 70
     1
102
RTVSPropertyOp27
 70
     1
102
RTVSPropertyOp28
 70
     1
102
RTVSPropertyOp29
 70
     1
102
RTVSPropertyOp30
 70
     1
102
RTVSPropertyOp31
 70
     1
102
RTVSPropertyOp32
 70
     1
102
RTVSPropertyOp33
 70
     1
102
RTVSPropertyOp34
 70
     1
102
RTVSPropertyOp35
 70
     1
102
RTVSPropertyOp36
 70
     1
102
RTVSPropertyOp37
 70
     1
102
RTVSPropertyOp38
 70
     1
102
RTVSPropertyOp39
 70
     1
102
RTVSPropertyOp40
 70
     1
102
RTVSPropertyOp41
 70
     1
102
RTVSPropertyOp42
 70
     1
102
RTVSPropertyOp43
 70
     1
102
RTVSPropertyOp44
 70
     1
102
RTVSPropertyOp45
 70
     1
102
RTVSPropertyOp46
 70
     1
102
RTVSPropertyOp47
 70
     1
102
RTVSPropertyOp48
 70
     1
102
RTVSPropertyOp49
 70
     1
102
RTVSPropertyOp50
 70
     1
102
RTVSPropertyOp51
 70
     0
102
RTVSPropertyOp52
 70
     0
102
RTVSPropertyOp53
 70
     1
102
RTVSPropertyOp54
 70
     1
102
RTVSPropertyOp55
 70
     1
102
RTVSPropertyOp56
 70
     1
102
RTVSPropertyOp57
 70
     1
102
RTVSPropertyOp58
 70
     1
102
RTVSPropertyOp59
 70
     1
102
RTVSPropertyOp60
 70
     1
102
RTVSPropertyOp61
 70
     1
102
RTVSPropertyOp62
 70
     1
  0
XRECORD
  5
3DBC
102
{ACAD_REACTORS
330
3DBB
102
}
330
3DBB
100
AcDbXrecord
280
     1
102
RTVSPost2010Prop28
280
     0
102
RTVSPost2010PropOp28
 70
     1
102
RTVSPost2010Prop29
280
     1
102
RTVSPost2010PropOp29
 70
     1
102
RTVSPost2010Prop30
280
     1
102
RTVSPost2010PropOp30
 70
     1
102
RTVSPost2010Prop31
280
     0
102
RTVSPost2010PropOp31
 70
     1
102
RTVSPost2010Prop32
280
     0
102
RTVSPost2010PropOp32
 70
     1
102
RTVSPost2010Prop33
280
     0
102
RTVSPost2010PropOp33
 70
     1
102
RTVSPost2010Prop34
280
     0
102
RTVSPost2010PropOp34
 70
     1
102
RTVSPost2010Prop35
280
     0
102
RTVSPost2010PropOp35
 70
     1
102
RTVSPost2010Prop36
280
     0
102
RTVSPost2010PropOp36
 70
     1
102
RTVSPost2010Prop37
 90
       50
102
RTVSPost2010PropOp37
 70
     1
102
RTVSPost2010Prop38
140
0.0
102
RTVSPost2010PropOp38
 70
     1
102
RTVSPost2010Prop39
140
1.0
102
RTVSPost2010PropOp39
 70
     1
102
RTVSPost2010Prop40
 90
        0
102
RTVSPost2010PropOp40
 70
     1
102
RTVSPost2010Prop41ColorIndex
 90
       18
102
RTVSPost2010Prop41ColorRGB
 90
        0
102
RTVSPost2010PropOp41
 70
     1
102
RTVSPost2010Prop42
 90
       50
102
RTVSPost2010PropOp42
 70
     1
102
RTVSPost2010Prop43
 90
        3
102
RTVSPost2010PropOp43
 70
     1
102
RTVSPost2010Prop44ColorIndex
 90
        5
102
RTVSPost2010Prop44ColorRGB
 90
      255
102
RTVSPost2010PropOp44
 70
     1
102
RTVSPost2010Prop45
280
     0
102
RTVSPost2010PropOp45
 70
     1
102
RTVSPost2010Prop46
 90
       50
102
RTVSPost2010PropOp46
 70
     1
102
RTVSPost2010Prop47
 90
       50
102
RTVSPost2010PropOp47
 70
     1
102
RTVSPost2010Prop48
 90
       50
102
RTVSPost2010PropOp48
 70
     1
102
RTVSPost2010Prop49
280
     0
102
RTVSPost2010PropOp49
 70
     1
102
RTVSPost2010Prop50
 90
       50
102
RTVSPost2010PropOp50
 70
     1
102
RTVSPost2010Prop51ColorIndex
 90
      256
102
RTVSPost2010Prop51ColorRGB
 90
-16777216
102
RTVSPost2010PropOp51
 70
     0
102
RTVSPost2010Prop52
140
1.0
102
RTVSPost2010PropOp52
 70
     0
102
RTVSPost2010Prop53
 90
        2
102
RTVSPost2010PropOp53
 70
     1
102
RTVSPost2010Prop54
  1
strokes_ogs.tif
102
RTVSPost2010PropOp54
 70
     1
102
RTVSPost2010Prop55
280
     0
102
RTVSPost2010PropOp55
 70
     1
102
RTVSPost2010Prop56
140
1.0
102
RTVSPost2010PropOp56
 70
     1
102
RTVSPost2010Prop57
140
1.0
102
RTVSPost2010PropOp57
 70
     1
102
RTVSPropertyOp0
 70
     1
102
RTVSPropertyOp1
 70
     1
102
RTVSPropertyOp2
 70
     1
102
RTVSPropertyOp3
 70
     1
102
RTVSPropertyOp4
 70
     1
102
RTVSPropertyOp5
 70
     1
102
RTVSPropertyOp6
 70
     1
102
RTVSPropertyOp7
 70
     1
102
RTVSPropertyOp8
 70
     1
102
RTVSPropertyOp9
 70
     1
102
RTVSPropertyOp10
 70
     1
102
RTVSPropertyOp11
 70
     1
102
RTVSPropertyOp12
 70
     1
102
RTVSPropertyOp13
 70
     1
102
RTVSPropertyOp14
 70
     1
102
RTVSPropertyOp15
 70
     1
102
RTVSPropertyOp16
 70
     1
102
RTVSPropertyOp17
 70
     1
102
RTVSPropertyOp18
 70
     1
102
RTVSPropertyOp19
 70
     1
102
RTVSPropertyOp20
 70
     1
102
RTVSPropertyOp21
 70
     1
102
RTVSPropertyOp22
 70
     1
102
RTVSPropertyOp23
 70
     1
102
RTVSPropertyOp24
 70
     1
102
RTVSPropertyOp25
 70
     1
102
RTVSPropertyOp26
 70
     1
102
RTVSPropertyOp27
 70
     1
102
RTVSPropertyOp28
 70
     1
102
RTVSPropertyOp29
 70
     1
102
RTVSPropertyOp30
 70
     1
102
RTVSPropertyOp31
 70
     1
102
RTVSPropertyOp32
 70
     1
102
RTVSPropertyOp33
 70
     1
102
RTVSPropertyOp34
 70
     1
102
RTVSPropertyOp35
 70
     1
102
RTVSPropertyOp36
 70
     1
102
RTVSPropertyOp37
 70
     1
102
RTVSPropertyOp38
 70
     1
102
RTVSPropertyOp39
 70
     1
102
RTVSPropertyOp40
 70
     1
102
RTVSPropertyOp41
 70
     1
102
RTVSPropertyOp42
 70
     1
102
RTVSPropertyOp43
 70
     1
102
RTVSPropertyOp44
 70
     1
102
RTVSPropertyOp45
 70
     1
102
RTVSPropertyOp46
 70
     1
102
RTVSPropertyOp47
 70
     1
102
RTVSPropertyOp48
 70
     1
102
RTVSPropertyOp49
 70
     1
102
RTVSPropertyOp50
 70
     1
102
RTVSPropertyOp51
 70
     0
102
RTVSPropertyOp52
 70
     0
102
RTVSPropertyOp53
 70
     1
102
RTVSPropertyOp54
 70
     1
102
RTVSPropertyOp55
 70
     1
102
RTVSPropertyOp56
 70
     1
102
RTVSPropertyOp57
 70
     1
102
RTVSPropertyOp58
 70
     1
102
RTVSPropertyOp59
 70
     1
102
RTVSPropertyOp60
 70
     1
102
RTVSPropertyOp61
 70
     1
102
RTVSPropertyOp62
 70
     1
  0
XRECORD
  5
3DC0
102
{ACAD_REACTORS
330
3DBF
102
}
330
3DBF
100
AcDbXrecord
280
     1
102
RTVSPost2010Prop28
280
     0
102
RTVSPost2010PropOp28
 70
     1
102
RTVSPost2010Prop29
280
     1
102
RTVSPost2010PropOp29
 70
     1
102
RTVSPost2010Prop30
280
     1
102
RTVSPost2010PropOp30
 70
     1
102
RTVSPost2010Prop31
280
     0
102
RTVSPost2010PropOp31
 70
     1
102
RTVSPost2010Prop32
280
     0
102
RTVSPost2010PropOp32
 70
     1
102
RTVSPost2010Prop33
280
     0
102
RTVSPost2010PropOp33
 70
     1
102
RTVSPost2010Prop34
280
     0
102
RTVSPost2010PropOp34
 70
     1
102
RTVSPost2010Prop35
280
     0
102
RTVSPost2010PropOp35
 70
     1
102
RTVSPost2010Prop36
280
     0
102
RTVSPost2010PropOp36
 70
     1
102
RTVSPost2010Prop37
 90
       50
102
RTVSPost2010PropOp37
 70
     1
102
RTVSPost2010Prop38
140
0.0
102
RTVSPost2010PropOp38
 70
     1
102
RTVSPost2010Prop39
140
1.0
102
RTVSPost2010PropOp39
 70
     1
102
RTVSPost2010Prop40
 90
        0
102
RTVSPost2010PropOp40
 70
     1
102
RTVSPost2010Prop41ColorIndex
 90
       18
102
RTVSPost2010Prop41ColorRGB
 90
        0
102
RTVSPost2010PropOp41
 70
     1
102
RTVSPost2010Prop42
 90
       50
102
RTVSPost2010PropOp42
 70
     1
102
RTVSPost2010Prop43
 90
        3
102
RTVSPost2010PropOp43
 70
     1
102
RTVSPost2010Prop44ColorIndex
 90
        5
102
RTVSPost2010Prop44ColorRGB
 90
      255
102
RTVSPost2010PropOp44
 70
     1
102
RTVSPost2010Prop45
280
     0
102
RTVSPost2010PropOp45
 70
     1
102
RTVSPost2010Prop46
 90
       50
102
RTVSPost2010PropOp46
 70
     1
102
RTVSPost2010Prop47
 90
       50
102
RTVSPost2010PropOp47
 70
     1
102
RTVSPost2010Prop48
 90
       50
102
RTVSPost2010PropOp48
 70
     1
102
RTVSPost2010Prop49
280
     0
102
RTVSPost2010PropOp49
 70
     1
102
RTVSPost2010Prop50
 90
       50
102
RTVSPost2010PropOp50
 70
     1
102
RTVSPost2010Prop51ColorIndex
 90
      256
102
RTVSPost2010Prop51ColorRGB
 90
-16777216
102
RTVSPost2010PropOp51
 70
     0
102
RTVSPost2010Prop52
140
1.0
102
RTVSPost2010PropOp52
 70
     0
102
RTVSPost2010Prop53
 90
        2
102
RTVSPost2010PropOp53
 70
     1
102
RTVSPost2010Prop54
  1
strokes_ogs.tif
102
RTVSPost2010PropOp54
 70
     1
102
RTVSPost2010Prop55
280
     0
102
RTVSPost2010PropOp55
 70
     1
102
RTVSPost2010Prop56
140
1.0
102
RTVSPost2010PropOp56
 70
     1
102
RTVSPost2010Prop57
140
1.0
102
RTVSPost2010PropOp57
 70
     1
102
RTVSPropertyOp0
 70
     1
102
RTVSPropertyOp1
 70
     1
102
RTVSPropertyOp2
 70
     1
102
RTVSPropertyOp3
 70
     1
102
RTVSPropertyOp4
 70
     1
102
RTVSPropertyOp5
 70
     1
102
RTVSPropertyOp6
 70
     1
102
RTVSPropertyOp7
 70
     1
102
RTVSPropertyOp8
 70
     1
102
RTVSPropertyOp9
 70
     1
102
RTVSPropertyOp10
 70
     1
102
RTVSPropertyOp11
 70
     1
102
RTVSPropertyOp12
 70
     1
102
RTVSPropertyOp13
 70
     1
102
RTVSPropertyOp14
 70
     1
102
RTVSPropertyOp15
 70
     1
102
RTVSPropertyOp16
 70
     1
102
RTVSPropertyOp17
 70
     1
102
RTVSPropertyOp18
 70
     1
102
RTVSPropertyOp19
 70
     1
102
RTVSPropertyOp20
 70
     1
102
RTVSPropertyOp21
 70
     1
102
RTVSPropertyOp22
 70
     1
102
RTVSPropertyOp23
 70
     1
102
RTVSPropertyOp24
 70
     1
102
RTVSPropertyOp25
 70
     1
102
RTVSPropertyOp26
 70
     1
102
RTVSPropertyOp27
 70
     1
102
RTVSPropertyOp28
 70
     1
102
RTVSPropertyOp29
 70
     1
102
RTVSPropertyOp30
 70
     1
102
RTVSPropertyOp31
 70
     1
102
RTVSPropertyOp32
 70
     1
102
RTVSPropertyOp33
 70
     1
102
RTVSPropertyOp34
 70
     1
102
RTVSPropertyOp35
 70
     1
102
RTVSPropertyOp36
 70
     1
102
RTVSPropertyOp37
 70
     1
102
RTVSPropertyOp38
 70
     1
102
RTVSPropertyOp39
 70
     1
102
RTVSPropertyOp40
 70
     1
102
RTVSPropertyOp41
 70
     1
102
RTVSPropertyOp42
 70
     1
102
RTVSPropertyOp43
 70
     1
102
RTVSPropertyOp44
 70
     1
102
RTVSPropertyOp45
 70
     1
102
RTVSPropertyOp46
 70
     1
102
RTVSPropertyOp47
 70
     1
102
RTVSPropertyOp48
 70
     1
102
RTVSPropertyOp49
 70
     1
102
RTVSPropertyOp50
 70
     1
102
RTVSPropertyOp51
 70
     0
102
RTVSPropertyOp52
 70
     0
102
RTVSPropertyOp53
 70
     1
102
RTVSPropertyOp54
 70
     1
102
RTVSPropertyOp55
 70
     1
102
RTVSPropertyOp56
 70
     1
102
RTVSPropertyOp57
 70
     1
102
RTVSPropertyOp58
 70
     1
102
RTVSPropertyOp59
 70
     1
102
RTVSPropertyOp60
 70
     1
102
RTVSPropertyOp61
 70
     1
102
RTVSPropertyOp62
 70
     1
  0
XRECORD
  5
3DD2
102
{ACAD_REACTORS
330
3DD1
102
}
330
3DD1
100
AcDbXrecord
280
     1
102
RTVSPost2010Prop28
280
     0
102
RTVSPost2010PropOp28
 70
     1
102
RTVSPost2010Prop29
280
     1
102
RTVSPost2010PropOp29
 70
     1
102
RTVSPost2010Prop30
280
     1
102
RTVSPost2010PropOp30
 70
     1
102
RTVSPost2010Prop31
280
     0
102
RTVSPost2010PropOp31
 70
     1
102
RTVSPost2010Prop32
280
     0
102
RTVSPost2010PropOp32
 70
     1
102
RTVSPost2010Prop33
280
     0
102
RTVSPost2010PropOp33
 70
     1
102
RTVSPost2010Prop34
280
     0
102
RTVSPost2010PropOp34
 70
     1
102
RTVSPost2010Prop35
280
     0
102
RTVSPost2010PropOp35
 70
     1
102
RTVSPost2010Prop36
280
     0
102
RTVSPost2010PropOp36
 70
     1
102
RTVSPost2010Prop37
 90
       50
102
RTVSPost2010PropOp37
 70
     1
102
RTVSPost2010Prop38
140
0.0
102
RTVSPost2010PropOp38
 70
     1
102
RTVSPost2010Prop39
140
1.0
102
RTVSPost2010PropOp39
 70
     1
102
RTVSPost2010Prop40
 90
        0
102
RTVSPost2010PropOp40
 70
     1
102
RTVSPost2010Prop41ColorIndex
 90
       18
102
RTVSPost2010Prop41ColorRGB
 90
        0
102
RTVSPost2010PropOp41
 70
     1
102
RTVSPost2010Prop42
 90
       50
102
RTVSPost2010PropOp42
 70
     1
102
RTVSPost2010Prop43
 90
        3
102
RTVSPost2010PropOp43
 70
     1
102
RTVSPost2010Prop44ColorIndex
 90
        5
102
RTVSPost2010Prop44ColorRGB
 90
      255
102
RTVSPost2010PropOp44
 70
     1
102
RTVSPost2010Prop45
280
     0
102
RTVSPost2010PropOp45
 70
     1
102
RTVSPost2010Prop46
 90
       50
102
RTVSPost2010PropOp46
 70
     1
102
RTVSPost2010Prop47
 90
       50
102
RTVSPost2010PropOp47
 70
     1
102
RTVSPost2010Prop48
 90
       50
102
RTVSPost2010PropOp48
 70
     1
102
RTVSPost2010Prop49
280
     0
102
RTVSPost2010PropOp49
 70
     1
102
RTVSPost2010Prop50
 90
       50
102
RTVSPost2010PropOp50
 70
     1
102
RTVSPost2010Prop51ColorIndex
 90
      256
102
RTVSPost2010Prop51ColorRGB
 90
-16777216
102
RTVSPost2010PropOp51
 70
     0
102
RTVSPost2010Prop52
140
1.0
102
RTVSPost2010PropOp52
 70
     0
102
RTVSPost2010Prop53
 90
        2
102
RTVSPost2010PropOp53
 70
     1
102
RTVSPost2010Prop54
  1
strokes_ogs.tif
102
RTVSPost2010PropOp54
 70
     1
102
RTVSPost2010Prop55
280
     0
102
RTVSPost2010PropOp55
 70
     1
102
RTVSPost2010Prop56
140
1.0
102
RTVSPost2010PropOp56
 70
     1
102
RTVSPost2010Prop57
140
1.0
102
RTVSPost2010PropOp57
 70
     1
102
RTVSPropertyOp0
 70
     0
102
RTVSPropertyOp1
 70
     0
102
RTVSPropertyOp2
 70
     0
102
RTVSPropertyOp3
 70
     0
102
RTVSPropertyOp4
 70
     0
102
RTVSPropertyOp5
 70
     0
102
RTVSPropertyOp6
 70
     0
102
RTVSPropertyOp7
 70
     0
102
RTVSPropertyOp8
 70
     0
102
RTVSPropertyOp9
 70
     0
102
RTVSPropertyOp10
 70
     0
102
RTVSPropertyOp11
 70
     0
102
RTVSPropertyOp12
 70
     0
102
RTVSPropertyOp13
 70
     0
102
RTVSPropertyOp14
 70
     2
102
RTVSPropertyOp15
 70
     0
102
RTVSPropertyOp16
 70
     0
102
RTVSPropertyOp17
 70
     0
102
RTVSPropertyOp18
 70
     0
102
RTVSPropertyOp19
 70
     0
102
RTVSPropertyOp20
 70
     0
102
RTVSPropertyOp21
 70
     0
102
RTVSPropertyOp22
 70
     0
102
RTVSPropertyOp23
 70
     0
102
RTVSPropertyOp24
 70
     0
102
RTVSPropertyOp25
 70
     0
102
RTVSPropertyOp26
 70
     0
102
RTVSPropertyOp27
 70
     0
102
RTVSPropertyOp28
 70
     1
102
RTVSPropertyOp29
 70
     1
102
RTVSPropertyOp30
 70
     1
102
RTVSPropertyOp31
 70
     1
102
RTVSPropertyOp32
 70
     1
102
RTVSPropertyOp33
 70
     1
102
RTVSPropertyOp34
 70
     1
102
RTVSPropertyOp35
 70
     1
102
RTVSPropertyOp36
 70
     1
102
RTVSPropertyOp37
 70
     1
102
RTVSPropertyOp38
 70
     1
102
RTVSPropertyOp39
 70
     1
102
RTVSPropertyOp40
 70
     1
102
RTVSPropertyOp41
 70
     1
102
RTVSPropertyOp42
 70
     1
102
RTVSPropertyOp43
 70
     1
102
RTVSPropertyOp44
 70
     1
102
RTVSPropertyOp45
 70
     1
102
RTVSPropertyOp46
 70
     1
102
RTVSPropertyOp47
 70
     1
102
RTVSPropertyOp48
 70
     1
102
RTVSPropertyOp49
 70
     1
102
RTVSPropertyOp50
 70
     1
102
RTVSPropertyOp51
 70
     0
102
RTVSPropertyOp52
 70
     0
102
RTVSPropertyOp53
 70
     1
102
RTVSPropertyOp54
 70
     1
102
RTVSPropertyOp55
 70
     1
102
RTVSPropertyOp56
 70
     1
102
RTVSPropertyOp57
 70
     1
102
RTVSPropertyOp58
 70
     1
102
RTVSPropertyOp59
 70
     1
102
RTVSPropertyOp60
 70
     1
102
RTVSPropertyOp61
 70
     1
102
RTVSPropertyOp62
 70
     1
  0
XRECORD
  5
3DC8
102
{ACAD_REACTORS
330
3DC7
102
}
330
3DC7
100
AcDbXrecord
280
     1
102
RTVSPost2010Prop28
280
     0
102
RTVSPost2010PropOp28
 70
     1
102
RTVSPost2010Prop29
280
     1
102
RTVSPost2010PropOp29
 70
     1
102
RTVSPost2010Prop30
280
     1
102
RTVSPost2010PropOp30
 70
     1
102
RTVSPost2010Prop31
280
     0
102
RTVSPost2010PropOp31
 70
     1
102
RTVSPost2010Prop32
280
     0
102
RTVSPost2010PropOp32
 70
     1
102
RTVSPost2010Prop33
280
     0
102
RTVSPost2010PropOp33
 70
     1
102
RTVSPost2010Prop34
280
     0
102
RTVSPost2010PropOp34
 70
     1
102
RTVSPost2010Prop35
280
     0
102
RTVSPost2010PropOp35
 70
     1
102
RTVSPost2010Prop36
280
     0
102
RTVSPost2010PropOp36
 70
     1
102
RTVSPost2010Prop37
 90
       50
102
RTVSPost2010PropOp37
 70
     1
102
RTVSPost2010Prop38
140
0.0
102
RTVSPost2010PropOp38
 70
     1
102
RTVSPost2010Prop39
140
1.0
102
RTVSPost2010PropOp39
 70
     1
102
RTVSPost2010Prop40
 90
        0
102
RTVSPost2010PropOp40
 70
     1
102
RTVSPost2010Prop41ColorIndex
 90
       18
102
RTVSPost2010Prop41ColorRGB
 90
        0
102
RTVSPost2010PropOp41
 70
     1
102
RTVSPost2010Prop42
 90
       50
102
RTVSPost2010PropOp42
 70
     1
102
RTVSPost2010Prop43
 90
        3
102
RTVSPost2010PropOp43
 70
     1
102
RTVSPost2010Prop44ColorIndex
 90
        5
102
RTVSPost2010Prop44ColorRGB
 90
      255
102
RTVSPost2010PropOp44
 70
     1
102
RTVSPost2010Prop45
280
     0
102
RTVSPost2010PropOp45
 70
     1
102
RTVSPost2010Prop46
 90
       50
102
RTVSPost2010PropOp46
 70
     1
102
RTVSPost2010Prop47
 90
       50
102
RTVSPost2010PropOp47
 70
     1
102
RTVSPost2010Prop48
 90
       50
102
RTVSPost2010PropOp48
 70
     1
102
RTVSPost2010Prop49
280
     0
102
RTVSPost2010PropOp49
 70
     1
102
RTVSPost2010Prop50
 90
       50
102
RTVSPost2010PropOp50
 70
     1
102
RTVSPost2010Prop51ColorIndex
 90
      256
102
RTVSPost2010Prop51ColorRGB
 90
-16777216
102
RTVSPost2010PropOp51
 70
     0
102
RTVSPost2010Prop52
140
1.0
102
RTVSPost2010PropOp52
 70
     0
102
RTVSPost2010Prop53
 90
        2
102
RTVSPost2010PropOp53
 70
     1
102
RTVSPost2010Prop54
  1
strokes_ogs.tif
102
RTVSPost2010PropOp54
 70
     1
102
RTVSPost2010Prop55
280
     0
102
RTVSPost2010PropOp55
 70
     1
102
RTVSPost2010Prop56
140
1.0
102
RTVSPost2010PropOp56
 70
     1
102
RTVSPost2010Prop57
140
1.0
102
RTVSPost2010PropOp57
 70
     1
102
RTVSPropertyOp0
 70
     1
102
RTVSPropertyOp1
 70
     1
102
RTVSPropertyOp2
 70
     1
102
RTVSPropertyOp3
 70
     1
102
RTVSPropertyOp4
 70
     1
102
RTVSPropertyOp5
 70
     1
102
RTVSPropertyOp6
 70
     1
102
RTVSPropertyOp7
 70
     1
102
RTVSPropertyOp8
 70
     1
102
RTVSPropertyOp9
 70
     1
102
RTVSPropertyOp10
 70
     1
102
RTVSPropertyOp11
 70
     1
102
RTVSPropertyOp12
 70
     1
102
RTVSPropertyOp13
 70
     1
102
RTVSPropertyOp14
 70
     1
102
RTVSPropertyOp15
 70
     1
102
RTVSPropertyOp16
 70
     1
102
RTVSPropertyOp17
 70
     1
102
RTVSPropertyOp18
 70
     1
102
RTVSPropertyOp19
 70
     1
102
RTVSPropertyOp20
 70
     1
102
RTVSPropertyOp21
 70
     1
102
RTVSPropertyOp22
 70
     1
102
RTVSPropertyOp23
 70
     1
102
RTVSPropertyOp24
 70
     1
102
RTVSPropertyOp25
 70
     1
102
RTVSPropertyOp26
 70
     1
102
RTVSPropertyOp27
 70
     1
102
RTVSPropertyOp28
 70
     1
102
RTVSPropertyOp29
 70
     1
102
RTVSPropertyOp30
 70
     1
102
RTVSPropertyOp31
 70
     1
102
RTVSPropertyOp32
 70
     1
102
RTVSPropertyOp33
 70
     1
102
RTVSPropertyOp34
 70
     1
102
RTVSPropertyOp35
 70
     1
102
RTVSPropertyOp36
 70
     1
102
RTVSPropertyOp37
 70
     1
102
RTVSPropertyOp38
 70
     1
102
RTVSPropertyOp39
 70
     1
102
RTVSPropertyOp40
 70
     1
102
RTVSPropertyOp41
 70
     1
102
RTVSPropertyOp42
 70
     1
102
RTVSPropertyOp43
 70
     1
102
RTVSPropertyOp44
 70
     1
102
RTVSPropertyOp45
 70
     1
102
RTVSPropertyOp46
 70
     1
102
RTVSPropertyOp47
 70
     1
102
RTVSPropertyOp48
 70
     1
102
RTVSPropertyOp49
 70
     1
102
RTVSPropertyOp50
 70
     1
102
RTVSPropertyOp51
 70
     0
102
RTVSPropertyOp52
 70
     0
102
RTVSPropertyOp53
 70
     1
102
RTVSPropertyOp54
 70
     1
102
RTVSPropertyOp55
 70
     1
102
RTVSPropertyOp56
 70
     1
102
RTVSPropertyOp57
 70
     1
102
RTVSPropertyOp58
 70
     1
102
RTVSPropertyOp59
 70
     1
102
RTVSPropertyOp60
 70
     1
102
RTVSPropertyOp61
 70
     1
102
RTVSPropertyOp62
 70
     1
  0
XRECORD
  5
3DAC
102
{ACAD_REACTORS
330
3DAB
102
}
330
3DAB
100
AcDbXrecord
280
     1
102
RTVSPost2010Prop28
280
     0
102
RTVSPost2010PropOp28
 70
     1
102
RTVSPost2010Prop29
280
     1
102
RTVSPost2010PropOp29
 70
     1
102
RTVSPost2010Prop30
280
     1
102
RTVSPost2010PropOp30
 70
     1
102
RTVSPost2010Prop31
280
     0
102
RTVSPost2010PropOp31
 70
     1
102
RTVSPost2010Prop32
280
     0
102
RTVSPost2010PropOp32
 70
     1
102
RTVSPost2010Prop33
280
     0
102
RTVSPost2010PropOp33
 70
     1
102
RTVSPost2010Prop34
280
     0
102
RTVSPost2010PropOp34
 70
     1
102
RTVSPost2010Prop35
280
     0
102
RTVSPost2010PropOp35
 70
     1
102
RTVSPost2010Prop36
280
     0
102
RTVSPost2010PropOp36
 70
     1
102
RTVSPost2010Prop37
 90
       50
102
RTVSPost2010PropOp37
 70
     1
102
RTVSPost2010Prop38
140
0.0
102
RTVSPost2010PropOp38
 70
     1
102
RTVSPost2010Prop39
140
1.0
102
RTVSPost2010PropOp39
 70
     1
102
RTVSPost2010Prop40
 90
        0
102
RTVSPost2010PropOp40
 70
     1
102
RTVSPost2010Prop41ColorIndex
 90
       18
102
RTVSPost2010Prop41ColorRGB
 90
        0
102
RTVSPost2010PropOp41
 70
     1
102
RTVSPost2010Prop42
 90
       50
102
RTVSPost2010PropOp42
 70
     1
102
RTVSPost2010Prop43
 90
        3
102
RTVSPost2010PropOp43
 70
     1
102
RTVSPost2010Prop44ColorIndex
 90
        5
102
RTVSPost2010Prop44ColorRGB
 90
      255
102
RTVSPost2010PropOp44
 70
     1
102
RTVSPost2010Prop45
280
     0
102
RTVSPost2010PropOp45
 70
     1
102
RTVSPost2010Prop46
 90
       50
102
RTVSPost2010PropOp46
 70
     1
102
RTVSPost2010Prop47
 90
       50
102
RTVSPost2010PropOp47
 70
     1
102
RTVSPost2010Prop48
 90
       50
102
RTVSPost2010PropOp48
 70
     1
102
RTVSPost2010Prop49
280
     0
102
RTVSPost2010PropOp49
 70
     1
102
RTVSPost2010Prop50
 90
       50
102
RTVSPost2010PropOp50
 70
     1
102
RTVSPost2010Prop51ColorIndex
 90
      256
102
RTVSPost2010Prop51ColorRGB
 90
-16777216
102
RTVSPost2010PropOp51
 70
     0
102
RTVSPost2010Prop52
140
1.0
102
RTVSPost2010PropOp52
 70
     0
102
RTVSPost2010Prop53
 90
        2
102
RTVSPost2010PropOp53
 70
     1
102
RTVSPost2010Prop54
  1
strokes_ogs.tif
102
RTVSPost2010PropOp54
 70
     1
102
RTVSPost2010Prop55
280
     0
102
RTVSPost2010PropOp55
 70
     1
102
RTVSPost2010Prop56
140
1.0
102
RTVSPost2010PropOp56
 70
     1
102
RTVSPost2010Prop57
140
1.0
102
RTVSPost2010PropOp57
 70
     1
102
RTVSPropertyOp0
 70
     1
102
RTVSPropertyOp1
 70
     1
102
RTVSPropertyOp2
 70
     1
102
RTVSPropertyOp3
 70
     1
102
RTVSPropertyOp4
 70
     1
102
RTVSPropertyOp5
 70
     1
102
RTVSPropertyOp6
 70
     1
102
RTVSPropertyOp7
 70
     1
102
RTVSPropertyOp8
 70
     1
102
RTVSPropertyOp9
 70
     1
102
RTVSPropertyOp10
 70
     1
102
RTVSPropertyOp11
 70
     1
102
RTVSPropertyOp12
 70
     1
102
RTVSPropertyOp13
 70
     1
102
RTVSPropertyOp14
 70
     1
102
RTVSPropertyOp15
 70
     1
102
RTVSPropertyOp16
 70
     1
102
RTVSPropertyOp17
 70
     1
102
RTVSPropertyOp18
 70
     1
102
RTVSPropertyOp19
 70
     1
102
RTVSPropertyOp20
 70
     1
102
RTVSPropertyOp21
 70
     1
102
RTVSPropertyOp22
 70
     1
102
RTVSPropertyOp23
 70
     1
102
RTVSPropertyOp24
 70
     1
102
RTVSPropertyOp25
 70
     1
102
RTVSPropertyOp26
 70
     1
102
RTVSPropertyOp27
 70
     1
102
RTVSPropertyOp28
 70
     1
102
RTVSPropertyOp29
 70
     1
102
RTVSPropertyOp30
 70
     1
102
RTVSPropertyOp31
 70
     1
102
RTVSPropertyOp32
 70
     1
102
RTVSPropertyOp33
 70
     1
102
RTVSPropertyOp34
 70
     1
102
RTVSPropertyOp35
 70
     1
102
RTVSPropertyOp36
 70
     1
102
RTVSPropertyOp37
 70
     1
102
RTVSPropertyOp38
 70
     1
102
RTVSPropertyOp39
 70
     1
102
RTVSPropertyOp40
 70
     1
102
RTVSPropertyOp41
 70
     1
102
RTVSPropertyOp42
 70
     1
102
RTVSPropertyOp43
 70
     1
102
RTVSPropertyOp44
 70
     1
102
RTVSPropertyOp45
 70
     1
102
RTVSPropertyOp46
 70
     1
102
RTVSPropertyOp47
 70
     1
102
RTVSPropertyOp48
 70
     1
102
RTVSPropertyOp49
 70
     1
102
RTVSPropertyOp50
 70
     1
102
RTVSPropertyOp51
 70
     0
102
RTVSPropertyOp52
 70
     0
102
RTVSPropertyOp53
 70
     1
102
RTVSPropertyOp54
 70
     1
102
RTVSPropertyOp55
 70
     1
102
RTVSPropertyOp56
 70
     1
102
RTVSPropertyOp57
 70
     1
102
RTVSPropertyOp58
 70
     1
102
RTVSPropertyOp59
 70
     1
102
RTVSPropertyOp60
 70
     1
102
RTVSPropertyOp61
 70
     1
102
RTVSPropertyOp62
 70
     1
  0
XRECORD
  5
3DAE
102
{ACAD_REACTORS
330
3DAD
102
}
330
3DAD
100
AcDbXrecord
280
     1
102
RTVSPost2010Prop28
280
     0
102
RTVSPost2010PropOp28
 70
     1
102
RTVSPost2010Prop29
280
     1
102
RTVSPost2010PropOp29
 70
     1
102
RTVSPost2010Prop30
280
     1
102
RTVSPost2010PropOp30
 70
     1
102
RTVSPost2010Prop31
280
     0
102
RTVSPost2010PropOp31
 70
     1
102
RTVSPost2010Prop32
280
     0
102
RTVSPost2010PropOp32
 70
     1
102
RTVSPost2010Prop33
280
     0
102
RTVSPost2010PropOp33
 70
     1
102
RTVSPost2010Prop34
280
     0
102
RTVSPost2010PropOp34
 70
     1
102
RTVSPost2010Prop35
280
     0
102
RTVSPost2010PropOp35
 70
     1
102
RTVSPost2010Prop36
280
     0
102
RTVSPost2010PropOp36
 70
     1
102
RTVSPost2010Prop37
 90
       50
102
RTVSPost2010PropOp37
 70
     1
102
RTVSPost2010Prop38
140
0.0
102
RTVSPost2010PropOp38
 70
     1
102
RTVSPost2010Prop39
140
1.0
102
RTVSPost2010PropOp39
 70
     1
102
RTVSPost2010Prop40
 90
        0
102
RTVSPost2010PropOp40
 70
     1
102
RTVSPost2010Prop41ColorIndex
 90
       18
102
RTVSPost2010Prop41ColorRGB
 90
        0
102
RTVSPost2010PropOp41
 70
     1
102
RTVSPost2010Prop42
 90
       50
102
RTVSPost2010PropOp42
 70
     1
102
RTVSPost2010Prop43
 90
        3
102
RTVSPost2010PropOp43
 70
     1
102
RTVSPost2010Prop44ColorIndex
 90
        5
102
RTVSPost2010Prop44ColorRGB
 90
      255
102
RTVSPost2010PropOp44
 70
     1
102
RTVSPost2010Prop45
280
     0
102
RTVSPost2010PropOp45
 70
     1
102
RTVSPost2010Prop46
 90
       50
102
RTVSPost2010PropOp46
 70
     1
102
RTVSPost2010Prop47
 90
       50
102
RTVSPost2010PropOp47
 70
     1
102
RTVSPost2010Prop48
 90
       50
102
RTVSPost2010PropOp48
 70
     1
102
RTVSPost2010Prop49
280
     0
102
RTVSPost2010PropOp49
 70
     1
102
RTVSPost2010Prop50
 90
       50
102
RTVSPost2010PropOp50
 70
     1
102
RTVSPost2010Prop51ColorIndex
 90
      256
102
RTVSPost2010Prop51ColorRGB
 90
-16777216
102
RTVSPost2010PropOp51
 70
     0
102
RTVSPost2010Prop52
140
1.0
102
RTVSPost2010PropOp52
 70
     0
102
RTVSPost2010Prop53
 90
        2
102
RTVSPost2010PropOp53
 70
     1
102
RTVSPost2010Prop54
  1
strokes_ogs.tif
102
RTVSPost2010PropOp54
 70
     1
102
RTVSPost2010Prop55
280
     0
102
RTVSPost2010PropOp55
 70
     1
102
RTVSPost2010Prop56
140
1.0
102
RTVSPost2010PropOp56
 70
     1
102
RTVSPost2010Prop57
140
1.0
102
RTVSPost2010PropOp57
 70
     1
102
RTVSPropertyOp0
 70
     1
102
RTVSPropertyOp1
 70
     1
102
RTVSPropertyOp2
 70
     1
102
RTVSPropertyOp3
 70
     1
102
RTVSPropertyOp4
 70
     1
102
RTVSPropertyOp5
 70
     1
102
RTVSPropertyOp6
 70
     1
102
RTVSPropertyOp7
 70
     1
102
RTVSPropertyOp8
 70
     1
102
RTVSPropertyOp9
 70
     1
102
RTVSPropertyOp10
 70
     1
102
RTVSPropertyOp11
 70
     1
102
RTVSPropertyOp12
 70
     1
102
RTVSPropertyOp13
 70
     1
102
RTVSPropertyOp14
 70
     1
102
RTVSPropertyOp15
 70
     1
102
RTVSPropertyOp16
 70
     1
102
RTVSPropertyOp17
 70
     1
102
RTVSPropertyOp18
 70
     1
102
RTVSPropertyOp19
 70
     1
102
RTVSPropertyOp20
 70
     1
102
RTVSPropertyOp21
 70
     1
102
RTVSPropertyOp22
 70
     1
102
RTVSPropertyOp23
 70
     1
102
RTVSPropertyOp24
 70
     1
102
RTVSPropertyOp25
 70
     1
102
RTVSPropertyOp26
 70
     1
102
RTVSPropertyOp27
 70
     1
102
RTVSPropertyOp28
 70
     1
102
RTVSPropertyOp29
 70
     1
102
RTVSPropertyOp30
 70
     1
102
RTVSPropertyOp31
 70
     1
102
RTVSPropertyOp32
 70
     1
102
RTVSPropertyOp33
 70
     1
102
RTVSPropertyOp34
 70
     1
102
RTVSPropertyOp35
 70
     1
102
RTVSPropertyOp36
 70
     1
102
RTVSPropertyOp37
 70
     1
102
RTVSPropertyOp38
 70
     1
102
RTVSPropertyOp39
 70
     1
102
RTVSPropertyOp40
 70
     1
102
RTVSPropertyOp41
 70
     1
102
RTVSPropertyOp42
 70
     1
102
RTVSPropertyOp43
 70
     1
102
RTVSPropertyOp44
 70
     1
102
RTVSPropertyOp45
 70
     1
102
RTVSPropertyOp46
 70
     1
102
RTVSPropertyOp47
 70
     1
102
RTVSPropertyOp48
 70
     1
102
RTVSPropertyOp49
 70
     1
102
RTVSPropertyOp50
 70
     1
102
RTVSPropertyOp51
 70
     0
102
RTVSPropertyOp52
 70
     0
102
RTVSPropertyOp53
 70
     1
102
RTVSPropertyOp54
 70
     1
102
RTVSPropertyOp55
 70
     1
102
RTVSPropertyOp56
 70
     1
102
RTVSPropertyOp57
 70
     1
102
RTVSPropertyOp58
 70
     1
102
RTVSPropertyOp59
 70
     1
102
RTVSPropertyOp60
 70
     1
102
RTVSPropertyOp61
 70
     1
102
RTVSPropertyOp62
 70
     1
  0
XRECORD
  5
3DB0
102
{ACAD_REACTORS
330
3DAF
102
}
330
3DAF
100
AcDbXrecord
280
     1
102
RTVSPost2010Prop28
280
     0
102
RTVSPost2010PropOp28
 70
     1
102
RTVSPost2010Prop29
280
     1
102
RTVSPost2010PropOp29
 70
     1
102
RTVSPost2010Prop30
280
     1
102
RTVSPost2010PropOp30
 70
     1
102
RTVSPost2010Prop31
280
     0
102
RTVSPost2010PropOp31
 70
     1
102
RTVSPost2010Prop32
280
     0
102
RTVSPost2010PropOp32
 70
     1
102
RTVSPost2010Prop33
280
     0
102
RTVSPost2010PropOp33
 70
     1
102
RTVSPost2010Prop34
280
     0
102
RTVSPost2010PropOp34
 70
     1
102
RTVSPost2010Prop35
280
     0
102
RTVSPost2010PropOp35
 70
     1
102
RTVSPost2010Prop36
280
     0
102
RTVSPost2010PropOp36
 70
     1
102
RTVSPost2010Prop37
 90
       50
102
RTVSPost2010PropOp37
 70
     1
102
RTVSPost2010Prop38
140
0.0
102
RTVSPost2010PropOp38
 70
     1
102
RTVSPost2010Prop39
140
1.0
102
RTVSPost2010PropOp39
 70
     1
102
RTVSPost2010Prop40
 90
        0
102
RTVSPost2010PropOp40
 70
     1
102
RTVSPost2010Prop41ColorIndex
 90
       18
102
RTVSPost2010Prop41ColorRGB
 90
        0
102
RTVSPost2010PropOp41
 70
     1
102
RTVSPost2010Prop42
 90
       50
102
RTVSPost2010PropOp42
 70
     1
102
RTVSPost2010Prop43
 90
        3
102
RTVSPost2010PropOp43
 70
     1
102
RTVSPost2010Prop44ColorIndex
 90
        5
102
RTVSPost2010Prop44ColorRGB
 90
      255
102
RTVSPost2010PropOp44
 70
     1
102
RTVSPost2010Prop45
280
     0
102
RTVSPost2010PropOp45
 70
     1
102
RTVSPost2010Prop46
 90
       50
102
RTVSPost2010PropOp46
 70
     1
102
RTVSPost2010Prop47
 90
       50
102
RTVSPost2010PropOp47
 70
     1
102
RTVSPost2010Prop48
 90
       50
102
RTVSPost2010PropOp48
 70
     1
102
RTVSPost2010Prop49
280
     0
102
RTVSPost2010PropOp49
 70
     1
102
RTVSPost2010Prop50
 90
       50
102
RTVSPost2010PropOp50
 70
     1
102
RTVSPost2010Prop51ColorIndex
 90
      256
102
RTVSPost2010Prop51ColorRGB
 90
-16777216
102
RTVSPost2010PropOp51
 70
     0
102
RTVSPost2010Prop52
140
1.0
102
RTVSPost2010PropOp52
 70
     0
102
RTVSPost2010Prop53
 90
        2
102
RTVSPost2010PropOp53
 70
     1
102
RTVSPost2010Prop54
  1
strokes_ogs.tif
102
RTVSPost2010PropOp54
 70
     1
102
RTVSPost2010Prop55
280
     0
102
RTVSPost2010PropOp55
 70
     1
102
RTVSPost2010Prop56
140
1.0
102
RTVSPost2010PropOp56
 70
     1
102
RTVSPost2010Prop57
140
1.0
102
RTVSPost2010PropOp57
 70
     1
102
RTVSPropertyOp0
 70
     1
102
RTVSPropertyOp1
 70
     1
102
RTVSPropertyOp2
 70
     1
102
RTVSPropertyOp3
 70
     1
102
RTVSPropertyOp4
 70
     1
102
RTVSPropertyOp5
 70
     1
102
RTVSPropertyOp6
 70
     1
102
RTVSPropertyOp7
 70
     1
102
RTVSPropertyOp8
 70
     1
102
RTVSPropertyOp9
 70
     1
102
RTVSPropertyOp10
 70
     1
102
RTVSPropertyOp11
 70
     1
102
RTVSPropertyOp12
 70
     1
102
RTVSPropertyOp13
 70
     1
102
RTVSPropertyOp14
 70
     1
102
RTVSPropertyOp15
 70
     1
102
RTVSPropertyOp16
 70
     1
102
RTVSPropertyOp17
 70
     1
102
RTVSPropertyOp18
 70
     1
102
RTVSPropertyOp19
 70
     1
102
RTVSPropertyOp20
 70
     1
102
RTVSPropertyOp21
 70
     1
102
RTVSPropertyOp22
 70
     1
102
RTVSPropertyOp23
 70
     1
102
RTVSPropertyOp24
 70
     1
102
RTVSPropertyOp25
 70
     1
102
RTVSPropertyOp26
 70
     1
102
RTVSPropertyOp27
 70
     1
102
RTVSPropertyOp28
 70
     1
102
RTVSPropertyOp29
 70
     1
102
RTVSPropertyOp30
 70
     1
102
RTVSPropertyOp31
 70
     1
102
RTVSPropertyOp32
 70
     1
102
RTVSPropertyOp33
 70
     1
102
RTVSPropertyOp34
 70
     1
102
RTVSPropertyOp35
 70
     1
102
RTVSPropertyOp36
 70
     1
102
RTVSPropertyOp37
 70
     1
102
RTVSPropertyOp38
 70
     1
102
RTVSPropertyOp39
 70
     1
102
RTVSPropertyOp40
 70
     1
102
RTVSPropertyOp41
 70
     1
102
RTVSPropertyOp42
 70
     1
102
RTVSPropertyOp43
 70
     1
102
RTVSPropertyOp44
 70
     1
102
RTVSPropertyOp45
 70
     1
102
RTVSPropertyOp46
 70
     1
102
RTVSPropertyOp47
 70
     1
102
RTVSPropertyOp48
 70
     1
102
RTVSPropertyOp49
 70
     1
102
RTVSPropertyOp50
 70
     1
102
RTVSPropertyOp51
 70
     0
102
RTVSPropertyOp52
 70
     0
102
RTVSPropertyOp53
 70
     1
102
RTVSPropertyOp54
 70
     1
102
RTVSPropertyOp55
 70
     1
102
RTVSPropertyOp56
 70
     1
102
RTVSPropertyOp57
 70
     1
102
RTVSPropertyOp58
 70
     1
102
RTVSPropertyOp59
 70
     1
102
RTVSPropertyOp60
 70
     1
102
RTVSPropertyOp61
 70
     1
102
RTVSPropertyOp62
 70
     1
  0
XRECORD
  5
3DB2
102
{ACAD_REACTORS
330
3DB1
102
}
330
3DB1
100
AcDbXrecord
280
     1
102
RTVSPost2010Prop28
280
     0
102
RTVSPost2010PropOp28
 70
     1
102
RTVSPost2010Prop29
280
     1
102
RTVSPost2010PropOp29
 70
     1
102
RTVSPost2010Prop30
280
     1
102
RTVSPost2010PropOp30
 70
     1
102
RTVSPost2010Prop31
280
     0
102
RTVSPost2010PropOp31
 70
     1
102
RTVSPost2010Prop32
280
     0
102
RTVSPost2010PropOp32
 70
     1
102
RTVSPost2010Prop33
280
     0
102
RTVSPost2010PropOp33
 70
     1
102
RTVSPost2010Prop34
280
     0
102
RTVSPost2010PropOp34
 70
     1
102
RTVSPost2010Prop35
280
     0
102
RTVSPost2010PropOp35
 70
     1
102
RTVSPost2010Prop36
280
     0
102
RTVSPost2010PropOp36
 70
     1
102
RTVSPost2010Prop37
 90
       50
102
RTVSPost2010PropOp37
 70
     1
102
RTVSPost2010Prop38
140
0.0
102
RTVSPost2010PropOp38
 70
     1
102
RTVSPost2010Prop39
140
1.0
102
RTVSPost2010PropOp39
 70
     1
102
RTVSPost2010Prop40
 90
        0
102
RTVSPost2010PropOp40
 70
     1
102
RTVSPost2010Prop41ColorIndex
 90
       18
102
RTVSPost2010Prop41ColorRGB
 90
        0
102
RTVSPost2010PropOp41
 70
     1
102
RTVSPost2010Prop42
 90
       50
102
RTVSPost2010PropOp42
 70
     1
102
RTVSPost2010Prop43
 90
        3
102
RTVSPost2010PropOp43
 70
     1
102
RTVSPost2010Prop44ColorIndex
 90
        5
102
RTVSPost2010Prop44ColorRGB
 90
      255
102
RTVSPost2010PropOp44
 70
     1
102
RTVSPost2010Prop45
280
     0
102
RTVSPost2010PropOp45
 70
     1
102
RTVSPost2010Prop46
 90
       50
102
RTVSPost2010PropOp46
 70
     1
102
RTVSPost2010Prop47
 90
       50
102
RTVSPost2010PropOp47
 70
     1
102
RTVSPost2010Prop48
 90
       50
102
RTVSPost2010PropOp48
 70
     1
102
RTVSPost2010Prop49
280
     0
102
RTVSPost2010PropOp49
 70
     1
102
RTVSPost2010Prop50
 90
       50
102
RTVSPost2010PropOp50
 70
     1
102
RTVSPost2010Prop51ColorIndex
 90
      256
102
RTVSPost2010Prop51ColorRGB
 90
-16777216
102
RTVSPost2010PropOp51
 70
     0
102
RTVSPost2010Prop52
140
1.0
102
RTVSPost2010PropOp52
 70
     0
102
RTVSPost2010Prop53
 90
        2
102
RTVSPost2010PropOp53
 70
     1
102
RTVSPost2010Prop54
  1
strokes_ogs.tif
102
RTVSPost2010PropOp54
 70
     1
102
RTVSPost2010Prop55
280
     0
102
RTVSPost2010PropOp55
 70
     1
102
RTVSPost2010Prop56
140
1.0
102
RTVSPost2010PropOp56
 70
     1
102
RTVSPost2010Prop57
140
1.0
102
RTVSPost2010PropOp57
 70
     1
102
RTVSPropertyOp0
 70
     1
102
RTVSPropertyOp1
 70
     1
102
RTVSPropertyOp2
 70
     1
102
RTVSPropertyOp3
 70
     1
102
RTVSPropertyOp4
 70
     1
102
RTVSPropertyOp5
 70
     1
102
RTVSPropertyOp6
 70
     1
102
RTVSPropertyOp7
 70
     1
102
RTVSPropertyOp8
 70
     1
102
RTVSPropertyOp9
 70
     1
102
RTVSPropertyOp10
 70
     1
102
RTVSPropertyOp11
 70
     1
102
RTVSPropertyOp12
 70
     1
102
RTVSPropertyOp13
 70
     1
102
RTVSPropertyOp14
 70
     1
102
RTVSPropertyOp15
 70
     1
102
RTVSPropertyOp16
 70
     1
102
RTVSPropertyOp17
 70
     1
102
RTVSPropertyOp18
 70
     1
102
RTVSPropertyOp19
 70
     1
102
RTVSPropertyOp20
 70
     1
102
RTVSPropertyOp21
 70
     1
102
RTVSPropertyOp22
 70
     1
102
RTVSPropertyOp23
 70
     1
102
RTVSPropertyOp24
 70
     1
102
RTVSPropertyOp25
 70
     1
102
RTVSPropertyOp26
 70
     1
102
RTVSPropertyOp27
 70
     1
102
RTVSPropertyOp28
 70
     1
102
RTVSPropertyOp29
 70
     1
102
RTVSPropertyOp30
 70
     1
102
RTVSPropertyOp31
 70
     1
102
RTVSPropertyOp32
 70
     1
102
RTVSPropertyOp33
 70
     1
102
RTVSPropertyOp34
 70
     1
102
RTVSPropertyOp35
 70
     1
102
RTVSPropertyOp36
 70
     1
102
RTVSPropertyOp37
 70
     1
102
RTVSPropertyOp38
 70
     1
102
RTVSPropertyOp39
 70
     1
102
RTVSPropertyOp40
 70
     1
102
RTVSPropertyOp41
 70
     1
102
RTVSPropertyOp42
 70
     1
102
RTVSPropertyOp43
 70
     1
102
RTVSPropertyOp44
 70
     1
102
RTVSPropertyOp45
 70
     1
102
RTVSPropertyOp46
 70
     1
102
RTVSPropertyOp47
 70
     1
102
RTVSPropertyOp48
 70
     1
102
RTVSPropertyOp49
 70
     1
102
RTVSPropertyOp50
 70
     1
102
RTVSPropertyOp51
 70
     0
102
RTVSPropertyOp52
 70
     0
102
RTVSPropertyOp53
 70
     1
102
RTVSPropertyOp54
 70
     1
102
RTVSPropertyOp55
 70
     1
102
RTVSPropertyOp56
 70
     1
102
RTVSPropertyOp57
 70
     1
102
RTVSPropertyOp58
 70
     1
102
RTVSPropertyOp59
 70
     1
102
RTVSPropertyOp60
 70
     1
102
RTVSPropertyOp61
 70
     1
102
RTVSPropertyOp62
 70
     1
  0
XRECORD
  5
3DBA
102
{ACAD_REACTORS
330
3DB9
102
}
330
3DB9
100
AcDbXrecord
280
     1
102
RTVSPost2010Prop28
280
     0
102
RTVSPost2010PropOp28
 70
     1
102
RTVSPost2010Prop29
280
     1
102
RTVSPost2010PropOp29
 70
     1
102
RTVSPost2010Prop30
280
     1
102
RTVSPost2010PropOp30
 70
     1
102
RTVSPost2010Prop31
280
     0
102
RTVSPost2010PropOp31
 70
     1
102
RTVSPost2010Prop32
280
     0
102
RTVSPost2010PropOp32
 70
     1
102
RTVSPost2010Prop33
280
     0
102
RTVSPost2010PropOp33
 70
     1
102
RTVSPost2010Prop34
280
     0
102
RTVSPost2010PropOp34
 70
     1
102
RTVSPost2010Prop35
280
     0
102
RTVSPost2010PropOp35
 70
     1
102
RTVSPost2010Prop36
280
     0
102
RTVSPost2010PropOp36
 70
     1
102
RTVSPost2010Prop37
 90
       50
102
RTVSPost2010PropOp37
 70
     1
102
RTVSPost2010Prop38
140
0.0
102
RTVSPost2010PropOp38
 70
     1
102
RTVSPost2010Prop39
140
1.0
102
RTVSPost2010PropOp39
 70
     1
102
RTVSPost2010Prop40
 90
        0
102
RTVSPost2010PropOp40
 70
     1
102
RTVSPost2010Prop41ColorIndex
 90
       18
102
RTVSPost2010Prop41ColorRGB
 90
        0
102
RTVSPost2010PropOp41
 70
     1
102
RTVSPost2010Prop42
 90
       50
102
RTVSPost2010PropOp42
 70
     1
102
RTVSPost2010Prop43
 90
        3
102
RTVSPost2010PropOp43
 70
     1
102
RTVSPost2010Prop44ColorIndex
 90
        5
102
RTVSPost2010Prop44ColorRGB
 90
      255
102
RTVSPost2010PropOp44
 70
     1
102
RTVSPost2010Prop45
280
     0
102
RTVSPost2010PropOp45
 70
     1
102
RTVSPost2010Prop46
 90
       50
102
RTVSPost2010PropOp46
 70
     1
102
RTVSPost2010Prop47
 90
       50
102
RTVSPost2010PropOp47
 70
     1
102
RTVSPost2010Prop48
 90
       50
102
RTVSPost2010PropOp48
 70
     1
102
RTVSPost2010Prop49
280
     0
102
RTVSPost2010PropOp49
 70
     1
102
RTVSPost2010Prop50
 90
       50
102
RTVSPost2010PropOp50
 70
     1
102
RTVSPost2010Prop51ColorIndex
 90
      256
102
RTVSPost2010Prop51ColorRGB
 90
-16777216
102
RTVSPost2010PropOp51
 70
     0
102
RTVSPost2010Prop52
140
1.0
102
RTVSPost2010PropOp52
 70
     0
102
RTVSPost2010Prop53
 90
        2
102
RTVSPost2010PropOp53
 70
     1
102
RTVSPost2010Prop54
  1
strokes_ogs.tif
102
RTVSPost2010PropOp54
 70
     1
102
RTVSPost2010Prop55
280
     0
102
RTVSPost2010PropOp55
 70
     1
102
RTVSPost2010Prop56
140
1.0
102
RTVSPost2010PropOp56
 70
     1
102
RTVSPost2010Prop57
140
1.0
102
RTVSPost2010PropOp57
 70
     1
102
RTVSPropertyOp0
 70
     1
102
RTVSPropertyOp1
 70
     1
102
RTVSPropertyOp2
 70
     1
102
RTVSPropertyOp3
 70
     1
102
RTVSPropertyOp4
 70
     1
102
RTVSPropertyOp5
 70
     1
102
RTVSPropertyOp6
 70
     1
102
RTVSPropertyOp7
 70
     1
102
RTVSPropertyOp8
 70
     1
102
RTVSPropertyOp9
 70
     1
102
RTVSPropertyOp10
 70
     1
102
RTVSPropertyOp11
 70
     1
102
RTVSPropertyOp12
 70
     1
102
RTVSPropertyOp13
 70
     1
102
RTVSPropertyOp14
 70
     1
102
RTVSPropertyOp15
 70
     1
102
RTVSPropertyOp16
 70
     1
102
RTVSPropertyOp17
 70
     1
102
RTVSPropertyOp18
 70
     1
102
RTVSPropertyOp19
 70
     1
102
RTVSPropertyOp20
 70
     1
102
RTVSPropertyOp21
 70
     1
102
RTVSPropertyOp22
 70
     1
102
RTVSPropertyOp23
 70
     1
102
RTVSPropertyOp24
 70
     1
102
RTVSPropertyOp25
 70
     1
102
RTVSPropertyOp26
 70
     1
102
RTVSPropertyOp27
 70
     1
102
RTVSPropertyOp28
 70
     1
102
RTVSPropertyOp29
 70
     1
102
RTVSPropertyOp30
 70
     1
102
RTVSPropertyOp31
 70
     1
102
RTVSPropertyOp32
 70
     1
102
RTVSPropertyOp33
 70
     1
102
RTVSPropertyOp34
 70
     1
102
RTVSPropertyOp35
 70
     1
102
RTVSPropertyOp36
 70
     1
102
RTVSPropertyOp37
 70
     1
102
RTVSPropertyOp38
 70
     1
102
RTVSPropertyOp39
 70
     1
102
RTVSPropertyOp40
 70
     1
102
RTVSPropertyOp41
 70
     1
102
RTVSPropertyOp42
 70
     1
102
RTVSPropertyOp43
 70
     1
102
RTVSPropertyOp44
 70
     1
102
RTVSPropertyOp45
 70
     1
102
RTVSPropertyOp46
 70
     1
102
RTVSPropertyOp47
 70
     1
102
RTVSPropertyOp48
 70
     1
102
RTVSPropertyOp49
 70
     1
102
RTVSPropertyOp50
 70
     1
102
RTVSPropertyOp51
 70
     0
102
RTVSPropertyOp52
 70
     0
102
RTVSPropertyOp53
 70
     1
102
RTVSPropertyOp54
 70
     1
102
RTVSPropertyOp55
 70
     1
102
RTVSPropertyOp56
 70
     1
102
RTVSPropertyOp57
 70
     1
102
RTVSPropertyOp58
 70
     1
102
RTVSPropertyOp59
 70
     1
102
RTVSPropertyOp60
 70
     1
102
RTVSPropertyOp61
 70
     1
102
RTVSPropertyOp62
 70
     1
  0
XRECORD
  5
3DCE
102
{ACAD_REACTORS
330
3DCD
102
}
330
3DCD
100
AcDbXrecord
280
     1
102
RTVSPost2010Prop28
280
     0
102
RTVSPost2010PropOp28
 70
     1
102
RTVSPost2010Prop29
280
     1
102
RTVSPost2010PropOp29
 70
     1
102
RTVSPost2010Prop30
280
     1
102
RTVSPost2010PropOp30
 70
     1
102
RTVSPost2010Prop31
280
     0
102
RTVSPost2010PropOp31
 70
     1
102
RTVSPost2010Prop32
280
     0
102
RTVSPost2010PropOp32
 70
     1
102
RTVSPost2010Prop33
280
     0
102
RTVSPost2010PropOp33
 70
     1
102
RTVSPost2010Prop34
280
     0
102
RTVSPost2010PropOp34
 70
     1
102
RTVSPost2010Prop35
280
     0
102
RTVSPost2010PropOp35
 70
     1
102
RTVSPost2010Prop36
280
     0
102
RTVSPost2010PropOp36
 70
     1
102
RTVSPost2010Prop37
 90
       50
102
RTVSPost2010PropOp37
 70
     1
102
RTVSPost2010Prop38
140
0.0
102
RTVSPost2010PropOp38
 70
     1
102
RTVSPost2010Prop39
140
1.0
102
RTVSPost2010PropOp39
 70
     1
102
RTVSPost2010Prop40
 90
        0
102
RTVSPost2010PropOp40
 70
     1
102
RTVSPost2010Prop41ColorIndex
 90
       18
102
RTVSPost2010Prop41ColorRGB
 90
        0
102
RTVSPost2010PropOp41
 70
     1
102
RTVSPost2010Prop42
 90
       50
102
RTVSPost2010PropOp42
 70
     1
102
RTVSPost2010Prop43
 90
        3
102
RTVSPost2010PropOp43
 70
     1
102
RTVSPost2010Prop44ColorIndex
 90
        5
102
RTVSPost2010Prop44ColorRGB
 90
      255
102
RTVSPost2010PropOp44
 70
     1
102
RTVSPost2010Prop45
280
     0
102
RTVSPost2010PropOp45
 70
     1
102
RTVSPost2010Prop46
 90
       50
102
RTVSPost2010PropOp46
 70
     1
102
RTVSPost2010Prop47
 90
       50
102
RTVSPost2010PropOp47
 70
     1
102
RTVSPost2010Prop48
 90
       50
102
RTVSPost2010PropOp48
 70
     1
102
RTVSPost2010Prop49
280
     0
102
RTVSPost2010PropOp49
 70
     1
102
RTVSPost2010Prop50
 90
       50
102
RTVSPost2010PropOp50
 70
     1
102
RTVSPost2010Prop51ColorIndex
 90
      256
102
RTVSPost2010Prop51ColorRGB
 90
-16777216
102
RTVSPost2010PropOp51
 70
     0
102
RTVSPost2010Prop52
140
1.0
102
RTVSPost2010PropOp52
 70
     0
102
RTVSPost2010Prop53
 90
        2
102
RTVSPost2010PropOp53
 70
     1
102
RTVSPost2010Prop54
  1
strokes_ogs.tif
102
RTVSPost2010PropOp54
 70
     1
102
RTVSPost2010Prop55
280
     0
102
RTVSPost2010PropOp55
 70
     1
102
RTVSPost2010Prop56
140
1.0
102
RTVSPost2010PropOp56
 70
     1
102
RTVSPost2010Prop57
140
1.0
102
RTVSPost2010PropOp57
 70
     1
102
RTVSPropertyOp0
 70
     0
102
RTVSPropertyOp1
 70
     0
102
RTVSPropertyOp2
 70
     0
102
RTVSPropertyOp3
 70
     0
102
RTVSPropertyOp4
 70
     0
102
RTVSPropertyOp5
 70
     0
102
RTVSPropertyOp6
 70
     0
102
RTVSPropertyOp7
 70
     0
102
RTVSPropertyOp8
 70
     0
102
RTVSPropertyOp9
 70
     0
102
RTVSPropertyOp10
 70
     0
102
RTVSPropertyOp11
 70
     0
102
RTVSPropertyOp12
 70
     0
102
RTVSPropertyOp13
 70
     0
102
RTVSPropertyOp14
 70
     2
102
RTVSPropertyOp15
 70
     0
102
RTVSPropertyOp16
 70
     0
102
RTVSPropertyOp17
 70
     0
102
RTVSPropertyOp18
 70
     0
102
RTVSPropertyOp19
 70
     0
102
RTVSPropertyOp20
 70
     0
102
RTVSPropertyOp21
 70
     0
102
RTVSPropertyOp22
 70
     0
102
RTVSPropertyOp23
 70
     0
102
RTVSPropertyOp24
 70
     0
102
RTVSPropertyOp25
 70
     0
102
RTVSPropertyOp26
 70
     0
102
RTVSPropertyOp27
 70
     0
102
RTVSPropertyOp28
 70
     1
102
RTVSPropertyOp29
 70
     1
102
RTVSPropertyOp30
 70
     1
102
RTVSPropertyOp31
 70
     1
102
RTVSPropertyOp32
 70
     1
102
RTVSPropertyOp33
 70
     1
102
RTVSPropertyOp34
 70
     1
102
RTVSPropertyOp35
 70
     1
102
RTVSPropertyOp36
 70
     1
102
RTVSPropertyOp37
 70
     1
102
RTVSPropertyOp38
 70
     1
102
RTVSPropertyOp39
 70
     1
102
RTVSPropertyOp40
 70
     1
102
RTVSPropertyOp41
 70
     1
102
RTVSPropertyOp42
 70
     1
102
RTVSPropertyOp43
 70
     1
102
RTVSPropertyOp44
 70
     1
102
RTVSPropertyOp45
 70
     1
102
RTVSPropertyOp46
 70
     1
102
RTVSPropertyOp47
 70
     1
102
RTVSPropertyOp48
 70
     1
102
RTVSPropertyOp49
 70
     1
102
RTVSPropertyOp50
 70
     1
102
RTVSPropertyOp51
 70
     0
102
RTVSPropertyOp52
 70
     0
102
RTVSPropertyOp53
 70
     1
102
RTVSPropertyOp54
 70
     1
102
RTVSPropertyOp55
 70
     1
102
RTVSPropertyOp56
 70
     1
102
RTVSPropertyOp57
 70
     1
102
RTVSPropertyOp58
 70
     1
102
RTVSPropertyOp59
 70
     1
102
RTVSPropertyOp60
 70
     1
102
RTVSPropertyOp61
 70
     1
102
RTVSPropertyOp62
 70
     1
  0
XRECORD
  5
3DC6
102
{ACAD_REACTORS
330
3DC5
102
}
330
3DC5
100
AcDbXrecord
280
     1
102
RTVSPost2010Prop28
280
     0
102
RTVSPost2010PropOp28
 70
     1
102
RTVSPost2010Prop29
280
     1
102
RTVSPost2010PropOp29
 70
     1
102
RTVSPost2010Prop30
280
     1
102
RTVSPost2010PropOp30
 70
     1
102
RTVSPost2010Prop31
280
     0
102
RTVSPost2010PropOp31
 70
     1
102
RTVSPost2010Prop32
280
     0
102
RTVSPost2010PropOp32
 70
     1
102
RTVSPost2010Prop33
280
     0
102
RTVSPost2010PropOp33
 70
     1
102
RTVSPost2010Prop34
280
     0
102
RTVSPost2010PropOp34
 70
     1
102
RTVSPost2010Prop35
280
     0
102
RTVSPost2010PropOp35
 70
     1
102
RTVSPost2010Prop36
280
     0
102
RTVSPost2010PropOp36
 70
     1
102
RTVSPost2010Prop37
 90
       50
102
RTVSPost2010PropOp37
 70
     1
102
RTVSPost2010Prop38
140
0.0
102
RTVSPost2010PropOp38
 70
     1
102
RTVSPost2010Prop39
140
1.0
102
RTVSPost2010PropOp39
 70
     1
102
RTVSPost2010Prop40
 90
        0
102
RTVSPost2010PropOp40
 70
     1
102
RTVSPost2010Prop41ColorIndex
 90
       18
102
RTVSPost2010Prop41ColorRGB
 90
        0
102
RTVSPost2010PropOp41
 70
     1
102
RTVSPost2010Prop42
 90
       50
102
RTVSPost2010PropOp42
 70
     1
102
RTVSPost2010Prop43
 90
        3
102
RTVSPost2010PropOp43
 70
     1
102
RTVSPost2010Prop44ColorIndex
 90
        5
102
RTVSPost2010Prop44ColorRGB
 90
      255
102
RTVSPost2010PropOp44
 70
     1
102
RTVSPost2010Prop45
280
     0
102
RTVSPost2010PropOp45
 70
     1
102
RTVSPost2010Prop46
 90
       50
102
RTVSPost2010PropOp46
 70
     1
102
RTVSPost2010Prop47
 90
       50
102
RTVSPost2010PropOp47
 70
     1
102
RTVSPost2010Prop48
 90
       50
102
RTVSPost2010PropOp48
 70
     1
102
RTVSPost2010Prop49
280
     0
102
RTVSPost2010PropOp49
 70
     1
102
RTVSPost2010Prop50
 90
       50
102
RTVSPost2010PropOp50
 70
     1
102
RTVSPost2010Prop51ColorIndex
 90
      256
102
RTVSPost2010Prop51ColorRGB
 90
-16777216
102
RTVSPost2010PropOp51
 70
     0
102
RTVSPost2010Prop52
140
1.0
102
RTVSPost2010PropOp52
 70
     0
102
RTVSPost2010Prop53
 90
        2
102
RTVSPost2010PropOp53
 70
     1
102
RTVSPost2010Prop54
  1
strokes_ogs.tif
102
RTVSPost2010PropOp54
 70
     1
102
RTVSPost2010Prop55
280
     0
102
RTVSPost2010PropOp55
 70
     1
102
RTVSPost2010Prop56
140
1.0
102
RTVSPost2010PropOp56
 70
     1
102
RTVSPost2010Prop57
140
1.0
102
RTVSPost2010PropOp57
 70
     1
102
RTVSPropertyOp0
 70
     1
102
RTVSPropertyOp1
 70
     1
102
RTVSPropertyOp2
 70
     1
102
RTVSPropertyOp3
 70
     1
102
RTVSPropertyOp4
 70
     1
102
RTVSPropertyOp5
 70
     1
102
RTVSPropertyOp6
 70
     1
102
RTVSPropertyOp7
 70
     1
102
RTVSPropertyOp8
 70
     1
102
RTVSPropertyOp9
 70
     1
102
RTVSPropertyOp10
 70
     1
102
RTVSPropertyOp11
 70
     1
102
RTVSPropertyOp12
 70
     1
102
RTVSPropertyOp13
 70
     1
102
RTVSPropertyOp14
 70
     1
102
RTVSPropertyOp15
 70
     1
102
RTVSPropertyOp16
 70
     1
102
RTVSPropertyOp17
 70
     1
102
RTVSPropertyOp18
 70
     1
102
RTVSPropertyOp19
 70
     1
102
RTVSPropertyOp20
 70
     1
102
RTVSPropertyOp21
 70
     1
102
RTVSPropertyOp22
 70
     1
102
RTVSPropertyOp23
 70
     1
102
RTVSPropertyOp24
 70
     1
102
RTVSPropertyOp25
 70
     1
102
RTVSPropertyOp26
 70
     1
102
RTVSPropertyOp27
 70
     1
102
RTVSPropertyOp28
 70
     1
102
RTVSPropertyOp29
 70
     1
102
RTVSPropertyOp30
 70
     1
102
RTVSPropertyOp31
 70
     1
102
RTVSPropertyOp32
 70
     1
102
RTVSPropertyOp33
 70
     1
102
RTVSPropertyOp34
 70
     1
102
RTVSPropertyOp35
 70
     1
102
RTVSPropertyOp36
 70
     1
102
RTVSPropertyOp37
 70
     1
102
RTVSPropertyOp38
 70
     1
102
RTVSPropertyOp39
 70
     1
102
RTVSPropertyOp40
 70
     1
102
RTVSPropertyOp41
 70
     1
102
RTVSPropertyOp42
 70
     1
102
RTVSPropertyOp43
 70
     1
102
RTVSPropertyOp44
 70
     1
102
RTVSPropertyOp45
 70
     1
102
RTVSPropertyOp46
 70
     1
102
RTVSPropertyOp47
 70
     1
102
RTVSPropertyOp48
 70
     1
102
RTVSPropertyOp49
 70
     1
102
RTVSPropertyOp50
 70
     1
102
RTVSPropertyOp51
 70
     0
102
RTVSPropertyOp52
 70
     0
102
RTVSPropertyOp53
 70
     1
102
RTVSPropertyOp54
 70
     1
102
RTVSPropertyOp55
 70
     1
102
RTVSPropertyOp56
 70
     1
102
RTVSPropertyOp57
 70
     1
102
RTVSPropertyOp58
 70
     1
102
RTVSPropertyOp59
 70
     1
102
RTVSPropertyOp60
 70
     1
102
RTVSPropertyOp61
 70
     1
102
RTVSPropertyOp62
 70
     1
  0
XRECORD
  5
3DD0
102
{ACAD_REACTORS
330
3DCF
102
}
330
3DCF
100
AcDbXrecord
280
     1
102
RTVSPost2010Prop28
280
     0
102
RTVSPost2010PropOp28
 70
     1
102
RTVSPost2010Prop29
280
     1
102
RTVSPost2010PropOp29
 70
     1
102
RTVSPost2010Prop30
280
     1
102
RTVSPost2010PropOp30
 70
     1
102
RTVSPost2010Prop31
280
     0
102
RTVSPost2010PropOp31
 70
     1
102
RTVSPost2010Prop32
280
     0
102
RTVSPost2010PropOp32
 70
     1
102
RTVSPost2010Prop33
280
     0
102
RTVSPost2010PropOp33
 70
     1
102
RTVSPost2010Prop34
280
     0
102
RTVSPost2010PropOp34
 70
     1
102
RTVSPost2010Prop35
280
     0
102
RTVSPost2010PropOp35
 70
     1
102
RTVSPost2010Prop36
280
     0
102
RTVSPost2010PropOp36
 70
     1
102
RTVSPost2010Prop37
 90
       50
102
RTVSPost2010PropOp37
 70
     1
102
RTVSPost2010Prop38
140
0.0
102
RTVSPost2010PropOp38
 70
     1
102
RTVSPost2010Prop39
140
1.0
102
RTVSPost2010PropOp39
 70
     1
102
RTVSPost2010Prop40
 90
        0
102
RTVSPost2010PropOp40
 70
     1
102
RTVSPost2010Prop41ColorIndex
 90
       18
102
RTVSPost2010Prop41ColorRGB
 90
        0
102
RTVSPost2010PropOp41
 70
     1
102
RTVSPost2010Prop42
 90
       50
102
RTVSPost2010PropOp42
 70
     1
102
RTVSPost2010Prop43
 90
        3
102
RTVSPost2010PropOp43
 70
     1
102
RTVSPost2010Prop44ColorIndex
 90
        5
102
RTVSPost2010Prop44ColorRGB
 90
      255
102
RTVSPost2010PropOp44
 70
     1
102
RTVSPost2010Prop45
280
     0
102
RTVSPost2010PropOp45
 70
     1
102
RTVSPost2010Prop46
 90
       50
102
RTVSPost2010PropOp46
 70
     1
102
RTVSPost2010Prop47
 90
       50
102
RTVSPost2010PropOp47
 70
     1
102
RTVSPost2010Prop48
 90
       50
102
RTVSPost2010PropOp48
 70
     1
102
RTVSPost2010Prop49
280
     0
102
RTVSPost2010PropOp49
 70
     1
102
RTVSPost2010Prop50
 90
       50
102
RTVSPost2010PropOp50
 70
     1
102
RTVSPost2010Prop51ColorIndex
 90
      256
102
RTVSPost2010Prop51ColorRGB
 90
-16777216
102
RTVSPost2010PropOp51
 70
     0
102
RTVSPost2010Prop52
140
1.0
102
RTVSPost2010PropOp52
 70
     0
102
RTVSPost2010Prop53
 90
        2
102
RTVSPost2010PropOp53
 70
     1
102
RTVSPost2010Prop54
  1
strokes_ogs.tif
102
RTVSPost2010PropOp54
 70
     1
102
RTVSPost2010Prop55
280
     0
102
RTVSPost2010PropOp55
 70
     1
102
RTVSPost2010Prop56
140
1.0
102
RTVSPost2010PropOp56
 70
     1
102
RTVSPost2010Prop57
140
1.0
102
RTVSPost2010PropOp57
 70
     1
102
RTVSPropertyOp0
 70
     0
102
RTVSPropertyOp1
 70
     0
102
RTVSPropertyOp2
 70
     0
102
RTVSPropertyOp3
 70
     0
102
RTVSPropertyOp4
 70
     0
102
RTVSPropertyOp5
 70
     0
102
RTVSPropertyOp6
 70
     0
102
RTVSPropertyOp7
 70
     0
102
RTVSPropertyOp8
 70
     0
102
RTVSPropertyOp9
 70
     0
102
RTVSPropertyOp10
 70
     0
102
RTVSPropertyOp11
 70
     0
102
RTVSPropertyOp12
 70
     0
102
RTVSPropertyOp13
 70
     0
102
RTVSPropertyOp14
 70
     2
102
RTVSPropertyOp15
 70
     0
102
RTVSPropertyOp16
 70
     0
102
RTVSPropertyOp17
 70
     0
102
RTVSPropertyOp18
 70
     0
102
RTVSPropertyOp19
 70
     0
102
RTVSPropertyOp20
 70
     0
102
RTVSPropertyOp21
 70
     0
102
RTVSPropertyOp22
 70
     0
102
RTVSPropertyOp23
 70
     0
102
RTVSPropertyOp24
 70
     0
102
RTVSPropertyOp25
 70
     0
102
RTVSPropertyOp26
 70
     0
102
RTVSPropertyOp27
 70
     0
102
RTVSPropertyOp28
 70
     1
102
RTVSPropertyOp29
 70
     1
102
RTVSPropertyOp30
 70
     1
102
RTVSPropertyOp31
 70
     1
102
RTVSPropertyOp32
 70
     1
102
RTVSPropertyOp33
 70
     1
102
RTVSPropertyOp34
 70
     1
102
RTVSPropertyOp35
 70
     1
102
RTVSPropertyOp36
 70
     1
102
RTVSPropertyOp37
 70
     1
102
RTVSPropertyOp38
 70
     1
102
RTVSPropertyOp39
 70
     1
102
RTVSPropertyOp40
 70
     1
102
RTVSPropertyOp41
 70
     1
102
RTVSPropertyOp42
 70
     1
102
RTVSPropertyOp43
 70
     1
102
RTVSPropertyOp44
 70
     1
102
RTVSPropertyOp45
 70
     1
102
RTVSPropertyOp46
 70
     1
102
RTVSPropertyOp47
 70
     1
102
RTVSPropertyOp48
 70
     1
102
RTVSPropertyOp49
 70
     1
102
RTVSPropertyOp50
 70
     1
102
RTVSPropertyOp51
 70
     0
102
RTVSPropertyOp52
 70
     0
102
RTVSPropertyOp53
 70
     1
102
RTVSPropertyOp54
 70
     1
102
RTVSPropertyOp55
 70
     1
102
RTVSPropertyOp56
 70
     1
102
RTVSPropertyOp57
 70
     1
102
RTVSPropertyOp58
 70
     1
102
RTVSPropertyOp59
 70
     1
102
RTVSPropertyOp60
 70
     1
102
RTVSPropertyOp61
 70
     1
102
RTVSPropertyOp62
 70
     1
  0
XRECORD
  5
3DBE
102
{ACAD_REACTORS
330
3DBD
102
}
330
3DBD
100
AcDbXrecord
280
     1
102
RTVSPost2010Prop28
280
     0
102
RTVSPost2010PropOp28
 70
     1
102
RTVSPost2010Prop29
280
     1
102
RTVSPost2010PropOp29
 70
     1
102
RTVSPost2010Prop30
280
     1
102
RTVSPost2010PropOp30
 70
     1
102
RTVSPost2010Prop31
280
     0
102
RTVSPost2010PropOp31
 70
     1
102
RTVSPost2010Prop32
280
     0
102
RTVSPost2010PropOp32
 70
     1
102
RTVSPost2010Prop33
280
     0
102
RTVSPost2010PropOp33
 70
     1
102
RTVSPost2010Prop34
280
     0
102
RTVSPost2010PropOp34
 70
     1
102
RTVSPost2010Prop35
280
     0
102
RTVSPost2010PropOp35
 70
     1
102
RTVSPost2010Prop36
280
     0
102
RTVSPost2010PropOp36
 70
     1
102
RTVSPost2010Prop37
 90
       50
102
RTVSPost2010PropOp37
 70
     1
102
RTVSPost2010Prop38
140
0.0
102
RTVSPost2010PropOp38
 70
     1
102
RTVSPost2010Prop39
140
1.0
102
RTVSPost2010PropOp39
 70
     1
102
RTVSPost2010Prop40
 90
        0
102
RTVSPost2010PropOp40
 70
     1
102
RTVSPost2010Prop41ColorIndex
 90
       18
102
RTVSPost2010Prop41ColorRGB
 90
        0
102
RTVSPost2010PropOp41
 70
     1
102
RTVSPost2010Prop42
 90
       50
102
RTVSPost2010PropOp42
 70
     1
102
RTVSPost2010Prop43
 90
        3
102
RTVSPost2010PropOp43
 70
     1
102
RTVSPost2010Prop44ColorIndex
 90
        5
102
RTVSPost2010Prop44ColorRGB
 90
      255
102
RTVSPost2010PropOp44
 70
     1
102
RTVSPost2010Prop45
280
     0
102
RTVSPost2010PropOp45
 70
     1
102
RTVSPost2010Prop46
 90
       50
102
RTVSPost2010PropOp46
 70
     1
102
RTVSPost2010Prop47
 90
       50
102
RTVSPost2010PropOp47
 70
     1
102
RTVSPost2010Prop48
 90
       50
102
RTVSPost2010PropOp48
 70
     1
102
RTVSPost2010Prop49
280
     0
102
RTVSPost2010PropOp49
 70
     1
102
RTVSPost2010Prop50
 90
       50
102
RTVSPost2010PropOp50
 70
     1
102
RTVSPost2010Prop51ColorIndex
 90
      256
102
RTVSPost2010Prop51ColorRGB
 90
-16777216
102
RTVSPost2010PropOp51
 70
     0
102
RTVSPost2010Prop52
140
1.0
102
RTVSPost2010PropOp52
 70
     0
102
RTVSPost2010Prop53
 90
        2
102
RTVSPost2010PropOp53
 70
     1
102
RTVSPost2010Prop54
  1
strokes_ogs.tif
102
RTVSPost2010PropOp54
 70
     1
102
RTVSPost2010Prop55
280
     0
102
RTVSPost2010PropOp55
 70
     1
102
RTVSPost2010Prop56
140
1.0
102
RTVSPost2010PropOp56
 70
     1
102
RTVSPost2010Prop57
140
1.0
102
RTVSPost2010PropOp57
 70
     1
102
RTVSPropertyOp0
 70
     1
102
RTVSPropertyOp1
 70
     1
102
RTVSPropertyOp2
 70
     1
102
RTVSPropertyOp3
 70
     1
102
RTVSPropertyOp4
 70
     1
102
RTVSPropertyOp5
 70
     1
102
RTVSPropertyOp6
 70
     1
102
RTVSPropertyOp7
 70
     1
102
RTVSPropertyOp8
 70
     1
102
RTVSPropertyOp9
 70
     1
102
RTVSPropertyOp10
 70
     1
102
RTVSPropertyOp11
 70
     1
102
RTVSPropertyOp12
 70
     1
102
RTVSPropertyOp13
 70
     1
102
RTVSPropertyOp14
 70
     1
102
RTVSPropertyOp15
 70
     1
102
RTVSPropertyOp16
 70
     1
102
RTVSPropertyOp17
 70
     1
102
RTVSPropertyOp18
 70
     1
102
RTVSPropertyOp19
 70
     1
102
RTVSPropertyOp20
 70
     1
102
RTVSPropertyOp21
 70
     1
102
RTVSPropertyOp22
 70
     1
102
RTVSPropertyOp23
 70
     1
102
RTVSPropertyOp24
 70
     1
102
RTVSPropertyOp25
 70
     1
102
RTVSPropertyOp26
 70
     1
102
RTVSPropertyOp27
 70
     1
102
RTVSPropertyOp28
 70
     1
102
RTVSPropertyOp29
 70
     1
102
RTVSPropertyOp30
 70
     1
102
RTVSPropertyOp31
 70
     1
102
RTVSPropertyOp32
 70
     1
102
RTVSPropertyOp33
 70
     1
102
RTVSPropertyOp34
 70
     1
102
RTVSPropertyOp35
 70
     1
102
RTVSPropertyOp36
 70
     1
102
RTVSPropertyOp37
 70
     1
102
RTVSPropertyOp38
 70
     1
102
RTVSPropertyOp39
 70
     1
102
RTVSPropertyOp40
 70
     1
102
RTVSPropertyOp41
 70
     1
102
RTVSPropertyOp42
 70
     1
102
RTVSPropertyOp43
 70
     1
102
RTVSPropertyOp44
 70
     1
102
RTVSPropertyOp45
 70
     1
102
RTVSPropertyOp46
 70
     1
102
RTVSPropertyOp47
 70
     1
102
RTVSPropertyOp48
 70
     1
102
RTVSPropertyOp49
 70
     1
102
RTVSPropertyOp50
 70
     1
102
RTVSPropertyOp51
 70
     0
102
RTVSPropertyOp52
 70
     0
102
RTVSPropertyOp53
 70
     1
102
RTVSPropertyOp54
 70
     1
102
RTVSPropertyOp55
 70
     1
102
RTVSPropertyOp56
 70
     1
102
RTVSPropertyOp57
 70
     1
102
RTVSPropertyOp58
 70
     1
102
RTVSPropertyOp59
 70
     1
102
RTVSPropertyOp60
 70
     1
102
RTVSPropertyOp61
 70
     1
102
RTVSPropertyOp62
 70
     1
  0
XRECORD
  5
3DDC
102
{ACAD_REACTORS
330
3DDB
102
}
330
3DDB
100
AcDbXrecord
280
     1
102
RTVSPost2010Prop28
280
     0
102
RTVSPost2010PropOp28
 70
     1
102
RTVSPost2010Prop29
280
     1
102
RTVSPost2010PropOp29
 70
     1
102
RTVSPost2010Prop30
280
     1
102
RTVSPost2010PropOp30
 70
     1
102
RTVSPost2010Prop31
280
     0
102
RTVSPost2010PropOp31
 70
     1
102
RTVSPost2010Prop32
280
     0
102
RTVSPost2010PropOp32
 70
     1
102
RTVSPost2010Prop33
280
     0
102
RTVSPost2010PropOp33
 70
     1
102
RTVSPost2010Prop34
280
     0
102
RTVSPost2010PropOp34
 70
     1
102
RTVSPost2010Prop35
280
     0
102
RTVSPost2010PropOp35
 70
     1
102
RTVSPost2010Prop36
280
     0
102
RTVSPost2010PropOp36
 70
     1
102
RTVSPost2010Prop37
 90
       50
102
RTVSPost2010PropOp37
 70
     1
102
RTVSPost2010Prop38
140
0.0
102
RTVSPost2010PropOp38
 70
     1
102
RTVSPost2010Prop39
140
1.0
102
RTVSPost2010PropOp39
 70
     1
102
RTVSPost2010Prop40
 90
        0
102
RTVSPost2010PropOp40
 70
     1
102
RTVSPost2010Prop41ColorIndex
 90
       18
102
RTVSPost2010Prop41ColorRGB
 90
        0
102
RTVSPost2010PropOp41
 70
     1
102
RTVSPost2010Prop42
 90
       50
102
RTVSPost2010PropOp42
 70
     1
102
RTVSPost2010Prop43
 90
        3
102
RTVSPost2010PropOp43
 70
     1
102
RTVSPost2010Prop44ColorIndex
 90
        5
102
RTVSPost2010Prop44ColorRGB
 90
      255
102
RTVSPost2010PropOp44
 70
     1
102
RTVSPost2010Prop45
280
     0
102
RTVSPost2010PropOp45
 70
     1
102
RTVSPost2010Prop46
 90
       50
102
RTVSPost2010PropOp46
 70
     1
102
RTVSPost2010Prop47
 90
       50
102
RTVSPost2010PropOp47
 70
     1
102
RTVSPost2010Prop48
 90
       50
102
RTVSPost2010PropOp48
 70
     1
102
RTVSPost2010Prop49
280
     0
102
RTVSPost2010PropOp49
 70
     1
102
RTVSPost2010Prop50
 90
       50
102
RTVSPost2010PropOp50
 70
     1
102
RTVSPost2010Prop51ColorIndex
 90
      256
102
RTVSPost2010Prop51ColorRGB
 90
-16777216
102
RTVSPost2010PropOp51
 70
     0
102
RTVSPost2010Prop52
140
1.0
102
RTVSPost2010PropOp52
 70
     0
102
RTVSPost2010Prop53
 90
        2
102
RTVSPost2010PropOp53
 70
     1
102
RTVSPost2010Prop54
  1
strokes_ogs.tif
102
RTVSPost2010PropOp54
 70
     1
102
RTVSPost2010Prop55
280
     0
102
RTVSPost2010PropOp55
 70
     1
102
RTVSPost2010Prop56
140
1.0
102
RTVSPost2010PropOp56
 70
     1
102
RTVSPost2010Prop57
140
1.0
102
RTVSPost2010PropOp57
 70
     1
102
RTVSPropertyOp0
 70
     1
102
RTVSPropertyOp1
 70
     1
102
RTVSPropertyOp2
 70
     1
102
RTVSPropertyOp3
 70
     1
102
RTVSPropertyOp4
 70
     1
102
RTVSPropertyOp5
 70
     1
102
RTVSPropertyOp6
 70
     1
102
RTVSPropertyOp7
 70
     1
102
RTVSPropertyOp8
 70
     1
102
RTVSPropertyOp9
 70
     1
102
RTVSPropertyOp10
 70
     1
102
RTVSPropertyOp11
 70
     1
102
RTVSPropertyOp12
 70
     1
102
RTVSPropertyOp13
 70
     1
102
RTVSPropertyOp14
 70
     1
102
RTVSPropertyOp15
 70
     1
102
RTVSPropertyOp16
 70
     1
102
RTVSPropertyOp17
 70
     1
102
RTVSPropertyOp18
 70
     1
102
RTVSPropertyOp19
 70
     1
102
RTVSPropertyOp20
 70
     1
102
RTVSPropertyOp21
 70
     1
102
RTVSPropertyOp22
 70
     1
102
RTVSPropertyOp23
 70
     1
102
RTVSPropertyOp24
 70
     1
102
RTVSPropertyOp25
 70
     1
102
RTVSPropertyOp26
 70
     1
102
RTVSPropertyOp27
 70
     1
102
RTVSPropertyOp28
 70
     1
102
RTVSPropertyOp29
 70
     1
102
RTVSPropertyOp30
 70
     1
102
RTVSPropertyOp31
 70
     1
102
RTVSPropertyOp32
 70
     1
102
RTVSPropertyOp33
 70
     1
102
RTVSPropertyOp34
 70
     1
102
RTVSPropertyOp35
 70
     1
102
RTVSPropertyOp36
 70
     1
102
RTVSPropertyOp37
 70
     1
102
RTVSPropertyOp38
 70
     1
102
RTVSPropertyOp39
 70
     1
102
RTVSPropertyOp40
 70
     1
102
RTVSPropertyOp41
 70
     1
102
RTVSPropertyOp42
 70
     1
102
RTVSPropertyOp43
 70
     1
102
RTVSPropertyOp44
 70
     1
102
RTVSPropertyOp45
 70
     1
102
RTVSPropertyOp46
 70
     1
102
RTVSPropertyOp47
 70
     1
102
RTVSPropertyOp48
 70
     1
102
RTVSPropertyOp49
 70
     1
102
RTVSPropertyOp50
 70
     1
102
RTVSPropertyOp51
 70
     0
102
RTVSPropertyOp52
 70
     0
102
RTVSPropertyOp53
 70
     1
102
RTVSPropertyOp54
 70
     1
102
RTVSPropertyOp55
 70
     1
102
RTVSPropertyOp56
 70
     1
102
RTVSPropertyOp57
 70
     1
102
RTVSPropertyOp58
 70
     1
102
RTVSPropertyOp59
 70
     1
102
RTVSPropertyOp60
 70
     1
102
RTVSPropertyOp61
 70
     1
102
RTVSPropertyOp62
 70
     1
  0
XRECORD
  5
3DDA
102
{ACAD_REACTORS
330
3DD9
102
}
330
3DD9
100
AcDbXrecord
280
     1
102
RTVSPost2010Prop28
280
     0
102
RTVSPost2010PropOp28
 70
     1
102
RTVSPost2010Prop29
280
     1
102
RTVSPost2010PropOp29
 70
     1
102
RTVSPost2010Prop30
280
     1
102
RTVSPost2010PropOp30
 70
     1
102
RTVSPost2010Prop31
280
     0
102
RTVSPost2010PropOp31
 70
     1
102
RTVSPost2010Prop32
280
     0
102
RTVSPost2010PropOp32
 70
     1
102
RTVSPost2010Prop33
280
     0
102
RTVSPost2010PropOp33
 70
     1
102
RTVSPost2010Prop34
280
     0
102
RTVSPost2010PropOp34
 70
     1
102
RTVSPost2010Prop35
280
     0
102
RTVSPost2010PropOp35
 70
     1
102
RTVSPost2010Prop36
280
     0
102
RTVSPost2010PropOp36
 70
     1
102
RTVSPost2010Prop37
 90
       50
102
RTVSPost2010PropOp37
 70
     1
102
RTVSPost2010Prop38
140
0.0
102
RTVSPost2010PropOp38
 70
     1
102
RTVSPost2010Prop39
140
1.0
102
RTVSPost2010PropOp39
 70
     1
102
RTVSPost2010Prop40
 90
        0
102
RTVSPost2010PropOp40
 70
     1
102
RTVSPost2010Prop41ColorIndex
 90
       18
102
RTVSPost2010Prop41ColorRGB
 90
        0
102
RTVSPost2010PropOp41
 70
     1
102
RTVSPost2010Prop42
 90
       50
102
RTVSPost2010PropOp42
 70
     1
102
RTVSPost2010Prop43
 90
        3
102
RTVSPost2010PropOp43
 70
     1
102
RTVSPost2010Prop44ColorIndex
 90
        5
102
RTVSPost2010Prop44ColorRGB
 90
      255
102
RTVSPost2010PropOp44
 70
     1
102
RTVSPost2010Prop45
280
     0
102
RTVSPost2010PropOp45
 70
     1
102
RTVSPost2010Prop46
 90
       50
102
RTVSPost2010PropOp46
 70
     1
102
RTVSPost2010Prop47
 90
       50
102
RTVSPost2010PropOp47
 70
     1
102
RTVSPost2010Prop48
 90
       50
102
RTVSPost2010PropOp48
 70
     1
102
RTVSPost2010Prop49
280
     0
102
RTVSPost2010PropOp49
 70
     1
102
RTVSPost2010Prop50
 90
       50
102
RTVSPost2010PropOp50
 70
     1
102
RTVSPost2010Prop51ColorIndex
 90
      256
102
RTVSPost2010Prop51ColorRGB
 90
-16777216
102
RTVSPost2010PropOp51
 70
     0
102
RTVSPost2010Prop52
140
1.0
102
RTVSPost2010PropOp52
 70
     0
102
RTVSPost2010Prop53
 90
        2
102
RTVSPost2010PropOp53
 70
     1
102
RTVSPost2010Prop54
  1
strokes_ogs.tif
102
RTVSPost2010PropOp54
 70
     1
102
RTVSPost2010Prop55
280
     0
102
RTVSPost2010PropOp55
 70
     1
102
RTVSPost2010Prop56
140
1.0
102
RTVSPost2010PropOp56
 70
     1
102
RTVSPost2010Prop57
140
1.0
102
RTVSPost2010PropOp57
 70
     1
102
RTVSPropertyOp0
 70
     1
102
RTVSPropertyOp1
 70
     1
102
RTVSPropertyOp2
 70
     1
102
RTVSPropertyOp3
 70
     1
102
RTVSPropertyOp4
 70
     1
102
RTVSPropertyOp5
 70
     1
102
RTVSPropertyOp6
 70
     1
102
RTVSPropertyOp7
 70
     1
102
RTVSPropertyOp8
 70
     1
102
RTVSPropertyOp9
 70
     1
102
RTVSPropertyOp10
 70
     1
102
RTVSPropertyOp11
 70
     1
102
RTVSPropertyOp12
 70
     1
102
RTVSPropertyOp13
 70
     1
102
RTVSPropertyOp14
 70
     1
102
RTVSPropertyOp15
 70
     1
102
RTVSPropertyOp16
 70
     1
102
RTVSPropertyOp17
 70
     1
102
RTVSPropertyOp18
 70
     1
102
RTVSPropertyOp19
 70
     1
102
RTVSPropertyOp20
 70
     1
102
RTVSPropertyOp21
 70
     1
102
RTVSPropertyOp22
 70
     1
102
RTVSPropertyOp23
 70
     1
102
RTVSPropertyOp24
 70
     1
102
RTVSPropertyOp25
 70
     1
102
RTVSPropertyOp26
 70
     1
102
RTVSPropertyOp27
 70
     1
102
RTVSPropertyOp28
 70
     1
102
RTVSPropertyOp29
 70
     1
102
RTVSPropertyOp30
 70
     1
102
RTVSPropertyOp31
 70
     1
102
RTVSPropertyOp32
 70
     1
102
RTVSPropertyOp33
 70
     1
102
RTVSPropertyOp34
 70
     1
102
RTVSPropertyOp35
 70
     1
102
RTVSPropertyOp36
 70
     1
102
RTVSPropertyOp37
 70
     1
102
RTVSPropertyOp38
 70
     1
102
RTVSPropertyOp39
 70
     1
102
RTVSPropertyOp40
 70
     1
102
RTVSPropertyOp41
 70
     1
102
RTVSPropertyOp42
 70
     1
102
RTVSPropertyOp43
 70
     1
102
RTVSPropertyOp44
 70
     1
102
RTVSPropertyOp45
 70
     1
102
RTVSPropertyOp46
 70
     1
102
RTVSPropertyOp47
 70
     1
102
RTVSPropertyOp48
 70
     1
102
RTVSPropertyOp49
 70
     1
102
RTVSPropertyOp50
 70
     1
102
RTVSPropertyOp51
 70
     0
102
RTVSPropertyOp52
 70
     0
102
RTVSPropertyOp53
 70
     1
102
RTVSPropertyOp54
 70
     1
102
RTVSPropertyOp55
 70
     1
102
RTVSPropertyOp56
 70
     1
102
RTVSPropertyOp57
 70
     1
102
RTVSPropertyOp58
 70
     1
102
RTVSPropertyOp59
 70
     1
102
RTVSPropertyOp60
 70
     1
102
RTVSPropertyOp61
 70
     1
102
RTVSPropertyOp62
 70
     1
  0
XRECORD
  5
3DD4
102
{ACAD_REACTORS
330
3DD3
102
}
330
3DD3
100
AcDbXrecord
280
     1
102
RTVSPost2010Prop28
280
     0
102
RTVSPost2010PropOp28
 70
     1
102
RTVSPost2010Prop29
280
     1
102
RTVSPost2010PropOp29
 70
     1
102
RTVSPost2010Prop30
280
     1
102
RTVSPost2010PropOp30
 70
     1
102
RTVSPost2010Prop31
280
     0
102
RTVSPost2010PropOp31
 70
     1
102
RTVSPost2010Prop32
280
     0
102
RTVSPost2010PropOp32
 70
     1
102
RTVSPost2010Prop33
280
     0
102
RTVSPost2010PropOp33
 70
     1
102
RTVSPost2010Prop34
280
     0
102
RTVSPost2010PropOp34
 70
     1
102
RTVSPost2010Prop35
280
     0
102
RTVSPost2010PropOp35
 70
     1
102
RTVSPost2010Prop36
280
     0
102
RTVSPost2010PropOp36
 70
     1
102
RTVSPost2010Prop37
 90
       50
102
RTVSPost2010PropOp37
 70
     1
102
RTVSPost2010Prop38
140
0.0
102
RTVSPost2010PropOp38
 70
     1
102
RTVSPost2010Prop39
140
1.0
102
RTVSPost2010PropOp39
 70
     1
102
RTVSPost2010Prop40
 90
        0
102
RTVSPost2010PropOp40
 70
     1
102
RTVSPost2010Prop41ColorIndex
 90
       18
102
RTVSPost2010Prop41ColorRGB
 90
        0
102
RTVSPost2010PropOp41
 70
     1
102
RTVSPost2010Prop42
 90
       50
102
RTVSPost2010PropOp42
 70
     1
102
RTVSPost2010Prop43
 90
        3
102
RTVSPost2010PropOp43
 70
     1
102
RTVSPost2010Prop44ColorIndex
 90
        5
102
RTVSPost2010Prop44ColorRGB
 90
      255
102
RTVSPost2010PropOp44
 70
     1
102
RTVSPost2010Prop45
280
     0
102
RTVSPost2010PropOp45
 70
     1
102
RTVSPost2010Prop46
 90
       50
102
RTVSPost2010PropOp46
 70
     1
102
RTVSPost2010Prop47
 90
       50
102
RTVSPost2010PropOp47
 70
     1
102
RTVSPost2010Prop48
 90
       50
102
RTVSPost2010PropOp48
 70
     1
102
RTVSPost2010Prop49
280
     0
102
RTVSPost2010PropOp49
 70
     1
102
RTVSPost2010Prop50
 90
       50
102
RTVSPost2010PropOp50
 70
     1
102
RTVSPost2010Prop51ColorIndex
 90
      256
102
RTVSPost2010Prop51ColorRGB
 90
-16777216
102
RTVSPost2010PropOp51
 70
     0
102
RTVSPost2010Prop52
140
1.0
102
RTVSPost2010PropOp52
 70
     0
102
RTVSPost2010Prop53
 90
        2
102
RTVSPost2010PropOp53
 70
     1
102
RTVSPost2010Prop54
  1
strokes_ogs.tif
102
RTVSPost2010PropOp54
 70
     1
102
RTVSPost2010Prop55
280
     0
102
RTVSPost2010PropOp55
 70
     1
102
RTVSPost2010Prop56
140
1.0
102
RTVSPost2010PropOp56
 70
     1
102
RTVSPost2010Prop57
140
1.0
102
RTVSPost2010PropOp57
 70
     1
102
RTVSPropertyOp0
 70
     1
102
RTVSPropertyOp1
 70
     1
102
RTVSPropertyOp2
 70
     1
102
RTVSPropertyOp3
 70
     1
102
RTVSPropertyOp4
 70
     1
102
RTVSPropertyOp5
 70
     1
102
RTVSPropertyOp6
 70
     1
102
RTVSPropertyOp7
 70
     1
102
RTVSPropertyOp8
 70
     1
102
RTVSPropertyOp9
 70
     1
102
RTVSPropertyOp10
 70
     1
102
RTVSPropertyOp11
 70
     1
102
RTVSPropertyOp12
 70
     1
102
RTVSPropertyOp13
 70
     1
102
RTVSPropertyOp14
 70
     1
102
RTVSPropertyOp15
 70
     1
102
RTVSPropertyOp16
 70
     1
102
RTVSPropertyOp17
 70
     1
102
RTVSPropertyOp18
 70
     1
102
RTVSPropertyOp19
 70
     1
102
RTVSPropertyOp20
 70
     1
102
RTVSPropertyOp21
 70
     1
102
RTVSPropertyOp22
 70
     1
102
RTVSPropertyOp23
 70
     1
102
RTVSPropertyOp24
 70
     1
102
RTVSPropertyOp25
 70
     1
102
RTVSPropertyOp26
 70
     1
102
RTVSPropertyOp27
 70
     1
102
RTVSPropertyOp28
 70
     1
102
RTVSPropertyOp29
 70
     1
102
RTVSPropertyOp30
 70
     1
102
RTVSPropertyOp31
 70
     1
102
RTVSPropertyOp32
 70
     1
102
RTVSPropertyOp33
 70
     1
102
RTVSPropertyOp34
 70
     1
102
RTVSPropertyOp35
 70
     1
102
RTVSPropertyOp36
 70
     1
102
RTVSPropertyOp37
 70
     1
102
RTVSPropertyOp38
 70
     1
102
RTVSPropertyOp39
 70
     1
102
RTVSPropertyOp40
 70
     1
102
RTVSPropertyOp41
 70
     1
102
RTVSPropertyOp42
 70
     1
102
RTVSPropertyOp43
 70
     1
102
RTVSPropertyOp44
 70
     1
102
RTVSPropertyOp45
 70
     1
102
RTVSPropertyOp46
 70
     1
102
RTVSPropertyOp47
 70
     1
102
RTVSPropertyOp48
 70
     1
102
RTVSPropertyOp49
 70
     1
102
RTVSPropertyOp50
 70
     1
102
RTVSPropertyOp51
 70
     0
102
RTVSPropertyOp52
 70
     0
102
RTVSPropertyOp53
 70
     1
102
RTVSPropertyOp54
 70
     1
102
RTVSPropertyOp55
 70
     1
102
RTVSPropertyOp56
 70
     1
102
RTVSPropertyOp57
 70
     1
102
RTVSPropertyOp58
 70
     1
102
RTVSPropertyOp59
 70
     1
102
RTVSPropertyOp60
 70
     1
102
RTVSPropertyOp61
 70
     1
102
RTVSPropertyOp62
 70
     1
  0
XRECORD
  5
3DD6
102
{ACAD_REACTORS
330
3DD5
102
}
330
3DD5
100
AcDbXrecord
280
     1
102
RTVSPost2010Prop28
280
     0
102
RTVSPost2010PropOp28
 70
     1
102
RTVSPost2010Prop29
280
     1
102
RTVSPost2010PropOp29
 70
     1
102
RTVSPost2010Prop30
280
     1
102
RTVSPost2010PropOp30
 70
     1
102
RTVSPost2010Prop31
280
     0
102
RTVSPost2010PropOp31
 70
     1
102
RTVSPost2010Prop32
280
     0
102
RTVSPost2010PropOp32
 70
     1
102
RTVSPost2010Prop33
280
     0
102
RTVSPost2010PropOp33
 70
     1
102
RTVSPost2010Prop34
280
     0
102
RTVSPost2010PropOp34
 70
     1
102
RTVSPost2010Prop35
280
     0
102
RTVSPost2010PropOp35
 70
     1
102
RTVSPost2010Prop36
280
     0
102
RTVSPost2010PropOp36
 70
     1
102
RTVSPost2010Prop37
 90
       50
102
RTVSPost2010PropOp37
 70
     1
102
RTVSPost2010Prop38
140
0.0
102
RTVSPost2010PropOp38
 70
     1
102
RTVSPost2010Prop39
140
1.0
102
RTVSPost2010PropOp39
 70
     1
102
RTVSPost2010Prop40
 90
        0
102
RTVSPost2010PropOp40
 70
     1
102
RTVSPost2010Prop41ColorIndex
 90
       18
102
RTVSPost2010Prop41ColorRGB
 90
        0
102
RTVSPost2010PropOp41
 70
     1
102
RTVSPost2010Prop42
 90
       50
102
RTVSPost2010PropOp42
 70
     1
102
RTVSPost2010Prop43
 90
        3
102
RTVSPost2010PropOp43
 70
     1
102
RTVSPost2010Prop44ColorIndex
 90
        5
102
RTVSPost2010Prop44ColorRGB
 90
      255
102
RTVSPost2010PropOp44
 70
     1
102
RTVSPost2010Prop45
280
     0
102
RTVSPost2010PropOp45
 70
     1
102
RTVSPost2010Prop46
 90
       50
102
RTVSPost2010PropOp46
 70
     1
102
RTVSPost2010Prop47
 90
       50
102
RTVSPost2010PropOp47
 70
     1
102
RTVSPost2010Prop48
 90
       50
102
RTVSPost2010PropOp48
 70
     1
102
RTVSPost2010Prop49
280
     0
102
RTVSPost2010PropOp49
 70
     1
102
RTVSPost2010Prop50
 90
       50
102
RTVSPost2010PropOp50
 70
     1
102
RTVSPost2010Prop51ColorIndex
 90
      256
102
RTVSPost2010Prop51ColorRGB
 90
-16777216
102
RTVSPost2010PropOp51
 70
     0
102
RTVSPost2010Prop52
140
1.0
102
RTVSPost2010PropOp52
 70
     0
102
RTVSPost2010Prop53
 90
        2
102
RTVSPost2010PropOp53
 70
     1
102
RTVSPost2010Prop54
  1
strokes_ogs.tif
102
RTVSPost2010PropOp54
 70
     1
102
RTVSPost2010Prop55
280
     0
102
RTVSPost2010PropOp55
 70
     1
102
RTVSPost2010Prop56
140
1.0
102
RTVSPost2010PropOp56
 70
     1
102
RTVSPost2010Prop57
140
1.0
102
RTVSPost2010PropOp57
 70
     1
102
RTVSPropertyOp0
 70
     1
102
RTVSPropertyOp1
 70
     1
102
RTVSPropertyOp2
 70
     1
102
RTVSPropertyOp3
 70
     1
102
RTVSPropertyOp4
 70
     1
102
RTVSPropertyOp5
 70
     1
102
RTVSPropertyOp6
 70
     1
102
RTVSPropertyOp7
 70
     1
102
RTVSPropertyOp8
 70
     1
102
RTVSPropertyOp9
 70
     1
102
RTVSPropertyOp10
 70
     1
102
RTVSPropertyOp11
 70
     1
102
RTVSPropertyOp12
 70
     1
102
RTVSPropertyOp13
 70
     1
102
RTVSPropertyOp14
 70
     1
102
RTVSPropertyOp15
 70
     1
102
RTVSPropertyOp16
 70
     1
102
RTVSPropertyOp17
 70
     1
102
RTVSPropertyOp18
 70
     1
102
RTVSPropertyOp19
 70
     1
102
RTVSPropertyOp20
 70
     1
102
RTVSPropertyOp21
 70
     1
102
RTVSPropertyOp22
 70
     1
102
RTVSPropertyOp23
 70
     1
102
RTVSPropertyOp24
 70
     1
102
RTVSPropertyOp25
 70
     1
102
RTVSPropertyOp26
 70
     1
102
RTVSPropertyOp27
 70
     1
102
RTVSPropertyOp28
 70
     1
102
RTVSPropertyOp29
 70
     1
102
RTVSPropertyOp30
 70
     1
102
RTVSPropertyOp31
 70
     1
102
RTVSPropertyOp32
 70
     1
102
RTVSPropertyOp33
 70
     1
102
RTVSPropertyOp34
 70
     1
102
RTVSPropertyOp35
 70
     1
102
RTVSPropertyOp36
 70
     1
102
RTVSPropertyOp37
 70
     1
102
RTVSPropertyOp38
 70
     1
102
RTVSPropertyOp39
 70
     1
102
RTVSPropertyOp40
 70
     1
102
RTVSPropertyOp41
 70
     1
102
RTVSPropertyOp42
 70
     1
102
RTVSPropertyOp43
 70
     1
102
RTVSPropertyOp44
 70
     1
102
RTVSPropertyOp45
 70
     1
102
RTVSPropertyOp46
 70
     1
102
RTVSPropertyOp47
 70
     1
102
RTVSPropertyOp48
 70
     1
102
RTVSPropertyOp49
 70
     1
102
RTVSPropertyOp50
 70
     1
102
RTVSPropertyOp51
 70
     0
102
RTVSPropertyOp52
 70
     0
102
RTVSPropertyOp53
 70
     1
102
RTVSPropertyOp54
 70
     1
102
RTVSPropertyOp55
 70
     1
102
RTVSPropertyOp56
 70
     1
102
RTVSPropertyOp57
 70
     1
102
RTVSPropertyOp58
 70
     1
102
RTVSPropertyOp59
 70
     1
102
RTVSPropertyOp60
 70
     1
102
RTVSPropertyOp61
 70
     1
102
RTVSPropertyOp62
 70
     1
  0
XRECORD
  5
3DC4
102
{ACAD_REACTORS
330
3DC3
102
}
330
3DC3
100
AcDbXrecord
280
     1
102
RTVSPost2010Prop28
280
     0
102
RTVSPost2010PropOp28
 70
     1
102
RTVSPost2010Prop29
280
     1
102
RTVSPost2010PropOp29
 70
     1
102
RTVSPost2010Prop30
280
     1
102
RTVSPost2010PropOp30
 70
     1
102
RTVSPost2010Prop31
280
     0
102
RTVSPost2010PropOp31
 70
     1
102
RTVSPost2010Prop32
280
     0
102
RTVSPost2010PropOp32
 70
     1
102
RTVSPost2010Prop33
280
     0
102
RTVSPost2010PropOp33
 70
     1
102
RTVSPost2010Prop34
280
     0
102
RTVSPost2010PropOp34
 70
     1
102
RTVSPost2010Prop35
280
     0
102
RTVSPost2010PropOp35
 70
     1
102
RTVSPost2010Prop36
280
     0
102
RTVSPost2010PropOp36
 70
     1
102
RTVSPost2010Prop37
 90
       50
102
RTVSPost2010PropOp37
 70
     1
102
RTVSPost2010Prop38
140
0.0
102
RTVSPost2010PropOp38
 70
     1
102
RTVSPost2010Prop39
140
1.0
102
RTVSPost2010PropOp39
 70
     1
102
RTVSPost2010Prop40
 90
        0
102
RTVSPost2010PropOp40
 70
     1
102
RTVSPost2010Prop41ColorIndex
 90
       18
102
RTVSPost2010Prop41ColorRGB
 90
        0
102
RTVSPost2010PropOp41
 70
     1
102
RTVSPost2010Prop42
 90
       50
102
RTVSPost2010PropOp42
 70
     1
102
RTVSPost2010Prop43
 90
        3
102
RTVSPost2010PropOp43
 70
     1
102
RTVSPost2010Prop44ColorIndex
 90
        5
102
RTVSPost2010Prop44ColorRGB
 90
      255
102
RTVSPost2010PropOp44
 70
     1
102
RTVSPost2010Prop45
280
     0
102
RTVSPost2010PropOp45
 70
     1
102
RTVSPost2010Prop46
 90
       50
102
RTVSPost2010PropOp46
 70
     1
102
RTVSPost2010Prop47
 90
       50
102
RTVSPost2010PropOp47
 70
     1
102
RTVSPost2010Prop48
 90
       50
102
RTVSPost2010PropOp48
 70
     1
102
RTVSPost2010Prop49
280
     0
102
RTVSPost2010PropOp49
 70
     1
102
RTVSPost2010Prop50
 90
       50
102
RTVSPost2010PropOp50
 70
     1
102
RTVSPost2010Prop51ColorIndex
 90
      256
102
RTVSPost2010Prop51ColorRGB
 90
-16777216
102
RTVSPost2010PropOp51
 70
     0
102
RTVSPost2010Prop52
140
1.0
102
RTVSPost2010PropOp52
 70
     0
102
RTVSPost2010Prop53
 90
        2
102
RTVSPost2010PropOp53
 70
     1
102
RTVSPost2010Prop54
  1
strokes_ogs.tif
102
RTVSPost2010PropOp54
 70
     1
102
RTVSPost2010Prop55
280
     0
102
RTVSPost2010PropOp55
 70
     1
102
RTVSPost2010Prop56
140
1.0
102
RTVSPost2010PropOp56
 70
     1
102
RTVSPost2010Prop57
140
1.0
102
RTVSPost2010PropOp57
 70
     1
102
RTVSPropertyOp0
 70
     1
102
RTVSPropertyOp1
 70
     1
102
RTVSPropertyOp2
 70
     1
102
RTVSPropertyOp3
 70
     1
102
RTVSPropertyOp4
 70
     1
102
RTVSPropertyOp5
 70
     1
102
RTVSPropertyOp6
 70
     1
102
RTVSPropertyOp7
 70
     1
102
RTVSPropertyOp8
 70
     1
102
RTVSPropertyOp9
 70
     1
102
RTVSPropertyOp10
 70
     1
102
RTVSPropertyOp11
 70
     1
102
RTVSPropertyOp12
 70
     1
102
RTVSPropertyOp13
 70
     1
102
RTVSPropertyOp14
 70
     1
102
RTVSPropertyOp15
 70
     1
102
RTVSPropertyOp16
 70
     1
102
RTVSPropertyOp17
 70
     1
102
RTVSPropertyOp18
 70
     1
102
RTVSPropertyOp19
 70
     1
102
RTVSPropertyOp20
 70
     1
102
RTVSPropertyOp21
 70
     1
102
RTVSPropertyOp22
 70
     1
102
RTVSPropertyOp23
 70
     1
102
RTVSPropertyOp24
 70
     1
102
RTVSPropertyOp25
 70
     1
102
RTVSPropertyOp26
 70
     1
102
RTVSPropertyOp27
 70
     1
102
RTVSPropertyOp28
 70
     1
102
RTVSPropertyOp29
 70
     1
102
RTVSPropertyOp30
 70
     1
102
RTVSPropertyOp31
 70
     1
102
RTVSPropertyOp32
 70
     1
102
RTVSPropertyOp33
 70
     1
102
RTVSPropertyOp34
 70
     1
102
RTVSPropertyOp35
 70
     1
102
RTVSPropertyOp36
 70
     1
102
RTVSPropertyOp37
 70
     1
102
RTVSPropertyOp38
 70
     1
102
RTVSPropertyOp39
 70
     1
102
RTVSPropertyOp40
 70
     1
102
RTVSPropertyOp41
 70
     1
102
RTVSPropertyOp42
 70
     1
102
RTVSPropertyOp43
 70
     1
102
RTVSPropertyOp44
 70
     1
102
RTVSPropertyOp45
 70
     1
102
RTVSPropertyOp46
 70
     1
102
RTVSPropertyOp47
 70
     1
102
RTVSPropertyOp48
 70
     1
102
RTVSPropertyOp49
 70
     1
102
RTVSPropertyOp50
 70
     1
102
RTVSPropertyOp51
 70
     0
102
RTVSPropertyOp52
 70
     0
102
RTVSPropertyOp53
 70
     1
102
RTVSPropertyOp54
 70
     1
102
RTVSPropertyOp55
 70
     1
102
RTVSPropertyOp56
 70
     1
102
RTVSPropertyOp57
 70
     1
102
RTVSPropertyOp58
 70
     1
102
RTVSPropertyOp59
 70
     1
102
RTVSPropertyOp60
 70
     1
102
RTVSPropertyOp61
 70
     1
102
RTVSPropertyOp62
 70
     1
  0
XRECORD
  5
3DB8
102
{ACAD_REACTORS
330
3DB7
102
}
330
3DB7
100
AcDbXrecord
280
     1
102
RTVSPost2010Prop28
280
     0
102
RTVSPost2010PropOp28
 70
     1
102
RTVSPost2010Prop29
280
     1
102
RTVSPost2010PropOp29
 70
     1
102
RTVSPost2010Prop30
280
     1
102
RTVSPost2010PropOp30
 70
     1
102
RTVSPost2010Prop31
280
     0
102
RTVSPost2010PropOp31
 70
     1
102
RTVSPost2010Prop32
280
     0
102
RTVSPost2010PropOp32
 70
     1
102
RTVSPost2010Prop33
280
     0
102
RTVSPost2010PropOp33
 70
     1
102
RTVSPost2010Prop34
280
     0
102
RTVSPost2010PropOp34
 70
     1
102
RTVSPost2010Prop35
280
     0
102
RTVSPost2010PropOp35
 70
     1
102
RTVSPost2010Prop36
280
     0
102
RTVSPost2010PropOp36
 70
     1
102
RTVSPost2010Prop37
 90
       50
102
RTVSPost2010PropOp37
 70
     1
102
RTVSPost2010Prop38
140
0.0
102
RTVSPost2010PropOp38
 70
     1
102
RTVSPost2010Prop39
140
1.0
102
RTVSPost2010PropOp39
 70
     1
102
RTVSPost2010Prop40
 90
        0
102
RTVSPost2010PropOp40
 70
     1
102
RTVSPost2010Prop41ColorIndex
 90
       18
102
RTVSPost2010Prop41ColorRGB
 90
        0
102
RTVSPost2010PropOp41
 70
     1
102
RTVSPost2010Prop42
 90
       50
102
RTVSPost2010PropOp42
 70
     1
102
RTVSPost2010Prop43
 90
        3
102
RTVSPost2010PropOp43
 70
     1
102
RTVSPost2010Prop44ColorIndex
 90
        5
102
RTVSPost2010Prop44ColorRGB
 90
      255
102
RTVSPost2010PropOp44
 70
     1
102
RTVSPost2010Prop45
280
     0
102
RTVSPost2010PropOp45
 70
     1
102
RTVSPost2010Prop46
 90
       50
102
RTVSPost2010PropOp46
 70
     1
102
RTVSPost2010Prop47
 90
       50
102
RTVSPost2010PropOp47
 70
     1
102
RTVSPost2010Prop48
 90
       50
102
RTVSPost2010PropOp48
 70
     1
102
RTVSPost2010Prop49
280
     0
102
RTVSPost2010PropOp49
 70
     1
102
RTVSPost2010Prop50
 90
       50
102
RTVSPost2010PropOp50
 70
     1
102
RTVSPost2010Prop51ColorIndex
 90
      256
102
RTVSPost2010Prop51ColorRGB
 90
-16777216
102
RTVSPost2010PropOp51
 70
     0
102
RTVSPost2010Prop52
140
1.0
102
RTVSPost2010PropOp52
 70
     0
102
RTVSPost2010Prop53
 90
        2
102
RTVSPost2010PropOp53
 70
     1
102
RTVSPost2010Prop54
  1
strokes_ogs.tif
102
RTVSPost2010PropOp54
 70
     1
102
RTVSPost2010Prop55
280
     0
102
RTVSPost2010PropOp55
 70
     1
102
RTVSPost2010Prop56
140
1.0
102
RTVSPost2010PropOp56
 70
     1
102
RTVSPost2010Prop57
140
1.0
102
RTVSPost2010PropOp57
 70
     1
102
RTVSPropertyOp0
 70
     1
102
RTVSPropertyOp1
 70
     1
102
RTVSPropertyOp2
 70
     1
102
RTVSPropertyOp3
 70
     1
102
RTVSPropertyOp4
 70
     1
102
RTVSPropertyOp5
 70
     1
102
RTVSPropertyOp6
 70
     1
102
RTVSPropertyOp7
 70
     1
102
RTVSPropertyOp8
 70
     1
102
RTVSPropertyOp9
 70
     1
102
RTVSPropertyOp10
 70
     1
102
RTVSPropertyOp11
 70
     1
102
RTVSPropertyOp12
 70
     1
102
RTVSPropertyOp13
 70
     1
102
RTVSPropertyOp14
 70
     1
102
RTVSPropertyOp15
 70
     1
102
RTVSPropertyOp16
 70
     1
102
RTVSPropertyOp17
 70
     1
102
RTVSPropertyOp18
 70
     1
102
RTVSPropertyOp19
 70
     1
102
RTVSPropertyOp20
 70
     1
102
RTVSPropertyOp21
 70
     1
102
RTVSPropertyOp22
 70
     1
102
RTVSPropertyOp23
 70
     1
102
RTVSPropertyOp24
 70
     1
102
RTVSPropertyOp25
 70
     1
102
RTVSPropertyOp26
 70
     1
102
RTVSPropertyOp27
 70
     1
102
RTVSPropertyOp28
 70
     1
102
RTVSPropertyOp29
 70
     1
102
RTVSPropertyOp30
 70
     1
102
RTVSPropertyOp31
 70
     1
102
RTVSPropertyOp32
 70
     1
102
RTVSPropertyOp33
 70
     1
102
RTVSPropertyOp34
 70
     1
102
RTVSPropertyOp35
 70
     1
102
RTVSPropertyOp36
 70
     1
102
RTVSPropertyOp37
 70
     1
102
RTVSPropertyOp38
 70
     1
102
RTVSPropertyOp39
 70
     1
102
RTVSPropertyOp40
 70
     1
102
RTVSPropertyOp41
 70
     1
102
RTVSPropertyOp42
 70
     1
102
RTVSPropertyOp43
 70
     1
102
RTVSPropertyOp44
 70
     1
102
RTVSPropertyOp45
 70
     1
102
RTVSPropertyOp46
 70
     1
102
RTVSPropertyOp47
 70
     1
102
RTVSPropertyOp48
 70
     1
102
RTVSPropertyOp49
 70
     1
102
RTVSPropertyOp50
 70
     1
102
RTVSPropertyOp51
 70
     0
102
RTVSPropertyOp52
 70
     0
102
RTVSPropertyOp53
 70
     1
102
RTVSPropertyOp54
 70
     1
102
RTVSPropertyOp55
 70
     1
102
RTVSPropertyOp56
 70
     1
102
RTVSPropertyOp57
 70
     1
102
RTVSPropertyOp58
 70
     1
102
RTVSPropertyOp59
 70
     1
102
RTVSPropertyOp60
 70
     1
102
RTVSPropertyOp61
 70
     1
102
RTVSPropertyOp62
 70
     1
  0
XRECORD
  5
3DD8
102
{ACAD_REACTORS
330
3DD7
102
}
330
3DD7
100
AcDbXrecord
280
     1
102
RTVSPost2010Prop28
280
     0
102
RTVSPost2010PropOp28
 70
     1
102
RTVSPost2010Prop29
280
     1
102
RTVSPost2010PropOp29
 70
     1
102
RTVSPost2010Prop30
280
     1
102
RTVSPost2010PropOp30
 70
     1
102
RTVSPost2010Prop31
280
     0
102
RTVSPost2010PropOp31
 70
     1
102
RTVSPost2010Prop32
280
     0
102
RTVSPost2010PropOp32
 70
     1
102
RTVSPost2010Prop33
280
     0
102
RTVSPost2010PropOp33
 70
     1
102
RTVSPost2010Prop34
280
     0
102
RTVSPost2010PropOp34
 70
     1
102
RTVSPost2010Prop35
280
     0
102
RTVSPost2010PropOp35
 70
     1
102
RTVSPost2010Prop36
280
     0
102
RTVSPost2010PropOp36
 70
     1
102
RTVSPost2010Prop37
 90
       50
102
RTVSPost2010PropOp37
 70
     1
102
RTVSPost2010Prop38
140
0.0
102
RTVSPost2010PropOp38
 70
     1
102
RTVSPost2010Prop39
140
1.0
102
RTVSPost2010PropOp39
 70
     1
102
RTVSPost2010Prop40
 90
        0
102
RTVSPost2010PropOp40
 70
     1
102
RTVSPost2010Prop41ColorIndex
 90
       18
102
RTVSPost2010Prop41ColorRGB
 90
        0
102
RTVSPost2010PropOp41
 70
     1
102
RTVSPost2010Prop42
 90
       50
102
RTVSPost2010PropOp42
 70
     1
102
RTVSPost2010Prop43
 90
        3
102
RTVSPost2010PropOp43
 70
     1
102
RTVSPost2010Prop44ColorIndex
 90
        5
102
RTVSPost2010Prop44ColorRGB
 90
      255
102
RTVSPost2010PropOp44
 70
     1
102
RTVSPost2010Prop45
280
     0
102
RTVSPost2010PropOp45
 70
     1
102
RTVSPost2010Prop46
 90
       50
102
RTVSPost2010PropOp46
 70
     1
102
RTVSPost2010Prop47
 90
       50
102
RTVSPost2010PropOp47
 70
     1
102
RTVSPost2010Prop48
 90
       50
102
RTVSPost2010PropOp48
 70
     1
102
RTVSPost2010Prop49
280
     0
102
RTVSPost2010PropOp49
 70
     1
102
RTVSPost2010Prop50
 90
       50
102
RTVSPost2010PropOp50
 70
     1
102
RTVSPost2010Prop51ColorIndex
 90
      256
102
RTVSPost2010Prop51ColorRGB
 90
-16777216
102
RTVSPost2010PropOp51
 70
     0
102
RTVSPost2010Prop52
140
1.0
102
RTVSPost2010PropOp52
 70
     0
102
RTVSPost2010Prop53
 90
        2
102
RTVSPost2010PropOp53
 70
     1
102
RTVSPost2010Prop54
  1
strokes_ogs.tif
102
RTVSPost2010PropOp54
 70
     1
102
RTVSPost2010Prop55
280
     0
102
RTVSPost2010PropOp55
 70
     1
102
RTVSPost2010Prop56
140
1.0
102
RTVSPost2010PropOp56
 70
     1
102
RTVSPost2010Prop57
140
1.0
102
RTVSPost2010PropOp57
 70
     1
102
RTVSPropertyOp0
 70
     1
102
RTVSPropertyOp1
 70
     1
102
RTVSPropertyOp2
 70
     1
102
RTVSPropertyOp3
 70
     1
102
RTVSPropertyOp4
 70
     1
102
RTVSPropertyOp5
 70
     1
102
RTVSPropertyOp6
 70
     1
102
RTVSPropertyOp7
 70
     1
102
RTVSPropertyOp8
 70
     1
102
RTVSPropertyOp9
 70
     1
102
RTVSPropertyOp10
 70
     1
102
RTVSPropertyOp11
 70
     1
102
RTVSPropertyOp12
 70
     1
102
RTVSPropertyOp13
 70
     1
102
RTVSPropertyOp14
 70
     1
102
RTVSPropertyOp15
 70
     1
102
RTVSPropertyOp16
 70
     1
102
RTVSPropertyOp17
 70
     1
102
RTVSPropertyOp18
 70
     1
102
RTVSPropertyOp19
 70
     1
102
RTVSPropertyOp20
 70
     1
102
RTVSPropertyOp21
 70
     1
102
RTVSPropertyOp22
 70
     1
102
RTVSPropertyOp23
 70
     1
102
RTVSPropertyOp24
 70
     1
102
RTVSPropertyOp25
 70
     1
102
RTVSPropertyOp26
 70
     1
102
RTVSPropertyOp27
 70
     1
102
RTVSPropertyOp28
 70
     1
102
RTVSPropertyOp29
 70
     1
102
RTVSPropertyOp30
 70
     1
102
RTVSPropertyOp31
 70
     1
102
RTVSPropertyOp32
 70
     1
102
RTVSPropertyOp33
 70
     1
102
RTVSPropertyOp34
 70
     1
102
RTVSPropertyOp35
 70
     1
102
RTVSPropertyOp36
 70
     1
102
RTVSPropertyOp37
 70
     1
102
RTVSPropertyOp38
 70
     1
102
RTVSPropertyOp39
 70
     1
102
RTVSPropertyOp40
 70
     1
102
RTVSPropertyOp41
 70
     1
102
RTVSPropertyOp42
 70
     1
102
RTVSPropertyOp43
 70
     1
102
RTVSPropertyOp44
 70
     1
102
RTVSPropertyOp45
 70
     1
102
RTVSPropertyOp46
 70
     1
102
RTVSPropertyOp47
 70
     1
102
RTVSPropertyOp48
 70
     1
102
RTVSPropertyOp49
 70
     1
102
RTVSPropertyOp50
 70
     1
102
RTVSPropertyOp51
 70
     0
102
RTVSPropertyOp52
 70
     0
102
RTVSPropertyOp53
 70
     1
102
RTVSPropertyOp54
 70
     1
102
RTVSPropertyOp55
 70
     1
102
RTVSPropertyOp56
 70
     1
102
RTVSPropertyOp57
 70
     1
102
RTVSPropertyOp58
 70
     1
102
RTVSPropertyOp59
 70
     1
102
RTVSPropertyOp60
 70
     1
102
RTVSPropertyOp61
 70
     1
102
RTVSPropertyOp62
 70
     1
  0
ENDSEC
  0
EOF
