  0
SECTION
  2
HEADER
  9
$ACADVER
  1
AC1015
  9
$ACADMAINTVER
 70
    18
  9
$DWGCODEPAGE
  3
ANSI_1252
  9
$INSBASE
 10
0.0
 20
0.0
 30
0.0
  9
$EXTMIN
 10
-160.3
 20
-209.8610421566281
 30
0.0
  9
$EXTMAX
 10
209.09393923934
 20
238.3000000000001
 30
0.0
  9
$LIMMIN
 10
0.0
 20
0.0
  9
$LIMMAX
 10
12.0
 20
9.0
  9
$ORTHOMODE
 70
     0
  9
$REGENMODE
 70
     1
  9
$FILLMODE
 70
     1
  9
$QTEXTMODE
 70
     0
  9
$MIRRTEXT
 70
     0
  9
$LTSCALE
 40
1.0
  9
$ATTMODE
 70
     1
  9
$TEXTSIZE
 40
0.2
  9
$TRACEWID
 40
0.05
  9
$TEXTSTYLE
  7
Standard
  9
$CLAYER
  8
0
  9
$CELTYPE
  6
ByLayer
  9
$CECOLOR
 62
   256
  9
$CELTSCALE
 40
1.0
  9
$DISPSILH
 70
     0
  9
$DIMSCALE
 40
1.0
  9
$DIMASZ
 40
0.18
  9
$DIMEXO
 40
0.0625
  9
$DIMDLI
 40
0.38
  9
$DIMRND
 40
0.0
  9
$DIMDLE
 40
0.0
  9
$DIMEXE
 40
0.18
  9
$DIMTP
 40
0.0
  9
$DIMTM
 40
0.0
  9
$DIMTXT
 40
0.18
  9
$DIMCEN
 40
0.09
  9
$DIMTSZ
 40
0.0
  9
$DIMTOL
 70
     0
  9
$DIMLIM
 70
     0
  9
$DIMTIH
 70
     1
  9
$DIMTOH
 70
     1
  9
$DIMSE1
 70
     0
  9
$DIMSE2
 70
     0
  9
$DIMTAD
 70
     0
  9
$DIMZIN
 70
     0
  9
$DIMBLK
  1

  9
$DIMASO
 70
     1
  9
$DIMSHO
 70
     1
  9
$DIMPOST
  1

  9
$DIMAPOST
  1

  9
$DIMALT
 70
     0
  9
$DIMALTD
 70
     2
  9
$DIMALTF
 40
25.4
  9
$DIMLFAC
 40
1.0
  9
$DIMTOFL
 70
     0
  9
$DIMTVP
 40
0.0
  9
$DIMTIX
 70
     0
  9
$DIMSOXD
 70
     0
  9
$DIMSAH
 70
     0
  9
$DIMBLK1
  1

  9
$DIMBLK2
  1

  9
$DIMSTYLE
  2
Standard
  9
$DIMCLRD
 70
     0
  9
$DIMCLRE
 70
     0
  9
$DIMCLRT
 70
     0
  9
$DIMTFAC
 40
1.0
  9
$DIMGAP
 40
0.09
  9
$DIMJUST
 70
     0
  9
$DIMSD1
 70
     0
  9
$DIMSD2
 70
     0
  9
$DIMTOLJ
 70
     1
  9
$DIMTZIN
 70
     0
  9
$DIMALTZ
 70
     0
  9
$DIMALTTZ
 70
     0
  9
$DIMUPT
 70
     0
  9
$DIMDEC
 70
     4
  9
$DIMTDEC
 70
     4
  9
$DIMALTU
 70
     2
  9
$DIMALTTD
 70
     2
  9
$DIMTXSTY
  7
Standard
  9
$DIMAUNIT
 70
     0
  9
$DIMADEC
 70
     0
  9
$DIMALTRND
 40
0.0
  9
$DIMAZIN
 70
     0
  9
$DIMDSEP
 70
    46
  9
$DIMATFIT
 70
     3
  9
$DIMFRAC
 70
     0
  9
$DIMLDRBLK
  1

  9
$DIMLUNIT
 70
     2
  9
$DIMLWD
 70
    -2
  9
$DIMLWE
 70
    -2
  9
$DIMTMOVE
 70
     0
  9
$LUNITS
 70
     2
  9
$LUPREC
 70
     4
  9
$SKETCHINC
 40
0.1
  9
$FILLETRAD
 40
0.0
  9
$AUNITS
 70
     0
  9
$AUPREC
 70
     0
  9
$MENU
  1
.
  9
$ELEVATION
 40
0.0
  9
$PELEVATION
 40
0.0
  9
$THICKNESS
 40
0.0
  9
$LIMCHECK
 70
     0
  9
$CHAMFERA
 40
0.0
  9
$CHAMFERB
 40
0.0
  9
$CHAMFERC
 40
0.0
  9
$CHAMFERD
 40
0.0
  9
$SKPOLY
 70
     0
  9
$TDCREATE
 40
2460619.646446760
  9
$TDUCREATE
 40
2460619.354780092
  9
$TDUPDATE
 40
2460619.651585648
  9
$TDUUPDATE
 40
2460619.359918982
  9
$TDINDWG
 40
0.0008564815
  9
$TDUSRTIMER
 40
0.0008564815
  9
$USRTIMER
 70
     1
  9
$ANGBASE
 50
0.0
  9
$ANGDIR
 70
     0
  9
$PDMODE
 70
     0
  9
$PDSIZE
 40
0.0
  9
$PLINEWID
 40
0.0
  9
$SPLFRAME
 70
     0
  9
$SPLINETYPE
 70
     6
  9
$SPLINESEGS
 70
     8
  9
$HANDSEED
  5
15BC
  9
$SURFTAB1
 70
     6
  9
$SURFTAB2
 70
     6
  9
$SURFTYPE
 70
     6
  9
$SURFU
 70
     6
  9
$SURFV
 70
     6
  9
$UCSBASE
  2

  9
$UCSNAME
  2

  9
$UCSORG
 10
0.0
 20
0.0
 30
0.0
  9
$UCSXDIR
 10
1.0
 20
0.0
 30
0.0
  9
$UCSYDIR
 10
0.0
 20
1.0
 30
0.0
  9
$UCSORTHOREF
  2

  9
$UCSORTHOVIEW
 70
     0
  9
$UCSORGTOP
 10
0.0
 20
0.0
 30
0.0
  9
$UCSORGBOTTOM
 10
0.0
 20
0.0
 30
0.0
  9
$UCSORGLEFT
 10
0.0
 20
0.0
 30
0.0
  9
$UCSORGRIGHT
 10
0.0
 20
0.0
 30
0.0
  9
$UCSORGFRONT
 10
0.0
 20
0.0
 30
0.0
  9
$UCSORGBACK
 10
0.0
 20
0.0
 30
0.0
  9
$PUCSBASE
  2

  9
$PUCSNAME
  2

  9
$PUCSORG
 10
0.0
 20
0.0
 30
0.0
  9
$PUCSXDIR
 10
1.0
 20
0.0
 30
0.0
  9
$PUCSYDIR
 10
0.0
 20
1.0
 30
0.0
  9
$PUCSORTHOREF
  2

  9
$PUCSORTHOVIEW
 70
     0
  9
$PUCSORGTOP
 10
0.0
 20
0.0
 30
0.0
  9
$PUCSORGBOTTOM
 10
0.0
 20
0.0
 30
0.0
  9
$PUCSORGLEFT
 10
0.0
 20
0.0
 30
0.0
  9
$PUCSORGRIGHT
 10
0.0
 20
0.0
 30
0.0
  9
$PUCSORGFRONT
 10
0.0
 20
0.0
 30
0.0
  9
$PUCSORGBACK
 10
0.0
 20
0.0
 30
0.0
  9
$USERI1
 70
     0
  9
$USERI2
 70
     0
  9
$USERI3
 70
     0
  9
$USERI4
 70
     0
  9
$USERI5
 70
     0
  9
$USERR1
 40
0.0
  9
$USERR2
 40
0.0
  9
$USERR3
 40
0.0
  9
$USERR4
 40
0.0
  9
$USERR5
 40
0.0
  9
$WORLDVIEW
 70
     1
  9
$SHADEDGE
 70
     3
  9
$SHADEDIF
 70
    70
  9
$TILEMODE
 70
     1
  9
$MAXACTVP
 70
    48
  9
$PINSBASE
 10
0.0
 20
0.0
 30
0.0
  9
$PLIMCHECK
 70
     0
  9
$PEXTMIN
 10
0.0
 20
0.0
 30
0.0
  9
$PEXTMAX
 10
0.0
 20
0.0
 30
0.0
  9
$PLIMMIN
 10
0.0
 20
0.0
  9
$PLIMMAX
 10
12.0
 20
9.0
  9
$UNITMODE
 70
     0
  9
$VISRETAIN
 70
     1
  9
$PLINEGEN
 70
     0
  9
$PSLTSCALE
 70
     1
  9
$TREEDEPTH
 70
  3020
  9
$CMLSTYLE
  2
Standard
  9
$CMLJUST
 70
     0
  9
$CMLSCALE
 40
1.0
  9
$PROXYGRAPHICS
 70
     1
  9
$MEASUREMENT
 70
     0
  9
$CELWEIGHT
370
    -1
  9
$ENDCAPS
280
     0
  9
$JOINSTYLE
280
     0
  9
$LWDISPLAY
290
     0
  9
$INSUNITS
 70
     1
  9
$HYPERLINKBASE
  1

  9
$STYLESHEET
  1

  9
$XEDIT
290
     1
  9
$CEPSNTYPE
380
     0
  9
$PSTYLEMODE
290
     1
  9
$FINGERPRINTGUID
  2
{DE327A94-1AA4-5B4E-B6B7-9B11D369EB2E}
  9
$VERSIONGUID
  2
{AE2211CA-779E-3C4F-A600-6D570CA84ED2}
  9
$EXTNAMES
290
     1
  9
$PSVPSCALE
 40
0.0
  9
$OLESTARTUP
290
     0
  0
ENDSEC
  0
SECTION
  2
CLASSES
  0
CLASS
  1
ACDBDICTIONARYWDFLT
  2
AcDbDictionaryWithDefault
  3
ObjectDBX Classes
 90
        0
280
     0
281
     0
  0
CLASS
  1
ACDBPLACEHOLDER
  2
AcDbPlaceHolder
  3
ObjectDBX Classes
 90
        0
280
     0
281
     0
  0
CLASS
  1
LAYOUT
  2
AcDbLayout
  3
ObjectDBX Classes
 90
        0
280
     0
281
     0
  0
CLASS
  1
DICTIONARYVAR
  2
AcDbDictionaryVar
  3
ObjectDBX Classes
 90
        0
280
     0
281
     0
  0
CLASS
  1
TABLESTYLE
  2
AcDbTableStyle
  3
ObjectDBX Classes
 90
     4095
280
     0
281
     0
  0
CLASS
  1
MATERIAL
  2
AcDbMaterial
  3
ObjectDBX Classes
 90
     1153
280
     0
281
     0
  0
CLASS
  1
VISUALSTYLE
  2
AcDbVisualStyle
  3
ObjectDBX Classes
 90
     4095
280
     0
281
     0
  0
CLASS
  1
SCALE
  2
AcDbScale
  3
ObjectDBX Classes
 90
     1153
280
     0
281
     0
  0
CLASS
  1
MLEADERSTYLE
  2
AcDbMLeaderStyle
  3
ACDB_MLEADERSTYLE_CLASS
 90
     4095
280
     0
281
     0
  0
CLASS
  1
CELLSTYLEMAP
  2
AcDbCellStyleMap
  3
ObjectDBX Classes
 90
     1152
280
     0
281
     0
  0
CLASS
  1
EXACXREFPANELOBJECT
  2
ExAcXREFPanelObject
  3
EXAC_ESW
 90
    33793
280
     0
281
     0
  0
CLASS
  1
NPOCOLLECTION
  2
AcDbImpNonPersistentObjectsCollection
  3
ObjectDBX Classes
 90
    33921
280
     0
281
     0
  0
CLASS
  1
LAYER_INDEX
  2
AcDbLayerIndex
  3
ObjectDBX Classes
 90
    32768
280
     0
281
     0
  0
CLASS
  1
SPATIAL_INDEX
  2
AcDbSpatialIndex
  3
ObjectDBX Classes
 90
    32768
280
     0
281
     0
  0
CLASS
  1
IDBUFFER
  2
AcDbIdBuffer
  3
ObjectDBX Classes
 90
    32768
280
     0
281
     0
  0
CLASS
  1
ACDBSECTIONVIEWSTYLE
  2
AcDbSectionViewStyle
  3
ObjectDBX Classes
 90
     1025
280
     0
281
     0
  0
CLASS
  1
ACDBDETAILVIEWSTYLE
  2
AcDbDetailViewStyle
  3
ObjectDBX Classes
 90
     1025
280
     0
281
     0
  0
CLASS
  1
XRECORD
  2
AcDbXrecord
  3
ObjectDBX Classes
 90
        0
280
     0
281
     0
  0
ENDSEC
  0
SECTION
  2
TABLES
  0
TABLE
  2
VPORT
  5
8
102
{ACAD_XDICTIONARY
360
14D2
102
}
330
0
100
AcDbSymbolTable
 70
     1
  0
VPORT
  5
94
330
8
100
AcDbSymbolTableRecord
100
AcDbViewportTableRecord
  2
*Active
 70
     0
 10
0.0
 20
0.0
 11
1.0
 21
1.0
 12
24.39696961966995
 22
14.21947892168603
 13
0.0
 23
0.0
 14
0.5
 24
0.5
 15
0.5
 25
0.5
 16
0.0
 26
0.0
 36
1.0
 17
0.0
 27
0.0
 37
0.0
 40
476.5786544938457
 41
0.9846153846153846
 42
50.0
 43
0.0
 44
0.0
 50
0.0
 51
0.0
 71
     0
 72
  1000
 73
     1
 74
     3
 75
     0
 76
     1
 77
     0
 78
     0
281
     0
 65
     1
110
0.0
120
0.0
130
0.0
111
1.0
121
0.0
131
0.0
112
0.0
122
1.0
132
0.0
 79
     0
146
0.0
1001
ACAD_NAV_VCDISPLAY
1070
     3
  0
ENDTAB
  0
TABLE
  2
LTYPE
  5
5
330
0
100
AcDbSymbolTable
 70
     1
  0
LTYPE
  5
14
330
5
100
AcDbSymbolTableRecord
100
AcDbLinetypeTableRecord
  2
ByBlock
 70
     0
  3

 72
    65
 73
     0
 40
0.0
  0
LTYPE
  5
15
330
5
100
AcDbSymbolTableRecord
100
AcDbLinetypeTableRecord
  2
ByLayer
 70
     0
  3

 72
    65
 73
     0
 40
0.0
  0
LTYPE
  5
16
330
5
100
AcDbSymbolTableRecord
100
AcDbLinetypeTableRecord
  2
Continuous
 70
     0
  3
Solid line
 72
    65
 73
     0
 40
0.0
  0
ENDTAB
  0
TABLE
  2
LAYER
  5
2
102
{ACAD_XDICTIONARY
360
18E
102
}
330
0
100
AcDbSymbolTable
 70
     1
  0
LAYER
  5
10
102
{ACAD_XDICTIONARY
360
E6
102
}
330
2
100
AcDbSymbolTableRecord
100
AcDbLayerTableRecord
  2
0
 70
     0
 62
     7
  6
Continuous
370
    -3
390
F
  0
ENDTAB
  0
TABLE
  2
STYLE
  5
3
330
0
100
AcDbSymbolTable
 70
     1
  0
STYLE
  5
11
330
3
100
AcDbSymbolTableRecord
100
AcDbTextStyleTableRecord
  2
Standard
 70
     0
 40
0.0
 41
1.0
 50
0.0
 71
     0
 42
0.2
  3
arial_1.ttf
  4

1001
ACAD
1000
Arial
1071
       34
  0
ENDTAB
  0
TABLE
  2
VIEW
  5
6
330
0
100
AcDbSymbolTable
 70
     0
  0
ENDTAB
  0
TABLE
  2
UCS
  5
7
330
0
100
AcDbSymbolTable
 70
     0
  0
ENDTAB
  0
TABLE
  2
APPID
  5
9
330
0
100
AcDbSymbolTable
 70
     7
  0
APPID
  5
12
330
9
100
AcDbSymbolTableRecord
100
AcDbRegAppTableRecord
  2
ACAD
 70
     0
  0
APPID
  5
DD
330
9
100
AcDbSymbolTableRecord
100
AcDbRegAppTableRecord
  2
AcadAnnoPO
 70
     0
  0
APPID
  5
DE
330
9
100
AcDbSymbolTableRecord
100
AcDbRegAppTableRecord
  2
AcadAnnotative
 70
     0
  0
APPID
  5
DF
330
9
100
AcDbSymbolTableRecord
100
AcDbRegAppTableRecord
  2
ACAD_DSTYLE_DIMJAG
 70
     0
  0
APPID
  5
E0
330
9
100
AcDbSymbolTableRecord
100
AcDbRegAppTableRecord
  2
ACAD_DSTYLE_DIMTALN
 70
     0
  0
APPID
  5
107
330
9
100
AcDbSymbolTableRecord
100
AcDbRegAppTableRecord
  2
ACAD_MLEADERVER
 70
     0
  0
APPID
  5
1A6
330
9
100
AcDbSymbolTableRecord
100
AcDbRegAppTableRecord
  2
ACAD_NAV_VCDISPLAY
 70
     0
  0
ENDTAB
  0
TABLE
  2
DIMSTYLE
  5
A
330
0
100
AcDbSymbolTable
 70
     1
100
AcDbDimStyleTable
 71
     0
  0
DIMSTYLE
105
27
330
A
100
AcDbSymbolTableRecord
100
AcDbDimStyleTableRecord
  2
Standard
 70
     0
340
11
  0
ENDTAB
  0
TABLE
  2
BLOCK_RECORD
  5
1
330
0
100
AcDbSymbolTable
 70
     7
  0
BLOCK_RECORD
  5
1F
102
{ACAD_XDICTIONARY
360
15D
102
}
330
1
100
AcDbSymbolTableRecord
100
AcDbBlockTableRecord
  2
*Model_Space
340
22
  0
BLOCK_RECORD
  5
58
102
{ACAD_XDICTIONARY
360
1486
102
}
330
1
100
AcDbSymbolTableRecord
100
AcDbBlockTableRecord
  2
*Paper_Space
340
59
  0
BLOCK_RECORD
  5
5D
102
{ACAD_XDICTIONARY
360
1488
102
}
330
1
100
AcDbSymbolTableRecord
100
AcDbBlockTableRecord
  2
*Paper_Space0
340
5E
  0
BLOCK_RECORD
  5
11FF
330
1
100
AcDbSymbolTableRecord
100
AcDbBlockTableRecord
  2
PU90-B-Front
340
0
102
{BLKREFS
331
147C
102
}
  0
BLOCK_RECORD
  5
1233
330
1
100
AcDbSymbolTableRecord
100
AcDbBlockTableRecord
  2
PU90-B-Left
340
0
102
{BLKREFS
331
147D
102
}
  0
BLOCK_RECORD
  5
126A
330
1
100
AcDbSymbolTableRecord
100
AcDbBlockTableRecord
  2
PU90-B-Right
340
0
102
{BLKREFS
331
147E
102
}
  0
BLOCK_RECORD
  5
12A1
330
1
100
AcDbSymbolTableRecord
100
AcDbBlockTableRecord
  2
PU90-B-Top
340
0
102
{BLKREFS
331
147F
102
}
  0
BLOCK_RECORD
  5
12FA
330
1
100
AcDbSymbolTableRecord
100
AcDbBlockTableRecord
  2
PU90-B-Bottom
340
0
102
{BLKREFS
331
1480
102
}
  0
BLOCK_RECORD
  5
134D
330
1
100
AcDbSymbolTableRecord
100
AcDbBlockTableRecord
  2
PU90-B-ISO
340
0
102
{BLKREFS
331
1481
102
}
  0
ENDTAB
  0
ENDSEC
  0
SECTION
  2
BLOCKS
  0
BLOCK
  5
20
330
1F
100
AcDbEntity
  8
0
100
AcDbBlockBegin
  2
*Model_Space
 70
     0
 10
0.0
 20
0.0
 30
0.0
  3
*Model_Space
  1

  0
ENDBLK
  5
21
330
1F
100
AcDbEntity
  8
0
100
AcDbBlockEnd
  0
BLOCK
  5
5A
330
58
100
AcDbEntity
 67
     1
  8
0
100
AcDbBlockBegin
  2
*Paper_Space
 70
     0
 10
0.0
 20
0.0
 30
0.0
  3
*Paper_Space
  1

  0
ENDBLK
  5
5B
330
58
100
AcDbEntity
 67
     1
  8
0
100
AcDbBlockEnd
  0
BLOCK
  5
5F
330
5D
100
AcDbEntity
 67
     1
  8
0
100
AcDbBlockBegin
  2
*Paper_Space0
 70
     0
 10
0.0
 20
0.0
 30
0.0
  3
*Paper_Space0
  1

  0
ENDBLK
  5
60
330
5D
100
AcDbEntity
 67
     1
  8
0
100
AcDbBlockEnd
  0
BLOCK
  5
1200
330
11FF
100
AcDbEntity
  8
0
100
AcDbBlockBegin
  2
PU90-B-Front
 70
     0
 10
0.0
 20
0.0
 30
0.0
  3
PU90-B-Front
  1

  0
LINE
  5
1202
330
11FF
100
AcDbEntity
  8
0
100
AcDbLine
 10
-48.99999999999997
 20
122.0
 30
0.0
 11
-48.99999999999999
 21
8.000000000000007
 31
0.0
  0
LINE
  5
1203
330
11FF
100
AcDbEntity
  8
0
100
AcDbLine
 10
44.99999999999996
 20
122.0
 30
0.0
 11
44.99999999999999
 21
8.000000000000007
 31
0.0
  0
LINE
  5
1204
330
11FF
100
AcDbEntity
  8
0
100
AcDbLine
 10
-41.0
 20
0.0
 30
0.0
 11
40.99999999999997
 21
0.0
 31
0.0
  0
LINE
  5
1205
330
11FF
100
AcDbEntity
  8
0
100
AcDbLine
 10
48.99999999999999
 20
8.000000000000015
 30
0.0
 11
48.99999999999997
 21
122.0
 31
0.0
  0
LINE
  5
1206
330
11FF
100
AcDbEntity
  8
0
100
AcDbLine
 10
40.99999999999997
 20
4.0
 30
0.0
 11
-41.0
 21
4.0
 31
0.0
  0
LINE
  5
1207
330
11FF
100
AcDbEntity
  8
0
100
AcDbLine
 10
-44.99999999999999
 20
7.999999999999998
 30
0.0
 11
-44.99999999999996
 21
122.0
 31
0.0
  0
LINE
  5
1208
330
11FF
100
AcDbEntity
  8
0
100
AcDbLine
 10
-48.99999999999997
 20
129.0
 30
0.0
 11
-48.99999999999997
 21
122.0
 31
0.0
  0
LINE
  5
1209
330
11FF
100
AcDbEntity
  8
0
100
AcDbLine
 10
44.99999999999996
 20
129.0
 30
0.0
 11
44.99999999999996
 21
122.0
 31
0.0
  0
LINE
  5
120A
330
11FF
100
AcDbEntity
  8
0
100
AcDbLine
 10
48.99999999999997
 20
122.0
 30
0.0
 11
48.99999999999997
 21
129.0
 31
0.0
  0
LINE
  5
120B
330
11FF
100
AcDbEntity
  8
0
100
AcDbLine
 10
-44.99999999999996
 20
122.0
 30
0.0
 11
-44.99999999999996
 21
129.0
 31
0.0
  0
LINE
  5
120C
330
11FF
100
AcDbEntity
  8
0
100
AcDbLine
 10
-44.99999999999996
 20
129.0
 30
0.0
 11
-48.99999999999997
 21
129.0
 31
0.0
  0
LINE
  5
120D
330
11FF
100
AcDbEntity
  8
0
100
AcDbLine
 10
-48.99999999999997
 20
122.0
 30
0.0
 11
-44.99999999999996
 21
122.0
 31
0.0
  0
LINE
  5
120E
330
11FF
100
AcDbEntity
  8
0
100
AcDbLine
 10
44.99999999999996
 20
122.0
 30
0.0
 11
48.99999999999997
 21
122.0
 31
0.0
  0
LINE
  5
120F
330
11FF
100
AcDbEntity
  8
0
100
AcDbLine
 10
48.99999999999997
 20
129.0
 30
0.0
 11
44.99999999999996
 21
129.0
 31
0.0
  0
ARC
  5
1210
330
11FF
100
AcDbEntity
  8
0
100
AcDbCircle
 10
-41.0
 20
8.0
 30
0.0
 40
8.0
100
AcDbArc
 50
180.0
 51
270.0
  0
ARC
  5
1211
330
11FF
100
AcDbEntity
  8
0
100
AcDbCircle
 10
-41.0
 20
8.0
 30
0.0
 40
4.0
100
AcDbArc
 50
180.0
 51
270.0
  0
ARC
  5
1212
330
11FF
100
AcDbEntity
  8
0
100
AcDbCircle
 10
41.0
 20
8.0
 30
0.0
 40
8.0
100
AcDbArc
 50
269.9999999999999
 51
0.0
  0
ARC
  5
1213
330
11FF
100
AcDbEntity
  8
0
100
AcDbCircle
 10
41.0
 20
8.0
 30
0.0
 40
4.0
100
AcDbArc
 50
269.9999999999996
 51
0.0
  0
ARC
  5
1214
330
11FF
100
AcDbEntity
  8
0
100
AcDbCircle
 10
34.99999999999997
 20
14.00000000000002
 30
0.0
 40
3.999999999999999
100
AcDbArc
 50
89.99999999999923
 51
180.0
  0
ARC
  5
1215
330
11FF
100
AcDbEntity
  8
0
100
AcDbCircle
 10
34.99999999999997
 20
14.00000000000002
 30
0.0
 40
7.999999999999998
100
AcDbArc
 50
89.99999999999962
 51
180.0
  0
ARC
  5
1216
330
11FF
100
AcDbEntity
  8
0
100
AcDbCircle
 10
23.00000000000003
 20
8.000000000000001
 30
0.0
 40
4.000000000000002
100
AcDbArc
 50
270.0
 51
0.0
  0
ARC
  5
1217
330
11FF
100
AcDbEntity
  8
0
100
AcDbCircle
 10
23.00000000000003
 20
8.000000000000001
 30
0.0
 40
8.000000000000003
100
AcDbArc
 50
330.0
 51
0.0
  0
LINE
  5
1218
330
11FF
100
AcDbEntity
  8
0
100
AcDbLine
 10
40.99999999999997
 20
18.00000000000003
 30
0.0
 11
35.00000000000002
 21
18.00000000000002
 31
0.0
  0
LINE
  5
1219
330
11FF
100
AcDbEntity
  8
0
100
AcDbLine
 10
40.99999999999997
 20
22.00000000000003
 30
0.0
 11
35.00000000000002
 21
22.00000000000002
 31
0.0
  0
ARC
  5
121A
330
11FF
100
AcDbEntity
  8
0
100
AcDbCircle
 10
40.99999999999997
 20
26.00000000000003
 30
0.0
 40
8.000000000000005
100
AcDbArc
 50
270.0
 51
300.0
  0
ARC
  5
121B
330
11FF
100
AcDbEntity
  8
0
100
AcDbCircle
 10
40.99999999999997
 20
26.00000000000003
 30
0.0
 40
4.000000000000003
100
AcDbArc
 50
270.0
 51
0.0
  0
LINE
  5
121C
330
11FF
100
AcDbEntity
  8
0
100
AcDbLine
 10
31.00000000000002
 20
14.00000000000002
 30
0.0
 11
31.00000000000003
 21
7.999999999999948
 31
0.0
  0
LINE
  5
121D
330
11FF
100
AcDbEntity
  8
0
100
AcDbLine
 10
27.00000000000003
 20
7.999999999999946
 30
0.0
 11
27.00000000000003
 21
14.00000000000002
 31
0.0
  0
LINE
  5
121E
330
11FF
100
AcDbEntity
  8
0
100
AcDbLine
 10
-27.00000000000003
 20
8.000000000000003
 30
0.0
 11
-26.99999999999997
 21
14.00000000000007
 31
0.0
  0
LINE
  5
121F
330
11FF
100
AcDbEntity
  8
0
100
AcDbLine
 10
-30.99999999999997
 20
14.00000000000007
 30
0.0
 11
-31.00000000000003
 21
8.000000000000003
 31
0.0
  0
ARC
  5
1220
330
11FF
100
AcDbEntity
  8
0
100
AcDbCircle
 10
-34.99999999999997
 20
14.00000000000002
 30
0.0
 40
7.999999999999998
100
AcDbArc
 50
0.0
 51
90.00000000000039
  0
ARC
  5
1221
330
11FF
100
AcDbEntity
  8
0
100
AcDbCircle
 10
-34.99999999999997
 20
14.00000000000002
 30
0.0
 40
3.999999999999999
100
AcDbArc
 50
0.0
 51
90.00000000000076
  0
ARC
  5
1222
330
11FF
100
AcDbEntity
  8
0
100
AcDbCircle
 10
-23.00000000000003
 20
8.000000000000001
 30
0.0
 40
4.000000000000002
100
AcDbArc
 50
180.0
 51
270.0
  0
ARC
  5
1223
330
11FF
100
AcDbEntity
  8
0
100
AcDbCircle
 10
-23.00000000000003
 20
8.000000000000001
 30
0.0
 40
8.000000000000003
100
AcDbArc
 50
180.0
 51
210.0
  0
LINE
  5
1224
330
11FF
100
AcDbEntity
  8
0
100
AcDbLine
 10
-40.99999999999997
 20
22.00000000000002
 30
0.0
 11
-35.00000000000002
 21
22.00000000000002
 31
0.0
  0
LINE
  5
1225
330
11FF
100
AcDbEntity
  8
0
100
AcDbLine
 10
-40.99999999999997
 20
18.00000000000002
 30
0.0
 11
-35.00000000000002
 21
18.00000000000002
 31
0.0
  0
ARC
  5
1226
330
11FF
100
AcDbEntity
  8
0
100
AcDbCircle
 10
-40.99999999999997
 20
26.00000000000003
 30
0.0
 40
8.000000000000005
100
AcDbArc
 50
239.9999999999999
 51
270.0
  0
ARC
  5
1227
330
11FF
100
AcDbEntity
  8
0
100
AcDbCircle
 10
-40.99999999999997
 20
26.00000000000003
 30
0.0
 40
4.000000000000003
100
AcDbArc
 50
180.0
 51
270.0
  0
ARC
  5
1228
330
11FF
100
AcDbEntity
  8
0
100
AcDbCircle
 10
-47.29999999999996
 20
76.49999999999995
 30
0.0
 40
3.700000000000019
100
AcDbArc
 50
153.7398124562633
 51
180.0
  0
ARC
  5
1229
330
11FF
100
AcDbEntity
  8
0
100
AcDbCircle
 10
-51.49999999999997
 20
81.99999999999992
 30
0.0
 40
2.5
100
AcDbArc
 50
333.7398124562634
 51
0.0
  0
LINE
  5
122A
330
11FF
100
AcDbEntity
  8
0
100
AcDbLine
 10
-50.61813811706373
 20
78.13705816515124
 30
0.0
 11
-49.2580147857677
 21
80.89387961814095
 31
0.0
  0
LINE
  5
122B
330
11FF
100
AcDbEntity
  8
0
100
AcDbLine
 10
-50.99999999999998
 20
8.000000000000021
 30
0.0
 11
-50.99999999999997
 21
76.49999999999997
 31
0.0
  0
ARC
  5
122C
330
11FF
100
AcDbEntity
  8
0
100
AcDbCircle
 10
-41.0
 20
7.999999999999998
 30
0.0
 40
10.0
100
AcDbArc
 50
180.0
 51
269.9999999999999
  0
LINE
  5
122D
330
11FF
100
AcDbEntity
  8
0
100
AcDbLine
 10
40.99999999999997
 20
-2.000000000000001
 30
0.0
 11
-41.00000000000001
 21
-2.000000000000001
 31
0.0
  0
ARC
  5
122E
330
11FF
100
AcDbEntity
  8
0
100
AcDbCircle
 10
41.0
 20
7.999999999999998
 30
0.0
 40
10.0
100
AcDbArc
 50
269.9999999999999
 51
0.0
  0
LINE
  5
122F
330
11FF
100
AcDbEntity
  8
0
100
AcDbLine
 10
50.99999999999997
 20
76.49999999999998
 30
0.0
 11
51.0
 21
8.000000000000015
 31
0.0
  0
ARC
  5
1230
330
11FF
100
AcDbEntity
  8
0
100
AcDbCircle
 10
47.29999999999996
 20
76.49999999999998
 30
0.0
 40
3.700000000000018
100
AcDbArc
 50
0.0
 51
26.26018754373685
  0
ARC
  5
1231
330
11FF
100
AcDbEntity
  8
0
100
AcDbCircle
 10
51.49999999999997
 20
81.99999999999995
 30
0.0
 40
2.5
100
AcDbArc
 50
180.0
 51
206.2601875437365
  0
LINE
  5
1232
330
11FF
100
AcDbEntity
  8
0
100
AcDbLine
 10
50.61813811706372
 20
78.13705816515128
 30
0.0
 11
49.2580147857677
 21
80.89387961814097
 31
0.0
  0
ENDBLK
  5
1201
330
11FF
100
AcDbEntity
  8
0
100
AcDbBlockEnd
  0
BLOCK
  5
1234
330
1233
100
AcDbEntity
  8
0
100
AcDbBlockBegin
  2
PU90-B-Left
 70
     0
 10
0.0
 20
0.0
 30
0.0
  3
PU90-B-Left
  1

  0
ARC
  5
1236
330
1233
100
AcDbEntity
  8
0
100
AcDbCircle
 10
-20.75254000000001
 20
-2.5
 30
0.0
 40
2.5
100
AcDbArc
 50
89.99999999999991
 51
116.2601875437366
  0
LINE
  5
1237
330
1233
100
AcDbEntity
  8
0
100
AcDbLine
 10
-24.61548183484869
 20
-1.618138117063772
 30
0.0
 11
-21.858660381859
 21
-0.2580147857677417
 31
0.0
  0
ARC
  5
1238
330
1233
100
AcDbEntity
  8
0
100
AcDbCircle
 10
-26.25254
 20
1.699999999999981
 30
0.0
 40
3.7
100
AcDbArc
 50
243.7398124562632
 51
296.2601875437367
  0
ARC
  5
1239
330
1233
100
AcDbEntity
  8
0
100
AcDbCircle
 10
-31.75253999999996
 20
-2.5
 30
0.0
 40
2.5
100
AcDbArc
 50
63.73981245626341
 51
90.0000000000001
  0
LINE
  5
123A
330
1233
100
AcDbEntity
  8
0
100
AcDbLine
 10
-27.88959816515129
 20
-1.618138117063765
 30
0.0
 11
-30.64641961814098
 21
-0.2580147857677351
 31
0.0
  0
CIRCLE
  5
123B
330
1233
100
AcDbEntity
  8
0
100
AcDbCircle
 10
-22.49999999999996
 20
110.0
 30
0.0
 40
4.5
  0
CIRCLE
  5
123C
330
1233
100
AcDbEntity
  8
0
100
AcDbCircle
 10
17.50000000000003
 20
97.00000000000002
 30
0.0
 40
4.5
  0
CIRCLE
  5
123D
330
1233
100
AcDbEntity
  8
0
100
AcDbCircle
 10
-12.49999999999999
 20
117.0
 30
0.0
 40
3.0
  0
CIRCLE
  5
123E
330
1233
100
AcDbEntity
  8
0
100
AcDbCircle
 10
7.500000000000001
 20
117.0
 30
0.0
 40
3.0
  0
CIRCLE
  5
123F
330
1233
100
AcDbEntity
  8
0
100
AcDbCircle
 10
27.5
 20
117.0
 30
0.0
 40
3.0
  0
CIRCLE
  5
1240
330
1233
100
AcDbEntity
  8
0
100
AcDbCircle
 10
-2.499999999999997
 20
97.00000000000002
 30
0.0
 40
3.0
  0
CIRCLE
  5
1241
330
1233
100
AcDbEntity
  8
0
100
AcDbCircle
 10
-27.5
 20
97.00000000000002
 30
0.0
 40
3.0
  0
CIRCLE
  5
1242
330
1233
100
AcDbEntity
  8
0
100
AcDbCircle
 10
0.0000000000000022
 20
77.00000000000001
 30
0.0
 40
5.5
  0
LINE
  5
1243
330
1233
100
AcDbEntity
  8
0
100
AcDbLine
 10
-17.50507999999998
 20
7.999999999999984
 30
0.0
 11
-17.50507999999998
 21
26.00508000000003
 31
0.0
  0
LINE
  5
1244
330
1233
100
AcDbEntity
  8
0
100
AcDbLine
 10
-17.50507999999998
 20
26.00508000000003
 30
0.0
 11
-17.49999999999998
 21
26.00508000000003
 31
0.0
  0
LINE
  5
1245
330
1233
100
AcDbEntity
  8
0
100
AcDbLine
 10
-17.49999999999998
 20
26.00508000000003
 30
0.0
 11
-17.49999999999998
 21
26.00000000000003
 31
0.0
  0
LINE
  5
1246
330
1233
100
AcDbEntity
  8
0
100
AcDbLine
 10
17.50000000000001
 20
26.00000000000003
 30
0.0
 11
17.50000000000001
 21
26.00508000000003
 31
0.0
  0
LINE
  5
1247
330
1233
100
AcDbEntity
  8
0
100
AcDbLine
 10
17.50000000000001
 20
26.00508000000003
 30
0.0
 11
17.50508000000001
 21
26.00508000000003
 31
0.0
  0
LINE
  5
1248
330
1233
100
AcDbEntity
  8
0
100
AcDbLine
 10
17.50508000000001
 20
26.00508000000003
 30
0.0
 11
17.50508000000001
 21
7.999999999999993
 31
0.0
  0
LINE
  5
1249
330
1233
100
AcDbEntity
  8
0
100
AcDbLine
 10
-17.50507999999998
 20
7.999999999999984
 30
0.0
 11
-17.49999999999999
 21
7.999999999999984
 31
0.0
  0
LINE
  5
124A
330
1233
100
AcDbEntity
  8
0
100
AcDbLine
 10
17.50000000000001
 20
7.999999999999993
 30
0.0
 11
17.50508000000001
 21
7.999999999999993
 31
0.0
  0
LINE
  5
124B
330
1233
100
AcDbEntity
  8
0
100
AcDbLine
 10
-17.49999999999998
 20
18.00000000000002
 30
0.0
 11
17.50000000000001
 21
18.00000000000002
 31
0.0
  0
LINE
  5
124C
330
1233
100
AcDbEntity
  8
0
100
AcDbLine
 10
-17.49999999999998
 20
18.00000000000002
 30
0.0
 11
-17.49999999999998
 21
26.00000000000003
 31
0.0
  0
LINE
  5
124D
330
1233
100
AcDbEntity
  8
0
100
AcDbLine
 10
17.50000000000001
 20
18.00000000000002
 30
0.0
 11
17.50000000000001
 21
26.00000000000003
 31
0.0
  0
LINE
  5
124E
330
1233
100
AcDbEntity
  8
0
100
AcDbLine
 10
35.0
 20
122.0
 30
0.0
 11
35.0
 21
8.000000000000007
 31
0.0
  0
LINE
  5
124F
330
1233
100
AcDbEntity
  8
0
100
AcDbLine
 10
-27.99999999999995
 20
129.0
 30
0.0
 11
27.99999999999999
 21
129.0
 31
0.0
  0
LINE
  5
1250
330
1233
100
AcDbEntity
  8
0
100
AcDbLine
 10
-34.99999999999997
 20
7.99999999999998
 30
0.0
 11
-34.99999999999996
 21
122.0
 31
0.0
  0
LINE
  5
1251
330
1233
100
AcDbEntity
  8
0
100
AcDbLine
 10
28.0
 20
129.0
 30
0.0
 11
35.0
 21
122.0
 31
0.0
  0
LINE
  5
1252
330
1233
100
AcDbEntity
  8
0
100
AcDbLine
 10
-34.99999999999996
 20
122.0
 30
0.0
 11
-27.99999999999995
 21
129.0
 31
0.0
  0
LINE
  5
1253
330
1233
100
AcDbEntity
  8
0
100
AcDbLine
 10
-17.50507999999999
 20
0.0
 30
0.0
 11
-20.75254000000001
 21
0.0
 31
0.0
  0
LINE
  5
1254
330
1233
100
AcDbEntity
  8
0
100
AcDbLine
 10
20.75254000000001
 20
0.0
 30
0.0
 11
17.50508000000001
 21
0.0
 31
0.0
  0
LINE
  5
1255
330
1233
100
AcDbEntity
  8
0
100
AcDbLine
 10
35.0
 20
0.0
 30
0.0
 11
31.75254000000001
 21
0.0
 31
0.0
  0
LINE
  5
1256
330
1233
100
AcDbEntity
  8
0
100
AcDbLine
 10
35.00000000000006
 20
8.000000000000031
 30
0.0
 11
35.0
 21
0.0
 31
0.0
  0
LINE
  5
1257
330
1233
100
AcDbEntity
  8
0
100
AcDbLine
 10
-31.75254000000001
 20
0.0
 30
0.0
 11
-34.99999999999997
 21
0.0
 31
0.0
  0
LINE
  5
1258
330
1233
100
AcDbEntity
  8
0
100
AcDbLine
 10
-35.0
 20
0.0
 30
0.0
 11
-34.99999999999997
 21
7.99999999999998
 31
0.0
  0
LINE
  5
1259
330
1233
100
AcDbEntity
  8
0
100
AcDbLine
 10
-17.5
 20
0.0
 30
0.0
 11
-17.50507999999999
 21
0.0
 31
0.0
  0
LINE
  5
125A
330
1233
100
AcDbEntity
  8
0
100
AcDbLine
 10
17.50000000000001
 20
0.0
 30
0.0
 11
-17.49999999999999
 21
0.0
 31
0.0
  0
LINE
  5
125B
330
1233
100
AcDbEntity
  8
0
100
AcDbLine
 10
17.50508000000001
 20
0.0
 30
0.0
 11
17.50000000000001
 21
0.0
 31
0.0
  0
LINE
  5
125C
330
1233
100
AcDbEntity
  8
0
100
AcDbLine
 10
17.50000000000001
 20
18.00000000000002
 30
0.0
 11
17.5
 21
14.00000000000007
 31
0.0
  0
LINE
  5
125D
330
1233
100
AcDbEntity
  8
0
100
AcDbLine
 10
-17.49999999999998
 20
18.00000000000002
 30
0.0
 11
-17.49999999999998
 21
14.00000000000006
 31
0.0
  0
LINE
  5
125E
330
1233
100
AcDbEntity
  8
0
100
AcDbLine
 10
-17.49999999999996
 20
7.999999999999985
 30
0.0
 11
-17.5
 21
0.0
 31
0.0
  0
LINE
  5
125F
330
1233
100
AcDbEntity
  8
0
100
AcDbLine
 10
17.5
 20
0.0
 30
0.0
 11
17.50000000000001
 21
7.999999999999994
 31
0.0
  0
ARC
  5
1260
330
1233
100
AcDbEntity
  8
0
100
AcDbCircle
 10
12.5
 20
117.0
 30
0.0
 40
3.000000000000004
100
AcDbArc
 50
146.4426902380789
 51
213.5573097619202
  0
ARC
  5
1261
330
1233
100
AcDbEntity
  8
0
100
AcDbCircle
 10
-7.499999999999998
 20
117.0
 30
0.0
 40
3.000000000000004
100
AcDbArc
 50
146.4426902380786
 51
213.5573097619202
  0
ARC
  5
1262
330
1233
100
AcDbEntity
  8
0
100
AcDbCircle
 10
2.500000000000006
 20
97.0
 30
0.0
 40
2.999999999999997
100
AcDbArc
 50
146.4426902380789
 51
213.5573097619203
  0
ARC
  5
1263
330
1233
100
AcDbEntity
  8
0
100
AcDbCircle
 10
20.75254000000002
 20
-2.5
 30
0.0
 40
2.5
100
AcDbArc
 50
63.73981245626341
 51
90.0000000000001
  0
LINE
  5
1264
330
1233
100
AcDbEntity
  8
0
100
AcDbLine
 10
24.6154818348487
 20
-1.618138117063772
 30
0.0
 11
21.858660381859
 21
-0.2580147857677417
 31
0.0
  0
ARC
  5
1265
330
1233
100
AcDbEntity
  8
0
100
AcDbCircle
 10
26.25254000000001
 20
1.699999999999981
 30
0.0
 40
3.7
100
AcDbArc
 50
243.7398124562632
 51
296.2601875437368
  0
ARC
  5
1266
330
1233
100
AcDbEntity
  8
0
100
AcDbCircle
 10
31.75253999999997
 20
-2.5
 30
0.0
 40
2.5
100
AcDbArc
 50
89.99999999999991
 51
116.2601875437366
  0
LINE
  5
1267
330
1233
100
AcDbEntity
  8
0
100
AcDbLine
 10
27.88959816515129
 20
-1.618138117063765
 30
0.0
 11
30.64641961814098
 21
-0.2580147857677351
 31
0.0
  0
LINE
  5
1268
330
1233
100
AcDbEntity
  8
0
100
AcDbLine
 10
17.5
 20
14.00000000000007
 30
0.0
 11
17.50000000000001
 21
8.000000000000003
 31
0.0
  0
LINE
  5
1269
330
1233
100
AcDbEntity
  8
0
100
AcDbLine
 10
-17.49999999999999
 20
8.000000000000003
 30
0.0
 11
-17.49999999999998
 21
14.00000000000006
 31
0.0
  0
ENDBLK
  5
1235
330
1233
100
AcDbEntity
  8
0
100
AcDbBlockEnd
  0
BLOCK
  5
126B
330
126A
100
AcDbEntity
  8
0
100
AcDbBlockBegin
  2
PU90-B-Right
 70
     0
 10
0.0
 20
0.0
 30
0.0
  3
PU90-B-Right
  1

  0
ARC
  5
126D
330
126A
100
AcDbEntity
  8
0
100
AcDbCircle
 10
20.75254000000002
 20
-2.5
 30
0.0
 40
2.5
100
AcDbArc
 50
63.73981245626341
 51
90.0000000000001
  0
LINE
  5
126E
330
126A
100
AcDbEntity
  8
0
100
AcDbLine
 10
24.6154818348487
 20
-1.618138117063763
 30
0.0
 11
21.858660381859
 21
-0.2580147857677328
 31
0.0
  0
ARC
  5
126F
330
126A
100
AcDbEntity
  8
0
100
AcDbCircle
 10
26.25254000000001
 20
1.699999999999999
 30
0.0
 40
3.7
100
AcDbArc
 50
243.7398124562632
 51
296.2601875437368
  0
ARC
  5
1270
330
126A
100
AcDbEntity
  8
0
100
AcDbCircle
 10
31.75253999999996
 20
-2.5
 30
0.0
 40
2.5
100
AcDbArc
 50
89.99999999999991
 51
116.2601875437366
  0
LINE
  5
1271
330
126A
100
AcDbEntity
  8
0
100
AcDbLine
 10
27.88959816515129
 20
-1.618138117063765
 30
0.0
 11
30.64641961814098
 21
-0.2580147857677351
 31
0.0
  0
LINE
  5
1272
330
126A
100
AcDbEntity
  8
0
100
AcDbLine
 10
20.75254000000001
 20
0.0
 30
0.0
 11
17.50507999999999
 21
0.0
 31
0.0
  0
LINE
  5
1273
330
126A
100
AcDbEntity
  8
0
100
AcDbLine
 10
-17.50508000000001
 20
0.0
 30
0.0
 11
-20.75254000000001
 21
0.0
 31
0.0
  0
LINE
  5
1274
330
126A
100
AcDbEntity
  8
0
100
AcDbLine
 10
34.99999999999999
 20
0.0
 30
0.0
 11
31.75254000000001
 21
0.0
 31
0.0
  0
LINE
  5
1275
330
126A
100
AcDbEntity
  8
0
100
AcDbLine
 10
-31.75254000000001
 20
0.0
 30
0.0
 11
-35.0
 21
0.0
 31
0.0
  0
LINE
  5
1276
330
126A
100
AcDbEntity
  8
0
100
AcDbLine
 10
-35.00000000000001
 20
0.0
 30
0.0
 11
-35.00000000000002
 21
8.000000000000023
 31
0.0
  0
LINE
  5
1277
330
126A
100
AcDbEntity
  8
0
100
AcDbLine
 10
35.00000000000004
 20
8.000000000000047
 30
0.0
 11
34.99999999999999
 21
0.0
 31
0.0
  0
LINE
  5
1278
330
126A
100
AcDbEntity
  8
0
100
AcDbLine
 10
17.49999999999999
 20
0.0
 30
0.0
 11
-17.50000000000001
 21
0.0
 31
0.0
  0
LINE
  5
1279
330
126A
100
AcDbEntity
  8
0
100
AcDbLine
 10
17.49999999999999
 20
7.999999999999984
 30
0.0
 11
17.50507999999998
 21
7.999999999999984
 31
0.0
  0
LINE
  5
127A
330
126A
100
AcDbEntity
  8
0
100
AcDbLine
 10
17.50507999999999
 20
0.0
 30
0.0
 11
17.5
 21
0.0
 31
0.0
  0
LINE
  5
127B
330
126A
100
AcDbEntity
  8
0
100
AcDbLine
 10
-17.50000000000001
 20
0.0
 30
0.0
 11
-17.50508000000001
 21
0.0
 31
0.0
  0
LINE
  5
127C
330
126A
100
AcDbEntity
  8
0
100
AcDbLine
 10
-17.50508000000001
 20
7.999999999999993
 30
0.0
 11
-17.50000000000001
 21
7.999999999999993
 31
0.0
  0
LINE
  5
127D
330
126A
100
AcDbEntity
  8
0
100
AcDbLine
 10
-17.50508000000001
 20
7.999999999999993
 30
0.0
 11
-17.50508000000001
 21
26.00508000000003
 31
0.0
  0
LINE
  5
127E
330
126A
100
AcDbEntity
  8
0
100
AcDbLine
 10
-17.50508000000001
 20
26.00508000000003
 30
0.0
 11
-17.50000000000001
 21
26.00508000000003
 31
0.0
  0
LINE
  5
127F
330
126A
100
AcDbEntity
  8
0
100
AcDbLine
 10
-17.50000000000001
 20
26.00508000000003
 30
0.0
 11
-17.50000000000001
 21
26.00000000000003
 31
0.0
  0
LINE
  5
1280
330
126A
100
AcDbEntity
  8
0
100
AcDbLine
 10
17.49999999999998
 20
26.00000000000003
 30
0.0
 11
17.49999999999998
 21
26.00508000000003
 31
0.0
  0
LINE
  5
1281
330
126A
100
AcDbEntity
  8
0
100
AcDbLine
 10
17.49999999999998
 20
26.00508000000003
 30
0.0
 11
17.50507999999998
 21
26.00508000000003
 31
0.0
  0
LINE
  5
1282
330
126A
100
AcDbEntity
  8
0
100
AcDbLine
 10
17.50507999999998
 20
26.00508000000003
 30
0.0
 11
17.50507999999998
 21
7.999999999999984
 31
0.0
  0
LINE
  5
1283
330
126A
100
AcDbEntity
  8
0
100
AcDbLine
 10
-17.50000000000001
 20
18.00000000000002
 30
0.0
 11
-17.5
 21
14.00000000000007
 31
0.0
  0
LINE
  5
1284
330
126A
100
AcDbEntity
  8
0
100
AcDbLine
 10
17.49999999999998
 20
18.00000000000002
 30
0.0
 11
17.49999999999998
 21
14.00000000000006
 31
0.0
  0
LINE
  5
1285
330
126A
100
AcDbEntity
  8
0
100
AcDbLine
 10
-17.50000000000001
 20
18.00000000000003
 30
0.0
 11
17.49999999999998
 21
18.00000000000003
 31
0.0
  0
LINE
  5
1286
330
126A
100
AcDbEntity
  8
0
100
AcDbLine
 10
17.49999999999998
 20
18.00000000000002
 30
0.0
 11
17.49999999999998
 21
26.00000000000003
 31
0.0
  0
LINE
  5
1287
330
126A
100
AcDbEntity
  8
0
100
AcDbLine
 10
-17.50000000000001
 20
18.00000000000002
 30
0.0
 11
-17.50000000000001
 21
26.00000000000003
 31
0.0
  0
LINE
  5
1288
330
126A
100
AcDbEntity
  8
0
100
AcDbLine
 10
-17.50000000000001
 20
14.00000000000002
 30
0.0
 11
-17.50000000000001
 21
7.999999999999948
 31
0.0
  0
LINE
  5
1289
330
126A
100
AcDbEntity
  8
0
100
AcDbLine
 10
17.49999999999999
 20
7.999999999999948
 30
0.0
 11
17.5
 21
14.00000000000005
 31
0.0
  0
LINE
  5
128A
330
126A
100
AcDbEntity
  8
0
100
AcDbLine
 10
17.49999999999998
 20
0.0
 30
0.0
 11
17.49999999999996
 21
7.999999999999985
 31
0.0
  0
LINE
  5
128B
330
126A
100
AcDbEntity
  8
0
100
AcDbLine
 10
-17.50000000000001
 20
7.999999999999994
 30
0.0
 11
-17.50000000000001
 21
0.0
 31
0.0
  0
ARC
  5
128C
330
126A
100
AcDbEntity
  8
0
100
AcDbCircle
 10
-20.75254000000002
 20
-2.5
 30
0.0
 40
2.5
100
AcDbArc
 50
89.99999999999991
 51
116.2601875437366
  0
LINE
  5
128D
330
126A
100
AcDbEntity
  8
0
100
AcDbLine
 10
-24.6154818348487
 20
-1.618138117063763
 30
0.0
 11
-21.858660381859
 21
-0.2580147857677328
 31
0.0
  0
ARC
  5
128E
330
126A
100
AcDbEntity
  8
0
100
AcDbCircle
 10
-26.25254000000001
 20
1.699999999999999
 30
0.0
 40
3.7
100
AcDbArc
 50
243.7398124562632
 51
296.2601875437367
  0
ARC
  5
128F
330
126A
100
AcDbEntity
  8
0
100
AcDbCircle
 10
-31.75253999999996
 20
-2.5
 30
0.0
 40
2.5
100
AcDbArc
 50
63.73981245626341
 51
90.0000000000001
  0
LINE
  5
1290
330
126A
100
AcDbEntity
  8
0
100
AcDbLine
 10
-27.88959816515129
 20
-1.618138117063765
 30
0.0
 11
-30.64641961814098
 21
-0.2580147857677351
 31
0.0
  0
LINE
  5
1291
330
126A
100
AcDbEntity
  8
0
100
AcDbLine
 10
35.0
 20
122.0
 30
0.0
 11
34.99999999999999
 21
8.000000000000007
 31
0.0
  0
LINE
  5
1292
330
126A
100
AcDbEntity
  8
0
100
AcDbLine
 10
-28.0
 20
129.0
 30
0.0
 11
28.0
 21
129.0
 31
0.0
  0
LINE
  5
1293
330
126A
100
AcDbEntity
  8
0
100
AcDbLine
 10
-35.0
 20
8.000000000000015
 30
0.0
 11
-35.0
 21
122.0
 31
0.0
  0
LINE
  5
1294
330
126A
100
AcDbEntity
  8
0
100
AcDbLine
 10
28.0
 20
129.0
 30
0.0
 11
35.0
 21
122.0
 31
0.0
  0
LINE
  5
1295
330
126A
100
AcDbEntity
  8
0
100
AcDbLine
 10
-35.0
 20
122.0
 30
0.0
 11
-28.0
 21
129.0
 31
0.0
  0
CIRCLE
  5
1296
330
126A
100
AcDbEntity
  8
0
100
AcDbCircle
 10
-22.5
 20
110.0
 30
0.0
 40
4.5
  0
CIRCLE
  5
1297
330
126A
100
AcDbEntity
  8
0
100
AcDbCircle
 10
17.5
 20
97.0
 30
0.0
 40
4.5
  0
CIRCLE
  5
1298
330
126A
100
AcDbEntity
  8
0
100
AcDbCircle
 10
-12.5
 20
117.0
 30
0.0
 40
3.0
  0
CIRCLE
  5
1299
330
126A
100
AcDbEntity
  8
0
100
AcDbCircle
 10
7.499999999999998
 20
117.0
 30
0.0
 40
3.0
  0
CIRCLE
  5
129A
330
126A
100
AcDbEntity
  8
0
100
AcDbCircle
 10
27.5
 20
117.0
 30
0.0
 40
3.0
  0
CIRCLE
  5
129B
330
126A
100
AcDbEntity
  8
0
100
AcDbCircle
 10
-27.50000000000001
 20
97.0
 30
0.0
 40
3.0
  0
CIRCLE
  5
129C
330
126A
100
AcDbEntity
  8
0
100
AcDbCircle
 10
-2.500000000000006
 20
97.0
 30
0.0
 40
3.0
  0
CIRCLE
  5
129D
330
126A
100
AcDbEntity
  8
0
100
AcDbCircle
 10
-0.0000000000000022
 20
76.99999999999999
 30
0.0
 40
5.5
  0
ARC
  5
129E
330
126A
100
AcDbEntity
  8
0
100
AcDbCircle
 10
12.49999999999999
 20
117.0
 30
0.0
 40
3.000000000000004
100
AcDbArc
 50
146.4426902380797
 51
213.557309761921
  0
ARC
  5
129F
330
126A
100
AcDbEntity
  8
0
100
AcDbCircle
 10
-7.500000000000001
 20
117.0
 30
0.0
 40
3.000000000000004
100
AcDbArc
 50
146.4426902380798
 51
213.557309761921
  0
ARC
  5
12A0
330
126A
100
AcDbEntity
  8
0
100
AcDbCircle
 10
2.499999999999997
 20
97.00000000000002
 30
0.0
 40
2.999999999999997
100
AcDbArc
 50
146.4426902380797
 51
213.5573097619211
  0
ENDBLK
  5
126C
330
126A
100
AcDbEntity
  8
0
100
AcDbBlockEnd
  0
BLOCK
  5
12A2
330
12A1
100
AcDbEntity
  8
0
100
AcDbBlockBegin
  2
PU90-B-Top
 70
     0
 10
0.0
 20
0.0
 30
0.0
  3
PU90-B-Top
  1

  0
ARC
  5
12A4
330
12A1
100
AcDbEntity
  8
0
100
AcDbCircle
 10
51.49999999999997
 20
20.75254000000003
 30
0.0
 40
2.5
100
AcDbArc
 50
153.7398124562632
 51
180.0
  0
LINE
  5
12A5
330
12A1
100
AcDbEntity
  8
0
100
AcDbLine
 10
49.2580147857677
 20
21.85866038185901
 30
0.0
 11
50.61813811706373
 21
24.6154818348487
 31
0.0
  0
ARC
  5
12A6
330
12A1
100
AcDbEntity
  8
0
100
AcDbCircle
 10
-51.49999999999997
 20
20.75254000000003
 30
0.0
 40
2.5
100
AcDbArc
 50
0.0
 51
26.26018754373655
  0
LINE
  5
12A7
330
12A1
100
AcDbEntity
  8
0
100
AcDbLine
 10
-50.61813811706374
 20
24.6154818348487
 30
0.0
 11
-49.25801478576771
 21
21.85866038185901
 31
0.0
  0
ARC
  5
12A8
330
12A1
100
AcDbEntity
  8
0
100
AcDbCircle
 10
-47.29999999999996
 20
26.25254000000002
 30
0.0
 40
3.7
100
AcDbArc
 50
153.7398124562632
 51
206.2601875437367
  0
ARC
  5
12A9
330
12A1
100
AcDbEntity
  8
0
100
AcDbCircle
 10
-51.49999999999997
 20
31.75253999999997
 30
0.0
 40
2.5
100
AcDbArc
 50
333.7398124562634
 51
0.0
  0
LINE
  5
12AA
330
12A1
100
AcDbEntity
  8
0
100
AcDbLine
 10
-50.61813811706374
 20
27.88959816515129
 30
0.0
 11
-49.25801478576771
 21
30.64641961814098
 31
0.0
  0
ARC
  5
12AB
330
12A1
100
AcDbEntity
  8
0
100
AcDbCircle
 10
47.29999999999996
 20
26.25254000000002
 30
0.0
 40
3.7
100
AcDbArc
 50
333.7398124562633
 51
26.2601875437368
  0
ARC
  5
12AC
330
12A1
100
AcDbEntity
  8
0
100
AcDbCircle
 10
51.49999999999997
 20
31.75253999999997
 30
0.0
 40
2.5
100
AcDbArc
 50
180.0
 51
206.2601875437365
  0
LINE
  5
12AD
330
12A1
100
AcDbEntity
  8
0
100
AcDbLine
 10
50.61813811706373
 20
27.88959816515129
 30
0.0
 11
49.2580147857677
 21
30.64641961814098
 31
0.0
  0
LINE
  5
12AE
330
12A1
100
AcDbEntity
  8
0
100
AcDbLine
 10
-48.99999999999997
 20
-28.0
 30
0.0
 11
-48.99999999999997
 21
-35.0
 31
0.0
  0
LINE
  5
12AF
330
12A1
100
AcDbEntity
  8
0
100
AcDbLine
 10
-48.99999999999997
 20
34.99999999999996
 30
0.0
 11
-48.99999999999997
 21
27.99999999999995
 31
0.0
  0
LINE
  5
12B0
330
12A1
100
AcDbEntity
  8
0
100
AcDbLine
 10
44.99999999999996
 20
-28.0
 30
0.0
 11
44.99999999999996
 21
-35.0
 31
0.0
  0
LINE
  5
12B1
330
12A1
100
AcDbEntity
  8
0
100
AcDbLine
 10
44.99999999999996
 20
35.0
 30
0.0
 11
44.99999999999996
 21
28.0
 31
0.0
  0
LINE
  5
12B2
330
12A1
100
AcDbEntity
  8
0
100
AcDbLine
 10
48.99999999999997
 20
28.0
 30
0.0
 11
48.99999999999997
 21
35.0
 31
0.0
  0
LINE
  5
12B3
330
12A1
100
AcDbEntity
  8
0
100
AcDbLine
 10
48.99999999999997
 20
-35.0
 30
0.0
 11
48.99999999999997
 21
-28.0
 31
0.0
  0
LINE
  5
12B4
330
12A1
100
AcDbEntity
  8
0
100
AcDbLine
 10
-44.99999999999996
 20
27.99999999999995
 30
0.0
 11
-44.99999999999996
 21
34.99999999999996
 31
0.0
  0
LINE
  5
12B5
330
12A1
100
AcDbEntity
  8
0
100
AcDbLine
 10
-44.99999999999996
 20
-35.0
 30
0.0
 11
-44.99999999999996
 21
-28.0
 31
0.0
  0
LINE
  5
12B6
330
12A1
100
AcDbEntity
  8
0
100
AcDbLine
 10
-44.99999999999996
 20
34.99999999999996
 30
0.0
 11
-48.99999999999997
 21
34.99999999999996
 31
0.0
  0
LINE
  5
12B7
330
12A1
100
AcDbEntity
  8
0
100
AcDbLine
 10
-44.99999999999996
 20
-28.0
 30
0.0
 11
-48.99999999999997
 21
-28.0
 31
0.0
  0
LINE
  5
12B8
330
12A1
100
AcDbEntity
  8
0
100
AcDbLine
 10
-48.99999999999997
 20
-35.0
 30
0.0
 11
-44.99999999999996
 21
-35.0
 31
0.0
  0
LINE
  5
12B9
330
12A1
100
AcDbEntity
  8
0
100
AcDbLine
 10
-48.99999999999997
 20
27.99999999999995
 30
0.0
 11
-44.99999999999996
 21
27.99999999999995
 31
0.0
  0
LINE
  5
12BA
330
12A1
100
AcDbEntity
  8
0
100
AcDbLine
 10
44.99999999999996
 20
-35.0
 30
0.0
 11
48.99999999999997
 21
-35.0
 31
0.0
  0
LINE
  5
12BB
330
12A1
100
AcDbEntity
  8
0
100
AcDbLine
 10
48.99999999999997
 20
-28.0
 30
0.0
 11
44.99999999999996
 21
-28.0
 31
0.0
  0
LINE
  5
12BC
330
12A1
100
AcDbEntity
  8
0
100
AcDbLine
 10
44.99999999999996
 20
28.0
 30
0.0
 11
48.99999999999997
 21
28.0
 31
0.0
  0
LINE
  5
12BD
330
12A1
100
AcDbEntity
  8
0
100
AcDbLine
 10
48.99999999999997
 20
35.0
 30
0.0
 11
44.99999999999996
 21
35.0
 31
0.0
  0
LINE
  5
12BE
330
12A1
100
AcDbEntity
  8
0
100
AcDbLine
 10
-48.99999999999997
 20
27.99999999999995
 30
0.0
 11
-48.99999999999997
 21
-27.99999999999999
 31
0.0
  0
LINE
  5
12BF
330
12A1
100
AcDbEntity
  8
0
100
AcDbLine
 10
44.99999999999996
 20
28.0
 30
0.0
 11
44.99999999999996
 21
-28.0
 31
0.0
  0
LINE
  5
12C0
330
12A1
100
AcDbEntity
  8
0
100
AcDbLine
 10
48.99999999999997
 20
-28.0
 30
0.0
 11
48.99999999999997
 21
28.0
 31
0.0
  0
LINE
  5
12C1
330
12A1
100
AcDbEntity
  8
0
100
AcDbLine
 10
-41.00000000000001
 20
34.99999999999997
 30
0.0
 11
41.0
 21
34.99999999999999
 31
0.0
  0
LINE
  5
12C2
330
12A1
100
AcDbEntity
  8
0
100
AcDbLine
 10
40.99999999999997
 20
-35.0
 30
0.0
 11
-41.0
 21
-35.0
 31
0.0
  0
LINE
  5
12C3
330
12A1
100
AcDbEntity
  8
0
100
AcDbLine
 10
-44.99999999999996
 20
-28.0
 30
0.0
 11
-44.99999999999996
 21
27.99999999999994
 31
0.0
  0
LINE
  5
12C4
330
12A1
100
AcDbEntity
  8
0
100
AcDbLine
 10
41.0
 20
17.5
 30
0.0
 11
41.0
 21
17.50507999999999
 31
0.0
  0
LINE
  5
12C5
330
12A1
100
AcDbEntity
  8
0
100
AcDbLine
 10
41.0
 20
-17.50508000000001
 30
0.0
 11
22.99492000000003
 21
-17.50508000000001
 31
0.0
  0
LINE
  5
12C6
330
12A1
100
AcDbEntity
  8
0
100
AcDbLine
 10
22.99492000000003
 20
-17.50508000000001
 30
0.0
 11
22.99492000000003
 21
-17.50000000000001
 31
0.0
  0
LINE
  5
12C7
330
12A1
100
AcDbEntity
  8
0
100
AcDbLine
 10
22.99492000000003
 20
-17.50000000000001
 30
0.0
 11
23.00000000000003
 21
-17.50000000000001
 31
0.0
  0
LINE
  5
12C8
330
12A1
100
AcDbEntity
  8
0
100
AcDbLine
 10
23.00000000000003
 20
17.49999999999999
 30
0.0
 11
22.99492000000003
 21
17.49999999999999
 31
0.0
  0
LINE
  5
12C9
330
12A1
100
AcDbEntity
  8
0
100
AcDbLine
 10
22.99492000000003
 20
17.49999999999999
 30
0.0
 11
22.99492000000003
 21
17.50507999999999
 31
0.0
  0
LINE
  5
12CA
330
12A1
100
AcDbEntity
  8
0
100
AcDbLine
 10
22.99492000000003
 20
17.50507999999999
 30
0.0
 11
41.0
 21
17.50507999999999
 31
0.0
  0
LINE
  5
12CB
330
12A1
100
AcDbEntity
  8
0
100
AcDbLine
 10
41.0
 20
-17.50508000000001
 30
0.0
 11
41.0
 21
-17.50000000000001
 31
0.0
  0
LINE
  5
12CC
330
12A1
100
AcDbEntity
  8
0
100
AcDbLine
 10
26.99999999999997
 20
-17.5
 30
0.0
 11
35.00000000000002
 21
-17.50000000000001
 31
0.0
  0
LINE
  5
12CD
330
12A1
100
AcDbEntity
  8
0
100
AcDbLine
 10
27.00000000000003
 20
17.5
 30
0.0
 11
27.00000000000003
 21
-17.5
 31
0.0
  0
LINE
  5
12CE
330
12A1
100
AcDbEntity
  8
0
100
AcDbLine
 10
27.00000000000003
 20
17.49999999999999
 30
0.0
 11
35.00000000000008
 21
17.49999999999998
 31
0.0
  0
LINE
  5
12CF
330
12A1
100
AcDbEntity
  8
0
100
AcDbLine
 10
23.00000000000003
 20
17.49999999999999
 30
0.0
 11
27.00000000000003
 21
17.49999999999999
 31
0.0
  0
LINE
  5
12D0
330
12A1
100
AcDbEntity
  8
0
100
AcDbLine
 10
23.00000000000003
 20
-17.50000000000001
 30
0.0
 11
27.00000000000003
 21
-17.50000000000001
 31
0.0
  0
LINE
  5
12D1
330
12A1
100
AcDbEntity
  8
0
100
AcDbLine
 10
40.99999999999997
 20
-17.50000000000001
 30
0.0
 11
35.00000000000002
 21
-17.50000000000001
 31
0.0
  0
LINE
  5
12D2
330
12A1
100
AcDbEntity
  8
0
100
AcDbLine
 10
35.00000000000008
 20
17.49999999999999
 30
0.0
 11
40.99999999999997
 21
17.49999999999998
 31
0.0
  0
LINE
  5
12D3
330
12A1
100
AcDbEntity
  8
0
100
AcDbLine
 10
44.99999999999999
 20
17.49999999999998
 30
0.0
 11
40.99999999999997
 21
17.49999999999998
 31
0.0
  0
LINE
  5
12D4
330
12A1
100
AcDbEntity
  8
0
100
AcDbLine
 10
44.99999999999999
 20
-17.50000000000001
 30
0.0
 11
40.99999999999997
 21
-17.50000000000001
 31
0.0
  0
LINE
  5
12D5
330
12A1
100
AcDbEntity
  8
0
100
AcDbLine
 10
-41.0
 20
17.50507999999999
 30
0.0
 11
-22.99492000000003
 21
17.50507999999999
 31
0.0
  0
LINE
  5
12D6
330
12A1
100
AcDbEntity
  8
0
100
AcDbLine
 10
-22.99492000000003
 20
17.50507999999999
 30
0.0
 11
-22.99492000000003
 21
17.49999999999999
 31
0.0
  0
LINE
  5
12D7
330
12A1
100
AcDbEntity
  8
0
100
AcDbLine
 10
-22.99492000000003
 20
17.49999999999999
 30
0.0
 11
-23.00000000000003
 21
17.49999999999999
 31
0.0
  0
LINE
  5
12D8
330
12A1
100
AcDbEntity
  8
0
100
AcDbLine
 10
-23.00000000000003
 20
-17.50000000000001
 30
0.0
 11
-22.99492000000003
 21
-17.50000000000001
 31
0.0
  0
LINE
  5
12D9
330
12A1
100
AcDbEntity
  8
0
100
AcDbLine
 10
-22.99492000000003
 20
-17.50000000000001
 30
0.0
 11
-22.99492000000003
 21
-17.50508000000001
 31
0.0
  0
LINE
  5
12DA
330
12A1
100
AcDbEntity
  8
0
100
AcDbLine
 10
-22.99492000000003
 20
-17.50508000000001
 30
0.0
 11
-41.0
 21
-17.50508000000001
 31
0.0
  0
LINE
  5
12DB
330
12A1
100
AcDbEntity
  8
0
100
AcDbLine
 10
-41.0
 20
17.50507999999999
 30
0.0
 11
-41.0
 21
17.5
 31
0.0
  0
LINE
  5
12DC
330
12A1
100
AcDbEntity
  8
0
100
AcDbLine
 10
-41.0
 20
-17.50000000000001
 30
0.0
 11
-41.0
 21
-17.50508000000001
 31
0.0
  0
LINE
  5
12DD
330
12A1
100
AcDbEntity
  8
0
100
AcDbLine
 10
-26.99999999999997
 20
-17.5
 30
0.0
 11
-27.00000000000003
 21
17.49999999999999
 31
0.0
  0
LINE
  5
12DE
330
12A1
100
AcDbEntity
  8
0
100
AcDbLine
 10
-26.99999999999997
 20
-17.5
 30
0.0
 11
-35.00000000000002
 21
-17.50000000000001
 31
0.0
  0
LINE
  5
12DF
330
12A1
100
AcDbEntity
  8
0
100
AcDbLine
 10
-27.00000000000003
 20
17.49999999999999
 30
0.0
 11
-35.00000000000008
 21
17.49999999999998
 31
0.0
  0
LINE
  5
12E0
330
12A1
100
AcDbEntity
  8
0
100
AcDbLine
 10
-23.00000000000003
 20
17.49999999999999
 30
0.0
 11
-27.00000000000003
 21
17.49999999999999
 31
0.0
  0
LINE
  5
12E1
330
12A1
100
AcDbEntity
  8
0
100
AcDbLine
 10
-23.00000000000003
 20
-17.50000000000001
 30
0.0
 11
-27.00000000000003
 21
-17.50000000000001
 31
0.0
  0
CIRCLE
  5
12E2
330
12A1
100
AcDbEntity
  8
0
100
AcDbCircle
 10
15.0
 20
-12.5
 30
0.0
 40
4.5
  0
CIRCLE
  5
12E3
330
12A1
100
AcDbEntity
  8
0
100
AcDbCircle
 10
-15.0
 20
12.49999999999997
 30
0.0
 40
4.5
  0
ARC
  5
12E4
330
12A1
100
AcDbEntity
  8
0
100
AcDbCircle
 10
1.500000000000001
 20
-0.0000000000000022
 30
0.0
 40
8.5
100
AcDbArc
 50
270.0
 51
90.00000000000007
  0
LINE
  5
12E5
330
12A1
100
AcDbEntity
  8
0
100
AcDbLine
 10
1.500000000000001
 20
-8.500000000000003
 30
0.0
 11
-1.499999999999996
 21
-8.500000000000003
 31
0.0
  0
ARC
  5
12E6
330
12A1
100
AcDbEntity
  8
0
100
AcDbCircle
 10
-1.500000000000001
 20
-0.0000000000000028
 30
0.0
 40
8.5
100
AcDbArc
 50
89.99999999999998
 51
270.0
  0
LINE
  5
12E7
330
12A1
100
AcDbEntity
  8
0
100
AcDbLine
 10
-1.499999999999999
 20
8.499999999999982
 30
0.0
 11
1.499999999999994
 21
8.499999999999982
 31
0.0
  0
ARC
  5
12E8
330
12A1
100
AcDbEntity
  8
0
100
AcDbCircle
 10
51.49999999999997
 20
-20.75254000000003
 30
0.0
 40
2.5
100
AcDbArc
 50
180.0
 51
206.2601875437367
  0
LINE
  5
12E9
330
12A1
100
AcDbEntity
  8
0
100
AcDbLine
 10
49.2580147857677
 20
-21.85866038185901
 30
0.0
 11
50.61813811706373
 21
-24.6154818348487
 31
0.0
  0
ARC
  5
12EA
330
12A1
100
AcDbEntity
  8
0
100
AcDbCircle
 10
-51.49999999999997
 20
-20.75254000000003
 30
0.0
 40
2.5
100
AcDbArc
 50
333.7398124562634
 51
0.0
  0
LINE
  5
12EB
330
12A1
100
AcDbEntity
  8
0
100
AcDbLine
 10
-50.61813811706374
 20
-24.6154818348487
 30
0.0
 11
-49.25801478576771
 21
-21.85866038185901
 31
0.0
  0
ARC
  5
12EC
330
12A1
100
AcDbEntity
  8
0
100
AcDbCircle
 10
-47.29999999999996
 20
-26.25254000000002
 30
0.0
 40
3.7
100
AcDbArc
 50
153.7398124562632
 51
206.2601875437367
  0
ARC
  5
12ED
330
12A1
100
AcDbEntity
  8
0
100
AcDbCircle
 10
-51.49999999999997
 20
-31.75253999999997
 30
0.0
 40
2.5
100
AcDbArc
 50
0.0
 51
26.26018754373655
  0
LINE
  5
12EE
330
12A1
100
AcDbEntity
  8
0
100
AcDbLine
 10
-50.61813811706374
 20
-27.88959816515129
 30
0.0
 11
-49.25801478576771
 21
-30.64641961814098
 31
0.0
  0
ARC
  5
12EF
330
12A1
100
AcDbEntity
  8
0
100
AcDbCircle
 10
47.29999999999996
 20
-26.25254000000002
 30
0.0
 40
3.7
100
AcDbArc
 50
333.7398124562632
 51
26.26018754373671
  0
ARC
  5
12F0
330
12A1
100
AcDbEntity
  8
0
100
AcDbCircle
 10
51.49999999999997
 20
-31.75253999999997
 30
0.0
 40
2.5
100
AcDbArc
 50
153.7398124562634
 51
180.0
  0
LINE
  5
12F1
330
12A1
100
AcDbEntity
  8
0
100
AcDbLine
 10
50.61813811706373
 20
-27.88959816515129
 30
0.0
 11
49.2580147857677
 21
-30.64641961814098
 31
0.0
  0
LINE
  5
12F2
330
12A1
100
AcDbEntity
  8
0
100
AcDbLine
 10
40.99999999999996
 20
-35.00000000000001
 30
0.0
 11
45.0
 21
-35.00000000000002
 31
0.0
  0
LINE
  5
12F3
330
12A1
100
AcDbEntity
  8
0
100
AcDbLine
 10
45.0
 20
35.00000000000001
 30
0.0
 11
41.0
 21
34.99999999999999
 31
0.0
  0
LINE
  5
12F4
330
12A1
100
AcDbEntity
  8
0
100
AcDbLine
 10
-45.0
 20
-35.00000000000003
 30
0.0
 11
-41.0
 21
-35.0
 31
0.0
  0
LINE
  5
12F5
330
12A1
100
AcDbEntity
  8
0
100
AcDbLine
 10
-40.99999999999996
 20
34.99999999999997
 30
0.0
 11
-45.0
 21
34.99999999999997
 31
0.0
  0
LINE
  5
12F6
330
12A1
100
AcDbEntity
  8
0
100
AcDbLine
 10
-40.99999999999997
 20
-17.50000000000001
 30
0.0
 11
-35.00000000000002
 21
-17.50000000000001
 31
0.0
  0
LINE
  5
12F7
330
12A1
100
AcDbEntity
  8
0
100
AcDbLine
 10
-35.00000000000008
 20
17.49999999999999
 30
0.0
 11
-40.99999999999997
 21
17.49999999999998
 31
0.0
  0
LINE
  5
12F8
330
12A1
100
AcDbEntity
  8
0
100
AcDbLine
 10
-44.99999999999999
 20
17.49999999999998
 30
0.0
 11
-40.99999999999997
 21
17.49999999999998
 31
0.0
  0
LINE
  5
12F9
330
12A1
100
AcDbEntity
  8
0
100
AcDbLine
 10
-44.99999999999999
 20
-17.50000000000001
 30
0.0
 11
-40.99999999999997
 21
-17.50000000000001
 31
0.0
  0
ENDBLK
  5
12A3
330
12A1
100
AcDbEntity
  8
0
100
AcDbBlockEnd
  0
BLOCK
  5
12FB
330
12FA
100
AcDbEntity
  8
0
100
AcDbBlockBegin
  2
PU90-B-Bottom
 70
     0
 10
0.0
 20
0.0
 30
0.0
  3
PU90-B-Bottom
  1

  0
ARC
  5
12FD
330
12FA
100
AcDbEntity
  8
0
100
AcDbCircle
 10
51.5
 20
-20.75254000000001
 30
0.0
 40
2.5
100
AcDbArc
 50
180.0
 51
206.2601875437365
  0
LINE
  5
12FE
330
12FA
100
AcDbEntity
  8
0
100
AcDbLine
 10
50.61813811706375
 20
-24.61548183484869
 30
0.0
 11
49.25801478576772
 21
-21.858660381859
 31
0.0
  0
ARC
  5
12FF
330
12FA
100
AcDbEntity
  8
0
100
AcDbCircle
 10
-51.49999999999998
 20
-20.75254000000002
 30
0.0
 40
2.5
100
AcDbArc
 50
333.7398124562634
 51
0.0
  0
LINE
  5
1300
330
12FA
100
AcDbEntity
  8
0
100
AcDbLine
 10
-50.61813811706375
 20
-24.6154818348487
 30
0.0
 11
-49.25801478576772
 21
-21.858660381859
 31
0.0
  0
ARC
  5
1301
330
12FA
100
AcDbEntity
  8
0
100
AcDbCircle
 10
-47.29999999999998
 20
-26.25254000000001
 30
0.0
 40
3.7
100
AcDbArc
 50
153.7398124562632
 51
206.2601875437367
  0
ARC
  5
1302
330
12FA
100
AcDbEntity
  8
0
100
AcDbCircle
 10
-51.49999999999998
 20
-31.75253999999996
 30
0.0
 40
2.5
100
AcDbArc
 50
0.0
 51
26.26018754373655
  0
LINE
  5
1303
330
12FA
100
AcDbEntity
  8
0
100
AcDbLine
 10
-50.61813811706375
 20
-27.88959816515129
 30
0.0
 11
-49.25801478576772
 21
-30.64641961814098
 31
0.0
  0
ARC
  5
1304
330
12FA
100
AcDbEntity
  8
0
100
AcDbCircle
 10
47.3
 20
-26.25254
 30
0.0
 40
3.7
100
AcDbArc
 50
333.7398124562632
 51
26.2601875437368
  0
ARC
  5
1305
330
12FA
100
AcDbEntity
  8
0
100
AcDbCircle
 10
51.49999999999999
 20
-31.75253999999996
 30
0.0
 40
2.5
100
AcDbArc
 50
153.7398124562634
 51
180.0
  0
LINE
  5
1306
330
12FA
100
AcDbEntity
  8
0
100
AcDbLine
 10
50.61813811706375
 20
-27.88959816515129
 30
0.0
 11
49.25801478576772
 21
-30.64641961814098
 31
0.0
  0
LINE
  5
1307
330
12FA
100
AcDbEntity
  8
0
100
AcDbLine
 10
-49.0
 20
-20.75254000000001
 30
0.0
 11
-48.99999999999999
 21
-17.50507999999998
 31
0.0
  0
LINE
  5
1308
330
12FA
100
AcDbEntity
  8
0
100
AcDbLine
 10
-48.99999999999999
 20
17.50508000000001
 30
0.0
 11
-49.0
 21
20.75254000000001
 31
0.0
  0
LINE
  5
1309
330
12FA
100
AcDbEntity
  8
0
100
AcDbLine
 10
-49.0
 20
31.75254000000002
 30
0.0
 11
-48.99999999999999
 21
35.0
 31
0.0
  0
LINE
  5
130A
330
12FA
100
AcDbEntity
  8
0
100
AcDbLine
 10
-48.99999999999999
 20
-34.99999999999997
 30
0.0
 11
-49.0
 21
-31.75254000000001
 31
0.0
  0
LINE
  5
130B
330
12FA
100
AcDbEntity
  8
0
100
AcDbLine
 10
-48.99999999999999
 20
35.00000000000006
 30
0.0
 11
-41.0
 21
35.0
 31
0.0
  0
LINE
  5
130C
330
12FA
100
AcDbEntity
  8
0
100
AcDbLine
 10
-40.99999999999997
 20
-35.0
 30
0.0
 11
-48.99999999999999
 21
-34.99999999999997
 31
0.0
  0
LINE
  5
130D
330
12FA
100
AcDbEntity
  8
0
100
AcDbLine
 10
-48.99999999999998
 20
-17.49999999999998
 30
0.0
 11
-48.99999999999998
 21
17.50000000000001
 31
0.0
  0
LINE
  5
130E
330
12FA
100
AcDbEntity
  8
0
100
AcDbLine
 10
-48.99999999999999
 20
-17.50507999999998
 30
0.0
 11
-48.99999999999998
 21
-17.49999999999999
 31
0.0
  0
LINE
  5
130F
330
12FA
100
AcDbEntity
  8
0
100
AcDbLine
 10
-48.99999999999998
 20
17.50000000000001
 30
0.0
 11
-48.99999999999999
 21
17.50508000000001
 31
0.0
  0
LINE
  5
1310
330
12FA
100
AcDbEntity
  8
0
100
AcDbLine
 10
-41.0
 20
-17.5
 30
0.0
 11
-41.0
 21
-17.50507999999999
 31
0.0
  0
LINE
  5
1311
330
12FA
100
AcDbEntity
  8
0
100
AcDbLine
 10
-41.0
 20
17.50508000000001
 30
0.0
 11
-22.99492000000003
 21
17.50508000000001
 31
0.0
  0
LINE
  5
1312
330
12FA
100
AcDbEntity
  8
0
100
AcDbLine
 10
-22.99492000000003
 20
17.50508000000001
 30
0.0
 11
-22.99492000000003
 21
17.50000000000001
 31
0.0
  0
LINE
  5
1313
330
12FA
100
AcDbEntity
  8
0
100
AcDbLine
 10
-22.99492000000003
 20
17.50000000000001
 30
0.0
 11
-23.00000000000003
 21
17.50000000000001
 31
0.0
  0
LINE
  5
1314
330
12FA
100
AcDbEntity
  8
0
100
AcDbLine
 10
-23.00000000000003
 20
-17.49999999999999
 30
0.0
 11
-22.99492000000003
 21
-17.49999999999999
 31
0.0
  0
LINE
  5
1315
330
12FA
100
AcDbEntity
  8
0
100
AcDbLine
 10
-22.99492000000003
 20
-17.49999999999999
 30
0.0
 11
-22.99492000000003
 21
-17.50507999999999
 31
0.0
  0
LINE
  5
1316
330
12FA
100
AcDbEntity
  8
0
100
AcDbLine
 10
-22.99492000000003
 20
-17.50507999999999
 30
0.0
 11
-41.0
 21
-17.50507999999999
 31
0.0
  0
LINE
  5
1317
330
12FA
100
AcDbEntity
  8
0
100
AcDbLine
 10
-41.0
 20
17.50508000000001
 30
0.0
 11
-41.0
 21
17.50000000000001
 31
0.0
  0
LINE
  5
1318
330
12FA
100
AcDbEntity
  8
0
100
AcDbLine
 10
-31.00000000000003
 20
17.50000000000001
 30
0.0
 11
-31.00000000000003
 21
-17.49999999999999
 31
0.0
  0
LINE
  5
1319
330
12FA
100
AcDbEntity
  8
0
100
AcDbLine
 10
-35.00000000000002
 20
17.50000000000001
 30
0.0
 11
-30.99999999999997
 21
17.5
 31
0.0
  0
LINE
  5
131A
330
12FA
100
AcDbEntity
  8
0
100
AcDbLine
 10
-35.00000000000008
 20
-17.49999999999998
 30
0.0
 11
-31.00000000000002
 21
-17.49999999999998
 31
0.0
  0
LINE
  5
131B
330
12FA
100
AcDbEntity
  8
0
100
AcDbLine
 10
-31.00000000000003
 20
-17.49999999999999
 30
0.0
 11
-23.00000000000003
 21
-17.49999999999999
 31
0.0
  0
LINE
  5
131C
330
12FA
100
AcDbEntity
  8
0
100
AcDbLine
 10
-31.00000000000003
 20
17.50000000000001
 30
0.0
 11
-23.00000000000003
 21
17.50000000000001
 31
0.0
  0
LINE
  5
131D
330
12FA
100
AcDbEntity
  8
0
100
AcDbLine
 10
-48.99999999999999
 20
-17.49999999999996
 30
0.0
 11
-41.0
 21
-17.5
 31
0.0
  0
LINE
  5
131E
330
12FA
100
AcDbEntity
  8
0
100
AcDbLine
 10
41.0
 20
-17.49999999999998
 30
0.0
 11
48.99999999999999
 21
-17.49999999999996
 31
0.0
  0
LINE
  5
131F
330
12FA
100
AcDbEntity
  8
0
100
AcDbLine
 10
-41.0
 20
17.5
 30
0.0
 11
-48.99999999999999
 21
17.50000000000001
 31
0.0
  0
LINE
  5
1320
330
12FA
100
AcDbEntity
  8
0
100
AcDbLine
 10
48.99999999999999
 20
17.50000000000001
 30
0.0
 11
41.0
 21
17.50000000000001
 31
0.0
  0
LINE
  5
1321
330
12FA
100
AcDbEntity
  8
0
100
AcDbLine
 10
41.0
 20
-17.50507999999999
 30
0.0
 11
22.99492000000003
 21
-17.50507999999999
 31
0.0
  0
LINE
  5
1322
330
12FA
100
AcDbEntity
  8
0
100
AcDbLine
 10
22.99492000000003
 20
-17.50507999999999
 30
0.0
 11
22.99492000000003
 21
-17.49999999999999
 31
0.0
  0
LINE
  5
1323
330
12FA
100
AcDbEntity
  8
0
100
AcDbLine
 10
22.99492000000003
 20
-17.49999999999999
 30
0.0
 11
23.00000000000003
 21
-17.49999999999999
 31
0.0
  0
LINE
  5
1324
330
12FA
100
AcDbEntity
  8
0
100
AcDbLine
 10
23.00000000000003
 20
17.50000000000001
 30
0.0
 11
22.99492000000003
 21
17.50000000000001
 31
0.0
  0
LINE
  5
1325
330
12FA
100
AcDbEntity
  8
0
100
AcDbLine
 10
22.99492000000003
 20
17.50000000000001
 30
0.0
 11
22.99492000000003
 21
17.50508000000001
 31
0.0
  0
LINE
  5
1326
330
12FA
100
AcDbEntity
  8
0
100
AcDbLine
 10
22.99492000000003
 20
17.50508000000001
 30
0.0
 11
41.0
 21
17.50508000000001
 31
0.0
  0
LINE
  5
1327
330
12FA
100
AcDbEntity
  8
0
100
AcDbLine
 10
48.99999999999998
 20
-17.49999999999999
 30
0.0
 11
48.99999999999999
 21
-17.50507999999998
 31
0.0
  0
LINE
  5
1328
330
12FA
100
AcDbEntity
  8
0
100
AcDbLine
 10
41.0
 20
-17.50507999999999
 30
0.0
 11
41.0
 21
-17.5
 31
0.0
  0
LINE
  5
1329
330
12FA
100
AcDbEntity
  8
0
100
AcDbLine
 10
41.0
 20
17.50000000000001
 30
0.0
 11
41.0
 21
17.50508000000001
 31
0.0
  0
LINE
  5
132A
330
12FA
100
AcDbEntity
  8
0
100
AcDbLine
 10
48.99999999999999
 20
17.50508000000001
 30
0.0
 11
48.99999999999998
 21
17.50000000000001
 31
0.0
  0
LINE
  5
132B
330
12FA
100
AcDbEntity
  8
0
100
AcDbLine
 10
48.99999999999998
 20
17.50000000000001
 30
0.0
 11
48.99999999999998
 21
-17.49999999999998
 31
0.0
  0
LINE
  5
132C
330
12FA
100
AcDbEntity
  8
0
100
AcDbLine
 10
35.00000000000002
 20
17.50000000000001
 30
0.0
 11
30.99999999999997
 21
17.5
 31
0.0
  0
LINE
  5
132D
330
12FA
100
AcDbEntity
  8
0
100
AcDbLine
 10
35.00000000000008
 20
-17.49999999999998
 30
0.0
 11
31.00000000000002
 21
-17.49999999999998
 31
0.0
  0
LINE
  5
132E
330
12FA
100
AcDbEntity
  8
0
100
AcDbLine
 10
31.00000000000003
 20
-17.49999999999999
 30
0.0
 11
23.00000000000003
 21
-17.49999999999999
 31
0.0
  0
LINE
  5
132F
330
12FA
100
AcDbEntity
  8
0
100
AcDbLine
 10
31.00000000000003
 20
17.50000000000001
 30
0.0
 11
23.00000000000003
 21
17.50000000000001
 31
0.0
  0
LINE
  5
1330
330
12FA
100
AcDbEntity
  8
0
100
AcDbLine
 10
31.00000000000003
 20
-17.49999999999999
 30
0.0
 11
31.00000000000003
 21
17.50000000000001
 31
0.0
  0
LINE
  5
1331
330
12FA
100
AcDbEntity
  8
0
100
AcDbLine
 10
40.99999999999997
 20
17.50000000000001
 30
0.0
 11
35.00000000000002
 21
17.50000000000001
 31
0.0
  0
LINE
  5
1332
330
12FA
100
AcDbEntity
  8
0
100
AcDbLine
 10
35.00000000000008
 20
-17.49999999999999
 30
0.0
 11
40.99999999999997
 21
-17.49999999999998
 31
0.0
  0
CIRCLE
  5
1333
330
12FA
100
AcDbEntity
  8
0
100
AcDbCircle
 10
15.0
 20
12.5
 30
0.0
 40
4.5
  0
CIRCLE
  5
1334
330
12FA
100
AcDbEntity
  8
0
100
AcDbCircle
 10
-15.0
 20
-12.49999999999997
 30
0.0
 40
4.5
  0
ARC
  5
1335
330
12FA
100
AcDbEntity
  8
0
100
AcDbCircle
 10
1.500000000000001
 20
0.0000000000000022
 30
0.0
 40
8.5
100
AcDbArc
 50
270.0
 51
90.0
  0
LINE
  5
1336
330
12FA
100
AcDbEntity
  8
0
100
AcDbLine
 10
1.499999999999994
 20
-8.499999999999982
 30
0.0
 11
-1.499999999999999
 21
-8.499999999999982
 31
0.0
  0
ARC
  5
1337
330
12FA
100
AcDbEntity
  8
0
100
AcDbCircle
 10
-1.500000000000001
 20
0.0000000000000028
 30
0.0
 40
8.5
100
AcDbArc
 50
90.0
 51
270.0
  0
LINE
  5
1338
330
12FA
100
AcDbEntity
  8
0
100
AcDbLine
 10
-1.499999999999996
 20
8.500000000000003
 30
0.0
 11
1.500000000000001
 21
8.500000000000003
 31
0.0
  0
LINE
  5
1339
330
12FA
100
AcDbEntity
  8
0
100
AcDbLine
 10
48.99999999999999
 20
-17.50507999999998
 30
0.0
 11
48.99999999999999
 21
-20.75254000000001
 31
0.0
  0
LINE
  5
133A
330
12FA
100
AcDbEntity
  8
0
100
AcDbLine
 10
48.99999999999999
 20
20.75254000000001
 30
0.0
 11
48.99999999999999
 21
17.50508000000001
 31
0.0
  0
LINE
  5
133B
330
12FA
100
AcDbEntity
  8
0
100
AcDbLine
 10
48.99999999999999
 20
35.0
 30
0.0
 11
48.99999999999999
 21
31.75254000000001
 31
0.0
  0
LINE
  5
133C
330
12FA
100
AcDbEntity
  8
0
100
AcDbLine
 10
40.99999999999997
 20
35.00000000000001
 30
0.0
 11
48.99999999999999
 21
35.00000000000002
 31
0.0
  0
LINE
  5
133D
330
12FA
100
AcDbEntity
  8
0
100
AcDbLine
 10
48.99999999999999
 20
-31.75254000000001
 30
0.0
 11
48.99999999999999
 21
-34.99999999999999
 31
0.0
  0
LINE
  5
133E
330
12FA
100
AcDbEntity
  8
0
100
AcDbLine
 10
48.99999999999999
 20
-35.00000000000004
 30
0.0
 11
41.0
 21
-34.99999999999999
 31
0.0
  0
ARC
  5
133F
330
12FA
100
AcDbEntity
  8
0
100
AcDbCircle
 10
51.5
 20
20.75254000000002
 30
0.0
 40
2.5
100
AcDbArc
 50
153.7398124562634
 51
180.0
  0
LINE
  5
1340
330
12FA
100
AcDbEntity
  8
0
100
AcDbLine
 10
50.61813811706375
 20
24.6154818348487
 30
0.0
 11
49.25801478576772
 21
21.858660381859
 31
0.0
  0
ARC
  5
1341
330
12FA
100
AcDbEntity
  8
0
100
AcDbCircle
 10
-51.49999999999998
 20
20.75254000000002
 30
0.0
 40
2.5
100
AcDbArc
 50
0.0
 51
26.26018754373655
  0
LINE
  5
1342
330
12FA
100
AcDbEntity
  8
0
100
AcDbLine
 10
-50.61813811706375
 20
24.6154818348487
 30
0.0
 11
-49.25801478576772
 21
21.858660381859
 31
0.0
  0
ARC
  5
1343
330
12FA
100
AcDbEntity
  8
0
100
AcDbCircle
 10
-47.29999999999998
 20
26.25254000000001
 30
0.0
 40
3.7
100
AcDbArc
 50
153.7398124562632
 51
206.2601875437367
  0
ARC
  5
1344
330
12FA
100
AcDbEntity
  8
0
100
AcDbCircle
 10
-51.49999999999998
 20
31.75253999999997
 30
0.0
 40
2.5
100
AcDbArc
 50
333.7398124562634
 51
0.0
  0
LINE
  5
1345
330
12FA
100
AcDbEntity
  8
0
100
AcDbLine
 10
-50.61813811706375
 20
27.88959816515129
 30
0.0
 11
-49.25801478576772
 21
30.64641961814098
 31
0.0
  0
ARC
  5
1346
330
12FA
100
AcDbEntity
  8
0
100
AcDbCircle
 10
47.3
 20
26.25254000000001
 30
0.0
 40
3.7
100
AcDbArc
 50
333.7398124562632
 51
26.2601875437368
  0
ARC
  5
1347
330
12FA
100
AcDbEntity
  8
0
100
AcDbCircle
 10
51.49999999999999
 20
31.75253999999996
 30
0.0
 40
2.5
100
AcDbArc
 50
180.0
 51
206.2601875437365
  0
LINE
  5
1348
330
12FA
100
AcDbEntity
  8
0
100
AcDbLine
 10
50.61813811706375
 20
27.88959816515129
 30
0.0
 11
49.25801478576772
 21
30.64641961814098
 31
0.0
  0
LINE
  5
1349
330
12FA
100
AcDbEntity
  8
0
100
AcDbLine
 10
41.0
 20
-34.99999999999999
 30
0.0
 11
-41.00000000000001
 21
-34.99999999999997
 31
0.0
  0
LINE
  5
134A
330
12FA
100
AcDbEntity
  8
0
100
AcDbLine
 10
-41.0
 20
35.0
 30
0.0
 11
40.99999999999997
 21
35.0
 31
0.0
  0
LINE
  5
134B
330
12FA
100
AcDbEntity
  8
0
100
AcDbLine
 10
-40.99999999999997
 20
17.50000000000001
 30
0.0
 11
-35.00000000000002
 21
17.50000000000001
 31
0.0
  0
LINE
  5
134C
330
12FA
100
AcDbEntity
  8
0
100
AcDbLine
 10
-35.00000000000008
 20
-17.49999999999999
 30
0.0
 11
-40.99999999999997
 21
-17.49999999999998
 31
0.0
  0
ENDBLK
  5
12FC
330
12FA
100
AcDbEntity
  8
0
100
AcDbBlockEnd
  0
BLOCK
  5
134E
330
134D
100
AcDbEntity
  8
0
100
AcDbBlockBegin
  2
PU90-B-ISO
 70
     0
 10
0.0
 20
0.0
 30
0.0
  3
PU90-B-ISO
  1

  0
ELLIPSE
  5
1350
330
134D
100
AcDbEntity
  8
0
100
AcDbEllipse
 10
51.09026099195229
 20
-57.8681582225948
 30
0.0
 11
-2.5
 21
-0.0000000000000056
 31
0.0
210
0.0
220
0.0
230
1.0
 40
0.5773502691896243
 41
5.039460408952731
 42
5.497787143782139
  0
LINE
  5
1351
330
134D
100
AcDbEntity
  8
0
100
AcDbLine
 10
50.28708326646981
 20
-56.50129983669806
 30
0.0
 11
50.28708326646981
 21
-0.5712840431488342
 31
0.0
  0
ELLIPSE
  5
1352
330
134D
100
AcDbEntity
  8
0
100
AcDbEllipse
 10
51.09026099195227
 20
-1.938142429045575
 30
0.0
 11
2.5
 21
-0.0000000000001493
 31
0.0
210
0.0
220
0.0
230
1.0
 40
0.5773502691896258
 41
1.897867755363067
 42
2.356194490192585
  0
LINE
  5
1353
330
134D
100
AcDbEntity
  8
0
100
AcDbLine
 10
49.32249403898591
 20
-56.84753749643515
 30
0.0
 11
49.32249403898589
 21
-0.9175217028859261
 31
0.0
  0
LINE
  5
1354
330
134D
100
AcDbEntity
  8
0
100
AcDbLine
 10
53.19820284120883
 20
-55.93110021622255
 30
0.0
 11
50.28708326646981
 21
-56.50129983669806
 31
0.0
  0
LINE
  5
1355
330
134D
100
AcDbEntity
  8
0
100
AcDbLine
 10
53.19820284120883
 20
-55.93110021622255
 30
0.0
 11
53.19820284120883
 21
-0.001084422673312
 31
0.0
  0
LINE
  5
1356
330
134D
100
AcDbEntity
  8
0
100
AcDbLine
 10
50.28708326646981
 20
-0.5712840431488342
 30
0.0
 11
53.19820284120883
 21
-0.001084422673312
 31
0.0
  0
ELLIPSE
  5
1357
330
134D
100
AcDbEntity
  8
0
100
AcDbEllipse
 10
43.66563978949352
 20
-58.88877894875445
 30
0.0
 11
1.249999999999997
 21
2.165063509461091
 31
0.0
210
0.0
220
0.0
230
1.0
 40
0.577350269189626
 41
0.4824694511862564
 42
0.7853981633974483
  0
ELLIPSE
  5
1358
330
134D
100
AcDbEntity
  8
0
100
AcDbEllipse
 10
43.66563978949353
 20
-53.58155117272424
 30
0.0
 11
-1.999999999999793
 21
3.464101615137872
 31
0.0
210
0.0
220
0.0
230
1.0
 40
0.5773502691896259
 41
2.356194490192633
 42
2.529021173220673
  0
ELLIPSE
  5
1359
330
134D
100
AcDbEntity
  8
0
100
AcDbEllipse
 10
44.44778501231467
 20
-53.12997941778307
 30
0.0
 11
4.129007392883872
 21
-7.151650589302372
 31
0.0
210
0.0
220
0.0
230
1.0
 40
0.5773502691896258
 41
6.03255316592709
 42
7.068583470577033
  0
ELLIPSE
  5
135A
330
134D
100
AcDbEntity
  8
0
100
AcDbEllipse
 10
43.66563978949353
 20
-53.58155117272424
 30
0.0
 11
3.999999999999999
 21
-6.928203230275512
 31
0.0
210
0.0
220
0.0
230
1.0
 40
0.577350269189626
 41
0.0000000000000005
 42
0.7853981633974524
  0
ELLIPSE
  5
135B
330
134D
100
AcDbEntity
  8
0
100
AcDbEllipse
 10
46.39715215624423
 20
-52.00451177248595
 30
0.0
 11
4.809069058531878
 21
-8.329551946484638
 31
0.0
210
0.0
220
0.0
230
0.9999999999999998
 40
0.5773502691896255
 41
5.926827921433108
 42
7.068583470577035
  0
LINE
  5
135C
330
134D
100
AcDbEntity
  8
0
100
AcDbLine
 10
-6.717514421272232
 20
-25.92593528980189
 30
0.0
 11
7.071067811865436
 21
-33.88677695384722
 31
0.0
  0
LINE
  5
135D
330
134D
100
AcDbEntity
  8
0
100
AcDbLine
 10
37.69660653466794
 20
-51.56843997953455
 30
0.0
 11
44.19776592660761
 21
-55.32188610451559
 31
0.0
  0
LINE
  5
135E
330
134D
100
AcDbEntity
  8
0
100
AcDbLine
 10
44.19776592660763
 20
-52.64858131526388
 30
0.0
 11
40.01175639421854
 21
-50.2317875849087
 31
0.0
  0
LINE
  5
135F
330
134D
100
AcDbEntity
  8
0
100
AcDbLine
 10
7.071067811865465
 20
-31.21347216459553
 30
0.0
 11
-6.717514421272201
 21
-23.25263050055021
 31
0.0
  0
LINE
  5
1360
330
134D
100
AcDbEntity
  8
0
100
AcDbLine
 10
-6.717514421272239
 20
-27.06633453075294
 30
0.0
 11
7.071067811865454
 21
-35.02717619479827
 31
0.0
  0
LINE
  5
1361
330
134D
100
AcDbEntity
  8
0
100
AcDbLine
 10
36.70899182154783
 20
-52.13863960001006
 30
0.0
 11
44.19776592660759
 21
-56.46228534546661
 31
0.0
  0
LINE
  5
1362
330
134D
100
AcDbEntity
  8
0
100
AcDbLine
 10
43.66563978949352
 20
-56.84753749643515
 30
0.0
 11
36.10929060338945
 21
-52.48487725974716
 31
0.0
  0
LINE
  5
1363
330
134D
100
AcDbEntity
  8
0
100
AcDbLine
 10
7.071067811865457
 20
-35.71965151427246
 30
0.0
 11
-6.667693381274272
 21
-27.78757404108127
 31
0.0
  0
ELLIPSE
  5
1364
330
134D
100
AcDbEntity
  8
0
100
AcDbEllipse
 10
-12.05437456800641
 20
39.0091611044798
 30
0.0
 11
-3.7
 21
0.0000000000000024
 31
0.0
210
0.0
220
0.0
230
1.0
 40
0.5773502691896254
 41
5.03946040895273
 42
5.956113878611548
  0
LINE
  5
1365
330
134D
100
AcDbEntity
  8
0
100
AcDbLine
 10
-15.55822746127104
 20
39.69545912098116
 30
0.0
 11
-15.55822746127106
 21
-10.61337112938715
 31
0.0
  0
LINE
  5
1366
330
134D
100
AcDbEntity
  8
0
100
AcDbLine
 10
-13.24307760172048
 20
-11.95002352401301
 30
0.0
 11
-13.24307760172046
 21
41.032111515607
 31
0.0
  0
LINE
  5
1367
330
134D
100
AcDbEntity
  8
0
100
AcDbLine
 10
-16.54584217439114
 20
38.0147234508624
 30
0.0
 11
-15.55822746127104
 21
39.69545912098116
 31
0.0
  0
LINE
  5
1368
330
134D
100
AcDbEntity
  8
0
100
AcDbLine
 10
-16.54584217439114
 20
38.0147234508624
 30
0.0
 11
-16.54584217439116
 21
-10.04317150891163
 31
0.0
  0
ELLIPSE
  5
1369
330
134D
100
AcDbEntity
  8
0
100
AcDbEllipse
 10
-18.91331034551588
 20
38.47843832687681
 30
0.0
 11
2.499999999999993
 21
-0.0000000000000006
 31
0.0
210
0.0
220
0.0
230
1.0
 40
0.5773502691896255
 41
5.497787143782138
 42
5.956113878611546
  0
LINE
  5
136A
330
134D
100
AcDbEntity
  8
0
100
AcDbLine
 10
-17.14554339254955
 20
-9.63940546746631
 30
0.0
 11
-17.14554339254954
 21
37.45781760071716
 31
0.0
  0
ELLIPSE
  5
136B
330
134D
100
AcDbEntity
  8
0
100
AcDbEllipse
 10
-14.40065253149575
 20
40.36378531829407
 30
0.0
 11
0.8185290825756478
 21
1.417733958493762
 31
0.0
210
0.0
220
0.0
230
1.0
 40
0.5773502691896259
 41
5.497787143782139
 42
8.639379797371926
  0
LINE
  5
136C
330
134D
100
AcDbEntity
  8
0
100
AcDbLine
 10
-10.33195802698144
 20
41.60231113608252
 30
0.0
 11
-13.24307760172046
 21
41.032111515607
 31
0.0
  0
ELLIPSE
  5
136D
330
134D
100
AcDbEntity
  8
0
100
AcDbEllipse
 10
-13.43890010068629
 20
39.80851729347246
 30
0.0
 11
2.196939809070494
 21
3.805211370480763
 31
0.0
210
0.0
220
0.0
230
1.0
 40
0.5773502691896258
 41
5.49778714378214
 42
8.639379797371928
  0
ELLIPSE
  5
136E
330
134D
100
AcDbEntity
  8
0
100
AcDbEllipse
 10
-11.1351357524639
 20
42.96916952197926
 30
0.0
 11
-2.499999999999992
 21
0.0000000000001493
 31
0.0
210
0.0
220
0.0
230
1.0
 40
0.5773502691896257
 41
1.897867755363067
 42
2.356194490192583
  0
ELLIPSE
  5
136F
330
134D
100
AcDbEntity
  8
0
100
AcDbEllipse
 10
-13.25645609602357
 20
39.70318319826842
 30
0.0
 11
2.750000000000287
 21
4.763139720814248
 31
0.0
210
0.0
220
0.0
230
1.0
 40
0.5773502691896257
 41
5.497787143782377
 42
8.639379797372173
  0
LINE
  5
1370
330
134D
100
AcDbEntity
  8
0
100
AcDbLine
 10
-10.33195802698146
 20
-14.07136540895285
 30
0.0
 11
-10.33195802698144
 21
41.60231113608252
 31
0.0
  0
ELLIPSE
  5
1371
330
134D
100
AcDbEntity
  8
0
100
AcDbEllipse
 10
-11.13513575246392
 20
-12.96084627156992
 30
0.0
 11
-2.499999999999992
 21
0.000000000000152
 31
0.0
210
0.0
220
0.0
230
1.0
 40
0.5773502691896266
 41
1.98421332271101
 42
2.356194490192587
  0
LINE
  5
1372
330
134D
100
AcDbEntity
  8
0
100
AcDbLine
 10
-9.367368799497519
 20
41.94854879581964
 30
0.0
 11
-9.367368799497528
 21
-13.98146699772956
 31
0.0
  0
ELLIPSE
  5
1373
330
134D
100
AcDbEntity
  8
0
100
AcDbEllipse
 10
-6.538941674751366
 20
-20.92168793561523
 30
0.0
 11
-1.249999999999868
 21
-2.165063509461164
 31
0.0
210
0.0
220
0.0
230
1.0
 40
0.5773502691896259
 41
3.926990816987
 42
4.298971984468585
  0
ELLIPSE
  5
1374
330
134D
100
AcDbEntity
  8
0
100
AcDbEllipse
 10
-6.538941674751357
 20
-15.61446015958501
 30
0.0
 11
2.000000000000206
 21
-3.464101615137635
 31
0.0
210
0.0
220
0.0
230
1.0
 40
0.577350269189626
 41
3.926990816987006
 42
4.378440676779432
  0
ELLIPSE
  5
1375
330
134D
100
AcDbEntity
  8
0
100
AcDbEllipse
 10
-6.538941674751357
 20
-15.61446015958501
 30
0.0
 11
1.999999999999999
 21
-3.464101615137753
 31
0.0
210
0.0
220
0.0
230
1.0
 40
0.577350269189626
 41
5.046337283989805
 42
5.497787143782137
  0
LINE
  5
1376
330
134D
100
AcDbEntity
  8
0
100
AcDbLine
 10
44.19776592660763
 20
-49.28710997502635
 30
0.0
 11
42.92287596895755
 21
-48.55105191478992
 31
0.0
  0
LINE
  5
1377
330
134D
100
AcDbEntity
  8
0
100
AcDbLine
 10
7.071067811865465
 20
-27.852000824358
 30
0.0
 11
-7.09909059637253
 21
-19.67085605290215
 31
0.0
  0
LINE
  5
1378
330
134D
100
AcDbEntity
  8
0
100
AcDbLine
 10
-6.538941674751344
 20
-18.8804464832959
 30
0.0
 11
7.071067811865456
 21
-26.73818912406748
 31
0.0
  0
LINE
  5
1379
330
134D
100
AcDbEntity
  8
0
100
AcDbLine
 10
43.88746519644147
 20
-47.99414606464466
 30
0.0
 11
44.19776592660761
 21
-48.17329827473582
 31
0.0
  0
ELLIPSE
  5
137A
330
134D
100
AcDbEntity
  8
0
100
AcDbEllipse
 10
52.00949980749479
 20
-53.90814980509533
 30
0.0
 11
3.7
 21
0.0000000000000087
 31
0.0
210
0.0
220
0.0
230
1.0
 40
0.5773502691896241
 41
5.039460408952725
 42
5.956113878611544
  0
ELLIPSE
  5
137B
330
134D
100
AcDbEntity
  8
0
100
AcDbEllipse
 10
48.7123020157948
 20
-50.66785937786008
 30
0.0
 11
4.809069058531887
 21
-8.329551946484652
 31
0.0
210
0.0
220
0.0
230
1.0
 40
0.5773502691896257
 41
0.3563573857464766
 42
0.7853981633974501
  0
ELLIPSE
  5
137C
330
134D
100
AcDbEntity
  8
0
100
AcDbEllipse
 10
58.86843558500427
 20
-53.37742702749232
 30
0.0
 11
-2.5
 21
-0.0000000000000012
 31
0.0
210
0.0
220
0.0
230
1.0
 40
0.5773502691896255
 41
5.497787143782136
 42
5.956113878611542
  0
ELLIPSE
  5
137D
330
134D
100
AcDbEntity
  8
0
100
AcDbEllipse
 10
50.66166915972438
 20
-49.54239173256296
 30
0.0
 11
4.129007392883861
 21
-7.151650589302354
 31
0.0
210
0.0
220
0.0
230
1.0
 40
0.5773502691896259
 41
0.3563573857464783
 42
0.7853981633974519
  0
ELLIPSE
  5
137E
330
134D
100
AcDbEntity
  8
0
100
AcDbEllipse
 10
51.44381438254554
 20
-49.09081997762176
 30
0.0
 11
4.000000000000001
 21
-6.928203230275511
 31
0.0
210
0.0
220
0.0
230
1.0
 40
0.577350269189626
 41
0.087354980210332
 42
0.7853981633974492
  0
LINE
  5
137F
330
134D
100
AcDbEntity
  8
0
100
AcDbLine
 10
55.51335270075941
 20
-54.59444782159668
 30
0.0
 11
56.50096741387951
 21
-52.9137121514779
 31
0.0
  0
ELLIPSE
  5
1380
330
134D
100
AcDbEntity
  8
0
100
AcDbEllipse
 10
52.00949980749477
 20
2.021865988453885
 30
0.0
 11
3.7
 21
0.0000000000000003
 31
0.0
210
0.0
220
0.0
230
1.0
 40
0.5773502691896257
 41
5.039460408952728
 42
5.956113878611546
  0
LINE
  5
1381
330
134D
100
AcDbEntity
  8
0
100
AcDbLine
 10
55.5133527007594
 20
1.335567971952533
 30
0.0
 11
55.51335270075941
 21
-54.59444782159668
 31
0.0
  0
ELLIPSE
  5
1382
330
134D
100
AcDbEntity
  8
0
100
AcDbEllipse
 10
58.86843558500425
 20
2.552588766056889
 30
0.0
 11
-2.5
 21
-0.0000000000000001
 31
0.0
210
0.0
220
0.0
230
1.0
 40
0.5773502691896257
 41
5.497787143782135
 42
5.956113878611541
  0
LINE
  5
1383
330
134D
100
AcDbEntity
  8
0
100
AcDbLine
 10
56.50096741387951
 20
3.016303642071305
 30
0.0
 11
56.50096741387951
 21
-52.9137121514779
 31
0.0
  0
LINE
  5
1384
330
134D
100
AcDbEntity
  8
0
100
AcDbLine
 10
57.10066863203792
 20
3.573209492216564
 30
0.0
 11
57.10066863203793
 21
-52.35680630133265
 31
0.0
  0
LINE
  5
1385
330
134D
100
AcDbEntity
  8
0
100
AcDbLine
 10
55.5133527007594
 20
1.335567971952533
 30
0.0
 11
56.50096741387951
 21
3.016303642071305
 31
0.0
  0
ELLIPSE
  5
1386
330
134D
100
AcDbEntity
  8
0
100
AcDbEllipse
 10
54.3557777709841
 20
0.6672417746396242
 30
0.0
 11
0.8185290825757325
 21
1.417733958493713
 31
0.0
210
0.0
220
0.0
230
1.0
 40
0.5773502691896258
 41
5.497787143782377
 42
8.639379797372182
  0
ELLIPSE
  5
1387
330
134D
100
AcDbEntity
  8
0
100
AcDbEllipse
 10
53.39402534017466
 20
1.222509799461235
 30
0.0
 11
2.196939809070721
 21
3.805211370480629
 31
0.0
210
0.0
220
0.0
230
1.0
 40
0.577350269189626
 41
5.49778714378238
 42
8.639379797372173
  0
ELLIPSE
  5
1388
330
134D
100
AcDbEntity
  8
0
100
AcDbEllipse
 10
53.2115813355119
 20
1.32784389466531
 30
0.0
 11
2.750000000000285
 21
4.763139720814249
 31
0.0
210
0.0
220
0.0
230
1.0
 40
0.577350269189626
 41
5.497787143782378
 42
8.639379797372173
  0
LINE
  5
1389
330
134D
100
AcDbEntity
  8
0
100
AcDbLine
 10
47.35763680180013
 20
-60.68758001085576
 30
0.0
 11
49.22638047135954
 21
-60.77937329810144
 31
0.0
  0
SPLINE
  5
138A
330
134D
100
AcDbEntity
  8
0
100
AcDbSpline
210
0.0
220
0.0
230
1.0
 70
     8
 71
     3
 72
    16
 73
    12
 74
     0
 42
0.000000001
 43
0.0000000001
 40
5.141429758035667
 40
5.141429758035667
 40
5.141429758035667
 40
5.141429758035667
 40
5.283972712334256
 40
5.283972712334256
 40
5.426515666632846
 40
5.426515666632846
 40
5.569058620931435
 40
5.569058620931435
 40
5.711601575230024
 40
5.711601575230024
 40
5.854144529528613
 40
5.854144529528613
 40
5.854144529528613
 40
5.854144529528613
 10
49.22638047135958
 20
-60.77937329810144
 30
0.0
 10
49.66345751492898
 20
-60.80084266239276
 30
0.0
 10
50.11461088041361
 20
-60.77924351084906
 30
0.0
 10
51.02185649009683
 20
-60.6292221554391
 30
0.0
 10
51.47766996694272
 20
-60.50018653407945
 30
0.0
 10
52.35272688411061
 20
-60.1296323356441
 30
0.0
 10
52.77107546836795
 20
-59.88809866790803
 30
0.0
 10
53.52951327627588
 20
-59.31555424710101
 30
0.0
 10
53.86916814078937
 20
-58.98532600744498
 30
0.0
 10
54.45271325052619
 20
-58.27463893969238
 30
0.0
 10
54.69699534720554
 20
-57.89472823995169
 30
0.0
 10
54.89694085411085
 20
-57.50547373466395
 30
0.0
  0
LINE
  5
138B
330
134D
100
AcDbEntity
  8
0
100
AcDbLine
 10
55.97172380333963
 20
-55.41308310449155
 30
0.0
 11
54.89694085411085
 21
-57.50547373466393
 31
0.0
  0
ELLIPSE
  5
138C
330
134D
100
AcDbEntity
  8
0
100
AcDbEllipse
 10
-18.73832970144352
 20
67.15684378130544
 30
0.0
 11
2.249999999999768
 21
3.897114317030107
 31
0.0
210
0.0
220
0.0
230
1.0
 40
0.5773502691896259
 41
3.82126647249774
 42
5.603511488271038
  0
ELLIPSE
  5
138D
330
134D
100
AcDbEntity
  8
0
100
AcDbEllipse
 10
-47.02260094890541
 20
40.21245661069047
 30
0.0
 11
2.249999999999768
 21
3.897114317030106
 31
0.0
210
0.0
220
0.0
230
1.0
 40
0.577350269189626
 41
3.821266472497736
 42
5.603511488271044
  0
ELLIPSE
  5
138E
330
134D
100
AcDbEntity
  8
0
100
AcDbEllipse
 10
-15.90990257669731
 20
65.52385061944997
 30
0.0
 11
2.250000000000005
 21
3.897114317029981
 31
0.0
210
0.0
220
0.0
230
0.9999999999999998
 40
0.5773502691896257
 41
0.0
 42
6.283185307179586
  0
ELLIPSE
  5
138F
330
134D
100
AcDbEntity
  8
0
100
AcDbEllipse
 10
-44.19417382415922
 20
38.57946344883502
 30
0.0
 11
2.25
 21
3.897114317029971
 31
0.0
210
0.0
220
0.0
230
1.0
 40
0.5773502691896259
 41
0.0
 42
6.283185307179586
  0
ELLIPSE
  5
1390
330
134D
100
AcDbEntity
  8
0
100
AcDbEllipse
 10
-25.80939751330899
 20
68.78983694316089
 30
0.0
 11
1.500000000000001
 21
2.598076211353316
 31
0.0
210
0.0
220
0.0
230
1.0
 40
0.5773502691896258
 41
4.372552070930578
 42
5.052225889838799
  0
ELLIPSE
  5
1391
330
134D
100
AcDbEntity
  8
0
100
AcDbEllipse
 10
-39.95153313703993
 20
60.62487113388365
 30
0.0
 11
1.500000000000001
 21
2.598076211353316
 31
0.0
210
0.0
220
0.0
230
0.9999999999999998
 40
0.5773502691896259
 41
4.372552070930577
 42
5.052225889838802
  0
ELLIPSE
  5
1392
330
134D
100
AcDbEntity
  8
0
100
AcDbEllipse
 10
-54.09366876077088
 20
52.45990532460639
 30
0.0
 11
1.500000000000001
 21
2.598076211353316
 31
0.0
210
0.0
220
0.0
230
1.0
 40
0.5773502691896258
 41
4.372552070930576
 42
5.052225889838799
  0
ELLIPSE
  5
1393
330
134D
100
AcDbEntity
  8
0
100
AcDbEllipse
 10
-32.88046532517444
 20
48.37742241996775
 30
0.0
 11
1.500000000000001
 21
2.598076211353316
 31
0.0
210
0.0
220
0.0
230
1.0
 40
0.5773502691896259
 41
4.372552070930565
 42
5.052225889838812
  0
ELLIPSE
  5
1394
330
134D
100
AcDbEntity
  8
0
100
AcDbEllipse
 10
-15.20279579551075
 20
58.58362968156431
 30
0.0
 11
1.500000000000001
 21
2.598076211353315
 31
0.0
210
0.0
220
0.0
230
1.0
 40
0.5773502691896259
 41
4.372552070930565
 42
5.052225889838812
  0
ELLIPSE
  5
1395
330
134D
100
AcDbEntity
  8
0
100
AcDbEllipse
 10
-22.98097038856278
 20
67.15684378130544
 30
0.0
 11
1.500000000000003
 21
2.59807621135332
 31
0.0
210
0.0
220
0.0
230
0.9999999999999998
 40
0.5773502691896257
 41
0.0
 42
6.283185307179586
  0
ELLIPSE
  5
1396
330
134D
100
AcDbEntity
  8
0
100
AcDbEllipse
 10
-37.12310601229372
 20
58.99187797202817
 30
0.0
 11
1.500000000000003
 21
2.59807621135332
 31
0.0
210
0.0
220
0.0
230
0.9999999999999998
 40
0.5773502691896257
 41
0.0
 42
6.283185307179586
  0
ELLIPSE
  5
1397
330
134D
100
AcDbEntity
  8
0
100
AcDbEllipse
 10
-51.26524163602468
 20
50.82691216275091
 30
0.0
 11
1.500000000000003
 21
2.59807621135332
 31
0.0
210
0.0
220
0.0
230
0.9999999999999998
 40
0.5773502691896257
 41
0.0
 42
6.283185307179586
  0
ELLIPSE
  5
1398
330
134D
100
AcDbEntity
  8
0
100
AcDbEllipse
 10
-30.05203820042825
 20
46.7444292581123
 30
0.0
 11
1.499999999999999
 21
2.598076211353313
 31
0.0
210
0.0
220
0.0
230
1.0
 40
0.5773502691896258
 41
0.0
 42
6.283185307179586
  0
ELLIPSE
  5
1399
330
134D
100
AcDbEntity
  8
0
100
AcDbEllipse
 10
-12.37436867076456
 20
56.95063651970888
 30
0.0
 11
1.499999999999999
 21
2.598076211353313
 31
0.0
210
0.0
220
0.0
230
1.0
 40
0.5773502691896258
 41
0.0
 42
6.283185307179586
  0
ELLIPSE
  5
139A
330
134D
100
AcDbEntity
  8
0
100
AcDbEllipse
 10
-34.64823227814081
 20
31.02687007525357
 30
0.0
 11
2.749999999999717
 21
4.763139720814578
 31
0.0
210
0.0
220
0.0
230
1.0
 40
0.5773502691896257
 41
3.681736631265625
 42
5.743041329503011
  0
ELLIPSE
  5
139B
330
134D
100
AcDbEntity
  8
0
100
AcDbEllipse
 10
-31.81980515339462
 20
29.39387691339811
 30
0.0
 11
2.75
 21
4.763139720814409
 31
0.0
210
0.0
220
0.0
230
1.0
 40
0.5773502691896258
 41
0.0
 42
6.283185307179586
  0
LINE
  5
139C
330
134D
100
AcDbEntity
  8
0
100
AcDbLine
 10
-59.39696961966998
 20
53.48052605076603
 30
0.0
 11
-59.39696961966999
 21
-39.60008417499473
 31
0.0
  0
LINE
  5
139D
330
134D
100
AcDbEntity
  8
0
100
AcDbLine
 10
-14.84924240491751
 20
84.91564441648348
 30
0.0
 11
-54.44722215136413
 21
62.05374015050715
 31
0.0
  0
LINE
  5
139E
330
134D
100
AcDbEntity
  8
0
100
AcDbLine
 10
7.071067811865452
 20
15.10518674716291
 30
0.0
 11
7.07106781186547
 21
-77.97542347859783
 31
0.0
  0
LINE
  5
139F
330
134D
100
AcDbEntity
  8
0
100
AcDbLine
 10
51.61879502661794
 20
46.54030511288035
 30
0.0
 11
12.02081528017128
 21
23.67840084690404
 31
0.0
  0
LINE
  5
13A0
330
134D
100
AcDbEntity
  8
0
100
AcDbLine
 10
-53.74011537017761
 20
-49.39804314612744
 30
0.0
 11
4.242640687119276
 21
-82.8744029641642
 31
0.0
  0
LINE
  5
13A1
330
134D
100
AcDbEntity
  8
0
100
AcDbLine
 10
59.39696961966998
 20
42.04957391777786
 30
0.0
 11
59.39696961966998
 21
-51.0310363079829
 31
0.0
  0
LINE
  5
13A2
330
134D
100
AcDbEntity
  8
0
100
AcDbLine
 10
14.84924240491747
 20
22.04540768504859
 30
0.0
 11
54.44722215136414
 21
44.90731195102491
 31
0.0
  0
LINE
  5
13A3
330
134D
100
AcDbEntity
  8
0
100
AcDbLine
 10
9.899494936611663
 20
-79.6084166404533
 30
0.0
 11
9.899494936611645
 21
13.47219358530747
 31
0.0
  0
LINE
  5
13A4
330
134D
100
AcDbEntity
  8
0
100
AcDbLine
 10
-4.242640687119316
 20
-17.55467648994614
 30
0.0
 11
7.071067811865505
 21
-24.08664913736798
 31
0.0
  0
LINE
  5
13A5
330
134D
100
AcDbEntity
  8
0
100
AcDbLine
 10
4.242640687119272
 20
-79.6084166404533
 30
0.0
 11
-53.74011537017761
 21
-46.13205682241654
 31
0.0
  0
LINE
  5
13A6
330
134D
100
AcDbEntity
  8
0
100
AcDbLine
 10
-7.071067811865479
 20
80.42491322138097
 30
0.0
 11
-7.071067811865487
 21
-12.6556970043798
 31
0.0
  0
LINE
  5
13A7
330
134D
100
AcDbEntity
  8
0
100
AcDbLine
 10
-51.61879502661793
 20
60.42074698865168
 30
0.0
 11
-12.02081528017132
 21
83.28265125462799
 31
0.0
  0
LINE
  5
13A8
330
134D
100
AcDbEntity
  8
0
100
AcDbLine
 10
-56.56854249492379
 20
-41.23307733685019
 30
0.0
 11
-56.56854249492377
 21
51.84753288891058
 31
0.0
  0
LINE
  5
13A9
330
134D
100
AcDbEntity
  8
0
100
AcDbLine
 10
-54.44722215136414
 20
62.05374015050715
 30
0.0
 11
-59.39696961966998
 21
53.48052605076603
 31
0.0
  0
LINE
  5
13AA
330
134D
100
AcDbEntity
  8
0
100
AcDbLine
 10
12.02081528017128
 20
23.67840084690404
 30
0.0
 11
7.071067811865452
 21
15.10518674716291
 31
0.0
  0
LINE
  5
13AB
330
134D
100
AcDbEntity
  8
0
100
AcDbLine
 10
54.44722215136414
 20
44.90731195102491
 30
0.0
 11
59.39696961966998
 21
42.04957391777786
 31
0.0
  0
LINE
  5
13AC
330
134D
100
AcDbEntity
  8
0
100
AcDbLine
 10
9.899494936611645
 20
13.47219358530746
 30
0.0
 11
14.84924240491747
 21
22.04540768504859
 31
0.0
  0
LINE
  5
13AD
330
134D
100
AcDbEntity
  8
0
100
AcDbLine
 10
-12.02081528017132
 20
83.28265125462799
 30
0.0
 11
-7.071067811865479
 21
80.42491322138097
 31
0.0
  0
LINE
  5
13AE
330
134D
100
AcDbEntity
  8
0
100
AcDbLine
 10
-56.56854249492377
 20
51.84753288891059
 30
0.0
 11
-51.61879502661793
 21
60.42074698865168
 31
0.0
  0
LINE
  5
13AF
330
134D
100
AcDbEntity
  8
0
100
AcDbLine
 10
-51.61879502661793
 20
60.42074698865168
 30
0.0
 11
-54.44722215136414
 21
62.05374015050715
 31
0.0
  0
LINE
  5
13B0
330
134D
100
AcDbEntity
  8
0
100
AcDbLine
 10
-59.39696961966998
 20
53.48052605076603
 30
0.0
 11
-56.56854249492377
 21
51.84753288891059
 31
0.0
  0
LINE
  5
13B1
330
134D
100
AcDbEntity
  8
0
100
AcDbLine
 10
-14.84924240491751
 20
84.91564441648348
 30
0.0
 11
-12.02081528017132
 21
83.28265125462799
 31
0.0
  0
LINE
  5
13B2
330
134D
100
AcDbEntity
  8
0
100
AcDbLine
 10
7.071067811865452
 20
15.10518674716291
 30
0.0
 11
9.899494936611645
 21
13.47219358530746
 31
0.0
  0
LINE
  5
13B3
330
134D
100
AcDbEntity
  8
0
100
AcDbLine
 10
14.84924240491747
 20
22.04540768504859
 30
0.0
 11
12.02081528017128
 21
23.67840084690404
 31
0.0
  0
LINE
  5
13B4
330
134D
100
AcDbEntity
  8
0
100
AcDbLine
 10
51.61879502661794
 20
46.54030511288035
 30
0.0
 11
54.44722215136414
 21
44.90731195102491
 31
0.0
  0
LINE
  5
13B5
330
134D
100
AcDbEntity
  8
0
100
AcDbLine
 10
41.36574669941302
 20
-61.43721991218029
 30
0.0
 11
30.98456249101123
 21
-55.44364041495242
 31
0.0
  0
LINE
  5
13B6
330
134D
100
AcDbEntity
  8
0
100
AcDbLine
 10
47.0226009489054
 20
-58.1753813911005
 30
0.0
 11
47.02619305135383
 21
-58.17330748978495
 31
0.0
  0
LINE
  5
13B7
330
134D
100
AcDbEntity
  8
0
100
AcDbLine
 10
44.19776592660762
 20
-56.54031432792949
 30
0.0
 11
44.19776592660762
 21
-47.81499385455351
 31
0.0
  0
LINE
  5
13B8
330
134D
100
AcDbEntity
  8
0
100
AcDbLine
 10
41.36574669941302
 20
-58.17538139110049
 30
0.0
 11
41.36933880186145
 21
-58.17330748978495
 31
0.0
  0
LINE
  5
13B9
330
134D
100
AcDbEntity
  8
0
100
AcDbLine
 10
44.19776592660762
 20
-56.54031432792949
 30
0.0
 11
44.19417382415921
 21
-56.54238822924504
 31
0.0
  0
LINE
  5
13BA
330
134D
100
AcDbEntity
  8
0
100
AcDbLine
 10
7.071067811865463
 20
-66.95686743870466
 30
0.0
 11
3.881903091629175
 21
-65.11560232898618
 31
0.0
  0
LINE
  5
13BB
330
134D
100
AcDbEntity
  8
0
100
AcDbLine
 10
3.881903091629175
 20
-65.11560232898618
 30
0.0
 11
3.885495194077601
 21
-65.11352842767061
 31
0.0
  0
LINE
  5
13BC
330
134D
100
AcDbEntity
  8
0
100
AcDbLine
 10
3.885495194077601
 20
-65.11352842767061
 30
0.0
 11
3.889087296526028
 21
-65.11560232898618
 31
0.0
  0
LINE
  5
13BD
330
134D
100
AcDbEntity
  8
0
100
AcDbLine
 10
3.889087296526028
 20
-65.11560232898618
 30
0.0
 11
6.717514421272202
 21
-63.48260916713073
 31
0.0
  0
LINE
  5
13BE
330
134D
100
AcDbEntity
  8
0
100
AcDbLine
 10
33.81298961575737
 20
-53.81064725309695
 30
0.0
 11
41.36933880186145
 21
-58.17330748978495
 31
0.0
  0
LINE
  5
13BF
330
134D
100
AcDbEntity
  8
0
100
AcDbLine
 10
22.27027150492781
 20
-72.46614545865127
 30
0.0
 11
22.27386360737624
 21
-72.4640715573357
 31
0.0
  0
LINE
  5
13C0
330
134D
100
AcDbEntity
  8
0
100
AcDbLine
 10
22.27027150492781
 20
-72.46614545865127
 30
0.0
 11
22.27027150492781
 21
-57.76505919932105
 31
0.0
  0
LINE
  5
13C1
330
134D
100
AcDbEntity
  8
0
100
AcDbLine
 10
22.27027150492781
 20
-57.76505919932105
 30
0.0
 11
22.27386360737624
 21
-57.76298529800549
 31
0.0
  0
LINE
  5
13C2
330
134D
100
AcDbEntity
  8
0
100
AcDbLine
 10
22.27386360737624
 20
-57.76298529800549
 30
0.0
 11
22.27386360737624
 21
-57.76713310063661
 31
0.0
  0
LINE
  5
13C3
330
134D
100
AcDbEntity
  8
0
100
AcDbLine
 10
22.27386360737624
 20
-57.76713310063661
 30
0.0
 11
47.02260094890539
 21
-43.4784429344014
 31
0.0
  0
LINE
  5
13C4
330
134D
100
AcDbEntity
  8
0
100
AcDbLine
 10
47.02260094890539
 20
-43.4784429344014
 30
0.0
 11
47.02260094890539
 21
-43.47429513177029
 31
0.0
  0
LINE
  5
13C5
330
134D
100
AcDbEntity
  8
0
100
AcDbLine
 10
47.02260094890539
 20
-43.47429513177029
 30
0.0
 11
47.02619305135383
 21
-43.47222123045475
 31
0.0
  0
LINE
  5
13C6
330
134D
100
AcDbEntity
  8
0
100
AcDbLine
 10
47.02619305135383
 20
-43.47222123045475
 30
0.0
 11
47.02619305135383
 21
-58.17330748978495
 31
0.0
  0
LINE
  5
13C7
330
134D
100
AcDbEntity
  8
0
100
AcDbLine
 10
6.717514421272214
 20
-58.58362968156435
 30
0.0
 11
7.071067811865463
 21
-58.78775382679627
 31
0.0
  0
ELLIPSE
  5
13C8
330
134D
100
AcDbEntity
  8
0
100
AcDbEllipse
 10
12.37436867076455
 20
-61.84961600527523
 30
0.0
 11
4.000000000000405
 21
-6.928203230275271
 31
0.0
210
0.0
220
0.0
230
1.0
 40
0.5773502691896249
 41
3.571569615296592
 42
3.926990816986904
  0
ELLIPSE
  5
13C9
330
134D
100
AcDbEntity
  8
0
100
AcDbEllipse
 10
3.889087296526028
 20
-61.84961600527528
 30
0.0
 11
2.000000000000002
 21
-3.464101615137756
 31
0.0
210
0.0
220
0.0
230
1.0
 40
0.5773502691896258
 41
5.497787143782137
 42
7.068583470577036
  0
LINE
  5
13CA
330
134D
100
AcDbEntity
  8
0
100
AcDbLine
 10
7.071067811865465
 20
-63.68673331236269
 30
0.0
 11
6.717514421272219
 21
-63.48260916713076
 31
0.0
  0
LINE
  5
13CB
330
134D
100
AcDbEntity
  8
0
100
AcDbLine
 10
3.889087296526028
 20
-65.11560232898618
 30
0.0
 11
3.889087296526028
 21
-65.11975013161729
 31
0.0
  0
LINE
  5
13CC
330
134D
100
AcDbEntity
  8
0
100
AcDbLine
 10
3.885495194077601
 20
-65.11767623030173
 30
0.0
 11
3.885495194077601
 21
-65.11352842767061
 31
0.0
  0
ELLIPSE
  5
13CD
330
134D
100
AcDbEntity
  8
0
100
AcDbEllipse
 10
41.36574669941301
 20
-40.21245661069049
 30
0.0
 11
4.000000000000004
 21
-6.928203230275514
 31
0.0
210
0.0
220
0.0
230
1.0
 40
0.5773502691896259
 41
0.0
 42
0.7853981633974492
  0
ELLIPSE
  5
13CE
330
134D
100
AcDbEntity
  8
0
100
AcDbEllipse
 10
16.61700935788385
 20
-54.50114677692569
 30
0.0
 11
4.000000000000004
 21
-6.928203230275514
 31
0.0
210
0.0
220
0.0
230
1.0
 40
0.5773502691896259
 41
0.7497592179711683
 42
0.7853981633974483
  0
LINE
  5
13CF
330
134D
100
AcDbEntity
  8
0
100
AcDbLine
 10
22.27386360737624
 20
-57.76713310063661
 30
0.0
 11
22.27027150492781
 21
-57.76505919932105
 31
0.0
  0
LINE
  5
13D0
330
134D
100
AcDbEntity
  8
0
100
AcDbLine
 10
44.19776592660762
 20
-56.54031432792949
 30
0.0
 11
47.02619305135383
 21
-58.17330748978495
 31
0.0
  0
LINE
  5
13D1
330
134D
100
AcDbEntity
  8
0
100
AcDbLine
 10
6.717514421272219
 20
-63.48260916713076
 30
0.0
 11
6.717514421272214
 21
-58.58362968156435
 31
0.0
  0
LINE
  5
13D2
330
134D
100
AcDbEntity
  8
0
100
AcDbLine
 10
22.27027150492782
 20
-60.47483866156436
 30
0.0
 11
45.36574669941301
 21
-47.14065984096601
 31
0.0
  0
ELLIPSE
  5
13D3
330
134D
100
AcDbEntity
  8
0
100
AcDbEllipse
 10
1.767766952966369
 20
-63.07436087666686
 30
0.0
 11
-4.500000000000001
 21
-0.0000000000002684
 31
0.0
210
0.0
220
0.0
230
1.0
 40
0.5773502691896255
 41
3.821266472497736
 42
5.603511488271046
  0
ELLIPSE
  5
13D4
330
134D
100
AcDbEntity
  8
0
100
AcDbEllipse
 10
-1.767766952966385
 20
-40.6207049011544
 30
0.0
 11
-4.500000000000001
 21
-0.0000000000002684
 31
0.0
210
0.0
220
0.0
230
1.0
 40
0.5773502691896255
 41
3.821266472497736
 42
5.603511488271048
  0
ELLIPSE
  5
13D5
330
134D
100
AcDbEntity
  8
0
100
AcDbEllipse
 10
1.767766952966369
 20
-59.80837455295596
 30
0.0
 11
-4.5
 21
0.0000000000002687
 31
0.0
210
0.0
220
0.0
230
1.0
 40
0.5773502691896257
 41
0.0
 42
6.283185307179586
  0
ELLIPSE
  5
13D6
330
134D
100
AcDbEntity
  8
0
100
AcDbEllipse
 10
-1.767766952966385
 20
-37.35471857744351
 30
0.0
 11
-4.5
 21
0.0000000000002687
 31
0.0
210
0.0
220
0.0
230
1.0
 40
0.5773502691896257
 41
0.0
 42
6.283185307179586
  0
LINE
  5
13D7
330
134D
100
AcDbEntity
  8
0
100
AcDbLine
 10
7.071067811865461
 20
-48.98979485566358
 30
0.0
 11
4.949747468305822
 21
-47.76504998427199
 31
0.0
  0
ELLIPSE
  5
13D8
330
134D
100
AcDbEntity
  8
0
100
AcDbEllipse
 10
-1.060660171779822
 20
-51.23516045321482
 30
0.0
 11
-8.5
 21
-0.0000000000005085
 31
0.0
210
0.0
220
0.0
230
1.0
 40
0.5773502691896259
 41
3.926990816986998
 42
5.943960545643372
  0
ELLIPSE
  5
13D9
330
134D
100
AcDbEntity
  8
0
100
AcDbEllipse
 10
1.060660171779822
 20
-49.19391900089551
 30
0.0
 11
-8.500000000000001
 21
0.0000000000005076
 31
0.0
210
0.0
220
0.0
230
1.0
 40
0.5773502691896257
 41
0.7853981633976908
 42
2.356194490192585
  0
LINE
  5
13DA
330
134D
100
AcDbEntity
  8
0
100
AcDbLine
 10
-4.949747468305832
 20
-52.66402946983834
 30
0.0
 11
-7.071067811865474
 21
-51.43928459844676
 31
0.0
  0
ELLIPSE
  5
13DB
330
134D
100
AcDbEntity
  8
0
100
AcDbEllipse
 10
-1.060660171779822
 20
-47.96917412950391
 30
0.0
 11
-8.500000000000003
 21
0.0
 31
0.0
210
0.0
220
0.0
230
1.0
 40
0.5773502691896257
 41
3.92699081698724
 42
7.068583470577033
  0
LINE
  5
13DC
330
134D
100
AcDbEntity
  8
0
100
AcDbLine
 10
4.949747468305822
 20
-44.49906366056109
 30
0.0
 11
7.071067811865461
 21
-45.72380853195268
 31
0.0
  0
LINE
  5
13DD
330
134D
100
AcDbEntity
  8
0
100
AcDbLine
 10
4.949747468305822
 20
-44.49906366056109
 30
0.0
 11
4.949747468305822
 21
-47.76504998427199
 31
0.0
  0
LINE
  5
13DE
330
134D
100
AcDbEntity
  8
0
100
AcDbLine
 10
47.02619305135383
 20
-58.17330748978495
 30
0.0
 11
49.32249403898591
 21
-56.84753749643515
 31
0.0
  0
LINE
  5
13DF
330
134D
100
AcDbEntity
  8
0
100
AcDbLine
 10
41.36933880186145
 20
-58.17330748978495
 30
0.0
 11
43.66563978949352
 21
-56.84753749643515
 31
0.0
  0
LINE
  5
13E0
330
134D
100
AcDbEntity
  8
0
100
AcDbLine
 10
19.97397051729575
 20
-73.79191545200102
 30
0.0
 11
22.27027150492781
 21
-72.46614545865127
 31
0.0
  0
LINE
  5
13E1
330
134D
100
AcDbEntity
  8
0
100
AcDbLine
 10
9.899494936611663
 20
-79.6084166404533
 30
0.0
 11
12.19579592424372
 21
-78.28264664710352
 31
0.0
  0
ELLIPSE
  5
13E2
330
134D
100
AcDbEntity
  8
0
100
AcDbEllipse
 10
4.242640687119276
 20
-76.34243031674239
 30
0.0
 11
3.999999999999999
 21
-6.928203230275511
 31
0.0
210
0.0
220
0.0
230
1.0
 40
0.5773502691896248
 41
5.497787143782136
 42
7.068583470577038
  0
LINE
  5
13E3
330
134D
100
AcDbEntity
  8
0
100
AcDbLine
 10
57.10066863203793
 20
-52.35680630133265
 30
0.0
 11
59.39696961966998
 21
-51.0310363079829
 31
0.0
  0
LINE
  5
13E4
330
134D
100
AcDbEntity
  8
0
100
AcDbLine
 10
4.242640687119272
 20
-79.6084166404533
 30
0.0
 11
6.538941674751348
 21
-78.28264664710352
 31
0.0
  0
ELLIPSE
  5
13E5
330
134D
100
AcDbEntity
  8
0
100
AcDbEllipse
 10
4.242640687119276
 20
-76.34243031674239
 30
0.0
 11
1.999999999999998
 21
-3.464101615137755
 31
0.0
210
0.0
220
0.0
230
1.0
 40
0.5773502691896254
 41
5.497787143782131
 42
7.068583470577036
  0
ELLIPSE
  5
13E6
330
134D
100
AcDbEntity
  8
0
100
AcDbEllipse
 10
53.74011537017761
 20
-47.76504998427199
 30
0.0
 11
4.000000000000034
 21
-6.928203230275491
 31
0.0
210
0.0
220
0.0
230
1.0
 40
0.5773502691896297
 41
0.000000000000009
 42
0.7853981633974595
  0
LINE
  5
13E7
330
134D
100
AcDbEntity
  8
0
100
AcDbLine
 10
7.07106781186547
 20
-77.97542347859783
 30
0.0
 11
9.899494936611663
 21
-79.6084166404533
 31
0.0
  0
LINE
  5
13E8
330
134D
100
AcDbEntity
  8
0
100
AcDbLine
 10
4.242640687119272
 20
-82.8744029641642
 30
0.0
 11
4.242640687119272
 21
-79.6084166404533
 31
0.0
  0
LINE
  5
13E9
330
134D
100
AcDbEntity
  8
0
100
AcDbLine
 10
47.66563978949353
 20
-60.50975440299975
 30
0.0
 11
45.36574669941301
 21
-61.83759829766511
 31
0.0
  0
LINE
  5
13EA
330
134D
100
AcDbEntity
  8
0
100
AcDbLine
 10
20.61700935788387
 20
-76.1262884639003
 30
0.0
 11
18.62511925549679
 21
-77.27630675070964
 31
0.0
  0
LINE
  5
13EB
330
134D
100
AcDbEntity
  8
0
100
AcDbLine
 10
10.53894167475135
 20
-81.94486355366812
 30
0.0
 11
8.242640687119276
 21
-83.2706335470179
 31
0.0
  0
LINE
  5
13EC
330
134D
100
AcDbEntity
  8
0
100
AcDbLine
 10
57.74011537017763
 20
-54.69325321454748
 30
0.0
 11
55.75181737023891
 21
-55.84119760004129
 31
0.0
  0
ELLIPSE
  5
13ED
330
134D
100
AcDbEntity
  8
0
100
AcDbEllipse
 10
41.36574669941303
 20
-54.9093950673896
 30
0.0
 11
3.999999999999954
 21
-6.928203230275535
 31
0.0
210
0.0
220
0.0
230
1.0
 40
0.5773502691896244
 41
5.497787143782144
 42
7.068583470577037
  0
ELLIPSE
  5
13EE
330
134D
100
AcDbEntity
  8
0
100
AcDbEllipse
 10
41.36574669941303
 20
-54.9093950673896
 30
0.0
 11
1.999999999999986
 21
-3.464101615137762
 31
0.0
210
0.0
220
0.0
230
1.0
 40
0.577350269189623
 41
5.49778714378214
 42
7.068583470577035
  0
ELLIPSE
  5
13EF
330
134D
100
AcDbEntity
  8
0
100
AcDbEllipse
 10
16.61700935788386
 20
-69.1980852336248
 30
0.0
 11
3.999999999999999
 21
-6.928203230275512
 31
0.0
210
0.0
220
0.0
230
1.0
 40
0.577350269189625
 41
0.0000000000000018
 42
0.7853981633974493
  0
ELLIPSE
  5
13F0
330
134D
100
AcDbEntity
  8
0
100
AcDbEllipse
 10
-41.36574669941303
 20
-35.72172541558804
 30
0.0
 11
-1.999999999999793
 21
3.464101615137872
 31
0.0
210
0.0
220
0.0
230
1.0
 40
0.5773502691896258
 41
0.7853981633976899
 42
2.356194490192585
  0
LINE
  5
13F1
330
134D
100
AcDbEntity
  8
0
100
AcDbLine
 10
41.36574669941302
 20
-58.17538139110049
 30
0.0
 11
41.36574669941303
 21
-61.44136771481139
 31
0.0
  0
LINE
  5
13F2
330
134D
100
AcDbEntity
  8
0
100
AcDbLine
 10
22.27386360737624
 20
-72.4640715573357
 30
0.0
 11
22.27027150492781
 21
-72.46199765602014
 31
0.0
  0
LINE
  5
13F3
330
134D
100
AcDbEntity
  8
0
100
AcDbLine
 10
47.0226009489054
 20
-58.1753813911005
 30
0.0
 11
44.19417382415921
 21
-56.54238822924504
 31
0.0
  0
LINE
  5
13F4
330
134D
100
AcDbEntity
  8
0
100
AcDbLine
 10
-41.36574669941304
 20
-38.99185954193005
 30
0.0
 11
-41.36574669941303
 21
-38.98771173929894
 31
0.0
  0
LINE
  5
13F5
330
134D
100
AcDbEntity
  8
0
100
AcDbLine
 10
-44.19776592660763
 20
-34.08665835241704
 30
0.0
 11
-44.19417382415921
 21
-34.08873225373259
 31
0.0
  0
ELLIPSE
  5
13F6
330
134D
100
AcDbEntity
  8
0
100
AcDbEllipse
 10
15.90990257669729
 20
10.41033140682848
 30
0.0
 11
2.249999999999771
 21
3.897114317030116
 31
0.0
210
0.0
220
0.0
230
1.0
 40
0.5773502691896259
 41
3.82126647249774
 42
5.603511488271037
  0
ELLIPSE
  5
13F7
330
134D
100
AcDbEntity
  8
0
100
AcDbEllipse
 10
44.19417382415921
 20
16.12580747332257
 30
0.0
 11
2.249999999999767
 21
3.897114317030106
 31
0.0
210
0.0
220
0.0
230
1.0
 40
0.5773502691896259
 41
3.821266472497736
 42
5.603511488271045
  0
ELLIPSE
  5
13F8
330
134D
100
AcDbEntity
  8
0
100
AcDbEllipse
 10
18.7383297014435
 20
8.777338244973025
 30
0.0
 11
-2.25
 21
-3.897114317029973
 31
0.0
210
0.0
220
0.0
230
1.0
 40
0.577350269189626
 41
0.0
 42
6.283185307179586
  0
ELLIPSE
  5
13F9
330
134D
100
AcDbEntity
  8
0
100
AcDbEllipse
 10
47.02260094890539
 20
14.49281431146711
 30
0.0
 11
-2.25
 21
-3.897114317029973
 31
0.0
210
0.0
220
0.0
230
1.0
 40
0.577350269189626
 41
0.0
 42
6.283185307179586
  0
ELLIPSE
  5
13FA
330
134D
100
AcDbEntity
  8
0
100
AcDbEllipse
 10
22.98097038856277
 20
20.2082903779612
 30
0.0
 11
1.500000000000002
 21
2.598076211353319
 31
0.0
210
0.0
220
0.0
230
0.9999999999999998
 40
0.5773502691896258
 41
4.372552070930579
 42
5.0522258898388
  0
ELLIPSE
  5
13FB
330
134D
100
AcDbEntity
  8
0
100
AcDbEllipse
 10
37.12310601229372
 20
28.37325618723846
 30
0.0
 11
1.500000000000001
 21
2.59807621135332
 31
0.0
210
0.0
220
0.0
230
1.0
 40
0.5773502691896259
 41
4.372552070930577
 42
5.052225889838799
  0
ELLIPSE
  5
13FC
330
134D
100
AcDbEntity
  8
0
100
AcDbEllipse
 10
51.26524163602468
 20
36.53822199651572
 30
0.0
 11
1.500000000000002
 21
2.598076211353319
 31
0.0
210
0.0
220
0.0
230
0.9999999999999998
 40
0.5773502691896258
 41
4.372552070930579
 42
5.0522258898388
  0
ELLIPSE
  5
13FD
330
134D
100
AcDbEntity
  8
0
100
AcDbEllipse
 10
12.37436867076456
 20
-2.245365597551272
 30
0.0
 11
1.499999999999998
 21
2.598076211353314
 31
0.0
210
0.0
220
0.0
230
1.0
 40
0.5773502691896258
 41
4.372552070930568
 42
5.052225889838814
  0
ELLIPSE
  5
13FE
330
134D
100
AcDbEntity
  8
0
100
AcDbEllipse
 10
30.05203820042825
 20
7.960841664045306
 30
0.0
 11
1.499999999999998
 21
2.598076211353312
 31
0.0
210
0.0
220
0.0
230
0.9999999999999998
 40
0.5773502691896257
 41
4.372552070930567
 42
5.052225889838814
  0
ELLIPSE
  5
13FF
330
134D
100
AcDbEntity
  8
0
100
AcDbEllipse
 10
25.80939751330898
 20
18.57529721610573
 30
0.0
 11
-1.5
 21
-2.598076211353316
 31
0.0
210
0.0
220
0.0
230
0.9999999999999998
 40
0.5773502691896259
 41
0.0
 42
6.283185307179586
  0
ELLIPSE
  5
1400
330
134D
100
AcDbEntity
  8
0
100
AcDbEllipse
 10
39.95153313703993
 20
26.740263025383
 30
0.0
 11
-1.5
 21
-2.598076211353316
 31
0.0
210
0.0
220
0.0
230
0.9999999999999998
 40
0.5773502691896259
 41
0.0
 42
6.283185307179586
  0
ELLIPSE
  5
1401
330
134D
100
AcDbEntity
  8
0
100
AcDbEllipse
 10
54.09366876077088
 20
34.90522883466025
 30
0.0
 11
-1.5
 21
-2.598076211353316
 31
0.0
210
0.0
220
0.0
230
0.9999999999999998
 40
0.5773502691896259
 41
0.0
 42
6.283185307179586
  0
ELLIPSE
  5
1402
330
134D
100
AcDbEntity
  8
0
100
AcDbEllipse
 10
15.20279579551075
 20
-3.878358759406719
 30
0.0
 11
-1.5
 21
-2.598076211353316
 31
0.0
210
0.0
220
0.0
230
0.9999999999999998
 40
0.5773502691896259
 41
0.0
 42
6.283185307179586
  0
ELLIPSE
  5
1403
330
134D
100
AcDbEntity
  8
0
100
AcDbEllipse
 10
32.88046532517444
 20
6.327848502189858
 30
0.0
 11
-1.5
 21
-2.598076211353316
 31
0.0
210
0.0
220
0.0
230
0.9999999999999998
 40
0.5773502691896259
 41
0.0
 42
6.283185307179586
  0
ELLIPSE
  5
1404
330
134D
100
AcDbEntity
  8
0
100
AcDbEllipse
 10
31.81980515339462
 20
-7.348469228349561
 30
0.0
 11
2.749999999999716
 21
4.763139720814574
 31
0.0
210
0.0
220
0.0
230
1.0
 40
0.5773502691896259
 41
3.681736631265623
 42
5.743041329503012
  0
ELLIPSE
  5
1405
330
134D
100
AcDbEntity
  8
0
100
AcDbEllipse
 10
34.64823227814081
 20
-8.981462390205008
 30
0.0
 11
-2.75
 21
-4.763139720814414
 31
0.0
210
0.0
220
0.0
230
1.0
 40
0.577350269189626
 41
0.0
 42
6.283185307179586
  0
LINE
  5
1406
330
134D
100
AcDbEntity
  8
0
100
AcDbLine
 10
-4.03159026772315
 20
-31.96106887000117
 30
0.0
 11
-3.881903091629184
 21
-32.04749080141326
 31
0.0
  0
LINE
  5
1407
330
134D
100
AcDbEntity
  8
0
100
AcDbLine
 10
-3.881903091629184
 20
-32.04749080141326
 30
0.0
 11
-3.88549519407761
 21
-32.04956470272882
 31
0.0
  0
LINE
  5
1408
330
134D
100
AcDbEntity
  8
0
100
AcDbLine
 10
-3.88549519407761
 20
-32.04956470272882
 30
0.0
 11
-3.889087296526037
 21
-32.04749080141326
 31
0.0
  0
LINE
  5
1409
330
134D
100
AcDbEntity
  8
0
100
AcDbLine
 10
-3.889087296526037
 20
-32.04749080141326
 30
0.0
 11
-28.6378246380552
 21
-46.33618096764846
 31
0.0
  0
LINE
  5
140A
330
134D
100
AcDbEntity
  8
0
100
AcDbLine
 10
-28.6378246380552
 20
-46.33618096764846
 30
0.0
 11
-28.63423253560677
 21
-46.33825486896401
 31
0.0
  0
LINE
  5
140B
330
134D
100
AcDbEntity
  8
0
100
AcDbLine
 10
-28.63423253560677
 20
-46.33825486896401
 30
0.0
 11
-28.6378246380552
 21
-46.34032877027957
 31
0.0
  0
LINE
  5
140C
330
134D
100
AcDbEntity
  8
0
100
AcDbLine
 10
-28.6378246380552
 20
-46.34032877027957
 30
0.0
 11
-41.36933880186147
 21
-38.98978564061449
 31
0.0
  0
LINE
  5
140D
330
134D
100
AcDbEntity
  8
0
100
AcDbLine
 10
-41.36574669941303
 20
-38.98771173929894
 30
0.0
 11
-41.36933880186147
 21
-38.98978564061449
 31
0.0
  0
LINE
  5
140E
330
134D
100
AcDbEntity
  8
0
100
AcDbLine
 10
-31.46625176280139
 20
-41.4372014820821
 30
0.0
 11
-34.29467888754758
 21
-39.80420832022665
 31
0.0
  0
LINE
  5
140F
330
134D
100
AcDbEntity
  8
0
100
AcDbLine
 10
-34.29467888754754
 20
-34.90522883466026
 30
0.0
 11
-31.46625176280134
 21
-36.53822199651571
 31
0.0
  0
LINE
  5
1410
330
134D
100
AcDbEntity
  8
0
100
AcDbLine
 10
-6.71751442127223
 20
-27.1485113158469
 30
0.0
 11
-31.46625176280139
 21
-41.4372014820821
 31
0.0
  0
LINE
  5
1411
330
134D
100
AcDbEntity
  8
0
100
AcDbLine
 10
-31.46625176280134
 20
-36.53822199651571
 30
0.0
 11
-6.717514421272223
 21
-22.24953183028049
 31
0.0
  0
ELLIPSE
  5
1412
330
134D
100
AcDbEntity
  8
0
100
AcDbEllipse
 10
-37.12310601229372
 20
-33.27223567280485
 30
0.0
 11
3.999999999999595
 21
-6.92820323027574
 31
0.0
210
0.0
220
0.0
230
1.0
 40
0.5773502691896267
 41
0.7853981633976952
 42
2.35619449019259
  0
LINE
  5
1413
330
134D
100
AcDbEntity
  8
0
100
AcDbLine
 10
-37.12310601229377
 20
-30.00624934909393
 30
0.0
 11
-37.12310601229377
 21
-26.74026302538302
 31
0.0
  0
ELLIPSE
  5
1414
330
134D
100
AcDbEntity
  8
0
100
AcDbEllipse
 10
-37.12310601229372
 20
-33.27223567280485
 30
0.0
 11
1.999999999999797
 21
-3.46410161513787
 31
0.0
210
0.0
220
0.0
230
1.0
 40
0.5773502691896267
 41
0.7853981633977006
 42
2.356194490192597
  0
ELLIPSE
  5
1415
330
134D
100
AcDbEntity
  8
0
100
AcDbEllipse
 10
-12.37436867076461
 20
-18.98354550656963
 30
0.0
 11
3.999999999999595
 21
-6.92820323027574
 31
0.0
210
0.0
220
0.0
230
1.0
 40
0.5773502691896267
 41
0.7853981633976943
 42
2.356194490192592
  0
LINE
  5
1416
330
134D
100
AcDbEntity
  8
0
100
AcDbLine
 10
-37.12310601229377
 20
-26.74026302538302
 30
0.0
 11
-12.37436867076463
 21
-12.45157285914779
 31
0.0
  0
ELLIPSE
  5
1417
330
134D
100
AcDbEntity
  8
0
100
AcDbEllipse
 10
-3.889087296526037
 20
-28.78150447770235
 30
0.0
 11
-1.999999999999796
 21
3.464101615137876
 31
0.0
210
0.0
220
0.0
230
1.0
 40
0.5773502691896258
 41
0.7853981633976881
 42
2.356194490192585
  0
ELLIPSE
  5
1418
330
134D
100
AcDbEntity
  8
0
100
AcDbEllipse
 10
-28.6378246380552
 20
-43.07019464393755
 30
0.0
 11
-1.999999999999796
 21
3.464101615137876
 31
0.0
210
0.0
220
0.0
230
1.0
 40
0.5773502691896258
 41
0.7853981633976872
 42
2.356194490192585
  0
ELLIPSE
  5
1419
330
134D
100
AcDbEntity
  8
0
100
AcDbEllipse
 10
-28.6378246380552
 20
-43.07019464393755
 30
0.0
 11
-4.000000000000002
 21
6.928203230275511
 31
0.0
210
0.0
220
0.0
230
1.0
 40
0.5773502691896259
 41
0.7853981633974474
 42
1.309730329170492
  0
LINE
  5
141A
330
134D
100
AcDbEntity
  8
0
100
AcDbLine
 10
-28.6378246380552
 20
-46.33618096764846
 30
0.0
 11
-28.6378246380552
 21
-46.34032877027957
 31
0.0
  0
LINE
  5
141B
330
134D
100
AcDbEntity
  8
0
100
AcDbLine
 10
-41.36933880186147
 20
-38.98978564061449
 30
0.0
 11
-43.66563978949352
 21
-40.31555563396427
 31
0.0
  0
ELLIPSE
  5
141C
330
134D
100
AcDbEntity
  8
0
100
AcDbEllipse
 10
-53.74011537017761
 20
-42.86607049870563
 30
0.0
 11
-3.99999999999963
 21
6.928203230275724
 31
0.0
210
0.0
220
0.0
230
1.0
 40
0.5773502691896299
 41
0.7853981633976819
 42
2.356194490192581
  0
LINE
  5
141D
330
134D
100
AcDbEntity
  8
0
100
AcDbLine
 10
-4.242640687119316
 20
-17.55467648994614
 30
0.0
 11
-6.538941674751344
 21
-18.8804464832959
 31
0.0
  0
LINE
  5
141E
330
134D
100
AcDbEntity
  8
0
100
AcDbLine
 10
-51.44381438254555
 20
-44.80628682906676
 30
0.0
 11
-53.74011537017761
 21
-46.13205682241654
 31
0.0
  0
LINE
  5
141F
330
134D
100
AcDbEntity
  8
0
100
AcDbLine
 10
-9.367368799497528
 20
-13.98146699772956
 30
0.0
 11
-7.071067811865487
 21
-12.6556970043798
 31
0.0
  0
LINE
  5
1420
330
134D
100
AcDbEntity
  8
0
100
AcDbLine
 10
-56.56854249492379
 20
-41.23307733685019
 30
0.0
 11
-54.27224150729173
 21
-39.90730734350043
 31
0.0
  0
LINE
  5
1421
330
134D
100
AcDbEntity
  8
0
100
AcDbLine
 10
-46.49406691423971
 20
-35.41657614839793
 30
0.0
 11
-44.19776592660763
 21
-34.09080615504815
 31
0.0
  0
ELLIPSE
  5
1422
330
134D
100
AcDbEntity
  8
0
100
AcDbEllipse
 10
-53.74011537017761
 20
-42.86607049870563
 30
0.0
 11
2.000000000000226
 21
-3.464101615137622
 31
0.0
210
0.0
220
0.0
230
1.0
 40
0.5773502691896299
 41
3.926990816986988
 42
5.497787143781892
  0
ELLIPSE
  5
1423
330
134D
100
AcDbEntity
  8
0
100
AcDbEllipse
 10
-4.242640687119298
 20
-14.28869016623523
 30
0.0
 11
-1.999999999999794
 21
3.464101615137873
 31
0.0
210
0.0
220
0.0
230
1.0
 40
0.577350269189626
 41
0.7853981633976926
 42
2.356194490192594
  0
LINE
  5
1424
330
134D
100
AcDbEntity
  8
0
100
AcDbLine
 10
-53.74011537017761
 20
-46.13205682241654
 30
0.0
 11
-53.74011537017761
 21
-49.39804314612744
 31
0.0
  0
LINE
  5
1425
330
134D
100
AcDbEntity
  8
0
100
AcDbLine
 10
-59.39696961966999
 20
-39.60008417499473
 30
0.0
 11
-56.56854249492379
 21
-41.23307733685019
 31
0.0
  0
LINE
  5
1426
330
134D
100
AcDbEntity
  8
0
100
AcDbLine
 10
-43.66563978949352
 20
-40.31555563396427
 30
0.0
 11
7.07106781186547
 21
-69.60840742540421
 31
0.0
  0
ELLIPSE
  5
1427
330
134D
100
AcDbEntity
  8
0
100
AcDbEllipse
 10
21.74173747026211
 20
-74.81253617816069
 30
0.0
 11
-2.5
 21
-0.000000000000005
 31
0.0
210
0.0
220
0.0
230
1.0
 40
0.5773502691896243
 41
5.497787143782133
 42
5.95611387861154
  0
LINE
  5
1428
330
134D
100
AcDbEntity
  8
0
100
AcDbLine
 10
19.97397051729572
 20
-17.86189965845181
 30
0.0
 11
19.97397051729575
 21
-73.79191545200102
 31
0.0
  0
ELLIPSE
  5
1429
330
134D
100
AcDbEntity
  8
0
100
AcDbEllipse
 10
21.74173747026209
 20
-18.88252038461147
 30
0.0
 11
-2.5
 21
-0.0000000000000001
 31
0.0
210
0.0
220
0.0
230
1.0
 40
0.5773502691896257
 41
5.497787143782137
 42
5.956113878611544
  0
LINE
  5
142A
330
134D
100
AcDbEntity
  8
0
100
AcDbLine
 10
19.37426929913735
 20
-74.34882130214629
 30
0.0
 11
19.37426929913733
 21
-18.41880550859706
 31
0.0
  0
LINE
  5
142B
330
134D
100
AcDbEntity
  8
0
100
AcDbLine
 10
18.38665458601726
 20
-76.02955697226504
 30
0.0
 11
19.37426929913735
 21
-74.34882130214629
 31
0.0
  0
LINE
  5
142C
330
134D
100
AcDbEntity
  8
0
100
AcDbLine
 10
19.37426929913733
 20
-18.41880550859706
 30
0.0
 11
18.38665458601722
 21
-20.09954117871583
 31
0.0
  0
LINE
  5
142D
330
134D
100
AcDbEntity
  8
0
100
AcDbLine
 10
18.38665458601726
 20
-76.02955697226504
 30
0.0
 11
18.38665458601722
 21
-20.09954117871583
 31
0.0
  0
ELLIPSE
  5
142E
330
134D
100
AcDbEntity
  8
0
100
AcDbEllipse
 10
14.31711626780336
 20
-70.52592912829013
 30
0.0
 11
4.000000000000002
 21
-6.928203230275508
 31
0.0
210
0.0
220
0.0
230
1.0
 40
0.5773502691896258
 41
0.0873549802103391
 42
0.7853981633974492
  0
ELLIPSE
  5
142F
330
134D
100
AcDbEntity
  8
0
100
AcDbEllipse
 10
13.53497104498221
 20
-70.97750088323128
 30
0.0
 11
4.129007392883871
 21
-7.151650589302372
 31
0.0
210
0.0
220
0.0
230
1.0
 40
0.5773502691896259
 41
0.3563573857464775
 42
0.7853981633974478
  0
ELLIPSE
  5
1430
330
134D
100
AcDbEntity
  8
0
100
AcDbEllipse
 10
11.58560390105265
 20
-72.10296852852846
 30
0.0
 11
4.809069058531878
 21
-8.329551946484638
 31
0.0
210
0.0
220
0.0
230
1.0
 40
0.5773502691896258
 41
0.3563573857464701
 42
0.785398163397449
  0
ELLIPSE
  5
1431
330
134D
100
AcDbEntity
  8
0
100
AcDbEllipse
 10
-47.5547270860195
 20
-41.17287704393837
 30
0.0
 11
-1.850000000000008
 21
-3.204293994002418
 31
0.0
210
0.0
220
0.0
230
0.9999999999999998
 40
0.5773502691896246
 41
0.3270714285680416
 42
1.243724898226861
  0
LINE
  5
1432
330
134D
100
AcDbEntity
  8
0
100
AcDbLine
 10
7.071067811865474
 20
-76.75699525518393
 30
0.0
 11
-48.71230201579482
 21
-44.55045166887983
 31
0.0
  0
LINE
  5
1433
330
134D
100
AcDbEntity
  8
0
100
AcDbLine
 10
-46.39715215624426
 20
-43.21379927425397
 30
0.0
 11
7.071067811865452
 21
-74.08369046593223
 31
0.0
  0
LINE
  5
1434
330
134D
100
AcDbEntity
  8
0
100
AcDbLine
 10
-44.44778501231469
 20
-40.97779557931359
 30
0.0
 11
-46.39715215624426
 21
-43.21379927425397
 31
0.0
  0
LINE
  5
1435
330
134D
100
AcDbEntity
  8
0
100
AcDbLine
 10
-44.44778501231469
 20
-40.97779557931359
 30
0.0
 11
7.071067811865443
 21
-70.72221912569471
 31
0.0
  0
ELLIPSE
  5
1436
330
134D
100
AcDbEntity
  8
0
100
AcDbEllipse
 10
-43.66563978949355
 20
-42.35679708628357
 30
0.0
 11
-1.249999999999867
 21
-2.165063509461165
 31
0.0
210
0.0
220
0.0
230
1.0
 40
0.5773502691896259
 41
3.926990816986998
 42
4.385317551816517
  0
ELLIPSE
  5
1437
330
134D
100
AcDbEntity
  8
0
100
AcDbEllipse
 10
-49.18107268274858
 20
-38.35596383973774
 30
0.0
 11
-3.7
 21
0.0000000000000043
 31
0.0
210
0.0
220
0.0
230
1.0
 40
0.5773502691896263
 41
5.039460408952729
 42
5.956113878611547
  0
ELLIPSE
  5
1438
330
134D
100
AcDbEntity
  8
0
100
AcDbEllipse
 10
-48.71230201579482
 20
-39.96326110511754
 30
0.0
 11
-2.809069058531588
 21
4.86545033134705
 31
0.0
210
0.0
220
0.0
230
0.9999999999999998
 40
0.5773502691896259
 41
0.7853981633976908
 42
2.356194490192589
  0
ELLIPSE
  5
1439
330
134D
100
AcDbEntity
  8
0
100
AcDbEllipse
 10
-46.39715215624423
 20
-38.6266087104917
 30
0.0
 11
2.809069058532172
 21
-4.865450331346718
 31
0.0
210
0.0
220
0.0
230
1.0
 40
0.5773502691896257
 41
3.926990816986997
 42
5.497787143781892
  0
LINE
  5
143A
330
134D
100
AcDbEntity
  8
0
100
AcDbLine
 10
-47.45865614172362
 20
-35.76281380813501
 30
0.0
 11
-50.36977571646264
 21
-36.33301342861052
 31
0.0
  0
ELLIPSE
  5
143B
330
134D
100
AcDbEntity
  8
0
100
AcDbEllipse
 10
-44.44778501231467
 20
-37.50114106519454
 30
0.0
 11
2.12900739288409
 21
-3.687548974164484
 31
0.0
210
0.0
220
0.0
230
1.0
 40
0.5773502691896257
 41
3.926990816986998
 42
5.497787143781887
  0
ELLIPSE
  5
143C
330
134D
100
AcDbEntity
  8
0
100
AcDbEllipse
 10
-48.26183386720607
 20
-34.39595542223826
 30
0.0
 11
-2.499999999999992
 21
0.000000000000147
 31
0.0
210
0.0
220
0.0
230
1.0
 40
0.5773502691896253
 41
1.897867755363071
 42
2.356194490192587
  0
ELLIPSE
  5
143D
330
134D
100
AcDbEntity
  8
0
100
AcDbEllipse
 10
-43.66563978949353
 20
-37.04956931025338
 30
0.0
 11
2.000000000000207
 21
-3.464101615137634
 31
0.0
210
0.0
220
0.0
230
1.0
 40
0.5773502691896258
 41
3.926990816987006
 42
5.497787143781899
  0
ELLIPSE
  5
143E
330
134D
100
AcDbEntity
  8
0
100
AcDbEllipse
 10
-49.18107268274855
 20
17.57405195381144
 30
0.0
 11
-3.7
 21
-0.0000000000000006
 31
0.0
210
0.0
220
0.0
230
1.0
 40
0.577350269189626
 41
5.039460408952728
 42
5.956113878611546
  0
LINE
  5
143F
330
134D
100
AcDbEntity
  8
0
100
AcDbLine
 10
-52.68492557601323
 20
-37.6696658232364
 30
0.0
 11
-52.68492557601321
 21
18.26034997031278
 31
0.0
  0
LINE
  5
1440
330
134D
100
AcDbEntity
  8
0
100
AcDbLine
 10
-50.36977571646264
 20
19.59700236493865
 30
0.0
 11
-50.36977571646264
 21
-36.33301342861052
 31
0.0
  0
LINE
  5
1441
330
134D
100
AcDbEntity
  8
0
100
AcDbLine
 10
-47.45865614172361
 20
20.16720198541417
 30
0.0
 11
-50.36977571646264
 21
19.59700236493865
 31
0.0
  0
LINE
  5
1442
330
134D
100
AcDbEntity
  8
0
100
AcDbLine
 10
-47.45865614172361
 20
20.16720198541417
 30
0.0
 11
-47.45865614172362
 21
-35.76281380813501
 31
0.0
  0
ELLIPSE
  5
1443
330
134D
100
AcDbEntity
  8
0
100
AcDbEllipse
 10
-48.26183386720607
 20
21.53406037131092
 30
0.0
 11
-2.499999999999992
 21
0.0000000000001489
 31
0.0
210
0.0
220
0.0
230
1.0
 40
0.5773502691896259
 41
1.897867755363067
 42
2.356194490192583
  0
LINE
  5
1444
330
134D
100
AcDbEntity
  8
0
100
AcDbLine
 10
-46.49406691423971
 20
20.51343964515127
 30
0.0
 11
-46.49406691423971
 21
-35.41657614839793
 31
0.0
  0
ELLIPSE
  5
1445
330
134D
100
AcDbEntity
  8
0
100
AcDbEllipse
 10
-51.52735064623792
 20
18.92867616762572
 30
0.0
 11
0.8185290825757325
 21
1.417733958493713
 31
0.0
210
0.0
220
0.0
230
1.0
 40
0.5773502691896258
 41
5.497787143782389
 42
8.639379797372182
  0
LINE
  5
1446
330
134D
100
AcDbEntity
  8
0
100
AcDbLine
 10
-53.67254028913331
 20
16.57961430019402
 30
0.0
 11
-52.68492557601321
 21
18.26034997031278
 31
0.0
  0
ELLIPSE
  5
1447
330
134D
100
AcDbEntity
  8
0
100
AcDbEllipse
 10
-50.56559821542847
 20
18.37340814280409
 30
0.0
 11
2.196939809070721
 21
3.805211370480629
 31
0.0
210
0.0
220
0.0
230
1.0
 40
0.577350269189626
 41
5.497787143782383
 42
8.639379797372173
  0
ELLIPSE
  5
1448
330
134D
100
AcDbEntity
  8
0
100
AcDbEllipse
 10
-56.04000846025805
 20
17.04332917620843
 30
0.0
 11
2.499999999999992
 21
0.0000000000000003
 31
0.0
210
0.0
220
0.0
230
1.0
 40
0.5773502691896258
 41
5.497787143782138
 42
5.956113878611545
  0
ELLIPSE
  5
1449
330
134D
100
AcDbEntity
  8
0
100
AcDbEllipse
 10
-50.38315421076575
 20
18.26807404760004
 30
0.0
 11
2.750000000000287
 21
4.763139720814248
 31
0.0
210
0.0
220
0.0
230
1.0
 40
0.5773502691896257
 41
5.497787143782379
 42
8.639379797372173
  0
LINE
  5
144A
330
134D
100
AcDbEntity
  8
0
100
AcDbLine
 10
-53.67254028913333
 20
-39.35040149335517
 30
0.0
 11
-52.68492557601323
 21
-37.6696658232364
 31
0.0
  0
LINE
  5
144B
330
134D
100
AcDbEntity
  8
0
100
AcDbLine
 10
-53.67254028913333
 20
-39.35040149335517
 30
0.0
 11
-53.67254028913331
 21
16.57961430019402
 31
0.0
  0
ELLIPSE
  5
144C
330
134D
100
AcDbEntity
  8
0
100
AcDbEllipse
 10
-56.04000846025806
 20
-38.88668661734075
 30
0.0
 11
2.499999999999992
 21
-0.0000000000000029
 31
0.0
210
0.0
220
0.0
230
1.0
 40
0.5773502691896266
 41
5.49778714378214
 42
5.956113878611543
  0
LINE
  5
144D
330
134D
100
AcDbEntity
  8
0
100
AcDbLine
 10
-54.27224150729173
 20
-39.90730734350043
 30
0.0
 11
-54.27224150729173
 21
16.02270845004877
 31
0.0
  0
LINE
  5
144E
330
134D
100
AcDbEntity
  8
0
100
AcDbLine
 10
-50.66166915972438
 20
-44.56538326453373
 30
0.0
 11
-48.7123020157948
 21
-44.55045166887983
 31
0.0
  0
ELLIPSE
  5
144F
330
134D
100
AcDbEntity
  8
0
100
AcDbEllipse
 10
-50.66166915972438
 20
-41.08872875041469
 30
0.0
 11
-2.129007392883644
 21
3.687548974164734
 31
0.0
210
0.0
220
0.0
230
0.9999999999999998
 40
0.5773502691896258
 41
0.7853981633976926
 42
2.356194490192589
  0
ELLIPSE
  5
1450
330
134D
100
AcDbEntity
  8
0
100
AcDbEllipse
 10
-51.44381438254551
 20
-46.84752828138606
 30
0.0
 11
1.249999999999996
 21
2.16506350946109
 31
0.0
210
0.0
220
0.0
230
0.9999999999999998
 40
0.577350269189626
 41
0.3270714285680398
 42
0.7853981633974483
  0
ELLIPSE
  5
1451
330
134D
100
AcDbEntity
  8
0
100
AcDbEllipse
 10
-51.44381438254554
 20
-41.54030050535585
 30
0.0
 11
-1.999999999999794
 21
3.464101615137873
 31
0.0
210
0.0
220
0.0
230
1.0
 40
0.5773502691896258
 41
0.7853981633976943
 42
2.356194490192585
  0
LINE
  5
1452
330
134D
100
AcDbEntity
  8
0
100
AcDbLine
 10
7.07106781186547
 20
-77.89739449613498
 30
0.0
 11
-50.66166915972437
 21
-44.56538326453375
 31
0.0
  0
ELLIPSE
  5
1453
330
134D
100
AcDbEntity
  8
0
100
AcDbEllipse
 10
6.538941674751379
 20
-80.32388809942281
 30
0.0
 11
1.249999999999996
 21
2.16506350946109
 31
0.0
210
0.0
220
0.0
230
0.9999999999999998
 40
0.577350269189626
 41
0.4803596412517051
 42
0.7853981633974483
  0
LINE
  5
1454
330
134D
100
AcDbEntity
  8
0
100
AcDbLine
 10
6.538941674751348
 20
-78.28264664710352
 30
0.0
 11
-51.44381438254555
 21
-44.80628682906676
 31
0.0
  0
ELLIPSE
  5
1455
330
134D
100
AcDbEntity
  8
0
100
AcDbEllipse
 10
14.88280169275261
 20
-75.3432589557637
 30
0.0
 11
3.7
 21
0.0000000000000076
 31
0.0
210
0.0
220
0.0
230
1.0
 40
0.5773502691896237
 41
5.039460408952727
 42
5.956113878611545
  0
ELLIPSE
  5
1456
330
134D
100
AcDbEntity
  8
0
100
AcDbEllipse
 10
9.270454041502071
 20
-73.43962092315429
 30
0.0
 11
4.809069058531887
 21
-8.329551946484652
 31
0.0
210
0.0
220
0.0
230
1.0
 40
0.5773502691896257
 41
5.926827921433109
 42
7.068583470577036
  0
ELLIPSE
  5
1457
330
134D
100
AcDbEntity
  8
0
100
AcDbEllipse
 10
6.538941674751357
 20
-75.01666032339262
 30
0.0
 11
-1.999999999999795
 21
3.464101615137873
 31
0.0
210
0.0
220
0.0
230
1.0
 40
0.5773502691896259
 41
2.356194490192631
 42
2.530118350227274
  0
ELLIPSE
  5
1458
330
134D
100
AcDbEntity
  8
0
100
AcDbEllipse
 10
13.96356287721012
 20
-79.30326737326314
 30
0.0
 11
-2.5
 21
-0.0000000000000006
 31
0.0
210
0.0
220
0.0
230
1.0
 40
0.5773502691896253
 41
5.039460408952731
 42
5.497787143782137
  0
ELLIPSE
  5
1459
330
134D
100
AcDbEntity
  8
0
100
AcDbEllipse
 10
6.538941674751357
 20
-75.01666032339262
 30
0.0
 11
3.999999999999999
 21
-6.928203230275512
 31
0.0
210
0.0
220
0.0
230
1.0
 40
0.5773502691896258
 41
0.0000000000000022
 42
0.7853981633974522
  0
ELLIPSE
  5
145A
330
134D
100
AcDbEntity
  8
0
100
AcDbEllipse
 10
7.321086897572524
 20
-74.56508856845146
 30
0.0
 11
4.129007392883861
 21
-7.151650589302354
 31
0.0
210
0.0
220
0.0
230
1.0
 40
0.5773502691896259
 41
6.032553165927086
 42
7.068583470577038
  0
LINE
  5
145B
330
134D
100
AcDbEntity
  8
0
100
AcDbLine
 10
16.07150472646668
 20
-77.36620936689087
 30
0.0
 11
13.16038515172765
 21
-77.9364089873664
 31
0.0
  0
ELLIPSE
  5
145C
330
134D
100
AcDbEntity
  8
0
100
AcDbEllipse
 10
14.88280169275258
 20
-19.41324316221449
 30
0.0
 11
3.7
 21
-0.0000000000000003
 31
0.0
210
0.0
220
0.0
230
1.0
 40
0.5773502691896257
 41
5.039460408952727
 42
5.956113878611547
  0
LINE
  5
145D
330
134D
100
AcDbEntity
  8
0
100
AcDbLine
 10
16.07150472646665
 20
-21.43619357334167
 30
0.0
 11
16.07150472646668
 21
-77.36620936689087
 31
0.0
  0
ELLIPSE
  5
145E
330
134D
100
AcDbEntity
  8
0
100
AcDbEllipse
 10
13.9635628772101
 20
-23.37325157971394
 30
0.0
 11
-2.5
 21
-0.0000000000000003
 31
0.0
210
0.0
220
0.0
230
1.0
 40
0.5773502691896255
 41
5.039460408952731
 42
5.497787143782137
  0
LINE
  5
145F
330
134D
100
AcDbEntity
  8
0
100
AcDbLine
 10
12.19579592424372
 20
-78.28264664710352
 30
0.0
 11
12.1957959242437
 21
-22.3526308535543
 31
0.0
  0
LINE
  5
1460
330
134D
100
AcDbEntity
  8
0
100
AcDbLine
 10
13.16038515172763
 20
-22.0063931938172
 30
0.0
 11
13.16038515172765
 21
-77.9364089873664
 31
0.0
  0
LINE
  5
1461
330
134D
100
AcDbEntity
  8
0
100
AcDbLine
 10
16.07150472646665
 20
-21.43619357334167
 30
0.0
 11
13.16038515172763
 21
-22.0063931938172
 31
0.0
  0
ELLIPSE
  5
1462
330
134D
100
AcDbEntity
  8
0
100
AcDbEllipse
 10
17.22907965624193
 20
-20.76786737602874
 30
0.0
 11
0.8185290825756478
 21
1.417733958493762
 31
0.0
210
0.0
220
0.0
230
1.0
 40
0.5773502691896259
 41
5.497787143782133
 42
8.639379797371937
  0
ELLIPSE
  5
1463
330
134D
100
AcDbEntity
  8
0
100
AcDbEllipse
 10
16.08488322076972
 20
-20.10726525600305
 30
0.0
 11
2.750000000000285
 21
4.763139720814249
 31
0.0
210
0.0
220
0.0
230
1.0
 40
0.577350269189626
 41
5.497787143782377
 42
8.639379797372171
  0
ELLIPSE
  5
1464
330
134D
100
AcDbEntity
  8
0
100
AcDbEllipse
 10
16.26732722543248
 20
-20.21259935120713
 30
0.0
 11
2.196939809070494
 21
3.805211370480763
 31
0.0
210
0.0
220
0.0
230
1.0
 40
0.5773502691896258
 41
5.497787143782137
 42
8.63937979737193
  0
LINE
  5
1465
330
134D
100
AcDbEntity
  8
0
100
AcDbLine
 10
18.84502568859747
 20
-76.84819225515991
 30
0.0
 11
17.7702427393687
 21
-78.94058288533229
 31
0.0
  0
SPLINE
  5
1466
330
134D
100
AcDbEntity
  8
0
100
AcDbSpline
210
0.0
220
0.0
230
1.0
 70
     8
 71
     3
 72
    16
 73
    12
 74
     0
 42
0.000000001
 43
0.0000000001
 40
0.4290407776509796
 40
0.4290407776509796
 40
0.4290407776509796
 40
0.4290407776509796
 40
0.5715837319495686
 40
0.5715837319495686
 40
0.7141266862481577
 40
0.7141266862481577
 40
0.8566696405467467
 40
0.8566696405467467
 40
0.9992125948453358
 40
0.9992125948453358
 40
1.141755549143924
 40
1.141755549143924
 40
1.141755549143924
 40
1.141755549143924
 10
17.77024273936868
 20
-78.94058288533234
 30
0.0
 10
17.57029723246336
 20
-79.32983739062009
 30
0.0
 10
17.32601513578401
 20
-79.70974809036078
 30
0.0
 10
16.74247002604718
 20
-80.42043515811336
 30
0.0
 10
16.40281516153368
 20
-80.75066339776938
 30
0.0
 10
15.64437735362575
 20
-81.32320781857641
 30
0.0
 10
15.22602876936842
 20
-81.56474148631247
 30
0.0
 10
14.35097185220052
 20
-81.93529568474779
 30
0.0
 10
13.89515837535463
 20
-82.06433130610745
 30
0.0
 10
12.98791276567141
 20
-82.21435266151742
 30
0.0
 10
12.53675940018678
 20
-82.23595181306109
 30
0.0
 10
12.09968235661739
 20
-82.21448244876979
 30
0.0
  0
LINE
  5
1467
330
134D
100
AcDbEntity
  8
0
100
AcDbLine
 10
10.23093868705796
 20
-82.1226891615241
 30
0.0
 11
12.09968235661739
 21
-82.21448244876979
 31
0.0
  0
LINE
  5
1468
330
134D
100
AcDbEntity
  8
0
100
AcDbLine
 10
-44.19776592660763
 20
-34.09080615504815
 30
0.0
 11
-44.19776592660763
 21
-19.38971989571794
 31
0.0
  0
LINE
  5
1469
330
134D
100
AcDbEntity
  8
0
100
AcDbLine
 10
-44.19776592660763
 20
-19.38971989571794
 30
0.0
 11
-44.19417382415921
 21
-19.38764599440238
 31
0.0
  0
LINE
  5
146A
330
134D
100
AcDbEntity
  8
0
100
AcDbLine
 10
-44.19417382415921
 20
-19.38764599440238
 30
0.0
 11
-44.19417382415921
 21
-19.3917937970335
 31
0.0
  0
LINE
  5
146B
330
134D
100
AcDbEntity
  8
0
100
AcDbLine
 10
-44.19417382415921
 20
-19.3917937970335
 30
0.0
 11
-19.44543648263005
 21
-5.103103630798306
 31
0.0
  0
LINE
  5
146C
330
134D
100
AcDbEntity
  8
0
100
AcDbLine
 10
-19.44543648263006
 20
-5.103103630798306
 30
0.0
 11
-19.44543648263006
 21
-5.098955828167186
 31
0.0
  0
LINE
  5
146D
330
134D
100
AcDbEntity
  8
0
100
AcDbLine
 10
-19.44543648263006
 20
-5.098955828167186
 30
0.0
 11
-19.44184438018163
 21
-5.096881926851635
 31
0.0
  0
LINE
  5
146E
330
134D
100
AcDbEntity
  8
0
100
AcDbLine
 10
-19.44184438018163
 20
-5.096881926851635
 30
0.0
 11
-19.44184438018163
 21
-5.269725789675812
 31
0.0
  0
LINE
  5
146F
330
134D
100
AcDbEntity
  8
0
100
AcDbLine
 10
-44.19776592660763
 20
-34.09080615504815
 30
0.0
 11
-44.19417382415921
 21
-34.08873225373259
 31
0.0
  0
LINE
  5
1470
330
134D
100
AcDbEntity
  8
0
100
AcDbLine
 10
-41.36574669941302
 20
-27.55675960631077
 30
0.0
 11
-41.36574669941302
 21
-24.29077328259986
 31
0.0
  0
LINE
  5
1471
330
134D
100
AcDbEntity
  8
0
100
AcDbLine
 10
-41.36574669941302
 20
-24.29077328259986
 30
0.0
 11
-16.61700935788386
 21
-10.00208311636465
 31
0.0
  0
ELLIPSE
  5
1472
330
134D
100
AcDbEntity
  8
0
100
AcDbEllipse
 10
-16.61700935788386
 20
-6.736096792653745
 30
0.0
 11
2.000000000000209
 21
-3.464101615137637
 31
0.0
210
0.0
220
0.0
230
1.0
 40
0.577350269189626
 41
3.926990816986998
 42
5.497787143781895
  0
ELLIPSE
  5
1473
330
134D
100
AcDbEntity
  8
0
100
AcDbEllipse
 10
-41.36574669941302
 20
-21.02478695888895
 30
0.0
 11
4.000000000000004
 21
-6.928203230275514
 31
0.0
210
0.0
220
0.0
230
1.0
 40
0.5773502691896259
 41
4.97345497800909
 42
5.497787143782137
  0
ELLIPSE
  5
1474
330
134D
100
AcDbEntity
  8
0
100
AcDbEllipse
 10
-41.36574669941302
 20
-21.02478695888895
 30
0.0
 11
2.000000000000209
 21
-3.464101615137637
 31
0.0
210
0.0
220
0.0
230
1.0
 40
0.577350269189626
 41
3.926990816986998
 42
5.497787143781895
  0
LINE
  5
1475
330
134D
100
AcDbEntity
  8
0
100
AcDbLine
 10
-44.19776592660763
 20
-19.38971989571794
 30
0.0
 11
-44.19417382415921
 21
-19.3917937970335
 31
0.0
  0
LINE
  5
1476
330
134D
100
AcDbEntity
  8
0
100
AcDbLine
 10
-31.46625176280139
 20
-41.4372014820821
 30
0.0
 11
-31.46625176280134
 21
-36.53822199651571
 31
0.0
  0
LINE
  5
1477
330
134D
100
AcDbEntity
  8
0
100
AcDbLine
 10
-34.29467888754754
 20
-34.90522883466026
 30
0.0
 11
-34.29467888754758
 21
-39.80420832022665
 31
0.0
  0
LINE
  5
1478
330
134D
100
AcDbEntity
  8
0
100
AcDbLine
 10
-6.717514421272223
 20
-22.24953183028049
 30
0.0
 11
-6.71751442127223
 21
-27.1485113158469
 31
0.0
  0
LINE
  5
1479
330
134D
100
AcDbEntity
  8
0
100
AcDbLine
 10
-41.36574669941302
 20
-24.29077328259986
 30
0.0
 11
-37.12310601229377
 21
-26.74026302538302
 31
0.0
  0
LINE
  5
147A
330
134D
100
AcDbEntity
  8
0
100
AcDbLine
 10
-41.36574669941302
 20
-27.55675960631077
 30
0.0
 11
-37.12310601229377
 21
-30.00624934909393
 31
0.0
  0
LINE
  5
147B
330
134D
100
AcDbEntity
  8
0
100
AcDbLine
 10
-12.37436867076464
 20
-12.45157285914779
 30
0.0
 11
-16.61700935788386
 21
-10.00208311636465
 31
0.0
  0
ENDBLK
  5
134F
330
134D
100
AcDbEntity
  8
0
100
AcDbBlockEnd
  0
ENDSEC
  0
SECTION
  2
ENTITIES
  0
INSERT
  5
147C
330
1F
100
AcDbEntity
  8
0
100
AcDbBlockReference
  2
PU90-B-Front
 10
0.0
 20
0.0
 30
0.0
  0
INSERT
  5
147D
330
1F
100
AcDbEntity
  8
0
100
AcDbBlockReference
  2
PU90-B-Left
 10
125.3
 20
0.0
 30
0.0
  0
INSERT
  5
147E
330
1F
100
AcDbEntity
  8
0
100
AcDbBlockReference
  2
PU90-B-Right
 10
-125.3
 20
0.0
 30
0.0
  0
INSERT
  5
147F
330
1F
100
AcDbEntity
  8
0
100
AcDbBlockReference
  2
PU90-B-Top
 10
0.0
 20
-76.30000000000001
 30
0.0
  0
INSERT
  5
1480
330
1F
100
AcDbEntity
  8
0
100
AcDbBlockReference
  2
PU90-B-Bottom
 10
0.0
 20
203.3000000000001
 30
0.0
  0
INSERT
  5
1481
330
1F
100
AcDbEntity
  8
0
100
AcDbBlockReference
  2
PU90-B-ISO
 10
149.69696961967
 20
-126.2156444164835
 30
0.0
  0
MTEXT
  5
1482
330
1F
100
AcDbEntity
  8
0
100
AcDbMText
 10
0.0
 20
-150.6
 30
0.0
 40
13.1
 41
0.0
 71
     5
 72
     5
  1
PU90-B
 73
     1
 44
1.0
1001
ACAD
1000
MTEXTBEGIN
1070
    73
1070
     1
1070
    44
1040
1.0
1070
    74
1070
     0
1000
MTEXTEND
  0
ENDSEC
  0
SECTION
  2
OBJECTS
  0
DICTIONARY
  5
C
330
0
100
AcDbDictionary
281
     1
  3
ACAD_CIP_PREVIOUS_PRODUCT_INFO
350
1A5
  3
ACAD_COLOR
350
73
  3
ACAD_DETAILVIEWSTYLE
350
1AB
  3
ACAD_GROUP
350
D
  3
ACAD_LAYOUT
350
1A
  3
ACAD_MATERIAL
350
72
  3
ACAD_MLEADERSTYLE
350
D7
  3
ACAD_MLINESTYLE
350
17
  3
ACAD_PLOTSETTINGS
350
19
  3
ACAD_PLOTSTYLENAME
350
E
  3
ACAD_SCALELIST
350
B6
  3
ACAD_SECTIONVIEWSTYLE
350
1A8
  3
ACAD_TABLESTYLE
350
86
  3
ACAD_VISUALSTYLE
350
99
  3
ACDB_RECOMPOSE_DATA
350
157A
  3
AcDbVariableDictionary
350
66
  3
DWGPROPS
350
157B
  0
DICTIONARY
  5
14D2
330
8
100
AcDbDictionary
280
     1
281
     1
  0
DICTIONARY
  5
18E
330
2
100
AcDbDictionary
280
     1
281
     1
  3
ACAD_LAYERSTATES
360
18F
  0
DICTIONARY
  5
E6
330
10
100
AcDbDictionary
280
     1
281
     1
  0
DICTIONARY
  5
15D
330
1F
100
AcDbDictionary
280
     1
281
     1
  3
ACAD_LAYOUTSELFREF
360
14DA
  0
DICTIONARY
  5
1486
330
58
100
AcDbDictionary
280
     1
281
     1
  3
ACAD_LAYOUTSELFREF
360
14DC
  0
DICTIONARY
  5
1488
330
5D
100
AcDbDictionary
280
     1
281
     1
  3
ACAD_LAYOUTSELFREF
360
14DF
  0
XRECORD
  5
1A5
102
{ACAD_REACTORS
330
C
102
}
330
C
100
AcDbXrecord
280
     1
300
ACD
300
2021
300
87393ACD_2021_0F
  0
DICTIONARY
  5
73
102
{ACAD_REACTORS
330
C
102
}
330
C
100
AcDbDictionary
281
     1
  0
DICTIONARY
  5
1AB
102
{ACAD_REACTORS
330
C
102
}
330
C
100
AcDbDictionary
281
     1
  3
Imperial24
350
1AC
  0
DICTIONARY
  5
D
102
{ACAD_REACTORS
330
C
102
}
330
C
100
AcDbDictionary
281
     1
  0
DICTIONARY
  5
1A
102
{ACAD_REACTORS
330
C
102
}
330
C
100
AcDbDictionary
281
     1
  3
Layout1
350
59
  3
Layout2
350
5E
  3
Model
350
22
  0
DICTIONARY
  5
72
102
{ACAD_REACTORS
330
C
102
}
330
C
100
AcDbDictionary
281
     1
  3
ByBlock
350
97
  3
ByLayer
350
96
  3
Global
350
98
  0
DICTIONARY
  5
D7
102
{ACAD_REACTORS
330
C
102
}
330
C
100
AcDbDictionary
281
     1
  3
Standard
350
D8
  0
DICTIONARY
  5
17
102
{ACAD_REACTORS
330
C
102
}
330
C
100
AcDbDictionary
281
     1
  3
Standard
350
18
  0
DICTIONARY
  5
19
102
{ACAD_REACTORS
330
C
102
}
330
C
100
AcDbDictionary
281
     1
  0
ACDBDICTIONARYWDFLT
  5
E
102
{ACAD_REACTORS
330
C
102
}
330
C
100
AcDbDictionary
281
     1
  3
Normal
350
F
100
AcDbDictionaryWithDefault
340
F
  0
DICTIONARY
  5
B6
102
{ACAD_REACTORS
330
C
102
}
330
C
100
AcDbDictionary
281
     1
  3
A0
350
B7
  3
A1
350
124
  3
A2
350
125
  3
A3
350
126
  3
A4
350
127
  3
A5
350
128
  3
A6
350
129
  3
A7
350
12A
  3
A8
350
12B
  3
A9
350
12C
  3
B0
350
12D
  3
B1
350
12E
  3
B2
350
12F
  3
B3
350
130
  3
B4
350
131
  3
B5
350
132
  3
B6
350
133
  3
B7
350
134
  3
B8
350
135
  3
B9
350
136
  3
C0
350
137
  3
C1
350
138
  3
C2
350
139
  3
C3
350
13A
  3
C4
350
13B
  3
C5
350
13C
  3
C6
350
13D
  3
C7
350
13E
  3
C8
350
13F
  3
C9
350
140
  3
D0
350
141
  3
D1
350
142
  3
D2
350
143
  0
DICTIONARY
  5
1A8
102
{ACAD_REACTORS
330
C
102
}
330
C
100
AcDbDictionary
281
     1
  3
Imperial24
350
1AA
  0
DICTIONARY
  5
86
102
{ACAD_REACTORS
330
C
102
}
330
C
100
AcDbDictionary
281
     1
  3
Standard
350
87
  0
DICTIONARY
  5
99
102
{ACAD_REACTORS
330
C
102
}
330
C
100
AcDbDictionary
281
     1
  3
2dWireframe
350
9F
  3
Basic
350
9E
  3
Brighten
350
A5
  3
ColorChange
350
A9
  3
Conceptual
350
A2
  3
Dim
350
A4
  3
EdgeColorOff
350
175
  3
Facepattern
350
A8
  3
Flat
350
9A
  3
FlatWithEdges
350
9B
  3
Gouraud
350
9C
  3
GouraudWithEdges
350
9D
  3
Hidden
350
A1
  3
JitterOff
350
173
  3
Linepattern
350
A7
  3
OverhangOff
350
174
  3
Realistic
350
A3
  3
Shaded
350
182
  3
Shaded with edges
350
181
  3
Shades of Gray
350
17E
  3
Sketchy
350
17F
  3
Thicken
350
A6
  3
Wireframe
350
A0
  3
X-Ray
350
180
  0
XRECORD
  5
157A
102
{ACAD_REACTORS
330
C
102
}
330
C
100
AcDbXrecord
280
     1
 90
        1
330
87
  0
DICTIONARY
  5
66
102
{ACAD_REACTORS
330
C
102
}
330
C
100
AcDbDictionary
281
     1
  3
CANNOSCALE
350
F0
  3
CMLEADERSTYLE
350
EF
  3
CTABLESTYLE
350
89
  3
CVIEWDETAILSTYLE
350
1B7
  3
CVIEWSECTIONSTYLE
350
1B8
  3
DIMASSOC
350
67
  3
HIDETEXT
350
6B
  3
INDEXCTL
350
152D
  3
LAYEREVAL
350
14D
  3
LAYERNOTIFY
350
14E
  3
LIGHTINGUNITS
350
152B
  3
MSLTSCALE
350
152A
  3
SORTENTS
350
152C
  3
XCLIPFRAME
350
1578
  0
XRECORD
  5
157B
102
{ACAD_REACTORS
330
C
102
}
330
C
100
AcDbXrecord
280
     1
  1
DWGPROPS COOKIE
  2

  3

  4

  6

  7

  8
KhuNguyen
  9

300
=
301
=
302
=
303
=
304
=
305
=
306
=
307
=
308
=
309
=
 40
0.0008564814814815
 41
2460619.64644676
 42
2460619.651585648
  1

 90
        0
  0
DICTIONARY
  5
18F
102
{ACAD_REACTORS
330
18E
102
}
330
18E
100
AcDbDictionary
281
     1
  0
XRECORD
  5
14DA
102
{ACAD_REACTORS
330
15D
102
}
330
15D
100
AcDbXrecord
280
     1
340
1F
  0
XRECORD
  5
14DC
102
{ACAD_REACTORS
330
1486
102
}
330
1486
100
AcDbXrecord
280
     1
340
58
  0
XRECORD
  5
14DF
102
{ACAD_REACTORS
330
1488
102
}
330
1488
100
AcDbXrecord
280
     1
340
5D
  0
ACDBDETAILVIEWSTYLE
  5
1AC
102
{ACAD_XDICTIONARY
360
15BA
102
}
102
{ACAD_REACTORS
330
1AB
102
}
330
1AB
100
AcDbModelDocViewStyle
 70
     0
  3
Imperial24
290
     0
100
AcDbDetailViewStyle
 70
     0
 71
     0
 90
        3
 71
     1
340
11
 40
0.24
340
0
 40
0.24
300

 40
0.36
280
     3
 71
     2
340
16
 90
       25
 71
     3
340
11
 40
0.24
 90
        1
 40
0.75
 90
        1
300
%<\AcVar ViewType \f "%tc1">% %<\AcVar ViewDetailId>%\PSCALE %<\AcVar ViewScale \f "%sn">%
 71
     4
340
16
 90
       25
340
16
 90
       25
280
     0
  0
LAYOUT
  5
59
102
{ACAD_XDICTIONARY
360
157E
102
}
102
{ACAD_REACTORS
330
1A
102
}
330
1A
100
AcDbPlotSettings
  1

  2
None
  4

  6

 40
0.0
 41
0.0
 42
0.0
 43
0.0
 44
0.0
 45
0.0
 46
0.0
 47
0.0
 48
0.0
 49
0.0
140
0.0
141
0.0
142
1.0
143
1.0
 70
   688
 72
     0
 73
     0
 74
     5
  7

 75
    16
147
1.0
148
0.0
149
0.0
100
AcDbLayout
  1
Layout1
 70
     1
 71
     1
 10
0.0
 20
0.0
 11
12.0
 21
9.0
 12
0.0
 22
0.0
 32
0.0
 14
0.0
 24
0.0
 34
0.0
 15
0.0
 25
0.0
 35
0.0
146
0.0
 13
0.0
 23
0.0
 33
0.0
 16
1.0
 26
0.0
 36
0.0
 17
0.0
 27
1.0
 37
0.0
 76
     0
330
58
  0
LAYOUT
  5
5E
102
{ACAD_XDICTIONARY
360
1580
102
}
102
{ACAD_REACTORS
330
1A
102
}
330
1A
100
AcDbPlotSettings
  1

  2
None
  4

  6

 40
0.0
 41
0.0
 42
0.0
 43
0.0
 44
0.0
 45
0.0
 46
0.0
 47
0.0
 48
0.0
 49
0.0
140
0.0
141
0.0
142
1.0
143
1.0
 70
   688
 72
     0
 73
     0
 74
     5
  7

 75
    16
147
1.0
148
0.0
149
0.0
100
AcDbLayout
  1
Layout2
 70
     1
 71
     2
 10
0.0
 20
0.0
 11
12.0
 21
9.0
 12
0.0
 22
0.0
 32
0.0
 14
0.0
 24
0.0
 34
0.0
 15
0.0
 25
0.0
 35
0.0
146
0.0
 13
0.0
 23
0.0
 33
0.0
 16
1.0
 26
0.0
 36
0.0
 17
0.0
 27
1.0
 37
0.0
 76
     0
330
5D
  0
LAYOUT
  5
22
102
{ACAD_XDICTIONARY
360
157C
102
}
102
{ACAD_REACTORS
330
1A
102
}
330
1A
100
AcDbPlotSettings
  1

  2
none_device
  4
ANSI_A_(8.50_x_11.00_Inches)
  6

 40
6.349999904632568
 41
19.04999923706055
 42
6.350006103515625
 43
19.04998779296875
 44
215.8999938964844
 45
279.3999938964844
 46
0.0
 47
0.0
 48
0.0
 49
0.0
140
0.0
141
0.0
142
1.0
143
2.584895464708373
 70
 11952
 72
     0
 73
     1
 74
     0
  7

 75
     0
147
0.3868628397755418
148
0.0
149
0.0
100
AcDbLayout
  1
Model
 70
     1
 71
     0
 10
0.0
 20
0.0
 11
12.0
 21
9.0
 12
0.0
 22
0.0
 32
0.0
 14
0.0
 24
0.0
 34
0.0
 15
0.0
 25
0.0
 35
0.0
146
0.0
 13
0.0
 23
0.0
 33
0.0
 16
1.0
 26
0.0
 36
0.0
 17
0.0
 27
1.0
 37
0.0
 76
     0
330
1F
331
94
  0
MATERIAL
  5
97
102
{ACAD_XDICTIONARY
360
188
102
}
102
{ACAD_REACTORS
330
72
102
}
330
72
100
AcDbMaterial
  1
ByBlock
  0
MATERIAL
  5
96
102
{ACAD_XDICTIONARY
360
186
102
}
102
{ACAD_REACTORS
330
72
102
}
330
72
100
AcDbMaterial
  1
ByLayer
  0
MATERIAL
  5
98
102
{ACAD_XDICTIONARY
360
110
102
}
102
{ACAD_REACTORS
330
72
102
}
330
72
100
AcDbMaterial
  1
Global
 43
0.0208000000566244
 43
0.0
 43
0.0
 43
0.0
 43
0.0
 43
0.0208000000566244
 43
0.0
 43
0.0
 43
0.0
 43
0.0
 43
1.0
 43
0.0
 43
0.0
 43
0.0
 43
0.0
 43
1.0
 49
0.0208000000566244
 49
0.0
 49
0.0
 49
0.0
 49
0.0
 49
0.0208000000566244
 49
0.0
 49
0.0
 49
0.0
 49
0.0
 49
1.0
 49
0.0
 49
0.0
 49
0.0
 49
0.0
 49
1.0
142
0.0208000000566244
142
0.0
142
0.0
142
0.0
142
0.0
142
0.0208000000566244
142
0.0
142
0.0
142
0.0
142
0.0
142
1.0
142
0.0
142
0.0
142
0.0
142
0.0
142
1.0
144
0.0208000000566244
144
0.0
144
0.0
144
0.0
144
0.0
144
0.0208000000566244
144
0.0
144
0.0
144
0.0
144
0.0
144
1.0
144
0.0
144
0.0
144
0.0
144
0.0
144
1.0
1001
ACAD
1070
    -1
1070
     3
1070
     0
1000

1071
        0
1070
     0
  0
MLEADERSTYLE
  5
D8
102
{ACAD_XDICTIONARY
360
15A6
102
}
102
{ACAD_REACTORS
330
D7
102
}
330
D7
100
AcDbMLeaderStyle
170
     2
171
     1
172
     0
 90
        2
 40
0.0
 41
0.0
173
     1
 91
-1056964608
340
14
 92
       -2
290
     1
 42
0.09
291
     1
 43
0.36
  3
Standard
 44
0.18
300

342
11
174
     1
178
     1
175
     1
176
     0
 93
-1056964608
 45
0.18
292
     0
297
     0
 46
0.18
 94
-1056964608
 47
1.0
 49
1.0
140
1.0
293
     1
141
0.0
294
     1
177
     0
142
1.0
295
     0
296
     0
143
0.125
1001
ACAD_MLEADERVER
1070
     2
  0
MLINESTYLE
  5
18
102
{ACAD_REACTORS
330
17
102
}
330
17
100
AcDbMlineStyle
  2
STANDARD
 70
     0
  3

 62
   256
 51
90.0
 52
90.0
 71
     2
 49
0.5
 62
   256
  6
BYLAYER
 49
-0.5
 62
   256
  6
BYLAYER
  0
ACDBPLACEHOLDER
  5
F
102
{ACAD_REACTORS
330
E
102
}
330
E
  0
SCALE
  5
B7
102
{ACAD_REACTORS
330
B6
102
}
330
B6
100
AcDbScale
 70
     0
300
1:1
140
1.0
141
1.0
290
     1
  0
SCALE
  5
124
102
{ACAD_REACTORS
330
B6
102
}
330
B6
100
AcDbScale
 70
     0
300
1:2
140
1.0
141
2.0
290
     0
  0
SCALE
  5
125
102
{ACAD_REACTORS
330
B6
102
}
330
B6
100
AcDbScale
 70
     0
300
1:4
140
1.0
141
4.0
290
     0
  0
SCALE
  5
126
102
{ACAD_REACTORS
330
B6
102
}
330
B6
100
AcDbScale
 70
     0
300
1:5
140
1.0
141
5.0
290
     0
  0
SCALE
  5
127
102
{ACAD_REACTORS
330
B6
102
}
330
B6
100
AcDbScale
 70
     0
300
1:8
140
1.0
141
8.0
290
     0
  0
SCALE
  5
128
102
{ACAD_REACTORS
330
B6
102
}
330
B6
100
AcDbScale
 70
     0
300
1:10
140
1.0
141
10.0
290
     0
  0
SCALE
  5
129
102
{ACAD_REACTORS
330
B6
102
}
330
B6
100
AcDbScale
 70
     0
300
1:16
140
1.0
141
16.0
290
     0
  0
SCALE
  5
12A
102
{ACAD_REACTORS
330
B6
102
}
330
B6
100
AcDbScale
 70
     0
300
1:20
140
1.0
141
20.0
290
     0
  0
SCALE
  5
12B
102
{ACAD_REACTORS
330
B6
102
}
330
B6
100
AcDbScale
 70
     0
300
1:30
140
1.0
141
30.0
290
     0
  0
SCALE
  5
12C
102
{ACAD_REACTORS
330
B6
102
}
330
B6
100
AcDbScale
 70
     0
300
1:40
140
1.0
141
40.0
290
     0
  0
SCALE
  5
12D
102
{ACAD_REACTORS
330
B6
102
}
330
B6
100
AcDbScale
 70
     0
300
1:50
140
1.0
141
50.0
290
     0
  0
SCALE
  5
12E
102
{ACAD_REACTORS
330
B6
102
}
330
B6
100
AcDbScale
 70
     0
300
1:100
140
1.0
141
100.0
290
     0
  0
SCALE
  5
12F
102
{ACAD_REACTORS
330
B6
102
}
330
B6
100
AcDbScale
 70
     0
300
2:1
140
2.0
141
1.0
290
     0
  0
SCALE
  5
130
102
{ACAD_REACTORS
330
B6
102
}
330
B6
100
AcDbScale
 70
     0
300
4:1
140
4.0
141
1.0
290
     0
  0
SCALE
  5
131
102
{ACAD_REACTORS
330
B6
102
}
330
B6
100
AcDbScale
 70
     0
300
8:1
140
8.0
141
1.0
290
     0
  0
SCALE
  5
132
102
{ACAD_REACTORS
330
B6
102
}
330
B6
100
AcDbScale
 70
     0
300
10:1
140
10.0
141
1.0
290
     0
  0
SCALE
  5
133
102
{ACAD_REACTORS
330
B6
102
}
330
B6
100
AcDbScale
 70
     0
300
100:1
140
100.0
141
1.0
290
     0
  0
SCALE
  5
134
102
{ACAD_REACTORS
330
B6
102
}
330
B6
100
AcDbScale
 70
     0
300
1/128" = 1'-0"
140
0.0078125
141
12.0
290
     0
  0
SCALE
  5
135
102
{ACAD_REACTORS
330
B6
102
}
330
B6
100
AcDbScale
 70
     0
300
1/64" = 1'-0"
140
0.015625
141
12.0
290
     0
  0
SCALE
  5
136
102
{ACAD_REACTORS
330
B6
102
}
330
B6
100
AcDbScale
 70
     0
300
1/32" = 1'-0"
140
0.03125
141
12.0
290
     0
  0
SCALE
  5
137
102
{ACAD_REACTORS
330
B6
102
}
330
B6
100
AcDbScale
 70
     0
300
1/16" = 1'-0"
140
0.0625
141
12.0
290
     0
  0
SCALE
  5
138
102
{ACAD_REACTORS
330
B6
102
}
330
B6
100
AcDbScale
 70
     0
300
3/32" = 1'-0"
140
0.09375
141
12.0
290
     0
  0
SCALE
  5
139
102
{ACAD_REACTORS
330
B6
102
}
330
B6
100
AcDbScale
 70
     0
300
1/8" = 1'-0"
140
0.125
141
12.0
290
     0
  0
SCALE
  5
13A
102
{ACAD_REACTORS
330
B6
102
}
330
B6
100
AcDbScale
 70
     0
300
3/16" = 1'-0"
140
0.1875
141
12.0
290
     0
  0
SCALE
  5
13B
102
{ACAD_REACTORS
330
B6
102
}
330
B6
100
AcDbScale
 70
     0
300
1/4" = 1'-0"
140
0.25
141
12.0
290
     0
  0
SCALE
  5
13C
102
{ACAD_REACTORS
330
B6
102
}
330
B6
100
AcDbScale
 70
     0
300
3/8" = 1'-0"
140
0.375
141
12.0
290
     0
  0
SCALE
  5
13D
102
{ACAD_REACTORS
330
B6
102
}
330
B6
100
AcDbScale
 70
     0
300
1/2" = 1'-0"
140
0.5
141
12.0
290
     0
  0
SCALE
  5
13E
102
{ACAD_REACTORS
330
B6
102
}
330
B6
100
AcDbScale
 70
     0
300
3/4" = 1'-0"
140
0.75
141
12.0
290
     0
  0
SCALE
  5
13F
102
{ACAD_REACTORS
330
B6
102
}
330
B6
100
AcDbScale
 70
     0
300
1" = 1'-0"
140
1.0
141
12.0
290
     0
  0
SCALE
  5
140
102
{ACAD_REACTORS
330
B6
102
}
330
B6
100
AcDbScale
 70
     0
300
1-1/2" = 1'-0"
140
1.5
141
12.0
290
     0
  0
SCALE
  5
141
102
{ACAD_REACTORS
330
B6
102
}
330
B6
100
AcDbScale
 70
     0
300
3" = 1'-0"
140
3.0
141
12.0
290
     0
  0
SCALE
  5
142
102
{ACAD_REACTORS
330
B6
102
}
330
B6
100
AcDbScale
 70
     0
300
6" = 1'-0"
140
6.0
141
12.0
290
     0
  0
SCALE
  5
143
102
{ACAD_REACTORS
330
B6
102
}
330
B6
100
AcDbScale
 70
     0
300
1'-0" = 1'-0"
140
12.0
141
12.0
290
     0
  0
ACDBSECTIONVIEWSTYLE
  5
1AA
102
{ACAD_XDICTIONARY
360
15B8
102
}
102
{ACAD_REACTORS
330
1A8
102
}
330
1A8
100
AcDbModelDocViewStyle
 70
     0
  3
Imperial24
290
     0
100
AcDbSectionViewStyle
 70
     0
 71
     0
 90
       78
 71
     1
340
11
 40
0.24
340
0
340
0
 40
0.24
300
I, O, Q, S, X, Z
 40
0.48
 90
        3
 40
0.18
 90
        1
 71
     2
340
16
 90
       25
340
16
 90
       50
 40
0.24
 40
0.0
 40
0.24
 71
     3
340
11
 40
0.24
 90
        1
 40
0.75
 90
        1
300
%<\AcVar ViewType \f "%tc1">% %<\AcVar ViewSectionStartId>%-%<\AcVar ViewSectionEndId>%\PSCALE %<\AcVar ViewScale \f "%sn">%
 71
     4
300
ANSI31
 40
1.0
 90
        0
290
     0
290
     0
 90
        6
 40
0.0
 40
1.570796326794896
 40
0.2617993877991494
 40
1.308996938995747
 40
-0.2617993877991494
 40
1.832595714594046
  0
TABLESTYLE
  5
87
102
{ACAD_XDICTIONARY
360
104
102
}
102
{ACAD_REACTORS
330
86
102
}
330
86
100
AcDbTableStyle
  3
Standard
 70
     0
 71
     0
 40
0.06
 41
0.06
280
     0
281
     0
  7
Standard
140
0.18
170
     2
 62
     0
 63
     7
283
     0
274
    -2
284
     1
 64
     0
275
    -2
285
     1
 65
     0
276
    -2
286
     1
 66
     0
277
    -2
287
     1
 67
     0
278
    -2
288
     1
 68
     0
279
    -2
289
     1
 69
     0
  7
Standard
140
0.25
170
     5
 62
     0
 63
     7
283
     0
274
    -2
284
     1
 64
     0
275
    -2
285
     1
 65
     0
276
    -2
286
     1
 66
     0
277
    -2
287
     1
 67
     0
278
    -2
288
     1
 68
     0
279
    -2
289
     1
 69
     0
  7
Standard
140
0.18
170
     5
 62
     0
 63
     7
283
     0
274
    -2
284
     1
 64
     0
275
    -2
285
     1
 65
     0
276
    -2
286
     1
 66
     0
277
    -2
287
     1
 67
     0
278
    -2
288
     1
 68
     0
279
    -2
289
     1
 69
     0
  0
VISUALSTYLE
  5
9F
102
{ACAD_XDICTIONARY
360
1590
102
}
102
{ACAD_REACTORS
330
99
102
}
330
99
100
AcDbVisualStyle
  2
2dWireframe
 70
     4
 71
     0
 72
     2
 73
     1
 90
        0
 40
-0.6
 41
-30.0
 62
     5
 63
     7
 74
     1
 91
        4
 64
     7
 65
   257
 75
     1
175
     1
 42
1.0
 92
        0
 66
   257
 43
1.0
 76
     1
 77
     6
 78
     2
 67
     7
 79
     5
170
     0
171
     0
290
     0
174
     0
 93
        1
 44
0.0
173
     0
291
     0
 45
0.0
1001
ACAD
1000
AcDbSavedByObjectVersion
1070
     0
  0
VISUALSTYLE
  5
9E
102
{ACAD_XDICTIONARY
360
158E
102
}
102
{ACAD_REACTORS
330
99
102
}
330
99
100
AcDbVisualStyle
  2
Basic
 70
     7
 71
     1
 72
     0
 73
     1
 90
        0
 40
-0.6
 41
-30.0
 62
     5
 63
     7
 74
     0
 91
        4
 64
     7
 65
   257
 75
     1
175
     1
 42
1.0
 92
        8
 66
     7
 43
1.0
 76
     1
 77
     6
 78
     2
 67
     7
 79
     5
170
     0
171
     0
290
     0
174
     0
 93
        1
 44
0.0
173
     0
291
     1
 45
0.0
1001
ACAD
1000
AcDbSavedByObjectVersion
1070
     0
  0
VISUALSTYLE
  5
A5
102
{ACAD_XDICTIONARY
360
159C
102
}
102
{ACAD_REACTORS
330
99
102
}
330
99
100
AcDbVisualStyle
  2
Brighten
 70
    12
 71
     2
 72
     2
 73
     1
 90
        0
 40
-0.6
 41
-30.0
 62
     5
 63
     7
 74
     1
 91
        4
 64
     7
 65
   257
 75
     1
175
     1
 42
1.0
 92
        8
 66
     7
 43
1.0
 76
     1
 77
     6
 78
     2
 67
     7
 79
     5
170
     0
171
     0
290
     0
174
     0
 93
        1
 44
50.0
173
     0
291
     1
 45
0.0
1001
ACAD
1000
AcDbSavedByObjectVersion
1070
     0
  0
VISUALSTYLE
  5
A9
102
{ACAD_XDICTIONARY
360
15A4
102
}
102
{ACAD_REACTORS
330
99
102
}
330
99
100
AcDbVisualStyle
  2
ColorChange
 70
    16
 71
     2
 72
     2
 73
     3
 90
        0
 40
-0.6
 41
-30.0
 62
     5
 63
     8
 74
     1
 91
        4
 64
     7
 65
   257
 75
     1
175
     1
 42
1.0
 92
        8
 66
     8
 43
1.0
 76
     1
 77
     6
 78
     2
 67
     7
 79
     5
170
     0
171
     0
290
     0
174
     0
 93
        1
 44
0.0
173
     0
291
     1
 45
0.0
1001
ACAD
1000
AcDbSavedByObjectVersion
1070
     0
  0
VISUALSTYLE
  5
A2
102
{ACAD_XDICTIONARY
360
1596
102
}
102
{ACAD_REACTORS
330
99
102
}
330
99
100
AcDbVisualStyle
  2
Conceptual
 70
     9
 71
     3
 72
     2
 73
     1
 90
        0
 40
-0.6
 41
-30.0
 62
     5
 63
     7
 74
     2
 91
        2
 64
     7
 65
   257
 75
     1
175
     1
 42
40.0
 92
        8
 66
     7
 43
1.0
 76
     1
 77
     6
 78
     2
 67
     7
 79
     3
170
     0
171
     0
290
     0
174
     0
 93
        1
 44
0.0
173
     0
291
     0
 45
0.0
1001
ACAD
1000
AcDbSavedByObjectVersion
1070
     0
  0
VISUALSTYLE
  5
A4
102
{ACAD_XDICTIONARY
360
159A
102
}
102
{ACAD_REACTORS
330
99
102
}
330
99
100
AcDbVisualStyle
  2
Dim
 70
    11
 71
     2
 72
     2
 73
     1
 90
        0
 40
-0.6
 41
-30.0
 62
     5
 63
     7
 74
     1
 91
        4
 64
     7
 65
   257
 75
     1
175
     1
 42
1.0
 92
        8
 66
     7
 43
1.0
 76
     1
 77
     6
 78
     2
 67
     7
 79
     5
170
     0
171
     0
290
     0
174
     0
 93
        1
 44
-50.0
173
     0
291
     1
 45
0.0
1001
ACAD
1000
AcDbSavedByObjectVersion
1070
     0
  0
VISUALSTYLE
  5
175
102
{ACAD_XDICTIONARY
360
15AC
102
}
102
{ACAD_REACTORS
330
99
102
}
330
99
100
AcDbVisualStyle
  2
EdgeColorOff
 70
    22
 71
     2
 72
     2
 73
     0
 90
        0
 40
-0.6
 41
-30.0
 62
     5
 63
     7
 74
     1
 91
        4
 64
     7
 65
   257
 75
     1
175
     1
 42
1.0
 92
        8
 66
     7
 43
1.0
 76
     1
 77
     6
 78
     2
 67
     7
 79
     5
170
     0
171
     0
290
     0
174
     0
 93
        1
 44
0.0
173
     0
291
     1
 45
0.0
1001
ACAD
1000
AcDbSavedByObjectVersion
1070
     0
  0
VISUALSTYLE
  5
A8
102
{ACAD_XDICTIONARY
360
15A2
102
}
102
{ACAD_REACTORS
330
99
102
}
330
99
100
AcDbVisualStyle
  2
Facepattern
 70
    15
 71
     2
 72
     2
 73
     1
 90
        0
 40
-0.6
 41
-30.0
 62
     5
 63
     7
 74
     1
 91
        4
 64
     7
 65
   257
 75
     1
175
     1
 42
1.0
 92
        8
 66
     7
 43
1.0
 76
     1
 77
     6
 78
     2
 67
     7
 79
     5
170
     0
171
     0
290
     0
174
     0
 93
        1
 44
0.0
173
     0
291
     1
 45
0.0
1001
ACAD
1000
AcDbSavedByObjectVersion
1070
     0
  0
VISUALSTYLE
  5
9A
102
{ACAD_XDICTIONARY
360
1586
102
}
102
{ACAD_REACTORS
330
99
102
}
330
99
100
AcDbVisualStyle
  2
Flat
 70
     0
 71
     2
 72
     1
 73
     1
 90
        2
 40
-0.6
 41
30.0
 62
     5
 63
     7
 74
     0
 91
        0
 64
     7
 65
   257
 75
     1
175
     1
 42
1.0
 92
        8
 66
     7
 43
1.0
 76
     1
 77
     6
 78
     2
 67
     7
 79
     5
170
     0
171
     0
290
     0
174
     0
 93
       13
 44
0.0
173
     0
291
     1
 45
0.0
1001
ACAD
1000
AcDbSavedByObjectVersion
1070
     0
  0
VISUALSTYLE
  5
9B
102
{ACAD_XDICTIONARY
360
1588
102
}
102
{ACAD_REACTORS
330
99
102
}
330
99
100
AcDbVisualStyle
  2
FlatWithEdges
 70
     1
 71
     2
 72
     1
 73
     1
 90
        2
 40
-0.6
 41
30.0
 62
     5
 63
     7
 74
     1
 91
        0
 64
     7
 65
   257
 75
     1
175
     1
 42
1.0
 92
        0
 66
   257
 43
1.0
 76
     1
 77
     6
 78
     2
 67
     7
 79
     5
170
     0
171
     0
290
     0
174
     0
 93
       13
 44
0.0
173
     0
291
     1
 45
0.0
1001
ACAD
1000
AcDbSavedByObjectVersion
1070
     0
  0
VISUALSTYLE
  5
9C
102
{ACAD_XDICTIONARY
360
158A
102
}
102
{ACAD_REACTORS
330
99
102
}
330
99
100
AcDbVisualStyle
  2
Gouraud
 70
     2
 71
     2
 72
     2
 73
     1
 90
        2
 40
-0.6
 41
30.0
 62
     5
 63
     7
 74
     0
 91
        0
 64
     7
 65
   257
 75
     1
175
     1
 42
1.0
 92
        0
 66
     7
 43
1.0
 76
     1
 77
     6
 78
     2
 67
     7
 79
     5
170
     0
171
     0
290
     0
174
     0
 93
       13
 44
0.0
173
     0
291
     1
 45
0.0
1001
ACAD
1000
AcDbSavedByObjectVersion
1070
     0
  0
VISUALSTYLE
  5
9D
102
{ACAD_XDICTIONARY
360
158C
102
}
102
{ACAD_REACTORS
330
99
102
}
330
99
100
AcDbVisualStyle
  2
GouraudWithEdges
 70
     3
 71
     2
 72
     2
 73
     1
 90
        2
 40
-0.6
 41
30.0
 62
     5
 63
     7
 74
     1
 91
        0
 64
     7
 65
   257
 75
     1
175
     1
 42
1.0
 92
        0
 66
   257
 43
1.0
 76
     1
 77
     6
 78
     2
 67
     7
 79
     5
170
     0
171
     0
290
     0
174
     0
 93
       13
 44
0.0
173
     0
291
     1
 45
0.0
1001
ACAD
1000
AcDbSavedByObjectVersion
1070
     0
  0
VISUALSTYLE
  5
A1
102
{ACAD_XDICTIONARY
360
1594
102
}
102
{ACAD_REACTORS
330
99
102
}
330
99
100
AcDbVisualStyle
  2
Hidden
 70
     6
 71
     1
 72
     2
 73
     2
 90
        0
 40
-0.6
 41
-30.0
 62
     5
 63
     7
 74
     2
 91
        2
 64
     7
 65
   257
 75
     2
175
     1
 42
40.0
 92
        0
 66
   257
 43
1.0
 76
     1
 77
     6
 78
     2
 67
     7
 79
     3
170
     0
171
     0
290
     0
174
     0
 93
        1
 44
0.0
173
     0
291
     0
 45
0.0
1001
ACAD
1000
AcDbSavedByObjectVersion
1070
     0
  0
VISUALSTYLE
  5
173
102
{ACAD_XDICTIONARY
360
15A8
102
}
102
{ACAD_REACTORS
330
99
102
}
330
99
100
AcDbVisualStyle
  2
JitterOff
 70
    20
 71
     2
 72
     2
 73
     0
 90
        0
 40
-0.6
 41
-30.0
 62
     5
 63
     7
 74
     1
 91
        4
 64
     7
 65
   257
 75
     1
175
     1
 42
1.0
 92
       10
 66
     7
 43
1.0
 76
     1
 77
     6
 78
     2
 67
     7
 79
     5
170
     0
171
     0
290
     0
174
     0
 93
        1
 44
0.0
173
     0
291
     1
 45
0.0
1001
ACAD
1000
AcDbSavedByObjectVersion
1070
     0
  0
VISUALSTYLE
  5
A7
102
{ACAD_XDICTIONARY
360
15A0
102
}
102
{ACAD_REACTORS
330
99
102
}
330
99
100
AcDbVisualStyle
  2
Linepattern
 70
    14
 71
     2
 72
     2
 73
     1
 90
        0
 40
-0.6
 41
-30.0
 62
     5
 63
     7
 74
     1
 91
        4
 64
     7
 65
   257
 75
     7
175
     7
 42
1.0
 92
        8
 66
     7
 43
1.0
 76
     1
 77
     6
 78
     2
 67
     7
 79
     5
170
     0
171
     0
290
     0
174
     0
 93
        1
 44
0.0
173
     0
291
     1
 45
0.0
1001
ACAD
1000
AcDbSavedByObjectVersion
1070
     0
  0
VISUALSTYLE
  5
174
102
{ACAD_XDICTIONARY
360
15AA
102
}
102
{ACAD_REACTORS
330
99
102
}
330
99
100
AcDbVisualStyle
  2
OverhangOff
 70
    21
 71
     2
 72
     2
 73
     0
 90
        0
 40
-0.6
 41
-30.0
 62
     5
 63
     7
 74
     1
 91
        4
 64
     7
 65
   257
 75
     1
175
     1
 42
1.0
 92
        9
 66
     7
 43
1.0
 76
     1
 77
     6
 78
     2
 67
     7
 79
     5
170
     0
171
     0
290
     0
174
     0
 93
        1
 44
0.0
173
     0
291
     1
 45
0.0
1001
ACAD
1000
AcDbSavedByObjectVersion
1070
     0
  0
VISUALSTYLE
  5
A3
102
{ACAD_XDICTIONARY
360
1598
102
}
102
{ACAD_REACTORS
330
99
102
}
330
99
100
AcDbVisualStyle
  2
Realistic
 70
     8
 71
     2
 72
     2
 73
     0
 90
        2
 40
-0.6
 41
30.0
 62
     5
 63
     7
 74
     0
 91
        0
 64
     7
 65
   257
 75
     1
175
     1
 42
1.0
 92
        8
 66
   257
 43
1.0
 76
     1
 77
     6
 78
     2
 67
     7
 79
     3
170
     0
171
     0
290
     0
174
     0
 93
       13
 44
0.0
173
     0
291
     0
 45
0.0
1001
ACAD
1000
AcDbSavedByObjectVersion
1070
     0
  0
VISUALSTYLE
  5
182
102
{ACAD_XDICTIONARY
360
15B6
102
}
102
{ACAD_REACTORS
330
99
102
}
330
99
100
AcDbVisualStyle
  2
Shaded
 70
    27
 71
     2
 72
     2
 73
     1
 90
        2
 40
-0.6
 41
30.0
 62
     5
 63
     7
 74
     0
 91
        4
 64
     7
 65
   257
 75
     1
175
     1
 42
1.0
 92
        8
 66
   257
 43
1.0
 76
     1
 77
     6
 78
     2
 67
     8
 79
     3
170
     0
171
     0
290
     0
174
     0
 93
        5
 44
0.0
173
     0
291
     0
 45
0.0
1001
ACAD
1000
AcDbSavedByObjectVersion
1070
     0
  0
VISUALSTYLE
  5
181
102
{ACAD_XDICTIONARY
360
15B4
102
}
102
{ACAD_REACTORS
330
99
102
}
330
99
100
AcDbVisualStyle
  2
Shaded with edges
 70
    26
 71
     2
 72
     2
 73
     1
 90
        2
 40
-0.6
 41
30.0
 62
     5
 63
     7
 74
     1
 91
        2
 64
     7
 65
   257
 75
     2
175
     1
 42
1.0
 92
        8
 66
   257
 43
1.0
 76
     1
 77
     6
 78
     2
 67
     7
 79
     3
170
     0
171
     0
290
     0
174
     0
 93
        5
 44
0.0
173
     0
291
     0
 45
0.0
1001
ACAD
1000
AcDbSavedByObjectVersion
1070
     0
  0
VISUALSTYLE
  5
17E
102
{ACAD_XDICTIONARY
360
15AE
102
}
102
{ACAD_REACTORS
330
99
102
}
330
99
100
AcDbVisualStyle
  2
Shades of Gray
 70
    23
 71
     2
 72
     2
 73
     3
 90
        0
 40
-0.6
 41
-30.0
 62
     5
 63
     7
 74
     2
 91
        2
 64
     7
 65
     7
 75
     1
175
     1
 42
40.0
 92
        8
 66
     7
 43
1.0
 76
     1
 77
     6
 78
     2
 67
     7
 79
     3
170
     0
171
     0
290
     0
174
     0
 93
        1
 44
0.0
173
     0
291
     0
 45
0.0
1001
ACAD
1000
AcDbSavedByObjectVersion
1070
     0
  0
VISUALSTYLE
  5
17F
102
{ACAD_XDICTIONARY
360
15B0
102
}
102
{ACAD_REACTORS
330
99
102
}
330
99
100
AcDbVisualStyle
  2
Sketchy
 70
    24
 71
     1
 72
     2
 73
     2
 90
        0
 40
-0.6
 41
-30.0
 62
     5
 63
     7
 74
     2
 91
        2
 64
     7
 65
     7
 75
     1
175
     1
 42
40.0
 92
       11
 66
     7
 43
1.0
 76
     1
 77
     6
 78
     2
 67
     7
 79
     6
170
     0
171
     0
290
     0
174
     0
 93
        1
 44
0.0
173
     0
291
     0
 45
0.0
1001
ACAD
1000
AcDbSavedByObjectVersion
1070
     0
  0
VISUALSTYLE
  5
A6
102
{ACAD_XDICTIONARY
360
159E
102
}
102
{ACAD_REACTORS
330
99
102
}
330
99
100
AcDbVisualStyle
  2
Thicken
 70
    13
 71
     2
 72
     2
 73
     1
 90
        0
 40
-0.6
 41
-30.0
 62
     5
 63
     7
 74
     1
 91
        4
 64
     7
 65
   257
 75
     1
175
     1
 42
1.0
 92
       12
 66
     7
 43
1.0
 76
     1
 77
     6
 78
     2
 67
     7
 79
     5
170
     0
171
     0
290
     0
174
     0
 93
        1
 44
0.0
173
     0
291
     1
 45
0.0
1001
ACAD
1000
AcDbSavedByObjectVersion
1070
     0
  0
VISUALSTYLE
  5
A0
102
{ACAD_XDICTIONARY
360
1592
102
}
102
{ACAD_REACTORS
330
99
102
}
330
99
100
AcDbVisualStyle
  2
Wireframe
 70
     5
 71
     0
 72
     2
 73
     0
 90
        0
 40
-0.6
 41
-30.0
 62
     5
 63
     7
 74
     1
 91
        4
 64
     7
 65
   257
 75
     1
175
     1
 42
1.0
 92
        0
 66
   257
 43
1.0
 76
     1
 77
     6
 78
     2
 67
     7
 79
     3
170
     0
171
     0
290
     0
174
     0
 93
        1
 44
0.0
173
     0
291
     0
 45
0.0
1001
ACAD
1000
AcDbSavedByObjectVersion
1070
     0
  0
VISUALSTYLE
  5
180
102
{ACAD_XDICTIONARY
360
15B2
102
}
102
{ACAD_REACTORS
330
99
102
}
330
99
100
AcDbVisualStyle
  2
X-Ray
 70
    25
 71
     2
 72
     2
 73
     1
 90
        1
 40
0.5
 41
-30.0
 62
     5
 63
     7
 74
     1
 91
        0
 64
     7
 65
   257
 75
     1
175
     1
 42
1.0
 92
        8
 66
     7
 43
1.0
 76
     1
 77
     6
 78
     2
 67
     7
 79
     3
170
     0
171
     0
290
     0
174
     0
 93
       13
 44
0.0
173
     0
291
     0
 45
0.0
1001
ACAD
1000
AcDbSavedByObjectVersion
1070
     0
  0
DICTIONARYVAR
  5
F0
102
{ACAD_REACTORS
330
66
102
}
330
66
100
DictionaryVariables
280
     0
  1
1:1
  0
DICTIONARYVAR
  5
EF
102
{ACAD_REACTORS
330
66
102
}
330
66
100
DictionaryVariables
280
     0
  1
STANDARD
  0
DICTIONARYVAR
  5
89
102
{ACAD_REACTORS
330
66
102
}
330
66
100
DictionaryVariables
280
     0
  1
STANDARD
  0
DICTIONARYVAR
  5
1B7
102
{ACAD_REACTORS
330
66
102
}
330
66
100
DictionaryVariables
280
     0
  1
Imperial24
  0
DICTIONARYVAR
  5
1B8
102
{ACAD_REACTORS
330
66
102
}
330
66
100
DictionaryVariables
280
     0
  1
Imperial24
  0
DICTIONARYVAR
  5
67
102
{ACAD_REACTORS
330
66
102
}
330
66
100
DictionaryVariables
280
     0
  1
2
  0
DICTIONARYVAR
  5
6B
102
{ACAD_REACTORS
330
66
102
}
330
66
100
DictionaryVariables
280
     0
  1
1
  0
DICTIONARYVAR
  5
152D
102
{ACAD_REACTORS
330
66
102
}
330
66
100
DictionaryVariables
280
     0
  1
0
  0
DICTIONARYVAR
  5
14D
102
{ACAD_REACTORS
330
66
102
}
330
66
100
DictionaryVariables
280
     0
  1
0
  0
DICTIONARYVAR
  5
14E
102
{ACAD_REACTORS
330
66
102
}
330
66
100
DictionaryVariables
280
     0
  1
0
  0
DICTIONARYVAR
  5
152B
102
{ACAD_REACTORS
330
66
102
}
330
66
100
DictionaryVariables
280
     0
  1
2
  0
DICTIONARYVAR
  5
152A
102
{ACAD_REACTORS
330
66
102
}
330
66
100
DictionaryVariables
280
     0
  1
1
  0
DICTIONARYVAR
  5
152C
102
{ACAD_REACTORS
330
66
102
}
330
66
100
DictionaryVariables
280
     0
  1
127
  0
DICTIONARYVAR
  5
1578
102
{ACAD_REACTORS
330
66
102
}
330
66
100
DictionaryVariables
280
     0
  1
2
  0
DICTIONARY
  5
15BA
330
1AC
100
AcDbDictionary
280
     1
281
     1
  3
ACAD_XREC_ROUNDTRIP
360
15BB
  0
DICTIONARY
  5
157E
330
59
100
AcDbDictionary
280
     1
281
     1
  3
ACAD_XREC_ROUNDTRIP
360
157F
  0
DICTIONARY
  5
1580
330
5E
100
AcDbDictionary
280
     1
281
     1
  3
ACAD_XREC_ROUNDTRIP
360
1581
  0
DICTIONARY
  5
157C
330
22
100
AcDbDictionary
280
     1
281
     1
  3
ACAD_XREC_ROUNDTRIP
360
157D
  0
DICTIONARY
  5
188
330
97
100
AcDbDictionary
280
     1
281
     1
  3
ACAD_XREC_ROUNDTRIP
360
1584
  3
FBXASSET
360
189
  0
DICTIONARY
  5
186
330
96
100
AcDbDictionary
280
     1
281
     1
  3
ACAD_XREC_ROUNDTRIP
360
1583
  3
FBXASSET
360
187
  0
DICTIONARY
  5
110
330
98
100
AcDbDictionary
280
     1
281
     1
  3
ACAD_XREC_ROUNDTRIP
360
1585
  3
BUMPTILE
360
112
  3
DIFFUSETILE
360
111
  3
FBXASSET
360
18A
  3
OPACITYTILE
360
113
  3
REFLECTIONTILE
360
114
  0
DICTIONARY
  5
15A6
330
D8
100
AcDbDictionary
280
     1
281
     1
  3
ACAD_XREC_ROUNDTRIP
360
15A7
  0
DICTIONARY
  5
15B8
330
1AA
100
AcDbDictionary
280
     1
281
     1
  3
ACAD_XREC_ROUNDTRIP
360
15B9
  0
DICTIONARY
  5
104
330
87
100
AcDbDictionary
280
     1
281
     1
  3
ACAD_ROUNDTRIP_2008_TABLESTYLE_CELLSTYLEMAP
360
1579
  3
ACAD_XREC_ROUNDTRIP
360
1582
  0
DICTIONARY
  5
1590
330
9F
100
AcDbDictionary
280
     1
281
     1
  3
ACAD_XREC_ROUNDTRIP
360
1591
  0
DICTIONARY
  5
158E
330
9E
100
AcDbDictionary
280
     1
281
     1
  3
ACAD_XREC_ROUNDTRIP
360
158F
  0
DICTIONARY
  5
159C
330
A5
100
AcDbDictionary
280
     1
281
     1
  3
ACAD_XREC_ROUNDTRIP
360
159D
  0
DICTIONARY
  5
15A4
330
A9
100
AcDbDictionary
280
     1
281
     1
  3
ACAD_XREC_ROUNDTRIP
360
15A5
  0
DICTIONARY
  5
1596
330
A2
100
AcDbDictionary
280
     1
281
     1
  3
ACAD_XREC_ROUNDTRIP
360
1597
  0
DICTIONARY
  5
159A
330
A4
100
AcDbDictionary
280
     1
281
     1
  3
ACAD_XREC_ROUNDTRIP
360
159B
  0
DICTIONARY
  5
15AC
330
175
100
AcDbDictionary
280
     1
281
     1
  3
ACAD_XREC_ROUNDTRIP
360
15AD
  0
DICTIONARY
  5
15A2
330
A8
100
AcDbDictionary
280
     1
281
     1
  3
ACAD_XREC_ROUNDTRIP
360
15A3
  0
DICTIONARY
  5
1586
330
9A
100
AcDbDictionary
280
     1
281
     1
  3
ACAD_XREC_ROUNDTRIP
360
1587
  0
DICTIONARY
  5
1588
330
9B
100
AcDbDictionary
280
     1
281
     1
  3
ACAD_XREC_ROUNDTRIP
360
1589
  0
DICTIONARY
  5
158A
330
9C
100
AcDbDictionary
280
     1
281
     1
  3
ACAD_XREC_ROUNDTRIP
360
158B
  0
DICTIONARY
  5
158C
330
9D
100
AcDbDictionary
280
     1
281
     1
  3
ACAD_XREC_ROUNDTRIP
360
158D
  0
DICTIONARY
  5
1594
330
A1
100
AcDbDictionary
280
     1
281
     1
  3
ACAD_XREC_ROUNDTRIP
360
1595
  0
DICTIONARY
  5
15A8
330
173
100
AcDbDictionary
280
     1
281
     1
  3
ACAD_XREC_ROUNDTRIP
360
15A9
  0
DICTIONARY
  5
15A0
330
A7
100
AcDbDictionary
280
     1
281
     1
  3
ACAD_XREC_ROUNDTRIP
360
15A1
  0
DICTIONARY
  5
15AA
330
174
100
AcDbDictionary
280
     1
281
     1
  3
ACAD_XREC_ROUNDTRIP
360
15AB
  0
DICTIONARY
  5
1598
330
A3
100
AcDbDictionary
280
     1
281
     1
  3
ACAD_XREC_ROUNDTRIP
360
1599
  0
DICTIONARY
  5
15B6
330
182
100
AcDbDictionary
280
     1
281
     1
  3
ACAD_XREC_ROUNDTRIP
360
15B7
  0
DICTIONARY
  5
15B4
330
181
100
AcDbDictionary
280
     1
281
     1
  3
ACAD_XREC_ROUNDTRIP
360
15B5
  0
DICTIONARY
  5
15AE
330
17E
100
AcDbDictionary
280
     1
281
     1
  3
ACAD_XREC_ROUNDTRIP
360
15AF
  0
DICTIONARY
  5
15B0
330
17F
100
AcDbDictionary
280
     1
281
     1
  3
ACAD_XREC_ROUNDTRIP
360
15B1
  0
DICTIONARY
  5
159E
330
A6
100
AcDbDictionary
280
     1
281
     1
  3
ACAD_XREC_ROUNDTRIP
360
159F
  0
DICTIONARY
  5
1592
330
A0
100
AcDbDictionary
280
     1
281
     1
  3
ACAD_XREC_ROUNDTRIP
360
1593
  0
DICTIONARY
  5
15B2
330
180
100
AcDbDictionary
280
     1
281
     1
  3
ACAD_XREC_ROUNDTRIP
360
15B3
  0
XRECORD
  5
15BB
102
{ACAD_REACTORS
330
15BA
102
}
330
15BA
100
AcDbXrecord
280
     1
102
DISPLAYNAME
  1
Imperial24
102
FLAGS
 90
        0
  0
XRECORD
  5
157F
102
{ACAD_REACTORS
330
157E
102
}
330
157E
100
AcDbXrecord
280
     1
102
SHADEPLOT
 70
     0
102
SHADEPLOTRESLEVEL
 70
     2
102
SHADEPLOTCUSTOMDPI
 70
   300
  0
XRECORD
  5
1581
102
{ACAD_REACTORS
330
1580
102
}
330
1580
100
AcDbXrecord
280
     1
102
SHADEPLOT
 70
     0
102
SHADEPLOTRESLEVEL
 70
     2
102
SHADEPLOTCUSTOMDPI
 70
   300
  0
XRECORD
  5
157D
102
{ACAD_REACTORS
330
157C
102
}
330
157C
100
AcDbXrecord
280
     1
102
SHADEPLOT
 70
     0
102
SHADEPLOTRESLEVEL
 70
     2
102
SHADEPLOTCUSTOMDPI
 70
   300
  0
XRECORD
  5
1584
102
{ACAD_REACTORS
330
188
102
}
330
188
100
AcDbXrecord
280
     1
102
MATERIAL
148
0.0
149
0.0
149
0.0
 93
        0
 94
       63
282
     0
 72
     1
 77
     1
171
     1
175
     1
179
     1
273
     0
  0
XRECORD
  5
189
102
{ACAD_REACTORS
330
188
102
}
330
188
100
AcDbXrecord
280
     1
 70
     1
 90
429727718
  1
508B35C9-AEE7-456F-BE74-D52651303AC6
310
504B03040A0000080000B670623B3DEE336E79000000790000001B0000006175746F6465736B2D64657369676E2D7061636B6167652E786D6C3C3F786D6C2076657273696F6E3D22312E302220656E636F64696E673D227574662D3822203F3E3C666F726D6174733E3C666F726D61743E687474703A2F2F736368656D612E
310
6175746F6465736B2E636F6D2F64657369676E2D7061636B6167652F323030393C2F666F726D61743E3C2F666F726D6174733E504B0304140006080800B670623BD486FD9CA0000000F4000000130000005B436F6E74656E745F54797065735D2E786D6C7D8EC10E82300C865F65E91D8A1E8C310C0EEA1BF002731658846E
310
D98AC1B77784ABF1D8FE5FBFBF75BBCE937A534CCEB38643598122B6FEE978D0B0485F9C41B54DDD7D022595594E1A469170414C76A4D9A4D207E29CF43ECE46F218070CC6BECC4078ACAA135ACF422C856C0E68EA1BF5669944DDD7BCDE7B1F8E415D77AECB980613C2E4AC91FC167A2B244592486606FC29C8FD7F045B9A
310
EF7053A7E60B504B0304140006080800B670623B28ED286BEB0000007C01000008000000636F72652E786D6C8D90416EC3201045AF82665B6183218D6D61A254764FD00B204C5C94182C03558F5F9C3852BBEB6A467FFE9B197D71FA9E6FE8CBACC17AD7012D0820E3B41FAD9B3A48F1826B40272956EFE32F1B20A766D3C1
310
268314D3EAD3B24BDABB685CCCAAF3A3D94515828980F42D371D04FD696655A814B3235C8B45E9AB9A4C419F5D8653B2237A1CB163DE672FD6AC209BF3C08E0D1B30EB19C3FC9D72FCC6EB231EFA33EDE96BDD341517E5064B11EDFCBCAF57A3A2194156843498524CAA0FCA5B7268F9E185D42D21A2DCEC7FA0B48CFF8492
310
759155FBBB0F2C80A4F991FB408A72CB22977B50B96EB9C91F504B0304140006080800B670623B55019EA25F0000007C00000007000000636E782E786D6C4DCB3B0E80201045D1AD90E915ED2CF8AC45050C11660C8261F98AB1B07AC9C97D42D718D865D3E909258CFD00CCE24AC6E326A164D74DC0B4128928FF32603847
310
2BA13128B1252AC747C6BAB984FC68F0B87FE8960A5C09FE86CFB69FBA01504B0304140006080800B670623B7BC41AC871010000D40300000C0000006662782F636F72652E786D6CC553ED6E8320147D15C2DF4501B56B6D90A64BBB27D80B50A5CE54C120983EFEAE1F4DD7A56BBA5FF3879273EEE59E7310BE393735EA95
310
ED2AA333CC428A91D2B9292A5D66D8BB63B0C26823B835C67D2BC348CB46657880B1E0A535BE9DA1DC68A7B403549B42CDA0EC3AE530CA6B5864B8CB3F552343E91D5474A7B095F949962A6421D0502778E72C0840D390E18DC5F170E664C205F7BE2A66B62A605A75AC94C522DDEEE3651AEF837817C741F2CE92E02D592D
310
83FD6ECB76EC7595A651C2C9D02CB8AB9A8BBADC2AE954814544691A3016D0E883256BBA58278B17BA5A53CAC9507ED3E4DBE2C9265F691747B3DCA9ADC382819091F8E1162272A8933DE82182932144F88C09DF060D8140C84E1EEA8B8F1340BDCA9DB1093085F157AA97B557309586747CD0EF0B4EA64E983A6E0EAEEFCE
310
889E9EF17847386AA94B30211D2C0FDE0D3AF9A4610EAD5536E8DD1969631B593F67E381C33F5157F17725E5A636F6BF1491F980C8FC7B90E13E8A2F504B0304140006080800B670623B70102A487D0000009D0000000B0000006662782F636E782E786D6C4DCCD10A83201886E15B91FFDC95A5C30335ACCDFB886521330D
310
A76397BF1A1DECE883878F57749FD5A3B74D2F17830472A901D9F088930B8B849267CC01754AA418F3DF0D5018572BE160506249B16C274D761E8BCFBB7A179E27F65CB39A0F14D396184C9921B81F34C3ACA1B4B99ABB6E6F062A25AA5F69DF23ACBE504B0304140006080800B670623B3610CA3329010000120200003100
310
00006662782F42384135303843342D343331462D343546312D424341352D3532343432364645413344462F636F72652E786D6C8D515B6EC32010BC0AE22B55850D0E446E848992B43E412FE000495162B07854397EA176A4F62F3F2C9A9D991D58BEBB8F37F0AD7D30CE76905418026DA553C65E3A98E219B510EC04F7CEC5
310
3F3408EC30EA0E16180A7EF12E4D0B249D8DDAC68C5AA7F4020E21E80881BCE54B0783FCD2E3500D296646B856D320AFC34557A4CAEDCC133C449F0380794839A138B47B86DB2345744D7A44594FD0E1B867883594369BFE63BF7EEF793D0B054FC9A8456E548E63CE46FB674D8A58F068C6477CE9F510B582A2C1F80D1182
310
70F349E816B32D65AFB8DD62CCEB42FF274A937A52948C8DEB66893BCB021484D7734370E5D2E9F608A3EF93F3119479ABA0E50B14B8C298119A43CCC4FCFCECB8A18B6388CEE7EF5D5D4F994BD86CBBA182D76543B9FCAE2FD7B24DF103504B0304140006080800B670623B1B8617914E0100003303000030000000666278
310
2F42384135303843342D343331462D343546312D424341352D3532343432364645413344462F636E782E786D6CD593C16EC32010447F0571AD6CE3D489D20813A9877E410FBD62D82434182CC055F3F75D1292E692438FBD206B7698593D61BEFD1E2DF982108D773D6D6B460938E5B571FB9ECE6957AD29D90A1EBC4F7736
310
4A9C1CA1A759A682EF839FA72269D8C9D92654AD71C72206887E0E0A22CAF926B15E498B01E0AA19451807D01A34B919F16B070157417138917400F2F6FA41FCF0092A45DEE414C19BDC21783E4BD39D891265658C3D8DEA00A3ACE59CBC8678ACB54CB26EEB6BD7839D7E9348BE70AD9C8321B9BCA7F9A4A26C542347DEE0
310
50F09802D22BA6749A800A394DD62899107273365E3C82CFC6A55557BC06C10774B7ABE7AEC3B0F34CF06446280E154026D0542C187BA9DAB6628BF7B6DBB0E5A65B3EB1F58631DE64BBE083F7B65CC218087E22CABB042E51D1F2268F1FE12B3EA24D40D63E9CFE00120194D60B9D5BC67FE6D39CDF37E20AF817881F504B
310
0304140006080800B670623BBFEF2E3B690500003C100000340000006662782F42384135303843342D343331462D343546312D424341352D3532343432364645413344462F6F626A656374732E786D6CAD575D739B3814FD2B0CFB0C98D84E931D4227B6938EA793B6534F3BFB90198F0099B001899144EAECAFDF231018B0
310
D37A3FFC609090EEE7B94757C1FB7D915B2F54C88CB31BDB7727B64559CC938CA53776A576CE956DBD0F03C1B9EA2DB32D460A7A63EB693B0C52C1ABD24C257447AA5C8D66EF177F5832A68CDA569C13296F6C193FD182B8A4523CA1F2D94D88226EBADBBBBEDB2C1C8A4D05299F46424B222853B014F30C52ACC6287F389C
310
D85E1878FA7B18E87FB36AFAF62AAFF667A83F635211161F291B8999FAB3D5DDC5FCDA99CF6653677679E13B8BFBC5CAF1DF4D27CBCBE5F2FAF6EE1A8AA51290642C117467871F101B91C581D77CEA2C36869F3229E68CD1B8F61F1ED6361B89092D294B90C78C4A68EB793D190E7D1D9BDEE7A91E1B95FDE9F3BCEAEFE809
310
6A6D6F9F7D4B79F4275C90E7A04248AA51D5C4C738DAE06F72885AC4796EBE65D22A88A22223B995679120E2D50EB1542F098381188D4EA111AE3DB043FF20AF6F2B4AE3D7D83D65E5AECA730D4D3BAC91BD05FEA992B565D95F549CD6069B90AB2A63EACA38A45E4B6A87D781574F86817E4C2FCCC72690D62E2729520E37
310
9BAF234797BAF6D62B3BFC781FED37BA1E4F2B2F052FA9501A3E80569BB8F6A9A364D4FA67654E6F803383981F82F21591FF84F23D9882BC896C3FDBCF8C162508933B2E0AE4C69DD43F6BD2BE38DDDBF10BF86CB4FA784D37F3AF16075E67EC9030DECA1FC0A55373F5DFF3378C591FA9BDF485C10B0A8C8BA909E5262639
310
A8E72163488806A595734C81CB77D1DE0ED7604A303B76913CEC0272F412782FF88EFF4636D8AA56DF7B322474C4B767303F625997056C7B032C473C592B36CEBD15F3F9FF5233B7ABCDC74D257624A60F8658567497B14CE1EC3C80B76FD02011038F9EE9EB0F2E12387A9C844D3F09855125116D1D731DF8B43D2CF4E0A0
310
79A020C6BE946BCE0B7EA1E1219331CD73C228AF5A2DDD31A4B1DA918CE91350854D40A71723140BFA92E94E62B0626016CEFA5864A50E5977E8753CEDBEE1CBB7F52780D20E17AF0BA0F5F9B02A3AD07DCC732EB6D1EBB661421BE0C39E21BABF0FE16D22EA6929407C8DE596724C88B749B6DB5512BC7B228ADFD7CB7EA6
310
3A22397E690BA8D5D8D4E40CEC8CDA23C2C0B7D5898640101CEC9C6D331CE328CB93CAFBBAC70A642DF70DF95155945B52F08AA973C23469FD69ADEF84F7BB18F983A8F8C90E37F5D35980B2139A1C523540813E824EF83448CF7C72B598CE97D7CEEDDDDD3B6736BFBC771677EF66CE6A7E7139F7A793E9EDF2B2B3A8B624
310
0CDA13AA5F8388264EC4A0129909F3B7F5A16CEDF08128E97D680ACA4B9BE7B7B58BB638F0B00700EF36AE8B32A705658A68F83EE897FC2B41573190D1CCAF0B92D233A47CFEB019D9809933F67DD1A5467F8CF69AD9A5AE859342D45355448C64F968A371DC2D596ADC6E43D93D1B466F877A64E2893E54F23C4B40388995
310
525E5005DA3983ED45412510D3EFCA13737B3863F74BD30F2A12E5B4B5E489A025CE25500DB855B11ACE5BBFA185D35DD48D8DC3CE7DC69F2944DB42AA6F6CF09BCA622ADD08C7A36E7C6AE18000BAB08E040135C2D21C9D75B3A91B77BB746C403F38018DFE6EC939DD92F16B40BC05294B9CDA035AAD6D330AE27FE4786B
310
8E45145EA34A75BE1C263A676A35A8ACC6297337400BF16C54EF515F3F77CB77EB3583889C754FFA29081AA98E2222ADEF05DA3E63D2EDEA8B8756C05A7FB6CABC4A91CBF325398202CC952E70A008A830324BA200D5E5EF8F5F04C75DB4B0EE3340E071C98B823333B83577596BF3849B69F2085AA0FAFA212F26BEFF5877
310
FDE622B28D88A42E49E43326DA82D31E8CB006401E1DA726059ECEC168F97A6599036306A135688F9AD2E61A6EA178F4CD51974A9F2CCB9F36FE5EBD14601068D9C3BF01504B0304140006080000B670623B000000000000000000000000350000006662782F42384135303843342D343331462D343546312D424341352D35
310
32343432364645413344462F76657274696365732E62696E504B0304140006080800B670623BF270F1330600000004000000360000006662782F42384135303843342D343331462D343546312D424341352D3532343432364645413344462F747269616E676C65732E62696E636660600000504B0304140006080000B67062
310
3B000000000000000000000000370000006662782F42384135303843342D343331462D343546312D424341352D3532343432364645413344462F617474726962757465732E62696E504B0304140006080800B670623B08DA0BD19000000041010000360000006662782F42384135303843342D343331462D343546312D4243
310
41352D3532343432364645413344462F6469726563746F72792E786D6C858F410AC3201045AF22B36F53E9A60B35CBEEBAE80D244E44489C6234F4F835464A48035D0DF398FF9F8AF63D0E6CC63039F212F8F9020C7D47C6792B21C5FE7403D62A1188E2E60C98D7234A5830286103A55745067B9D86B8A3CF9C7F90C11DE6
310
07FB144396D7B6A82D282E9A152AD114D5EF2CB866EEE831B8EEA07A7BB5A8D7D61A2BAAEB7FD5F70921FF497D00504B0304140006080800B670623B3B4606F3FE000000A00100003B0000006662782F42384135303843342D343331462D343546312D424341352D3532343432364645413344462F7265736F75726365732F
310
636F72652E786D6C8D504B6E833010BD0A9A6D65B08134808CA354A427E8052C332156828DFCA97AFC9A40A576D7CDCCE87D344F8F9FBEE647F689CE6B6B7A6039850C8DB2A336530F315C4903D94970676DF82583CCC8197B5861107C72362E3BA4AC096842428D1D7107A5F71820538F74F4E0D50D6799CB1892C2DFF345
310
AABB9C306779A2934E701F5C0A906D4FD609C2A1B7D129F4BCD858C163D4E3AED163FAA9AF1A1D88F67CA98E6D35906AA82A52BFB39ABCD5CD915C86331BD86BD3B665CD8BD52C78D0F34F46E550061C419494B6843142CB0F5677F4D0D58717DA7494F26295FF31C565FCA7296A13AA728FBBD93C0896823C09C18BB5AFB4
310
9E65A6BD762BBE01504B010214000A0000080000B670623B3DEE336E79000000790000001B00000000000000000000000000000000006175746F6465736B2D64657369676E2D7061636B6167652E786D6C504B01021400140006080800B670623BD486FD9CA0000000F40000001300000000000000000000000000B2000000
310
5B436F6E74656E745F54797065735D2E786D6C504B01021400140006080800B670623B28ED286BEB0000007C010000080000000000000000000000000083010000636F72652E786D6C504B01021400140006080800B670623B55019EA25F0000007C000000070000000000000000000000000094020000636E782E786D6C50
310
4B01021400140006080800B670623B7BC41AC871010000D40300000C00000000000000000000000000180300006662782F636F72652E786D6C504B01021400140006080800B670623B70102A487D0000009D0000000B00000000000000000000000000B30400006662782F636E782E786D6C504B01021400140006080800B6
310
70623B3610CA3329010000120200003100000000000000000000000000590500006662782F42384135303843342D343331462D343546312D424341352D3532343432364645413344462F636F72652E786D6C504B01021400140006080800B670623B1B8617914E010000330300003000000000000000000000000000D10600
310
006662782F42384135303843342D343331462D343546312D424341352D3532343432364645413344462F636E782E786D6C504B01021400140006080800B670623BBFEF2E3B690500003C10000034000000000000000000000000006D0800006662782F42384135303843342D343331462D343546312D424341352D35323434
310
32364645413344462F6F626A656374732E786D6C504B01021400140006080000B670623B0000000000000000000000003500000000000000000000000000280E00006662782F42384135303843342D343331462D343546312D424341352D3532343432364645413344462F76657274696365732E62696E504B010214001400
310
06080800B670623BF270F133060000000400000036000000000000000000000000007B0E00006662782F42384135303843342D343331462D343546312D424341352D3532343432364645413344462F747269616E676C65732E62696E504B01021400140006080000B670623B00000000000000000000000037000000000000
310
00000000000000D50E00006662782F42384135303843342D343331462D343546312D424341352D3532343432364645413344462F617474726962757465732E62696E504B01021400140006080800B670623B08DA0BD1900000004101000036000000000000000000000000002A0F00006662782F42384135303843342D3433
310
31462D343546312D424341352D3532343432364645413344462F6469726563746F72792E786D6C504B01021400140006080800B670623B3B4606F3FE000000A00100003B000000000000000000000000000E1000006662782F42384135303843342D343331462D343546312D424341352D3532343432364645413344462F72
310
65736F75726365732F636F72652E786D6C504B0506000000000E000E0080040000651100000000
  0
XRECORD
  5
1583
102
{ACAD_REACTORS
330
186
102
}
330
186
100
AcDbXrecord
280
     1
102
MATERIAL
148
0.0
149
0.0
149
0.0
 93
        0
 94
       63
282
     0
 72
     1
 77
     1
171
     1
175
     1
179
     1
273
     0
  0
XRECORD
  5
187
102
{ACAD_REACTORS
330
186
102
}
330
186
100
AcDbXrecord
280
     1
 70
     1
 90
429727718
  1
887D55A9-D0DD-414E-B741-A7DCD4DA2B4C
310
504B03040A0000080000B670623B3DEE336E79000000790000001B0000006175746F6465736B2D64657369676E2D7061636B6167652E786D6C3C3F786D6C2076657273696F6E3D22312E302220656E636F64696E673D227574662D3822203F3E3C666F726D6174733E3C666F726D61743E687474703A2F2F736368656D612E
310
6175746F6465736B2E636F6D2F64657369676E2D7061636B6167652F323030393C2F666F726D61743E3C2F666F726D6174733E504B0304140006080800B670623BD486FD9CA0000000F4000000130000005B436F6E74656E745F54797065735D2E786D6C7D8EC10E82300C865F65E91D8A1E8C310C0EEA1BF002731658846E
310
D98AC1B77784ABF1D8FE5FBFBF75BBCE937A534CCEB38643598122B6FEE978D0B0485F9C41B54DDD7D022595594E1A469170414C76A4D9A4D207E29CF43ECE46F218070CC6BECC4078ACAA135ACF422C856C0E68EA1BF5669944DDD7BCDE7B1F8E415D77AECB980613C2E4AC91FC167A2B244592486606FC29C8FD7F045B9A
310
EF7053A7E60B504B0304140006080800B670623BBC1638F5EC0000007C01000008000000636F72652E786D6C8D90416EC3201045AF82665B61836BE2D8C24471DB9CA01740401C94182C03558F5F9C3852BBEB6A467FFE9B197D7EF89E6EE8CB2CC17AD7032D0820E394D7D68D3DA478C67B4007C117EFE32F1B202727D3C3
310
2A83E0E3E2D3BC49CABB685CCCAAF3DA6CA20CC14440EA969B1E82BA98491632C5EC08D76296EA2A4753D06797E194AC468F2356E77DF66CCD02825543D50CACC62D39ED70FDC68EB8FD68F6F8787A6784342D1DDA1D2F5758F068A7E77DB518198D065111D2624A31A93E69DD11D6D5EC85EC3B4278B9DAFF4069D6FF8492
310
75F1B5DADE7D600104CD8FDC0782976B16B9DC83CA75CD4DFC00504B0304140006080800B670623B55019EA25F0000007C00000007000000636E782E786D6C4DCB3B0E80201045D1AD90E915ED2CF8AC45050C11660C8261F98AB1B07AC9C97D42D718D865D3E909258CFD00CCE24AC6E326A164D74DC0B4128928FF326038
310
472BA13128B1252AC747C6BAB984FC68F0B87FE8960A5C09FE86CFB69FBA01504B0304140006080800B670623B3586FFB671010000D40300000C0000006662782F636F72652E786D6CC553ED6E8320147D15C2DF4541A76D6D90A6DDD627D80B50A4CE54C120983EFEAE1F4DD7A55BBA5FF3879273EEE59E7310B6393735EA
310
95ED2AA3731C851423A5A5292A5DE6D8BB63B0C268C39935C67D29C3488B46E578803167A535BE9D2169B453DA01AA4DA16650749D7218C91A1639EEE4876A4428BC838AEE14B6429E44A9C228041AEA38EB9C0501681A32BC313F1ECE8C4C3867DE57C5CC56054CAB8E95B298A7F12E5EEED224C8E87E11242FE936C8DE96
310
AB60BB7F4D295D66D12E5B30323473E6AAE6A24E5A259C2A308F29CD82280A68FC1E256B9AAE93F489AED694323294DF34F9B678B0C957DA3DC7B3DCA9ADC33C022123F1CD2D44E450277AD04338234388F01913BE0D1A0281909D38D4171F27807A259DB1093085F157AA17B557309586747CD0CF0B46A64E983A6E0EAEEF
310
CE881F9EF1FB8E70D44297604238581EBC1B74B249C31C5AAB6CD0BB33D2C636A27ECCC62F0EFF445DC5DF95244D6DEC7F2922F30191F9F720C37DE49F504B0304140006080800B670623B4220A0FF7D0000009D0000000B0000006662782F636E782E786D6C4DCCD10A83201886E15B91FFDCE542CB0335D0EC3E6259C84A
310
C3E9D8E5AF46073BFAE0E1E315DD675BD1DBA5978F41C2FD4600B9F088930F8B849267CC01754AA418F3DF0D50183727E164506249B1EC174D6E1ECB9A0F5D7D785E68DB8151CD286E5A5363CA6B8A39E90D36D40E96B086F55A43A544F52B1D7B86D517504B0304140006080800B670623B2FA3FEDE290100001202000031
310
0000006662782F45374635344235342D363743322D343832342D383044432D4334454645303536354442422F636F72652E786D6C8D515B6EC32010BC0AE22B55850D2E386E848994D7097A0117488A1283C5A3CAF10BB523B57FF961D1ECCCECC0F2ED7DBC816FED8371B687A4C210682B9D32F6D2C314CFA883602BB8772E
310
FEA141608751F7B0C050F08B77695A20E96CD43666D43AA5177008414708E42D5F7A18E4971E876A483133C2B59A06791D2EBA22556E679EE021FA1C00CC43CA09C5717D6274C7286AD7FB06D1AEA1A8C3873DDAD3E3E98859CB0EBB1DAF67A1E02919B5C88DCA71CCD968FFAC49110B1ECDF8882FBD1EA256503418BF2342
310
106E3E08DD60B6A1EC15771B8C795DE8FF4469524F8A92B1F1AD59E2CEB20005E1F5DC105CB9F4797B84D1F7C9F908CABC55D0F2050A5C61CC1AD2F27A26E6E767C7962E8E213A9FBF7775FDCC5CC266DB960A5E970DE5F2BBBE5CCB36C50F504B0304140006080800B670623B1B8617914E01000033030000300000006662
310
782F45374635344235342D363743322D343832342D383044432D4334454645303536354442422F636E782E786D6CD593C16EC32010447F0571AD6CE3D489D20813A9877E410FBD62D82434182CC055F3F75D1292E692438FBD206B7698593D61BEFD1E2DF982108D773D6D6B460938E5B571FB9ECE6957AD29D90A1EBC4F77
310
364A9C1CA1A759A682EF839FA72269D8C9D92654AD71C72206887E0E0A22CAF926B15E498B01E0AA19451807D01A34B919F16B070157417138917400F2F6FA41FCF0092A45DEE414C19BDC21783E4BD39D891265658C3D8DEA00A3ACE59CBC8678ACB54CB26EEB6BD7839D7E9348BE70AD9C8321B9BCA7F9A4A26C542347DE
310
E050F09802D22BA6749A800A394DD62899107273365E3C82CFC6A55557BC06C10774B7ABE7AEC3B0F34CF06446280E154026D0542C187BA9DAB6628BF7B6DBB0E5A65B3EB1F58631DE64BBE083F7B65CC218087E22CABB042E51D1F2268F1FE12B3EA24D40D63E9CFE00120194D60B9D5BC67FE6D39CDF37E20AF817881F50
310
4B0304140006080800B670623B29652116630500003C100000340000006662782F45374635344235342D363743322D343832342D383044432D4334454645303536354442422F6F626A656374732E786D6CAD575D739B3814FD2B0CFB0C989834C90EA1639B24E3E9A6EDD4D3CE3E64C623834CD8006224913AFDF57B040203
310
B65BEF871F0C12D2FD3CF7E8CA7FBFCB33E3957291B2E2D674ED8969D02262715A24B76625B7D6B569BC0F7CCE98EC2D338D82E4F4D654D366E0279C55A59E8AE99654991CCDDECFFF3444440B6A1A514684B83545F44C7362934AB2988A173B2692D8C97667BB76B3702836E1A47C1E092D09A78584A5982F20C5688C7287
310
C389E904BEA3BE07BEFAD7ABA6A75739B53F43FD69212429A20365233153D70BEF2E2E6FAC4BCF9B5ADEBB0BD79ADFCF43CBBD9A4E16EF168B9BD9DD0D140BC921495BC2E9D60C1E101B9E46BED37CEA2CD6861F3329624541A3DA7F7858DBAC25C6B4A4458C3CA654405BCFEBC970E8AAD8F43E4FD558ABEC4F9FE7557F47
310
4F506B7BFBEC5BCA367FC105710E2AB8A00A554D7CB4A30DFE26FBA86D18CBF4B75418399194A72433B274C3097F33032C554B027F2046A1932B842B0FCCC0DDCBEBDB8AD2F835768F59B9ADB24C41D30C6A64AF817F2A456D59FA83F2E3DA60137255A585BCD60EC9B7929AC18DEFD49381AF1ED30BFDB109A4B1CD488294
310
C3CDE6EBC8D185AABD6568061FEE37BB95AAC7E3CA4BCE4ACAA5820FA0D526AE7DAA2869B5EE5999531BE0CC20E6FBA07C41E43FA27CF7A6206F3CDD793B4F6B919C1462CB788EDCD893FA674CDA17AB7B3B7C019F8D561FAEE966FED562DFE98C1D12C6A9FC015C2A35D7FF3D7FC398F591DA4B5FE0BFA2C0189FEA50AE22
310
92817A1ED3020951A03432862970F976B33383259812CC8E5D240BBA801CBCF8CE2BBEE3BF910DB6AAD5F79E05123AE2DB33981FB1ACCB02B69D00CB014FD68AB573A7627EF9BFD4CC2C5C7D58557C4B22FAA88925A4DBB44825CECE3D78FB060D1231F0E885BE7D673C86A3874958F593906B5502D1563157814FDAC3420D
310
F69A070A22EC4B98E23CFF171A1E5311D12C23056555ABA53B8614563B92D17D02AAB009E8F46284624E5F53D5490C560CCCC2591FF1B45421EB0EBD8EA7ED13BE7C5D7E0428CD60FEF60779EB13E6664FF711CB185F6FDED60D139A001FF60CD1FD6D086F1D51474901E26B2CB794A343BC8ED3EDB612E0DD2351FCB65CF4
310
33D511C9E14B5B40ADC6A6263DB0336A8F700DDF56271A024E70B0B3629DE21847591E55DED73D56206AB927E46FAABC5C939C55853C274C93D69FD6FA4E78BF8B11DF898C9ECD60553FAD39283BA6F18984AA23E8884F83F45C5F5F859797B31B2B9C84A1E5B9DE9D35BFF25C6B76152E422F9C5DCC3D847F5801ED09D5AF
310
41441327A25FF15487F9EB725FB666F048A4701E9A827292E6F97569A32DF61DEC01C0BB8DCBBCCC684E0B49147C1FD54BF685A0AB18C868E6973949E819523E3DAC463660E68C7D9F55A9D1EFA3BD7A76A16AE1A810F95CE59B82A4D968A376DC2E8B44BBDD86B27B368CDE0ED548C7137DA860591A83706223A12CA712B4
310
7306DBF39C0A20A6DF95C7FAF670C6EED7A61F946493D1D6926782963813403548A78AE470DEF80D2D9CEAA26E4D1C76F60BFE74219A06527D6B82DF641A51616F703CAAC6A7160E08A00BEB4810A0274592A1B36E3675E36E978A0DE80727A0D6DF2D39A75BD27E0D8837276589537B40ABB56D5A41F48F1C6FCD3188C4EB
310
A6929D2FFB89CE995A4D00AE813BDD032DC48B56BD437DFDDC2DD7AED70C2272D63DE9A72068A45A92F0A4BE17A8A06B9366E16707AD80B1FC649459952097E74BB23805982B55E0401150A165964402AA8BDF9F3E7386BB686EDCA780C0D382E5392BF460A6EFB2C6EA1937D3F809B440D5F5435C4C5CF7A9EEFAF54564BD
310
2182DA24162F98680B4E7930C21A0079709CEAEB99A372305ABE0C0D7D6078105A83F6A0296DAEE1068A47DD1C55A9F4C9B2FC69E3EFD44B81028E963DF81B504B0304140006080000B670623B000000000000000000000000350000006662782F45374635344235342D363743322D343832342D383044432D433445464530
310
3536354442422F76657274696365732E62696E504B0304140006080800B670623BF270F1330600000004000000360000006662782F45374635344235342D363743322D343832342D383044432D4334454645303536354442422F747269616E676C65732E62696E636660600000504B0304140006080000B670623B00000000
310
0000000000000000370000006662782F45374635344235342D363743322D343832342D383044432D4334454645303536354442422F617474726962757465732E62696E504B0304140006080800B670623B08DA0BD19000000041010000360000006662782F45374635344235342D363743322D343832342D383044432D4334
310
454645303536354442422F6469726563746F72792E786D6C858F410AC3201045AF22B36F53E9A60B35CBEEBAE80D244E44489C6234F4F835464A48035D0DF398FF9F8AF63D0E6CC63039F212F8F9020C7D47C6792B21C5FE7403D62A1188E2E60C98D7234A5830286103A55745067B9D86B8A3CF9C7F90C11DE607FB144396
310
D7B6A82D282E9A152AD114D5EF2CB866EEE831B8EEA07A7BB5A8D7D61A2BAAEB7FD5F70921FF497D00504B0304140006080800B670623B6378F24DFF000000A00100003B0000006662782F45374635344235342D363743322D343832342D383044432D4334454645303536354442422F7265736F75726365732F636F72652E
310
786D6C8D504B6E833010BD0A9A6D65B0094E42641C85B639412F6099496225D8C89FAAC7AF09546A77DDCC8CDE47F3F4C4F16B7C149FE88371B603565228D06A37187BED20C50BD9437194C23B177FC9A0B06AC40E6618A4B87A97A615D2CE46B431A3D60DB8822A048C50E8473E3A08FA86A32A558A5911EEE5A4F45D5DB1
310
6465A6B34E8A107D0E502C4FE609D26370C96B0CA25A58295232C3AA3143FE692E063D485EF7F5AEE71BD2D2F39634AFFC44DAF7DD9E9CCE6F9CD25DCBFA762BAAD92C4534E34F46ED51451C40D694B6843142EB0FD61C283F34FC85EE0F948A6A96FF31A569F8A729191B37F51A77B105902C0779125254735F793DCBCC7B
310
EE567E03504B010214000A0000080000B670623B3DEE336E79000000790000001B00000000000000000000000000000000006175746F6465736B2D64657369676E2D7061636B6167652E786D6C504B01021400140006080800B670623BD486FD9CA0000000F40000001300000000000000000000000000B20000005B436F6E
310
74656E745F54797065735D2E786D6C504B01021400140006080800B670623BBC1638F5EC0000007C010000080000000000000000000000000083010000636F72652E786D6C504B01021400140006080800B670623B55019EA25F0000007C000000070000000000000000000000000095020000636E782E786D6C504B010214
310
00140006080800B670623B3586FFB671010000D40300000C00000000000000000000000000190300006662782F636F72652E786D6C504B01021400140006080800B670623B4220A0FF7D0000009D0000000B00000000000000000000000000B40400006662782F636E782E786D6C504B01021400140006080800B670623B2F
310
A3FEDE290100001202000031000000000000000000000000005A0500006662782F45374635344235342D363743322D343832342D383044432D4334454645303536354442422F636F72652E786D6C504B01021400140006080800B670623B1B8617914E010000330300003000000000000000000000000000D2060000666278
310
2F45374635344235342D363743322D343832342D383044432D4334454645303536354442422F636E782E786D6C504B01021400140006080800B670623B29652116630500003C10000034000000000000000000000000006E0800006662782F45374635344235342D363743322D343832342D383044432D4334454645303536
310
354442422F6F626A656374732E786D6C504B01021400140006080000B670623B0000000000000000000000003500000000000000000000000000230E00006662782F45374635344235342D363743322D343832342D383044432D4334454645303536354442422F76657274696365732E62696E504B01021400140006080800
310
B670623BF270F13306000000040000003600000000000000000000000000760E00006662782F45374635344235342D363743322D343832342D383044432D4334454645303536354442422F747269616E676C65732E62696E504B01021400140006080000B670623B0000000000000000000000003700000000000000000000
310
000000D00E00006662782F45374635344235342D363743322D343832342D383044432D4334454645303536354442422F617474726962757465732E62696E504B01021400140006080800B670623B08DA0BD190000000410100003600000000000000000000000000250F00006662782F45374635344235342D363743322D34
310
3832342D383044432D4334454645303536354442422F6469726563746F72792E786D6C504B01021400140006080800B670623B6378F24DFF000000A00100003B00000000000000000000000000091000006662782F45374635344235342D363743322D343832342D383044432D4334454645303536354442422F7265736F75
310
726365732F636F72652E786D6C504B0506000000000E000E0080040000611100000000
  0
XRECORD
  5
1585
102
{ACAD_REACTORS
330
110
102
}
330
110
100
AcDbXrecord
280
     1
102
MATERIAL
148
0.0
149
0.0
149
0.0
 93
        0
 94
       63
282
     0
 72
     1
 77
     1
171
     1
175
     1
179
     1
273
     0
  0
XRECORD
  5
112
102
{ACAD_REACTORS
330
110
102
}
330
110
100
AcDbXrecord
280
     1
270
     1
271
     1
  0
XRECORD
  5
111
102
{ACAD_REACTORS
330
110
102
}
330
110
100
AcDbXrecord
280
     1
270
     1
271
     1
  0
XRECORD
  5
18A
102
{ACAD_REACTORS
330
110
102
}
330
110
100
AcDbXrecord
280
     1
 70
     0
 90
1778669749
  1
9BF507EE-FAF7-4A99-A33D-4EE51894BC40
310
504B03040A0000080000B670623B3DEE336E79000000790000001B0000006175746F6465736B2D64657369676E2D7061636B6167652E786D6C3C3F786D6C2076657273696F6E3D22312E302220656E636F64696E673D227574662D3822203F3E3C666F726D6174733E3C666F726D61743E687474703A2F2F736368656D612E
310
6175746F6465736B2E636F6D2F64657369676E2D7061636B6167652F323030393C2F666F726D61743E3C2F666F726D6174733E504B0304140006080800B670623BD486FD9CA0000000F4000000130000005B436F6E74656E745F54797065735D2E786D6C7D8EC10E82300C865F65E91D8A1E8C310C0EEA1BF002731658846E
310
D98AC1B77784ABF1D8FE5FBFBF75BBCE937A534CCEB38643598122B6FEE978D0B0485F9C41B54DDD7D022595594E1A469170414C76A4D9A4D207E29CF43ECE46F218070CC6BECC4078ACAA135ACF422C856C0E68EA1BF5669944DDD7BCDE7B1F8E415D77AECB980613C2E4AC91FC167A2B244592486606FC29C8FD7F045B9A
310
EF7053A7E60B504B0304140006080800B670623BCA089DFFEC0000007C01000008000000636F72652E786D6C8D90416E83301045AF62CDB632D8402020E32882F604BD80653BC44AB011B6AB1EBF262152BBEB6A467FFE9B197D76FA9EEFE84BAFDE38DB03CD08206DA553C64E3DC470C1474027CE56E7C22F1B202B66DDC3
310
260367D3EAE2B24BD2D9A06D48AA754AEFA2F05E0740F29E9A1EBCBCEA59642286E4F0B76C11F226269DD15797E0188D42CF2346A57DE662F40ABCAEC77628C6120F654571D50C04B7F5B9C1E3997CD4F550BE3745C3F20DE62C98F9755FAE5A04AD801784B498524C8A4F5A75E4D055873772EC0861F966FF03C545FD138A
310
C686B2D8DF7D621E384D8F3C069CE55B16A93C824A75CB8DFF00504B0304140006080800B670623B55019EA25F0000007C00000007000000636E782E786D6C4DCB3B0E80201045D1AD90E915ED2CF8AC45050C11660C8261F98AB1B07AC9C97D42D718D865D3E909258CFD00CCE24AC6E326A164D74DC0B4128928FF326038
310
472BA13128B1252AC747C6BAB984FC68F0B87FE8960A5C09FE86CFB69FBA01504B0304140006080800B670623B68FC0B7272010000D40300000C0000006662782F636F72652E786D6CC5535B6E833010BC8AE5DF0A6C1E8124328E22D29EA01770C0A128602363A31CBFCB234A53A555FA553EC09AD9F5CE8C31DB5DDA060D
310
D2F4B556190E7C8A9154852E6B5565D8D993B7C668C799D1DA7E29C3488956667884316795D1AE5BA0422B2B950554E9522EA0E87B69312A1A5864B82F3E642B7CE12C54F467BF13C55954D20F7CA0A18EB3DE1A1080E621E31BF3D3F1C2C88C73E65C5D2E6C5DC2B4FA544B8379921C36797888BC3C8A032F4E73EA6D927D
310
EA1DF6F42D49F2E8350D5346C666CE6CDD5ED515460A2B4BCC434A375E1078347C0FE22D5D6DE3D50B5D6F2965642CBF6B725DF96493AB958DC245EEDCD6631E809089F8E61622B2A81703E8219C913144F84C09DF070D8140C8561C9BAB8F3340832CAC363130A576376A108D933095FA747AD0CF0B46E64E983A6D0EAE1F
310
CE089F9EF1FB8E70D44255604258581E9D1D75B259C3125A278D37D80B52DAB4A279CEC62F0EFF44DDC43F9454E8469BFF5244960322CBEF41C6FBC83F01504B0304140006080800B670623B0F71DDB67E0000009D0000000B0000006662782F636E782E786D6C4DCCD10A83201886E15B91FFDCA54DB73F502386BB8F5816
310
32D3703976F9ABD1C18E3E78F87855FB990379BBFCF2296AE02706C4C5471A7C9C349475A408A4352AA7B4FEDD80C47E761A7606A3A69CCA72D0E0C6BE8475D3E0E3F3409428EA6B27A84079A782899AA2EC1A7AE3ECCC2FD858CB2D544655BFD2B67BD87C01504B0304140006080800B670623BE134B4FB28010000120200
310
00310000006662782F38353834323741342D343835462D343034322D383541392D4331303331363839454531452F636F72652E786D6C8D515B6EC32010BC0AE22B55850D0EA424C24451959EA0172086A42831583CAA1CBF503B52FB971F16CDCECC0EACD8DFC71BF836215AEF7A481A0C817183D7D65D7A98D3197108F652
310
04EFD31F1A044E8DA6871586525C82CFD3020DDE25E352419DD76601558C264130DCCAA58771F832A36A544E8511AFCDA486ABBA988634A55D7852C4144A00300FA927949C71DABD1D28A29C7D208A6987383B6CD13BC16BB2E1DBE3911C453B0BA5C8D9EA456E758963CFD684674DAA588A64C747FC2118958C86B2C3788B
310
0841B8FB247487D98EB257CC77188BB6D2FF89F2A49F1465EBD2BA5BE2CEB2082511EDDC9042FB7CBA3DC298FBE4430275DE2A9AE1054ADC60CC08E3A29D89E5F9C5714317C7987C28DFBBBA9E0A97B0D97643A568EB864AF95D5FA9759BF207504B0304140006080800B670623B1B8617914E010000330300003000000066
310
62782F38353834323741342D343835462D343034322D383541392D4331303331363839454531452F636E782E786D6CD593C16EC32010447F0571AD6CE3D489D20813A9877E410FBD62D82434182CC055F3F75D1292E692438FBD206B7698593D61BEFD1E2DF982108D773D6D6B460938E5B571FB9ECE6957AD29D90A1EBC4F
310
77364A9C1CA1A759A682EF839FA72269D8C9D92654AD71C72206887E0E0A22CAF926B15E498B01E0AA19451807D01A34B919F16B070157417138917400F2F6FA41FCF0092A45DEE414C19BDC21783E4BD39D891265658C3D8DEA00A3ACE59CBC8678ACB54CB26EEB6BD7839D7E9348BE70AD9C8321B9BCA7F9A4A26C542347
310
DEE050F09802D22BA6749A800A394DD62899107273365E3C82CFC6A55557BC06C10774B7ABE7AEC3B0F34CF06446280E154026D0542C187BA9DAB6628BF7B6DBB0E5A65B3EB1F58631DE64BBE083F7B65CC218087E22CABB042E51D1F2268F1FE12B3EA24D40D63E9CFE00120194D60B9D5BC67FE6D39CDF37E20AF817881F
310
504B0304140006080800B670623B5933D422630500003B100000340000006662782F38353834323741342D343835462D343034322D383541392D4331303331363839454531452F6F626A656374732E786D6CAD575B6FA33814FE2B887D0642934E9B156594264D158D3A534DD4D13E548A0C38942D60649B4EBABF7E3F8321
310
40924EF6928780CDF1B97EE762EFF32E4B8D37CA45C2F21BD3B547A641F39045491EDF98A5DC5AD7A6F1D9F73863B243661A39C9E88DA9B64DDF8B392B0BBD15D12D295339D85DDEFE618890E6D434C2940871638AF08566C426A5641115AF764424B1E3EDCE76ED9AB0CF36E6A47819302D08A7B984A6D8CFC1C5A89572FB
310
CB91E9F89EA3BEFB9EFAD754E3D3544E654F5F7E920B49F2F040D880CDD89D2CEE2E2EA7D6E56432B6269F2E5CEB7679BBB0DCABF168FE693E9FCEEEA6102C240727AD09A75BD3BF876F78127A4EFDA9D5582B7E4CA590E5390D2BFB6161A5B3E618D182E611E2985001691DAB47FDA5AB7CD3F93C566B2DB2BB7D9E55DD13
310
1D468DEECDB3AB290BFE8409E21C54704115AA6AFF68436BFC8DF65E0B184BF5B74418199194272435D224E084BF9B3E481589EFF5D828747285706581E9BB7B7E5D5D911ABFC6EE312DB7659A2A689A7E85EC0DF04FA5A8344BFEA2FCB834E8845895492EAFB541F2BDA0A63FF59C6AD3F7D4637CA13FD68E34B629891172
310
98597F1D183A57B9B75A98FE9765B05BAB7C3C2EBCE0ACA05C2AF8005A4DE09AA7F29216EB9E15397500C6F47CBE77CA7778FE2BD277AF0AE2C693DD6437D1522427B9D8329E2136F6A8FA19A3E6C56ADF0E5F50CF06D48734EDCEBF22F69C56D97EC138153F804B85E6FABFC7AFEFB32E523BE1F3BD372418E363EDCA7548
310
52949E8724474014288D94610BB57C1BEC4C7F854A89CA8E5324F55B871CBC78CE1BBEE3BFE68D6A5589EF3C730474506FCFA8FCF0659516D0ED04580EEA6425581B77CAE797FF4BCECC16EB2FEB926F49481F746159D06D922712BD730FDEAE42BD40F42C7AA5EF3F198F60E86110D6DD20645A9480B795CF95E3E3A659A8
310
C55E724F408873315335CFFB8584874484344D494E59D94869DB90C26A5B64F49C802CAC1D3ABE18A098D3B7444D123D8A9E5AE8F5214F0AE5B2B6E9B575DA3E61CBD3EA2B4009FA940524DD1305FB6A1FB294F14DF0BEA90BA109ECE1481FDC3FFAE8D60E75141700BE82725371B4873751B2DD960265F788137FACE6DD40
310
B575E4F0A5C99F46629D92131467A41EE11ABD8D4CCC039CA0AFB37C93A08B232B8F0AEFCA1E0A1015DF13FC83322B362463652ECF71D3A8B1A7D1BE65DE1D62C44F22C317D35F574FEB16153BA2D13E543D10A80E74C4A65E78A6B7CBCBD1D5DD9DB59C2DAFACC96C3AB566E3F1C29ADCDD5DBAD7D3C9ED7C822ED74F80A6
310
41755310DE4443F44A9E68373FADF6596BFA0F440AE7BECE2727AE9F4F2B1B53B1E7E00CF0DD1E5C65454A339A4BA2D0FBA05ED2EF0443458F47BDBFCA484CCFE0F2ED7E3DD0013B679C7B5499467F0ECEEADDB9CA85A34CE44B99053949D2C1416DB85DE4B136BB7165FBAC0B7AB3542BED4F8CA182A549847A1319316519
310
95A83A67147B9E5101C47487F2485F1ECE38FD568F839204296D3479219888530154036E6528FBFBC66F98E0D4107563A2D7D9AFF8D389681A08F58D89F22693900A3B407754734FC51C10C010D6D640809EE4718AC1BA3ED4AEDB53CA37283F68805A7E4B72CEB0A4EDEAD5DD8C14059A76AFAA56BA6901E13F32BC51C720
310
12AF41295B5BF61BAD3195181FB506E6B40F4C10AF5AF40EF9F5B159AE5DD1F43C72D635E94310D45C2D49785C5D0B94D3B54AB3C5A38349C0587D338AB48C11CBF339599C02CCA54A70A008A8D03C0B2201D5F9EFCF8F9CE12A9A19CB0410789EB32C63B95ECCF455D658BFE0621A3DA32C5075FB101723D77DAE867E7D0F
310
D90444509B44E2151B4DC2290B065803200FBAA9BE9D392A0603F2D5C2D00D6302A615680F66D2FA166E2079D4C551A54AB758161FCEFD4E450A14704CECFEDF504B0304140006080000B670623B000000000000000000000000350000006662782F38353834323741342D343835462D343034322D383541392D4331303331
310
363839454531452F76657274696365732E62696E504B0304140006080800B670623BF270F1330600000004000000360000006662782F38353834323741342D343835462D343034322D383541392D4331303331363839454531452F747269616E676C65732E62696E636660600000504B0304140006080000B670623B000000
310
000000000000000000370000006662782F38353834323741342D343835462D343034322D383541392D4331303331363839454531452F617474726962757465732E62696E504B0304140006080800B670623B08DA0BD19000000041010000360000006662782F38353834323741342D343835462D343034322D383541392D43
310
31303331363839454531452F6469726563746F72792E786D6C858F410AC3201045AF22B36F53E9A60B35CBEEBAE80D244E44489C6234F4F835464A48035D0DF398FF9F8AF63D0E6CC63039F212F8F9020C7D47C6792B21C5FE7403D62A1188E2E60C98D7234A5830286103A55745067B9D86B8A3CF9C7F90C11DE607FB1443
310
96D7B6A82D282E9A152AD114D5EF2CB866EEE831B8EEA07A7BB5A8D7D61A2BAAEB7FD5F70921FF497D00504B0304140006080800B670623BD9A3B367FE000000A00100003B0000006662782F38353834323741342D343835462D343034322D383541392D4331303331363839454531452F7265736F75726365732F636F7265
310
2E786D6C8D504B6E833010BD0A9A6D65B01D0201194711694FD00B586642AD043BF2A7EAF16B122AB5BB6E6646EFA3797AE2F8B5DC8A4FF4C1383B002B291468B59B8C9D0748F1420E501CA5F0CEC55F3228AC5A708015062966EFD27D83B4B3116DCCA875136EA00A012314FA968F0182FEC045952AC5AC08D7F2AEF455CD
310
58B232D3592745883E07289E4FD609D26370C96B0CA27AB252A464A64D63A6FCD35C0C7A904D73EE467EE664DCD58CD4ED4849D79C5A723ED1B7A61977AF2D6F45B59AA58866F9C9A83DAA8813484E6947182394BFB3BAA7FBBEDEBFD0434FA9A856F91F53BA4FFF342563E38E6F719FB60092E5200F428A6AED2BAF479979
310
AFDDCA6F504B010214000A0000080000B670623B3DEE336E79000000790000001B00000000000000000000000000000000006175746F6465736B2D64657369676E2D7061636B6167652E786D6C504B01021400140006080800B670623BD486FD9CA0000000F40000001300000000000000000000000000B20000005B436F6E
310
74656E745F54797065735D2E786D6C504B01021400140006080800B670623BCA089DFFEC0000007C010000080000000000000000000000000083010000636F72652E786D6C504B01021400140006080800B670623B55019EA25F0000007C000000070000000000000000000000000095020000636E782E786D6C504B010214
310
00140006080800B670623B68FC0B7272010000D40300000C00000000000000000000000000190300006662782F636F72652E786D6C504B01021400140006080800B670623B0F71DDB67E0000009D0000000B00000000000000000000000000B50400006662782F636E782E786D6C504B01021400140006080800B670623BE1
310
34B4FB280100001202000031000000000000000000000000005C0500006662782F38353834323741342D343835462D343034322D383541392D4331303331363839454531452F636F72652E786D6C504B01021400140006080800B670623B1B8617914E010000330300003000000000000000000000000000D3060000666278
310
2F38353834323741342D343835462D343034322D383541392D4331303331363839454531452F636E782E786D6C504B01021400140006080800B670623B5933D422630500003B10000034000000000000000000000000006F0800006662782F38353834323741342D343835462D343034322D383541392D4331303331363839
310
454531452F6F626A656374732E786D6C504B01021400140006080000B670623B0000000000000000000000003500000000000000000000000000240E00006662782F38353834323741342D343835462D343034322D383541392D4331303331363839454531452F76657274696365732E62696E504B01021400140006080800
310
B670623BF270F13306000000040000003600000000000000000000000000770E00006662782F38353834323741342D343835462D343034322D383541392D4331303331363839454531452F747269616E676C65732E62696E504B01021400140006080000B670623B0000000000000000000000003700000000000000000000
310
000000D10E00006662782F38353834323741342D343835462D343034322D383541392D4331303331363839454531452F617474726962757465732E62696E504B01021400140006080800B670623B08DA0BD190000000410100003600000000000000000000000000260F00006662782F38353834323741342D343835462D34
310
3034322D383541392D4331303331363839454531452F6469726563746F72792E786D6C504B01021400140006080800B670623BD9A3B367FE000000A00100003B000000000000000000000000000A1000006662782F38353834323741342D343835462D343034322D383541392D4331303331363839454531452F7265736F75
310
726365732F636F72652E786D6C504B0506000000000E000E0080040000611100000000
  0
XRECORD
  5
113
102
{ACAD_REACTORS
330
110
102
}
330
110
100
AcDbXrecord
280
     1
270
     1
271
     1
  0
XRECORD
  5
114
102
{ACAD_REACTORS
330
110
102
}
330
110
100
AcDbXrecord
280
     1
270
     1
271
     1
  0
XRECORD
  5
15A7
102
{ACAD_REACTORS
330
15A6
102
}
330
15A6
100
AcDbXrecord
280
     1
102
ACAD_ROUNDTRIP_2012_MLEADER_STYLE
298
     1
  0
XRECORD
  5
15B9
102
{ACAD_REACTORS
330
15B8
102
}
330
15B8
100
AcDbXrecord
280
     1
102
DISPLAYNAME
  1
Imperial24
102
FLAGS
 90
        0
  0
CELLSTYLEMAP
  5
1579
102
{ACAD_REACTORS
330
104
102
}
330
104
100
AcDbCellStyleMap
 90
        3
300
CELLSTYLE
  1
TABLEFORMAT_BEGIN
 90
        5
170
     1
 91
        0
 92
    32768
 62
   257
 93
        1
300
CONTENTFORMAT
  1
CONTENTFORMAT_BEGIN
 90
        0
 91
        0
 92
      512
 93
        0
300

 40
0.0
140
1.0
 94
        5
 62
     0
340
11
144
0.25
309
CONTENTFORMAT_END
171
     1
301
MARGIN
  1
CELLMARGIN_BEGIN
 40
0.06
 40
0.06
 40
0.06
 40
0.06
 40
0.18
 40
0.18
309
CELLMARGIN_END
 94
        6
 95
        1
302
GRIDFORMAT
  1
GRIDFORMAT_BEGIN
 90
        0
 91
        1
 62
     0
 92
       -2
340
0
 93
        0
 40
0.045
309
GRIDFORMAT_END
 95
        2
302
GRIDFORMAT
  1
GRIDFORMAT_BEGIN
 90
        0
 91
        1
 62
     0
 92
       -2
340
0
 93
        0
 40
0.045
309
GRIDFORMAT_END
 95
        4
302
GRIDFORMAT
  1
GRIDFORMAT_BEGIN
 90
        0
 91
        1
 62
     0
 92
       -2
340
0
 93
        0
 40
0.045
309
GRIDFORMAT_END
 95
        8
302
GRIDFORMAT
  1
GRIDFORMAT_BEGIN
 90
        0
 91
        1
 62
     0
 92
       -2
340
0
 93
        0
 40
0.045
309
GRIDFORMAT_END
 95
       16
302
GRIDFORMAT
  1
GRIDFORMAT_BEGIN
 90
        0
 91
        1
 62
     0
 92
       -2
340
0
 93
        0
 40
0.045
309
GRIDFORMAT_END
 95
       32
302
GRIDFORMAT
  1
GRIDFORMAT_BEGIN
 90
        0
 91
        1
 62
     0
 92
       -2
340
0
 93
        0
 40
0.045
309
GRIDFORMAT_END
309
TABLEFORMAT_END
  1
CELLSTYLE_BEGIN
 90
        1
 91
        1
300
_TITLE
309
CELLSTYLE_END
300
CELLSTYLE
  1
TABLEFORMAT_BEGIN
 90
        5
170
     1
 91
        0
 92
        0
 62
   257
 93
        1
300
CONTENTFORMAT
  1
CONTENTFORMAT_BEGIN
 90
        0
 91
        0
 92
      512
 93
        0
300

 40
0.0
140
1.0
 94
        5
 62
     0
340
11
144
0.18
309
CONTENTFORMAT_END
171
     1
301
MARGIN
  1
CELLMARGIN_BEGIN
 40
0.06
 40
0.06
 40
0.06
 40
0.06
 40
0.18
 40
0.18
309
CELLMARGIN_END
 94
        6
 95
        1
302
GRIDFORMAT
  1
GRIDFORMAT_BEGIN
 90
        0
 91
        1
 62
     0
 92
       -2
340
0
 93
        0
 40
0.045
309
GRIDFORMAT_END
 95
        2
302
GRIDFORMAT
  1
GRIDFORMAT_BEGIN
 90
        0
 91
        1
 62
     0
 92
       -2
340
0
 93
        0
 40
0.045
309
GRIDFORMAT_END
 95
        4
302
GRIDFORMAT
  1
GRIDFORMAT_BEGIN
 90
        0
 91
        1
 62
     0
 92
       -2
340
0
 93
        0
 40
0.045
309
GRIDFORMAT_END
 95
        8
302
GRIDFORMAT
  1
GRIDFORMAT_BEGIN
 90
        0
 91
        1
 62
     0
 92
       -2
340
0
 93
        0
 40
0.045
309
GRIDFORMAT_END
 95
       16
302
GRIDFORMAT
  1
GRIDFORMAT_BEGIN
 90
        0
 91
        1
 62
     0
 92
       -2
340
0
 93
        0
 40
0.045
309
GRIDFORMAT_END
 95
       32
302
GRIDFORMAT
  1
GRIDFORMAT_BEGIN
 90
        0
 91
        1
 62
     0
 92
       -2
340
0
 93
        0
 40
0.045
309
GRIDFORMAT_END
309
TABLEFORMAT_END
  1
CELLSTYLE_BEGIN
 90
        2
 91
        1
300
_HEADER
309
CELLSTYLE_END
300
CELLSTYLE
  1
TABLEFORMAT_BEGIN
 90
        5
170
     1
 91
        0
 92
        0
 62
   257
 93
        1
300
CONTENTFORMAT
  1
CONTENTFORMAT_BEGIN
 90
        0
 91
        0
 92
      512
 93
        0
300

 40
0.0
140
1.0
 94
        2
 62
     0
340
11
144
0.18
309
CONTENTFORMAT_END
171
     1
301
MARGIN
  1
CELLMARGIN_BEGIN
 40
0.06
 40
0.06
 40
0.06
 40
0.06
 40
0.18
 40
0.18
309
CELLMARGIN_END
 94
        6
 95
        1
302
GRIDFORMAT
  1
GRIDFORMAT_BEGIN
 90
        0
 91
        1
 62
     0
 92
       -2
340
0
 93
        0
 40
0.045
309
GRIDFORMAT_END
 95
        2
302
GRIDFORMAT
  1
GRIDFORMAT_BEGIN
 90
        0
 91
        1
 62
     0
 92
       -2
340
0
 93
        0
 40
0.045
309
GRIDFORMAT_END
 95
        4
302
GRIDFORMAT
  1
GRIDFORMAT_BEGIN
 90
        0
 91
        1
 62
     0
 92
       -2
340
0
 93
        0
 40
0.045
309
GRIDFORMAT_END
 95
        8
302
GRIDFORMAT
  1
GRIDFORMAT_BEGIN
 90
        0
 91
        1
 62
     0
 92
       -2
340
0
 93
        0
 40
0.045
309
GRIDFORMAT_END
 95
       16
302
GRIDFORMAT
  1
GRIDFORMAT_BEGIN
 90
        0
 91
        1
 62
     0
 92
       -2
340
0
 93
        0
 40
0.045
309
GRIDFORMAT_END
 95
       32
302
GRIDFORMAT
  1
GRIDFORMAT_BEGIN
 90
        0
 91
        1
 62
     0
 92
       -2
340
0
 93
        0
 40
0.045
309
GRIDFORMAT_END
309
TABLEFORMAT_END
  1
CELLSTYLE_BEGIN
 90
        3
 91
        2
300
_DATA
309
CELLSTYLE_END
  0
XRECORD
  5
1582
102
{ACAD_REACTORS
330
104
102
}
330
104
100
AcDbXrecord
280
     1
102
ACAD_ROUNDTRIP_PRE2007_TABLESTYLE
 90
      512
 91
        0
  1

 92
      512
 93
        0
  2

 94
      512
 95
        0
  3

  0
XRECORD
  5
1591
102
{ACAD_REACTORS
330
1590
102
}
330
1590
100
AcDbXrecord
280
     1
102
RTVSPost2010Prop28
280
     1
102
RTVSPost2010PropOp28
 70
     1
102
RTVSPost2010Prop29
280
     1
102
RTVSPost2010PropOp29
 70
     1
102
RTVSPost2010Prop30
280
     0
102
RTVSPost2010PropOp30
 70
     1
102
RTVSPost2010Prop31
280
     0
102
RTVSPost2010PropOp31
 70
     1
102
RTVSPost2010Prop32
280
     0
102
RTVSPost2010PropOp32
 70
     1
102
RTVSPost2010Prop33
280
     0
102
RTVSPost2010PropOp33
 70
     1
102
RTVSPost2010Prop34
280
     0
102
RTVSPost2010PropOp34
 70
     1
102
RTVSPost2010Prop35
280
     0
102
RTVSPost2010PropOp35
 70
     1
102
RTVSPost2010Prop36
280
     0
102
RTVSPost2010PropOp36
 70
     1
102
RTVSPost2010Prop37
 90
       50
102
RTVSPost2010PropOp37
 70
     1
102
RTVSPost2010Prop38
140
0.0
102
RTVSPost2010PropOp38
 70
     1
102
RTVSPost2010Prop39
140
1.0
102
RTVSPost2010PropOp39
 70
     1
102
RTVSPost2010Prop40
 90
        0
102
RTVSPost2010PropOp40
 70
     1
102
RTVSPost2010Prop41ColorIndex
 90
       18
102
RTVSPost2010Prop41ColorRGB
 90
        0
102
RTVSPost2010PropOp41
 70
     1
102
RTVSPost2010Prop42
 90
       50
102
RTVSPost2010PropOp42
 70
     1
102
RTVSPost2010Prop43
 90
        3
102
RTVSPost2010PropOp43
 70
     1
102
RTVSPost2010Prop44ColorIndex
 90
        5
102
RTVSPost2010Prop44ColorRGB
 90
      255
102
RTVSPost2010PropOp44
 70
     1
102
RTVSPost2010Prop45
280
     0
102
RTVSPost2010PropOp45
 70
     1
102
RTVSPost2010Prop46
 90
       50
102
RTVSPost2010PropOp46
 70
     1
102
RTVSPost2010Prop47
 90
       50
102
RTVSPost2010PropOp47
 70
     1
102
RTVSPost2010Prop48
 90
       50
102
RTVSPost2010PropOp48
 70
     1
102
RTVSPost2010Prop49
280
     0
102
RTVSPost2010PropOp49
 70
     1
102
RTVSPost2010Prop50
 90
       50
102
RTVSPost2010PropOp50
 70
     1
102
RTVSPost2010Prop51ColorIndex
 90
      256
102
RTVSPost2010Prop51ColorRGB
 90
-16777216
102
RTVSPost2010PropOp51
 70
     0
102
RTVSPost2010Prop52
140
1.0
102
RTVSPost2010PropOp52
 70
     0
102
RTVSPost2010Prop53
 90
        2
102
RTVSPost2010PropOp53
 70
     1
102
RTVSPost2010Prop54
  1
strokes_ogs.tif
102
RTVSPost2010PropOp54
 70
     1
102
RTVSPost2010Prop55
280
     0
102
RTVSPost2010PropOp55
 70
     1
102
RTVSPost2010Prop56
140
1.0
102
RTVSPost2010PropOp56
 70
     1
102
RTVSPost2010Prop57
140
1.0
102
RTVSPost2010PropOp57
 70
     1
102
RTVSPropertyOp0
 70
     1
102
RTVSPropertyOp1
 70
     1
102
RTVSPropertyOp2
 70
     1
102
RTVSPropertyOp3
 70
     1
102
RTVSPropertyOp4
 70
     1
102
RTVSPropertyOp5
 70
     1
102
RTVSPropertyOp6
 70
     1
102
RTVSPropertyOp7
 70
     1
102
RTVSPropertyOp8
 70
     1
102
RTVSPropertyOp9
 70
     1
102
RTVSPropertyOp10
 70
     1
102
RTVSPropertyOp11
 70
     1
102
RTVSPropertyOp12
 70
     1
102
RTVSPropertyOp13
 70
     1
102
RTVSPropertyOp14
 70
     1
102
RTVSPropertyOp15
 70
     1
102
RTVSPropertyOp16
 70
     1
102
RTVSPropertyOp17
 70
     1
102
RTVSPropertyOp18
 70
     1
102
RTVSPropertyOp19
 70
     1
102
RTVSPropertyOp20
 70
     1
102
RTVSPropertyOp21
 70
     1
102
RTVSPropertyOp22
 70
     1
102
RTVSPropertyOp23
 70
     1
102
RTVSPropertyOp24
 70
     1
102
RTVSPropertyOp25
 70
     1
102
RTVSPropertyOp26
 70
     1
102
RTVSPropertyOp27
 70
     1
102
RTVSPropertyOp28
 70
     1
102
RTVSPropertyOp29
 70
     1
102
RTVSPropertyOp30
 70
     1
102
RTVSPropertyOp31
 70
     1
102
RTVSPropertyOp32
 70
     1
102
RTVSPropertyOp33
 70
     1
102
RTVSPropertyOp34
 70
     1
102
RTVSPropertyOp35
 70
     1
102
RTVSPropertyOp36
 70
     1
102
RTVSPropertyOp37
 70
     1
102
RTVSPropertyOp38
 70
     1
102
RTVSPropertyOp39
 70
     1
102
RTVSPropertyOp40
 70
     1
102
RTVSPropertyOp41
 70
     1
102
RTVSPropertyOp42
 70
     1
102
RTVSPropertyOp43
 70
     1
102
RTVSPropertyOp44
 70
     1
102
RTVSPropertyOp45
 70
     1
102
RTVSPropertyOp46
 70
     1
102
RTVSPropertyOp47
 70
     1
102
RTVSPropertyOp48
 70
     1
102
RTVSPropertyOp49
 70
     1
102
RTVSPropertyOp50
 70
     1
102
RTVSPropertyOp51
 70
     0
102
RTVSPropertyOp52
 70
     0
102
RTVSPropertyOp53
 70
     1
102
RTVSPropertyOp54
 70
     1
102
RTVSPropertyOp55
 70
     1
102
RTVSPropertyOp56
 70
     1
102
RTVSPropertyOp57
 70
     1
102
RTVSPropertyOp58
 70
     1
102
RTVSPropertyOp59
 70
     1
102
RTVSPropertyOp60
 70
     1
102
RTVSPropertyOp61
 70
     1
102
RTVSPropertyOp62
 70
     1
  0
XRECORD
  5
158F
102
{ACAD_REACTORS
330
158E
102
}
330
158E
100
AcDbXrecord
280
     1
102
RTVSPost2010Prop28
280
     0
102
RTVSPost2010PropOp28
 70
     1
102
RTVSPost2010Prop29
280
     1
102
RTVSPost2010PropOp29
 70
     1
102
RTVSPost2010Prop30
280
     1
102
RTVSPost2010PropOp30
 70
     1
102
RTVSPost2010Prop31
280
     0
102
RTVSPost2010PropOp31
 70
     1
102
RTVSPost2010Prop32
280
     0
102
RTVSPost2010PropOp32
 70
     1
102
RTVSPost2010Prop33
280
     0
102
RTVSPost2010PropOp33
 70
     1
102
RTVSPost2010Prop34
280
     0
102
RTVSPost2010PropOp34
 70
     1
102
RTVSPost2010Prop35
280
     0
102
RTVSPost2010PropOp35
 70
     1
102
RTVSPost2010Prop36
280
     0
102
RTVSPost2010PropOp36
 70
     1
102
RTVSPost2010Prop37
 90
       50
102
RTVSPost2010PropOp37
 70
     1
102
RTVSPost2010Prop38
140
0.0
102
RTVSPost2010PropOp38
 70
     1
102
RTVSPost2010Prop39
140
1.0
102
RTVSPost2010PropOp39
 70
     1
102
RTVSPost2010Prop40
 90
        0
102
RTVSPost2010PropOp40
 70
     1
102
RTVSPost2010Prop41ColorIndex
 90
       18
102
RTVSPost2010Prop41ColorRGB
 90
        0
102
RTVSPost2010PropOp41
 70
     1
102
RTVSPost2010Prop42
 90
       50
102
RTVSPost2010PropOp42
 70
     1
102
RTVSPost2010Prop43
 90
        3
102
RTVSPost2010PropOp43
 70
     1
102
RTVSPost2010Prop44ColorIndex
 90
        5
102
RTVSPost2010Prop44ColorRGB
 90
      255
102
RTVSPost2010PropOp44
 70
     1
102
RTVSPost2010Prop45
280
     0
102
RTVSPost2010PropOp45
 70
     1
102
RTVSPost2010Prop46
 90
       50
102
RTVSPost2010PropOp46
 70
     1
102
RTVSPost2010Prop47
 90
       50
102
RTVSPost2010PropOp47
 70
     1
102
RTVSPost2010Prop48
 90
       50
102
RTVSPost2010PropOp48
 70
     1
102
RTVSPost2010Prop49
280
     0
102
RTVSPost2010PropOp49
 70
     1
102
RTVSPost2010Prop50
 90
       50
102
RTVSPost2010PropOp50
 70
     1
102
RTVSPost2010Prop51ColorIndex
 90
      256
102
RTVSPost2010Prop51ColorRGB
 90
-16777216
102
RTVSPost2010PropOp51
 70
     0
102
RTVSPost2010Prop52
140
1.0
102
RTVSPost2010PropOp52
 70
     0
102
RTVSPost2010Prop53
 90
        2
102
RTVSPost2010PropOp53
 70
     1
102
RTVSPost2010Prop54
  1
strokes_ogs.tif
102
RTVSPost2010PropOp54
 70
     1
102
RTVSPost2010Prop55
280
     0
102
RTVSPost2010PropOp55
 70
     1
102
RTVSPost2010Prop56
140
1.0
102
RTVSPost2010PropOp56
 70
     1
102
RTVSPost2010Prop57
140
1.0
102
RTVSPost2010PropOp57
 70
     1
102
RTVSPropertyOp0
 70
     1
102
RTVSPropertyOp1
 70
     1
102
RTVSPropertyOp2
 70
     1
102
RTVSPropertyOp3
 70
     1
102
RTVSPropertyOp4
 70
     1
102
RTVSPropertyOp5
 70
     1
102
RTVSPropertyOp6
 70
     1
102
RTVSPropertyOp7
 70
     1
102
RTVSPropertyOp8
 70
     1
102
RTVSPropertyOp9
 70
     1
102
RTVSPropertyOp10
 70
     1
102
RTVSPropertyOp11
 70
     1
102
RTVSPropertyOp12
 70
     1
102
RTVSPropertyOp13
 70
     1
102
RTVSPropertyOp14
 70
     1
102
RTVSPropertyOp15
 70
     1
102
RTVSPropertyOp16
 70
     1
102
RTVSPropertyOp17
 70
     1
102
RTVSPropertyOp18
 70
     1
102
RTVSPropertyOp19
 70
     1
102
RTVSPropertyOp20
 70
     1
102
RTVSPropertyOp21
 70
     1
102
RTVSPropertyOp22
 70
     1
102
RTVSPropertyOp23
 70
     1
102
RTVSPropertyOp24
 70
     1
102
RTVSPropertyOp25
 70
     1
102
RTVSPropertyOp26
 70
     1
102
RTVSPropertyOp27
 70
     1
102
RTVSPropertyOp28
 70
     1
102
RTVSPropertyOp29
 70
     1
102
RTVSPropertyOp30
 70
     1
102
RTVSPropertyOp31
 70
     1
102
RTVSPropertyOp32
 70
     1
102
RTVSPropertyOp33
 70
     1
102
RTVSPropertyOp34
 70
     1
102
RTVSPropertyOp35
 70
     1
102
RTVSPropertyOp36
 70
     1
102
RTVSPropertyOp37
 70
     1
102
RTVSPropertyOp38
 70
     1
102
RTVSPropertyOp39
 70
     1
102
RTVSPropertyOp40
 70
     1
102
RTVSPropertyOp41
 70
     1
102
RTVSPropertyOp42
 70
     1
102
RTVSPropertyOp43
 70
     1
102
RTVSPropertyOp44
 70
     1
102
RTVSPropertyOp45
 70
     1
102
RTVSPropertyOp46
 70
     1
102
RTVSPropertyOp47
 70
     1
102
RTVSPropertyOp48
 70
     1
102
RTVSPropertyOp49
 70
     1
102
RTVSPropertyOp50
 70
     1
102
RTVSPropertyOp51
 70
     0
102
RTVSPropertyOp52
 70
     0
102
RTVSPropertyOp53
 70
     1
102
RTVSPropertyOp54
 70
     1
102
RTVSPropertyOp55
 70
     1
102
RTVSPropertyOp56
 70
     1
102
RTVSPropertyOp57
 70
     1
102
RTVSPropertyOp58
 70
     1
102
RTVSPropertyOp59
 70
     1
102
RTVSPropertyOp60
 70
     1
102
RTVSPropertyOp61
 70
     1
102
RTVSPropertyOp62
 70
     1
  0
XRECORD
  5
159D
102
{ACAD_REACTORS
330
159C
102
}
330
159C
100
AcDbXrecord
280
     1
102
RTVSPost2010Prop28
280
     0
102
RTVSPost2010PropOp28
 70
     1
102
RTVSPost2010Prop29
280
     1
102
RTVSPost2010PropOp29
 70
     1
102
RTVSPost2010Prop30
280
     1
102
RTVSPost2010PropOp30
 70
     1
102
RTVSPost2010Prop31
280
     0
102
RTVSPost2010PropOp31
 70
     1
102
RTVSPost2010Prop32
280
     0
102
RTVSPost2010PropOp32
 70
     1
102
RTVSPost2010Prop33
280
     0
102
RTVSPost2010PropOp33
 70
     1
102
RTVSPost2010Prop34
280
     0
102
RTVSPost2010PropOp34
 70
     1
102
RTVSPost2010Prop35
280
     0
102
RTVSPost2010PropOp35
 70
     1
102
RTVSPost2010Prop36
280
     0
102
RTVSPost2010PropOp36
 70
     1
102
RTVSPost2010Prop37
 90
       50
102
RTVSPost2010PropOp37
 70
     1
102
RTVSPost2010Prop38
140
0.0
102
RTVSPost2010PropOp38
 70
     1
102
RTVSPost2010Prop39
140
1.0
102
RTVSPost2010PropOp39
 70
     1
102
RTVSPost2010Prop40
 90
        0
102
RTVSPost2010PropOp40
 70
     1
102
RTVSPost2010Prop41ColorIndex
 90
       18
102
RTVSPost2010Prop41ColorRGB
 90
        0
102
RTVSPost2010PropOp41
 70
     1
102
RTVSPost2010Prop42
 90
       50
102
RTVSPost2010PropOp42
 70
     1
102
RTVSPost2010Prop43
 90
        3
102
RTVSPost2010PropOp43
 70
     1
102
RTVSPost2010Prop44ColorIndex
 90
        5
102
RTVSPost2010Prop44ColorRGB
 90
      255
102
RTVSPost2010PropOp44
 70
     1
102
RTVSPost2010Prop45
280
     0
102
RTVSPost2010PropOp45
 70
     1
102
RTVSPost2010Prop46
 90
       50
102
RTVSPost2010PropOp46
 70
     1
102
RTVSPost2010Prop47
 90
       50
102
RTVSPost2010PropOp47
 70
     1
102
RTVSPost2010Prop48
 90
       50
102
RTVSPost2010PropOp48
 70
     1
102
RTVSPost2010Prop49
280
     0
102
RTVSPost2010PropOp49
 70
     1
102
RTVSPost2010Prop50
 90
       50
102
RTVSPost2010PropOp50
 70
     1
102
RTVSPost2010Prop51ColorIndex
 90
      256
102
RTVSPost2010Prop51ColorRGB
 90
-16777216
102
RTVSPost2010PropOp51
 70
     0
102
RTVSPost2010Prop52
140
1.0
102
RTVSPost2010PropOp52
 70
     0
102
RTVSPost2010Prop53
 90
        2
102
RTVSPost2010PropOp53
 70
     1
102
RTVSPost2010Prop54
  1
strokes_ogs.tif
102
RTVSPost2010PropOp54
 70
     1
102
RTVSPost2010Prop55
280
     0
102
RTVSPost2010PropOp55
 70
     1
102
RTVSPost2010Prop56
140
1.0
102
RTVSPost2010PropOp56
 70
     1
102
RTVSPost2010Prop57
140
1.0
102
RTVSPost2010PropOp57
 70
     1
102
RTVSPropertyOp0
 70
     1
102
RTVSPropertyOp1
 70
     1
102
RTVSPropertyOp2
 70
     1
102
RTVSPropertyOp3
 70
     1
102
RTVSPropertyOp4
 70
     1
102
RTVSPropertyOp5
 70
     1
102
RTVSPropertyOp6
 70
     1
102
RTVSPropertyOp7
 70
     1
102
RTVSPropertyOp8
 70
     1
102
RTVSPropertyOp9
 70
     1
102
RTVSPropertyOp10
 70
     1
102
RTVSPropertyOp11
 70
     1
102
RTVSPropertyOp12
 70
     1
102
RTVSPropertyOp13
 70
     1
102
RTVSPropertyOp14
 70
     1
102
RTVSPropertyOp15
 70
     1
102
RTVSPropertyOp16
 70
     1
102
RTVSPropertyOp17
 70
     1
102
RTVSPropertyOp18
 70
     1
102
RTVSPropertyOp19
 70
     1
102
RTVSPropertyOp20
 70
     1
102
RTVSPropertyOp21
 70
     1
102
RTVSPropertyOp22
 70
     1
102
RTVSPropertyOp23
 70
     1
102
RTVSPropertyOp24
 70
     1
102
RTVSPropertyOp25
 70
     1
102
RTVSPropertyOp26
 70
     1
102
RTVSPropertyOp27
 70
     1
102
RTVSPropertyOp28
 70
     1
102
RTVSPropertyOp29
 70
     1
102
RTVSPropertyOp30
 70
     1
102
RTVSPropertyOp31
 70
     1
102
RTVSPropertyOp32
 70
     1
102
RTVSPropertyOp33
 70
     1
102
RTVSPropertyOp34
 70
     1
102
RTVSPropertyOp35
 70
     1
102
RTVSPropertyOp36
 70
     1
102
RTVSPropertyOp37
 70
     1
102
RTVSPropertyOp38
 70
     1
102
RTVSPropertyOp39
 70
     1
102
RTVSPropertyOp40
 70
     1
102
RTVSPropertyOp41
 70
     1
102
RTVSPropertyOp42
 70
     1
102
RTVSPropertyOp43
 70
     1
102
RTVSPropertyOp44
 70
     1
102
RTVSPropertyOp45
 70
     1
102
RTVSPropertyOp46
 70
     1
102
RTVSPropertyOp47
 70
     1
102
RTVSPropertyOp48
 70
     1
102
RTVSPropertyOp49
 70
     1
102
RTVSPropertyOp50
 70
     1
102
RTVSPropertyOp51
 70
     0
102
RTVSPropertyOp52
 70
     0
102
RTVSPropertyOp53
 70
     1
102
RTVSPropertyOp54
 70
     1
102
RTVSPropertyOp55
 70
     1
102
RTVSPropertyOp56
 70
     1
102
RTVSPropertyOp57
 70
     1
102
RTVSPropertyOp58
 70
     1
102
RTVSPropertyOp59
 70
     1
102
RTVSPropertyOp60
 70
     1
102
RTVSPropertyOp61
 70
     1
102
RTVSPropertyOp62
 70
     1
  0
XRECORD
  5
15A5
102
{ACAD_REACTORS
330
15A4
102
}
330
15A4
100
AcDbXrecord
280
     1
102
RTVSPost2010Prop28
280
     0
102
RTVSPost2010PropOp28
 70
     1
102
RTVSPost2010Prop29
280
     1
102
RTVSPost2010PropOp29
 70
     1
102
RTVSPost2010Prop30
280
     1
102
RTVSPost2010PropOp30
 70
     1
102
RTVSPost2010Prop31
280
     0
102
RTVSPost2010PropOp31
 70
     1
102
RTVSPost2010Prop32
280
     0
102
RTVSPost2010PropOp32
 70
     1
102
RTVSPost2010Prop33
280
     0
102
RTVSPost2010PropOp33
 70
     1
102
RTVSPost2010Prop34
280
     0
102
RTVSPost2010PropOp34
 70
     1
102
RTVSPost2010Prop35
280
     0
102
RTVSPost2010PropOp35
 70
     1
102
RTVSPost2010Prop36
280
     0
102
RTVSPost2010PropOp36
 70
     1
102
RTVSPost2010Prop37
 90
       50
102
RTVSPost2010PropOp37
 70
     1
102
RTVSPost2010Prop38
140
0.0
102
RTVSPost2010PropOp38
 70
     1
102
RTVSPost2010Prop39
140
1.0
102
RTVSPost2010PropOp39
 70
     1
102
RTVSPost2010Prop40
 90
        0
102
RTVSPost2010PropOp40
 70
     1
102
RTVSPost2010Prop41ColorIndex
 90
       18
102
RTVSPost2010Prop41ColorRGB
 90
        0
102
RTVSPost2010PropOp41
 70
     1
102
RTVSPost2010Prop42
 90
       50
102
RTVSPost2010PropOp42
 70
     1
102
RTVSPost2010Prop43
 90
        3
102
RTVSPost2010PropOp43
 70
     1
102
RTVSPost2010Prop44ColorIndex
 90
        5
102
RTVSPost2010Prop44ColorRGB
 90
      255
102
RTVSPost2010PropOp44
 70
     1
102
RTVSPost2010Prop45
280
     0
102
RTVSPost2010PropOp45
 70
     1
102
RTVSPost2010Prop46
 90
       50
102
RTVSPost2010PropOp46
 70
     1
102
RTVSPost2010Prop47
 90
       50
102
RTVSPost2010PropOp47
 70
     1
102
RTVSPost2010Prop48
 90
       50
102
RTVSPost2010PropOp48
 70
     1
102
RTVSPost2010Prop49
280
     0
102
RTVSPost2010PropOp49
 70
     1
102
RTVSPost2010Prop50
 90
       50
102
RTVSPost2010PropOp50
 70
     1
102
RTVSPost2010Prop51ColorIndex
 90
      256
102
RTVSPost2010Prop51ColorRGB
 90
-16777216
102
RTVSPost2010PropOp51
 70
     0
102
RTVSPost2010Prop52
140
1.0
102
RTVSPost2010PropOp52
 70
     0
102
RTVSPost2010Prop53
 90
        2
102
RTVSPost2010PropOp53
 70
     1
102
RTVSPost2010Prop54
  1
strokes_ogs.tif
102
RTVSPost2010PropOp54
 70
     1
102
RTVSPost2010Prop55
280
     0
102
RTVSPost2010PropOp55
 70
     1
102
RTVSPost2010Prop56
140
1.0
102
RTVSPost2010PropOp56
 70
     1
102
RTVSPost2010Prop57
140
1.0
102
RTVSPost2010PropOp57
 70
     1
102
RTVSPropertyOp0
 70
     1
102
RTVSPropertyOp1
 70
     1
102
RTVSPropertyOp2
 70
     1
102
RTVSPropertyOp3
 70
     1
102
RTVSPropertyOp4
 70
     1
102
RTVSPropertyOp5
 70
     1
102
RTVSPropertyOp6
 70
     1
102
RTVSPropertyOp7
 70
     1
102
RTVSPropertyOp8
 70
     1
102
RTVSPropertyOp9
 70
     1
102
RTVSPropertyOp10
 70
     1
102
RTVSPropertyOp11
 70
     1
102
RTVSPropertyOp12
 70
     1
102
RTVSPropertyOp13
 70
     1
102
RTVSPropertyOp14
 70
     1
102
RTVSPropertyOp15
 70
     1
102
RTVSPropertyOp16
 70
     1
102
RTVSPropertyOp17
 70
     1
102
RTVSPropertyOp18
 70
     1
102
RTVSPropertyOp19
 70
     1
102
RTVSPropertyOp20
 70
     1
102
RTVSPropertyOp21
 70
     1
102
RTVSPropertyOp22
 70
     1
102
RTVSPropertyOp23
 70
     1
102
RTVSPropertyOp24
 70
     1
102
RTVSPropertyOp25
 70
     1
102
RTVSPropertyOp26
 70
     1
102
RTVSPropertyOp27
 70
     1
102
RTVSPropertyOp28
 70
     1
102
RTVSPropertyOp29
 70
     1
102
RTVSPropertyOp30
 70
     1
102
RTVSPropertyOp31
 70
     1
102
RTVSPropertyOp32
 70
     1
102
RTVSPropertyOp33
 70
     1
102
RTVSPropertyOp34
 70
     1
102
RTVSPropertyOp35
 70
     1
102
RTVSPropertyOp36
 70
     1
102
RTVSPropertyOp37
 70
     1
102
RTVSPropertyOp38
 70
     1
102
RTVSPropertyOp39
 70
     1
102
RTVSPropertyOp40
 70
     1
102
RTVSPropertyOp41
 70
     1
102
RTVSPropertyOp42
 70
     1
102
RTVSPropertyOp43
 70
     1
102
RTVSPropertyOp44
 70
     1
102
RTVSPropertyOp45
 70
     1
102
RTVSPropertyOp46
 70
     1
102
RTVSPropertyOp47
 70
     1
102
RTVSPropertyOp48
 70
     1
102
RTVSPropertyOp49
 70
     1
102
RTVSPropertyOp50
 70
     1
102
RTVSPropertyOp51
 70
     0
102
RTVSPropertyOp52
 70
     0
102
RTVSPropertyOp53
 70
     1
102
RTVSPropertyOp54
 70
     1
102
RTVSPropertyOp55
 70
     1
102
RTVSPropertyOp56
 70
     1
102
RTVSPropertyOp57
 70
     1
102
RTVSPropertyOp58
 70
     1
102
RTVSPropertyOp59
 70
     1
102
RTVSPropertyOp60
 70
     1
102
RTVSPropertyOp61
 70
     1
102
RTVSPropertyOp62
 70
     1
  0
XRECORD
  5
1597
102
{ACAD_REACTORS
330
1596
102
}
330
1596
100
AcDbXrecord
280
     1
102
RTVSPost2010Prop28
280
     0
102
RTVSPost2010PropOp28
 70
     1
102
RTVSPost2010Prop29
280
     1
102
RTVSPost2010PropOp29
 70
     1
102
RTVSPost2010Prop30
280
     1
102
RTVSPost2010PropOp30
 70
     1
102
RTVSPost2010Prop31
280
     0
102
RTVSPost2010PropOp31
 70
     1
102
RTVSPost2010Prop32
280
     0
102
RTVSPost2010PropOp32
 70
     1
102
RTVSPost2010Prop33
280
     0
102
RTVSPost2010PropOp33
 70
     1
102
RTVSPost2010Prop34
280
     0
102
RTVSPost2010PropOp34
 70
     1
102
RTVSPost2010Prop35
280
     0
102
RTVSPost2010PropOp35
 70
     1
102
RTVSPost2010Prop36
280
     0
102
RTVSPost2010PropOp36
 70
     1
102
RTVSPost2010Prop37
 90
       50
102
RTVSPost2010PropOp37
 70
     1
102
RTVSPost2010Prop38
140
0.0
102
RTVSPost2010PropOp38
 70
     1
102
RTVSPost2010Prop39
140
1.0
102
RTVSPost2010PropOp39
 70
     1
102
RTVSPost2010Prop40
 90
        0
102
RTVSPost2010PropOp40
 70
     1
102
RTVSPost2010Prop41ColorIndex
 90
       18
102
RTVSPost2010Prop41ColorRGB
 90
        0
102
RTVSPost2010PropOp41
 70
     1
102
RTVSPost2010Prop42
 90
       50
102
RTVSPost2010PropOp42
 70
     1
102
RTVSPost2010Prop43
 90
        3
102
RTVSPost2010PropOp43
 70
     1
102
RTVSPost2010Prop44ColorIndex
 90
        5
102
RTVSPost2010Prop44ColorRGB
 90
      255
102
RTVSPost2010PropOp44
 70
     1
102
RTVSPost2010Prop45
280
     0
102
RTVSPost2010PropOp45
 70
     1
102
RTVSPost2010Prop46
 90
       50
102
RTVSPost2010PropOp46
 70
     1
102
RTVSPost2010Prop47
 90
       50
102
RTVSPost2010PropOp47
 70
     1
102
RTVSPost2010Prop48
 90
       50
102
RTVSPost2010PropOp48
 70
     1
102
RTVSPost2010Prop49
280
     0
102
RTVSPost2010PropOp49
 70
     1
102
RTVSPost2010Prop50
 90
       50
102
RTVSPost2010PropOp50
 70
     1
102
RTVSPost2010Prop51ColorIndex
 90
      256
102
RTVSPost2010Prop51ColorRGB
 90
-16777216
102
RTVSPost2010PropOp51
 70
     0
102
RTVSPost2010Prop52
140
1.0
102
RTVSPost2010PropOp52
 70
     0
102
RTVSPost2010Prop53
 90
        2
102
RTVSPost2010PropOp53
 70
     1
102
RTVSPost2010Prop54
  1
strokes_ogs.tif
102
RTVSPost2010PropOp54
 70
     1
102
RTVSPost2010Prop55
280
     0
102
RTVSPost2010PropOp55
 70
     1
102
RTVSPost2010Prop56
140
1.0
102
RTVSPost2010PropOp56
 70
     1
102
RTVSPost2010Prop57
140
1.0
102
RTVSPost2010PropOp57
 70
     1
102
RTVSPropertyOp0
 70
     1
102
RTVSPropertyOp1
 70
     1
102
RTVSPropertyOp2
 70
     1
102
RTVSPropertyOp3
 70
     1
102
RTVSPropertyOp4
 70
     1
102
RTVSPropertyOp5
 70
     1
102
RTVSPropertyOp6
 70
     1
102
RTVSPropertyOp7
 70
     1
102
RTVSPropertyOp8
 70
     1
102
RTVSPropertyOp9
 70
     1
102
RTVSPropertyOp10
 70
     1
102
RTVSPropertyOp11
 70
     1
102
RTVSPropertyOp12
 70
     1
102
RTVSPropertyOp13
 70
     1
102
RTVSPropertyOp14
 70
     1
102
RTVSPropertyOp15
 70
     1
102
RTVSPropertyOp16
 70
     1
102
RTVSPropertyOp17
 70
     1
102
RTVSPropertyOp18
 70
     1
102
RTVSPropertyOp19
 70
     1
102
RTVSPropertyOp20
 70
     1
102
RTVSPropertyOp21
 70
     1
102
RTVSPropertyOp22
 70
     1
102
RTVSPropertyOp23
 70
     1
102
RTVSPropertyOp24
 70
     1
102
RTVSPropertyOp25
 70
     1
102
RTVSPropertyOp26
 70
     1
102
RTVSPropertyOp27
 70
     1
102
RTVSPropertyOp28
 70
     1
102
RTVSPropertyOp29
 70
     1
102
RTVSPropertyOp30
 70
     1
102
RTVSPropertyOp31
 70
     1
102
RTVSPropertyOp32
 70
     1
102
RTVSPropertyOp33
 70
     1
102
RTVSPropertyOp34
 70
     1
102
RTVSPropertyOp35
 70
     1
102
RTVSPropertyOp36
 70
     1
102
RTVSPropertyOp37
 70
     1
102
RTVSPropertyOp38
 70
     1
102
RTVSPropertyOp39
 70
     1
102
RTVSPropertyOp40
 70
     1
102
RTVSPropertyOp41
 70
     1
102
RTVSPropertyOp42
 70
     1
102
RTVSPropertyOp43
 70
     1
102
RTVSPropertyOp44
 70
     1
102
RTVSPropertyOp45
 70
     1
102
RTVSPropertyOp46
 70
     1
102
RTVSPropertyOp47
 70
     1
102
RTVSPropertyOp48
 70
     1
102
RTVSPropertyOp49
 70
     1
102
RTVSPropertyOp50
 70
     1
102
RTVSPropertyOp51
 70
     0
102
RTVSPropertyOp52
 70
     0
102
RTVSPropertyOp53
 70
     1
102
RTVSPropertyOp54
 70
     1
102
RTVSPropertyOp55
 70
     1
102
RTVSPropertyOp56
 70
     1
102
RTVSPropertyOp57
 70
     1
102
RTVSPropertyOp58
 70
     1
102
RTVSPropertyOp59
 70
     1
102
RTVSPropertyOp60
 70
     1
102
RTVSPropertyOp61
 70
     1
102
RTVSPropertyOp62
 70
     1
  0
XRECORD
  5
159B
102
{ACAD_REACTORS
330
159A
102
}
330
159A
100
AcDbXrecord
280
     1
102
RTVSPost2010Prop28
280
     0
102
RTVSPost2010PropOp28
 70
     1
102
RTVSPost2010Prop29
280
     1
102
RTVSPost2010PropOp29
 70
     1
102
RTVSPost2010Prop30
280
     1
102
RTVSPost2010PropOp30
 70
     1
102
RTVSPost2010Prop31
280
     0
102
RTVSPost2010PropOp31
 70
     1
102
RTVSPost2010Prop32
280
     0
102
RTVSPost2010PropOp32
 70
     1
102
RTVSPost2010Prop33
280
     0
102
RTVSPost2010PropOp33
 70
     1
102
RTVSPost2010Prop34
280
     0
102
RTVSPost2010PropOp34
 70
     1
102
RTVSPost2010Prop35
280
     0
102
RTVSPost2010PropOp35
 70
     1
102
RTVSPost2010Prop36
280
     0
102
RTVSPost2010PropOp36
 70
     1
102
RTVSPost2010Prop37
 90
       50
102
RTVSPost2010PropOp37
 70
     1
102
RTVSPost2010Prop38
140
0.0
102
RTVSPost2010PropOp38
 70
     1
102
RTVSPost2010Prop39
140
1.0
102
RTVSPost2010PropOp39
 70
     1
102
RTVSPost2010Prop40
 90
        0
102
RTVSPost2010PropOp40
 70
     1
102
RTVSPost2010Prop41ColorIndex
 90
       18
102
RTVSPost2010Prop41ColorRGB
 90
        0
102
RTVSPost2010PropOp41
 70
     1
102
RTVSPost2010Prop42
 90
       50
102
RTVSPost2010PropOp42
 70
     1
102
RTVSPost2010Prop43
 90
        3
102
RTVSPost2010PropOp43
 70
     1
102
RTVSPost2010Prop44ColorIndex
 90
        5
102
RTVSPost2010Prop44ColorRGB
 90
      255
102
RTVSPost2010PropOp44
 70
     1
102
RTVSPost2010Prop45
280
     0
102
RTVSPost2010PropOp45
 70
     1
102
RTVSPost2010Prop46
 90
       50
102
RTVSPost2010PropOp46
 70
     1
102
RTVSPost2010Prop47
 90
       50
102
RTVSPost2010PropOp47
 70
     1
102
RTVSPost2010Prop48
 90
       50
102
RTVSPost2010PropOp48
 70
     1
102
RTVSPost2010Prop49
280
     0
102
RTVSPost2010PropOp49
 70
     1
102
RTVSPost2010Prop50
 90
       50
102
RTVSPost2010PropOp50
 70
     1
102
RTVSPost2010Prop51ColorIndex
 90
      256
102
RTVSPost2010Prop51ColorRGB
 90
-16777216
102
RTVSPost2010PropOp51
 70
     0
102
RTVSPost2010Prop52
140
1.0
102
RTVSPost2010PropOp52
 70
     0
102
RTVSPost2010Prop53
 90
        2
102
RTVSPost2010PropOp53
 70
     1
102
RTVSPost2010Prop54
  1
strokes_ogs.tif
102
RTVSPost2010PropOp54
 70
     1
102
RTVSPost2010Prop55
280
     0
102
RTVSPost2010PropOp55
 70
     1
102
RTVSPost2010Prop56
140
1.0
102
RTVSPost2010PropOp56
 70
     1
102
RTVSPost2010Prop57
140
1.0
102
RTVSPost2010PropOp57
 70
     1
102
RTVSPropertyOp0
 70
     1
102
RTVSPropertyOp1
 70
     1
102
RTVSPropertyOp2
 70
     1
102
RTVSPropertyOp3
 70
     1
102
RTVSPropertyOp4
 70
     1
102
RTVSPropertyOp5
 70
     1
102
RTVSPropertyOp6
 70
     1
102
RTVSPropertyOp7
 70
     1
102
RTVSPropertyOp8
 70
     1
102
RTVSPropertyOp9
 70
     1
102
RTVSPropertyOp10
 70
     1
102
RTVSPropertyOp11
 70
     1
102
RTVSPropertyOp12
 70
     1
102
RTVSPropertyOp13
 70
     1
102
RTVSPropertyOp14
 70
     1
102
RTVSPropertyOp15
 70
     1
102
RTVSPropertyOp16
 70
     1
102
RTVSPropertyOp17
 70
     1
102
RTVSPropertyOp18
 70
     1
102
RTVSPropertyOp19
 70
     1
102
RTVSPropertyOp20
 70
     1
102
RTVSPropertyOp21
 70
     1
102
RTVSPropertyOp22
 70
     1
102
RTVSPropertyOp23
 70
     1
102
RTVSPropertyOp24
 70
     1
102
RTVSPropertyOp25
 70
     1
102
RTVSPropertyOp26
 70
     1
102
RTVSPropertyOp27
 70
     1
102
RTVSPropertyOp28
 70
     1
102
RTVSPropertyOp29
 70
     1
102
RTVSPropertyOp30
 70
     1
102
RTVSPropertyOp31
 70
     1
102
RTVSPropertyOp32
 70
     1
102
RTVSPropertyOp33
 70
     1
102
RTVSPropertyOp34
 70
     1
102
RTVSPropertyOp35
 70
     1
102
RTVSPropertyOp36
 70
     1
102
RTVSPropertyOp37
 70
     1
102
RTVSPropertyOp38
 70
     1
102
RTVSPropertyOp39
 70
     1
102
RTVSPropertyOp40
 70
     1
102
RTVSPropertyOp41
 70
     1
102
RTVSPropertyOp42
 70
     1
102
RTVSPropertyOp43
 70
     1
102
RTVSPropertyOp44
 70
     1
102
RTVSPropertyOp45
 70
     1
102
RTVSPropertyOp46
 70
     1
102
RTVSPropertyOp47
 70
     1
102
RTVSPropertyOp48
 70
     1
102
RTVSPropertyOp49
 70
     1
102
RTVSPropertyOp50
 70
     1
102
RTVSPropertyOp51
 70
     0
102
RTVSPropertyOp52
 70
     0
102
RTVSPropertyOp53
 70
     1
102
RTVSPropertyOp54
 70
     1
102
RTVSPropertyOp55
 70
     1
102
RTVSPropertyOp56
 70
     1
102
RTVSPropertyOp57
 70
     1
102
RTVSPropertyOp58
 70
     1
102
RTVSPropertyOp59
 70
     1
102
RTVSPropertyOp60
 70
     1
102
RTVSPropertyOp61
 70
     1
102
RTVSPropertyOp62
 70
     1
  0
XRECORD
  5
15AD
102
{ACAD_REACTORS
330
15AC
102
}
330
15AC
100
AcDbXrecord
280
     1
102
RTVSPost2010Prop28
280
     0
102
RTVSPost2010PropOp28
 70
     1
102
RTVSPost2010Prop29
280
     1
102
RTVSPost2010PropOp29
 70
     1
102
RTVSPost2010Prop30
280
     1
102
RTVSPost2010PropOp30
 70
     1
102
RTVSPost2010Prop31
280
     0
102
RTVSPost2010PropOp31
 70
     1
102
RTVSPost2010Prop32
280
     0
102
RTVSPost2010PropOp32
 70
     1
102
RTVSPost2010Prop33
280
     0
102
RTVSPost2010PropOp33
 70
     1
102
RTVSPost2010Prop34
280
     0
102
RTVSPost2010PropOp34
 70
     1
102
RTVSPost2010Prop35
280
     0
102
RTVSPost2010PropOp35
 70
     1
102
RTVSPost2010Prop36
280
     0
102
RTVSPost2010PropOp36
 70
     1
102
RTVSPost2010Prop37
 90
       50
102
RTVSPost2010PropOp37
 70
     1
102
RTVSPost2010Prop38
140
0.0
102
RTVSPost2010PropOp38
 70
     1
102
RTVSPost2010Prop39
140
1.0
102
RTVSPost2010PropOp39
 70
     1
102
RTVSPost2010Prop40
 90
        0
102
RTVSPost2010PropOp40
 70
     1
102
RTVSPost2010Prop41ColorIndex
 90
       18
102
RTVSPost2010Prop41ColorRGB
 90
        0
102
RTVSPost2010PropOp41
 70
     1
102
RTVSPost2010Prop42
 90
       50
102
RTVSPost2010PropOp42
 70
     1
102
RTVSPost2010Prop43
 90
        3
102
RTVSPost2010PropOp43
 70
     1
102
RTVSPost2010Prop44ColorIndex
 90
        5
102
RTVSPost2010Prop44ColorRGB
 90
      255
102
RTVSPost2010PropOp44
 70
     1
102
RTVSPost2010Prop45
280
     0
102
RTVSPost2010PropOp45
 70
     1
102
RTVSPost2010Prop46
 90
       50
102
RTVSPost2010PropOp46
 70
     1
102
RTVSPost2010Prop47
 90
       50
102
RTVSPost2010PropOp47
 70
     1
102
RTVSPost2010Prop48
 90
       50
102
RTVSPost2010PropOp48
 70
     1
102
RTVSPost2010Prop49
280
     0
102
RTVSPost2010PropOp49
 70
     1
102
RTVSPost2010Prop50
 90
       50
102
RTVSPost2010PropOp50
 70
     1
102
RTVSPost2010Prop51ColorIndex
 90
      256
102
RTVSPost2010Prop51ColorRGB
 90
-16777216
102
RTVSPost2010PropOp51
 70
     0
102
RTVSPost2010Prop52
140
1.0
102
RTVSPost2010PropOp52
 70
     0
102
RTVSPost2010Prop53
 90
        2
102
RTVSPost2010PropOp53
 70
     1
102
RTVSPost2010Prop54
  1
strokes_ogs.tif
102
RTVSPost2010PropOp54
 70
     1
102
RTVSPost2010Prop55
280
     0
102
RTVSPost2010PropOp55
 70
     1
102
RTVSPost2010Prop56
140
1.0
102
RTVSPost2010PropOp56
 70
     1
102
RTVSPost2010Prop57
140
1.0
102
RTVSPost2010PropOp57
 70
     1
102
RTVSPropertyOp0
 70
     0
102
RTVSPropertyOp1
 70
     0
102
RTVSPropertyOp2
 70
     0
102
RTVSPropertyOp3
 70
     0
102
RTVSPropertyOp4
 70
     0
102
RTVSPropertyOp5
 70
     0
102
RTVSPropertyOp6
 70
     0
102
RTVSPropertyOp7
 70
     0
102
RTVSPropertyOp8
 70
     0
102
RTVSPropertyOp9
 70
     0
102
RTVSPropertyOp10
 70
     0
102
RTVSPropertyOp11
 70
     0
102
RTVSPropertyOp12
 70
     0
102
RTVSPropertyOp13
 70
     0
102
RTVSPropertyOp14
 70
     2
102
RTVSPropertyOp15
 70
     0
102
RTVSPropertyOp16
 70
     0
102
RTVSPropertyOp17
 70
     0
102
RTVSPropertyOp18
 70
     0
102
RTVSPropertyOp19
 70
     0
102
RTVSPropertyOp20
 70
     0
102
RTVSPropertyOp21
 70
     0
102
RTVSPropertyOp22
 70
     0
102
RTVSPropertyOp23
 70
     0
102
RTVSPropertyOp24
 70
     0
102
RTVSPropertyOp25
 70
     0
102
RTVSPropertyOp26
 70
     0
102
RTVSPropertyOp27
 70
     0
102
RTVSPropertyOp28
 70
     1
102
RTVSPropertyOp29
 70
     1
102
RTVSPropertyOp30
 70
     1
102
RTVSPropertyOp31
 70
     1
102
RTVSPropertyOp32
 70
     1
102
RTVSPropertyOp33
 70
     1
102
RTVSPropertyOp34
 70
     1
102
RTVSPropertyOp35
 70
     1
102
RTVSPropertyOp36
 70
     1
102
RTVSPropertyOp37
 70
     1
102
RTVSPropertyOp38
 70
     1
102
RTVSPropertyOp39
 70
     1
102
RTVSPropertyOp40
 70
     1
102
RTVSPropertyOp41
 70
     1
102
RTVSPropertyOp42
 70
     1
102
RTVSPropertyOp43
 70
     1
102
RTVSPropertyOp44
 70
     1
102
RTVSPropertyOp45
 70
     1
102
RTVSPropertyOp46
 70
     1
102
RTVSPropertyOp47
 70
     1
102
RTVSPropertyOp48
 70
     1
102
RTVSPropertyOp49
 70
     1
102
RTVSPropertyOp50
 70
     1
102
RTVSPropertyOp51
 70
     0
102
RTVSPropertyOp52
 70
     0
102
RTVSPropertyOp53
 70
     1
102
RTVSPropertyOp54
 70
     1
102
RTVSPropertyOp55
 70
     1
102
RTVSPropertyOp56
 70
     1
102
RTVSPropertyOp57
 70
     1
102
RTVSPropertyOp58
 70
     1
102
RTVSPropertyOp59
 70
     1
102
RTVSPropertyOp60
 70
     1
102
RTVSPropertyOp61
 70
     1
102
RTVSPropertyOp62
 70
     1
  0
XRECORD
  5
15A3
102
{ACAD_REACTORS
330
15A2
102
}
330
15A2
100
AcDbXrecord
280
     1
102
RTVSPost2010Prop28
280
     0
102
RTVSPost2010PropOp28
 70
     1
102
RTVSPost2010Prop29
280
     1
102
RTVSPost2010PropOp29
 70
     1
102
RTVSPost2010Prop30
280
     1
102
RTVSPost2010PropOp30
 70
     1
102
RTVSPost2010Prop31
280
     0
102
RTVSPost2010PropOp31
 70
     1
102
RTVSPost2010Prop32
280
     0
102
RTVSPost2010PropOp32
 70
     1
102
RTVSPost2010Prop33
280
     0
102
RTVSPost2010PropOp33
 70
     1
102
RTVSPost2010Prop34
280
     0
102
RTVSPost2010PropOp34
 70
     1
102
RTVSPost2010Prop35
280
     0
102
RTVSPost2010PropOp35
 70
     1
102
RTVSPost2010Prop36
280
     0
102
RTVSPost2010PropOp36
 70
     1
102
RTVSPost2010Prop37
 90
       50
102
RTVSPost2010PropOp37
 70
     1
102
RTVSPost2010Prop38
140
0.0
102
RTVSPost2010PropOp38
 70
     1
102
RTVSPost2010Prop39
140
1.0
102
RTVSPost2010PropOp39
 70
     1
102
RTVSPost2010Prop40
 90
        0
102
RTVSPost2010PropOp40
 70
     1
102
RTVSPost2010Prop41ColorIndex
 90
       18
102
RTVSPost2010Prop41ColorRGB
 90
        0
102
RTVSPost2010PropOp41
 70
     1
102
RTVSPost2010Prop42
 90
       50
102
RTVSPost2010PropOp42
 70
     1
102
RTVSPost2010Prop43
 90
        3
102
RTVSPost2010PropOp43
 70
     1
102
RTVSPost2010Prop44ColorIndex
 90
        5
102
RTVSPost2010Prop44ColorRGB
 90
      255
102
RTVSPost2010PropOp44
 70
     1
102
RTVSPost2010Prop45
280
     0
102
RTVSPost2010PropOp45
 70
     1
102
RTVSPost2010Prop46
 90
       50
102
RTVSPost2010PropOp46
 70
     1
102
RTVSPost2010Prop47
 90
       50
102
RTVSPost2010PropOp47
 70
     1
102
RTVSPost2010Prop48
 90
       50
102
RTVSPost2010PropOp48
 70
     1
102
RTVSPost2010Prop49
280
     0
102
RTVSPost2010PropOp49
 70
     1
102
RTVSPost2010Prop50
 90
       50
102
RTVSPost2010PropOp50
 70
     1
102
RTVSPost2010Prop51ColorIndex
 90
      256
102
RTVSPost2010Prop51ColorRGB
 90
-16777216
102
RTVSPost2010PropOp51
 70
     0
102
RTVSPost2010Prop52
140
1.0
102
RTVSPost2010PropOp52
 70
     0
102
RTVSPost2010Prop53
 90
        2
102
RTVSPost2010PropOp53
 70
     1
102
RTVSPost2010Prop54
  1
strokes_ogs.tif
102
RTVSPost2010PropOp54
 70
     1
102
RTVSPost2010Prop55
280
     0
102
RTVSPost2010PropOp55
 70
     1
102
RTVSPost2010Prop56
140
1.0
102
RTVSPost2010PropOp56
 70
     1
102
RTVSPost2010Prop57
140
1.0
102
RTVSPost2010PropOp57
 70
     1
102
RTVSPropertyOp0
 70
     1
102
RTVSPropertyOp1
 70
     1
102
RTVSPropertyOp2
 70
     1
102
RTVSPropertyOp3
 70
     1
102
RTVSPropertyOp4
 70
     1
102
RTVSPropertyOp5
 70
     1
102
RTVSPropertyOp6
 70
     1
102
RTVSPropertyOp7
 70
     1
102
RTVSPropertyOp8
 70
     1
102
RTVSPropertyOp9
 70
     1
102
RTVSPropertyOp10
 70
     1
102
RTVSPropertyOp11
 70
     1
102
RTVSPropertyOp12
 70
     1
102
RTVSPropertyOp13
 70
     1
102
RTVSPropertyOp14
 70
     1
102
RTVSPropertyOp15
 70
     1
102
RTVSPropertyOp16
 70
     1
102
RTVSPropertyOp17
 70
     1
102
RTVSPropertyOp18
 70
     1
102
RTVSPropertyOp19
 70
     1
102
RTVSPropertyOp20
 70
     1
102
RTVSPropertyOp21
 70
     1
102
RTVSPropertyOp22
 70
     1
102
RTVSPropertyOp23
 70
     1
102
RTVSPropertyOp24
 70
     1
102
RTVSPropertyOp25
 70
     1
102
RTVSPropertyOp26
 70
     1
102
RTVSPropertyOp27
 70
     1
102
RTVSPropertyOp28
 70
     1
102
RTVSPropertyOp29
 70
     1
102
RTVSPropertyOp30
 70
     1
102
RTVSPropertyOp31
 70
     1
102
RTVSPropertyOp32
 70
     1
102
RTVSPropertyOp33
 70
     1
102
RTVSPropertyOp34
 70
     1
102
RTVSPropertyOp35
 70
     1
102
RTVSPropertyOp36
 70
     1
102
RTVSPropertyOp37
 70
     1
102
RTVSPropertyOp38
 70
     1
102
RTVSPropertyOp39
 70
     1
102
RTVSPropertyOp40
 70
     1
102
RTVSPropertyOp41
 70
     1
102
RTVSPropertyOp42
 70
     1
102
RTVSPropertyOp43
 70
     1
102
RTVSPropertyOp44
 70
     1
102
RTVSPropertyOp45
 70
     1
102
RTVSPropertyOp46
 70
     1
102
RTVSPropertyOp47
 70
     1
102
RTVSPropertyOp48
 70
     1
102
RTVSPropertyOp49
 70
     1
102
RTVSPropertyOp50
 70
     1
102
RTVSPropertyOp51
 70
     0
102
RTVSPropertyOp52
 70
     0
102
RTVSPropertyOp53
 70
     1
102
RTVSPropertyOp54
 70
     1
102
RTVSPropertyOp55
 70
     1
102
RTVSPropertyOp56
 70
     1
102
RTVSPropertyOp57
 70
     1
102
RTVSPropertyOp58
 70
     1
102
RTVSPropertyOp59
 70
     1
102
RTVSPropertyOp60
 70
     1
102
RTVSPropertyOp61
 70
     1
102
RTVSPropertyOp62
 70
     1
  0
XRECORD
  5
1587
102
{ACAD_REACTORS
330
1586
102
}
330
1586
100
AcDbXrecord
280
     1
102
RTVSPost2010Prop28
280
     0
102
RTVSPost2010PropOp28
 70
     1
102
RTVSPost2010Prop29
280
     1
102
RTVSPost2010PropOp29
 70
     1
102
RTVSPost2010Prop30
280
     1
102
RTVSPost2010PropOp30
 70
     1
102
RTVSPost2010Prop31
280
     0
102
RTVSPost2010PropOp31
 70
     1
102
RTVSPost2010Prop32
280
     0
102
RTVSPost2010PropOp32
 70
     1
102
RTVSPost2010Prop33
280
     0
102
RTVSPost2010PropOp33
 70
     1
102
RTVSPost2010Prop34
280
     0
102
RTVSPost2010PropOp34
 70
     1
102
RTVSPost2010Prop35
280
     0
102
RTVSPost2010PropOp35
 70
     1
102
RTVSPost2010Prop36
280
     0
102
RTVSPost2010PropOp36
 70
     1
102
RTVSPost2010Prop37
 90
       50
102
RTVSPost2010PropOp37
 70
     1
102
RTVSPost2010Prop38
140
0.0
102
RTVSPost2010PropOp38
 70
     1
102
RTVSPost2010Prop39
140
1.0
102
RTVSPost2010PropOp39
 70
     1
102
RTVSPost2010Prop40
 90
        0
102
RTVSPost2010PropOp40
 70
     1
102
RTVSPost2010Prop41ColorIndex
 90
       18
102
RTVSPost2010Prop41ColorRGB
 90
        0
102
RTVSPost2010PropOp41
 70
     1
102
RTVSPost2010Prop42
 90
       50
102
RTVSPost2010PropOp42
 70
     1
102
RTVSPost2010Prop43
 90
        3
102
RTVSPost2010PropOp43
 70
     1
102
RTVSPost2010Prop44ColorIndex
 90
        5
102
RTVSPost2010Prop44ColorRGB
 90
      255
102
RTVSPost2010PropOp44
 70
     1
102
RTVSPost2010Prop45
280
     0
102
RTVSPost2010PropOp45
 70
     1
102
RTVSPost2010Prop46
 90
       50
102
RTVSPost2010PropOp46
 70
     1
102
RTVSPost2010Prop47
 90
       50
102
RTVSPost2010PropOp47
 70
     1
102
RTVSPost2010Prop48
 90
       50
102
RTVSPost2010PropOp48
 70
     1
102
RTVSPost2010Prop49
280
     0
102
RTVSPost2010PropOp49
 70
     1
102
RTVSPost2010Prop50
 90
       50
102
RTVSPost2010PropOp50
 70
     1
102
RTVSPost2010Prop51ColorIndex
 90
      256
102
RTVSPost2010Prop51ColorRGB
 90
-16777216
102
RTVSPost2010PropOp51
 70
     0
102
RTVSPost2010Prop52
140
1.0
102
RTVSPost2010PropOp52
 70
     0
102
RTVSPost2010Prop53
 90
        2
102
RTVSPost2010PropOp53
 70
     1
102
RTVSPost2010Prop54
  1
strokes_ogs.tif
102
RTVSPost2010PropOp54
 70
     1
102
RTVSPost2010Prop55
280
     0
102
RTVSPost2010PropOp55
 70
     1
102
RTVSPost2010Prop56
140
1.0
102
RTVSPost2010PropOp56
 70
     1
102
RTVSPost2010Prop57
140
1.0
102
RTVSPost2010PropOp57
 70
     1
102
RTVSPropertyOp0
 70
     1
102
RTVSPropertyOp1
 70
     1
102
RTVSPropertyOp2
 70
     1
102
RTVSPropertyOp3
 70
     1
102
RTVSPropertyOp4
 70
     1
102
RTVSPropertyOp5
 70
     1
102
RTVSPropertyOp6
 70
     1
102
RTVSPropertyOp7
 70
     1
102
RTVSPropertyOp8
 70
     1
102
RTVSPropertyOp9
 70
     1
102
RTVSPropertyOp10
 70
     1
102
RTVSPropertyOp11
 70
     1
102
RTVSPropertyOp12
 70
     1
102
RTVSPropertyOp13
 70
     1
102
RTVSPropertyOp14
 70
     1
102
RTVSPropertyOp15
 70
     1
102
RTVSPropertyOp16
 70
     1
102
RTVSPropertyOp17
 70
     1
102
RTVSPropertyOp18
 70
     1
102
RTVSPropertyOp19
 70
     1
102
RTVSPropertyOp20
 70
     1
102
RTVSPropertyOp21
 70
     1
102
RTVSPropertyOp22
 70
     1
102
RTVSPropertyOp23
 70
     1
102
RTVSPropertyOp24
 70
     1
102
RTVSPropertyOp25
 70
     1
102
RTVSPropertyOp26
 70
     1
102
RTVSPropertyOp27
 70
     1
102
RTVSPropertyOp28
 70
     1
102
RTVSPropertyOp29
 70
     1
102
RTVSPropertyOp30
 70
     1
102
RTVSPropertyOp31
 70
     1
102
RTVSPropertyOp32
 70
     1
102
RTVSPropertyOp33
 70
     1
102
RTVSPropertyOp34
 70
     1
102
RTVSPropertyOp35
 70
     1
102
RTVSPropertyOp36
 70
     1
102
RTVSPropertyOp37
 70
     1
102
RTVSPropertyOp38
 70
     1
102
RTVSPropertyOp39
 70
     1
102
RTVSPropertyOp40
 70
     1
102
RTVSPropertyOp41
 70
     1
102
RTVSPropertyOp42
 70
     1
102
RTVSPropertyOp43
 70
     1
102
RTVSPropertyOp44
 70
     1
102
RTVSPropertyOp45
 70
     1
102
RTVSPropertyOp46
 70
     1
102
RTVSPropertyOp47
 70
     1
102
RTVSPropertyOp48
 70
     1
102
RTVSPropertyOp49
 70
     1
102
RTVSPropertyOp50
 70
     1
102
RTVSPropertyOp51
 70
     0
102
RTVSPropertyOp52
 70
     0
102
RTVSPropertyOp53
 70
     1
102
RTVSPropertyOp54
 70
     1
102
RTVSPropertyOp55
 70
     1
102
RTVSPropertyOp56
 70
     1
102
RTVSPropertyOp57
 70
     1
102
RTVSPropertyOp58
 70
     1
102
RTVSPropertyOp59
 70
     1
102
RTVSPropertyOp60
 70
     1
102
RTVSPropertyOp61
 70
     1
102
RTVSPropertyOp62
 70
     1
  0
XRECORD
  5
1589
102
{ACAD_REACTORS
330
1588
102
}
330
1588
100
AcDbXrecord
280
     1
102
RTVSPost2010Prop28
280
     0
102
RTVSPost2010PropOp28
 70
     1
102
RTVSPost2010Prop29
280
     1
102
RTVSPost2010PropOp29
 70
     1
102
RTVSPost2010Prop30
280
     1
102
RTVSPost2010PropOp30
 70
     1
102
RTVSPost2010Prop31
280
     0
102
RTVSPost2010PropOp31
 70
     1
102
RTVSPost2010Prop32
280
     0
102
RTVSPost2010PropOp32
 70
     1
102
RTVSPost2010Prop33
280
     0
102
RTVSPost2010PropOp33
 70
     1
102
RTVSPost2010Prop34
280
     0
102
RTVSPost2010PropOp34
 70
     1
102
RTVSPost2010Prop35
280
     0
102
RTVSPost2010PropOp35
 70
     1
102
RTVSPost2010Prop36
280
     0
102
RTVSPost2010PropOp36
 70
     1
102
RTVSPost2010Prop37
 90
       50
102
RTVSPost2010PropOp37
 70
     1
102
RTVSPost2010Prop38
140
0.0
102
RTVSPost2010PropOp38
 70
     1
102
RTVSPost2010Prop39
140
1.0
102
RTVSPost2010PropOp39
 70
     1
102
RTVSPost2010Prop40
 90
        0
102
RTVSPost2010PropOp40
 70
     1
102
RTVSPost2010Prop41ColorIndex
 90
       18
102
RTVSPost2010Prop41ColorRGB
 90
        0
102
RTVSPost2010PropOp41
 70
     1
102
RTVSPost2010Prop42
 90
       50
102
RTVSPost2010PropOp42
 70
     1
102
RTVSPost2010Prop43
 90
        3
102
RTVSPost2010PropOp43
 70
     1
102
RTVSPost2010Prop44ColorIndex
 90
        5
102
RTVSPost2010Prop44ColorRGB
 90
      255
102
RTVSPost2010PropOp44
 70
     1
102
RTVSPost2010Prop45
280
     0
102
RTVSPost2010PropOp45
 70
     1
102
RTVSPost2010Prop46
 90
       50
102
RTVSPost2010PropOp46
 70
     1
102
RTVSPost2010Prop47
 90
       50
102
RTVSPost2010PropOp47
 70
     1
102
RTVSPost2010Prop48
 90
       50
102
RTVSPost2010PropOp48
 70
     1
102
RTVSPost2010Prop49
280
     0
102
RTVSPost2010PropOp49
 70
     1
102
RTVSPost2010Prop50
 90
       50
102
RTVSPost2010PropOp50
 70
     1
102
RTVSPost2010Prop51ColorIndex
 90
      256
102
RTVSPost2010Prop51ColorRGB
 90
-16777216
102
RTVSPost2010PropOp51
 70
     0
102
RTVSPost2010Prop52
140
1.0
102
RTVSPost2010PropOp52
 70
     0
102
RTVSPost2010Prop53
 90
        2
102
RTVSPost2010PropOp53
 70
     1
102
RTVSPost2010Prop54
  1
strokes_ogs.tif
102
RTVSPost2010PropOp54
 70
     1
102
RTVSPost2010Prop55
280
     0
102
RTVSPost2010PropOp55
 70
     1
102
RTVSPost2010Prop56
140
1.0
102
RTVSPost2010PropOp56
 70
     1
102
RTVSPost2010Prop57
140
1.0
102
RTVSPost2010PropOp57
 70
     1
102
RTVSPropertyOp0
 70
     1
102
RTVSPropertyOp1
 70
     1
102
RTVSPropertyOp2
 70
     1
102
RTVSPropertyOp3
 70
     1
102
RTVSPropertyOp4
 70
     1
102
RTVSPropertyOp5
 70
     1
102
RTVSPropertyOp6
 70
     1
102
RTVSPropertyOp7
 70
     1
102
RTVSPropertyOp8
 70
     1
102
RTVSPropertyOp9
 70
     1
102
RTVSPropertyOp10
 70
     1
102
RTVSPropertyOp11
 70
     1
102
RTVSPropertyOp12
 70
     1
102
RTVSPropertyOp13
 70
     1
102
RTVSPropertyOp14
 70
     1
102
RTVSPropertyOp15
 70
     1
102
RTVSPropertyOp16
 70
     1
102
RTVSPropertyOp17
 70
     1
102
RTVSPropertyOp18
 70
     1
102
RTVSPropertyOp19
 70
     1
102
RTVSPropertyOp20
 70
     1
102
RTVSPropertyOp21
 70
     1
102
RTVSPropertyOp22
 70
     1
102
RTVSPropertyOp23
 70
     1
102
RTVSPropertyOp24
 70
     1
102
RTVSPropertyOp25
 70
     1
102
RTVSPropertyOp26
 70
     1
102
RTVSPropertyOp27
 70
     1
102
RTVSPropertyOp28
 70
     1
102
RTVSPropertyOp29
 70
     1
102
RTVSPropertyOp30
 70
     1
102
RTVSPropertyOp31
 70
     1
102
RTVSPropertyOp32
 70
     1
102
RTVSPropertyOp33
 70
     1
102
RTVSPropertyOp34
 70
     1
102
RTVSPropertyOp35
 70
     1
102
RTVSPropertyOp36
 70
     1
102
RTVSPropertyOp37
 70
     1
102
RTVSPropertyOp38
 70
     1
102
RTVSPropertyOp39
 70
     1
102
RTVSPropertyOp40
 70
     1
102
RTVSPropertyOp41
 70
     1
102
RTVSPropertyOp42
 70
     1
102
RTVSPropertyOp43
 70
     1
102
RTVSPropertyOp44
 70
     1
102
RTVSPropertyOp45
 70
     1
102
RTVSPropertyOp46
 70
     1
102
RTVSPropertyOp47
 70
     1
102
RTVSPropertyOp48
 70
     1
102
RTVSPropertyOp49
 70
     1
102
RTVSPropertyOp50
 70
     1
102
RTVSPropertyOp51
 70
     0
102
RTVSPropertyOp52
 70
     0
102
RTVSPropertyOp53
 70
     1
102
RTVSPropertyOp54
 70
     1
102
RTVSPropertyOp55
 70
     1
102
RTVSPropertyOp56
 70
     1
102
RTVSPropertyOp57
 70
     1
102
RTVSPropertyOp58
 70
     1
102
RTVSPropertyOp59
 70
     1
102
RTVSPropertyOp60
 70
     1
102
RTVSPropertyOp61
 70
     1
102
RTVSPropertyOp62
 70
     1
  0
XRECORD
  5
158B
102
{ACAD_REACTORS
330
158A
102
}
330
158A
100
AcDbXrecord
280
     1
102
RTVSPost2010Prop28
280
     0
102
RTVSPost2010PropOp28
 70
     1
102
RTVSPost2010Prop29
280
     1
102
RTVSPost2010PropOp29
 70
     1
102
RTVSPost2010Prop30
280
     1
102
RTVSPost2010PropOp30
 70
     1
102
RTVSPost2010Prop31
280
     0
102
RTVSPost2010PropOp31
 70
     1
102
RTVSPost2010Prop32
280
     0
102
RTVSPost2010PropOp32
 70
     1
102
RTVSPost2010Prop33
280
     0
102
RTVSPost2010PropOp33
 70
     1
102
RTVSPost2010Prop34
280
     0
102
RTVSPost2010PropOp34
 70
     1
102
RTVSPost2010Prop35
280
     0
102
RTVSPost2010PropOp35
 70
     1
102
RTVSPost2010Prop36
280
     0
102
RTVSPost2010PropOp36
 70
     1
102
RTVSPost2010Prop37
 90
       50
102
RTVSPost2010PropOp37
 70
     1
102
RTVSPost2010Prop38
140
0.0
102
RTVSPost2010PropOp38
 70
     1
102
RTVSPost2010Prop39
140
1.0
102
RTVSPost2010PropOp39
 70
     1
102
RTVSPost2010Prop40
 90
        0
102
RTVSPost2010PropOp40
 70
     1
102
RTVSPost2010Prop41ColorIndex
 90
       18
102
RTVSPost2010Prop41ColorRGB
 90
        0
102
RTVSPost2010PropOp41
 70
     1
102
RTVSPost2010Prop42
 90
       50
102
RTVSPost2010PropOp42
 70
     1
102
RTVSPost2010Prop43
 90
        3
102
RTVSPost2010PropOp43
 70
     1
102
RTVSPost2010Prop44ColorIndex
 90
        5
102
RTVSPost2010Prop44ColorRGB
 90
      255
102
RTVSPost2010PropOp44
 70
     1
102
RTVSPost2010Prop45
280
     0
102
RTVSPost2010PropOp45
 70
     1
102
RTVSPost2010Prop46
 90
       50
102
RTVSPost2010PropOp46
 70
     1
102
RTVSPost2010Prop47
 90
       50
102
RTVSPost2010PropOp47
 70
     1
102
RTVSPost2010Prop48
 90
       50
102
RTVSPost2010PropOp48
 70
     1
102
RTVSPost2010Prop49
280
     0
102
RTVSPost2010PropOp49
 70
     1
102
RTVSPost2010Prop50
 90
       50
102
RTVSPost2010PropOp50
 70
     1
102
RTVSPost2010Prop51ColorIndex
 90
      256
102
RTVSPost2010Prop51ColorRGB
 90
-16777216
102
RTVSPost2010PropOp51
 70
     0
102
RTVSPost2010Prop52
140
1.0
102
RTVSPost2010PropOp52
 70
     0
102
RTVSPost2010Prop53
 90
        2
102
RTVSPost2010PropOp53
 70
     1
102
RTVSPost2010Prop54
  1
strokes_ogs.tif
102
RTVSPost2010PropOp54
 70
     1
102
RTVSPost2010Prop55
280
     0
102
RTVSPost2010PropOp55
 70
     1
102
RTVSPost2010Prop56
140
1.0
102
RTVSPost2010PropOp56
 70
     1
102
RTVSPost2010Prop57
140
1.0
102
RTVSPost2010PropOp57
 70
     1
102
RTVSPropertyOp0
 70
     1
102
RTVSPropertyOp1
 70
     1
102
RTVSPropertyOp2
 70
     1
102
RTVSPropertyOp3
 70
     1
102
RTVSPropertyOp4
 70
     1
102
RTVSPropertyOp5
 70
     1
102
RTVSPropertyOp6
 70
     1
102
RTVSPropertyOp7
 70
     1
102
RTVSPropertyOp8
 70
     1
102
RTVSPropertyOp9
 70
     1
102
RTVSPropertyOp10
 70
     1
102
RTVSPropertyOp11
 70
     1
102
RTVSPropertyOp12
 70
     1
102
RTVSPropertyOp13
 70
     1
102
RTVSPropertyOp14
 70
     1
102
RTVSPropertyOp15
 70
     1
102
RTVSPropertyOp16
 70
     1
102
RTVSPropertyOp17
 70
     1
102
RTVSPropertyOp18
 70
     1
102
RTVSPropertyOp19
 70
     1
102
RTVSPropertyOp20
 70
     1
102
RTVSPropertyOp21
 70
     1
102
RTVSPropertyOp22
 70
     1
102
RTVSPropertyOp23
 70
     1
102
RTVSPropertyOp24
 70
     1
102
RTVSPropertyOp25
 70
     1
102
RTVSPropertyOp26
 70
     1
102
RTVSPropertyOp27
 70
     1
102
RTVSPropertyOp28
 70
     1
102
RTVSPropertyOp29
 70
     1
102
RTVSPropertyOp30
 70
     1
102
RTVSPropertyOp31
 70
     1
102
RTVSPropertyOp32
 70
     1
102
RTVSPropertyOp33
 70
     1
102
RTVSPropertyOp34
 70
     1
102
RTVSPropertyOp35
 70
     1
102
RTVSPropertyOp36
 70
     1
102
RTVSPropertyOp37
 70
     1
102
RTVSPropertyOp38
 70
     1
102
RTVSPropertyOp39
 70
     1
102
RTVSPropertyOp40
 70
     1
102
RTVSPropertyOp41
 70
     1
102
RTVSPropertyOp42
 70
     1
102
RTVSPropertyOp43
 70
     1
102
RTVSPropertyOp44
 70
     1
102
RTVSPropertyOp45
 70
     1
102
RTVSPropertyOp46
 70
     1
102
RTVSPropertyOp47
 70
     1
102
RTVSPropertyOp48
 70
     1
102
RTVSPropertyOp49
 70
     1
102
RTVSPropertyOp50
 70
     1
102
RTVSPropertyOp51
 70
     0
102
RTVSPropertyOp52
 70
     0
102
RTVSPropertyOp53
 70
     1
102
RTVSPropertyOp54
 70
     1
102
RTVSPropertyOp55
 70
     1
102
RTVSPropertyOp56
 70
     1
102
RTVSPropertyOp57
 70
     1
102
RTVSPropertyOp58
 70
     1
102
RTVSPropertyOp59
 70
     1
102
RTVSPropertyOp60
 70
     1
102
RTVSPropertyOp61
 70
     1
102
RTVSPropertyOp62
 70
     1
  0
XRECORD
  5
158D
102
{ACAD_REACTORS
330
158C
102
}
330
158C
100
AcDbXrecord
280
     1
102
RTVSPost2010Prop28
280
     0
102
RTVSPost2010PropOp28
 70
     1
102
RTVSPost2010Prop29
280
     1
102
RTVSPost2010PropOp29
 70
     1
102
RTVSPost2010Prop30
280
     1
102
RTVSPost2010PropOp30
 70
     1
102
RTVSPost2010Prop31
280
     0
102
RTVSPost2010PropOp31
 70
     1
102
RTVSPost2010Prop32
280
     0
102
RTVSPost2010PropOp32
 70
     1
102
RTVSPost2010Prop33
280
     0
102
RTVSPost2010PropOp33
 70
     1
102
RTVSPost2010Prop34
280
     0
102
RTVSPost2010PropOp34
 70
     1
102
RTVSPost2010Prop35
280
     0
102
RTVSPost2010PropOp35
 70
     1
102
RTVSPost2010Prop36
280
     0
102
RTVSPost2010PropOp36
 70
     1
102
RTVSPost2010Prop37
 90
       50
102
RTVSPost2010PropOp37
 70
     1
102
RTVSPost2010Prop38
140
0.0
102
RTVSPost2010PropOp38
 70
     1
102
RTVSPost2010Prop39
140
1.0
102
RTVSPost2010PropOp39
 70
     1
102
RTVSPost2010Prop40
 90
        0
102
RTVSPost2010PropOp40
 70
     1
102
RTVSPost2010Prop41ColorIndex
 90
       18
102
RTVSPost2010Prop41ColorRGB
 90
        0
102
RTVSPost2010PropOp41
 70
     1
102
RTVSPost2010Prop42
 90
       50
102
RTVSPost2010PropOp42
 70
     1
102
RTVSPost2010Prop43
 90
        3
102
RTVSPost2010PropOp43
 70
     1
102
RTVSPost2010Prop44ColorIndex
 90
        5
102
RTVSPost2010Prop44ColorRGB
 90
      255
102
RTVSPost2010PropOp44
 70
     1
102
RTVSPost2010Prop45
280
     0
102
RTVSPost2010PropOp45
 70
     1
102
RTVSPost2010Prop46
 90
       50
102
RTVSPost2010PropOp46
 70
     1
102
RTVSPost2010Prop47
 90
       50
102
RTVSPost2010PropOp47
 70
     1
102
RTVSPost2010Prop48
 90
       50
102
RTVSPost2010PropOp48
 70
     1
102
RTVSPost2010Prop49
280
     0
102
RTVSPost2010PropOp49
 70
     1
102
RTVSPost2010Prop50
 90
       50
102
RTVSPost2010PropOp50
 70
     1
102
RTVSPost2010Prop51ColorIndex
 90
      256
102
RTVSPost2010Prop51ColorRGB
 90
-16777216
102
RTVSPost2010PropOp51
 70
     0
102
RTVSPost2010Prop52
140
1.0
102
RTVSPost2010PropOp52
 70
     0
102
RTVSPost2010Prop53
 90
        2
102
RTVSPost2010PropOp53
 70
     1
102
RTVSPost2010Prop54
  1
strokes_ogs.tif
102
RTVSPost2010PropOp54
 70
     1
102
RTVSPost2010Prop55
280
     0
102
RTVSPost2010PropOp55
 70
     1
102
RTVSPost2010Prop56
140
1.0
102
RTVSPost2010PropOp56
 70
     1
102
RTVSPost2010Prop57
140
1.0
102
RTVSPost2010PropOp57
 70
     1
102
RTVSPropertyOp0
 70
     1
102
RTVSPropertyOp1
 70
     1
102
RTVSPropertyOp2
 70
     1
102
RTVSPropertyOp3
 70
     1
102
RTVSPropertyOp4
 70
     1
102
RTVSPropertyOp5
 70
     1
102
RTVSPropertyOp6
 70
     1
102
RTVSPropertyOp7
 70
     1
102
RTVSPropertyOp8
 70
     1
102
RTVSPropertyOp9
 70
     1
102
RTVSPropertyOp10
 70
     1
102
RTVSPropertyOp11
 70
     1
102
RTVSPropertyOp12
 70
     1
102
RTVSPropertyOp13
 70
     1
102
RTVSPropertyOp14
 70
     1
102
RTVSPropertyOp15
 70
     1
102
RTVSPropertyOp16
 70
     1
102
RTVSPropertyOp17
 70
     1
102
RTVSPropertyOp18
 70
     1
102
RTVSPropertyOp19
 70
     1
102
RTVSPropertyOp20
 70
     1
102
RTVSPropertyOp21
 70
     1
102
RTVSPropertyOp22
 70
     1
102
RTVSPropertyOp23
 70
     1
102
RTVSPropertyOp24
 70
     1
102
RTVSPropertyOp25
 70
     1
102
RTVSPropertyOp26
 70
     1
102
RTVSPropertyOp27
 70
     1
102
RTVSPropertyOp28
 70
     1
102
RTVSPropertyOp29
 70
     1
102
RTVSPropertyOp30
 70
     1
102
RTVSPropertyOp31
 70
     1
102
RTVSPropertyOp32
 70
     1
102
RTVSPropertyOp33
 70
     1
102
RTVSPropertyOp34
 70
     1
102
RTVSPropertyOp35
 70
     1
102
RTVSPropertyOp36
 70
     1
102
RTVSPropertyOp37
 70
     1
102
RTVSPropertyOp38
 70
     1
102
RTVSPropertyOp39
 70
     1
102
RTVSPropertyOp40
 70
     1
102
RTVSPropertyOp41
 70
     1
102
RTVSPropertyOp42
 70
     1
102
RTVSPropertyOp43
 70
     1
102
RTVSPropertyOp44
 70
     1
102
RTVSPropertyOp45
 70
     1
102
RTVSPropertyOp46
 70
     1
102
RTVSPropertyOp47
 70
     1
102
RTVSPropertyOp48
 70
     1
102
RTVSPropertyOp49
 70
     1
102
RTVSPropertyOp50
 70
     1
102
RTVSPropertyOp51
 70
     0
102
RTVSPropertyOp52
 70
     0
102
RTVSPropertyOp53
 70
     1
102
RTVSPropertyOp54
 70
     1
102
RTVSPropertyOp55
 70
     1
102
RTVSPropertyOp56
 70
     1
102
RTVSPropertyOp57
 70
     1
102
RTVSPropertyOp58
 70
     1
102
RTVSPropertyOp59
 70
     1
102
RTVSPropertyOp60
 70
     1
102
RTVSPropertyOp61
 70
     1
102
RTVSPropertyOp62
 70
     1
  0
XRECORD
  5
1595
102
{ACAD_REACTORS
330
1594
102
}
330
1594
100
AcDbXrecord
280
     1
102
RTVSPost2010Prop28
280
     0
102
RTVSPost2010PropOp28
 70
     1
102
RTVSPost2010Prop29
280
     1
102
RTVSPost2010PropOp29
 70
     1
102
RTVSPost2010Prop30
280
     1
102
RTVSPost2010PropOp30
 70
     1
102
RTVSPost2010Prop31
280
     0
102
RTVSPost2010PropOp31
 70
     1
102
RTVSPost2010Prop32
280
     0
102
RTVSPost2010PropOp32
 70
     1
102
RTVSPost2010Prop33
280
     0
102
RTVSPost2010PropOp33
 70
     1
102
RTVSPost2010Prop34
280
     0
102
RTVSPost2010PropOp34
 70
     1
102
RTVSPost2010Prop35
280
     0
102
RTVSPost2010PropOp35
 70
     1
102
RTVSPost2010Prop36
280
     0
102
RTVSPost2010PropOp36
 70
     1
102
RTVSPost2010Prop37
 90
       50
102
RTVSPost2010PropOp37
 70
     1
102
RTVSPost2010Prop38
140
0.0
102
RTVSPost2010PropOp38
 70
     1
102
RTVSPost2010Prop39
140
1.0
102
RTVSPost2010PropOp39
 70
     1
102
RTVSPost2010Prop40
 90
        0
102
RTVSPost2010PropOp40
 70
     1
102
RTVSPost2010Prop41ColorIndex
 90
       18
102
RTVSPost2010Prop41ColorRGB
 90
        0
102
RTVSPost2010PropOp41
 70
     1
102
RTVSPost2010Prop42
 90
       50
102
RTVSPost2010PropOp42
 70
     1
102
RTVSPost2010Prop43
 90
        3
102
RTVSPost2010PropOp43
 70
     1
102
RTVSPost2010Prop44ColorIndex
 90
        5
102
RTVSPost2010Prop44ColorRGB
 90
      255
102
RTVSPost2010PropOp44
 70
     1
102
RTVSPost2010Prop45
280
     0
102
RTVSPost2010PropOp45
 70
     1
102
RTVSPost2010Prop46
 90
       50
102
RTVSPost2010PropOp46
 70
     1
102
RTVSPost2010Prop47
 90
       50
102
RTVSPost2010PropOp47
 70
     1
102
RTVSPost2010Prop48
 90
       50
102
RTVSPost2010PropOp48
 70
     1
102
RTVSPost2010Prop49
280
     0
102
RTVSPost2010PropOp49
 70
     1
102
RTVSPost2010Prop50
 90
       50
102
RTVSPost2010PropOp50
 70
     1
102
RTVSPost2010Prop51ColorIndex
 90
      256
102
RTVSPost2010Prop51ColorRGB
 90
-16777216
102
RTVSPost2010PropOp51
 70
     0
102
RTVSPost2010Prop52
140
1.0
102
RTVSPost2010PropOp52
 70
     0
102
RTVSPost2010Prop53
 90
        2
102
RTVSPost2010PropOp53
 70
     1
102
RTVSPost2010Prop54
  1
strokes_ogs.tif
102
RTVSPost2010PropOp54
 70
     1
102
RTVSPost2010Prop55
280
     0
102
RTVSPost2010PropOp55
 70
     1
102
RTVSPost2010Prop56
140
1.0
102
RTVSPost2010PropOp56
 70
     1
102
RTVSPost2010Prop57
140
1.0
102
RTVSPost2010PropOp57
 70
     1
102
RTVSPropertyOp0
 70
     1
102
RTVSPropertyOp1
 70
     1
102
RTVSPropertyOp2
 70
     1
102
RTVSPropertyOp3
 70
     1
102
RTVSPropertyOp4
 70
     1
102
RTVSPropertyOp5
 70
     1
102
RTVSPropertyOp6
 70
     1
102
RTVSPropertyOp7
 70
     1
102
RTVSPropertyOp8
 70
     1
102
RTVSPropertyOp9
 70
     1
102
RTVSPropertyOp10
 70
     1
102
RTVSPropertyOp11
 70
     1
102
RTVSPropertyOp12
 70
     1
102
RTVSPropertyOp13
 70
     1
102
RTVSPropertyOp14
 70
     1
102
RTVSPropertyOp15
 70
     1
102
RTVSPropertyOp16
 70
     1
102
RTVSPropertyOp17
 70
     1
102
RTVSPropertyOp18
 70
     1
102
RTVSPropertyOp19
 70
     1
102
RTVSPropertyOp20
 70
     1
102
RTVSPropertyOp21
 70
     1
102
RTVSPropertyOp22
 70
     1
102
RTVSPropertyOp23
 70
     1
102
RTVSPropertyOp24
 70
     1
102
RTVSPropertyOp25
 70
     1
102
RTVSPropertyOp26
 70
     1
102
RTVSPropertyOp27
 70
     1
102
RTVSPropertyOp28
 70
     1
102
RTVSPropertyOp29
 70
     1
102
RTVSPropertyOp30
 70
     1
102
RTVSPropertyOp31
 70
     1
102
RTVSPropertyOp32
 70
     1
102
RTVSPropertyOp33
 70
     1
102
RTVSPropertyOp34
 70
     1
102
RTVSPropertyOp35
 70
     1
102
RTVSPropertyOp36
 70
     1
102
RTVSPropertyOp37
 70
     1
102
RTVSPropertyOp38
 70
     1
102
RTVSPropertyOp39
 70
     1
102
RTVSPropertyOp40
 70
     1
102
RTVSPropertyOp41
 70
     1
102
RTVSPropertyOp42
 70
     1
102
RTVSPropertyOp43
 70
     1
102
RTVSPropertyOp44
 70
     1
102
RTVSPropertyOp45
 70
     1
102
RTVSPropertyOp46
 70
     1
102
RTVSPropertyOp47
 70
     1
102
RTVSPropertyOp48
 70
     1
102
RTVSPropertyOp49
 70
     1
102
RTVSPropertyOp50
 70
     1
102
RTVSPropertyOp51
 70
     0
102
RTVSPropertyOp52
 70
     0
102
RTVSPropertyOp53
 70
     1
102
RTVSPropertyOp54
 70
     1
102
RTVSPropertyOp55
 70
     1
102
RTVSPropertyOp56
 70
     1
102
RTVSPropertyOp57
 70
     1
102
RTVSPropertyOp58
 70
     1
102
RTVSPropertyOp59
 70
     1
102
RTVSPropertyOp60
 70
     1
102
RTVSPropertyOp61
 70
     1
102
RTVSPropertyOp62
 70
     1
  0
XRECORD
  5
15A9
102
{ACAD_REACTORS
330
15A8
102
}
330
15A8
100
AcDbXrecord
280
     1
102
RTVSPost2010Prop28
280
     0
102
RTVSPost2010PropOp28
 70
     1
102
RTVSPost2010Prop29
280
     1
102
RTVSPost2010PropOp29
 70
     1
102
RTVSPost2010Prop30
280
     1
102
RTVSPost2010PropOp30
 70
     1
102
RTVSPost2010Prop31
280
     0
102
RTVSPost2010PropOp31
 70
     1
102
RTVSPost2010Prop32
280
     0
102
RTVSPost2010PropOp32
 70
     1
102
RTVSPost2010Prop33
280
     0
102
RTVSPost2010PropOp33
 70
     1
102
RTVSPost2010Prop34
280
     0
102
RTVSPost2010PropOp34
 70
     1
102
RTVSPost2010Prop35
280
     0
102
RTVSPost2010PropOp35
 70
     1
102
RTVSPost2010Prop36
280
     0
102
RTVSPost2010PropOp36
 70
     1
102
RTVSPost2010Prop37
 90
       50
102
RTVSPost2010PropOp37
 70
     1
102
RTVSPost2010Prop38
140
0.0
102
RTVSPost2010PropOp38
 70
     1
102
RTVSPost2010Prop39
140
1.0
102
RTVSPost2010PropOp39
 70
     1
102
RTVSPost2010Prop40
 90
        0
102
RTVSPost2010PropOp40
 70
     1
102
RTVSPost2010Prop41ColorIndex
 90
       18
102
RTVSPost2010Prop41ColorRGB
 90
        0
102
RTVSPost2010PropOp41
 70
     1
102
RTVSPost2010Prop42
 90
       50
102
RTVSPost2010PropOp42
 70
     1
102
RTVSPost2010Prop43
 90
        3
102
RTVSPost2010PropOp43
 70
     1
102
RTVSPost2010Prop44ColorIndex
 90
        5
102
RTVSPost2010Prop44ColorRGB
 90
      255
102
RTVSPost2010PropOp44
 70
     1
102
RTVSPost2010Prop45
280
     0
102
RTVSPost2010PropOp45
 70
     1
102
RTVSPost2010Prop46
 90
       50
102
RTVSPost2010PropOp46
 70
     1
102
RTVSPost2010Prop47
 90
       50
102
RTVSPost2010PropOp47
 70
     1
102
RTVSPost2010Prop48
 90
       50
102
RTVSPost2010PropOp48
 70
     1
102
RTVSPost2010Prop49
280
     0
102
RTVSPost2010PropOp49
 70
     1
102
RTVSPost2010Prop50
 90
       50
102
RTVSPost2010PropOp50
 70
     1
102
RTVSPost2010Prop51ColorIndex
 90
      256
102
RTVSPost2010Prop51ColorRGB
 90
-16777216
102
RTVSPost2010PropOp51
 70
     0
102
RTVSPost2010Prop52
140
1.0
102
RTVSPost2010PropOp52
 70
     0
102
RTVSPost2010Prop53
 90
        2
102
RTVSPost2010PropOp53
 70
     1
102
RTVSPost2010Prop54
  1
strokes_ogs.tif
102
RTVSPost2010PropOp54
 70
     1
102
RTVSPost2010Prop55
280
     0
102
RTVSPost2010PropOp55
 70
     1
102
RTVSPost2010Prop56
140
1.0
102
RTVSPost2010PropOp56
 70
     1
102
RTVSPost2010Prop57
140
1.0
102
RTVSPost2010PropOp57
 70
     1
102
RTVSPropertyOp0
 70
     0
102
RTVSPropertyOp1
 70
     0
102
RTVSPropertyOp2
 70
     0
102
RTVSPropertyOp3
 70
     0
102
RTVSPropertyOp4
 70
     0
102
RTVSPropertyOp5
 70
     0
102
RTVSPropertyOp6
 70
     0
102
RTVSPropertyOp7
 70
     0
102
RTVSPropertyOp8
 70
     0
102
RTVSPropertyOp9
 70
     0
102
RTVSPropertyOp10
 70
     0
102
RTVSPropertyOp11
 70
     0
102
RTVSPropertyOp12
 70
     0
102
RTVSPropertyOp13
 70
     0
102
RTVSPropertyOp14
 70
     2
102
RTVSPropertyOp15
 70
     0
102
RTVSPropertyOp16
 70
     0
102
RTVSPropertyOp17
 70
     0
102
RTVSPropertyOp18
 70
     0
102
RTVSPropertyOp19
 70
     0
102
RTVSPropertyOp20
 70
     0
102
RTVSPropertyOp21
 70
     0
102
RTVSPropertyOp22
 70
     0
102
RTVSPropertyOp23
 70
     0
102
RTVSPropertyOp24
 70
     0
102
RTVSPropertyOp25
 70
     0
102
RTVSPropertyOp26
 70
     0
102
RTVSPropertyOp27
 70
     0
102
RTVSPropertyOp28
 70
     1
102
RTVSPropertyOp29
 70
     1
102
RTVSPropertyOp30
 70
     1
102
RTVSPropertyOp31
 70
     1
102
RTVSPropertyOp32
 70
     1
102
RTVSPropertyOp33
 70
     1
102
RTVSPropertyOp34
 70
     1
102
RTVSPropertyOp35
 70
     1
102
RTVSPropertyOp36
 70
     1
102
RTVSPropertyOp37
 70
     1
102
RTVSPropertyOp38
 70
     1
102
RTVSPropertyOp39
 70
     1
102
RTVSPropertyOp40
 70
     1
102
RTVSPropertyOp41
 70
     1
102
RTVSPropertyOp42
 70
     1
102
RTVSPropertyOp43
 70
     1
102
RTVSPropertyOp44
 70
     1
102
RTVSPropertyOp45
 70
     1
102
RTVSPropertyOp46
 70
     1
102
RTVSPropertyOp47
 70
     1
102
RTVSPropertyOp48
 70
     1
102
RTVSPropertyOp49
 70
     1
102
RTVSPropertyOp50
 70
     1
102
RTVSPropertyOp51
 70
     0
102
RTVSPropertyOp52
 70
     0
102
RTVSPropertyOp53
 70
     1
102
RTVSPropertyOp54
 70
     1
102
RTVSPropertyOp55
 70
     1
102
RTVSPropertyOp56
 70
     1
102
RTVSPropertyOp57
 70
     1
102
RTVSPropertyOp58
 70
     1
102
RTVSPropertyOp59
 70
     1
102
RTVSPropertyOp60
 70
     1
102
RTVSPropertyOp61
 70
     1
102
RTVSPropertyOp62
 70
     1
  0
XRECORD
  5
15A1
102
{ACAD_REACTORS
330
15A0
102
}
330
15A0
100
AcDbXrecord
280
     1
102
RTVSPost2010Prop28
280
     0
102
RTVSPost2010PropOp28
 70
     1
102
RTVSPost2010Prop29
280
     1
102
RTVSPost2010PropOp29
 70
     1
102
RTVSPost2010Prop30
280
     1
102
RTVSPost2010PropOp30
 70
     1
102
RTVSPost2010Prop31
280
     0
102
RTVSPost2010PropOp31
 70
     1
102
RTVSPost2010Prop32
280
     0
102
RTVSPost2010PropOp32
 70
     1
102
RTVSPost2010Prop33
280
     0
102
RTVSPost2010PropOp33
 70
     1
102
RTVSPost2010Prop34
280
     0
102
RTVSPost2010PropOp34
 70
     1
102
RTVSPost2010Prop35
280
     0
102
RTVSPost2010PropOp35
 70
     1
102
RTVSPost2010Prop36
280
     0
102
RTVSPost2010PropOp36
 70
     1
102
RTVSPost2010Prop37
 90
       50
102
RTVSPost2010PropOp37
 70
     1
102
RTVSPost2010Prop38
140
0.0
102
RTVSPost2010PropOp38
 70
     1
102
RTVSPost2010Prop39
140
1.0
102
RTVSPost2010PropOp39
 70
     1
102
RTVSPost2010Prop40
 90
        0
102
RTVSPost2010PropOp40
 70
     1
102
RTVSPost2010Prop41ColorIndex
 90
       18
102
RTVSPost2010Prop41ColorRGB
 90
        0
102
RTVSPost2010PropOp41
 70
     1
102
RTVSPost2010Prop42
 90
       50
102
RTVSPost2010PropOp42
 70
     1
102
RTVSPost2010Prop43
 90
        3
102
RTVSPost2010PropOp43
 70
     1
102
RTVSPost2010Prop44ColorIndex
 90
        5
102
RTVSPost2010Prop44ColorRGB
 90
      255
102
RTVSPost2010PropOp44
 70
     1
102
RTVSPost2010Prop45
280
     0
102
RTVSPost2010PropOp45
 70
     1
102
RTVSPost2010Prop46
 90
       50
102
RTVSPost2010PropOp46
 70
     1
102
RTVSPost2010Prop47
 90
       50
102
RTVSPost2010PropOp47
 70
     1
102
RTVSPost2010Prop48
 90
       50
102
RTVSPost2010PropOp48
 70
     1
102
RTVSPost2010Prop49
280
     0
102
RTVSPost2010PropOp49
 70
     1
102
RTVSPost2010Prop50
 90
       50
102
RTVSPost2010PropOp50
 70
     1
102
RTVSPost2010Prop51ColorIndex
 90
      256
102
RTVSPost2010Prop51ColorRGB
 90
-16777216
102
RTVSPost2010PropOp51
 70
     0
102
RTVSPost2010Prop52
140
1.0
102
RTVSPost2010PropOp52
 70
     0
102
RTVSPost2010Prop53
 90
        2
102
RTVSPost2010PropOp53
 70
     1
102
RTVSPost2010Prop54
  1
strokes_ogs.tif
102
RTVSPost2010PropOp54
 70
     1
102
RTVSPost2010Prop55
280
     0
102
RTVSPost2010PropOp55
 70
     1
102
RTVSPost2010Prop56
140
1.0
102
RTVSPost2010PropOp56
 70
     1
102
RTVSPost2010Prop57
140
1.0
102
RTVSPost2010PropOp57
 70
     1
102
RTVSPropertyOp0
 70
     1
102
RTVSPropertyOp1
 70
     1
102
RTVSPropertyOp2
 70
     1
102
RTVSPropertyOp3
 70
     1
102
RTVSPropertyOp4
 70
     1
102
RTVSPropertyOp5
 70
     1
102
RTVSPropertyOp6
 70
     1
102
RTVSPropertyOp7
 70
     1
102
RTVSPropertyOp8
 70
     1
102
RTVSPropertyOp9
 70
     1
102
RTVSPropertyOp10
 70
     1
102
RTVSPropertyOp11
 70
     1
102
RTVSPropertyOp12
 70
     1
102
RTVSPropertyOp13
 70
     1
102
RTVSPropertyOp14
 70
     1
102
RTVSPropertyOp15
 70
     1
102
RTVSPropertyOp16
 70
     1
102
RTVSPropertyOp17
 70
     1
102
RTVSPropertyOp18
 70
     1
102
RTVSPropertyOp19
 70
     1
102
RTVSPropertyOp20
 70
     1
102
RTVSPropertyOp21
 70
     1
102
RTVSPropertyOp22
 70
     1
102
RTVSPropertyOp23
 70
     1
102
RTVSPropertyOp24
 70
     1
102
RTVSPropertyOp25
 70
     1
102
RTVSPropertyOp26
 70
     1
102
RTVSPropertyOp27
 70
     1
102
RTVSPropertyOp28
 70
     1
102
RTVSPropertyOp29
 70
     1
102
RTVSPropertyOp30
 70
     1
102
RTVSPropertyOp31
 70
     1
102
RTVSPropertyOp32
 70
     1
102
RTVSPropertyOp33
 70
     1
102
RTVSPropertyOp34
 70
     1
102
RTVSPropertyOp35
 70
     1
102
RTVSPropertyOp36
 70
     1
102
RTVSPropertyOp37
 70
     1
102
RTVSPropertyOp38
 70
     1
102
RTVSPropertyOp39
 70
     1
102
RTVSPropertyOp40
 70
     1
102
RTVSPropertyOp41
 70
     1
102
RTVSPropertyOp42
 70
     1
102
RTVSPropertyOp43
 70
     1
102
RTVSPropertyOp44
 70
     1
102
RTVSPropertyOp45
 70
     1
102
RTVSPropertyOp46
 70
     1
102
RTVSPropertyOp47
 70
     1
102
RTVSPropertyOp48
 70
     1
102
RTVSPropertyOp49
 70
     1
102
RTVSPropertyOp50
 70
     1
102
RTVSPropertyOp51
 70
     0
102
RTVSPropertyOp52
 70
     0
102
RTVSPropertyOp53
 70
     1
102
RTVSPropertyOp54
 70
     1
102
RTVSPropertyOp55
 70
     1
102
RTVSPropertyOp56
 70
     1
102
RTVSPropertyOp57
 70
     1
102
RTVSPropertyOp58
 70
     1
102
RTVSPropertyOp59
 70
     1
102
RTVSPropertyOp60
 70
     1
102
RTVSPropertyOp61
 70
     1
102
RTVSPropertyOp62
 70
     1
  0
XRECORD
  5
15AB
102
{ACAD_REACTORS
330
15AA
102
}
330
15AA
100
AcDbXrecord
280
     1
102
RTVSPost2010Prop28
280
     0
102
RTVSPost2010PropOp28
 70
     1
102
RTVSPost2010Prop29
280
     1
102
RTVSPost2010PropOp29
 70
     1
102
RTVSPost2010Prop30
280
     1
102
RTVSPost2010PropOp30
 70
     1
102
RTVSPost2010Prop31
280
     0
102
RTVSPost2010PropOp31
 70
     1
102
RTVSPost2010Prop32
280
     0
102
RTVSPost2010PropOp32
 70
     1
102
RTVSPost2010Prop33
280
     0
102
RTVSPost2010PropOp33
 70
     1
102
RTVSPost2010Prop34
280
     0
102
RTVSPost2010PropOp34
 70
     1
102
RTVSPost2010Prop35
280
     0
102
RTVSPost2010PropOp35
 70
     1
102
RTVSPost2010Prop36
280
     0
102
RTVSPost2010PropOp36
 70
     1
102
RTVSPost2010Prop37
 90
       50
102
RTVSPost2010PropOp37
 70
     1
102
RTVSPost2010Prop38
140
0.0
102
RTVSPost2010PropOp38
 70
     1
102
RTVSPost2010Prop39
140
1.0
102
RTVSPost2010PropOp39
 70
     1
102
RTVSPost2010Prop40
 90
        0
102
RTVSPost2010PropOp40
 70
     1
102
RTVSPost2010Prop41ColorIndex
 90
       18
102
RTVSPost2010Prop41ColorRGB
 90
        0
102
RTVSPost2010PropOp41
 70
     1
102
RTVSPost2010Prop42
 90
       50
102
RTVSPost2010PropOp42
 70
     1
102
RTVSPost2010Prop43
 90
        3
102
RTVSPost2010PropOp43
 70
     1
102
RTVSPost2010Prop44ColorIndex
 90
        5
102
RTVSPost2010Prop44ColorRGB
 90
      255
102
RTVSPost2010PropOp44
 70
     1
102
RTVSPost2010Prop45
280
     0
102
RTVSPost2010PropOp45
 70
     1
102
RTVSPost2010Prop46
 90
       50
102
RTVSPost2010PropOp46
 70
     1
102
RTVSPost2010Prop47
 90
       50
102
RTVSPost2010PropOp47
 70
     1
102
RTVSPost2010Prop48
 90
       50
102
RTVSPost2010PropOp48
 70
     1
102
RTVSPost2010Prop49
280
     0
102
RTVSPost2010PropOp49
 70
     1
102
RTVSPost2010Prop50
 90
       50
102
RTVSPost2010PropOp50
 70
     1
102
RTVSPost2010Prop51ColorIndex
 90
      256
102
RTVSPost2010Prop51ColorRGB
 90
-16777216
102
RTVSPost2010PropOp51
 70
     0
102
RTVSPost2010Prop52
140
1.0
102
RTVSPost2010PropOp52
 70
     0
102
RTVSPost2010Prop53
 90
        2
102
RTVSPost2010PropOp53
 70
     1
102
RTVSPost2010Prop54
  1
strokes_ogs.tif
102
RTVSPost2010PropOp54
 70
     1
102
RTVSPost2010Prop55
280
     0
102
RTVSPost2010PropOp55
 70
     1
102
RTVSPost2010Prop56
140
1.0
102
RTVSPost2010PropOp56
 70
     1
102
RTVSPost2010Prop57
140
1.0
102
RTVSPost2010PropOp57
 70
     1
102
RTVSPropertyOp0
 70
     0
102
RTVSPropertyOp1
 70
     0
102
RTVSPropertyOp2
 70
     0
102
RTVSPropertyOp3
 70
     0
102
RTVSPropertyOp4
 70
     0
102
RTVSPropertyOp5
 70
     0
102
RTVSPropertyOp6
 70
     0
102
RTVSPropertyOp7
 70
     0
102
RTVSPropertyOp8
 70
     0
102
RTVSPropertyOp9
 70
     0
102
RTVSPropertyOp10
 70
     0
102
RTVSPropertyOp11
 70
     0
102
RTVSPropertyOp12
 70
     0
102
RTVSPropertyOp13
 70
     0
102
RTVSPropertyOp14
 70
     2
102
RTVSPropertyOp15
 70
     0
102
RTVSPropertyOp16
 70
     0
102
RTVSPropertyOp17
 70
     0
102
RTVSPropertyOp18
 70
     0
102
RTVSPropertyOp19
 70
     0
102
RTVSPropertyOp20
 70
     0
102
RTVSPropertyOp21
 70
     0
102
RTVSPropertyOp22
 70
     0
102
RTVSPropertyOp23
 70
     0
102
RTVSPropertyOp24
 70
     0
102
RTVSPropertyOp25
 70
     0
102
RTVSPropertyOp26
 70
     0
102
RTVSPropertyOp27
 70
     0
102
RTVSPropertyOp28
 70
     1
102
RTVSPropertyOp29
 70
     1
102
RTVSPropertyOp30
 70
     1
102
RTVSPropertyOp31
 70
     1
102
RTVSPropertyOp32
 70
     1
102
RTVSPropertyOp33
 70
     1
102
RTVSPropertyOp34
 70
     1
102
RTVSPropertyOp35
 70
     1
102
RTVSPropertyOp36
 70
     1
102
RTVSPropertyOp37
 70
     1
102
RTVSPropertyOp38
 70
     1
102
RTVSPropertyOp39
 70
     1
102
RTVSPropertyOp40
 70
     1
102
RTVSPropertyOp41
 70
     1
102
RTVSPropertyOp42
 70
     1
102
RTVSPropertyOp43
 70
     1
102
RTVSPropertyOp44
 70
     1
102
RTVSPropertyOp45
 70
     1
102
RTVSPropertyOp46
 70
     1
102
RTVSPropertyOp47
 70
     1
102
RTVSPropertyOp48
 70
     1
102
RTVSPropertyOp49
 70
     1
102
RTVSPropertyOp50
 70
     1
102
RTVSPropertyOp51
 70
     0
102
RTVSPropertyOp52
 70
     0
102
RTVSPropertyOp53
 70
     1
102
RTVSPropertyOp54
 70
     1
102
RTVSPropertyOp55
 70
     1
102
RTVSPropertyOp56
 70
     1
102
RTVSPropertyOp57
 70
     1
102
RTVSPropertyOp58
 70
     1
102
RTVSPropertyOp59
 70
     1
102
RTVSPropertyOp60
 70
     1
102
RTVSPropertyOp61
 70
     1
102
RTVSPropertyOp62
 70
     1
  0
XRECORD
  5
1599
102
{ACAD_REACTORS
330
1598
102
}
330
1598
100
AcDbXrecord
280
     1
102
RTVSPost2010Prop28
280
     0
102
RTVSPost2010PropOp28
 70
     1
102
RTVSPost2010Prop29
280
     1
102
RTVSPost2010PropOp29
 70
     1
102
RTVSPost2010Prop30
280
     1
102
RTVSPost2010PropOp30
 70
     1
102
RTVSPost2010Prop31
280
     0
102
RTVSPost2010PropOp31
 70
     1
102
RTVSPost2010Prop32
280
     0
102
RTVSPost2010PropOp32
 70
     1
102
RTVSPost2010Prop33
280
     0
102
RTVSPost2010PropOp33
 70
     1
102
RTVSPost2010Prop34
280
     0
102
RTVSPost2010PropOp34
 70
     1
102
RTVSPost2010Prop35
280
     0
102
RTVSPost2010PropOp35
 70
     1
102
RTVSPost2010Prop36
280
     0
102
RTVSPost2010PropOp36
 70
     1
102
RTVSPost2010Prop37
 90
       50
102
RTVSPost2010PropOp37
 70
     1
102
RTVSPost2010Prop38
140
0.0
102
RTVSPost2010PropOp38
 70
     1
102
RTVSPost2010Prop39
140
1.0
102
RTVSPost2010PropOp39
 70
     1
102
RTVSPost2010Prop40
 90
        0
102
RTVSPost2010PropOp40
 70
     1
102
RTVSPost2010Prop41ColorIndex
 90
       18
102
RTVSPost2010Prop41ColorRGB
 90
        0
102
RTVSPost2010PropOp41
 70
     1
102
RTVSPost2010Prop42
 90
       50
102
RTVSPost2010PropOp42
 70
     1
102
RTVSPost2010Prop43
 90
        3
102
RTVSPost2010PropOp43
 70
     1
102
RTVSPost2010Prop44ColorIndex
 90
        5
102
RTVSPost2010Prop44ColorRGB
 90
      255
102
RTVSPost2010PropOp44
 70
     1
102
RTVSPost2010Prop45
280
     0
102
RTVSPost2010PropOp45
 70
     1
102
RTVSPost2010Prop46
 90
       50
102
RTVSPost2010PropOp46
 70
     1
102
RTVSPost2010Prop47
 90
       50
102
RTVSPost2010PropOp47
 70
     1
102
RTVSPost2010Prop48
 90
       50
102
RTVSPost2010PropOp48
 70
     1
102
RTVSPost2010Prop49
280
     0
102
RTVSPost2010PropOp49
 70
     1
102
RTVSPost2010Prop50
 90
       50
102
RTVSPost2010PropOp50
 70
     1
102
RTVSPost2010Prop51ColorIndex
 90
      256
102
RTVSPost2010Prop51ColorRGB
 90
-16777216
102
RTVSPost2010PropOp51
 70
     0
102
RTVSPost2010Prop52
140
1.0
102
RTVSPost2010PropOp52
 70
     0
102
RTVSPost2010Prop53
 90
        2
102
RTVSPost2010PropOp53
 70
     1
102
RTVSPost2010Prop54
  1
strokes_ogs.tif
102
RTVSPost2010PropOp54
 70
     1
102
RTVSPost2010Prop55
280
     0
102
RTVSPost2010PropOp55
 70
     1
102
RTVSPost2010Prop56
140
1.0
102
RTVSPost2010PropOp56
 70
     1
102
RTVSPost2010Prop57
140
1.0
102
RTVSPost2010PropOp57
 70
     1
102
RTVSPropertyOp0
 70
     1
102
RTVSPropertyOp1
 70
     1
102
RTVSPropertyOp2
 70
     1
102
RTVSPropertyOp3
 70
     1
102
RTVSPropertyOp4
 70
     1
102
RTVSPropertyOp5
 70
     1
102
RTVSPropertyOp6
 70
     1
102
RTVSPropertyOp7
 70
     1
102
RTVSPropertyOp8
 70
     1
102
RTVSPropertyOp9
 70
     1
102
RTVSPropertyOp10
 70
     1
102
RTVSPropertyOp11
 70
     1
102
RTVSPropertyOp12
 70
     1
102
RTVSPropertyOp13
 70
     1
102
RTVSPropertyOp14
 70
     1
102
RTVSPropertyOp15
 70
     1
102
RTVSPropertyOp16
 70
     1
102
RTVSPropertyOp17
 70
     1
102
RTVSPropertyOp18
 70
     1
102
RTVSPropertyOp19
 70
     1
102
RTVSPropertyOp20
 70
     1
102
RTVSPropertyOp21
 70
     1
102
RTVSPropertyOp22
 70
     1
102
RTVSPropertyOp23
 70
     1
102
RTVSPropertyOp24
 70
     1
102
RTVSPropertyOp25
 70
     1
102
RTVSPropertyOp26
 70
     1
102
RTVSPropertyOp27
 70
     1
102
RTVSPropertyOp28
 70
     1
102
RTVSPropertyOp29
 70
     1
102
RTVSPropertyOp30
 70
     1
102
RTVSPropertyOp31
 70
     1
102
RTVSPropertyOp32
 70
     1
102
RTVSPropertyOp33
 70
     1
102
RTVSPropertyOp34
 70
     1
102
RTVSPropertyOp35
 70
     1
102
RTVSPropertyOp36
 70
     1
102
RTVSPropertyOp37
 70
     1
102
RTVSPropertyOp38
 70
     1
102
RTVSPropertyOp39
 70
     1
102
RTVSPropertyOp40
 70
     1
102
RTVSPropertyOp41
 70
     1
102
RTVSPropertyOp42
 70
     1
102
RTVSPropertyOp43
 70
     1
102
RTVSPropertyOp44
 70
     1
102
RTVSPropertyOp45
 70
     1
102
RTVSPropertyOp46
 70
     1
102
RTVSPropertyOp47
 70
     1
102
RTVSPropertyOp48
 70
     1
102
RTVSPropertyOp49
 70
     1
102
RTVSPropertyOp50
 70
     1
102
RTVSPropertyOp51
 70
     0
102
RTVSPropertyOp52
 70
     0
102
RTVSPropertyOp53
 70
     1
102
RTVSPropertyOp54
 70
     1
102
RTVSPropertyOp55
 70
     1
102
RTVSPropertyOp56
 70
     1
102
RTVSPropertyOp57
 70
     1
102
RTVSPropertyOp58
 70
     1
102
RTVSPropertyOp59
 70
     1
102
RTVSPropertyOp60
 70
     1
102
RTVSPropertyOp61
 70
     1
102
RTVSPropertyOp62
 70
     1
  0
XRECORD
  5
15B7
102
{ACAD_REACTORS
330
15B6
102
}
330
15B6
100
AcDbXrecord
280
     1
102
RTVSPost2010Prop28
280
     0
102
RTVSPost2010PropOp28
 70
     1
102
RTVSPost2010Prop29
280
     1
102
RTVSPost2010PropOp29
 70
     1
102
RTVSPost2010Prop30
280
     1
102
RTVSPost2010PropOp30
 70
     1
102
RTVSPost2010Prop31
280
     0
102
RTVSPost2010PropOp31
 70
     1
102
RTVSPost2010Prop32
280
     0
102
RTVSPost2010PropOp32
 70
     1
102
RTVSPost2010Prop33
280
     0
102
RTVSPost2010PropOp33
 70
     1
102
RTVSPost2010Prop34
280
     0
102
RTVSPost2010PropOp34
 70
     1
102
RTVSPost2010Prop35
280
     0
102
RTVSPost2010PropOp35
 70
     1
102
RTVSPost2010Prop36
280
     0
102
RTVSPost2010PropOp36
 70
     1
102
RTVSPost2010Prop37
 90
       50
102
RTVSPost2010PropOp37
 70
     1
102
RTVSPost2010Prop38
140
0.0
102
RTVSPost2010PropOp38
 70
     1
102
RTVSPost2010Prop39
140
1.0
102
RTVSPost2010PropOp39
 70
     1
102
RTVSPost2010Prop40
 90
        0
102
RTVSPost2010PropOp40
 70
     1
102
RTVSPost2010Prop41ColorIndex
 90
       18
102
RTVSPost2010Prop41ColorRGB
 90
        0
102
RTVSPost2010PropOp41
 70
     1
102
RTVSPost2010Prop42
 90
       50
102
RTVSPost2010PropOp42
 70
     1
102
RTVSPost2010Prop43
 90
        3
102
RTVSPost2010PropOp43
 70
     1
102
RTVSPost2010Prop44ColorIndex
 90
        5
102
RTVSPost2010Prop44ColorRGB
 90
      255
102
RTVSPost2010PropOp44
 70
     1
102
RTVSPost2010Prop45
280
     0
102
RTVSPost2010PropOp45
 70
     1
102
RTVSPost2010Prop46
 90
       50
102
RTVSPost2010PropOp46
 70
     1
102
RTVSPost2010Prop47
 90
       50
102
RTVSPost2010PropOp47
 70
     1
102
RTVSPost2010Prop48
 90
       50
102
RTVSPost2010PropOp48
 70
     1
102
RTVSPost2010Prop49
280
     0
102
RTVSPost2010PropOp49
 70
     1
102
RTVSPost2010Prop50
 90
       50
102
RTVSPost2010PropOp50
 70
     1
102
RTVSPost2010Prop51ColorIndex
 90
      256
102
RTVSPost2010Prop51ColorRGB
 90
-16777216
102
RTVSPost2010PropOp51
 70
     0
102
RTVSPost2010Prop52
140
1.0
102
RTVSPost2010PropOp52
 70
     0
102
RTVSPost2010Prop53
 90
        2
102
RTVSPost2010PropOp53
 70
     1
102
RTVSPost2010Prop54
  1
strokes_ogs.tif
102
RTVSPost2010PropOp54
 70
     1
102
RTVSPost2010Prop55
280
     0
102
RTVSPost2010PropOp55
 70
     1
102
RTVSPost2010Prop56
140
1.0
102
RTVSPost2010PropOp56
 70
     1
102
RTVSPost2010Prop57
140
1.0
102
RTVSPost2010PropOp57
 70
     1
102
RTVSPropertyOp0
 70
     1
102
RTVSPropertyOp1
 70
     1
102
RTVSPropertyOp2
 70
     1
102
RTVSPropertyOp3
 70
     1
102
RTVSPropertyOp4
 70
     1
102
RTVSPropertyOp5
 70
     1
102
RTVSPropertyOp6
 70
     1
102
RTVSPropertyOp7
 70
     1
102
RTVSPropertyOp8
 70
     1
102
RTVSPropertyOp9
 70
     1
102
RTVSPropertyOp10
 70
     1
102
RTVSPropertyOp11
 70
     1
102
RTVSPropertyOp12
 70
     1
102
RTVSPropertyOp13
 70
     1
102
RTVSPropertyOp14
 70
     1
102
RTVSPropertyOp15
 70
     1
102
RTVSPropertyOp16
 70
     1
102
RTVSPropertyOp17
 70
     1
102
RTVSPropertyOp18
 70
     1
102
RTVSPropertyOp19
 70
     1
102
RTVSPropertyOp20
 70
     1
102
RTVSPropertyOp21
 70
     1
102
RTVSPropertyOp22
 70
     1
102
RTVSPropertyOp23
 70
     1
102
RTVSPropertyOp24
 70
     1
102
RTVSPropertyOp25
 70
     1
102
RTVSPropertyOp26
 70
     1
102
RTVSPropertyOp27
 70
     1
102
RTVSPropertyOp28
 70
     1
102
RTVSPropertyOp29
 70
     1
102
RTVSPropertyOp30
 70
     1
102
RTVSPropertyOp31
 70
     1
102
RTVSPropertyOp32
 70
     1
102
RTVSPropertyOp33
 70
     1
102
RTVSPropertyOp34
 70
     1
102
RTVSPropertyOp35
 70
     1
102
RTVSPropertyOp36
 70
     1
102
RTVSPropertyOp37
 70
     1
102
RTVSPropertyOp38
 70
     1
102
RTVSPropertyOp39
 70
     1
102
RTVSPropertyOp40
 70
     1
102
RTVSPropertyOp41
 70
     1
102
RTVSPropertyOp42
 70
     1
102
RTVSPropertyOp43
 70
     1
102
RTVSPropertyOp44
 70
     1
102
RTVSPropertyOp45
 70
     1
102
RTVSPropertyOp46
 70
     1
102
RTVSPropertyOp47
 70
     1
102
RTVSPropertyOp48
 70
     1
102
RTVSPropertyOp49
 70
     1
102
RTVSPropertyOp50
 70
     1
102
RTVSPropertyOp51
 70
     0
102
RTVSPropertyOp52
 70
     0
102
RTVSPropertyOp53
 70
     1
102
RTVSPropertyOp54
 70
     1
102
RTVSPropertyOp55
 70
     1
102
RTVSPropertyOp56
 70
     1
102
RTVSPropertyOp57
 70
     1
102
RTVSPropertyOp58
 70
     1
102
RTVSPropertyOp59
 70
     1
102
RTVSPropertyOp60
 70
     1
102
RTVSPropertyOp61
 70
     1
102
RTVSPropertyOp62
 70
     1
  0
XRECORD
  5
15B5
102
{ACAD_REACTORS
330
15B4
102
}
330
15B4
100
AcDbXrecord
280
     1
102
RTVSPost2010Prop28
280
     0
102
RTVSPost2010PropOp28
 70
     1
102
RTVSPost2010Prop29
280
     1
102
RTVSPost2010PropOp29
 70
     1
102
RTVSPost2010Prop30
280
     1
102
RTVSPost2010PropOp30
 70
     1
102
RTVSPost2010Prop31
280
     0
102
RTVSPost2010PropOp31
 70
     1
102
RTVSPost2010Prop32
280
     0
102
RTVSPost2010PropOp32
 70
     1
102
RTVSPost2010Prop33
280
     0
102
RTVSPost2010PropOp33
 70
     1
102
RTVSPost2010Prop34
280
     0
102
RTVSPost2010PropOp34
 70
     1
102
RTVSPost2010Prop35
280
     0
102
RTVSPost2010PropOp35
 70
     1
102
RTVSPost2010Prop36
280
     0
102
RTVSPost2010PropOp36
 70
     1
102
RTVSPost2010Prop37
 90
       50
102
RTVSPost2010PropOp37
 70
     1
102
RTVSPost2010Prop38
140
0.0
102
RTVSPost2010PropOp38
 70
     1
102
RTVSPost2010Prop39
140
1.0
102
RTVSPost2010PropOp39
 70
     1
102
RTVSPost2010Prop40
 90
        0
102
RTVSPost2010PropOp40
 70
     1
102
RTVSPost2010Prop41ColorIndex
 90
       18
102
RTVSPost2010Prop41ColorRGB
 90
        0
102
RTVSPost2010PropOp41
 70
     1
102
RTVSPost2010Prop42
 90
       50
102
RTVSPost2010PropOp42
 70
     1
102
RTVSPost2010Prop43
 90
        3
102
RTVSPost2010PropOp43
 70
     1
102
RTVSPost2010Prop44ColorIndex
 90
        5
102
RTVSPost2010Prop44ColorRGB
 90
      255
102
RTVSPost2010PropOp44
 70
     1
102
RTVSPost2010Prop45
280
     0
102
RTVSPost2010PropOp45
 70
     1
102
RTVSPost2010Prop46
 90
       50
102
RTVSPost2010PropOp46
 70
     1
102
RTVSPost2010Prop47
 90
       50
102
RTVSPost2010PropOp47
 70
     1
102
RTVSPost2010Prop48
 90
       50
102
RTVSPost2010PropOp48
 70
     1
102
RTVSPost2010Prop49
280
     0
102
RTVSPost2010PropOp49
 70
     1
102
RTVSPost2010Prop50
 90
       50
102
RTVSPost2010PropOp50
 70
     1
102
RTVSPost2010Prop51ColorIndex
 90
      256
102
RTVSPost2010Prop51ColorRGB
 90
-16777216
102
RTVSPost2010PropOp51
 70
     0
102
RTVSPost2010Prop52
140
1.0
102
RTVSPost2010PropOp52
 70
     0
102
RTVSPost2010Prop53
 90
        2
102
RTVSPost2010PropOp53
 70
     1
102
RTVSPost2010Prop54
  1
strokes_ogs.tif
102
RTVSPost2010PropOp54
 70
     1
102
RTVSPost2010Prop55
280
     0
102
RTVSPost2010PropOp55
 70
     1
102
RTVSPost2010Prop56
140
1.0
102
RTVSPost2010PropOp56
 70
     1
102
RTVSPost2010Prop57
140
1.0
102
RTVSPost2010PropOp57
 70
     1
102
RTVSPropertyOp0
 70
     1
102
RTVSPropertyOp1
 70
     1
102
RTVSPropertyOp2
 70
     1
102
RTVSPropertyOp3
 70
     1
102
RTVSPropertyOp4
 70
     1
102
RTVSPropertyOp5
 70
     1
102
RTVSPropertyOp6
 70
     1
102
RTVSPropertyOp7
 70
     1
102
RTVSPropertyOp8
 70
     1
102
RTVSPropertyOp9
 70
     1
102
RTVSPropertyOp10
 70
     1
102
RTVSPropertyOp11
 70
     1
102
RTVSPropertyOp12
 70
     1
102
RTVSPropertyOp13
 70
     1
102
RTVSPropertyOp14
 70
     1
102
RTVSPropertyOp15
 70
     1
102
RTVSPropertyOp16
 70
     1
102
RTVSPropertyOp17
 70
     1
102
RTVSPropertyOp18
 70
     1
102
RTVSPropertyOp19
 70
     1
102
RTVSPropertyOp20
 70
     1
102
RTVSPropertyOp21
 70
     1
102
RTVSPropertyOp22
 70
     1
102
RTVSPropertyOp23
 70
     1
102
RTVSPropertyOp24
 70
     1
102
RTVSPropertyOp25
 70
     1
102
RTVSPropertyOp26
 70
     1
102
RTVSPropertyOp27
 70
     1
102
RTVSPropertyOp28
 70
     1
102
RTVSPropertyOp29
 70
     1
102
RTVSPropertyOp30
 70
     1
102
RTVSPropertyOp31
 70
     1
102
RTVSPropertyOp32
 70
     1
102
RTVSPropertyOp33
 70
     1
102
RTVSPropertyOp34
 70
     1
102
RTVSPropertyOp35
 70
     1
102
RTVSPropertyOp36
 70
     1
102
RTVSPropertyOp37
 70
     1
102
RTVSPropertyOp38
 70
     1
102
RTVSPropertyOp39
 70
     1
102
RTVSPropertyOp40
 70
     1
102
RTVSPropertyOp41
 70
     1
102
RTVSPropertyOp42
 70
     1
102
RTVSPropertyOp43
 70
     1
102
RTVSPropertyOp44
 70
     1
102
RTVSPropertyOp45
 70
     1
102
RTVSPropertyOp46
 70
     1
102
RTVSPropertyOp47
 70
     1
102
RTVSPropertyOp48
 70
     1
102
RTVSPropertyOp49
 70
     1
102
RTVSPropertyOp50
 70
     1
102
RTVSPropertyOp51
 70
     0
102
RTVSPropertyOp52
 70
     0
102
RTVSPropertyOp53
 70
     1
102
RTVSPropertyOp54
 70
     1
102
RTVSPropertyOp55
 70
     1
102
RTVSPropertyOp56
 70
     1
102
RTVSPropertyOp57
 70
     1
102
RTVSPropertyOp58
 70
     1
102
RTVSPropertyOp59
 70
     1
102
RTVSPropertyOp60
 70
     1
102
RTVSPropertyOp61
 70
     1
102
RTVSPropertyOp62
 70
     1
  0
XRECORD
  5
15AF
102
{ACAD_REACTORS
330
15AE
102
}
330
15AE
100
AcDbXrecord
280
     1
102
RTVSPost2010Prop28
280
     0
102
RTVSPost2010PropOp28
 70
     1
102
RTVSPost2010Prop29
280
     1
102
RTVSPost2010PropOp29
 70
     1
102
RTVSPost2010Prop30
280
     1
102
RTVSPost2010PropOp30
 70
     1
102
RTVSPost2010Prop31
280
     0
102
RTVSPost2010PropOp31
 70
     1
102
RTVSPost2010Prop32
280
     0
102
RTVSPost2010PropOp32
 70
     1
102
RTVSPost2010Prop33
280
     0
102
RTVSPost2010PropOp33
 70
     1
102
RTVSPost2010Prop34
280
     0
102
RTVSPost2010PropOp34
 70
     1
102
RTVSPost2010Prop35
280
     0
102
RTVSPost2010PropOp35
 70
     1
102
RTVSPost2010Prop36
280
     0
102
RTVSPost2010PropOp36
 70
     1
102
RTVSPost2010Prop37
 90
       50
102
RTVSPost2010PropOp37
 70
     1
102
RTVSPost2010Prop38
140
0.0
102
RTVSPost2010PropOp38
 70
     1
102
RTVSPost2010Prop39
140
1.0
102
RTVSPost2010PropOp39
 70
     1
102
RTVSPost2010Prop40
 90
        0
102
RTVSPost2010PropOp40
 70
     1
102
RTVSPost2010Prop41ColorIndex
 90
       18
102
RTVSPost2010Prop41ColorRGB
 90
        0
102
RTVSPost2010PropOp41
 70
     1
102
RTVSPost2010Prop42
 90
       50
102
RTVSPost2010PropOp42
 70
     1
102
RTVSPost2010Prop43
 90
        3
102
RTVSPost2010PropOp43
 70
     1
102
RTVSPost2010Prop44ColorIndex
 90
        5
102
RTVSPost2010Prop44ColorRGB
 90
      255
102
RTVSPost2010PropOp44
 70
     1
102
RTVSPost2010Prop45
280
     0
102
RTVSPost2010PropOp45
 70
     1
102
RTVSPost2010Prop46
 90
       50
102
RTVSPost2010PropOp46
 70
     1
102
RTVSPost2010Prop47
 90
       50
102
RTVSPost2010PropOp47
 70
     1
102
RTVSPost2010Prop48
 90
       50
102
RTVSPost2010PropOp48
 70
     1
102
RTVSPost2010Prop49
280
     0
102
RTVSPost2010PropOp49
 70
     1
102
RTVSPost2010Prop50
 90
       50
102
RTVSPost2010PropOp50
 70
     1
102
RTVSPost2010Prop51ColorIndex
 90
      256
102
RTVSPost2010Prop51ColorRGB
 90
-16777216
102
RTVSPost2010PropOp51
 70
     0
102
RTVSPost2010Prop52
140
1.0
102
RTVSPost2010PropOp52
 70
     0
102
RTVSPost2010Prop53
 90
        2
102
RTVSPost2010PropOp53
 70
     1
102
RTVSPost2010Prop54
  1
strokes_ogs.tif
102
RTVSPost2010PropOp54
 70
     1
102
RTVSPost2010Prop55
280
     0
102
RTVSPost2010PropOp55
 70
     1
102
RTVSPost2010Prop56
140
1.0
102
RTVSPost2010PropOp56
 70
     1
102
RTVSPost2010Prop57
140
1.0
102
RTVSPost2010PropOp57
 70
     1
102
RTVSPropertyOp0
 70
     1
102
RTVSPropertyOp1
 70
     1
102
RTVSPropertyOp2
 70
     1
102
RTVSPropertyOp3
 70
     1
102
RTVSPropertyOp4
 70
     1
102
RTVSPropertyOp5
 70
     1
102
RTVSPropertyOp6
 70
     1
102
RTVSPropertyOp7
 70
     1
102
RTVSPropertyOp8
 70
     1
102
RTVSPropertyOp9
 70
     1
102
RTVSPropertyOp10
 70
     1
102
RTVSPropertyOp11
 70
     1
102
RTVSPropertyOp12
 70
     1
102
RTVSPropertyOp13
 70
     1
102
RTVSPropertyOp14
 70
     1
102
RTVSPropertyOp15
 70
     1
102
RTVSPropertyOp16
 70
     1
102
RTVSPropertyOp17
 70
     1
102
RTVSPropertyOp18
 70
     1
102
RTVSPropertyOp19
 70
     1
102
RTVSPropertyOp20
 70
     1
102
RTVSPropertyOp21
 70
     1
102
RTVSPropertyOp22
 70
     1
102
RTVSPropertyOp23
 70
     1
102
RTVSPropertyOp24
 70
     1
102
RTVSPropertyOp25
 70
     1
102
RTVSPropertyOp26
 70
     1
102
RTVSPropertyOp27
 70
     1
102
RTVSPropertyOp28
 70
     1
102
RTVSPropertyOp29
 70
     1
102
RTVSPropertyOp30
 70
     1
102
RTVSPropertyOp31
 70
     1
102
RTVSPropertyOp32
 70
     1
102
RTVSPropertyOp33
 70
     1
102
RTVSPropertyOp34
 70
     1
102
RTVSPropertyOp35
 70
     1
102
RTVSPropertyOp36
 70
     1
102
RTVSPropertyOp37
 70
     1
102
RTVSPropertyOp38
 70
     1
102
RTVSPropertyOp39
 70
     1
102
RTVSPropertyOp40
 70
     1
102
RTVSPropertyOp41
 70
     1
102
RTVSPropertyOp42
 70
     1
102
RTVSPropertyOp43
 70
     1
102
RTVSPropertyOp44
 70
     1
102
RTVSPropertyOp45
 70
     1
102
RTVSPropertyOp46
 70
     1
102
RTVSPropertyOp47
 70
     1
102
RTVSPropertyOp48
 70
     1
102
RTVSPropertyOp49
 70
     1
102
RTVSPropertyOp50
 70
     1
102
RTVSPropertyOp51
 70
     0
102
RTVSPropertyOp52
 70
     0
102
RTVSPropertyOp53
 70
     1
102
RTVSPropertyOp54
 70
     1
102
RTVSPropertyOp55
 70
     1
102
RTVSPropertyOp56
 70
     1
102
RTVSPropertyOp57
 70
     1
102
RTVSPropertyOp58
 70
     1
102
RTVSPropertyOp59
 70
     1
102
RTVSPropertyOp60
 70
     1
102
RTVSPropertyOp61
 70
     1
102
RTVSPropertyOp62
 70
     1
  0
XRECORD
  5
15B1
102
{ACAD_REACTORS
330
15B0
102
}
330
15B0
100
AcDbXrecord
280
     1
102
RTVSPost2010Prop28
280
     0
102
RTVSPost2010PropOp28
 70
     1
102
RTVSPost2010Prop29
280
     1
102
RTVSPost2010PropOp29
 70
     1
102
RTVSPost2010Prop30
280
     1
102
RTVSPost2010PropOp30
 70
     1
102
RTVSPost2010Prop31
280
     0
102
RTVSPost2010PropOp31
 70
     1
102
RTVSPost2010Prop32
280
     0
102
RTVSPost2010PropOp32
 70
     1
102
RTVSPost2010Prop33
280
     0
102
RTVSPost2010PropOp33
 70
     1
102
RTVSPost2010Prop34
280
     0
102
RTVSPost2010PropOp34
 70
     1
102
RTVSPost2010Prop35
280
     0
102
RTVSPost2010PropOp35
 70
     1
102
RTVSPost2010Prop36
280
     0
102
RTVSPost2010PropOp36
 70
     1
102
RTVSPost2010Prop37
 90
       50
102
RTVSPost2010PropOp37
 70
     1
102
RTVSPost2010Prop38
140
0.0
102
RTVSPost2010PropOp38
 70
     1
102
RTVSPost2010Prop39
140
1.0
102
RTVSPost2010PropOp39
 70
     1
102
RTVSPost2010Prop40
 90
        0
102
RTVSPost2010PropOp40
 70
     1
102
RTVSPost2010Prop41ColorIndex
 90
       18
102
RTVSPost2010Prop41ColorRGB
 90
        0
102
RTVSPost2010PropOp41
 70
     1
102
RTVSPost2010Prop42
 90
       50
102
RTVSPost2010PropOp42
 70
     1
102
RTVSPost2010Prop43
 90
        3
102
RTVSPost2010PropOp43
 70
     1
102
RTVSPost2010Prop44ColorIndex
 90
        5
102
RTVSPost2010Prop44ColorRGB
 90
      255
102
RTVSPost2010PropOp44
 70
     1
102
RTVSPost2010Prop45
280
     0
102
RTVSPost2010PropOp45
 70
     1
102
RTVSPost2010Prop46
 90
       50
102
RTVSPost2010PropOp46
 70
     1
102
RTVSPost2010Prop47
 90
       50
102
RTVSPost2010PropOp47
 70
     1
102
RTVSPost2010Prop48
 90
       50
102
RTVSPost2010PropOp48
 70
     1
102
RTVSPost2010Prop49
280
     0
102
RTVSPost2010PropOp49
 70
     1
102
RTVSPost2010Prop50
 90
       50
102
RTVSPost2010PropOp50
 70
     1
102
RTVSPost2010Prop51ColorIndex
 90
      256
102
RTVSPost2010Prop51ColorRGB
 90
-16777216
102
RTVSPost2010PropOp51
 70
     0
102
RTVSPost2010Prop52
140
1.0
102
RTVSPost2010PropOp52
 70
     0
102
RTVSPost2010Prop53
 90
        2
102
RTVSPost2010PropOp53
 70
     1
102
RTVSPost2010Prop54
  1
strokes_ogs.tif
102
RTVSPost2010PropOp54
 70
     1
102
RTVSPost2010Prop55
280
     0
102
RTVSPost2010PropOp55
 70
     1
102
RTVSPost2010Prop56
140
1.0
102
RTVSPost2010PropOp56
 70
     1
102
RTVSPost2010Prop57
140
1.0
102
RTVSPost2010PropOp57
 70
     1
102
RTVSPropertyOp0
 70
     1
102
RTVSPropertyOp1
 70
     1
102
RTVSPropertyOp2
 70
     1
102
RTVSPropertyOp3
 70
     1
102
RTVSPropertyOp4
 70
     1
102
RTVSPropertyOp5
 70
     1
102
RTVSPropertyOp6
 70
     1
102
RTVSPropertyOp7
 70
     1
102
RTVSPropertyOp8
 70
     1
102
RTVSPropertyOp9
 70
     1
102
RTVSPropertyOp10
 70
     1
102
RTVSPropertyOp11
 70
     1
102
RTVSPropertyOp12
 70
     1
102
RTVSPropertyOp13
 70
     1
102
RTVSPropertyOp14
 70
     1
102
RTVSPropertyOp15
 70
     1
102
RTVSPropertyOp16
 70
     1
102
RTVSPropertyOp17
 70
     1
102
RTVSPropertyOp18
 70
     1
102
RTVSPropertyOp19
 70
     1
102
RTVSPropertyOp20
 70
     1
102
RTVSPropertyOp21
 70
     1
102
RTVSPropertyOp22
 70
     1
102
RTVSPropertyOp23
 70
     1
102
RTVSPropertyOp24
 70
     1
102
RTVSPropertyOp25
 70
     1
102
RTVSPropertyOp26
 70
     1
102
RTVSPropertyOp27
 70
     1
102
RTVSPropertyOp28
 70
     1
102
RTVSPropertyOp29
 70
     1
102
RTVSPropertyOp30
 70
     1
102
RTVSPropertyOp31
 70
     1
102
RTVSPropertyOp32
 70
     1
102
RTVSPropertyOp33
 70
     1
102
RTVSPropertyOp34
 70
     1
102
RTVSPropertyOp35
 70
     1
102
RTVSPropertyOp36
 70
     1
102
RTVSPropertyOp37
 70
     1
102
RTVSPropertyOp38
 70
     1
102
RTVSPropertyOp39
 70
     1
102
RTVSPropertyOp40
 70
     1
102
RTVSPropertyOp41
 70
     1
102
RTVSPropertyOp42
 70
     1
102
RTVSPropertyOp43
 70
     1
102
RTVSPropertyOp44
 70
     1
102
RTVSPropertyOp45
 70
     1
102
RTVSPropertyOp46
 70
     1
102
RTVSPropertyOp47
 70
     1
102
RTVSPropertyOp48
 70
     1
102
RTVSPropertyOp49
 70
     1
102
RTVSPropertyOp50
 70
     1
102
RTVSPropertyOp51
 70
     0
102
RTVSPropertyOp52
 70
     0
102
RTVSPropertyOp53
 70
     1
102
RTVSPropertyOp54
 70
     1
102
RTVSPropertyOp55
 70
     1
102
RTVSPropertyOp56
 70
     1
102
RTVSPropertyOp57
 70
     1
102
RTVSPropertyOp58
 70
     1
102
RTVSPropertyOp59
 70
     1
102
RTVSPropertyOp60
 70
     1
102
RTVSPropertyOp61
 70
     1
102
RTVSPropertyOp62
 70
     1
  0
XRECORD
  5
159F
102
{ACAD_REACTORS
330
159E
102
}
330
159E
100
AcDbXrecord
280
     1
102
RTVSPost2010Prop28
280
     0
102
RTVSPost2010PropOp28
 70
     1
102
RTVSPost2010Prop29
280
     1
102
RTVSPost2010PropOp29
 70
     1
102
RTVSPost2010Prop30
280
     1
102
RTVSPost2010PropOp30
 70
     1
102
RTVSPost2010Prop31
280
     0
102
RTVSPost2010PropOp31
 70
     1
102
RTVSPost2010Prop32
280
     0
102
RTVSPost2010PropOp32
 70
     1
102
RTVSPost2010Prop33
280
     0
102
RTVSPost2010PropOp33
 70
     1
102
RTVSPost2010Prop34
280
     0
102
RTVSPost2010PropOp34
 70
     1
102
RTVSPost2010Prop35
280
     0
102
RTVSPost2010PropOp35
 70
     1
102
RTVSPost2010Prop36
280
     0
102
RTVSPost2010PropOp36
 70
     1
102
RTVSPost2010Prop37
 90
       50
102
RTVSPost2010PropOp37
 70
     1
102
RTVSPost2010Prop38
140
0.0
102
RTVSPost2010PropOp38
 70
     1
102
RTVSPost2010Prop39
140
1.0
102
RTVSPost2010PropOp39
 70
     1
102
RTVSPost2010Prop40
 90
        0
102
RTVSPost2010PropOp40
 70
     1
102
RTVSPost2010Prop41ColorIndex
 90
       18
102
RTVSPost2010Prop41ColorRGB
 90
        0
102
RTVSPost2010PropOp41
 70
     1
102
RTVSPost2010Prop42
 90
       50
102
RTVSPost2010PropOp42
 70
     1
102
RTVSPost2010Prop43
 90
        3
102
RTVSPost2010PropOp43
 70
     1
102
RTVSPost2010Prop44ColorIndex
 90
        5
102
RTVSPost2010Prop44ColorRGB
 90
      255
102
RTVSPost2010PropOp44
 70
     1
102
RTVSPost2010Prop45
280
     0
102
RTVSPost2010PropOp45
 70
     1
102
RTVSPost2010Prop46
 90
       50
102
RTVSPost2010PropOp46
 70
     1
102
RTVSPost2010Prop47
 90
       50
102
RTVSPost2010PropOp47
 70
     1
102
RTVSPost2010Prop48
 90
       50
102
RTVSPost2010PropOp48
 70
     1
102
RTVSPost2010Prop49
280
     0
102
RTVSPost2010PropOp49
 70
     1
102
RTVSPost2010Prop50
 90
       50
102
RTVSPost2010PropOp50
 70
     1
102
RTVSPost2010Prop51ColorIndex
 90
      256
102
RTVSPost2010Prop51ColorRGB
 90
-16777216
102
RTVSPost2010PropOp51
 70
     0
102
RTVSPost2010Prop52
140
1.0
102
RTVSPost2010PropOp52
 70
     0
102
RTVSPost2010Prop53
 90
        2
102
RTVSPost2010PropOp53
 70
     1
102
RTVSPost2010Prop54
  1
strokes_ogs.tif
102
RTVSPost2010PropOp54
 70
     1
102
RTVSPost2010Prop55
280
     0
102
RTVSPost2010PropOp55
 70
     1
102
RTVSPost2010Prop56
140
1.0
102
RTVSPost2010PropOp56
 70
     1
102
RTVSPost2010Prop57
140
1.0
102
RTVSPost2010PropOp57
 70
     1
102
RTVSPropertyOp0
 70
     1
102
RTVSPropertyOp1
 70
     1
102
RTVSPropertyOp2
 70
     1
102
RTVSPropertyOp3
 70
     1
102
RTVSPropertyOp4
 70
     1
102
RTVSPropertyOp5
 70
     1
102
RTVSPropertyOp6
 70
     1
102
RTVSPropertyOp7
 70
     1
102
RTVSPropertyOp8
 70
     1
102
RTVSPropertyOp9
 70
     1
102
RTVSPropertyOp10
 70
     1
102
RTVSPropertyOp11
 70
     1
102
RTVSPropertyOp12
 70
     1
102
RTVSPropertyOp13
 70
     1
102
RTVSPropertyOp14
 70
     1
102
RTVSPropertyOp15
 70
     1
102
RTVSPropertyOp16
 70
     1
102
RTVSPropertyOp17
 70
     1
102
RTVSPropertyOp18
 70
     1
102
RTVSPropertyOp19
 70
     1
102
RTVSPropertyOp20
 70
     1
102
RTVSPropertyOp21
 70
     1
102
RTVSPropertyOp22
 70
     1
102
RTVSPropertyOp23
 70
     1
102
RTVSPropertyOp24
 70
     1
102
RTVSPropertyOp25
 70
     1
102
RTVSPropertyOp26
 70
     1
102
RTVSPropertyOp27
 70
     1
102
RTVSPropertyOp28
 70
     1
102
RTVSPropertyOp29
 70
     1
102
RTVSPropertyOp30
 70
     1
102
RTVSPropertyOp31
 70
     1
102
RTVSPropertyOp32
 70
     1
102
RTVSPropertyOp33
 70
     1
102
RTVSPropertyOp34
 70
     1
102
RTVSPropertyOp35
 70
     1
102
RTVSPropertyOp36
 70
     1
102
RTVSPropertyOp37
 70
     1
102
RTVSPropertyOp38
 70
     1
102
RTVSPropertyOp39
 70
     1
102
RTVSPropertyOp40
 70
     1
102
RTVSPropertyOp41
 70
     1
102
RTVSPropertyOp42
 70
     1
102
RTVSPropertyOp43
 70
     1
102
RTVSPropertyOp44
 70
     1
102
RTVSPropertyOp45
 70
     1
102
RTVSPropertyOp46
 70
     1
102
RTVSPropertyOp47
 70
     1
102
RTVSPropertyOp48
 70
     1
102
RTVSPropertyOp49
 70
     1
102
RTVSPropertyOp50
 70
     1
102
RTVSPropertyOp51
 70
     0
102
RTVSPropertyOp52
 70
     0
102
RTVSPropertyOp53
 70
     1
102
RTVSPropertyOp54
 70
     1
102
RTVSPropertyOp55
 70
     1
102
RTVSPropertyOp56
 70
     1
102
RTVSPropertyOp57
 70
     1
102
RTVSPropertyOp58
 70
     1
102
RTVSPropertyOp59
 70
     1
102
RTVSPropertyOp60
 70
     1
102
RTVSPropertyOp61
 70
     1
102
RTVSPropertyOp62
 70
     1
  0
XRECORD
  5
1593
102
{ACAD_REACTORS
330
1592
102
}
330
1592
100
AcDbXrecord
280
     1
102
RTVSPost2010Prop28
280
     0
102
RTVSPost2010PropOp28
 70
     1
102
RTVSPost2010Prop29
280
     1
102
RTVSPost2010PropOp29
 70
     1
102
RTVSPost2010Prop30
280
     1
102
RTVSPost2010PropOp30
 70
     1
102
RTVSPost2010Prop31
280
     0
102
RTVSPost2010PropOp31
 70
     1
102
RTVSPost2010Prop32
280
     0
102
RTVSPost2010PropOp32
 70
     1
102
RTVSPost2010Prop33
280
     0
102
RTVSPost2010PropOp33
 70
     1
102
RTVSPost2010Prop34
280
     0
102
RTVSPost2010PropOp34
 70
     1
102
RTVSPost2010Prop35
280
     0
102
RTVSPost2010PropOp35
 70
     1
102
RTVSPost2010Prop36
280
     0
102
RTVSPost2010PropOp36
 70
     1
102
RTVSPost2010Prop37
 90
       50
102
RTVSPost2010PropOp37
 70
     1
102
RTVSPost2010Prop38
140
0.0
102
RTVSPost2010PropOp38
 70
     1
102
RTVSPost2010Prop39
140
1.0
102
RTVSPost2010PropOp39
 70
     1
102
RTVSPost2010Prop40
 90
        0
102
RTVSPost2010PropOp40
 70
     1
102
RTVSPost2010Prop41ColorIndex
 90
       18
102
RTVSPost2010Prop41ColorRGB
 90
        0
102
RTVSPost2010PropOp41
 70
     1
102
RTVSPost2010Prop42
 90
       50
102
RTVSPost2010PropOp42
 70
     1
102
RTVSPost2010Prop43
 90
        3
102
RTVSPost2010PropOp43
 70
     1
102
RTVSPost2010Prop44ColorIndex
 90
        5
102
RTVSPost2010Prop44ColorRGB
 90
      255
102
RTVSPost2010PropOp44
 70
     1
102
RTVSPost2010Prop45
280
     0
102
RTVSPost2010PropOp45
 70
     1
102
RTVSPost2010Prop46
 90
       50
102
RTVSPost2010PropOp46
 70
     1
102
RTVSPost2010Prop47
 90
       50
102
RTVSPost2010PropOp47
 70
     1
102
RTVSPost2010Prop48
 90
       50
102
RTVSPost2010PropOp48
 70
     1
102
RTVSPost2010Prop49
280
     0
102
RTVSPost2010PropOp49
 70
     1
102
RTVSPost2010Prop50
 90
       50
102
RTVSPost2010PropOp50
 70
     1
102
RTVSPost2010Prop51ColorIndex
 90
      256
102
RTVSPost2010Prop51ColorRGB
 90
-16777216
102
RTVSPost2010PropOp51
 70
     0
102
RTVSPost2010Prop52
140
1.0
102
RTVSPost2010PropOp52
 70
     0
102
RTVSPost2010Prop53
 90
        2
102
RTVSPost2010PropOp53
 70
     1
102
RTVSPost2010Prop54
  1
strokes_ogs.tif
102
RTVSPost2010PropOp54
 70
     1
102
RTVSPost2010Prop55
280
     0
102
RTVSPost2010PropOp55
 70
     1
102
RTVSPost2010Prop56
140
1.0
102
RTVSPost2010PropOp56
 70
     1
102
RTVSPost2010Prop57
140
1.0
102
RTVSPost2010PropOp57
 70
     1
102
RTVSPropertyOp0
 70
     1
102
RTVSPropertyOp1
 70
     1
102
RTVSPropertyOp2
 70
     1
102
RTVSPropertyOp3
 70
     1
102
RTVSPropertyOp4
 70
     1
102
RTVSPropertyOp5
 70
     1
102
RTVSPropertyOp6
 70
     1
102
RTVSPropertyOp7
 70
     1
102
RTVSPropertyOp8
 70
     1
102
RTVSPropertyOp9
 70
     1
102
RTVSPropertyOp10
 70
     1
102
RTVSPropertyOp11
 70
     1
102
RTVSPropertyOp12
 70
     1
102
RTVSPropertyOp13
 70
     1
102
RTVSPropertyOp14
 70
     1
102
RTVSPropertyOp15
 70
     1
102
RTVSPropertyOp16
 70
     1
102
RTVSPropertyOp17
 70
     1
102
RTVSPropertyOp18
 70
     1
102
RTVSPropertyOp19
 70
     1
102
RTVSPropertyOp20
 70
     1
102
RTVSPropertyOp21
 70
     1
102
RTVSPropertyOp22
 70
     1
102
RTVSPropertyOp23
 70
     1
102
RTVSPropertyOp24
 70
     1
102
RTVSPropertyOp25
 70
     1
102
RTVSPropertyOp26
 70
     1
102
RTVSPropertyOp27
 70
     1
102
RTVSPropertyOp28
 70
     1
102
RTVSPropertyOp29
 70
     1
102
RTVSPropertyOp30
 70
     1
102
RTVSPropertyOp31
 70
     1
102
RTVSPropertyOp32
 70
     1
102
RTVSPropertyOp33
 70
     1
102
RTVSPropertyOp34
 70
     1
102
RTVSPropertyOp35
 70
     1
102
RTVSPropertyOp36
 70
     1
102
RTVSPropertyOp37
 70
     1
102
RTVSPropertyOp38
 70
     1
102
RTVSPropertyOp39
 70
     1
102
RTVSPropertyOp40
 70
     1
102
RTVSPropertyOp41
 70
     1
102
RTVSPropertyOp42
 70
     1
102
RTVSPropertyOp43
 70
     1
102
RTVSPropertyOp44
 70
     1
102
RTVSPropertyOp45
 70
     1
102
RTVSPropertyOp46
 70
     1
102
RTVSPropertyOp47
 70
     1
102
RTVSPropertyOp48
 70
     1
102
RTVSPropertyOp49
 70
     1
102
RTVSPropertyOp50
 70
     1
102
RTVSPropertyOp51
 70
     0
102
RTVSPropertyOp52
 70
     0
102
RTVSPropertyOp53
 70
     1
102
RTVSPropertyOp54
 70
     1
102
RTVSPropertyOp55
 70
     1
102
RTVSPropertyOp56
 70
     1
102
RTVSPropertyOp57
 70
     1
102
RTVSPropertyOp58
 70
     1
102
RTVSPropertyOp59
 70
     1
102
RTVSPropertyOp60
 70
     1
102
RTVSPropertyOp61
 70
     1
102
RTVSPropertyOp62
 70
     1
  0
XRECORD
  5
15B3
102
{ACAD_REACTORS
330
15B2
102
}
330
15B2
100
AcDbXrecord
280
     1
102
RTVSPost2010Prop28
280
     0
102
RTVSPost2010PropOp28
 70
     1
102
RTVSPost2010Prop29
280
     1
102
RTVSPost2010PropOp29
 70
     1
102
RTVSPost2010Prop30
280
     1
102
RTVSPost2010PropOp30
 70
     1
102
RTVSPost2010Prop31
280
     0
102
RTVSPost2010PropOp31
 70
     1
102
RTVSPost2010Prop32
280
     0
102
RTVSPost2010PropOp32
 70
     1
102
RTVSPost2010Prop33
280
     0
102
RTVSPost2010PropOp33
 70
     1
102
RTVSPost2010Prop34
280
     0
102
RTVSPost2010PropOp34
 70
     1
102
RTVSPost2010Prop35
280
     0
102
RTVSPost2010PropOp35
 70
     1
102
RTVSPost2010Prop36
280
     0
102
RTVSPost2010PropOp36
 70
     1
102
RTVSPost2010Prop37
 90
       50
102
RTVSPost2010PropOp37
 70
     1
102
RTVSPost2010Prop38
140
0.0
102
RTVSPost2010PropOp38
 70
     1
102
RTVSPost2010Prop39
140
1.0
102
RTVSPost2010PropOp39
 70
     1
102
RTVSPost2010Prop40
 90
        0
102
RTVSPost2010PropOp40
 70
     1
102
RTVSPost2010Prop41ColorIndex
 90
       18
102
RTVSPost2010Prop41ColorRGB
 90
        0
102
RTVSPost2010PropOp41
 70
     1
102
RTVSPost2010Prop42
 90
       50
102
RTVSPost2010PropOp42
 70
     1
102
RTVSPost2010Prop43
 90
        3
102
RTVSPost2010PropOp43
 70
     1
102
RTVSPost2010Prop44ColorIndex
 90
        5
102
RTVSPost2010Prop44ColorRGB
 90
      255
102
RTVSPost2010PropOp44
 70
     1
102
RTVSPost2010Prop45
280
     0
102
RTVSPost2010PropOp45
 70
     1
102
RTVSPost2010Prop46
 90
       50
102
RTVSPost2010PropOp46
 70
     1
102
RTVSPost2010Prop47
 90
       50
102
RTVSPost2010PropOp47
 70
     1
102
RTVSPost2010Prop48
 90
       50
102
RTVSPost2010PropOp48
 70
     1
102
RTVSPost2010Prop49
280
     0
102
RTVSPost2010PropOp49
 70
     1
102
RTVSPost2010Prop50
 90
       50
102
RTVSPost2010PropOp50
 70
     1
102
RTVSPost2010Prop51ColorIndex
 90
      256
102
RTVSPost2010Prop51ColorRGB
 90
-16777216
102
RTVSPost2010PropOp51
 70
     0
102
RTVSPost2010Prop52
140
1.0
102
RTVSPost2010PropOp52
 70
     0
102
RTVSPost2010Prop53
 90
        2
102
RTVSPost2010PropOp53
 70
     1
102
RTVSPost2010Prop54
  1
strokes_ogs.tif
102
RTVSPost2010PropOp54
 70
     1
102
RTVSPost2010Prop55
280
     0
102
RTVSPost2010PropOp55
 70
     1
102
RTVSPost2010Prop56
140
1.0
102
RTVSPost2010PropOp56
 70
     1
102
RTVSPost2010Prop57
140
1.0
102
RTVSPost2010PropOp57
 70
     1
102
RTVSPropertyOp0
 70
     1
102
RTVSPropertyOp1
 70
     1
102
RTVSPropertyOp2
 70
     1
102
RTVSPropertyOp3
 70
     1
102
RTVSPropertyOp4
 70
     1
102
RTVSPropertyOp5
 70
     1
102
RTVSPropertyOp6
 70
     1
102
RTVSPropertyOp7
 70
     1
102
RTVSPropertyOp8
 70
     1
102
RTVSPropertyOp9
 70
     1
102
RTVSPropertyOp10
 70
     1
102
RTVSPropertyOp11
 70
     1
102
RTVSPropertyOp12
 70
     1
102
RTVSPropertyOp13
 70
     1
102
RTVSPropertyOp14
 70
     1
102
RTVSPropertyOp15
 70
     1
102
RTVSPropertyOp16
 70
     1
102
RTVSPropertyOp17
 70
     1
102
RTVSPropertyOp18
 70
     1
102
RTVSPropertyOp19
 70
     1
102
RTVSPropertyOp20
 70
     1
102
RTVSPropertyOp21
 70
     1
102
RTVSPropertyOp22
 70
     1
102
RTVSPropertyOp23
 70
     1
102
RTVSPropertyOp24
 70
     1
102
RTVSPropertyOp25
 70
     1
102
RTVSPropertyOp26
 70
     1
102
RTVSPropertyOp27
 70
     1
102
RTVSPropertyOp28
 70
     1
102
RTVSPropertyOp29
 70
     1
102
RTVSPropertyOp30
 70
     1
102
RTVSPropertyOp31
 70
     1
102
RTVSPropertyOp32
 70
     1
102
RTVSPropertyOp33
 70
     1
102
RTVSPropertyOp34
 70
     1
102
RTVSPropertyOp35
 70
     1
102
RTVSPropertyOp36
 70
     1
102
RTVSPropertyOp37
 70
     1
102
RTVSPropertyOp38
 70
     1
102
RTVSPropertyOp39
 70
     1
102
RTVSPropertyOp40
 70
     1
102
RTVSPropertyOp41
 70
     1
102
RTVSPropertyOp42
 70
     1
102
RTVSPropertyOp43
 70
     1
102
RTVSPropertyOp44
 70
     1
102
RTVSPropertyOp45
 70
     1
102
RTVSPropertyOp46
 70
     1
102
RTVSPropertyOp47
 70
     1
102
RTVSPropertyOp48
 70
     1
102
RTVSPropertyOp49
 70
     1
102
RTVSPropertyOp50
 70
     1
102
RTVSPropertyOp51
 70
     0
102
RTVSPropertyOp52
 70
     0
102
RTVSPropertyOp53
 70
     1
102
RTVSPropertyOp54
 70
     1
102
RTVSPropertyOp55
 70
     1
102
RTVSPropertyOp56
 70
     1
102
RTVSPropertyOp57
 70
     1
102
RTVSPropertyOp58
 70
     1
102
RTVSPropertyOp59
 70
     1
102
RTVSPropertyOp60
 70
     1
102
RTVSPropertyOp61
 70
     1
102
RTVSPropertyOp62
 70
     1
  0
ENDSEC
  0
EOF
