  0
SECTION
  2
HEADER
  9
$ACADVER
  1
AC1015
  9
$ACADMAINTVER
 70
    18
  9
$DWGCODEPAGE
  3
ANSI_1252
  9
$INSBASE
 10
0.0
 20
0.0
 30
0.0
  9
$EXTMIN
 10
-155.1
 20
-201.4960763473508
 30
0.0
  9
$EXTMAX
 10
196.8228714274745
 20
232.1
 30
0.0
  9
$LIMMIN
 10
0.0
 20
0.0
  9
$LIMMAX
 10
12.0
 20
9.0
  9
$ORTHOMODE
 70
     0
  9
$REGENMODE
 70
     1
  9
$FILLMODE
 70
     1
  9
$QTEXTMODE
 70
     0
  9
$MIRRTEXT
 70
     0
  9
$LTSCALE
 40
1.0
  9
$ATTMODE
 70
     1
  9
$TEXTSIZE
 40
0.2
  9
$TRACEWID
 40
0.05
  9
$TEXTSTYLE
  7
Standard
  9
$CLAYER
  8
0
  9
$CELTYPE
  6
ByLayer
  9
$CECOLOR
 62
   256
  9
$CELTSCALE
 40
1.0
  9
$DISPSILH
 70
     0
  9
$DIMSCALE
 40
1.0
  9
$DIMASZ
 40
0.18
  9
$DIMEXO
 40
0.0625
  9
$DIMDLI
 40
0.38
  9
$DIMRND
 40
0.0
  9
$DIMDLE
 40
0.0
  9
$DIMEXE
 40
0.18
  9
$DIMTP
 40
0.0
  9
$DIMTM
 40
0.0
  9
$DIMTXT
 40
0.18
  9
$DIMCEN
 40
0.09
  9
$DIMTSZ
 40
0.0
  9
$DIMTOL
 70
     0
  9
$DIMLIM
 70
     0
  9
$DIMTIH
 70
     1
  9
$DIMTOH
 70
     1
  9
$DIMSE1
 70
     0
  9
$DIMSE2
 70
     0
  9
$DIMTAD
 70
     0
  9
$DIMZIN
 70
     0
  9
$DIMBLK
  1

  9
$DIMASO
 70
     1
  9
$DIMSHO
 70
     1
  9
$DIMPOST
  1

  9
$DIMAPOST
  1

  9
$DIMALT
 70
     0
  9
$DIMALTD
 70
     2
  9
$DIMALTF
 40
25.4
  9
$DIMLFAC
 40
1.0
  9
$DIMTOFL
 70
     0
  9
$DIMTVP
 40
0.0
  9
$DIMTIX
 70
     0
  9
$DIMSOXD
 70
     0
  9
$DIMSAH
 70
     0
  9
$DIMBLK1
  1

  9
$DIMBLK2
  1

  9
$DIMSTYLE
  2
Standard
  9
$DIMCLRD
 70
     0
  9
$DIMCLRE
 70
     0
  9
$DIMCLRT
 70
     0
  9
$DIMTFAC
 40
1.0
  9
$DIMGAP
 40
0.09
  9
$DIMJUST
 70
     0
  9
$DIMSD1
 70
     0
  9
$DIMSD2
 70
     0
  9
$DIMTOLJ
 70
     1
  9
$DIMTZIN
 70
     0
  9
$DIMALTZ
 70
     0
  9
$DIMALTTZ
 70
     0
  9
$DIMUPT
 70
     0
  9
$DIMDEC
 70
     4
  9
$DIMTDEC
 70
     4
  9
$DIMALTU
 70
     2
  9
$DIMALTTD
 70
     2
  9
$DIMTXSTY
  7
Standard
  9
$DIMAUNIT
 70
     0
  9
$DIMADEC
 70
     0
  9
$DIMALTRND
 40
0.0
  9
$DIMAZIN
 70
     0
  9
$DIMDSEP
 70
    46
  9
$DIMATFIT
 70
     3
  9
$DIMFRAC
 70
     0
  9
$DIMLDRBLK
  1

  9
$DIMLUNIT
 70
     2
  9
$DIMLWD
 70
    -2
  9
$DIMLWE
 70
    -2
  9
$DIMTMOVE
 70
     0
  9
$LUNITS
 70
     2
  9
$LUPREC
 70
     4
  9
$SKETCHINC
 40
0.1
  9
$FILLETRAD
 40
0.0
  9
$AUNITS
 70
     0
  9
$AUPREC
 70
     0
  9
$MENU
  1
.
  9
$ELEVATION
 40
0.0
  9
$PELEVATION
 40
0.0
  9
$THICKNESS
 40
0.0
  9
$LIMCHECK
 70
     0
  9
$CHAMFERA
 40
0.0
  9
$CHAMFERB
 40
0.0
  9
$CHAMFERC
 40
0.0
  9
$CHAMFERD
 40
0.0
  9
$SKPOLY
 70
     0
  9
$TDCREATE
 40
2460619.646446760
  9
$TDUCREATE
 40
2460619.354780092
  9
$TDUPDATE
 40
2460619.651504630
  9
$TDUUPDATE
 40
2460619.359837963
  9
$TDINDWG
 40
0.0008564815
  9
$TDUSRTIMER
 40
0.0008564815
  9
$USRTIMER
 70
     1
  9
$ANGBASE
 50
0.0
  9
$ANGDIR
 70
     0
  9
$PDMODE
 70
     0
  9
$PDSIZE
 40
0.0
  9
$PLINEWID
 40
0.0
  9
$SPLFRAME
 70
     0
  9
$SPLINETYPE
 70
     6
  9
$SPLINESEGS
 70
     8
  9
$HANDSEED
  5
128C
  9
$SURFTAB1
 70
     6
  9
$SURFTAB2
 70
     6
  9
$SURFTYPE
 70
     6
  9
$SURFU
 70
     6
  9
$SURFV
 70
     6
  9
$UCSBASE
  2

  9
$UCSNAME
  2

  9
$UCSORG
 10
0.0
 20
0.0
 30
0.0
  9
$UCSXDIR
 10
1.0
 20
0.0
 30
0.0
  9
$UCSYDIR
 10
0.0
 20
1.0
 30
0.0
  9
$UCSORTHOREF
  2

  9
$UCSORTHOVIEW
 70
     0
  9
$UCSORGTOP
 10
0.0
 20
0.0
 30
0.0
  9
$UCSORGBOTTOM
 10
0.0
 20
0.0
 30
0.0
  9
$UCSORGLEFT
 10
0.0
 20
0.0
 30
0.0
  9
$UCSORGRIGHT
 10
0.0
 20
0.0
 30
0.0
  9
$UCSORGFRONT
 10
0.0
 20
0.0
 30
0.0
  9
$UCSORGBACK
 10
0.0
 20
0.0
 30
0.0
  9
$PUCSBASE
  2

  9
$PUCSNAME
  2

  9
$PUCSORG
 10
0.0
 20
0.0
 30
0.0
  9
$PUCSXDIR
 10
1.0
 20
0.0
 30
0.0
  9
$PUCSYDIR
 10
0.0
 20
1.0
 30
0.0
  9
$PUCSORTHOREF
  2

  9
$PUCSORTHOVIEW
 70
     0
  9
$PUCSORGTOP
 10
0.0
 20
0.0
 30
0.0
  9
$PUCSORGBOTTOM
 10
0.0
 20
0.0
 30
0.0
  9
$PUCSORGLEFT
 10
0.0
 20
0.0
 30
0.0
  9
$PUCSORGRIGHT
 10
0.0
 20
0.0
 30
0.0
  9
$PUCSORGFRONT
 10
0.0
 20
0.0
 30
0.0
  9
$PUCSORGBACK
 10
0.0
 20
0.0
 30
0.0
  9
$USERI1
 70
     0
  9
$USERI2
 70
     0
  9
$USERI3
 70
     0
  9
$USERI4
 70
     0
  9
$USERI5
 70
     0
  9
$USERR1
 40
0.0
  9
$USERR2
 40
0.0
  9
$USERR3
 40
0.0
  9
$USERR4
 40
0.0
  9
$USERR5
 40
0.0
  9
$WORLDVIEW
 70
     1
  9
$SHADEDGE
 70
     3
  9
$SHADEDIF
 70
    70
  9
$TILEMODE
 70
     1
  9
$MAXACTVP
 70
    48
  9
$PINSBASE
 10
0.0
 20
0.0
 30
0.0
  9
$PLIMCHECK
 70
     0
  9
$PEXTMIN
 10
0.0
 20
0.0
 30
0.0
  9
$PEXTMAX
 10
0.0
 20
0.0
 30
0.0
  9
$PLIMMIN
 10
0.0
 20
0.0
  9
$PLIMMAX
 10
12.0
 20
9.0
  9
$UNITMODE
 70
     0
  9
$VISRETAIN
 70
     1
  9
$PLINEGEN
 70
     0
  9
$PSLTSCALE
 70
     1
  9
$TREEDEPTH
 70
  3020
  9
$CMLSTYLE
  2
Standard
  9
$CMLJUST
 70
     0
  9
$CMLSCALE
 40
1.0
  9
$PROXYGRAPHICS
 70
     1
  9
$MEASUREMENT
 70
     0
  9
$CELWEIGHT
370
    -1
  9
$ENDCAPS
280
     0
  9
$JOINSTYLE
280
     0
  9
$LWDISPLAY
290
     0
  9
$INSUNITS
 70
     1
  9
$HYPERLINKBASE
  1

  9
$STYLESHEET
  1

  9
$XEDIT
290
     1
  9
$CEPSNTYPE
380
     0
  9
$PSTYLEMODE
290
     1
  9
$FINGERPRINTGUID
  2
{DE327A94-1AA4-5B4E-B6B7-9B11D369EB2E}
  9
$VERSIONGUID
  2
{4AA643AC-3030-3541-87BC-76B133CDF363}
  9
$EXTNAMES
290
     1
  9
$PSVPSCALE
 40
0.0
  9
$OLESTARTUP
290
     0
  0
ENDSEC
  0
SECTION
  2
CLASSES
  0
CLASS
  1
ACDBDICTIONARYWDFLT
  2
AcDbDictionaryWithDefault
  3
ObjectDBX Classes
 90
        0
280
     0
281
     0
  0
CLASS
  1
ACDBPLACEHOLDER
  2
AcDbPlaceHolder
  3
ObjectDBX Classes
 90
        0
280
     0
281
     0
  0
CLASS
  1
LAYOUT
  2
AcDbLayout
  3
ObjectDBX Classes
 90
        0
280
     0
281
     0
  0
CLASS
  1
DICTIONARYVAR
  2
AcDbDictionaryVar
  3
ObjectDBX Classes
 90
        0
280
     0
281
     0
  0
CLASS
  1
TABLESTYLE
  2
AcDbTableStyle
  3
ObjectDBX Classes
 90
     4095
280
     0
281
     0
  0
CLASS
  1
MATERIAL
  2
AcDbMaterial
  3
ObjectDBX Classes
 90
     1153
280
     0
281
     0
  0
CLASS
  1
VISUALSTYLE
  2
AcDbVisualStyle
  3
ObjectDBX Classes
 90
     4095
280
     0
281
     0
  0
CLASS
  1
SCALE
  2
AcDbScale
  3
ObjectDBX Classes
 90
     1153
280
     0
281
     0
  0
CLASS
  1
MLEADERSTYLE
  2
AcDbMLeaderStyle
  3
ACDB_MLEADERSTYLE_CLASS
 90
     4095
280
     0
281
     0
  0
CLASS
  1
CELLSTYLEMAP
  2
AcDbCellStyleMap
  3
ObjectDBX Classes
 90
     1152
280
     0
281
     0
  0
CLASS
  1
EXACXREFPANELOBJECT
  2
ExAcXREFPanelObject
  3
EXAC_ESW
 90
    33793
280
     0
281
     0
  0
CLASS
  1
NPOCOLLECTION
  2
AcDbImpNonPersistentObjectsCollection
  3
ObjectDBX Classes
 90
    33921
280
     0
281
     0
  0
CLASS
  1
LAYER_INDEX
  2
AcDbLayerIndex
  3
ObjectDBX Classes
 90
    32768
280
     0
281
     0
  0
CLASS
  1
SPATIAL_INDEX
  2
AcDbSpatialIndex
  3
ObjectDBX Classes
 90
    32768
280
     0
281
     0
  0
CLASS
  1
IDBUFFER
  2
AcDbIdBuffer
  3
ObjectDBX Classes
 90
    32768
280
     0
281
     0
  0
CLASS
  1
ACDBSECTIONVIEWSTYLE
  2
AcDbSectionViewStyle
  3
ObjectDBX Classes
 90
     1025
280
     0
281
     0
  0
CLASS
  1
ACDBDETAILVIEWSTYLE
  2
AcDbDetailViewStyle
  3
ObjectDBX Classes
 90
     1025
280
     0
281
     0
  0
CLASS
  1
XRECORD
  2
AcDbXrecord
  3
ObjectDBX Classes
 90
        0
280
     0
281
     0
  0
ENDSEC
  0
SECTION
  2
TABLES
  0
TABLE
  2
VPORT
  5
8
102
{ACAD_XDICTIONARY
360
11A2
102
}
330
0
100
AcDbSymbolTable
 70
     1
  0
VPORT
  5
94
330
8
100
AcDbSymbolTableRecord
100
AcDbViewportTableRecord
  2
*Active
 70
     0
 10
0.0
 20
0.0
 11
1.0
 21
1.0
 12
20.86143571373722
 22
15.30196182632463
 13
0.0
 23
0.0
 14
0.5
 24
0.5
 15
0.5
 25
0.5
 16
0.0
 26
0.0
 36
1.0
 17
0.0
 27
0.0
 37
0.0
 40
461.0901332811779
 41
0.9846153846153846
 42
50.0
 43
0.0
 44
0.0
 50
0.0
 51
0.0
 71
     0
 72
  1000
 73
     1
 74
     3
 75
     0
 76
     1
 77
     0
 78
     0
281
     0
 65
     1
110
0.0
120
0.0
130
0.0
111
1.0
121
0.0
131
0.0
112
0.0
122
1.0
132
0.0
 79
     0
146
0.0
1001
ACAD_NAV_VCDISPLAY
1070
     3
  0
ENDTAB
  0
TABLE
  2
LTYPE
  5
5
330
0
100
AcDbSymbolTable
 70
     1
  0
LTYPE
  5
14
330
5
100
AcDbSymbolTableRecord
100
AcDbLinetypeTableRecord
  2
ByBlock
 70
     0
  3

 72
    65
 73
     0
 40
0.0
  0
LTYPE
  5
15
330
5
100
AcDbSymbolTableRecord
100
AcDbLinetypeTableRecord
  2
ByLayer
 70
     0
  3

 72
    65
 73
     0
 40
0.0
  0
LTYPE
  5
16
330
5
100
AcDbSymbolTableRecord
100
AcDbLinetypeTableRecord
  2
Continuous
 70
     0
  3
Solid line
 72
    65
 73
     0
 40
0.0
  0
ENDTAB
  0
TABLE
  2
LAYER
  5
2
102
{ACAD_XDICTIONARY
360
18E
102
}
330
0
100
AcDbSymbolTable
 70
     1
  0
LAYER
  5
10
102
{ACAD_XDICTIONARY
360
E6
102
}
330
2
100
AcDbSymbolTableRecord
100
AcDbLayerTableRecord
  2
0
 70
     0
 62
     7
  6
Continuous
370
    -3
390
F
  0
ENDTAB
  0
TABLE
  2
STYLE
  5
3
330
0
100
AcDbSymbolTable
 70
     1
  0
STYLE
  5
11
330
3
100
AcDbSymbolTableRecord
100
AcDbTextStyleTableRecord
  2
Standard
 70
     0
 40
0.0
 41
1.0
 50
0.0
 71
     0
 42
0.2
  3
arial_1.ttf
  4

1001
ACAD
1000
Arial
1071
       34
  0
ENDTAB
  0
TABLE
  2
VIEW
  5
6
330
0
100
AcDbSymbolTable
 70
     0
  0
ENDTAB
  0
TABLE
  2
UCS
  5
7
330
0
100
AcDbSymbolTable
 70
     0
  0
ENDTAB
  0
TABLE
  2
APPID
  5
9
330
0
100
AcDbSymbolTable
 70
     7
  0
APPID
  5
12
330
9
100
AcDbSymbolTableRecord
100
AcDbRegAppTableRecord
  2
ACAD
 70
     0
  0
APPID
  5
DD
330
9
100
AcDbSymbolTableRecord
100
AcDbRegAppTableRecord
  2
AcadAnnoPO
 70
     0
  0
APPID
  5
DE
330
9
100
AcDbSymbolTableRecord
100
AcDbRegAppTableRecord
  2
AcadAnnotative
 70
     0
  0
APPID
  5
DF
330
9
100
AcDbSymbolTableRecord
100
AcDbRegAppTableRecord
  2
ACAD_DSTYLE_DIMJAG
 70
     0
  0
APPID
  5
E0
330
9
100
AcDbSymbolTableRecord
100
AcDbRegAppTableRecord
  2
ACAD_DSTYLE_DIMTALN
 70
     0
  0
APPID
  5
107
330
9
100
AcDbSymbolTableRecord
100
AcDbRegAppTableRecord
  2
ACAD_MLEADERVER
 70
     0
  0
APPID
  5
1A6
330
9
100
AcDbSymbolTableRecord
100
AcDbRegAppTableRecord
  2
ACAD_NAV_VCDISPLAY
 70
     0
  0
ENDTAB
  0
TABLE
  2
DIMSTYLE
  5
A
330
0
100
AcDbSymbolTable
 70
     1
100
AcDbDimStyleTable
 71
     0
  0
DIMSTYLE
105
27
330
A
100
AcDbSymbolTableRecord
100
AcDbDimStyleTableRecord
  2
Standard
 70
     0
340
11
  0
ENDTAB
  0
TABLE
  2
BLOCK_RECORD
  5
1
330
0
100
AcDbSymbolTable
 70
     7
  0
BLOCK_RECORD
  5
1F
102
{ACAD_XDICTIONARY
360
15D
102
}
330
1
100
AcDbSymbolTableRecord
100
AcDbBlockTableRecord
  2
*Model_Space
340
22
  0
BLOCK_RECORD
  5
58
102
{ACAD_XDICTIONARY
360
1156
102
}
330
1
100
AcDbSymbolTableRecord
100
AcDbBlockTableRecord
  2
*Paper_Space
340
59
  0
BLOCK_RECORD
  5
5D
102
{ACAD_XDICTIONARY
360
1158
102
}
330
1
100
AcDbSymbolTableRecord
100
AcDbBlockTableRecord
  2
*Paper_Space0
340
5E
  0
BLOCK_RECORD
  5
ED6
330
1
100
AcDbSymbolTableRecord
100
AcDbBlockTableRecord
  2
PU80-B-Front
340
0
102
{BLKREFS
331
114C
102
}
  0
BLOCK_RECORD
  5
F0A
330
1
100
AcDbSymbolTableRecord
100
AcDbBlockTableRecord
  2
PU80-B-Left
340
0
102
{BLKREFS
331
114D
102
}
  0
BLOCK_RECORD
  5
F41
330
1
100
AcDbSymbolTableRecord
100
AcDbBlockTableRecord
  2
PU80-B-Right
340
0
102
{BLKREFS
331
114E
102
}
  0
BLOCK_RECORD
  5
F78
330
1
100
AcDbSymbolTableRecord
100
AcDbBlockTableRecord
  2
PU80-B-Top
340
0
102
{BLKREFS
331
114F
102
}
  0
BLOCK_RECORD
  5
FCF
330
1
100
AcDbSymbolTableRecord
100
AcDbBlockTableRecord
  2
PU80-B-Bottom
340
0
102
{BLKREFS
331
1150
102
}
  0
BLOCK_RECORD
  5
1020
330
1
100
AcDbSymbolTableRecord
100
AcDbBlockTableRecord
  2
PU80-B-ISO
340
0
102
{BLKREFS
331
1151
102
}
  0
ENDTAB
  0
ENDSEC
  0
SECTION
  2
BLOCKS
  0
BLOCK
  5
20
330
1F
100
AcDbEntity
  8
0
100
AcDbBlockBegin
  2
*Model_Space
 70
     0
 10
0.0
 20
0.0
 30
0.0
  3
*Model_Space
  1

  0
ENDBLK
  5
21
330
1F
100
AcDbEntity
  8
0
100
AcDbBlockEnd
  0
BLOCK
  5
5A
330
58
100
AcDbEntity
 67
     1
  8
0
100
AcDbBlockBegin
  2
*Paper_Space
 70
     0
 10
0.0
 20
0.0
 30
0.0
  3
*Paper_Space
  1

  0
ENDBLK
  5
5B
330
58
100
AcDbEntity
 67
     1
  8
0
100
AcDbBlockEnd
  0
BLOCK
  5
5F
330
5D
100
AcDbEntity
 67
     1
  8
0
100
AcDbBlockBegin
  2
*Paper_Space0
 70
     0
 10
0.0
 20
0.0
 30
0.0
  3
*Paper_Space0
  1

  0
ENDBLK
  5
60
330
5D
100
AcDbEntity
 67
     1
  8
0
100
AcDbBlockEnd
  0
BLOCK
  5
ED7
330
ED6
100
AcDbEntity
  8
0
100
AcDbBlockBegin
  2
PU80-B-Front
 70
     0
 10
0.0
 20
0.0
 30
0.0
  3
PU80-B-Front
  1

  0
LINE
  5
ED9
330
ED6
100
AcDbEntity
  8
0
100
AcDbLine
 10
-43.99999999999997
 20
116.9999999999999
 30
0.0
 11
-44.0
 21
7.999999999999989
 31
0.0
  0
LINE
  5
EDA
330
ED6
100
AcDbEntity
  8
0
100
AcDbLine
 10
39.99999999999998
 20
116.9999999999999
 30
0.0
 11
40.0
 21
7.999999999999989
 31
0.0
  0
LINE
  5
EDB
330
ED6
100
AcDbEntity
  8
0
100
AcDbLine
 10
-36.0
 20
0.0
 30
0.0
 11
36.0
 21
0.0
 31
0.0
  0
LINE
  5
EDC
330
ED6
100
AcDbEntity
  8
0
100
AcDbLine
 10
44.0
 20
7.999999999999993
 30
0.0
 11
43.99999999999997
 21
116.9999999999999
 31
0.0
  0
LINE
  5
EDD
330
ED6
100
AcDbEntity
  8
0
100
AcDbLine
 10
36.0
 20
4.0
 30
0.0
 11
-36.0
 21
4.0
 31
0.0
  0
LINE
  5
EDE
330
ED6
100
AcDbEntity
  8
0
100
AcDbLine
 10
-40.0
 20
7.999999999999993
 30
0.0
 11
-39.99999999999998
 21
116.9999999999999
 31
0.0
  0
LINE
  5
EDF
330
ED6
100
AcDbEntity
  8
0
100
AcDbLine
 10
-43.99999999999997
 20
123.9999999999999
 30
0.0
 11
-43.99999999999997
 21
116.9999999999999
 31
0.0
  0
LINE
  5
EE0
330
ED6
100
AcDbEntity
  8
0
100
AcDbLine
 10
39.99999999999998
 20
123.9999999999999
 30
0.0
 11
39.99999999999998
 21
116.9999999999999
 31
0.0
  0
LINE
  5
EE1
330
ED6
100
AcDbEntity
  8
0
100
AcDbLine
 10
43.99999999999997
 20
116.9999999999999
 30
0.0
 11
43.99999999999997
 21
123.9999999999999
 31
0.0
  0
LINE
  5
EE2
330
ED6
100
AcDbEntity
  8
0
100
AcDbLine
 10
-39.99999999999998
 20
116.9999999999999
 30
0.0
 11
-39.99999999999998
 21
123.9999999999999
 31
0.0
  0
LINE
  5
EE3
330
ED6
100
AcDbEntity
  8
0
100
AcDbLine
 10
-39.99999999999998
 20
123.9999999999999
 30
0.0
 11
-43.99999999999997
 21
123.9999999999999
 31
0.0
  0
LINE
  5
EE4
330
ED6
100
AcDbEntity
  8
0
100
AcDbLine
 10
-43.99999999999997
 20
116.9999999999999
 30
0.0
 11
-39.99999999999998
 21
116.9999999999999
 31
0.0
  0
LINE
  5
EE5
330
ED6
100
AcDbEntity
  8
0
100
AcDbLine
 10
39.99999999999998
 20
116.9999999999999
 30
0.0
 11
43.99999999999997
 21
116.9999999999999
 31
0.0
  0
LINE
  5
EE6
330
ED6
100
AcDbEntity
  8
0
100
AcDbLine
 10
43.99999999999997
 20
123.9999999999999
 30
0.0
 11
39.99999999999998
 21
123.9999999999999
 31
0.0
  0
ARC
  5
EE7
330
ED6
100
AcDbEntity
  8
0
100
AcDbCircle
 10
-36.0
 20
8.0
 30
0.0
 40
8.0
100
AcDbArc
 50
180.0
 51
270.0
  0
ARC
  5
EE8
330
ED6
100
AcDbEntity
  8
0
100
AcDbCircle
 10
-36.0
 20
8.0
 30
0.0
 40
4.0
100
AcDbArc
 50
180.0
 51
270.0
  0
ARC
  5
EE9
330
ED6
100
AcDbEntity
  8
0
100
AcDbCircle
 10
36.0
 20
8.0
 30
0.0
 40
8.0
100
AcDbArc
 50
269.9999999999999
 51
0.0
  0
ARC
  5
EEA
330
ED6
100
AcDbEntity
  8
0
100
AcDbCircle
 10
36.0
 20
8.0
 30
0.0
 40
4.0
100
AcDbArc
 50
269.9999999999997
 51
0.0
  0
ARC
  5
EEB
330
ED6
100
AcDbEntity
  8
0
100
AcDbCircle
 10
29.99999999999999
 20
14.00000000000002
 30
0.0
 40
4.000000000000005
100
AcDbArc
 50
89.99999999999962
 51
180.0
  0
ARC
  5
EEC
330
ED6
100
AcDbEntity
  8
0
100
AcDbCircle
 10
29.99999999999999
 20
14.00000000000002
 30
0.0
 40
8.000000000000008
100
AcDbArc
 50
89.99999999999982
 51
180.0
  0
ARC
  5
EED
330
ED6
100
AcDbEntity
  8
0
100
AcDbCircle
 10
18.00000000000002
 20
8.0
 30
0.0
 40
3.999999999999998
100
AcDbArc
 50
269.9999999999999
 51
0.0
  0
ARC
  5
EEE
330
ED6
100
AcDbEntity
  8
0
100
AcDbCircle
 10
18.00000000000002
 20
8.0
 30
0.0
 40
7.999999999999999
100
AcDbArc
 50
330.0
 51
0.0
  0
LINE
  5
EEF
330
ED6
100
AcDbEntity
  8
0
100
AcDbLine
 10
36.0
 20
18.00000000000003
 30
0.0
 11
30.00000000000002
 21
18.00000000000003
 31
0.0
  0
LINE
  5
EF0
330
ED6
100
AcDbEntity
  8
0
100
AcDbLine
 10
36.0
 20
22.00000000000003
 30
0.0
 11
30.00000000000002
 21
22.00000000000002
 31
0.0
  0
ARC
  5
EF1
330
ED6
100
AcDbEntity
  8
0
100
AcDbCircle
 10
36.0
 20
26.00000000000002
 30
0.0
 40
8.000000000000003
100
AcDbArc
 50
270.0000000000001
 51
300.0
  0
ARC
  5
EF2
330
ED6
100
AcDbEntity
  8
0
100
AcDbCircle
 10
36.0
 20
26.00000000000002
 30
0.0
 40
3.999999999999999
100
AcDbArc
 50
270.0000000000002
 51
0.0
  0
LINE
  5
EF3
330
ED6
100
AcDbEntity
  8
0
100
AcDbLine
 10
26.00000000000001
 20
14.00000000000002
 30
0.0
 11
26.00000000000002
 21
7.999999999999994
 31
0.0
  0
LINE
  5
EF4
330
ED6
100
AcDbEntity
  8
0
100
AcDbLine
 10
22.00000000000002
 20
7.999999999999993
 30
0.0
 11
22.00000000000001
 21
14.00000000000002
 31
0.0
  0
LINE
  5
EF5
330
ED6
100
AcDbEntity
  8
0
100
AcDbLine
 10
-22.00000000000002
 20
7.999999999999992
 30
0.0
 11
-21.99999999999997
 21
14.00000000000005
 31
0.0
  0
LINE
  5
EF6
330
ED6
100
AcDbEntity
  8
0
100
AcDbLine
 10
-25.99999999999998
 20
14.00000000000005
 30
0.0
 11
-26.00000000000002
 21
7.999999999999993
 31
0.0
  0
ARC
  5
EF7
330
ED6
100
AcDbEntity
  8
0
100
AcDbCircle
 10
-29.99999999999999
 20
14.00000000000002
 30
0.0
 40
8.000000000000008
100
AcDbArc
 50
0.0
 51
90.00000000000019
  0
ARC
  5
EF8
330
ED6
100
AcDbEntity
  8
0
100
AcDbCircle
 10
-29.99999999999999
 20
14.00000000000002
 30
0.0
 40
4.000000000000005
100
AcDbArc
 50
0.0
 51
90.00000000000039
  0
ARC
  5
EF9
330
ED6
100
AcDbEntity
  8
0
100
AcDbCircle
 10
-18.00000000000002
 20
8.0
 30
0.0
 40
3.999999999999998
100
AcDbArc
 50
180.0
 51
270.0000000000001
  0
ARC
  5
EFA
330
ED6
100
AcDbEntity
  8
0
100
AcDbCircle
 10
-18.00000000000002
 20
8.0
 30
0.0
 40
7.999999999999999
100
AcDbArc
 50
180.0
 51
210.0
  0
LINE
  5
EFB
330
ED6
100
AcDbEntity
  8
0
100
AcDbLine
 10
-36.00000000000001
 20
22.00000000000002
 30
0.0
 11
-30.00000000000002
 21
22.00000000000002
 31
0.0
  0
LINE
  5
EFC
330
ED6
100
AcDbEntity
  8
0
100
AcDbLine
 10
-36.00000000000001
 20
18.00000000000002
 30
0.0
 11
-30.00000000000002
 21
18.00000000000003
 31
0.0
  0
ARC
  5
EFD
330
ED6
100
AcDbEntity
  8
0
100
AcDbCircle
 10
-36.0
 20
26.00000000000002
 30
0.0
 40
8.000000000000003
100
AcDbArc
 50
240.0
 51
269.9999999999999
  0
ARC
  5
EFE
330
ED6
100
AcDbEntity
  8
0
100
AcDbCircle
 10
-36.0
 20
26.00000000000002
 30
0.0
 40
3.999999999999999
100
AcDbArc
 50
180.0
 51
269.9999999999998
  0
ARC
  5
EFF
330
ED6
100
AcDbEntity
  8
0
100
AcDbCircle
 10
-44.49999999999998
 20
74.99999999999996
 30
0.0
 40
2.500000000000019
100
AcDbArc
 50
140.4194141367437
 51
180.0
  0
ARC
  5
F00
330
ED6
100
AcDbEntity
  8
0
100
AcDbCircle
 10
-46.69999999999998
 20
80.49999999999995
 30
0.0
 40
2.7
100
AcDbArc
 50
320.4194141367438
 51
0.0
  0
LINE
  5
F01
330
ED6
100
AcDbEntity
  8
0
100
AcDbLine
 10
-46.42682295917797
 20
76.59290717996511
 30
0.0
 11
-44.61903120408776
 21
78.77966024563756
 31
0.0
  0
LINE
  5
F02
330
ED6
100
AcDbEntity
  8
0
100
AcDbLine
 10
-47.0
 20
7.999999999999991
 30
0.0
 11
-46.99999999999998
 21
74.99999999999992
 31
0.0
  0
ARC
  5
F03
330
ED6
100
AcDbEntity
  8
0
100
AcDbCircle
 10
-36.0
 20
7.999999999999998
 30
0.0
 40
11.00000000000001
100
AcDbArc
 50
180.0
 51
270.0000000000001
  0
LINE
  5
F04
330
ED6
100
AcDbEntity
  8
0
100
AcDbLine
 10
36.00000000000001
 20
-3.000000000000015
 30
0.0
 11
-35.99999999999998
 21
-3.000000000000015
 31
0.0
  0
ARC
  5
F05
330
ED6
100
AcDbEntity
  8
0
100
AcDbCircle
 10
36.0
 20
7.999999999999998
 30
0.0
 40
11.00000000000001
100
AcDbArc
 50
270.0000000000001
 51
0.0
  0
LINE
  5
F06
330
ED6
100
AcDbEntity
  8
0
100
AcDbLine
 10
46.99999999999999
 20
74.99999999999997
 30
0.0
 11
47.00000000000001
 21
7.999999999999998
 31
0.0
  0
ARC
  5
F07
330
ED6
100
AcDbEntity
  8
0
100
AcDbCircle
 10
44.49999999999999
 20
74.99999999999997
 30
0.0
 40
2.5
100
AcDbArc
 50
0.0
 51
39.58058586325664
  0
ARC
  5
F08
330
ED6
100
AcDbEntity
  8
0
100
AcDbCircle
 10
46.69999999999999
 20
80.49999999999995
 30
0.0
 40
2.7
100
AcDbArc
 50
180.0
 51
219.5805858632562
  0
LINE
  5
F09
330
ED6
100
AcDbEntity
  8
0
100
AcDbLine
 10
46.42682295917798
 20
76.59290717996514
 30
0.0
 11
44.61903120408776
 21
78.77966024563758
 31
0.0
  0
ENDBLK
  5
ED8
330
ED6
100
AcDbEntity
  8
0
100
AcDbBlockEnd
  0
BLOCK
  5
F0B
330
F0A
100
AcDbEntity
  8
0
100
AcDbBlockBegin
  2
PU80-B-Left
 70
     0
 10
0.0
 20
0.0
 30
0.0
  3
PU80-B-Left
  1

  0
ARC
  5
F0D
330
F0A
100
AcDbEntity
  8
0
100
AcDbCircle
 10
-20.75254000000001
 20
-2.699999999999995
 30
0.0
 40
2.7
100
AcDbArc
 50
89.99999999999991
 51
129.5805858632565
  0
LINE
  5
F0E
330
F0A
100
AcDbEntity
  8
0
100
AcDbLine
 10
-24.65963282003482
 20
-2.426822959177989
 30
0.0
 11
-22.47287975436238
 21
-0.6190312040877722
 31
0.0
  0
ARC
  5
F0F
330
F0A
100
AcDbEntity
  8
0
100
AcDbCircle
 10
-26.25253999999999
 20
-0.5000000000000071
 30
0.0
 40
2.5
100
AcDbArc
 50
230.4194141367436
 51
309.5805858632563
  0
ARC
  5
F10
330
F0A
100
AcDbEntity
  8
0
100
AcDbCircle
 10
-31.75254000000001
 20
-2.700000000000013
 30
0.0
 40
2.7
100
AcDbArc
 50
50.41941413674352
 51
90.0
  0
LINE
  5
F11
330
F0A
100
AcDbEntity
  8
0
100
AcDbLine
 10
-27.84544717996519
 20
-2.426822959178001
 30
0.0
 11
-30.03220024563763
 21
-0.6190312040877833
 31
0.0
  0
CIRCLE
  5
F12
330
F0A
100
AcDbEntity
  8
0
100
AcDbCircle
 10
-22.49999999999997
 20
105.0
 30
0.0
 40
4.5
  0
CIRCLE
  5
F13
330
F0A
100
AcDbEntity
  8
0
100
AcDbCircle
 10
17.50000000000002
 20
91.99999999999997
 30
0.0
 40
4.5
  0
CIRCLE
  5
F14
330
F0A
100
AcDbEntity
  8
0
100
AcDbCircle
 10
-12.49999999999999
 20
111.9999999999999
 30
0.0
 40
3.0
  0
CIRCLE
  5
F15
330
F0A
100
AcDbEntity
  8
0
100
AcDbCircle
 10
7.499999999999998
 20
111.9999999999999
 30
0.0
 40
3.0
  0
CIRCLE
  5
F16
330
F0A
100
AcDbEntity
  8
0
100
AcDbCircle
 10
27.5
 20
111.9999999999999
 30
0.0
 40
3.0
  0
CIRCLE
  5
F17
330
F0A
100
AcDbEntity
  8
0
100
AcDbCircle
 10
-2.500000000000006
 20
91.99999999999997
 30
0.0
 40
3.0
  0
CIRCLE
  5
F18
330
F0A
100
AcDbEntity
  8
0
100
AcDbCircle
 10
-27.5
 20
92.0
 30
0.0
 40
3.0
  0
CIRCLE
  5
F19
330
F0A
100
AcDbEntity
  8
0
100
AcDbCircle
 10
-0.0000000000000155
 20
71.99999999999997
 30
0.0
 40
5.5
  0
LINE
  5
F1A
330
F0A
100
AcDbEntity
  8
0
100
AcDbLine
 10
-17.50508000000002
 20
7.999999999999993
 30
0.0
 11
-17.50508000000001
 21
26.00508000000005
 31
0.0
  0
LINE
  5
F1B
330
F0A
100
AcDbEntity
  8
0
100
AcDbLine
 10
-17.50508000000001
 20
26.00508000000005
 30
0.0
 11
-17.50000000000001
 21
26.00508000000005
 31
0.0
  0
LINE
  5
F1C
330
F0A
100
AcDbEntity
  8
0
100
AcDbLine
 10
-17.50000000000001
 20
26.00508000000005
 30
0.0
 11
-17.50000000000001
 21
26.00000000000005
 31
0.0
  0
LINE
  5
F1D
330
F0A
100
AcDbEntity
  8
0
100
AcDbLine
 10
17.49999999999997
 20
26.00000000000003
 30
0.0
 11
17.49999999999997
 21
26.00508000000003
 31
0.0
  0
LINE
  5
F1E
330
F0A
100
AcDbEntity
  8
0
100
AcDbLine
 10
17.49999999999997
 20
26.00508000000003
 30
0.0
 11
17.50507999999997
 21
26.00508000000003
 31
0.0
  0
LINE
  5
F1F
330
F0A
100
AcDbEntity
  8
0
100
AcDbLine
 10
17.50507999999997
 20
26.00508000000003
 30
0.0
 11
17.50507999999997
 21
7.999999999999993
 31
0.0
  0
LINE
  5
F20
330
F0A
100
AcDbEntity
  8
0
100
AcDbLine
 10
-17.50508000000002
 20
7.999999999999993
 30
0.0
 11
-17.50000000000003
 21
7.999999999999993
 31
0.0
  0
LINE
  5
F21
330
F0A
100
AcDbEntity
  8
0
100
AcDbLine
 10
17.49999999999997
 20
7.999999999999993
 30
0.0
 11
17.50507999999997
 21
7.999999999999993
 31
0.0
  0
LINE
  5
F22
330
F0A
100
AcDbEntity
  8
0
100
AcDbLine
 10
-17.50000000000001
 20
18.00000000000004
 30
0.0
 11
17.49999999999997
 21
18.00000000000002
 31
0.0
  0
LINE
  5
F23
330
F0A
100
AcDbEntity
  8
0
100
AcDbLine
 10
-17.50000000000002
 20
18.00000000000004
 30
0.0
 11
-17.50000000000001
 21
26.00000000000005
 31
0.0
  0
LINE
  5
F24
330
F0A
100
AcDbEntity
  8
0
100
AcDbLine
 10
17.49999999999997
 20
18.00000000000002
 30
0.0
 11
17.49999999999997
 21
26.00000000000003
 31
0.0
  0
LINE
  5
F25
330
F0A
100
AcDbEntity
  8
0
100
AcDbLine
 10
35.0
 20
116.9999999999999
 30
0.0
 11
35.0
 21
7.999999999999989
 31
0.0
  0
LINE
  5
F26
330
F0A
100
AcDbEntity
  8
0
100
AcDbLine
 10
-27.99999999999995
 20
124.0
 30
0.0
 11
28.0
 21
123.9999999999999
 31
0.0
  0
LINE
  5
F27
330
F0A
100
AcDbEntity
  8
0
100
AcDbLine
 10
-34.99999999999997
 20
7.999999999999993
 30
0.0
 11
-34.99999999999996
 21
116.9999999999999
 31
0.0
  0
LINE
  5
F28
330
F0A
100
AcDbEntity
  8
0
100
AcDbLine
 10
28.0
 20
123.9999999999999
 30
0.0
 11
35.0
 21
116.9999999999999
 31
0.0
  0
LINE
  5
F29
330
F0A
100
AcDbEntity
  8
0
100
AcDbLine
 10
-34.99999999999996
 20
116.9999999999999
 30
0.0
 11
-27.99999999999995
 21
124.0
 31
0.0
  0
LINE
  5
F2A
330
F0A
100
AcDbEntity
  8
0
100
AcDbLine
 10
-17.50508000000002
 20
0.0
 30
0.0
 11
-20.75254000000001
 21
0.0
 31
0.0
  0
LINE
  5
F2B
330
F0A
100
AcDbEntity
  8
0
100
AcDbLine
 10
20.75254000000001
 20
0.0
 30
0.0
 11
17.50507999999997
 21
0.0
 31
0.0
  0
LINE
  5
F2C
330
F0A
100
AcDbEntity
  8
0
100
AcDbLine
 10
35.0
 20
0.0
 30
0.0
 11
31.75254000000001
 21
0.0
 31
0.0
  0
LINE
  5
F2D
330
F0A
100
AcDbEntity
  8
0
100
AcDbLine
 10
35.00000000000004
 20
8.000000000000005
 30
0.0
 11
35.0
 21
0.0
 31
0.0
  0
LINE
  5
F2E
330
F0A
100
AcDbEntity
  8
0
100
AcDbLine
 10
-31.75254000000001
 20
0.0
 30
0.0
 11
-34.99999999999997
 21
0.0
 31
0.0
  0
LINE
  5
F2F
330
F0A
100
AcDbEntity
  8
0
100
AcDbLine
 10
-35.0
 20
0.0
 30
0.0
 11
-34.99999999999999
 21
8.000000000000005
 31
0.0
  0
LINE
  5
F30
330
F0A
100
AcDbEntity
  8
0
100
AcDbLine
 10
-17.50000000000003
 20
0.0
 30
0.0
 11
-17.50508000000002
 21
0.0
 31
0.0
  0
LINE
  5
F31
330
F0A
100
AcDbEntity
  8
0
100
AcDbLine
 10
17.49999999999996
 20
0.0
 30
0.0
 11
-17.50000000000003
 21
0.0
 31
0.0
  0
LINE
  5
F32
330
F0A
100
AcDbEntity
  8
0
100
AcDbLine
 10
17.50507999999997
 20
0.0
 30
0.0
 11
17.49999999999997
 21
0.0
 31
0.0
  0
LINE
  5
F33
330
F0A
100
AcDbEntity
  8
0
100
AcDbLine
 10
17.49999999999997
 20
18.00000000000003
 30
0.0
 11
17.49999999999996
 21
14.00000000000005
 31
0.0
  0
LINE
  5
F34
330
F0A
100
AcDbEntity
  8
0
100
AcDbLine
 10
-17.50000000000002
 20
18.00000000000004
 30
0.0
 11
-17.50000000000003
 21
14.00000000000004
 31
0.0
  0
LINE
  5
F35
330
F0A
100
AcDbEntity
  8
0
100
AcDbLine
 10
-17.50000000000001
 20
7.999999999999993
 30
0.0
 11
-17.50000000000004
 21
0.0
 31
0.0
  0
LINE
  5
F36
330
F0A
100
AcDbEntity
  8
0
100
AcDbLine
 10
17.49999999999994
 20
0.0
 30
0.0
 11
17.49999999999996
 21
7.999999999999994
 31
0.0
  0
ARC
  5
F37
330
F0A
100
AcDbEntity
  8
0
100
AcDbCircle
 10
12.5
 20
111.9999999999999
 30
0.0
 40
3.000000000000008
100
AcDbArc
 50
146.442690238079
 51
213.5573097619201
  0
ARC
  5
F38
330
F0A
100
AcDbEntity
  8
0
100
AcDbCircle
 10
-7.500000000000001
 20
111.9999999999999
 30
0.0
 40
3.000000000000007
100
AcDbArc
 50
146.4426902380786
 51
213.5573097619205
  0
ARC
  5
F39
330
F0A
100
AcDbEntity
  8
0
100
AcDbCircle
 10
2.500000000000002
 20
91.99999999999995
 30
0.0
 40
3.000000000000001
100
AcDbArc
 50
146.4426902380789
 51
213.5573097619203
  0
ARC
  5
F3A
330
F0A
100
AcDbEntity
  8
0
100
AcDbCircle
 10
20.75254000000001
 20
-2.699999999999995
 30
0.0
 40
2.7
100
AcDbArc
 50
50.41941413674352
 51
90.0000000000001
  0
LINE
  5
F3B
330
F0A
100
AcDbEntity
  8
0
100
AcDbLine
 10
24.65963282003482
 20
-2.426822959177989
 30
0.0
 11
22.47287975436237
 21
-0.6190312040877722
 31
0.0
  0
ARC
  5
F3C
330
F0A
100
AcDbEntity
  8
0
100
AcDbCircle
 10
26.25253999999998
 20
-0.5000000000000071
 30
0.0
 40
2.5
100
AcDbArc
 50
230.4194141367437
 51
309.5805858632564
  0
ARC
  5
F3D
330
F0A
100
AcDbEntity
  8
0
100
AcDbCircle
 10
31.75254
 20
-2.700000000000013
 30
0.0
 40
2.7
100
AcDbArc
 50
90.0
 51
129.5805858632565
  0
LINE
  5
F3E
330
F0A
100
AcDbEntity
  8
0
100
AcDbLine
 10
27.84544717996518
 20
-2.426822959178001
 30
0.0
 11
30.03220024563763
 21
-0.6190312040877833
 31
0.0
  0
LINE
  5
F3F
330
F0A
100
AcDbEntity
  8
0
100
AcDbLine
 10
17.49999999999996
 20
14.00000000000005
 30
0.0
 11
17.49999999999996
 21
7.999999999999993
 31
0.0
  0
LINE
  5
F40
330
F0A
100
AcDbEntity
  8
0
100
AcDbLine
 10
-17.50000000000003
 20
7.999999999999994
 30
0.0
 11
-17.50000000000003
 21
14.00000000000004
 31
0.0
  0
ENDBLK
  5
F0C
330
F0A
100
AcDbEntity
  8
0
100
AcDbBlockEnd
  0
BLOCK
  5
F42
330
F41
100
AcDbEntity
  8
0
100
AcDbBlockBegin
  2
PU80-B-Right
 70
     0
 10
0.0
 20
0.0
 30
0.0
  3
PU80-B-Right
  1

  0
ARC
  5
F44
330
F41
100
AcDbEntity
  8
0
100
AcDbCircle
 10
20.75254000000001
 20
-2.700000000000004
 30
0.0
 40
2.7
100
AcDbArc
 50
50.41941413674352
 51
90.0000000000001
  0
LINE
  5
F45
330
F41
100
AcDbEntity
  8
0
100
AcDbLine
 10
24.65963282003482
 20
-2.426822959177998
 30
0.0
 11
22.47287975436238
 21
-0.619031204087781
 31
0.0
  0
ARC
  5
F46
330
F41
100
AcDbEntity
  8
0
100
AcDbCircle
 10
26.25253999999999
 20
-0.5000000000000071
 30
0.0
 40
2.5
100
AcDbArc
 50
230.4194141367437
 51
309.5805858632564
  0
ARC
  5
F47
330
F41
100
AcDbEntity
  8
0
100
AcDbCircle
 10
31.75254
 20
-2.700000000000013
 30
0.0
 40
2.7
100
AcDbArc
 50
90.0
 51
129.5805858632565
  0
LINE
  5
F48
330
F41
100
AcDbEntity
  8
0
100
AcDbLine
 10
27.84544717996518
 20
-2.426822959178001
 30
0.0
 11
30.03220024563763
 21
-0.6190312040877833
 31
0.0
  0
LINE
  5
F49
330
F41
100
AcDbEntity
  8
0
100
AcDbLine
 10
20.75254000000001
 20
0.0
 30
0.0
 11
17.50508000000002
 21
0.0
 31
0.0
  0
LINE
  5
F4A
330
F41
100
AcDbEntity
  8
0
100
AcDbLine
 10
-17.50507999999997
 20
0.0
 30
0.0
 11
-20.75254000000001
 21
0.0
 31
0.0
  0
LINE
  5
F4B
330
F41
100
AcDbEntity
  8
0
100
AcDbLine
 10
34.99999999999999
 20
0.0
 30
0.0
 11
31.75254000000001
 21
0.0
 31
0.0
  0
LINE
  5
F4C
330
F41
100
AcDbEntity
  8
0
100
AcDbLine
 10
-31.75254
 20
0.0
 30
0.0
 11
-35.0
 21
0.0
 31
0.0
  0
LINE
  5
F4D
330
F41
100
AcDbEntity
  8
0
100
AcDbLine
 10
-34.99999999999992
 20
0.0
 30
0.0
 11
-35.00000000000002
 21
8.000000000000005
 31
0.0
  0
LINE
  5
F4E
330
F41
100
AcDbEntity
  8
0
100
AcDbLine
 10
35.00000000000001
 20
8.000000000000005
 30
0.0
 11
34.99999999999999
 21
0.0
 31
0.0
  0
LINE
  5
F4F
330
F41
100
AcDbEntity
  8
0
100
AcDbLine
 10
17.50000000000003
 20
0.0
 30
0.0
 11
-17.49999999999996
 21
0.0
 31
0.0
  0
LINE
  5
F50
330
F41
100
AcDbEntity
  8
0
100
AcDbLine
 10
17.50000000000003
 20
7.999999999999993
 30
0.0
 11
17.50508000000002
 21
7.999999999999993
 31
0.0
  0
LINE
  5
F51
330
F41
100
AcDbEntity
  8
0
100
AcDbLine
 10
17.50508000000002
 20
0.0
 30
0.0
 11
17.50000000000003
 21
0.0
 31
0.0
  0
LINE
  5
F52
330
F41
100
AcDbEntity
  8
0
100
AcDbLine
 10
-17.49999999999997
 20
0.0
 30
0.0
 11
-17.50507999999997
 21
0.0
 31
0.0
  0
LINE
  5
F53
330
F41
100
AcDbEntity
  8
0
100
AcDbLine
 10
-17.50507999999997
 20
7.999999999999993
 30
0.0
 11
-17.49999999999997
 21
7.999999999999993
 31
0.0
  0
LINE
  5
F54
330
F41
100
AcDbEntity
  8
0
100
AcDbLine
 10
-17.50507999999997
 20
7.999999999999993
 30
0.0
 11
-17.50507999999997
 21
26.00508000000003
 31
0.0
  0
LINE
  5
F55
330
F41
100
AcDbEntity
  8
0
100
AcDbLine
 10
-17.50507999999997
 20
26.00508000000003
 30
0.0
 11
-17.49999999999997
 21
26.00508000000003
 31
0.0
  0
LINE
  5
F56
330
F41
100
AcDbEntity
  8
0
100
AcDbLine
 10
-17.49999999999997
 20
26.00508000000003
 30
0.0
 11
-17.49999999999997
 21
26.00000000000003
 31
0.0
  0
LINE
  5
F57
330
F41
100
AcDbEntity
  8
0
100
AcDbLine
 10
17.50000000000001
 20
26.00000000000005
 30
0.0
 11
17.50000000000001
 21
26.00508000000005
 31
0.0
  0
LINE
  5
F58
330
F41
100
AcDbEntity
  8
0
100
AcDbLine
 10
17.50000000000001
 20
26.00508000000005
 30
0.0
 11
17.50508000000001
 21
26.00508000000005
 31
0.0
  0
LINE
  5
F59
330
F41
100
AcDbEntity
  8
0
100
AcDbLine
 10
17.50508000000001
 20
26.00508000000005
 30
0.0
 11
17.50508000000002
 21
7.999999999999993
 31
0.0
  0
LINE
  5
F5A
330
F41
100
AcDbEntity
  8
0
100
AcDbLine
 10
-17.49999999999997
 20
18.00000000000003
 30
0.0
 11
-17.49999999999996
 21
14.00000000000005
 31
0.0
  0
LINE
  5
F5B
330
F41
100
AcDbEntity
  8
0
100
AcDbLine
 10
17.50000000000002
 20
18.00000000000004
 30
0.0
 11
17.50000000000003
 21
14.00000000000004
 31
0.0
  0
LINE
  5
F5C
330
F41
100
AcDbEntity
  8
0
100
AcDbLine
 10
-17.49999999999997
 20
18.00000000000003
 30
0.0
 11
17.50000000000002
 21
18.00000000000004
 31
0.0
  0
LINE
  5
F5D
330
F41
100
AcDbEntity
  8
0
100
AcDbLine
 10
17.50000000000002
 20
18.00000000000004
 30
0.0
 11
17.50000000000001
 21
26.00000000000005
 31
0.0
  0
LINE
  5
F5E
330
F41
100
AcDbEntity
  8
0
100
AcDbLine
 10
-17.49999999999997
 20
18.00000000000002
 30
0.0
 11
-17.49999999999997
 21
26.00000000000003
 31
0.0
  0
LINE
  5
F5F
330
F41
100
AcDbEntity
  8
0
100
AcDbLine
 10
-17.49999999999997
 20
14.00000000000002
 30
0.0
 11
-17.49999999999997
 21
7.999999999999994
 31
0.0
  0
LINE
  5
F60
330
F41
100
AcDbEntity
  8
0
100
AcDbLine
 10
17.50000000000003
 20
8.000000000000012
 30
0.0
 11
17.50000000000003
 21
13.99999999999999
 31
0.0
  0
LINE
  5
F61
330
F41
100
AcDbEntity
  8
0
100
AcDbLine
 10
17.50000000000003
 20
0.0
 30
0.0
 11
17.50000000000001
 21
7.999999999999994
 31
0.0
  0
LINE
  5
F62
330
F41
100
AcDbEntity
  8
0
100
AcDbLine
 10
-17.49999999999996
 20
7.999999999999993
 30
0.0
 11
-17.49999999999997
 21
0.0
 31
0.0
  0
ARC
  5
F63
330
F41
100
AcDbEntity
  8
0
100
AcDbCircle
 10
-20.75254000000001
 20
-2.700000000000004
 30
0.0
 40
2.7
100
AcDbArc
 50
89.99999999999991
 51
129.5805858632565
  0
LINE
  5
F64
330
F41
100
AcDbEntity
  8
0
100
AcDbLine
 10
-24.65963282003482
 20
-2.426822959177998
 30
0.0
 11
-22.47287975436238
 21
-0.619031204087781
 31
0.0
  0
ARC
  5
F65
330
F41
100
AcDbEntity
  8
0
100
AcDbCircle
 10
-26.25253999999999
 20
-0.5000000000000071
 30
0.0
 40
2.5
100
AcDbArc
 50
230.4194141367436
 51
309.5805858632563
  0
ARC
  5
F66
330
F41
100
AcDbEntity
  8
0
100
AcDbCircle
 10
-31.75254
 20
-2.700000000000013
 30
0.0
 40
2.7
100
AcDbArc
 50
50.41941413674352
 51
90.0
  0
LINE
  5
F67
330
F41
100
AcDbEntity
  8
0
100
AcDbLine
 10
-27.84544717996518
 20
-2.426822959178001
 30
0.0
 11
-30.03220024563763
 21
-0.6190312040877833
 31
0.0
  0
LINE
  5
F68
330
F41
100
AcDbEntity
  8
0
100
AcDbLine
 10
35.0
 20
116.9999999999999
 30
0.0
 11
34.99999999999999
 21
7.999999999999989
 31
0.0
  0
LINE
  5
F69
330
F41
100
AcDbEntity
  8
0
100
AcDbLine
 10
-28.0
 20
123.9999999999999
 30
0.0
 11
28.0
 21
123.9999999999999
 31
0.0
  0
LINE
  5
F6A
330
F41
100
AcDbEntity
  8
0
100
AcDbLine
 10
-35.0
 20
7.999999999999993
 30
0.0
 11
-35.0
 21
116.9999999999999
 31
0.0
  0
LINE
  5
F6B
330
F41
100
AcDbEntity
  8
0
100
AcDbLine
 10
28.0
 20
123.9999999999999
 30
0.0
 11
35.0
 21
116.9999999999999
 31
0.0
  0
LINE
  5
F6C
330
F41
100
AcDbEntity
  8
0
100
AcDbLine
 10
-35.0
 20
116.9999999999999
 30
0.0
 11
-28.0
 21
123.9999999999999
 31
0.0
  0
CIRCLE
  5
F6D
330
F41
100
AcDbEntity
  8
0
100
AcDbCircle
 10
-22.5
 20
105.0
 30
0.0
 40
4.5
  0
CIRCLE
  5
F6E
330
F41
100
AcDbEntity
  8
0
100
AcDbCircle
 10
17.5
 20
91.99999999999997
 30
0.0
 40
4.5
  0
CIRCLE
  5
F6F
330
F41
100
AcDbEntity
  8
0
100
AcDbCircle
 10
-12.5
 20
111.9999999999999
 30
0.0
 40
3.0
  0
CIRCLE
  5
F70
330
F41
100
AcDbEntity
  8
0
100
AcDbCircle
 10
7.500000000000001
 20
111.9999999999999
 30
0.0
 40
3.0
  0
CIRCLE
  5
F71
330
F41
100
AcDbEntity
  8
0
100
AcDbCircle
 10
27.5
 20
111.9999999999999
 30
0.0
 40
3.0
  0
CIRCLE
  5
F72
330
F41
100
AcDbEntity
  8
0
100
AcDbCircle
 10
-27.5
 20
91.99999999999995
 30
0.0
 40
3.0
  0
CIRCLE
  5
F73
330
F41
100
AcDbEntity
  8
0
100
AcDbCircle
 10
-2.500000000000002
 20
91.99999999999995
 30
0.0
 40
3.0
  0
CIRCLE
  5
F74
330
F41
100
AcDbEntity
  8
0
100
AcDbCircle
 10
0.0000000000000022
 20
71.99999999999997
 30
0.0
 40
5.5
  0
ARC
  5
F75
330
F41
100
AcDbEntity
  8
0
100
AcDbCircle
 10
12.49999999999999
 20
111.9999999999999
 30
0.0
 40
3.000000000000008
100
AcDbArc
 50
146.4426902380794
 51
213.5573097619213
  0
ARC
  5
F76
330
F41
100
AcDbEntity
  8
0
100
AcDbCircle
 10
-7.499999999999998
 20
111.9999999999999
 30
0.0
 40
3.000000000000007
100
AcDbArc
 50
146.4426902380794
 51
213.5573097619213
  0
ARC
  5
F77
330
F41
100
AcDbEntity
  8
0
100
AcDbCircle
 10
2.500000000000006
 20
91.99999999999997
 30
0.0
 40
3.000000000000001
100
AcDbArc
 50
146.4426902380797
 51
213.5573097619211
  0
ENDBLK
  5
F43
330
F41
100
AcDbEntity
  8
0
100
AcDbBlockEnd
  0
BLOCK
  5
F79
330
F78
100
AcDbEntity
  8
0
100
AcDbBlockBegin
  2
PU80-B-Top
 70
     0
 10
0.0
 20
0.0
 30
0.0
  3
PU80-B-Top
  1

  0
ARC
  5
F7B
330
F78
100
AcDbEntity
  8
0
100
AcDbCircle
 10
46.69999999999999
 20
20.75254000000003
 30
0.0
 40
2.7
100
AcDbArc
 50
140.4194141367435
 51
180.0
  0
LINE
  5
F7C
330
F78
100
AcDbEntity
  8
0
100
AcDbLine
 10
44.61903120408776
 20
22.4728797543624
 30
0.0
 11
46.42682295917798
 21
24.65963282003485
 31
0.0
  0
ARC
  5
F7D
330
F78
100
AcDbEntity
  8
0
100
AcDbCircle
 10
-46.69999999999998
 20
20.75254000000002
 30
0.0
 40
2.7
100
AcDbArc
 50
0.0
 51
39.58058586325649
  0
LINE
  5
F7E
330
F78
100
AcDbEntity
  8
0
100
AcDbLine
 10
-46.42682295917797
 20
24.65963282003484
 30
0.0
 11
-44.61903120408776
 21
22.4728797543624
 31
0.0
  0
ARC
  5
F7F
330
F78
100
AcDbEntity
  8
0
100
AcDbCircle
 10
-44.49999999999998
 20
26.25254000000001
 30
0.0
 40
2.5
100
AcDbArc
 50
140.4194141367436
 51
219.5805858632564
  0
ARC
  5
F80
330
F78
100
AcDbEntity
  8
0
100
AcDbCircle
 10
-46.69999999999998
 20
31.75254000000002
 30
0.0
 40
2.7
100
AcDbArc
 50
320.4194141367435
 51
0.0
  0
LINE
  5
F81
330
F78
100
AcDbEntity
  8
0
100
AcDbLine
 10
-46.42682295917797
 20
27.84544717996519
 30
0.0
 11
-44.61903120408776
 21
30.03220024563764
 31
0.0
  0
ARC
  5
F82
330
F78
100
AcDbEntity
  8
0
100
AcDbCircle
 10
44.49999999999999
 20
26.25254000000002
 30
0.0
 40
2.5
100
AcDbArc
 50
320.4194141367437
 51
39.58058586325653
  0
ARC
  5
F83
330
F78
100
AcDbEntity
  8
0
100
AcDbCircle
 10
46.69999999999999
 20
31.75254000000001
 30
0.0
 40
2.7
100
AcDbArc
 50
180.0
 51
219.5805858632565
  0
LINE
  5
F84
330
F78
100
AcDbEntity
  8
0
100
AcDbLine
 10
46.42682295917798
 20
27.84544717996519
 30
0.0
 11
44.61903120408776
 21
30.03220024563763
 31
0.0
  0
LINE
  5
F85
330
F78
100
AcDbEntity
  8
0
100
AcDbLine
 10
-43.99999999999997
 20
-28.0
 30
0.0
 11
-43.99999999999997
 21
-35.0
 31
0.0
  0
LINE
  5
F86
330
F78
100
AcDbEntity
  8
0
100
AcDbLine
 10
-43.99999999999997
 20
34.99999999999996
 30
0.0
 11
-43.99999999999997
 21
27.99999999999995
 31
0.0
  0
LINE
  5
F87
330
F78
100
AcDbEntity
  8
0
100
AcDbLine
 10
39.99999999999998
 20
-28.0
 30
0.0
 11
39.99999999999998
 21
-35.0
 31
0.0
  0
LINE
  5
F88
330
F78
100
AcDbEntity
  8
0
100
AcDbLine
 10
39.99999999999998
 20
35.0
 30
0.0
 11
39.99999999999998
 21
28.0
 31
0.0
  0
LINE
  5
F89
330
F78
100
AcDbEntity
  8
0
100
AcDbLine
 10
43.99999999999997
 20
28.0
 30
0.0
 11
43.99999999999997
 21
35.0
 31
0.0
  0
LINE
  5
F8A
330
F78
100
AcDbEntity
  8
0
100
AcDbLine
 10
43.99999999999997
 20
-35.0
 30
0.0
 11
43.99999999999997
 21
-28.0
 31
0.0
  0
LINE
  5
F8B
330
F78
100
AcDbEntity
  8
0
100
AcDbLine
 10
-39.99999999999998
 20
27.99999999999995
 30
0.0
 11
-39.99999999999998
 21
34.99999999999996
 31
0.0
  0
LINE
  5
F8C
330
F78
100
AcDbEntity
  8
0
100
AcDbLine
 10
-39.99999999999998
 20
-35.0
 30
0.0
 11
-39.99999999999998
 21
-28.0
 31
0.0
  0
LINE
  5
F8D
330
F78
100
AcDbEntity
  8
0
100
AcDbLine
 10
-39.99999999999998
 20
34.99999999999996
 30
0.0
 11
-43.99999999999997
 21
34.99999999999996
 31
0.0
  0
LINE
  5
F8E
330
F78
100
AcDbEntity
  8
0
100
AcDbLine
 10
-39.99999999999998
 20
-28.0
 30
0.0
 11
-43.99999999999997
 21
-28.0
 31
0.0
  0
LINE
  5
F8F
330
F78
100
AcDbEntity
  8
0
100
AcDbLine
 10
-43.99999999999997
 20
-35.0
 30
0.0
 11
-39.99999999999998
 21
-35.0
 31
0.0
  0
LINE
  5
F90
330
F78
100
AcDbEntity
  8
0
100
AcDbLine
 10
-43.99999999999997
 20
27.99999999999995
 30
0.0
 11
-39.99999999999998
 21
27.99999999999995
 31
0.0
  0
LINE
  5
F91
330
F78
100
AcDbEntity
  8
0
100
AcDbLine
 10
39.99999999999998
 20
-35.0
 30
0.0
 11
43.99999999999997
 21
-35.0
 31
0.0
  0
LINE
  5
F92
330
F78
100
AcDbEntity
  8
0
100
AcDbLine
 10
43.99999999999997
 20
-28.0
 30
0.0
 11
39.99999999999998
 21
-28.0
 31
0.0
  0
LINE
  5
F93
330
F78
100
AcDbEntity
  8
0
100
AcDbLine
 10
39.99999999999998
 20
28.0
 30
0.0
 11
43.99999999999997
 21
28.0
 31
0.0
  0
LINE
  5
F94
330
F78
100
AcDbEntity
  8
0
100
AcDbLine
 10
43.99999999999997
 20
35.0
 30
0.0
 11
39.99999999999998
 21
35.0
 31
0.0
  0
LINE
  5
F95
330
F78
100
AcDbEntity
  8
0
100
AcDbLine
 10
-43.99999999999997
 20
27.99999999999995
 30
0.0
 11
-43.99999999999997
 21
-28.0
 31
0.0
  0
LINE
  5
F96
330
F78
100
AcDbEntity
  8
0
100
AcDbLine
 10
39.99999999999998
 20
28.0
 30
0.0
 11
39.99999999999998
 21
-28.0
 31
0.0
  0
LINE
  5
F97
330
F78
100
AcDbEntity
  8
0
100
AcDbLine
 10
43.99999999999997
 20
-28.0
 30
0.0
 11
43.99999999999997
 21
28.0
 31
0.0
  0
LINE
  5
F98
330
F78
100
AcDbEntity
  8
0
100
AcDbLine
 10
-36.0
 20
34.99999999999997
 30
0.0
 11
36.0
 21
34.99999999999999
 31
0.0
  0
LINE
  5
F99
330
F78
100
AcDbEntity
  8
0
100
AcDbLine
 10
36.0
 20
-35.0
 30
0.0
 11
-36.0
 21
-35.0
 31
0.0
  0
LINE
  5
F9A
330
F78
100
AcDbEntity
  8
0
100
AcDbLine
 10
-39.99999999999998
 20
-28.0
 30
0.0
 11
-39.99999999999998
 21
27.99999999999995
 31
0.0
  0
LINE
  5
F9B
330
F78
100
AcDbEntity
  8
0
100
AcDbLine
 10
36.0
 20
17.50000000000003
 30
0.0
 11
36.0
 21
17.50508000000002
 31
0.0
  0
LINE
  5
F9C
330
F78
100
AcDbEntity
  8
0
100
AcDbLine
 10
36.0
 20
-17.50507999999997
 30
0.0
 11
17.99492000000001
 21
-17.50507999999996
 31
0.0
  0
LINE
  5
F9D
330
F78
100
AcDbEntity
  8
0
100
AcDbLine
 10
17.99492000000001
 20
-17.50507999999996
 30
0.0
 11
17.99492000000001
 21
-17.49999999999996
 31
0.0
  0
LINE
  5
F9E
330
F78
100
AcDbEntity
  8
0
100
AcDbLine
 10
17.99492000000001
 20
-17.49999999999996
 30
0.0
 11
18.00000000000001
 21
-17.49999999999996
 31
0.0
  0
LINE
  5
F9F
330
F78
100
AcDbEntity
  8
0
100
AcDbLine
 10
18.00000000000003
 20
17.50000000000003
 30
0.0
 11
17.99492000000003
 21
17.50000000000003
 31
0.0
  0
LINE
  5
FA0
330
F78
100
AcDbEntity
  8
0
100
AcDbLine
 10
17.99492000000003
 20
17.50000000000003
 30
0.0
 11
17.99492000000003
 21
17.50508000000003
 31
0.0
  0
LINE
  5
FA1
330
F78
100
AcDbEntity
  8
0
100
AcDbLine
 10
17.99492000000003
 20
17.50508000000003
 30
0.0
 11
36.0
 21
17.50508000000002
 31
0.0
  0
LINE
  5
FA2
330
F78
100
AcDbEntity
  8
0
100
AcDbLine
 10
36.0
 20
-17.50507999999997
 30
0.0
 11
36.0
 21
-17.49999999999997
 31
0.0
  0
LINE
  5
FA3
330
F78
100
AcDbEntity
  8
0
100
AcDbLine
 10
21.99999999999997
 20
-17.49999999999996
 30
0.0
 11
30.00000000000002
 21
-17.49999999999997
 31
0.0
  0
LINE
  5
FA4
330
F78
100
AcDbEntity
  8
0
100
AcDbLine
 10
22.00000000000002
 20
17.50000000000003
 30
0.0
 11
22.00000000000001
 21
-17.49999999999996
 31
0.0
  0
LINE
  5
FA5
330
F78
100
AcDbEntity
  8
0
100
AcDbLine
 10
22.00000000000001
 20
17.50000000000003
 30
0.0
 11
30.00000000000005
 21
17.50000000000002
 31
0.0
  0
LINE
  5
FA6
330
F78
100
AcDbEntity
  8
0
100
AcDbLine
 10
18.00000000000003
 20
17.50000000000003
 30
0.0
 11
22.00000000000004
 21
17.50000000000003
 31
0.0
  0
LINE
  5
FA7
330
F78
100
AcDbEntity
  8
0
100
AcDbLine
 10
18.00000000000001
 20
-17.49999999999996
 30
0.0
 11
22.00000000000002
 21
-17.49999999999996
 31
0.0
  0
LINE
  5
FA8
330
F78
100
AcDbEntity
  8
0
100
AcDbLine
 10
36.0
 20
-17.49999999999997
 30
0.0
 11
30.00000000000002
 21
-17.49999999999997
 31
0.0
  0
LINE
  5
FA9
330
F78
100
AcDbEntity
  8
0
100
AcDbLine
 10
30.00000000000005
 20
17.50000000000003
 30
0.0
 11
36.0
 21
17.50000000000002
 31
0.0
  0
LINE
  5
FAA
330
F78
100
AcDbEntity
  8
0
100
AcDbLine
 10
40.0
 20
17.50000000000001
 30
0.0
 11
36.00000000000001
 21
17.50000000000001
 31
0.0
  0
LINE
  5
FAB
330
F78
100
AcDbEntity
  8
0
100
AcDbLine
 10
40.0
 20
-17.49999999999997
 30
0.0
 11
36.00000000000001
 21
-17.49999999999997
 31
0.0
  0
LINE
  5
FAC
330
F78
100
AcDbEntity
  8
0
100
AcDbLine
 10
-36.0
 20
17.50508000000002
 30
0.0
 11
-17.99492000000003
 21
17.50508000000003
 31
0.0
  0
LINE
  5
FAD
330
F78
100
AcDbEntity
  8
0
100
AcDbLine
 10
-17.99492000000003
 20
17.50508000000003
 30
0.0
 11
-17.99492000000003
 21
17.50000000000003
 31
0.0
  0
LINE
  5
FAE
330
F78
100
AcDbEntity
  8
0
100
AcDbLine
 10
-17.99492000000003
 20
17.50000000000003
 30
0.0
 11
-18.00000000000003
 21
17.50000000000003
 31
0.0
  0
LINE
  5
FAF
330
F78
100
AcDbEntity
  8
0
100
AcDbLine
 10
-18.00000000000001
 20
-17.49999999999996
 30
0.0
 11
-17.99492000000001
 21
-17.49999999999996
 31
0.0
  0
LINE
  5
FB0
330
F78
100
AcDbEntity
  8
0
100
AcDbLine
 10
-17.99492000000001
 20
-17.49999999999996
 30
0.0
 11
-17.99492000000001
 21
-17.50507999999996
 31
0.0
  0
LINE
  5
FB1
330
F78
100
AcDbEntity
  8
0
100
AcDbLine
 10
-17.99492000000001
 20
-17.50507999999996
 30
0.0
 11
-36.0
 21
-17.50507999999997
 31
0.0
  0
LINE
  5
FB2
330
F78
100
AcDbEntity
  8
0
100
AcDbLine
 10
-36.0
 20
17.50508000000002
 30
0.0
 11
-36.0
 21
17.50000000000003
 31
0.0
  0
LINE
  5
FB3
330
F78
100
AcDbEntity
  8
0
100
AcDbLine
 10
-36.0
 20
-17.49999999999997
 30
0.0
 11
-36.0
 21
-17.50507999999997
 31
0.0
  0
LINE
  5
FB4
330
F78
100
AcDbEntity
  8
0
100
AcDbLine
 10
-21.99999999999997
 20
-17.49999999999996
 30
0.0
 11
-22.00000000000001
 21
17.50000000000003
 31
0.0
  0
LINE
  5
FB5
330
F78
100
AcDbEntity
  8
0
100
AcDbLine
 10
-21.99999999999997
 20
-17.49999999999996
 30
0.0
 11
-30.00000000000002
 21
-17.49999999999997
 31
0.0
  0
LINE
  5
FB6
330
F78
100
AcDbEntity
  8
0
100
AcDbLine
 10
-22.00000000000001
 20
17.50000000000003
 30
0.0
 11
-30.00000000000005
 21
17.50000000000002
 31
0.0
  0
LINE
  5
FB7
330
F78
100
AcDbEntity
  8
0
100
AcDbLine
 10
-18.00000000000003
 20
17.50000000000003
 30
0.0
 11
-22.00000000000004
 21
17.50000000000003
 31
0.0
  0
LINE
  5
FB8
330
F78
100
AcDbEntity
  8
0
100
AcDbLine
 10
-18.00000000000001
 20
-17.49999999999996
 30
0.0
 11
-22.00000000000002
 21
-17.49999999999996
 31
0.0
  0
ARC
  5
FB9
330
F78
100
AcDbEntity
  8
0
100
AcDbCircle
 10
1.500000000000001
 20
0.0000000000000022
 30
0.0
 40
8.5
100
AcDbArc
 50
270.0
 51
90.00000000000007
  0
LINE
  5
FBA
330
F78
100
AcDbEntity
  8
0
100
AcDbLine
 10
1.500000000000001
 20
-8.5
 30
0.0
 11
-1.499999999999996
 21
-8.5
 31
0.0
  0
ARC
  5
FBB
330
F78
100
AcDbEntity
  8
0
100
AcDbCircle
 10
-1.500000000000001
 20
0.0000000000000017
 30
0.0
 40
8.5
100
AcDbArc
 50
89.99999999999998
 51
270.0
  0
LINE
  5
FBC
330
F78
100
AcDbEntity
  8
0
100
AcDbLine
 10
-1.499999999999999
 20
8.499999999999985
 30
0.0
 11
1.499999999999994
 21
8.499999999999985
 31
0.0
  0
ARC
  5
FBD
330
F78
100
AcDbEntity
  8
0
100
AcDbCircle
 10
46.69999999999999
 20
-20.75254000000003
 30
0.0
 40
2.7
100
AcDbArc
 50
180.0
 51
219.5805858632565
  0
LINE
  5
FBE
330
F78
100
AcDbEntity
  8
0
100
AcDbLine
 10
44.61903120408776
 20
-22.4728797543624
 30
0.0
 11
46.42682295917798
 21
-24.65963282003485
 31
0.0
  0
ARC
  5
FBF
330
F78
100
AcDbEntity
  8
0
100
AcDbCircle
 10
-46.69999999999998
 20
-20.75254000000002
 30
0.0
 40
2.7
100
AcDbArc
 50
320.4194141367435
 51
0.0
  0
LINE
  5
FC0
330
F78
100
AcDbEntity
  8
0
100
AcDbLine
 10
-46.42682295917797
 20
-24.65963282003484
 30
0.0
 11
-44.61903120408776
 21
-22.4728797543624
 31
0.0
  0
ARC
  5
FC1
330
F78
100
AcDbEntity
  8
0
100
AcDbCircle
 10
-44.49999999999998
 20
-26.25254000000001
 30
0.0
 40
2.5
100
AcDbArc
 50
140.4194141367436
 51
219.5805858632564
  0
ARC
  5
FC2
330
F78
100
AcDbEntity
  8
0
100
AcDbCircle
 10
-46.69999999999998
 20
-31.75254000000002
 30
0.0
 40
2.7
100
AcDbArc
 50
0.0
 51
39.58058586325649
  0
LINE
  5
FC3
330
F78
100
AcDbEntity
  8
0
100
AcDbLine
 10
-46.42682295917797
 20
-27.84544717996519
 30
0.0
 11
-44.61903120408776
 21
-30.03220024563764
 31
0.0
  0
ARC
  5
FC4
330
F78
100
AcDbEntity
  8
0
100
AcDbCircle
 10
44.49999999999999
 20
-26.25254000000002
 30
0.0
 40
2.5
100
AcDbArc
 50
320.4194141367435
 51
39.5805858632563
  0
ARC
  5
FC5
330
F78
100
AcDbEntity
  8
0
100
AcDbCircle
 10
46.69999999999999
 20
-31.75254000000001
 30
0.0
 40
2.7
100
AcDbArc
 50
140.4194141367435
 51
180.0
  0
LINE
  5
FC6
330
F78
100
AcDbEntity
  8
0
100
AcDbLine
 10
46.42682295917798
 20
-27.84544717996519
 30
0.0
 11
44.61903120408776
 21
-30.03220024563763
 31
0.0
  0
LINE
  5
FC7
330
F78
100
AcDbEntity
  8
0
100
AcDbLine
 10
35.99999999999998
 20
-35.00000000000002
 30
0.0
 11
40.0
 21
-35.00000000000002
 31
0.0
  0
LINE
  5
FC8
330
F78
100
AcDbEntity
  8
0
100
AcDbLine
 10
40.0
 20
35.0
 30
0.0
 11
36.0
 21
34.99999999999999
 31
0.0
  0
LINE
  5
FC9
330
F78
100
AcDbEntity
  8
0
100
AcDbLine
 10
-40.0
 20
-35.00000000000002
 30
0.0
 11
-36.0
 21
-35.0
 31
0.0
  0
LINE
  5
FCA
330
F78
100
AcDbEntity
  8
0
100
AcDbLine
 10
-35.99999999999998
 20
34.99999999999999
 30
0.0
 11
-40.0
 21
34.99999999999999
 31
0.0
  0
LINE
  5
FCB
330
F78
100
AcDbEntity
  8
0
100
AcDbLine
 10
-36.00000000000001
 20
-17.49999999999997
 30
0.0
 11
-30.00000000000002
 21
-17.49999999999997
 31
0.0
  0
LINE
  5
FCC
330
F78
100
AcDbEntity
  8
0
100
AcDbLine
 10
-30.00000000000005
 20
17.50000000000003
 30
0.0
 11
-36.00000000000001
 21
17.50000000000001
 31
0.0
  0
LINE
  5
FCD
330
F78
100
AcDbEntity
  8
0
100
AcDbLine
 10
-40.0
 20
17.50000000000001
 30
0.0
 11
-36.00000000000001
 21
17.50000000000001
 31
0.0
  0
LINE
  5
FCE
330
F78
100
AcDbEntity
  8
0
100
AcDbLine
 10
-40.0
 20
-17.49999999999997
 30
0.0
 11
-36.00000000000001
 21
-17.49999999999997
 31
0.0
  0
ENDBLK
  5
F7A
330
F78
100
AcDbEntity
  8
0
100
AcDbBlockEnd
  0
BLOCK
  5
FD0
330
FCF
100
AcDbEntity
  8
0
100
AcDbBlockBegin
  2
PU80-B-Bottom
 70
     0
 10
0.0
 20
0.0
 30
0.0
  3
PU80-B-Bottom
  1

  0
ARC
  5
FD2
330
FCF
100
AcDbEntity
  8
0
100
AcDbCircle
 10
46.70000000000001
 20
-20.75254000000001
 30
0.0
 40
2.7
100
AcDbArc
 50
180.0
 51
219.5805858632565
  0
LINE
  5
FD3
330
FCF
100
AcDbEntity
  8
0
100
AcDbLine
 10
46.42682295917801
 20
-24.65963282003482
 30
0.0
 11
44.61903120408779
 21
-22.47287975436238
 31
0.0
  0
ARC
  5
FD4
330
FCF
100
AcDbEntity
  8
0
100
AcDbCircle
 10
-46.7
 20
-20.75254000000001
 30
0.0
 40
2.7
100
AcDbArc
 50
320.4194141367435
 51
0.0
  0
LINE
  5
FD5
330
FCF
100
AcDbEntity
  8
0
100
AcDbLine
 10
-46.426822959178
 20
-24.65963282003482
 30
0.0
 11
-44.61903120408778
 21
-22.47287975436238
 31
0.0
  0
ARC
  5
FD6
330
FCF
100
AcDbEntity
  8
0
100
AcDbCircle
 10
-44.50000000000001
 20
-26.25253999999999
 30
0.0
 40
2.5
100
AcDbArc
 50
140.4194141367436
 51
219.5805858632564
  0
ARC
  5
FD7
330
FCF
100
AcDbEntity
  8
0
100
AcDbCircle
 10
-46.7
 20
-31.75254000000001
 30
0.0
 40
2.7
100
AcDbArc
 50
0.0
 51
39.58058586325649
  0
LINE
  5
FD8
330
FCF
100
AcDbEntity
  8
0
100
AcDbLine
 10
-46.426822959178
 20
-27.84544717996519
 30
0.0
 11
-44.61903120408777
 21
-30.03220024563763
 31
0.0
  0
ARC
  5
FD9
330
FCF
100
AcDbEntity
  8
0
100
AcDbCircle
 10
44.50000000000002
 20
-26.25253999999999
 30
0.0
 40
2.5
100
AcDbArc
 50
320.4194141367436
 51
39.58058586325638
  0
ARC
  5
FDA
330
FCF
100
AcDbEntity
  8
0
100
AcDbCircle
 10
46.7
 20
-31.75254
 30
0.0
 40
2.7
100
AcDbArc
 50
140.4194141367435
 51
180.0
  0
LINE
  5
FDB
330
FCF
100
AcDbEntity
  8
0
100
AcDbLine
 10
46.426822959178
 20
-27.84544717996518
 30
0.0
 11
44.61903120408778
 21
-30.03220024563763
 31
0.0
  0
LINE
  5
FDC
330
FCF
100
AcDbEntity
  8
0
100
AcDbLine
 10
-43.99999999999999
 20
-20.75254000000001
 30
0.0
 11
-44.0
 21
-17.50508000000002
 31
0.0
  0
LINE
  5
FDD
330
FCF
100
AcDbEntity
  8
0
100
AcDbLine
 10
-44.0
 20
17.50507999999997
 30
0.0
 11
-43.99999999999999
 21
20.75254000000001
 31
0.0
  0
LINE
  5
FDE
330
FCF
100
AcDbEntity
  8
0
100
AcDbLine
 10
-44.0
 20
31.75254
 30
0.0
 11
-44.0
 21
35.0
 31
0.0
  0
LINE
  5
FDF
330
FCF
100
AcDbEntity
  8
0
100
AcDbLine
 10
-44.0
 20
-34.99999999999997
 30
0.0
 11
-44.0
 21
-31.75254000000001
 31
0.0
  0
LINE
  5
FE0
330
FCF
100
AcDbEntity
  8
0
100
AcDbLine
 10
-44.0
 20
35.00000000000004
 30
0.0
 11
-36.0
 21
35.0
 31
0.0
  0
LINE
  5
FE1
330
FCF
100
AcDbEntity
  8
0
100
AcDbLine
 10
-35.99999999999999
 20
-35.0
 30
0.0
 11
-44.0
 21
-34.99999999999999
 31
0.0
  0
LINE
  5
FE2
330
FCF
100
AcDbEntity
  8
0
100
AcDbLine
 10
-44.0
 20
-17.50000000000001
 30
0.0
 11
-44.0
 21
17.49999999999997
 31
0.0
  0
LINE
  5
FE3
330
FCF
100
AcDbEntity
  8
0
100
AcDbLine
 10
-44.0
 20
-17.50508000000002
 30
0.0
 11
-43.99999999999999
 21
-17.50000000000003
 31
0.0
  0
LINE
  5
FE4
330
FCF
100
AcDbEntity
  8
0
100
AcDbLine
 10
-44.0
 20
17.49999999999997
 30
0.0
 11
-44.0
 21
17.50507999999997
 31
0.0
  0
LINE
  5
FE5
330
FCF
100
AcDbEntity
  8
0
100
AcDbLine
 10
-36.0
 20
-17.50000000000003
 30
0.0
 11
-36.0
 21
-17.50508000000002
 31
0.0
  0
LINE
  5
FE6
330
FCF
100
AcDbEntity
  8
0
100
AcDbLine
 10
-36.0
 20
17.50507999999997
 30
0.0
 11
-17.99492000000001
 21
17.50507999999996
 31
0.0
  0
LINE
  5
FE7
330
FCF
100
AcDbEntity
  8
0
100
AcDbLine
 10
-17.99492000000001
 20
17.50507999999996
 30
0.0
 11
-17.99492000000001
 21
17.49999999999996
 31
0.0
  0
LINE
  5
FE8
330
FCF
100
AcDbEntity
  8
0
100
AcDbLine
 10
-17.99492000000001
 20
17.49999999999996
 30
0.0
 11
-18.00000000000001
 21
17.49999999999996
 31
0.0
  0
LINE
  5
FE9
330
FCF
100
AcDbEntity
  8
0
100
AcDbLine
 10
-18.00000000000003
 20
-17.50000000000003
 30
0.0
 11
-17.99492000000003
 21
-17.50000000000003
 31
0.0
  0
LINE
  5
FEA
330
FCF
100
AcDbEntity
  8
0
100
AcDbLine
 10
-17.99492000000003
 20
-17.50000000000003
 30
0.0
 11
-17.99492000000003
 21
-17.50508000000003
 31
0.0
  0
LINE
  5
FEB
330
FCF
100
AcDbEntity
  8
0
100
AcDbLine
 10
-17.99492000000003
 20
-17.50508000000003
 30
0.0
 11
-36.0
 21
-17.50508000000002
 31
0.0
  0
LINE
  5
FEC
330
FCF
100
AcDbEntity
  8
0
100
AcDbLine
 10
-36.0
 20
17.50507999999997
 30
0.0
 11
-36.0
 21
17.49999999999997
 31
0.0
  0
LINE
  5
FED
330
FCF
100
AcDbEntity
  8
0
100
AcDbLine
 10
-26.00000000000002
 20
17.49999999999996
 30
0.0
 11
-26.00000000000004
 21
-17.50000000000003
 31
0.0
  0
LINE
  5
FEE
330
FCF
100
AcDbEntity
  8
0
100
AcDbLine
 10
-30.00000000000002
 20
17.49999999999997
 30
0.0
 11
-25.99999999999998
 21
17.49999999999996
 31
0.0
  0
LINE
  5
FEF
330
FCF
100
AcDbEntity
  8
0
100
AcDbLine
 10
-30.00000000000005
 20
-17.50000000000002
 30
0.0
 11
-26.00000000000001
 21
-17.50000000000003
 31
0.0
  0
LINE
  5
FF0
330
FCF
100
AcDbEntity
  8
0
100
AcDbLine
 10
-26.00000000000004
 20
-17.50000000000003
 30
0.0
 11
-18.00000000000003
 21
-17.50000000000003
 31
0.0
  0
LINE
  5
FF1
330
FCF
100
AcDbEntity
  8
0
100
AcDbLine
 10
-26.00000000000002
 20
17.49999999999996
 30
0.0
 11
-18.00000000000001
 21
17.49999999999996
 31
0.0
  0
LINE
  5
FF2
330
FCF
100
AcDbEntity
  8
0
100
AcDbLine
 10
-44.0
 20
-17.50000000000001
 30
0.0
 11
-36.0
 21
-17.50000000000004
 31
0.0
  0
LINE
  5
FF3
330
FCF
100
AcDbEntity
  8
0
100
AcDbLine
 10
36.0
 20
-17.50000000000003
 30
0.0
 11
44.0
 21
-17.50000000000001
 31
0.0
  0
LINE
  5
FF4
330
FCF
100
AcDbEntity
  8
0
100
AcDbLine
 10
-36.0
 20
17.49999999999994
 30
0.0
 11
-44.0
 21
17.49999999999996
 31
0.0
  0
LINE
  5
FF5
330
FCF
100
AcDbEntity
  8
0
100
AcDbLine
 10
44.0
 20
17.49999999999996
 30
0.0
 11
36.0
 21
17.49999999999997
 31
0.0
  0
LINE
  5
FF6
330
FCF
100
AcDbEntity
  8
0
100
AcDbLine
 10
36.0
 20
-17.50508000000002
 30
0.0
 11
17.99492000000003
 21
-17.50508000000003
 31
0.0
  0
LINE
  5
FF7
330
FCF
100
AcDbEntity
  8
0
100
AcDbLine
 10
17.99492000000003
 20
-17.50508000000003
 30
0.0
 11
17.99492000000003
 21
-17.50000000000003
 31
0.0
  0
LINE
  5
FF8
330
FCF
100
AcDbEntity
  8
0
100
AcDbLine
 10
17.99492000000003
 20
-17.50000000000003
 30
0.0
 11
18.00000000000003
 21
-17.50000000000003
 31
0.0
  0
LINE
  5
FF9
330
FCF
100
AcDbEntity
  8
0
100
AcDbLine
 10
18.00000000000001
 20
17.49999999999996
 30
0.0
 11
17.99492000000001
 21
17.49999999999996
 31
0.0
  0
LINE
  5
FFA
330
FCF
100
AcDbEntity
  8
0
100
AcDbLine
 10
17.99492000000001
 20
17.49999999999996
 30
0.0
 11
17.99492000000001
 21
17.50507999999996
 31
0.0
  0
LINE
  5
FFB
330
FCF
100
AcDbEntity
  8
0
100
AcDbLine
 10
17.99492000000001
 20
17.50507999999996
 30
0.0
 11
36.0
 21
17.50507999999997
 31
0.0
  0
LINE
  5
FFC
330
FCF
100
AcDbEntity
  8
0
100
AcDbLine
 10
43.99999999999999
 20
-17.50000000000003
 30
0.0
 11
44.0
 21
-17.50508000000002
 31
0.0
  0
LINE
  5
FFD
330
FCF
100
AcDbEntity
  8
0
100
AcDbLine
 10
36.0
 20
-17.50508000000002
 30
0.0
 11
36.0
 21
-17.50000000000003
 31
0.0
  0
LINE
  5
FFE
330
FCF
100
AcDbEntity
  8
0
100
AcDbLine
 10
36.0
 20
17.49999999999997
 30
0.0
 11
36.0
 21
17.50507999999997
 31
0.0
  0
LINE
  5
FFF
330
FCF
100
AcDbEntity
  8
0
100
AcDbLine
 10
44.0
 20
17.50507999999997
 30
0.0
 11
44.0
 21
17.49999999999997
 31
0.0
  0
LINE
  5
1000
330
FCF
100
AcDbEntity
  8
0
100
AcDbLine
 10
44.0
 20
17.49999999999997
 30
0.0
 11
44.0
 21
-17.50000000000001
 31
0.0
  0
LINE
  5
1001
330
FCF
100
AcDbEntity
  8
0
100
AcDbLine
 10
30.00000000000002
 20
17.49999999999997
 30
0.0
 11
25.99999999999998
 21
17.49999999999996
 31
0.0
  0
LINE
  5
1002
330
FCF
100
AcDbEntity
  8
0
100
AcDbLine
 10
30.00000000000005
 20
-17.50000000000002
 30
0.0
 11
26.00000000000001
 21
-17.50000000000003
 31
0.0
  0
LINE
  5
1003
330
FCF
100
AcDbEntity
  8
0
100
AcDbLine
 10
26.00000000000004
 20
-17.50000000000003
 30
0.0
 11
18.00000000000003
 21
-17.50000000000003
 31
0.0
  0
LINE
  5
1004
330
FCF
100
AcDbEntity
  8
0
100
AcDbLine
 10
26.00000000000002
 20
17.49999999999996
 30
0.0
 11
18.00000000000001
 21
17.49999999999996
 31
0.0
  0
LINE
  5
1005
330
FCF
100
AcDbEntity
  8
0
100
AcDbLine
 10
26.00000000000003
 20
-17.50000000000003
 30
0.0
 11
26.00000000000002
 21
17.49999999999996
 31
0.0
  0
LINE
  5
1006
330
FCF
100
AcDbEntity
  8
0
100
AcDbLine
 10
36.0
 20
17.49999999999997
 30
0.0
 11
30.00000000000002
 21
17.49999999999997
 31
0.0
  0
LINE
  5
1007
330
FCF
100
AcDbEntity
  8
0
100
AcDbLine
 10
30.00000000000005
 20
-17.50000000000003
 30
0.0
 11
36.0
 21
-17.50000000000002
 31
0.0
  0
ARC
  5
1008
330
FCF
100
AcDbEntity
  8
0
100
AcDbCircle
 10
1.500000000000001
 20
-0.0000000000000022
 30
0.0
 40
8.5
100
AcDbArc
 50
270.0
 51
90.0
  0
LINE
  5
1009
330
FCF
100
AcDbEntity
  8
0
100
AcDbLine
 10
1.499999999999994
 20
-8.499999999999985
 30
0.0
 11
-1.499999999999999
 21
-8.499999999999985
 31
0.0
  0
ARC
  5
100A
330
FCF
100
AcDbEntity
  8
0
100
AcDbCircle
 10
-1.500000000000001
 20
-0.0000000000000017
 30
0.0
 40
8.5
100
AcDbArc
 50
90.0
 51
270.0
  0
LINE
  5
100B
330
FCF
100
AcDbEntity
  8
0
100
AcDbLine
 10
-1.499999999999996
 20
8.5
 30
0.0
 11
1.500000000000001
 21
8.5
 31
0.0
  0
LINE
  5
100C
330
FCF
100
AcDbEntity
  8
0
100
AcDbLine
 10
44.0
 20
-17.50508000000002
 30
0.0
 11
44.0
 21
-20.75254000000001
 31
0.0
  0
LINE
  5
100D
330
FCF
100
AcDbEntity
  8
0
100
AcDbLine
 10
44.0
 20
20.75254000000001
 30
0.0
 11
44.0
 21
17.50507999999997
 31
0.0
  0
LINE
  5
100E
330
FCF
100
AcDbEntity
  8
0
100
AcDbLine
 10
44.0
 20
35.0
 30
0.0
 11
44.0
 21
31.75254000000001
 31
0.0
  0
LINE
  5
100F
330
FCF
100
AcDbEntity
  8
0
100
AcDbLine
 10
35.99999999999999
 20
34.99999999999992
 30
0.0
 11
44.0
 21
35.00000000000002
 31
0.0
  0
LINE
  5
1010
330
FCF
100
AcDbEntity
  8
0
100
AcDbLine
 10
44.0
 20
-31.75254000000001
 30
0.0
 11
44.0
 21
-34.99999999999999
 31
0.0
  0
LINE
  5
1011
330
FCF
100
AcDbEntity
  8
0
100
AcDbLine
 10
44.0
 20
-35.00000000000001
 30
0.0
 11
36.0
 21
-34.99999999999999
 31
0.0
  0
ARC
  5
1012
330
FCF
100
AcDbEntity
  8
0
100
AcDbCircle
 10
46.70000000000001
 20
20.75254000000001
 30
0.0
 40
2.7
100
AcDbArc
 50
140.4194141367435
 51
180.0
  0
LINE
  5
1013
330
FCF
100
AcDbEntity
  8
0
100
AcDbLine
 10
46.42682295917801
 20
24.65963282003482
 30
0.0
 11
44.61903120408779
 21
22.47287975436237
 31
0.0
  0
ARC
  5
1014
330
FCF
100
AcDbEntity
  8
0
100
AcDbCircle
 10
-46.7
 20
20.75254000000001
 30
0.0
 40
2.7
100
AcDbArc
 50
0.0
 51
39.58058586325649
  0
LINE
  5
1015
330
FCF
100
AcDbEntity
  8
0
100
AcDbLine
 10
-46.426822959178
 20
24.65963282003482
 30
0.0
 11
-44.61903120408778
 21
22.47287975436238
 31
0.0
  0
ARC
  5
1016
330
FCF
100
AcDbEntity
  8
0
100
AcDbCircle
 10
-44.50000000000001
 20
26.25253999999999
 30
0.0
 40
2.5
100
AcDbArc
 50
140.4194141367436
 51
219.5805858632564
  0
ARC
  5
1017
330
FCF
100
AcDbEntity
  8
0
100
AcDbCircle
 10
-46.7
 20
31.75254
 30
0.0
 40
2.7
100
AcDbArc
 50
320.4194141367435
 51
0.0
  0
LINE
  5
1018
330
FCF
100
AcDbEntity
  8
0
100
AcDbLine
 10
-46.426822959178
 20
27.84544717996518
 30
0.0
 11
-44.61903120408777
 21
30.03220024563763
 31
0.0
  0
ARC
  5
1019
330
FCF
100
AcDbEntity
  8
0
100
AcDbCircle
 10
44.50000000000002
 20
26.25253999999998
 30
0.0
 40
2.5
100
AcDbArc
 50
320.4194141367436
 51
39.58058586325638
  0
ARC
  5
101A
330
FCF
100
AcDbEntity
  8
0
100
AcDbCircle
 10
46.7
 20
31.75254
 30
0.0
 40
2.7
100
AcDbArc
 50
180.0
 51
219.5805858632565
  0
LINE
  5
101B
330
FCF
100
AcDbEntity
  8
0
100
AcDbLine
 10
46.426822959178
 20
27.84544717996518
 30
0.0
 11
44.61903120408778
 21
30.03220024563763
 31
0.0
  0
LINE
  5
101C
330
FCF
100
AcDbEntity
  8
0
100
AcDbLine
 10
36.0
 20
-34.99999999999999
 30
0.0
 11
-36.0
 21
-34.99999999999997
 31
0.0
  0
LINE
  5
101D
330
FCF
100
AcDbEntity
  8
0
100
AcDbLine
 10
-36.0
 20
35.0
 30
0.0
 11
36.0
 21
35.0
 31
0.0
  0
LINE
  5
101E
330
FCF
100
AcDbEntity
  8
0
100
AcDbLine
 10
-36.00000000000001
 20
17.49999999999997
 30
0.0
 11
-30.00000000000002
 21
17.49999999999997
 31
0.0
  0
LINE
  5
101F
330
FCF
100
AcDbEntity
  8
0
100
AcDbLine
 10
-30.00000000000005
 20
-17.50000000000003
 30
0.0
 11
-36.00000000000001
 21
-17.50000000000001
 31
0.0
  0
ENDBLK
  5
FD1
330
FCF
100
AcDbEntity
  8
0
100
AcDbBlockEnd
  0
BLOCK
  5
1021
330
1020
100
AcDbEntity
  8
0
100
AcDbBlockBegin
  2
PU80-B-ISO
 70
     0
 10
0.0
 20
0.0
 30
0.0
  3
PU80-B-ISO
  1

  0
ELLIPSE
  5
1023
330
1020
100
AcDbEntity
  8
0
100
AcDbEllipse
 10
47.69614844225687
 20
-53.4590766855851
 30
0.0
 11
-2.7
 21
0.0000000000000042
 31
0.0
210
0.0
220
0.0
230
1.0
 40
0.5773502691896269
 41
4.806975600599992
 42
5.497787143782142
  0
LINE
  5
1024
330
1020
100
AcDbEntity
  8
0
100
AcDbLine
 10
47.44114520148416
 20
-51.90719896840983
 30
0.0
 11
47.44114520148416
 21
2.798071953747811
 31
0.0
  0
ELLIPSE
  5
1025
330
1020
100
AcDbEntity
  8
0
100
AcDbEllipse
 10
47.69614844225687
 20
1.246194236572542
 30
0.0
 11
2.699999999999999
 21
-0.0000000000001613
 31
0.0
210
0.0
220
0.0
230
1.0
 40
0.5773502691896259
 41
1.665382947010304
 42
2.356194490192587
  0
LINE
  5
1026
330
1020
100
AcDbEntity
  8
0
100
AcDbLine
 10
45.78696013305318
 20
-52.35680630133266
 30
0.0
 11
45.78696013305318
 21
2.348464620824968
 31
0.0
  0
LINE
  5
1027
330
1020
100
AcDbEntity
  8
0
100
AcDbLine
 10
50.26571493199904
 20
-51.75248866121269
 30
0.0
 11
47.44114520148416
 21
-51.90719896840983
 31
0.0
  0
LINE
  5
1028
330
1020
100
AcDbEntity
  8
0
100
AcDbLine
 10
50.26571493199904
 20
-51.75248866121269
 30
0.0
 11
50.26571493199904
 21
2.952782260944948
 31
0.0
  0
LINE
  5
1029
330
1020
100
AcDbEntity
  8
0
100
AcDbLine
 10
47.44114520148416
 20
2.798071953747811
 30
0.0
 11
50.26571493199904
 21
2.952782260944948
 31
0.0
  0
ELLIPSE
  5
102A
330
1020
100
AcDbEntity
  8
0
100
AcDbEllipse
 10
40.13010588356081
 20
-54.56134706983753
 30
0.0
 11
1.35
 21
2.338268590217984
 31
0.0
210
0.0
220
0.0
230
1.0
 40
0.5773502691896258
 41
0.5054441064781586
 42
0.7853981633974483
  0
ELLIPSE
  5
102B
330
1020
100
AcDbEntity
  8
0
100
AcDbEllipse
 10
40.13010588356081
 20
-49.09081997762175
 30
0.0
 11
-1.999999999999793
 21
3.464101615137873
 31
0.0
210
0.0
220
0.0
230
1.0
 40
0.5773502691896258
 41
2.356194490192633
 42
2.529021173220687
  0
ELLIPSE
  5
102C
330
1020
100
AcDbEntity
  8
0
100
AcDbEllipse
 10
41.34656978981522
 20
-48.38849421388626
 30
0.0
 11
4.309515602043905
 21
-7.464299978750823
 31
0.0
210
0.0
220
0.0
230
0.9999999999999998
 40
0.5773502691896258
 41
5.901877000739434
 42
7.068583470577032
  0
ELLIPSE
  5
102D
330
1020
100
AcDbEntity
  8
0
100
AcDbEllipse
 10
40.13010588356081
 20
-49.09081997762175
 30
0.0
 11
4.000000000000001
 21
-6.928203230275508
 31
0.0
210
0.0
220
0.0
230
1.0
 40
0.5773502691896259
 41
0.0
 42
0.7853981633974478
  0
ELLIPSE
  5
102E
330
1020
100
AcDbEntity
  8
0
100
AcDbEllipse
 10
42.89283771133267
 20
-47.49575601315888
 30
0.0
 11
5.213411479589015
 21
-9.029893563411011
 31
0.0
210
0.0
220
0.0
230
1.0
 40
0.5773502691896258
 41
5.658840087705714
 42
7.06858347057703
  0
LINE
  5
102F
330
1020
100
AcDbEntity
  8
0
100
AcDbLine
 10
-3.181980515339448
 20
-26.14192627952331
 30
0.0
 11
3.535533905932741
 21
-30.02028503893
 31
0.0
  0
LINE
  5
1030
330
1020
100
AcDbEntity
  8
0
100
AcDbLine
 10
33.62046555405467
 20
-47.38982842452468
 30
0.0
 11
40.66223202067494
 21
-51.45539418959838
 31
0.0
  0
LINE
  5
1031
330
1020
100
AcDbEntity
  8
0
100
AcDbLine
 10
40.66223202067494
 20
-48.8541876572448
 30
0.0
 11
35.8731764915629
 21
-46.0892251583479
 31
0.0
  0
LINE
  5
1032
330
1020
100
AcDbEntity
  8
0
100
AcDbLine
 10
3.535533905932748
 20
-27.41907850657643
 30
0.0
 11
-3.181980515339435
 21
-23.54071974716974
 31
0.0
  0
LINE
  5
1033
330
1020
100
AcDbEntity
  8
0
100
AcDbLine
 10
-3.181980515339453
 20
-26.4513468939176
 30
0.0
 11
3.535533905932752
 21
-30.3297056533243
 31
0.0
  0
LINE
  5
1034
330
1020
100
AcDbEntity
  8
0
100
AcDbLine
 10
33.35249944153463
 20
-47.54453873172184
 30
0.0
 11
40.66223202067495
 21
-51.76481480399267
 31
0.0
  0
LINE
  5
1035
330
1020
100
AcDbEntity
  8
0
100
AcDbLine
 10
40.1301058835608
 20
-52.35680630133266
 30
0.0
 11
32.57375669745674
 21
-47.99414606464466
 31
0.0
  0
LINE
  5
1036
330
1020
100
AcDbEntity
  8
0
100
AcDbLine
 10
3.535533905932748
 20
-31.22892031916997
 30
0.0
 11
-3.132159475341509
 21
-27.37932575061739
 31
0.0
  0
ELLIPSE
  5
1037
330
1020
100
AcDbEntity
  8
0
100
AcDbEllipse
 10
-10.07447558068404
 20
39.09081076257262
 30
0.0
 11
-2.499999999999999
 21
-0.0000000000000011
 31
0.0
210
0.0
220
0.0
230
1.0
 40
0.577350269189626
 41
4.806975600599989
 42
5.797648229605729
  0
LINE
  5
1038
330
1020
100
AcDbEntity
  8
0
100
AcDbLine
 10
-12.56330063001884
 20
39.08792664823258
 30
0.0
 11
-12.56330063001886
 21
-9.893003198830632
 31
0.0
  0
LINE
  5
1039
330
1020
100
AcDbEntity
  8
0
100
AcDbLine
 10
-10.31058969251063
 20
-11.19360646500739
 30
0.0
 11
-10.31058969251061
 21
40.52773457477195
 31
0.0
  0
LINE
  5
103A
330
1020
100
AcDbEntity
  8
0
100
AcDbLine
 10
-12.83126674253889
 20
37.5963652143375
 30
0.0
 11
-12.60901806215969
 21
38.94890792597898
 31
0.0
  0
LINE
  5
103B
330
1020
100
AcDbEntity
  8
0
100
AcDbLine
 10
-12.83126674253889
 20
37.5963652143375
 30
0.0
 11
-12.83126674253891
 21
-9.738292891633477
 31
0.0
  0
ELLIPSE
  5
103C
330
1020
100
AcDbEntity
  8
0
100
AcDbEllipse
 10
-15.51919779582046
 20
37.74359140404185
 30
0.0
 11
2.699999999999999
 21
-0.0000000000000006
 31
0.0
210
0.0
220
0.0
230
1.0
 40
0.5773502691896257
 41
5.497787143782137
 42
6.188598686964286
  0
LINE
  5
103D
330
1020
100
AcDbEntity
  8
0
100
AcDbLine
 10
-13.6100094866168
 20
-9.231157177002389
 30
0.0
 11
-13.61000948661678
 21
36.64132101978943
 31
0.0
  0
ELLIPSE
  5
103E
330
1020
100
AcDbEntity
  8
0
100
AcDbEllipse
 10
-11.43694516126473
 20
39.87743294168354
 30
0.0
 11
0.7964535899825886
 21
1.379498083720474
 31
0.0
210
0.0
220
0.0
230
1.0
 40
0.5773502691896259
 41
5.49778714378215
 42
6.970982059606315
  0
LINE
  5
103F
330
1020
100
AcDbEntity
  8
0
100
AcDbLine
 10
-7.486019961995737
 20
40.68244488196909
 30
0.0
 11
-10.31058969251061
 21
40.52773457477194
 31
0.0
  0
ELLIPSE
  5
1040
330
1020
100
AcDbEntity
  8
0
100
AcDbEllipse
 10
-10.15864335226731
 20
39.13940504815329
 30
0.0
 11
1.889830122818812
 21
3.273281790396314
 31
0.0
210
0.0
220
0.0
230
1.0
 40
0.5773502691896259
 41
5.497787143782143
 42
7.309382811238543
  0
ELLIPSE
  5
1041
330
1020
100
AcDbEntity
  8
0
100
AcDbEllipse
 10
-10.15864335226731
 20
39.13940504815329
 30
0.0
 11
-1.889830122818812
 21
-3.273281790396314
 31
0.0
210
0.0
220
0.0
230
1.0
 40
0.5773502691896257
 41
5.25698780312063
 42
5.497787143782142
  0
ELLIPSE
  5
1042
330
1020
100
AcDbEntity
  8
0
100
AcDbEllipse
 10
-7.741023202768446
 20
42.23432259914435
 30
0.0
 11
-2.699999999999999
 21
0.0000000000001613
 31
0.0
210
0.0
220
0.0
230
1.0
 40
0.5773502691896258
 41
1.665382947010304
 42
2.356194490192585
  0
ELLIPSE
  5
1043
330
1020
100
AcDbEntity
  8
0
100
AcDbEllipse
 10
-9.720922190090796
 20
38.88668661734069
 30
0.0
 11
2.750000000000285
 21
4.763139720814249
 31
0.0
210
0.0
220
0.0
230
1.0
 40
0.5773502691896255
 41
5.497787143782376
 42
8.639379797372171
  0
LINE
  5
1044
330
1020
100
AcDbEntity
  8
0
100
AcDbLine
 10
-7.48601996199576
 20
-13.01390696794115
 30
0.0
 11
-7.486019961995737
 21
40.68244488196909
 31
0.0
  0
ELLIPSE
  5
1045
330
1020
100
AcDbEntity
  8
0
100
AcDbEllipse
 10
-7.741023202768464
 20
-12.47094832301323
 30
0.0
 11
-2.699999999999999
 21
0.00000000000016
 31
0.0
210
0.0
220
0.0
230
1.0
 40
0.5773502691896257
 41
2.011509759288831
 42
2.356194490192585
  0
LINE
  5
1046
330
1020
100
AcDbEntity
  8
0
100
AcDbLine
 10
-5.831834893564762
 20
41.13205221489192
 30
0.0
 11
-5.83183489356478
 21
-13.57321870726568
 31
0.0
  0
ELLIPSE
  5
1047
330
1020
100
AcDbEntity
  8
0
100
AcDbEllipse
 10
-3.003407768818595
 20
-20.6767389613369
 30
0.0
 11
-1.34999999999986
 21
-2.338268590218064
 31
0.0
210
0.0
220
0.0
230
0.9999999999999998
 40
0.5773502691896258
 41
3.926990816987
 42
4.271675547890755
  0
ELLIPSE
  5
1048
330
1020
100
AcDbEntity
  8
0
100
AcDbEllipse
 10
-3.003407768818604
 20
-15.20621186912113
 30
0.0
 11
2.000000000000206
 21
-3.464101615137636
 31
0.0
210
0.0
220
0.0
230
1.0
 40
0.5773502691896258
 41
3.926990816987
 42
4.378440676779396
  0
ELLIPSE
  5
1049
330
1020
100
AcDbEntity
  8
0
100
AcDbEllipse
 10
-3.003407768818604
 20
-15.20621186912113
 30
0.0
 11
2.0
 21
-3.464101615137755
 31
0.0
210
0.0
220
0.0
230
1.0
 40
0.5773502691896258
 41
5.046337283989842
 42
5.497787143782138
  0
LINE
  5
104A
330
1020
100
AcDbEntity
  8
0
100
AcDbLine
 10
40.66223202067493
 20
-45.59265546872953
 30
0.0
 11
38.69774622207778
 21
-44.45845906409026
 31
0.0
  0
LINE
  5
104B
330
1020
100
AcDbEntity
  8
0
100
AcDbLine
 10
3.535533905932748
 20
-24.15754631806116
 30
0.0
 11
-3.346122128144206
 21
-20.18442035431641
 31
0.0
  0
LINE
  5
104C
330
1020
100
AcDbEntity
  8
0
100
AcDbLine
 10
-3.003407768818591
 20
-18.47219819283203
 30
0.0
 11
3.535533905932748
 21
-22.24745792896499
 31
0.0
  0
LINE
  5
104D
330
1020
100
AcDbEntity
  8
0
100
AcDbLine
 10
40.35193129050875
 20
-43.50341486954217
 30
0.0
 11
40.66223202067493
 21
-43.68256707963335
 31
0.0
  0
ELLIPSE
  5
104E
330
1020
100
AcDbEntity
  8
0
100
AcDbEllipse
 10
50.02960082017247
 20
-50.31556484901337
 30
0.0
 11
2.5
 21
-0.0000000000000036
 31
0.0
210
0.0
220
0.0
230
1.0
 40
0.5773502691896271
 41
4.806975600599995
 42
6.188598686964285
  0
ELLIPSE
  5
104F
330
1020
100
AcDbEntity
  8
0
100
AcDbEllipse
 10
45.14554864884092
 20
-46.1951527469821
 30
0.0
 11
5.213411479589002
 21
-9.029893563410988
 31
0.0
210
0.0
220
0.0
230
1.0
 40
0.5773502691896258
 41
0.6243452194738675
 42
0.7853981633974483
  0
ELLIPSE
  5
1050
330
1020
100
AcDbEntity
  8
0
100
AcDbEllipse
 10
55.47432303530889
 20
-48.96834549048261
 30
0.0
 11
-2.699999999999999
 21
-0.0000000000000015
 31
0.0
210
0.0
220
0.0
230
1.0
 40
0.5773502691896257
 41
5.497787143782139
 42
6.188598686964287
  0
ELLIPSE
  5
1051
330
1020
100
AcDbEntity
  8
0
100
AcDbEllipse
 10
46.69181657035837
 20
-45.30241454625471
 30
0.0
 11
4.309515602043897
 21
-7.464299978750809
 31
0.0
210
0.0
220
0.0
230
1.0
 40
0.5773502691896258
 41
0.6243452194738719
 42
0.7853981633974465
  0
ELLIPSE
  5
1052
330
1020
100
AcDbEntity
  8
0
100
AcDbEllipse
 10
47.90828047661281
 20
-44.60008878251927
 30
0.0
 11
3.999999999999999
 21
-6.928203230275511
 31
0.0
210
0.0
220
0.0
230
1.0
 40
0.5773502691896259
 41
0.1724084739586278
 42
0.7853981633974457
  0
LINE
  5
1053
330
1020
100
AcDbEntity
  8
0
100
AcDbLine
 10
52.51842586950728
 20
-50.4518853950359
 30
0.0
 11
52.78639198202731
 21
-48.82111930077826
 31
0.0
  0
ELLIPSE
  5
1054
330
1020
100
AcDbEntity
  8
0
100
AcDbEllipse
 10
50.02960082017247
 20
4.389706073144274
 30
0.0
 11
2.5
 21
0.0000000000000001
 31
0.0
210
0.0
220
0.0
230
1.0
 40
0.5773502691896259
 41
4.806975600599995
 42
6.188598686964286
  0
LINE
  5
1055
330
1020
100
AcDbEntity
  8
0
100
AcDbLine
 10
52.51842586950727
 20
4.253385527121729
 30
0.0
 11
52.51842586950728
 21
-50.4518853950359
 31
0.0
  0
ELLIPSE
  5
1056
330
1020
100
AcDbEntity
  8
0
100
AcDbEllipse
 10
55.47432303530889
 20
5.736925431675024
 30
0.0
 11
-2.699999999999999
 21
-0.0000000000000003
 31
0.0
210
0.0
220
0.0
230
1.0
 40
0.5773502691896257
 41
5.497787143782137
 42
6.188598686964284
  0
LINE
  5
1057
330
1020
100
AcDbEntity
  8
0
100
AcDbLine
 10
52.78639198202731
 20
5.884151621379372
 30
0.0
 11
52.78639198202731
 21
-48.82111930077826
 31
0.0
  0
LINE
  5
1058
330
1020
100
AcDbEntity
  8
0
100
AcDbLine
 10
53.5651347261052
 20
6.839195815927459
 30
0.0
 11
53.56513472610521
 21
-47.86607510623017
 31
0.0
  0
LINE
  5
1059
330
1020
100
AcDbEntity
  8
0
100
AcDbLine
 10
52.51842586950727
 20
4.253385527121729
 30
0.0
 11
52.78639198202731
 21
5.884151621379372
 31
0.0
  0
ELLIPSE
  5
105A
330
1020
100
AcDbEntity
  8
0
100
AcDbEllipse
 10
51.39207040075316
 20
3.603083894033352
 30
0.0
 11
0.7964535899826668
 21
1.379498083720418
 31
0.0
210
0.0
220
0.0
230
1.0
 40
0.5773502691896257
 41
5.497787143782377
 42
8.639379797372177
  0
ELLIPSE
  5
105B
330
1020
100
AcDbEntity
  8
0
100
AcDbEllipse
 10
50.11376859175573
 20
4.341111787563596
 30
0.0
 11
1.889830122819002
 21
3.273281790396192
 31
0.0
210
0.0
220
0.0
230
1.0
 40
0.5773502691896257
 41
5.497787143782375
 42
8.639379797372175
  0
ELLIPSE
  5
105C
330
1020
100
AcDbEntity
  8
0
100
AcDbEllipse
 10
49.67604742957918
 20
4.593830218376213
 30
0.0
 11
2.750000000000283
 21
4.763139720814249
 31
0.0
210
0.0
220
0.0
230
1.0
 40
0.577350269189626
 41
5.497787143782377
 42
8.639379797372171
  0
LINE
  5
105D
330
1020
100
AcDbEntity
  8
0
100
AcDbLine
 10
43.52619174026233
 20
-56.36769320109807
 30
0.0
 11
44.07513470392693
 21
-56.58164789711232
 31
0.0
  0
SPLINE
  5
105E
330
1020
100
AcDbEntity
  8
0
100
AcDbSpline
210
0.0
220
0.0
230
1.0
 70
     8
 71
     3
 72
    16
 73
    12
 74
     0
 42
0.000000001
 43
0.0000000001
 40
3.3823919942513
 40
3.3823919942513
 40
3.3823919942513
 40
3.3823919942513
 40
3.600231523345676
 40
3.600231523345676
 40
3.818071052440052
 40
3.818071052440052
 40
4.035910581534428
 40
4.035910581534428
 40
4.253750110628804
 40
4.253750110628804
 40
4.47158963972318
 40
4.47158963972318
 40
4.47158963972318
 40
4.47158963972318
 10
-12.75415530160359
 20
38.37685065791719
 30
0.0
 10
-12.71246496214699
 20
38.59695845031914
 30
0.0
 10
-12.6488934413377
 20
38.83834124775621
 30
0.0
 10
-12.47769571013449
 20
39.33754735701125
 30
0.0
 10
-12.3701563293536
 20
39.59535655079371
 30
0.0
 10
-12.11797750953475
 20
40.1036471921731
 30
0.0
 10
-11.97336862302175
 20
40.35411713083956
 30
0.0
 10
-11.65926542499075
 20
40.82665571578875
 30
0.0
 10
-11.4897658042364
 20
41.04869214834348
 30
0.0
 10
-11.14303949749873
 20
41.44655678726325
 30
0.0
 10
-10.96578162328633
 20
41.62230273795984
 30
0.0
 10
-10.79600785322363
 20
41.76846152722262
 30
0.0
  0
SPLINE
  5
105F
330
1020
100
AcDbEntity
  8
0
100
AcDbSpline
210
0.0
220
0.0
230
1.0
 70
     8
 71
     3
 72
    18
 73
    14
 74
     0
 42
0.000000001
 43
0.0000000001
 40
4.873441924308272
 40
4.873441924308272
 40
4.873441924308272
 40
4.873441924308272
 40
5.123180012097819
 40
5.123180012097819
 40
5.372918099887366
 40
5.372918099887366
 40
5.61099067896355
 40
5.61099067896355
 40
5.847831821097975
 40
5.847831821097975
 40
6.097569908887522
 40
6.097569908887522
 40
6.122132363256005
 40
6.122132363256005
 40
6.122132363256005
 40
6.122132363256005
 10
44.07513470392699
 20
-56.58164789711233
 30
0.0
 10
44.76850941134841
 20
-56.85189596397882
 30
0.0
 10
45.49161980242353
 20
-57.03191026726386
 30
0.0
 10
46.97614474411232
 20
-57.1423515874642
 30
0.0
 10
47.7401798131135
 20
-57.06900427708696
 30
0.0
 10
49.16238936469226
 20
-56.6141846746201
 30
0.0
 10
49.81746913593561
 20
-56.24504912557722
 30
0.0
 10
50.9133477618709
 20
-55.28770729200338
 30
0.0
 10
51.35384301973639
 20
-54.7069488291993
 30
0.0
 10
52.02920683435188
 20
-53.42020886949537
 30
0.0
 10
52.25581387958687
 20
-52.70961890919846
 30
0.0
 10
52.39995167526273
 20
-51.90648708395492
 30
0.0
 10
52.41193431738304
 20
-51.83434668838803
 30
0.0
 10
52.4230133400863
 20
-51.76199791936341
 30
0.0
  0
LINE
  5
1060
330
1020
100
AcDbEntity
  8
0
100
AcDbLine
 10
52.70752197804242
 20
-49.90408587384213
 30
0.0
 11
52.42301334008631
 21
-51.76199791936337
 31
0.0
  0
ELLIPSE
  5
1061
330
1020
100
AcDbEntity
  8
0
100
AcDbEllipse
 10
-15.20279579551076
 20
63.48260916713066
 30
0.0
 11
2.249999999999767
 21
3.897114317030108
 31
0.0
210
0.0
220
0.0
230
1.0
 40
0.5773502691896257
 41
3.821266472497738
 42
5.603511488271043
  0
ELLIPSE
  5
1062
330
1020
100
AcDbEntity
  8
0
100
AcDbEllipse
 10
-43.48706704297265
 20
36.5382219965157
 30
0.0
 11
2.249999999999767
 21
3.897114317030108
 31
0.0
210
0.0
220
0.0
230
0.9999999999999998
 40
0.5773502691896257
 41
3.82126647249774
 42
5.603511488271041
  0
ELLIPSE
  5
1063
330
1020
100
AcDbEntity
  8
0
100
AcDbEllipse
 10
-12.37436867076456
 20
61.84961600527521
 30
0.0
 11
2.250000000000003
 21
3.897114317029978
 31
0.0
210
0.0
220
0.0
230
1.0
 40
0.5773502691896257
 41
0.0
 42
6.283185307179586
  0
ELLIPSE
  5
1064
330
1020
100
AcDbEntity
  8
0
100
AcDbEllipse
 10
-40.65863991822646
 20
34.90522883466024
 30
0.0
 11
2.249999999999996
 21
3.897114317029969
 31
0.0
210
0.0
220
0.0
230
1.0
 40
0.5773502691896257
 41
0.0
 42
6.283185307179586
  0
ELLIPSE
  5
1065
330
1020
100
AcDbEntity
  8
0
100
AcDbEllipse
 10
-22.27386360737622
 20
65.11560232898609
 30
0.0
 11
1.5
 21
2.598076211353316
 31
0.0
210
0.0
220
0.0
230
0.9999999999999998
 40
0.5773502691896259
 41
4.372552070930572
 42
5.052225889838812
  0
ELLIPSE
  5
1066
330
1020
100
AcDbEntity
  8
0
100
AcDbEllipse
 10
-36.41599923110717
 20
56.95063651970885
 30
0.0
 11
1.5
 21
2.598076211353316
 31
0.0
210
0.0
220
0.0
230
0.9999999999999998
 40
0.5773502691896259
 41
4.372552070930572
 42
5.052225889838812
  0
ELLIPSE
  5
1067
330
1020
100
AcDbEntity
  8
0
100
AcDbEllipse
 10
-50.55813485483811
 20
48.78567071043157
 30
0.0
 11
1.5
 21
2.598076211353316
 31
0.0
210
0.0
220
0.0
230
0.9999999999999998
 40
0.5773502691896259
 41
4.372552070930572
 42
5.052225889838815
  0
ELLIPSE
  5
1068
330
1020
100
AcDbEntity
  8
0
100
AcDbEllipse
 10
-29.34493141924169
 20
44.70318780579296
 30
0.0
 11
1.5
 21
2.598076211353316
 31
0.0
210
0.0
220
0.0
230
0.9999999999999998
 40
0.5773502691896259
 41
4.372552070930569
 42
5.052225889838806
  0
ELLIPSE
  5
1069
330
1020
100
AcDbEntity
  8
0
100
AcDbEllipse
 10
-11.66726188957801
 20
54.90939506738955
 30
0.0
 11
1.5
 21
2.598076211353316
 31
0.0
210
0.0
220
0.0
230
0.9999999999999998
 40
0.5773502691896259
 41
4.372552070930572
 42
5.052225889838812
  0
ELLIPSE
  5
106A
330
1020
100
AcDbEntity
  8
0
100
AcDbEllipse
 10
-19.44543648263003
 20
63.48260916713066
 30
0.0
 11
1.500000000000004
 21
2.598076211353324
 31
0.0
210
0.0
220
0.0
230
1.0
 40
0.5773502691896257
 41
0.0
 42
6.283185307179586
  0
ELLIPSE
  5
106B
330
1020
100
AcDbEntity
  8
0
100
AcDbEllipse
 10
-33.58757210636097
 20
55.31764335785339
 30
0.0
 11
1.500000000000004
 21
2.598076211353324
 31
0.0
210
0.0
220
0.0
230
1.0
 40
0.5773502691896257
 41
0.0
 42
6.283185307179586
  0
ELLIPSE
  5
106C
330
1020
100
AcDbEntity
  8
0
100
AcDbEllipse
 10
-47.72970773009191
 20
47.15267754857612
 30
0.0
 11
1.500000000000004
 21
2.598076211353324
 31
0.0
210
0.0
220
0.0
230
1.0
 40
0.5773502691896257
 41
0.0
 42
6.283185307179586
  0
ELLIPSE
  5
106D
330
1020
100
AcDbEntity
  8
0
100
AcDbEllipse
 10
-26.5165042944955
 20
43.0701946439375
 30
0.0
 11
1.5
 21
2.598076211353317
 31
0.0
210
0.0
220
0.0
230
0.9999999999999998
 40
0.5773502691896257
 41
0.0
 42
6.283185307179586
  0
ELLIPSE
  5
106E
330
1020
100
AcDbEntity
  8
0
100
AcDbEllipse
 10
-8.838834764831812
 20
53.2764019055341
 30
0.0
 11
1.5
 21
2.598076211353317
 31
0.0
210
0.0
220
0.0
230
0.9999999999999998
 40
0.5773502691896257
 41
0.0
 42
6.283185307179586
  0
ELLIPSE
  5
106F
330
1020
100
AcDbEntity
  8
0
100
AcDbEllipse
 10
-31.11269837220805
 20
27.3526354610788
 30
0.0
 11
2.749999999999714
 21
4.763139720814578
 31
0.0
210
0.0
220
0.0
230
1.0
 40
0.5773502691896257
 41
3.681736631265625
 42
5.743041329503009
  0
ELLIPSE
  5
1070
330
1020
100
AcDbEntity
  8
0
100
AcDbEllipse
 10
-28.28427124746186
 20
25.71964229922335
 30
0.0
 11
2.750000000000003
 21
4.763139720814415
 31
0.0
210
0.0
220
0.0
230
1.0
 40
0.5773502691896257
 41
0.0
 42
6.283185307179586
  0
LINE
  5
1071
330
1020
100
AcDbEntity
  8
0
100
AcDbLine
 10
-55.86143571373721
 20
49.80629143659124
 30
0.0
 11
-55.86143571373724
 21
-39.19183588453086
 31
0.0
  0
LINE
  5
1072
330
1020
100
AcDbEntity
  8
0
100
AcDbLine
 10
-11.31370849898476
 20
81.24140980230869
 30
0.0
 11
-50.91168824543139
 21
58.37950553633238
 31
0.0
  0
LINE
  5
1073
330
1020
100
AcDbEntity
  8
0
100
AcDbLine
 10
3.535533905932739
 20
15.51343503762677
 30
0.0
 11
3.535533905932757
 21
-73.48469228349536
 31
0.0
  0
LINE
  5
1074
330
1020
100
AcDbEntity
  8
0
100
AcDbLine
 10
48.08326112068522
 20
46.94855340334422
 30
0.0
 11
8.485281374238571
 21
24.0866491373679
 31
0.0
  0
LINE
  5
1075
330
1020
100
AcDbEntity
  8
0
100
AcDbLine
 10
-50.20458146424484
 20
-48.98979485566357
 30
0.0
 11
0.7071067811865639
 21
-78.38367176906171
 31
0.0
  0
LINE
  5
1076
330
1020
100
AcDbEntity
  8
0
100
AcDbLine
 10
55.86143571373725
 20
42.45782220824171
 30
0.0
 11
55.86143571373725
 21
-46.54030511288041
 31
0.0
  0
LINE
  5
1077
330
1020
100
AcDbEntity
  8
0
100
AcDbLine
 10
11.31370849898476
 20
22.45365597551245
 30
0.0
 11
50.91168824543142
 21
45.31556024148876
 31
0.0
  0
LINE
  5
1078
330
1020
100
AcDbEntity
  8
0
100
AcDbLine
 10
6.36396103067895
 20
-75.11768544535081
 30
0.0
 11
6.363961030678932
 21
13.88044187577131
 31
0.0
  0
LINE
  5
1079
330
1020
100
AcDbEntity
  8
0
100
AcDbLine
 10
-0.7071067811865462
 20
-17.14642819948227
 30
0.0
 11
3.535533905932748
 21
-19.59591794226545
 31
0.0
  0
LINE
  5
107A
330
1020
100
AcDbEntity
  8
0
100
AcDbLine
 10
0.7071067811865639
 20
-75.1176854453508
 30
0.0
 11
-50.20458146424484
 21
-45.72380853195267
 31
0.0
  0
LINE
  5
107B
330
1020
100
AcDbEntity
  8
0
100
AcDbLine
 10
-3.535533905932735
 20
76.75067860720618
 30
0.0
 11
-3.535533905932739
 21
-12.24744871391591
 31
0.0
  0
LINE
  5
107C
330
1020
100
AcDbEntity
  8
0
100
AcDbLine
 10
-48.08326112068519
 20
56.74651237447692
 30
0.0
 11
-8.485281374238567
 21
79.60841664045322
 31
0.0
  0
LINE
  5
107D
330
1020
100
AcDbEntity
  8
0
100
AcDbLine
 10
-53.03300858899103
 20
-40.82482904638631
 30
0.0
 11
-53.03300858899103
 21
48.17329827473578
 31
0.0
  0
LINE
  5
107E
330
1020
100
AcDbEntity
  8
0
100
AcDbLine
 10
-50.91168824543139
 20
58.37950553633238
 30
0.0
 11
-55.86143571373721
 21
49.80629143659124
 31
0.0
  0
LINE
  5
107F
330
1020
100
AcDbEntity
  8
0
100
AcDbLine
 10
8.485281374238571
 20
24.0866491373679
 30
0.0
 11
3.535533905932739
 21
15.51343503762677
 31
0.0
  0
LINE
  5
1080
330
1020
100
AcDbEntity
  8
0
100
AcDbLine
 10
50.91168824543142
 20
45.31556024148876
 30
0.0
 11
55.86143571373725
 21
42.45782220824171
 31
0.0
  0
LINE
  5
1081
330
1020
100
AcDbEntity
  8
0
100
AcDbLine
 10
6.363961030678932
 20
13.88044187577131
 30
0.0
 11
11.31370849898476
 21
22.45365597551245
 31
0.0
  0
LINE
  5
1082
330
1020
100
AcDbEntity
  8
0
100
AcDbLine
 10
-8.485281374238567
 20
79.60841664045322
 30
0.0
 11
-3.535533905932735
 21
76.75067860720618
 31
0.0
  0
LINE
  5
1083
330
1020
100
AcDbEntity
  8
0
100
AcDbLine
 10
-53.03300858899103
 20
48.17329827473578
 30
0.0
 11
-48.08326112068519
 21
56.74651237447692
 31
0.0
  0
LINE
  5
1084
330
1020
100
AcDbEntity
  8
0
100
AcDbLine
 10
-48.08326112068519
 20
56.74651237447692
 30
0.0
 11
-50.91168824543139
 21
58.37950553633238
 31
0.0
  0
LINE
  5
1085
330
1020
100
AcDbEntity
  8
0
100
AcDbLine
 10
-55.86143571373721
 20
49.80629143659124
 30
0.0
 11
-53.03300858899103
 21
48.17329827473578
 31
0.0
  0
LINE
  5
1086
330
1020
100
AcDbEntity
  8
0
100
AcDbLine
 10
-11.31370849898476
 20
81.24140980230869
 30
0.0
 11
-8.485281374238567
 21
79.60841664045322
 31
0.0
  0
LINE
  5
1087
330
1020
100
AcDbEntity
  8
0
100
AcDbLine
 10
3.535533905932739
 20
15.51343503762677
 30
0.0
 11
6.363961030678932
 21
13.88044187577131
 31
0.0
  0
LINE
  5
1088
330
1020
100
AcDbEntity
  8
0
100
AcDbLine
 10
11.31370849898476
 20
22.45365597551245
 30
0.0
 11
8.485281374238571
 21
24.0866491373679
 31
0.0
  0
LINE
  5
1089
330
1020
100
AcDbEntity
  8
0
100
AcDbLine
 10
48.08326112068522
 20
46.94855340334422
 30
0.0
 11
50.91168824543142
 21
45.31556024148876
 31
0.0
  0
LINE
  5
108A
330
1020
100
AcDbEntity
  8
0
100
AcDbLine
 10
37.83021279348033
 20
-56.94648871707778
 30
0.0
 11
27.44902858507855
 21
-50.95290921984991
 31
0.0
  0
LINE
  5
108B
330
1020
100
AcDbEntity
  8
0
100
AcDbLine
 10
43.4870670429727
 20
-53.68465019599799
 30
0.0
 11
43.49065914542113
 21
-53.68257629468243
 31
0.0
  0
LINE
  5
108C
330
1020
100
AcDbEntity
  8
0
100
AcDbLine
 10
40.66223202067494
 20
-52.04958313282698
 30
0.0
 11
40.66223202067493
 21
-43.32426265945098
 31
0.0
  0
LINE
  5
108D
330
1020
100
AcDbEntity
  8
0
100
AcDbLine
 10
37.83021279348033
 20
-53.68465019599799
 30
0.0
 11
37.83380489592874
 21
-53.68257629468242
 31
0.0
  0
LINE
  5
108E
330
1020
100
AcDbEntity
  8
0
100
AcDbLine
 10
40.66223202067494
 20
-52.04958313282698
 30
0.0
 11
40.65863991822651
 21
-52.05165703414253
 31
0.0
  0
LINE
  5
108F
330
1020
100
AcDbEntity
  8
0
100
AcDbLine
 10
3.535533905932755
 20
-62.46613624360214
 30
0.0
 11
0.3463691856964712
 21
-60.62487113388366
 31
0.0
  0
LINE
  5
1090
330
1020
100
AcDbEntity
  8
0
100
AcDbLine
 10
0.3463691856964712
 20
-60.62487113388366
 30
0.0
 11
0.3499612881448999
 21
-60.62279723256811
 31
0.0
  0
LINE
  5
1091
330
1020
100
AcDbEntity
  8
0
100
AcDbLine
 10
0.3499612881448999
 20
-60.62279723256811
 30
0.0
 11
0.3535533905933263
 21
-60.62487113388366
 31
0.0
  0
LINE
  5
1092
330
1020
100
AcDbEntity
  8
0
100
AcDbLine
 10
0.3535533905933263
 20
-60.62487113388366
 30
0.0
 11
3.181980515339513
 21
-58.9918779720282
 31
0.0
  0
LINE
  5
1093
330
1020
100
AcDbEntity
  8
0
100
AcDbLine
 10
30.27745570982469
 20
-49.31991605799445
 30
0.0
 11
37.83380489592874
 21
-53.68257629468242
 31
0.0
  0
LINE
  5
1094
330
1020
100
AcDbEntity
  8
0
100
AcDbLine
 10
18.73473759899512
 20
-67.97541426354875
 30
0.0
 11
18.73832970144355
 21
-67.9733403622332
 31
0.0
  0
LINE
  5
1095
330
1020
100
AcDbEntity
  8
0
100
AcDbLine
 10
18.73473759899512
 20
-67.97541426354875
 30
0.0
 11
18.73473759899512
 21
-53.27432800421854
 31
0.0
  0
LINE
  5
1096
330
1020
100
AcDbEntity
  8
0
100
AcDbLine
 10
18.73473759899512
 20
-53.27432800421854
 30
0.0
 11
18.73832970144355
 21
-53.27225410290299
 31
0.0
  0
LINE
  5
1097
330
1020
100
AcDbEntity
  8
0
100
AcDbLine
 10
18.73832970144355
 20
-53.27225410290299
 30
0.0
 11
18.73832970144355
 21
-53.2764019055341
 31
0.0
  0
LINE
  5
1098
330
1020
100
AcDbEntity
  8
0
100
AcDbLine
 10
18.73832970144355
 20
-53.2764019055341
 30
0.0
 11
43.4870670429727
 21
-38.98771173929889
 31
0.0
  0
LINE
  5
1099
330
1020
100
AcDbEntity
  8
0
100
AcDbLine
 10
43.4870670429727
 20
-38.98771173929889
 30
0.0
 11
43.4870670429727
 21
-38.98356393666778
 31
0.0
  0
LINE
  5
109A
330
1020
100
AcDbEntity
  8
0
100
AcDbLine
 10
43.4870670429727
 20
-38.98356393666778
 30
0.0
 11
43.49065914542112
 21
-38.98149003535222
 31
0.0
  0
LINE
  5
109B
330
1020
100
AcDbEntity
  8
0
100
AcDbLine
 10
43.49065914542112
 20
-38.98149003535222
 30
0.0
 11
43.49065914542113
 21
-53.68257629468243
 31
0.0
  0
LINE
  5
109C
330
1020
100
AcDbEntity
  8
0
100
AcDbLine
 10
3.181980515339513
 20
-54.09289848646183
 30
0.0
 11
3.535533905932752
 21
-54.29702263169374
 31
0.0
  0
ELLIPSE
  5
109D
330
1020
100
AcDbEntity
  8
0
100
AcDbEllipse
 10
8.838834764831871
 20
-57.35888481017273
 30
0.0
 11
4.000000000000413
 21
-6.928203230275281
 31
0.0
210
0.0
220
0.0
230
1.0
 40
0.577350269189625
 41
3.571569615296601
 42
3.926990816986905
  0
ELLIPSE
  5
109E
330
1020
100
AcDbEntity
  8
0
100
AcDbEllipse
 10
0.353553390593333
 20
-57.35888481017276
 30
0.0
 11
1.999999999999997
 21
-3.464101615137754
 31
0.0
210
0.0
220
0.0
230
1.0
 40
0.5773502691896255
 41
5.497787143782136
 42
7.06858347057703
  0
LINE
  5
109F
330
1020
100
AcDbEntity
  8
0
100
AcDbLine
 10
3.535533905932757
 20
-59.19600211726013
 30
0.0
 11
3.181980515339517
 21
-58.99187797202821
 31
0.0
  0
LINE
  5
10A0
330
1020
100
AcDbEntity
  8
0
100
AcDbLine
 10
0.3535533905933263
 20
-60.62487113388366
 30
0.0
 11
0.3535533905933263
 21
-60.62901893651477
 31
0.0
  0
LINE
  5
10A1
330
1020
100
AcDbEntity
  8
0
100
AcDbLine
 10
0.3499612881448999
 20
-60.62694503519921
 30
0.0
 11
0.3499612881448999
 21
-60.62279723256811
 31
0.0
  0
ELLIPSE
  5
10A2
330
1020
100
AcDbEntity
  8
0
100
AcDbEllipse
 10
37.83021279348032
 20
-35.72172541558798
 30
0.0
 11
4.000000000000003
 21
-6.928203230275511
 31
0.0
210
0.0
220
0.0
230
1.0
 40
0.5773502691896255
 41
0.0
 42
0.7853981633974483
  0
ELLIPSE
  5
10A3
330
1020
100
AcDbEntity
  8
0
100
AcDbEllipse
 10
13.08147545195116
 20
-50.01041558182319
 30
0.0
 11
4.000000000000003
 21
-6.928203230275511
 31
0.0
210
0.0
220
0.0
230
1.0
 40
0.5773502691896255
 41
0.7497592179711284
 42
0.7853981633974483
  0
LINE
  5
10A4
330
1020
100
AcDbEntity
  8
0
100
AcDbLine
 10
18.73832970144355
 20
-53.2764019055341
 30
0.0
 11
18.73473759899512
 21
-53.27432800421854
 31
0.0
  0
LINE
  5
10A5
330
1020
100
AcDbEntity
  8
0
100
AcDbLine
 10
40.66223202067494
 20
-52.04958313282698
 30
0.0
 11
43.49065914542113
 21
-53.68257629468243
 31
0.0
  0
LINE
  5
10A6
330
1020
100
AcDbEntity
  8
0
100
AcDbLine
 10
3.181980515339517
 20
-58.99187797202821
 30
0.0
 11
3.181980515339513
 21
-54.09289848646183
 31
0.0
  0
LINE
  5
10A7
330
1020
100
AcDbEntity
  8
0
100
AcDbLine
 10
18.73473759899511
 20
-55.98410746646186
 30
0.0
 11
41.83021279348031
 21
-42.64992864586349
 31
0.0
  0
ELLIPSE
  5
10A8
330
1020
100
AcDbEntity
  8
0
100
AcDbEllipse
 10
-1.060660171779804
 20
-48.78567071043164
 30
0.0
 11
-8.5
 21
-0.0000000000005074
 31
0.0
210
0.0
220
0.0
230
1.0
 40
0.5773502691896259
 41
4.141085828545202
 42
5.943960545643432
  0
ELLIPSE
  5
10A9
330
1020
100
AcDbEntity
  8
0
100
AcDbEllipse
 10
1.060660171779839
 20
-46.74442925811233
 30
0.0
 11
-8.500000000000001
 21
-0.0000000000000006
 31
0.0
210
0.0
220
0.0
230
1.0
 40
0.5773502691896258
 41
0.7853981633974474
 42
1.866237163938615
  0
LINE
  5
10AA
330
1020
100
AcDbEntity
  8
0
100
AcDbLine
 10
-4.949747468305814
 20
-50.21453972705516
 30
0.0
 11
-7.071067811865455
 21
-48.98979485566357
 31
0.0
  0
ELLIPSE
  5
10AB
330
1020
100
AcDbEntity
  8
0
100
AcDbEllipse
 10
-1.060660171779804
 20
-45.51968438672073
 30
0.0
 11
-8.5
 21
0.0
 31
0.0
210
0.0
220
0.0
230
1.0
 40
0.5773502691896259
 41
4.141085828545328
 42
7.068583470577033
  0
LINE
  5
10AC
330
1020
100
AcDbEntity
  8
0
100
AcDbLine
 10
43.49065914542113
 20
-53.68257629468243
 30
0.0
 11
45.78696013305318
 21
-52.35680630133266
 31
0.0
  0
LINE
  5
10AD
330
1020
100
AcDbEntity
  8
0
100
AcDbLine
 10
37.83380489592874
 20
-53.68257629468242
 30
0.0
 11
40.1301058835608
 21
-52.35680630133266
 31
0.0
  0
LINE
  5
10AE
330
1020
100
AcDbEntity
  8
0
100
AcDbLine
 10
16.43843661136303
 20
-69.30118425689854
 30
0.0
 11
18.73473759899512
 21
-67.97541426354875
 31
0.0
  0
LINE
  5
10AF
330
1020
100
AcDbEntity
  8
0
100
AcDbLine
 10
6.36396103067895
 20
-75.11768544535081
 30
0.0
 11
8.660262018311009
 21
-73.79191545200104
 31
0.0
  0
ELLIPSE
  5
10B0
330
1020
100
AcDbEntity
  8
0
100
AcDbEllipse
 10
0.7071067811865551
 20
-71.85169912163991
 30
0.0
 11
4.000000000000066
 21
-6.928203230275472
 31
0.0
210
0.0
220
0.0
230
1.0
 40
0.5773502691896188
 41
5.497787143782129
 42
7.068583470577028
  0
LINE
  5
10B1
330
1020
100
AcDbEntity
  8
0
100
AcDbLine
 10
53.56513472610521
 20
-47.86607510623017
 30
0.0
 11
55.86143571373725
 21
-46.5403051128804
 31
0.0
  0
LINE
  5
10B2
330
1020
100
AcDbEntity
  8
0
100
AcDbLine
 10
0.7071067811865639
 20
-75.1176854453508
 30
0.0
 11
3.003407768818626
 21
-73.79191545200102
 31
0.0
  0
ELLIPSE
  5
10B3
330
1020
100
AcDbEntity
  8
0
100
AcDbEllipse
 10
0.7071067811865551
 20
-71.85169912163991
 30
0.0
 11
1.999999999999998
 21
-3.464101615137755
 31
0.0
210
0.0
220
0.0
230
1.0
 40
0.5773502691896258
 41
5.497787143782131
 42
7.068583470577037
  0
ELLIPSE
  5
10B4
330
1020
100
AcDbEntity
  8
0
100
AcDbEllipse
 10
50.20458146424488
 20
-43.27431878916949
 30
0.0
 11
4.00000000000001
 21
-6.928203230275503
 31
0.0
210
0.0
220
0.0
230
1.0
 40
0.5773502691896271
 41
0.0000000000000032
 42
0.785398163397452
  0
LINE
  5
10B5
330
1020
100
AcDbEntity
  8
0
100
AcDbLine
 10
3.535533905932757
 20
-73.48469228349536
 30
0.0
 11
6.36396103067895
 21
-75.11768544535081
 31
0.0
  0
LINE
  5
10B6
330
1020
100
AcDbEntity
  8
0
100
AcDbLine
 10
0.7071067811865639
 20
-78.38367176906171
 30
0.0
 11
0.7071067811865639
 21
-75.1176854453508
 31
0.0
  0
LINE
  5
10B7
330
1020
100
AcDbEntity
  8
0
100
AcDbLine
 10
44.13010588356081
 20
-56.01902320789726
 30
0.0
 11
41.83021279348031
 21
-57.34686710256259
 31
0.0
  0
LINE
  5
10B8
330
1020
100
AcDbEntity
  8
0
100
AcDbLine
 10
17.08147545195118
 20
-71.63555726879778
 30
0.0
 11
15.38549650516913
 21
-72.61473117026234
 31
0.0
  0
LINE
  5
10B9
330
1020
100
AcDbEntity
  8
0
100
AcDbLine
 10
7.003407768818639
 20
-77.45413235856563
 30
0.0
 11
4.707106781186598
 21
-78.77990235191539
 31
0.0
  0
LINE
  5
10BA
330
1020
100
AcDbEntity
  8
0
100
AcDbLine
 10
54.20458146424488
 20
-50.20252201944501
 30
0.0
 11
52.5121946199113
 21
-51.17962201959397
 31
0.0
  0
ELLIPSE
  5
10BB
330
1020
100
AcDbEntity
  8
0
100
AcDbEllipse
 10
37.83021279348034
 20
-50.41866387228708
 30
0.0
 11
3.999999999999984
 21
-6.92820323027552
 31
0.0
210
0.0
220
0.0
230
1.0
 40
0.5773502691896245
 41
5.497787143782137
 42
7.068583470577033
  0
ELLIPSE
  5
10BC
330
1020
100
AcDbEntity
  8
0
100
AcDbEllipse
 10
37.83021279348034
 20
-50.41866387228708
 30
0.0
 11
1.999999999999992
 21
-3.46410161513776
 31
0.0
210
0.0
220
0.0
230
1.0
 40
0.5773502691896243
 41
5.497787143782137
 42
7.068583470577033
  0
ELLIPSE
  5
10BD
330
1020
100
AcDbEntity
  8
0
100
AcDbEllipse
 10
13.08147545195116
 20
-64.70735403852228
 30
0.0
 11
4.00000000000001
 21
-6.928203230275503
 31
0.0
210
0.0
220
0.0
230
1.0
 40
0.5773502691896249
 41
0.0000000000000019
 42
0.7853981633974485
  0
ELLIPSE
  5
10BE
330
1020
100
AcDbEntity
  8
0
100
AcDbEllipse
 10
-37.83021279348026
 20
-35.31347712512415
 30
0.0
 11
-1.999999999999786
 21
3.464101615137877
 31
0.0
210
0.0
220
0.0
230
1.0
 40
0.5773502691896246
 41
0.7853981633976943
 42
2.356194490192587
  0
LINE
  5
10BF
330
1020
100
AcDbEntity
  8
0
100
AcDbLine
 10
37.83021279348033
 20
-53.68465019599799
 30
0.0
 11
37.83021279348033
 21
-56.95063651970889
 31
0.0
  0
LINE
  5
10C0
330
1020
100
AcDbEntity
  8
0
100
AcDbLine
 10
18.73832970144355
 20
-67.9733403622332
 30
0.0
 11
18.73473759899512
 21
-67.97126646091763
 31
0.0
  0
LINE
  5
10C1
330
1020
100
AcDbEntity
  8
0
100
AcDbLine
 10
43.4870670429727
 20
-53.68465019599799
 30
0.0
 11
40.65863991822651
 21
-52.05165703414253
 31
0.0
  0
LINE
  5
10C2
330
1020
100
AcDbEntity
  8
0
100
AcDbLine
 10
-37.83021279348026
 20
-38.58361125146617
 30
0.0
 11
-37.83021279348024
 21
-38.57946344883506
 31
0.0
  0
LINE
  5
10C3
330
1020
100
AcDbEntity
  8
0
100
AcDbLine
 10
-40.66223202067487
 20
-33.67841006195315
 30
0.0
 11
-40.65863991822644
 21
-33.68048396326871
 31
0.0
  0
ELLIPSE
  5
10C4
330
1020
100
AcDbEntity
  8
0
100
AcDbEllipse
 10
12.37436867076458
 20
10.81857969729234
 30
0.0
 11
2.24999999999977
 21
3.897114317030111
 31
0.0
210
0.0
220
0.0
230
1.0
 40
0.5773502691896259
 41
3.82126647249774
 42
5.60351148827104
  0
ELLIPSE
  5
10C5
330
1020
100
AcDbEntity
  8
0
100
AcDbEllipse
 10
40.65863991822648
 20
16.53405576378643
 30
0.0
 11
2.249999999999765
 21
3.897114317030104
 31
0.0
210
0.0
220
0.0
230
1.0
 40
0.5773502691896257
 41
3.821266472497736
 42
5.603511488271045
  0
ELLIPSE
  5
10C6
330
1020
100
AcDbEntity
  8
0
100
AcDbEllipse
 10
15.20279579551077
 20
9.185586535436884
 30
0.0
 11
-2.249999999999999
 21
-3.897114317029975
 31
0.0
210
0.0
220
0.0
230
1.0
 40
0.577350269189626
 41
0.0
 42
6.283185307179586
  0
ELLIPSE
  5
10C7
330
1020
100
AcDbEntity
  8
0
100
AcDbEllipse
 10
43.48706704297267
 20
14.90106260193097
 30
0.0
 11
-2.249999999999999
 21
-3.897114317029975
 31
0.0
210
0.0
220
0.0
230
1.0
 40
0.577350269189626
 41
0.0
 42
6.283185307179586
  0
ELLIPSE
  5
10C8
330
1020
100
AcDbEntity
  8
0
100
AcDbEllipse
 10
19.44543648263005
 20
20.61653866842503
 30
0.0
 11
1.500000000000003
 21
2.598076211353324
 31
0.0
210
0.0
220
0.0
230
1.0
 40
0.5773502691896255
 41
4.372552070930567
 42
5.052225889838808
  0
ELLIPSE
  5
10C9
330
1020
100
AcDbEntity
  8
0
100
AcDbEllipse
 10
33.587572106361
 20
28.78150447770229
 30
0.0
 11
1.500000000000004
 21
2.598076211353324
 31
0.0
210
0.0
220
0.0
230
1.0
 40
0.5773502691896257
 41
4.372552070930567
 42
5.052225889838808
  0
ELLIPSE
  5
10CA
330
1020
100
AcDbEntity
  8
0
100
AcDbEllipse
 10
47.72970773009195
 20
36.94647028697956
 30
0.0
 11
1.500000000000003
 21
2.598076211353324
 31
0.0
210
0.0
220
0.0
230
0.9999999999999998
 40
0.5773502691896258
 41
4.372552070930569
 42
5.052225889838808
  0
ELLIPSE
  5
10CB
330
1020
100
AcDbEntity
  8
0
100
AcDbEllipse
 10
8.838834764831844
 20
-1.837117307087421
 30
0.0
 11
1.5
 21
2.598076211353317
 31
0.0
210
0.0
220
0.0
230
1.0
 40
0.5773502691896257
 41
4.372552070930571
 42
5.052225889838814
  0
ELLIPSE
  5
10CC
330
1020
100
AcDbEntity
  8
0
100
AcDbEllipse
 10
26.51650429449553
 20
8.369089954509147
 30
0.0
 11
1.5
 21
2.598076211353317
 31
0.0
210
0.0
220
0.0
230
1.0
 40
0.5773502691896257
 41
4.37255207093057
 42
5.052225889838814
  0
ELLIPSE
  5
10CD
330
1020
100
AcDbEntity
  8
0
100
AcDbEllipse
 10
22.27386360737625
 20
18.98354550656957
 30
0.0
 11
-1.499999999999999
 21
-2.598076211353316
 31
0.0
210
0.0
220
0.0
230
1.0
 40
0.5773502691896259
 41
0.0
 42
6.283185307179586
  0
ELLIPSE
  5
10CE
330
1020
100
AcDbEntity
  8
0
100
AcDbEllipse
 10
36.4159992311072
 20
27.14851131584684
 30
0.0
 11
-1.499999999999999
 21
-2.598076211353316
 31
0.0
210
0.0
220
0.0
230
1.0
 40
0.5773502691896259
 41
0.0
 42
6.283185307179586
  0
ELLIPSE
  5
10CF
330
1020
100
AcDbEntity
  8
0
100
AcDbEllipse
 10
50.55813485483816
 20
35.3134771251241
 30
0.0
 11
-1.499999999999999
 21
-2.598076211353316
 31
0.0
210
0.0
220
0.0
230
1.0
 40
0.5773502691896259
 41
0.0
 42
6.283185307179586
  0
ELLIPSE
  5
10D0
330
1020
100
AcDbEntity
  8
0
100
AcDbEllipse
 10
11.66726188957804
 20
-3.470110468942877
 30
0.0
 11
-1.499999999999999
 21
-2.598076211353316
 31
0.0
210
0.0
220
0.0
230
1.0
 40
0.5773502691896259
 41
0.0
 42
6.283185307179586
  0
ELLIPSE
  5
10D1
330
1020
100
AcDbEntity
  8
0
100
AcDbEllipse
 10
29.34493141924173
 20
6.736096792653691
 30
0.0
 11
-1.499999999999999
 21
-2.598076211353316
 31
0.0
210
0.0
220
0.0
230
1.0
 40
0.5773502691896259
 41
0.0
 42
6.283185307179586
  0
ELLIPSE
  5
10D2
330
1020
100
AcDbEntity
  8
0
100
AcDbEllipse
 10
28.28427124746191
 20
-6.940220937885701
 30
0.0
 11
2.749999999999716
 21
4.763139720814578
 31
0.0
210
0.0
220
0.0
230
1.0
 40
0.5773502691896258
 41
3.681736631265625
 42
5.743041329503008
  0
ELLIPSE
  5
10D3
330
1020
100
AcDbEntity
  8
0
100
AcDbEllipse
 10
31.1126983722081
 20
-8.573214099741157
 30
0.0
 11
-2.749999999999999
 21
-4.763139720814414
 31
0.0
210
0.0
220
0.0
230
1.0
 40
0.577350269189626
 41
0.0
 42
6.283185307179586
  0
LINE
  5
10D4
330
1020
100
AcDbEntity
  8
0
100
AcDbLine
 10
-0.496056361790338
 20
-31.5528205795373
 30
0.0
 11
-0.3463691856964024
 21
-31.63924251094937
 31
0.0
  0
LINE
  5
10D5
330
1020
100
AcDbEntity
  8
0
100
AcDbLine
 10
-0.3463691856964024
 20
-31.63924251094937
 30
0.0
 11
-0.3499612881448288
 21
-31.64131641226493
 31
0.0
  0
LINE
  5
10D6
330
1020
100
AcDbEntity
  8
0
100
AcDbLine
 10
-0.3499612881448288
 20
-31.64131641226493
 30
0.0
 11
-0.3535533905932553
 21
-31.63924251094937
 31
0.0
  0
LINE
  5
10D7
330
1020
100
AcDbEntity
  8
0
100
AcDbLine
 10
-0.3535533905932553
 20
-31.63924251094937
 30
0.0
 11
-25.1022907321224
 21
-45.92793267718457
 31
0.0
  0
LINE
  5
10D8
330
1020
100
AcDbEntity
  8
0
100
AcDbLine
 10
-25.1022907321224
 20
-45.92793267718457
 30
0.0
 11
-25.09869862967397
 21
-45.93000657850013
 31
0.0
  0
LINE
  5
10D9
330
1020
100
AcDbEntity
  8
0
100
AcDbLine
 10
-25.09869862967397
 20
-45.93000657850013
 30
0.0
 11
-25.1022907321224
 21
-45.93208047981569
 31
0.0
  0
LINE
  5
10DA
330
1020
100
AcDbEntity
  8
0
100
AcDbLine
 10
-25.1022907321224
 20
-45.93208047981569
 30
0.0
 11
-37.83380489592868
 21
-38.58153735015061
 31
0.0
  0
LINE
  5
10DB
330
1020
100
AcDbEntity
  8
0
100
AcDbLine
 10
-37.83021279348024
 20
-38.57946344883506
 30
0.0
 11
-37.83380489592868
 21
-38.58153735015061
 31
0.0
  0
LINE
  5
10DC
330
1020
100
AcDbEntity
  8
0
100
AcDbLine
 10
-27.93071785686859
 20
-41.02895319161823
 30
0.0
 11
-30.75914498161479
 21
-39.39596002976278
 31
0.0
  0
LINE
  5
10DD
330
1020
100
AcDbEntity
  8
0
100
AcDbLine
 10
-30.75914498161476
 20
-34.49698054419639
 30
0.0
 11
-27.93071785686856
 21
-36.12997370605184
 31
0.0
  0
LINE
  5
10DE
330
1020
100
AcDbEntity
  8
0
100
AcDbLine
 10
-3.181980515339453
 20
-26.74026302538301
 30
0.0
 11
-27.93071785686859
 21
-41.02895319161823
 31
0.0
  0
LINE
  5
10DF
330
1020
100
AcDbEntity
  8
0
100
AcDbLine
 10
-27.93071785686856
 20
-36.12997370605184
 30
0.0
 11
-3.181980515339435
 21
-21.84128353981662
 31
0.0
  0
ELLIPSE
  5
10E0
330
1020
100
AcDbEntity
  8
0
100
AcDbEllipse
 10
-33.58757210636096
 20
-32.86398738234096
 30
0.0
 11
3.999999999999595
 21
-6.928203230275754
 31
0.0
210
0.0
220
0.0
230
1.0
 40
0.5773502691896262
 41
0.7853981633976926
 42
2.356194490192589
  0
LINE
  5
10E1
330
1020
100
AcDbEntity
  8
0
100
AcDbLine
 10
-33.58757210636098
 20
-29.59800105863004
 30
0.0
 11
-33.58757210636098
 21
-26.33201473491914
 31
0.0
  0
ELLIPSE
  5
10E2
330
1020
100
AcDbEntity
  8
0
100
AcDbEllipse
 10
-33.58757210636096
 20
-32.86398738234096
 30
0.0
 11
1.999999999999798
 21
-3.464101615137876
 31
0.0
210
0.0
220
0.0
230
0.9999999999999998
 40
0.5773502691896264
 41
0.7853981633976961
 42
2.356194490192592
  0
ELLIPSE
  5
10E3
330
1020
100
AcDbEntity
  8
0
100
AcDbEllipse
 10
-8.838834764831828
 20
-18.57529721610573
 30
0.0
 11
3.999999999999594
 21
-6.92820323027575
 31
0.0
210
0.0
220
0.0
230
1.0
 40
0.5773502691896264
 41
0.7853981633976917
 42
2.35619449019259
  0
LINE
  5
10E4
330
1020
100
AcDbEntity
  8
0
100
AcDbLine
 10
-33.58757210636098
 20
-26.33201473491914
 30
0.0
 11
-8.838834764831844
 21
-12.04332456868391
 31
0.0
  0
ELLIPSE
  5
10E5
330
1020
100
AcDbEntity
  8
0
100
AcDbEllipse
 10
-0.353553390593262
 20
-28.37325618723846
 30
0.0
 11
-1.999999999999793
 21
3.464101615137872
 31
0.0
210
0.0
220
0.0
230
1.0
 40
0.5773502691896261
 41
0.7853981633976926
 42
2.356194490192589
  0
ELLIPSE
  5
10E6
330
1020
100
AcDbEntity
  8
0
100
AcDbEllipse
 10
-25.1022907321224
 20
-42.66194635347367
 30
0.0
 11
-1.999999999999793
 21
3.464101615137872
 31
0.0
210
0.0
220
0.0
230
1.0
 40
0.5773502691896261
 41
0.7853981633976899
 42
2.356194490192585
  0
ELLIPSE
  5
10E7
330
1020
100
AcDbEntity
  8
0
100
AcDbEllipse
 10
-25.1022907321224
 20
-42.66194635347367
 30
0.0
 11
-4.000000000000003
 21
6.928203230275505
 31
0.0
210
0.0
220
0.0
230
1.0
 40
0.5773502691896262
 41
0.7853981633974483
 42
1.309730329170493
  0
LINE
  5
10E8
330
1020
100
AcDbEntity
  8
0
100
AcDbLine
 10
-25.1022907321224
 20
-45.92793267718457
 30
0.0
 11
-25.1022907321224
 21
-45.93208047981569
 31
0.0
  0
LINE
  5
10E9
330
1020
100
AcDbEntity
  8
0
100
AcDbLine
 10
-37.83380489592868
 20
-38.58153735015061
 30
0.0
 11
-40.13010588356076
 21
-39.9073073435004
 31
0.0
  0
ELLIPSE
  5
10EA
330
1020
100
AcDbEntity
  8
0
100
AcDbEllipse
 10
-50.20458146424484
 20
-42.45782220824176
 30
0.0
 11
-3.999999999999623
 21
6.928203230275724
 31
0.0
210
0.0
220
0.0
230
1.0
 40
0.5773502691896297
 41
0.7853981633976855
 42
2.356194490192583
  0
LINE
  5
10EB
330
1020
100
AcDbEntity
  8
0
100
AcDbLine
 10
-0.7071067811865462
 20
-17.14642819948227
 30
0.0
 11
-3.003407768818591
 21
-18.47219819283203
 31
0.0
  0
LINE
  5
10EC
330
1020
100
AcDbEntity
  8
0
100
AcDbLine
 10
-47.90828047661278
 20
-44.39803853860289
 30
0.0
 11
-50.20458146424484
 21
-45.72380853195267
 31
0.0
  0
LINE
  5
10ED
330
1020
100
AcDbEntity
  8
0
100
AcDbLine
 10
-5.83183489356478
 20
-13.57321870726568
 30
0.0
 11
-3.535533905932739
 21
-12.24744871391591
 31
0.0
  0
LINE
  5
10EE
330
1020
100
AcDbEntity
  8
0
100
AcDbLine
 10
-53.03300858899103
 20
-40.82482904638631
 30
0.0
 11
-50.73670760135898
 21
-39.49905905303655
 31
0.0
  0
LINE
  5
10EF
330
1020
100
AcDbEntity
  8
0
100
AcDbLine
 10
-42.95853300830695
 20
-35.00832785793405
 30
0.0
 11
-40.66223202067487
 21
-33.68255786458426
 31
0.0
  0
ELLIPSE
  5
10F0
330
1020
100
AcDbEntity
  8
0
100
AcDbEllipse
 10
-50.20458146424484
 20
-42.45782220824176
 30
0.0
 11
2.000000000000225
 21
-3.464101615137623
 31
0.0
210
0.0
220
0.0
230
1.0
 40
0.5773502691896299
 41
3.926990816986995
 42
5.497787143781893
  0
ELLIPSE
  5
10F1
330
1020
100
AcDbEntity
  8
0
100
AcDbEllipse
 10
-0.7071067811865462
 20
-13.88044187577136
 30
0.0
 11
-1.999999999999794
 21
3.464101615137873
 31
0.0
210
0.0
220
0.0
230
1.0
 40
0.5773502691896259
 41
0.7853981633976881
 42
2.35619449019259
  0
LINE
  5
10F2
330
1020
100
AcDbEntity
  8
0
100
AcDbLine
 10
-50.20458146424484
 20
-45.72380853195267
 30
0.0
 11
-50.20458146424484
 21
-48.98979485566357
 31
0.0
  0
LINE
  5
10F3
330
1020
100
AcDbEntity
  8
0
100
AcDbLine
 10
-55.86143571373724
 20
-39.19183588453086
 30
0.0
 11
-53.03300858899103
 21
-40.82482904638631
 31
0.0
  0
LINE
  5
10F4
330
1020
100
AcDbEntity
  8
0
100
AcDbLine
 10
-40.13010588356076
 20
-39.9073073435004
 30
0.0
 11
3.535533905932757
 21
-65.11767623030173
 31
0.0
  0
ELLIPSE
  5
10F5
330
1020
100
AcDbEntity
  8
0
100
AcDbEllipse
 10
18.34762492056672
 20
-70.40345464115097
 30
0.0
 11
-2.699999999999999
 21
0.0000000000000049
 31
0.0
210
0.0
220
0.0
230
1.0
 40
0.5773502691896269
 41
5.497787143782137
 42
6.188598686964286
  0
LINE
  5
10F6
330
1020
100
AcDbEntity
  8
0
100
AcDbLine
 10
16.43843661136301
 20
-14.59591333474092
 30
0.0
 11
16.43843661136303
 21
-69.30118425689854
 31
0.0
  0
ELLIPSE
  5
10F7
330
1020
100
AcDbEntity
  8
0
100
AcDbEllipse
 10
18.34762492056668
 20
-15.69818371899335
 30
0.0
 11
-2.7
 21
-0.0000000000000001
 31
0.0
210
0.0
220
0.0
230
1.0
 40
0.5773502691896259
 41
5.497787143782137
 42
6.188598686964285
  0
LINE
  5
10F8
330
1020
100
AcDbEntity
  8
0
100
AcDbLine
 10
15.65969386728515
 20
-70.25622845144662
 30
0.0
 11
15.65969386728511
 21
-15.55095752928901
 31
0.0
  0
LINE
  5
10F9
330
1020
100
AcDbEntity
  8
0
100
AcDbLine
 10
15.39172775476512
 20
-71.88699454570427
 30
0.0
 11
15.65969386728515
 21
-70.25622845144662
 31
0.0
  0
LINE
  5
10FA
330
1020
100
AcDbEntity
  8
0
100
AcDbLine
 10
15.65969386728511
 20
-15.55095752928901
 30
0.0
 11
15.39172775476507
 21
-17.18172362354664
 31
0.0
  0
LINE
  5
10FB
330
1020
100
AcDbEntity
  8
0
100
AcDbLine
 10
15.39172775476512
 20
-71.88699454570427
 30
0.0
 11
15.39172775476507
 21
-17.18172362354664
 31
0.0
  0
ELLIPSE
  5
10FC
330
1020
100
AcDbEntity
  8
0
100
AcDbEllipse
 10
10.78158236187064
 20
-66.03519793318764
 30
0.0
 11
4.000000000000001
 21
-6.928203230275508
 31
0.0
210
0.0
220
0.0
230
1.0
 40
0.5773502691896258
 41
0.172408473958626
 42
0.7853981633974474
  0
ELLIPSE
  5
10FD
330
1020
100
AcDbEntity
  8
0
100
AcDbEllipse
 10
9.565118455616199
 20
-66.73752369692306
 30
0.0
 11
-4.309515602044353
 21
7.46429997875057
 31
0.0
210
0.0
220
0.0
230
1.0
 40
0.5773502691896258
 41
3.765937873063332
 42
3.926990816986953
  0
ELLIPSE
  5
10FE
330
1020
100
AcDbEntity
  8
0
100
AcDbEllipse
 10
8.018850534098742
 20
-67.63026189765044
 30
0.0
 11
-5.213411479589558
 21
9.029893563410702
 31
0.0
210
0.0
220
0.0
230
1.0
 40
0.577350269189626
 41
3.765937873063329
 42
3.926990816986952
  0
ELLIPSE
  5
10FF
330
1020
100
AcDbEntity
  8
0
100
AcDbEllipse
 10
-44.01919318008679
 20
-42.56092123151552
 30
0.0
 11
-1.249999999999999
 21
-2.165063509461096
 31
0.0
210
0.0
220
0.0
230
1.0
 40
0.5773502691896261
 41
0.0945866202153048
 42
1.476209706579596
  0
LINE
  5
1100
330
1020
100
AcDbEntity
  8
0
100
AcDbLine
 10
3.535533905932755
 20
-72.89050334026675
 30
0.0
 11
-45.14554864884089
 21
-44.78446722282578
 31
0.0
  0
LINE
  5
1101
330
1020
100
AcDbEntity
  8
0
100
AcDbLine
 10
-42.89283771133264
 20
-43.48386395664898
 30
0.0
 11
3.535533905932757
 21
-70.28929680791316
 31
0.0
  0
LINE
  5
1102
330
1020
100
AcDbEntity
  8
0
100
AcDbLine
 10
-41.34656978981518
 20
-41.11506996886112
 30
0.0
 11
-42.89283771133264
 21
-43.48386395664898
 31
0.0
  0
LINE
  5
1103
330
1020
100
AcDbEntity
  8
0
100
AcDbLine
 10
-41.34656978981518
 20
-41.11506996886112
 30
0.0
 11
3.535533905932766
 21
-67.0277646193979
 31
0.0
  0
ELLIPSE
  5
1104
330
1020
100
AcDbEntity
  8
0
100
AcDbEllipse
 10
-40.13010588356076
 20
-42.11184811200526
 30
0.0
 11
-1.34999999999986
 21
-2.338268590218064
 31
0.0
210
0.0
220
0.0
230
0.9999999999999998
 40
0.5773502691896257
 41
3.926990816986998
 42
4.617802360169282
  0
ELLIPSE
  5
1105
330
1020
100
AcDbEntity
  8
0
100
AcDbEllipse
 10
-47.20117369542625
 20
-37.04956931025336
 30
0.0
 11
-2.499999999999999
 21
-0.0000000000000013
 31
0.0
210
0.0
220
0.0
230
1.0
 40
0.5773502691896258
 41
4.806975600599987
 42
6.188598686964283
  0
ELLIPSE
  5
1106
330
1020
100
AcDbEntity
  8
0
100
AcDbEllipse
 10
-45.14554864884089
 20
-39.53698825042915
 30
0.0
 11
-3.213411479588664
 21
5.565791948273416
 31
0.0
210
0.0
220
0.0
230
0.9999999999999998
 40
0.5773502691896259
 41
0.7853981633976881
 42
2.356194490192583
  0
ELLIPSE
  5
1107
330
1020
100
AcDbEntity
  8
0
100
AcDbEllipse
 10
-42.89283771133265
 20
-38.23638498425234
 30
0.0
 11
3.213411479589329
 21
-5.565791948273031
 31
0.0
210
0.0
220
0.0
230
0.9999999999999998
 40
0.5773502691896258
 41
3.926990816987002
 42
5.497787143781899
  0
LINE
  5
1108
330
1020
100
AcDbEntity
  8
0
100
AcDbLine
 10
-44.61271807673795
 20
-35.45793519085689
 30
0.0
 11
-47.4372878072528
 21
-35.61264549805403
 31
0.0
  0
ELLIPSE
  5
1109
330
1020
100
AcDbEntity
  8
0
100
AcDbEllipse
 10
-41.34656978981519
 20
-37.34364678352495
 30
0.0
 11
2.309515602044138
 21
-4.00019836361292
 31
0.0
210
0.0
220
0.0
230
1.0
 40
0.5773502691896255
 41
3.926990816987009
 42
5.497787143781899
  0
ELLIPSE
  5
110A
330
1020
100
AcDbEntity
  8
0
100
AcDbEllipse
 10
-44.86772131751064
 20
-33.90605747368161
 30
0.0
 11
-2.699999999999999
 21
0.0000000000001628
 31
0.0
210
0.0
220
0.0
230
1.0
 40
0.5773502691896264
 41
1.665382947010304
 42
2.356194490192589
  0
ELLIPSE
  5
110B
330
1020
100
AcDbEntity
  8
0
100
AcDbEllipse
 10
-40.13010588356078
 20
-36.6413210197895
 30
0.0
 11
2.000000000000208
 21
-3.464101615137635
 31
0.0
210
0.0
220
0.0
230
1.0
 40
0.5773502691896255
 41
3.926990816987
 42
5.497787143781895
  0
ELLIPSE
  5
110C
330
1020
100
AcDbEntity
  8
0
100
AcDbEllipse
 10
-47.20117369542625
 20
17.65570161190425
 30
0.0
 11
2.499999999999999
 21
-0.0000000000001492
 31
0.0
210
0.0
220
0.0
230
1.0
 40
0.5773502691896257
 41
1.665382947010378
 42
2.656055576016314
  0
LINE
  5
110D
330
1020
100
AcDbEntity
  8
0
100
AcDbLine
 10
-49.68999874476104
 20
-36.91324876423081
 30
0.0
 11
-49.68999874476104
 21
17.65281749756422
 31
0.0
  0
LINE
  5
110E
330
1020
100
AcDbEntity
  8
0
100
AcDbLine
 10
-47.4372878072528
 20
19.09262542410354
 30
0.0
 11
-47.4372878072528
 21
-35.61264549805404
 31
0.0
  0
LINE
  5
110F
330
1020
100
AcDbEntity
  8
0
100
AcDbLine
 10
-44.61271807673792
 20
19.24733573130069
 30
0.0
 11
-47.4372878072528
 21
19.09262542410354
 31
0.0
  0
LINE
  5
1110
330
1020
100
AcDbEntity
  8
0
100
AcDbLine
 10
-44.61271807673792
 20
19.24733573130069
 30
0.0
 11
-44.61271807673795
 21
-35.45793519085689
 31
0.0
  0
ELLIPSE
  5
1111
330
1020
100
AcDbEntity
  8
0
100
AcDbEllipse
 10
-44.86772131751063
 20
20.79921344847596
 30
0.0
 11
-2.699999999999999
 21
0.00000000000016
 31
0.0
210
0.0
220
0.0
230
1.0
 40
0.5773502691896261
 41
1.665382947010304
 42
2.356194490192587
  0
LINE
  5
1112
330
1020
100
AcDbEntity
  8
0
100
AcDbLine
 10
-42.95853300830695
 20
19.69694306422354
 30
0.0
 11
-42.95853300830695
 21
-35.00832785793405
 31
0.0
  0
ELLIPSE
  5
1113
330
1020
100
AcDbEntity
  8
0
100
AcDbEllipse
 10
-48.56364327600693
 20
18.44232379101515
 30
0.0
 11
0.7964535899825887
 21
1.379498083720474
 31
0.0
210
0.0
220
0.0
230
1.0
 40
0.5773502691896259
 41
5.497787143782122
 42
6.970982059606308
  0
LINE
  5
1114
330
1020
100
AcDbEntity
  8
0
100
AcDbLine
 10
-49.95796485728108
 20
16.16125606366914
 30
0.0
 11
-49.7357161769019
 21
17.51379877531059
 31
0.0
  0
ELLIPSE
  5
1115
330
1020
100
AcDbEntity
  8
0
100
AcDbEllipse
 10
-47.2853414670095
 20
17.70429589748491
 30
0.0
 11
1.889830122819007
 21
3.273281790396201
 31
0.0
210
0.0
220
0.0
230
1.0
 40
0.5773502691896258
 41
2.115395149531014
 42
2.356194490192578
  0
ELLIPSE
  5
1116
330
1020
100
AcDbEntity
  8
0
100
AcDbEllipse
 10
-47.2853414670095
 20
17.70429589748491
 30
0.0
 11
1.889830122818811
 21
3.273281790396315
 31
0.0
210
0.0
220
0.0
230
1.0
 40
0.5773502691896259
 41
5.497787143782133
 42
7.309382811238543
  0
ELLIPSE
  5
1117
330
1020
100
AcDbEntity
  8
0
100
AcDbEllipse
 10
-52.64589591056266
 20
16.30848225337349
 30
0.0
 11
2.699999999999999
 21
0.0000000000000004
 31
0.0
210
0.0
220
0.0
230
1.0
 40
0.5773502691896259
 41
5.497787143782137
 42
6.188598686964285
  0
ELLIPSE
  5
1118
330
1020
100
AcDbEntity
  8
0
100
AcDbEllipse
 10
-46.84762030483298
 20
17.45157746667231
 30
0.0
 11
2.750000000000285
 21
4.763139720814249
 31
0.0
210
0.0
220
0.0
230
1.0
 40
0.5773502691896255
 41
5.497787143782378
 42
8.639379797372173
  0
LINE
  5
1119
330
1020
100
AcDbEntity
  8
0
100
AcDbLine
 10
-49.95796485728108
 20
-38.54401485848845
 30
0.0
 11
-49.68999874476104
 21
-36.91324876423081
 31
0.0
  0
LINE
  5
111A
330
1020
100
AcDbEntity
  8
0
100
AcDbLine
 10
-49.95796485728108
 20
-38.54401485848845
 30
0.0
 11
-49.95796485728108
 21
16.16125606366914
 31
0.0
  0
ELLIPSE
  5
111B
330
1020
100
AcDbEntity
  8
0
100
AcDbEllipse
 10
-52.64589591056266
 20
-38.3967886687841
 30
0.0
 11
2.699999999999999
 21
0.0000000000000012
 31
0.0
210
0.0
220
0.0
230
1.0
 40
0.5773502691896255
 41
5.497787143782137
 42
6.188598686964285
  0
LINE
  5
111C
330
1020
100
AcDbEntity
  8
0
100
AcDbLine
 10
-50.73670760135898
 20
-39.49905905303655
 30
0.0
 11
-50.73670760135897
 21
15.20621186912105
 31
0.0
  0
LINE
  5
111D
330
1020
100
AcDbEntity
  8
0
100
AcDbLine
 10
-46.69181657035835
 20
-44.20114963649268
 30
0.0
 11
-45.1455486488409
 21
-44.78446722282578
 31
0.0
  0
ELLIPSE
  5
111E
330
1020
100
AcDbEntity
  8
0
100
AcDbEllipse
 10
-46.69181657035835
 20
-40.42972645115653
 30
0.0
 11
-2.309515602043654
 21
4.000198363613185
 31
0.0
210
0.0
220
0.0
230
1.0
 40
0.5773502691896258
 41
0.785398163397689
 42
2.356194490192589
  0
ELLIPSE
  5
111F
330
1020
100
AcDbEntity
  8
0
100
AcDbEllipse
 10
-47.90828047661278
 20
-46.60257930710776
 30
0.0
 11
1.349999999999999
 21
2.338268590217984
 31
0.0
210
0.0
220
0.0
230
1.0
 40
0.5773502691896258
 41
0.094586620215301
 42
0.7853981633974483
  0
ELLIPSE
  5
1120
330
1020
100
AcDbEntity
  8
0
100
AcDbEllipse
 10
-47.90828047661277
 20
-41.13205221489198
 30
0.0
 11
-1.999999999999793
 21
3.464101615137874
 31
0.0
210
0.0
220
0.0
230
1.0
 40
0.5773502691896258
 41
0.7853981633976899
 42
2.356194490192587
  0
LINE
  5
1121
330
1020
100
AcDbEntity
  8
0
100
AcDbLine
 10
3.535533905932757
 20
-73.19992395466103
 30
0.0
 11
-46.69181657035835
 21
-44.20114963649268
 31
0.0
  0
ELLIPSE
  5
1122
330
1020
100
AcDbEntity
  8
0
100
AcDbEllipse
 10
3.003407768818626
 20
-75.99645622050589
 30
0.0
 11
1.349999999999999
 21
2.338268590217984
 31
0.0
210
0.0
220
0.0
230
1.0
 40
0.5773502691896258
 41
0.5035013158439448
 42
0.7853981633974483
  0
LINE
  5
1123
330
1020
100
AcDbEntity
  8
0
100
AcDbLine
 10
3.003407768818626
 20
-73.79191545200102
 30
0.0
 11
-47.90828047661278
 21
-44.39803853860289
 31
0.0
  0
ELLIPSE
  5
1124
330
1020
100
AcDbEntity
  8
0
100
AcDbEllipse
 10
12.90290270543032
 20
-71.7506739996817
 30
0.0
 11
2.5
 21
-0.0000000000000048
 31
0.0
210
0.0
220
0.0
230
1.0
 40
0.5773502691896269
 41
4.806975600599995
 42
6.188598686964285
  0
ELLIPSE
  5
1125
330
1020
100
AcDbEntity
  8
0
100
AcDbEllipse
 10
5.76613959659052
 20
-68.93086516382727
 30
0.0
 11
5.213411479589002
 21
-9.029893563410988
 31
0.0
210
0.0
220
0.0
230
1.0
 40
0.5773502691896258
 41
5.658840087705714
 42
7.068583470577033
  0
ELLIPSE
  5
1126
330
1020
100
AcDbEntity
  8
0
100
AcDbEllipse
 10
3.00340776881864
 20
-70.52592912829012
 30
0.0
 11
-1.999999999999794
 21
3.464101615137873
 31
0.0
210
0.0
220
0.0
230
1.0
 40
0.5773502691896258
 41
2.356194490192631
 42
2.530118350227272
  0
ELLIPSE
  5
1127
330
1020
100
AcDbEntity
  8
0
100
AcDbEllipse
 10
10.56945032751469
 20
-74.89418583625347
 30
0.0
 11
-2.7
 21
-0.0000000000000003
 31
0.0
210
0.0
220
0.0
230
1.0
 40
0.5773502691896254
 41
4.80697560059999
 42
5.497787143782139
  0
ELLIPSE
  5
1128
330
1020
100
AcDbEntity
  8
0
100
AcDbEllipse
 10
3.00340776881864
 20
-70.52592912829012
 30
0.0
 11
4.000000000000001
 21
-6.928203230275508
 31
0.0
210
0.0
220
0.0
230
1.0
 40
0.5773502691896258
 41
0.0
 42
0.7853981633974457
  0
ELLIPSE
  5
1129
330
1020
100
AcDbEntity
  8
0
100
AcDbEllipse
 10
4.219871675073059
 20
-69.82360336455466
 30
0.0
 11
4.309515602043897
 21
-7.464299978750809
 31
0.0
210
0.0
220
0.0
230
1.0
 40
0.5773502691896258
 41
5.901877000739433
 42
7.068583470577032
  0
LINE
  5
112A
330
1020
100
AcDbEntity
  8
0
100
AcDbLine
 10
13.13901681725687
 20
-73.18759781188106
 30
0.0
 11
10.31444708674199
 21
-73.34230811907819
 31
0.0
  0
ELLIPSE
  5
112B
330
1020
100
AcDbEntity
  8
0
100
AcDbEllipse
 10
12.90290270543027
 20
-17.0454030775241
 30
0.0
 11
2.5
 21
0.0
 31
0.0
210
0.0
220
0.0
230
1.0
 40
0.5773502691896258
 41
4.80697560059999
 42
6.188598686964281
  0
LINE
  5
112C
330
1020
100
AcDbEntity
  8
0
100
AcDbLine
 10
13.13901681725685
 20
-18.48232688972343
 30
0.0
 11
13.13901681725687
 21
-73.18759781188106
 31
0.0
  0
ELLIPSE
  5
112D
330
1020
100
AcDbEntity
  8
0
100
AcDbEllipse
 10
10.56945032751468
 20
-20.18891491409584
 30
0.0
 11
-2.7
 21
-0.0000000000000002
 31
0.0
210
0.0
220
0.0
230
1.0
 40
0.5773502691896257
 41
4.80697560059999
 42
5.497787143782138
  0
LINE
  5
112E
330
1020
100
AcDbEntity
  8
0
100
AcDbLine
 10
8.660262018311009
 20
-73.79191545200104
 30
0.0
 11
8.660262018310991
 21
-19.08664452984341
 31
0.0
  0
LINE
  5
112F
330
1020
100
AcDbEntity
  8
0
100
AcDbLine
 10
10.31444708674197
 20
-18.63703719692057
 30
0.0
 11
10.31444708674199
 21
-73.34230811907819
 31
0.0
  0
LINE
  5
1130
330
1020
100
AcDbEntity
  8
0
100
AcDbLine
 10
13.13901681725685
 20
-18.48232688972343
 30
0.0
 11
10.31444708674197
 21
-18.63703719692057
 31
0.0
  0
ELLIPSE
  5
1131
330
1020
100
AcDbEntity
  8
0
100
AcDbEllipse
 10
14.26537228601096
 20
-17.83202525663503
 30
0.0
 11
0.7964535899825841
 21
1.379498083720466
 31
0.0
210
0.0
220
0.0
230
1.0
 40
0.5773502691896258
 41
5.497787143782132
 42
8.639379797371937
  0
ELLIPSE
  5
1132
330
1020
100
AcDbEntity
  8
0
100
AcDbEllipse
 10
12.549349314837
 20
-16.84127893229217
 30
0.0
 11
2.750000000000283
 21
4.763139720814249
 31
0.0
210
0.0
220
0.0
230
1.0
 40
0.577350269189626
 41
5.497787143782377
 42
8.639379797372169
  0
ELLIPSE
  5
1133
330
1020
100
AcDbEntity
  8
0
100
AcDbEllipse
 10
12.98707047701354
 20
-17.09399736310477
 30
0.0
 11
1.889830122818806
 21
3.273281790396305
 31
0.0
210
0.0
220
0.0
230
0.9999999999999998
 40
0.5773502691896258
 41
5.497787143782133
 42
8.639379797371933
  0
LINE
  5
1134
330
1020
100
AcDbEntity
  8
0
100
AcDbLine
 10
15.58082386330024
 20
-71.3391950245105
 30
0.0
 11
15.29631522534414
 21
-73.19710707003174
 31
0.0
  0
SPLINE
  5
1135
330
1020
100
AcDbEntity
  8
0
100
AcDbSpline
210
0.0
220
0.0
230
1.0
 70
     8
 71
     3
 72
    16
 73
    12
 74
     0
 42
0.000000001
 43
0.0000000001
 40
3.3823919942513
 40
3.3823919942513
 40
3.3823919942513
 40
3.3823919942513
 40
3.600231523345676
 40
3.600231523345676
 40
3.818071052440052
 40
3.818071052440052
 40
4.035910581534428
 40
4.035910581534428
 40
4.253750110628804
 40
4.253750110628804
 40
4.47158963972318
 40
4.47158963972318
 40
4.47158963972318
 40
4.47158963972318
 10
-49.88085341634579
 20
16.94174150724881
 30
0.0
 10
-49.83916307688918
 20
17.16184929965075
 30
0.0
 10
-49.77559155607989
 20
17.40323209708783
 30
0.0
 10
-49.60439382487668
 20
17.90243820634287
 30
0.0
 10
-49.4968544440958
 20
18.16024740012534
 30
0.0
 10
-49.24467562427694
 20
18.66853804150471
 30
0.0
 10
-49.10006673776395
 20
18.91900798017118
 30
0.0
 10
-48.78596353973295
 20
19.39154656512038
 30
0.0
 10
-48.6164639189786
 20
19.61358299767511
 30
0.0
 10
-48.26973761224092
 20
20.01144763659487
 30
0.0
 10
-48.09247973802853
 20
20.18719358729147
 30
0.0
 10
-47.92270596796583
 20
20.33335237655425
 30
0.0
  0
SPLINE
  5
1136
330
1020
100
AcDbEntity
  8
0
100
AcDbSpline
210
0.0
220
0.0
230
1.0
 70
     8
 71
     3
 72
    18
 73
    14
 74
     0
 42
0.000000001
 43
0.0000000001
 40
0.1610529439235808
 40
0.1610529439235808
 40
0.1610529439235808
 40
0.1610529439235808
 40
0.4107910317131278
 40
0.4107910317131278
 40
0.6605291195026746
 40
0.6605291195026746
 40
0.8986016985788591
 40
0.8986016985788591
 40
1.135442840713284
 40
1.135442840713284
 40
1.385180928502831
 40
1.385180928502831
 40
1.409743382871315
 40
1.409743382871315
 40
1.409743382871315
 40
1.409743382871315
 10
15.29631522534412
 20
-73.19710707003179
 30
0.0
 10
15.18366956286342
 20
-73.93271121443359
 30
0.0
 10
14.97801132701528
 20
-74.64895033448766
 30
0.0
 10
14.33139384509187
 20
-75.98980730664194
 30
0.0
 10
13.88585567650533
 20
-76.61480743059053
 30
0.0
 10
12.78086557084052
 20
-77.61906723052916
 30
0.0
 10
12.13364492230779
 20
-78.00181517940979
 30
0.0
 10
10.75662326135962
 20
-78.47220299214722
 30
0.0
 10
10.03342405017575
 20
-78.56330384430328
 30
0.0
 10
8.581392649699834
 20
-78.50481608470508
 30
0.0
 10
7.852700169791024
 20
-78.34576856240666
 30
0.0
 10
7.08509870870444
 20
-78.06902964248568
 30
0.0
 10
7.016631972444291
 20
-78.04333671718288
 30
0.0
 10
6.948436589184805
 20
-78.0167570477807
 30
0.0
  0
LINE
  5
1137
330
1020
100
AcDbEntity
  8
0
100
AcDbLine
 10
6.399493625520151
 20
-77.80280235176644
 30
0.0
 11
6.94843658918476
 21
-78.01675704778069
 31
0.0
  0
LINE
  5
1138
330
1020
100
AcDbEntity
  8
0
100
AcDbLine
 10
-40.66223202067487
 20
-33.68255786458426
 30
0.0
 11
-40.66223202067487
 21
-18.98147160525405
 31
0.0
  0
LINE
  5
1139
330
1020
100
AcDbEntity
  8
0
100
AcDbLine
 10
-40.66223202067487
 20
-18.98147160525405
 30
0.0
 11
-40.65863991822644
 21
-18.97939770393849
 31
0.0
  0
LINE
  5
113A
330
1020
100
AcDbEntity
  8
0
100
AcDbLine
 10
-40.65863991822644
 20
-18.97939770393849
 30
0.0
 11
-40.65863991822644
 21
-18.98354550656961
 31
0.0
  0
LINE
  5
113B
330
1020
100
AcDbEntity
  8
0
100
AcDbLine
 10
-40.65863991822644
 20
-18.98354550656961
 30
0.0
 11
-15.90990257669728
 21
-4.694855340334385
 31
0.0
  0
LINE
  5
113C
330
1020
100
AcDbEntity
  8
0
100
AcDbLine
 10
-15.90990257669729
 20
-4.694855340334385
 30
0.0
 11
-15.90990257669729
 21
-4.690707537703282
 31
0.0
  0
LINE
  5
113D
330
1020
100
AcDbEntity
  8
0
100
AcDbLine
 10
-15.90990257669729
 20
-4.690707537703282
 30
0.0
 11
-15.90631047424886
 21
-4.688633636387722
 31
0.0
  0
LINE
  5
113E
330
1020
100
AcDbEntity
  8
0
100
AcDbLine
 10
-15.90631047424886
 20
-4.688633636387722
 30
0.0
 11
-15.90631047424886
 21
-4.861477499212005
 31
0.0
  0
LINE
  5
113F
330
1020
100
AcDbEntity
  8
0
100
AcDbLine
 10
-40.66223202067487
 20
-33.68255786458426
 30
0.0
 11
-40.65863991822644
 21
-33.68048396326871
 31
0.0
  0
LINE
  5
1140
330
1020
100
AcDbEntity
  8
0
100
AcDbLine
 10
-37.83021279348027
 20
-27.14851131584687
 30
0.0
 11
-37.83021279348027
 21
-23.88252499213596
 31
0.0
  0
LINE
  5
1141
330
1020
100
AcDbEntity
  8
0
100
AcDbLine
 10
-37.83021279348027
 20
-23.88252499213596
 30
0.0
 11
-13.0814754519511
 21
-9.593834825900749
 31
0.0
  0
ELLIPSE
  5
1142
330
1020
100
AcDbEntity
  8
0
100
AcDbEllipse
 10
-13.0814754519511
 20
-6.327848502189841
 30
0.0
 11
2.000000000000207
 21
-3.464101615137633
 31
0.0
210
0.0
220
0.0
230
1.0
 40
0.5773502691896254
 41
3.926990816986998
 42
5.497787143781895
  0
ELLIPSE
  5
1143
330
1020
100
AcDbEntity
  8
0
100
AcDbEllipse
 10
-37.83021279348026
 20
-20.61653866842506
 30
0.0
 11
4.000000000000004
 21
-6.928203230275511
 31
0.0
210
0.0
220
0.0
230
1.0
 40
0.5773502691896254
 41
4.973454978009093
 42
5.497787143782136
  0
ELLIPSE
  5
1144
330
1020
100
AcDbEntity
  8
0
100
AcDbEllipse
 10
-37.83021279348026
 20
-20.61653866842506
 30
0.0
 11
2.000000000000207
 21
-3.464101615137633
 31
0.0
210
0.0
220
0.0
230
1.0
 40
0.5773502691896254
 41
3.926990816986997
 42
5.497787143781891
  0
LINE
  5
1145
330
1020
100
AcDbEntity
  8
0
100
AcDbLine
 10
-40.66223202067487
 20
-18.98147160525405
 30
0.0
 11
-40.65863991822644
 21
-18.98354550656961
 31
0.0
  0
LINE
  5
1146
330
1020
100
AcDbEntity
  8
0
100
AcDbLine
 10
-27.93071785686859
 20
-41.02895319161823
 30
0.0
 11
-27.93071785686856
 21
-36.12997370605184
 31
0.0
  0
LINE
  5
1147
330
1020
100
AcDbEntity
  8
0
100
AcDbLine
 10
-30.75914498161476
 20
-34.49698054419639
 30
0.0
 11
-30.75914498161479
 21
-39.39596002976278
 31
0.0
  0
LINE
  5
1148
330
1020
100
AcDbEntity
  8
0
100
AcDbLine
 10
-3.181980515339435
 20
-21.84128353981662
 30
0.0
 11
-3.181980515339453
 21
-26.74026302538301
 31
0.0
  0
LINE
  5
1149
330
1020
100
AcDbEntity
  8
0
100
AcDbLine
 10
-37.83021279348027
 20
-23.88252499213596
 30
0.0
 11
-33.58757210636098
 21
-26.33201473491914
 31
0.0
  0
LINE
  5
114A
330
1020
100
AcDbEntity
  8
0
100
AcDbLine
 10
-37.83021279348027
 20
-27.14851131584687
 30
0.0
 11
-33.58757210636098
 21
-29.59800105863004
 31
0.0
  0
LINE
  5
114B
330
1020
100
AcDbEntity
  8
0
100
AcDbLine
 10
-8.838834764831844
 20
-12.04332456868391
 30
0.0
 11
-13.0814754519511
 21
-9.593834825900749
 31
0.0
  0
ENDBLK
  5
1022
330
1020
100
AcDbEntity
  8
0
100
AcDbBlockEnd
  0
ENDSEC
  0
SECTION
  2
ENTITIES
  0
INSERT
  5
114C
330
1F
100
AcDbEntity
  8
0
100
AcDbBlockReference
  2
PU80-B-Front
 10
0.0
 20
0.0
 30
0.0
  0
INSERT
  5
114D
330
1F
100
AcDbEntity
  8
0
100
AcDbBlockReference
  2
PU80-B-Left
 10
120.1
 20
0.0
 30
0.0
  0
INSERT
  5
114E
330
1F
100
AcDbEntity
  8
0
100
AcDbBlockReference
  2
PU80-B-Right
 10
-120.1
 20
0.0
 30
0.0
  0
INSERT
  5
114F
330
1F
100
AcDbEntity
  8
0
100
AcDbBlockReference
  2
PU80-B-Top
 10
0.0
 20
-76.10000000000002
 30
0.0
  0
INSERT
  5
1150
330
1F
100
AcDbEntity
  8
0
100
AcDbBlockReference
  2
PU80-B-Bottom
 10
0.0
 20
197.0999999999999
 30
0.0
  0
INSERT
  5
1151
330
1F
100
AcDbEntity
  8
0
100
AcDbBlockReference
  2
PU80-B-ISO
 10
140.9614357137372
 20
-122.3414098023087
 30
0.0
  0
MTEXT
  5
1152
330
1F
100
AcDbEntity
  8
0
100
AcDbMText
 10
0.0
 20
-149.2
 30
0.0
 40
12.7
 41
0.0
 71
     5
 72
     5
  1
PU80-B
 73
     1
 44
1.0
1001
ACAD
1000
MTEXTBEGIN
1070
    73
1070
     1
1070
    44
1040
1.0
1070
    74
1070
     0
1000
MTEXTEND
  0
ENDSEC
  0
SECTION
  2
OBJECTS
  0
DICTIONARY
  5
C
330
0
100
AcDbDictionary
281
     1
  3
ACAD_CIP_PREVIOUS_PRODUCT_INFO
350
1A5
  3
ACAD_COLOR
350
73
  3
ACAD_DETAILVIEWSTYLE
350
1AB
  3
ACAD_GROUP
350
D
  3
ACAD_LAYOUT
350
1A
  3
ACAD_MATERIAL
350
72
  3
ACAD_MLEADERSTYLE
350
D7
  3
ACAD_MLINESTYLE
350
17
  3
ACAD_PLOTSETTINGS
350
19
  3
ACAD_PLOTSTYLENAME
350
E
  3
ACAD_SCALELIST
350
B6
  3
ACAD_SECTIONVIEWSTYLE
350
1A8
  3
ACAD_TABLESTYLE
350
86
  3
ACAD_VISUALSTYLE
350
99
  3
ACDB_RECOMPOSE_DATA
350
124A
  3
AcDbVariableDictionary
350
66
  3
DWGPROPS
350
124B
  0
DICTIONARY
  5
11A2
330
8
100
AcDbDictionary
280
     1
281
     1
  0
DICTIONARY
  5
18E
330
2
100
AcDbDictionary
280
     1
281
     1
  3
ACAD_LAYERSTATES
360
18F
  0
DICTIONARY
  5
E6
330
10
100
AcDbDictionary
280
     1
281
     1
  0
DICTIONARY
  5
15D
330
1F
100
AcDbDictionary
280
     1
281
     1
  3
ACAD_LAYOUTSELFREF
360
11AA
  0
DICTIONARY
  5
1156
330
58
100
AcDbDictionary
280
     1
281
     1
  3
ACAD_LAYOUTSELFREF
360
11AC
  0
DICTIONARY
  5
1158
330
5D
100
AcDbDictionary
280
     1
281
     1
  3
ACAD_LAYOUTSELFREF
360
11AF
  0
XRECORD
  5
1A5
102
{ACAD_REACTORS
330
C
102
}
330
C
100
AcDbXrecord
280
     1
300
ACD
300
2021
300
87393ACD_2021_0F
  0
DICTIONARY
  5
73
102
{ACAD_REACTORS
330
C
102
}
330
C
100
AcDbDictionary
281
     1
  0
DICTIONARY
  5
1AB
102
{ACAD_REACTORS
330
C
102
}
330
C
100
AcDbDictionary
281
     1
  3
Imperial24
350
1AC
  0
DICTIONARY
  5
D
102
{ACAD_REACTORS
330
C
102
}
330
C
100
AcDbDictionary
281
     1
  0
DICTIONARY
  5
1A
102
{ACAD_REACTORS
330
C
102
}
330
C
100
AcDbDictionary
281
     1
  3
Layout1
350
59
  3
Layout2
350
5E
  3
Model
350
22
  0
DICTIONARY
  5
72
102
{ACAD_REACTORS
330
C
102
}
330
C
100
AcDbDictionary
281
     1
  3
ByBlock
350
97
  3
ByLayer
350
96
  3
Global
350
98
  0
DICTIONARY
  5
D7
102
{ACAD_REACTORS
330
C
102
}
330
C
100
AcDbDictionary
281
     1
  3
Standard
350
D8
  0
DICTIONARY
  5
17
102
{ACAD_REACTORS
330
C
102
}
330
C
100
AcDbDictionary
281
     1
  3
Standard
350
18
  0
DICTIONARY
  5
19
102
{ACAD_REACTORS
330
C
102
}
330
C
100
AcDbDictionary
281
     1
  0
ACDBDICTIONARYWDFLT
  5
E
102
{ACAD_REACTORS
330
C
102
}
330
C
100
AcDbDictionary
281
     1
  3
Normal
350
F
100
AcDbDictionaryWithDefault
340
F
  0
DICTIONARY
  5
B6
102
{ACAD_REACTORS
330
C
102
}
330
C
100
AcDbDictionary
281
     1
  3
A0
350
B7
  3
A1
350
124
  3
A2
350
125
  3
A3
350
126
  3
A4
350
127
  3
A5
350
128
  3
A6
350
129
  3
A7
350
12A
  3
A8
350
12B
  3
A9
350
12C
  3
B0
350
12D
  3
B1
350
12E
  3
B2
350
12F
  3
B3
350
130
  3
B4
350
131
  3
B5
350
132
  3
B6
350
133
  3
B7
350
134
  3
B8
350
135
  3
B9
350
136
  3
C0
350
137
  3
C1
350
138
  3
C2
350
139
  3
C3
350
13A
  3
C4
350
13B
  3
C5
350
13C
  3
C6
350
13D
  3
C7
350
13E
  3
C8
350
13F
  3
C9
350
140
  3
D0
350
141
  3
D1
350
142
  3
D2
350
143
  0
DICTIONARY
  5
1A8
102
{ACAD_REACTORS
330
C
102
}
330
C
100
AcDbDictionary
281
     1
  3
Imperial24
350
1AA
  0
DICTIONARY
  5
86
102
{ACAD_REACTORS
330
C
102
}
330
C
100
AcDbDictionary
281
     1
  3
Standard
350
87
  0
DICTIONARY
  5
99
102
{ACAD_REACTORS
330
C
102
}
330
C
100
AcDbDictionary
281
     1
  3
2dWireframe
350
9F
  3
Basic
350
9E
  3
Brighten
350
A5
  3
ColorChange
350
A9
  3
Conceptual
350
A2
  3
Dim
350
A4
  3
EdgeColorOff
350
175
  3
Facepattern
350
A8
  3
Flat
350
9A
  3
FlatWithEdges
350
9B
  3
Gouraud
350
9C
  3
GouraudWithEdges
350
9D
  3
Hidden
350
A1
  3
JitterOff
350
173
  3
Linepattern
350
A7
  3
OverhangOff
350
174
  3
Realistic
350
A3
  3
Shaded
350
182
  3
Shaded with edges
350
181
  3
Shades of Gray
350
17E
  3
Sketchy
350
17F
  3
Thicken
350
A6
  3
Wireframe
350
A0
  3
X-Ray
350
180
  0
XRECORD
  5
124A
102
{ACAD_REACTORS
330
C
102
}
330
C
100
AcDbXrecord
280
     1
 90
        1
330
87
  0
DICTIONARY
  5
66
102
{ACAD_REACTORS
330
C
102
}
330
C
100
AcDbDictionary
281
     1
  3
CANNOSCALE
350
F0
  3
CMLEADERSTYLE
350
EF
  3
CTABLESTYLE
350
89
  3
CVIEWDETAILSTYLE
350
1B7
  3
CVIEWSECTIONSTYLE
350
1B8
  3
DIMASSOC
350
67
  3
HIDETEXT
350
6B
  3
INDEXCTL
350
11FD
  3
LAYEREVAL
350
14D
  3
LAYERNOTIFY
350
14E
  3
LIGHTINGUNITS
350
11FB
  3
MSLTSCALE
350
11FA
  3
SORTENTS
350
11FC
  3
XCLIPFRAME
350
1248
  0
XRECORD
  5
124B
102
{ACAD_REACTORS
330
C
102
}
330
C
100
AcDbXrecord
280
     1
  1
DWGPROPS COOKIE
  2

  3

  4

  6

  7

  8
KhuNguyen
  9

300
=
301
=
302
=
303
=
304
=
305
=
306
=
307
=
308
=
309
=
 40
0.0008564814814815
 41
2460619.64644676
 42
2460619.65150463
  1

 90
        0
  0
DICTIONARY
  5
18F
102
{ACAD_REACTORS
330
18E
102
}
330
18E
100
AcDbDictionary
281
     1
  0
XRECORD
  5
11AA
102
{ACAD_REACTORS
330
15D
102
}
330
15D
100
AcDbXrecord
280
     1
340
1F
  0
XRECORD
  5
11AC
102
{ACAD_REACTORS
330
1156
102
}
330
1156
100
AcDbXrecord
280
     1
340
58
  0
XRECORD
  5
11AF
102
{ACAD_REACTORS
330
1158
102
}
330
1158
100
AcDbXrecord
280
     1
340
5D
  0
ACDBDETAILVIEWSTYLE
  5
1AC
102
{ACAD_XDICTIONARY
360
128A
102
}
102
{ACAD_REACTORS
330
1AB
102
}
330
1AB
100
AcDbModelDocViewStyle
 70
     0
  3
Imperial24
290
     0
100
AcDbDetailViewStyle
 70
     0
 71
     0
 90
        3
 71
     1
340
11
 40
0.24
340
0
 40
0.24
300

 40
0.36
280
     3
 71
     2
340
16
 90
       25
 71
     3
340
11
 40
0.24
 90
        1
 40
0.75
 90
        1
300
%<\AcVar ViewType \f "%tc1">% %<\AcVar ViewDetailId>%\PSCALE %<\AcVar ViewScale \f "%sn">%
 71
     4
340
16
 90
       25
340
16
 90
       25
280
     0
  0
LAYOUT
  5
59
102
{ACAD_XDICTIONARY
360
124E
102
}
102
{ACAD_REACTORS
330
1A
102
}
330
1A
100
AcDbPlotSettings
  1

  2
None
  4

  6

 40
0.0
 41
0.0
 42
0.0
 43
0.0
 44
0.0
 45
0.0
 46
0.0
 47
0.0
 48
0.0
 49
0.0
140
0.0
141
0.0
142
1.0
143
1.0
 70
   688
 72
     0
 73
     0
 74
     5
  7

 75
    16
147
1.0
148
0.0
149
0.0
100
AcDbLayout
  1
Layout1
 70
     1
 71
     1
 10
0.0
 20
0.0
 11
12.0
 21
9.0
 12
0.0
 22
0.0
 32
0.0
 14
0.0
 24
0.0
 34
0.0
 15
0.0
 25
0.0
 35
0.0
146
0.0
 13
0.0
 23
0.0
 33
0.0
 16
1.0
 26
0.0
 36
0.0
 17
0.0
 27
1.0
 37
0.0
 76
     0
330
58
  0
LAYOUT
  5
5E
102
{ACAD_XDICTIONARY
360
1250
102
}
102
{ACAD_REACTORS
330
1A
102
}
330
1A
100
AcDbPlotSettings
  1

  2
None
  4

  6

 40
0.0
 41
0.0
 42
0.0
 43
0.0
 44
0.0
 45
0.0
 46
0.0
 47
0.0
 48
0.0
 49
0.0
140
0.0
141
0.0
142
1.0
143
1.0
 70
   688
 72
     0
 73
     0
 74
     5
  7

 75
    16
147
1.0
148
0.0
149
0.0
100
AcDbLayout
  1
Layout2
 70
     1
 71
     2
 10
0.0
 20
0.0
 11
12.0
 21
9.0
 12
0.0
 22
0.0
 32
0.0
 14
0.0
 24
0.0
 34
0.0
 15
0.0
 25
0.0
 35
0.0
146
0.0
 13
0.0
 23
0.0
 33
0.0
 16
1.0
 26
0.0
 36
0.0
 17
0.0
 27
1.0
 37
0.0
 76
     0
330
5D
  0
LAYOUT
  5
22
102
{ACAD_XDICTIONARY
360
124C
102
}
102
{ACAD_REACTORS
330
1A
102
}
330
1A
100
AcDbPlotSettings
  1

  2
none_device
  4
ANSI_A_(8.50_x_11.00_Inches)
  6

 40
6.349999904632568
 41
19.04999923706055
 42
6.350006103515625
 43
19.04998779296875
 44
215.8999938964844
 45
279.3999938964844
 46
0.0
 47
0.0
 48
0.0
 49
0.0
140
0.0
141
0.0
142
1.0
143
2.584895464708373
 70
 11952
 72
     0
 73
     1
 74
     0
  7

 75
     0
147
0.3868628397755418
148
0.0
149
0.0
100
AcDbLayout
  1
Model
 70
     1
 71
     0
 10
0.0
 20
0.0
 11
12.0
 21
9.0
 12
0.0
 22
0.0
 32
0.0
 14
0.0
 24
0.0
 34
0.0
 15
0.0
 25
0.0
 35
0.0
146
0.0
 13
0.0
 23
0.0
 33
0.0
 16
1.0
 26
0.0
 36
0.0
 17
0.0
 27
1.0
 37
0.0
 76
     0
330
1F
331
94
  0
MATERIAL
  5
97
102
{ACAD_XDICTIONARY
360
188
102
}
102
{ACAD_REACTORS
330
72
102
}
330
72
100
AcDbMaterial
  1
ByBlock
  0
MATERIAL
  5
96
102
{ACAD_XDICTIONARY
360
186
102
}
102
{ACAD_REACTORS
330
72
102
}
330
72
100
AcDbMaterial
  1
ByLayer
  0
MATERIAL
  5
98
102
{ACAD_XDICTIONARY
360
110
102
}
102
{ACAD_REACTORS
330
72
102
}
330
72
100
AcDbMaterial
  1
Global
 43
0.0208000000566244
 43
0.0
 43
0.0
 43
0.0
 43
0.0
 43
0.0208000000566244
 43
0.0
 43
0.0
 43
0.0
 43
0.0
 43
1.0
 43
0.0
 43
0.0
 43
0.0
 43
0.0
 43
1.0
 49
0.0208000000566244
 49
0.0
 49
0.0
 49
0.0
 49
0.0
 49
0.0208000000566244
 49
0.0
 49
0.0
 49
0.0
 49
0.0
 49
1.0
 49
0.0
 49
0.0
 49
0.0
 49
0.0
 49
1.0
142
0.0208000000566244
142
0.0
142
0.0
142
0.0
142
0.0
142
0.0208000000566244
142
0.0
142
0.0
142
0.0
142
0.0
142
1.0
142
0.0
142
0.0
142
0.0
142
0.0
142
1.0
144
0.0208000000566244
144
0.0
144
0.0
144
0.0
144
0.0
144
0.0208000000566244
144
0.0
144
0.0
144
0.0
144
0.0
144
1.0
144
0.0
144
0.0
144
0.0
144
0.0
144
1.0
1001
ACAD
1070
    -1
1070
     3
1070
     0
1000

1071
        0
1070
     0
  0
MLEADERSTYLE
  5
D8
102
{ACAD_XDICTIONARY
360
1276
102
}
102
{ACAD_REACTORS
330
D7
102
}
330
D7
100
AcDbMLeaderStyle
170
     2
171
     1
172
     0
 90
        2
 40
0.0
 41
0.0
173
     1
 91
-1056964608
340
14
 92
       -2
290
     1
 42
0.09
291
     1
 43
0.36
  3
Standard
 44
0.18
300

342
11
174
     1
178
     1
175
     1
176
     0
 93
-1056964608
 45
0.18
292
     0
297
     0
 46
0.18
 94
-1056964608
 47
1.0
 49
1.0
140
1.0
293
     1
141
0.0
294
     1
177
     0
142
1.0
295
     0
296
     0
143
0.125
1001
ACAD_MLEADERVER
1070
     2
  0
MLINESTYLE
  5
18
102
{ACAD_REACTORS
330
17
102
}
330
17
100
AcDbMlineStyle
  2
STANDARD
 70
     0
  3

 62
   256
 51
90.0
 52
90.0
 71
     2
 49
0.5
 62
   256
  6
BYLAYER
 49
-0.5
 62
   256
  6
BYLAYER
  0
ACDBPLACEHOLDER
  5
F
102
{ACAD_REACTORS
330
E
102
}
330
E
  0
SCALE
  5
B7
102
{ACAD_REACTORS
330
B6
102
}
330
B6
100
AcDbScale
 70
     0
300
1:1
140
1.0
141
1.0
290
     1
  0
SCALE
  5
124
102
{ACAD_REACTORS
330
B6
102
}
330
B6
100
AcDbScale
 70
     0
300
1:2
140
1.0
141
2.0
290
     0
  0
SCALE
  5
125
102
{ACAD_REACTORS
330
B6
102
}
330
B6
100
AcDbScale
 70
     0
300
1:4
140
1.0
141
4.0
290
     0
  0
SCALE
  5
126
102
{ACAD_REACTORS
330
B6
102
}
330
B6
100
AcDbScale
 70
     0
300
1:5
140
1.0
141
5.0
290
     0
  0
SCALE
  5
127
102
{ACAD_REACTORS
330
B6
102
}
330
B6
100
AcDbScale
 70
     0
300
1:8
140
1.0
141
8.0
290
     0
  0
SCALE
  5
128
102
{ACAD_REACTORS
330
B6
102
}
330
B6
100
AcDbScale
 70
     0
300
1:10
140
1.0
141
10.0
290
     0
  0
SCALE
  5
129
102
{ACAD_REACTORS
330
B6
102
}
330
B6
100
AcDbScale
 70
     0
300
1:16
140
1.0
141
16.0
290
     0
  0
SCALE
  5
12A
102
{ACAD_REACTORS
330
B6
102
}
330
B6
100
AcDbScale
 70
     0
300
1:20
140
1.0
141
20.0
290
     0
  0
SCALE
  5
12B
102
{ACAD_REACTORS
330
B6
102
}
330
B6
100
AcDbScale
 70
     0
300
1:30
140
1.0
141
30.0
290
     0
  0
SCALE
  5
12C
102
{ACAD_REACTORS
330
B6
102
}
330
B6
100
AcDbScale
 70
     0
300
1:40
140
1.0
141
40.0
290
     0
  0
SCALE
  5
12D
102
{ACAD_REACTORS
330
B6
102
}
330
B6
100
AcDbScale
 70
     0
300
1:50
140
1.0
141
50.0
290
     0
  0
SCALE
  5
12E
102
{ACAD_REACTORS
330
B6
102
}
330
B6
100
AcDbScale
 70
     0
300
1:100
140
1.0
141
100.0
290
     0
  0
SCALE
  5
12F
102
{ACAD_REACTORS
330
B6
102
}
330
B6
100
AcDbScale
 70
     0
300
2:1
140
2.0
141
1.0
290
     0
  0
SCALE
  5
130
102
{ACAD_REACTORS
330
B6
102
}
330
B6
100
AcDbScale
 70
     0
300
4:1
140
4.0
141
1.0
290
     0
  0
SCALE
  5
131
102
{ACAD_REACTORS
330
B6
102
}
330
B6
100
AcDbScale
 70
     0
300
8:1
140
8.0
141
1.0
290
     0
  0
SCALE
  5
132
102
{ACAD_REACTORS
330
B6
102
}
330
B6
100
AcDbScale
 70
     0
300
10:1
140
10.0
141
1.0
290
     0
  0
SCALE
  5
133
102
{ACAD_REACTORS
330
B6
102
}
330
B6
100
AcDbScale
 70
     0
300
100:1
140
100.0
141
1.0
290
     0
  0
SCALE
  5
134
102
{ACAD_REACTORS
330
B6
102
}
330
B6
100
AcDbScale
 70
     0
300
1/128" = 1'-0"
140
0.0078125
141
12.0
290
     0
  0
SCALE
  5
135
102
{ACAD_REACTORS
330
B6
102
}
330
B6
100
AcDbScale
 70
     0
300
1/64" = 1'-0"
140
0.015625
141
12.0
290
     0
  0
SCALE
  5
136
102
{ACAD_REACTORS
330
B6
102
}
330
B6
100
AcDbScale
 70
     0
300
1/32" = 1'-0"
140
0.03125
141
12.0
290
     0
  0
SCALE
  5
137
102
{ACAD_REACTORS
330
B6
102
}
330
B6
100
AcDbScale
 70
     0
300
1/16" = 1'-0"
140
0.0625
141
12.0
290
     0
  0
SCALE
  5
138
102
{ACAD_REACTORS
330
B6
102
}
330
B6
100
AcDbScale
 70
     0
300
3/32" = 1'-0"
140
0.09375
141
12.0
290
     0
  0
SCALE
  5
139
102
{ACAD_REACTORS
330
B6
102
}
330
B6
100
AcDbScale
 70
     0
300
1/8" = 1'-0"
140
0.125
141
12.0
290
     0
  0
SCALE
  5
13A
102
{ACAD_REACTORS
330
B6
102
}
330
B6
100
AcDbScale
 70
     0
300
3/16" = 1'-0"
140
0.1875
141
12.0
290
     0
  0
SCALE
  5
13B
102
{ACAD_REACTORS
330
B6
102
}
330
B6
100
AcDbScale
 70
     0
300
1/4" = 1'-0"
140
0.25
141
12.0
290
     0
  0
SCALE
  5
13C
102
{ACAD_REACTORS
330
B6
102
}
330
B6
100
AcDbScale
 70
     0
300
3/8" = 1'-0"
140
0.375
141
12.0
290
     0
  0
SCALE
  5
13D
102
{ACAD_REACTORS
330
B6
102
}
330
B6
100
AcDbScale
 70
     0
300
1/2" = 1'-0"
140
0.5
141
12.0
290
     0
  0
SCALE
  5
13E
102
{ACAD_REACTORS
330
B6
102
}
330
B6
100
AcDbScale
 70
     0
300
3/4" = 1'-0"
140
0.75
141
12.0
290
     0
  0
SCALE
  5
13F
102
{ACAD_REACTORS
330
B6
102
}
330
B6
100
AcDbScale
 70
     0
300
1" = 1'-0"
140
1.0
141
12.0
290
     0
  0
SCALE
  5
140
102
{ACAD_REACTORS
330
B6
102
}
330
B6
100
AcDbScale
 70
     0
300
1-1/2" = 1'-0"
140
1.5
141
12.0
290
     0
  0
SCALE
  5
141
102
{ACAD_REACTORS
330
B6
102
}
330
B6
100
AcDbScale
 70
     0
300
3" = 1'-0"
140
3.0
141
12.0
290
     0
  0
SCALE
  5
142
102
{ACAD_REACTORS
330
B6
102
}
330
B6
100
AcDbScale
 70
     0
300
6" = 1'-0"
140
6.0
141
12.0
290
     0
  0
SCALE
  5
143
102
{ACAD_REACTORS
330
B6
102
}
330
B6
100
AcDbScale
 70
     0
300
1'-0" = 1'-0"
140
12.0
141
12.0
290
     0
  0
ACDBSECTIONVIEWSTYLE
  5
1AA
102
{ACAD_XDICTIONARY
360
1288
102
}
102
{ACAD_REACTORS
330
1A8
102
}
330
1A8
100
AcDbModelDocViewStyle
 70
     0
  3
Imperial24
290
     0
100
AcDbSectionViewStyle
 70
     0
 71
     0
 90
       78
 71
     1
340
11
 40
0.24
340
0
340
0
 40
0.24
300
I, O, Q, S, X, Z
 40
0.48
 90
        3
 40
0.18
 90
        1
 71
     2
340
16
 90
       25
340
16
 90
       50
 40
0.24
 40
0.0
 40
0.24
 71
     3
340
11
 40
0.24
 90
        1
 40
0.75
 90
        1
300
%<\AcVar ViewType \f "%tc1">% %<\AcVar ViewSectionStartId>%-%<\AcVar ViewSectionEndId>%\PSCALE %<\AcVar ViewScale \f "%sn">%
 71
     4
300
ANSI31
 40
1.0
 90
        0
290
     0
290
     0
 90
        6
 40
0.0
 40
1.570796326794896
 40
0.2617993877991494
 40
1.308996938995747
 40
-0.2617993877991494
 40
1.832595714594046
  0
TABLESTYLE
  5
87
102
{ACAD_XDICTIONARY
360
104
102
}
102
{ACAD_REACTORS
330
86
102
}
330
86
100
AcDbTableStyle
  3
Standard
 70
     0
 71
     0
 40
0.06
 41
0.06
280
     0
281
     0
  7
Standard
140
0.18
170
     2
 62
     0
 63
     7
283
     0
274
    -2
284
     1
 64
     0
275
    -2
285
     1
 65
     0
276
    -2
286
     1
 66
     0
277
    -2
287
     1
 67
     0
278
    -2
288
     1
 68
     0
279
    -2
289
     1
 69
     0
  7
Standard
140
0.25
170
     5
 62
     0
 63
     7
283
     0
274
    -2
284
     1
 64
     0
275
    -2
285
     1
 65
     0
276
    -2
286
     1
 66
     0
277
    -2
287
     1
 67
     0
278
    -2
288
     1
 68
     0
279
    -2
289
     1
 69
     0
  7
Standard
140
0.18
170
     5
 62
     0
 63
     7
283
     0
274
    -2
284
     1
 64
     0
275
    -2
285
     1
 65
     0
276
    -2
286
     1
 66
     0
277
    -2
287
     1
 67
     0
278
    -2
288
     1
 68
     0
279
    -2
289
     1
 69
     0
  0
VISUALSTYLE
  5
9F
102
{ACAD_XDICTIONARY
360
1260
102
}
102
{ACAD_REACTORS
330
99
102
}
330
99
100
AcDbVisualStyle
  2
2dWireframe
 70
     4
 71
     0
 72
     2
 73
     1
 90
        0
 40
-0.6
 41
-30.0
 62
     5
 63
     7
 74
     1
 91
        4
 64
     7
 65
   257
 75
     1
175
     1
 42
1.0
 92
        0
 66
   257
 43
1.0
 76
     1
 77
     6
 78
     2
 67
     7
 79
     5
170
     0
171
     0
290
     0
174
     0
 93
        1
 44
0.0
173
     0
291
     0
 45
0.0
1001
ACAD
1000
AcDbSavedByObjectVersion
1070
     0
  0
VISUALSTYLE
  5
9E
102
{ACAD_XDICTIONARY
360
125E
102
}
102
{ACAD_REACTORS
330
99
102
}
330
99
100
AcDbVisualStyle
  2
Basic
 70
     7
 71
     1
 72
     0
 73
     1
 90
        0
 40
-0.6
 41
-30.0
 62
     5
 63
     7
 74
     0
 91
        4
 64
     7
 65
   257
 75
     1
175
     1
 42
1.0
 92
        8
 66
     7
 43
1.0
 76
     1
 77
     6
 78
     2
 67
     7
 79
     5
170
     0
171
     0
290
     0
174
     0
 93
        1
 44
0.0
173
     0
291
     1
 45
0.0
1001
ACAD
1000
AcDbSavedByObjectVersion
1070
     0
  0
VISUALSTYLE
  5
A5
102
{ACAD_XDICTIONARY
360
126C
102
}
102
{ACAD_REACTORS
330
99
102
}
330
99
100
AcDbVisualStyle
  2
Brighten
 70
    12
 71
     2
 72
     2
 73
     1
 90
        0
 40
-0.6
 41
-30.0
 62
     5
 63
     7
 74
     1
 91
        4
 64
     7
 65
   257
 75
     1
175
     1
 42
1.0
 92
        8
 66
     7
 43
1.0
 76
     1
 77
     6
 78
     2
 67
     7
 79
     5
170
     0
171
     0
290
     0
174
     0
 93
        1
 44
50.0
173
     0
291
     1
 45
0.0
1001
ACAD
1000
AcDbSavedByObjectVersion
1070
     0
  0
VISUALSTYLE
  5
A9
102
{ACAD_XDICTIONARY
360
1274
102
}
102
{ACAD_REACTORS
330
99
102
}
330
99
100
AcDbVisualStyle
  2
ColorChange
 70
    16
 71
     2
 72
     2
 73
     3
 90
        0
 40
-0.6
 41
-30.0
 62
     5
 63
     8
 74
     1
 91
        4
 64
     7
 65
   257
 75
     1
175
     1
 42
1.0
 92
        8
 66
     8
 43
1.0
 76
     1
 77
     6
 78
     2
 67
     7
 79
     5
170
     0
171
     0
290
     0
174
     0
 93
        1
 44
0.0
173
     0
291
     1
 45
0.0
1001
ACAD
1000
AcDbSavedByObjectVersion
1070
     0
  0
VISUALSTYLE
  5
A2
102
{ACAD_XDICTIONARY
360
1266
102
}
102
{ACAD_REACTORS
330
99
102
}
330
99
100
AcDbVisualStyle
  2
Conceptual
 70
     9
 71
     3
 72
     2
 73
     1
 90
        0
 40
-0.6
 41
-30.0
 62
     5
 63
     7
 74
     2
 91
        2
 64
     7
 65
   257
 75
     1
175
     1
 42
40.0
 92
        8
 66
     7
 43
1.0
 76
     1
 77
     6
 78
     2
 67
     7
 79
     3
170
     0
171
     0
290
     0
174
     0
 93
        1
 44
0.0
173
     0
291
     0
 45
0.0
1001
ACAD
1000
AcDbSavedByObjectVersion
1070
     0
  0
VISUALSTYLE
  5
A4
102
{ACAD_XDICTIONARY
360
126A
102
}
102
{ACAD_REACTORS
330
99
102
}
330
99
100
AcDbVisualStyle
  2
Dim
 70
    11
 71
     2
 72
     2
 73
     1
 90
        0
 40
-0.6
 41
-30.0
 62
     5
 63
     7
 74
     1
 91
        4
 64
     7
 65
   257
 75
     1
175
     1
 42
1.0
 92
        8
 66
     7
 43
1.0
 76
     1
 77
     6
 78
     2
 67
     7
 79
     5
170
     0
171
     0
290
     0
174
     0
 93
        1
 44
-50.0
173
     0
291
     1
 45
0.0
1001
ACAD
1000
AcDbSavedByObjectVersion
1070
     0
  0
VISUALSTYLE
  5
175
102
{ACAD_XDICTIONARY
360
127C
102
}
102
{ACAD_REACTORS
330
99
102
}
330
99
100
AcDbVisualStyle
  2
EdgeColorOff
 70
    22
 71
     2
 72
     2
 73
     0
 90
        0
 40
-0.6
 41
-30.0
 62
     5
 63
     7
 74
     1
 91
        4
 64
     7
 65
   257
 75
     1
175
     1
 42
1.0
 92
        8
 66
     7
 43
1.0
 76
     1
 77
     6
 78
     2
 67
     7
 79
     5
170
     0
171
     0
290
     0
174
     0
 93
        1
 44
0.0
173
     0
291
     1
 45
0.0
1001
ACAD
1000
AcDbSavedByObjectVersion
1070
     0
  0
VISUALSTYLE
  5
A8
102
{ACAD_XDICTIONARY
360
1272
102
}
102
{ACAD_REACTORS
330
99
102
}
330
99
100
AcDbVisualStyle
  2
Facepattern
 70
    15
 71
     2
 72
     2
 73
     1
 90
        0
 40
-0.6
 41
-30.0
 62
     5
 63
     7
 74
     1
 91
        4
 64
     7
 65
   257
 75
     1
175
     1
 42
1.0
 92
        8
 66
     7
 43
1.0
 76
     1
 77
     6
 78
     2
 67
     7
 79
     5
170
     0
171
     0
290
     0
174
     0
 93
        1
 44
0.0
173
     0
291
     1
 45
0.0
1001
ACAD
1000
AcDbSavedByObjectVersion
1070
     0
  0
VISUALSTYLE
  5
9A
102
{ACAD_XDICTIONARY
360
1256
102
}
102
{ACAD_REACTORS
330
99
102
}
330
99
100
AcDbVisualStyle
  2
Flat
 70
     0
 71
     2
 72
     1
 73
     1
 90
        2
 40
-0.6
 41
30.0
 62
     5
 63
     7
 74
     0
 91
        0
 64
     7
 65
   257
 75
     1
175
     1
 42
1.0
 92
        8
 66
     7
 43
1.0
 76
     1
 77
     6
 78
     2
 67
     7
 79
     5
170
     0
171
     0
290
     0
174
     0
 93
       13
 44
0.0
173
     0
291
     1
 45
0.0
1001
ACAD
1000
AcDbSavedByObjectVersion
1070
     0
  0
VISUALSTYLE
  5
9B
102
{ACAD_XDICTIONARY
360
1258
102
}
102
{ACAD_REACTORS
330
99
102
}
330
99
100
AcDbVisualStyle
  2
FlatWithEdges
 70
     1
 71
     2
 72
     1
 73
     1
 90
        2
 40
-0.6
 41
30.0
 62
     5
 63
     7
 74
     1
 91
        0
 64
     7
 65
   257
 75
     1
175
     1
 42
1.0
 92
        0
 66
   257
 43
1.0
 76
     1
 77
     6
 78
     2
 67
     7
 79
     5
170
     0
171
     0
290
     0
174
     0
 93
       13
 44
0.0
173
     0
291
     1
 45
0.0
1001
ACAD
1000
AcDbSavedByObjectVersion
1070
     0
  0
VISUALSTYLE
  5
9C
102
{ACAD_XDICTIONARY
360
125A
102
}
102
{ACAD_REACTORS
330
99
102
}
330
99
100
AcDbVisualStyle
  2
Gouraud
 70
     2
 71
     2
 72
     2
 73
     1
 90
        2
 40
-0.6
 41
30.0
 62
     5
 63
     7
 74
     0
 91
        0
 64
     7
 65
   257
 75
     1
175
     1
 42
1.0
 92
        0
 66
     7
 43
1.0
 76
     1
 77
     6
 78
     2
 67
     7
 79
     5
170
     0
171
     0
290
     0
174
     0
 93
       13
 44
0.0
173
     0
291
     1
 45
0.0
1001
ACAD
1000
AcDbSavedByObjectVersion
1070
     0
  0
VISUALSTYLE
  5
9D
102
{ACAD_XDICTIONARY
360
125C
102
}
102
{ACAD_REACTORS
330
99
102
}
330
99
100
AcDbVisualStyle
  2
GouraudWithEdges
 70
     3
 71
     2
 72
     2
 73
     1
 90
        2
 40
-0.6
 41
30.0
 62
     5
 63
     7
 74
     1
 91
        0
 64
     7
 65
   257
 75
     1
175
     1
 42
1.0
 92
        0
 66
   257
 43
1.0
 76
     1
 77
     6
 78
     2
 67
     7
 79
     5
170
     0
171
     0
290
     0
174
     0
 93
       13
 44
0.0
173
     0
291
     1
 45
0.0
1001
ACAD
1000
AcDbSavedByObjectVersion
1070
     0
  0
VISUALSTYLE
  5
A1
102
{ACAD_XDICTIONARY
360
1264
102
}
102
{ACAD_REACTORS
330
99
102
}
330
99
100
AcDbVisualStyle
  2
Hidden
 70
     6
 71
     1
 72
     2
 73
     2
 90
        0
 40
-0.6
 41
-30.0
 62
     5
 63
     7
 74
     2
 91
        2
 64
     7
 65
   257
 75
     2
175
     1
 42
40.0
 92
        0
 66
   257
 43
1.0
 76
     1
 77
     6
 78
     2
 67
     7
 79
     3
170
     0
171
     0
290
     0
174
     0
 93
        1
 44
0.0
173
     0
291
     0
 45
0.0
1001
ACAD
1000
AcDbSavedByObjectVersion
1070
     0
  0
VISUALSTYLE
  5
173
102
{ACAD_XDICTIONARY
360
1278
102
}
102
{ACAD_REACTORS
330
99
102
}
330
99
100
AcDbVisualStyle
  2
JitterOff
 70
    20
 71
     2
 72
     2
 73
     0
 90
        0
 40
-0.6
 41
-30.0
 62
     5
 63
     7
 74
     1
 91
        4
 64
     7
 65
   257
 75
     1
175
     1
 42
1.0
 92
       10
 66
     7
 43
1.0
 76
     1
 77
     6
 78
     2
 67
     7
 79
     5
170
     0
171
     0
290
     0
174
     0
 93
        1
 44
0.0
173
     0
291
     1
 45
0.0
1001
ACAD
1000
AcDbSavedByObjectVersion
1070
     0
  0
VISUALSTYLE
  5
A7
102
{ACAD_XDICTIONARY
360
1270
102
}
102
{ACAD_REACTORS
330
99
102
}
330
99
100
AcDbVisualStyle
  2
Linepattern
 70
    14
 71
     2
 72
     2
 73
     1
 90
        0
 40
-0.6
 41
-30.0
 62
     5
 63
     7
 74
     1
 91
        4
 64
     7
 65
   257
 75
     7
175
     7
 42
1.0
 92
        8
 66
     7
 43
1.0
 76
     1
 77
     6
 78
     2
 67
     7
 79
     5
170
     0
171
     0
290
     0
174
     0
 93
        1
 44
0.0
173
     0
291
     1
 45
0.0
1001
ACAD
1000
AcDbSavedByObjectVersion
1070
     0
  0
VISUALSTYLE
  5
174
102
{ACAD_XDICTIONARY
360
127A
102
}
102
{ACAD_REACTORS
330
99
102
}
330
99
100
AcDbVisualStyle
  2
OverhangOff
 70
    21
 71
     2
 72
     2
 73
     0
 90
        0
 40
-0.6
 41
-30.0
 62
     5
 63
     7
 74
     1
 91
        4
 64
     7
 65
   257
 75
     1
175
     1
 42
1.0
 92
        9
 66
     7
 43
1.0
 76
     1
 77
     6
 78
     2
 67
     7
 79
     5
170
     0
171
     0
290
     0
174
     0
 93
        1
 44
0.0
173
     0
291
     1
 45
0.0
1001
ACAD
1000
AcDbSavedByObjectVersion
1070
     0
  0
VISUALSTYLE
  5
A3
102
{ACAD_XDICTIONARY
360
1268
102
}
102
{ACAD_REACTORS
330
99
102
}
330
99
100
AcDbVisualStyle
  2
Realistic
 70
     8
 71
     2
 72
     2
 73
     0
 90
        2
 40
-0.6
 41
30.0
 62
     5
 63
     7
 74
     0
 91
        0
 64
     7
 65
   257
 75
     1
175
     1
 42
1.0
 92
        8
 66
   257
 43
1.0
 76
     1
 77
     6
 78
     2
 67
     7
 79
     3
170
     0
171
     0
290
     0
174
     0
 93
       13
 44
0.0
173
     0
291
     0
 45
0.0
1001
ACAD
1000
AcDbSavedByObjectVersion
1070
     0
  0
VISUALSTYLE
  5
182
102
{ACAD_XDICTIONARY
360
1286
102
}
102
{ACAD_REACTORS
330
99
102
}
330
99
100
AcDbVisualStyle
  2
Shaded
 70
    27
 71
     2
 72
     2
 73
     1
 90
        2
 40
-0.6
 41
30.0
 62
     5
 63
     7
 74
     0
 91
        4
 64
     7
 65
   257
 75
     1
175
     1
 42
1.0
 92
        8
 66
   257
 43
1.0
 76
     1
 77
     6
 78
     2
 67
     8
 79
     3
170
     0
171
     0
290
     0
174
     0
 93
        5
 44
0.0
173
     0
291
     0
 45
0.0
1001
ACAD
1000
AcDbSavedByObjectVersion
1070
     0
  0
VISUALSTYLE
  5
181
102
{ACAD_XDICTIONARY
360
1284
102
}
102
{ACAD_REACTORS
330
99
102
}
330
99
100
AcDbVisualStyle
  2
Shaded with edges
 70
    26
 71
     2
 72
     2
 73
     1
 90
        2
 40
-0.6
 41
30.0
 62
     5
 63
     7
 74
     1
 91
        2
 64
     7
 65
   257
 75
     2
175
     1
 42
1.0
 92
        8
 66
   257
 43
1.0
 76
     1
 77
     6
 78
     2
 67
     7
 79
     3
170
     0
171
     0
290
     0
174
     0
 93
        5
 44
0.0
173
     0
291
     0
 45
0.0
1001
ACAD
1000
AcDbSavedByObjectVersion
1070
     0
  0
VISUALSTYLE
  5
17E
102
{ACAD_XDICTIONARY
360
127E
102
}
102
{ACAD_REACTORS
330
99
102
}
330
99
100
AcDbVisualStyle
  2
Shades of Gray
 70
    23
 71
     2
 72
     2
 73
     3
 90
        0
 40
-0.6
 41
-30.0
 62
     5
 63
     7
 74
     2
 91
        2
 64
     7
 65
     7
 75
     1
175
     1
 42
40.0
 92
        8
 66
     7
 43
1.0
 76
     1
 77
     6
 78
     2
 67
     7
 79
     3
170
     0
171
     0
290
     0
174
     0
 93
        1
 44
0.0
173
     0
291
     0
 45
0.0
1001
ACAD
1000
AcDbSavedByObjectVersion
1070
     0
  0
VISUALSTYLE
  5
17F
102
{ACAD_XDICTIONARY
360
1280
102
}
102
{ACAD_REACTORS
330
99
102
}
330
99
100
AcDbVisualStyle
  2
Sketchy
 70
    24
 71
     1
 72
     2
 73
     2
 90
        0
 40
-0.6
 41
-30.0
 62
     5
 63
     7
 74
     2
 91
        2
 64
     7
 65
     7
 75
     1
175
     1
 42
40.0
 92
       11
 66
     7
 43
1.0
 76
     1
 77
     6
 78
     2
 67
     7
 79
     6
170
     0
171
     0
290
     0
174
     0
 93
        1
 44
0.0
173
     0
291
     0
 45
0.0
1001
ACAD
1000
AcDbSavedByObjectVersion
1070
     0
  0
VISUALSTYLE
  5
A6
102
{ACAD_XDICTIONARY
360
126E
102
}
102
{ACAD_REACTORS
330
99
102
}
330
99
100
AcDbVisualStyle
  2
Thicken
 70
    13
 71
     2
 72
     2
 73
     1
 90
        0
 40
-0.6
 41
-30.0
 62
     5
 63
     7
 74
     1
 91
        4
 64
     7
 65
   257
 75
     1
175
     1
 42
1.0
 92
       12
 66
     7
 43
1.0
 76
     1
 77
     6
 78
     2
 67
     7
 79
     5
170
     0
171
     0
290
     0
174
     0
 93
        1
 44
0.0
173
     0
291
     1
 45
0.0
1001
ACAD
1000
AcDbSavedByObjectVersion
1070
     0
  0
VISUALSTYLE
  5
A0
102
{ACAD_XDICTIONARY
360
1262
102
}
102
{ACAD_REACTORS
330
99
102
}
330
99
100
AcDbVisualStyle
  2
Wireframe
 70
     5
 71
     0
 72
     2
 73
     0
 90
        0
 40
-0.6
 41
-30.0
 62
     5
 63
     7
 74
     1
 91
        4
 64
     7
 65
   257
 75
     1
175
     1
 42
1.0
 92
        0
 66
   257
 43
1.0
 76
     1
 77
     6
 78
     2
 67
     7
 79
     3
170
     0
171
     0
290
     0
174
     0
 93
        1
 44
0.0
173
     0
291
     0
 45
0.0
1001
ACAD
1000
AcDbSavedByObjectVersion
1070
     0
  0
VISUALSTYLE
  5
180
102
{ACAD_XDICTIONARY
360
1282
102
}
102
{ACAD_REACTORS
330
99
102
}
330
99
100
AcDbVisualStyle
  2
X-Ray
 70
    25
 71
     2
 72
     2
 73
     1
 90
        1
 40
0.5
 41
-30.0
 62
     5
 63
     7
 74
     1
 91
        0
 64
     7
 65
   257
 75
     1
175
     1
 42
1.0
 92
        8
 66
     7
 43
1.0
 76
     1
 77
     6
 78
     2
 67
     7
 79
     3
170
     0
171
     0
290
     0
174
     0
 93
       13
 44
0.0
173
     0
291
     0
 45
0.0
1001
ACAD
1000
AcDbSavedByObjectVersion
1070
     0
  0
DICTIONARYVAR
  5
F0
102
{ACAD_REACTORS
330
66
102
}
330
66
100
DictionaryVariables
280
     0
  1
1:1
  0
DICTIONARYVAR
  5
EF
102
{ACAD_REACTORS
330
66
102
}
330
66
100
DictionaryVariables
280
     0
  1
STANDARD
  0
DICTIONARYVAR
  5
89
102
{ACAD_REACTORS
330
66
102
}
330
66
100
DictionaryVariables
280
     0
  1
STANDARD
  0
DICTIONARYVAR
  5
1B7
102
{ACAD_REACTORS
330
66
102
}
330
66
100
DictionaryVariables
280
     0
  1
Imperial24
  0
DICTIONARYVAR
  5
1B8
102
{ACAD_REACTORS
330
66
102
}
330
66
100
DictionaryVariables
280
     0
  1
Imperial24
  0
DICTIONARYVAR
  5
67
102
{ACAD_REACTORS
330
66
102
}
330
66
100
DictionaryVariables
280
     0
  1
2
  0
DICTIONARYVAR
  5
6B
102
{ACAD_REACTORS
330
66
102
}
330
66
100
DictionaryVariables
280
     0
  1
1
  0
DICTIONARYVAR
  5
11FD
102
{ACAD_REACTORS
330
66
102
}
330
66
100
DictionaryVariables
280
     0
  1
0
  0
DICTIONARYVAR
  5
14D
102
{ACAD_REACTORS
330
66
102
}
330
66
100
DictionaryVariables
280
     0
  1
0
  0
DICTIONARYVAR
  5
14E
102
{ACAD_REACTORS
330
66
102
}
330
66
100
DictionaryVariables
280
     0
  1
0
  0
DICTIONARYVAR
  5
11FB
102
{ACAD_REACTORS
330
66
102
}
330
66
100
DictionaryVariables
280
     0
  1
2
  0
DICTIONARYVAR
  5
11FA
102
{ACAD_REACTORS
330
66
102
}
330
66
100
DictionaryVariables
280
     0
  1
1
  0
DICTIONARYVAR
  5
11FC
102
{ACAD_REACTORS
330
66
102
}
330
66
100
DictionaryVariables
280
     0
  1
127
  0
DICTIONARYVAR
  5
1248
102
{ACAD_REACTORS
330
66
102
}
330
66
100
DictionaryVariables
280
     0
  1
2
  0
DICTIONARY
  5
128A
330
1AC
100
AcDbDictionary
280
     1
281
     1
  3
ACAD_XREC_ROUNDTRIP
360
128B
  0
DICTIONARY
  5
124E
330
59
100
AcDbDictionary
280
     1
281
     1
  3
ACAD_XREC_ROUNDTRIP
360
124F
  0
DICTIONARY
  5
1250
330
5E
100
AcDbDictionary
280
     1
281
     1
  3
ACAD_XREC_ROUNDTRIP
360
1251
  0
DICTIONARY
  5
124C
330
22
100
AcDbDictionary
280
     1
281
     1
  3
ACAD_XREC_ROUNDTRIP
360
124D
  0
DICTIONARY
  5
188
330
97
100
AcDbDictionary
280
     1
281
     1
  3
ACAD_XREC_ROUNDTRIP
360
1254
  3
FBXASSET
360
189
  0
DICTIONARY
  5
186
330
96
100
AcDbDictionary
280
     1
281
     1
  3
ACAD_XREC_ROUNDTRIP
360
1253
  3
FBXASSET
360
187
  0
DICTIONARY
  5
110
330
98
100
AcDbDictionary
280
     1
281
     1
  3
ACAD_XREC_ROUNDTRIP
360
1255
  3
BUMPTILE
360
112
  3
DIFFUSETILE
360
111
  3
FBXASSET
360
18A
  3
OPACITYTILE
360
113
  3
REFLECTIONTILE
360
114
  0
DICTIONARY
  5
1276
330
D8
100
AcDbDictionary
280
     1
281
     1
  3
ACAD_XREC_ROUNDTRIP
360
1277
  0
DICTIONARY
  5
1288
330
1AA
100
AcDbDictionary
280
     1
281
     1
  3
ACAD_XREC_ROUNDTRIP
360
1289
  0
DICTIONARY
  5
104
330
87
100
AcDbDictionary
280
     1
281
     1
  3
ACAD_ROUNDTRIP_2008_TABLESTYLE_CELLSTYLEMAP
360
1249
  3
ACAD_XREC_ROUNDTRIP
360
1252
  0
DICTIONARY
  5
1260
330
9F
100
AcDbDictionary
280
     1
281
     1
  3
ACAD_XREC_ROUNDTRIP
360
1261
  0
DICTIONARY
  5
125E
330
9E
100
AcDbDictionary
280
     1
281
     1
  3
ACAD_XREC_ROUNDTRIP
360
125F
  0
DICTIONARY
  5
126C
330
A5
100
AcDbDictionary
280
     1
281
     1
  3
ACAD_XREC_ROUNDTRIP
360
126D
  0
DICTIONARY
  5
1274
330
A9
100
AcDbDictionary
280
     1
281
     1
  3
ACAD_XREC_ROUNDTRIP
360
1275
  0
DICTIONARY
  5
1266
330
A2
100
AcDbDictionary
280
     1
281
     1
  3
ACAD_XREC_ROUNDTRIP
360
1267
  0
DICTIONARY
  5
126A
330
A4
100
AcDbDictionary
280
     1
281
     1
  3
ACAD_XREC_ROUNDTRIP
360
126B
  0
DICTIONARY
  5
127C
330
175
100
AcDbDictionary
280
     1
281
     1
  3
ACAD_XREC_ROUNDTRIP
360
127D
  0
DICTIONARY
  5
1272
330
A8
100
AcDbDictionary
280
     1
281
     1
  3
ACAD_XREC_ROUNDTRIP
360
1273
  0
DICTIONARY
  5
1256
330
9A
100
AcDbDictionary
280
     1
281
     1
  3
ACAD_XREC_ROUNDTRIP
360
1257
  0
DICTIONARY
  5
1258
330
9B
100
AcDbDictionary
280
     1
281
     1
  3
ACAD_XREC_ROUNDTRIP
360
1259
  0
DICTIONARY
  5
125A
330
9C
100
AcDbDictionary
280
     1
281
     1
  3
ACAD_XREC_ROUNDTRIP
360
125B
  0
DICTIONARY
  5
125C
330
9D
100
AcDbDictionary
280
     1
281
     1
  3
ACAD_XREC_ROUNDTRIP
360
125D
  0
DICTIONARY
  5
1264
330
A1
100
AcDbDictionary
280
     1
281
     1
  3
ACAD_XREC_ROUNDTRIP
360
1265
  0
DICTIONARY
  5
1278
330
173
100
AcDbDictionary
280
     1
281
     1
  3
ACAD_XREC_ROUNDTRIP
360
1279
  0
DICTIONARY
  5
1270
330
A7
100
AcDbDictionary
280
     1
281
     1
  3
ACAD_XREC_ROUNDTRIP
360
1271
  0
DICTIONARY
  5
127A
330
174
100
AcDbDictionary
280
     1
281
     1
  3
ACAD_XREC_ROUNDTRIP
360
127B
  0
DICTIONARY
  5
1268
330
A3
100
AcDbDictionary
280
     1
281
     1
  3
ACAD_XREC_ROUNDTRIP
360
1269
  0
DICTIONARY
  5
1286
330
182
100
AcDbDictionary
280
     1
281
     1
  3
ACAD_XREC_ROUNDTRIP
360
1287
  0
DICTIONARY
  5
1284
330
181
100
AcDbDictionary
280
     1
281
     1
  3
ACAD_XREC_ROUNDTRIP
360
1285
  0
DICTIONARY
  5
127E
330
17E
100
AcDbDictionary
280
     1
281
     1
  3
ACAD_XREC_ROUNDTRIP
360
127F
  0
DICTIONARY
  5
1280
330
17F
100
AcDbDictionary
280
     1
281
     1
  3
ACAD_XREC_ROUNDTRIP
360
1281
  0
DICTIONARY
  5
126E
330
A6
100
AcDbDictionary
280
     1
281
     1
  3
ACAD_XREC_ROUNDTRIP
360
126F
  0
DICTIONARY
  5
1262
330
A0
100
AcDbDictionary
280
     1
281
     1
  3
ACAD_XREC_ROUNDTRIP
360
1263
  0
DICTIONARY
  5
1282
330
180
100
AcDbDictionary
280
     1
281
     1
  3
ACAD_XREC_ROUNDTRIP
360
1283
  0
XRECORD
  5
128B
102
{ACAD_REACTORS
330
128A
102
}
330
128A
100
AcDbXrecord
280
     1
102
DISPLAYNAME
  1
Imperial24
102
FLAGS
 90
        0
  0
XRECORD
  5
124F
102
{ACAD_REACTORS
330
124E
102
}
330
124E
100
AcDbXrecord
280
     1
102
SHADEPLOT
 70
     0
102
SHADEPLOTRESLEVEL
 70
     2
102
SHADEPLOTCUSTOMDPI
 70
   300
  0
XRECORD
  5
1251
102
{ACAD_REACTORS
330
1250
102
}
330
1250
100
AcDbXrecord
280
     1
102
SHADEPLOT
 70
     0
102
SHADEPLOTRESLEVEL
 70
     2
102
SHADEPLOTCUSTOMDPI
 70
   300
  0
XRECORD
  5
124D
102
{ACAD_REACTORS
330
124C
102
}
330
124C
100
AcDbXrecord
280
     1
102
SHADEPLOT
 70
     0
102
SHADEPLOTRESLEVEL
 70
     2
102
SHADEPLOTCUSTOMDPI
 70
   300
  0
XRECORD
  5
1254
102
{ACAD_REACTORS
330
188
102
}
330
188
100
AcDbXrecord
280
     1
102
MATERIAL
148
0.0
149
0.0
149
0.0
 93
        0
 94
       63
282
     0
 72
     1
 77
     1
171
     1
175
     1
179
     1
273
     0
  0
XRECORD
  5
189
102
{ACAD_REACTORS
330
188
102
}
330
188
100
AcDbXrecord
280
     1
 70
     1
 90
429727718
  1
508B35C9-AEE7-456F-BE74-D52651303AC6
310
504B03040A0000080000B670623B3DEE336E79000000790000001B0000006175746F6465736B2D64657369676E2D7061636B6167652E786D6C3C3F786D6C2076657273696F6E3D22312E302220656E636F64696E673D227574662D3822203F3E3C666F726D6174733E3C666F726D61743E687474703A2F2F736368656D612E
310
6175746F6465736B2E636F6D2F64657369676E2D7061636B6167652F323030393C2F666F726D61743E3C2F666F726D6174733E504B0304140006080800B670623BD486FD9CA0000000F4000000130000005B436F6E74656E745F54797065735D2E786D6C7D8EC10E82300C865F65E91D8A1E8C310C0EEA1BF002731658846E
310
D98AC1B77784ABF1D8FE5FBFBF75BBCE937A534CCEB38643598122B6FEE978D0B0485F9C41B54DDD7D022595594E1A469170414C76A4D9A4D207E29CF43ECE46F218070CC6BECC4078ACAA135ACF422C856C0E68EA1BF5669944DDD7BCDE7B1F8E415D77AECB980613C2E4AC91FC167A2B244592486606FC29C8FD7F045B9A
310
EF7053A7E60B504B0304140006080800B670623B28ED286BEB0000007C01000008000000636F72652E786D6C8D90416EC3201045AF82665B6183218D6D61A254764FD00B204C5C94182C03558F5F9C3852BBEB6A467FFE9B197D71FA9E6FE8CBACC17AD7012D0820E3B41FAD9B3A48F1826B40272956EFE32F1B20A766D3C1
310
268314D3EAD3B24BDABB685CCCAAF3A3D94515828980F42D371D04FD696655A814B3235C8B45E9AB9A4C419F5D8653B2237A1CB163DE672FD6AC209BF3C08E0D1B30EB19C3FC9D72FCC6EB231EFA33EDE96BDD341517E5064B11EDFCBCAF57A3A2194156843498524CAA0FCA5B7268F9E185D42D21A2DCEC7FA0B48CFF8492
310
759155FBBB0F2C80A4F991FB408A72CB22977B50B96EB9C91F504B0304140006080800B670623B55019EA25F0000007C00000007000000636E782E786D6C4DCB3B0E80201045D1AD90E915ED2CF8AC45050C11660C8261F98AB1B07AC9C97D42D718D865D3E909258CFD00CCE24AC6E326A164D74DC0B4128928FF32603847
310
2BA13128B1252AC747C6BAB984FC68F0B87FE8960A5C09FE86CFB69FBA01504B0304140006080800B670623B7BC41AC871010000D40300000C0000006662782F636F72652E786D6CC553ED6E8320147D15C2DF4501B56B6D90A64BBB27D80B50A5CE54C120983EFEAE1F4DD7A56BBA5FF3879273EEE59E7310BE393735EA95
310
ED2AA333CC428A91D2B9292A5D66D8BB63B0C26823B835C67D2BC348CB46657880B1E0A535BE9DA1DC68A7B403549B42CDA0EC3AE530CA6B5864B8CB3F552343E91D5474A7B095F949962A6421D0502778E72C0840D390E18DC5F170E664C205F7BE2A66B62A605A75AC94C522DDEEE3651AEF837817C741F2CE92E02D592D
310
83FD6ECB76EC7595A651C2C9D02CB8AB9A8BBADC2AE954814544691A3016D0E883256BBA58278B17BA5A53CAC9507ED3E4DBE2C9265F691747B3DCA9ADC382819091F8E1162272A8933DE82182932144F88C09DF060D8140C84E1EEA8B8F1340BDCA9DB1093085F157AA97B557309586747CD0EF0B4EA64E983A6E0EAEEFCE
310
889E9EF17847386AA94B30211D2C0FDE0D3AF9A4610EAD5536E8DD1969631B593F67E381C33F5157F17725E5A636F6BF1491F980C8FC7B90E13E8A2F504B0304140006080800B670623B70102A487D0000009D0000000B0000006662782F636E782E786D6C4DCCD10A83201886E15B91FFDC95A5C30335ACCDFB886521330D
310
A76397BF1A1DECE883878F57749FD5A3B74D2F17830472A901D9F088930B8B849267CC01754AA418F3DF0D5018572BE160506249B16C274D761E8BCFBB7A179E27F65CB39A0F14D396184C9921B81F34C3ACA1B4B99ABB6E6F062A25AA5F69DF23ACBE504B0304140006080800B670623B3610CA3329010000120200003100
310
00006662782F42384135303843342D343331462D343546312D424341352D3532343432364645413344462F636F72652E786D6C8D515B6EC32010BC0AE22B55850D0E446E848992B43E412FE000495162B07854397EA176A4F62F3F2C9A9D991D58BEBB8F37F0AD7D30CE76905418026DA553C65E3A98E219B510EC04F7CEC5
310
3F3408EC30EA0E16180A7EF12E4D0B249D8DDAC68C5AA7F4020E21E80881BCE54B0783FCD2E3500D296646B856D320AFC34557A4CAEDCC133C449F0380794839A138B47B86DB2345744D7A44594FD0E1B867883594369BFE63BF7EEF793D0B054FC9A8456E548E63CE46FB674D8A58F068C6477CE9F510B582A2C1F80D1182
310
70F349E816B32D65AFB8DD62CCEB42FF274A937A52948C8DEB66893BCB021484D7734370E5D2E9F608A3EF93F3119479ABA0E50B14B8C298119A43CCC4FCFCECB8A18B6388CEE7EF5D5D4F994BD86CBBA182D76543B9FCAE2FD7B24DF103504B0304140006080800B670623B1B8617914E0100003303000030000000666278
310
2F42384135303843342D343331462D343546312D424341352D3532343432364645413344462F636E782E786D6CD593C16EC32010447F0571AD6CE3D489D20813A9877E410FBD62D82434182CC055F3F75D1292E692438FBD206B7698593D61BEFD1E2DF982108D773D6D6B460938E5B571FB9ECE6957AD29D90A1EBC4F7736
310
4A9C1CA1A759A682EF839FA72269D8C9D92654AD71C72206887E0E0A22CAF926B15E498B01E0AA19451807D01A34B919F16B070157417138917400F2F6FA41FCF0092A45DEE414C19BDC21783E4BD39D891265658C3D8DEA00A3ACE59CBC8678ACB54CB26EEB6BD7839D7E9348BE70AD9C8321B9BCA7F9A4A26C542347DEE0
310
50F09802D22BA6749A800A394DD62899107273365E3C82CFC6A55557BC06C10774B7ABE7AEC3B0F34CF06446280E154026D0542C187BA9DAB6628BF7B6DBB0E5A65B3EB1F58631DE64BBE083F7B65CC218087E22CABB042E51D1F2268F1FE12B3EA24D40D63E9CFE00120194D60B9D5BC67FE6D39CDF37E20AF817881F504B
310
0304140006080800B670623BBFEF2E3B690500003C100000340000006662782F42384135303843342D343331462D343546312D424341352D3532343432364645413344462F6F626A656374732E786D6CAD575D739B3814FD2B0CFB0C98D84E931D4227B6938EA793B6534F3BFB90198F0099B001899144EAECAFDF231018B0
310
D37A3FFC609090EEE7B94757C1FB7D915B2F54C88CB31BDB7727B64559CC938CA53776A576CE956DBD0F03C1B9EA2DB32D460A7A63EB693B0C52C1ABD24C257447AA5C8D66EF177F5832A68CDA569C13296F6C193FD182B8A4523CA1F2D94D88226EBADBBBBEDB2C1C8A4D05299F46424B222853B014F30C52ACC6287F389C
310
D85E1878FA7B18E87FB36AFAF62AAFF667A83F635211161F291B8999FAB3D5DDC5FCDA99CF6653677679E13B8BFBC5CAF1DF4D27CBCBE5F2FAF6EE1A8AA51290642C117467871F101B91C581D77CEA2C36869F3229E68CD1B8F61F1ED6361B89092D294B90C78C4A68EB793D190E7D1D9BDEE7A91E1B95FDE9F3BCEAEFE809
310
6A6D6F9F7D4B79F4275C90E7A04248AA51D5C4C738DAE06F72885AC4796EBE65D22A88A22223B995679120E2D50EB1542F098381188D4EA111AE3DB043FF20AF6F2B4AE3D7D83D65E5AECA730D4D3BAC91BD05FEA992B565D95F549CD6069B90AB2A63EACA38A45E4B6A87D781574F86817E4C2FCCC72690D62E2729520E37
310
9BAF234797BAF6D62B3BFC781FED37BA1E4F2B2F052FA9501A3E80569BB8F6A9A364D4FA67654E6F803383981F82F21591FF84F23D9882BC896C3FDBCF8C162508933B2E0AE4C69DD43F6BD2BE38DDDBF10BF86CB4FA784D37F3AF16075E67EC9030DECA1FC0A55373F5DFF3378C591FA9BDF485C10B0A8C8BA909E5262639
310
A8E72163488806A595734C81CB77D1DE0ED7604A303B76913CEC0272F412782FF88EFF4636D8AA56DF7B322474C4B767303F625997056C7B032C473C592B36CEBD15F3F9FF5233B7ABCDC74D257624A60F8658567497B14CE1EC3C80B76FD02011038F9EE9EB0F2E12387A9C844D3F09855125116D1D731DF8B43D2CF4E0A0
310
79A020C6BE946BCE0B7EA1E1219331CD73C228AF5A2DDD31A4B1DA918CE91350854D40A71723140BFA92E94E62B0626016CEFA5864A50E5977E8753CEDBEE1CBB7F52780D20E17AF0BA0F5F9B02A3AD07DCC732EB6D1EBB661421BE0C39E21BABF0FE16D22EA6929407C8DE596724C88B749B6DB5512BC7B228ADFD7CB7EA6
310
3A22397E690BA8D5D8D4E40CEC8CDA23C2C0B7D5898640101CEC9C6D331CE328CB93CAFBBAC70A642DF70DF95155945B52F08AA973C23469FD69ADEF84F7BB18F983A8F8C90E37F5D35980B2139A1C523540813E824EF83448CF7C72B598CE97D7CEEDDDDD3B6736BFBC771677EF66CE6A7E7139F7A793E9EDF2B2B3A8B624
310
0CDA13AA5F8388264EC4A0129909F3B7F5A16CEDF08128E97D680ACA4B9BE7B7B58BB638F0B00700EF36AE8B32A705658A68F83EE897FC2B41573190D1CCAF0B92D233A47CFEB019D9809933F67DD1A5467F8CF69AD9A5AE859342D45355448C64F968A371DC2D596ADC6E43D93D1B466F877A64E2893E54F23C4B40388995
310
525E5005DA3983ED45412510D3EFCA13737B3863F74BD30F2A12E5B4B5E489A025CE25500DB855B11ACE5BBFA185D35DD48D8DC3CE7DC69F2944DB42AA6F6CF09BCA622ADD08C7A36E7C6AE18000BAB08E040135C2D21C9D75B3A91B77BB746C403F38018DFE6EC939DD92F16B40BC05294B9CDA035AAD6D330AE27FE4786B
310
8E45145EA34A75BE1C263A676A35A8ACC6297337400BF16C54EF515F3F77CB77EB3583889C754FFA29081AA98E2222ADEF05DA3E63D2EDEA8B8756C05A7FB6CABC4A91CBF325398202CC952E70A008A830324BA200D5E5EF8F5F04C75DB4B0EE3340E071C98B823333B83577596BF3849B69F2085AA0FAFA212F26BEFF5877
310
FDE622B28D88A42E49E43326DA82D31E8CB006401E1DA726059ECEC168F97A6599036306A135688F9AD2E61A6EA178F4CD51974A9F2CCB9F36FE5EBD14601068D9C3BF01504B0304140006080000B670623B000000000000000000000000350000006662782F42384135303843342D343331462D343546312D424341352D35
310
32343432364645413344462F76657274696365732E62696E504B0304140006080800B670623BF270F1330600000004000000360000006662782F42384135303843342D343331462D343546312D424341352D3532343432364645413344462F747269616E676C65732E62696E636660600000504B0304140006080000B67062
310
3B000000000000000000000000370000006662782F42384135303843342D343331462D343546312D424341352D3532343432364645413344462F617474726962757465732E62696E504B0304140006080800B670623B08DA0BD19000000041010000360000006662782F42384135303843342D343331462D343546312D4243
310
41352D3532343432364645413344462F6469726563746F72792E786D6C858F410AC3201045AF22B36F53E9A60B35CBEEBAE80D244E44489C6234F4F835464A48035D0DF398FF9F8AF63D0E6CC63039F212F8F9020C7D47C6792B21C5FE7403D62A1188E2E60C98D7234A5830286103A55745067B9D86B8A3CF9C7F90C11DE6
310
07FB144396D7B6A82D282E9A152AD114D5EF2CB866EEE831B8EEA07A7BB5A8D7D61A2BAAEB7FD5F70921FF497D00504B0304140006080800B670623B3B4606F3FE000000A00100003B0000006662782F42384135303843342D343331462D343546312D424341352D3532343432364645413344462F7265736F75726365732F
310
636F72652E786D6C8D504B6E833010BD0A9A6D65B08134808CA354A427E8052C332156828DFCA97AFC9A40A576D7CDCCE87D344F8F9FBEE647F689CE6B6B7A6039850C8DB2A336530F315C4903D94970676DF82583CCC8197B5861107C72362E3BA4AC096842428D1D7107A5F71820538F74F4E0D50D6799CB1892C2DFF345
310
AABB9C306779A2934E701F5C0A906D4FD609C2A1B7D129F4BCD858C163D4E3AED163FAA9AF1A1D88F67CA98E6D35906AA82A52BFB39ABCD5CD915C86331BD86BD3B665CD8BD52C78D0F34F46E550061C419494B6843142CB0F5677F4D0D58717DA7494F26295FF31C565FCA7296A13AA728FBBD93C0896823C09C18BB5AFB4
310
9E65A6BD762BBE01504B010214000A0000080000B670623B3DEE336E79000000790000001B00000000000000000000000000000000006175746F6465736B2D64657369676E2D7061636B6167652E786D6C504B01021400140006080800B670623BD486FD9CA0000000F40000001300000000000000000000000000B2000000
310
5B436F6E74656E745F54797065735D2E786D6C504B01021400140006080800B670623B28ED286BEB0000007C010000080000000000000000000000000083010000636F72652E786D6C504B01021400140006080800B670623B55019EA25F0000007C000000070000000000000000000000000094020000636E782E786D6C50
310
4B01021400140006080800B670623B7BC41AC871010000D40300000C00000000000000000000000000180300006662782F636F72652E786D6C504B01021400140006080800B670623B70102A487D0000009D0000000B00000000000000000000000000B30400006662782F636E782E786D6C504B01021400140006080800B6
310
70623B3610CA3329010000120200003100000000000000000000000000590500006662782F42384135303843342D343331462D343546312D424341352D3532343432364645413344462F636F72652E786D6C504B01021400140006080800B670623B1B8617914E010000330300003000000000000000000000000000D10600
310
006662782F42384135303843342D343331462D343546312D424341352D3532343432364645413344462F636E782E786D6C504B01021400140006080800B670623BBFEF2E3B690500003C10000034000000000000000000000000006D0800006662782F42384135303843342D343331462D343546312D424341352D35323434
310
32364645413344462F6F626A656374732E786D6C504B01021400140006080000B670623B0000000000000000000000003500000000000000000000000000280E00006662782F42384135303843342D343331462D343546312D424341352D3532343432364645413344462F76657274696365732E62696E504B010214001400
310
06080800B670623BF270F133060000000400000036000000000000000000000000007B0E00006662782F42384135303843342D343331462D343546312D424341352D3532343432364645413344462F747269616E676C65732E62696E504B01021400140006080000B670623B00000000000000000000000037000000000000
310
00000000000000D50E00006662782F42384135303843342D343331462D343546312D424341352D3532343432364645413344462F617474726962757465732E62696E504B01021400140006080800B670623B08DA0BD1900000004101000036000000000000000000000000002A0F00006662782F42384135303843342D3433
310
31462D343546312D424341352D3532343432364645413344462F6469726563746F72792E786D6C504B01021400140006080800B670623B3B4606F3FE000000A00100003B000000000000000000000000000E1000006662782F42384135303843342D343331462D343546312D424341352D3532343432364645413344462F72
310
65736F75726365732F636F72652E786D6C504B0506000000000E000E0080040000651100000000
  0
XRECORD
  5
1253
102
{ACAD_REACTORS
330
186
102
}
330
186
100
AcDbXrecord
280
     1
102
MATERIAL
148
0.0
149
0.0
149
0.0
 93
        0
 94
       63
282
     0
 72
     1
 77
     1
171
     1
175
     1
179
     1
273
     0
  0
XRECORD
  5
187
102
{ACAD_REACTORS
330
186
102
}
330
186
100
AcDbXrecord
280
     1
 70
     1
 90
429727718
  1
887D55A9-D0DD-414E-B741-A7DCD4DA2B4C
310
504B03040A0000080000B670623B3DEE336E79000000790000001B0000006175746F6465736B2D64657369676E2D7061636B6167652E786D6C3C3F786D6C2076657273696F6E3D22312E302220656E636F64696E673D227574662D3822203F3E3C666F726D6174733E3C666F726D61743E687474703A2F2F736368656D612E
310
6175746F6465736B2E636F6D2F64657369676E2D7061636B6167652F323030393C2F666F726D61743E3C2F666F726D6174733E504B0304140006080800B670623BD486FD9CA0000000F4000000130000005B436F6E74656E745F54797065735D2E786D6C7D8EC10E82300C865F65E91D8A1E8C310C0EEA1BF002731658846E
310
D98AC1B77784ABF1D8FE5FBFBF75BBCE937A534CCEB38643598122B6FEE978D0B0485F9C41B54DDD7D022595594E1A469170414C76A4D9A4D207E29CF43ECE46F218070CC6BECC4078ACAA135ACF422C856C0E68EA1BF5669944DDD7BCDE7B1F8E415D77AECB980613C2E4AC91FC167A2B244592486606FC29C8FD7F045B9A
310
EF7053A7E60B504B0304140006080800B670623BBC1638F5EC0000007C01000008000000636F72652E786D6C8D90416EC3201045AF82665B61836BE2D8C24471DB9CA01740401C94182C03558F5F9C3852BBEB6A467FFE9B197D7EF89E6EE8CB2CC17AD7032D0820E394D7D68D3DA478C67B4007C117EFE32F1B202727D3C3
310
2A83E0E3E2D3BC49CABB685CCCAAF3DA6CA20CC14440EA969B1E82BA98491632C5EC08D76296EA2A4753D06797E194AC468F2356E77DF66CCD02825543D50CACC62D39ED70FDC68EB8FD68F6F8787A6784342D1DDA1D2F5758F068A7E77DB518198D065111D2624A31A93E69DD11D6D5EC85EC3B4278B9DAFF4069D6FF8492
310
75F1B5DADE7D600104CD8FDC0782976B16B9DC83CA75CD4DFC00504B0304140006080800B670623B55019EA25F0000007C00000007000000636E782E786D6C4DCB3B0E80201045D1AD90E915ED2CF8AC45050C11660C8261F98AB1B07AC9C97D42D718D865D3E909258CFD00CCE24AC6E326A164D74DC0B4128928FF326038
310
472BA13128B1252AC747C6BAB984FC68F0B87FE8960A5C09FE86CFB69FBA01504B0304140006080800B670623B3586FFB671010000D40300000C0000006662782F636F72652E786D6CC553ED6E8320147D15C2DF4541A76D6D90A6DDD627D80B50A4CE54C120983EFEAE1F4DD7A55BBA5FF3879273EEE59E7310B6393735EA
310
95ED2AA3731C851423A5A5292A5DE6D8BB63B0C268C39935C67D29C3488B46E578803167A535BE9D2169B453DA01AA4DA16650749D7218C91A1639EEE4876A4428BC838AEE14B6429E44A9C228041AEA38EB9C0501681A32BC313F1ECE8C4C3867DE57C5CC56054CAB8E95B298A7F12E5EEED224C8E87E11242FE936C8DE96
310
AB60BB7F4D295D66D12E5B30323473E6AAE6A24E5A259C2A308F29CD82280A68FC1E256B9AAE93F489AED694323294DF34F9B678B0C957DA3DC7B3DCA9ADC33C022123F1CD2D44E450277AD04338234388F01913BE0D1A0281909D38D4171F27807A259DB1093085F157AA17B557309586747CD0CF0B46A64E983A6E0EAEEF
310
CE881F9EF1FB8E70D44297604238581EBC1B74B249C31C5AAB6CD0BB33D2C636A27ECCC62F0EFF445DC5DF95244D6DEC7F2922F30191F9F720C37DE49F504B0304140006080800B670623B4220A0FF7D0000009D0000000B0000006662782F636E782E786D6C4DCCD10A83201886E15B91FFDCE542CB0335D0EC3E6259C84A
310
C3E9D8E5AF46073BFAE0E1E315DD675BD1DBA5978F41C2FD4600B9F088930F8B849267CC01754AA418F3DF0D50183727E164506249B1EC174D6E1ECB9A0F5D7D785E68DB8151CD286E5A5363CA6B8A39E90D36D40E96B086F55A43A544F52B1D7B86D517504B0304140006080800B670623B2FA3FEDE290100001202000031
310
0000006662782F45374635344235342D363743322D343832342D383044432D4334454645303536354442422F636F72652E786D6C8D515B6EC32010BC0AE22B55850D2E386E848994D7097A0117488A1283C5A3CAF10BB523B57FF961D1ECCCECC0F2ED7DBC816FED8371B687A4C210682B9D32F6D2C314CFA883602BB8772E
310
FEA141608751F7B0C050F08B77695A20E96CD43666D43AA5177008414708E42D5F7A18E4971E876A483133C2B59A06791D2EBA22556E679EE021FA1C00CC43CA09C5717D6274C7286AD7FB06D1AEA1A8C3873DDAD3E3E98859CB0EBB1DAF67A1E02919B5C88DCA71CCD968FFAC49110B1ECDF8882FBD1EA256503418BF2342
310
106E3E08DD60B6A1EC15771B8C795DE8FF4469524F8A92B1F1AD59E2CEB20005E1F5DC105CB9F4797B84D1F7C9F908CABC55D0F2050A5C61CC1AD2F27A26E6E767C7962E8E213A9FBF7775FDCC5CC266DB960A5E970DE5F2BBBE5CCB36C50F504B0304140006080800B670623B1B8617914E01000033030000300000006662
310
782F45374635344235342D363743322D343832342D383044432D4334454645303536354442422F636E782E786D6CD593C16EC32010447F0571AD6CE3D489D20813A9877E410FBD62D82434182CC055F3F75D1292E692438FBD206B7698593D61BEFD1E2DF982108D773D6D6B460938E5B571FB9ECE6957AD29D90A1EBC4F77
310
364A9C1CA1A759A682EF839FA72269D8C9D92654AD71C72206887E0E0A22CAF926B15E498B01E0AA19451807D01A34B919F16B070157417138917400F2F6FA41FCF0092A45DEE414C19BDC21783E4BD39D891265658C3D8DEA00A3ACE59CBC8678ACB54CB26EEB6BD7839D7E9348BE70AD9C8321B9BCA7F9A4A26C542347DE
310
E050F09802D22BA6749A800A394DD62899107273365E3C82CFC6A55557BC06C10774B7ABE7AEC3B0F34CF06446280E154026D0542C187BA9DAB6628BF7B6DBB0E5A65B3EB1F58631DE64BBE083F7B65CC218087E22CABB042E51D1F2268F1FE12B3EA24D40D63E9CFE00120194D60B9D5BC67FE6D39CDF37E20AF817881F50
310
4B0304140006080800B670623B29652116630500003C100000340000006662782F45374635344235342D363743322D343832342D383044432D4334454645303536354442422F6F626A656374732E786D6CAD575D739B3814FD2B0CFB0C989834C90EA1639B24E3E9A6EDD4D3CE3E64C623834CD8006224913AFDF57B040203
310
B65BEF871F0C12D2FD3CF7E8CA7FBFCB33E3957291B2E2D674ED8969D02262715A24B76625B7D6B569BC0F7CCE98EC2D338D82E4F4D654D366E0279C55A59E8AE99654991CCDDECFFF3444440B6A1A514684B83545F44C7362934AB2988A173B2692D8C97667BB76B3702836E1A47C1E092D09A78584A5982F20C5688C7287
310
C389E904BEA3BE07BEFAD7ABA6A75739B53F43FD69212429A20365233153D70BEF2E2E6FAC4BCF9B5ADEBB0BD79ADFCF43CBBD9A4E16EF168B9BD9DD0D140BC921495BC2E9D60C1E101B9E46BED37CEA2CD6861F3329624541A3DA7F7858DBAC25C6B4A4458C3CA654405BCFEBC970E8AAD8F43E4FD558ABEC4F9FE7557F47
310
4F506B7BFBEC5BCA367FC105710E2AB8A00A554D7CB4A30DFE26FBA86D18CBF4B75418399194A72433B274C3097F33032C554B027F2046A1932B842B0FCCC0DDCBEBDB8AD2F835768F59B9ADB24C41D30C6A64AF817F2A456D59FA83F2E3DA60137255A585BCD60EC9B7929AC18DEFD49381AF1ED30BFDB109A4B1CD488294
310
C3CDE6EBC8D185AABD6568061FEE37BB95AAC7E3CA4BCE4ACAA5820FA0D526AE7DAA2869B5EE5999531BE0CC20E6FBA07C41E43FA27CF7A6206F3CDD793B4F6B919C1462CB788EDCD893FA674CDA17AB7B3B7C019F8D561FAEE966FED562DFE98C1D12C6A9FC015C2A35D7FF3D7FC398F591DA4B5FE0BFA2C0189FEA50AE22
310
92817A1ED3020951A03432862970F976B33383259812CC8E5D240BBA801CBCF8CE2BBEE3BF910DB6AAD5F79E05123AE2DB33981FB1ACCB02B69D00CB014FD68AB573A7627EF9BFD4CC2C5C7D58557C4B22FAA88925A4DBB44825CECE3D78FB060D1231F0E885BE7D673C86A3874958F593906B5502D1563157814FDAC3420D
310
F69A070A22EC4B98E23CFF171A1E5311D12C23056555ABA53B8614563B92D17D02AAB009E8F46284624E5F53D5490C560CCCC2591FF1B45421EB0EBD8EA7ED13BE7C5D7E0428CD60FEF60779EB13E6664FF711CB185F6FDED60D139A001FF60CD1FD6D086F1D51474901E26B2CB794A343BC8ED3EDB612E0DD2351FCB65CF4
310
33D511C9E14B5B40ADC6A6263DB0336A8F700DDF56271A024E70B0B3629DE21847591E55DED73D56206AB927E46FAABC5C939C55853C274C93D69FD6FA4E78BF8B11DF898C9ECD60553FAD39283BA6F18984AA23E8884F83F45C5F5F859797B31B2B9C84A1E5B9DE9D35BFF25C6B76152E422F9C5DCC3D847F5801ED09D5AF
310
41441327A25FF15487F9EB725FB666F048A4701E9A827292E6F97569A32DF61DEC01C0BB8DCBBCCC684E0B49147C1FD54BF685A0AB18C868E6973949E819523E3DAC463660E68C7D9F55A9D1EFA3BD7A76A16AE1A810F95CE59B82A4D968A376DC2E8B44BBDD86B27B368CDE0ED548C7137DA860591A83706223A12CA712B4
310
7306DBF39C0A20A6DF95C7FAF670C6EED7A61F946493D1D6926782963813403548A78AE470DEF80D2D9CEAA26E4D1C76F60BFE74219A06527D6B82DF641A51616F703CAAC6A7160E08A00BEB4810A0274592A1B36E3675E36E978A0DE80727A0D6DF2D39A75BD27E0D8837276589537B40ABB56D5A41F48F1C6FCD3188C4EB
310
A6929D2FFB89CE995A4D00AE813BDD032DC48B56BD437DFDDC2DD7AED70C2272D63DE9A72068A45A92F0A4BE17A8A06B9366E16707AD80B1FC649459952097E74BB23805982B55E0401150A165964402AA8BDF9F3E7386BB686EDCA780C0D382E5392BF460A6EFB2C6EA1937D3F809B440D5F5435C4C5CF7A9EEFAF54564BD
310
2182DA24162F98680B4E7930C21A0079709CEAEB99A372305ABE0C0D7D6078105A83F6A0296DAEE1068A47DD1C55A9F4C9B2FC69E3EFD44B81028E963DF81B504B0304140006080000B670623B000000000000000000000000350000006662782F45374635344235342D363743322D343832342D383044432D433445464530
310
3536354442422F76657274696365732E62696E504B0304140006080800B670623BF270F1330600000004000000360000006662782F45374635344235342D363743322D343832342D383044432D4334454645303536354442422F747269616E676C65732E62696E636660600000504B0304140006080000B670623B00000000
310
0000000000000000370000006662782F45374635344235342D363743322D343832342D383044432D4334454645303536354442422F617474726962757465732E62696E504B0304140006080800B670623B08DA0BD19000000041010000360000006662782F45374635344235342D363743322D343832342D383044432D4334
310
454645303536354442422F6469726563746F72792E786D6C858F410AC3201045AF22B36F53E9A60B35CBEEBAE80D244E44489C6234F4F835464A48035D0DF398FF9F8AF63D0E6CC63039F212F8F9020C7D47C6792B21C5FE7403D62A1188E2E60C98D7234A5830286103A55745067B9D86B8A3CF9C7F90C11DE607FB144396
310
D7B6A82D282E9A152AD114D5EF2CB866EEE831B8EEA07A7BB5A8D7D61A2BAAEB7FD5F70921FF497D00504B0304140006080800B670623B6378F24DFF000000A00100003B0000006662782F45374635344235342D363743322D343832342D383044432D4334454645303536354442422F7265736F75726365732F636F72652E
310
786D6C8D504B6E833010BD0A9A6D65B0094E42641C85B639412F6099496225D8C89FAAC7AF09546A77DDCC8CDE47F3F4C4F16B7C149FE88371B603565228D06A37187BED20C50BD9437194C23B177FC9A0B06AC40E6618A4B87A97A615D2CE46B431A3D60DB8822A048C50E8473E3A08FA86A32A558A5911EEE5A4F45D5DB1
310
6465A6B34E8A107D0E502C4FE609D26370C96B0CA25A58295232C3AA3143FE692E063D485EF7F5AEE71BD2D2F39634AFFC44DAF7DD9E9CCE6F9CD25DCBFA762BAAD92C4534E34F46ED51451C40D694B6843142EB0FD61C283F34FC85EE0F948A6A96FF31A569F8A729191B37F51A77B105902C0779125254735F793DCBCC7B
310
EE567E03504B010214000A0000080000B670623B3DEE336E79000000790000001B00000000000000000000000000000000006175746F6465736B2D64657369676E2D7061636B6167652E786D6C504B01021400140006080800B670623BD486FD9CA0000000F40000001300000000000000000000000000B20000005B436F6E
310
74656E745F54797065735D2E786D6C504B01021400140006080800B670623BBC1638F5EC0000007C010000080000000000000000000000000083010000636F72652E786D6C504B01021400140006080800B670623B55019EA25F0000007C000000070000000000000000000000000095020000636E782E786D6C504B010214
310
00140006080800B670623B3586FFB671010000D40300000C00000000000000000000000000190300006662782F636F72652E786D6C504B01021400140006080800B670623B4220A0FF7D0000009D0000000B00000000000000000000000000B40400006662782F636E782E786D6C504B01021400140006080800B670623B2F
310
A3FEDE290100001202000031000000000000000000000000005A0500006662782F45374635344235342D363743322D343832342D383044432D4334454645303536354442422F636F72652E786D6C504B01021400140006080800B670623B1B8617914E010000330300003000000000000000000000000000D2060000666278
310
2F45374635344235342D363743322D343832342D383044432D4334454645303536354442422F636E782E786D6C504B01021400140006080800B670623B29652116630500003C10000034000000000000000000000000006E0800006662782F45374635344235342D363743322D343832342D383044432D4334454645303536
310
354442422F6F626A656374732E786D6C504B01021400140006080000B670623B0000000000000000000000003500000000000000000000000000230E00006662782F45374635344235342D363743322D343832342D383044432D4334454645303536354442422F76657274696365732E62696E504B01021400140006080800
310
B670623BF270F13306000000040000003600000000000000000000000000760E00006662782F45374635344235342D363743322D343832342D383044432D4334454645303536354442422F747269616E676C65732E62696E504B01021400140006080000B670623B0000000000000000000000003700000000000000000000
310
000000D00E00006662782F45374635344235342D363743322D343832342D383044432D4334454645303536354442422F617474726962757465732E62696E504B01021400140006080800B670623B08DA0BD190000000410100003600000000000000000000000000250F00006662782F45374635344235342D363743322D34
310
3832342D383044432D4334454645303536354442422F6469726563746F72792E786D6C504B01021400140006080800B670623B6378F24DFF000000A00100003B00000000000000000000000000091000006662782F45374635344235342D363743322D343832342D383044432D4334454645303536354442422F7265736F75
310
726365732F636F72652E786D6C504B0506000000000E000E0080040000611100000000
  0
XRECORD
  5
1255
102
{ACAD_REACTORS
330
110
102
}
330
110
100
AcDbXrecord
280
     1
102
MATERIAL
148
0.0
149
0.0
149
0.0
 93
        0
 94
       63
282
     0
 72
     1
 77
     1
171
     1
175
     1
179
     1
273
     0
  0
XRECORD
  5
112
102
{ACAD_REACTORS
330
110
102
}
330
110
100
AcDbXrecord
280
     1
270
     1
271
     1
  0
XRECORD
  5
111
102
{ACAD_REACTORS
330
110
102
}
330
110
100
AcDbXrecord
280
     1
270
     1
271
     1
  0
XRECORD
  5
18A
102
{ACAD_REACTORS
330
110
102
}
330
110
100
AcDbXrecord
280
     1
 70
     0
 90
1778669749
  1
9BF507EE-FAF7-4A99-A33D-4EE51894BC40
310
504B03040A0000080000B670623B3DEE336E79000000790000001B0000006175746F6465736B2D64657369676E2D7061636B6167652E786D6C3C3F786D6C2076657273696F6E3D22312E302220656E636F64696E673D227574662D3822203F3E3C666F726D6174733E3C666F726D61743E687474703A2F2F736368656D612E
310
6175746F6465736B2E636F6D2F64657369676E2D7061636B6167652F323030393C2F666F726D61743E3C2F666F726D6174733E504B0304140006080800B670623BD486FD9CA0000000F4000000130000005B436F6E74656E745F54797065735D2E786D6C7D8EC10E82300C865F65E91D8A1E8C310C0EEA1BF002731658846E
310
D98AC1B77784ABF1D8FE5FBFBF75BBCE937A534CCEB38643598122B6FEE978D0B0485F9C41B54DDD7D022595594E1A469170414C76A4D9A4D207E29CF43ECE46F218070CC6BECC4078ACAA135ACF422C856C0E68EA1BF5669944DDD7BCDE7B1F8E415D77AECB980613C2E4AC91FC167A2B244592486606FC29C8FD7F045B9A
310
EF7053A7E60B504B0304140006080800B670623BCA089DFFEC0000007C01000008000000636F72652E786D6C8D90416E83301045AF62CDB632D8402020E32882F604BD80653BC44AB011B6AB1EBF262152BBEB6A467FFE9B197D76FA9EEFE84BAFDE38DB03CD08206DA553C64E3DC470C1474027CE56E7C22F1B202B66DDC3
310
260367D3EAE2B24BD2D9A06D48AA754AEFA2F05E0740F29E9A1EBCBCEA59642286E4F0B76C11F226269DD15797E0188D42CF2346A57DE662F40ABCAEC77628C6120F654571D50C04B7F5B9C1E3997CD4F550BE3745C3F20DE62C98F9755FAE5A04AD801784B498524C8A4F5A75E4D055873772EC0861F966FF03C545FD138A
310
C686B2D8DF7D621E384D8F3C069CE55B16A93C824A75CB8DFF00504B0304140006080800B670623B55019EA25F0000007C00000007000000636E782E786D6C4DCB3B0E80201045D1AD90E915ED2CF8AC45050C11660C8261F98AB1B07AC9C97D42D718D865D3E909258CFD00CCE24AC6E326A164D74DC0B4128928FF326038
310
472BA13128B1252AC747C6BAB984FC68F0B87FE8960A5C09FE86CFB69FBA01504B0304140006080800B670623B68FC0B7272010000D40300000C0000006662782F636F72652E786D6CC5535B6E833010BC8AE5DF0A6C1E8124328E22D29EA01770C0A128602363A31CBFCB234A53A555FA553EC09AD9F5CE8C31DB5DDA060D
310
D2F4B556190E7C8A9154852E6B5565D8D993B7C668C799D1DA7E29C3488956667884316795D1AE5BA0422B2B950554E9522EA0E87B69312A1A5864B82F3E642B7CE12C54F467BF13C55954D20F7CA0A18EB3DE1A1080E621E31BF3D3F1C2C88C73E65C5D2E6C5DC2B4FA544B8379921C36797888BC3C8A032F4E73EA6D927D
310
EA1DF6F42D49F2E8350D5346C666CE6CDD5ED515460A2B4BCC434A375E1078347C0FE22D5D6DE3D50B5D6F2965642CBF6B725DF96493AB958DC245EEDCD6631E809089F8E61622B2A81703E8219C913144F84C09DF070D8140C8561C9BAB8F3340832CAC363130A576376A108D933095FA747AD0CF0B46E64E983A6D0EAE1F
310
CE089F9EF1FB8E70D44255604258581E9D1D75B259C3125A278D37D80B52DAB4A279CEC62F0EFF44DDC43F9454E8469BFF5244960322CBEF41C6FBC83F01504B0304140006080800B670623B0F71DDB67E0000009D0000000B0000006662782F636E782E786D6C4DCCD10A83201886E15B91FFDCA54DB73F502386BB8F5816
310
32D3703976F9ABD1C18E3E78F87855FB990379BBFCF2296AE02706C4C5471A7C9C349475A408A4352AA7B4FEDD80C47E761A7606A3A69CCA72D0E0C6BE8475D3E0E3F3409428EA6B27A84079A782899AA2EC1A7AE3ECCC2FD858CB2D544655BFD2B67BD87C01504B0304140006080800B670623BE134B4FB28010000120200
310
00310000006662782F38353834323741342D343835462D343034322D383541392D4331303331363839454531452F636F72652E786D6C8D515B6EC32010BC0AE22B55850D0EA424C24451959EA0172086A42831583CAA1CBF503B52FB971F16CDCECC0EACD8DFC71BF836215AEF7A481A0C817183D7D65D7A98D3197108F652
310
04EFD31F1A044E8DA6871586525C82CFD3020DDE25E352419DD76601558C264130DCCAA58771F832A36A544E8511AFCDA486ABBA988634A55D7852C4144A00300FA927949C71DABD1D28A29C7D208A6987383B6CD13BC16BB2E1DBE3911C453B0BA5C8D9EA456E758963CFD684674DAA588A64C747FC2118958C86B2C3788B
310
0841B8FB247487D98EB257CC77188BB6D2FF89F2A49F1465EBD2BA5BE2CEB2082511EDDC9042FB7CBA3DC298FBE4430275DE2A9AE1054ADC60CC08E3A29D89E5F9C5714317C7987C28DFBBBA9E0A97B0D97643A568EB864AF95D5FA9759BF207504B0304140006080800B670623B1B8617914E010000330300003000000066
310
62782F38353834323741342D343835462D343034322D383541392D4331303331363839454531452F636E782E786D6CD593C16EC32010447F0571AD6CE3D489D20813A9877E410FBD62D82434182CC055F3F75D1292E692438FBD206B7698593D61BEFD1E2DF982108D773D6D6B460938E5B571FB9ECE6957AD29D90A1EBC4F
310
77364A9C1CA1A759A682EF839FA72269D8C9D92654AD71C72206887E0E0A22CAF926B15E498B01E0AA19451807D01A34B919F16B070157417138917400F2F6FA41FCF0092A45DEE414C19BDC21783E4BD39D891265658C3D8DEA00A3ACE59CBC8678ACB54CB26EEB6BD7839D7E9348BE70AD9C8321B9BCA7F9A4A26C542347
310
DEE050F09802D22BA6749A800A394DD62899107273365E3C82CFC6A55557BC06C10774B7ABE7AEC3B0F34CF06446280E154026D0542C187BA9DAB6628BF7B6DBB0E5A65B3EB1F58631DE64BBE083F7B65CC218087E22CABB042E51D1F2268F1FE12B3EA24D40D63E9CFE00120194D60B9D5BC67FE6D39CDF37E20AF817881F
310
504B0304140006080800B670623B5933D422630500003B100000340000006662782F38353834323741342D343835462D343034322D383541392D4331303331363839454531452F6F626A656374732E786D6CAD575B6FA33814FE2B887D0642934E9B156594264D158D3A534DD4D13E548A0C38942D60649B4EBABF7E3F8321
310
40924EF6928780CDF1B97EE762EFF32E4B8D37CA45C2F21BD3B547A641F39045491EDF98A5DC5AD7A6F1D9F73863B243661A39C9E88DA9B64DDF8B392B0BBD15D12D295339D85DDEFE618890E6D434C2940871638AF08566C426A5641115AF764424B1E3EDCE76ED9AB0CF36E6A47819302D08A7B984A6D8CFC1C5A89572FB
310
CB91E9F89EA3BEFB9EFAD754E3D3544E654F5F7E920B49F2F040D880CDD89D2CEE2E2EA7D6E56432B6269F2E5CEB7679BBB0DCABF168FE693E9FCEEEA6102C240727AD09A75BD3BF876F78127A4EFDA9D5582B7E4CA590E5390D2BFB6161A5B3E618D182E611E2985001691DAB47FDA5AB7CD3F93C566B2DB2BB7D9E55DD13
310
1D468DEECDB3AB290BFE8409E21C54704115AA6AFF68436BFC8DF65E0B184BF5B74418199194272435D224E084BF9B3E481589EFF5D828747285706581E9BB7B7E5D5D911ABFC6EE312DB7659A2A689A7E85EC0DF04FA5A8344BFEA2FCB834E8845895492EAFB541F2BDA0A63FF59C6AD3F7D4637CA13FD68E34B629891172
310
98597F1D183A57B9B75A98FE9765B05BAB7C3C2EBCE0ACA05C2AF8005A4DE09AA7F29216EB9E15397500C6F47CBE77CA7778FE2BD277AF0AE2C693DD6437D1522427B9D8329E2136F6A8FA19A3E6C56ADF0E5F50CF06D48734EDCEBF22F69C56D97EC138153F804B85E6FABFC7AFEFB32E523BE1F3BD372418E363EDCA7548
310
52949E8724474014288D94610BB57C1BEC4C7F854A89CA8E5324F55B871CBC78CE1BBEE3BFE68D6A5589EF3C730474506FCFA8FCF0659516D0ED04580EEA6425581B77CAE797FF4BCECC16EB2FEB926F49481F746159D06D922712BD730FDEAE42BD40F42C7AA5EF3F198F60E86110D6DD20645A9480B795CF95E3E3A659A8
310
C55E724F408873315335CFFB8584874484344D494E59D94869DB90C26A5B64F49C802CAC1D3ABE18A098D3B7444D123D8A9E5AE8F5214F0AE5B2B6E9B575DA3E61CBD3EA2B4009FA940524DD1305FB6A1FB294F14DF0BEA90BA109ECE1481FDC3FFAE8D60E75141700BE82725371B4873751B2DD960265F788137FACE6DD40
310
B575E4F0A5C99F46629D92131467A41EE11ABD8D4CCC039CA0AFB37C93A08B232B8F0AEFCA1E0A1015DF13FC83322B362463652ECF71D3A8B1A7D1BE65DE1D62C44F22C317D35F574FEB16153BA2D13E543D10A80E74C4A65E78A6B7CBCBD1D5DD9DB59C2DAFACC96C3AB566E3F1C29ADCDD5DBAD7D3C9ED7C822ED74F80A6
310
41755310DE4443F44A9E68373FADF6596BFA0F440AE7BECE2727AE9F4F2B1B53B1E7E00CF0DD1E5C65454A339A4BA2D0FBA05ED2EF0443458F47BDBFCA484CCFE0F2ED7E3DD0013B679C7B5499467F0ECEEADDB9CA85A34CE44B99053949D2C1416DB85DE4B136BB7165FBAC0B7AB3542BED4F8CA182A549847A1319316519
310
95A83A67147B9E5101C47487F2485F1ECE38FD568F839204296D3479219888530154036E6528FBFBC66F98E0D4107563A2D7D9AFF8D389681A08F58D89F22693900A3B407754734FC51C10C010D6D640809EE4718AC1BA3ED4AEDB53CA37283F68805A7E4B72CEB0A4EDEAD5DD8C14059A76AFAA56BA6901E13F32BC51C720
310
12AF41295B5BF61BAD3195181FB506E6B40F4C10AF5AF40EF9F5B159AE5DD1F43C72D635E94310D45C2D49785C5D0B94D3B54AB3C5A38349C0587D338AB48C11CBF339599C02CCA54A70A008A8D03C0B2201D5F9EFCF8F9CE12A9A19CB0410789EB32C63B95ECCF455D658BFE0621A3DA32C5075FB101723D77DAE867E7D0F
310
D90444509B44E2151B4DC2290B065803200FBAA9BE9D392A0603F2D5C2D00D6302A615680F66D2FA166E2079D4C551A54AB758161FCEFD4E450A14704CECFEDF504B0304140006080000B670623B000000000000000000000000350000006662782F38353834323741342D343835462D343034322D383541392D4331303331
310
363839454531452F76657274696365732E62696E504B0304140006080800B670623BF270F1330600000004000000360000006662782F38353834323741342D343835462D343034322D383541392D4331303331363839454531452F747269616E676C65732E62696E636660600000504B0304140006080000B670623B000000
310
000000000000000000370000006662782F38353834323741342D343835462D343034322D383541392D4331303331363839454531452F617474726962757465732E62696E504B0304140006080800B670623B08DA0BD19000000041010000360000006662782F38353834323741342D343835462D343034322D383541392D43
310
31303331363839454531452F6469726563746F72792E786D6C858F410AC3201045AF22B36F53E9A60B35CBEEBAE80D244E44489C6234F4F835464A48035D0DF398FF9F8AF63D0E6CC63039F212F8F9020C7D47C6792B21C5FE7403D62A1188E2E60C98D7234A5830286103A55745067B9D86B8A3CF9C7F90C11DE607FB1443
310
96D7B6A82D282E9A152AD114D5EF2CB866EEE831B8EEA07A7BB5A8D7D61A2BAAEB7FD5F70921FF497D00504B0304140006080800B670623BD9A3B367FE000000A00100003B0000006662782F38353834323741342D343835462D343034322D383541392D4331303331363839454531452F7265736F75726365732F636F7265
310
2E786D6C8D504B6E833010BD0A9A6D65B01D0201194711694FD00B586642AD043BF2A7EAF16B122AB5BB6E6646EFA3797AE2F8B5DC8A4FF4C1383B002B291468B59B8C9D0748F1420E501CA5F0CEC55F3228AC5A708015062966EFD27D83B4B3116DCCA875136EA00A012314FA968F0182FEC045952AC5AC08D7F2AEF455CD
310
58B232D3592745883E07289E4FD609D26370C96B0CA27AB252A464A64D63A6FCD35C0C7A904D73EE467EE664DCD58CD4ED4849D79C5A723ED1B7A61977AF2D6F45B59AA58866F9C9A83DAA8813484E6947182394BFB3BAA7FBBEDEBFD0434FA9A856F91F53BA4FFF342563E38E6F719FB60092E5200F428A6AED2BAF479979
310
AFDDCA6F504B010214000A0000080000B670623B3DEE336E79000000790000001B00000000000000000000000000000000006175746F6465736B2D64657369676E2D7061636B6167652E786D6C504B01021400140006080800B670623BD486FD9CA0000000F40000001300000000000000000000000000B20000005B436F6E
310
74656E745F54797065735D2E786D6C504B01021400140006080800B670623BCA089DFFEC0000007C010000080000000000000000000000000083010000636F72652E786D6C504B01021400140006080800B670623B55019EA25F0000007C000000070000000000000000000000000095020000636E782E786D6C504B010214
310
00140006080800B670623B68FC0B7272010000D40300000C00000000000000000000000000190300006662782F636F72652E786D6C504B01021400140006080800B670623B0F71DDB67E0000009D0000000B00000000000000000000000000B50400006662782F636E782E786D6C504B01021400140006080800B670623BE1
310
34B4FB280100001202000031000000000000000000000000005C0500006662782F38353834323741342D343835462D343034322D383541392D4331303331363839454531452F636F72652E786D6C504B01021400140006080800B670623B1B8617914E010000330300003000000000000000000000000000D3060000666278
310
2F38353834323741342D343835462D343034322D383541392D4331303331363839454531452F636E782E786D6C504B01021400140006080800B670623B5933D422630500003B10000034000000000000000000000000006F0800006662782F38353834323741342D343835462D343034322D383541392D4331303331363839
310
454531452F6F626A656374732E786D6C504B01021400140006080000B670623B0000000000000000000000003500000000000000000000000000240E00006662782F38353834323741342D343835462D343034322D383541392D4331303331363839454531452F76657274696365732E62696E504B01021400140006080800
310
B670623BF270F13306000000040000003600000000000000000000000000770E00006662782F38353834323741342D343835462D343034322D383541392D4331303331363839454531452F747269616E676C65732E62696E504B01021400140006080000B670623B0000000000000000000000003700000000000000000000
310
000000D10E00006662782F38353834323741342D343835462D343034322D383541392D4331303331363839454531452F617474726962757465732E62696E504B01021400140006080800B670623B08DA0BD190000000410100003600000000000000000000000000260F00006662782F38353834323741342D343835462D34
310
3034322D383541392D4331303331363839454531452F6469726563746F72792E786D6C504B01021400140006080800B670623BD9A3B367FE000000A00100003B000000000000000000000000000A1000006662782F38353834323741342D343835462D343034322D383541392D4331303331363839454531452F7265736F75
310
726365732F636F72652E786D6C504B0506000000000E000E0080040000611100000000
  0
XRECORD
  5
113
102
{ACAD_REACTORS
330
110
102
}
330
110
100
AcDbXrecord
280
     1
270
     1
271
     1
  0
XRECORD
  5
114
102
{ACAD_REACTORS
330
110
102
}
330
110
100
AcDbXrecord
280
     1
270
     1
271
     1
  0
XRECORD
  5
1277
102
{ACAD_REACTORS
330
1276
102
}
330
1276
100
AcDbXrecord
280
     1
102
ACAD_ROUNDTRIP_2012_MLEADER_STYLE
298
     1
  0
XRECORD
  5
1289
102
{ACAD_REACTORS
330
1288
102
}
330
1288
100
AcDbXrecord
280
     1
102
DISPLAYNAME
  1
Imperial24
102
FLAGS
 90
        0
  0
CELLSTYLEMAP
  5
1249
102
{ACAD_REACTORS
330
104
102
}
330
104
100
AcDbCellStyleMap
 90
        3
300
CELLSTYLE
  1
TABLEFORMAT_BEGIN
 90
        5
170
     1
 91
        0
 92
    32768
 62
   257
 93
        1
300
CONTENTFORMAT
  1
CONTENTFORMAT_BEGIN
 90
        0
 91
        0
 92
      512
 93
        0
300

 40
0.0
140
1.0
 94
        5
 62
     0
340
11
144
0.25
309
CONTENTFORMAT_END
171
     1
301
MARGIN
  1
CELLMARGIN_BEGIN
 40
0.06
 40
0.06
 40
0.06
 40
0.06
 40
0.18
 40
0.18
309
CELLMARGIN_END
 94
        6
 95
        1
302
GRIDFORMAT
  1
GRIDFORMAT_BEGIN
 90
        0
 91
        1
 62
     0
 92
       -2
340
0
 93
        0
 40
0.045
309
GRIDFORMAT_END
 95
        2
302
GRIDFORMAT
  1
GRIDFORMAT_BEGIN
 90
        0
 91
        1
 62
     0
 92
       -2
340
0
 93
        0
 40
0.045
309
GRIDFORMAT_END
 95
        4
302
GRIDFORMAT
  1
GRIDFORMAT_BEGIN
 90
        0
 91
        1
 62
     0
 92
       -2
340
0
 93
        0
 40
0.045
309
GRIDFORMAT_END
 95
        8
302
GRIDFORMAT
  1
GRIDFORMAT_BEGIN
 90
        0
 91
        1
 62
     0
 92
       -2
340
0
 93
        0
 40
0.045
309
GRIDFORMAT_END
 95
       16
302
GRIDFORMAT
  1
GRIDFORMAT_BEGIN
 90
        0
 91
        1
 62
     0
 92
       -2
340
0
 93
        0
 40
0.045
309
GRIDFORMAT_END
 95
       32
302
GRIDFORMAT
  1
GRIDFORMAT_BEGIN
 90
        0
 91
        1
 62
     0
 92
       -2
340
0
 93
        0
 40
0.045
309
GRIDFORMAT_END
309
TABLEFORMAT_END
  1
CELLSTYLE_BEGIN
 90
        1
 91
        1
300
_TITLE
309
CELLSTYLE_END
300
CELLSTYLE
  1
TABLEFORMAT_BEGIN
 90
        5
170
     1
 91
        0
 92
        0
 62
   257
 93
        1
300
CONTENTFORMAT
  1
CONTENTFORMAT_BEGIN
 90
        0
 91
        0
 92
      512
 93
        0
300

 40
0.0
140
1.0
 94
        5
 62
     0
340
11
144
0.18
309
CONTENTFORMAT_END
171
     1
301
MARGIN
  1
CELLMARGIN_BEGIN
 40
0.06
 40
0.06
 40
0.06
 40
0.06
 40
0.18
 40
0.18
309
CELLMARGIN_END
 94
        6
 95
        1
302
GRIDFORMAT
  1
GRIDFORMAT_BEGIN
 90
        0
 91
        1
 62
     0
 92
       -2
340
0
 93
        0
 40
0.045
309
GRIDFORMAT_END
 95
        2
302
GRIDFORMAT
  1
GRIDFORMAT_BEGIN
 90
        0
 91
        1
 62
     0
 92
       -2
340
0
 93
        0
 40
0.045
309
GRIDFORMAT_END
 95
        4
302
GRIDFORMAT
  1
GRIDFORMAT_BEGIN
 90
        0
 91
        1
 62
     0
 92
       -2
340
0
 93
        0
 40
0.045
309
GRIDFORMAT_END
 95
        8
302
GRIDFORMAT
  1
GRIDFORMAT_BEGIN
 90
        0
 91
        1
 62
     0
 92
       -2
340
0
 93
        0
 40
0.045
309
GRIDFORMAT_END
 95
       16
302
GRIDFORMAT
  1
GRIDFORMAT_BEGIN
 90
        0
 91
        1
 62
     0
 92
       -2
340
0
 93
        0
 40
0.045
309
GRIDFORMAT_END
 95
       32
302
GRIDFORMAT
  1
GRIDFORMAT_BEGIN
 90
        0
 91
        1
 62
     0
 92
       -2
340
0
 93
        0
 40
0.045
309
GRIDFORMAT_END
309
TABLEFORMAT_END
  1
CELLSTYLE_BEGIN
 90
        2
 91
        1
300
_HEADER
309
CELLSTYLE_END
300
CELLSTYLE
  1
TABLEFORMAT_BEGIN
 90
        5
170
     1
 91
        0
 92
        0
 62
   257
 93
        1
300
CONTENTFORMAT
  1
CONTENTFORMAT_BEGIN
 90
        0
 91
        0
 92
      512
 93
        0
300

 40
0.0
140
1.0
 94
        2
 62
     0
340
11
144
0.18
309
CONTENTFORMAT_END
171
     1
301
MARGIN
  1
CELLMARGIN_BEGIN
 40
0.06
 40
0.06
 40
0.06
 40
0.06
 40
0.18
 40
0.18
309
CELLMARGIN_END
 94
        6
 95
        1
302
GRIDFORMAT
  1
GRIDFORMAT_BEGIN
 90
        0
 91
        1
 62
     0
 92
       -2
340
0
 93
        0
 40
0.045
309
GRIDFORMAT_END
 95
        2
302
GRIDFORMAT
  1
GRIDFORMAT_BEGIN
 90
        0
 91
        1
 62
     0
 92
       -2
340
0
 93
        0
 40
0.045
309
GRIDFORMAT_END
 95
        4
302
GRIDFORMAT
  1
GRIDFORMAT_BEGIN
 90
        0
 91
        1
 62
     0
 92
       -2
340
0
 93
        0
 40
0.045
309
GRIDFORMAT_END
 95
        8
302
GRIDFORMAT
  1
GRIDFORMAT_BEGIN
 90
        0
 91
        1
 62
     0
 92
       -2
340
0
 93
        0
 40
0.045
309
GRIDFORMAT_END
 95
       16
302
GRIDFORMAT
  1
GRIDFORMAT_BEGIN
 90
        0
 91
        1
 62
     0
 92
       -2
340
0
 93
        0
 40
0.045
309
GRIDFORMAT_END
 95
       32
302
GRIDFORMAT
  1
GRIDFORMAT_BEGIN
 90
        0
 91
        1
 62
     0
 92
       -2
340
0
 93
        0
 40
0.045
309
GRIDFORMAT_END
309
TABLEFORMAT_END
  1
CELLSTYLE_BEGIN
 90
        3
 91
        2
300
_DATA
309
CELLSTYLE_END
  0
XRECORD
  5
1252
102
{ACAD_REACTORS
330
104
102
}
330
104
100
AcDbXrecord
280
     1
102
ACAD_ROUNDTRIP_PRE2007_TABLESTYLE
 90
      512
 91
        0
  1

 92
      512
 93
        0
  2

 94
      512
 95
        0
  3

  0
XRECORD
  5
1261
102
{ACAD_REACTORS
330
1260
102
}
330
1260
100
AcDbXrecord
280
     1
102
RTVSPost2010Prop28
280
     1
102
RTVSPost2010PropOp28
 70
     1
102
RTVSPost2010Prop29
280
     1
102
RTVSPost2010PropOp29
 70
     1
102
RTVSPost2010Prop30
280
     0
102
RTVSPost2010PropOp30
 70
     1
102
RTVSPost2010Prop31
280
     0
102
RTVSPost2010PropOp31
 70
     1
102
RTVSPost2010Prop32
280
     0
102
RTVSPost2010PropOp32
 70
     1
102
RTVSPost2010Prop33
280
     0
102
RTVSPost2010PropOp33
 70
     1
102
RTVSPost2010Prop34
280
     0
102
RTVSPost2010PropOp34
 70
     1
102
RTVSPost2010Prop35
280
     0
102
RTVSPost2010PropOp35
 70
     1
102
RTVSPost2010Prop36
280
     0
102
RTVSPost2010PropOp36
 70
     1
102
RTVSPost2010Prop37
 90
       50
102
RTVSPost2010PropOp37
 70
     1
102
RTVSPost2010Prop38
140
0.0
102
RTVSPost2010PropOp38
 70
     1
102
RTVSPost2010Prop39
140
1.0
102
RTVSPost2010PropOp39
 70
     1
102
RTVSPost2010Prop40
 90
        0
102
RTVSPost2010PropOp40
 70
     1
102
RTVSPost2010Prop41ColorIndex
 90
       18
102
RTVSPost2010Prop41ColorRGB
 90
        0
102
RTVSPost2010PropOp41
 70
     1
102
RTVSPost2010Prop42
 90
       50
102
RTVSPost2010PropOp42
 70
     1
102
RTVSPost2010Prop43
 90
        3
102
RTVSPost2010PropOp43
 70
     1
102
RTVSPost2010Prop44ColorIndex
 90
        5
102
RTVSPost2010Prop44ColorRGB
 90
      255
102
RTVSPost2010PropOp44
 70
     1
102
RTVSPost2010Prop45
280
     0
102
RTVSPost2010PropOp45
 70
     1
102
RTVSPost2010Prop46
 90
       50
102
RTVSPost2010PropOp46
 70
     1
102
RTVSPost2010Prop47
 90
       50
102
RTVSPost2010PropOp47
 70
     1
102
RTVSPost2010Prop48
 90
       50
102
RTVSPost2010PropOp48
 70
     1
102
RTVSPost2010Prop49
280
     0
102
RTVSPost2010PropOp49
 70
     1
102
RTVSPost2010Prop50
 90
       50
102
RTVSPost2010PropOp50
 70
     1
102
RTVSPost2010Prop51ColorIndex
 90
      256
102
RTVSPost2010Prop51ColorRGB
 90
-16777216
102
RTVSPost2010PropOp51
 70
     0
102
RTVSPost2010Prop52
140
1.0
102
RTVSPost2010PropOp52
 70
     0
102
RTVSPost2010Prop53
 90
        2
102
RTVSPost2010PropOp53
 70
     1
102
RTVSPost2010Prop54
  1
strokes_ogs.tif
102
RTVSPost2010PropOp54
 70
     1
102
RTVSPost2010Prop55
280
     0
102
RTVSPost2010PropOp55
 70
     1
102
RTVSPost2010Prop56
140
1.0
102
RTVSPost2010PropOp56
 70
     1
102
RTVSPost2010Prop57
140
1.0
102
RTVSPost2010PropOp57
 70
     1
102
RTVSPropertyOp0
 70
     1
102
RTVSPropertyOp1
 70
     1
102
RTVSPropertyOp2
 70
     1
102
RTVSPropertyOp3
 70
     1
102
RTVSPropertyOp4
 70
     1
102
RTVSPropertyOp5
 70
     1
102
RTVSPropertyOp6
 70
     1
102
RTVSPropertyOp7
 70
     1
102
RTVSPropertyOp8
 70
     1
102
RTVSPropertyOp9
 70
     1
102
RTVSPropertyOp10
 70
     1
102
RTVSPropertyOp11
 70
     1
102
RTVSPropertyOp12
 70
     1
102
RTVSPropertyOp13
 70
     1
102
RTVSPropertyOp14
 70
     1
102
RTVSPropertyOp15
 70
     1
102
RTVSPropertyOp16
 70
     1
102
RTVSPropertyOp17
 70
     1
102
RTVSPropertyOp18
 70
     1
102
RTVSPropertyOp19
 70
     1
102
RTVSPropertyOp20
 70
     1
102
RTVSPropertyOp21
 70
     1
102
RTVSPropertyOp22
 70
     1
102
RTVSPropertyOp23
 70
     1
102
RTVSPropertyOp24
 70
     1
102
RTVSPropertyOp25
 70
     1
102
RTVSPropertyOp26
 70
     1
102
RTVSPropertyOp27
 70
     1
102
RTVSPropertyOp28
 70
     1
102
RTVSPropertyOp29
 70
     1
102
RTVSPropertyOp30
 70
     1
102
RTVSPropertyOp31
 70
     1
102
RTVSPropertyOp32
 70
     1
102
RTVSPropertyOp33
 70
     1
102
RTVSPropertyOp34
 70
     1
102
RTVSPropertyOp35
 70
     1
102
RTVSPropertyOp36
 70
     1
102
RTVSPropertyOp37
 70
     1
102
RTVSPropertyOp38
 70
     1
102
RTVSPropertyOp39
 70
     1
102
RTVSPropertyOp40
 70
     1
102
RTVSPropertyOp41
 70
     1
102
RTVSPropertyOp42
 70
     1
102
RTVSPropertyOp43
 70
     1
102
RTVSPropertyOp44
 70
     1
102
RTVSPropertyOp45
 70
     1
102
RTVSPropertyOp46
 70
     1
102
RTVSPropertyOp47
 70
     1
102
RTVSPropertyOp48
 70
     1
102
RTVSPropertyOp49
 70
     1
102
RTVSPropertyOp50
 70
     1
102
RTVSPropertyOp51
 70
     0
102
RTVSPropertyOp52
 70
     0
102
RTVSPropertyOp53
 70
     1
102
RTVSPropertyOp54
 70
     1
102
RTVSPropertyOp55
 70
     1
102
RTVSPropertyOp56
 70
     1
102
RTVSPropertyOp57
 70
     1
102
RTVSPropertyOp58
 70
     1
102
RTVSPropertyOp59
 70
     1
102
RTVSPropertyOp60
 70
     1
102
RTVSPropertyOp61
 70
     1
102
RTVSPropertyOp62
 70
     1
  0
XRECORD
  5
125F
102
{ACAD_REACTORS
330
125E
102
}
330
125E
100
AcDbXrecord
280
     1
102
RTVSPost2010Prop28
280
     0
102
RTVSPost2010PropOp28
 70
     1
102
RTVSPost2010Prop29
280
     1
102
RTVSPost2010PropOp29
 70
     1
102
RTVSPost2010Prop30
280
     1
102
RTVSPost2010PropOp30
 70
     1
102
RTVSPost2010Prop31
280
     0
102
RTVSPost2010PropOp31
 70
     1
102
RTVSPost2010Prop32
280
     0
102
RTVSPost2010PropOp32
 70
     1
102
RTVSPost2010Prop33
280
     0
102
RTVSPost2010PropOp33
 70
     1
102
RTVSPost2010Prop34
280
     0
102
RTVSPost2010PropOp34
 70
     1
102
RTVSPost2010Prop35
280
     0
102
RTVSPost2010PropOp35
 70
     1
102
RTVSPost2010Prop36
280
     0
102
RTVSPost2010PropOp36
 70
     1
102
RTVSPost2010Prop37
 90
       50
102
RTVSPost2010PropOp37
 70
     1
102
RTVSPost2010Prop38
140
0.0
102
RTVSPost2010PropOp38
 70
     1
102
RTVSPost2010Prop39
140
1.0
102
RTVSPost2010PropOp39
 70
     1
102
RTVSPost2010Prop40
 90
        0
102
RTVSPost2010PropOp40
 70
     1
102
RTVSPost2010Prop41ColorIndex
 90
       18
102
RTVSPost2010Prop41ColorRGB
 90
        0
102
RTVSPost2010PropOp41
 70
     1
102
RTVSPost2010Prop42
 90
       50
102
RTVSPost2010PropOp42
 70
     1
102
RTVSPost2010Prop43
 90
        3
102
RTVSPost2010PropOp43
 70
     1
102
RTVSPost2010Prop44ColorIndex
 90
        5
102
RTVSPost2010Prop44ColorRGB
 90
      255
102
RTVSPost2010PropOp44
 70
     1
102
RTVSPost2010Prop45
280
     0
102
RTVSPost2010PropOp45
 70
     1
102
RTVSPost2010Prop46
 90
       50
102
RTVSPost2010PropOp46
 70
     1
102
RTVSPost2010Prop47
 90
       50
102
RTVSPost2010PropOp47
 70
     1
102
RTVSPost2010Prop48
 90
       50
102
RTVSPost2010PropOp48
 70
     1
102
RTVSPost2010Prop49
280
     0
102
RTVSPost2010PropOp49
 70
     1
102
RTVSPost2010Prop50
 90
       50
102
RTVSPost2010PropOp50
 70
     1
102
RTVSPost2010Prop51ColorIndex
 90
      256
102
RTVSPost2010Prop51ColorRGB
 90
-16777216
102
RTVSPost2010PropOp51
 70
     0
102
RTVSPost2010Prop52
140
1.0
102
RTVSPost2010PropOp52
 70
     0
102
RTVSPost2010Prop53
 90
        2
102
RTVSPost2010PropOp53
 70
     1
102
RTVSPost2010Prop54
  1
strokes_ogs.tif
102
RTVSPost2010PropOp54
 70
     1
102
RTVSPost2010Prop55
280
     0
102
RTVSPost2010PropOp55
 70
     1
102
RTVSPost2010Prop56
140
1.0
102
RTVSPost2010PropOp56
 70
     1
102
RTVSPost2010Prop57
140
1.0
102
RTVSPost2010PropOp57
 70
     1
102
RTVSPropertyOp0
 70
     1
102
RTVSPropertyOp1
 70
     1
102
RTVSPropertyOp2
 70
     1
102
RTVSPropertyOp3
 70
     1
102
RTVSPropertyOp4
 70
     1
102
RTVSPropertyOp5
 70
     1
102
RTVSPropertyOp6
 70
     1
102
RTVSPropertyOp7
 70
     1
102
RTVSPropertyOp8
 70
     1
102
RTVSPropertyOp9
 70
     1
102
RTVSPropertyOp10
 70
     1
102
RTVSPropertyOp11
 70
     1
102
RTVSPropertyOp12
 70
     1
102
RTVSPropertyOp13
 70
     1
102
RTVSPropertyOp14
 70
     1
102
RTVSPropertyOp15
 70
     1
102
RTVSPropertyOp16
 70
     1
102
RTVSPropertyOp17
 70
     1
102
RTVSPropertyOp18
 70
     1
102
RTVSPropertyOp19
 70
     1
102
RTVSPropertyOp20
 70
     1
102
RTVSPropertyOp21
 70
     1
102
RTVSPropertyOp22
 70
     1
102
RTVSPropertyOp23
 70
     1
102
RTVSPropertyOp24
 70
     1
102
RTVSPropertyOp25
 70
     1
102
RTVSPropertyOp26
 70
     1
102
RTVSPropertyOp27
 70
     1
102
RTVSPropertyOp28
 70
     1
102
RTVSPropertyOp29
 70
     1
102
RTVSPropertyOp30
 70
     1
102
RTVSPropertyOp31
 70
     1
102
RTVSPropertyOp32
 70
     1
102
RTVSPropertyOp33
 70
     1
102
RTVSPropertyOp34
 70
     1
102
RTVSPropertyOp35
 70
     1
102
RTVSPropertyOp36
 70
     1
102
RTVSPropertyOp37
 70
     1
102
RTVSPropertyOp38
 70
     1
102
RTVSPropertyOp39
 70
     1
102
RTVSPropertyOp40
 70
     1
102
RTVSPropertyOp41
 70
     1
102
RTVSPropertyOp42
 70
     1
102
RTVSPropertyOp43
 70
     1
102
RTVSPropertyOp44
 70
     1
102
RTVSPropertyOp45
 70
     1
102
RTVSPropertyOp46
 70
     1
102
RTVSPropertyOp47
 70
     1
102
RTVSPropertyOp48
 70
     1
102
RTVSPropertyOp49
 70
     1
102
RTVSPropertyOp50
 70
     1
102
RTVSPropertyOp51
 70
     0
102
RTVSPropertyOp52
 70
     0
102
RTVSPropertyOp53
 70
     1
102
RTVSPropertyOp54
 70
     1
102
RTVSPropertyOp55
 70
     1
102
RTVSPropertyOp56
 70
     1
102
RTVSPropertyOp57
 70
     1
102
RTVSPropertyOp58
 70
     1
102
RTVSPropertyOp59
 70
     1
102
RTVSPropertyOp60
 70
     1
102
RTVSPropertyOp61
 70
     1
102
RTVSPropertyOp62
 70
     1
  0
XRECORD
  5
126D
102
{ACAD_REACTORS
330
126C
102
}
330
126C
100
AcDbXrecord
280
     1
102
RTVSPost2010Prop28
280
     0
102
RTVSPost2010PropOp28
 70
     1
102
RTVSPost2010Prop29
280
     1
102
RTVSPost2010PropOp29
 70
     1
102
RTVSPost2010Prop30
280
     1
102
RTVSPost2010PropOp30
 70
     1
102
RTVSPost2010Prop31
280
     0
102
RTVSPost2010PropOp31
 70
     1
102
RTVSPost2010Prop32
280
     0
102
RTVSPost2010PropOp32
 70
     1
102
RTVSPost2010Prop33
280
     0
102
RTVSPost2010PropOp33
 70
     1
102
RTVSPost2010Prop34
280
     0
102
RTVSPost2010PropOp34
 70
     1
102
RTVSPost2010Prop35
280
     0
102
RTVSPost2010PropOp35
 70
     1
102
RTVSPost2010Prop36
280
     0
102
RTVSPost2010PropOp36
 70
     1
102
RTVSPost2010Prop37
 90
       50
102
RTVSPost2010PropOp37
 70
     1
102
RTVSPost2010Prop38
140
0.0
102
RTVSPost2010PropOp38
 70
     1
102
RTVSPost2010Prop39
140
1.0
102
RTVSPost2010PropOp39
 70
     1
102
RTVSPost2010Prop40
 90
        0
102
RTVSPost2010PropOp40
 70
     1
102
RTVSPost2010Prop41ColorIndex
 90
       18
102
RTVSPost2010Prop41ColorRGB
 90
        0
102
RTVSPost2010PropOp41
 70
     1
102
RTVSPost2010Prop42
 90
       50
102
RTVSPost2010PropOp42
 70
     1
102
RTVSPost2010Prop43
 90
        3
102
RTVSPost2010PropOp43
 70
     1
102
RTVSPost2010Prop44ColorIndex
 90
        5
102
RTVSPost2010Prop44ColorRGB
 90
      255
102
RTVSPost2010PropOp44
 70
     1
102
RTVSPost2010Prop45
280
     0
102
RTVSPost2010PropOp45
 70
     1
102
RTVSPost2010Prop46
 90
       50
102
RTVSPost2010PropOp46
 70
     1
102
RTVSPost2010Prop47
 90
       50
102
RTVSPost2010PropOp47
 70
     1
102
RTVSPost2010Prop48
 90
       50
102
RTVSPost2010PropOp48
 70
     1
102
RTVSPost2010Prop49
280
     0
102
RTVSPost2010PropOp49
 70
     1
102
RTVSPost2010Prop50
 90
       50
102
RTVSPost2010PropOp50
 70
     1
102
RTVSPost2010Prop51ColorIndex
 90
      256
102
RTVSPost2010Prop51ColorRGB
 90
-16777216
102
RTVSPost2010PropOp51
 70
     0
102
RTVSPost2010Prop52
140
1.0
102
RTVSPost2010PropOp52
 70
     0
102
RTVSPost2010Prop53
 90
        2
102
RTVSPost2010PropOp53
 70
     1
102
RTVSPost2010Prop54
  1
strokes_ogs.tif
102
RTVSPost2010PropOp54
 70
     1
102
RTVSPost2010Prop55
280
     0
102
RTVSPost2010PropOp55
 70
     1
102
RTVSPost2010Prop56
140
1.0
102
RTVSPost2010PropOp56
 70
     1
102
RTVSPost2010Prop57
140
1.0
102
RTVSPost2010PropOp57
 70
     1
102
RTVSPropertyOp0
 70
     1
102
RTVSPropertyOp1
 70
     1
102
RTVSPropertyOp2
 70
     1
102
RTVSPropertyOp3
 70
     1
102
RTVSPropertyOp4
 70
     1
102
RTVSPropertyOp5
 70
     1
102
RTVSPropertyOp6
 70
     1
102
RTVSPropertyOp7
 70
     1
102
RTVSPropertyOp8
 70
     1
102
RTVSPropertyOp9
 70
     1
102
RTVSPropertyOp10
 70
     1
102
RTVSPropertyOp11
 70
     1
102
RTVSPropertyOp12
 70
     1
102
RTVSPropertyOp13
 70
     1
102
RTVSPropertyOp14
 70
     1
102
RTVSPropertyOp15
 70
     1
102
RTVSPropertyOp16
 70
     1
102
RTVSPropertyOp17
 70
     1
102
RTVSPropertyOp18
 70
     1
102
RTVSPropertyOp19
 70
     1
102
RTVSPropertyOp20
 70
     1
102
RTVSPropertyOp21
 70
     1
102
RTVSPropertyOp22
 70
     1
102
RTVSPropertyOp23
 70
     1
102
RTVSPropertyOp24
 70
     1
102
RTVSPropertyOp25
 70
     1
102
RTVSPropertyOp26
 70
     1
102
RTVSPropertyOp27
 70
     1
102
RTVSPropertyOp28
 70
     1
102
RTVSPropertyOp29
 70
     1
102
RTVSPropertyOp30
 70
     1
102
RTVSPropertyOp31
 70
     1
102
RTVSPropertyOp32
 70
     1
102
RTVSPropertyOp33
 70
     1
102
RTVSPropertyOp34
 70
     1
102
RTVSPropertyOp35
 70
     1
102
RTVSPropertyOp36
 70
     1
102
RTVSPropertyOp37
 70
     1
102
RTVSPropertyOp38
 70
     1
102
RTVSPropertyOp39
 70
     1
102
RTVSPropertyOp40
 70
     1
102
RTVSPropertyOp41
 70
     1
102
RTVSPropertyOp42
 70
     1
102
RTVSPropertyOp43
 70
     1
102
RTVSPropertyOp44
 70
     1
102
RTVSPropertyOp45
 70
     1
102
RTVSPropertyOp46
 70
     1
102
RTVSPropertyOp47
 70
     1
102
RTVSPropertyOp48
 70
     1
102
RTVSPropertyOp49
 70
     1
102
RTVSPropertyOp50
 70
     1
102
RTVSPropertyOp51
 70
     0
102
RTVSPropertyOp52
 70
     0
102
RTVSPropertyOp53
 70
     1
102
RTVSPropertyOp54
 70
     1
102
RTVSPropertyOp55
 70
     1
102
RTVSPropertyOp56
 70
     1
102
RTVSPropertyOp57
 70
     1
102
RTVSPropertyOp58
 70
     1
102
RTVSPropertyOp59
 70
     1
102
RTVSPropertyOp60
 70
     1
102
RTVSPropertyOp61
 70
     1
102
RTVSPropertyOp62
 70
     1
  0
XRECORD
  5
1275
102
{ACAD_REACTORS
330
1274
102
}
330
1274
100
AcDbXrecord
280
     1
102
RTVSPost2010Prop28
280
     0
102
RTVSPost2010PropOp28
 70
     1
102
RTVSPost2010Prop29
280
     1
102
RTVSPost2010PropOp29
 70
     1
102
RTVSPost2010Prop30
280
     1
102
RTVSPost2010PropOp30
 70
     1
102
RTVSPost2010Prop31
280
     0
102
RTVSPost2010PropOp31
 70
     1
102
RTVSPost2010Prop32
280
     0
102
RTVSPost2010PropOp32
 70
     1
102
RTVSPost2010Prop33
280
     0
102
RTVSPost2010PropOp33
 70
     1
102
RTVSPost2010Prop34
280
     0
102
RTVSPost2010PropOp34
 70
     1
102
RTVSPost2010Prop35
280
     0
102
RTVSPost2010PropOp35
 70
     1
102
RTVSPost2010Prop36
280
     0
102
RTVSPost2010PropOp36
 70
     1
102
RTVSPost2010Prop37
 90
       50
102
RTVSPost2010PropOp37
 70
     1
102
RTVSPost2010Prop38
140
0.0
102
RTVSPost2010PropOp38
 70
     1
102
RTVSPost2010Prop39
140
1.0
102
RTVSPost2010PropOp39
 70
     1
102
RTVSPost2010Prop40
 90
        0
102
RTVSPost2010PropOp40
 70
     1
102
RTVSPost2010Prop41ColorIndex
 90
       18
102
RTVSPost2010Prop41ColorRGB
 90
        0
102
RTVSPost2010PropOp41
 70
     1
102
RTVSPost2010Prop42
 90
       50
102
RTVSPost2010PropOp42
 70
     1
102
RTVSPost2010Prop43
 90
        3
102
RTVSPost2010PropOp43
 70
     1
102
RTVSPost2010Prop44ColorIndex
 90
        5
102
RTVSPost2010Prop44ColorRGB
 90
      255
102
RTVSPost2010PropOp44
 70
     1
102
RTVSPost2010Prop45
280
     0
102
RTVSPost2010PropOp45
 70
     1
102
RTVSPost2010Prop46
 90
       50
102
RTVSPost2010PropOp46
 70
     1
102
RTVSPost2010Prop47
 90
       50
102
RTVSPost2010PropOp47
 70
     1
102
RTVSPost2010Prop48
 90
       50
102
RTVSPost2010PropOp48
 70
     1
102
RTVSPost2010Prop49
280
     0
102
RTVSPost2010PropOp49
 70
     1
102
RTVSPost2010Prop50
 90
       50
102
RTVSPost2010PropOp50
 70
     1
102
RTVSPost2010Prop51ColorIndex
 90
      256
102
RTVSPost2010Prop51ColorRGB
 90
-16777216
102
RTVSPost2010PropOp51
 70
     0
102
RTVSPost2010Prop52
140
1.0
102
RTVSPost2010PropOp52
 70
     0
102
RTVSPost2010Prop53
 90
        2
102
RTVSPost2010PropOp53
 70
     1
102
RTVSPost2010Prop54
  1
strokes_ogs.tif
102
RTVSPost2010PropOp54
 70
     1
102
RTVSPost2010Prop55
280
     0
102
RTVSPost2010PropOp55
 70
     1
102
RTVSPost2010Prop56
140
1.0
102
RTVSPost2010PropOp56
 70
     1
102
RTVSPost2010Prop57
140
1.0
102
RTVSPost2010PropOp57
 70
     1
102
RTVSPropertyOp0
 70
     1
102
RTVSPropertyOp1
 70
     1
102
RTVSPropertyOp2
 70
     1
102
RTVSPropertyOp3
 70
     1
102
RTVSPropertyOp4
 70
     1
102
RTVSPropertyOp5
 70
     1
102
RTVSPropertyOp6
 70
     1
102
RTVSPropertyOp7
 70
     1
102
RTVSPropertyOp8
 70
     1
102
RTVSPropertyOp9
 70
     1
102
RTVSPropertyOp10
 70
     1
102
RTVSPropertyOp11
 70
     1
102
RTVSPropertyOp12
 70
     1
102
RTVSPropertyOp13
 70
     1
102
RTVSPropertyOp14
 70
     1
102
RTVSPropertyOp15
 70
     1
102
RTVSPropertyOp16
 70
     1
102
RTVSPropertyOp17
 70
     1
102
RTVSPropertyOp18
 70
     1
102
RTVSPropertyOp19
 70
     1
102
RTVSPropertyOp20
 70
     1
102
RTVSPropertyOp21
 70
     1
102
RTVSPropertyOp22
 70
     1
102
RTVSPropertyOp23
 70
     1
102
RTVSPropertyOp24
 70
     1
102
RTVSPropertyOp25
 70
     1
102
RTVSPropertyOp26
 70
     1
102
RTVSPropertyOp27
 70
     1
102
RTVSPropertyOp28
 70
     1
102
RTVSPropertyOp29
 70
     1
102
RTVSPropertyOp30
 70
     1
102
RTVSPropertyOp31
 70
     1
102
RTVSPropertyOp32
 70
     1
102
RTVSPropertyOp33
 70
     1
102
RTVSPropertyOp34
 70
     1
102
RTVSPropertyOp35
 70
     1
102
RTVSPropertyOp36
 70
     1
102
RTVSPropertyOp37
 70
     1
102
RTVSPropertyOp38
 70
     1
102
RTVSPropertyOp39
 70
     1
102
RTVSPropertyOp40
 70
     1
102
RTVSPropertyOp41
 70
     1
102
RTVSPropertyOp42
 70
     1
102
RTVSPropertyOp43
 70
     1
102
RTVSPropertyOp44
 70
     1
102
RTVSPropertyOp45
 70
     1
102
RTVSPropertyOp46
 70
     1
102
RTVSPropertyOp47
 70
     1
102
RTVSPropertyOp48
 70
     1
102
RTVSPropertyOp49
 70
     1
102
RTVSPropertyOp50
 70
     1
102
RTVSPropertyOp51
 70
     0
102
RTVSPropertyOp52
 70
     0
102
RTVSPropertyOp53
 70
     1
102
RTVSPropertyOp54
 70
     1
102
RTVSPropertyOp55
 70
     1
102
RTVSPropertyOp56
 70
     1
102
RTVSPropertyOp57
 70
     1
102
RTVSPropertyOp58
 70
     1
102
RTVSPropertyOp59
 70
     1
102
RTVSPropertyOp60
 70
     1
102
RTVSPropertyOp61
 70
     1
102
RTVSPropertyOp62
 70
     1
  0
XRECORD
  5
1267
102
{ACAD_REACTORS
330
1266
102
}
330
1266
100
AcDbXrecord
280
     1
102
RTVSPost2010Prop28
280
     0
102
RTVSPost2010PropOp28
 70
     1
102
RTVSPost2010Prop29
280
     1
102
RTVSPost2010PropOp29
 70
     1
102
RTVSPost2010Prop30
280
     1
102
RTVSPost2010PropOp30
 70
     1
102
RTVSPost2010Prop31
280
     0
102
RTVSPost2010PropOp31
 70
     1
102
RTVSPost2010Prop32
280
     0
102
RTVSPost2010PropOp32
 70
     1
102
RTVSPost2010Prop33
280
     0
102
RTVSPost2010PropOp33
 70
     1
102
RTVSPost2010Prop34
280
     0
102
RTVSPost2010PropOp34
 70
     1
102
RTVSPost2010Prop35
280
     0
102
RTVSPost2010PropOp35
 70
     1
102
RTVSPost2010Prop36
280
     0
102
RTVSPost2010PropOp36
 70
     1
102
RTVSPost2010Prop37
 90
       50
102
RTVSPost2010PropOp37
 70
     1
102
RTVSPost2010Prop38
140
0.0
102
RTVSPost2010PropOp38
 70
     1
102
RTVSPost2010Prop39
140
1.0
102
RTVSPost2010PropOp39
 70
     1
102
RTVSPost2010Prop40
 90
        0
102
RTVSPost2010PropOp40
 70
     1
102
RTVSPost2010Prop41ColorIndex
 90
       18
102
RTVSPost2010Prop41ColorRGB
 90
        0
102
RTVSPost2010PropOp41
 70
     1
102
RTVSPost2010Prop42
 90
       50
102
RTVSPost2010PropOp42
 70
     1
102
RTVSPost2010Prop43
 90
        3
102
RTVSPost2010PropOp43
 70
     1
102
RTVSPost2010Prop44ColorIndex
 90
        5
102
RTVSPost2010Prop44ColorRGB
 90
      255
102
RTVSPost2010PropOp44
 70
     1
102
RTVSPost2010Prop45
280
     0
102
RTVSPost2010PropOp45
 70
     1
102
RTVSPost2010Prop46
 90
       50
102
RTVSPost2010PropOp46
 70
     1
102
RTVSPost2010Prop47
 90
       50
102
RTVSPost2010PropOp47
 70
     1
102
RTVSPost2010Prop48
 90
       50
102
RTVSPost2010PropOp48
 70
     1
102
RTVSPost2010Prop49
280
     0
102
RTVSPost2010PropOp49
 70
     1
102
RTVSPost2010Prop50
 90
       50
102
RTVSPost2010PropOp50
 70
     1
102
RTVSPost2010Prop51ColorIndex
 90
      256
102
RTVSPost2010Prop51ColorRGB
 90
-16777216
102
RTVSPost2010PropOp51
 70
     0
102
RTVSPost2010Prop52
140
1.0
102
RTVSPost2010PropOp52
 70
     0
102
RTVSPost2010Prop53
 90
        2
102
RTVSPost2010PropOp53
 70
     1
102
RTVSPost2010Prop54
  1
strokes_ogs.tif
102
RTVSPost2010PropOp54
 70
     1
102
RTVSPost2010Prop55
280
     0
102
RTVSPost2010PropOp55
 70
     1
102
RTVSPost2010Prop56
140
1.0
102
RTVSPost2010PropOp56
 70
     1
102
RTVSPost2010Prop57
140
1.0
102
RTVSPost2010PropOp57
 70
     1
102
RTVSPropertyOp0
 70
     1
102
RTVSPropertyOp1
 70
     1
102
RTVSPropertyOp2
 70
     1
102
RTVSPropertyOp3
 70
     1
102
RTVSPropertyOp4
 70
     1
102
RTVSPropertyOp5
 70
     1
102
RTVSPropertyOp6
 70
     1
102
RTVSPropertyOp7
 70
     1
102
RTVSPropertyOp8
 70
     1
102
RTVSPropertyOp9
 70
     1
102
RTVSPropertyOp10
 70
     1
102
RTVSPropertyOp11
 70
     1
102
RTVSPropertyOp12
 70
     1
102
RTVSPropertyOp13
 70
     1
102
RTVSPropertyOp14
 70
     1
102
RTVSPropertyOp15
 70
     1
102
RTVSPropertyOp16
 70
     1
102
RTVSPropertyOp17
 70
     1
102
RTVSPropertyOp18
 70
     1
102
RTVSPropertyOp19
 70
     1
102
RTVSPropertyOp20
 70
     1
102
RTVSPropertyOp21
 70
     1
102
RTVSPropertyOp22
 70
     1
102
RTVSPropertyOp23
 70
     1
102
RTVSPropertyOp24
 70
     1
102
RTVSPropertyOp25
 70
     1
102
RTVSPropertyOp26
 70
     1
102
RTVSPropertyOp27
 70
     1
102
RTVSPropertyOp28
 70
     1
102
RTVSPropertyOp29
 70
     1
102
RTVSPropertyOp30
 70
     1
102
RTVSPropertyOp31
 70
     1
102
RTVSPropertyOp32
 70
     1
102
RTVSPropertyOp33
 70
     1
102
RTVSPropertyOp34
 70
     1
102
RTVSPropertyOp35
 70
     1
102
RTVSPropertyOp36
 70
     1
102
RTVSPropertyOp37
 70
     1
102
RTVSPropertyOp38
 70
     1
102
RTVSPropertyOp39
 70
     1
102
RTVSPropertyOp40
 70
     1
102
RTVSPropertyOp41
 70
     1
102
RTVSPropertyOp42
 70
     1
102
RTVSPropertyOp43
 70
     1
102
RTVSPropertyOp44
 70
     1
102
RTVSPropertyOp45
 70
     1
102
RTVSPropertyOp46
 70
     1
102
RTVSPropertyOp47
 70
     1
102
RTVSPropertyOp48
 70
     1
102
RTVSPropertyOp49
 70
     1
102
RTVSPropertyOp50
 70
     1
102
RTVSPropertyOp51
 70
     0
102
RTVSPropertyOp52
 70
     0
102
RTVSPropertyOp53
 70
     1
102
RTVSPropertyOp54
 70
     1
102
RTVSPropertyOp55
 70
     1
102
RTVSPropertyOp56
 70
     1
102
RTVSPropertyOp57
 70
     1
102
RTVSPropertyOp58
 70
     1
102
RTVSPropertyOp59
 70
     1
102
RTVSPropertyOp60
 70
     1
102
RTVSPropertyOp61
 70
     1
102
RTVSPropertyOp62
 70
     1
  0
XRECORD
  5
126B
102
{ACAD_REACTORS
330
126A
102
}
330
126A
100
AcDbXrecord
280
     1
102
RTVSPost2010Prop28
280
     0
102
RTVSPost2010PropOp28
 70
     1
102
RTVSPost2010Prop29
280
     1
102
RTVSPost2010PropOp29
 70
     1
102
RTVSPost2010Prop30
280
     1
102
RTVSPost2010PropOp30
 70
     1
102
RTVSPost2010Prop31
280
     0
102
RTVSPost2010PropOp31
 70
     1
102
RTVSPost2010Prop32
280
     0
102
RTVSPost2010PropOp32
 70
     1
102
RTVSPost2010Prop33
280
     0
102
RTVSPost2010PropOp33
 70
     1
102
RTVSPost2010Prop34
280
     0
102
RTVSPost2010PropOp34
 70
     1
102
RTVSPost2010Prop35
280
     0
102
RTVSPost2010PropOp35
 70
     1
102
RTVSPost2010Prop36
280
     0
102
RTVSPost2010PropOp36
 70
     1
102
RTVSPost2010Prop37
 90
       50
102
RTVSPost2010PropOp37
 70
     1
102
RTVSPost2010Prop38
140
0.0
102
RTVSPost2010PropOp38
 70
     1
102
RTVSPost2010Prop39
140
1.0
102
RTVSPost2010PropOp39
 70
     1
102
RTVSPost2010Prop40
 90
        0
102
RTVSPost2010PropOp40
 70
     1
102
RTVSPost2010Prop41ColorIndex
 90
       18
102
RTVSPost2010Prop41ColorRGB
 90
        0
102
RTVSPost2010PropOp41
 70
     1
102
RTVSPost2010Prop42
 90
       50
102
RTVSPost2010PropOp42
 70
     1
102
RTVSPost2010Prop43
 90
        3
102
RTVSPost2010PropOp43
 70
     1
102
RTVSPost2010Prop44ColorIndex
 90
        5
102
RTVSPost2010Prop44ColorRGB
 90
      255
102
RTVSPost2010PropOp44
 70
     1
102
RTVSPost2010Prop45
280
     0
102
RTVSPost2010PropOp45
 70
     1
102
RTVSPost2010Prop46
 90
       50
102
RTVSPost2010PropOp46
 70
     1
102
RTVSPost2010Prop47
 90
       50
102
RTVSPost2010PropOp47
 70
     1
102
RTVSPost2010Prop48
 90
       50
102
RTVSPost2010PropOp48
 70
     1
102
RTVSPost2010Prop49
280
     0
102
RTVSPost2010PropOp49
 70
     1
102
RTVSPost2010Prop50
 90
       50
102
RTVSPost2010PropOp50
 70
     1
102
RTVSPost2010Prop51ColorIndex
 90
      256
102
RTVSPost2010Prop51ColorRGB
 90
-16777216
102
RTVSPost2010PropOp51
 70
     0
102
RTVSPost2010Prop52
140
1.0
102
RTVSPost2010PropOp52
 70
     0
102
RTVSPost2010Prop53
 90
        2
102
RTVSPost2010PropOp53
 70
     1
102
RTVSPost2010Prop54
  1
strokes_ogs.tif
102
RTVSPost2010PropOp54
 70
     1
102
RTVSPost2010Prop55
280
     0
102
RTVSPost2010PropOp55
 70
     1
102
RTVSPost2010Prop56
140
1.0
102
RTVSPost2010PropOp56
 70
     1
102
RTVSPost2010Prop57
140
1.0
102
RTVSPost2010PropOp57
 70
     1
102
RTVSPropertyOp0
 70
     1
102
RTVSPropertyOp1
 70
     1
102
RTVSPropertyOp2
 70
     1
102
RTVSPropertyOp3
 70
     1
102
RTVSPropertyOp4
 70
     1
102
RTVSPropertyOp5
 70
     1
102
RTVSPropertyOp6
 70
     1
102
RTVSPropertyOp7
 70
     1
102
RTVSPropertyOp8
 70
     1
102
RTVSPropertyOp9
 70
     1
102
RTVSPropertyOp10
 70
     1
102
RTVSPropertyOp11
 70
     1
102
RTVSPropertyOp12
 70
     1
102
RTVSPropertyOp13
 70
     1
102
RTVSPropertyOp14
 70
     1
102
RTVSPropertyOp15
 70
     1
102
RTVSPropertyOp16
 70
     1
102
RTVSPropertyOp17
 70
     1
102
RTVSPropertyOp18
 70
     1
102
RTVSPropertyOp19
 70
     1
102
RTVSPropertyOp20
 70
     1
102
RTVSPropertyOp21
 70
     1
102
RTVSPropertyOp22
 70
     1
102
RTVSPropertyOp23
 70
     1
102
RTVSPropertyOp24
 70
     1
102
RTVSPropertyOp25
 70
     1
102
RTVSPropertyOp26
 70
     1
102
RTVSPropertyOp27
 70
     1
102
RTVSPropertyOp28
 70
     1
102
RTVSPropertyOp29
 70
     1
102
RTVSPropertyOp30
 70
     1
102
RTVSPropertyOp31
 70
     1
102
RTVSPropertyOp32
 70
     1
102
RTVSPropertyOp33
 70
     1
102
RTVSPropertyOp34
 70
     1
102
RTVSPropertyOp35
 70
     1
102
RTVSPropertyOp36
 70
     1
102
RTVSPropertyOp37
 70
     1
102
RTVSPropertyOp38
 70
     1
102
RTVSPropertyOp39
 70
     1
102
RTVSPropertyOp40
 70
     1
102
RTVSPropertyOp41
 70
     1
102
RTVSPropertyOp42
 70
     1
102
RTVSPropertyOp43
 70
     1
102
RTVSPropertyOp44
 70
     1
102
RTVSPropertyOp45
 70
     1
102
RTVSPropertyOp46
 70
     1
102
RTVSPropertyOp47
 70
     1
102
RTVSPropertyOp48
 70
     1
102
RTVSPropertyOp49
 70
     1
102
RTVSPropertyOp50
 70
     1
102
RTVSPropertyOp51
 70
     0
102
RTVSPropertyOp52
 70
     0
102
RTVSPropertyOp53
 70
     1
102
RTVSPropertyOp54
 70
     1
102
RTVSPropertyOp55
 70
     1
102
RTVSPropertyOp56
 70
     1
102
RTVSPropertyOp57
 70
     1
102
RTVSPropertyOp58
 70
     1
102
RTVSPropertyOp59
 70
     1
102
RTVSPropertyOp60
 70
     1
102
RTVSPropertyOp61
 70
     1
102
RTVSPropertyOp62
 70
     1
  0
XRECORD
  5
127D
102
{ACAD_REACTORS
330
127C
102
}
330
127C
100
AcDbXrecord
280
     1
102
RTVSPost2010Prop28
280
     0
102
RTVSPost2010PropOp28
 70
     1
102
RTVSPost2010Prop29
280
     1
102
RTVSPost2010PropOp29
 70
     1
102
RTVSPost2010Prop30
280
     1
102
RTVSPost2010PropOp30
 70
     1
102
RTVSPost2010Prop31
280
     0
102
RTVSPost2010PropOp31
 70
     1
102
RTVSPost2010Prop32
280
     0
102
RTVSPost2010PropOp32
 70
     1
102
RTVSPost2010Prop33
280
     0
102
RTVSPost2010PropOp33
 70
     1
102
RTVSPost2010Prop34
280
     0
102
RTVSPost2010PropOp34
 70
     1
102
RTVSPost2010Prop35
280
     0
102
RTVSPost2010PropOp35
 70
     1
102
RTVSPost2010Prop36
280
     0
102
RTVSPost2010PropOp36
 70
     1
102
RTVSPost2010Prop37
 90
       50
102
RTVSPost2010PropOp37
 70
     1
102
RTVSPost2010Prop38
140
0.0
102
RTVSPost2010PropOp38
 70
     1
102
RTVSPost2010Prop39
140
1.0
102
RTVSPost2010PropOp39
 70
     1
102
RTVSPost2010Prop40
 90
        0
102
RTVSPost2010PropOp40
 70
     1
102
RTVSPost2010Prop41ColorIndex
 90
       18
102
RTVSPost2010Prop41ColorRGB
 90
        0
102
RTVSPost2010PropOp41
 70
     1
102
RTVSPost2010Prop42
 90
       50
102
RTVSPost2010PropOp42
 70
     1
102
RTVSPost2010Prop43
 90
        3
102
RTVSPost2010PropOp43
 70
     1
102
RTVSPost2010Prop44ColorIndex
 90
        5
102
RTVSPost2010Prop44ColorRGB
 90
      255
102
RTVSPost2010PropOp44
 70
     1
102
RTVSPost2010Prop45
280
     0
102
RTVSPost2010PropOp45
 70
     1
102
RTVSPost2010Prop46
 90
       50
102
RTVSPost2010PropOp46
 70
     1
102
RTVSPost2010Prop47
 90
       50
102
RTVSPost2010PropOp47
 70
     1
102
RTVSPost2010Prop48
 90
       50
102
RTVSPost2010PropOp48
 70
     1
102
RTVSPost2010Prop49
280
     0
102
RTVSPost2010PropOp49
 70
     1
102
RTVSPost2010Prop50
 90
       50
102
RTVSPost2010PropOp50
 70
     1
102
RTVSPost2010Prop51ColorIndex
 90
      256
102
RTVSPost2010Prop51ColorRGB
 90
-16777216
102
RTVSPost2010PropOp51
 70
     0
102
RTVSPost2010Prop52
140
1.0
102
RTVSPost2010PropOp52
 70
     0
102
RTVSPost2010Prop53
 90
        2
102
RTVSPost2010PropOp53
 70
     1
102
RTVSPost2010Prop54
  1
strokes_ogs.tif
102
RTVSPost2010PropOp54
 70
     1
102
RTVSPost2010Prop55
280
     0
102
RTVSPost2010PropOp55
 70
     1
102
RTVSPost2010Prop56
140
1.0
102
RTVSPost2010PropOp56
 70
     1
102
RTVSPost2010Prop57
140
1.0
102
RTVSPost2010PropOp57
 70
     1
102
RTVSPropertyOp0
 70
     0
102
RTVSPropertyOp1
 70
     0
102
RTVSPropertyOp2
 70
     0
102
RTVSPropertyOp3
 70
     0
102
RTVSPropertyOp4
 70
     0
102
RTVSPropertyOp5
 70
     0
102
RTVSPropertyOp6
 70
     0
102
RTVSPropertyOp7
 70
     0
102
RTVSPropertyOp8
 70
     0
102
RTVSPropertyOp9
 70
     0
102
RTVSPropertyOp10
 70
     0
102
RTVSPropertyOp11
 70
     0
102
RTVSPropertyOp12
 70
     0
102
RTVSPropertyOp13
 70
     0
102
RTVSPropertyOp14
 70
     2
102
RTVSPropertyOp15
 70
     0
102
RTVSPropertyOp16
 70
     0
102
RTVSPropertyOp17
 70
     0
102
RTVSPropertyOp18
 70
     0
102
RTVSPropertyOp19
 70
     0
102
RTVSPropertyOp20
 70
     0
102
RTVSPropertyOp21
 70
     0
102
RTVSPropertyOp22
 70
     0
102
RTVSPropertyOp23
 70
     0
102
RTVSPropertyOp24
 70
     0
102
RTVSPropertyOp25
 70
     0
102
RTVSPropertyOp26
 70
     0
102
RTVSPropertyOp27
 70
     0
102
RTVSPropertyOp28
 70
     1
102
RTVSPropertyOp29
 70
     1
102
RTVSPropertyOp30
 70
     1
102
RTVSPropertyOp31
 70
     1
102
RTVSPropertyOp32
 70
     1
102
RTVSPropertyOp33
 70
     1
102
RTVSPropertyOp34
 70
     1
102
RTVSPropertyOp35
 70
     1
102
RTVSPropertyOp36
 70
     1
102
RTVSPropertyOp37
 70
     1
102
RTVSPropertyOp38
 70
     1
102
RTVSPropertyOp39
 70
     1
102
RTVSPropertyOp40
 70
     1
102
RTVSPropertyOp41
 70
     1
102
RTVSPropertyOp42
 70
     1
102
RTVSPropertyOp43
 70
     1
102
RTVSPropertyOp44
 70
     1
102
RTVSPropertyOp45
 70
     1
102
RTVSPropertyOp46
 70
     1
102
RTVSPropertyOp47
 70
     1
102
RTVSPropertyOp48
 70
     1
102
RTVSPropertyOp49
 70
     1
102
RTVSPropertyOp50
 70
     1
102
RTVSPropertyOp51
 70
     0
102
RTVSPropertyOp52
 70
     0
102
RTVSPropertyOp53
 70
     1
102
RTVSPropertyOp54
 70
     1
102
RTVSPropertyOp55
 70
     1
102
RTVSPropertyOp56
 70
     1
102
RTVSPropertyOp57
 70
     1
102
RTVSPropertyOp58
 70
     1
102
RTVSPropertyOp59
 70
     1
102
RTVSPropertyOp60
 70
     1
102
RTVSPropertyOp61
 70
     1
102
RTVSPropertyOp62
 70
     1
  0
XRECORD
  5
1273
102
{ACAD_REACTORS
330
1272
102
}
330
1272
100
AcDbXrecord
280
     1
102
RTVSPost2010Prop28
280
     0
102
RTVSPost2010PropOp28
 70
     1
102
RTVSPost2010Prop29
280
     1
102
RTVSPost2010PropOp29
 70
     1
102
RTVSPost2010Prop30
280
     1
102
RTVSPost2010PropOp30
 70
     1
102
RTVSPost2010Prop31
280
     0
102
RTVSPost2010PropOp31
 70
     1
102
RTVSPost2010Prop32
280
     0
102
RTVSPost2010PropOp32
 70
     1
102
RTVSPost2010Prop33
280
     0
102
RTVSPost2010PropOp33
 70
     1
102
RTVSPost2010Prop34
280
     0
102
RTVSPost2010PropOp34
 70
     1
102
RTVSPost2010Prop35
280
     0
102
RTVSPost2010PropOp35
 70
     1
102
RTVSPost2010Prop36
280
     0
102
RTVSPost2010PropOp36
 70
     1
102
RTVSPost2010Prop37
 90
       50
102
RTVSPost2010PropOp37
 70
     1
102
RTVSPost2010Prop38
140
0.0
102
RTVSPost2010PropOp38
 70
     1
102
RTVSPost2010Prop39
140
1.0
102
RTVSPost2010PropOp39
 70
     1
102
RTVSPost2010Prop40
 90
        0
102
RTVSPost2010PropOp40
 70
     1
102
RTVSPost2010Prop41ColorIndex
 90
       18
102
RTVSPost2010Prop41ColorRGB
 90
        0
102
RTVSPost2010PropOp41
 70
     1
102
RTVSPost2010Prop42
 90
       50
102
RTVSPost2010PropOp42
 70
     1
102
RTVSPost2010Prop43
 90
        3
102
RTVSPost2010PropOp43
 70
     1
102
RTVSPost2010Prop44ColorIndex
 90
        5
102
RTVSPost2010Prop44ColorRGB
 90
      255
102
RTVSPost2010PropOp44
 70
     1
102
RTVSPost2010Prop45
280
     0
102
RTVSPost2010PropOp45
 70
     1
102
RTVSPost2010Prop46
 90
       50
102
RTVSPost2010PropOp46
 70
     1
102
RTVSPost2010Prop47
 90
       50
102
RTVSPost2010PropOp47
 70
     1
102
RTVSPost2010Prop48
 90
       50
102
RTVSPost2010PropOp48
 70
     1
102
RTVSPost2010Prop49
280
     0
102
RTVSPost2010PropOp49
 70
     1
102
RTVSPost2010Prop50
 90
       50
102
RTVSPost2010PropOp50
 70
     1
102
RTVSPost2010Prop51ColorIndex
 90
      256
102
RTVSPost2010Prop51ColorRGB
 90
-16777216
102
RTVSPost2010PropOp51
 70
     0
102
RTVSPost2010Prop52
140
1.0
102
RTVSPost2010PropOp52
 70
     0
102
RTVSPost2010Prop53
 90
        2
102
RTVSPost2010PropOp53
 70
     1
102
RTVSPost2010Prop54
  1
strokes_ogs.tif
102
RTVSPost2010PropOp54
 70
     1
102
RTVSPost2010Prop55
280
     0
102
RTVSPost2010PropOp55
 70
     1
102
RTVSPost2010Prop56
140
1.0
102
RTVSPost2010PropOp56
 70
     1
102
RTVSPost2010Prop57
140
1.0
102
RTVSPost2010PropOp57
 70
     1
102
RTVSPropertyOp0
 70
     1
102
RTVSPropertyOp1
 70
     1
102
RTVSPropertyOp2
 70
     1
102
RTVSPropertyOp3
 70
     1
102
RTVSPropertyOp4
 70
     1
102
RTVSPropertyOp5
 70
     1
102
RTVSPropertyOp6
 70
     1
102
RTVSPropertyOp7
 70
     1
102
RTVSPropertyOp8
 70
     1
102
RTVSPropertyOp9
 70
     1
102
RTVSPropertyOp10
 70
     1
102
RTVSPropertyOp11
 70
     1
102
RTVSPropertyOp12
 70
     1
102
RTVSPropertyOp13
 70
     1
102
RTVSPropertyOp14
 70
     1
102
RTVSPropertyOp15
 70
     1
102
RTVSPropertyOp16
 70
     1
102
RTVSPropertyOp17
 70
     1
102
RTVSPropertyOp18
 70
     1
102
RTVSPropertyOp19
 70
     1
102
RTVSPropertyOp20
 70
     1
102
RTVSPropertyOp21
 70
     1
102
RTVSPropertyOp22
 70
     1
102
RTVSPropertyOp23
 70
     1
102
RTVSPropertyOp24
 70
     1
102
RTVSPropertyOp25
 70
     1
102
RTVSPropertyOp26
 70
     1
102
RTVSPropertyOp27
 70
     1
102
RTVSPropertyOp28
 70
     1
102
RTVSPropertyOp29
 70
     1
102
RTVSPropertyOp30
 70
     1
102
RTVSPropertyOp31
 70
     1
102
RTVSPropertyOp32
 70
     1
102
RTVSPropertyOp33
 70
     1
102
RTVSPropertyOp34
 70
     1
102
RTVSPropertyOp35
 70
     1
102
RTVSPropertyOp36
 70
     1
102
RTVSPropertyOp37
 70
     1
102
RTVSPropertyOp38
 70
     1
102
RTVSPropertyOp39
 70
     1
102
RTVSPropertyOp40
 70
     1
102
RTVSPropertyOp41
 70
     1
102
RTVSPropertyOp42
 70
     1
102
RTVSPropertyOp43
 70
     1
102
RTVSPropertyOp44
 70
     1
102
RTVSPropertyOp45
 70
     1
102
RTVSPropertyOp46
 70
     1
102
RTVSPropertyOp47
 70
     1
102
RTVSPropertyOp48
 70
     1
102
RTVSPropertyOp49
 70
     1
102
RTVSPropertyOp50
 70
     1
102
RTVSPropertyOp51
 70
     0
102
RTVSPropertyOp52
 70
     0
102
RTVSPropertyOp53
 70
     1
102
RTVSPropertyOp54
 70
     1
102
RTVSPropertyOp55
 70
     1
102
RTVSPropertyOp56
 70
     1
102
RTVSPropertyOp57
 70
     1
102
RTVSPropertyOp58
 70
     1
102
RTVSPropertyOp59
 70
     1
102
RTVSPropertyOp60
 70
     1
102
RTVSPropertyOp61
 70
     1
102
RTVSPropertyOp62
 70
     1
  0
XRECORD
  5
1257
102
{ACAD_REACTORS
330
1256
102
}
330
1256
100
AcDbXrecord
280
     1
102
RTVSPost2010Prop28
280
     0
102
RTVSPost2010PropOp28
 70
     1
102
RTVSPost2010Prop29
280
     1
102
RTVSPost2010PropOp29
 70
     1
102
RTVSPost2010Prop30
280
     1
102
RTVSPost2010PropOp30
 70
     1
102
RTVSPost2010Prop31
280
     0
102
RTVSPost2010PropOp31
 70
     1
102
RTVSPost2010Prop32
280
     0
102
RTVSPost2010PropOp32
 70
     1
102
RTVSPost2010Prop33
280
     0
102
RTVSPost2010PropOp33
 70
     1
102
RTVSPost2010Prop34
280
     0
102
RTVSPost2010PropOp34
 70
     1
102
RTVSPost2010Prop35
280
     0
102
RTVSPost2010PropOp35
 70
     1
102
RTVSPost2010Prop36
280
     0
102
RTVSPost2010PropOp36
 70
     1
102
RTVSPost2010Prop37
 90
       50
102
RTVSPost2010PropOp37
 70
     1
102
RTVSPost2010Prop38
140
0.0
102
RTVSPost2010PropOp38
 70
     1
102
RTVSPost2010Prop39
140
1.0
102
RTVSPost2010PropOp39
 70
     1
102
RTVSPost2010Prop40
 90
        0
102
RTVSPost2010PropOp40
 70
     1
102
RTVSPost2010Prop41ColorIndex
 90
       18
102
RTVSPost2010Prop41ColorRGB
 90
        0
102
RTVSPost2010PropOp41
 70
     1
102
RTVSPost2010Prop42
 90
       50
102
RTVSPost2010PropOp42
 70
     1
102
RTVSPost2010Prop43
 90
        3
102
RTVSPost2010PropOp43
 70
     1
102
RTVSPost2010Prop44ColorIndex
 90
        5
102
RTVSPost2010Prop44ColorRGB
 90
      255
102
RTVSPost2010PropOp44
 70
     1
102
RTVSPost2010Prop45
280
     0
102
RTVSPost2010PropOp45
 70
     1
102
RTVSPost2010Prop46
 90
       50
102
RTVSPost2010PropOp46
 70
     1
102
RTVSPost2010Prop47
 90
       50
102
RTVSPost2010PropOp47
 70
     1
102
RTVSPost2010Prop48
 90
       50
102
RTVSPost2010PropOp48
 70
     1
102
RTVSPost2010Prop49
280
     0
102
RTVSPost2010PropOp49
 70
     1
102
RTVSPost2010Prop50
 90
       50
102
RTVSPost2010PropOp50
 70
     1
102
RTVSPost2010Prop51ColorIndex
 90
      256
102
RTVSPost2010Prop51ColorRGB
 90
-16777216
102
RTVSPost2010PropOp51
 70
     0
102
RTVSPost2010Prop52
140
1.0
102
RTVSPost2010PropOp52
 70
     0
102
RTVSPost2010Prop53
 90
        2
102
RTVSPost2010PropOp53
 70
     1
102
RTVSPost2010Prop54
  1
strokes_ogs.tif
102
RTVSPost2010PropOp54
 70
     1
102
RTVSPost2010Prop55
280
     0
102
RTVSPost2010PropOp55
 70
     1
102
RTVSPost2010Prop56
140
1.0
102
RTVSPost2010PropOp56
 70
     1
102
RTVSPost2010Prop57
140
1.0
102
RTVSPost2010PropOp57
 70
     1
102
RTVSPropertyOp0
 70
     1
102
RTVSPropertyOp1
 70
     1
102
RTVSPropertyOp2
 70
     1
102
RTVSPropertyOp3
 70
     1
102
RTVSPropertyOp4
 70
     1
102
RTVSPropertyOp5
 70
     1
102
RTVSPropertyOp6
 70
     1
102
RTVSPropertyOp7
 70
     1
102
RTVSPropertyOp8
 70
     1
102
RTVSPropertyOp9
 70
     1
102
RTVSPropertyOp10
 70
     1
102
RTVSPropertyOp11
 70
     1
102
RTVSPropertyOp12
 70
     1
102
RTVSPropertyOp13
 70
     1
102
RTVSPropertyOp14
 70
     1
102
RTVSPropertyOp15
 70
     1
102
RTVSPropertyOp16
 70
     1
102
RTVSPropertyOp17
 70
     1
102
RTVSPropertyOp18
 70
     1
102
RTVSPropertyOp19
 70
     1
102
RTVSPropertyOp20
 70
     1
102
RTVSPropertyOp21
 70
     1
102
RTVSPropertyOp22
 70
     1
102
RTVSPropertyOp23
 70
     1
102
RTVSPropertyOp24
 70
     1
102
RTVSPropertyOp25
 70
     1
102
RTVSPropertyOp26
 70
     1
102
RTVSPropertyOp27
 70
     1
102
RTVSPropertyOp28
 70
     1
102
RTVSPropertyOp29
 70
     1
102
RTVSPropertyOp30
 70
     1
102
RTVSPropertyOp31
 70
     1
102
RTVSPropertyOp32
 70
     1
102
RTVSPropertyOp33
 70
     1
102
RTVSPropertyOp34
 70
     1
102
RTVSPropertyOp35
 70
     1
102
RTVSPropertyOp36
 70
     1
102
RTVSPropertyOp37
 70
     1
102
RTVSPropertyOp38
 70
     1
102
RTVSPropertyOp39
 70
     1
102
RTVSPropertyOp40
 70
     1
102
RTVSPropertyOp41
 70
     1
102
RTVSPropertyOp42
 70
     1
102
RTVSPropertyOp43
 70
     1
102
RTVSPropertyOp44
 70
     1
102
RTVSPropertyOp45
 70
     1
102
RTVSPropertyOp46
 70
     1
102
RTVSPropertyOp47
 70
     1
102
RTVSPropertyOp48
 70
     1
102
RTVSPropertyOp49
 70
     1
102
RTVSPropertyOp50
 70
     1
102
RTVSPropertyOp51
 70
     0
102
RTVSPropertyOp52
 70
     0
102
RTVSPropertyOp53
 70
     1
102
RTVSPropertyOp54
 70
     1
102
RTVSPropertyOp55
 70
     1
102
RTVSPropertyOp56
 70
     1
102
RTVSPropertyOp57
 70
     1
102
RTVSPropertyOp58
 70
     1
102
RTVSPropertyOp59
 70
     1
102
RTVSPropertyOp60
 70
     1
102
RTVSPropertyOp61
 70
     1
102
RTVSPropertyOp62
 70
     1
  0
XRECORD
  5
1259
102
{ACAD_REACTORS
330
1258
102
}
330
1258
100
AcDbXrecord
280
     1
102
RTVSPost2010Prop28
280
     0
102
RTVSPost2010PropOp28
 70
     1
102
RTVSPost2010Prop29
280
     1
102
RTVSPost2010PropOp29
 70
     1
102
RTVSPost2010Prop30
280
     1
102
RTVSPost2010PropOp30
 70
     1
102
RTVSPost2010Prop31
280
     0
102
RTVSPost2010PropOp31
 70
     1
102
RTVSPost2010Prop32
280
     0
102
RTVSPost2010PropOp32
 70
     1
102
RTVSPost2010Prop33
280
     0
102
RTVSPost2010PropOp33
 70
     1
102
RTVSPost2010Prop34
280
     0
102
RTVSPost2010PropOp34
 70
     1
102
RTVSPost2010Prop35
280
     0
102
RTVSPost2010PropOp35
 70
     1
102
RTVSPost2010Prop36
280
     0
102
RTVSPost2010PropOp36
 70
     1
102
RTVSPost2010Prop37
 90
       50
102
RTVSPost2010PropOp37
 70
     1
102
RTVSPost2010Prop38
140
0.0
102
RTVSPost2010PropOp38
 70
     1
102
RTVSPost2010Prop39
140
1.0
102
RTVSPost2010PropOp39
 70
     1
102
RTVSPost2010Prop40
 90
        0
102
RTVSPost2010PropOp40
 70
     1
102
RTVSPost2010Prop41ColorIndex
 90
       18
102
RTVSPost2010Prop41ColorRGB
 90
        0
102
RTVSPost2010PropOp41
 70
     1
102
RTVSPost2010Prop42
 90
       50
102
RTVSPost2010PropOp42
 70
     1
102
RTVSPost2010Prop43
 90
        3
102
RTVSPost2010PropOp43
 70
     1
102
RTVSPost2010Prop44ColorIndex
 90
        5
102
RTVSPost2010Prop44ColorRGB
 90
      255
102
RTVSPost2010PropOp44
 70
     1
102
RTVSPost2010Prop45
280
     0
102
RTVSPost2010PropOp45
 70
     1
102
RTVSPost2010Prop46
 90
       50
102
RTVSPost2010PropOp46
 70
     1
102
RTVSPost2010Prop47
 90
       50
102
RTVSPost2010PropOp47
 70
     1
102
RTVSPost2010Prop48
 90
       50
102
RTVSPost2010PropOp48
 70
     1
102
RTVSPost2010Prop49
280
     0
102
RTVSPost2010PropOp49
 70
     1
102
RTVSPost2010Prop50
 90
       50
102
RTVSPost2010PropOp50
 70
     1
102
RTVSPost2010Prop51ColorIndex
 90
      256
102
RTVSPost2010Prop51ColorRGB
 90
-16777216
102
RTVSPost2010PropOp51
 70
     0
102
RTVSPost2010Prop52
140
1.0
102
RTVSPost2010PropOp52
 70
     0
102
RTVSPost2010Prop53
 90
        2
102
RTVSPost2010PropOp53
 70
     1
102
RTVSPost2010Prop54
  1
strokes_ogs.tif
102
RTVSPost2010PropOp54
 70
     1
102
RTVSPost2010Prop55
280
     0
102
RTVSPost2010PropOp55
 70
     1
102
RTVSPost2010Prop56
140
1.0
102
RTVSPost2010PropOp56
 70
     1
102
RTVSPost2010Prop57
140
1.0
102
RTVSPost2010PropOp57
 70
     1
102
RTVSPropertyOp0
 70
     1
102
RTVSPropertyOp1
 70
     1
102
RTVSPropertyOp2
 70
     1
102
RTVSPropertyOp3
 70
     1
102
RTVSPropertyOp4
 70
     1
102
RTVSPropertyOp5
 70
     1
102
RTVSPropertyOp6
 70
     1
102
RTVSPropertyOp7
 70
     1
102
RTVSPropertyOp8
 70
     1
102
RTVSPropertyOp9
 70
     1
102
RTVSPropertyOp10
 70
     1
102
RTVSPropertyOp11
 70
     1
102
RTVSPropertyOp12
 70
     1
102
RTVSPropertyOp13
 70
     1
102
RTVSPropertyOp14
 70
     1
102
RTVSPropertyOp15
 70
     1
102
RTVSPropertyOp16
 70
     1
102
RTVSPropertyOp17
 70
     1
102
RTVSPropertyOp18
 70
     1
102
RTVSPropertyOp19
 70
     1
102
RTVSPropertyOp20
 70
     1
102
RTVSPropertyOp21
 70
     1
102
RTVSPropertyOp22
 70
     1
102
RTVSPropertyOp23
 70
     1
102
RTVSPropertyOp24
 70
     1
102
RTVSPropertyOp25
 70
     1
102
RTVSPropertyOp26
 70
     1
102
RTVSPropertyOp27
 70
     1
102
RTVSPropertyOp28
 70
     1
102
RTVSPropertyOp29
 70
     1
102
RTVSPropertyOp30
 70
     1
102
RTVSPropertyOp31
 70
     1
102
RTVSPropertyOp32
 70
     1
102
RTVSPropertyOp33
 70
     1
102
RTVSPropertyOp34
 70
     1
102
RTVSPropertyOp35
 70
     1
102
RTVSPropertyOp36
 70
     1
102
RTVSPropertyOp37
 70
     1
102
RTVSPropertyOp38
 70
     1
102
RTVSPropertyOp39
 70
     1
102
RTVSPropertyOp40
 70
     1
102
RTVSPropertyOp41
 70
     1
102
RTVSPropertyOp42
 70
     1
102
RTVSPropertyOp43
 70
     1
102
RTVSPropertyOp44
 70
     1
102
RTVSPropertyOp45
 70
     1
102
RTVSPropertyOp46
 70
     1
102
RTVSPropertyOp47
 70
     1
102
RTVSPropertyOp48
 70
     1
102
RTVSPropertyOp49
 70
     1
102
RTVSPropertyOp50
 70
     1
102
RTVSPropertyOp51
 70
     0
102
RTVSPropertyOp52
 70
     0
102
RTVSPropertyOp53
 70
     1
102
RTVSPropertyOp54
 70
     1
102
RTVSPropertyOp55
 70
     1
102
RTVSPropertyOp56
 70
     1
102
RTVSPropertyOp57
 70
     1
102
RTVSPropertyOp58
 70
     1
102
RTVSPropertyOp59
 70
     1
102
RTVSPropertyOp60
 70
     1
102
RTVSPropertyOp61
 70
     1
102
RTVSPropertyOp62
 70
     1
  0
XRECORD
  5
125B
102
{ACAD_REACTORS
330
125A
102
}
330
125A
100
AcDbXrecord
280
     1
102
RTVSPost2010Prop28
280
     0
102
RTVSPost2010PropOp28
 70
     1
102
RTVSPost2010Prop29
280
     1
102
RTVSPost2010PropOp29
 70
     1
102
RTVSPost2010Prop30
280
     1
102
RTVSPost2010PropOp30
 70
     1
102
RTVSPost2010Prop31
280
     0
102
RTVSPost2010PropOp31
 70
     1
102
RTVSPost2010Prop32
280
     0
102
RTVSPost2010PropOp32
 70
     1
102
RTVSPost2010Prop33
280
     0
102
RTVSPost2010PropOp33
 70
     1
102
RTVSPost2010Prop34
280
     0
102
RTVSPost2010PropOp34
 70
     1
102
RTVSPost2010Prop35
280
     0
102
RTVSPost2010PropOp35
 70
     1
102
RTVSPost2010Prop36
280
     0
102
RTVSPost2010PropOp36
 70
     1
102
RTVSPost2010Prop37
 90
       50
102
RTVSPost2010PropOp37
 70
     1
102
RTVSPost2010Prop38
140
0.0
102
RTVSPost2010PropOp38
 70
     1
102
RTVSPost2010Prop39
140
1.0
102
RTVSPost2010PropOp39
 70
     1
102
RTVSPost2010Prop40
 90
        0
102
RTVSPost2010PropOp40
 70
     1
102
RTVSPost2010Prop41ColorIndex
 90
       18
102
RTVSPost2010Prop41ColorRGB
 90
        0
102
RTVSPost2010PropOp41
 70
     1
102
RTVSPost2010Prop42
 90
       50
102
RTVSPost2010PropOp42
 70
     1
102
RTVSPost2010Prop43
 90
        3
102
RTVSPost2010PropOp43
 70
     1
102
RTVSPost2010Prop44ColorIndex
 90
        5
102
RTVSPost2010Prop44ColorRGB
 90
      255
102
RTVSPost2010PropOp44
 70
     1
102
RTVSPost2010Prop45
280
     0
102
RTVSPost2010PropOp45
 70
     1
102
RTVSPost2010Prop46
 90
       50
102
RTVSPost2010PropOp46
 70
     1
102
RTVSPost2010Prop47
 90
       50
102
RTVSPost2010PropOp47
 70
     1
102
RTVSPost2010Prop48
 90
       50
102
RTVSPost2010PropOp48
 70
     1
102
RTVSPost2010Prop49
280
     0
102
RTVSPost2010PropOp49
 70
     1
102
RTVSPost2010Prop50
 90
       50
102
RTVSPost2010PropOp50
 70
     1
102
RTVSPost2010Prop51ColorIndex
 90
      256
102
RTVSPost2010Prop51ColorRGB
 90
-16777216
102
RTVSPost2010PropOp51
 70
     0
102
RTVSPost2010Prop52
140
1.0
102
RTVSPost2010PropOp52
 70
     0
102
RTVSPost2010Prop53
 90
        2
102
RTVSPost2010PropOp53
 70
     1
102
RTVSPost2010Prop54
  1
strokes_ogs.tif
102
RTVSPost2010PropOp54
 70
     1
102
RTVSPost2010Prop55
280
     0
102
RTVSPost2010PropOp55
 70
     1
102
RTVSPost2010Prop56
140
1.0
102
RTVSPost2010PropOp56
 70
     1
102
RTVSPost2010Prop57
140
1.0
102
RTVSPost2010PropOp57
 70
     1
102
RTVSPropertyOp0
 70
     1
102
RTVSPropertyOp1
 70
     1
102
RTVSPropertyOp2
 70
     1
102
RTVSPropertyOp3
 70
     1
102
RTVSPropertyOp4
 70
     1
102
RTVSPropertyOp5
 70
     1
102
RTVSPropertyOp6
 70
     1
102
RTVSPropertyOp7
 70
     1
102
RTVSPropertyOp8
 70
     1
102
RTVSPropertyOp9
 70
     1
102
RTVSPropertyOp10
 70
     1
102
RTVSPropertyOp11
 70
     1
102
RTVSPropertyOp12
 70
     1
102
RTVSPropertyOp13
 70
     1
102
RTVSPropertyOp14
 70
     1
102
RTVSPropertyOp15
 70
     1
102
RTVSPropertyOp16
 70
     1
102
RTVSPropertyOp17
 70
     1
102
RTVSPropertyOp18
 70
     1
102
RTVSPropertyOp19
 70
     1
102
RTVSPropertyOp20
 70
     1
102
RTVSPropertyOp21
 70
     1
102
RTVSPropertyOp22
 70
     1
102
RTVSPropertyOp23
 70
     1
102
RTVSPropertyOp24
 70
     1
102
RTVSPropertyOp25
 70
     1
102
RTVSPropertyOp26
 70
     1
102
RTVSPropertyOp27
 70
     1
102
RTVSPropertyOp28
 70
     1
102
RTVSPropertyOp29
 70
     1
102
RTVSPropertyOp30
 70
     1
102
RTVSPropertyOp31
 70
     1
102
RTVSPropertyOp32
 70
     1
102
RTVSPropertyOp33
 70
     1
102
RTVSPropertyOp34
 70
     1
102
RTVSPropertyOp35
 70
     1
102
RTVSPropertyOp36
 70
     1
102
RTVSPropertyOp37
 70
     1
102
RTVSPropertyOp38
 70
     1
102
RTVSPropertyOp39
 70
     1
102
RTVSPropertyOp40
 70
     1
102
RTVSPropertyOp41
 70
     1
102
RTVSPropertyOp42
 70
     1
102
RTVSPropertyOp43
 70
     1
102
RTVSPropertyOp44
 70
     1
102
RTVSPropertyOp45
 70
     1
102
RTVSPropertyOp46
 70
     1
102
RTVSPropertyOp47
 70
     1
102
RTVSPropertyOp48
 70
     1
102
RTVSPropertyOp49
 70
     1
102
RTVSPropertyOp50
 70
     1
102
RTVSPropertyOp51
 70
     0
102
RTVSPropertyOp52
 70
     0
102
RTVSPropertyOp53
 70
     1
102
RTVSPropertyOp54
 70
     1
102
RTVSPropertyOp55
 70
     1
102
RTVSPropertyOp56
 70
     1
102
RTVSPropertyOp57
 70
     1
102
RTVSPropertyOp58
 70
     1
102
RTVSPropertyOp59
 70
     1
102
RTVSPropertyOp60
 70
     1
102
RTVSPropertyOp61
 70
     1
102
RTVSPropertyOp62
 70
     1
  0
XRECORD
  5
125D
102
{ACAD_REACTORS
330
125C
102
}
330
125C
100
AcDbXrecord
280
     1
102
RTVSPost2010Prop28
280
     0
102
RTVSPost2010PropOp28
 70
     1
102
RTVSPost2010Prop29
280
     1
102
RTVSPost2010PropOp29
 70
     1
102
RTVSPost2010Prop30
280
     1
102
RTVSPost2010PropOp30
 70
     1
102
RTVSPost2010Prop31
280
     0
102
RTVSPost2010PropOp31
 70
     1
102
RTVSPost2010Prop32
280
     0
102
RTVSPost2010PropOp32
 70
     1
102
RTVSPost2010Prop33
280
     0
102
RTVSPost2010PropOp33
 70
     1
102
RTVSPost2010Prop34
280
     0
102
RTVSPost2010PropOp34
 70
     1
102
RTVSPost2010Prop35
280
     0
102
RTVSPost2010PropOp35
 70
     1
102
RTVSPost2010Prop36
280
     0
102
RTVSPost2010PropOp36
 70
     1
102
RTVSPost2010Prop37
 90
       50
102
RTVSPost2010PropOp37
 70
     1
102
RTVSPost2010Prop38
140
0.0
102
RTVSPost2010PropOp38
 70
     1
102
RTVSPost2010Prop39
140
1.0
102
RTVSPost2010PropOp39
 70
     1
102
RTVSPost2010Prop40
 90
        0
102
RTVSPost2010PropOp40
 70
     1
102
RTVSPost2010Prop41ColorIndex
 90
       18
102
RTVSPost2010Prop41ColorRGB
 90
        0
102
RTVSPost2010PropOp41
 70
     1
102
RTVSPost2010Prop42
 90
       50
102
RTVSPost2010PropOp42
 70
     1
102
RTVSPost2010Prop43
 90
        3
102
RTVSPost2010PropOp43
 70
     1
102
RTVSPost2010Prop44ColorIndex
 90
        5
102
RTVSPost2010Prop44ColorRGB
 90
      255
102
RTVSPost2010PropOp44
 70
     1
102
RTVSPost2010Prop45
280
     0
102
RTVSPost2010PropOp45
 70
     1
102
RTVSPost2010Prop46
 90
       50
102
RTVSPost2010PropOp46
 70
     1
102
RTVSPost2010Prop47
 90
       50
102
RTVSPost2010PropOp47
 70
     1
102
RTVSPost2010Prop48
 90
       50
102
RTVSPost2010PropOp48
 70
     1
102
RTVSPost2010Prop49
280
     0
102
RTVSPost2010PropOp49
 70
     1
102
RTVSPost2010Prop50
 90
       50
102
RTVSPost2010PropOp50
 70
     1
102
RTVSPost2010Prop51ColorIndex
 90
      256
102
RTVSPost2010Prop51ColorRGB
 90
-16777216
102
RTVSPost2010PropOp51
 70
     0
102
RTVSPost2010Prop52
140
1.0
102
RTVSPost2010PropOp52
 70
     0
102
RTVSPost2010Prop53
 90
        2
102
RTVSPost2010PropOp53
 70
     1
102
RTVSPost2010Prop54
  1
strokes_ogs.tif
102
RTVSPost2010PropOp54
 70
     1
102
RTVSPost2010Prop55
280
     0
102
RTVSPost2010PropOp55
 70
     1
102
RTVSPost2010Prop56
140
1.0
102
RTVSPost2010PropOp56
 70
     1
102
RTVSPost2010Prop57
140
1.0
102
RTVSPost2010PropOp57
 70
     1
102
RTVSPropertyOp0
 70
     1
102
RTVSPropertyOp1
 70
     1
102
RTVSPropertyOp2
 70
     1
102
RTVSPropertyOp3
 70
     1
102
RTVSPropertyOp4
 70
     1
102
RTVSPropertyOp5
 70
     1
102
RTVSPropertyOp6
 70
     1
102
RTVSPropertyOp7
 70
     1
102
RTVSPropertyOp8
 70
     1
102
RTVSPropertyOp9
 70
     1
102
RTVSPropertyOp10
 70
     1
102
RTVSPropertyOp11
 70
     1
102
RTVSPropertyOp12
 70
     1
102
RTVSPropertyOp13
 70
     1
102
RTVSPropertyOp14
 70
     1
102
RTVSPropertyOp15
 70
     1
102
RTVSPropertyOp16
 70
     1
102
RTVSPropertyOp17
 70
     1
102
RTVSPropertyOp18
 70
     1
102
RTVSPropertyOp19
 70
     1
102
RTVSPropertyOp20
 70
     1
102
RTVSPropertyOp21
 70
     1
102
RTVSPropertyOp22
 70
     1
102
RTVSPropertyOp23
 70
     1
102
RTVSPropertyOp24
 70
     1
102
RTVSPropertyOp25
 70
     1
102
RTVSPropertyOp26
 70
     1
102
RTVSPropertyOp27
 70
     1
102
RTVSPropertyOp28
 70
     1
102
RTVSPropertyOp29
 70
     1
102
RTVSPropertyOp30
 70
     1
102
RTVSPropertyOp31
 70
     1
102
RTVSPropertyOp32
 70
     1
102
RTVSPropertyOp33
 70
     1
102
RTVSPropertyOp34
 70
     1
102
RTVSPropertyOp35
 70
     1
102
RTVSPropertyOp36
 70
     1
102
RTVSPropertyOp37
 70
     1
102
RTVSPropertyOp38
 70
     1
102
RTVSPropertyOp39
 70
     1
102
RTVSPropertyOp40
 70
     1
102
RTVSPropertyOp41
 70
     1
102
RTVSPropertyOp42
 70
     1
102
RTVSPropertyOp43
 70
     1
102
RTVSPropertyOp44
 70
     1
102
RTVSPropertyOp45
 70
     1
102
RTVSPropertyOp46
 70
     1
102
RTVSPropertyOp47
 70
     1
102
RTVSPropertyOp48
 70
     1
102
RTVSPropertyOp49
 70
     1
102
RTVSPropertyOp50
 70
     1
102
RTVSPropertyOp51
 70
     0
102
RTVSPropertyOp52
 70
     0
102
RTVSPropertyOp53
 70
     1
102
RTVSPropertyOp54
 70
     1
102
RTVSPropertyOp55
 70
     1
102
RTVSPropertyOp56
 70
     1
102
RTVSPropertyOp57
 70
     1
102
RTVSPropertyOp58
 70
     1
102
RTVSPropertyOp59
 70
     1
102
RTVSPropertyOp60
 70
     1
102
RTVSPropertyOp61
 70
     1
102
RTVSPropertyOp62
 70
     1
  0
XRECORD
  5
1265
102
{ACAD_REACTORS
330
1264
102
}
330
1264
100
AcDbXrecord
280
     1
102
RTVSPost2010Prop28
280
     0
102
RTVSPost2010PropOp28
 70
     1
102
RTVSPost2010Prop29
280
     1
102
RTVSPost2010PropOp29
 70
     1
102
RTVSPost2010Prop30
280
     1
102
RTVSPost2010PropOp30
 70
     1
102
RTVSPost2010Prop31
280
     0
102
RTVSPost2010PropOp31
 70
     1
102
RTVSPost2010Prop32
280
     0
102
RTVSPost2010PropOp32
 70
     1
102
RTVSPost2010Prop33
280
     0
102
RTVSPost2010PropOp33
 70
     1
102
RTVSPost2010Prop34
280
     0
102
RTVSPost2010PropOp34
 70
     1
102
RTVSPost2010Prop35
280
     0
102
RTVSPost2010PropOp35
 70
     1
102
RTVSPost2010Prop36
280
     0
102
RTVSPost2010PropOp36
 70
     1
102
RTVSPost2010Prop37
 90
       50
102
RTVSPost2010PropOp37
 70
     1
102
RTVSPost2010Prop38
140
0.0
102
RTVSPost2010PropOp38
 70
     1
102
RTVSPost2010Prop39
140
1.0
102
RTVSPost2010PropOp39
 70
     1
102
RTVSPost2010Prop40
 90
        0
102
RTVSPost2010PropOp40
 70
     1
102
RTVSPost2010Prop41ColorIndex
 90
       18
102
RTVSPost2010Prop41ColorRGB
 90
        0
102
RTVSPost2010PropOp41
 70
     1
102
RTVSPost2010Prop42
 90
       50
102
RTVSPost2010PropOp42
 70
     1
102
RTVSPost2010Prop43
 90
        3
102
RTVSPost2010PropOp43
 70
     1
102
RTVSPost2010Prop44ColorIndex
 90
        5
102
RTVSPost2010Prop44ColorRGB
 90
      255
102
RTVSPost2010PropOp44
 70
     1
102
RTVSPost2010Prop45
280
     0
102
RTVSPost2010PropOp45
 70
     1
102
RTVSPost2010Prop46
 90
       50
102
RTVSPost2010PropOp46
 70
     1
102
RTVSPost2010Prop47
 90
       50
102
RTVSPost2010PropOp47
 70
     1
102
RTVSPost2010Prop48
 90
       50
102
RTVSPost2010PropOp48
 70
     1
102
RTVSPost2010Prop49
280
     0
102
RTVSPost2010PropOp49
 70
     1
102
RTVSPost2010Prop50
 90
       50
102
RTVSPost2010PropOp50
 70
     1
102
RTVSPost2010Prop51ColorIndex
 90
      256
102
RTVSPost2010Prop51ColorRGB
 90
-16777216
102
RTVSPost2010PropOp51
 70
     0
102
RTVSPost2010Prop52
140
1.0
102
RTVSPost2010PropOp52
 70
     0
102
RTVSPost2010Prop53
 90
        2
102
RTVSPost2010PropOp53
 70
     1
102
RTVSPost2010Prop54
  1
strokes_ogs.tif
102
RTVSPost2010PropOp54
 70
     1
102
RTVSPost2010Prop55
280
     0
102
RTVSPost2010PropOp55
 70
     1
102
RTVSPost2010Prop56
140
1.0
102
RTVSPost2010PropOp56
 70
     1
102
RTVSPost2010Prop57
140
1.0
102
RTVSPost2010PropOp57
 70
     1
102
RTVSPropertyOp0
 70
     1
102
RTVSPropertyOp1
 70
     1
102
RTVSPropertyOp2
 70
     1
102
RTVSPropertyOp3
 70
     1
102
RTVSPropertyOp4
 70
     1
102
RTVSPropertyOp5
 70
     1
102
RTVSPropertyOp6
 70
     1
102
RTVSPropertyOp7
 70
     1
102
RTVSPropertyOp8
 70
     1
102
RTVSPropertyOp9
 70
     1
102
RTVSPropertyOp10
 70
     1
102
RTVSPropertyOp11
 70
     1
102
RTVSPropertyOp12
 70
     1
102
RTVSPropertyOp13
 70
     1
102
RTVSPropertyOp14
 70
     1
102
RTVSPropertyOp15
 70
     1
102
RTVSPropertyOp16
 70
     1
102
RTVSPropertyOp17
 70
     1
102
RTVSPropertyOp18
 70
     1
102
RTVSPropertyOp19
 70
     1
102
RTVSPropertyOp20
 70
     1
102
RTVSPropertyOp21
 70
     1
102
RTVSPropertyOp22
 70
     1
102
RTVSPropertyOp23
 70
     1
102
RTVSPropertyOp24
 70
     1
102
RTVSPropertyOp25
 70
     1
102
RTVSPropertyOp26
 70
     1
102
RTVSPropertyOp27
 70
     1
102
RTVSPropertyOp28
 70
     1
102
RTVSPropertyOp29
 70
     1
102
RTVSPropertyOp30
 70
     1
102
RTVSPropertyOp31
 70
     1
102
RTVSPropertyOp32
 70
     1
102
RTVSPropertyOp33
 70
     1
102
RTVSPropertyOp34
 70
     1
102
RTVSPropertyOp35
 70
     1
102
RTVSPropertyOp36
 70
     1
102
RTVSPropertyOp37
 70
     1
102
RTVSPropertyOp38
 70
     1
102
RTVSPropertyOp39
 70
     1
102
RTVSPropertyOp40
 70
     1
102
RTVSPropertyOp41
 70
     1
102
RTVSPropertyOp42
 70
     1
102
RTVSPropertyOp43
 70
     1
102
RTVSPropertyOp44
 70
     1
102
RTVSPropertyOp45
 70
     1
102
RTVSPropertyOp46
 70
     1
102
RTVSPropertyOp47
 70
     1
102
RTVSPropertyOp48
 70
     1
102
RTVSPropertyOp49
 70
     1
102
RTVSPropertyOp50
 70
     1
102
RTVSPropertyOp51
 70
     0
102
RTVSPropertyOp52
 70
     0
102
RTVSPropertyOp53
 70
     1
102
RTVSPropertyOp54
 70
     1
102
RTVSPropertyOp55
 70
     1
102
RTVSPropertyOp56
 70
     1
102
RTVSPropertyOp57
 70
     1
102
RTVSPropertyOp58
 70
     1
102
RTVSPropertyOp59
 70
     1
102
RTVSPropertyOp60
 70
     1
102
RTVSPropertyOp61
 70
     1
102
RTVSPropertyOp62
 70
     1
  0
XRECORD
  5
1279
102
{ACAD_REACTORS
330
1278
102
}
330
1278
100
AcDbXrecord
280
     1
102
RTVSPost2010Prop28
280
     0
102
RTVSPost2010PropOp28
 70
     1
102
RTVSPost2010Prop29
280
     1
102
RTVSPost2010PropOp29
 70
     1
102
RTVSPost2010Prop30
280
     1
102
RTVSPost2010PropOp30
 70
     1
102
RTVSPost2010Prop31
280
     0
102
RTVSPost2010PropOp31
 70
     1
102
RTVSPost2010Prop32
280
     0
102
RTVSPost2010PropOp32
 70
     1
102
RTVSPost2010Prop33
280
     0
102
RTVSPost2010PropOp33
 70
     1
102
RTVSPost2010Prop34
280
     0
102
RTVSPost2010PropOp34
 70
     1
102
RTVSPost2010Prop35
280
     0
102
RTVSPost2010PropOp35
 70
     1
102
RTVSPost2010Prop36
280
     0
102
RTVSPost2010PropOp36
 70
     1
102
RTVSPost2010Prop37
 90
       50
102
RTVSPost2010PropOp37
 70
     1
102
RTVSPost2010Prop38
140
0.0
102
RTVSPost2010PropOp38
 70
     1
102
RTVSPost2010Prop39
140
1.0
102
RTVSPost2010PropOp39
 70
     1
102
RTVSPost2010Prop40
 90
        0
102
RTVSPost2010PropOp40
 70
     1
102
RTVSPost2010Prop41ColorIndex
 90
       18
102
RTVSPost2010Prop41ColorRGB
 90
        0
102
RTVSPost2010PropOp41
 70
     1
102
RTVSPost2010Prop42
 90
       50
102
RTVSPost2010PropOp42
 70
     1
102
RTVSPost2010Prop43
 90
        3
102
RTVSPost2010PropOp43
 70
     1
102
RTVSPost2010Prop44ColorIndex
 90
        5
102
RTVSPost2010Prop44ColorRGB
 90
      255
102
RTVSPost2010PropOp44
 70
     1
102
RTVSPost2010Prop45
280
     0
102
RTVSPost2010PropOp45
 70
     1
102
RTVSPost2010Prop46
 90
       50
102
RTVSPost2010PropOp46
 70
     1
102
RTVSPost2010Prop47
 90
       50
102
RTVSPost2010PropOp47
 70
     1
102
RTVSPost2010Prop48
 90
       50
102
RTVSPost2010PropOp48
 70
     1
102
RTVSPost2010Prop49
280
     0
102
RTVSPost2010PropOp49
 70
     1
102
RTVSPost2010Prop50
 90
       50
102
RTVSPost2010PropOp50
 70
     1
102
RTVSPost2010Prop51ColorIndex
 90
      256
102
RTVSPost2010Prop51ColorRGB
 90
-16777216
102
RTVSPost2010PropOp51
 70
     0
102
RTVSPost2010Prop52
140
1.0
102
RTVSPost2010PropOp52
 70
     0
102
RTVSPost2010Prop53
 90
        2
102
RTVSPost2010PropOp53
 70
     1
102
RTVSPost2010Prop54
  1
strokes_ogs.tif
102
RTVSPost2010PropOp54
 70
     1
102
RTVSPost2010Prop55
280
     0
102
RTVSPost2010PropOp55
 70
     1
102
RTVSPost2010Prop56
140
1.0
102
RTVSPost2010PropOp56
 70
     1
102
RTVSPost2010Prop57
140
1.0
102
RTVSPost2010PropOp57
 70
     1
102
RTVSPropertyOp0
 70
     0
102
RTVSPropertyOp1
 70
     0
102
RTVSPropertyOp2
 70
     0
102
RTVSPropertyOp3
 70
     0
102
RTVSPropertyOp4
 70
     0
102
RTVSPropertyOp5
 70
     0
102
RTVSPropertyOp6
 70
     0
102
RTVSPropertyOp7
 70
     0
102
RTVSPropertyOp8
 70
     0
102
RTVSPropertyOp9
 70
     0
102
RTVSPropertyOp10
 70
     0
102
RTVSPropertyOp11
 70
     0
102
RTVSPropertyOp12
 70
     0
102
RTVSPropertyOp13
 70
     0
102
RTVSPropertyOp14
 70
     2
102
RTVSPropertyOp15
 70
     0
102
RTVSPropertyOp16
 70
     0
102
RTVSPropertyOp17
 70
     0
102
RTVSPropertyOp18
 70
     0
102
RTVSPropertyOp19
 70
     0
102
RTVSPropertyOp20
 70
     0
102
RTVSPropertyOp21
 70
     0
102
RTVSPropertyOp22
 70
     0
102
RTVSPropertyOp23
 70
     0
102
RTVSPropertyOp24
 70
     0
102
RTVSPropertyOp25
 70
     0
102
RTVSPropertyOp26
 70
     0
102
RTVSPropertyOp27
 70
     0
102
RTVSPropertyOp28
 70
     1
102
RTVSPropertyOp29
 70
     1
102
RTVSPropertyOp30
 70
     1
102
RTVSPropertyOp31
 70
     1
102
RTVSPropertyOp32
 70
     1
102
RTVSPropertyOp33
 70
     1
102
RTVSPropertyOp34
 70
     1
102
RTVSPropertyOp35
 70
     1
102
RTVSPropertyOp36
 70
     1
102
RTVSPropertyOp37
 70
     1
102
RTVSPropertyOp38
 70
     1
102
RTVSPropertyOp39
 70
     1
102
RTVSPropertyOp40
 70
     1
102
RTVSPropertyOp41
 70
     1
102
RTVSPropertyOp42
 70
     1
102
RTVSPropertyOp43
 70
     1
102
RTVSPropertyOp44
 70
     1
102
RTVSPropertyOp45
 70
     1
102
RTVSPropertyOp46
 70
     1
102
RTVSPropertyOp47
 70
     1
102
RTVSPropertyOp48
 70
     1
102
RTVSPropertyOp49
 70
     1
102
RTVSPropertyOp50
 70
     1
102
RTVSPropertyOp51
 70
     0
102
RTVSPropertyOp52
 70
     0
102
RTVSPropertyOp53
 70
     1
102
RTVSPropertyOp54
 70
     1
102
RTVSPropertyOp55
 70
     1
102
RTVSPropertyOp56
 70
     1
102
RTVSPropertyOp57
 70
     1
102
RTVSPropertyOp58
 70
     1
102
RTVSPropertyOp59
 70
     1
102
RTVSPropertyOp60
 70
     1
102
RTVSPropertyOp61
 70
     1
102
RTVSPropertyOp62
 70
     1
  0
XRECORD
  5
1271
102
{ACAD_REACTORS
330
1270
102
}
330
1270
100
AcDbXrecord
280
     1
102
RTVSPost2010Prop28
280
     0
102
RTVSPost2010PropOp28
 70
     1
102
RTVSPost2010Prop29
280
     1
102
RTVSPost2010PropOp29
 70
     1
102
RTVSPost2010Prop30
280
     1
102
RTVSPost2010PropOp30
 70
     1
102
RTVSPost2010Prop31
280
     0
102
RTVSPost2010PropOp31
 70
     1
102
RTVSPost2010Prop32
280
     0
102
RTVSPost2010PropOp32
 70
     1
102
RTVSPost2010Prop33
280
     0
102
RTVSPost2010PropOp33
 70
     1
102
RTVSPost2010Prop34
280
     0
102
RTVSPost2010PropOp34
 70
     1
102
RTVSPost2010Prop35
280
     0
102
RTVSPost2010PropOp35
 70
     1
102
RTVSPost2010Prop36
280
     0
102
RTVSPost2010PropOp36
 70
     1
102
RTVSPost2010Prop37
 90
       50
102
RTVSPost2010PropOp37
 70
     1
102
RTVSPost2010Prop38
140
0.0
102
RTVSPost2010PropOp38
 70
     1
102
RTVSPost2010Prop39
140
1.0
102
RTVSPost2010PropOp39
 70
     1
102
RTVSPost2010Prop40
 90
        0
102
RTVSPost2010PropOp40
 70
     1
102
RTVSPost2010Prop41ColorIndex
 90
       18
102
RTVSPost2010Prop41ColorRGB
 90
        0
102
RTVSPost2010PropOp41
 70
     1
102
RTVSPost2010Prop42
 90
       50
102
RTVSPost2010PropOp42
 70
     1
102
RTVSPost2010Prop43
 90
        3
102
RTVSPost2010PropOp43
 70
     1
102
RTVSPost2010Prop44ColorIndex
 90
        5
102
RTVSPost2010Prop44ColorRGB
 90
      255
102
RTVSPost2010PropOp44
 70
     1
102
RTVSPost2010Prop45
280
     0
102
RTVSPost2010PropOp45
 70
     1
102
RTVSPost2010Prop46
 90
       50
102
RTVSPost2010PropOp46
 70
     1
102
RTVSPost2010Prop47
 90
       50
102
RTVSPost2010PropOp47
 70
     1
102
RTVSPost2010Prop48
 90
       50
102
RTVSPost2010PropOp48
 70
     1
102
RTVSPost2010Prop49
280
     0
102
RTVSPost2010PropOp49
 70
     1
102
RTVSPost2010Prop50
 90
       50
102
RTVSPost2010PropOp50
 70
     1
102
RTVSPost2010Prop51ColorIndex
 90
      256
102
RTVSPost2010Prop51ColorRGB
 90
-16777216
102
RTVSPost2010PropOp51
 70
     0
102
RTVSPost2010Prop52
140
1.0
102
RTVSPost2010PropOp52
 70
     0
102
RTVSPost2010Prop53
 90
        2
102
RTVSPost2010PropOp53
 70
     1
102
RTVSPost2010Prop54
  1
strokes_ogs.tif
102
RTVSPost2010PropOp54
 70
     1
102
RTVSPost2010Prop55
280
     0
102
RTVSPost2010PropOp55
 70
     1
102
RTVSPost2010Prop56
140
1.0
102
RTVSPost2010PropOp56
 70
     1
102
RTVSPost2010Prop57
140
1.0
102
RTVSPost2010PropOp57
 70
     1
102
RTVSPropertyOp0
 70
     1
102
RTVSPropertyOp1
 70
     1
102
RTVSPropertyOp2
 70
     1
102
RTVSPropertyOp3
 70
     1
102
RTVSPropertyOp4
 70
     1
102
RTVSPropertyOp5
 70
     1
102
RTVSPropertyOp6
 70
     1
102
RTVSPropertyOp7
 70
     1
102
RTVSPropertyOp8
 70
     1
102
RTVSPropertyOp9
 70
     1
102
RTVSPropertyOp10
 70
     1
102
RTVSPropertyOp11
 70
     1
102
RTVSPropertyOp12
 70
     1
102
RTVSPropertyOp13
 70
     1
102
RTVSPropertyOp14
 70
     1
102
RTVSPropertyOp15
 70
     1
102
RTVSPropertyOp16
 70
     1
102
RTVSPropertyOp17
 70
     1
102
RTVSPropertyOp18
 70
     1
102
RTVSPropertyOp19
 70
     1
102
RTVSPropertyOp20
 70
     1
102
RTVSPropertyOp21
 70
     1
102
RTVSPropertyOp22
 70
     1
102
RTVSPropertyOp23
 70
     1
102
RTVSPropertyOp24
 70
     1
102
RTVSPropertyOp25
 70
     1
102
RTVSPropertyOp26
 70
     1
102
RTVSPropertyOp27
 70
     1
102
RTVSPropertyOp28
 70
     1
102
RTVSPropertyOp29
 70
     1
102
RTVSPropertyOp30
 70
     1
102
RTVSPropertyOp31
 70
     1
102
RTVSPropertyOp32
 70
     1
102
RTVSPropertyOp33
 70
     1
102
RTVSPropertyOp34
 70
     1
102
RTVSPropertyOp35
 70
     1
102
RTVSPropertyOp36
 70
     1
102
RTVSPropertyOp37
 70
     1
102
RTVSPropertyOp38
 70
     1
102
RTVSPropertyOp39
 70
     1
102
RTVSPropertyOp40
 70
     1
102
RTVSPropertyOp41
 70
     1
102
RTVSPropertyOp42
 70
     1
102
RTVSPropertyOp43
 70
     1
102
RTVSPropertyOp44
 70
     1
102
RTVSPropertyOp45
 70
     1
102
RTVSPropertyOp46
 70
     1
102
RTVSPropertyOp47
 70
     1
102
RTVSPropertyOp48
 70
     1
102
RTVSPropertyOp49
 70
     1
102
RTVSPropertyOp50
 70
     1
102
RTVSPropertyOp51
 70
     0
102
RTVSPropertyOp52
 70
     0
102
RTVSPropertyOp53
 70
     1
102
RTVSPropertyOp54
 70
     1
102
RTVSPropertyOp55
 70
     1
102
RTVSPropertyOp56
 70
     1
102
RTVSPropertyOp57
 70
     1
102
RTVSPropertyOp58
 70
     1
102
RTVSPropertyOp59
 70
     1
102
RTVSPropertyOp60
 70
     1
102
RTVSPropertyOp61
 70
     1
102
RTVSPropertyOp62
 70
     1
  0
XRECORD
  5
127B
102
{ACAD_REACTORS
330
127A
102
}
330
127A
100
AcDbXrecord
280
     1
102
RTVSPost2010Prop28
280
     0
102
RTVSPost2010PropOp28
 70
     1
102
RTVSPost2010Prop29
280
     1
102
RTVSPost2010PropOp29
 70
     1
102
RTVSPost2010Prop30
280
     1
102
RTVSPost2010PropOp30
 70
     1
102
RTVSPost2010Prop31
280
     0
102
RTVSPost2010PropOp31
 70
     1
102
RTVSPost2010Prop32
280
     0
102
RTVSPost2010PropOp32
 70
     1
102
RTVSPost2010Prop33
280
     0
102
RTVSPost2010PropOp33
 70
     1
102
RTVSPost2010Prop34
280
     0
102
RTVSPost2010PropOp34
 70
     1
102
RTVSPost2010Prop35
280
     0
102
RTVSPost2010PropOp35
 70
     1
102
RTVSPost2010Prop36
280
     0
102
RTVSPost2010PropOp36
 70
     1
102
RTVSPost2010Prop37
 90
       50
102
RTVSPost2010PropOp37
 70
     1
102
RTVSPost2010Prop38
140
0.0
102
RTVSPost2010PropOp38
 70
     1
102
RTVSPost2010Prop39
140
1.0
102
RTVSPost2010PropOp39
 70
     1
102
RTVSPost2010Prop40
 90
        0
102
RTVSPost2010PropOp40
 70
     1
102
RTVSPost2010Prop41ColorIndex
 90
       18
102
RTVSPost2010Prop41ColorRGB
 90
        0
102
RTVSPost2010PropOp41
 70
     1
102
RTVSPost2010Prop42
 90
       50
102
RTVSPost2010PropOp42
 70
     1
102
RTVSPost2010Prop43
 90
        3
102
RTVSPost2010PropOp43
 70
     1
102
RTVSPost2010Prop44ColorIndex
 90
        5
102
RTVSPost2010Prop44ColorRGB
 90
      255
102
RTVSPost2010PropOp44
 70
     1
102
RTVSPost2010Prop45
280
     0
102
RTVSPost2010PropOp45
 70
     1
102
RTVSPost2010Prop46
 90
       50
102
RTVSPost2010PropOp46
 70
     1
102
RTVSPost2010Prop47
 90
       50
102
RTVSPost2010PropOp47
 70
     1
102
RTVSPost2010Prop48
 90
       50
102
RTVSPost2010PropOp48
 70
     1
102
RTVSPost2010Prop49
280
     0
102
RTVSPost2010PropOp49
 70
     1
102
RTVSPost2010Prop50
 90
       50
102
RTVSPost2010PropOp50
 70
     1
102
RTVSPost2010Prop51ColorIndex
 90
      256
102
RTVSPost2010Prop51ColorRGB
 90
-16777216
102
RTVSPost2010PropOp51
 70
     0
102
RTVSPost2010Prop52
140
1.0
102
RTVSPost2010PropOp52
 70
     0
102
RTVSPost2010Prop53
 90
        2
102
RTVSPost2010PropOp53
 70
     1
102
RTVSPost2010Prop54
  1
strokes_ogs.tif
102
RTVSPost2010PropOp54
 70
     1
102
RTVSPost2010Prop55
280
     0
102
RTVSPost2010PropOp55
 70
     1
102
RTVSPost2010Prop56
140
1.0
102
RTVSPost2010PropOp56
 70
     1
102
RTVSPost2010Prop57
140
1.0
102
RTVSPost2010PropOp57
 70
     1
102
RTVSPropertyOp0
 70
     0
102
RTVSPropertyOp1
 70
     0
102
RTVSPropertyOp2
 70
     0
102
RTVSPropertyOp3
 70
     0
102
RTVSPropertyOp4
 70
     0
102
RTVSPropertyOp5
 70
     0
102
RTVSPropertyOp6
 70
     0
102
RTVSPropertyOp7
 70
     0
102
RTVSPropertyOp8
 70
     0
102
RTVSPropertyOp9
 70
     0
102
RTVSPropertyOp10
 70
     0
102
RTVSPropertyOp11
 70
     0
102
RTVSPropertyOp12
 70
     0
102
RTVSPropertyOp13
 70
     0
102
RTVSPropertyOp14
 70
     2
102
RTVSPropertyOp15
 70
     0
102
RTVSPropertyOp16
 70
     0
102
RTVSPropertyOp17
 70
     0
102
RTVSPropertyOp18
 70
     0
102
RTVSPropertyOp19
 70
     0
102
RTVSPropertyOp20
 70
     0
102
RTVSPropertyOp21
 70
     0
102
RTVSPropertyOp22
 70
     0
102
RTVSPropertyOp23
 70
     0
102
RTVSPropertyOp24
 70
     0
102
RTVSPropertyOp25
 70
     0
102
RTVSPropertyOp26
 70
     0
102
RTVSPropertyOp27
 70
     0
102
RTVSPropertyOp28
 70
     1
102
RTVSPropertyOp29
 70
     1
102
RTVSPropertyOp30
 70
     1
102
RTVSPropertyOp31
 70
     1
102
RTVSPropertyOp32
 70
     1
102
RTVSPropertyOp33
 70
     1
102
RTVSPropertyOp34
 70
     1
102
RTVSPropertyOp35
 70
     1
102
RTVSPropertyOp36
 70
     1
102
RTVSPropertyOp37
 70
     1
102
RTVSPropertyOp38
 70
     1
102
RTVSPropertyOp39
 70
     1
102
RTVSPropertyOp40
 70
     1
102
RTVSPropertyOp41
 70
     1
102
RTVSPropertyOp42
 70
     1
102
RTVSPropertyOp43
 70
     1
102
RTVSPropertyOp44
 70
     1
102
RTVSPropertyOp45
 70
     1
102
RTVSPropertyOp46
 70
     1
102
RTVSPropertyOp47
 70
     1
102
RTVSPropertyOp48
 70
     1
102
RTVSPropertyOp49
 70
     1
102
RTVSPropertyOp50
 70
     1
102
RTVSPropertyOp51
 70
     0
102
RTVSPropertyOp52
 70
     0
102
RTVSPropertyOp53
 70
     1
102
RTVSPropertyOp54
 70
     1
102
RTVSPropertyOp55
 70
     1
102
RTVSPropertyOp56
 70
     1
102
RTVSPropertyOp57
 70
     1
102
RTVSPropertyOp58
 70
     1
102
RTVSPropertyOp59
 70
     1
102
RTVSPropertyOp60
 70
     1
102
RTVSPropertyOp61
 70
     1
102
RTVSPropertyOp62
 70
     1
  0
XRECORD
  5
1269
102
{ACAD_REACTORS
330
1268
102
}
330
1268
100
AcDbXrecord
280
     1
102
RTVSPost2010Prop28
280
     0
102
RTVSPost2010PropOp28
 70
     1
102
RTVSPost2010Prop29
280
     1
102
RTVSPost2010PropOp29
 70
     1
102
RTVSPost2010Prop30
280
     1
102
RTVSPost2010PropOp30
 70
     1
102
RTVSPost2010Prop31
280
     0
102
RTVSPost2010PropOp31
 70
     1
102
RTVSPost2010Prop32
280
     0
102
RTVSPost2010PropOp32
 70
     1
102
RTVSPost2010Prop33
280
     0
102
RTVSPost2010PropOp33
 70
     1
102
RTVSPost2010Prop34
280
     0
102
RTVSPost2010PropOp34
 70
     1
102
RTVSPost2010Prop35
280
     0
102
RTVSPost2010PropOp35
 70
     1
102
RTVSPost2010Prop36
280
     0
102
RTVSPost2010PropOp36
 70
     1
102
RTVSPost2010Prop37
 90
       50
102
RTVSPost2010PropOp37
 70
     1
102
RTVSPost2010Prop38
140
0.0
102
RTVSPost2010PropOp38
 70
     1
102
RTVSPost2010Prop39
140
1.0
102
RTVSPost2010PropOp39
 70
     1
102
RTVSPost2010Prop40
 90
        0
102
RTVSPost2010PropOp40
 70
     1
102
RTVSPost2010Prop41ColorIndex
 90
       18
102
RTVSPost2010Prop41ColorRGB
 90
        0
102
RTVSPost2010PropOp41
 70
     1
102
RTVSPost2010Prop42
 90
       50
102
RTVSPost2010PropOp42
 70
     1
102
RTVSPost2010Prop43
 90
        3
102
RTVSPost2010PropOp43
 70
     1
102
RTVSPost2010Prop44ColorIndex
 90
        5
102
RTVSPost2010Prop44ColorRGB
 90
      255
102
RTVSPost2010PropOp44
 70
     1
102
RTVSPost2010Prop45
280
     0
102
RTVSPost2010PropOp45
 70
     1
102
RTVSPost2010Prop46
 90
       50
102
RTVSPost2010PropOp46
 70
     1
102
RTVSPost2010Prop47
 90
       50
102
RTVSPost2010PropOp47
 70
     1
102
RTVSPost2010Prop48
 90
       50
102
RTVSPost2010PropOp48
 70
     1
102
RTVSPost2010Prop49
280
     0
102
RTVSPost2010PropOp49
 70
     1
102
RTVSPost2010Prop50
 90
       50
102
RTVSPost2010PropOp50
 70
     1
102
RTVSPost2010Prop51ColorIndex
 90
      256
102
RTVSPost2010Prop51ColorRGB
 90
-16777216
102
RTVSPost2010PropOp51
 70
     0
102
RTVSPost2010Prop52
140
1.0
102
RTVSPost2010PropOp52
 70
     0
102
RTVSPost2010Prop53
 90
        2
102
RTVSPost2010PropOp53
 70
     1
102
RTVSPost2010Prop54
  1
strokes_ogs.tif
102
RTVSPost2010PropOp54
 70
     1
102
RTVSPost2010Prop55
280
     0
102
RTVSPost2010PropOp55
 70
     1
102
RTVSPost2010Prop56
140
1.0
102
RTVSPost2010PropOp56
 70
     1
102
RTVSPost2010Prop57
140
1.0
102
RTVSPost2010PropOp57
 70
     1
102
RTVSPropertyOp0
 70
     1
102
RTVSPropertyOp1
 70
     1
102
RTVSPropertyOp2
 70
     1
102
RTVSPropertyOp3
 70
     1
102
RTVSPropertyOp4
 70
     1
102
RTVSPropertyOp5
 70
     1
102
RTVSPropertyOp6
 70
     1
102
RTVSPropertyOp7
 70
     1
102
RTVSPropertyOp8
 70
     1
102
RTVSPropertyOp9
 70
     1
102
RTVSPropertyOp10
 70
     1
102
RTVSPropertyOp11
 70
     1
102
RTVSPropertyOp12
 70
     1
102
RTVSPropertyOp13
 70
     1
102
RTVSPropertyOp14
 70
     1
102
RTVSPropertyOp15
 70
     1
102
RTVSPropertyOp16
 70
     1
102
RTVSPropertyOp17
 70
     1
102
RTVSPropertyOp18
 70
     1
102
RTVSPropertyOp19
 70
     1
102
RTVSPropertyOp20
 70
     1
102
RTVSPropertyOp21
 70
     1
102
RTVSPropertyOp22
 70
     1
102
RTVSPropertyOp23
 70
     1
102
RTVSPropertyOp24
 70
     1
102
RTVSPropertyOp25
 70
     1
102
RTVSPropertyOp26
 70
     1
102
RTVSPropertyOp27
 70
     1
102
RTVSPropertyOp28
 70
     1
102
RTVSPropertyOp29
 70
     1
102
RTVSPropertyOp30
 70
     1
102
RTVSPropertyOp31
 70
     1
102
RTVSPropertyOp32
 70
     1
102
RTVSPropertyOp33
 70
     1
102
RTVSPropertyOp34
 70
     1
102
RTVSPropertyOp35
 70
     1
102
RTVSPropertyOp36
 70
     1
102
RTVSPropertyOp37
 70
     1
102
RTVSPropertyOp38
 70
     1
102
RTVSPropertyOp39
 70
     1
102
RTVSPropertyOp40
 70
     1
102
RTVSPropertyOp41
 70
     1
102
RTVSPropertyOp42
 70
     1
102
RTVSPropertyOp43
 70
     1
102
RTVSPropertyOp44
 70
     1
102
RTVSPropertyOp45
 70
     1
102
RTVSPropertyOp46
 70
     1
102
RTVSPropertyOp47
 70
     1
102
RTVSPropertyOp48
 70
     1
102
RTVSPropertyOp49
 70
     1
102
RTVSPropertyOp50
 70
     1
102
RTVSPropertyOp51
 70
     0
102
RTVSPropertyOp52
 70
     0
102
RTVSPropertyOp53
 70
     1
102
RTVSPropertyOp54
 70
     1
102
RTVSPropertyOp55
 70
     1
102
RTVSPropertyOp56
 70
     1
102
RTVSPropertyOp57
 70
     1
102
RTVSPropertyOp58
 70
     1
102
RTVSPropertyOp59
 70
     1
102
RTVSPropertyOp60
 70
     1
102
RTVSPropertyOp61
 70
     1
102
RTVSPropertyOp62
 70
     1
  0
XRECORD
  5
1287
102
{ACAD_REACTORS
330
1286
102
}
330
1286
100
AcDbXrecord
280
     1
102
RTVSPost2010Prop28
280
     0
102
RTVSPost2010PropOp28
 70
     1
102
RTVSPost2010Prop29
280
     1
102
RTVSPost2010PropOp29
 70
     1
102
RTVSPost2010Prop30
280
     1
102
RTVSPost2010PropOp30
 70
     1
102
RTVSPost2010Prop31
280
     0
102
RTVSPost2010PropOp31
 70
     1
102
RTVSPost2010Prop32
280
     0
102
RTVSPost2010PropOp32
 70
     1
102
RTVSPost2010Prop33
280
     0
102
RTVSPost2010PropOp33
 70
     1
102
RTVSPost2010Prop34
280
     0
102
RTVSPost2010PropOp34
 70
     1
102
RTVSPost2010Prop35
280
     0
102
RTVSPost2010PropOp35
 70
     1
102
RTVSPost2010Prop36
280
     0
102
RTVSPost2010PropOp36
 70
     1
102
RTVSPost2010Prop37
 90
       50
102
RTVSPost2010PropOp37
 70
     1
102
RTVSPost2010Prop38
140
0.0
102
RTVSPost2010PropOp38
 70
     1
102
RTVSPost2010Prop39
140
1.0
102
RTVSPost2010PropOp39
 70
     1
102
RTVSPost2010Prop40
 90
        0
102
RTVSPost2010PropOp40
 70
     1
102
RTVSPost2010Prop41ColorIndex
 90
       18
102
RTVSPost2010Prop41ColorRGB
 90
        0
102
RTVSPost2010PropOp41
 70
     1
102
RTVSPost2010Prop42
 90
       50
102
RTVSPost2010PropOp42
 70
     1
102
RTVSPost2010Prop43
 90
        3
102
RTVSPost2010PropOp43
 70
     1
102
RTVSPost2010Prop44ColorIndex
 90
        5
102
RTVSPost2010Prop44ColorRGB
 90
      255
102
RTVSPost2010PropOp44
 70
     1
102
RTVSPost2010Prop45
280
     0
102
RTVSPost2010PropOp45
 70
     1
102
RTVSPost2010Prop46
 90
       50
102
RTVSPost2010PropOp46
 70
     1
102
RTVSPost2010Prop47
 90
       50
102
RTVSPost2010PropOp47
 70
     1
102
RTVSPost2010Prop48
 90
       50
102
RTVSPost2010PropOp48
 70
     1
102
RTVSPost2010Prop49
280
     0
102
RTVSPost2010PropOp49
 70
     1
102
RTVSPost2010Prop50
 90
       50
102
RTVSPost2010PropOp50
 70
     1
102
RTVSPost2010Prop51ColorIndex
 90
      256
102
RTVSPost2010Prop51ColorRGB
 90
-16777216
102
RTVSPost2010PropOp51
 70
     0
102
RTVSPost2010Prop52
140
1.0
102
RTVSPost2010PropOp52
 70
     0
102
RTVSPost2010Prop53
 90
        2
102
RTVSPost2010PropOp53
 70
     1
102
RTVSPost2010Prop54
  1
strokes_ogs.tif
102
RTVSPost2010PropOp54
 70
     1
102
RTVSPost2010Prop55
280
     0
102
RTVSPost2010PropOp55
 70
     1
102
RTVSPost2010Prop56
140
1.0
102
RTVSPost2010PropOp56
 70
     1
102
RTVSPost2010Prop57
140
1.0
102
RTVSPost2010PropOp57
 70
     1
102
RTVSPropertyOp0
 70
     1
102
RTVSPropertyOp1
 70
     1
102
RTVSPropertyOp2
 70
     1
102
RTVSPropertyOp3
 70
     1
102
RTVSPropertyOp4
 70
     1
102
RTVSPropertyOp5
 70
     1
102
RTVSPropertyOp6
 70
     1
102
RTVSPropertyOp7
 70
     1
102
RTVSPropertyOp8
 70
     1
102
RTVSPropertyOp9
 70
     1
102
RTVSPropertyOp10
 70
     1
102
RTVSPropertyOp11
 70
     1
102
RTVSPropertyOp12
 70
     1
102
RTVSPropertyOp13
 70
     1
102
RTVSPropertyOp14
 70
     1
102
RTVSPropertyOp15
 70
     1
102
RTVSPropertyOp16
 70
     1
102
RTVSPropertyOp17
 70
     1
102
RTVSPropertyOp18
 70
     1
102
RTVSPropertyOp19
 70
     1
102
RTVSPropertyOp20
 70
     1
102
RTVSPropertyOp21
 70
     1
102
RTVSPropertyOp22
 70
     1
102
RTVSPropertyOp23
 70
     1
102
RTVSPropertyOp24
 70
     1
102
RTVSPropertyOp25
 70
     1
102
RTVSPropertyOp26
 70
     1
102
RTVSPropertyOp27
 70
     1
102
RTVSPropertyOp28
 70
     1
102
RTVSPropertyOp29
 70
     1
102
RTVSPropertyOp30
 70
     1
102
RTVSPropertyOp31
 70
     1
102
RTVSPropertyOp32
 70
     1
102
RTVSPropertyOp33
 70
     1
102
RTVSPropertyOp34
 70
     1
102
RTVSPropertyOp35
 70
     1
102
RTVSPropertyOp36
 70
     1
102
RTVSPropertyOp37
 70
     1
102
RTVSPropertyOp38
 70
     1
102
RTVSPropertyOp39
 70
     1
102
RTVSPropertyOp40
 70
     1
102
RTVSPropertyOp41
 70
     1
102
RTVSPropertyOp42
 70
     1
102
RTVSPropertyOp43
 70
     1
102
RTVSPropertyOp44
 70
     1
102
RTVSPropertyOp45
 70
     1
102
RTVSPropertyOp46
 70
     1
102
RTVSPropertyOp47
 70
     1
102
RTVSPropertyOp48
 70
     1
102
RTVSPropertyOp49
 70
     1
102
RTVSPropertyOp50
 70
     1
102
RTVSPropertyOp51
 70
     0
102
RTVSPropertyOp52
 70
     0
102
RTVSPropertyOp53
 70
     1
102
RTVSPropertyOp54
 70
     1
102
RTVSPropertyOp55
 70
     1
102
RTVSPropertyOp56
 70
     1
102
RTVSPropertyOp57
 70
     1
102
RTVSPropertyOp58
 70
     1
102
RTVSPropertyOp59
 70
     1
102
RTVSPropertyOp60
 70
     1
102
RTVSPropertyOp61
 70
     1
102
RTVSPropertyOp62
 70
     1
  0
XRECORD
  5
1285
102
{ACAD_REACTORS
330
1284
102
}
330
1284
100
AcDbXrecord
280
     1
102
RTVSPost2010Prop28
280
     0
102
RTVSPost2010PropOp28
 70
     1
102
RTVSPost2010Prop29
280
     1
102
RTVSPost2010PropOp29
 70
     1
102
RTVSPost2010Prop30
280
     1
102
RTVSPost2010PropOp30
 70
     1
102
RTVSPost2010Prop31
280
     0
102
RTVSPost2010PropOp31
 70
     1
102
RTVSPost2010Prop32
280
     0
102
RTVSPost2010PropOp32
 70
     1
102
RTVSPost2010Prop33
280
     0
102
RTVSPost2010PropOp33
 70
     1
102
RTVSPost2010Prop34
280
     0
102
RTVSPost2010PropOp34
 70
     1
102
RTVSPost2010Prop35
280
     0
102
RTVSPost2010PropOp35
 70
     1
102
RTVSPost2010Prop36
280
     0
102
RTVSPost2010PropOp36
 70
     1
102
RTVSPost2010Prop37
 90
       50
102
RTVSPost2010PropOp37
 70
     1
102
RTVSPost2010Prop38
140
0.0
102
RTVSPost2010PropOp38
 70
     1
102
RTVSPost2010Prop39
140
1.0
102
RTVSPost2010PropOp39
 70
     1
102
RTVSPost2010Prop40
 90
        0
102
RTVSPost2010PropOp40
 70
     1
102
RTVSPost2010Prop41ColorIndex
 90
       18
102
RTVSPost2010Prop41ColorRGB
 90
        0
102
RTVSPost2010PropOp41
 70
     1
102
RTVSPost2010Prop42
 90
       50
102
RTVSPost2010PropOp42
 70
     1
102
RTVSPost2010Prop43
 90
        3
102
RTVSPost2010PropOp43
 70
     1
102
RTVSPost2010Prop44ColorIndex
 90
        5
102
RTVSPost2010Prop44ColorRGB
 90
      255
102
RTVSPost2010PropOp44
 70
     1
102
RTVSPost2010Prop45
280
     0
102
RTVSPost2010PropOp45
 70
     1
102
RTVSPost2010Prop46
 90
       50
102
RTVSPost2010PropOp46
 70
     1
102
RTVSPost2010Prop47
 90
       50
102
RTVSPost2010PropOp47
 70
     1
102
RTVSPost2010Prop48
 90
       50
102
RTVSPost2010PropOp48
 70
     1
102
RTVSPost2010Prop49
280
     0
102
RTVSPost2010PropOp49
 70
     1
102
RTVSPost2010Prop50
 90
       50
102
RTVSPost2010PropOp50
 70
     1
102
RTVSPost2010Prop51ColorIndex
 90
      256
102
RTVSPost2010Prop51ColorRGB
 90
-16777216
102
RTVSPost2010PropOp51
 70
     0
102
RTVSPost2010Prop52
140
1.0
102
RTVSPost2010PropOp52
 70
     0
102
RTVSPost2010Prop53
 90
        2
102
RTVSPost2010PropOp53
 70
     1
102
RTVSPost2010Prop54
  1
strokes_ogs.tif
102
RTVSPost2010PropOp54
 70
     1
102
RTVSPost2010Prop55
280
     0
102
RTVSPost2010PropOp55
 70
     1
102
RTVSPost2010Prop56
140
1.0
102
RTVSPost2010PropOp56
 70
     1
102
RTVSPost2010Prop57
140
1.0
102
RTVSPost2010PropOp57
 70
     1
102
RTVSPropertyOp0
 70
     1
102
RTVSPropertyOp1
 70
     1
102
RTVSPropertyOp2
 70
     1
102
RTVSPropertyOp3
 70
     1
102
RTVSPropertyOp4
 70
     1
102
RTVSPropertyOp5
 70
     1
102
RTVSPropertyOp6
 70
     1
102
RTVSPropertyOp7
 70
     1
102
RTVSPropertyOp8
 70
     1
102
RTVSPropertyOp9
 70
     1
102
RTVSPropertyOp10
 70
     1
102
RTVSPropertyOp11
 70
     1
102
RTVSPropertyOp12
 70
     1
102
RTVSPropertyOp13
 70
     1
102
RTVSPropertyOp14
 70
     1
102
RTVSPropertyOp15
 70
     1
102
RTVSPropertyOp16
 70
     1
102
RTVSPropertyOp17
 70
     1
102
RTVSPropertyOp18
 70
     1
102
RTVSPropertyOp19
 70
     1
102
RTVSPropertyOp20
 70
     1
102
RTVSPropertyOp21
 70
     1
102
RTVSPropertyOp22
 70
     1
102
RTVSPropertyOp23
 70
     1
102
RTVSPropertyOp24
 70
     1
102
RTVSPropertyOp25
 70
     1
102
RTVSPropertyOp26
 70
     1
102
RTVSPropertyOp27
 70
     1
102
RTVSPropertyOp28
 70
     1
102
RTVSPropertyOp29
 70
     1
102
RTVSPropertyOp30
 70
     1
102
RTVSPropertyOp31
 70
     1
102
RTVSPropertyOp32
 70
     1
102
RTVSPropertyOp33
 70
     1
102
RTVSPropertyOp34
 70
     1
102
RTVSPropertyOp35
 70
     1
102
RTVSPropertyOp36
 70
     1
102
RTVSPropertyOp37
 70
     1
102
RTVSPropertyOp38
 70
     1
102
RTVSPropertyOp39
 70
     1
102
RTVSPropertyOp40
 70
     1
102
RTVSPropertyOp41
 70
     1
102
RTVSPropertyOp42
 70
     1
102
RTVSPropertyOp43
 70
     1
102
RTVSPropertyOp44
 70
     1
102
RTVSPropertyOp45
 70
     1
102
RTVSPropertyOp46
 70
     1
102
RTVSPropertyOp47
 70
     1
102
RTVSPropertyOp48
 70
     1
102
RTVSPropertyOp49
 70
     1
102
RTVSPropertyOp50
 70
     1
102
RTVSPropertyOp51
 70
     0
102
RTVSPropertyOp52
 70
     0
102
RTVSPropertyOp53
 70
     1
102
RTVSPropertyOp54
 70
     1
102
RTVSPropertyOp55
 70
     1
102
RTVSPropertyOp56
 70
     1
102
RTVSPropertyOp57
 70
     1
102
RTVSPropertyOp58
 70
     1
102
RTVSPropertyOp59
 70
     1
102
RTVSPropertyOp60
 70
     1
102
RTVSPropertyOp61
 70
     1
102
RTVSPropertyOp62
 70
     1
  0
XRECORD
  5
127F
102
{ACAD_REACTORS
330
127E
102
}
330
127E
100
AcDbXrecord
280
     1
102
RTVSPost2010Prop28
280
     0
102
RTVSPost2010PropOp28
 70
     1
102
RTVSPost2010Prop29
280
     1
102
RTVSPost2010PropOp29
 70
     1
102
RTVSPost2010Prop30
280
     1
102
RTVSPost2010PropOp30
 70
     1
102
RTVSPost2010Prop31
280
     0
102
RTVSPost2010PropOp31
 70
     1
102
RTVSPost2010Prop32
280
     0
102
RTVSPost2010PropOp32
 70
     1
102
RTVSPost2010Prop33
280
     0
102
RTVSPost2010PropOp33
 70
     1
102
RTVSPost2010Prop34
280
     0
102
RTVSPost2010PropOp34
 70
     1
102
RTVSPost2010Prop35
280
     0
102
RTVSPost2010PropOp35
 70
     1
102
RTVSPost2010Prop36
280
     0
102
RTVSPost2010PropOp36
 70
     1
102
RTVSPost2010Prop37
 90
       50
102
RTVSPost2010PropOp37
 70
     1
102
RTVSPost2010Prop38
140
0.0
102
RTVSPost2010PropOp38
 70
     1
102
RTVSPost2010Prop39
140
1.0
102
RTVSPost2010PropOp39
 70
     1
102
RTVSPost2010Prop40
 90
        0
102
RTVSPost2010PropOp40
 70
     1
102
RTVSPost2010Prop41ColorIndex
 90
       18
102
RTVSPost2010Prop41ColorRGB
 90
        0
102
RTVSPost2010PropOp41
 70
     1
102
RTVSPost2010Prop42
 90
       50
102
RTVSPost2010PropOp42
 70
     1
102
RTVSPost2010Prop43
 90
        3
102
RTVSPost2010PropOp43
 70
     1
102
RTVSPost2010Prop44ColorIndex
 90
        5
102
RTVSPost2010Prop44ColorRGB
 90
      255
102
RTVSPost2010PropOp44
 70
     1
102
RTVSPost2010Prop45
280
     0
102
RTVSPost2010PropOp45
 70
     1
102
RTVSPost2010Prop46
 90
       50
102
RTVSPost2010PropOp46
 70
     1
102
RTVSPost2010Prop47
 90
       50
102
RTVSPost2010PropOp47
 70
     1
102
RTVSPost2010Prop48
 90
       50
102
RTVSPost2010PropOp48
 70
     1
102
RTVSPost2010Prop49
280
     0
102
RTVSPost2010PropOp49
 70
     1
102
RTVSPost2010Prop50
 90
       50
102
RTVSPost2010PropOp50
 70
     1
102
RTVSPost2010Prop51ColorIndex
 90
      256
102
RTVSPost2010Prop51ColorRGB
 90
-16777216
102
RTVSPost2010PropOp51
 70
     0
102
RTVSPost2010Prop52
140
1.0
102
RTVSPost2010PropOp52
 70
     0
102
RTVSPost2010Prop53
 90
        2
102
RTVSPost2010PropOp53
 70
     1
102
RTVSPost2010Prop54
  1
strokes_ogs.tif
102
RTVSPost2010PropOp54
 70
     1
102
RTVSPost2010Prop55
280
     0
102
RTVSPost2010PropOp55
 70
     1
102
RTVSPost2010Prop56
140
1.0
102
RTVSPost2010PropOp56
 70
     1
102
RTVSPost2010Prop57
140
1.0
102
RTVSPost2010PropOp57
 70
     1
102
RTVSPropertyOp0
 70
     1
102
RTVSPropertyOp1
 70
     1
102
RTVSPropertyOp2
 70
     1
102
RTVSPropertyOp3
 70
     1
102
RTVSPropertyOp4
 70
     1
102
RTVSPropertyOp5
 70
     1
102
RTVSPropertyOp6
 70
     1
102
RTVSPropertyOp7
 70
     1
102
RTVSPropertyOp8
 70
     1
102
RTVSPropertyOp9
 70
     1
102
RTVSPropertyOp10
 70
     1
102
RTVSPropertyOp11
 70
     1
102
RTVSPropertyOp12
 70
     1
102
RTVSPropertyOp13
 70
     1
102
RTVSPropertyOp14
 70
     1
102
RTVSPropertyOp15
 70
     1
102
RTVSPropertyOp16
 70
     1
102
RTVSPropertyOp17
 70
     1
102
RTVSPropertyOp18
 70
     1
102
RTVSPropertyOp19
 70
     1
102
RTVSPropertyOp20
 70
     1
102
RTVSPropertyOp21
 70
     1
102
RTVSPropertyOp22
 70
     1
102
RTVSPropertyOp23
 70
     1
102
RTVSPropertyOp24
 70
     1
102
RTVSPropertyOp25
 70
     1
102
RTVSPropertyOp26
 70
     1
102
RTVSPropertyOp27
 70
     1
102
RTVSPropertyOp28
 70
     1
102
RTVSPropertyOp29
 70
     1
102
RTVSPropertyOp30
 70
     1
102
RTVSPropertyOp31
 70
     1
102
RTVSPropertyOp32
 70
     1
102
RTVSPropertyOp33
 70
     1
102
RTVSPropertyOp34
 70
     1
102
RTVSPropertyOp35
 70
     1
102
RTVSPropertyOp36
 70
     1
102
RTVSPropertyOp37
 70
     1
102
RTVSPropertyOp38
 70
     1
102
RTVSPropertyOp39
 70
     1
102
RTVSPropertyOp40
 70
     1
102
RTVSPropertyOp41
 70
     1
102
RTVSPropertyOp42
 70
     1
102
RTVSPropertyOp43
 70
     1
102
RTVSPropertyOp44
 70
     1
102
RTVSPropertyOp45
 70
     1
102
RTVSPropertyOp46
 70
     1
102
RTVSPropertyOp47
 70
     1
102
RTVSPropertyOp48
 70
     1
102
RTVSPropertyOp49
 70
     1
102
RTVSPropertyOp50
 70
     1
102
RTVSPropertyOp51
 70
     0
102
RTVSPropertyOp52
 70
     0
102
RTVSPropertyOp53
 70
     1
102
RTVSPropertyOp54
 70
     1
102
RTVSPropertyOp55
 70
     1
102
RTVSPropertyOp56
 70
     1
102
RTVSPropertyOp57
 70
     1
102
RTVSPropertyOp58
 70
     1
102
RTVSPropertyOp59
 70
     1
102
RTVSPropertyOp60
 70
     1
102
RTVSPropertyOp61
 70
     1
102
RTVSPropertyOp62
 70
     1
  0
XRECORD
  5
1281
102
{ACAD_REACTORS
330
1280
102
}
330
1280
100
AcDbXrecord
280
     1
102
RTVSPost2010Prop28
280
     0
102
RTVSPost2010PropOp28
 70
     1
102
RTVSPost2010Prop29
280
     1
102
RTVSPost2010PropOp29
 70
     1
102
RTVSPost2010Prop30
280
     1
102
RTVSPost2010PropOp30
 70
     1
102
RTVSPost2010Prop31
280
     0
102
RTVSPost2010PropOp31
 70
     1
102
RTVSPost2010Prop32
280
     0
102
RTVSPost2010PropOp32
 70
     1
102
RTVSPost2010Prop33
280
     0
102
RTVSPost2010PropOp33
 70
     1
102
RTVSPost2010Prop34
280
     0
102
RTVSPost2010PropOp34
 70
     1
102
RTVSPost2010Prop35
280
     0
102
RTVSPost2010PropOp35
 70
     1
102
RTVSPost2010Prop36
280
     0
102
RTVSPost2010PropOp36
 70
     1
102
RTVSPost2010Prop37
 90
       50
102
RTVSPost2010PropOp37
 70
     1
102
RTVSPost2010Prop38
140
0.0
102
RTVSPost2010PropOp38
 70
     1
102
RTVSPost2010Prop39
140
1.0
102
RTVSPost2010PropOp39
 70
     1
102
RTVSPost2010Prop40
 90
        0
102
RTVSPost2010PropOp40
 70
     1
102
RTVSPost2010Prop41ColorIndex
 90
       18
102
RTVSPost2010Prop41ColorRGB
 90
        0
102
RTVSPost2010PropOp41
 70
     1
102
RTVSPost2010Prop42
 90
       50
102
RTVSPost2010PropOp42
 70
     1
102
RTVSPost2010Prop43
 90
        3
102
RTVSPost2010PropOp43
 70
     1
102
RTVSPost2010Prop44ColorIndex
 90
        5
102
RTVSPost2010Prop44ColorRGB
 90
      255
102
RTVSPost2010PropOp44
 70
     1
102
RTVSPost2010Prop45
280
     0
102
RTVSPost2010PropOp45
 70
     1
102
RTVSPost2010Prop46
 90
       50
102
RTVSPost2010PropOp46
 70
     1
102
RTVSPost2010Prop47
 90
       50
102
RTVSPost2010PropOp47
 70
     1
102
RTVSPost2010Prop48
 90
       50
102
RTVSPost2010PropOp48
 70
     1
102
RTVSPost2010Prop49
280
     0
102
RTVSPost2010PropOp49
 70
     1
102
RTVSPost2010Prop50
 90
       50
102
RTVSPost2010PropOp50
 70
     1
102
RTVSPost2010Prop51ColorIndex
 90
      256
102
RTVSPost2010Prop51ColorRGB
 90
-16777216
102
RTVSPost2010PropOp51
 70
     0
102
RTVSPost2010Prop52
140
1.0
102
RTVSPost2010PropOp52
 70
     0
102
RTVSPost2010Prop53
 90
        2
102
RTVSPost2010PropOp53
 70
     1
102
RTVSPost2010Prop54
  1
strokes_ogs.tif
102
RTVSPost2010PropOp54
 70
     1
102
RTVSPost2010Prop55
280
     0
102
RTVSPost2010PropOp55
 70
     1
102
RTVSPost2010Prop56
140
1.0
102
RTVSPost2010PropOp56
 70
     1
102
RTVSPost2010Prop57
140
1.0
102
RTVSPost2010PropOp57
 70
     1
102
RTVSPropertyOp0
 70
     1
102
RTVSPropertyOp1
 70
     1
102
RTVSPropertyOp2
 70
     1
102
RTVSPropertyOp3
 70
     1
102
RTVSPropertyOp4
 70
     1
102
RTVSPropertyOp5
 70
     1
102
RTVSPropertyOp6
 70
     1
102
RTVSPropertyOp7
 70
     1
102
RTVSPropertyOp8
 70
     1
102
RTVSPropertyOp9
 70
     1
102
RTVSPropertyOp10
 70
     1
102
RTVSPropertyOp11
 70
     1
102
RTVSPropertyOp12
 70
     1
102
RTVSPropertyOp13
 70
     1
102
RTVSPropertyOp14
 70
     1
102
RTVSPropertyOp15
 70
     1
102
RTVSPropertyOp16
 70
     1
102
RTVSPropertyOp17
 70
     1
102
RTVSPropertyOp18
 70
     1
102
RTVSPropertyOp19
 70
     1
102
RTVSPropertyOp20
 70
     1
102
RTVSPropertyOp21
 70
     1
102
RTVSPropertyOp22
 70
     1
102
RTVSPropertyOp23
 70
     1
102
RTVSPropertyOp24
 70
     1
102
RTVSPropertyOp25
 70
     1
102
RTVSPropertyOp26
 70
     1
102
RTVSPropertyOp27
 70
     1
102
RTVSPropertyOp28
 70
     1
102
RTVSPropertyOp29
 70
     1
102
RTVSPropertyOp30
 70
     1
102
RTVSPropertyOp31
 70
     1
102
RTVSPropertyOp32
 70
     1
102
RTVSPropertyOp33
 70
     1
102
RTVSPropertyOp34
 70
     1
102
RTVSPropertyOp35
 70
     1
102
RTVSPropertyOp36
 70
     1
102
RTVSPropertyOp37
 70
     1
102
RTVSPropertyOp38
 70
     1
102
RTVSPropertyOp39
 70
     1
102
RTVSPropertyOp40
 70
     1
102
RTVSPropertyOp41
 70
     1
102
RTVSPropertyOp42
 70
     1
102
RTVSPropertyOp43
 70
     1
102
RTVSPropertyOp44
 70
     1
102
RTVSPropertyOp45
 70
     1
102
RTVSPropertyOp46
 70
     1
102
RTVSPropertyOp47
 70
     1
102
RTVSPropertyOp48
 70
     1
102
RTVSPropertyOp49
 70
     1
102
RTVSPropertyOp50
 70
     1
102
RTVSPropertyOp51
 70
     0
102
RTVSPropertyOp52
 70
     0
102
RTVSPropertyOp53
 70
     1
102
RTVSPropertyOp54
 70
     1
102
RTVSPropertyOp55
 70
     1
102
RTVSPropertyOp56
 70
     1
102
RTVSPropertyOp57
 70
     1
102
RTVSPropertyOp58
 70
     1
102
RTVSPropertyOp59
 70
     1
102
RTVSPropertyOp60
 70
     1
102
RTVSPropertyOp61
 70
     1
102
RTVSPropertyOp62
 70
     1
  0
XRECORD
  5
126F
102
{ACAD_REACTORS
330
126E
102
}
330
126E
100
AcDbXrecord
280
     1
102
RTVSPost2010Prop28
280
     0
102
RTVSPost2010PropOp28
 70
     1
102
RTVSPost2010Prop29
280
     1
102
RTVSPost2010PropOp29
 70
     1
102
RTVSPost2010Prop30
280
     1
102
RTVSPost2010PropOp30
 70
     1
102
RTVSPost2010Prop31
280
     0
102
RTVSPost2010PropOp31
 70
     1
102
RTVSPost2010Prop32
280
     0
102
RTVSPost2010PropOp32
 70
     1
102
RTVSPost2010Prop33
280
     0
102
RTVSPost2010PropOp33
 70
     1
102
RTVSPost2010Prop34
280
     0
102
RTVSPost2010PropOp34
 70
     1
102
RTVSPost2010Prop35
280
     0
102
RTVSPost2010PropOp35
 70
     1
102
RTVSPost2010Prop36
280
     0
102
RTVSPost2010PropOp36
 70
     1
102
RTVSPost2010Prop37
 90
       50
102
RTVSPost2010PropOp37
 70
     1
102
RTVSPost2010Prop38
140
0.0
102
RTVSPost2010PropOp38
 70
     1
102
RTVSPost2010Prop39
140
1.0
102
RTVSPost2010PropOp39
 70
     1
102
RTVSPost2010Prop40
 90
        0
102
RTVSPost2010PropOp40
 70
     1
102
RTVSPost2010Prop41ColorIndex
 90
       18
102
RTVSPost2010Prop41ColorRGB
 90
        0
102
RTVSPost2010PropOp41
 70
     1
102
RTVSPost2010Prop42
 90
       50
102
RTVSPost2010PropOp42
 70
     1
102
RTVSPost2010Prop43
 90
        3
102
RTVSPost2010PropOp43
 70
     1
102
RTVSPost2010Prop44ColorIndex
 90
        5
102
RTVSPost2010Prop44ColorRGB
 90
      255
102
RTVSPost2010PropOp44
 70
     1
102
RTVSPost2010Prop45
280
     0
102
RTVSPost2010PropOp45
 70
     1
102
RTVSPost2010Prop46
 90
       50
102
RTVSPost2010PropOp46
 70
     1
102
RTVSPost2010Prop47
 90
       50
102
RTVSPost2010PropOp47
 70
     1
102
RTVSPost2010Prop48
 90
       50
102
RTVSPost2010PropOp48
 70
     1
102
RTVSPost2010Prop49
280
     0
102
RTVSPost2010PropOp49
 70
     1
102
RTVSPost2010Prop50
 90
       50
102
RTVSPost2010PropOp50
 70
     1
102
RTVSPost2010Prop51ColorIndex
 90
      256
102
RTVSPost2010Prop51ColorRGB
 90
-16777216
102
RTVSPost2010PropOp51
 70
     0
102
RTVSPost2010Prop52
140
1.0
102
RTVSPost2010PropOp52
 70
     0
102
RTVSPost2010Prop53
 90
        2
102
RTVSPost2010PropOp53
 70
     1
102
RTVSPost2010Prop54
  1
strokes_ogs.tif
102
RTVSPost2010PropOp54
 70
     1
102
RTVSPost2010Prop55
280
     0
102
RTVSPost2010PropOp55
 70
     1
102
RTVSPost2010Prop56
140
1.0
102
RTVSPost2010PropOp56
 70
     1
102
RTVSPost2010Prop57
140
1.0
102
RTVSPost2010PropOp57
 70
     1
102
RTVSPropertyOp0
 70
     1
102
RTVSPropertyOp1
 70
     1
102
RTVSPropertyOp2
 70
     1
102
RTVSPropertyOp3
 70
     1
102
RTVSPropertyOp4
 70
     1
102
RTVSPropertyOp5
 70
     1
102
RTVSPropertyOp6
 70
     1
102
RTVSPropertyOp7
 70
     1
102
RTVSPropertyOp8
 70
     1
102
RTVSPropertyOp9
 70
     1
102
RTVSPropertyOp10
 70
     1
102
RTVSPropertyOp11
 70
     1
102
RTVSPropertyOp12
 70
     1
102
RTVSPropertyOp13
 70
     1
102
RTVSPropertyOp14
 70
     1
102
RTVSPropertyOp15
 70
     1
102
RTVSPropertyOp16
 70
     1
102
RTVSPropertyOp17
 70
     1
102
RTVSPropertyOp18
 70
     1
102
RTVSPropertyOp19
 70
     1
102
RTVSPropertyOp20
 70
     1
102
RTVSPropertyOp21
 70
     1
102
RTVSPropertyOp22
 70
     1
102
RTVSPropertyOp23
 70
     1
102
RTVSPropertyOp24
 70
     1
102
RTVSPropertyOp25
 70
     1
102
RTVSPropertyOp26
 70
     1
102
RTVSPropertyOp27
 70
     1
102
RTVSPropertyOp28
 70
     1
102
RTVSPropertyOp29
 70
     1
102
RTVSPropertyOp30
 70
     1
102
RTVSPropertyOp31
 70
     1
102
RTVSPropertyOp32
 70
     1
102
RTVSPropertyOp33
 70
     1
102
RTVSPropertyOp34
 70
     1
102
RTVSPropertyOp35
 70
     1
102
RTVSPropertyOp36
 70
     1
102
RTVSPropertyOp37
 70
     1
102
RTVSPropertyOp38
 70
     1
102
RTVSPropertyOp39
 70
     1
102
RTVSPropertyOp40
 70
     1
102
RTVSPropertyOp41
 70
     1
102
RTVSPropertyOp42
 70
     1
102
RTVSPropertyOp43
 70
     1
102
RTVSPropertyOp44
 70
     1
102
RTVSPropertyOp45
 70
     1
102
RTVSPropertyOp46
 70
     1
102
RTVSPropertyOp47
 70
     1
102
RTVSPropertyOp48
 70
     1
102
RTVSPropertyOp49
 70
     1
102
RTVSPropertyOp50
 70
     1
102
RTVSPropertyOp51
 70
     0
102
RTVSPropertyOp52
 70
     0
102
RTVSPropertyOp53
 70
     1
102
RTVSPropertyOp54
 70
     1
102
RTVSPropertyOp55
 70
     1
102
RTVSPropertyOp56
 70
     1
102
RTVSPropertyOp57
 70
     1
102
RTVSPropertyOp58
 70
     1
102
RTVSPropertyOp59
 70
     1
102
RTVSPropertyOp60
 70
     1
102
RTVSPropertyOp61
 70
     1
102
RTVSPropertyOp62
 70
     1
  0
XRECORD
  5
1263
102
{ACAD_REACTORS
330
1262
102
}
330
1262
100
AcDbXrecord
280
     1
102
RTVSPost2010Prop28
280
     0
102
RTVSPost2010PropOp28
 70
     1
102
RTVSPost2010Prop29
280
     1
102
RTVSPost2010PropOp29
 70
     1
102
RTVSPost2010Prop30
280
     1
102
RTVSPost2010PropOp30
 70
     1
102
RTVSPost2010Prop31
280
     0
102
RTVSPost2010PropOp31
 70
     1
102
RTVSPost2010Prop32
280
     0
102
RTVSPost2010PropOp32
 70
     1
102
RTVSPost2010Prop33
280
     0
102
RTVSPost2010PropOp33
 70
     1
102
RTVSPost2010Prop34
280
     0
102
RTVSPost2010PropOp34
 70
     1
102
RTVSPost2010Prop35
280
     0
102
RTVSPost2010PropOp35
 70
     1
102
RTVSPost2010Prop36
280
     0
102
RTVSPost2010PropOp36
 70
     1
102
RTVSPost2010Prop37
 90
       50
102
RTVSPost2010PropOp37
 70
     1
102
RTVSPost2010Prop38
140
0.0
102
RTVSPost2010PropOp38
 70
     1
102
RTVSPost2010Prop39
140
1.0
102
RTVSPost2010PropOp39
 70
     1
102
RTVSPost2010Prop40
 90
        0
102
RTVSPost2010PropOp40
 70
     1
102
RTVSPost2010Prop41ColorIndex
 90
       18
102
RTVSPost2010Prop41ColorRGB
 90
        0
102
RTVSPost2010PropOp41
 70
     1
102
RTVSPost2010Prop42
 90
       50
102
RTVSPost2010PropOp42
 70
     1
102
RTVSPost2010Prop43
 90
        3
102
RTVSPost2010PropOp43
 70
     1
102
RTVSPost2010Prop44ColorIndex
 90
        5
102
RTVSPost2010Prop44ColorRGB
 90
      255
102
RTVSPost2010PropOp44
 70
     1
102
RTVSPost2010Prop45
280
     0
102
RTVSPost2010PropOp45
 70
     1
102
RTVSPost2010Prop46
 90
       50
102
RTVSPost2010PropOp46
 70
     1
102
RTVSPost2010Prop47
 90
       50
102
RTVSPost2010PropOp47
 70
     1
102
RTVSPost2010Prop48
 90
       50
102
RTVSPost2010PropOp48
 70
     1
102
RTVSPost2010Prop49
280
     0
102
RTVSPost2010PropOp49
 70
     1
102
RTVSPost2010Prop50
 90
       50
102
RTVSPost2010PropOp50
 70
     1
102
RTVSPost2010Prop51ColorIndex
 90
      256
102
RTVSPost2010Prop51ColorRGB
 90
-16777216
102
RTVSPost2010PropOp51
 70
     0
102
RTVSPost2010Prop52
140
1.0
102
RTVSPost2010PropOp52
 70
     0
102
RTVSPost2010Prop53
 90
        2
102
RTVSPost2010PropOp53
 70
     1
102
RTVSPost2010Prop54
  1
strokes_ogs.tif
102
RTVSPost2010PropOp54
 70
     1
102
RTVSPost2010Prop55
280
     0
102
RTVSPost2010PropOp55
 70
     1
102
RTVSPost2010Prop56
140
1.0
102
RTVSPost2010PropOp56
 70
     1
102
RTVSPost2010Prop57
140
1.0
102
RTVSPost2010PropOp57
 70
     1
102
RTVSPropertyOp0
 70
     1
102
RTVSPropertyOp1
 70
     1
102
RTVSPropertyOp2
 70
     1
102
RTVSPropertyOp3
 70
     1
102
RTVSPropertyOp4
 70
     1
102
RTVSPropertyOp5
 70
     1
102
RTVSPropertyOp6
 70
     1
102
RTVSPropertyOp7
 70
     1
102
RTVSPropertyOp8
 70
     1
102
RTVSPropertyOp9
 70
     1
102
RTVSPropertyOp10
 70
     1
102
RTVSPropertyOp11
 70
     1
102
RTVSPropertyOp12
 70
     1
102
RTVSPropertyOp13
 70
     1
102
RTVSPropertyOp14
 70
     1
102
RTVSPropertyOp15
 70
     1
102
RTVSPropertyOp16
 70
     1
102
RTVSPropertyOp17
 70
     1
102
RTVSPropertyOp18
 70
     1
102
RTVSPropertyOp19
 70
     1
102
RTVSPropertyOp20
 70
     1
102
RTVSPropertyOp21
 70
     1
102
RTVSPropertyOp22
 70
     1
102
RTVSPropertyOp23
 70
     1
102
RTVSPropertyOp24
 70
     1
102
RTVSPropertyOp25
 70
     1
102
RTVSPropertyOp26
 70
     1
102
RTVSPropertyOp27
 70
     1
102
RTVSPropertyOp28
 70
     1
102
RTVSPropertyOp29
 70
     1
102
RTVSPropertyOp30
 70
     1
102
RTVSPropertyOp31
 70
     1
102
RTVSPropertyOp32
 70
     1
102
RTVSPropertyOp33
 70
     1
102
RTVSPropertyOp34
 70
     1
102
RTVSPropertyOp35
 70
     1
102
RTVSPropertyOp36
 70
     1
102
RTVSPropertyOp37
 70
     1
102
RTVSPropertyOp38
 70
     1
102
RTVSPropertyOp39
 70
     1
102
RTVSPropertyOp40
 70
     1
102
RTVSPropertyOp41
 70
     1
102
RTVSPropertyOp42
 70
     1
102
RTVSPropertyOp43
 70
     1
102
RTVSPropertyOp44
 70
     1
102
RTVSPropertyOp45
 70
     1
102
RTVSPropertyOp46
 70
     1
102
RTVSPropertyOp47
 70
     1
102
RTVSPropertyOp48
 70
     1
102
RTVSPropertyOp49
 70
     1
102
RTVSPropertyOp50
 70
     1
102
RTVSPropertyOp51
 70
     0
102
RTVSPropertyOp52
 70
     0
102
RTVSPropertyOp53
 70
     1
102
RTVSPropertyOp54
 70
     1
102
RTVSPropertyOp55
 70
     1
102
RTVSPropertyOp56
 70
     1
102
RTVSPropertyOp57
 70
     1
102
RTVSPropertyOp58
 70
     1
102
RTVSPropertyOp59
 70
     1
102
RTVSPropertyOp60
 70
     1
102
RTVSPropertyOp61
 70
     1
102
RTVSPropertyOp62
 70
     1
  0
XRECORD
  5
1283
102
{ACAD_REACTORS
330
1282
102
}
330
1282
100
AcDbXrecord
280
     1
102
RTVSPost2010Prop28
280
     0
102
RTVSPost2010PropOp28
 70
     1
102
RTVSPost2010Prop29
280
     1
102
RTVSPost2010PropOp29
 70
     1
102
RTVSPost2010Prop30
280
     1
102
RTVSPost2010PropOp30
 70
     1
102
RTVSPost2010Prop31
280
     0
102
RTVSPost2010PropOp31
 70
     1
102
RTVSPost2010Prop32
280
     0
102
RTVSPost2010PropOp32
 70
     1
102
RTVSPost2010Prop33
280
     0
102
RTVSPost2010PropOp33
 70
     1
102
RTVSPost2010Prop34
280
     0
102
RTVSPost2010PropOp34
 70
     1
102
RTVSPost2010Prop35
280
     0
102
RTVSPost2010PropOp35
 70
     1
102
RTVSPost2010Prop36
280
     0
102
RTVSPost2010PropOp36
 70
     1
102
RTVSPost2010Prop37
 90
       50
102
RTVSPost2010PropOp37
 70
     1
102
RTVSPost2010Prop38
140
0.0
102
RTVSPost2010PropOp38
 70
     1
102
RTVSPost2010Prop39
140
1.0
102
RTVSPost2010PropOp39
 70
     1
102
RTVSPost2010Prop40
 90
        0
102
RTVSPost2010PropOp40
 70
     1
102
RTVSPost2010Prop41ColorIndex
 90
       18
102
RTVSPost2010Prop41ColorRGB
 90
        0
102
RTVSPost2010PropOp41
 70
     1
102
RTVSPost2010Prop42
 90
       50
102
RTVSPost2010PropOp42
 70
     1
102
RTVSPost2010Prop43
 90
        3
102
RTVSPost2010PropOp43
 70
     1
102
RTVSPost2010Prop44ColorIndex
 90
        5
102
RTVSPost2010Prop44ColorRGB
 90
      255
102
RTVSPost2010PropOp44
 70
     1
102
RTVSPost2010Prop45
280
     0
102
RTVSPost2010PropOp45
 70
     1
102
RTVSPost2010Prop46
 90
       50
102
RTVSPost2010PropOp46
 70
     1
102
RTVSPost2010Prop47
 90
       50
102
RTVSPost2010PropOp47
 70
     1
102
RTVSPost2010Prop48
 90
       50
102
RTVSPost2010PropOp48
 70
     1
102
RTVSPost2010Prop49
280
     0
102
RTVSPost2010PropOp49
 70
     1
102
RTVSPost2010Prop50
 90
       50
102
RTVSPost2010PropOp50
 70
     1
102
RTVSPost2010Prop51ColorIndex
 90
      256
102
RTVSPost2010Prop51ColorRGB
 90
-16777216
102
RTVSPost2010PropOp51
 70
     0
102
RTVSPost2010Prop52
140
1.0
102
RTVSPost2010PropOp52
 70
     0
102
RTVSPost2010Prop53
 90
        2
102
RTVSPost2010PropOp53
 70
     1
102
RTVSPost2010Prop54
  1
strokes_ogs.tif
102
RTVSPost2010PropOp54
 70
     1
102
RTVSPost2010Prop55
280
     0
102
RTVSPost2010PropOp55
 70
     1
102
RTVSPost2010Prop56
140
1.0
102
RTVSPost2010PropOp56
 70
     1
102
RTVSPost2010Prop57
140
1.0
102
RTVSPost2010PropOp57
 70
     1
102
RTVSPropertyOp0
 70
     1
102
RTVSPropertyOp1
 70
     1
102
RTVSPropertyOp2
 70
     1
102
RTVSPropertyOp3
 70
     1
102
RTVSPropertyOp4
 70
     1
102
RTVSPropertyOp5
 70
     1
102
RTVSPropertyOp6
 70
     1
102
RTVSPropertyOp7
 70
     1
102
RTVSPropertyOp8
 70
     1
102
RTVSPropertyOp9
 70
     1
102
RTVSPropertyOp10
 70
     1
102
RTVSPropertyOp11
 70
     1
102
RTVSPropertyOp12
 70
     1
102
RTVSPropertyOp13
 70
     1
102
RTVSPropertyOp14
 70
     1
102
RTVSPropertyOp15
 70
     1
102
RTVSPropertyOp16
 70
     1
102
RTVSPropertyOp17
 70
     1
102
RTVSPropertyOp18
 70
     1
102
RTVSPropertyOp19
 70
     1
102
RTVSPropertyOp20
 70
     1
102
RTVSPropertyOp21
 70
     1
102
RTVSPropertyOp22
 70
     1
102
RTVSPropertyOp23
 70
     1
102
RTVSPropertyOp24
 70
     1
102
RTVSPropertyOp25
 70
     1
102
RTVSPropertyOp26
 70
     1
102
RTVSPropertyOp27
 70
     1
102
RTVSPropertyOp28
 70
     1
102
RTVSPropertyOp29
 70
     1
102
RTVSPropertyOp30
 70
     1
102
RTVSPropertyOp31
 70
     1
102
RTVSPropertyOp32
 70
     1
102
RTVSPropertyOp33
 70
     1
102
RTVSPropertyOp34
 70
     1
102
RTVSPropertyOp35
 70
     1
102
RTVSPropertyOp36
 70
     1
102
RTVSPropertyOp37
 70
     1
102
RTVSPropertyOp38
 70
     1
102
RTVSPropertyOp39
 70
     1
102
RTVSPropertyOp40
 70
     1
102
RTVSPropertyOp41
 70
     1
102
RTVSPropertyOp42
 70
     1
102
RTVSPropertyOp43
 70
     1
102
RTVSPropertyOp44
 70
     1
102
RTVSPropertyOp45
 70
     1
102
RTVSPropertyOp46
 70
     1
102
RTVSPropertyOp47
 70
     1
102
RTVSPropertyOp48
 70
     1
102
RTVSPropertyOp49
 70
     1
102
RTVSPropertyOp50
 70
     1
102
RTVSPropertyOp51
 70
     0
102
RTVSPropertyOp52
 70
     0
102
RTVSPropertyOp53
 70
     1
102
RTVSPropertyOp54
 70
     1
102
RTVSPropertyOp55
 70
     1
102
RTVSPropertyOp56
 70
     1
102
RTVSPropertyOp57
 70
     1
102
RTVSPropertyOp58
 70
     1
102
RTVSPropertyOp59
 70
     1
102
RTVSPropertyOp60
 70
     1
102
RTVSPropertyOp61
 70
     1
102
RTVSPropertyOp62
 70
     1
  0
ENDSEC
  0
EOF
