  0
SECTION
  2
HEADER
  9
$ACADVER
  1
AC1015
  9
$ACADMAINTVER
 70
    18
  9
$DWGCODEPAGE
  3
ANSI_1252
  9
$INSBASE
 10
0.0
 20
0.0
 30
0.0
  9
$EXTMIN
 10
-151.6
 20
-202.9960763473508
 30
0.0
  9
$EXTMAX
 10
186.251803615609
 20
238.6000000000001
 30
0.0
  9
$LIMMIN
 10
0.0
 20
0.0
  9
$LIMMAX
 10
12.0
 20
9.0
  9
$ORTHOMODE
 70
     0
  9
$REGENMODE
 70
     1
  9
$FILLMODE
 70
     1
  9
$QTEXTMODE
 70
     0
  9
$MIRRTEXT
 70
     0
  9
$LTSCALE
 40
1.0
  9
$ATTMODE
 70
     1
  9
$TEXTSIZE
 40
0.2
  9
$TRACEWID
 40
0.05
  9
$TEXTSTYLE
  7
Standard
  9
$CLAYER
  8
0
  9
$CELTYPE
  6
ByLayer
  9
$CECOLOR
 62
   256
  9
$CELTSCALE
 40
1.0
  9
$DISPSILH
 70
     0
  9
$DIMSCALE
 40
1.0
  9
$DIMASZ
 40
0.18
  9
$DIMEXO
 40
0.0625
  9
$DIMDLI
 40
0.38
  9
$DIMRND
 40
0.0
  9
$DIMDLE
 40
0.0
  9
$DIMEXE
 40
0.18
  9
$DIMTP
 40
0.0
  9
$DIMTM
 40
0.0
  9
$DIMTXT
 40
0.18
  9
$DIMCEN
 40
0.09
  9
$DIMTSZ
 40
0.0
  9
$DIMTOL
 70
     0
  9
$DIMLIM
 70
     0
  9
$DIMTIH
 70
     1
  9
$DIMTOH
 70
     1
  9
$DIMSE1
 70
     0
  9
$DIMSE2
 70
     0
  9
$DIMTAD
 70
     0
  9
$DIMZIN
 70
     0
  9
$DIMBLK
  1

  9
$DIMASO
 70
     1
  9
$DIMSHO
 70
     1
  9
$DIMPOST
  1

  9
$DIMAPOST
  1

  9
$DIMALT
 70
     0
  9
$DIMALTD
 70
     2
  9
$DIMALTF
 40
25.4
  9
$DIMLFAC
 40
1.0
  9
$DIMTOFL
 70
     0
  9
$DIMTVP
 40
0.0
  9
$DIMTIX
 70
     0
  9
$DIMSOXD
 70
     0
  9
$DIMSAH
 70
     0
  9
$DIMBLK1
  1

  9
$DIMBLK2
  1

  9
$DIMSTYLE
  2
Standard
  9
$DIMCLRD
 70
     0
  9
$DIMCLRE
 70
     0
  9
$DIMCLRT
 70
     0
  9
$DIMTFAC
 40
1.0
  9
$DIMGAP
 40
0.09
  9
$DIMJUST
 70
     0
  9
$DIMSD1
 70
     0
  9
$DIMSD2
 70
     0
  9
$DIMTOLJ
 70
     1
  9
$DIMTZIN
 70
     0
  9
$DIMALTZ
 70
     0
  9
$DIMALTTZ
 70
     0
  9
$DIMUPT
 70
     0
  9
$DIMDEC
 70
     4
  9
$DIMTDEC
 70
     4
  9
$DIMALTU
 70
     2
  9
$DIMALTTD
 70
     2
  9
$DIMTXSTY
  7
Standard
  9
$DIMAUNIT
 70
     0
  9
$DIMADEC
 70
     0
  9
$DIMALTRND
 40
0.0
  9
$DIMAZIN
 70
     0
  9
$DIMDSEP
 70
    46
  9
$DIMATFIT
 70
     3
  9
$DIMFRAC
 70
     0
  9
$DIMLDRBLK
  1

  9
$DIMLUNIT
 70
     2
  9
$DIMLWD
 70
    -2
  9
$DIMLWE
 70
    -2
  9
$DIMTMOVE
 70
     0
  9
$LUNITS
 70
     2
  9
$LUPREC
 70
     4
  9
$SKETCHINC
 40
0.1
  9
$FILLETRAD
 40
0.0
  9
$AUNITS
 70
     0
  9
$AUPREC
 70
     0
  9
$MENU
  1
.
  9
$ELEVATION
 40
0.0
  9
$PELEVATION
 40
0.0
  9
$THICKNESS
 40
0.0
  9
$LIMCHECK
 70
     0
  9
$CHAMFERA
 40
0.0
  9
$CHAMFERB
 40
0.0
  9
$CHAMFERC
 40
0.0
  9
$CHAMFERD
 40
0.0
  9
$SKPOLY
 70
     0
  9
$TDCREATE
 40
2460619.646446760
  9
$TDUCREATE
 40
2460619.354780092
  9
$TDUPDATE
 40
2460619.651412037
  9
$TDUUPDATE
 40
2460619.359745370
  9
$TDINDWG
 40
0.0008449074
  9
$TDUSRTIMER
 40
0.0008449074
  9
$USRTIMER
 70
     1
  9
$ANGBASE
 50
0.0
  9
$ANGDIR
 70
     0
  9
$PDMODE
 70
     0
  9
$PDSIZE
 40
0.0
  9
$PLINEWID
 40
0.0
  9
$SPLFRAME
 70
     0
  9
$SPLINETYPE
 70
     6
  9
$SPLINESEGS
 70
     8
  9
$HANDSEED
  5
F63
  9
$SURFTAB1
 70
     6
  9
$SURFTAB2
 70
     6
  9
$SURFTYPE
 70
     6
  9
$SURFU
 70
     6
  9
$SURFV
 70
     6
  9
$UCSBASE
  2

  9
$UCSNAME
  2

  9
$UCSORG
 10
0.0
 20
0.0
 30
0.0
  9
$UCSXDIR
 10
1.0
 20
0.0
 30
0.0
  9
$UCSYDIR
 10
0.0
 20
1.0
 30
0.0
  9
$UCSORTHOREF
  2

  9
$UCSORTHOVIEW
 70
     0
  9
$UCSORGTOP
 10
0.0
 20
0.0
 30
0.0
  9
$UCSORGBOTTOM
 10
0.0
 20
0.0
 30
0.0
  9
$UCSORGLEFT
 10
0.0
 20
0.0
 30
0.0
  9
$UCSORGRIGHT
 10
0.0
 20
0.0
 30
0.0
  9
$UCSORGFRONT
 10
0.0
 20
0.0
 30
0.0
  9
$UCSORGBACK
 10
0.0
 20
0.0
 30
0.0
  9
$PUCSBASE
  2

  9
$PUCSNAME
  2

  9
$PUCSORG
 10
0.0
 20
0.0
 30
0.0
  9
$PUCSXDIR
 10
1.0
 20
0.0
 30
0.0
  9
$PUCSYDIR
 10
0.0
 20
1.0
 30
0.0
  9
$PUCSORTHOREF
  2

  9
$PUCSORTHOVIEW
 70
     0
  9
$PUCSORGTOP
 10
0.0
 20
0.0
 30
0.0
  9
$PUCSORGBOTTOM
 10
0.0
 20
0.0
 30
0.0
  9
$PUCSORGLEFT
 10
0.0
 20
0.0
 30
0.0
  9
$PUCSORGRIGHT
 10
0.0
 20
0.0
 30
0.0
  9
$PUCSORGFRONT
 10
0.0
 20
0.0
 30
0.0
  9
$PUCSORGBACK
 10
0.0
 20
0.0
 30
0.0
  9
$USERI1
 70
     0
  9
$USERI2
 70
     0
  9
$USERI3
 70
     0
  9
$USERI4
 70
     0
  9
$USERI5
 70
     0
  9
$USERR1
 40
0.0
  9
$USERR2
 40
0.0
  9
$USERR3
 40
0.0
  9
$USERR4
 40
0.0
  9
$USERR5
 40
0.0
  9
$WORLDVIEW
 70
     1
  9
$SHADEDGE
 70
     3
  9
$SHADEDIF
 70
    70
  9
$TILEMODE
 70
     1
  9
$MAXACTVP
 70
    48
  9
$PINSBASE
 10
0.0
 20
0.0
 30
0.0
  9
$PLIMCHECK
 70
     0
  9
$PEXTMIN
 10
0.0
 20
0.0
 30
0.0
  9
$PEXTMAX
 10
0.0
 20
0.0
 30
0.0
  9
$PLIMMIN
 10
0.0
 20
0.0
  9
$PLIMMAX
 10
12.0
 20
9.0
  9
$UNITMODE
 70
     0
  9
$VISRETAIN
 70
     1
  9
$PLINEGEN
 70
     0
  9
$PSLTSCALE
 70
     1
  9
$TREEDEPTH
 70
  3020
  9
$CMLSTYLE
  2
Standard
  9
$CMLJUST
 70
     0
  9
$CMLSCALE
 40
1.0
  9
$PROXYGRAPHICS
 70
     1
  9
$MEASUREMENT
 70
     0
  9
$CELWEIGHT
370
    -1
  9
$ENDCAPS
280
     0
  9
$JOINSTYLE
280
     0
  9
$LWDISPLAY
290
     0
  9
$INSUNITS
 70
     1
  9
$HYPERLINKBASE
  1

  9
$STYLESHEET
  1

  9
$XEDIT
290
     1
  9
$CEPSNTYPE
380
     0
  9
$PSTYLEMODE
290
     1
  9
$FINGERPRINTGUID
  2
{DE327A94-1AA4-5B4E-B6B7-9B11D369EB2E}
  9
$VERSIONGUID
  2
{834037A5-CD1A-8944-B9CF-34CF7840F566}
  9
$EXTNAMES
290
     1
  9
$PSVPSCALE
 40
0.0
  9
$OLESTARTUP
290
     0
  0
ENDSEC
  0
SECTION
  2
CLASSES
  0
CLASS
  1
ACDBDICTIONARYWDFLT
  2
AcDbDictionaryWithDefault
  3
ObjectDBX Classes
 90
        0
280
     0
281
     0
  0
CLASS
  1
ACDBPLACEHOLDER
  2
AcDbPlaceHolder
  3
ObjectDBX Classes
 90
        0
280
     0
281
     0
  0
CLASS
  1
LAYOUT
  2
AcDbLayout
  3
ObjectDBX Classes
 90
        0
280
     0
281
     0
  0
CLASS
  1
DICTIONARYVAR
  2
AcDbDictionaryVar
  3
ObjectDBX Classes
 90
        0
280
     0
281
     0
  0
CLASS
  1
TABLESTYLE
  2
AcDbTableStyle
  3
ObjectDBX Classes
 90
     4095
280
     0
281
     0
  0
CLASS
  1
MATERIAL
  2
AcDbMaterial
  3
ObjectDBX Classes
 90
     1153
280
     0
281
     0
  0
CLASS
  1
VISUALSTYLE
  2
AcDbVisualStyle
  3
ObjectDBX Classes
 90
     4095
280
     0
281
     0
  0
CLASS
  1
SCALE
  2
AcDbScale
  3
ObjectDBX Classes
 90
     1153
280
     0
281
     0
  0
CLASS
  1
MLEADERSTYLE
  2
AcDbMLeaderStyle
  3
ACDB_MLEADERSTYLE_CLASS
 90
     4095
280
     0
281
     0
  0
CLASS
  1
CELLSTYLEMAP
  2
AcDbCellStyleMap
  3
ObjectDBX Classes
 90
     1152
280
     0
281
     0
  0
CLASS
  1
EXACXREFPANELOBJECT
  2
ExAcXREFPanelObject
  3
EXAC_ESW
 90
    33793
280
     0
281
     0
  0
CLASS
  1
NPOCOLLECTION
  2
AcDbImpNonPersistentObjectsCollection
  3
ObjectDBX Classes
 90
    33921
280
     0
281
     0
  0
CLASS
  1
LAYER_INDEX
  2
AcDbLayerIndex
  3
ObjectDBX Classes
 90
    32768
280
     0
281
     0
  0
CLASS
  1
SPATIAL_INDEX
  2
AcDbSpatialIndex
  3
ObjectDBX Classes
 90
    32768
280
     0
281
     0
  0
CLASS
  1
IDBUFFER
  2
AcDbIdBuffer
  3
ObjectDBX Classes
 90
    32768
280
     0
281
     0
  0
CLASS
  1
ACDBSECTIONVIEWSTYLE
  2
AcDbSectionViewStyle
  3
ObjectDBX Classes
 90
     1025
280
     0
281
     0
  0
CLASS
  1
ACDBDETAILVIEWSTYLE
  2
AcDbDetailViewStyle
  3
ObjectDBX Classes
 90
     1025
280
     0
281
     0
  0
CLASS
  1
XRECORD
  2
AcDbXrecord
  3
ObjectDBX Classes
 90
        0
280
     0
281
     0
  0
ENDSEC
  0
SECTION
  2
TABLES
  0
TABLE
  2
VPORT
  5
8
102
{ACAD_XDICTIONARY
360
E79
102
}
330
0
100
AcDbSymbolTable
 70
     1
  0
VPORT
  5
94
330
8
100
AcDbSymbolTableRecord
100
AcDbViewportTableRecord
  2
*Active
 70
     0
 10
0.0
 20
0.0
 11
1.0
 21
1.0
 12
17.32590180780449
 22
17.8019618263246
 13
0.0
 23
0.0
 14
0.5
 24
0.5
 15
0.5
 25
0.5
 16
0.0
 26
0.0
 36
1.0
 17
0.0
 27
0.0
 37
0.0
 40
469.59740829465
 41
0.9846153846153846
 42
50.0
 43
0.0
 44
0.0
 50
0.0
 51
0.0
 71
     0
 72
  1000
 73
     1
 74
     3
 75
     0
 76
     1
 77
     0
 78
     0
281
     0
 65
     1
110
0.0
120
0.0
130
0.0
111
1.0
121
0.0
131
0.0
112
0.0
122
1.0
132
0.0
 79
     0
146
0.0
1001
ACAD_NAV_VCDISPLAY
1070
     3
  0
ENDTAB
  0
TABLE
  2
LTYPE
  5
5
330
0
100
AcDbSymbolTable
 70
     1
  0
LTYPE
  5
14
330
5
100
AcDbSymbolTableRecord
100
AcDbLinetypeTableRecord
  2
ByBlock
 70
     0
  3

 72
    65
 73
     0
 40
0.0
  0
LTYPE
  5
15
330
5
100
AcDbSymbolTableRecord
100
AcDbLinetypeTableRecord
  2
ByLayer
 70
     0
  3

 72
    65
 73
     0
 40
0.0
  0
LTYPE
  5
16
330
5
100
AcDbSymbolTableRecord
100
AcDbLinetypeTableRecord
  2
Continuous
 70
     0
  3
Solid line
 72
    65
 73
     0
 40
0.0
  0
ENDTAB
  0
TABLE
  2
LAYER
  5
2
102
{ACAD_XDICTIONARY
360
18E
102
}
330
0
100
AcDbSymbolTable
 70
     1
  0
LAYER
  5
10
102
{ACAD_XDICTIONARY
360
E6
102
}
330
2
100
AcDbSymbolTableRecord
100
AcDbLayerTableRecord
  2
0
 70
     0
 62
     7
  6
Continuous
370
    -3
390
F
  0
ENDTAB
  0
TABLE
  2
STYLE
  5
3
330
0
100
AcDbSymbolTable
 70
     1
  0
STYLE
  5
11
330
3
100
AcDbSymbolTableRecord
100
AcDbTextStyleTableRecord
  2
Standard
 70
     0
 40
0.0
 41
1.0
 50
0.0
 71
     0
 42
0.2
  3
arial_1.ttf
  4

1001
ACAD
1000
Arial
1071
       34
  0
ENDTAB
  0
TABLE
  2
VIEW
  5
6
330
0
100
AcDbSymbolTable
 70
     0
  0
ENDTAB
  0
TABLE
  2
UCS
  5
7
330
0
100
AcDbSymbolTable
 70
     0
  0
ENDTAB
  0
TABLE
  2
APPID
  5
9
330
0
100
AcDbSymbolTable
 70
     7
  0
APPID
  5
12
330
9
100
AcDbSymbolTableRecord
100
AcDbRegAppTableRecord
  2
ACAD
 70
     0
  0
APPID
  5
DD
330
9
100
AcDbSymbolTableRecord
100
AcDbRegAppTableRecord
  2
AcadAnnoPO
 70
     0
  0
APPID
  5
DE
330
9
100
AcDbSymbolTableRecord
100
AcDbRegAppTableRecord
  2
AcadAnnotative
 70
     0
  0
APPID
  5
DF
330
9
100
AcDbSymbolTableRecord
100
AcDbRegAppTableRecord
  2
ACAD_DSTYLE_DIMJAG
 70
     0
  0
APPID
  5
E0
330
9
100
AcDbSymbolTableRecord
100
AcDbRegAppTableRecord
  2
ACAD_DSTYLE_DIMTALN
 70
     0
  0
APPID
  5
107
330
9
100
AcDbSymbolTableRecord
100
AcDbRegAppTableRecord
  2
ACAD_MLEADERVER
 70
     0
  0
APPID
  5
1A6
330
9
100
AcDbSymbolTableRecord
100
AcDbRegAppTableRecord
  2
ACAD_NAV_VCDISPLAY
 70
     0
  0
ENDTAB
  0
TABLE
  2
DIMSTYLE
  5
A
330
0
100
AcDbSymbolTable
 70
     1
100
AcDbDimStyleTable
 71
     0
  0
DIMSTYLE
105
27
330
A
100
AcDbSymbolTableRecord
100
AcDbDimStyleTableRecord
  2
Standard
 70
     0
340
11
  0
ENDTAB
  0
TABLE
  2
BLOCK_RECORD
  5
1
330
0
100
AcDbSymbolTable
 70
     7
  0
BLOCK_RECORD
  5
1F
102
{ACAD_XDICTIONARY
360
15D
102
}
330
1
100
AcDbSymbolTableRecord
100
AcDbBlockTableRecord
  2
*Model_Space
340
22
  0
BLOCK_RECORD
  5
58
102
{ACAD_XDICTIONARY
360
E2D
102
}
330
1
100
AcDbSymbolTableRecord
100
AcDbBlockTableRecord
  2
*Paper_Space
340
59
  0
BLOCK_RECORD
  5
5D
102
{ACAD_XDICTIONARY
360
E2F
102
}
330
1
100
AcDbSymbolTableRecord
100
AcDbBlockTableRecord
  2
*Paper_Space0
340
5E
  0
BLOCK_RECORD
  5
BBB
330
1
100
AcDbSymbolTableRecord
100
AcDbBlockTableRecord
  2
PU70-B-Front
340
0
102
{BLKREFS
331
E23
102
}
  0
BLOCK_RECORD
  5
BEF
330
1
100
AcDbSymbolTableRecord
100
AcDbBlockTableRecord
  2
PU70-B-Left
340
0
102
{BLKREFS
331
E24
102
}
  0
BLOCK_RECORD
  5
C26
330
1
100
AcDbSymbolTableRecord
100
AcDbBlockTableRecord
  2
PU70-B-Right
340
0
102
{BLKREFS
331
E25
102
}
  0
BLOCK_RECORD
  5
C5D
330
1
100
AcDbSymbolTableRecord
100
AcDbBlockTableRecord
  2
PU70-B-Top
340
0
102
{BLKREFS
331
E26
102
}
  0
BLOCK_RECORD
  5
CB4
330
1
100
AcDbSymbolTableRecord
100
AcDbBlockTableRecord
  2
PU70-B-Bottom
340
0
102
{BLKREFS
331
E27
102
}
  0
BLOCK_RECORD
  5
D05
330
1
100
AcDbSymbolTableRecord
100
AcDbBlockTableRecord
  2
PU70-B-ISO
340
0
102
{BLKREFS
331
E28
102
}
  0
ENDTAB
  0
ENDSEC
  0
SECTION
  2
BLOCKS
  0
BLOCK
  5
20
330
1F
100
AcDbEntity
  8
0
100
AcDbBlockBegin
  2
*Model_Space
 70
     0
 10
0.0
 20
0.0
 30
0.0
  3
*Model_Space
  1

  0
ENDBLK
  5
21
330
1F
100
AcDbEntity
  8
0
100
AcDbBlockEnd
  0
BLOCK
  5
5A
330
58
100
AcDbEntity
 67
     1
  8
0
100
AcDbBlockBegin
  2
*Paper_Space
 70
     0
 10
0.0
 20
0.0
 30
0.0
  3
*Paper_Space
  1

  0
ENDBLK
  5
5B
330
58
100
AcDbEntity
 67
     1
  8
0
100
AcDbBlockEnd
  0
BLOCK
  5
5F
330
5D
100
AcDbEntity
 67
     1
  8
0
100
AcDbBlockBegin
  2
*Paper_Space0
 70
     0
 10
0.0
 20
0.0
 30
0.0
  3
*Paper_Space0
  1

  0
ENDBLK
  5
60
330
5D
100
AcDbEntity
 67
     1
  8
0
100
AcDbBlockEnd
  0
BLOCK
  5
BBC
330
BBB
100
AcDbEntity
  8
0
100
AcDbBlockBegin
  2
PU70-B-Front
 70
     0
 10
0.0
 20
0.0
 30
0.0
  3
PU70-B-Front
  1

  0
LINE
  5
BBE
330
BBB
100
AcDbEntity
  8
0
100
AcDbLine
 10
-38.99999999999996
 20
122.0
 30
0.0
 11
-38.99999999999998
 21
7.999999999999989
 31
0.0
  0
LINE
  5
BBF
330
BBB
100
AcDbEntity
  8
0
100
AcDbLine
 10
34.99999999999999
 20
121.9999999999999
 30
0.0
 11
35.00000000000001
 21
7.999999999999989
 31
0.0
  0
LINE
  5
BC0
330
BBB
100
AcDbEntity
  8
0
100
AcDbLine
 10
-30.99999999999998
 20
0.0
 30
0.0
 11
31.00000000000004
 21
0.0
 31
0.0
  0
LINE
  5
BC1
330
BBB
100
AcDbEntity
  8
0
100
AcDbLine
 10
39.00000000000001
 20
7.999999999999993
 30
0.0
 11
38.99999999999998
 21
121.9999999999999
 31
0.0
  0
LINE
  5
BC2
330
BBB
100
AcDbEntity
  8
0
100
AcDbLine
 10
31.00000000000004
 20
4.0
 30
0.0
 11
-30.99999999999998
 21
4.0
 31
0.0
  0
LINE
  5
BC3
330
BBB
100
AcDbEntity
  8
0
100
AcDbLine
 10
-34.99999999999999
 20
7.999999999999993
 30
0.0
 11
-34.99999999999996
 21
122.0
 31
0.0
  0
LINE
  5
BC4
330
BBB
100
AcDbEntity
  8
0
100
AcDbLine
 10
-38.99999999999996
 20
129.0
 30
0.0
 11
-38.99999999999996
 21
122.0
 31
0.0
  0
LINE
  5
BC5
330
BBB
100
AcDbEntity
  8
0
100
AcDbLine
 10
34.99999999999998
 20
129.0
 30
0.0
 11
34.99999999999999
 21
121.9999999999999
 31
0.0
  0
LINE
  5
BC6
330
BBB
100
AcDbEntity
  8
0
100
AcDbLine
 10
38.99999999999998
 20
121.9999999999999
 30
0.0
 11
38.99999999999998
 21
129.0
 31
0.0
  0
LINE
  5
BC7
330
BBB
100
AcDbEntity
  8
0
100
AcDbLine
 10
-34.99999999999996
 20
122.0
 30
0.0
 11
-34.99999999999996
 21
129.0
 31
0.0
  0
LINE
  5
BC8
330
BBB
100
AcDbEntity
  8
0
100
AcDbLine
 10
-34.99999999999996
 20
129.0
 30
0.0
 11
-38.99999999999996
 21
129.0
 31
0.0
  0
LINE
  5
BC9
330
BBB
100
AcDbEntity
  8
0
100
AcDbLine
 10
-38.99999999999996
 20
122.0
 30
0.0
 11
-34.99999999999996
 21
122.0
 31
0.0
  0
LINE
  5
BCA
330
BBB
100
AcDbEntity
  8
0
100
AcDbLine
 10
34.99999999999999
 20
121.9999999999999
 30
0.0
 11
38.99999999999998
 21
121.9999999999999
 31
0.0
  0
LINE
  5
BCB
330
BBB
100
AcDbEntity
  8
0
100
AcDbLine
 10
38.99999999999998
 20
129.0
 30
0.0
 11
34.99999999999998
 21
129.0
 31
0.0
  0
ARC
  5
BCC
330
BBB
100
AcDbEntity
  8
0
100
AcDbCircle
 10
-30.99999999999998
 20
8.0
 30
0.0
 40
8.0
100
AcDbArc
 50
180.0
 51
270.0
  0
ARC
  5
BCD
330
BBB
100
AcDbEntity
  8
0
100
AcDbCircle
 10
-30.99999999999998
 20
8.0
 30
0.0
 40
4.0
100
AcDbArc
 50
180.0
 51
270.0000000000001
  0
ARC
  5
BCE
330
BBB
100
AcDbEntity
  8
0
100
AcDbCircle
 10
31.00000000000001
 20
8.0
 30
0.0
 40
8.0
100
AcDbArc
 50
270.0000000000001
 51
0.0
  0
ARC
  5
BCF
330
BBB
100
AcDbEntity
  8
0
100
AcDbCircle
 10
31.00000000000001
 20
8.0
 30
0.0
 40
4.0
100
AcDbArc
 50
270.0000000000002
 51
0.0
  0
ARC
  5
BD0
330
BBB
100
AcDbEntity
  8
0
100
AcDbCircle
 10
24.99999999999996
 20
14.00000000000007
 30
0.0
 40
4.000000000000005
100
AcDbArc
 50
89.99999999999872
 51
180.0
  0
ARC
  5
BD1
330
BBB
100
AcDbEntity
  8
0
100
AcDbCircle
 10
24.99999999999996
 20
14.00000000000007
 30
0.0
 40
8.000000000000008
100
AcDbArc
 50
89.99999999999936
 51
180.0
  0
ARC
  5
BD2
330
BBB
100
AcDbEntity
  8
0
100
AcDbCircle
 10
13.00000000000006
 20
8.0
 30
0.0
 40
4.000000000000001
100
AcDbArc
 50
269.9999999999999
 51
0.0
  0
ARC
  5
BD3
330
BBB
100
AcDbEntity
  8
0
100
AcDbCircle
 10
13.00000000000006
 20
8.0
 30
0.0
 40
8.000000000000001
100
AcDbArc
 50
330.0000000000001
 51
0.0
  0
LINE
  5
BD4
330
BBB
100
AcDbEntity
  8
0
100
AcDbLine
 10
31.0
 20
18.00000000000009
 30
0.0
 11
25.00000000000005
 21
18.00000000000008
 31
0.0
  0
LINE
  5
BD5
330
BBB
100
AcDbEntity
  8
0
100
AcDbLine
 10
31.0
 20
22.00000000000009
 30
0.0
 11
25.00000000000005
 21
22.00000000000008
 31
0.0
  0
ARC
  5
BD6
330
BBB
100
AcDbEntity
  8
0
100
AcDbCircle
 10
30.99999999999999
 20
26.00000000000008
 30
0.0
 40
7.999999999999998
100
AcDbArc
 50
270.0000000000001
 51
300.0000000000001
  0
ARC
  5
BD7
330
BBB
100
AcDbEntity
  8
0
100
AcDbCircle
 10
30.99999999999999
 20
26.00000000000008
 30
0.0
 40
3.999999999999999
100
AcDbArc
 50
270.0000000000002
 51
0.0
  0
LINE
  5
BD8
330
BBB
100
AcDbEntity
  8
0
100
AcDbLine
 10
21.00000000000005
 20
14.00000000000008
 30
0.0
 11
21.00000000000005
 21
7.999999999999997
 31
0.0
  0
LINE
  5
BD9
330
BBB
100
AcDbEntity
  8
0
100
AcDbLine
 10
17.00000000000006
 20
7.999999999999996
 30
0.0
 11
17.00000000000005
 21
14.00000000000008
 31
0.0
  0
LINE
  5
BDA
330
BBB
100
AcDbEntity
  8
0
100
AcDbLine
 10
-17.00000000000005
 20
8.000000000000003
 30
0.0
 11
-16.99999999999995
 21
14.00000000000016
 31
0.0
  0
LINE
  5
BDB
330
BBB
100
AcDbEntity
  8
0
100
AcDbLine
 10
-20.99999999999995
 20
14.00000000000016
 30
0.0
 11
-21.00000000000005
 21
8.000000000000003
 31
0.0
  0
ARC
  5
BDC
330
BBB
100
AcDbEntity
  8
0
100
AcDbCircle
 10
-24.99999999999996
 20
14.00000000000007
 30
0.0
 40
8.000000000000008
100
AcDbArc
 50
0.0
 51
90.00000000000063
  0
ARC
  5
BDD
330
BBB
100
AcDbEntity
  8
0
100
AcDbCircle
 10
-24.99999999999996
 20
14.00000000000007
 30
0.0
 40
4.000000000000005
100
AcDbArc
 50
0.0
 51
90.00000000000127
  0
ARC
  5
BDE
330
BBB
100
AcDbEntity
  8
0
100
AcDbCircle
 10
-13.00000000000004
 20
8.0
 30
0.0
 40
4.000000000000001
100
AcDbArc
 50
180.0
 51
270.0000000000001
  0
ARC
  5
BDF
330
BBB
100
AcDbEntity
  8
0
100
AcDbCircle
 10
-13.00000000000004
 20
8.0
 30
0.0
 40
8.000000000000001
100
AcDbArc
 50
180.0
 51
210.0
  0
LINE
  5
BE0
330
BBB
100
AcDbEntity
  8
0
100
AcDbLine
 10
-31.0
 20
22.00000000000008
 30
0.0
 11
-25.00000000000004
 21
22.00000000000008
 31
0.0
  0
LINE
  5
BE1
330
BBB
100
AcDbEntity
  8
0
100
AcDbLine
 10
-31.0
 20
18.00000000000008
 30
0.0
 11
-25.00000000000004
 21
18.00000000000008
 31
0.0
  0
ARC
  5
BE2
330
BBB
100
AcDbEntity
  8
0
100
AcDbCircle
 10
-30.99999999999998
 20
26.00000000000008
 30
0.0
 40
7.999999999999999
100
AcDbArc
 50
240.0
 51
269.9999999999999
  0
ARC
  5
BE3
330
BBB
100
AcDbEntity
  8
0
100
AcDbCircle
 10
-30.99999999999998
 20
26.00000000000008
 30
0.0
 40
3.999999999999999
100
AcDbArc
 50
180.0
 51
269.9999999999998
  0
ARC
  5
BE4
330
BBB
100
AcDbEntity
  8
0
100
AcDbCircle
 10
-39.49999999999997
 20
79.99999999999994
 30
0.0
 40
2.500000000000023
100
AcDbArc
 50
140.4194141367437
 51
180.0
  0
ARC
  5
BE5
330
BBB
100
AcDbEntity
  8
0
100
AcDbCircle
 10
-41.69999999999996
 20
85.49999999999995
 30
0.0
 40
2.7
100
AcDbArc
 50
320.4194141367436
 51
0.0
  0
LINE
  5
BE6
330
BBB
100
AcDbEntity
  8
0
100
AcDbLine
 10
-41.42682295917795
 20
81.5929071799651
 30
0.0
 11
-39.61903120408774
 21
83.77966024563754
 31
0.0
  0
LINE
  5
BE7
330
BBB
100
AcDbEntity
  8
0
100
AcDbLine
 10
-41.99999999999999
 20
8.00000000000001
 30
0.0
 11
-41.99999999999997
 21
79.99999999999997
 31
0.0
  0
ARC
  5
BE8
330
BBB
100
AcDbEntity
  8
0
100
AcDbCircle
 10
-30.99999999999998
 20
7.999999999999998
 30
0.0
 40
11.0
100
AcDbArc
 50
180.0
 51
270.0
  0
LINE
  5
BE9
330
BBB
100
AcDbEntity
  8
0
100
AcDbLine
 10
31.0
 20
-3.000000000000007
 30
0.0
 11
-30.99999999999998
 21
-3.000000000000007
 31
0.0
  0
ARC
  5
BEA
330
BBB
100
AcDbEntity
  8
0
100
AcDbCircle
 10
31.00000000000001
 20
7.999999999999989
 30
0.0
 40
10.99999999999999
100
AcDbArc
 50
270.0
 51
0.0
  0
LINE
  5
BEB
330
BBB
100
AcDbEntity
  8
0
100
AcDbLine
 10
41.99999999999999
 20
79.99999999999999
 30
0.0
 11
41.99999999999999
 21
7.999999999999989
 31
0.0
  0
ARC
  5
BEC
330
BBB
100
AcDbEntity
  8
0
100
AcDbCircle
 10
39.49999999999999
 20
79.99999999999999
 30
0.0
 40
2.500000000000013
100
AcDbArc
 50
0.0
 51
39.58058586325594
  0
ARC
  5
BED
330
BBB
100
AcDbEntity
  8
0
100
AcDbCircle
 10
41.7
 20
85.49999999999997
 30
0.0
 40
2.7
100
AcDbArc
 50
180.0
 51
219.5805858632567
  0
LINE
  5
BEE
330
BBB
100
AcDbEntity
  8
0
100
AcDbLine
 10
41.42682295917797
 20
81.59290717996512
 30
0.0
 11
39.61903120408776
 21
83.77966024563759
 31
0.0
  0
ENDBLK
  5
BBD
330
BBB
100
AcDbEntity
  8
0
100
AcDbBlockEnd
  0
BLOCK
  5
BF0
330
BEF
100
AcDbEntity
  8
0
100
AcDbBlockBegin
  2
PU70-B-Left
 70
     0
 10
0.0
 20
0.0
 30
0.0
  3
PU70-B-Left
  1

  0
ARC
  5
BF2
330
BEF
100
AcDbEntity
  8
0
100
AcDbCircle
 10
-20.75254000000009
 20
-2.699999999999995
 30
0.0
 40
2.7
100
AcDbArc
 50
90.0000000000001
 51
129.5805858632567
  0
LINE
  5
BF3
330
BEF
100
AcDbEntity
  8
0
100
AcDbLine
 10
-24.65963282003492
 20
-2.426822959177989
 30
0.0
 11
-22.47287975436248
 21
-0.6190312040877722
 31
0.0
  0
ARC
  5
BF4
330
BEF
100
AcDbEntity
  8
0
100
AcDbCircle
 10
-26.25254000000009
 20
-0.4999999999999894
 30
0.0
 40
2.5
100
AcDbArc
 50
230.4194141367436
 51
309.5805858632564
  0
ARC
  5
BF5
330
BEF
100
AcDbEntity
  8
0
100
AcDbCircle
 10
-31.75254000000003
 20
-2.700000000000004
 30
0.0
 40
2.7
100
AcDbArc
 50
50.41941413674329
 51
89.99999999999991
  0
LINE
  5
BF6
330
BEF
100
AcDbEntity
  8
0
100
AcDbLine
 10
-27.84544717996521
 20
-2.426822959178002
 30
0.0
 11
-30.03220024563765
 21
-0.6190312040877838
 31
0.0
  0
CIRCLE
  5
BF7
330
BEF
100
AcDbEntity
  8
0
100
AcDbCircle
 10
-22.50000000000001
 20
110.0
 30
0.0
 40
4.5
  0
CIRCLE
  5
BF8
330
BEF
100
AcDbEntity
  8
0
100
AcDbCircle
 10
17.49999999999999
 20
97.0
 30
0.0
 40
4.5
  0
CIRCLE
  5
BF9
330
BEF
100
AcDbEntity
  8
0
100
AcDbCircle
 10
-12.50000000000002
 20
117.0
 30
0.0
 40
3.0
  0
CIRCLE
  5
BFA
330
BEF
100
AcDbEntity
  8
0
100
AcDbCircle
 10
7.499999999999966
 20
117.0
 30
0.0
 40
3.0
  0
CIRCLE
  5
BFB
330
BEF
100
AcDbEntity
  8
0
100
AcDbCircle
 10
27.49999999999996
 20
117.0
 30
0.0
 40
3.0
  0
CIRCLE
  5
BFC
330
BEF
100
AcDbEntity
  8
0
100
AcDbCircle
 10
-2.500000000000037
 20
97.0
 30
0.0
 40
3.0
  0
CIRCLE
  5
BFD
330
BEF
100
AcDbEntity
  8
0
100
AcDbCircle
 10
-27.50000000000003
 20
97.0
 30
0.0
 40
3.0
  0
CIRCLE
  5
BFE
330
BEF
100
AcDbEntity
  8
0
100
AcDbCircle
 10
-0.0000000000000466
 20
77.0
 30
0.0
 40
5.5
  0
LINE
  5
BFF
330
BEF
100
AcDbEntity
  8
0
100
AcDbLine
 10
-17.50508000000005
 20
7.999999999999993
 30
0.0
 11
-17.50508000000005
 21
26.0050800000001
 31
0.0
  0
LINE
  5
C00
330
BEF
100
AcDbEntity
  8
0
100
AcDbLine
 10
-17.50508000000005
 20
26.0050800000001
 30
0.0
 11
-17.50000000000005
 21
26.0050800000001
 31
0.0
  0
LINE
  5
C01
330
BEF
100
AcDbEntity
  8
0
100
AcDbLine
 10
-17.50000000000005
 20
26.0050800000001
 30
0.0
 11
-17.50000000000005
 21
26.0000000000001
 31
0.0
  0
LINE
  5
C02
330
BEF
100
AcDbEntity
  8
0
100
AcDbLine
 10
17.49999999999994
 20
26.00000000000008
 30
0.0
 11
17.49999999999994
 21
26.00508000000008
 31
0.0
  0
LINE
  5
C03
330
BEF
100
AcDbEntity
  8
0
100
AcDbLine
 10
17.49999999999994
 20
26.00508000000008
 30
0.0
 11
17.50507999999994
 21
26.00508000000008
 31
0.0
  0
LINE
  5
C04
330
BEF
100
AcDbEntity
  8
0
100
AcDbLine
 10
17.50507999999994
 20
26.00508000000008
 30
0.0
 11
17.50507999999993
 21
7.999999999999993
 31
0.0
  0
LINE
  5
C05
330
BEF
100
AcDbEntity
  8
0
100
AcDbLine
 10
-17.50508000000005
 20
7.999999999999993
 30
0.0
 11
-17.50000000000006
 21
7.999999999999993
 31
0.0
  0
LINE
  5
C06
330
BEF
100
AcDbEntity
  8
0
100
AcDbLine
 10
17.49999999999993
 20
7.999999999999993
 30
0.0
 11
17.50507999999993
 21
7.999999999999993
 31
0.0
  0
LINE
  5
C07
330
BEF
100
AcDbEntity
  8
0
100
AcDbLine
 10
-17.50000000000005
 20
18.0000000000001
 30
0.0
 11
17.49999999999993
 21
18.00000000000008
 31
0.0
  0
LINE
  5
C08
330
BEF
100
AcDbEntity
  8
0
100
AcDbLine
 10
-17.50000000000006
 20
18.0000000000001
 30
0.0
 11
-17.50000000000005
 21
26.0000000000001
 31
0.0
  0
LINE
  5
C09
330
BEF
100
AcDbEntity
  8
0
100
AcDbLine
 10
17.49999999999993
 20
18.00000000000008
 30
0.0
 11
17.49999999999994
 21
26.00000000000008
 31
0.0
  0
LINE
  5
C0A
330
BEF
100
AcDbEntity
  8
0
100
AcDbLine
 10
34.99999999999996
 20
122.0
 30
0.0
 11
35.0
 21
7.999999999999989
 31
0.0
  0
LINE
  5
C0B
330
BEF
100
AcDbEntity
  8
0
100
AcDbLine
 10
-27.99999999999999
 20
129.0
 30
0.0
 11
27.99999999999997
 21
129.0
 31
0.0
  0
LINE
  5
C0C
330
BEF
100
AcDbEntity
  8
0
100
AcDbLine
 10
-34.99999999999997
 20
7.999999999999993
 30
0.0
 11
-35.0
 21
122.0
 31
0.0
  0
LINE
  5
C0D
330
BEF
100
AcDbEntity
  8
0
100
AcDbLine
 10
27.99999999999997
 20
129.0
 30
0.0
 11
34.99999999999996
 21
122.0
 31
0.0
  0
LINE
  5
C0E
330
BEF
100
AcDbEntity
  8
0
100
AcDbLine
 10
-35.0
 20
122.0
 30
0.0
 11
-27.99999999999999
 21
129.0
 31
0.0
  0
LINE
  5
C0F
330
BEF
100
AcDbEntity
  8
0
100
AcDbLine
 10
-17.50508000000005
 20
0.0
 30
0.0
 11
-20.75254000000005
 21
0.0
 31
0.0
  0
LINE
  5
C10
330
BEF
100
AcDbEntity
  8
0
100
AcDbLine
 10
20.75254000000005
 20
0.0
 30
0.0
 11
17.50507999999993
 21
0.0
 31
0.0
  0
LINE
  5
C11
330
BEF
100
AcDbEntity
  8
0
100
AcDbLine
 10
35.0
 20
0.0
 30
0.0
 11
31.75254000000006
 21
0.0
 31
0.0
  0
LINE
  5
C12
330
BEF
100
AcDbEntity
  8
0
100
AcDbLine
 10
34.99999999999989
 20
8.000000000000005
 30
0.0
 11
35.0
 21
0.0
 31
0.0
  0
LINE
  5
C13
330
BEF
100
AcDbEntity
  8
0
100
AcDbLine
 10
-31.75254000000006
 20
0.0
 30
0.0
 11
-34.99999999999997
 21
0.0
 31
0.0
  0
LINE
  5
C14
330
BEF
100
AcDbEntity
  8
0
100
AcDbLine
 10
-35.00000000000006
 20
0.0
 30
0.0
 11
-34.99999999999999
 21
8.000000000000005
 31
0.0
  0
LINE
  5
C15
330
BEF
100
AcDbEntity
  8
0
100
AcDbLine
 10
-17.50000000000006
 20
0.0
 30
0.0
 11
-17.50508000000005
 21
0.0
 31
0.0
  0
LINE
  5
C16
330
BEF
100
AcDbEntity
  8
0
100
AcDbLine
 10
17.49999999999992
 20
0.0
 30
0.0
 11
-17.50000000000007
 21
0.0
 31
0.0
  0
LINE
  5
C17
330
BEF
100
AcDbEntity
  8
0
100
AcDbLine
 10
17.50507999999993
 20
0.0
 30
0.0
 11
17.49999999999993
 21
0.0
 31
0.0
  0
LINE
  5
C18
330
BEF
100
AcDbEntity
  8
0
100
AcDbLine
 10
17.49999999999993
 20
18.00000000000008
 30
0.0
 11
17.49999999999992
 21
14.00000000000016
 31
0.0
  0
LINE
  5
C19
330
BEF
100
AcDbEntity
  8
0
100
AcDbLine
 10
-17.50000000000004
 20
18.00000000000009
 30
0.0
 11
-17.50000000000006
 21
14.00000000000017
 31
0.0
  0
LINE
  5
C1A
330
BEF
100
AcDbEntity
  8
0
100
AcDbLine
 10
-17.50000000000006
 20
7.999999999999993
 30
0.0
 11
-17.50000000000007
 21
0.0
 31
0.0
  0
LINE
  5
C1B
330
BEF
100
AcDbEntity
  8
0
100
AcDbLine
 10
17.49999999999993
 20
0.0
 30
0.0
 11
17.49999999999995
 21
7.999999999999993
 31
0.0
  0
ARC
  5
C1C
330
BEF
100
AcDbEntity
  8
0
100
AcDbCircle
 10
12.50000000000003
 20
117.0
 30
0.0
 40
2.999999999999991
100
AcDbArc
 50
146.4426902380804
 51
213.5573097619196
  0
ARC
  5
C1D
330
BEF
100
AcDbEntity
  8
0
100
AcDbCircle
 10
-7.499999999999969
 20
117.0
 30
0.0
 40
2.999999999999997
100
AcDbArc
 50
146.4426902380801
 51
213.5573097619199
  0
ARC
  5
C1E
330
BEF
100
AcDbEntity
  8
0
100
AcDbCircle
 10
2.500000000000034
 20
97.0
 30
0.0
 40
2.999999999999994
100
AcDbArc
 50
146.4426902380805
 51
213.5573097619195
  0
ARC
  5
C1F
330
BEF
100
AcDbEntity
  8
0
100
AcDbCircle
 10
20.75254000000008
 20
-2.699999999999995
 30
0.0
 40
2.7
100
AcDbArc
 50
50.41941413674329
 51
89.99999999999991
  0
LINE
  5
C20
330
BEF
100
AcDbEntity
  8
0
100
AcDbLine
 10
24.65963282003491
 20
-2.426822959177989
 30
0.0
 11
22.47287975436247
 21
-0.6190312040877722
 31
0.0
  0
ARC
  5
C21
330
BEF
100
AcDbEntity
  8
0
100
AcDbCircle
 10
26.25254000000008
 20
-0.4999999999999894
 30
0.0
 40
2.5
100
AcDbArc
 50
230.4194141367436
 51
309.5805858632564
  0
ARC
  5
C22
330
BEF
100
AcDbEntity
  8
0
100
AcDbCircle
 10
31.75254000000003
 20
-2.700000000000004
 30
0.0
 40
2.7
100
AcDbArc
 50
90.0000000000001
 51
129.5805858632567
  0
LINE
  5
C23
330
BEF
100
AcDbEntity
  8
0
100
AcDbLine
 10
27.84544717996521
 20
-2.426822959178002
 30
0.0
 11
30.03220024563764
 21
-0.6190312040877838
 31
0.0
  0
LINE
  5
C24
330
BEF
100
AcDbEntity
  8
0
100
AcDbLine
 10
17.49999999999992
 20
14.00000000000016
 30
0.0
 11
17.49999999999993
 21
8.000000000000003
 31
0.0
  0
LINE
  5
C25
330
BEF
100
AcDbEntity
  8
0
100
AcDbLine
 10
-17.50000000000006
 20
7.999999999999997
 30
0.0
 11
-17.50000000000006
 21
14.00000000000017
 31
0.0
  0
ENDBLK
  5
BF1
330
BEF
100
AcDbEntity
  8
0
100
AcDbBlockEnd
  0
BLOCK
  5
C27
330
C26
100
AcDbEntity
  8
0
100
AcDbBlockBegin
  2
PU70-B-Right
 70
     0
 10
0.0
 20
0.0
 30
0.0
  3
PU70-B-Right
  1

  0
ARC
  5
C29
330
C26
100
AcDbEntity
  8
0
100
AcDbCircle
 10
20.75254000000008
 20
-2.7
 30
0.0
 40
2.7
100
AcDbArc
 50
50.41941413674329
 51
90.0
  0
LINE
  5
C2A
330
C26
100
AcDbEntity
  8
0
100
AcDbLine
 10
24.6596328200349
 20
-2.426822959177994
 30
0.0
 11
22.47287975436247
 21
-0.6190312040877722
 31
0.0
  0
ARC
  5
C2B
330
C26
100
AcDbEntity
  8
0
100
AcDbCircle
 10
26.25254000000007
 20
-0.4999999999999938
 30
0.0
 40
2.5
100
AcDbArc
 50
230.4194141367436
 51
309.5805858632564
  0
ARC
  5
C2C
330
C26
100
AcDbEntity
  8
0
100
AcDbCircle
 10
31.75254000000002
 20
-2.700000000000004
 30
0.0
 40
2.7
100
AcDbArc
 50
90.0000000000001
 51
129.5805858632567
  0
LINE
  5
C2D
330
C26
100
AcDbEntity
  8
0
100
AcDbLine
 10
27.84544717996519
 20
-2.426822959178002
 30
0.0
 11
30.03220024563763
 21
-0.6190312040877838
 31
0.0
  0
LINE
  5
C2E
330
C26
100
AcDbEntity
  8
0
100
AcDbLine
 10
20.75254000000004
 20
0.0
 30
0.0
 11
17.50508000000005
 21
0.0
 31
0.0
  0
LINE
  5
C2F
330
C26
100
AcDbEntity
  8
0
100
AcDbLine
 10
-17.50507999999993
 20
0.0
 30
0.0
 11
-20.75254000000003
 21
0.0
 31
0.0
  0
LINE
  5
C30
330
C26
100
AcDbEntity
  8
0
100
AcDbLine
 10
34.99999999999999
 20
0.0
 30
0.0
 11
31.75254000000004
 21
0.0
 31
0.0
  0
LINE
  5
C31
330
C26
100
AcDbEntity
  8
0
100
AcDbLine
 10
-31.75254000000003
 20
0.0
 30
0.0
 11
-35.0
 21
0.0
 31
0.0
  0
LINE
  5
C32
330
C26
100
AcDbEntity
  8
0
100
AcDbLine
 10
-34.99999999999997
 20
0.0
 30
0.0
 11
-35.0
 21
8.000000000000005
 31
0.0
  0
LINE
  5
C33
330
C26
100
AcDbEntity
  8
0
100
AcDbLine
 10
34.99999999999996
 20
8.000000000000005
 30
0.0
 11
34.99999999999999
 21
0.0
 31
0.0
  0
LINE
  5
C34
330
C26
100
AcDbEntity
  8
0
100
AcDbLine
 10
17.50000000000007
 20
0.0
 30
0.0
 11
-17.49999999999992
 21
0.0
 31
0.0
  0
LINE
  5
C35
330
C26
100
AcDbEntity
  8
0
100
AcDbLine
 10
17.50000000000006
 20
7.999999999999993
 30
0.0
 11
17.50508000000005
 21
7.999999999999993
 31
0.0
  0
LINE
  5
C36
330
C26
100
AcDbEntity
  8
0
100
AcDbLine
 10
17.50508000000005
 20
0.0
 30
0.0
 11
17.50000000000006
 21
0.0
 31
0.0
  0
LINE
  5
C37
330
C26
100
AcDbEntity
  8
0
100
AcDbLine
 10
-17.49999999999993
 20
0.0
 30
0.0
 11
-17.50507999999993
 21
0.0
 31
0.0
  0
LINE
  5
C38
330
C26
100
AcDbEntity
  8
0
100
AcDbLine
 10
-17.50507999999993
 20
7.999999999999993
 30
0.0
 11
-17.49999999999993
 21
7.999999999999993
 31
0.0
  0
LINE
  5
C39
330
C26
100
AcDbEntity
  8
0
100
AcDbLine
 10
-17.50507999999993
 20
7.999999999999993
 30
0.0
 11
-17.50507999999994
 21
26.00508000000008
 31
0.0
  0
LINE
  5
C3A
330
C26
100
AcDbEntity
  8
0
100
AcDbLine
 10
-17.50507999999994
 20
26.00508000000008
 30
0.0
 11
-17.49999999999994
 21
26.00508000000008
 31
0.0
  0
LINE
  5
C3B
330
C26
100
AcDbEntity
  8
0
100
AcDbLine
 10
-17.49999999999994
 20
26.00508000000008
 30
0.0
 11
-17.49999999999994
 21
26.00000000000008
 31
0.0
  0
LINE
  5
C3C
330
C26
100
AcDbEntity
  8
0
100
AcDbLine
 10
17.50000000000005
 20
26.0000000000001
 30
0.0
 11
17.50000000000005
 21
26.0050800000001
 31
0.0
  0
LINE
  5
C3D
330
C26
100
AcDbEntity
  8
0
100
AcDbLine
 10
17.50000000000005
 20
26.0050800000001
 30
0.0
 11
17.50508000000005
 21
26.0050800000001
 31
0.0
  0
LINE
  5
C3E
330
C26
100
AcDbEntity
  8
0
100
AcDbLine
 10
17.50508000000005
 20
26.0050800000001
 30
0.0
 11
17.50508000000005
 21
7.999999999999993
 31
0.0
  0
LINE
  5
C3F
330
C26
100
AcDbEntity
  8
0
100
AcDbLine
 10
-17.49999999999993
 20
18.00000000000008
 30
0.0
 11
-17.49999999999992
 21
14.00000000000016
 31
0.0
  0
LINE
  5
C40
330
C26
100
AcDbEntity
  8
0
100
AcDbLine
 10
17.50000000000004
 20
18.00000000000009
 30
0.0
 11
17.50000000000006
 21
14.00000000000017
 31
0.0
  0
LINE
  5
C41
330
C26
100
AcDbEntity
  8
0
100
AcDbLine
 10
-17.49999999999993
 20
18.00000000000009
 30
0.0
 11
17.50000000000006
 21
18.0000000000001
 31
0.0
  0
LINE
  5
C42
330
C26
100
AcDbEntity
  8
0
100
AcDbLine
 10
17.50000000000006
 20
18.0000000000001
 30
0.0
 11
17.50000000000005
 21
26.0000000000001
 31
0.0
  0
LINE
  5
C43
330
C26
100
AcDbEntity
  8
0
100
AcDbLine
 10
-17.49999999999993
 20
18.00000000000008
 30
0.0
 11
-17.49999999999994
 21
26.00000000000008
 31
0.0
  0
LINE
  5
C44
330
C26
100
AcDbEntity
  8
0
100
AcDbLine
 10
-17.49999999999993
 20
14.00000000000008
 30
0.0
 11
-17.49999999999993
 21
7.999999999999997
 31
0.0
  0
LINE
  5
C45
330
C26
100
AcDbEntity
  8
0
100
AcDbLine
 10
17.50000000000006
 20
7.999999999999997
 30
0.0
 11
17.50000000000006
 21
14.00000000000011
 31
0.0
  0
LINE
  5
C46
330
C26
100
AcDbEntity
  8
0
100
AcDbLine
 10
17.50000000000007
 20
0.0
 30
0.0
 11
17.50000000000006
 21
7.999999999999992
 31
0.0
  0
LINE
  5
C47
330
C26
100
AcDbEntity
  8
0
100
AcDbLine
 10
-17.49999999999995
 20
7.999999999999993
 30
0.0
 11
-17.49999999999994
 21
0.0
 31
0.0
  0
ARC
  5
C48
330
C26
100
AcDbEntity
  8
0
100
AcDbCircle
 10
-20.75254000000008
 20
-2.7
 30
0.0
 40
2.7
100
AcDbArc
 50
90.0
 51
129.5805858632567
  0
LINE
  5
C49
330
C26
100
AcDbEntity
  8
0
100
AcDbLine
 10
-24.6596328200349
 20
-2.426822959177994
 30
0.0
 11
-22.47287975436247
 21
-0.6190312040877722
 31
0.0
  0
ARC
  5
C4A
330
C26
100
AcDbEntity
  8
0
100
AcDbCircle
 10
-26.25254000000007
 20
-0.4999999999999938
 30
0.0
 40
2.5
100
AcDbArc
 50
230.4194141367436
 51
309.5805858632564
  0
ARC
  5
C4B
330
C26
100
AcDbEntity
  8
0
100
AcDbCircle
 10
-31.75254000000002
 20
-2.700000000000004
 30
0.0
 40
2.7
100
AcDbArc
 50
50.41941413674329
 51
89.99999999999991
  0
LINE
  5
C4C
330
C26
100
AcDbEntity
  8
0
100
AcDbLine
 10
-27.84544717996519
 20
-2.426822959178002
 30
0.0
 11
-30.03220024563763
 21
-0.6190312040877838
 31
0.0
  0
LINE
  5
C4D
330
C26
100
AcDbEntity
  8
0
100
AcDbLine
 10
34.99999999999997
 20
121.9999999999999
 30
0.0
 11
34.99999999999999
 21
7.999999999999989
 31
0.0
  0
LINE
  5
C4E
330
C26
100
AcDbEntity
  8
0
100
AcDbLine
 10
-28.00000000000002
 20
129.0
 30
0.0
 11
27.99999999999997
 21
129.0
 31
0.0
  0
LINE
  5
C4F
330
C26
100
AcDbEntity
  8
0
100
AcDbLine
 10
-35.0
 20
7.999999999999993
 30
0.0
 11
-35.00000000000003
 21
121.9999999999999
 31
0.0
  0
LINE
  5
C50
330
C26
100
AcDbEntity
  8
0
100
AcDbLine
 10
27.99999999999997
 20
129.0
 30
0.0
 11
34.99999999999997
 21
121.9999999999999
 31
0.0
  0
LINE
  5
C51
330
C26
100
AcDbEntity
  8
0
100
AcDbLine
 10
-35.00000000000003
 20
121.9999999999999
 30
0.0
 11
-28.00000000000002
 21
129.0
 31
0.0
  0
CIRCLE
  5
C52
330
C26
100
AcDbEntity
  8
0
100
AcDbCircle
 10
-22.50000000000003
 20
110.0
 30
0.0
 40
4.5
  0
CIRCLE
  5
C53
330
C26
100
AcDbEntity
  8
0
100
AcDbCircle
 10
17.49999999999997
 20
97.0
 30
0.0
 40
4.5
  0
CIRCLE
  5
C54
330
C26
100
AcDbEntity
  8
0
100
AcDbCircle
 10
-12.50000000000003
 20
117.0
 30
0.0
 40
3.0
  0
CIRCLE
  5
C55
330
C26
100
AcDbEntity
  8
0
100
AcDbCircle
 10
7.499999999999971
 20
117.0
 30
0.0
 40
3.0
  0
CIRCLE
  5
C56
330
C26
100
AcDbEntity
  8
0
100
AcDbCircle
 10
27.49999999999997
 20
117.0
 30
0.0
 40
3.0
  0
CIRCLE
  5
C57
330
C26
100
AcDbEntity
  8
0
100
AcDbCircle
 10
-27.50000000000003
 20
97.0
 30
0.0
 40
3.0
  0
CIRCLE
  5
C58
330
C26
100
AcDbEntity
  8
0
100
AcDbCircle
 10
-2.500000000000033
 20
97.0
 30
0.0
 40
3.0
  0
CIRCLE
  5
C59
330
C26
100
AcDbEntity
  8
0
100
AcDbCircle
 10
-0.0000000000000289
 20
76.99999999999999
 30
0.0
 40
5.5
  0
ARC
  5
C5A
330
C26
100
AcDbEntity
  8
0
100
AcDbCircle
 10
12.50000000000002
 20
117.0
 30
0.0
 40
3.000000000000007
100
AcDbArc
 50
146.4426902380802
 51
213.5573097619198
  0
ARC
  5
C5B
330
C26
100
AcDbEntity
  8
0
100
AcDbCircle
 10
-7.499999999999965
 20
117.0
 30
0.0
 40
2.999999999999997
100
AcDbArc
 50
146.4426902380805
 51
213.5573097619195
  0
ARC
  5
C5C
330
C26
100
AcDbEntity
  8
0
100
AcDbCircle
 10
2.500000000000039
 20
97.0
 30
0.0
 40
3.000000000000009
100
AcDbArc
 50
146.4426902380803
 51
213.5573097619193
  0
ENDBLK
  5
C28
330
C26
100
AcDbEntity
  8
0
100
AcDbBlockEnd
  0
BLOCK
  5
C5E
330
C5D
100
AcDbEntity
  8
0
100
AcDbBlockBegin
  2
PU70-B-Top
 70
     0
 10
0.0
 20
0.0
 30
0.0
  3
PU70-B-Top
  1

  0
ARC
  5
C60
330
C5D
100
AcDbEntity
  8
0
100
AcDbCircle
 10
41.7
 20
20.75254000000006
 30
0.0
 40
2.7
100
AcDbArc
 50
140.4194141367433
 51
180.0
  0
LINE
  5
C61
330
C5D
100
AcDbEntity
  8
0
100
AcDbLine
 10
39.61903120408777
 20
22.47287975436246
 30
0.0
 11
41.426822959178
 21
24.65963282003489
 31
0.0
  0
ARC
  5
C62
330
C5D
100
AcDbEntity
  8
0
100
AcDbCircle
 10
-41.69999999999996
 20
20.7525400000001
 30
0.0
 40
2.7
100
AcDbArc
 50
0.0
 51
39.58058586325669
  0
LINE
  5
C63
330
C5D
100
AcDbEntity
  8
0
100
AcDbLine
 10
-41.42682295917795
 20
24.65963282003492
 30
0.0
 11
-39.61903120408775
 21
22.47287975436248
 31
0.0
  0
ARC
  5
C64
330
C5D
100
AcDbEntity
  8
0
100
AcDbCircle
 10
-39.49999999999997
 20
26.2525400000001
 30
0.0
 40
2.5
100
AcDbArc
 50
140.4194141367436
 51
219.5805858632564
  0
ARC
  5
C65
330
C5D
100
AcDbEntity
  8
0
100
AcDbCircle
 10
-41.69999999999996
 20
31.75254000000006
 30
0.0
 40
2.7
100
AcDbArc
 50
320.4194141367433
 51
0.0
  0
LINE
  5
C66
330
C5D
100
AcDbEntity
  8
0
100
AcDbLine
 10
-41.42682295917795
 20
27.84544717996522
 30
0.0
 11
-39.61903120408775
 21
30.03220024563766
 31
0.0
  0
ARC
  5
C67
330
C5D
100
AcDbEntity
  8
0
100
AcDbCircle
 10
39.49999999999999
 20
26.25254000000006
 30
0.0
 40
2.5
100
AcDbArc
 50
320.4194141367434
 51
39.5805858632563
  0
ARC
  5
C68
330
C5D
100
AcDbEntity
  8
0
100
AcDbCircle
 10
41.7
 20
31.75254000000003
 30
0.0
 40
2.7
100
AcDbArc
 50
180.0
 51
219.5805858632566
  0
LINE
  5
C69
330
C5D
100
AcDbEntity
  8
0
100
AcDbLine
 10
41.426822959178
 20
27.84544717996521
 30
0.0
 11
39.61903120408777
 21
30.03220024563764
 31
0.0
  0
LINE
  5
C6A
330
C5D
100
AcDbEntity
  8
0
100
AcDbLine
 10
-38.99999999999996
 20
-27.99999999999997
 30
0.0
 11
-38.99999999999996
 21
-34.99999999999996
 31
0.0
  0
LINE
  5
C6B
330
C5D
100
AcDbEntity
  8
0
100
AcDbLine
 10
-38.99999999999997
 20
35.0
 30
0.0
 11
-38.99999999999997
 21
27.99999999999999
 31
0.0
  0
LINE
  5
C6C
330
C5D
100
AcDbEntity
  8
0
100
AcDbLine
 10
34.99999999999998
 20
-28.00000000000002
 30
0.0
 11
34.99999999999999
 21
-35.00000000000003
 31
0.0
  0
LINE
  5
C6D
330
C5D
100
AcDbEntity
  8
0
100
AcDbLine
 10
34.99999999999996
 20
34.99999999999997
 30
0.0
 11
34.99999999999996
 21
27.99999999999997
 31
0.0
  0
LINE
  5
C6E
330
C5D
100
AcDbEntity
  8
0
100
AcDbLine
 10
38.99999999999997
 20
27.99999999999997
 30
0.0
 11
38.99999999999997
 21
34.99999999999997
 31
0.0
  0
LINE
  5
C6F
330
C5D
100
AcDbEntity
  8
0
100
AcDbLine
 10
38.99999999999998
 20
-35.00000000000003
 30
0.0
 11
38.99999999999998
 21
-28.00000000000002
 31
0.0
  0
LINE
  5
C70
330
C5D
100
AcDbEntity
  8
0
100
AcDbLine
 10
-34.99999999999997
 20
27.99999999999999
 30
0.0
 11
-34.99999999999997
 21
35.0
 31
0.0
  0
LINE
  5
C71
330
C5D
100
AcDbEntity
  8
0
100
AcDbLine
 10
-34.99999999999996
 20
-34.99999999999996
 30
0.0
 11
-34.99999999999996
 21
-27.99999999999997
 31
0.0
  0
LINE
  5
C72
330
C5D
100
AcDbEntity
  8
0
100
AcDbLine
 10
-34.99999999999997
 20
35.0
 30
0.0
 11
-38.99999999999997
 21
35.0
 31
0.0
  0
LINE
  5
C73
330
C5D
100
AcDbEntity
  8
0
100
AcDbLine
 10
-34.99999999999996
 20
-27.99999999999997
 30
0.0
 11
-38.99999999999996
 21
-27.99999999999997
 31
0.0
  0
LINE
  5
C74
330
C5D
100
AcDbEntity
  8
0
100
AcDbLine
 10
-38.99999999999996
 20
-34.99999999999996
 30
0.0
 11
-34.99999999999996
 21
-34.99999999999996
 31
0.0
  0
LINE
  5
C75
330
C5D
100
AcDbEntity
  8
0
100
AcDbLine
 10
-38.99999999999997
 20
27.99999999999999
 30
0.0
 11
-34.99999999999997
 21
27.99999999999999
 31
0.0
  0
LINE
  5
C76
330
C5D
100
AcDbEntity
  8
0
100
AcDbLine
 10
34.99999999999999
 20
-35.00000000000003
 30
0.0
 11
38.99999999999998
 21
-35.00000000000003
 31
0.0
  0
LINE
  5
C77
330
C5D
100
AcDbEntity
  8
0
100
AcDbLine
 10
38.99999999999998
 20
-28.00000000000002
 30
0.0
 11
34.99999999999998
 21
-28.00000000000002
 31
0.0
  0
LINE
  5
C78
330
C5D
100
AcDbEntity
  8
0
100
AcDbLine
 10
34.99999999999996
 20
27.99999999999997
 30
0.0
 11
38.99999999999997
 21
27.99999999999997
 31
0.0
  0
LINE
  5
C79
330
C5D
100
AcDbEntity
  8
0
100
AcDbLine
 10
38.99999999999997
 20
34.99999999999997
 30
0.0
 11
34.99999999999996
 21
34.99999999999997
 31
0.0
  0
LINE
  5
C7A
330
C5D
100
AcDbEntity
  8
0
100
AcDbLine
 10
-38.99999999999997
 20
27.99999999999999
 30
0.0
 11
-38.99999999999996
 21
-27.99999999999997
 31
0.0
  0
LINE
  5
C7B
330
C5D
100
AcDbEntity
  8
0
100
AcDbLine
 10
34.99999999999996
 20
27.99999999999997
 30
0.0
 11
34.99999999999998
 21
-28.00000000000002
 31
0.0
  0
LINE
  5
C7C
330
C5D
100
AcDbEntity
  8
0
100
AcDbLine
 10
38.99999999999998
 20
-28.00000000000002
 30
0.0
 11
38.99999999999997
 21
27.99999999999997
 31
0.0
  0
LINE
  5
C7D
330
C5D
100
AcDbEntity
  8
0
100
AcDbLine
 10
-31.0
 20
34.99999999999997
 30
0.0
 11
30.99999999999998
 21
34.99999999999999
 31
0.0
  0
LINE
  5
C7E
330
C5D
100
AcDbEntity
  8
0
100
AcDbLine
 10
31.00000000000004
 20
-35.0
 30
0.0
 11
-30.99999999999998
 21
-35.0
 31
0.0
  0
LINE
  5
C7F
330
C5D
100
AcDbEntity
  8
0
100
AcDbLine
 10
-34.99999999999996
 20
-27.99999999999997
 30
0.0
 11
-34.99999999999997
 21
27.99999999999999
 31
0.0
  0
LINE
  5
C80
330
C5D
100
AcDbEntity
  8
0
100
AcDbLine
 10
31.0
 20
17.50000000000006
 30
0.0
 11
31.0
 21
17.50508000000005
 31
0.0
  0
LINE
  5
C81
330
C5D
100
AcDbEntity
  8
0
100
AcDbLine
 10
30.99999999999999
 20
-17.50507999999993
 30
0.0
 11
12.99492000000005
 21
-17.50507999999992
 31
0.0
  0
LINE
  5
C82
330
C5D
100
AcDbEntity
  8
0
100
AcDbLine
 10
12.99492000000005
 20
-17.50507999999992
 30
0.0
 11
12.99492000000005
 21
-17.49999999999992
 31
0.0
  0
LINE
  5
C83
330
C5D
100
AcDbEntity
  8
0
100
AcDbLine
 10
12.99492000000005
 20
-17.49999999999992
 30
0.0
 11
13.00000000000005
 21
-17.49999999999992
 31
0.0
  0
LINE
  5
C84
330
C5D
100
AcDbEntity
  8
0
100
AcDbLine
 10
13.00000000000008
 20
17.50000000000007
 30
0.0
 11
12.99492000000008
 21
17.50000000000007
 31
0.0
  0
LINE
  5
C85
330
C5D
100
AcDbEntity
  8
0
100
AcDbLine
 10
12.99492000000008
 20
17.50000000000007
 30
0.0
 11
12.99492000000008
 21
17.50508000000007
 31
0.0
  0
LINE
  5
C86
330
C5D
100
AcDbEntity
  8
0
100
AcDbLine
 10
12.99492000000008
 20
17.50508000000007
 30
0.0
 11
31.0
 21
17.50508000000005
 31
0.0
  0
LINE
  5
C87
330
C5D
100
AcDbEntity
  8
0
100
AcDbLine
 10
30.99999999999999
 20
-17.50507999999993
 30
0.0
 11
31.0
 21
-17.49999999999993
 31
0.0
  0
LINE
  5
C88
330
C5D
100
AcDbEntity
  8
0
100
AcDbLine
 10
16.99999999999995
 20
-17.49999999999991
 30
0.0
 11
25.00000000000005
 21
-17.49999999999993
 31
0.0
  0
LINE
  5
C89
330
C5D
100
AcDbEntity
  8
0
100
AcDbLine
 10
17.00000000000007
 20
17.50000000000006
 30
0.0
 11
17.00000000000005
 21
-17.49999999999992
 31
0.0
  0
LINE
  5
C8A
330
C5D
100
AcDbEntity
  8
0
100
AcDbLine
 10
17.00000000000006
 20
17.50000000000007
 30
0.0
 11
25.00000000000016
 21
17.50000000000004
 31
0.0
  0
LINE
  5
C8B
330
C5D
100
AcDbEntity
  8
0
100
AcDbLine
 10
13.00000000000008
 20
17.50000000000007
 30
0.0
 11
17.00000000000008
 21
17.50000000000006
 31
0.0
  0
LINE
  5
C8C
330
C5D
100
AcDbEntity
  8
0
100
AcDbLine
 10
13.00000000000005
 20
-17.49999999999992
 30
0.0
 11
17.00000000000005
 21
-17.49999999999992
 31
0.0
  0
LINE
  5
C8D
330
C5D
100
AcDbEntity
  8
0
100
AcDbLine
 10
31.0
 20
-17.49999999999994
 30
0.0
 11
25.00000000000005
 21
-17.49999999999993
 31
0.0
  0
LINE
  5
C8E
330
C5D
100
AcDbEntity
  8
0
100
AcDbLine
 10
25.00000000000016
 20
17.50000000000006
 30
0.0
 11
31.00000000000001
 21
17.50000000000006
 31
0.0
  0
LINE
  5
C8F
330
C5D
100
AcDbEntity
  8
0
100
AcDbLine
 10
35.0
 20
17.50000000000005
 30
0.0
 11
31.0
 21
17.50000000000005
 31
0.0
  0
LINE
  5
C90
330
C5D
100
AcDbEntity
  8
0
100
AcDbLine
 10
34.99999999999999
 20
-17.49999999999994
 30
0.0
 11
31.0
 21
-17.49999999999993
 31
0.0
  0
LINE
  5
C91
330
C5D
100
AcDbEntity
  8
0
100
AcDbLine
 10
-30.99999999999999
 20
17.50508000000005
 30
0.0
 11
-12.99492000000007
 21
17.50508000000007
 31
0.0
  0
LINE
  5
C92
330
C5D
100
AcDbEntity
  8
0
100
AcDbLine
 10
-12.99492000000007
 20
17.50508000000007
 30
0.0
 11
-12.99492000000007
 21
17.50000000000007
 31
0.0
  0
LINE
  5
C93
330
C5D
100
AcDbEntity
  8
0
100
AcDbLine
 10
-12.99492000000007
 20
17.50000000000007
 30
0.0
 11
-13.00000000000007
 21
17.50000000000007
 31
0.0
  0
LINE
  5
C94
330
C5D
100
AcDbEntity
  8
0
100
AcDbLine
 10
-13.00000000000004
 20
-17.49999999999992
 30
0.0
 11
-12.99492000000004
 21
-17.49999999999992
 31
0.0
  0
LINE
  5
C95
330
C5D
100
AcDbEntity
  8
0
100
AcDbLine
 10
-12.99492000000004
 20
-17.49999999999992
 30
0.0
 11
-12.99492000000004
 21
-17.50507999999992
 31
0.0
  0
LINE
  5
C96
330
C5D
100
AcDbEntity
  8
0
100
AcDbLine
 10
-12.99492000000004
 20
-17.50507999999992
 30
0.0
 11
-30.99999999999998
 21
-17.50507999999993
 31
0.0
  0
LINE
  5
C97
330
C5D
100
AcDbEntity
  8
0
100
AcDbLine
 10
-30.99999999999999
 20
17.50508000000005
 30
0.0
 11
-31.0
 21
17.50000000000006
 31
0.0
  0
LINE
  5
C98
330
C5D
100
AcDbEntity
  8
0
100
AcDbLine
 10
-30.99999999999998
 20
-17.49999999999993
 30
0.0
 11
-30.99999999999998
 21
-17.50507999999993
 31
0.0
  0
LINE
  5
C99
330
C5D
100
AcDbEntity
  8
0
100
AcDbLine
 10
-16.99999999999995
 20
-17.49999999999991
 30
0.0
 11
-17.00000000000005
 21
17.50000000000007
 31
0.0
  0
LINE
  5
C9A
330
C5D
100
AcDbEntity
  8
0
100
AcDbLine
 10
-16.99999999999995
 20
-17.49999999999991
 30
0.0
 11
-25.00000000000004
 21
-17.49999999999993
 31
0.0
  0
LINE
  5
C9B
330
C5D
100
AcDbEntity
  8
0
100
AcDbLine
 10
-17.00000000000005
 20
17.50000000000007
 30
0.0
 11
-25.00000000000015
 21
17.50000000000004
 31
0.0
  0
LINE
  5
C9C
330
C5D
100
AcDbEntity
  8
0
100
AcDbLine
 10
-13.00000000000007
 20
17.50000000000007
 30
0.0
 11
-17.00000000000007
 21
17.50000000000006
 31
0.0
  0
LINE
  5
C9D
330
C5D
100
AcDbEntity
  8
0
100
AcDbLine
 10
-13.00000000000004
 20
-17.49999999999992
 30
0.0
 11
-17.00000000000005
 21
-17.49999999999992
 31
0.0
  0
ARC
  5
C9E
330
C5D
100
AcDbEntity
  8
0
100
AcDbCircle
 10
1.500000000000005
 20
0.0000000000000022
 30
0.0
 40
8.5
100
AcDbArc
 50
270.0
 51
90.00000000000007
  0
LINE
  5
C9F
330
C5D
100
AcDbEntity
  8
0
100
AcDbLine
 10
1.500000000000005
 20
-8.5
 30
0.0
 11
-1.499999999999992
 21
-8.5
 31
0.0
  0
ARC
  5
CA0
330
C5D
100
AcDbEntity
  8
0
100
AcDbCircle
 10
-1.499999999999996
 20
0.0000000000000017
 30
0.0
 40
8.5
100
AcDbArc
 50
89.99999999999998
 51
270.0
  0
LINE
  5
CA1
330
C5D
100
AcDbEntity
  8
0
100
AcDbLine
 10
-1.499999999999994
 20
8.499999999999985
 30
0.0
 11
1.499999999999999
 21
8.499999999999985
 31
0.0
  0
ARC
  5
CA2
330
C5D
100
AcDbEntity
  8
0
100
AcDbCircle
 10
41.7
 20
-20.75254000000006
 30
0.0
 40
2.7
100
AcDbArc
 50
180.0
 51
219.5805858632567
  0
LINE
  5
CA3
330
C5D
100
AcDbEntity
  8
0
100
AcDbLine
 10
39.61903120408777
 20
-22.47287975436246
 30
0.0
 11
41.426822959178
 21
-24.65963282003489
 31
0.0
  0
ARC
  5
CA4
330
C5D
100
AcDbEntity
  8
0
100
AcDbCircle
 10
-41.69999999999996
 20
-20.7525400000001
 30
0.0
 40
2.7
100
AcDbArc
 50
320.4194141367433
 51
0.0
  0
LINE
  5
CA5
330
C5D
100
AcDbEntity
  8
0
100
AcDbLine
 10
-41.42682295917795
 20
-24.65963282003492
 30
0.0
 11
-39.61903120408775
 21
-22.47287975436248
 31
0.0
  0
ARC
  5
CA6
330
C5D
100
AcDbEntity
  8
0
100
AcDbCircle
 10
-39.49999999999997
 20
-26.2525400000001
 30
0.0
 40
2.5
100
AcDbArc
 50
140.4194141367436
 51
219.5805858632564
  0
ARC
  5
CA7
330
C5D
100
AcDbEntity
  8
0
100
AcDbCircle
 10
-41.69999999999996
 20
-31.75254000000004
 30
0.0
 40
2.7
100
AcDbArc
 50
0.0
 51
39.58058586325669
  0
LINE
  5
CA8
330
C5D
100
AcDbEntity
  8
0
100
AcDbLine
 10
-41.42682295917795
 20
-27.84544717996522
 30
0.0
 11
-39.61903120408775
 21
-30.03220024563766
 31
0.0
  0
ARC
  5
CA9
330
C5D
100
AcDbEntity
  8
0
100
AcDbCircle
 10
39.49999999999999
 20
-26.25254000000006
 30
0.0
 40
2.5
100
AcDbArc
 50
320.4194141367437
 51
39.58058586325653
  0
ARC
  5
CAA
330
C5D
100
AcDbEntity
  8
0
100
AcDbCircle
 10
41.7
 20
-31.75254000000002
 30
0.0
 40
2.7
100
AcDbArc
 50
140.4194141367434
 51
180.0
  0
LINE
  5
CAB
330
C5D
100
AcDbEntity
  8
0
100
AcDbLine
 10
41.426822959178
 20
-27.84544717996521
 30
0.0
 11
39.61903120408777
 21
-30.03220024563764
 31
0.0
  0
LINE
  5
CAC
330
C5D
100
AcDbEntity
  8
0
100
AcDbLine
 10
31.00000000000002
 20
-35.0
 30
0.0
 11
35.00000000000001
 21
-35.0
 31
0.0
  0
LINE
  5
CAD
330
C5D
100
AcDbEntity
  8
0
100
AcDbLine
 10
34.99999999999999
 20
34.99999999999997
 30
0.0
 11
30.99999999999998
 21
34.99999999999999
 31
0.0
  0
LINE
  5
CAE
330
C5D
100
AcDbEntity
  8
0
100
AcDbLine
 10
-34.99999999999998
 20
-34.99999999999995
 30
0.0
 11
-30.99999999999998
 21
-35.0
 31
0.0
  0
LINE
  5
CAF
330
C5D
100
AcDbEntity
  8
0
100
AcDbLine
 10
-31.00000000000001
 20
35.0
 30
0.0
 11
-35.0
 21
34.99999999999999
 31
0.0
  0
LINE
  5
CB0
330
C5D
100
AcDbEntity
  8
0
100
AcDbLine
 10
-31.0
 20
-17.49999999999994
 30
0.0
 11
-25.00000000000004
 21
-17.49999999999993
 31
0.0
  0
LINE
  5
CB1
330
C5D
100
AcDbEntity
  8
0
100
AcDbLine
 10
-25.00000000000015
 20
17.50000000000006
 30
0.0
 11
-30.99999999999998
 21
17.50000000000005
 31
0.0
  0
LINE
  5
CB2
330
C5D
100
AcDbEntity
  8
0
100
AcDbLine
 10
-34.99999999999999
 20
17.50000000000005
 30
0.0
 11
-30.99999999999998
 21
17.50000000000005
 31
0.0
  0
LINE
  5
CB3
330
C5D
100
AcDbEntity
  8
0
100
AcDbLine
 10
-34.99999999999998
 20
-17.49999999999994
 30
0.0
 11
-31.0
 21
-17.49999999999993
 31
0.0
  0
ENDBLK
  5
C5F
330
C5D
100
AcDbEntity
  8
0
100
AcDbBlockEnd
  0
BLOCK
  5
CB5
330
CB4
100
AcDbEntity
  8
0
100
AcDbBlockBegin
  2
PU70-B-Bottom
 70
     0
 10
0.0
 20
0.0
 30
0.0
  3
PU70-B-Bottom
  1

  0
ARC
  5
CB7
330
CB4
100
AcDbEntity
  8
0
100
AcDbCircle
 10
41.70000000000001
 20
-20.75254000000008
 30
0.0
 40
2.7
100
AcDbArc
 50
180.0
 51
219.5805858632567
  0
LINE
  5
CB8
330
CB4
100
AcDbEntity
  8
0
100
AcDbLine
 10
41.426822959178
 20
-24.6596328200349
 30
0.0
 11
39.61903120408778
 21
-22.47287975436247
 31
0.0
  0
ARC
  5
CB9
330
CB4
100
AcDbEntity
  8
0
100
AcDbCircle
 10
-41.69999999999998
 20
-20.7525400000001
 30
0.0
 40
2.7
100
AcDbArc
 50
320.4194141367434
 51
0.0
  0
LINE
  5
CBA
330
CB4
100
AcDbEntity
  8
0
100
AcDbLine
 10
-41.42682295917797
 20
-24.65963282003493
 30
0.0
 11
-39.61903120408775
 21
-22.47287975436249
 31
0.0
  0
ARC
  5
CBB
330
CB4
100
AcDbEntity
  8
0
100
AcDbCircle
 10
-39.49999999999997
 20
-26.2525400000001
 30
0.0
 40
2.5
100
AcDbArc
 50
140.4194141367437
 51
219.5805858632566
  0
ARC
  5
CBC
330
CB4
100
AcDbEntity
  8
0
100
AcDbCircle
 10
-41.69999999999998
 20
-31.75254000000003
 30
0.0
 40
2.7
100
AcDbArc
 50
0.0
 51
39.58058586325669
  0
LINE
  5
CBD
330
CB4
100
AcDbEntity
  8
0
100
AcDbLine
 10
-41.42682295917797
 20
-27.84544717996521
 30
0.0
 11
-39.61903120408776
 21
-30.03220024563765
 31
0.0
  0
ARC
  5
CBE
330
CB4
100
AcDbEntity
  8
0
100
AcDbCircle
 10
39.5
 20
-26.25254000000007
 30
0.0
 40
2.5
100
AcDbArc
 50
320.4194141367436
 51
39.58058586325638
  0
ARC
  5
CBF
330
CB4
100
AcDbEntity
  8
0
100
AcDbCircle
 10
41.7
 20
-31.75254000000002
 30
0.0
 40
2.7
100
AcDbArc
 50
140.4194141367433
 51
180.0
  0
LINE
  5
CC0
330
CB4
100
AcDbEntity
  8
0
100
AcDbLine
 10
41.426822959178
 20
-27.84544717996519
 30
0.0
 11
39.61903120408778
 21
-30.03220024563763
 31
0.0
  0
LINE
  5
CC1
330
CB4
100
AcDbEntity
  8
0
100
AcDbLine
 10
-38.99999999999998
 20
-20.75254000000005
 30
0.0
 11
-39.0
 21
-17.50508000000005
 31
0.0
  0
LINE
  5
CC2
330
CB4
100
AcDbEntity
  8
0
100
AcDbLine
 10
-39.0
 20
17.50507999999993
 30
0.0
 11
-38.99999999999998
 21
20.75254000000005
 31
0.0
  0
LINE
  5
CC3
330
CB4
100
AcDbEntity
  8
0
100
AcDbLine
 10
-38.99999999999998
 20
31.75254000000006
 30
0.0
 11
-38.99999999999998
 21
35.0
 31
0.0
  0
LINE
  5
CC4
330
CB4
100
AcDbEntity
  8
0
100
AcDbLine
 10
-39.0
 20
-34.99999999999997
 30
0.0
 11
-38.99999999999998
 21
-31.75254000000006
 31
0.0
  0
LINE
  5
CC5
330
CB4
100
AcDbEntity
  8
0
100
AcDbLine
 10
-38.99999999999998
 20
34.99999999999989
 30
0.0
 11
-30.99999999999998
 21
35.0
 31
0.0
  0
LINE
  5
CC6
330
CB4
100
AcDbEntity
  8
0
100
AcDbLine
 10
-31.00000000000001
 20
-35.00000000000006
 30
0.0
 11
-39.0
 21
-34.99999999999999
 31
0.0
  0
LINE
  5
CC7
330
CB4
100
AcDbEntity
  8
0
100
AcDbLine
 10
-39.0
 20
-17.50000000000005
 30
0.0
 11
-38.99999999999998
 21
17.49999999999994
 31
0.0
  0
LINE
  5
CC8
330
CB4
100
AcDbEntity
  8
0
100
AcDbLine
 10
-39.0
 20
-17.50508000000005
 30
0.0
 11
-39.0
 21
-17.50000000000006
 31
0.0
  0
LINE
  5
CC9
330
CB4
100
AcDbEntity
  8
0
100
AcDbLine
 10
-38.99999999999998
 20
17.49999999999993
 30
0.0
 11
-39.0
 21
17.50507999999993
 31
0.0
  0
LINE
  5
CCA
330
CB4
100
AcDbEntity
  8
0
100
AcDbLine
 10
-30.99999999999999
 20
-17.50000000000006
 30
0.0
 11
-30.99999999999999
 21
-17.50508000000005
 31
0.0
  0
LINE
  5
CCB
330
CB4
100
AcDbEntity
  8
0
100
AcDbLine
 10
-30.99999999999998
 20
17.50507999999993
 30
0.0
 11
-12.99492000000004
 21
17.50507999999992
 31
0.0
  0
LINE
  5
CCC
330
CB4
100
AcDbEntity
  8
0
100
AcDbLine
 10
-12.99492000000004
 20
17.50507999999992
 30
0.0
 11
-12.99492000000004
 21
17.49999999999992
 31
0.0
  0
LINE
  5
CCD
330
CB4
100
AcDbEntity
  8
0
100
AcDbLine
 10
-12.99492000000004
 20
17.49999999999992
 30
0.0
 11
-13.00000000000004
 21
17.49999999999992
 31
0.0
  0
LINE
  5
CCE
330
CB4
100
AcDbEntity
  8
0
100
AcDbLine
 10
-13.00000000000007
 20
-17.50000000000007
 30
0.0
 11
-12.99492000000007
 21
-17.50000000000007
 31
0.0
  0
LINE
  5
CCF
330
CB4
100
AcDbEntity
  8
0
100
AcDbLine
 10
-12.99492000000007
 20
-17.50000000000007
 30
0.0
 11
-12.99492000000007
 21
-17.50508000000007
 31
0.0
  0
LINE
  5
CD0
330
CB4
100
AcDbEntity
  8
0
100
AcDbLine
 10
-12.99492000000007
 20
-17.50508000000007
 30
0.0
 11
-30.99999999999999
 21
-17.50508000000005
 31
0.0
  0
LINE
  5
CD1
330
CB4
100
AcDbEntity
  8
0
100
AcDbLine
 10
-30.99999999999998
 20
17.50507999999993
 30
0.0
 11
-30.99999999999998
 21
17.49999999999993
 31
0.0
  0
LINE
  5
CD2
330
CB4
100
AcDbEntity
  8
0
100
AcDbLine
 10
-21.00000000000005
 20
17.49999999999993
 30
0.0
 11
-21.00000000000008
 21
-17.50000000000006
 31
0.0
  0
LINE
  5
CD3
330
CB4
100
AcDbEntity
  8
0
100
AcDbLine
 10
-25.00000000000004
 20
17.49999999999993
 30
0.0
 11
-20.99999999999995
 21
17.49999999999992
 31
0.0
  0
LINE
  5
CD4
330
CB4
100
AcDbEntity
  8
0
100
AcDbLine
 10
-25.00000000000015
 20
-17.50000000000004
 30
0.0
 11
-21.00000000000006
 21
-17.50000000000006
 31
0.0
  0
LINE
  5
CD5
330
CB4
100
AcDbEntity
  8
0
100
AcDbLine
 10
-21.00000000000008
 20
-17.50000000000006
 30
0.0
 11
-13.00000000000007
 21
-17.50000000000007
 31
0.0
  0
LINE
  5
CD6
330
CB4
100
AcDbEntity
  8
0
100
AcDbLine
 10
-21.00000000000005
 20
17.49999999999993
 30
0.0
 11
-13.00000000000004
 21
17.49999999999992
 31
0.0
  0
LINE
  5
CD7
330
CB4
100
AcDbEntity
  8
0
100
AcDbLine
 10
-39.0
 20
-17.50000000000006
 30
0.0
 11
-30.99999999999999
 21
-17.50000000000007
 31
0.0
  0
LINE
  5
CD8
330
CB4
100
AcDbEntity
  8
0
100
AcDbLine
 10
31.0
 20
-17.50000000000007
 30
0.0
 11
39.0
 21
-17.50000000000006
 31
0.0
  0
LINE
  5
CD9
330
CB4
100
AcDbEntity
  8
0
100
AcDbLine
 10
-30.99999999999998
 20
17.49999999999993
 30
0.0
 11
-38.99999999999998
 21
17.49999999999995
 31
0.0
  0
LINE
  5
CDA
330
CB4
100
AcDbEntity
  8
0
100
AcDbLine
 10
39.0
 20
17.49999999999995
 30
0.0
 11
30.99999999999999
 21
17.49999999999994
 31
0.0
  0
LINE
  5
CDB
330
CB4
100
AcDbEntity
  8
0
100
AcDbLine
 10
31.0
 20
-17.50508000000005
 30
0.0
 11
12.99492000000008
 21
-17.50508000000007
 31
0.0
  0
LINE
  5
CDC
330
CB4
100
AcDbEntity
  8
0
100
AcDbLine
 10
12.99492000000008
 20
-17.50508000000007
 30
0.0
 11
12.99492000000008
 21
-17.50000000000007
 31
0.0
  0
LINE
  5
CDD
330
CB4
100
AcDbEntity
  8
0
100
AcDbLine
 10
12.99492000000008
 20
-17.50000000000007
 30
0.0
 11
13.00000000000008
 21
-17.50000000000007
 31
0.0
  0
LINE
  5
CDE
330
CB4
100
AcDbEntity
  8
0
100
AcDbLine
 10
13.00000000000005
 20
17.49999999999992
 30
0.0
 11
12.99492000000005
 21
17.49999999999992
 31
0.0
  0
LINE
  5
CDF
330
CB4
100
AcDbEntity
  8
0
100
AcDbLine
 10
12.99492000000005
 20
17.49999999999992
 30
0.0
 11
12.99492000000005
 21
17.50507999999992
 31
0.0
  0
LINE
  5
CE0
330
CB4
100
AcDbEntity
  8
0
100
AcDbLine
 10
12.99492000000005
 20
17.50507999999992
 30
0.0
 11
30.99999999999999
 21
17.50507999999993
 31
0.0
  0
LINE
  5
CE1
330
CB4
100
AcDbEntity
  8
0
100
AcDbLine
 10
39.0
 20
-17.50000000000006
 30
0.0
 11
39.0
 21
-17.50508000000005
 31
0.0
  0
LINE
  5
CE2
330
CB4
100
AcDbEntity
  8
0
100
AcDbLine
 10
31.0
 20
-17.50508000000005
 30
0.0
 11
31.0
 21
-17.50000000000006
 31
0.0
  0
LINE
  5
CE3
330
CB4
100
AcDbEntity
  8
0
100
AcDbLine
 10
30.99999999999999
 20
17.49999999999993
 30
0.0
 11
30.99999999999999
 21
17.50507999999993
 31
0.0
  0
LINE
  5
CE4
330
CB4
100
AcDbEntity
  8
0
100
AcDbLine
 10
39.0
 20
17.50507999999993
 30
0.0
 11
39.0
 21
17.49999999999993
 31
0.0
  0
LINE
  5
CE5
330
CB4
100
AcDbEntity
  8
0
100
AcDbLine
 10
39.0
 20
17.49999999999994
 30
0.0
 11
39.0
 21
-17.50000000000005
 31
0.0
  0
LINE
  5
CE6
330
CB4
100
AcDbEntity
  8
0
100
AcDbLine
 10
25.00000000000005
 20
17.49999999999993
 30
0.0
 11
20.99999999999996
 21
17.49999999999992
 31
0.0
  0
LINE
  5
CE7
330
CB4
100
AcDbEntity
  8
0
100
AcDbLine
 10
25.00000000000016
 20
-17.50000000000004
 30
0.0
 11
21.00000000000007
 21
-17.50000000000006
 31
0.0
  0
LINE
  5
CE8
330
CB4
100
AcDbEntity
  8
0
100
AcDbLine
 10
21.00000000000008
 20
-17.50000000000006
 30
0.0
 11
13.00000000000008
 21
-17.50000000000007
 31
0.0
  0
LINE
  5
CE9
330
CB4
100
AcDbEntity
  8
0
100
AcDbLine
 10
21.00000000000006
 20
17.49999999999993
 30
0.0
 11
13.00000000000005
 21
17.49999999999992
 31
0.0
  0
LINE
  5
CEA
330
CB4
100
AcDbEntity
  8
0
100
AcDbLine
 10
21.00000000000007
 20
-17.50000000000006
 30
0.0
 11
21.00000000000005
 21
17.49999999999993
 31
0.0
  0
LINE
  5
CEB
330
CB4
100
AcDbEntity
  8
0
100
AcDbLine
 10
31.0
 20
17.49999999999993
 30
0.0
 11
25.00000000000005
 21
17.49999999999993
 31
0.0
  0
LINE
  5
CEC
330
CB4
100
AcDbEntity
  8
0
100
AcDbLine
 10
25.00000000000016
 20
-17.50000000000006
 30
0.0
 11
31.00000000000001
 21
-17.50000000000006
 31
0.0
  0
ARC
  5
CED
330
CB4
100
AcDbEntity
  8
0
100
AcDbCircle
 10
1.500000000000005
 20
-0.0000000000000022
 30
0.0
 40
8.5
100
AcDbArc
 50
270.0
 51
90.0
  0
LINE
  5
CEE
330
CB4
100
AcDbEntity
  8
0
100
AcDbLine
 10
1.499999999999999
 20
-8.499999999999985
 30
0.0
 11
-1.499999999999994
 21
-8.499999999999985
 31
0.0
  0
ARC
  5
CEF
330
CB4
100
AcDbEntity
  8
0
100
AcDbCircle
 10
-1.499999999999996
 20
-0.0000000000000017
 30
0.0
 40
8.5
100
AcDbArc
 50
90.0
 51
270.0
  0
LINE
  5
CF0
330
CB4
100
AcDbEntity
  8
0
100
AcDbLine
 10
-1.499999999999992
 20
8.5
 30
0.0
 11
1.500000000000005
 21
8.5
 31
0.0
  0
LINE
  5
CF1
330
CB4
100
AcDbEntity
  8
0
100
AcDbLine
 10
39.0
 20
-17.50508000000005
 30
0.0
 11
39.0
 21
-20.75254000000004
 31
0.0
  0
LINE
  5
CF2
330
CB4
100
AcDbEntity
  8
0
100
AcDbLine
 10
39.0
 20
20.75254000000003
 30
0.0
 11
39.0
 21
17.50507999999993
 31
0.0
  0
LINE
  5
CF3
330
CB4
100
AcDbEntity
  8
0
100
AcDbLine
 10
39.00000000000001
 20
35.0
 30
0.0
 11
39.00000000000001
 21
31.75254000000003
 31
0.0
  0
LINE
  5
CF4
330
CB4
100
AcDbEntity
  8
0
100
AcDbLine
 10
31.00000000000002
 20
34.99999999999997
 30
0.0
 11
39.0
 21
35.0
 31
0.0
  0
LINE
  5
CF5
330
CB4
100
AcDbEntity
  8
0
100
AcDbLine
 10
39.0
 20
-31.75254000000004
 30
0.0
 11
39.0
 21
-34.99999999999999
 31
0.0
  0
LINE
  5
CF6
330
CB4
100
AcDbEntity
  8
0
100
AcDbLine
 10
38.99999999999998
 20
-34.99999999999996
 30
0.0
 11
30.99999999999999
 21
-34.99999999999999
 31
0.0
  0
ARC
  5
CF7
330
CB4
100
AcDbEntity
  8
0
100
AcDbCircle
 10
41.70000000000001
 20
20.75254000000006
 30
0.0
 40
2.7
100
AcDbArc
 50
140.4194141367433
 51
180.0
  0
LINE
  5
CF8
330
CB4
100
AcDbEntity
  8
0
100
AcDbLine
 10
41.426822959178
 20
24.65963282003489
 30
0.0
 11
39.61903120408778
 21
22.47287975436246
 31
0.0
  0
ARC
  5
CF9
330
CB4
100
AcDbEntity
  8
0
100
AcDbCircle
 10
-41.69999999999998
 20
20.75254000000009
 30
0.0
 40
2.7
100
AcDbArc
 50
0.0
 51
39.58058586325662
  0
LINE
  5
CFA
330
CB4
100
AcDbEntity
  8
0
100
AcDbLine
 10
-41.42682295917797
 20
24.65963282003492
 30
0.0
 11
-39.61903120408775
 21
22.47287975436248
 31
0.0
  0
ARC
  5
CFB
330
CB4
100
AcDbEntity
  8
0
100
AcDbCircle
 10
-39.49999999999997
 20
26.25254000000009
 30
0.0
 40
2.5
100
AcDbArc
 50
140.4194141367434
 51
219.5805858632563
  0
ARC
  5
CFC
330
CB4
100
AcDbEntity
  8
0
100
AcDbCircle
 10
-41.69999999999998
 20
31.75254000000003
 30
0.0
 40
2.7
100
AcDbArc
 50
320.4194141367433
 51
0.0
  0
LINE
  5
CFD
330
CB4
100
AcDbEntity
  8
0
100
AcDbLine
 10
-41.42682295917797
 20
27.84544717996521
 30
0.0
 11
-39.61903120408776
 21
30.03220024563764
 31
0.0
  0
ARC
  5
CFE
330
CB4
100
AcDbEntity
  8
0
100
AcDbCircle
 10
39.5
 20
26.25254000000006
 30
0.0
 40
2.5
100
AcDbArc
 50
320.4194141367436
 51
39.58058586325638
  0
ARC
  5
CFF
330
CB4
100
AcDbEntity
  8
0
100
AcDbCircle
 10
41.7
 20
31.75254000000002
 30
0.0
 40
2.7
100
AcDbArc
 50
180.0
 51
219.5805858632567
  0
LINE
  5
D00
330
CB4
100
AcDbEntity
  8
0
100
AcDbLine
 10
41.426822959178
 20
27.84544717996519
 30
0.0
 11
39.61903120408778
 21
30.03220024563763
 31
0.0
  0
LINE
  5
D01
330
CB4
100
AcDbEntity
  8
0
100
AcDbLine
 10
30.99999999999998
 20
-34.99999999999999
 30
0.0
 11
-31.0
 21
-34.99999999999997
 31
0.0
  0
LINE
  5
D02
330
CB4
100
AcDbEntity
  8
0
100
AcDbLine
 10
-30.99999999999998
 20
35.0
 30
0.0
 11
31.00000000000004
 21
35.0
 31
0.0
  0
LINE
  5
D03
330
CB4
100
AcDbEntity
  8
0
100
AcDbLine
 10
-31.0
 20
17.49999999999993
 30
0.0
 11
-25.00000000000004
 21
17.49999999999993
 31
0.0
  0
LINE
  5
D04
330
CB4
100
AcDbEntity
  8
0
100
AcDbLine
 10
-25.00000000000015
 20
-17.50000000000006
 30
0.0
 11
-30.99999999999998
 21
-17.50000000000005
 31
0.0
  0
ENDBLK
  5
CB6
330
CB4
100
AcDbEntity
  8
0
100
AcDbBlockEnd
  0
BLOCK
  5
D06
330
D05
100
AcDbEntity
  8
0
100
AcDbBlockBegin
  2
PU70-B-ISO
 70
     0
 10
0.0
 20
0.0
 30
0.0
  3
PU70-B-ISO
  1

  0
ELLIPSE
  5
D08
330
D05
100
AcDbEntity
  8
0
100
AcDbEllipse
 10
44.16061453632415
 20
-53.4590766855851
 30
0.0
 11
-2.7
 21
0.0000000000000028
 31
0.0
210
0.0
220
0.0
230
1.0
 40
0.5773502691896267
 41
4.806975600599988
 42
5.497787143782142
  0
LINE
  5
D09
330
D05
100
AcDbEntity
  8
0
100
AcDbLine
 10
43.90561129555144
 20
-51.90719896840982
 30
0.0
 11
43.90561129555144
 21
6.88055485838646
 31
0.0
  0
ELLIPSE
  5
D0A
330
D05
100
AcDbEntity
  8
0
100
AcDbEllipse
 10
44.16061453632412
 20
5.328677141211182
 30
0.0
 11
2.699999999999999
 21
-0.0000000000001613
 31
0.0
210
0.0
220
0.0
230
1.0
 40
0.577350269189626
 41
1.6653829470103
 42
2.356194490192587
  0
LINE
  5
D0B
330
D05
100
AcDbEntity
  8
0
100
AcDbLine
 10
42.25142622712041
 20
-52.35680630133266
 30
0.0
 11
42.25142622712042
 21
6.430947525463608
 31
0.0
  0
LINE
  5
D0C
330
D05
100
AcDbEntity
  8
0
100
AcDbLine
 10
46.73018102606632
 20
-51.75248866121268
 30
0.0
 11
43.90561129555144
 21
-51.90719896840982
 31
0.0
  0
LINE
  5
D0D
330
D05
100
AcDbEntity
  8
0
100
AcDbLine
 10
46.73018102606632
 20
-51.75248866121268
 30
0.0
 11
46.7301810260663
 21
7.035265165583597
 31
0.0
  0
LINE
  5
D0E
330
D05
100
AcDbEntity
  8
0
100
AcDbLine
 10
43.90561129555144
 20
6.88055485838646
 30
0.0
 11
46.7301810260663
 21
7.035265165583597
 31
0.0
  0
ELLIPSE
  5
D0F
330
D05
100
AcDbEntity
  8
0
100
AcDbEllipse
 10
36.59457197762808
 20
-54.56134706983751
 30
0.0
 11
1.35
 21
2.338268590217984
 31
0.0
210
0.0
220
0.0
230
1.0
 40
0.577350269189626
 41
0.5054441064781692
 42
0.7853981633974483
  0
ELLIPSE
  5
D10
330
D05
100
AcDbEntity
  8
0
100
AcDbEllipse
 10
36.59457197762805
 20
-49.09081997762175
 30
0.0
 11
-1.999999999999793
 21
3.464101615137875
 31
0.0
210
0.0
220
0.0
230
1.0
 40
0.5773502691896255
 41
2.356194490192633
 42
2.52902117322068
  0
ELLIPSE
  5
D11
330
D05
100
AcDbEntity
  8
0
100
AcDbEllipse
 10
37.81103588388253
 20
-48.38849421388626
 30
0.0
 11
4.30951560204389
 21
-7.464299978750801
 31
0.0
210
0.0
220
0.0
230
0.9999999999999998
 40
0.5773502691896251
 41
5.901877000739428
 42
7.068583470577031
  0
ELLIPSE
  5
D12
330
D05
100
AcDbEntity
  8
0
100
AcDbEllipse
 10
36.59457197762805
 20
-49.09081997762175
 30
0.0
 11
3.999999999999998
 21
-6.928203230275513
 31
0.0
210
0.0
220
0.0
230
1.0
 40
0.5773502691896258
 41
0.0000000000000002
 42
0.7853981633974478
  0
ELLIPSE
  5
D13
330
D05
100
AcDbEntity
  8
0
100
AcDbEllipse
 10
39.35730380539999
 20
-47.4957560131589
 30
0.0
 11
5.213411479588992
 21
-9.029893563410983
 31
0.0
210
0.0
220
0.0
230
0.9999999999999998
 40
0.5773502691896252
 41
5.658840087705713
 42
7.068583470577032
  0
LINE
  5
D14
330
D05
100
AcDbEntity
  8
0
100
AcDbLine
 10
30.08493164812191
 20
-47.38982842452465
 30
0.0
 11
37.1266981147422
 21
-51.45539418959835
 31
0.0
  0
LINE
  5
D15
330
D05
100
AcDbEntity
  8
0
100
AcDbLine
 10
37.12669811474218
 20
-48.85418765724481
 30
0.0
 11
32.33764258563008
 21
-46.08922515834787
 31
0.0
  0
LINE
  5
D16
330
D05
100
AcDbEntity
  8
0
100
AcDbLine
 10
29.81696553560187
 20
-47.54453873172178
 30
0.0
 11
37.1266981147422
 21
-51.76481480399264
 31
0.0
  0
LINE
  5
D17
330
D05
100
AcDbEntity
  8
0
100
AcDbLine
 10
36.59457197762804
 20
-52.35680630133266
 30
0.0
 11
29.03822279152393
 21
-47.99414606464464
 31
0.0
  0
ELLIPSE
  5
D18
330
D05
100
AcDbEntity
  8
0
100
AcDbEllipse
 10
-6.538941674751306
 20
39.09081076257262
 30
0.0
 11
-2.499999999999999
 21
-0.0000000000000017
 31
0.0
210
0.0
220
0.0
230
1.0
 40
0.5773502691896261
 41
4.80697560059999
 42
5.797648229605704
  0
LINE
  5
D19
330
D05
100
AcDbEntity
  8
0
100
AcDbLine
 10
-9.027766724086083
 20
39.0879266482327
 30
0.0
 11
-9.027766724086108
 21
-13.97548610346924
 31
0.0
  0
LINE
  5
D1A
330
D05
100
AcDbEntity
  8
0
100
AcDbLine
 10
-6.775055786577908
 20
-15.27608936964599
 30
0.0
 11
-6.775055786577885
 21
40.52773457477194
 31
0.0
  0
LINE
  5
D1B
330
D05
100
AcDbEntity
  8
0
100
AcDbLine
 10
-9.295732836606129
 20
37.59636521433755
 30
0.0
 11
-9.073484156226932
 21
38.94890792597907
 31
0.0
  0
LINE
  5
D1C
330
D05
100
AcDbEntity
  8
0
100
AcDbLine
 10
-9.295732836606129
 20
37.59636521433755
 30
0.0
 11
-9.295732836606147
 21
-13.82077579627209
 31
0.0
  0
ELLIPSE
  5
D1D
330
D05
100
AcDbEntity
  8
0
100
AcDbEllipse
 10
-11.98366388988769
 20
37.7435914040419
 30
0.0
 11
2.699999999999999
 21
-0.0000000000000007
 31
0.0
210
0.0
220
0.0
230
1.0
 40
0.5773502691896258
 41
5.497787143782137
 42
6.188598686964283
  0
LINE
  5
D1E
330
D05
100
AcDbEntity
  8
0
100
AcDbLine
 10
-10.07447558068406
 20
-13.31364008164098
 30
0.0
 11
-10.07447558068405
 21
36.64132101978947
 31
0.0
  0
ELLIPSE
  5
D1F
330
D05
100
AcDbEntity
  8
0
100
AcDbEllipse
 10
-7.901411255331984
 20
39.87743294168357
 30
0.0
 11
0.7964535899825753
 21
1.379498083720451
 31
0.0
210
0.0
220
0.0
230
1.0
 40
0.5773502691896258
 41
5.49778714378213
 42
6.970982059606314
  0
LINE
  5
D20
330
D05
100
AcDbEntity
  8
0
100
AcDbLine
 10
-3.950486056063002
 20
40.68244488196909
 30
0.0
 11
-6.775055786577885
 21
40.52773457477194
 31
0.0
  0
ELLIPSE
  5
D21
330
D05
100
AcDbEntity
  8
0
100
AcDbEllipse
 10
-6.623109446334566
 20
39.13940504815333
 30
0.0
 11
1.889830122818802
 21
3.273281790396298
 31
0.0
210
0.0
220
0.0
230
1.0
 40
0.5773502691896258
 41
5.497787143782134
 42
7.309382811238545
  0
ELLIPSE
  5
D22
330
D05
100
AcDbEntity
  8
0
100
AcDbEllipse
 10
-6.623109446334566
 20
39.13940504815333
 30
0.0
 11
-1.889830122818802
 21
-3.273281790396298
 31
0.0
210
0.0
220
0.0
230
1.0
 40
0.5773502691896257
 41
5.256987803120626
 42
5.497787143782134
  0
ELLIPSE
  5
D23
330
D05
100
AcDbEntity
  8
0
100
AcDbEllipse
 10
-4.205489296835711
 20
42.23432259914435
 30
0.0
 11
-2.699999999999999
 21
0.0000000000001614
 31
0.0
210
0.0
220
0.0
230
1.0
 40
0.5773502691896258
 41
1.665382947010307
 42
2.356194490192585
  0
ELLIPSE
  5
D24
330
D05
100
AcDbEntity
  8
0
100
AcDbEllipse
 10
-6.185388284158057
 20
38.88668661734073
 30
0.0
 11
2.750000000000285
 21
4.763139720814249
 31
0.0
210
0.0
220
0.0
230
1.0
 40
0.5773502691896255
 41
5.497787143782376
 42
8.639379797372171
  0
LINE
  5
D25
330
D05
100
AcDbEntity
  8
0
100
AcDbLine
 10
-3.95048605606302
 20
-17.09638987257976
 30
0.0
 11
-3.950486056063002
 21
40.68244488196909
 31
0.0
  0
ELLIPSE
  5
D26
330
D05
100
AcDbEntity
  8
0
100
AcDbEllipse
 10
-4.205489296835733
 20
-16.5534312276519
 30
0.0
 11
-2.699999999999999
 21
0.0000000000001592
 31
0.0
210
0.0
220
0.0
230
1.0
 40
0.5773502691896253
 41
2.011509759288843
 42
2.356194490192585
  0
LINE
  5
D27
330
D05
100
AcDbEntity
  8
0
100
AcDbLine
 10
-2.296300987632027
 20
41.13205221489195
 30
0.0
 11
-2.296300987632045
 21
-17.6557016119043
 31
0.0
  0
ELLIPSE
  5
D28
330
D05
100
AcDbEntity
  8
0
100
AcDbEllipse
 10
0.5321261371141528
 20
-24.75922186597554
 30
0.0
 11
-1.349999999999861
 21
-2.338268590218064
 31
0.0
210
0.0
220
0.0
230
1.0
 40
0.5773502691896257
 41
4.209450309014831
 42
4.271675547890842
  0
ELLIPSE
  5
D29
330
D05
100
AcDbEntity
  8
0
100
AcDbEllipse
 10
0.5321261371141084
 20
-19.28869477375977
 30
0.0
 11
2.000000000000206
 21
-3.464101615137636
 31
0.0
210
0.0
220
0.0
230
1.0
 40
0.5773502691896258
 41
3.926990816987
 42
4.378440676779382
  0
ELLIPSE
  5
D2A
330
D05
100
AcDbEntity
  8
0
100
AcDbEllipse
 10
0.5321261371141084
 20
-19.28869477375977
 30
0.0
 11
1.999999999999999
 21
-3.464101615137758
 31
0.0
210
0.0
220
0.0
230
1.0
 40
0.5773502691896257
 41
5.046337283989846
 42
5.308524252350411
  0
LINE
  5
D2B
330
D05
100
AcDbEntity
  8
0
100
AcDbLine
 10
37.12669811474218
 20
-45.59265546872953
 30
0.0
 11
35.16221231614496
 21
-44.45845906409023
 31
0.0
  0
LINE
  5
D2C
330
D05
100
AcDbEntity
  8
0
100
AcDbLine
 10
36.81639738457596
 20
-43.50341486954214
 30
0.0
 11
37.12669811474218
 21
-43.68256707963335
 31
0.0
  0
ELLIPSE
  5
D2D
330
D05
100
AcDbEntity
  8
0
100
AcDbEllipse
 10
46.49406691423973
 20
-50.31556484901334
 30
0.0
 11
2.499999999999999
 21
-0.0000000000000023
 31
0.0
210
0.0
220
0.0
230
1.0
 40
0.5773502691896269
 41
4.806975600599992
 42
6.188598686964284
  0
ELLIPSE
  5
D2E
330
D05
100
AcDbEntity
  8
0
100
AcDbEllipse
 10
41.61001474290816
 20
-46.19515274698213
 30
0.0
 11
5.213411479588997
 21
-9.029893563410983
 31
0.0
210
0.0
220
0.0
230
1.0
 40
0.5773502691896259
 41
0.6243452194738666
 42
0.7853981633974474
  0
ELLIPSE
  5
D2F
330
D05
100
AcDbEntity
  8
0
100
AcDbEllipse
 10
51.93878912937612
 20
-48.96834549048262
 30
0.0
 11
-2.7
 21
0.0
 31
0.0
210
0.0
220
0.0
230
1.0
 40
0.577350269189626
 41
5.497787143782137
 42
6.188598686964288
  0
ELLIPSE
  5
D30
330
D05
100
AcDbEntity
  8
0
100
AcDbEllipse
 10
43.15628266442562
 20
-45.30241454625475
 30
0.0
 11
4.309515602043883
 21
-7.46429997875079
 31
0.0
210
0.0
220
0.0
230
1.0
 40
0.5773502691896259
 41
0.6243452194738719
 42
0.7853981633974492
  0
ELLIPSE
  5
D31
330
D05
100
AcDbEntity
  8
0
100
AcDbEllipse
 10
44.37274657068005
 20
-44.60008878251926
 30
0.0
 11
4.0
 21
-6.928203230275511
 31
0.0
210
0.0
220
0.0
230
1.0
 40
0.5773502691896259
 41
0.1724084739586225
 42
0.7853981633974457
  0
LINE
  5
D32
330
D05
100
AcDbEntity
  8
0
100
AcDbLine
 10
48.9828919635745
 20
-50.45188539503591
 30
0.0
 11
49.25085807609455
 21
-48.82111930077828
 31
0.0
  0
ELLIPSE
  5
D33
330
D05
100
AcDbEntity
  8
0
100
AcDbEllipse
 10
46.49406691423973
 20
8.472188977782924
 30
0.0
 11
2.5
 21
0.0000000000000007
 31
0.0
210
0.0
220
0.0
230
1.0
 40
0.577350269189626
 41
4.806975600599991
 42
6.188598686964285
  0
LINE
  5
D34
330
D05
100
AcDbEntity
  8
0
100
AcDbLine
 10
48.98289196357452
 20
8.335868431760369
 30
0.0
 11
48.9828919635745
 21
-50.45188539503591
 31
0.0
  0
ELLIPSE
  5
D35
330
D05
100
AcDbEntity
  8
0
100
AcDbEllipse
 10
51.93878912937613
 20
9.819408336313664
 30
0.0
 11
-2.699999999999999
 21
-0.0000000000000001
 31
0.0
210
0.0
220
0.0
230
1.0
 40
0.5773502691896261
 41
5.497787143782137
 42
6.188598686964287
  0
LINE
  5
D36
330
D05
100
AcDbEntity
  8
0
100
AcDbLine
 10
49.25085807609455
 20
9.966634526018003
 30
0.0
 11
49.25085807609455
 21
-48.82111930077828
 31
0.0
  0
LINE
  5
D37
330
D05
100
AcDbEntity
  8
0
100
AcDbLine
 10
50.02960082017246
 20
10.9216787205661
 30
0.0
 11
50.02960082017245
 21
-47.86607510623017
 31
0.0
  0
LINE
  5
D38
330
D05
100
AcDbEntity
  8
0
100
AcDbLine
 10
48.98289196357452
 20
8.335868431760369
 30
0.0
 11
49.25085807609455
 21
9.966634526018003
 31
0.0
  0
ELLIPSE
  5
D39
330
D05
100
AcDbEntity
  8
0
100
AcDbEllipse
 10
47.85653649482042
 20
7.685566798671983
 30
0.0
 11
0.7964535899826596
 21
1.379498083720407
 31
0.0
210
0.0
220
0.0
230
1.0
 40
0.5773502691896257
 41
5.497787143782376
 42
8.639379797372169
  0
ELLIPSE
  5
D3A
330
D05
100
AcDbEntity
  8
0
100
AcDbEllipse
 10
46.57823468582299
 20
8.423594692202236
 30
0.0
 11
1.88983012281899
 21
3.273281790396175
 31
0.0
210
0.0
220
0.0
230
1.0
 40
0.5773502691896259
 41
5.497787143782377
 42
8.639379797372171
  0
ELLIPSE
  5
D3B
330
D05
100
AcDbEntity
  8
0
100
AcDbEllipse
 10
46.14051352364644
 20
8.676313123014853
 30
0.0
 11
2.750000000000283
 21
4.763139720814249
 31
0.0
210
0.0
220
0.0
230
1.0
 40
0.577350269189626
 41
5.497787143782377
 42
8.639379797372171
  0
LINE
  5
D3C
330
D05
100
AcDbEntity
  8
0
100
AcDbLine
 10
39.99065783432962
 20
-56.36769320109805
 30
0.0
 11
40.53960079799423
 21
-56.58164789711229
 31
0.0
  0
SPLINE
  5
D3D
330
D05
100
AcDbEntity
  8
0
100
AcDbSpline
210
0.0
220
0.0
230
1.0
 70
     8
 71
     3
 72
    16
 73
    12
 74
     0
 42
0.000000001
 43
0.0000000001
 40
3.382391994251304
 40
3.382391994251304
 40
3.382391994251304
 40
3.382391994251304
 40
3.600231523345678
 40
3.600231523345678
 40
3.818071052440053
 40
3.818071052440053
 40
4.035910581534428
 40
4.035910581534428
 40
4.253750110628802
 40
4.253750110628802
 40
4.471589639723177
 40
4.471589639723177
 40
4.471589639723177
 40
4.471589639723177
 10
-9.218621395670826
 20
38.37685065791723
 30
0.0
 10
-9.176931056214227
 20
38.59695845031917
 30
0.0
 10
-9.11335953540493
 20
38.83834124775623
 30
0.0
 10
-8.94216180420172
 20
39.33754735701127
 30
0.0
 10
-8.834622423420835
 20
39.59535655079374
 30
0.0
 10
-8.582443603601996
 20
40.10364719217313
 30
0.0
 10
-8.437834717088998
 20
40.35411713083959
 30
0.0
 10
-8.123731519057997
 20
40.82665571578877
 30
0.0
 10
-7.954231898303641
 20
41.04869214834348
 30
0.0
 10
-7.607505591565986
 20
41.44655678726325
 30
0.0
 10
-7.430247717353585
 20
41.62230273795984
 30
0.0
 10
-7.260473947290886
 20
41.76846152722262
 30
0.0
  0
SPLINE
  5
D3E
330
D05
100
AcDbEntity
  8
0
100
AcDbSpline
210
0.0
220
0.0
230
1.0
 70
     8
 71
     3
 72
    18
 73
    14
 74
     0
 42
0.000000001
 43
0.0000000001
 40
4.873441924308297
 40
4.873441924308297
 40
4.873441924308297
 40
4.873441924308297
 40
5.123180012097838
 40
5.123180012097838
 40
5.37291809988738
 40
5.37291809988738
 40
5.610990678963562
 40
5.610990678963562
 40
5.847831821097988
 40
5.847831821097988
 40
6.09756990888753
 40
6.09756990888753
 40
6.122132363256005
 40
6.122132363256005
 40
6.122132363256005
 40
6.122132363256005
 10
40.53960079799444
 20
-56.58164789711243
 30
0.0
 10
41.23297550541585
 20
-56.85189596397887
 30
0.0
 10
41.95608589649096
 20
-57.0319102672639
 30
0.0
 10
43.44061083817971
 20
-57.14235158746422
 30
0.0
 10
44.20464590718087
 20
-57.06900427708695
 30
0.0
 10
45.62685545875959
 20
-56.61418467462006
 30
0.0
 10
46.28193523000293
 20
-56.24504912557718
 30
0.0
 10
47.3778138559382
 20
-55.28770729200331
 30
0.0
 10
47.81830911380368
 20
-54.70694882919922
 30
0.0
 10
48.49367292841913
 20
-53.4202088694953
 30
0.0
 10
48.72027997365413
 20
-52.70961890919839
 30
0.0
 10
48.86441776932994
 20
-51.90648708395489
 30
0.0
 10
48.87640041145027
 20
-51.83434668838803
 30
0.0
 10
48.88747943415353
 20
-51.76199791936344
 30
0.0
  0
LINE
  5
D3F
330
D05
100
AcDbEntity
  8
0
100
AcDbLine
 10
49.17198807210964
 20
-49.90408587384217
 30
0.0
 11
48.88747943415353
 21
-51.7619979193634
 31
0.0
  0
ELLIPSE
  5
D40
330
D05
100
AcDbEntity
  8
0
100
AcDbEllipse
 10
-11.66726188957801
 20
63.48260916713066
 30
0.0
 11
2.249999999999765
 21
3.89711431703011
 31
0.0
210
0.0
220
0.0
230
0.9999999999999998
 40
0.5773502691896257
 41
3.821266472497731
 42
5.603511488271046
  0
ELLIPSE
  5
D41
330
D05
100
AcDbEntity
  8
0
100
AcDbEllipse
 10
-39.95153313703993
 20
36.53822199651572
 30
0.0
 11
2.249999999999765
 21
3.897114317030109
 31
0.0
210
0.0
220
0.0
230
1.0
 40
0.5773502691896258
 41
3.821266472497736
 42
5.603511488271043
  0
ELLIPSE
  5
D42
330
D05
100
AcDbEntity
  8
0
100
AcDbEllipse
 10
-8.838834764831842
 20
61.84961600527522
 30
0.0
 11
2.25
 21
3.897114317029977
 31
0.0
210
0.0
220
0.0
230
0.9999999999999998
 40
0.5773502691896253
 41
0.0
 42
6.283185307179586
  0
ELLIPSE
  5
D43
330
D05
100
AcDbEntity
  8
0
100
AcDbEllipse
 10
-37.12310601229373
 20
34.90522883466026
 30
0.0
 11
2.25
 21
3.897114317029977
 31
0.0
210
0.0
220
0.0
230
0.9999999999999998
 40
0.5773502691896253
 41
0.0
 42
6.283185307179586
  0
ELLIPSE
  5
D44
330
D05
100
AcDbEntity
  8
0
100
AcDbEllipse
 10
-18.73832970144349
 20
65.11560232898614
 30
0.0
 11
1.499999999999999
 21
2.598076211353317
 31
0.0
210
0.0
220
0.0
230
1.0
 40
0.5773502691896255
 41
4.372552070930559
 42
5.052225889838818
  0
ELLIPSE
  5
D45
330
D05
100
AcDbEntity
  8
0
100
AcDbEllipse
 10
-32.88046532517443
 20
56.95063651970887
 30
0.0
 11
1.499999999999999
 21
2.598076211353317
 31
0.0
210
0.0
220
0.0
230
1.0
 40
0.5773502691896255
 41
4.372552070930568
 42
5.052225889838812
  0
ELLIPSE
  5
D46
330
D05
100
AcDbEntity
  8
0
100
AcDbEllipse
 10
-47.02260094890537
 20
48.78567071043161
 30
0.0
 11
1.499999999999999
 21
2.598076211353317
 31
0.0
210
0.0
220
0.0
230
1.0
 40
0.5773502691896255
 41
4.37255207093057
 42
5.052225889838812
  0
ELLIPSE
  5
D47
330
D05
100
AcDbEntity
  8
0
100
AcDbEllipse
 10
-25.80939751330896
 20
44.70318780579297
 30
0.0
 11
1.499999999999999
 21
2.598076211353317
 31
0.0
210
0.0
220
0.0
230
1.0
 40
0.5773502691896257
 41
4.372552070930556
 42
5.052225889838821
  0
ELLIPSE
  5
D48
330
D05
100
AcDbEntity
  8
0
100
AcDbEllipse
 10
-8.131727983645259
 20
54.90939506738953
 30
0.0
 11
1.499999999999999
 21
2.598076211353316
 31
0.0
210
0.0
220
0.0
230
1.0
 40
0.5773502691896258
 41
4.372552070930543
 42
5.052225889838838
  0
ELLIPSE
  5
D49
330
D05
100
AcDbEntity
  8
0
100
AcDbEllipse
 10
-15.90990257669729
 20
63.48260916713067
 30
0.0
 11
1.500000000000003
 21
2.598076211353322
 31
0.0
210
0.0
220
0.0
230
1.0
 40
0.5773502691896255
 41
0.0
 42
6.283185307179586
  0
ELLIPSE
  5
D4A
330
D05
100
AcDbEntity
  8
0
100
AcDbEllipse
 10
-30.05203820042825
 20
55.31764335785341
 30
0.0
 11
1.499999999999998
 21
2.598076211353314
 31
0.0
210
0.0
220
0.0
230
1.0
 40
0.5773502691896255
 41
0.0
 42
6.283185307179586
  0
ELLIPSE
  5
D4B
330
D05
100
AcDbEntity
  8
0
100
AcDbEllipse
 10
-44.19417382415918
 20
47.15267754857615
 30
0.0
 11
1.500000000000001
 21
2.59807621135332
 31
0.0
210
0.0
220
0.0
230
1.0
 40
0.5773502691896255
 41
0.0
 42
6.283185307179586
  0
ELLIPSE
  5
D4C
330
D05
100
AcDbEntity
  8
0
100
AcDbEllipse
 10
-22.98097038856277
 20
43.07019464393754
 30
0.0
 11
1.500000000000003
 21
2.598076211353325
 31
0.0
210
0.0
220
0.0
230
1.0
 40
0.5773502691896257
 41
0.0
 42
6.283185307179586
  0
ELLIPSE
  5
D4D
330
D05
100
AcDbEntity
  8
0
100
AcDbEllipse
 10
-5.303300858899091
 20
53.2764019055341
 30
0.0
 11
1.500000000000001
 21
2.598076211353321
 31
0.0
210
0.0
220
0.0
230
0.9999999999999998
 40
0.5773502691896254
 41
0.0
 42
6.283185307179586
  0
ELLIPSE
  5
D4E
330
D05
100
AcDbEntity
  8
0
100
AcDbEllipse
 10
-27.5771644662753
 20
27.3526354610788
 30
0.0
 11
2.749999999999714
 21
4.76313972081458
 31
0.0
210
0.0
220
0.0
230
1.0
 40
0.5773502691896254
 41
3.681736631265618
 42
5.743041329503017
  0
ELLIPSE
  5
D4F
330
D05
100
AcDbEntity
  8
0
100
AcDbEllipse
 10
-24.74873734152914
 20
25.71964229922336
 30
0.0
 11
2.750000000000003
 21
4.763139720814423
 31
0.0
210
0.0
220
0.0
230
0.9999999999999998
 40
0.5773502691896252
 41
0.0
 42
6.283185307179586
  0
LINE
  5
D50
330
D05
100
AcDbEntity
  8
0
100
AcDbLine
 10
-52.32590180780448
 20
49.80629143659129
 30
0.0
 11
-52.32590180780452
 21
-43.27431878916953
 31
0.0
  0
LINE
  5
D51
330
D05
100
AcDbEntity
  8
0
100
AcDbLine
 10
-7.778174593052034
 20
81.24140980230871
 30
0.0
 11
-47.37615433949864
 21
58.37950553633238
 31
0.0
  0
LINE
  5
D52
330
D05
100
AcDbEntity
  8
0
100
AcDbLine
 10
0.0
 20
19.59591794226538
 30
0.0
 11
0.0
 21
-73.48469228349538
 31
0.0
  0
LINE
  5
D53
330
D05
100
AcDbEntity
  8
0
100
AcDbLine
 10
44.54772721475243
 20
51.03103630798286
 30
0.0
 11
4.949747468305774
 21
28.16913204200652
 31
0.0
  0
LINE
  5
D54
330
D05
100
AcDbEntity
  8
0
100
AcDbLine
 10
-46.66904755831213
 20
-53.07227776030223
 30
0.0
 11
-2.828427124746184
 21
-78.38367176906174
 31
0.0
  0
LINE
  5
D55
330
D05
100
AcDbEntity
  8
0
100
AcDbLine
 10
52.32590180780444
 20
46.54030511288034
 30
0.0
 11
52.32590180780447
 21
-46.54030511288041
 31
0.0
  0
LINE
  5
D56
330
D05
100
AcDbEntity
  8
0
100
AcDbLine
 10
7.778174593051967
 20
26.53613888015107
 30
0.0
 11
47.37615433949861
 21
49.39804314612739
 31
0.0
  0
LINE
  5
D57
330
D05
100
AcDbEntity
  8
0
100
AcDbLine
 10
2.828427124746175
 20
-75.11768544535083
 30
0.0
 11
2.828427124746135
 21
17.96292478040993
 31
0.0
  0
LINE
  5
D58
330
D05
100
AcDbEntity
  8
0
100
AcDbLine
 10
-2.828427124746184
 20
-75.11768544535084
 30
0.0
 11
-46.66904755831213
 21
-49.80629143659133
 31
0.0
  0
LINE
  5
D59
330
D05
100
AcDbEntity
  8
0
100
AcDbLine
 10
0.0
 20
76.75067860720623
 30
0.0
 11
0.0
 21
19.59591794226547
 31
0.0
  0
LINE
  5
D5A
330
D05
100
AcDbEntity
  8
0
100
AcDbLine
 10
-44.54772721475245
 20
56.74651237447692
 30
0.0
 11
-4.94974746830584
 21
79.60841664045325
 31
0.0
  0
LINE
  5
D5B
330
D05
100
AcDbEntity
  8
0
100
AcDbLine
 10
-49.49747468305833
 20
-44.90731195102497
 30
0.0
 11
-49.4974746830583
 21
48.17329827473582
 31
0.0
  0
LINE
  5
D5C
330
D05
100
AcDbEntity
  8
0
100
AcDbLine
 10
-47.37615433949864
 20
58.37950553633238
 30
0.0
 11
-52.32590180780448
 21
49.80629143659129
 31
0.0
  0
LINE
  5
D5D
330
D05
100
AcDbEntity
  8
0
100
AcDbLine
 10
4.949747468305774
 20
28.16913204200652
 30
0.0
 11
0.0
 21
19.59591794226538
 31
0.0
  0
LINE
  5
D5E
330
D05
100
AcDbEntity
  8
0
100
AcDbLine
 10
47.37615433949861
 20
49.39804314612739
 30
0.0
 11
52.32590180780444
 21
46.54030511288034
 31
0.0
  0
LINE
  5
D5F
330
D05
100
AcDbEntity
  8
0
100
AcDbLine
 10
2.828427124746135
 20
17.96292478040992
 30
0.0
 11
7.778174593051967
 21
26.53613888015107
 31
0.0
  0
LINE
  5
D60
330
D05
100
AcDbEntity
  8
0
100
AcDbLine
 10
-4.94974746830584
 20
79.60841664045325
 30
0.0
 11
0.0
 21
76.75067860720623
 31
0.0
  0
LINE
  5
D61
330
D05
100
AcDbEntity
  8
0
100
AcDbLine
 10
-49.4974746830583
 20
48.17329827473584
 30
0.0
 11
-44.54772721475245
 21
56.74651237447692
 31
0.0
  0
LINE
  5
D62
330
D05
100
AcDbEntity
  8
0
100
AcDbLine
 10
-44.54772721475245
 20
56.74651237447692
 30
0.0
 11
-47.37615433949864
 21
58.37950553633238
 31
0.0
  0
LINE
  5
D63
330
D05
100
AcDbEntity
  8
0
100
AcDbLine
 10
-52.32590180780448
 20
49.80629143659129
 30
0.0
 11
-49.4974746830583
 21
48.17329827473584
 31
0.0
  0
LINE
  5
D64
330
D05
100
AcDbEntity
  8
0
100
AcDbLine
 10
-7.778174593052034
 20
81.24140980230871
 30
0.0
 11
-4.94974746830584
 21
79.60841664045325
 31
0.0
  0
LINE
  5
D65
330
D05
100
AcDbEntity
  8
0
100
AcDbLine
 10
0.0
 20
19.59591794226538
 30
0.0
 11
2.828427124746135
 21
17.96292478040992
 31
0.0
  0
LINE
  5
D66
330
D05
100
AcDbEntity
  8
0
100
AcDbLine
 10
7.778174593051967
 20
26.53613888015107
 30
0.0
 11
4.949747468305774
 21
28.16913204200652
 31
0.0
  0
LINE
  5
D67
330
D05
100
AcDbEntity
  8
0
100
AcDbLine
 10
44.54772721475243
 20
51.03103630798286
 30
0.0
 11
47.37615433949861
 21
49.39804314612739
 31
0.0
  0
LINE
  5
D68
330
D05
100
AcDbEntity
  8
0
100
AcDbLine
 10
34.29467888754757
 20
-56.94648871707778
 30
0.0
 11
23.91349467914583
 21
-50.95290921984993
 31
0.0
  0
LINE
  5
D69
330
D05
100
AcDbEntity
  8
0
100
AcDbLine
 10
39.95153313703996
 20
-53.68465019599799
 30
0.0
 11
39.95512523948838
 21
-53.68257629468243
 31
0.0
  0
LINE
  5
D6A
330
D05
100
AcDbEntity
  8
0
100
AcDbLine
 10
37.12669811474218
 20
-52.04958313282698
 30
0.0
 11
37.12669811474218
 21
-43.32426265945092
 31
0.0
  0
LINE
  5
D6B
330
D05
100
AcDbEntity
  8
0
100
AcDbLine
 10
34.29467888754758
 20
-53.68465019599799
 30
0.0
 11
34.29827098999599
 21
-53.68257629468243
 31
0.0
  0
LINE
  5
D6C
330
D05
100
AcDbEntity
  8
0
100
AcDbLine
 10
37.12669811474218
 20
-52.04958313282698
 30
0.0
 11
37.12310601229377
 21
-52.05165703414253
 31
0.0
  0
LINE
  5
D6D
330
D05
100
AcDbEntity
  8
0
100
AcDbLine
 10
0.0
 20
-62.46613624360212
 30
0.0
 11
-3.189164720236251
 21
-60.62487113388367
 31
0.0
  0
LINE
  5
D6E
330
D05
100
AcDbEntity
  8
0
100
AcDbLine
 10
-3.189164720236251
 20
-60.62487113388367
 30
0.0
 11
-3.185572617787823
 21
-60.62279723256811
 31
0.0
  0
LINE
  5
D6F
330
D05
100
AcDbEntity
  8
0
100
AcDbLine
 10
-3.185572617787823
 20
-60.62279723256811
 30
0.0
 11
-3.181980515339395
 21
-60.62487113388367
 31
0.0
  0
LINE
  5
D70
330
D05
100
AcDbEntity
  8
0
100
AcDbLine
 10
-3.181980515339395
 20
-60.62487113388367
 30
0.0
 11
-0.3535533905932064
 21
-58.99187797202822
 31
0.0
  0
LINE
  5
D71
330
D05
100
AcDbEntity
  8
0
100
AcDbLine
 10
26.74192180389189
 20
-49.31991605799442
 30
0.0
 11
34.29827098999599
 21
-53.68257629468243
 31
0.0
  0
LINE
  5
D72
330
D05
100
AcDbEntity
  8
0
100
AcDbLine
 10
15.19920369306237
 20
-67.97541426354875
 30
0.0
 11
15.20279579551079
 21
-67.9733403622332
 31
0.0
  0
LINE
  5
D73
330
D05
100
AcDbEntity
  8
0
100
AcDbLine
 10
15.19920369306237
 20
-67.97541426354875
 30
0.0
 11
15.19920369306236
 21
-53.27432800421849
 31
0.0
  0
LINE
  5
D74
330
D05
100
AcDbEntity
  8
0
100
AcDbLine
 10
15.19920369306236
 20
-53.27432800421849
 30
0.0
 11
15.20279579551079
 21
-53.27225410290295
 31
0.0
  0
LINE
  5
D75
330
D05
100
AcDbEntity
  8
0
100
AcDbLine
 10
15.20279579551079
 20
-53.27225410290295
 30
0.0
 11
15.20279579551078
 21
-53.27640190553404
 31
0.0
  0
LINE
  5
D76
330
D05
100
AcDbEntity
  8
0
100
AcDbLine
 10
15.20279579551078
 20
-53.27640190553404
 30
0.0
 11
39.95153313703994
 21
-38.98771173929884
 31
0.0
  0
LINE
  5
D77
330
D05
100
AcDbEntity
  8
0
100
AcDbLine
 10
39.95153313703994
 20
-38.98771173929884
 30
0.0
 11
39.95153313703994
 21
-38.98356393666773
 31
0.0
  0
LINE
  5
D78
330
D05
100
AcDbEntity
  8
0
100
AcDbLine
 10
39.95153313703994
 20
-38.98356393666773
 30
0.0
 11
39.95512523948837
 21
-38.98149003535218
 31
0.0
  0
LINE
  5
D79
330
D05
100
AcDbEntity
  8
0
100
AcDbLine
 10
39.95512523948837
 20
-38.98149003535218
 30
0.0
 11
39.95512523948838
 21
-53.68257629468243
 31
0.0
  0
LINE
  5
D7A
330
D05
100
AcDbEntity
  8
0
100
AcDbLine
 10
-0.3535533905932087
 20
-54.09289848646181
 30
0.0
 11
0.0
 21
-54.29702263169368
 31
0.0
  0
ELLIPSE
  5
D7B
330
D05
100
AcDbEntity
  8
0
100
AcDbEllipse
 10
5.303300858899103
 20
-57.35888481017268
 30
0.0
 11
4.000000000000399
 21
-6.928203230275291
 31
0.0
210
0.0
220
0.0
230
1.0
 40
0.5773502691896237
 41
3.571569615296613
 42
3.9269908169869
  0
ELLIPSE
  5
D7C
330
D05
100
AcDbEntity
  8
0
100
AcDbEllipse
 10
-3.18198051533939
 20
-57.35888481017277
 30
0.0
 11
1.999999999999998
 21
-3.464101615137758
 31
0.0
210
0.0
220
0.0
230
1.0
 40
0.5773502691896253
 41
5.497787143782137
 42
7.068583470577037
  0
LINE
  5
D7D
330
D05
100
AcDbEntity
  8
0
100
AcDbLine
 10
0.0
 20
-59.19600211726012
 30
0.0
 11
-0.353553390593202
 21
-58.99187797202824
 31
0.0
  0
LINE
  5
D7E
330
D05
100
AcDbEntity
  8
0
100
AcDbLine
 10
-3.181980515339395
 20
-60.62487113388367
 30
0.0
 11
-3.181980515339395
 21
-60.62901893651478
 31
0.0
  0
LINE
  5
D7F
330
D05
100
AcDbEntity
  8
0
100
AcDbLine
 10
-3.185572617787823
 20
-60.62694503519923
 30
0.0
 11
-3.185572617787823
 21
-60.62279723256811
 31
0.0
  0
ELLIPSE
  5
D80
330
D05
100
AcDbEntity
  8
0
100
AcDbEllipse
 10
34.29467888754756
 20
-35.72172541558793
 30
0.0
 11
4.000000000000001
 21
-6.928203230275508
 31
0.0
210
0.0
220
0.0
230
1.0
 40
0.5773502691896254
 41
0.0
 42
0.7853981633974492
  0
ELLIPSE
  5
D81
330
D05
100
AcDbEntity
  8
0
100
AcDbEllipse
 10
9.545941546018404
 20
-50.01041558182315
 30
0.0
 11
4.000000000000001
 21
-6.928203230275508
 31
0.0
210
0.0
220
0.0
230
1.0
 40
0.5773502691896254
 41
0.7497592179712243
 42
0.7853981633974474
  0
LINE
  5
D82
330
D05
100
AcDbEntity
  8
0
100
AcDbLine
 10
15.20279579551078
 20
-53.27640190553404
 30
0.0
 11
15.19920369306236
 21
-53.27432800421849
 31
0.0
  0
LINE
  5
D83
330
D05
100
AcDbEntity
  8
0
100
AcDbLine
 10
37.12669811474218
 20
-52.04958313282698
 30
0.0
 11
39.95512523948838
 21
-53.68257629468243
 31
0.0
  0
LINE
  5
D84
330
D05
100
AcDbEntity
  8
0
100
AcDbLine
 10
-0.353553390593202
 20
-58.99187797202824
 30
0.0
 11
-0.3535533905932087
 21
-54.09289848646181
 31
0.0
  0
LINE
  5
D85
330
D05
100
AcDbEntity
  8
0
100
AcDbLine
 10
15.19920369306236
 20
-55.9841074664618
 30
0.0
 11
38.29467888754756
 21
-42.64992864586344
 31
0.0
  0
ELLIPSE
  5
D86
330
D05
100
AcDbEntity
  8
0
100
AcDbEllipse
 10
-1.06066017177984
 20
-50.82691216275097
 30
0.0
 11
-8.500000000000001
 21
0.0000000000000009
 31
0.0
210
0.0
220
0.0
230
1.0
 40
0.5773502691896259
 41
4.587279307695931
 42
5.943960545643724
  0
ELLIPSE
  5
D87
330
D05
100
AcDbEntity
  8
0
100
AcDbEllipse
 10
1.060660171779804
 20
-48.78567071043165
 30
0.0
 11
-8.499999999999998
 21
-0.0000000000000004
 31
0.0
210
0.0
220
0.0
230
1.0
 40
0.5773502691896261
 41
0.7853981633974474
 42
1.405430240076018
  0
LINE
  5
D88
330
D05
100
AcDbEntity
  8
0
100
AcDbLine
 10
-4.94974746830585
 20
-52.25578117937449
 30
0.0
 11
-7.071067811865491
 21
-51.0310363079829
 31
0.0
  0
ELLIPSE
  5
D89
330
D05
100
AcDbEntity
  8
0
100
AcDbEllipse
 10
-1.06066017177984
 20
-47.56092583904006
 30
0.0
 11
-8.5
 21
0.0
 31
0.0
210
0.0
220
0.0
230
1.0
 40
0.5773502691896259
 41
4.58727930769593
 42
7.068583470577033
  0
LINE
  5
D8A
330
D05
100
AcDbEntity
  8
0
100
AcDbLine
 10
39.95512523948838
 20
-53.68257629468243
 30
0.0
 11
42.25142622712041
 21
-52.35680630133266
 31
0.0
  0
LINE
  5
D8B
330
D05
100
AcDbEntity
  8
0
100
AcDbLine
 10
34.29827098999599
 20
-53.68257629468243
 30
0.0
 11
36.59457197762804
 21
-52.35680630133266
 31
0.0
  0
LINE
  5
D8C
330
D05
100
AcDbEntity
  8
0
100
AcDbLine
 10
12.90290270543023
 20
-69.30118425689856
 30
0.0
 11
15.19920369306237
 21
-67.97541426354875
 31
0.0
  0
LINE
  5
D8D
330
D05
100
AcDbEntity
  8
0
100
AcDbLine
 10
2.828427124746175
 20
-75.11768544535083
 30
0.0
 11
5.124728112378216
 21
-73.79191545200106
 31
0.0
  0
ELLIPSE
  5
D8E
330
D05
100
AcDbEntity
  8
0
100
AcDbEllipse
 10
-2.828427124746211
 20
-71.85169912163992
 30
0.0
 11
4.000000000000023
 21
-6.928203230275499
 31
0.0
210
0.0
220
0.0
230
1.0
 40
0.5773502691896235
 41
5.497787143782137
 42
7.068583470577032
  0
LINE
  5
D8F
330
D05
100
AcDbEntity
  8
0
100
AcDbLine
 10
50.02960082017245
 20
-47.86607510623016
 30
0.0
 11
52.32590180780447
 21
-46.54030511288041
 31
0.0
  0
LINE
  5
D90
330
D05
100
AcDbEntity
  8
0
100
AcDbLine
 10
-2.828427124746184
 20
-75.11768544535084
 30
0.0
 11
-0.5321261371141662
 21
-73.79191545200106
 31
0.0
  0
ELLIPSE
  5
D91
330
D05
100
AcDbEntity
  8
0
100
AcDbEllipse
 10
-2.828427124746211
 20
-71.85169912163992
 30
0.0
 11
2.0
 21
-3.464101615137754
 31
0.0
210
0.0
220
0.0
230
1.0
 40
0.5773502691896259
 41
5.49778714378214
 42
7.068583470577036
  0
ELLIPSE
  5
D92
330
D05
100
AcDbEntity
  8
0
100
AcDbEllipse
 10
46.6690475583121
 20
-43.2743187891695
 30
0.0
 11
3.999999999999992
 21
-6.928203230275515
 31
0.0
210
0.0
220
0.0
230
1.0
 40
0.5773502691896243
 41
0.0
 42
0.7853981633974448
  0
LINE
  5
D93
330
D05
100
AcDbEntity
  8
0
100
AcDbLine
 10
0.0
 20
-73.48469228349538
 30
0.0
 11
2.828427124746175
 21
-75.11768544535083
 31
0.0
  0
LINE
  5
D94
330
D05
100
AcDbEntity
  8
0
100
AcDbLine
 10
-2.828427124746184
 20
-78.38367176906174
 30
0.0
 11
-2.828427124746184
 21
-75.11768544535084
 31
0.0
  0
LINE
  5
D95
330
D05
100
AcDbEntity
  8
0
100
AcDbLine
 10
40.59457197762805
 20
-56.01902320789726
 30
0.0
 11
38.29467888754757
 21
-57.34686710256259
 31
0.0
  0
LINE
  5
D96
330
D05
100
AcDbEntity
  8
0
100
AcDbLine
 10
13.54594154601841
 20
-71.6355572687978
 30
0.0
 11
11.84996259923629
 21
-72.6147311702624
 31
0.0
  0
LINE
  5
D97
330
D05
100
AcDbEntity
  8
0
100
AcDbLine
 10
3.467873862885846
 20
-77.45413235856566
 30
0.0
 11
1.171572875253805
 21
-78.77990235191544
 31
0.0
  0
LINE
  5
D98
330
D05
100
AcDbEntity
  8
0
100
AcDbLine
 10
50.66904755831209
 20
-50.20252201944502
 30
0.0
 11
48.97666071397852
 21
-51.17962201959397
 31
0.0
  0
ELLIPSE
  5
D99
330
D05
100
AcDbEntity
  8
0
100
AcDbEllipse
 10
34.29467888754757
 20
-50.41866387228708
 30
0.0
 11
3.999999999999996
 21
-6.928203230275513
 31
0.0
210
0.0
220
0.0
230
1.0
 40
0.577350269189625
 41
5.497787143782137
 42
7.068583470577034
  0
ELLIPSE
  5
D9A
330
D05
100
AcDbEntity
  8
0
100
AcDbEllipse
 10
34.29467888754757
 20
-50.41866387228708
 30
0.0
 11
1.999999999999996
 21
-3.464101615137757
 31
0.0
210
0.0
220
0.0
230
1.0
 40
0.5773502691896252
 41
5.49778714378214
 42
7.068583470577031
  0
ELLIPSE
  5
D9B
330
D05
100
AcDbEntity
  8
0
100
AcDbEllipse
 10
9.545941546018408
 20
-64.7073540385223
 30
0.0
 11
3.999999999999998
 21
-6.928203230275513
 31
0.0
210
0.0
220
0.0
230
1.0
 40
0.5773502691896243
 41
0.0
 42
0.7853981633974457
  0
ELLIPSE
  5
D9C
330
D05
100
AcDbEntity
  8
0
100
AcDbEllipse
 10
-34.29467888754752
 20
-39.39596002976279
 30
0.0
 11
-1.999999999999796
 21
3.464101615137873
 31
0.0
210
0.0
220
0.0
230
1.0
 40
0.5773502691896262
 41
0.7853981633976908
 42
2.356194490192585
  0
LINE
  5
D9D
330
D05
100
AcDbEntity
  8
0
100
AcDbLine
 10
34.29467888754758
 20
-53.68465019599799
 30
0.0
 11
34.29467888754757
 21
-56.95063651970889
 31
0.0
  0
LINE
  5
D9E
330
D05
100
AcDbEntity
  8
0
100
AcDbLine
 10
15.20279579551079
 20
-67.9733403622332
 30
0.0
 11
15.19920369306237
 21
-67.97126646091765
 31
0.0
  0
LINE
  5
D9F
330
D05
100
AcDbEntity
  8
0
100
AcDbLine
 10
39.95153313703996
 20
-53.68465019599799
 30
0.0
 11
37.12310601229377
 21
-52.05165703414253
 31
0.0
  0
LINE
  5
DA0
330
D05
100
AcDbEntity
  8
0
100
AcDbLine
 10
-34.29467888754752
 20
-42.66609415610481
 30
0.0
 11
-34.29467888754751
 21
-42.66194635347368
 31
0.0
  0
LINE
  5
DA1
330
D05
100
AcDbEntity
  8
0
100
AcDbLine
 10
-37.12669811474214
 20
-37.76089296659179
 30
0.0
 11
-37.12310601229371
 21
-37.76296686790735
 31
0.0
  0
ELLIPSE
  5
DA2
330
D05
100
AcDbEntity
  8
0
100
AcDbEllipse
 10
8.838834764831789
 20
14.90106260193095
 30
0.0
 11
2.249999999999763
 21
3.897114317030103
 31
0.0
210
0.0
220
0.0
230
1.0
 40
0.5773502691896255
 41
3.821266472497731
 42
5.60351148827105
  0
ELLIPSE
  5
DA3
330
D05
100
AcDbEntity
  8
0
100
AcDbEllipse
 10
37.12310601229368
 20
20.61653866842506
 30
0.0
 11
2.249999999999765
 21
3.897114317030105
 31
0.0
210
0.0
220
0.0
230
1.0
 40
0.5773502691896257
 41
3.821266472497736
 42
5.603511488271043
  0
ELLIPSE
  5
DA4
330
D05
100
AcDbEntity
  8
0
100
AcDbEllipse
 10
11.66726188957796
 20
13.26806944007551
 30
0.0
 11
-2.249999999999997
 21
-3.897114317029975
 31
0.0
210
0.0
220
0.0
230
1.0
 40
0.5773502691896258
 41
0.0
 42
6.283185307179586
  0
ELLIPSE
  5
DA5
330
D05
100
AcDbEntity
  8
0
100
AcDbEllipse
 10
39.95153313703987
 20
18.98354550656961
 30
0.0
 11
-2.249999999999997
 21
-3.897114317029975
 31
0.0
210
0.0
220
0.0
230
1.0
 40
0.5773502691896258
 41
0.0
 42
6.283185307179586
  0
ELLIPSE
  5
DA6
330
D05
100
AcDbEntity
  8
0
100
AcDbEllipse
 10
15.90990257669725
 20
24.69902157306369
 30
0.0
 11
1.499999999999994
 21
2.598076211353309
 31
0.0
210
0.0
220
0.0
230
0.9999999999999998
 40
0.5773502691896257
 41
4.372552070930554
 42
5.052225889838818
  0
ELLIPSE
  5
DA7
330
D05
100
AcDbEntity
  8
0
100
AcDbEllipse
 10
30.05203820042821
 20
32.86398738234097
 30
0.0
 11
1.499999999999998
 21
2.598076211353314
 31
0.0
210
0.0
220
0.0
230
1.0
 40
0.5773502691896257
 41
4.372552070930569
 42
5.052225889838814
  0
ELLIPSE
  5
DA8
330
D05
100
AcDbEntity
  8
0
100
AcDbEllipse
 10
44.19417382415915
 20
41.02895319161823
 30
0.0
 11
1.5
 21
2.59807621135332
 31
0.0
210
0.0
220
0.0
230
0.9999999999999998
 40
0.5773502691896258
 41
4.372552070930563
 42
5.052225889838808
  0
ELLIPSE
  5
DA9
330
D05
100
AcDbEntity
  8
0
100
AcDbEllipse
 10
5.303300858899051
 20
2.245365597551209
 30
0.0
 11
1.499999999999993
 21
2.598076211353308
 31
0.0
210
0.0
220
0.0
230
0.9999999999999998
 40
0.5773502691896259
 41
4.37255207093055
 42
5.052225889838831
  0
ELLIPSE
  5
DAA
330
D05
100
AcDbEntity
  8
0
100
AcDbEllipse
 10
22.98097038856273
 20
12.45157285914779
 30
0.0
 11
1.499999999999995
 21
2.598076211353312
 31
0.0
210
0.0
220
0.0
230
1.0
 40
0.5773502691896258
 41
4.372552070930546
 42
5.052225889838824
  0
ELLIPSE
  5
DAB
330
D05
100
AcDbEntity
  8
0
100
AcDbEllipse
 10
18.73832970144343
 20
23.06602841120824
 30
0.0
 11
-1.499999999999998
 21
-2.598076211353317
 31
0.0
210
0.0
220
0.0
230
0.9999999999999998
 40
0.5773502691896258
 41
0.0
 42
6.283185307179586
  0
ELLIPSE
  5
DAC
330
D05
100
AcDbEntity
  8
0
100
AcDbEllipse
 10
32.8804653251744
 20
31.23099422048551
 30
0.0
 11
-1.499999999999998
 21
-2.598076211353317
 31
0.0
210
0.0
220
0.0
230
0.9999999999999998
 40
0.5773502691896258
 41
0.0
 42
6.283185307179586
  0
ELLIPSE
  5
DAD
330
D05
100
AcDbEntity
  8
0
100
AcDbEllipse
 10
47.02260094890534
 20
39.39596002976277
 30
0.0
 11
-1.499999999999998
 21
-2.598076211353317
 31
0.0
210
0.0
220
0.0
230
0.9999999999999998
 40
0.5773502691896258
 41
0.0
 42
6.283185307179586
  0
ELLIPSE
  5
DAE
330
D05
100
AcDbEntity
  8
0
100
AcDbEllipse
 10
8.131727983645218
 20
0.6123724356957716
 30
0.0
 11
-1.499999999999998
 21
-2.598076211353317
 31
0.0
210
0.0
220
0.0
230
0.9999999999999998
 40
0.5773502691896258
 41
0.0
 42
6.283185307179586
  0
ELLIPSE
  5
DAF
330
D05
100
AcDbEntity
  8
0
100
AcDbEllipse
 10
25.80939751330891
 20
10.81857969729235
 30
0.0
 11
-1.499999999999998
 21
-2.598076211353317
 31
0.0
210
0.0
220
0.0
230
0.9999999999999998
 40
0.5773502691896258
 41
0.0
 42
6.283185307179586
  0
ELLIPSE
  5
DB0
330
D05
100
AcDbEntity
  8
0
100
AcDbEllipse
 10
24.74873734152911
 20
-2.857738033247088
 30
0.0
 11
2.749999999999711
 21
4.763139720814573
 31
0.0
210
0.0
220
0.0
230
1.0
 40
0.5773502691896255
 41
3.68173663126562
 42
5.743041329503014
  0
ELLIPSE
  5
DB1
330
D05
100
AcDbEntity
  8
0
100
AcDbEllipse
 10
27.57716446627528
 20
-4.490731195102526
 30
0.0
 11
-2.749999999999996
 21
-4.763139720814415
 31
0.0
210
0.0
220
0.0
230
1.0
 40
0.5773502691896258
 41
0.0
 42
6.283185307179586
  0
LINE
  5
DB2
330
D05
100
AcDbEntity
  8
0
100
AcDbLine
 10
0.0
 20
-37.55884272267537
 30
0.0
 11
-21.56675682618969
 21
-50.01041558182319
 31
0.0
  0
LINE
  5
DB3
330
D05
100
AcDbEntity
  8
0
100
AcDbLine
 10
-21.56675682618969
 20
-50.01041558182319
 30
0.0
 11
-21.56316472374126
 21
-50.01248948313875
 31
0.0
  0
LINE
  5
DB4
330
D05
100
AcDbEntity
  8
0
100
AcDbLine
 10
-21.56316472374126
 20
-50.01248948313875
 30
0.0
 11
-21.56675682618969
 21
-50.0145633844543
 31
0.0
  0
LINE
  5
DB5
330
D05
100
AcDbEntity
  8
0
100
AcDbLine
 10
-21.56675682618969
 20
-50.0145633844543
 30
0.0
 11
-34.29827098999594
 21
-42.66402025478924
 31
0.0
  0
LINE
  5
DB6
330
D05
100
AcDbEntity
  8
0
100
AcDbLine
 10
-34.29467888754751
 20
-42.66194635347368
 30
0.0
 11
-34.29827098999594
 21
-42.66402025478924
 31
0.0
  0
LINE
  5
DB7
330
D05
100
AcDbEntity
  8
0
100
AcDbLine
 10
-24.39518395093589
 20
-45.11143609625683
 30
0.0
 11
-27.22361107568209
 21
-43.47844293440139
 31
0.0
  0
LINE
  5
DB8
330
D05
100
AcDbEntity
  8
0
100
AcDbLine
 10
-27.22361107568201
 20
-38.57946344883494
 30
0.0
 11
-24.39518395093581
 21
-40.21245661069038
 31
0.0
  0
LINE
  5
DB9
330
D05
100
AcDbEntity
  8
0
100
AcDbLine
 10
0.0
 20
-31.02687007525356
 30
0.0
 11
-24.39518395093589
 21
-45.11143609625683
 31
0.0
  0
LINE
  5
DBA
330
D05
100
AcDbEntity
  8
0
100
AcDbLine
 10
-24.39518395093581
 20
-40.21245661069038
 30
0.0
 11
0.0
 21
-26.1278905896871
 31
0.0
  0
ELLIPSE
  5
DBB
330
D05
100
AcDbEntity
  8
0
100
AcDbEllipse
 10
-30.05203820042821
 20
-36.94647028697956
 30
0.0
 11
3.999999999999607
 21
-6.928203230275745
 31
0.0
210
0.0
220
0.0
230
1.0
 40
0.5773502691896275
 41
0.7853981633977006
 42
2.356194490192596
  0
LINE
  5
DBC
330
D05
100
AcDbEntity
  8
0
100
AcDbLine
 10
-30.05203820042828
 20
-33.68048396326861
 30
0.0
 11
-30.05203820042828
 21
-30.41449763955772
 31
0.0
  0
ELLIPSE
  5
DBD
330
D05
100
AcDbEntity
  8
0
100
AcDbEllipse
 10
-30.05203820042821
 20
-36.94647028697956
 30
0.0
 11
1.999999999999804
 21
-3.464101615137873
 31
0.0
210
0.0
220
0.0
230
1.0
 40
0.5773502691896275
 41
0.7853981633977112
 42
2.356194490192606
  0
ELLIPSE
  5
DBE
330
D05
100
AcDbEntity
  8
0
100
AcDbEllipse
 10
-5.30330085889914
 20
-22.65778012074431
 30
0.0
 11
3.999999999999606
 21
-6.928203230275745
 31
0.0
210
0.0
220
0.0
230
1.0
 40
0.5773502691896275
 41
1.140819365087828
 42
2.356194490192596
  0
LINE
  5
DBF
330
D05
100
AcDbEntity
  8
0
100
AcDbLine
 10
-30.05203820042828
 20
-30.41449763955772
 30
0.0
 11
-5.303300858899189
 21
-16.12580747332245
 31
0.0
  0
ELLIPSE
  5
DC0
330
D05
100
AcDbEntity
  8
0
100
AcDbEllipse
 10
-21.5667568261897
 20
-46.74442925811229
 30
0.0
 11
-1.999999999999795
 21
3.464101615137873
 31
0.0
210
0.0
220
0.0
230
1.0
 40
0.5773502691896262
 41
0.7853981633976872
 42
2.356194490192585
  0
ELLIPSE
  5
DC1
330
D05
100
AcDbEntity
  8
0
100
AcDbEllipse
 10
-21.5667568261897
 20
-46.74442925811229
 30
0.0
 11
-4.000000000000005
 21
6.928203230275509
 31
0.0
210
0.0
220
0.0
230
1.0
 40
0.577350269189626
 41
0.7853981633974483
 42
1.309730329170493
  0
LINE
  5
DC2
330
D05
100
AcDbEntity
  8
0
100
AcDbLine
 10
-21.56675682618969
 20
-50.01041558182319
 30
0.0
 11
-21.56675682618969
 21
-50.0145633844543
 31
0.0
  0
LINE
  5
DC3
330
D05
100
AcDbEntity
  8
0
100
AcDbLine
 10
-34.29827098999594
 20
-42.66402025478924
 30
0.0
 11
-36.59457197762808
 21
-43.98979024813907
 31
0.0
  0
ELLIPSE
  5
DC4
330
D05
100
AcDbEntity
  8
0
100
AcDbEllipse
 10
-46.66904755831213
 20
-46.54030511288041
 30
0.0
 11
-3.999999999999499
 21
6.9282032302758
 31
0.0
210
0.0
220
0.0
230
1.0
 40
0.5773502691896174
 41
0.7853981633976979
 42
2.356194490192594
  0
LINE
  5
DC5
330
D05
100
AcDbEntity
  8
0
100
AcDbLine
 10
-44.37274657068011
 20
-48.48052144324157
 30
0.0
 11
-46.66904755831213
 21
-49.80629143659133
 31
0.0
  0
LINE
  5
DC6
330
D05
100
AcDbEntity
  8
0
100
AcDbLine
 10
-2.296300987632045
 20
-17.6557016119043
 30
0.0
 11
0.0
 21
-16.32993161855456
 31
0.0
  0
LINE
  5
DC7
330
D05
100
AcDbEntity
  8
0
100
AcDbLine
 10
-49.49747468305833
 20
-44.90731195102497
 30
0.0
 11
-47.2011736954263
 21
-43.58154195767521
 31
0.0
  0
LINE
  5
DC8
330
D05
100
AcDbEntity
  8
0
100
AcDbLine
 10
-39.42299910237428
 20
-39.09081076257272
 30
0.0
 11
-37.12669811474214
 21
-37.7650407692229
 31
0.0
  0
ELLIPSE
  5
DC9
330
D05
100
AcDbEntity
  8
0
100
AcDbEllipse
 10
-46.66904755831213
 20
-46.54030511288041
 30
0.0
 11
2.000000000000163
 21
-3.464101615137659
 31
0.0
210
0.0
220
0.0
230
1.0
 40
0.5773502691896173
 41
3.926990816987007
 42
5.497787143781903
  0
LINE
  5
DCA
330
D05
100
AcDbEntity
  8
0
100
AcDbLine
 10
-46.66904755831213
 20
-49.80629143659133
 30
0.0
 11
-46.66904755831213
 21
-53.07227776030223
 31
0.0
  0
LINE
  5
DCB
330
D05
100
AcDbEntity
  8
0
100
AcDbLine
 10
-52.32590180780452
 20
-43.27431878916951
 30
0.0
 11
-49.49747468305833
 21
-44.90731195102497
 31
0.0
  0
LINE
  5
DCC
330
D05
100
AcDbEntity
  8
0
100
AcDbLine
 10
-36.59457197762808
 20
-43.98979024813907
 30
0.0
 11
0.0
 21
-65.11767623030177
 31
0.0
  0
ELLIPSE
  5
DCD
330
D05
100
AcDbEntity
  8
0
100
AcDbEllipse
 10
14.8120910146339
 20
-70.40345464115103
 30
0.0
 11
-2.7
 21
0.000000000000004
 31
0.0
210
0.0
220
0.0
230
1.0
 40
0.5773502691896267
 41
5.497787143782142
 42
6.188598686964291
  0
LINE
  5
DCE
330
D05
100
AcDbEntity
  8
0
100
AcDbLine
 10
12.90290270543021
 20
-10.51343043010231
 30
0.0
 11
12.90290270543023
 21
-69.30118425689856
 31
0.0
  0
ELLIPSE
  5
DCF
330
D05
100
AcDbEntity
  8
0
100
AcDbEllipse
 10
14.81209101463388
 20
-11.61570081435474
 30
0.0
 11
-2.7
 21
-0.0000000000000001
 31
0.0
210
0.0
220
0.0
230
1.0
 40
0.5773502691896259
 41
5.497787143782137
 42
6.188598686964288
  0
LINE
  5
DD0
330
D05
100
AcDbEntity
  8
0
100
AcDbLine
 10
12.1241599613523
 20
-70.25622845144669
 30
0.0
 11
12.1241599613523
 21
-11.46847462465039
 31
0.0
  0
LINE
  5
DD1
330
D05
100
AcDbEntity
  8
0
100
AcDbLine
 10
11.85619384883227
 20
-71.88699454570432
 30
0.0
 11
12.1241599613523
 21
-70.25622845144669
 31
0.0
  0
LINE
  5
DD2
330
D05
100
AcDbEntity
  8
0
100
AcDbLine
 10
12.1241599613523
 20
-11.4684746246504
 30
0.0
 11
11.85619384883227
 21
-13.09924071890803
 31
0.0
  0
LINE
  5
DD3
330
D05
100
AcDbEntity
  8
0
100
AcDbLine
 10
11.85619384883227
 20
-71.88699454570432
 30
0.0
 11
11.85619384883227
 21
-13.09924071890803
 31
0.0
  0
ELLIPSE
  5
DD4
330
D05
100
AcDbEntity
  8
0
100
AcDbEllipse
 10
7.246048455937843
 20
-66.03519793318767
 30
0.0
 11
4.000000000000001
 21
-6.928203230275511
 31
0.0
210
0.0
220
0.0
230
1.0
 40
0.5773502691896257
 41
0.1724084739586118
 42
0.7853981633974465
  0
ELLIPSE
  5
DD5
330
D05
100
AcDbEntity
  8
0
100
AcDbEllipse
 10
6.029584549683384
 20
-66.73752369692315
 30
0.0
 11
-4.309515602044339
 21
7.464299978750544
 31
0.0
210
0.0
220
0.0
230
0.9999999999999998
 40
0.5773502691896262
 41
3.765937873063334
 42
3.926990816986952
  0
ELLIPSE
  5
DD6
330
D05
100
AcDbEntity
  8
0
100
AcDbEllipse
 10
4.48331662816594
 20
-67.63026189765054
 30
0.0
 11
-5.213411479589535
 21
9.029893563410668
 31
0.0
210
0.0
220
0.0
230
1.0
 40
0.5773502691896261
 41
3.765937873063307
 42
3.926990816986954
  0
ELLIPSE
  5
DD7
330
D05
100
AcDbEntity
  8
0
100
AcDbEllipse
 10
-40.48365927415409
 20
-46.64340413615419
 30
0.0
 11
-1.249999999999999
 21
-2.165063509461097
 31
0.0
210
0.0
220
0.0
230
0.9999999999999998
 40
0.5773502691896259
 41
0.0945866202153046
 42
1.476209706579596
  0
LINE
  5
DD8
330
D05
100
AcDbEntity
  8
0
100
AcDbLine
 10
0.0
 20
-72.89050334026677
 30
0.0
 11
-41.61001474290819
 21
-48.86695012746445
 31
0.0
  0
LINE
  5
DD9
330
D05
100
AcDbEntity
  8
0
100
AcDbLine
 10
-39.3573038054
 20
-47.56634686128768
 30
0.0
 11
0.0
 21
-70.28929680791323
 31
0.0
  0
LINE
  5
DDA
330
D05
100
AcDbEntity
  8
0
100
AcDbLine
 10
-37.81103588388254
 20
-45.19755287349979
 30
0.0
 11
-39.3573038054
 21
-47.56634686128768
 31
0.0
  0
LINE
  5
DDB
330
D05
100
AcDbEntity
  8
0
100
AcDbLine
 10
-37.81103588388254
 20
-45.19755287349979
 30
0.0
 11
0.0
 21
-67.02776461939795
 31
0.0
  0
ELLIPSE
  5
DDC
330
D05
100
AcDbEntity
  8
0
100
AcDbEllipse
 10
-36.59457197762812
 20
-46.19433101664393
 30
0.0
 11
-1.349999999999858
 21
-2.338268590218065
 31
0.0
210
0.0
220
0.0
230
0.9999999999999998
 40
0.5773502691896255
 41
3.926990816986998
 42
4.617802360169279
  0
ELLIPSE
  5
DDD
330
D05
100
AcDbEntity
  8
0
100
AcDbEllipse
 10
-43.66563978949355
 20
-41.13205221489203
 30
0.0
 11
-2.499999999999999
 21
-0.0000000000000027
 31
0.0
210
0.0
220
0.0
230
1.0
 40
0.5773502691896254
 41
4.80697560059999
 42
6.188598686964286
  0
ELLIPSE
  5
DDE
330
D05
100
AcDbEntity
  8
0
100
AcDbEllipse
 10
-41.6100147429082
 20
-43.6194711550678
 30
0.0
 11
-3.213411479588661
 21
5.56579194827341
 31
0.0
210
0.0
220
0.0
230
1.0
 40
0.5773502691896258
 41
0.7853981633976926
 42
2.356194490192589
  0
ELLIPSE
  5
DDF
330
D05
100
AcDbEntity
  8
0
100
AcDbEllipse
 10
-39.35730380540002
 20
-42.31886788889105
 30
0.0
 11
3.213411479589321
 21
-5.565791948273009
 31
0.0
210
0.0
220
0.0
230
1.0
 40
0.5773502691896261
 41
3.926990816986997
 42
5.497787143781899
  0
LINE
  5
DE0
330
D05
100
AcDbEntity
  8
0
100
AcDbLine
 10
-41.07718417080527
 20
-39.54041809549558
 30
0.0
 11
-43.90175390132015
 21
-39.69512840269272
 31
0.0
  0
ELLIPSE
  5
DE1
330
D05
100
AcDbEntity
  8
0
100
AcDbEllipse
 10
-37.81103588388255
 20
-41.42612968816365
 30
0.0
 11
2.309515602044122
 21
-4.000198363612886
 31
0.0
210
0.0
220
0.0
230
1.0
 40
0.5773502691896261
 41
3.926990816986998
 42
5.497787143781899
  0
ELLIPSE
  5
DE2
330
D05
100
AcDbEntity
  8
0
100
AcDbEllipse
 10
-41.33218741157798
 20
-37.9885403783203
 30
0.0
 11
-2.699999999999999
 21
0.0000000000001635
 31
0.0
210
0.0
220
0.0
230
1.0
 40
0.5773502691896269
 41
1.665382947010311
 42
2.356194490192589
  0
ELLIPSE
  5
DE3
330
D05
100
AcDbEntity
  8
0
100
AcDbEllipse
 10
-36.59457197762811
 20
-40.72380392442816
 30
0.0
 11
2.000000000000207
 21
-3.464101615137636
 31
0.0
210
0.0
220
0.0
230
1.0
 40
0.5773502691896255
 41
3.926990816987
 42
5.497787143781898
  0
ELLIPSE
  5
DE4
330
D05
100
AcDbEntity
  8
0
100
AcDbEllipse
 10
-43.66563978949354
 20
17.65570161190421
 30
0.0
 11
2.499999999999999
 21
-0.0000000000001498
 31
0.0
210
0.0
220
0.0
230
1.0
 40
0.5773502691896258
 41
1.665382947010382
 42
2.656055576016349
  0
LINE
  5
DE5
330
D05
100
AcDbEntity
  8
0
100
AcDbLine
 10
-46.15446483882835
 20
-40.99573166886949
 30
0.0
 11
-46.15446483882835
 21
17.6528174975642
 31
0.0
  0
LINE
  5
DE6
330
D05
100
AcDbEntity
  8
0
100
AcDbLine
 10
-43.90175390132015
 20
19.09262542410353
 30
0.0
 11
-43.90175390132015
 21
-39.69512840269272
 31
0.0
  0
LINE
  5
DE7
330
D05
100
AcDbEntity
  8
0
100
AcDbLine
 10
-41.07718417080527
 20
19.24733573130067
 30
0.0
 11
-43.90175390132015
 21
19.09262542410353
 31
0.0
  0
LINE
  5
DE8
330
D05
100
AcDbEntity
  8
0
100
AcDbLine
 10
-41.07718417080527
 20
19.24733573130067
 30
0.0
 11
-41.07718417080527
 21
-39.54041809549558
 31
0.0
  0
ELLIPSE
  5
DE9
330
D05
100
AcDbEntity
  8
0
100
AcDbEllipse
 10
-41.33218741157798
 20
20.79921344847595
 30
0.0
 11
-2.699999999999999
 21
0.0000000000001608
 31
0.0
210
0.0
220
0.0
230
1.0
 40
0.577350269189626
 41
1.665382947010307
 42
2.356194490192587
  0
LINE
  5
DEA
330
D05
100
AcDbEntity
  8
0
100
AcDbLine
 10
-39.42299910237428
 20
19.69694306422353
 30
0.0
 11
-39.42299910237428
 21
-39.09081076257272
 31
0.0
  0
ELLIPSE
  5
DEB
330
D05
100
AcDbEntity
  8
0
100
AcDbEllipse
 10
-45.02810937007425
 20
18.44232379101513
 30
0.0
 11
0.7964535899825752
 21
1.379498083720451
 31
0.0
210
0.0
220
0.0
230
1.0
 40
0.5773502691896258
 41
5.497787143782142
 42
6.970982059606314
  0
LINE
  5
DEC
330
D05
100
AcDbEntity
  8
0
100
AcDbLine
 10
-46.4224309513484
 20
16.1612560636691
 30
0.0
 11
-46.2001822709692
 21
17.51379877531064
 31
0.0
  0
ELLIPSE
  5
DED
330
D05
100
AcDbEntity
  8
0
100
AcDbEllipse
 10
-43.74980756107683
 20
17.70429589748489
 30
0.0
 11
1.889830122818997
 21
3.273281790396186
 31
0.0
210
0.0
220
0.0
230
1.0
 40
0.5773502691896259
 41
2.115395149531011
 42
2.356194490192589
  0
ELLIPSE
  5
DEE
330
D05
100
AcDbEntity
  8
0
100
AcDbEllipse
 10
-43.74980756107683
 20
17.70429589748489
 30
0.0
 11
1.889830122818802
 21
3.273281790396298
 31
0.0
210
0.0
220
0.0
230
1.0
 40
0.5773502691896257
 41
5.49778714378214
 42
7.309382811238545
  0
ELLIPSE
  5
DEF
330
D05
100
AcDbEntity
  8
0
100
AcDbEllipse
 10
-49.11036200462996
 20
16.30848225337345
 30
0.0
 11
2.699999999999999
 21
0.0000000000000001
 31
0.0
210
0.0
220
0.0
230
1.0
 40
0.5773502691896261
 41
5.497787143782137
 42
6.18859868696428
  0
ELLIPSE
  5
DF0
330
D05
100
AcDbEntity
  8
0
100
AcDbEllipse
 10
-43.31208639890032
 20
17.4515774666723
 30
0.0
 11
2.750000000000285
 21
4.763139720814249
 31
0.0
210
0.0
220
0.0
230
1.0
 40
0.5773502691896255
 41
5.497787143782378
 42
8.639379797372173
  0
LINE
  5
DF1
330
D05
100
AcDbEntity
  8
0
100
AcDbLine
 10
-46.4224309513484
 20
-42.62649776312713
 30
0.0
 11
-46.15446483882835
 21
-40.99573166886949
 31
0.0
  0
LINE
  5
DF2
330
D05
100
AcDbEntity
  8
0
100
AcDbLine
 10
-46.4224309513484
 20
-42.62649776312713
 30
0.0
 11
-46.4224309513484
 21
16.1612560636691
 31
0.0
  0
ELLIPSE
  5
DF3
330
D05
100
AcDbEntity
  8
0
100
AcDbEllipse
 10
-49.11036200462996
 20
-42.47927157342278
 30
0.0
 11
2.699999999999999
 21
0.0000000000000019
 31
0.0
210
0.0
220
0.0
230
1.0
 40
0.5773502691896253
 41
5.497787143782138
 42
6.188598686964281
  0
LINE
  5
DF4
330
D05
100
AcDbEntity
  8
0
100
AcDbLine
 10
-47.2011736954263
 20
-43.58154195767521
 30
0.0
 11
-47.20117369542629
 21
15.20621186912103
 31
0.0
  0
LINE
  5
DF5
330
D05
100
AcDbEntity
  8
0
100
AcDbLine
 10
-43.15628266442566
 20
-48.28363254113135
 30
0.0
 11
-41.61001474290819
 21
-48.86695012746445
 31
0.0
  0
ELLIPSE
  5
DF6
330
D05
100
AcDbEntity
  8
0
100
AcDbEllipse
 10
-43.15628266442567
 20
-44.51220935579519
 30
0.0
 11
-2.309515602043647
 21
4.000198363613174
 31
0.0
210
0.0
220
0.0
230
1.0
 40
0.5773502691896257
 41
0.785398163397689
 42
2.35619449019259
  0
ELLIPSE
  5
DF7
330
D05
100
AcDbEntity
  8
0
100
AcDbEllipse
 10
-44.37274657068008
 20
-50.68506221174644
 30
0.0
 11
1.349999999999998
 21
2.338268590217984
 31
0.0
210
0.0
220
0.0
230
1.0
 40
0.5773502691896255
 41
0.0945866202153054
 42
0.7853981633974474
  0
ELLIPSE
  5
DF8
330
D05
100
AcDbEntity
  8
0
100
AcDbEllipse
 10
-44.3727465706801
 20
-45.21453511953065
 30
0.0
 11
-1.999999999999793
 21
3.464101615137874
 31
0.0
210
0.0
220
0.0
230
1.0
 40
0.577350269189626
 41
0.785398163397689
 42
2.356194490192585
  0
LINE
  5
DF9
330
D05
100
AcDbEntity
  8
0
100
AcDbLine
 10
0.0
 20
-73.19992395466107
 30
0.0
 11
-43.15628266442566
 21
-48.28363254113135
 31
0.0
  0
ELLIPSE
  5
DFA
330
D05
100
AcDbEntity
  8
0
100
AcDbEllipse
 10
-0.5321261371141484
 20
-75.99645622050593
 30
0.0
 11
1.349999999999998
 21
2.338268590217984
 31
0.0
210
0.0
220
0.0
230
1.0
 40
0.5773502691896255
 41
0.5035013158439377
 42
0.7853981633974474
  0
LINE
  5
DFB
330
D05
100
AcDbEntity
  8
0
100
AcDbLine
 10
-0.5321261371141662
 20
-73.79191545200106
 30
0.0
 11
-44.37274657068011
 21
-48.48052144324157
 31
0.0
  0
ELLIPSE
  5
DFC
330
D05
100
AcDbEntity
  8
0
100
AcDbEllipse
 10
9.367368799497469
 20
-71.75067399968177
 30
0.0
 11
2.499999999999999
 21
-0.0000000000000037
 31
0.0
210
0.0
220
0.0
230
1.0
 40
0.5773502691896267
 41
4.80697560059999
 42
6.188598686964284
  0
ELLIPSE
  5
DFD
330
D05
100
AcDbEntity
  8
0
100
AcDbEllipse
 10
2.23060569065774
 20
-68.9308651638273
 30
0.0
 11
5.213411479588997
 21
-9.029893563410983
 31
0.0
210
0.0
220
0.0
230
1.0
 40
0.5773502691896259
 41
5.658840087705716
 42
7.068583470577034
  0
ELLIPSE
  5
DFE
330
D05
100
AcDbEntity
  8
0
100
AcDbEllipse
 10
-0.5321261371141573
 20
-70.52592912829014
 30
0.0
 11
-1.999999999999794
 21
3.464101615137875
 31
0.0
210
0.0
220
0.0
230
1.0
 40
0.5773502691896259
 41
2.356194490192633
 42
2.530118350227283
  0
ELLIPSE
  5
DFF
330
D05
100
AcDbEntity
  8
0
100
AcDbEllipse
 10
7.033916421581904
 20
-74.8941858362535
 30
0.0
 11
-2.7
 21
0.0000000000000003
 31
0.0
210
0.0
220
0.0
230
1.0
 40
0.5773502691896259
 41
4.806975600599986
 42
5.497787143782135
  0
ELLIPSE
  5
E00
330
D05
100
AcDbEntity
  8
0
100
AcDbEllipse
 10
-0.5321261371141573
 20
-70.52592912829014
 30
0.0
 11
4.000000000000001
 21
-6.928203230275511
 31
0.0
210
0.0
220
0.0
230
1.0
 40
0.5773502691896259
 41
0.0
 42
0.7853981633974465
  0
ELLIPSE
  5
E01
330
D05
100
AcDbEntity
  8
0
100
AcDbEllipse
 10
0.684337769140293
 20
-69.8236033645547
 30
0.0
 11
4.309515602043883
 21
-7.46429997875079
 31
0.0
210
0.0
220
0.0
230
1.0
 40
0.5773502691896259
 41
5.901877000739432
 42
7.068583470577035
  0
LINE
  5
E02
330
D05
100
AcDbEntity
  8
0
100
AcDbLine
 10
9.603482911324084
 20
-73.18759781188107
 30
0.0
 11
6.778913180809209
 21
-73.34230811907821
 31
0.0
  0
ELLIPSE
  5
E03
330
D05
100
AcDbEntity
  8
0
100
AcDbEllipse
 10
9.367368799497469
 20
-12.96292017288549
 30
0.0
 11
2.5
 21
0.0
 31
0.0
210
0.0
220
0.0
230
1.0
 40
0.5773502691896258
 41
4.806975600599991
 42
6.188598686964285
  0
LINE
  5
E04
330
D05
100
AcDbEntity
  8
0
100
AcDbLine
 10
9.60348291132407
 20
-14.39984398508481
 30
0.0
 11
9.603482911324084
 21
-73.18759781188107
 31
0.0
  0
ELLIPSE
  5
E05
330
D05
100
AcDbEntity
  8
0
100
AcDbEllipse
 10
7.033916421581887
 20
-16.10643200945723
 30
0.0
 11
-2.699999999999999
 21
0.0000000000000004
 31
0.0
210
0.0
220
0.0
230
1.0
 40
0.577350269189626
 41
4.806975600599987
 42
5.497787143782138
  0
LINE
  5
E06
330
D05
100
AcDbEntity
  8
0
100
AcDbLine
 10
5.124728112378216
 20
-73.79191545200106
 30
0.0
 11
5.124728112378198
 21
-15.0041616252048
 31
0.0
  0
LINE
  5
E07
330
D05
100
AcDbEntity
  8
0
100
AcDbLine
 10
6.778913180809191
 20
-14.55455429228195
 30
0.0
 11
6.778913180809209
 21
-73.34230811907821
 31
0.0
  0
LINE
  5
E08
330
D05
100
AcDbEntity
  8
0
100
AcDbLine
 10
9.60348291132407
 20
-14.39984398508481
 30
0.0
 11
6.778913180809191
 21
-14.55455429228195
 31
0.0
  0
ELLIPSE
  5
E09
330
D05
100
AcDbEntity
  8
0
100
AcDbEllipse
 10
10.72983838007817
 20
-13.74954235199642
 30
0.0
 11
0.7964535899825772
 21
1.379498083720455
 31
0.0
210
0.0
220
0.0
230
1.0
 40
0.5773502691896258
 41
5.497787143782137
 42
8.639379797371931
  0
ELLIPSE
  5
E0A
330
D05
100
AcDbEntity
  8
0
100
AcDbEllipse
 10
9.013815408904202
 20
-12.75879602765355
 30
0.0
 11
2.750000000000283
 21
4.763139720814249
 31
0.0
210
0.0
220
0.0
230
1.0
 40
0.577350269189626
 41
5.497787143782378
 42
8.639379797372173
  0
ELLIPSE
  5
E0B
330
D05
100
AcDbEntity
  8
0
100
AcDbEllipse
 10
9.451536571080744
 20
-13.01151445846617
 30
0.0
 11
1.889830122818795
 21
3.273281790396286
 31
0.0
210
0.0
220
0.0
230
1.0
 40
0.5773502691896259
 41
5.497787143782137
 42
8.63937979737193
  0
LINE
  5
E0C
330
D05
100
AcDbEntity
  8
0
100
AcDbLine
 10
12.0452899573674
 20
-71.33919502451056
 30
0.0
 11
11.7607813194113
 21
-73.19710707003179
 31
0.0
  0
SPLINE
  5
E0D
330
D05
100
AcDbEntity
  8
0
100
AcDbSpline
210
0.0
220
0.0
230
1.0
 70
     8
 71
     3
 72
    16
 73
    12
 74
     0
 42
0.000000001
 43
0.0000000001
 40
3.382391994251304
 40
3.382391994251304
 40
3.382391994251304
 40
3.382391994251304
 40
3.600231523345678
 40
3.600231523345678
 40
3.818071052440053
 40
3.818071052440053
 40
4.035910581534428
 40
4.035910581534428
 40
4.253750110628802
 40
4.253750110628802
 40
4.471589639723177
 40
4.471589639723177
 40
4.471589639723177
 40
4.471589639723177
 10
-46.34531951041309
 20
16.9417415072488
 30
0.0
 10
-46.30362917095649
 20
17.16184929965074
 30
0.0
 10
-46.24005765014721
 20
17.40323209708781
 30
0.0
 10
-46.06885991894398
 20
17.90243820634284
 30
0.0
 10
-45.96132053816311
 20
18.16024740012533
 30
0.0
 10
-45.70914171834425
 20
18.66853804150469
 30
0.0
 10
-45.56453283183127
 20
18.91900798017116
 30
0.0
 10
-45.25042963380027
 20
19.39154656512034
 30
0.0
 10
-45.0809300130459
 20
19.61358299767507
 30
0.0
 10
-44.73420370630825
 20
20.01144763659483
 30
0.0
 10
-44.55694583209585
 20
20.18719358729141
 30
0.0
 10
-44.38717206203315
 20
20.33335237655421
 30
0.0
  0
SPLINE
  5
E0E
330
D05
100
AcDbEntity
  8
0
100
AcDbSpline
210
0.0
220
0.0
230
1.0
 70
     8
 71
     3
 72
    18
 73
    14
 74
     0
 42
0.000000001
 43
0.0000000001
 40
0.1610529439236037
 40
0.1610529439236037
 40
0.1610529439236037
 40
0.1610529439236037
 40
0.4107910317131463
 40
0.4107910317131463
 40
0.6605291195026889
 40
0.6605291195026889
 40
0.8986016985788719
 40
0.8986016985788719
 40
1.135442840713298
 40
1.135442840713298
 40
1.38518092850284
 40
1.38518092850284
 40
1.409743382871316
 40
1.409743382871316
 40
1.409743382871316
 40
1.409743382871316
 10
11.7607813194113
 20
-73.19710707003202
 30
0.0
 10
11.64813565693059
 20
-73.93271121443378
 30
0.0
 10
11.44247742108243
 20
-74.64895033448785
 30
0.0
 10
10.79585993915901
 20
-75.98980730664208
 30
0.0
 10
10.35032177057245
 20
-76.61480743059067
 30
0.0
 10
9.245331664907631
 20
-77.61906723052928
 30
0.0
 10
8.5981110163749
 20
-78.00181517940986
 30
0.0
 10
7.221089355426726
 20
-78.47220299214725
 30
0.0
 10
6.497890144242841
 20
-78.5633038443033
 30
0.0
 10
5.04585874376694
 20
-78.50481608470508
 30
0.0
 10
4.317166263858149
 20
-78.34576856240666
 30
0.0
 10
3.549564802771598
 20
-78.06902964248566
 30
0.0
 10
3.481098066511481
 20
-78.04333671718289
 30
0.0
 10
3.412902683252014
 20
-78.01675704778071
 30
0.0
  0
LINE
  5
E0F
330
D05
100
AcDbEntity
  8
0
100
AcDbLine
 10
2.863959719587376
 20
-77.80280235176646
 30
0.0
 11
3.412902683251997
 21
-78.01675704778071
 31
0.0
  0
LINE
  5
E10
330
D05
100
AcDbEntity
  8
0
100
AcDbLine
 10
-37.12669811474214
 20
-37.7650407692229
 30
0.0
 11
-37.12669811474214
 21
-23.06395450989264
 31
0.0
  0
LINE
  5
E11
330
D05
100
AcDbEntity
  8
0
100
AcDbLine
 10
-37.12669811474214
 20
-23.06395450989264
 30
0.0
 11
-37.12310601229371
 21
-23.06188060857709
 31
0.0
  0
LINE
  5
E12
330
D05
100
AcDbEntity
  8
0
100
AcDbLine
 10
-37.12310601229371
 20
-23.06188060857709
 30
0.0
 11
-37.12310601229371
 21
-23.0660284112082
 31
0.0
  0
LINE
  5
E13
330
D05
100
AcDbEntity
  8
0
100
AcDbLine
 10
-37.12310601229371
 20
-23.0660284112082
 30
0.0
 11
-12.37436867076455
 21
-8.77733824497298
 31
0.0
  0
LINE
  5
E14
330
D05
100
AcDbEntity
  8
0
100
AcDbLine
 10
-12.37436867076456
 20
-8.77733824497298
 30
0.0
 11
-12.37436867076456
 21
-8.773190442341869
 31
0.0
  0
LINE
  5
E15
330
D05
100
AcDbEntity
  8
0
100
AcDbLine
 10
-12.37436867076456
 20
-8.773190442341869
 30
0.0
 11
-12.37077656831613
 21
-8.771116541026309
 31
0.0
  0
LINE
  5
E16
330
D05
100
AcDbEntity
  8
0
100
AcDbLine
 10
-12.37077656831613
 20
-8.771116541026309
 30
0.0
 11
-12.37077656831613
 21
-8.943960403850415
 31
0.0
  0
LINE
  5
E17
330
D05
100
AcDbEntity
  8
0
100
AcDbLine
 10
-37.12669811474214
 20
-37.7650407692229
 30
0.0
 11
-37.12310601229371
 21
-37.76296686790735
 31
0.0
  0
LINE
  5
E18
330
D05
100
AcDbEntity
  8
0
100
AcDbLine
 10
-34.29467888754752
 20
-31.23099422048546
 30
0.0
 11
-34.29467888754753
 21
-27.96500789677456
 31
0.0
  0
LINE
  5
E19
330
D05
100
AcDbEntity
  8
0
100
AcDbLine
 10
-34.29467888754753
 20
-27.96500789677456
 30
0.0
 11
-9.545941546018363
 21
-13.67631773053933
 31
0.0
  0
ELLIPSE
  5
E1A
330
D05
100
AcDbEntity
  8
0
100
AcDbEllipse
 10
-9.54594154601837
 20
-10.41033140682843
 30
0.0
 11
2.000000000000207
 21
-3.464101615137634
 31
0.0
210
0.0
220
0.0
230
1.0
 40
0.5773502691896254
 41
3.926990816986998
 42
5.497787143781897
  0
ELLIPSE
  5
E1B
330
D05
100
AcDbEntity
  8
0
100
AcDbEllipse
 10
-34.29467888754752
 20
-24.69902157306365
 30
0.0
 11
4.000000000000004
 21
-6.928203230275506
 31
0.0
210
0.0
220
0.0
230
1.0
 40
0.5773502691896252
 41
4.973454978009089
 42
5.497787143782135
  0
ELLIPSE
  5
E1C
330
D05
100
AcDbEntity
  8
0
100
AcDbEllipse
 10
-34.29467888754752
 20
-24.69902157306365
 30
0.0
 11
2.000000000000207
 21
-3.464101615137634
 31
0.0
210
0.0
220
0.0
230
1.0
 40
0.5773502691896254
 41
3.926990816986997
 42
5.497787143781891
  0
LINE
  5
E1D
330
D05
100
AcDbEntity
  8
0
100
AcDbLine
 10
-37.12669811474214
 20
-23.06395450989264
 30
0.0
 11
-37.12310601229371
 21
-23.0660284112082
 31
0.0
  0
LINE
  5
E1E
330
D05
100
AcDbEntity
  8
0
100
AcDbLine
 10
-24.39518395093589
 20
-45.11143609625683
 30
0.0
 11
-24.39518395093581
 21
-40.21245661069038
 31
0.0
  0
LINE
  5
E1F
330
D05
100
AcDbEntity
  8
0
100
AcDbLine
 10
-27.22361107568201
 20
-38.57946344883494
 30
0.0
 11
-27.22361107568209
 21
-43.47844293440139
 31
0.0
  0
LINE
  5
E20
330
D05
100
AcDbEntity
  8
0
100
AcDbLine
 10
-34.29467888754753
 20
-27.96500789677456
 30
0.0
 11
-30.05203820042828
 21
-30.41449763955772
 31
0.0
  0
LINE
  5
E21
330
D05
100
AcDbEntity
  8
0
100
AcDbLine
 10
-34.29467888754752
 20
-31.23099422048546
 30
0.0
 11
-30.05203820042828
 21
-33.68048396326861
 31
0.0
  0
LINE
  5
E22
330
D05
100
AcDbEntity
  8
0
100
AcDbLine
 10
-5.303300858899191
 20
-16.12580747332245
 30
0.0
 11
-9.545941546018363
 21
-13.67631773053933
 31
0.0
  0
ENDBLK
  5
D07
330
D05
100
AcDbEntity
  8
0
100
AcDbBlockEnd
  0
ENDSEC
  0
SECTION
  2
ENTITIES
  0
INSERT
  5
E23
330
1F
100
AcDbEntity
  8
0
100
AcDbBlockReference
  2
PU70-B-Front
 10
0.0
 20
0.0
 30
0.0
  0
INSERT
  5
E24
330
1F
100
AcDbEntity
  8
0
100
AcDbBlockReference
  2
PU70-B-Left
 10
116.6
 20
0.0
 30
0.0
  0
INSERT
  5
E25
330
1F
100
AcDbEntity
  8
0
100
AcDbBlockReference
  2
PU70-B-Right
 10
-116.5999999999999
 20
0.0
 30
0.0
  0
INSERT
  5
E26
330
1F
100
AcDbEntity
  8
0
100
AcDbBlockReference
  2
PU70-B-Top
 10
0.0
 20
-77.59999999999999
 30
0.0
  0
INSERT
  5
E27
330
1F
100
AcDbEntity
  8
0
100
AcDbBlockReference
  2
PU70-B-Bottom
 10
0.0
 20
203.6
 30
0.0
  0
INSERT
  5
E28
330
1F
100
AcDbEntity
  8
0
100
AcDbBlockReference
  2
PU70-B-ISO
 10
133.9259018078045
 20
-123.8414098023087
 30
0.0
  0
MTEXT
  5
E29
330
1F
100
AcDbEntity
  8
0
100
AcDbMText
 10
0.0
 20
-152.2
 30
0.0
 40
13.2
 41
0.0
 71
     5
 72
     5
  1
PU70-B
 73
     1
 44
1.0
1001
ACAD
1000
MTEXTBEGIN
1070
    73
1070
     1
1070
    44
1040
1.0
1070
    74
1070
     0
1000
MTEXTEND
  0
ENDSEC
  0
SECTION
  2
OBJECTS
  0
DICTIONARY
  5
C
330
0
100
AcDbDictionary
281
     1
  3
ACAD_CIP_PREVIOUS_PRODUCT_INFO
350
1A5
  3
ACAD_COLOR
350
73
  3
ACAD_DETAILVIEWSTYLE
350
1AB
  3
ACAD_GROUP
350
D
  3
ACAD_LAYOUT
350
1A
  3
ACAD_MATERIAL
350
72
  3
ACAD_MLEADERSTYLE
350
D7
  3
ACAD_MLINESTYLE
350
17
  3
ACAD_PLOTSETTINGS
350
19
  3
ACAD_PLOTSTYLENAME
350
E
  3
ACAD_SCALELIST
350
B6
  3
ACAD_SECTIONVIEWSTYLE
350
1A8
  3
ACAD_TABLESTYLE
350
86
  3
ACAD_VISUALSTYLE
350
99
  3
ACDB_RECOMPOSE_DATA
350
F21
  3
AcDbVariableDictionary
350
66
  3
DWGPROPS
350
F22
  0
DICTIONARY
  5
E79
330
8
100
AcDbDictionary
280
     1
281
     1
  0
DICTIONARY
  5
18E
330
2
100
AcDbDictionary
280
     1
281
     1
  3
ACAD_LAYERSTATES
360
18F
  0
DICTIONARY
  5
E6
330
10
100
AcDbDictionary
280
     1
281
     1
  0
DICTIONARY
  5
15D
330
1F
100
AcDbDictionary
280
     1
281
     1
  3
ACAD_LAYOUTSELFREF
360
E81
  0
DICTIONARY
  5
E2D
330
58
100
AcDbDictionary
280
     1
281
     1
  3
ACAD_LAYOUTSELFREF
360
E83
  0
DICTIONARY
  5
E2F
330
5D
100
AcDbDictionary
280
     1
281
     1
  3
ACAD_LAYOUTSELFREF
360
E86
  0
XRECORD
  5
1A5
102
{ACAD_REACTORS
330
C
102
}
330
C
100
AcDbXrecord
280
     1
300
ACD
300
2021
300
87393ACD_2021_0F
  0
DICTIONARY
  5
73
102
{ACAD_REACTORS
330
C
102
}
330
C
100
AcDbDictionary
281
     1
  0
DICTIONARY
  5
1AB
102
{ACAD_REACTORS
330
C
102
}
330
C
100
AcDbDictionary
281
     1
  3
Imperial24
350
1AC
  0
DICTIONARY
  5
D
102
{ACAD_REACTORS
330
C
102
}
330
C
100
AcDbDictionary
281
     1
  0
DICTIONARY
  5
1A
102
{ACAD_REACTORS
330
C
102
}
330
C
100
AcDbDictionary
281
     1
  3
Layout1
350
59
  3
Layout2
350
5E
  3
Model
350
22
  0
DICTIONARY
  5
72
102
{ACAD_REACTORS
330
C
102
}
330
C
100
AcDbDictionary
281
     1
  3
ByBlock
350
97
  3
ByLayer
350
96
  3
Global
350
98
  0
DICTIONARY
  5
D7
102
{ACAD_REACTORS
330
C
102
}
330
C
100
AcDbDictionary
281
     1
  3
Standard
350
D8
  0
DICTIONARY
  5
17
102
{ACAD_REACTORS
330
C
102
}
330
C
100
AcDbDictionary
281
     1
  3
Standard
350
18
  0
DICTIONARY
  5
19
102
{ACAD_REACTORS
330
C
102
}
330
C
100
AcDbDictionary
281
     1
  0
ACDBDICTIONARYWDFLT
  5
E
102
{ACAD_REACTORS
330
C
102
}
330
C
100
AcDbDictionary
281
     1
  3
Normal
350
F
100
AcDbDictionaryWithDefault
340
F
  0
DICTIONARY
  5
B6
102
{ACAD_REACTORS
330
C
102
}
330
C
100
AcDbDictionary
281
     1
  3
A0
350
B7
  3
A1
350
124
  3
A2
350
125
  3
A3
350
126
  3
A4
350
127
  3
A5
350
128
  3
A6
350
129
  3
A7
350
12A
  3
A8
350
12B
  3
A9
350
12C
  3
B0
350
12D
  3
B1
350
12E
  3
B2
350
12F
  3
B3
350
130
  3
B4
350
131
  3
B5
350
132
  3
B6
350
133
  3
B7
350
134
  3
B8
350
135
  3
B9
350
136
  3
C0
350
137
  3
C1
350
138
  3
C2
350
139
  3
C3
350
13A
  3
C4
350
13B
  3
C5
350
13C
  3
C6
350
13D
  3
C7
350
13E
  3
C8
350
13F
  3
C9
350
140
  3
D0
350
141
  3
D1
350
142
  3
D2
350
143
  0
DICTIONARY
  5
1A8
102
{ACAD_REACTORS
330
C
102
}
330
C
100
AcDbDictionary
281
     1
  3
Imperial24
350
1AA
  0
DICTIONARY
  5
86
102
{ACAD_REACTORS
330
C
102
}
330
C
100
AcDbDictionary
281
     1
  3
Standard
350
87
  0
DICTIONARY
  5
99
102
{ACAD_REACTORS
330
C
102
}
330
C
100
AcDbDictionary
281
     1
  3
2dWireframe
350
9F
  3
Basic
350
9E
  3
Brighten
350
A5
  3
ColorChange
350
A9
  3
Conceptual
350
A2
  3
Dim
350
A4
  3
EdgeColorOff
350
175
  3
Facepattern
350
A8
  3
Flat
350
9A
  3
FlatWithEdges
350
9B
  3
Gouraud
350
9C
  3
GouraudWithEdges
350
9D
  3
Hidden
350
A1
  3
JitterOff
350
173
  3
Linepattern
350
A7
  3
OverhangOff
350
174
  3
Realistic
350
A3
  3
Shaded
350
182
  3
Shaded with edges
350
181
  3
Shades of Gray
350
17E
  3
Sketchy
350
17F
  3
Thicken
350
A6
  3
Wireframe
350
A0
  3
X-Ray
350
180
  0
XRECORD
  5
F21
102
{ACAD_REACTORS
330
C
102
}
330
C
100
AcDbXrecord
280
     1
 90
        1
330
87
  0
DICTIONARY
  5
66
102
{ACAD_REACTORS
330
C
102
}
330
C
100
AcDbDictionary
281
     1
  3
CANNOSCALE
350
F0
  3
CMLEADERSTYLE
350
EF
  3
CTABLESTYLE
350
89
  3
CVIEWDETAILSTYLE
350
1B7
  3
CVIEWSECTIONSTYLE
350
1B8
  3
DIMASSOC
350
67
  3
HIDETEXT
350
6B
  3
INDEXCTL
350
ED4
  3
LAYEREVAL
350
14D
  3
LAYERNOTIFY
350
14E
  3
LIGHTINGUNITS
350
ED2
  3
MSLTSCALE
350
ED1
  3
SORTENTS
350
ED3
  3
XCLIPFRAME
350
F1F
  0
XRECORD
  5
F22
102
{ACAD_REACTORS
330
C
102
}
330
C
100
AcDbXrecord
280
     1
  1
DWGPROPS COOKIE
  2

  3

  4

  6

  7

  8
KhuNguyen
  9

300
=
301
=
302
=
303
=
304
=
305
=
306
=
307
=
308
=
309
=
 40
0.0008449074074074
 41
2460619.64644676
 42
2460619.651412037
  1

 90
        0
  0
DICTIONARY
  5
18F
102
{ACAD_REACTORS
330
18E
102
}
330
18E
100
AcDbDictionary
281
     1
  0
XRECORD
  5
E81
102
{ACAD_REACTORS
330
15D
102
}
330
15D
100
AcDbXrecord
280
     1
340
1F
  0
XRECORD
  5
E83
102
{ACAD_REACTORS
330
E2D
102
}
330
E2D
100
AcDbXrecord
280
     1
340
58
  0
XRECORD
  5
E86
102
{ACAD_REACTORS
330
E2F
102
}
330
E2F
100
AcDbXrecord
280
     1
340
5D
  0
ACDBDETAILVIEWSTYLE
  5
1AC
102
{ACAD_XDICTIONARY
360
F61
102
}
102
{ACAD_REACTORS
330
1AB
102
}
330
1AB
100
AcDbModelDocViewStyle
 70
     0
  3
Imperial24
290
     0
100
AcDbDetailViewStyle
 70
     0
 71
     0
 90
        3
 71
     1
340
11
 40
0.24
340
0
 40
0.24
300

 40
0.36
280
     3
 71
     2
340
16
 90
       25
 71
     3
340
11
 40
0.24
 90
        1
 40
0.75
 90
        1
300
%<\AcVar ViewType \f "%tc1">% %<\AcVar ViewDetailId>%\PSCALE %<\AcVar ViewScale \f "%sn">%
 71
     4
340
16
 90
       25
340
16
 90
       25
280
     0
  0
LAYOUT
  5
59
102
{ACAD_XDICTIONARY
360
F25
102
}
102
{ACAD_REACTORS
330
1A
102
}
330
1A
100
AcDbPlotSettings
  1

  2
None
  4

  6

 40
0.0
 41
0.0
 42
0.0
 43
0.0
 44
0.0
 45
0.0
 46
0.0
 47
0.0
 48
0.0
 49
0.0
140
0.0
141
0.0
142
1.0
143
1.0
 70
   688
 72
     0
 73
     0
 74
     5
  7

 75
    16
147
1.0
148
0.0
149
0.0
100
AcDbLayout
  1
Layout1
 70
     1
 71
     1
 10
0.0
 20
0.0
 11
12.0
 21
9.0
 12
0.0
 22
0.0
 32
0.0
 14
0.0
 24
0.0
 34
0.0
 15
0.0
 25
0.0
 35
0.0
146
0.0
 13
0.0
 23
0.0
 33
0.0
 16
1.0
 26
0.0
 36
0.0
 17
0.0
 27
1.0
 37
0.0
 76
     0
330
58
  0
LAYOUT
  5
5E
102
{ACAD_XDICTIONARY
360
F27
102
}
102
{ACAD_REACTORS
330
1A
102
}
330
1A
100
AcDbPlotSettings
  1

  2
None
  4

  6

 40
0.0
 41
0.0
 42
0.0
 43
0.0
 44
0.0
 45
0.0
 46
0.0
 47
0.0
 48
0.0
 49
0.0
140
0.0
141
0.0
142
1.0
143
1.0
 70
   688
 72
     0
 73
     0
 74
     5
  7

 75
    16
147
1.0
148
0.0
149
0.0
100
AcDbLayout
  1
Layout2
 70
     1
 71
     2
 10
0.0
 20
0.0
 11
12.0
 21
9.0
 12
0.0
 22
0.0
 32
0.0
 14
0.0
 24
0.0
 34
0.0
 15
0.0
 25
0.0
 35
0.0
146
0.0
 13
0.0
 23
0.0
 33
0.0
 16
1.0
 26
0.0
 36
0.0
 17
0.0
 27
1.0
 37
0.0
 76
     0
330
5D
  0
LAYOUT
  5
22
102
{ACAD_XDICTIONARY
360
F23
102
}
102
{ACAD_REACTORS
330
1A
102
}
330
1A
100
AcDbPlotSettings
  1

  2
none_device
  4
ANSI_A_(8.50_x_11.00_Inches)
  6

 40
6.349999904632568
 41
19.04999923706055
 42
6.350006103515625
 43
19.04998779296875
 44
215.8999938964844
 45
279.3999938964844
 46
0.0
 47
0.0
 48
0.0
 49
0.0
140
0.0
141
0.0
142
1.0
143
2.584895464708373
 70
 11952
 72
     0
 73
     1
 74
     0
  7

 75
     0
147
0.3868628397755418
148
0.0
149
0.0
100
AcDbLayout
  1
Model
 70
     1
 71
     0
 10
0.0
 20
0.0
 11
12.0
 21
9.0
 12
0.0
 22
0.0
 32
0.0
 14
0.0
 24
0.0
 34
0.0
 15
0.0
 25
0.0
 35
0.0
146
0.0
 13
0.0
 23
0.0
 33
0.0
 16
1.0
 26
0.0
 36
0.0
 17
0.0
 27
1.0
 37
0.0
 76
     0
330
1F
331
94
  0
MATERIAL
  5
97
102
{ACAD_XDICTIONARY
360
188
102
}
102
{ACAD_REACTORS
330
72
102
}
330
72
100
AcDbMaterial
  1
ByBlock
  0
MATERIAL
  5
96
102
{ACAD_XDICTIONARY
360
186
102
}
102
{ACAD_REACTORS
330
72
102
}
330
72
100
AcDbMaterial
  1
ByLayer
  0
MATERIAL
  5
98
102
{ACAD_XDICTIONARY
360
110
102
}
102
{ACAD_REACTORS
330
72
102
}
330
72
100
AcDbMaterial
  1
Global
 43
0.0208000000566244
 43
0.0
 43
0.0
 43
0.0
 43
0.0
 43
0.0208000000566244
 43
0.0
 43
0.0
 43
0.0
 43
0.0
 43
1.0
 43
0.0
 43
0.0
 43
0.0
 43
0.0
 43
1.0
 49
0.0208000000566244
 49
0.0
 49
0.0
 49
0.0
 49
0.0
 49
0.0208000000566244
 49
0.0
 49
0.0
 49
0.0
 49
0.0
 49
1.0
 49
0.0
 49
0.0
 49
0.0
 49
0.0
 49
1.0
142
0.0208000000566244
142
0.0
142
0.0
142
0.0
142
0.0
142
0.0208000000566244
142
0.0
142
0.0
142
0.0
142
0.0
142
1.0
142
0.0
142
0.0
142
0.0
142
0.0
142
1.0
144
0.0208000000566244
144
0.0
144
0.0
144
0.0
144
0.0
144
0.0208000000566244
144
0.0
144
0.0
144
0.0
144
0.0
144
1.0
144
0.0
144
0.0
144
0.0
144
0.0
144
1.0
1001
ACAD
1070
    -1
1070
     3
1070
     0
1000

1071
        0
1070
     0
  0
MLEADERSTYLE
  5
D8
102
{ACAD_XDICTIONARY
360
F4D
102
}
102
{ACAD_REACTORS
330
D7
102
}
330
D7
100
AcDbMLeaderStyle
170
     2
171
     1
172
     0
 90
        2
 40
0.0
 41
0.0
173
     1
 91
-1056964608
340
14
 92
       -2
290
     1
 42
0.09
291
     1
 43
0.36
  3
Standard
 44
0.18
300

342
11
174
     1
178
     1
175
     1
176
     0
 93
-1056964608
 45
0.18
292
     0
297
     0
 46
0.18
 94
-1056964608
 47
1.0
 49
1.0
140
1.0
293
     1
141
0.0
294
     1
177
     0
142
1.0
295
     0
296
     0
143
0.125
1001
ACAD_MLEADERVER
1070
     2
  0
MLINESTYLE
  5
18
102
{ACAD_REACTORS
330
17
102
}
330
17
100
AcDbMlineStyle
  2
STANDARD
 70
     0
  3

 62
   256
 51
90.0
 52
90.0
 71
     2
 49
0.5
 62
   256
  6
BYLAYER
 49
-0.5
 62
   256
  6
BYLAYER
  0
ACDBPLACEHOLDER
  5
F
102
{ACAD_REACTORS
330
E
102
}
330
E
  0
SCALE
  5
B7
102
{ACAD_REACTORS
330
B6
102
}
330
B6
100
AcDbScale
 70
     0
300
1:1
140
1.0
141
1.0
290
     1
  0
SCALE
  5
124
102
{ACAD_REACTORS
330
B6
102
}
330
B6
100
AcDbScale
 70
     0
300
1:2
140
1.0
141
2.0
290
     0
  0
SCALE
  5
125
102
{ACAD_REACTORS
330
B6
102
}
330
B6
100
AcDbScale
 70
     0
300
1:4
140
1.0
141
4.0
290
     0
  0
SCALE
  5
126
102
{ACAD_REACTORS
330
B6
102
}
330
B6
100
AcDbScale
 70
     0
300
1:5
140
1.0
141
5.0
290
     0
  0
SCALE
  5
127
102
{ACAD_REACTORS
330
B6
102
}
330
B6
100
AcDbScale
 70
     0
300
1:8
140
1.0
141
8.0
290
     0
  0
SCALE
  5
128
102
{ACAD_REACTORS
330
B6
102
}
330
B6
100
AcDbScale
 70
     0
300
1:10
140
1.0
141
10.0
290
     0
  0
SCALE
  5
129
102
{ACAD_REACTORS
330
B6
102
}
330
B6
100
AcDbScale
 70
     0
300
1:16
140
1.0
141
16.0
290
     0
  0
SCALE
  5
12A
102
{ACAD_REACTORS
330
B6
102
}
330
B6
100
AcDbScale
 70
     0
300
1:20
140
1.0
141
20.0
290
     0
  0
SCALE
  5
12B
102
{ACAD_REACTORS
330
B6
102
}
330
B6
100
AcDbScale
 70
     0
300
1:30
140
1.0
141
30.0
290
     0
  0
SCALE
  5
12C
102
{ACAD_REACTORS
330
B6
102
}
330
B6
100
AcDbScale
 70
     0
300
1:40
140
1.0
141
40.0
290
     0
  0
SCALE
  5
12D
102
{ACAD_REACTORS
330
B6
102
}
330
B6
100
AcDbScale
 70
     0
300
1:50
140
1.0
141
50.0
290
     0
  0
SCALE
  5
12E
102
{ACAD_REACTORS
330
B6
102
}
330
B6
100
AcDbScale
 70
     0
300
1:100
140
1.0
141
100.0
290
     0
  0
SCALE
  5
12F
102
{ACAD_REACTORS
330
B6
102
}
330
B6
100
AcDbScale
 70
     0
300
2:1
140
2.0
141
1.0
290
     0
  0
SCALE
  5
130
102
{ACAD_REACTORS
330
B6
102
}
330
B6
100
AcDbScale
 70
     0
300
4:1
140
4.0
141
1.0
290
     0
  0
SCALE
  5
131
102
{ACAD_REACTORS
330
B6
102
}
330
B6
100
AcDbScale
 70
     0
300
8:1
140
8.0
141
1.0
290
     0
  0
SCALE
  5
132
102
{ACAD_REACTORS
330
B6
102
}
330
B6
100
AcDbScale
 70
     0
300
10:1
140
10.0
141
1.0
290
     0
  0
SCALE
  5
133
102
{ACAD_REACTORS
330
B6
102
}
330
B6
100
AcDbScale
 70
     0
300
100:1
140
100.0
141
1.0
290
     0
  0
SCALE
  5
134
102
{ACAD_REACTORS
330
B6
102
}
330
B6
100
AcDbScale
 70
     0
300
1/128" = 1'-0"
140
0.0078125
141
12.0
290
     0
  0
SCALE
  5
135
102
{ACAD_REACTORS
330
B6
102
}
330
B6
100
AcDbScale
 70
     0
300
1/64" = 1'-0"
140
0.015625
141
12.0
290
     0
  0
SCALE
  5
136
102
{ACAD_REACTORS
330
B6
102
}
330
B6
100
AcDbScale
 70
     0
300
1/32" = 1'-0"
140
0.03125
141
12.0
290
     0
  0
SCALE
  5
137
102
{ACAD_REACTORS
330
B6
102
}
330
B6
100
AcDbScale
 70
     0
300
1/16" = 1'-0"
140
0.0625
141
12.0
290
     0
  0
SCALE
  5
138
102
{ACAD_REACTORS
330
B6
102
}
330
B6
100
AcDbScale
 70
     0
300
3/32" = 1'-0"
140
0.09375
141
12.0
290
     0
  0
SCALE
  5
139
102
{ACAD_REACTORS
330
B6
102
}
330
B6
100
AcDbScale
 70
     0
300
1/8" = 1'-0"
140
0.125
141
12.0
290
     0
  0
SCALE
  5
13A
102
{ACAD_REACTORS
330
B6
102
}
330
B6
100
AcDbScale
 70
     0
300
3/16" = 1'-0"
140
0.1875
141
12.0
290
     0
  0
SCALE
  5
13B
102
{ACAD_REACTORS
330
B6
102
}
330
B6
100
AcDbScale
 70
     0
300
1/4" = 1'-0"
140
0.25
141
12.0
290
     0
  0
SCALE
  5
13C
102
{ACAD_REACTORS
330
B6
102
}
330
B6
100
AcDbScale
 70
     0
300
3/8" = 1'-0"
140
0.375
141
12.0
290
     0
  0
SCALE
  5
13D
102
{ACAD_REACTORS
330
B6
102
}
330
B6
100
AcDbScale
 70
     0
300
1/2" = 1'-0"
140
0.5
141
12.0
290
     0
  0
SCALE
  5
13E
102
{ACAD_REACTORS
330
B6
102
}
330
B6
100
AcDbScale
 70
     0
300
3/4" = 1'-0"
140
0.75
141
12.0
290
     0
  0
SCALE
  5
13F
102
{ACAD_REACTORS
330
B6
102
}
330
B6
100
AcDbScale
 70
     0
300
1" = 1'-0"
140
1.0
141
12.0
290
     0
  0
SCALE
  5
140
102
{ACAD_REACTORS
330
B6
102
}
330
B6
100
AcDbScale
 70
     0
300
1-1/2" = 1'-0"
140
1.5
141
12.0
290
     0
  0
SCALE
  5
141
102
{ACAD_REACTORS
330
B6
102
}
330
B6
100
AcDbScale
 70
     0
300
3" = 1'-0"
140
3.0
141
12.0
290
     0
  0
SCALE
  5
142
102
{ACAD_REACTORS
330
B6
102
}
330
B6
100
AcDbScale
 70
     0
300
6" = 1'-0"
140
6.0
141
12.0
290
     0
  0
SCALE
  5
143
102
{ACAD_REACTORS
330
B6
102
}
330
B6
100
AcDbScale
 70
     0
300
1'-0" = 1'-0"
140
12.0
141
12.0
290
     0
  0
ACDBSECTIONVIEWSTYLE
  5
1AA
102
{ACAD_XDICTIONARY
360
F5F
102
}
102
{ACAD_REACTORS
330
1A8
102
}
330
1A8
100
AcDbModelDocViewStyle
 70
     0
  3
Imperial24
290
     0
100
AcDbSectionViewStyle
 70
     0
 71
     0
 90
       78
 71
     1
340
11
 40
0.24
340
0
340
0
 40
0.24
300
I, O, Q, S, X, Z
 40
0.48
 90
        3
 40
0.18
 90
        1
 71
     2
340
16
 90
       25
340
16
 90
       50
 40
0.24
 40
0.0
 40
0.24
 71
     3
340
11
 40
0.24
 90
        1
 40
0.75
 90
        1
300
%<\AcVar ViewType \f "%tc1">% %<\AcVar ViewSectionStartId>%-%<\AcVar ViewSectionEndId>%\PSCALE %<\AcVar ViewScale \f "%sn">%
 71
     4
300
ANSI31
 40
1.0
 90
        0
290
     0
290
     0
 90
        6
 40
0.0
 40
1.570796326794896
 40
0.2617993877991494
 40
1.308996938995747
 40
-0.2617993877991494
 40
1.832595714594046
  0
TABLESTYLE
  5
87
102
{ACAD_XDICTIONARY
360
104
102
}
102
{ACAD_REACTORS
330
86
102
}
330
86
100
AcDbTableStyle
  3
Standard
 70
     0
 71
     0
 40
0.06
 41
0.06
280
     0
281
     0
  7
Standard
140
0.18
170
     2
 62
     0
 63
     7
283
     0
274
    -2
284
     1
 64
     0
275
    -2
285
     1
 65
     0
276
    -2
286
     1
 66
     0
277
    -2
287
     1
 67
     0
278
    -2
288
     1
 68
     0
279
    -2
289
     1
 69
     0
  7
Standard
140
0.25
170
     5
 62
     0
 63
     7
283
     0
274
    -2
284
     1
 64
     0
275
    -2
285
     1
 65
     0
276
    -2
286
     1
 66
     0
277
    -2
287
     1
 67
     0
278
    -2
288
     1
 68
     0
279
    -2
289
     1
 69
     0
  7
Standard
140
0.18
170
     5
 62
     0
 63
     7
283
     0
274
    -2
284
     1
 64
     0
275
    -2
285
     1
 65
     0
276
    -2
286
     1
 66
     0
277
    -2
287
     1
 67
     0
278
    -2
288
     1
 68
     0
279
    -2
289
     1
 69
     0
  0
VISUALSTYLE
  5
9F
102
{ACAD_XDICTIONARY
360
F37
102
}
102
{ACAD_REACTORS
330
99
102
}
330
99
100
AcDbVisualStyle
  2
2dWireframe
 70
     4
 71
     0
 72
     2
 73
     1
 90
        0
 40
-0.6
 41
-30.0
 62
     5
 63
     7
 74
     1
 91
        4
 64
     7
 65
   257
 75
     1
175
     1
 42
1.0
 92
        0
 66
   257
 43
1.0
 76
     1
 77
     6
 78
     2
 67
     7
 79
     5
170
     0
171
     0
290
     0
174
     0
 93
        1
 44
0.0
173
     0
291
     0
 45
0.0
1001
ACAD
1000
AcDbSavedByObjectVersion
1070
     0
  0
VISUALSTYLE
  5
9E
102
{ACAD_XDICTIONARY
360
F35
102
}
102
{ACAD_REACTORS
330
99
102
}
330
99
100
AcDbVisualStyle
  2
Basic
 70
     7
 71
     1
 72
     0
 73
     1
 90
        0
 40
-0.6
 41
-30.0
 62
     5
 63
     7
 74
     0
 91
        4
 64
     7
 65
   257
 75
     1
175
     1
 42
1.0
 92
        8
 66
     7
 43
1.0
 76
     1
 77
     6
 78
     2
 67
     7
 79
     5
170
     0
171
     0
290
     0
174
     0
 93
        1
 44
0.0
173
     0
291
     1
 45
0.0
1001
ACAD
1000
AcDbSavedByObjectVersion
1070
     0
  0
VISUALSTYLE
  5
A5
102
{ACAD_XDICTIONARY
360
F43
102
}
102
{ACAD_REACTORS
330
99
102
}
330
99
100
AcDbVisualStyle
  2
Brighten
 70
    12
 71
     2
 72
     2
 73
     1
 90
        0
 40
-0.6
 41
-30.0
 62
     5
 63
     7
 74
     1
 91
        4
 64
     7
 65
   257
 75
     1
175
     1
 42
1.0
 92
        8
 66
     7
 43
1.0
 76
     1
 77
     6
 78
     2
 67
     7
 79
     5
170
     0
171
     0
290
     0
174
     0
 93
        1
 44
50.0
173
     0
291
     1
 45
0.0
1001
ACAD
1000
AcDbSavedByObjectVersion
1070
     0
  0
VISUALSTYLE
  5
A9
102
{ACAD_XDICTIONARY
360
F4B
102
}
102
{ACAD_REACTORS
330
99
102
}
330
99
100
AcDbVisualStyle
  2
ColorChange
 70
    16
 71
     2
 72
     2
 73
     3
 90
        0
 40
-0.6
 41
-30.0
 62
     5
 63
     8
 74
     1
 91
        4
 64
     7
 65
   257
 75
     1
175
     1
 42
1.0
 92
        8
 66
     8
 43
1.0
 76
     1
 77
     6
 78
     2
 67
     7
 79
     5
170
     0
171
     0
290
     0
174
     0
 93
        1
 44
0.0
173
     0
291
     1
 45
0.0
1001
ACAD
1000
AcDbSavedByObjectVersion
1070
     0
  0
VISUALSTYLE
  5
A2
102
{ACAD_XDICTIONARY
360
F3D
102
}
102
{ACAD_REACTORS
330
99
102
}
330
99
100
AcDbVisualStyle
  2
Conceptual
 70
     9
 71
     3
 72
     2
 73
     1
 90
        0
 40
-0.6
 41
-30.0
 62
     5
 63
     7
 74
     2
 91
        2
 64
     7
 65
   257
 75
     1
175
     1
 42
40.0
 92
        8
 66
     7
 43
1.0
 76
     1
 77
     6
 78
     2
 67
     7
 79
     3
170
     0
171
     0
290
     0
174
     0
 93
        1
 44
0.0
173
     0
291
     0
 45
0.0
1001
ACAD
1000
AcDbSavedByObjectVersion
1070
     0
  0
VISUALSTYLE
  5
A4
102
{ACAD_XDICTIONARY
360
F41
102
}
102
{ACAD_REACTORS
330
99
102
}
330
99
100
AcDbVisualStyle
  2
Dim
 70
    11
 71
     2
 72
     2
 73
     1
 90
        0
 40
-0.6
 41
-30.0
 62
     5
 63
     7
 74
     1
 91
        4
 64
     7
 65
   257
 75
     1
175
     1
 42
1.0
 92
        8
 66
     7
 43
1.0
 76
     1
 77
     6
 78
     2
 67
     7
 79
     5
170
     0
171
     0
290
     0
174
     0
 93
        1
 44
-50.0
173
     0
291
     1
 45
0.0
1001
ACAD
1000
AcDbSavedByObjectVersion
1070
     0
  0
VISUALSTYLE
  5
175
102
{ACAD_XDICTIONARY
360
F53
102
}
102
{ACAD_REACTORS
330
99
102
}
330
99
100
AcDbVisualStyle
  2
EdgeColorOff
 70
    22
 71
     2
 72
     2
 73
     0
 90
        0
 40
-0.6
 41
-30.0
 62
     5
 63
     7
 74
     1
 91
        4
 64
     7
 65
   257
 75
     1
175
     1
 42
1.0
 92
        8
 66
     7
 43
1.0
 76
     1
 77
     6
 78
     2
 67
     7
 79
     5
170
     0
171
     0
290
     0
174
     0
 93
        1
 44
0.0
173
     0
291
     1
 45
0.0
1001
ACAD
1000
AcDbSavedByObjectVersion
1070
     0
  0
VISUALSTYLE
  5
A8
102
{ACAD_XDICTIONARY
360
F49
102
}
102
{ACAD_REACTORS
330
99
102
}
330
99
100
AcDbVisualStyle
  2
Facepattern
 70
    15
 71
     2
 72
     2
 73
     1
 90
        0
 40
-0.6
 41
-30.0
 62
     5
 63
     7
 74
     1
 91
        4
 64
     7
 65
   257
 75
     1
175
     1
 42
1.0
 92
        8
 66
     7
 43
1.0
 76
     1
 77
     6
 78
     2
 67
     7
 79
     5
170
     0
171
     0
290
     0
174
     0
 93
        1
 44
0.0
173
     0
291
     1
 45
0.0
1001
ACAD
1000
AcDbSavedByObjectVersion
1070
     0
  0
VISUALSTYLE
  5
9A
102
{ACAD_XDICTIONARY
360
F2D
102
}
102
{ACAD_REACTORS
330
99
102
}
330
99
100
AcDbVisualStyle
  2
Flat
 70
     0
 71
     2
 72
     1
 73
     1
 90
        2
 40
-0.6
 41
30.0
 62
     5
 63
     7
 74
     0
 91
        0
 64
     7
 65
   257
 75
     1
175
     1
 42
1.0
 92
        8
 66
     7
 43
1.0
 76
     1
 77
     6
 78
     2
 67
     7
 79
     5
170
     0
171
     0
290
     0
174
     0
 93
       13
 44
0.0
173
     0
291
     1
 45
0.0
1001
ACAD
1000
AcDbSavedByObjectVersion
1070
     0
  0
VISUALSTYLE
  5
9B
102
{ACAD_XDICTIONARY
360
F2F
102
}
102
{ACAD_REACTORS
330
99
102
}
330
99
100
AcDbVisualStyle
  2
FlatWithEdges
 70
     1
 71
     2
 72
     1
 73
     1
 90
        2
 40
-0.6
 41
30.0
 62
     5
 63
     7
 74
     1
 91
        0
 64
     7
 65
   257
 75
     1
175
     1
 42
1.0
 92
        0
 66
   257
 43
1.0
 76
     1
 77
     6
 78
     2
 67
     7
 79
     5
170
     0
171
     0
290
     0
174
     0
 93
       13
 44
0.0
173
     0
291
     1
 45
0.0
1001
ACAD
1000
AcDbSavedByObjectVersion
1070
     0
  0
VISUALSTYLE
  5
9C
102
{ACAD_XDICTIONARY
360
F31
102
}
102
{ACAD_REACTORS
330
99
102
}
330
99
100
AcDbVisualStyle
  2
Gouraud
 70
     2
 71
     2
 72
     2
 73
     1
 90
        2
 40
-0.6
 41
30.0
 62
     5
 63
     7
 74
     0
 91
        0
 64
     7
 65
   257
 75
     1
175
     1
 42
1.0
 92
        0
 66
     7
 43
1.0
 76
     1
 77
     6
 78
     2
 67
     7
 79
     5
170
     0
171
     0
290
     0
174
     0
 93
       13
 44
0.0
173
     0
291
     1
 45
0.0
1001
ACAD
1000
AcDbSavedByObjectVersion
1070
     0
  0
VISUALSTYLE
  5
9D
102
{ACAD_XDICTIONARY
360
F33
102
}
102
{ACAD_REACTORS
330
99
102
}
330
99
100
AcDbVisualStyle
  2
GouraudWithEdges
 70
     3
 71
     2
 72
     2
 73
     1
 90
        2
 40
-0.6
 41
30.0
 62
     5
 63
     7
 74
     1
 91
        0
 64
     7
 65
   257
 75
     1
175
     1
 42
1.0
 92
        0
 66
   257
 43
1.0
 76
     1
 77
     6
 78
     2
 67
     7
 79
     5
170
     0
171
     0
290
     0
174
     0
 93
       13
 44
0.0
173
     0
291
     1
 45
0.0
1001
ACAD
1000
AcDbSavedByObjectVersion
1070
     0
  0
VISUALSTYLE
  5
A1
102
{ACAD_XDICTIONARY
360
F3B
102
}
102
{ACAD_REACTORS
330
99
102
}
330
99
100
AcDbVisualStyle
  2
Hidden
 70
     6
 71
     1
 72
     2
 73
     2
 90
        0
 40
-0.6
 41
-30.0
 62
     5
 63
     7
 74
     2
 91
        2
 64
     7
 65
   257
 75
     2
175
     1
 42
40.0
 92
        0
 66
   257
 43
1.0
 76
     1
 77
     6
 78
     2
 67
     7
 79
     3
170
     0
171
     0
290
     0
174
     0
 93
        1
 44
0.0
173
     0
291
     0
 45
0.0
1001
ACAD
1000
AcDbSavedByObjectVersion
1070
     0
  0
VISUALSTYLE
  5
173
102
{ACAD_XDICTIONARY
360
F4F
102
}
102
{ACAD_REACTORS
330
99
102
}
330
99
100
AcDbVisualStyle
  2
JitterOff
 70
    20
 71
     2
 72
     2
 73
     0
 90
        0
 40
-0.6
 41
-30.0
 62
     5
 63
     7
 74
     1
 91
        4
 64
     7
 65
   257
 75
     1
175
     1
 42
1.0
 92
       10
 66
     7
 43
1.0
 76
     1
 77
     6
 78
     2
 67
     7
 79
     5
170
     0
171
     0
290
     0
174
     0
 93
        1
 44
0.0
173
     0
291
     1
 45
0.0
1001
ACAD
1000
AcDbSavedByObjectVersion
1070
     0
  0
VISUALSTYLE
  5
A7
102
{ACAD_XDICTIONARY
360
F47
102
}
102
{ACAD_REACTORS
330
99
102
}
330
99
100
AcDbVisualStyle
  2
Linepattern
 70
    14
 71
     2
 72
     2
 73
     1
 90
        0
 40
-0.6
 41
-30.0
 62
     5
 63
     7
 74
     1
 91
        4
 64
     7
 65
   257
 75
     7
175
     7
 42
1.0
 92
        8
 66
     7
 43
1.0
 76
     1
 77
     6
 78
     2
 67
     7
 79
     5
170
     0
171
     0
290
     0
174
     0
 93
        1
 44
0.0
173
     0
291
     1
 45
0.0
1001
ACAD
1000
AcDbSavedByObjectVersion
1070
     0
  0
VISUALSTYLE
  5
174
102
{ACAD_XDICTIONARY
360
F51
102
}
102
{ACAD_REACTORS
330
99
102
}
330
99
100
AcDbVisualStyle
  2
OverhangOff
 70
    21
 71
     2
 72
     2
 73
     0
 90
        0
 40
-0.6
 41
-30.0
 62
     5
 63
     7
 74
     1
 91
        4
 64
     7
 65
   257
 75
     1
175
     1
 42
1.0
 92
        9
 66
     7
 43
1.0
 76
     1
 77
     6
 78
     2
 67
     7
 79
     5
170
     0
171
     0
290
     0
174
     0
 93
        1
 44
0.0
173
     0
291
     1
 45
0.0
1001
ACAD
1000
AcDbSavedByObjectVersion
1070
     0
  0
VISUALSTYLE
  5
A3
102
{ACAD_XDICTIONARY
360
F3F
102
}
102
{ACAD_REACTORS
330
99
102
}
330
99
100
AcDbVisualStyle
  2
Realistic
 70
     8
 71
     2
 72
     2
 73
     0
 90
        2
 40
-0.6
 41
30.0
 62
     5
 63
     7
 74
     0
 91
        0
 64
     7
 65
   257
 75
     1
175
     1
 42
1.0
 92
        8
 66
   257
 43
1.0
 76
     1
 77
     6
 78
     2
 67
     7
 79
     3
170
     0
171
     0
290
     0
174
     0
 93
       13
 44
0.0
173
     0
291
     0
 45
0.0
1001
ACAD
1000
AcDbSavedByObjectVersion
1070
     0
  0
VISUALSTYLE
  5
182
102
{ACAD_XDICTIONARY
360
F5D
102
}
102
{ACAD_REACTORS
330
99
102
}
330
99
100
AcDbVisualStyle
  2
Shaded
 70
    27
 71
     2
 72
     2
 73
     1
 90
        2
 40
-0.6
 41
30.0
 62
     5
 63
     7
 74
     0
 91
        4
 64
     7
 65
   257
 75
     1
175
     1
 42
1.0
 92
        8
 66
   257
 43
1.0
 76
     1
 77
     6
 78
     2
 67
     8
 79
     3
170
     0
171
     0
290
     0
174
     0
 93
        5
 44
0.0
173
     0
291
     0
 45
0.0
1001
ACAD
1000
AcDbSavedByObjectVersion
1070
     0
  0
VISUALSTYLE
  5
181
102
{ACAD_XDICTIONARY
360
F5B
102
}
102
{ACAD_REACTORS
330
99
102
}
330
99
100
AcDbVisualStyle
  2
Shaded with edges
 70
    26
 71
     2
 72
     2
 73
     1
 90
        2
 40
-0.6
 41
30.0
 62
     5
 63
     7
 74
     1
 91
        2
 64
     7
 65
   257
 75
     2
175
     1
 42
1.0
 92
        8
 66
   257
 43
1.0
 76
     1
 77
     6
 78
     2
 67
     7
 79
     3
170
     0
171
     0
290
     0
174
     0
 93
        5
 44
0.0
173
     0
291
     0
 45
0.0
1001
ACAD
1000
AcDbSavedByObjectVersion
1070
     0
  0
VISUALSTYLE
  5
17E
102
{ACAD_XDICTIONARY
360
F55
102
}
102
{ACAD_REACTORS
330
99
102
}
330
99
100
AcDbVisualStyle
  2
Shades of Gray
 70
    23
 71
     2
 72
     2
 73
     3
 90
        0
 40
-0.6
 41
-30.0
 62
     5
 63
     7
 74
     2
 91
        2
 64
     7
 65
     7
 75
     1
175
     1
 42
40.0
 92
        8
 66
     7
 43
1.0
 76
     1
 77
     6
 78
     2
 67
     7
 79
     3
170
     0
171
     0
290
     0
174
     0
 93
        1
 44
0.0
173
     0
291
     0
 45
0.0
1001
ACAD
1000
AcDbSavedByObjectVersion
1070
     0
  0
VISUALSTYLE
  5
17F
102
{ACAD_XDICTIONARY
360
F57
102
}
102
{ACAD_REACTORS
330
99
102
}
330
99
100
AcDbVisualStyle
  2
Sketchy
 70
    24
 71
     1
 72
     2
 73
     2
 90
        0
 40
-0.6
 41
-30.0
 62
     5
 63
     7
 74
     2
 91
        2
 64
     7
 65
     7
 75
     1
175
     1
 42
40.0
 92
       11
 66
     7
 43
1.0
 76
     1
 77
     6
 78
     2
 67
     7
 79
     6
170
     0
171
     0
290
     0
174
     0
 93
        1
 44
0.0
173
     0
291
     0
 45
0.0
1001
ACAD
1000
AcDbSavedByObjectVersion
1070
     0
  0
VISUALSTYLE
  5
A6
102
{ACAD_XDICTIONARY
360
F45
102
}
102
{ACAD_REACTORS
330
99
102
}
330
99
100
AcDbVisualStyle
  2
Thicken
 70
    13
 71
     2
 72
     2
 73
     1
 90
        0
 40
-0.6
 41
-30.0
 62
     5
 63
     7
 74
     1
 91
        4
 64
     7
 65
   257
 75
     1
175
     1
 42
1.0
 92
       12
 66
     7
 43
1.0
 76
     1
 77
     6
 78
     2
 67
     7
 79
     5
170
     0
171
     0
290
     0
174
     0
 93
        1
 44
0.0
173
     0
291
     1
 45
0.0
1001
ACAD
1000
AcDbSavedByObjectVersion
1070
     0
  0
VISUALSTYLE
  5
A0
102
{ACAD_XDICTIONARY
360
F39
102
}
102
{ACAD_REACTORS
330
99
102
}
330
99
100
AcDbVisualStyle
  2
Wireframe
 70
     5
 71
     0
 72
     2
 73
     0
 90
        0
 40
-0.6
 41
-30.0
 62
     5
 63
     7
 74
     1
 91
        4
 64
     7
 65
   257
 75
     1
175
     1
 42
1.0
 92
        0
 66
   257
 43
1.0
 76
     1
 77
     6
 78
     2
 67
     7
 79
     3
170
     0
171
     0
290
     0
174
     0
 93
        1
 44
0.0
173
     0
291
     0
 45
0.0
1001
ACAD
1000
AcDbSavedByObjectVersion
1070
     0
  0
VISUALSTYLE
  5
180
102
{ACAD_XDICTIONARY
360
F59
102
}
102
{ACAD_REACTORS
330
99
102
}
330
99
100
AcDbVisualStyle
  2
X-Ray
 70
    25
 71
     2
 72
     2
 73
     1
 90
        1
 40
0.5
 41
-30.0
 62
     5
 63
     7
 74
     1
 91
        0
 64
     7
 65
   257
 75
     1
175
     1
 42
1.0
 92
        8
 66
     7
 43
1.0
 76
     1
 77
     6
 78
     2
 67
     7
 79
     3
170
     0
171
     0
290
     0
174
     0
 93
       13
 44
0.0
173
     0
291
     0
 45
0.0
1001
ACAD
1000
AcDbSavedByObjectVersion
1070
     0
  0
DICTIONARYVAR
  5
F0
102
{ACAD_REACTORS
330
66
102
}
330
66
100
DictionaryVariables
280
     0
  1
1:1
  0
DICTIONARYVAR
  5
EF
102
{ACAD_REACTORS
330
66
102
}
330
66
100
DictionaryVariables
280
     0
  1
STANDARD
  0
DICTIONARYVAR
  5
89
102
{ACAD_REACTORS
330
66
102
}
330
66
100
DictionaryVariables
280
     0
  1
STANDARD
  0
DICTIONARYVAR
  5
1B7
102
{ACAD_REACTORS
330
66
102
}
330
66
100
DictionaryVariables
280
     0
  1
Imperial24
  0
DICTIONARYVAR
  5
1B8
102
{ACAD_REACTORS
330
66
102
}
330
66
100
DictionaryVariables
280
     0
  1
Imperial24
  0
DICTIONARYVAR
  5
67
102
{ACAD_REACTORS
330
66
102
}
330
66
100
DictionaryVariables
280
     0
  1
2
  0
DICTIONARYVAR
  5
6B
102
{ACAD_REACTORS
330
66
102
}
330
66
100
DictionaryVariables
280
     0
  1
1
  0
DICTIONARYVAR
  5
ED4
102
{ACAD_REACTORS
330
66
102
}
330
66
100
DictionaryVariables
280
     0
  1
0
  0
DICTIONARYVAR
  5
14D
102
{ACAD_REACTORS
330
66
102
}
330
66
100
DictionaryVariables
280
     0
  1
0
  0
DICTIONARYVAR
  5
14E
102
{ACAD_REACTORS
330
66
102
}
330
66
100
DictionaryVariables
280
     0
  1
0
  0
DICTIONARYVAR
  5
ED2
102
{ACAD_REACTORS
330
66
102
}
330
66
100
DictionaryVariables
280
     0
  1
2
  0
DICTIONARYVAR
  5
ED1
102
{ACAD_REACTORS
330
66
102
}
330
66
100
DictionaryVariables
280
     0
  1
1
  0
DICTIONARYVAR
  5
ED3
102
{ACAD_REACTORS
330
66
102
}
330
66
100
DictionaryVariables
280
     0
  1
127
  0
DICTIONARYVAR
  5
F1F
102
{ACAD_REACTORS
330
66
102
}
330
66
100
DictionaryVariables
280
     0
  1
2
  0
DICTIONARY
  5
F61
330
1AC
100
AcDbDictionary
280
     1
281
     1
  3
ACAD_XREC_ROUNDTRIP
360
F62
  0
DICTIONARY
  5
F25
330
59
100
AcDbDictionary
280
     1
281
     1
  3
ACAD_XREC_ROUNDTRIP
360
F26
  0
DICTIONARY
  5
F27
330
5E
100
AcDbDictionary
280
     1
281
     1
  3
ACAD_XREC_ROUNDTRIP
360
F28
  0
DICTIONARY
  5
F23
330
22
100
AcDbDictionary
280
     1
281
     1
  3
ACAD_XREC_ROUNDTRIP
360
F24
  0
DICTIONARY
  5
188
330
97
100
AcDbDictionary
280
     1
281
     1
  3
ACAD_XREC_ROUNDTRIP
360
F2B
  3
FBXASSET
360
189
  0
DICTIONARY
  5
186
330
96
100
AcDbDictionary
280
     1
281
     1
  3
ACAD_XREC_ROUNDTRIP
360
F2A
  3
FBXASSET
360
187
  0
DICTIONARY
  5
110
330
98
100
AcDbDictionary
280
     1
281
     1
  3
ACAD_XREC_ROUNDTRIP
360
F2C
  3
BUMPTILE
360
112
  3
DIFFUSETILE
360
111
  3
FBXASSET
360
18A
  3
OPACITYTILE
360
113
  3
REFLECTIONTILE
360
114
  0
DICTIONARY
  5
F4D
330
D8
100
AcDbDictionary
280
     1
281
     1
  3
ACAD_XREC_ROUNDTRIP
360
F4E
  0
DICTIONARY
  5
F5F
330
1AA
100
AcDbDictionary
280
     1
281
     1
  3
ACAD_XREC_ROUNDTRIP
360
F60
  0
DICTIONARY
  5
104
330
87
100
AcDbDictionary
280
     1
281
     1
  3
ACAD_ROUNDTRIP_2008_TABLESTYLE_CELLSTYLEMAP
360
F20
  3
ACAD_XREC_ROUNDTRIP
360
F29
  0
DICTIONARY
  5
F37
330
9F
100
AcDbDictionary
280
     1
281
     1
  3
ACAD_XREC_ROUNDTRIP
360
F38
  0
DICTIONARY
  5
F35
330
9E
100
AcDbDictionary
280
     1
281
     1
  3
ACAD_XREC_ROUNDTRIP
360
F36
  0
DICTIONARY
  5
F43
330
A5
100
AcDbDictionary
280
     1
281
     1
  3
ACAD_XREC_ROUNDTRIP
360
F44
  0
DICTIONARY
  5
F4B
330
A9
100
AcDbDictionary
280
     1
281
     1
  3
ACAD_XREC_ROUNDTRIP
360
F4C
  0
DICTIONARY
  5
F3D
330
A2
100
AcDbDictionary
280
     1
281
     1
  3
ACAD_XREC_ROUNDTRIP
360
F3E
  0
DICTIONARY
  5
F41
330
A4
100
AcDbDictionary
280
     1
281
     1
  3
ACAD_XREC_ROUNDTRIP
360
F42
  0
DICTIONARY
  5
F53
330
175
100
AcDbDictionary
280
     1
281
     1
  3
ACAD_XREC_ROUNDTRIP
360
F54
  0
DICTIONARY
  5
F49
330
A8
100
AcDbDictionary
280
     1
281
     1
  3
ACAD_XREC_ROUNDTRIP
360
F4A
  0
DICTIONARY
  5
F2D
330
9A
100
AcDbDictionary
280
     1
281
     1
  3
ACAD_XREC_ROUNDTRIP
360
F2E
  0
DICTIONARY
  5
F2F
330
9B
100
AcDbDictionary
280
     1
281
     1
  3
ACAD_XREC_ROUNDTRIP
360
F30
  0
DICTIONARY
  5
F31
330
9C
100
AcDbDictionary
280
     1
281
     1
  3
ACAD_XREC_ROUNDTRIP
360
F32
  0
DICTIONARY
  5
F33
330
9D
100
AcDbDictionary
280
     1
281
     1
  3
ACAD_XREC_ROUNDTRIP
360
F34
  0
DICTIONARY
  5
F3B
330
A1
100
AcDbDictionary
280
     1
281
     1
  3
ACAD_XREC_ROUNDTRIP
360
F3C
  0
DICTIONARY
  5
F4F
330
173
100
AcDbDictionary
280
     1
281
     1
  3
ACAD_XREC_ROUNDTRIP
360
F50
  0
DICTIONARY
  5
F47
330
A7
100
AcDbDictionary
280
     1
281
     1
  3
ACAD_XREC_ROUNDTRIP
360
F48
  0
DICTIONARY
  5
F51
330
174
100
AcDbDictionary
280
     1
281
     1
  3
ACAD_XREC_ROUNDTRIP
360
F52
  0
DICTIONARY
  5
F3F
330
A3
100
AcDbDictionary
280
     1
281
     1
  3
ACAD_XREC_ROUNDTRIP
360
F40
  0
DICTIONARY
  5
F5D
330
182
100
AcDbDictionary
280
     1
281
     1
  3
ACAD_XREC_ROUNDTRIP
360
F5E
  0
DICTIONARY
  5
F5B
330
181
100
AcDbDictionary
280
     1
281
     1
  3
ACAD_XREC_ROUNDTRIP
360
F5C
  0
DICTIONARY
  5
F55
330
17E
100
AcDbDictionary
280
     1
281
     1
  3
ACAD_XREC_ROUNDTRIP
360
F56
  0
DICTIONARY
  5
F57
330
17F
100
AcDbDictionary
280
     1
281
     1
  3
ACAD_XREC_ROUNDTRIP
360
F58
  0
DICTIONARY
  5
F45
330
A6
100
AcDbDictionary
280
     1
281
     1
  3
ACAD_XREC_ROUNDTRIP
360
F46
  0
DICTIONARY
  5
F39
330
A0
100
AcDbDictionary
280
     1
281
     1
  3
ACAD_XREC_ROUNDTRIP
360
F3A
  0
DICTIONARY
  5
F59
330
180
100
AcDbDictionary
280
     1
281
     1
  3
ACAD_XREC_ROUNDTRIP
360
F5A
  0
XRECORD
  5
F62
102
{ACAD_REACTORS
330
F61
102
}
330
F61
100
AcDbXrecord
280
     1
102
DISPLAYNAME
  1
Imperial24
102
FLAGS
 90
        0
  0
XRECORD
  5
F26
102
{ACAD_REACTORS
330
F25
102
}
330
F25
100
AcDbXrecord
280
     1
102
SHADEPLOT
 70
     0
102
SHADEPLOTRESLEVEL
 70
     2
102
SHADEPLOTCUSTOMDPI
 70
   300
  0
XRECORD
  5
F28
102
{ACAD_REACTORS
330
F27
102
}
330
F27
100
AcDbXrecord
280
     1
102
SHADEPLOT
 70
     0
102
SHADEPLOTRESLEVEL
 70
     2
102
SHADEPLOTCUSTOMDPI
 70
   300
  0
XRECORD
  5
F24
102
{ACAD_REACTORS
330
F23
102
}
330
F23
100
AcDbXrecord
280
     1
102
SHADEPLOT
 70
     0
102
SHADEPLOTRESLEVEL
 70
     2
102
SHADEPLOTCUSTOMDPI
 70
   300
  0
XRECORD
  5
F2B
102
{ACAD_REACTORS
330
188
102
}
330
188
100
AcDbXrecord
280
     1
102
MATERIAL
148
0.0
149
0.0
149
0.0
 93
        0
 94
       63
282
     0
 72
     1
 77
     1
171
     1
175
     1
179
     1
273
     0
  0
XRECORD
  5
189
102
{ACAD_REACTORS
330
188
102
}
330
188
100
AcDbXrecord
280
     1
 70
     1
 90
429727718
  1
508B35C9-AEE7-456F-BE74-D52651303AC6
310
504B03040A0000080000B670623B3DEE336E79000000790000001B0000006175746F6465736B2D64657369676E2D7061636B6167652E786D6C3C3F786D6C2076657273696F6E3D22312E302220656E636F64696E673D227574662D3822203F3E3C666F726D6174733E3C666F726D61743E687474703A2F2F736368656D612E
310
6175746F6465736B2E636F6D2F64657369676E2D7061636B6167652F323030393C2F666F726D61743E3C2F666F726D6174733E504B0304140006080800B670623BD486FD9CA0000000F4000000130000005B436F6E74656E745F54797065735D2E786D6C7D8EC10E82300C865F65E91D8A1E8C310C0EEA1BF002731658846E
310
D98AC1B77784ABF1D8FE5FBFBF75BBCE937A534CCEB38643598122B6FEE978D0B0485F9C41B54DDD7D022595594E1A469170414C76A4D9A4D207E29CF43ECE46F218070CC6BECC4078ACAA135ACF422C856C0E68EA1BF5669944DDD7BCDE7B1F8E415D77AECB980613C2E4AC91FC167A2B244592486606FC29C8FD7F045B9A
310
EF7053A7E60B504B0304140006080800B670623B28ED286BEB0000007C01000008000000636F72652E786D6C8D90416EC3201045AF82665B6183218D6D61A254764FD00B204C5C94182C03558F5F9C3852BBEB6A467FFE9B197D71FA9E6FE8CBACC17AD7012D0820E3B41FAD9B3A48F1826B40272956EFE32F1B20A766D3C1
310
268314D3EAD3B24BDABB685CCCAAF3A3D94515828980F42D371D04FD696655A814B3235C8B45E9AB9A4C419F5D8653B2237A1CB163DE672FD6AC209BF3C08E0D1B30EB19C3FC9D72FCC6EB231EFA33EDE96BDD341517E5064B11EDFCBCAF57A3A2194156843498524CAA0FCA5B7268F9E185D42D21A2DCEC7FA0B48CFF8492
310
759155FBBB0F2C80A4F991FB408A72CB22977B50B96EB9C91F504B0304140006080800B670623B55019EA25F0000007C00000007000000636E782E786D6C4DCB3B0E80201045D1AD90E915ED2CF8AC45050C11660C8261F98AB1B07AC9C97D42D718D865D3E909258CFD00CCE24AC6E326A164D74DC0B4128928FF32603847
310
2BA13128B1252AC747C6BAB984FC68F0B87FE8960A5C09FE86CFB69FBA01504B0304140006080800B670623B7BC41AC871010000D40300000C0000006662782F636F72652E786D6CC553ED6E8320147D15C2DF4501B56B6D90A64BBB27D80B50A5CE54C120983EFEAE1F4DD7A56BBA5FF3879273EEE59E7310BE393735EA95
310
ED2AA333CC428A91D2B9292A5D66D8BB63B0C26823B835C67D2BC348CB46657880B1E0A535BE9DA1DC68A7B403549B42CDA0EC3AE530CA6B5864B8CB3F552343E91D5474A7B095F949962A6421D0502778E72C0840D390E18DC5F170E664C205F7BE2A66B62A605A75AC94C522DDEEE3651AEF837817C741F2CE92E02D592D
310
83FD6ECB76EC7595A651C2C9D02CB8AB9A8BBADC2AE954814544691A3016D0E883256BBA58278B17BA5A53CAC9507ED3E4DBE2C9265F691747B3DCA9ADC382819091F8E1162272A8933DE82182932144F88C09DF060D8140C84E1EEA8B8F1340BDCA9DB1093085F157AA97B557309586747CD0EF0B4EA64E983A6E0EAEEFCE
310
889E9EF17847386AA94B30211D2C0FDE0D3AF9A4610EAD5536E8DD1969631B593F67E381C33F5157F17725E5A636F6BF1491F980C8FC7B90E13E8A2F504B0304140006080800B670623B70102A487D0000009D0000000B0000006662782F636E782E786D6C4DCCD10A83201886E15B91FFDC95A5C30335ACCDFB886521330D
310
A76397BF1A1DECE883878F57749FD5A3B74D2F17830472A901D9F088930B8B849267CC01754AA418F3DF0D5018572BE160506249B16C274D761E8BCFBB7A179E27F65CB39A0F14D396184C9921B81F34C3ACA1B4B99ABB6E6F062A25AA5F69DF23ACBE504B0304140006080800B670623B3610CA3329010000120200003100
310
00006662782F42384135303843342D343331462D343546312D424341352D3532343432364645413344462F636F72652E786D6C8D515B6EC32010BC0AE22B55850D0E446E848992B43E412FE000495162B07854397EA176A4F62F3F2C9A9D991D58BEBB8F37F0AD7D30CE76905418026DA553C65E3A98E219B510EC04F7CEC5
310
3F3408EC30EA0E16180A7EF12E4D0B249D8DDAC68C5AA7F4020E21E80881BCE54B0783FCD2E3500D296646B856D320AFC34557A4CAEDCC133C449F0380794839A138B47B86DB2345744D7A44594FD0E1B867883594369BFE63BF7EEF793D0B054FC9A8456E548E63CE46FB674D8A58F068C6477CE9F510B582A2C1F80D1182
310
70F349E816B32D65AFB8DD62CCEB42FF274A937A52948C8DEB66893BCB021484D7734370E5D2E9F608A3EF93F3119479ABA0E50B14B8C298119A43CCC4FCFCECB8A18B6388CEE7EF5D5D4F994BD86CBBA182D76543B9FCAE2FD7B24DF103504B0304140006080800B670623B1B8617914E0100003303000030000000666278
310
2F42384135303843342D343331462D343546312D424341352D3532343432364645413344462F636E782E786D6CD593C16EC32010447F0571AD6CE3D489D20813A9877E410FBD62D82434182CC055F3F75D1292E692438FBD206B7698593D61BEFD1E2DF982108D773D6D6B460938E5B571FB9ECE6957AD29D90A1EBC4F7736
310
4A9C1CA1A759A682EF839FA72269D8C9D92654AD71C72206887E0E0A22CAF926B15E498B01E0AA19451807D01A34B919F16B070157417138917400F2F6FA41FCF0092A45DEE414C19BDC21783E4BD39D891265658C3D8DEA00A3ACE59CBC8678ACB54CB26EEB6BD7839D7E9348BE70AD9C8321B9BCA7F9A4A26C542347DEE0
310
50F09802D22BA6749A800A394DD62899107273365E3C82CFC6A55557BC06C10774B7ABE7AEC3B0F34CF06446280E154026D0542C187BA9DAB6628BF7B6DBB0E5A65B3EB1F58631DE64BBE083F7B65CC218087E22CABB042E51D1F2268F1FE12B3EA24D40D63E9CFE00120194D60B9D5BC67FE6D39CDF37E20AF817881F504B
310
0304140006080800B670623BBFEF2E3B690500003C100000340000006662782F42384135303843342D343331462D343546312D424341352D3532343432364645413344462F6F626A656374732E786D6CAD575D739B3814FD2B0CFB0C98D84E931D4227B6938EA793B6534F3BFB90198F0099B001899144EAECAFDF231018B0
310
D37A3FFC609090EEE7B94757C1FB7D915B2F54C88CB31BDB7727B64559CC938CA53776A576CE956DBD0F03C1B9EA2DB32D460A7A63EB693B0C52C1ABD24C257447AA5C8D66EF177F5832A68CDA569C13296F6C193FD182B8A4523CA1F2D94D88226EBADBBBBEDB2C1C8A4D05299F46424B222853B014F30C52ACC6287F389C
310
D85E1878FA7B18E87FB36AFAF62AAFF667A83F635211161F291B8999FAB3D5DDC5FCDA99CF6653677679E13B8BFBC5CAF1DF4D27CBCBE5F2FAF6EE1A8AA51290642C117467871F101B91C581D77CEA2C36869F3229E68CD1B8F61F1ED6361B89092D294B90C78C4A68EB793D190E7D1D9BDEE7A91E1B95FDE9F3BCEAEFE809
310
6A6D6F9F7D4B79F4275C90E7A04248AA51D5C4C738DAE06F72885AC4796EBE65D22A88A22223B995679120E2D50EB1542F098381188D4EA111AE3DB043FF20AF6F2B4AE3D7D83D65E5AECA730D4D3BAC91BD05FEA992B565D95F549CD6069B90AB2A63EACA38A45E4B6A87D781574F86817E4C2FCCC72690D62E2729520E37
310
9BAF234797BAF6D62B3BFC781FED37BA1E4F2B2F052FA9501A3E80569BB8F6A9A364D4FA67654E6F803383981F82F21591FF84F23D9882BC896C3FDBCF8C162508933B2E0AE4C69DD43F6BD2BE38DDDBF10BF86CB4FA784D37F3AF16075E67EC9030DECA1FC0A55373F5DFF3378C591FA9BDF485C10B0A8C8BA909E5262639
310
A8E72163488806A595734C81CB77D1DE0ED7604A303B76913CEC0272F412782FF88EFF4636D8AA56DF7B322474C4B767303F625997056C7B032C473C592B36CEBD15F3F9FF5233B7ABCDC74D257624A60F8658567497B14CE1EC3C80B76FD02011038F9EE9EB0F2E12387A9C844D3F09855125116D1D731DF8B43D2CF4E0A0
310
79A020C6BE946BCE0B7EA1E1219331CD73C228AF5A2DDD31A4B1DA918CE91350854D40A71723140BFA92E94E62B0626016CEFA5864A50E5977E8753CEDBEE1CBB7F52780D20E17AF0BA0F5F9B02A3AD07DCC732EB6D1EBB661421BE0C39E21BABF0FE16D22EA6929407C8DE596724C88B749B6DB5512BC7B228ADFD7CB7EA6
310
3A22397E690BA8D5D8D4E40CEC8CDA23C2C0B7D5898640101CEC9C6D331CE328CB93CAFBBAC70A642DF70DF95155945B52F08AA973C23469FD69ADEF84F7BB18F983A8F8C90E37F5D35980B2139A1C523540813E824EF83448CF7C72B598CE97D7CEEDDDDD3B6736BFBC771677EF66CE6A7E7139F7A793E9EDF2B2B3A8B624
310
0CDA13AA5F8388264EC4A0129909F3B7F5A16CEDF08128E97D680ACA4B9BE7B7B58BB638F0B00700EF36AE8B32A705658A68F83EE897FC2B41573190D1CCAF0B92D233A47CFEB019D9809933F67DD1A5467F8CF69AD9A5AE859342D45355448C64F968A371DC2D596ADC6E43D93D1B466F877A64E2893E54F23C4B40388995
310
525E5005DA3983ED45412510D3EFCA13737B3863F74BD30F2A12E5B4B5E489A025CE25500DB855B11ACE5BBFA185D35DD48D8DC3CE7DC69F2944DB42AA6F6CF09BCA622ADD08C7A36E7C6AE18000BAB08E040135C2D21C9D75B3A91B77BB746C403F38018DFE6EC939DD92F16B40BC05294B9CDA035AAD6D330AE27FE4786B
310
8E45145EA34A75BE1C263A676A35A8ACC6297337400BF16C54EF515F3F77CB77EB3583889C754FFA29081AA98E2222ADEF05DA3E63D2EDEA8B8756C05A7FB6CABC4A91CBF325398202CC952E70A008A830324BA200D5E5EF8F5F04C75DB4B0EE3340E071C98B823333B83577596BF3849B69F2085AA0FAFA212F26BEFF5877
310
FDE622B28D88A42E49E43326DA82D31E8CB006401E1DA726059ECEC168F97A6599036306A135688F9AD2E61A6EA178F4CD51974A9F2CCB9F36FE5EBD14601068D9C3BF01504B0304140006080000B670623B000000000000000000000000350000006662782F42384135303843342D343331462D343546312D424341352D35
310
32343432364645413344462F76657274696365732E62696E504B0304140006080800B670623BF270F1330600000004000000360000006662782F42384135303843342D343331462D343546312D424341352D3532343432364645413344462F747269616E676C65732E62696E636660600000504B0304140006080000B67062
310
3B000000000000000000000000370000006662782F42384135303843342D343331462D343546312D424341352D3532343432364645413344462F617474726962757465732E62696E504B0304140006080800B670623B08DA0BD19000000041010000360000006662782F42384135303843342D343331462D343546312D4243
310
41352D3532343432364645413344462F6469726563746F72792E786D6C858F410AC3201045AF22B36F53E9A60B35CBEEBAE80D244E44489C6234F4F835464A48035D0DF398FF9F8AF63D0E6CC63039F212F8F9020C7D47C6792B21C5FE7403D62A1188E2E60C98D7234A5830286103A55745067B9D86B8A3CF9C7F90C11DE6
310
07FB144396D7B6A82D282E9A152AD114D5EF2CB866EEE831B8EEA07A7BB5A8D7D61A2BAAEB7FD5F70921FF497D00504B0304140006080800B670623B3B4606F3FE000000A00100003B0000006662782F42384135303843342D343331462D343546312D424341352D3532343432364645413344462F7265736F75726365732F
310
636F72652E786D6C8D504B6E833010BD0A9A6D65B08134808CA354A427E8052C332156828DFCA97AFC9A40A576D7CDCCE87D344F8F9FBEE647F689CE6B6B7A6039850C8DB2A336530F315C4903D94970676DF82583CCC8197B5861107C72362E3BA4AC096842428D1D7107A5F71820538F74F4E0D50D6799CB1892C2DFF345
310
AABB9C306779A2934E701F5C0A906D4FD609C2A1B7D129F4BCD858C163D4E3AED163FAA9AF1A1D88F67CA98E6D35906AA82A52BFB39ABCD5CD915C86331BD86BD3B665CD8BD52C78D0F34F46E550061C419494B6843142CB0F5677F4D0D58717DA7494F26295FF31C565FCA7296A13AA728FBBD93C0896823C09C18BB5AFB4
310
9E65A6BD762BBE01504B010214000A0000080000B670623B3DEE336E79000000790000001B00000000000000000000000000000000006175746F6465736B2D64657369676E2D7061636B6167652E786D6C504B01021400140006080800B670623BD486FD9CA0000000F40000001300000000000000000000000000B2000000
310
5B436F6E74656E745F54797065735D2E786D6C504B01021400140006080800B670623B28ED286BEB0000007C010000080000000000000000000000000083010000636F72652E786D6C504B01021400140006080800B670623B55019EA25F0000007C000000070000000000000000000000000094020000636E782E786D6C50
310
4B01021400140006080800B670623B7BC41AC871010000D40300000C00000000000000000000000000180300006662782F636F72652E786D6C504B01021400140006080800B670623B70102A487D0000009D0000000B00000000000000000000000000B30400006662782F636E782E786D6C504B01021400140006080800B6
310
70623B3610CA3329010000120200003100000000000000000000000000590500006662782F42384135303843342D343331462D343546312D424341352D3532343432364645413344462F636F72652E786D6C504B01021400140006080800B670623B1B8617914E010000330300003000000000000000000000000000D10600
310
006662782F42384135303843342D343331462D343546312D424341352D3532343432364645413344462F636E782E786D6C504B01021400140006080800B670623BBFEF2E3B690500003C10000034000000000000000000000000006D0800006662782F42384135303843342D343331462D343546312D424341352D35323434
310
32364645413344462F6F626A656374732E786D6C504B01021400140006080000B670623B0000000000000000000000003500000000000000000000000000280E00006662782F42384135303843342D343331462D343546312D424341352D3532343432364645413344462F76657274696365732E62696E504B010214001400
310
06080800B670623BF270F133060000000400000036000000000000000000000000007B0E00006662782F42384135303843342D343331462D343546312D424341352D3532343432364645413344462F747269616E676C65732E62696E504B01021400140006080000B670623B00000000000000000000000037000000000000
310
00000000000000D50E00006662782F42384135303843342D343331462D343546312D424341352D3532343432364645413344462F617474726962757465732E62696E504B01021400140006080800B670623B08DA0BD1900000004101000036000000000000000000000000002A0F00006662782F42384135303843342D3433
310
31462D343546312D424341352D3532343432364645413344462F6469726563746F72792E786D6C504B01021400140006080800B670623B3B4606F3FE000000A00100003B000000000000000000000000000E1000006662782F42384135303843342D343331462D343546312D424341352D3532343432364645413344462F72
310
65736F75726365732F636F72652E786D6C504B0506000000000E000E0080040000651100000000
  0
XRECORD
  5
F2A
102
{ACAD_REACTORS
330
186
102
}
330
186
100
AcDbXrecord
280
     1
102
MATERIAL
148
0.0
149
0.0
149
0.0
 93
        0
 94
       63
282
     0
 72
     1
 77
     1
171
     1
175
     1
179
     1
273
     0
  0
XRECORD
  5
187
102
{ACAD_REACTORS
330
186
102
}
330
186
100
AcDbXrecord
280
     1
 70
     1
 90
429727718
  1
887D55A9-D0DD-414E-B741-A7DCD4DA2B4C
310
504B03040A0000080000B670623B3DEE336E79000000790000001B0000006175746F6465736B2D64657369676E2D7061636B6167652E786D6C3C3F786D6C2076657273696F6E3D22312E302220656E636F64696E673D227574662D3822203F3E3C666F726D6174733E3C666F726D61743E687474703A2F2F736368656D612E
310
6175746F6465736B2E636F6D2F64657369676E2D7061636B6167652F323030393C2F666F726D61743E3C2F666F726D6174733E504B0304140006080800B670623BD486FD9CA0000000F4000000130000005B436F6E74656E745F54797065735D2E786D6C7D8EC10E82300C865F65E91D8A1E8C310C0EEA1BF002731658846E
310
D98AC1B77784ABF1D8FE5FBFBF75BBCE937A534CCEB38643598122B6FEE978D0B0485F9C41B54DDD7D022595594E1A469170414C76A4D9A4D207E29CF43ECE46F218070CC6BECC4078ACAA135ACF422C856C0E68EA1BF5669944DDD7BCDE7B1F8E415D77AECB980613C2E4AC91FC167A2B244592486606FC29C8FD7F045B9A
310
EF7053A7E60B504B0304140006080800B670623BBC1638F5EC0000007C01000008000000636F72652E786D6C8D90416EC3201045AF82665B61836BE2D8C24471DB9CA01740401C94182C03558F5F9C3852BBEB6A467FFE9B197D7EF89E6EE8CB2CC17AD7032D0820E394D7D68D3DA478C67B4007C117EFE32F1B202727D3C3
310
2A83E0E3E2D3BC49CABB685CCCAAF3DA6CA20CC14440EA969B1E82BA98491632C5EC08D76296EA2A4753D06797E194AC468F2356E77DF66CCD02825543D50CACC62D39ED70FDC68EB8FD68F6F8787A6784342D1DDA1D2F5758F068A7E77DB518198D065111D2624A31A93E69DD11D6D5EC85EC3B4278B9DAFF4069D6FF8492
310
75F1B5DADE7D600104CD8FDC0782976B16B9DC83CA75CD4DFC00504B0304140006080800B670623B55019EA25F0000007C00000007000000636E782E786D6C4DCB3B0E80201045D1AD90E915ED2CF8AC45050C11660C8261F98AB1B07AC9C97D42D718D865D3E909258CFD00CCE24AC6E326A164D74DC0B4128928FF326038
310
472BA13128B1252AC747C6BAB984FC68F0B87FE8960A5C09FE86CFB69FBA01504B0304140006080800B670623B3586FFB671010000D40300000C0000006662782F636F72652E786D6CC553ED6E8320147D15C2DF4541A76D6D90A6DDD627D80B50A4CE54C120983EFEAE1F4DD7A55BBA5FF3879273EEE59E7310B6393735EA
310
95ED2AA3731C851423A5A5292A5DE6D8BB63B0C268C39935C67D29C3488B46E578803167A535BE9D2169B453DA01AA4DA16650749D7218C91A1639EEE4876A4428BC838AEE14B6429E44A9C228041AEA38EB9C0501681A32BC313F1ECE8C4C3867DE57C5CC56054CAB8E95B298A7F12E5EEED224C8E87E11242FE936C8DE96
310
AB60BB7F4D295D66D12E5B30323473E6AAE6A24E5A259C2A308F29CD82280A68FC1E256B9AAE93F489AED694323294DF34F9B678B0C957DA3DC7B3DCA9ADC33C022123F1CD2D44E450277AD04338234388F01913BE0D1A0281909D38D4171F27807A259DB1093085F157AA17B557309586747CD0CF0B46A64E983A6E0EAEEF
310
CE881F9EF1FB8E70D44297604238581EBC1B74B249C31C5AAB6CD0BB33D2C636A27ECCC62F0EFF445DC5DF95244D6DEC7F2922F30191F9F720C37DE49F504B0304140006080800B670623B4220A0FF7D0000009D0000000B0000006662782F636E782E786D6C4DCCD10A83201886E15B91FFDCE542CB0335D0EC3E6259C84A
310
C3E9D8E5AF46073BFAE0E1E315DD675BD1DBA5978F41C2FD4600B9F088930F8B849267CC01754AA418F3DF0D50183727E164506249B1EC174D6E1ECB9A0F5D7D785E68DB8151CD286E5A5363CA6B8A39E90D36D40E96B086F55A43A544F52B1D7B86D517504B0304140006080800B670623B2FA3FEDE290100001202000031
310
0000006662782F45374635344235342D363743322D343832342D383044432D4334454645303536354442422F636F72652E786D6C8D515B6EC32010BC0AE22B55850D2E386E848994D7097A0117488A1283C5A3CAF10BB523B57FF961D1ECCCECC0F2ED7DBC816FED8371B687A4C210682B9D32F6D2C314CFA883602BB8772E
310
FEA141608751F7B0C050F08B77695A20E96CD43666D43AA5177008414708E42D5F7A18E4971E876A483133C2B59A06791D2EBA22556E679EE021FA1C00CC43CA09C5717D6274C7286AD7FB06D1AEA1A8C3873DDAD3E3E98859CB0EBB1DAF67A1E02919B5C88DCA71CCD968FFAC49110B1ECDF8882FBD1EA256503418BF2342
310
106E3E08DD60B6A1EC15771B8C795DE8FF4469524F8A92B1F1AD59E2CEB20005E1F5DC105CB9F4797B84D1F7C9F908CABC55D0F2050A5C61CC1AD2F27A26E6E767C7962E8E213A9FBF7775FDCC5CC266DB960A5E970DE5F2BBBE5CCB36C50F504B0304140006080800B670623B1B8617914E01000033030000300000006662
310
782F45374635344235342D363743322D343832342D383044432D4334454645303536354442422F636E782E786D6CD593C16EC32010447F0571AD6CE3D489D20813A9877E410FBD62D82434182CC055F3F75D1292E692438FBD206B7698593D61BEFD1E2DF982108D773D6D6B460938E5B571FB9ECE6957AD29D90A1EBC4F77
310
364A9C1CA1A759A682EF839FA72269D8C9D92654AD71C72206887E0E0A22CAF926B15E498B01E0AA19451807D01A34B919F16B070157417138917400F2F6FA41FCF0092A45DEE414C19BDC21783E4BD39D891265658C3D8DEA00A3ACE59CBC8678ACB54CB26EEB6BD7839D7E9348BE70AD9C8321B9BCA7F9A4A26C542347DE
310
E050F09802D22BA6749A800A394DD62899107273365E3C82CFC6A55557BC06C10774B7ABE7AEC3B0F34CF06446280E154026D0542C187BA9DAB6628BF7B6DBB0E5A65B3EB1F58631DE64BBE083F7B65CC218087E22CABB042E51D1F2268F1FE12B3EA24D40D63E9CFE00120194D60B9D5BC67FE6D39CDF37E20AF817881F50
310
4B0304140006080800B670623B29652116630500003C100000340000006662782F45374635344235342D363743322D343832342D383044432D4334454645303536354442422F6F626A656374732E786D6CAD575D739B3814FD2B0CFB0C989834C90EA1639B24E3E9A6EDD4D3CE3E64C623834CD8006224913AFDF57B040203
310
B65BEF871F0C12D2FD3CF7E8CA7FBFCB33E3957291B2E2D674ED8969D02262715A24B76625B7D6B569BC0F7CCE98EC2D338D82E4F4D654D366E0279C55A59E8AE99654991CCDDECFFF3444440B6A1A514684B83545F44C7362934AB2988A173B2692D8C97667BB76B3702836E1A47C1E092D09A78584A5982F20C5688C7287
310
C389E904BEA3BE07BEFAD7ABA6A75739B53F43FD69212429A20365233153D70BEF2E2E6FAC4BCF9B5ADEBB0BD79ADFCF43CBBD9A4E16EF168B9BD9DD0D140BC921495BC2E9D60C1E101B9E46BED37CEA2CD6861F3329624541A3DA7F7858DBAC25C6B4A4458C3CA654405BCFEBC970E8AAD8F43E4FD558ABEC4F9FE7557F47
310
4F506B7BFBEC5BCA367FC105710E2AB8A00A554D7CB4A30DFE26FBA86D18CBF4B75418399194A72433B274C3097F33032C554B027F2046A1932B842B0FCCC0DDCBEBDB8AD2F835768F59B9ADB24C41D30C6A64AF817F2A456D59FA83F2E3DA60137255A585BCD60EC9B7929AC18DEFD49381AF1ED30BFDB109A4B1CD488294
310
C3CDE6EBC8D185AABD6568061FEE37BB95AAC7E3CA4BCE4ACAA5820FA0D526AE7DAA2869B5EE5999531BE0CC20E6FBA07C41E43FA27CF7A6206F3CDD793B4F6B919C1462CB788EDCD893FA674CDA17AB7B3B7C019F8D561FAEE966FED562DFE98C1D12C6A9FC015C2A35D7FF3D7FC398F591DA4B5FE0BFA2C0189FEA50AE22
310
92817A1ED3020951A03432862970F976B33383259812CC8E5D240BBA801CBCF8CE2BBEE3BF910DB6AAD5F79E05123AE2DB33981FB1ACCB02B69D00CB014FD68AB573A7627EF9BFD4CC2C5C7D58557C4B22FAA88925A4DBB44825CECE3D78FB060D1231F0E885BE7D673C86A3874958F593906B5502D1563157814FDAC3420D
310
F69A070A22EC4B98E23CFF171A1E5311D12C23056555ABA53B8614563B92D17D02AAB009E8F46284624E5F53D5490C560CCCC2591FF1B45421EB0EBD8EA7ED13BE7C5D7E0428CD60FEF60779EB13E6664FF711CB185F6FDED60D139A001FF60CD1FD6D086F1D51474901E26B2CB794A343BC8ED3EDB612E0DD2351FCB65CF4
310
33D511C9E14B5B40ADC6A6263DB0336A8F700DDF56271A024E70B0B3629DE21847591E55DED73D56206AB927E46FAABC5C939C55853C274C93D69FD6FA4E78BF8B11DF898C9ECD60553FAD39283BA6F18984AA23E8884F83F45C5F5F859797B31B2B9C84A1E5B9DE9D35BFF25C6B76152E422F9C5DCC3D847F5801ED09D5AF
310
41441327A25FF15487F9EB725FB666F048A4701E9A827292E6F97569A32DF61DEC01C0BB8DCBBCCC684E0B49147C1FD54BF685A0AB18C868E6973949E819523E3DAC463660E68C7D9F55A9D1EFA3BD7A76A16AE1A810F95CE59B82A4D968A376DC2E8B44BBDD86B27B368CDE0ED548C7137DA860591A83706223A12CA712B4
310
7306DBF39C0A20A6DF95C7FAF670C6EED7A61F946493D1D6926782963813403548A78AE470DEF80D2D9CEAA26E4D1C76F60BFE74219A06527D6B82DF641A51616F703CAAC6A7160E08A00BEB4810A0274592A1B36E3675E36E978A0DE80727A0D6DF2D39A75BD27E0D8837276589537B40ABB56D5A41F48F1C6FCD3188C4EB
310
A6929D2FFB89CE995A4D00AE813BDD032DC48B56BD437DFDDC2DD7AED70C2272D63DE9A72068A45A92F0A4BE17A8A06B9366E16707AD80B1FC649459952097E74BB23805982B55E0401150A165964402AA8BDF9F3E7386BB686EDCA780C0D382E5392BF460A6EFB2C6EA1937D3F809B440D5F5435C4C5CF7A9EEFAF54564BD
310
2182DA24162F98680B4E7930C21A0079709CEAEB99A372305ABE0C0D7D6078105A83F6A0296DAEE1068A47DD1C55A9F4C9B2FC69E3EFD44B81028E963DF81B504B0304140006080000B670623B000000000000000000000000350000006662782F45374635344235342D363743322D343832342D383044432D433445464530
310
3536354442422F76657274696365732E62696E504B0304140006080800B670623BF270F1330600000004000000360000006662782F45374635344235342D363743322D343832342D383044432D4334454645303536354442422F747269616E676C65732E62696E636660600000504B0304140006080000B670623B00000000
310
0000000000000000370000006662782F45374635344235342D363743322D343832342D383044432D4334454645303536354442422F617474726962757465732E62696E504B0304140006080800B670623B08DA0BD19000000041010000360000006662782F45374635344235342D363743322D343832342D383044432D4334
310
454645303536354442422F6469726563746F72792E786D6C858F410AC3201045AF22B36F53E9A60B35CBEEBAE80D244E44489C6234F4F835464A48035D0DF398FF9F8AF63D0E6CC63039F212F8F9020C7D47C6792B21C5FE7403D62A1188E2E60C98D7234A5830286103A55745067B9D86B8A3CF9C7F90C11DE607FB144396
310
D7B6A82D282E9A152AD114D5EF2CB866EEE831B8EEA07A7BB5A8D7D61A2BAAEB7FD5F70921FF497D00504B0304140006080800B670623B6378F24DFF000000A00100003B0000006662782F45374635344235342D363743322D343832342D383044432D4334454645303536354442422F7265736F75726365732F636F72652E
310
786D6C8D504B6E833010BD0A9A6D65B0094E42641C85B639412F6099496225D8C89FAAC7AF09546A77DDCC8CDE47F3F4C4F16B7C149FE88371B603565228D06A37187BED20C50BD9437194C23B177FC9A0B06AC40E6618A4B87A97A615D2CE46B431A3D60DB8822A048C50E8473E3A08FA86A32A558A5911EEE5A4F45D5DB1
310
6465A6B34E8A107D0E502C4FE609D26370C96B0CA25A58295232C3AA3143FE692E063D485EF7F5AEE71BD2D2F39634AFFC44DAF7DD9E9CCE6F9CD25DCBFA762BAAD92C4534E34F46ED51451C40D694B6843142EB0FD61C283F34FC85EE0F948A6A96FF31A569F8A729191B37F51A77B105902C0779125254735F793DCBCC7B
310
EE567E03504B010214000A0000080000B670623B3DEE336E79000000790000001B00000000000000000000000000000000006175746F6465736B2D64657369676E2D7061636B6167652E786D6C504B01021400140006080800B670623BD486FD9CA0000000F40000001300000000000000000000000000B20000005B436F6E
310
74656E745F54797065735D2E786D6C504B01021400140006080800B670623BBC1638F5EC0000007C010000080000000000000000000000000083010000636F72652E786D6C504B01021400140006080800B670623B55019EA25F0000007C000000070000000000000000000000000095020000636E782E786D6C504B010214
310
00140006080800B670623B3586FFB671010000D40300000C00000000000000000000000000190300006662782F636F72652E786D6C504B01021400140006080800B670623B4220A0FF7D0000009D0000000B00000000000000000000000000B40400006662782F636E782E786D6C504B01021400140006080800B670623B2F
310
A3FEDE290100001202000031000000000000000000000000005A0500006662782F45374635344235342D363743322D343832342D383044432D4334454645303536354442422F636F72652E786D6C504B01021400140006080800B670623B1B8617914E010000330300003000000000000000000000000000D2060000666278
310
2F45374635344235342D363743322D343832342D383044432D4334454645303536354442422F636E782E786D6C504B01021400140006080800B670623B29652116630500003C10000034000000000000000000000000006E0800006662782F45374635344235342D363743322D343832342D383044432D4334454645303536
310
354442422F6F626A656374732E786D6C504B01021400140006080000B670623B0000000000000000000000003500000000000000000000000000230E00006662782F45374635344235342D363743322D343832342D383044432D4334454645303536354442422F76657274696365732E62696E504B01021400140006080800
310
B670623BF270F13306000000040000003600000000000000000000000000760E00006662782F45374635344235342D363743322D343832342D383044432D4334454645303536354442422F747269616E676C65732E62696E504B01021400140006080000B670623B0000000000000000000000003700000000000000000000
310
000000D00E00006662782F45374635344235342D363743322D343832342D383044432D4334454645303536354442422F617474726962757465732E62696E504B01021400140006080800B670623B08DA0BD190000000410100003600000000000000000000000000250F00006662782F45374635344235342D363743322D34
310
3832342D383044432D4334454645303536354442422F6469726563746F72792E786D6C504B01021400140006080800B670623B6378F24DFF000000A00100003B00000000000000000000000000091000006662782F45374635344235342D363743322D343832342D383044432D4334454645303536354442422F7265736F75
310
726365732F636F72652E786D6C504B0506000000000E000E0080040000611100000000
  0
XRECORD
  5
F2C
102
{ACAD_REACTORS
330
110
102
}
330
110
100
AcDbXrecord
280
     1
102
MATERIAL
148
0.0
149
0.0
149
0.0
 93
        0
 94
       63
282
     0
 72
     1
 77
     1
171
     1
175
     1
179
     1
273
     0
  0
XRECORD
  5
112
102
{ACAD_REACTORS
330
110
102
}
330
110
100
AcDbXrecord
280
     1
270
     1
271
     1
  0
XRECORD
  5
111
102
{ACAD_REACTORS
330
110
102
}
330
110
100
AcDbXrecord
280
     1
270
     1
271
     1
  0
XRECORD
  5
18A
102
{ACAD_REACTORS
330
110
102
}
330
110
100
AcDbXrecord
280
     1
 70
     0
 90
1778669749
  1
9BF507EE-FAF7-4A99-A33D-4EE51894BC40
310
504B03040A0000080000B670623B3DEE336E79000000790000001B0000006175746F6465736B2D64657369676E2D7061636B6167652E786D6C3C3F786D6C2076657273696F6E3D22312E302220656E636F64696E673D227574662D3822203F3E3C666F726D6174733E3C666F726D61743E687474703A2F2F736368656D612E
310
6175746F6465736B2E636F6D2F64657369676E2D7061636B6167652F323030393C2F666F726D61743E3C2F666F726D6174733E504B0304140006080800B670623BD486FD9CA0000000F4000000130000005B436F6E74656E745F54797065735D2E786D6C7D8EC10E82300C865F65E91D8A1E8C310C0EEA1BF002731658846E
310
D98AC1B77784ABF1D8FE5FBFBF75BBCE937A534CCEB38643598122B6FEE978D0B0485F9C41B54DDD7D022595594E1A469170414C76A4D9A4D207E29CF43ECE46F218070CC6BECC4078ACAA135ACF422C856C0E68EA1BF5669944DDD7BCDE7B1F8E415D77AECB980613C2E4AC91FC167A2B244592486606FC29C8FD7F045B9A
310
EF7053A7E60B504B0304140006080800B670623BCA089DFFEC0000007C01000008000000636F72652E786D6C8D90416E83301045AF62CDB632D8402020E32882F604BD80653BC44AB011B6AB1EBF262152BBEB6A467FFE9B197D76FA9EEFE84BAFDE38DB03CD08206DA553C64E3DC470C1474027CE56E7C22F1B202B66DDC3
310
260367D3EAE2B24BD2D9A06D48AA754AEFA2F05E0740F29E9A1EBCBCEA59642286E4F0B76C11F226269DD15797E0188D42CF2346A57DE662F40ABCAEC77628C6120F654571D50C04B7F5B9C1E3997CD4F550BE3745C3F20DE62C98F9755FAE5A04AD801784B498524C8A4F5A75E4D055873772EC0861F966FF03C545FD138A
310
C686B2D8DF7D621E384D8F3C069CE55B16A93C824A75CB8DFF00504B0304140006080800B670623B55019EA25F0000007C00000007000000636E782E786D6C4DCB3B0E80201045D1AD90E915ED2CF8AC45050C11660C8261F98AB1B07AC9C97D42D718D865D3E909258CFD00CCE24AC6E326A164D74DC0B4128928FF326038
310
472BA13128B1252AC747C6BAB984FC68F0B87FE8960A5C09FE86CFB69FBA01504B0304140006080800B670623B68FC0B7272010000D40300000C0000006662782F636F72652E786D6CC5535B6E833010BC8AE5DF0A6C1E8124328E22D29EA01770C0A128602363A31CBFCB234A53A555FA553EC09AD9F5CE8C31DB5DDA060D
310
D2F4B556190E7C8A9154852E6B5565D8D993B7C668C799D1DA7E29C3488956667884316795D1AE5BA0422B2B950554E9522EA0E87B69312A1A5864B82F3E642B7CE12C54F467BF13C55954D20F7CA0A18EB3DE1A1080E621E31BF3D3F1C2C88C73E65C5D2E6C5DC2B4FA544B8379921C36797888BC3C8A032F4E73EA6D927D
310
EA1DF6F42D49F2E8350D5346C666CE6CDD5ED515460A2B4BCC434A375E1078347C0FE22D5D6DE3D50B5D6F2965642CBF6B725DF96493AB958DC245EEDCD6631E809089F8E61622B2A81703E8219C913144F84C09DF070D8140C8561C9BAB8F3340832CAC363130A576376A108D933095FA747AD0CF0B46E64E983A6D0EAE1F
310
CE089F9EF1FB8E70D44255604258581E9D1D75B259C3125A278D37D80B52DAB4A279CEC62F0EFF44DDC43F9454E8469BFF5244960322CBEF41C6FBC83F01504B0304140006080800B670623B0F71DDB67E0000009D0000000B0000006662782F636E782E786D6C4DCCD10A83201886E15B91FFDCA54DB73F502386BB8F5816
310
32D3703976F9ABD1C18E3E78F87855FB990379BBFCF2296AE02706C4C5471A7C9C349475A408A4352AA7B4FEDD80C47E761A7606A3A69CCA72D0E0C6BE8475D3E0E3F3409428EA6B27A84079A782899AA2EC1A7AE3ECCC2FD858CB2D544655BFD2B67BD87C01504B0304140006080800B670623BE134B4FB28010000120200
310
00310000006662782F38353834323741342D343835462D343034322D383541392D4331303331363839454531452F636F72652E786D6C8D515B6EC32010BC0AE22B55850D0EA424C24451959EA0172086A42831583CAA1CBF503B52FB971F16CDCECC0EACD8DFC71BF836215AEF7A481A0C817183D7D65D7A98D3197108F652
310
04EFD31F1A044E8DA6871586525C82CFD3020DDE25E352419DD76601558C264130DCCAA58771F832A36A544E8511AFCDA486ABBA988634A55D7852C4144A00300FA927949C71DABD1D28A29C7D208A6987383B6CD13BC16BB2E1DBE3911C453B0BA5C8D9EA456E758963CFD684674DAA588A64C747FC2118958C86B2C3788B
310
0841B8FB247487D98EB257CC77188BB6D2FF89F2A49F1465EBD2BA5BE2CEB2082511EDDC9042FB7CBA3DC298FBE4430275DE2A9AE1054ADC60CC08E3A29D89E5F9C5714317C7987C28DFBBBA9E0A97B0D97643A568EB864AF95D5FA9759BF207504B0304140006080800B670623B1B8617914E010000330300003000000066
310
62782F38353834323741342D343835462D343034322D383541392D4331303331363839454531452F636E782E786D6CD593C16EC32010447F0571AD6CE3D489D20813A9877E410FBD62D82434182CC055F3F75D1292E692438FBD206B7698593D61BEFD1E2DF982108D773D6D6B460938E5B571FB9ECE6957AD29D90A1EBC4F
310
77364A9C1CA1A759A682EF839FA72269D8C9D92654AD71C72206887E0E0A22CAF926B15E498B01E0AA19451807D01A34B919F16B070157417138917400F2F6FA41FCF0092A45DEE414C19BDC21783E4BD39D891265658C3D8DEA00A3ACE59CBC8678ACB54CB26EEB6BD7839D7E9348BE70AD9C8321B9BCA7F9A4A26C542347
310
DEE050F09802D22BA6749A800A394DD62899107273365E3C82CFC6A55557BC06C10774B7ABE7AEC3B0F34CF06446280E154026D0542C187BA9DAB6628BF7B6DBB0E5A65B3EB1F58631DE64BBE083F7B65CC218087E22CABB042E51D1F2268F1FE12B3EA24D40D63E9CFE00120194D60B9D5BC67FE6D39CDF37E20AF817881F
310
504B0304140006080800B670623B5933D422630500003B100000340000006662782F38353834323741342D343835462D343034322D383541392D4331303331363839454531452F6F626A656374732E786D6CAD575B6FA33814FE2B887D0642934E9B156594264D158D3A534DD4D13E548A0C38942D60649B4EBABF7E3F8321
310
40924EF6928780CDF1B97EE762EFF32E4B8D37CA45C2F21BD3B547A641F39045491EDF98A5DC5AD7A6F1D9F73863B243661A39C9E88DA9B64DDF8B392B0BBD15D12D295339D85DDEFE618890E6D434C2940871638AF08566C426A5641115AF764424B1E3EDCE76ED9AB0CF36E6A47819302D08A7B984A6D8CFC1C5A89572FB
310
CB91E9F89EA3BEFB9EFAD754E3D3544E654F5F7E920B49F2F040D880CDD89D2CEE2E2EA7D6E56432B6269F2E5CEB7679BBB0DCABF168FE693E9FCEEEA6102C240727AD09A75BD3BF876F78127A4EFDA9D5582B7E4CA590E5390D2BFB6161A5B3E618D182E611E2985001691DAB47FDA5AB7CD3F93C566B2DB2BB7D9E55DD13
310
1D468DEECDB3AB290BFE8409E21C54704115AA6AFF68436BFC8DF65E0B184BF5B74418199194272435D224E084BF9B3E481589EFF5D828747285706581E9BB7B7E5D5D911ABFC6EE312DB7659A2A689A7E85EC0DF04FA5A8344BFEA2FCB834E8845895492EAFB541F2BDA0A63FF59C6AD3F7D4637CA13FD68E34B629891172
310
98597F1D183A57B9B75A98FE9765B05BAB7C3C2EBCE0ACA05C2AF8005A4DE09AA7F29216EB9E15397500C6F47CBE77CA7778FE2BD277AF0AE2C693DD6437D1522427B9D8329E2136F6A8FA19A3E6C56ADF0E5F50CF06D48734EDCEBF22F69C56D97EC138153F804B85E6FABFC7AFEFB32E523BE1F3BD372418E363EDCA7548
310
52949E8724474014288D94610BB57C1BEC4C7F854A89CA8E5324F55B871CBC78CE1BBEE3BFE68D6A5589EF3C730474506FCFA8FCF0659516D0ED04580EEA6425581B77CAE797FF4BCECC16EB2FEB926F49481F746159D06D922712BD730FDEAE42BD40F42C7AA5EF3F198F60E86110D6DD20645A9480B795CF95E3E3A659A8
310
C55E724F408873315335CFFB8584874484344D494E59D94869DB90C26A5B64F49C802CAC1D3ABE18A098D3B7444D123D8A9E5AE8F5214F0AE5B2B6E9B575DA3E61CBD3EA2B4009FA940524DD1305FB6A1FB294F14DF0BEA90BA109ECE1481FDC3FFAE8D60E75141700BE82725371B4873751B2DD960265F788137FACE6DD40
310
B575E4F0A5C99F46629D92131467A41EE11ABD8D4CCC039CA0AFB37C93A08B232B8F0AEFCA1E0A1015DF13FC83322B362463652ECF71D3A8B1A7D1BE65DE1D62C44F22C317D35F574FEB16153BA2D13E543D10A80E74C4A65E78A6B7CBCBD1D5DD9DB59C2DAFACC96C3AB566E3F1C29ADCDD5DBAD7D3C9ED7C822ED74F80A6
310
41755310DE4443F44A9E68373FADF6596BFA0F440AE7BECE2727AE9F4F2B1B53B1E7E00CF0DD1E5C65454A339A4BA2D0FBA05ED2EF0443458F47BDBFCA484CCFE0F2ED7E3DD0013B679C7B5499467F0ECEEADDB9CA85A34CE44B99053949D2C1416DB85DE4B136BB7165FBAC0B7AB3542BED4F8CA182A549847A1319316519
310
95A83A67147B9E5101C47487F2485F1ECE38FD568F839204296D3479219888530154036E6528FBFBC66F98E0D4107563A2D7D9AFF8D389681A08F58D89F22693900A3B407754734FC51C10C010D6D640809EE4718AC1BA3ED4AEDB53CA37283F68805A7E4B72CEB0A4EDEAD5DD8C14059A76AFAA56BA6901E13F32BC51C720
310
12AF41295B5BF61BAD3195181FB506E6B40F4C10AF5AF40EF9F5B159AE5DD1F43C72D635E94310D45C2D49785C5D0B94D3B54AB3C5A38349C0587D338AB48C11CBF339599C02CCA54A70A008A8D03C0B2201D5F9EFCF8F9CE12A9A19CB0410789EB32C63B95ECCF455D658BFE0621A3DA32C5075FB101723D77DAE867E7D0F
310
D90444509B44E2151B4DC2290B065803200FBAA9BE9D392A0603F2D5C2D00D6302A615680F66D2FA166E2079D4C551A54AB758161FCEFD4E450A14704CECFEDF504B0304140006080000B670623B000000000000000000000000350000006662782F38353834323741342D343835462D343034322D383541392D4331303331
310
363839454531452F76657274696365732E62696E504B0304140006080800B670623BF270F1330600000004000000360000006662782F38353834323741342D343835462D343034322D383541392D4331303331363839454531452F747269616E676C65732E62696E636660600000504B0304140006080000B670623B000000
310
000000000000000000370000006662782F38353834323741342D343835462D343034322D383541392D4331303331363839454531452F617474726962757465732E62696E504B0304140006080800B670623B08DA0BD19000000041010000360000006662782F38353834323741342D343835462D343034322D383541392D43
310
31303331363839454531452F6469726563746F72792E786D6C858F410AC3201045AF22B36F53E9A60B35CBEEBAE80D244E44489C6234F4F835464A48035D0DF398FF9F8AF63D0E6CC63039F212F8F9020C7D47C6792B21C5FE7403D62A1188E2E60C98D7234A5830286103A55745067B9D86B8A3CF9C7F90C11DE607FB1443
310
96D7B6A82D282E9A152AD114D5EF2CB866EEE831B8EEA07A7BB5A8D7D61A2BAAEB7FD5F70921FF497D00504B0304140006080800B670623BD9A3B367FE000000A00100003B0000006662782F38353834323741342D343835462D343034322D383541392D4331303331363839454531452F7265736F75726365732F636F7265
310
2E786D6C8D504B6E833010BD0A9A6D65B01D0201194711694FD00B586642AD043BF2A7EAF16B122AB5BB6E6646EFA3797AE2F8B5DC8A4FF4C1383B002B291468B59B8C9D0748F1420E501CA5F0CEC55F3228AC5A708015062966EFD27D83B4B3116DCCA875136EA00A012314FA968F0182FEC045952AC5AC08D7F2AEF455CD
310
58B232D3592745883E07289E4FD609D26370C96B0CA27AB252A464A64D63A6FCD35C0C7A904D73EE467EE664DCD58CD4ED4849D79C5A723ED1B7A61977AF2D6F45B59AA58866F9C9A83DAA8813484E6947182394BFB3BAA7FBBEDEBFD0434FA9A856F91F53BA4FFF342563E38E6F719FB60092E5200F428A6AED2BAF479979
310
AFDDCA6F504B010214000A0000080000B670623B3DEE336E79000000790000001B00000000000000000000000000000000006175746F6465736B2D64657369676E2D7061636B6167652E786D6C504B01021400140006080800B670623BD486FD9CA0000000F40000001300000000000000000000000000B20000005B436F6E
310
74656E745F54797065735D2E786D6C504B01021400140006080800B670623BCA089DFFEC0000007C010000080000000000000000000000000083010000636F72652E786D6C504B01021400140006080800B670623B55019EA25F0000007C000000070000000000000000000000000095020000636E782E786D6C504B010214
310
00140006080800B670623B68FC0B7272010000D40300000C00000000000000000000000000190300006662782F636F72652E786D6C504B01021400140006080800B670623B0F71DDB67E0000009D0000000B00000000000000000000000000B50400006662782F636E782E786D6C504B01021400140006080800B670623BE1
310
34B4FB280100001202000031000000000000000000000000005C0500006662782F38353834323741342D343835462D343034322D383541392D4331303331363839454531452F636F72652E786D6C504B01021400140006080800B670623B1B8617914E010000330300003000000000000000000000000000D3060000666278
310
2F38353834323741342D343835462D343034322D383541392D4331303331363839454531452F636E782E786D6C504B01021400140006080800B670623B5933D422630500003B10000034000000000000000000000000006F0800006662782F38353834323741342D343835462D343034322D383541392D4331303331363839
310
454531452F6F626A656374732E786D6C504B01021400140006080000B670623B0000000000000000000000003500000000000000000000000000240E00006662782F38353834323741342D343835462D343034322D383541392D4331303331363839454531452F76657274696365732E62696E504B01021400140006080800
310
B670623BF270F13306000000040000003600000000000000000000000000770E00006662782F38353834323741342D343835462D343034322D383541392D4331303331363839454531452F747269616E676C65732E62696E504B01021400140006080000B670623B0000000000000000000000003700000000000000000000
310
000000D10E00006662782F38353834323741342D343835462D343034322D383541392D4331303331363839454531452F617474726962757465732E62696E504B01021400140006080800B670623B08DA0BD190000000410100003600000000000000000000000000260F00006662782F38353834323741342D343835462D34
310
3034322D383541392D4331303331363839454531452F6469726563746F72792E786D6C504B01021400140006080800B670623BD9A3B367FE000000A00100003B000000000000000000000000000A1000006662782F38353834323741342D343835462D343034322D383541392D4331303331363839454531452F7265736F75
310
726365732F636F72652E786D6C504B0506000000000E000E0080040000611100000000
  0
XRECORD
  5
113
102
{ACAD_REACTORS
330
110
102
}
330
110
100
AcDbXrecord
280
     1
270
     1
271
     1
  0
XRECORD
  5
114
102
{ACAD_REACTORS
330
110
102
}
330
110
100
AcDbXrecord
280
     1
270
     1
271
     1
  0
XRECORD
  5
F4E
102
{ACAD_REACTORS
330
F4D
102
}
330
F4D
100
AcDbXrecord
280
     1
102
ACAD_ROUNDTRIP_2012_MLEADER_STYLE
298
     1
  0
XRECORD
  5
F60
102
{ACAD_REACTORS
330
F5F
102
}
330
F5F
100
AcDbXrecord
280
     1
102
DISPLAYNAME
  1
Imperial24
102
FLAGS
 90
        0
  0
CELLSTYLEMAP
  5
F20
102
{ACAD_REACTORS
330
104
102
}
330
104
100
AcDbCellStyleMap
 90
        3
300
CELLSTYLE
  1
TABLEFORMAT_BEGIN
 90
        5
170
     1
 91
        0
 92
    32768
 62
   257
 93
        1
300
CONTENTFORMAT
  1
CONTENTFORMAT_BEGIN
 90
        0
 91
        0
 92
      512
 93
        0
300

 40
0.0
140
1.0
 94
        5
 62
     0
340
11
144
0.25
309
CONTENTFORMAT_END
171
     1
301
MARGIN
  1
CELLMARGIN_BEGIN
 40
0.06
 40
0.06
 40
0.06
 40
0.06
 40
0.18
 40
0.18
309
CELLMARGIN_END
 94
        6
 95
        1
302
GRIDFORMAT
  1
GRIDFORMAT_BEGIN
 90
        0
 91
        1
 62
     0
 92
       -2
340
0
 93
        0
 40
0.045
309
GRIDFORMAT_END
 95
        2
302
GRIDFORMAT
  1
GRIDFORMAT_BEGIN
 90
        0
 91
        1
 62
     0
 92
       -2
340
0
 93
        0
 40
0.045
309
GRIDFORMAT_END
 95
        4
302
GRIDFORMAT
  1
GRIDFORMAT_BEGIN
 90
        0
 91
        1
 62
     0
 92
       -2
340
0
 93
        0
 40
0.045
309
GRIDFORMAT_END
 95
        8
302
GRIDFORMAT
  1
GRIDFORMAT_BEGIN
 90
        0
 91
        1
 62
     0
 92
       -2
340
0
 93
        0
 40
0.045
309
GRIDFORMAT_END
 95
       16
302
GRIDFORMAT
  1
GRIDFORMAT_BEGIN
 90
        0
 91
        1
 62
     0
 92
       -2
340
0
 93
        0
 40
0.045
309
GRIDFORMAT_END
 95
       32
302
GRIDFORMAT
  1
GRIDFORMAT_BEGIN
 90
        0
 91
        1
 62
     0
 92
       -2
340
0
 93
        0
 40
0.045
309
GRIDFORMAT_END
309
TABLEFORMAT_END
  1
CELLSTYLE_BEGIN
 90
        1
 91
        1
300
_TITLE
309
CELLSTYLE_END
300
CELLSTYLE
  1
TABLEFORMAT_BEGIN
 90
        5
170
     1
 91
        0
 92
        0
 62
   257
 93
        1
300
CONTENTFORMAT
  1
CONTENTFORMAT_BEGIN
 90
        0
 91
        0
 92
      512
 93
        0
300

 40
0.0
140
1.0
 94
        5
 62
     0
340
11
144
0.18
309
CONTENTFORMAT_END
171
     1
301
MARGIN
  1
CELLMARGIN_BEGIN
 40
0.06
 40
0.06
 40
0.06
 40
0.06
 40
0.18
 40
0.18
309
CELLMARGIN_END
 94
        6
 95
        1
302
GRIDFORMAT
  1
GRIDFORMAT_BEGIN
 90
        0
 91
        1
 62
     0
 92
       -2
340
0
 93
        0
 40
0.045
309
GRIDFORMAT_END
 95
        2
302
GRIDFORMAT
  1
GRIDFORMAT_BEGIN
 90
        0
 91
        1
 62
     0
 92
       -2
340
0
 93
        0
 40
0.045
309
GRIDFORMAT_END
 95
        4
302
GRIDFORMAT
  1
GRIDFORMAT_BEGIN
 90
        0
 91
        1
 62
     0
 92
       -2
340
0
 93
        0
 40
0.045
309
GRIDFORMAT_END
 95
        8
302
GRIDFORMAT
  1
GRIDFORMAT_BEGIN
 90
        0
 91
        1
 62
     0
 92
       -2
340
0
 93
        0
 40
0.045
309
GRIDFORMAT_END
 95
       16
302
GRIDFORMAT
  1
GRIDFORMAT_BEGIN
 90
        0
 91
        1
 62
     0
 92
       -2
340
0
 93
        0
 40
0.045
309
GRIDFORMAT_END
 95
       32
302
GRIDFORMAT
  1
GRIDFORMAT_BEGIN
 90
        0
 91
        1
 62
     0
 92
       -2
340
0
 93
        0
 40
0.045
309
GRIDFORMAT_END
309
TABLEFORMAT_END
  1
CELLSTYLE_BEGIN
 90
        2
 91
        1
300
_HEADER
309
CELLSTYLE_END
300
CELLSTYLE
  1
TABLEFORMAT_BEGIN
 90
        5
170
     1
 91
        0
 92
        0
 62
   257
 93
        1
300
CONTENTFORMAT
  1
CONTENTFORMAT_BEGIN
 90
        0
 91
        0
 92
      512
 93
        0
300

 40
0.0
140
1.0
 94
        2
 62
     0
340
11
144
0.18
309
CONTENTFORMAT_END
171
     1
301
MARGIN
  1
CELLMARGIN_BEGIN
 40
0.06
 40
0.06
 40
0.06
 40
0.06
 40
0.18
 40
0.18
309
CELLMARGIN_END
 94
        6
 95
        1
302
GRIDFORMAT
  1
GRIDFORMAT_BEGIN
 90
        0
 91
        1
 62
     0
 92
       -2
340
0
 93
        0
 40
0.045
309
GRIDFORMAT_END
 95
        2
302
GRIDFORMAT
  1
GRIDFORMAT_BEGIN
 90
        0
 91
        1
 62
     0
 92
       -2
340
0
 93
        0
 40
0.045
309
GRIDFORMAT_END
 95
        4
302
GRIDFORMAT
  1
GRIDFORMAT_BEGIN
 90
        0
 91
        1
 62
     0
 92
       -2
340
0
 93
        0
 40
0.045
309
GRIDFORMAT_END
 95
        8
302
GRIDFORMAT
  1
GRIDFORMAT_BEGIN
 90
        0
 91
        1
 62
     0
 92
       -2
340
0
 93
        0
 40
0.045
309
GRIDFORMAT_END
 95
       16
302
GRIDFORMAT
  1
GRIDFORMAT_BEGIN
 90
        0
 91
        1
 62
     0
 92
       -2
340
0
 93
        0
 40
0.045
309
GRIDFORMAT_END
 95
       32
302
GRIDFORMAT
  1
GRIDFORMAT_BEGIN
 90
        0
 91
        1
 62
     0
 92
       -2
340
0
 93
        0
 40
0.045
309
GRIDFORMAT_END
309
TABLEFORMAT_END
  1
CELLSTYLE_BEGIN
 90
        3
 91
        2
300
_DATA
309
CELLSTYLE_END
  0
XRECORD
  5
F29
102
{ACAD_REACTORS
330
104
102
}
330
104
100
AcDbXrecord
280
     1
102
ACAD_ROUNDTRIP_PRE2007_TABLESTYLE
 90
      512
 91
        0
  1

 92
      512
 93
        0
  2

 94
      512
 95
        0
  3

  0
XRECORD
  5
F38
102
{ACAD_REACTORS
330
F37
102
}
330
F37
100
AcDbXrecord
280
     1
102
RTVSPost2010Prop28
280
     1
102
RTVSPost2010PropOp28
 70
     1
102
RTVSPost2010Prop29
280
     1
102
RTVSPost2010PropOp29
 70
     1
102
RTVSPost2010Prop30
280
     0
102
RTVSPost2010PropOp30
 70
     1
102
RTVSPost2010Prop31
280
     0
102
RTVSPost2010PropOp31
 70
     1
102
RTVSPost2010Prop32
280
     0
102
RTVSPost2010PropOp32
 70
     1
102
RTVSPost2010Prop33
280
     0
102
RTVSPost2010PropOp33
 70
     1
102
RTVSPost2010Prop34
280
     0
102
RTVSPost2010PropOp34
 70
     1
102
RTVSPost2010Prop35
280
     0
102
RTVSPost2010PropOp35
 70
     1
102
RTVSPost2010Prop36
280
     0
102
RTVSPost2010PropOp36
 70
     1
102
RTVSPost2010Prop37
 90
       50
102
RTVSPost2010PropOp37
 70
     1
102
RTVSPost2010Prop38
140
0.0
102
RTVSPost2010PropOp38
 70
     1
102
RTVSPost2010Prop39
140
1.0
102
RTVSPost2010PropOp39
 70
     1
102
RTVSPost2010Prop40
 90
        0
102
RTVSPost2010PropOp40
 70
     1
102
RTVSPost2010Prop41ColorIndex
 90
       18
102
RTVSPost2010Prop41ColorRGB
 90
        0
102
RTVSPost2010PropOp41
 70
     1
102
RTVSPost2010Prop42
 90
       50
102
RTVSPost2010PropOp42
 70
     1
102
RTVSPost2010Prop43
 90
        3
102
RTVSPost2010PropOp43
 70
     1
102
RTVSPost2010Prop44ColorIndex
 90
        5
102
RTVSPost2010Prop44ColorRGB
 90
      255
102
RTVSPost2010PropOp44
 70
     1
102
RTVSPost2010Prop45
280
     0
102
RTVSPost2010PropOp45
 70
     1
102
RTVSPost2010Prop46
 90
       50
102
RTVSPost2010PropOp46
 70
     1
102
RTVSPost2010Prop47
 90
       50
102
RTVSPost2010PropOp47
 70
     1
102
RTVSPost2010Prop48
 90
       50
102
RTVSPost2010PropOp48
 70
     1
102
RTVSPost2010Prop49
280
     0
102
RTVSPost2010PropOp49
 70
     1
102
RTVSPost2010Prop50
 90
       50
102
RTVSPost2010PropOp50
 70
     1
102
RTVSPost2010Prop51ColorIndex
 90
      256
102
RTVSPost2010Prop51ColorRGB
 90
-16777216
102
RTVSPost2010PropOp51
 70
     0
102
RTVSPost2010Prop52
140
1.0
102
RTVSPost2010PropOp52
 70
     0
102
RTVSPost2010Prop53
 90
        2
102
RTVSPost2010PropOp53
 70
     1
102
RTVSPost2010Prop54
  1
strokes_ogs.tif
102
RTVSPost2010PropOp54
 70
     1
102
RTVSPost2010Prop55
280
     0
102
RTVSPost2010PropOp55
 70
     1
102
RTVSPost2010Prop56
140
1.0
102
RTVSPost2010PropOp56
 70
     1
102
RTVSPost2010Prop57
140
1.0
102
RTVSPost2010PropOp57
 70
     1
102
RTVSPropertyOp0
 70
     1
102
RTVSPropertyOp1
 70
     1
102
RTVSPropertyOp2
 70
     1
102
RTVSPropertyOp3
 70
     1
102
RTVSPropertyOp4
 70
     1
102
RTVSPropertyOp5
 70
     1
102
RTVSPropertyOp6
 70
     1
102
RTVSPropertyOp7
 70
     1
102
RTVSPropertyOp8
 70
     1
102
RTVSPropertyOp9
 70
     1
102
RTVSPropertyOp10
 70
     1
102
RTVSPropertyOp11
 70
     1
102
RTVSPropertyOp12
 70
     1
102
RTVSPropertyOp13
 70
     1
102
RTVSPropertyOp14
 70
     1
102
RTVSPropertyOp15
 70
     1
102
RTVSPropertyOp16
 70
     1
102
RTVSPropertyOp17
 70
     1
102
RTVSPropertyOp18
 70
     1
102
RTVSPropertyOp19
 70
     1
102
RTVSPropertyOp20
 70
     1
102
RTVSPropertyOp21
 70
     1
102
RTVSPropertyOp22
 70
     1
102
RTVSPropertyOp23
 70
     1
102
RTVSPropertyOp24
 70
     1
102
RTVSPropertyOp25
 70
     1
102
RTVSPropertyOp26
 70
     1
102
RTVSPropertyOp27
 70
     1
102
RTVSPropertyOp28
 70
     1
102
RTVSPropertyOp29
 70
     1
102
RTVSPropertyOp30
 70
     1
102
RTVSPropertyOp31
 70
     1
102
RTVSPropertyOp32
 70
     1
102
RTVSPropertyOp33
 70
     1
102
RTVSPropertyOp34
 70
     1
102
RTVSPropertyOp35
 70
     1
102
RTVSPropertyOp36
 70
     1
102
RTVSPropertyOp37
 70
     1
102
RTVSPropertyOp38
 70
     1
102
RTVSPropertyOp39
 70
     1
102
RTVSPropertyOp40
 70
     1
102
RTVSPropertyOp41
 70
     1
102
RTVSPropertyOp42
 70
     1
102
RTVSPropertyOp43
 70
     1
102
RTVSPropertyOp44
 70
     1
102
RTVSPropertyOp45
 70
     1
102
RTVSPropertyOp46
 70
     1
102
RTVSPropertyOp47
 70
     1
102
RTVSPropertyOp48
 70
     1
102
RTVSPropertyOp49
 70
     1
102
RTVSPropertyOp50
 70
     1
102
RTVSPropertyOp51
 70
     0
102
RTVSPropertyOp52
 70
     0
102
RTVSPropertyOp53
 70
     1
102
RTVSPropertyOp54
 70
     1
102
RTVSPropertyOp55
 70
     1
102
RTVSPropertyOp56
 70
     1
102
RTVSPropertyOp57
 70
     1
102
RTVSPropertyOp58
 70
     1
102
RTVSPropertyOp59
 70
     1
102
RTVSPropertyOp60
 70
     1
102
RTVSPropertyOp61
 70
     1
102
RTVSPropertyOp62
 70
     1
  0
XRECORD
  5
F36
102
{ACAD_REACTORS
330
F35
102
}
330
F35
100
AcDbXrecord
280
     1
102
RTVSPost2010Prop28
280
     0
102
RTVSPost2010PropOp28
 70
     1
102
RTVSPost2010Prop29
280
     1
102
RTVSPost2010PropOp29
 70
     1
102
RTVSPost2010Prop30
280
     1
102
RTVSPost2010PropOp30
 70
     1
102
RTVSPost2010Prop31
280
     0
102
RTVSPost2010PropOp31
 70
     1
102
RTVSPost2010Prop32
280
     0
102
RTVSPost2010PropOp32
 70
     1
102
RTVSPost2010Prop33
280
     0
102
RTVSPost2010PropOp33
 70
     1
102
RTVSPost2010Prop34
280
     0
102
RTVSPost2010PropOp34
 70
     1
102
RTVSPost2010Prop35
280
     0
102
RTVSPost2010PropOp35
 70
     1
102
RTVSPost2010Prop36
280
     0
102
RTVSPost2010PropOp36
 70
     1
102
RTVSPost2010Prop37
 90
       50
102
RTVSPost2010PropOp37
 70
     1
102
RTVSPost2010Prop38
140
0.0
102
RTVSPost2010PropOp38
 70
     1
102
RTVSPost2010Prop39
140
1.0
102
RTVSPost2010PropOp39
 70
     1
102
RTVSPost2010Prop40
 90
        0
102
RTVSPost2010PropOp40
 70
     1
102
RTVSPost2010Prop41ColorIndex
 90
       18
102
RTVSPost2010Prop41ColorRGB
 90
        0
102
RTVSPost2010PropOp41
 70
     1
102
RTVSPost2010Prop42
 90
       50
102
RTVSPost2010PropOp42
 70
     1
102
RTVSPost2010Prop43
 90
        3
102
RTVSPost2010PropOp43
 70
     1
102
RTVSPost2010Prop44ColorIndex
 90
        5
102
RTVSPost2010Prop44ColorRGB
 90
      255
102
RTVSPost2010PropOp44
 70
     1
102
RTVSPost2010Prop45
280
     0
102
RTVSPost2010PropOp45
 70
     1
102
RTVSPost2010Prop46
 90
       50
102
RTVSPost2010PropOp46
 70
     1
102
RTVSPost2010Prop47
 90
       50
102
RTVSPost2010PropOp47
 70
     1
102
RTVSPost2010Prop48
 90
       50
102
RTVSPost2010PropOp48
 70
     1
102
RTVSPost2010Prop49
280
     0
102
RTVSPost2010PropOp49
 70
     1
102
RTVSPost2010Prop50
 90
       50
102
RTVSPost2010PropOp50
 70
     1
102
RTVSPost2010Prop51ColorIndex
 90
      256
102
RTVSPost2010Prop51ColorRGB
 90
-16777216
102
RTVSPost2010PropOp51
 70
     0
102
RTVSPost2010Prop52
140
1.0
102
RTVSPost2010PropOp52
 70
     0
102
RTVSPost2010Prop53
 90
        2
102
RTVSPost2010PropOp53
 70
     1
102
RTVSPost2010Prop54
  1
strokes_ogs.tif
102
RTVSPost2010PropOp54
 70
     1
102
RTVSPost2010Prop55
280
     0
102
RTVSPost2010PropOp55
 70
     1
102
RTVSPost2010Prop56
140
1.0
102
RTVSPost2010PropOp56
 70
     1
102
RTVSPost2010Prop57
140
1.0
102
RTVSPost2010PropOp57
 70
     1
102
RTVSPropertyOp0
 70
     1
102
RTVSPropertyOp1
 70
     1
102
RTVSPropertyOp2
 70
     1
102
RTVSPropertyOp3
 70
     1
102
RTVSPropertyOp4
 70
     1
102
RTVSPropertyOp5
 70
     1
102
RTVSPropertyOp6
 70
     1
102
RTVSPropertyOp7
 70
     1
102
RTVSPropertyOp8
 70
     1
102
RTVSPropertyOp9
 70
     1
102
RTVSPropertyOp10
 70
     1
102
RTVSPropertyOp11
 70
     1
102
RTVSPropertyOp12
 70
     1
102
RTVSPropertyOp13
 70
     1
102
RTVSPropertyOp14
 70
     1
102
RTVSPropertyOp15
 70
     1
102
RTVSPropertyOp16
 70
     1
102
RTVSPropertyOp17
 70
     1
102
RTVSPropertyOp18
 70
     1
102
RTVSPropertyOp19
 70
     1
102
RTVSPropertyOp20
 70
     1
102
RTVSPropertyOp21
 70
     1
102
RTVSPropertyOp22
 70
     1
102
RTVSPropertyOp23
 70
     1
102
RTVSPropertyOp24
 70
     1
102
RTVSPropertyOp25
 70
     1
102
RTVSPropertyOp26
 70
     1
102
RTVSPropertyOp27
 70
     1
102
RTVSPropertyOp28
 70
     1
102
RTVSPropertyOp29
 70
     1
102
RTVSPropertyOp30
 70
     1
102
RTVSPropertyOp31
 70
     1
102
RTVSPropertyOp32
 70
     1
102
RTVSPropertyOp33
 70
     1
102
RTVSPropertyOp34
 70
     1
102
RTVSPropertyOp35
 70
     1
102
RTVSPropertyOp36
 70
     1
102
RTVSPropertyOp37
 70
     1
102
RTVSPropertyOp38
 70
     1
102
RTVSPropertyOp39
 70
     1
102
RTVSPropertyOp40
 70
     1
102
RTVSPropertyOp41
 70
     1
102
RTVSPropertyOp42
 70
     1
102
RTVSPropertyOp43
 70
     1
102
RTVSPropertyOp44
 70
     1
102
RTVSPropertyOp45
 70
     1
102
RTVSPropertyOp46
 70
     1
102
RTVSPropertyOp47
 70
     1
102
RTVSPropertyOp48
 70
     1
102
RTVSPropertyOp49
 70
     1
102
RTVSPropertyOp50
 70
     1
102
RTVSPropertyOp51
 70
     0
102
RTVSPropertyOp52
 70
     0
102
RTVSPropertyOp53
 70
     1
102
RTVSPropertyOp54
 70
     1
102
RTVSPropertyOp55
 70
     1
102
RTVSPropertyOp56
 70
     1
102
RTVSPropertyOp57
 70
     1
102
RTVSPropertyOp58
 70
     1
102
RTVSPropertyOp59
 70
     1
102
RTVSPropertyOp60
 70
     1
102
RTVSPropertyOp61
 70
     1
102
RTVSPropertyOp62
 70
     1
  0
XRECORD
  5
F44
102
{ACAD_REACTORS
330
F43
102
}
330
F43
100
AcDbXrecord
280
     1
102
RTVSPost2010Prop28
280
     0
102
RTVSPost2010PropOp28
 70
     1
102
RTVSPost2010Prop29
280
     1
102
RTVSPost2010PropOp29
 70
     1
102
RTVSPost2010Prop30
280
     1
102
RTVSPost2010PropOp30
 70
     1
102
RTVSPost2010Prop31
280
     0
102
RTVSPost2010PropOp31
 70
     1
102
RTVSPost2010Prop32
280
     0
102
RTVSPost2010PropOp32
 70
     1
102
RTVSPost2010Prop33
280
     0
102
RTVSPost2010PropOp33
 70
     1
102
RTVSPost2010Prop34
280
     0
102
RTVSPost2010PropOp34
 70
     1
102
RTVSPost2010Prop35
280
     0
102
RTVSPost2010PropOp35
 70
     1
102
RTVSPost2010Prop36
280
     0
102
RTVSPost2010PropOp36
 70
     1
102
RTVSPost2010Prop37
 90
       50
102
RTVSPost2010PropOp37
 70
     1
102
RTVSPost2010Prop38
140
0.0
102
RTVSPost2010PropOp38
 70
     1
102
RTVSPost2010Prop39
140
1.0
102
RTVSPost2010PropOp39
 70
     1
102
RTVSPost2010Prop40
 90
        0
102
RTVSPost2010PropOp40
 70
     1
102
RTVSPost2010Prop41ColorIndex
 90
       18
102
RTVSPost2010Prop41ColorRGB
 90
        0
102
RTVSPost2010PropOp41
 70
     1
102
RTVSPost2010Prop42
 90
       50
102
RTVSPost2010PropOp42
 70
     1
102
RTVSPost2010Prop43
 90
        3
102
RTVSPost2010PropOp43
 70
     1
102
RTVSPost2010Prop44ColorIndex
 90
        5
102
RTVSPost2010Prop44ColorRGB
 90
      255
102
RTVSPost2010PropOp44
 70
     1
102
RTVSPost2010Prop45
280
     0
102
RTVSPost2010PropOp45
 70
     1
102
RTVSPost2010Prop46
 90
       50
102
RTVSPost2010PropOp46
 70
     1
102
RTVSPost2010Prop47
 90
       50
102
RTVSPost2010PropOp47
 70
     1
102
RTVSPost2010Prop48
 90
       50
102
RTVSPost2010PropOp48
 70
     1
102
RTVSPost2010Prop49
280
     0
102
RTVSPost2010PropOp49
 70
     1
102
RTVSPost2010Prop50
 90
       50
102
RTVSPost2010PropOp50
 70
     1
102
RTVSPost2010Prop51ColorIndex
 90
      256
102
RTVSPost2010Prop51ColorRGB
 90
-16777216
102
RTVSPost2010PropOp51
 70
     0
102
RTVSPost2010Prop52
140
1.0
102
RTVSPost2010PropOp52
 70
     0
102
RTVSPost2010Prop53
 90
        2
102
RTVSPost2010PropOp53
 70
     1
102
RTVSPost2010Prop54
  1
strokes_ogs.tif
102
RTVSPost2010PropOp54
 70
     1
102
RTVSPost2010Prop55
280
     0
102
RTVSPost2010PropOp55
 70
     1
102
RTVSPost2010Prop56
140
1.0
102
RTVSPost2010PropOp56
 70
     1
102
RTVSPost2010Prop57
140
1.0
102
RTVSPost2010PropOp57
 70
     1
102
RTVSPropertyOp0
 70
     1
102
RTVSPropertyOp1
 70
     1
102
RTVSPropertyOp2
 70
     1
102
RTVSPropertyOp3
 70
     1
102
RTVSPropertyOp4
 70
     1
102
RTVSPropertyOp5
 70
     1
102
RTVSPropertyOp6
 70
     1
102
RTVSPropertyOp7
 70
     1
102
RTVSPropertyOp8
 70
     1
102
RTVSPropertyOp9
 70
     1
102
RTVSPropertyOp10
 70
     1
102
RTVSPropertyOp11
 70
     1
102
RTVSPropertyOp12
 70
     1
102
RTVSPropertyOp13
 70
     1
102
RTVSPropertyOp14
 70
     1
102
RTVSPropertyOp15
 70
     1
102
RTVSPropertyOp16
 70
     1
102
RTVSPropertyOp17
 70
     1
102
RTVSPropertyOp18
 70
     1
102
RTVSPropertyOp19
 70
     1
102
RTVSPropertyOp20
 70
     1
102
RTVSPropertyOp21
 70
     1
102
RTVSPropertyOp22
 70
     1
102
RTVSPropertyOp23
 70
     1
102
RTVSPropertyOp24
 70
     1
102
RTVSPropertyOp25
 70
     1
102
RTVSPropertyOp26
 70
     1
102
RTVSPropertyOp27
 70
     1
102
RTVSPropertyOp28
 70
     1
102
RTVSPropertyOp29
 70
     1
102
RTVSPropertyOp30
 70
     1
102
RTVSPropertyOp31
 70
     1
102
RTVSPropertyOp32
 70
     1
102
RTVSPropertyOp33
 70
     1
102
RTVSPropertyOp34
 70
     1
102
RTVSPropertyOp35
 70
     1
102
RTVSPropertyOp36
 70
     1
102
RTVSPropertyOp37
 70
     1
102
RTVSPropertyOp38
 70
     1
102
RTVSPropertyOp39
 70
     1
102
RTVSPropertyOp40
 70
     1
102
RTVSPropertyOp41
 70
     1
102
RTVSPropertyOp42
 70
     1
102
RTVSPropertyOp43
 70
     1
102
RTVSPropertyOp44
 70
     1
102
RTVSPropertyOp45
 70
     1
102
RTVSPropertyOp46
 70
     1
102
RTVSPropertyOp47
 70
     1
102
RTVSPropertyOp48
 70
     1
102
RTVSPropertyOp49
 70
     1
102
RTVSPropertyOp50
 70
     1
102
RTVSPropertyOp51
 70
     0
102
RTVSPropertyOp52
 70
     0
102
RTVSPropertyOp53
 70
     1
102
RTVSPropertyOp54
 70
     1
102
RTVSPropertyOp55
 70
     1
102
RTVSPropertyOp56
 70
     1
102
RTVSPropertyOp57
 70
     1
102
RTVSPropertyOp58
 70
     1
102
RTVSPropertyOp59
 70
     1
102
RTVSPropertyOp60
 70
     1
102
RTVSPropertyOp61
 70
     1
102
RTVSPropertyOp62
 70
     1
  0
XRECORD
  5
F4C
102
{ACAD_REACTORS
330
F4B
102
}
330
F4B
100
AcDbXrecord
280
     1
102
RTVSPost2010Prop28
280
     0
102
RTVSPost2010PropOp28
 70
     1
102
RTVSPost2010Prop29
280
     1
102
RTVSPost2010PropOp29
 70
     1
102
RTVSPost2010Prop30
280
     1
102
RTVSPost2010PropOp30
 70
     1
102
RTVSPost2010Prop31
280
     0
102
RTVSPost2010PropOp31
 70
     1
102
RTVSPost2010Prop32
280
     0
102
RTVSPost2010PropOp32
 70
     1
102
RTVSPost2010Prop33
280
     0
102
RTVSPost2010PropOp33
 70
     1
102
RTVSPost2010Prop34
280
     0
102
RTVSPost2010PropOp34
 70
     1
102
RTVSPost2010Prop35
280
     0
102
RTVSPost2010PropOp35
 70
     1
102
RTVSPost2010Prop36
280
     0
102
RTVSPost2010PropOp36
 70
     1
102
RTVSPost2010Prop37
 90
       50
102
RTVSPost2010PropOp37
 70
     1
102
RTVSPost2010Prop38
140
0.0
102
RTVSPost2010PropOp38
 70
     1
102
RTVSPost2010Prop39
140
1.0
102
RTVSPost2010PropOp39
 70
     1
102
RTVSPost2010Prop40
 90
        0
102
RTVSPost2010PropOp40
 70
     1
102
RTVSPost2010Prop41ColorIndex
 90
       18
102
RTVSPost2010Prop41ColorRGB
 90
        0
102
RTVSPost2010PropOp41
 70
     1
102
RTVSPost2010Prop42
 90
       50
102
RTVSPost2010PropOp42
 70
     1
102
RTVSPost2010Prop43
 90
        3
102
RTVSPost2010PropOp43
 70
     1
102
RTVSPost2010Prop44ColorIndex
 90
        5
102
RTVSPost2010Prop44ColorRGB
 90
      255
102
RTVSPost2010PropOp44
 70
     1
102
RTVSPost2010Prop45
280
     0
102
RTVSPost2010PropOp45
 70
     1
102
RTVSPost2010Prop46
 90
       50
102
RTVSPost2010PropOp46
 70
     1
102
RTVSPost2010Prop47
 90
       50
102
RTVSPost2010PropOp47
 70
     1
102
RTVSPost2010Prop48
 90
       50
102
RTVSPost2010PropOp48
 70
     1
102
RTVSPost2010Prop49
280
     0
102
RTVSPost2010PropOp49
 70
     1
102
RTVSPost2010Prop50
 90
       50
102
RTVSPost2010PropOp50
 70
     1
102
RTVSPost2010Prop51ColorIndex
 90
      256
102
RTVSPost2010Prop51ColorRGB
 90
-16777216
102
RTVSPost2010PropOp51
 70
     0
102
RTVSPost2010Prop52
140
1.0
102
RTVSPost2010PropOp52
 70
     0
102
RTVSPost2010Prop53
 90
        2
102
RTVSPost2010PropOp53
 70
     1
102
RTVSPost2010Prop54
  1
strokes_ogs.tif
102
RTVSPost2010PropOp54
 70
     1
102
RTVSPost2010Prop55
280
     0
102
RTVSPost2010PropOp55
 70
     1
102
RTVSPost2010Prop56
140
1.0
102
RTVSPost2010PropOp56
 70
     1
102
RTVSPost2010Prop57
140
1.0
102
RTVSPost2010PropOp57
 70
     1
102
RTVSPropertyOp0
 70
     1
102
RTVSPropertyOp1
 70
     1
102
RTVSPropertyOp2
 70
     1
102
RTVSPropertyOp3
 70
     1
102
RTVSPropertyOp4
 70
     1
102
RTVSPropertyOp5
 70
     1
102
RTVSPropertyOp6
 70
     1
102
RTVSPropertyOp7
 70
     1
102
RTVSPropertyOp8
 70
     1
102
RTVSPropertyOp9
 70
     1
102
RTVSPropertyOp10
 70
     1
102
RTVSPropertyOp11
 70
     1
102
RTVSPropertyOp12
 70
     1
102
RTVSPropertyOp13
 70
     1
102
RTVSPropertyOp14
 70
     1
102
RTVSPropertyOp15
 70
     1
102
RTVSPropertyOp16
 70
     1
102
RTVSPropertyOp17
 70
     1
102
RTVSPropertyOp18
 70
     1
102
RTVSPropertyOp19
 70
     1
102
RTVSPropertyOp20
 70
     1
102
RTVSPropertyOp21
 70
     1
102
RTVSPropertyOp22
 70
     1
102
RTVSPropertyOp23
 70
     1
102
RTVSPropertyOp24
 70
     1
102
RTVSPropertyOp25
 70
     1
102
RTVSPropertyOp26
 70
     1
102
RTVSPropertyOp27
 70
     1
102
RTVSPropertyOp28
 70
     1
102
RTVSPropertyOp29
 70
     1
102
RTVSPropertyOp30
 70
     1
102
RTVSPropertyOp31
 70
     1
102
RTVSPropertyOp32
 70
     1
102
RTVSPropertyOp33
 70
     1
102
RTVSPropertyOp34
 70
     1
102
RTVSPropertyOp35
 70
     1
102
RTVSPropertyOp36
 70
     1
102
RTVSPropertyOp37
 70
     1
102
RTVSPropertyOp38
 70
     1
102
RTVSPropertyOp39
 70
     1
102
RTVSPropertyOp40
 70
     1
102
RTVSPropertyOp41
 70
     1
102
RTVSPropertyOp42
 70
     1
102
RTVSPropertyOp43
 70
     1
102
RTVSPropertyOp44
 70
     1
102
RTVSPropertyOp45
 70
     1
102
RTVSPropertyOp46
 70
     1
102
RTVSPropertyOp47
 70
     1
102
RTVSPropertyOp48
 70
     1
102
RTVSPropertyOp49
 70
     1
102
RTVSPropertyOp50
 70
     1
102
RTVSPropertyOp51
 70
     0
102
RTVSPropertyOp52
 70
     0
102
RTVSPropertyOp53
 70
     1
102
RTVSPropertyOp54
 70
     1
102
RTVSPropertyOp55
 70
     1
102
RTVSPropertyOp56
 70
     1
102
RTVSPropertyOp57
 70
     1
102
RTVSPropertyOp58
 70
     1
102
RTVSPropertyOp59
 70
     1
102
RTVSPropertyOp60
 70
     1
102
RTVSPropertyOp61
 70
     1
102
RTVSPropertyOp62
 70
     1
  0
XRECORD
  5
F3E
102
{ACAD_REACTORS
330
F3D
102
}
330
F3D
100
AcDbXrecord
280
     1
102
RTVSPost2010Prop28
280
     0
102
RTVSPost2010PropOp28
 70
     1
102
RTVSPost2010Prop29
280
     1
102
RTVSPost2010PropOp29
 70
     1
102
RTVSPost2010Prop30
280
     1
102
RTVSPost2010PropOp30
 70
     1
102
RTVSPost2010Prop31
280
     0
102
RTVSPost2010PropOp31
 70
     1
102
RTVSPost2010Prop32
280
     0
102
RTVSPost2010PropOp32
 70
     1
102
RTVSPost2010Prop33
280
     0
102
RTVSPost2010PropOp33
 70
     1
102
RTVSPost2010Prop34
280
     0
102
RTVSPost2010PropOp34
 70
     1
102
RTVSPost2010Prop35
280
     0
102
RTVSPost2010PropOp35
 70
     1
102
RTVSPost2010Prop36
280
     0
102
RTVSPost2010PropOp36
 70
     1
102
RTVSPost2010Prop37
 90
       50
102
RTVSPost2010PropOp37
 70
     1
102
RTVSPost2010Prop38
140
0.0
102
RTVSPost2010PropOp38
 70
     1
102
RTVSPost2010Prop39
140
1.0
102
RTVSPost2010PropOp39
 70
     1
102
RTVSPost2010Prop40
 90
        0
102
RTVSPost2010PropOp40
 70
     1
102
RTVSPost2010Prop41ColorIndex
 90
       18
102
RTVSPost2010Prop41ColorRGB
 90
        0
102
RTVSPost2010PropOp41
 70
     1
102
RTVSPost2010Prop42
 90
       50
102
RTVSPost2010PropOp42
 70
     1
102
RTVSPost2010Prop43
 90
        3
102
RTVSPost2010PropOp43
 70
     1
102
RTVSPost2010Prop44ColorIndex
 90
        5
102
RTVSPost2010Prop44ColorRGB
 90
      255
102
RTVSPost2010PropOp44
 70
     1
102
RTVSPost2010Prop45
280
     0
102
RTVSPost2010PropOp45
 70
     1
102
RTVSPost2010Prop46
 90
       50
102
RTVSPost2010PropOp46
 70
     1
102
RTVSPost2010Prop47
 90
       50
102
RTVSPost2010PropOp47
 70
     1
102
RTVSPost2010Prop48
 90
       50
102
RTVSPost2010PropOp48
 70
     1
102
RTVSPost2010Prop49
280
     0
102
RTVSPost2010PropOp49
 70
     1
102
RTVSPost2010Prop50
 90
       50
102
RTVSPost2010PropOp50
 70
     1
102
RTVSPost2010Prop51ColorIndex
 90
      256
102
RTVSPost2010Prop51ColorRGB
 90
-16777216
102
RTVSPost2010PropOp51
 70
     0
102
RTVSPost2010Prop52
140
1.0
102
RTVSPost2010PropOp52
 70
     0
102
RTVSPost2010Prop53
 90
        2
102
RTVSPost2010PropOp53
 70
     1
102
RTVSPost2010Prop54
  1
strokes_ogs.tif
102
RTVSPost2010PropOp54
 70
     1
102
RTVSPost2010Prop55
280
     0
102
RTVSPost2010PropOp55
 70
     1
102
RTVSPost2010Prop56
140
1.0
102
RTVSPost2010PropOp56
 70
     1
102
RTVSPost2010Prop57
140
1.0
102
RTVSPost2010PropOp57
 70
     1
102
RTVSPropertyOp0
 70
     1
102
RTVSPropertyOp1
 70
     1
102
RTVSPropertyOp2
 70
     1
102
RTVSPropertyOp3
 70
     1
102
RTVSPropertyOp4
 70
     1
102
RTVSPropertyOp5
 70
     1
102
RTVSPropertyOp6
 70
     1
102
RTVSPropertyOp7
 70
     1
102
RTVSPropertyOp8
 70
     1
102
RTVSPropertyOp9
 70
     1
102
RTVSPropertyOp10
 70
     1
102
RTVSPropertyOp11
 70
     1
102
RTVSPropertyOp12
 70
     1
102
RTVSPropertyOp13
 70
     1
102
RTVSPropertyOp14
 70
     1
102
RTVSPropertyOp15
 70
     1
102
RTVSPropertyOp16
 70
     1
102
RTVSPropertyOp17
 70
     1
102
RTVSPropertyOp18
 70
     1
102
RTVSPropertyOp19
 70
     1
102
RTVSPropertyOp20
 70
     1
102
RTVSPropertyOp21
 70
     1
102
RTVSPropertyOp22
 70
     1
102
RTVSPropertyOp23
 70
     1
102
RTVSPropertyOp24
 70
     1
102
RTVSPropertyOp25
 70
     1
102
RTVSPropertyOp26
 70
     1
102
RTVSPropertyOp27
 70
     1
102
RTVSPropertyOp28
 70
     1
102
RTVSPropertyOp29
 70
     1
102
RTVSPropertyOp30
 70
     1
102
RTVSPropertyOp31
 70
     1
102
RTVSPropertyOp32
 70
     1
102
RTVSPropertyOp33
 70
     1
102
RTVSPropertyOp34
 70
     1
102
RTVSPropertyOp35
 70
     1
102
RTVSPropertyOp36
 70
     1
102
RTVSPropertyOp37
 70
     1
102
RTVSPropertyOp38
 70
     1
102
RTVSPropertyOp39
 70
     1
102
RTVSPropertyOp40
 70
     1
102
RTVSPropertyOp41
 70
     1
102
RTVSPropertyOp42
 70
     1
102
RTVSPropertyOp43
 70
     1
102
RTVSPropertyOp44
 70
     1
102
RTVSPropertyOp45
 70
     1
102
RTVSPropertyOp46
 70
     1
102
RTVSPropertyOp47
 70
     1
102
RTVSPropertyOp48
 70
     1
102
RTVSPropertyOp49
 70
     1
102
RTVSPropertyOp50
 70
     1
102
RTVSPropertyOp51
 70
     0
102
RTVSPropertyOp52
 70
     0
102
RTVSPropertyOp53
 70
     1
102
RTVSPropertyOp54
 70
     1
102
RTVSPropertyOp55
 70
     1
102
RTVSPropertyOp56
 70
     1
102
RTVSPropertyOp57
 70
     1
102
RTVSPropertyOp58
 70
     1
102
RTVSPropertyOp59
 70
     1
102
RTVSPropertyOp60
 70
     1
102
RTVSPropertyOp61
 70
     1
102
RTVSPropertyOp62
 70
     1
  0
XRECORD
  5
F42
102
{ACAD_REACTORS
330
F41
102
}
330
F41
100
AcDbXrecord
280
     1
102
RTVSPost2010Prop28
280
     0
102
RTVSPost2010PropOp28
 70
     1
102
RTVSPost2010Prop29
280
     1
102
RTVSPost2010PropOp29
 70
     1
102
RTVSPost2010Prop30
280
     1
102
RTVSPost2010PropOp30
 70
     1
102
RTVSPost2010Prop31
280
     0
102
RTVSPost2010PropOp31
 70
     1
102
RTVSPost2010Prop32
280
     0
102
RTVSPost2010PropOp32
 70
     1
102
RTVSPost2010Prop33
280
     0
102
RTVSPost2010PropOp33
 70
     1
102
RTVSPost2010Prop34
280
     0
102
RTVSPost2010PropOp34
 70
     1
102
RTVSPost2010Prop35
280
     0
102
RTVSPost2010PropOp35
 70
     1
102
RTVSPost2010Prop36
280
     0
102
RTVSPost2010PropOp36
 70
     1
102
RTVSPost2010Prop37
 90
       50
102
RTVSPost2010PropOp37
 70
     1
102
RTVSPost2010Prop38
140
0.0
102
RTVSPost2010PropOp38
 70
     1
102
RTVSPost2010Prop39
140
1.0
102
RTVSPost2010PropOp39
 70
     1
102
RTVSPost2010Prop40
 90
        0
102
RTVSPost2010PropOp40
 70
     1
102
RTVSPost2010Prop41ColorIndex
 90
       18
102
RTVSPost2010Prop41ColorRGB
 90
        0
102
RTVSPost2010PropOp41
 70
     1
102
RTVSPost2010Prop42
 90
       50
102
RTVSPost2010PropOp42
 70
     1
102
RTVSPost2010Prop43
 90
        3
102
RTVSPost2010PropOp43
 70
     1
102
RTVSPost2010Prop44ColorIndex
 90
        5
102
RTVSPost2010Prop44ColorRGB
 90
      255
102
RTVSPost2010PropOp44
 70
     1
102
RTVSPost2010Prop45
280
     0
102
RTVSPost2010PropOp45
 70
     1
102
RTVSPost2010Prop46
 90
       50
102
RTVSPost2010PropOp46
 70
     1
102
RTVSPost2010Prop47
 90
       50
102
RTVSPost2010PropOp47
 70
     1
102
RTVSPost2010Prop48
 90
       50
102
RTVSPost2010PropOp48
 70
     1
102
RTVSPost2010Prop49
280
     0
102
RTVSPost2010PropOp49
 70
     1
102
RTVSPost2010Prop50
 90
       50
102
RTVSPost2010PropOp50
 70
     1
102
RTVSPost2010Prop51ColorIndex
 90
      256
102
RTVSPost2010Prop51ColorRGB
 90
-16777216
102
RTVSPost2010PropOp51
 70
     0
102
RTVSPost2010Prop52
140
1.0
102
RTVSPost2010PropOp52
 70
     0
102
RTVSPost2010Prop53
 90
        2
102
RTVSPost2010PropOp53
 70
     1
102
RTVSPost2010Prop54
  1
strokes_ogs.tif
102
RTVSPost2010PropOp54
 70
     1
102
RTVSPost2010Prop55
280
     0
102
RTVSPost2010PropOp55
 70
     1
102
RTVSPost2010Prop56
140
1.0
102
RTVSPost2010PropOp56
 70
     1
102
RTVSPost2010Prop57
140
1.0
102
RTVSPost2010PropOp57
 70
     1
102
RTVSPropertyOp0
 70
     1
102
RTVSPropertyOp1
 70
     1
102
RTVSPropertyOp2
 70
     1
102
RTVSPropertyOp3
 70
     1
102
RTVSPropertyOp4
 70
     1
102
RTVSPropertyOp5
 70
     1
102
RTVSPropertyOp6
 70
     1
102
RTVSPropertyOp7
 70
     1
102
RTVSPropertyOp8
 70
     1
102
RTVSPropertyOp9
 70
     1
102
RTVSPropertyOp10
 70
     1
102
RTVSPropertyOp11
 70
     1
102
RTVSPropertyOp12
 70
     1
102
RTVSPropertyOp13
 70
     1
102
RTVSPropertyOp14
 70
     1
102
RTVSPropertyOp15
 70
     1
102
RTVSPropertyOp16
 70
     1
102
RTVSPropertyOp17
 70
     1
102
RTVSPropertyOp18
 70
     1
102
RTVSPropertyOp19
 70
     1
102
RTVSPropertyOp20
 70
     1
102
RTVSPropertyOp21
 70
     1
102
RTVSPropertyOp22
 70
     1
102
RTVSPropertyOp23
 70
     1
102
RTVSPropertyOp24
 70
     1
102
RTVSPropertyOp25
 70
     1
102
RTVSPropertyOp26
 70
     1
102
RTVSPropertyOp27
 70
     1
102
RTVSPropertyOp28
 70
     1
102
RTVSPropertyOp29
 70
     1
102
RTVSPropertyOp30
 70
     1
102
RTVSPropertyOp31
 70
     1
102
RTVSPropertyOp32
 70
     1
102
RTVSPropertyOp33
 70
     1
102
RTVSPropertyOp34
 70
     1
102
RTVSPropertyOp35
 70
     1
102
RTVSPropertyOp36
 70
     1
102
RTVSPropertyOp37
 70
     1
102
RTVSPropertyOp38
 70
     1
102
RTVSPropertyOp39
 70
     1
102
RTVSPropertyOp40
 70
     1
102
RTVSPropertyOp41
 70
     1
102
RTVSPropertyOp42
 70
     1
102
RTVSPropertyOp43
 70
     1
102
RTVSPropertyOp44
 70
     1
102
RTVSPropertyOp45
 70
     1
102
RTVSPropertyOp46
 70
     1
102
RTVSPropertyOp47
 70
     1
102
RTVSPropertyOp48
 70
     1
102
RTVSPropertyOp49
 70
     1
102
RTVSPropertyOp50
 70
     1
102
RTVSPropertyOp51
 70
     0
102
RTVSPropertyOp52
 70
     0
102
RTVSPropertyOp53
 70
     1
102
RTVSPropertyOp54
 70
     1
102
RTVSPropertyOp55
 70
     1
102
RTVSPropertyOp56
 70
     1
102
RTVSPropertyOp57
 70
     1
102
RTVSPropertyOp58
 70
     1
102
RTVSPropertyOp59
 70
     1
102
RTVSPropertyOp60
 70
     1
102
RTVSPropertyOp61
 70
     1
102
RTVSPropertyOp62
 70
     1
  0
XRECORD
  5
F54
102
{ACAD_REACTORS
330
F53
102
}
330
F53
100
AcDbXrecord
280
     1
102
RTVSPost2010Prop28
280
     0
102
RTVSPost2010PropOp28
 70
     1
102
RTVSPost2010Prop29
280
     1
102
RTVSPost2010PropOp29
 70
     1
102
RTVSPost2010Prop30
280
     1
102
RTVSPost2010PropOp30
 70
     1
102
RTVSPost2010Prop31
280
     0
102
RTVSPost2010PropOp31
 70
     1
102
RTVSPost2010Prop32
280
     0
102
RTVSPost2010PropOp32
 70
     1
102
RTVSPost2010Prop33
280
     0
102
RTVSPost2010PropOp33
 70
     1
102
RTVSPost2010Prop34
280
     0
102
RTVSPost2010PropOp34
 70
     1
102
RTVSPost2010Prop35
280
     0
102
RTVSPost2010PropOp35
 70
     1
102
RTVSPost2010Prop36
280
     0
102
RTVSPost2010PropOp36
 70
     1
102
RTVSPost2010Prop37
 90
       50
102
RTVSPost2010PropOp37
 70
     1
102
RTVSPost2010Prop38
140
0.0
102
RTVSPost2010PropOp38
 70
     1
102
RTVSPost2010Prop39
140
1.0
102
RTVSPost2010PropOp39
 70
     1
102
RTVSPost2010Prop40
 90
        0
102
RTVSPost2010PropOp40
 70
     1
102
RTVSPost2010Prop41ColorIndex
 90
       18
102
RTVSPost2010Prop41ColorRGB
 90
        0
102
RTVSPost2010PropOp41
 70
     1
102
RTVSPost2010Prop42
 90
       50
102
RTVSPost2010PropOp42
 70
     1
102
RTVSPost2010Prop43
 90
        3
102
RTVSPost2010PropOp43
 70
     1
102
RTVSPost2010Prop44ColorIndex
 90
        5
102
RTVSPost2010Prop44ColorRGB
 90
      255
102
RTVSPost2010PropOp44
 70
     1
102
RTVSPost2010Prop45
280
     0
102
RTVSPost2010PropOp45
 70
     1
102
RTVSPost2010Prop46
 90
       50
102
RTVSPost2010PropOp46
 70
     1
102
RTVSPost2010Prop47
 90
       50
102
RTVSPost2010PropOp47
 70
     1
102
RTVSPost2010Prop48
 90
       50
102
RTVSPost2010PropOp48
 70
     1
102
RTVSPost2010Prop49
280
     0
102
RTVSPost2010PropOp49
 70
     1
102
RTVSPost2010Prop50
 90
       50
102
RTVSPost2010PropOp50
 70
     1
102
RTVSPost2010Prop51ColorIndex
 90
      256
102
RTVSPost2010Prop51ColorRGB
 90
-16777216
102
RTVSPost2010PropOp51
 70
     0
102
RTVSPost2010Prop52
140
1.0
102
RTVSPost2010PropOp52
 70
     0
102
RTVSPost2010Prop53
 90
        2
102
RTVSPost2010PropOp53
 70
     1
102
RTVSPost2010Prop54
  1
strokes_ogs.tif
102
RTVSPost2010PropOp54
 70
     1
102
RTVSPost2010Prop55
280
     0
102
RTVSPost2010PropOp55
 70
     1
102
RTVSPost2010Prop56
140
1.0
102
RTVSPost2010PropOp56
 70
     1
102
RTVSPost2010Prop57
140
1.0
102
RTVSPost2010PropOp57
 70
     1
102
RTVSPropertyOp0
 70
     0
102
RTVSPropertyOp1
 70
     0
102
RTVSPropertyOp2
 70
     0
102
RTVSPropertyOp3
 70
     0
102
RTVSPropertyOp4
 70
     0
102
RTVSPropertyOp5
 70
     0
102
RTVSPropertyOp6
 70
     0
102
RTVSPropertyOp7
 70
     0
102
RTVSPropertyOp8
 70
     0
102
RTVSPropertyOp9
 70
     0
102
RTVSPropertyOp10
 70
     0
102
RTVSPropertyOp11
 70
     0
102
RTVSPropertyOp12
 70
     0
102
RTVSPropertyOp13
 70
     0
102
RTVSPropertyOp14
 70
     2
102
RTVSPropertyOp15
 70
     0
102
RTVSPropertyOp16
 70
     0
102
RTVSPropertyOp17
 70
     0
102
RTVSPropertyOp18
 70
     0
102
RTVSPropertyOp19
 70
     0
102
RTVSPropertyOp20
 70
     0
102
RTVSPropertyOp21
 70
     0
102
RTVSPropertyOp22
 70
     0
102
RTVSPropertyOp23
 70
     0
102
RTVSPropertyOp24
 70
     0
102
RTVSPropertyOp25
 70
     0
102
RTVSPropertyOp26
 70
     0
102
RTVSPropertyOp27
 70
     0
102
RTVSPropertyOp28
 70
     1
102
RTVSPropertyOp29
 70
     1
102
RTVSPropertyOp30
 70
     1
102
RTVSPropertyOp31
 70
     1
102
RTVSPropertyOp32
 70
     1
102
RTVSPropertyOp33
 70
     1
102
RTVSPropertyOp34
 70
     1
102
RTVSPropertyOp35
 70
     1
102
RTVSPropertyOp36
 70
     1
102
RTVSPropertyOp37
 70
     1
102
RTVSPropertyOp38
 70
     1
102
RTVSPropertyOp39
 70
     1
102
RTVSPropertyOp40
 70
     1
102
RTVSPropertyOp41
 70
     1
102
RTVSPropertyOp42
 70
     1
102
RTVSPropertyOp43
 70
     1
102
RTVSPropertyOp44
 70
     1
102
RTVSPropertyOp45
 70
     1
102
RTVSPropertyOp46
 70
     1
102
RTVSPropertyOp47
 70
     1
102
RTVSPropertyOp48
 70
     1
102
RTVSPropertyOp49
 70
     1
102
RTVSPropertyOp50
 70
     1
102
RTVSPropertyOp51
 70
     0
102
RTVSPropertyOp52
 70
     0
102
RTVSPropertyOp53
 70
     1
102
RTVSPropertyOp54
 70
     1
102
RTVSPropertyOp55
 70
     1
102
RTVSPropertyOp56
 70
     1
102
RTVSPropertyOp57
 70
     1
102
RTVSPropertyOp58
 70
     1
102
RTVSPropertyOp59
 70
     1
102
RTVSPropertyOp60
 70
     1
102
RTVSPropertyOp61
 70
     1
102
RTVSPropertyOp62
 70
     1
  0
XRECORD
  5
F4A
102
{ACAD_REACTORS
330
F49
102
}
330
F49
100
AcDbXrecord
280
     1
102
RTVSPost2010Prop28
280
     0
102
RTVSPost2010PropOp28
 70
     1
102
RTVSPost2010Prop29
280
     1
102
RTVSPost2010PropOp29
 70
     1
102
RTVSPost2010Prop30
280
     1
102
RTVSPost2010PropOp30
 70
     1
102
RTVSPost2010Prop31
280
     0
102
RTVSPost2010PropOp31
 70
     1
102
RTVSPost2010Prop32
280
     0
102
RTVSPost2010PropOp32
 70
     1
102
RTVSPost2010Prop33
280
     0
102
RTVSPost2010PropOp33
 70
     1
102
RTVSPost2010Prop34
280
     0
102
RTVSPost2010PropOp34
 70
     1
102
RTVSPost2010Prop35
280
     0
102
RTVSPost2010PropOp35
 70
     1
102
RTVSPost2010Prop36
280
     0
102
RTVSPost2010PropOp36
 70
     1
102
RTVSPost2010Prop37
 90
       50
102
RTVSPost2010PropOp37
 70
     1
102
RTVSPost2010Prop38
140
0.0
102
RTVSPost2010PropOp38
 70
     1
102
RTVSPost2010Prop39
140
1.0
102
RTVSPost2010PropOp39
 70
     1
102
RTVSPost2010Prop40
 90
        0
102
RTVSPost2010PropOp40
 70
     1
102
RTVSPost2010Prop41ColorIndex
 90
       18
102
RTVSPost2010Prop41ColorRGB
 90
        0
102
RTVSPost2010PropOp41
 70
     1
102
RTVSPost2010Prop42
 90
       50
102
RTVSPost2010PropOp42
 70
     1
102
RTVSPost2010Prop43
 90
        3
102
RTVSPost2010PropOp43
 70
     1
102
RTVSPost2010Prop44ColorIndex
 90
        5
102
RTVSPost2010Prop44ColorRGB
 90
      255
102
RTVSPost2010PropOp44
 70
     1
102
RTVSPost2010Prop45
280
     0
102
RTVSPost2010PropOp45
 70
     1
102
RTVSPost2010Prop46
 90
       50
102
RTVSPost2010PropOp46
 70
     1
102
RTVSPost2010Prop47
 90
       50
102
RTVSPost2010PropOp47
 70
     1
102
RTVSPost2010Prop48
 90
       50
102
RTVSPost2010PropOp48
 70
     1
102
RTVSPost2010Prop49
280
     0
102
RTVSPost2010PropOp49
 70
     1
102
RTVSPost2010Prop50
 90
       50
102
RTVSPost2010PropOp50
 70
     1
102
RTVSPost2010Prop51ColorIndex
 90
      256
102
RTVSPost2010Prop51ColorRGB
 90
-16777216
102
RTVSPost2010PropOp51
 70
     0
102
RTVSPost2010Prop52
140
1.0
102
RTVSPost2010PropOp52
 70
     0
102
RTVSPost2010Prop53
 90
        2
102
RTVSPost2010PropOp53
 70
     1
102
RTVSPost2010Prop54
  1
strokes_ogs.tif
102
RTVSPost2010PropOp54
 70
     1
102
RTVSPost2010Prop55
280
     0
102
RTVSPost2010PropOp55
 70
     1
102
RTVSPost2010Prop56
140
1.0
102
RTVSPost2010PropOp56
 70
     1
102
RTVSPost2010Prop57
140
1.0
102
RTVSPost2010PropOp57
 70
     1
102
RTVSPropertyOp0
 70
     1
102
RTVSPropertyOp1
 70
     1
102
RTVSPropertyOp2
 70
     1
102
RTVSPropertyOp3
 70
     1
102
RTVSPropertyOp4
 70
     1
102
RTVSPropertyOp5
 70
     1
102
RTVSPropertyOp6
 70
     1
102
RTVSPropertyOp7
 70
     1
102
RTVSPropertyOp8
 70
     1
102
RTVSPropertyOp9
 70
     1
102
RTVSPropertyOp10
 70
     1
102
RTVSPropertyOp11
 70
     1
102
RTVSPropertyOp12
 70
     1
102
RTVSPropertyOp13
 70
     1
102
RTVSPropertyOp14
 70
     1
102
RTVSPropertyOp15
 70
     1
102
RTVSPropertyOp16
 70
     1
102
RTVSPropertyOp17
 70
     1
102
RTVSPropertyOp18
 70
     1
102
RTVSPropertyOp19
 70
     1
102
RTVSPropertyOp20
 70
     1
102
RTVSPropertyOp21
 70
     1
102
RTVSPropertyOp22
 70
     1
102
RTVSPropertyOp23
 70
     1
102
RTVSPropertyOp24
 70
     1
102
RTVSPropertyOp25
 70
     1
102
RTVSPropertyOp26
 70
     1
102
RTVSPropertyOp27
 70
     1
102
RTVSPropertyOp28
 70
     1
102
RTVSPropertyOp29
 70
     1
102
RTVSPropertyOp30
 70
     1
102
RTVSPropertyOp31
 70
     1
102
RTVSPropertyOp32
 70
     1
102
RTVSPropertyOp33
 70
     1
102
RTVSPropertyOp34
 70
     1
102
RTVSPropertyOp35
 70
     1
102
RTVSPropertyOp36
 70
     1
102
RTVSPropertyOp37
 70
     1
102
RTVSPropertyOp38
 70
     1
102
RTVSPropertyOp39
 70
     1
102
RTVSPropertyOp40
 70
     1
102
RTVSPropertyOp41
 70
     1
102
RTVSPropertyOp42
 70
     1
102
RTVSPropertyOp43
 70
     1
102
RTVSPropertyOp44
 70
     1
102
RTVSPropertyOp45
 70
     1
102
RTVSPropertyOp46
 70
     1
102
RTVSPropertyOp47
 70
     1
102
RTVSPropertyOp48
 70
     1
102
RTVSPropertyOp49
 70
     1
102
RTVSPropertyOp50
 70
     1
102
RTVSPropertyOp51
 70
     0
102
RTVSPropertyOp52
 70
     0
102
RTVSPropertyOp53
 70
     1
102
RTVSPropertyOp54
 70
     1
102
RTVSPropertyOp55
 70
     1
102
RTVSPropertyOp56
 70
     1
102
RTVSPropertyOp57
 70
     1
102
RTVSPropertyOp58
 70
     1
102
RTVSPropertyOp59
 70
     1
102
RTVSPropertyOp60
 70
     1
102
RTVSPropertyOp61
 70
     1
102
RTVSPropertyOp62
 70
     1
  0
XRECORD
  5
F2E
102
{ACAD_REACTORS
330
F2D
102
}
330
F2D
100
AcDbXrecord
280
     1
102
RTVSPost2010Prop28
280
     0
102
RTVSPost2010PropOp28
 70
     1
102
RTVSPost2010Prop29
280
     1
102
RTVSPost2010PropOp29
 70
     1
102
RTVSPost2010Prop30
280
     1
102
RTVSPost2010PropOp30
 70
     1
102
RTVSPost2010Prop31
280
     0
102
RTVSPost2010PropOp31
 70
     1
102
RTVSPost2010Prop32
280
     0
102
RTVSPost2010PropOp32
 70
     1
102
RTVSPost2010Prop33
280
     0
102
RTVSPost2010PropOp33
 70
     1
102
RTVSPost2010Prop34
280
     0
102
RTVSPost2010PropOp34
 70
     1
102
RTVSPost2010Prop35
280
     0
102
RTVSPost2010PropOp35
 70
     1
102
RTVSPost2010Prop36
280
     0
102
RTVSPost2010PropOp36
 70
     1
102
RTVSPost2010Prop37
 90
       50
102
RTVSPost2010PropOp37
 70
     1
102
RTVSPost2010Prop38
140
0.0
102
RTVSPost2010PropOp38
 70
     1
102
RTVSPost2010Prop39
140
1.0
102
RTVSPost2010PropOp39
 70
     1
102
RTVSPost2010Prop40
 90
        0
102
RTVSPost2010PropOp40
 70
     1
102
RTVSPost2010Prop41ColorIndex
 90
       18
102
RTVSPost2010Prop41ColorRGB
 90
        0
102
RTVSPost2010PropOp41
 70
     1
102
RTVSPost2010Prop42
 90
       50
102
RTVSPost2010PropOp42
 70
     1
102
RTVSPost2010Prop43
 90
        3
102
RTVSPost2010PropOp43
 70
     1
102
RTVSPost2010Prop44ColorIndex
 90
        5
102
RTVSPost2010Prop44ColorRGB
 90
      255
102
RTVSPost2010PropOp44
 70
     1
102
RTVSPost2010Prop45
280
     0
102
RTVSPost2010PropOp45
 70
     1
102
RTVSPost2010Prop46
 90
       50
102
RTVSPost2010PropOp46
 70
     1
102
RTVSPost2010Prop47
 90
       50
102
RTVSPost2010PropOp47
 70
     1
102
RTVSPost2010Prop48
 90
       50
102
RTVSPost2010PropOp48
 70
     1
102
RTVSPost2010Prop49
280
     0
102
RTVSPost2010PropOp49
 70
     1
102
RTVSPost2010Prop50
 90
       50
102
RTVSPost2010PropOp50
 70
     1
102
RTVSPost2010Prop51ColorIndex
 90
      256
102
RTVSPost2010Prop51ColorRGB
 90
-16777216
102
RTVSPost2010PropOp51
 70
     0
102
RTVSPost2010Prop52
140
1.0
102
RTVSPost2010PropOp52
 70
     0
102
RTVSPost2010Prop53
 90
        2
102
RTVSPost2010PropOp53
 70
     1
102
RTVSPost2010Prop54
  1
strokes_ogs.tif
102
RTVSPost2010PropOp54
 70
     1
102
RTVSPost2010Prop55
280
     0
102
RTVSPost2010PropOp55
 70
     1
102
RTVSPost2010Prop56
140
1.0
102
RTVSPost2010PropOp56
 70
     1
102
RTVSPost2010Prop57
140
1.0
102
RTVSPost2010PropOp57
 70
     1
102
RTVSPropertyOp0
 70
     1
102
RTVSPropertyOp1
 70
     1
102
RTVSPropertyOp2
 70
     1
102
RTVSPropertyOp3
 70
     1
102
RTVSPropertyOp4
 70
     1
102
RTVSPropertyOp5
 70
     1
102
RTVSPropertyOp6
 70
     1
102
RTVSPropertyOp7
 70
     1
102
RTVSPropertyOp8
 70
     1
102
RTVSPropertyOp9
 70
     1
102
RTVSPropertyOp10
 70
     1
102
RTVSPropertyOp11
 70
     1
102
RTVSPropertyOp12
 70
     1
102
RTVSPropertyOp13
 70
     1
102
RTVSPropertyOp14
 70
     1
102
RTVSPropertyOp15
 70
     1
102
RTVSPropertyOp16
 70
     1
102
RTVSPropertyOp17
 70
     1
102
RTVSPropertyOp18
 70
     1
102
RTVSPropertyOp19
 70
     1
102
RTVSPropertyOp20
 70
     1
102
RTVSPropertyOp21
 70
     1
102
RTVSPropertyOp22
 70
     1
102
RTVSPropertyOp23
 70
     1
102
RTVSPropertyOp24
 70
     1
102
RTVSPropertyOp25
 70
     1
102
RTVSPropertyOp26
 70
     1
102
RTVSPropertyOp27
 70
     1
102
RTVSPropertyOp28
 70
     1
102
RTVSPropertyOp29
 70
     1
102
RTVSPropertyOp30
 70
     1
102
RTVSPropertyOp31
 70
     1
102
RTVSPropertyOp32
 70
     1
102
RTVSPropertyOp33
 70
     1
102
RTVSPropertyOp34
 70
     1
102
RTVSPropertyOp35
 70
     1
102
RTVSPropertyOp36
 70
     1
102
RTVSPropertyOp37
 70
     1
102
RTVSPropertyOp38
 70
     1
102
RTVSPropertyOp39
 70
     1
102
RTVSPropertyOp40
 70
     1
102
RTVSPropertyOp41
 70
     1
102
RTVSPropertyOp42
 70
     1
102
RTVSPropertyOp43
 70
     1
102
RTVSPropertyOp44
 70
     1
102
RTVSPropertyOp45
 70
     1
102
RTVSPropertyOp46
 70
     1
102
RTVSPropertyOp47
 70
     1
102
RTVSPropertyOp48
 70
     1
102
RTVSPropertyOp49
 70
     1
102
RTVSPropertyOp50
 70
     1
102
RTVSPropertyOp51
 70
     0
102
RTVSPropertyOp52
 70
     0
102
RTVSPropertyOp53
 70
     1
102
RTVSPropertyOp54
 70
     1
102
RTVSPropertyOp55
 70
     1
102
RTVSPropertyOp56
 70
     1
102
RTVSPropertyOp57
 70
     1
102
RTVSPropertyOp58
 70
     1
102
RTVSPropertyOp59
 70
     1
102
RTVSPropertyOp60
 70
     1
102
RTVSPropertyOp61
 70
     1
102
RTVSPropertyOp62
 70
     1
  0
XRECORD
  5
F30
102
{ACAD_REACTORS
330
F2F
102
}
330
F2F
100
AcDbXrecord
280
     1
102
RTVSPost2010Prop28
280
     0
102
RTVSPost2010PropOp28
 70
     1
102
RTVSPost2010Prop29
280
     1
102
RTVSPost2010PropOp29
 70
     1
102
RTVSPost2010Prop30
280
     1
102
RTVSPost2010PropOp30
 70
     1
102
RTVSPost2010Prop31
280
     0
102
RTVSPost2010PropOp31
 70
     1
102
RTVSPost2010Prop32
280
     0
102
RTVSPost2010PropOp32
 70
     1
102
RTVSPost2010Prop33
280
     0
102
RTVSPost2010PropOp33
 70
     1
102
RTVSPost2010Prop34
280
     0
102
RTVSPost2010PropOp34
 70
     1
102
RTVSPost2010Prop35
280
     0
102
RTVSPost2010PropOp35
 70
     1
102
RTVSPost2010Prop36
280
     0
102
RTVSPost2010PropOp36
 70
     1
102
RTVSPost2010Prop37
 90
       50
102
RTVSPost2010PropOp37
 70
     1
102
RTVSPost2010Prop38
140
0.0
102
RTVSPost2010PropOp38
 70
     1
102
RTVSPost2010Prop39
140
1.0
102
RTVSPost2010PropOp39
 70
     1
102
RTVSPost2010Prop40
 90
        0
102
RTVSPost2010PropOp40
 70
     1
102
RTVSPost2010Prop41ColorIndex
 90
       18
102
RTVSPost2010Prop41ColorRGB
 90
        0
102
RTVSPost2010PropOp41
 70
     1
102
RTVSPost2010Prop42
 90
       50
102
RTVSPost2010PropOp42
 70
     1
102
RTVSPost2010Prop43
 90
        3
102
RTVSPost2010PropOp43
 70
     1
102
RTVSPost2010Prop44ColorIndex
 90
        5
102
RTVSPost2010Prop44ColorRGB
 90
      255
102
RTVSPost2010PropOp44
 70
     1
102
RTVSPost2010Prop45
280
     0
102
RTVSPost2010PropOp45
 70
     1
102
RTVSPost2010Prop46
 90
       50
102
RTVSPost2010PropOp46
 70
     1
102
RTVSPost2010Prop47
 90
       50
102
RTVSPost2010PropOp47
 70
     1
102
RTVSPost2010Prop48
 90
       50
102
RTVSPost2010PropOp48
 70
     1
102
RTVSPost2010Prop49
280
     0
102
RTVSPost2010PropOp49
 70
     1
102
RTVSPost2010Prop50
 90
       50
102
RTVSPost2010PropOp50
 70
     1
102
RTVSPost2010Prop51ColorIndex
 90
      256
102
RTVSPost2010Prop51ColorRGB
 90
-16777216
102
RTVSPost2010PropOp51
 70
     0
102
RTVSPost2010Prop52
140
1.0
102
RTVSPost2010PropOp52
 70
     0
102
RTVSPost2010Prop53
 90
        2
102
RTVSPost2010PropOp53
 70
     1
102
RTVSPost2010Prop54
  1
strokes_ogs.tif
102
RTVSPost2010PropOp54
 70
     1
102
RTVSPost2010Prop55
280
     0
102
RTVSPost2010PropOp55
 70
     1
102
RTVSPost2010Prop56
140
1.0
102
RTVSPost2010PropOp56
 70
     1
102
RTVSPost2010Prop57
140
1.0
102
RTVSPost2010PropOp57
 70
     1
102
RTVSPropertyOp0
 70
     1
102
RTVSPropertyOp1
 70
     1
102
RTVSPropertyOp2
 70
     1
102
RTVSPropertyOp3
 70
     1
102
RTVSPropertyOp4
 70
     1
102
RTVSPropertyOp5
 70
     1
102
RTVSPropertyOp6
 70
     1
102
RTVSPropertyOp7
 70
     1
102
RTVSPropertyOp8
 70
     1
102
RTVSPropertyOp9
 70
     1
102
RTVSPropertyOp10
 70
     1
102
RTVSPropertyOp11
 70
     1
102
RTVSPropertyOp12
 70
     1
102
RTVSPropertyOp13
 70
     1
102
RTVSPropertyOp14
 70
     1
102
RTVSPropertyOp15
 70
     1
102
RTVSPropertyOp16
 70
     1
102
RTVSPropertyOp17
 70
     1
102
RTVSPropertyOp18
 70
     1
102
RTVSPropertyOp19
 70
     1
102
RTVSPropertyOp20
 70
     1
102
RTVSPropertyOp21
 70
     1
102
RTVSPropertyOp22
 70
     1
102
RTVSPropertyOp23
 70
     1
102
RTVSPropertyOp24
 70
     1
102
RTVSPropertyOp25
 70
     1
102
RTVSPropertyOp26
 70
     1
102
RTVSPropertyOp27
 70
     1
102
RTVSPropertyOp28
 70
     1
102
RTVSPropertyOp29
 70
     1
102
RTVSPropertyOp30
 70
     1
102
RTVSPropertyOp31
 70
     1
102
RTVSPropertyOp32
 70
     1
102
RTVSPropertyOp33
 70
     1
102
RTVSPropertyOp34
 70
     1
102
RTVSPropertyOp35
 70
     1
102
RTVSPropertyOp36
 70
     1
102
RTVSPropertyOp37
 70
     1
102
RTVSPropertyOp38
 70
     1
102
RTVSPropertyOp39
 70
     1
102
RTVSPropertyOp40
 70
     1
102
RTVSPropertyOp41
 70
     1
102
RTVSPropertyOp42
 70
     1
102
RTVSPropertyOp43
 70
     1
102
RTVSPropertyOp44
 70
     1
102
RTVSPropertyOp45
 70
     1
102
RTVSPropertyOp46
 70
     1
102
RTVSPropertyOp47
 70
     1
102
RTVSPropertyOp48
 70
     1
102
RTVSPropertyOp49
 70
     1
102
RTVSPropertyOp50
 70
     1
102
RTVSPropertyOp51
 70
     0
102
RTVSPropertyOp52
 70
     0
102
RTVSPropertyOp53
 70
     1
102
RTVSPropertyOp54
 70
     1
102
RTVSPropertyOp55
 70
     1
102
RTVSPropertyOp56
 70
     1
102
RTVSPropertyOp57
 70
     1
102
RTVSPropertyOp58
 70
     1
102
RTVSPropertyOp59
 70
     1
102
RTVSPropertyOp60
 70
     1
102
RTVSPropertyOp61
 70
     1
102
RTVSPropertyOp62
 70
     1
  0
XRECORD
  5
F32
102
{ACAD_REACTORS
330
F31
102
}
330
F31
100
AcDbXrecord
280
     1
102
RTVSPost2010Prop28
280
     0
102
RTVSPost2010PropOp28
 70
     1
102
RTVSPost2010Prop29
280
     1
102
RTVSPost2010PropOp29
 70
     1
102
RTVSPost2010Prop30
280
     1
102
RTVSPost2010PropOp30
 70
     1
102
RTVSPost2010Prop31
280
     0
102
RTVSPost2010PropOp31
 70
     1
102
RTVSPost2010Prop32
280
     0
102
RTVSPost2010PropOp32
 70
     1
102
RTVSPost2010Prop33
280
     0
102
RTVSPost2010PropOp33
 70
     1
102
RTVSPost2010Prop34
280
     0
102
RTVSPost2010PropOp34
 70
     1
102
RTVSPost2010Prop35
280
     0
102
RTVSPost2010PropOp35
 70
     1
102
RTVSPost2010Prop36
280
     0
102
RTVSPost2010PropOp36
 70
     1
102
RTVSPost2010Prop37
 90
       50
102
RTVSPost2010PropOp37
 70
     1
102
RTVSPost2010Prop38
140
0.0
102
RTVSPost2010PropOp38
 70
     1
102
RTVSPost2010Prop39
140
1.0
102
RTVSPost2010PropOp39
 70
     1
102
RTVSPost2010Prop40
 90
        0
102
RTVSPost2010PropOp40
 70
     1
102
RTVSPost2010Prop41ColorIndex
 90
       18
102
RTVSPost2010Prop41ColorRGB
 90
        0
102
RTVSPost2010PropOp41
 70
     1
102
RTVSPost2010Prop42
 90
       50
102
RTVSPost2010PropOp42
 70
     1
102
RTVSPost2010Prop43
 90
        3
102
RTVSPost2010PropOp43
 70
     1
102
RTVSPost2010Prop44ColorIndex
 90
        5
102
RTVSPost2010Prop44ColorRGB
 90
      255
102
RTVSPost2010PropOp44
 70
     1
102
RTVSPost2010Prop45
280
     0
102
RTVSPost2010PropOp45
 70
     1
102
RTVSPost2010Prop46
 90
       50
102
RTVSPost2010PropOp46
 70
     1
102
RTVSPost2010Prop47
 90
       50
102
RTVSPost2010PropOp47
 70
     1
102
RTVSPost2010Prop48
 90
       50
102
RTVSPost2010PropOp48
 70
     1
102
RTVSPost2010Prop49
280
     0
102
RTVSPost2010PropOp49
 70
     1
102
RTVSPost2010Prop50
 90
       50
102
RTVSPost2010PropOp50
 70
     1
102
RTVSPost2010Prop51ColorIndex
 90
      256
102
RTVSPost2010Prop51ColorRGB
 90
-16777216
102
RTVSPost2010PropOp51
 70
     0
102
RTVSPost2010Prop52
140
1.0
102
RTVSPost2010PropOp52
 70
     0
102
RTVSPost2010Prop53
 90
        2
102
RTVSPost2010PropOp53
 70
     1
102
RTVSPost2010Prop54
  1
strokes_ogs.tif
102
RTVSPost2010PropOp54
 70
     1
102
RTVSPost2010Prop55
280
     0
102
RTVSPost2010PropOp55
 70
     1
102
RTVSPost2010Prop56
140
1.0
102
RTVSPost2010PropOp56
 70
     1
102
RTVSPost2010Prop57
140
1.0
102
RTVSPost2010PropOp57
 70
     1
102
RTVSPropertyOp0
 70
     1
102
RTVSPropertyOp1
 70
     1
102
RTVSPropertyOp2
 70
     1
102
RTVSPropertyOp3
 70
     1
102
RTVSPropertyOp4
 70
     1
102
RTVSPropertyOp5
 70
     1
102
RTVSPropertyOp6
 70
     1
102
RTVSPropertyOp7
 70
     1
102
RTVSPropertyOp8
 70
     1
102
RTVSPropertyOp9
 70
     1
102
RTVSPropertyOp10
 70
     1
102
RTVSPropertyOp11
 70
     1
102
RTVSPropertyOp12
 70
     1
102
RTVSPropertyOp13
 70
     1
102
RTVSPropertyOp14
 70
     1
102
RTVSPropertyOp15
 70
     1
102
RTVSPropertyOp16
 70
     1
102
RTVSPropertyOp17
 70
     1
102
RTVSPropertyOp18
 70
     1
102
RTVSPropertyOp19
 70
     1
102
RTVSPropertyOp20
 70
     1
102
RTVSPropertyOp21
 70
     1
102
RTVSPropertyOp22
 70
     1
102
RTVSPropertyOp23
 70
     1
102
RTVSPropertyOp24
 70
     1
102
RTVSPropertyOp25
 70
     1
102
RTVSPropertyOp26
 70
     1
102
RTVSPropertyOp27
 70
     1
102
RTVSPropertyOp28
 70
     1
102
RTVSPropertyOp29
 70
     1
102
RTVSPropertyOp30
 70
     1
102
RTVSPropertyOp31
 70
     1
102
RTVSPropertyOp32
 70
     1
102
RTVSPropertyOp33
 70
     1
102
RTVSPropertyOp34
 70
     1
102
RTVSPropertyOp35
 70
     1
102
RTVSPropertyOp36
 70
     1
102
RTVSPropertyOp37
 70
     1
102
RTVSPropertyOp38
 70
     1
102
RTVSPropertyOp39
 70
     1
102
RTVSPropertyOp40
 70
     1
102
RTVSPropertyOp41
 70
     1
102
RTVSPropertyOp42
 70
     1
102
RTVSPropertyOp43
 70
     1
102
RTVSPropertyOp44
 70
     1
102
RTVSPropertyOp45
 70
     1
102
RTVSPropertyOp46
 70
     1
102
RTVSPropertyOp47
 70
     1
102
RTVSPropertyOp48
 70
     1
102
RTVSPropertyOp49
 70
     1
102
RTVSPropertyOp50
 70
     1
102
RTVSPropertyOp51
 70
     0
102
RTVSPropertyOp52
 70
     0
102
RTVSPropertyOp53
 70
     1
102
RTVSPropertyOp54
 70
     1
102
RTVSPropertyOp55
 70
     1
102
RTVSPropertyOp56
 70
     1
102
RTVSPropertyOp57
 70
     1
102
RTVSPropertyOp58
 70
     1
102
RTVSPropertyOp59
 70
     1
102
RTVSPropertyOp60
 70
     1
102
RTVSPropertyOp61
 70
     1
102
RTVSPropertyOp62
 70
     1
  0
XRECORD
  5
F34
102
{ACAD_REACTORS
330
F33
102
}
330
F33
100
AcDbXrecord
280
     1
102
RTVSPost2010Prop28
280
     0
102
RTVSPost2010PropOp28
 70
     1
102
RTVSPost2010Prop29
280
     1
102
RTVSPost2010PropOp29
 70
     1
102
RTVSPost2010Prop30
280
     1
102
RTVSPost2010PropOp30
 70
     1
102
RTVSPost2010Prop31
280
     0
102
RTVSPost2010PropOp31
 70
     1
102
RTVSPost2010Prop32
280
     0
102
RTVSPost2010PropOp32
 70
     1
102
RTVSPost2010Prop33
280
     0
102
RTVSPost2010PropOp33
 70
     1
102
RTVSPost2010Prop34
280
     0
102
RTVSPost2010PropOp34
 70
     1
102
RTVSPost2010Prop35
280
     0
102
RTVSPost2010PropOp35
 70
     1
102
RTVSPost2010Prop36
280
     0
102
RTVSPost2010PropOp36
 70
     1
102
RTVSPost2010Prop37
 90
       50
102
RTVSPost2010PropOp37
 70
     1
102
RTVSPost2010Prop38
140
0.0
102
RTVSPost2010PropOp38
 70
     1
102
RTVSPost2010Prop39
140
1.0
102
RTVSPost2010PropOp39
 70
     1
102
RTVSPost2010Prop40
 90
        0
102
RTVSPost2010PropOp40
 70
     1
102
RTVSPost2010Prop41ColorIndex
 90
       18
102
RTVSPost2010Prop41ColorRGB
 90
        0
102
RTVSPost2010PropOp41
 70
     1
102
RTVSPost2010Prop42
 90
       50
102
RTVSPost2010PropOp42
 70
     1
102
RTVSPost2010Prop43
 90
        3
102
RTVSPost2010PropOp43
 70
     1
102
RTVSPost2010Prop44ColorIndex
 90
        5
102
RTVSPost2010Prop44ColorRGB
 90
      255
102
RTVSPost2010PropOp44
 70
     1
102
RTVSPost2010Prop45
280
     0
102
RTVSPost2010PropOp45
 70
     1
102
RTVSPost2010Prop46
 90
       50
102
RTVSPost2010PropOp46
 70
     1
102
RTVSPost2010Prop47
 90
       50
102
RTVSPost2010PropOp47
 70
     1
102
RTVSPost2010Prop48
 90
       50
102
RTVSPost2010PropOp48
 70
     1
102
RTVSPost2010Prop49
280
     0
102
RTVSPost2010PropOp49
 70
     1
102
RTVSPost2010Prop50
 90
       50
102
RTVSPost2010PropOp50
 70
     1
102
RTVSPost2010Prop51ColorIndex
 90
      256
102
RTVSPost2010Prop51ColorRGB
 90
-16777216
102
RTVSPost2010PropOp51
 70
     0
102
RTVSPost2010Prop52
140
1.0
102
RTVSPost2010PropOp52
 70
     0
102
RTVSPost2010Prop53
 90
        2
102
RTVSPost2010PropOp53
 70
     1
102
RTVSPost2010Prop54
  1
strokes_ogs.tif
102
RTVSPost2010PropOp54
 70
     1
102
RTVSPost2010Prop55
280
     0
102
RTVSPost2010PropOp55
 70
     1
102
RTVSPost2010Prop56
140
1.0
102
RTVSPost2010PropOp56
 70
     1
102
RTVSPost2010Prop57
140
1.0
102
RTVSPost2010PropOp57
 70
     1
102
RTVSPropertyOp0
 70
     1
102
RTVSPropertyOp1
 70
     1
102
RTVSPropertyOp2
 70
     1
102
RTVSPropertyOp3
 70
     1
102
RTVSPropertyOp4
 70
     1
102
RTVSPropertyOp5
 70
     1
102
RTVSPropertyOp6
 70
     1
102
RTVSPropertyOp7
 70
     1
102
RTVSPropertyOp8
 70
     1
102
RTVSPropertyOp9
 70
     1
102
RTVSPropertyOp10
 70
     1
102
RTVSPropertyOp11
 70
     1
102
RTVSPropertyOp12
 70
     1
102
RTVSPropertyOp13
 70
     1
102
RTVSPropertyOp14
 70
     1
102
RTVSPropertyOp15
 70
     1
102
RTVSPropertyOp16
 70
     1
102
RTVSPropertyOp17
 70
     1
102
RTVSPropertyOp18
 70
     1
102
RTVSPropertyOp19
 70
     1
102
RTVSPropertyOp20
 70
     1
102
RTVSPropertyOp21
 70
     1
102
RTVSPropertyOp22
 70
     1
102
RTVSPropertyOp23
 70
     1
102
RTVSPropertyOp24
 70
     1
102
RTVSPropertyOp25
 70
     1
102
RTVSPropertyOp26
 70
     1
102
RTVSPropertyOp27
 70
     1
102
RTVSPropertyOp28
 70
     1
102
RTVSPropertyOp29
 70
     1
102
RTVSPropertyOp30
 70
     1
102
RTVSPropertyOp31
 70
     1
102
RTVSPropertyOp32
 70
     1
102
RTVSPropertyOp33
 70
     1
102
RTVSPropertyOp34
 70
     1
102
RTVSPropertyOp35
 70
     1
102
RTVSPropertyOp36
 70
     1
102
RTVSPropertyOp37
 70
     1
102
RTVSPropertyOp38
 70
     1
102
RTVSPropertyOp39
 70
     1
102
RTVSPropertyOp40
 70
     1
102
RTVSPropertyOp41
 70
     1
102
RTVSPropertyOp42
 70
     1
102
RTVSPropertyOp43
 70
     1
102
RTVSPropertyOp44
 70
     1
102
RTVSPropertyOp45
 70
     1
102
RTVSPropertyOp46
 70
     1
102
RTVSPropertyOp47
 70
     1
102
RTVSPropertyOp48
 70
     1
102
RTVSPropertyOp49
 70
     1
102
RTVSPropertyOp50
 70
     1
102
RTVSPropertyOp51
 70
     0
102
RTVSPropertyOp52
 70
     0
102
RTVSPropertyOp53
 70
     1
102
RTVSPropertyOp54
 70
     1
102
RTVSPropertyOp55
 70
     1
102
RTVSPropertyOp56
 70
     1
102
RTVSPropertyOp57
 70
     1
102
RTVSPropertyOp58
 70
     1
102
RTVSPropertyOp59
 70
     1
102
RTVSPropertyOp60
 70
     1
102
RTVSPropertyOp61
 70
     1
102
RTVSPropertyOp62
 70
     1
  0
XRECORD
  5
F3C
102
{ACAD_REACTORS
330
F3B
102
}
330
F3B
100
AcDbXrecord
280
     1
102
RTVSPost2010Prop28
280
     0
102
RTVSPost2010PropOp28
 70
     1
102
RTVSPost2010Prop29
280
     1
102
RTVSPost2010PropOp29
 70
     1
102
RTVSPost2010Prop30
280
     1
102
RTVSPost2010PropOp30
 70
     1
102
RTVSPost2010Prop31
280
     0
102
RTVSPost2010PropOp31
 70
     1
102
RTVSPost2010Prop32
280
     0
102
RTVSPost2010PropOp32
 70
     1
102
RTVSPost2010Prop33
280
     0
102
RTVSPost2010PropOp33
 70
     1
102
RTVSPost2010Prop34
280
     0
102
RTVSPost2010PropOp34
 70
     1
102
RTVSPost2010Prop35
280
     0
102
RTVSPost2010PropOp35
 70
     1
102
RTVSPost2010Prop36
280
     0
102
RTVSPost2010PropOp36
 70
     1
102
RTVSPost2010Prop37
 90
       50
102
RTVSPost2010PropOp37
 70
     1
102
RTVSPost2010Prop38
140
0.0
102
RTVSPost2010PropOp38
 70
     1
102
RTVSPost2010Prop39
140
1.0
102
RTVSPost2010PropOp39
 70
     1
102
RTVSPost2010Prop40
 90
        0
102
RTVSPost2010PropOp40
 70
     1
102
RTVSPost2010Prop41ColorIndex
 90
       18
102
RTVSPost2010Prop41ColorRGB
 90
        0
102
RTVSPost2010PropOp41
 70
     1
102
RTVSPost2010Prop42
 90
       50
102
RTVSPost2010PropOp42
 70
     1
102
RTVSPost2010Prop43
 90
        3
102
RTVSPost2010PropOp43
 70
     1
102
RTVSPost2010Prop44ColorIndex
 90
        5
102
RTVSPost2010Prop44ColorRGB
 90
      255
102
RTVSPost2010PropOp44
 70
     1
102
RTVSPost2010Prop45
280
     0
102
RTVSPost2010PropOp45
 70
     1
102
RTVSPost2010Prop46
 90
       50
102
RTVSPost2010PropOp46
 70
     1
102
RTVSPost2010Prop47
 90
       50
102
RTVSPost2010PropOp47
 70
     1
102
RTVSPost2010Prop48
 90
       50
102
RTVSPost2010PropOp48
 70
     1
102
RTVSPost2010Prop49
280
     0
102
RTVSPost2010PropOp49
 70
     1
102
RTVSPost2010Prop50
 90
       50
102
RTVSPost2010PropOp50
 70
     1
102
RTVSPost2010Prop51ColorIndex
 90
      256
102
RTVSPost2010Prop51ColorRGB
 90
-16777216
102
RTVSPost2010PropOp51
 70
     0
102
RTVSPost2010Prop52
140
1.0
102
RTVSPost2010PropOp52
 70
     0
102
RTVSPost2010Prop53
 90
        2
102
RTVSPost2010PropOp53
 70
     1
102
RTVSPost2010Prop54
  1
strokes_ogs.tif
102
RTVSPost2010PropOp54
 70
     1
102
RTVSPost2010Prop55
280
     0
102
RTVSPost2010PropOp55
 70
     1
102
RTVSPost2010Prop56
140
1.0
102
RTVSPost2010PropOp56
 70
     1
102
RTVSPost2010Prop57
140
1.0
102
RTVSPost2010PropOp57
 70
     1
102
RTVSPropertyOp0
 70
     1
102
RTVSPropertyOp1
 70
     1
102
RTVSPropertyOp2
 70
     1
102
RTVSPropertyOp3
 70
     1
102
RTVSPropertyOp4
 70
     1
102
RTVSPropertyOp5
 70
     1
102
RTVSPropertyOp6
 70
     1
102
RTVSPropertyOp7
 70
     1
102
RTVSPropertyOp8
 70
     1
102
RTVSPropertyOp9
 70
     1
102
RTVSPropertyOp10
 70
     1
102
RTVSPropertyOp11
 70
     1
102
RTVSPropertyOp12
 70
     1
102
RTVSPropertyOp13
 70
     1
102
RTVSPropertyOp14
 70
     1
102
RTVSPropertyOp15
 70
     1
102
RTVSPropertyOp16
 70
     1
102
RTVSPropertyOp17
 70
     1
102
RTVSPropertyOp18
 70
     1
102
RTVSPropertyOp19
 70
     1
102
RTVSPropertyOp20
 70
     1
102
RTVSPropertyOp21
 70
     1
102
RTVSPropertyOp22
 70
     1
102
RTVSPropertyOp23
 70
     1
102
RTVSPropertyOp24
 70
     1
102
RTVSPropertyOp25
 70
     1
102
RTVSPropertyOp26
 70
     1
102
RTVSPropertyOp27
 70
     1
102
RTVSPropertyOp28
 70
     1
102
RTVSPropertyOp29
 70
     1
102
RTVSPropertyOp30
 70
     1
102
RTVSPropertyOp31
 70
     1
102
RTVSPropertyOp32
 70
     1
102
RTVSPropertyOp33
 70
     1
102
RTVSPropertyOp34
 70
     1
102
RTVSPropertyOp35
 70
     1
102
RTVSPropertyOp36
 70
     1
102
RTVSPropertyOp37
 70
     1
102
RTVSPropertyOp38
 70
     1
102
RTVSPropertyOp39
 70
     1
102
RTVSPropertyOp40
 70
     1
102
RTVSPropertyOp41
 70
     1
102
RTVSPropertyOp42
 70
     1
102
RTVSPropertyOp43
 70
     1
102
RTVSPropertyOp44
 70
     1
102
RTVSPropertyOp45
 70
     1
102
RTVSPropertyOp46
 70
     1
102
RTVSPropertyOp47
 70
     1
102
RTVSPropertyOp48
 70
     1
102
RTVSPropertyOp49
 70
     1
102
RTVSPropertyOp50
 70
     1
102
RTVSPropertyOp51
 70
     0
102
RTVSPropertyOp52
 70
     0
102
RTVSPropertyOp53
 70
     1
102
RTVSPropertyOp54
 70
     1
102
RTVSPropertyOp55
 70
     1
102
RTVSPropertyOp56
 70
     1
102
RTVSPropertyOp57
 70
     1
102
RTVSPropertyOp58
 70
     1
102
RTVSPropertyOp59
 70
     1
102
RTVSPropertyOp60
 70
     1
102
RTVSPropertyOp61
 70
     1
102
RTVSPropertyOp62
 70
     1
  0
XRECORD
  5
F50
102
{ACAD_REACTORS
330
F4F
102
}
330
F4F
100
AcDbXrecord
280
     1
102
RTVSPost2010Prop28
280
     0
102
RTVSPost2010PropOp28
 70
     1
102
RTVSPost2010Prop29
280
     1
102
RTVSPost2010PropOp29
 70
     1
102
RTVSPost2010Prop30
280
     1
102
RTVSPost2010PropOp30
 70
     1
102
RTVSPost2010Prop31
280
     0
102
RTVSPost2010PropOp31
 70
     1
102
RTVSPost2010Prop32
280
     0
102
RTVSPost2010PropOp32
 70
     1
102
RTVSPost2010Prop33
280
     0
102
RTVSPost2010PropOp33
 70
     1
102
RTVSPost2010Prop34
280
     0
102
RTVSPost2010PropOp34
 70
     1
102
RTVSPost2010Prop35
280
     0
102
RTVSPost2010PropOp35
 70
     1
102
RTVSPost2010Prop36
280
     0
102
RTVSPost2010PropOp36
 70
     1
102
RTVSPost2010Prop37
 90
       50
102
RTVSPost2010PropOp37
 70
     1
102
RTVSPost2010Prop38
140
0.0
102
RTVSPost2010PropOp38
 70
     1
102
RTVSPost2010Prop39
140
1.0
102
RTVSPost2010PropOp39
 70
     1
102
RTVSPost2010Prop40
 90
        0
102
RTVSPost2010PropOp40
 70
     1
102
RTVSPost2010Prop41ColorIndex
 90
       18
102
RTVSPost2010Prop41ColorRGB
 90
        0
102
RTVSPost2010PropOp41
 70
     1
102
RTVSPost2010Prop42
 90
       50
102
RTVSPost2010PropOp42
 70
     1
102
RTVSPost2010Prop43
 90
        3
102
RTVSPost2010PropOp43
 70
     1
102
RTVSPost2010Prop44ColorIndex
 90
        5
102
RTVSPost2010Prop44ColorRGB
 90
      255
102
RTVSPost2010PropOp44
 70
     1
102
RTVSPost2010Prop45
280
     0
102
RTVSPost2010PropOp45
 70
     1
102
RTVSPost2010Prop46
 90
       50
102
RTVSPost2010PropOp46
 70
     1
102
RTVSPost2010Prop47
 90
       50
102
RTVSPost2010PropOp47
 70
     1
102
RTVSPost2010Prop48
 90
       50
102
RTVSPost2010PropOp48
 70
     1
102
RTVSPost2010Prop49
280
     0
102
RTVSPost2010PropOp49
 70
     1
102
RTVSPost2010Prop50
 90
       50
102
RTVSPost2010PropOp50
 70
     1
102
RTVSPost2010Prop51ColorIndex
 90
      256
102
RTVSPost2010Prop51ColorRGB
 90
-16777216
102
RTVSPost2010PropOp51
 70
     0
102
RTVSPost2010Prop52
140
1.0
102
RTVSPost2010PropOp52
 70
     0
102
RTVSPost2010Prop53
 90
        2
102
RTVSPost2010PropOp53
 70
     1
102
RTVSPost2010Prop54
  1
strokes_ogs.tif
102
RTVSPost2010PropOp54
 70
     1
102
RTVSPost2010Prop55
280
     0
102
RTVSPost2010PropOp55
 70
     1
102
RTVSPost2010Prop56
140
1.0
102
RTVSPost2010PropOp56
 70
     1
102
RTVSPost2010Prop57
140
1.0
102
RTVSPost2010PropOp57
 70
     1
102
RTVSPropertyOp0
 70
     0
102
RTVSPropertyOp1
 70
     0
102
RTVSPropertyOp2
 70
     0
102
RTVSPropertyOp3
 70
     0
102
RTVSPropertyOp4
 70
     0
102
RTVSPropertyOp5
 70
     0
102
RTVSPropertyOp6
 70
     0
102
RTVSPropertyOp7
 70
     0
102
RTVSPropertyOp8
 70
     0
102
RTVSPropertyOp9
 70
     0
102
RTVSPropertyOp10
 70
     0
102
RTVSPropertyOp11
 70
     0
102
RTVSPropertyOp12
 70
     0
102
RTVSPropertyOp13
 70
     0
102
RTVSPropertyOp14
 70
     2
102
RTVSPropertyOp15
 70
     0
102
RTVSPropertyOp16
 70
     0
102
RTVSPropertyOp17
 70
     0
102
RTVSPropertyOp18
 70
     0
102
RTVSPropertyOp19
 70
     0
102
RTVSPropertyOp20
 70
     0
102
RTVSPropertyOp21
 70
     0
102
RTVSPropertyOp22
 70
     0
102
RTVSPropertyOp23
 70
     0
102
RTVSPropertyOp24
 70
     0
102
RTVSPropertyOp25
 70
     0
102
RTVSPropertyOp26
 70
     0
102
RTVSPropertyOp27
 70
     0
102
RTVSPropertyOp28
 70
     1
102
RTVSPropertyOp29
 70
     1
102
RTVSPropertyOp30
 70
     1
102
RTVSPropertyOp31
 70
     1
102
RTVSPropertyOp32
 70
     1
102
RTVSPropertyOp33
 70
     1
102
RTVSPropertyOp34
 70
     1
102
RTVSPropertyOp35
 70
     1
102
RTVSPropertyOp36
 70
     1
102
RTVSPropertyOp37
 70
     1
102
RTVSPropertyOp38
 70
     1
102
RTVSPropertyOp39
 70
     1
102
RTVSPropertyOp40
 70
     1
102
RTVSPropertyOp41
 70
     1
102
RTVSPropertyOp42
 70
     1
102
RTVSPropertyOp43
 70
     1
102
RTVSPropertyOp44
 70
     1
102
RTVSPropertyOp45
 70
     1
102
RTVSPropertyOp46
 70
     1
102
RTVSPropertyOp47
 70
     1
102
RTVSPropertyOp48
 70
     1
102
RTVSPropertyOp49
 70
     1
102
RTVSPropertyOp50
 70
     1
102
RTVSPropertyOp51
 70
     0
102
RTVSPropertyOp52
 70
     0
102
RTVSPropertyOp53
 70
     1
102
RTVSPropertyOp54
 70
     1
102
RTVSPropertyOp55
 70
     1
102
RTVSPropertyOp56
 70
     1
102
RTVSPropertyOp57
 70
     1
102
RTVSPropertyOp58
 70
     1
102
RTVSPropertyOp59
 70
     1
102
RTVSPropertyOp60
 70
     1
102
RTVSPropertyOp61
 70
     1
102
RTVSPropertyOp62
 70
     1
  0
XRECORD
  5
F48
102
{ACAD_REACTORS
330
F47
102
}
330
F47
100
AcDbXrecord
280
     1
102
RTVSPost2010Prop28
280
     0
102
RTVSPost2010PropOp28
 70
     1
102
RTVSPost2010Prop29
280
     1
102
RTVSPost2010PropOp29
 70
     1
102
RTVSPost2010Prop30
280
     1
102
RTVSPost2010PropOp30
 70
     1
102
RTVSPost2010Prop31
280
     0
102
RTVSPost2010PropOp31
 70
     1
102
RTVSPost2010Prop32
280
     0
102
RTVSPost2010PropOp32
 70
     1
102
RTVSPost2010Prop33
280
     0
102
RTVSPost2010PropOp33
 70
     1
102
RTVSPost2010Prop34
280
     0
102
RTVSPost2010PropOp34
 70
     1
102
RTVSPost2010Prop35
280
     0
102
RTVSPost2010PropOp35
 70
     1
102
RTVSPost2010Prop36
280
     0
102
RTVSPost2010PropOp36
 70
     1
102
RTVSPost2010Prop37
 90
       50
102
RTVSPost2010PropOp37
 70
     1
102
RTVSPost2010Prop38
140
0.0
102
RTVSPost2010PropOp38
 70
     1
102
RTVSPost2010Prop39
140
1.0
102
RTVSPost2010PropOp39
 70
     1
102
RTVSPost2010Prop40
 90
        0
102
RTVSPost2010PropOp40
 70
     1
102
RTVSPost2010Prop41ColorIndex
 90
       18
102
RTVSPost2010Prop41ColorRGB
 90
        0
102
RTVSPost2010PropOp41
 70
     1
102
RTVSPost2010Prop42
 90
       50
102
RTVSPost2010PropOp42
 70
     1
102
RTVSPost2010Prop43
 90
        3
102
RTVSPost2010PropOp43
 70
     1
102
RTVSPost2010Prop44ColorIndex
 90
        5
102
RTVSPost2010Prop44ColorRGB
 90
      255
102
RTVSPost2010PropOp44
 70
     1
102
RTVSPost2010Prop45
280
     0
102
RTVSPost2010PropOp45
 70
     1
102
RTVSPost2010Prop46
 90
       50
102
RTVSPost2010PropOp46
 70
     1
102
RTVSPost2010Prop47
 90
       50
102
RTVSPost2010PropOp47
 70
     1
102
RTVSPost2010Prop48
 90
       50
102
RTVSPost2010PropOp48
 70
     1
102
RTVSPost2010Prop49
280
     0
102
RTVSPost2010PropOp49
 70
     1
102
RTVSPost2010Prop50
 90
       50
102
RTVSPost2010PropOp50
 70
     1
102
RTVSPost2010Prop51ColorIndex
 90
      256
102
RTVSPost2010Prop51ColorRGB
 90
-16777216
102
RTVSPost2010PropOp51
 70
     0
102
RTVSPost2010Prop52
140
1.0
102
RTVSPost2010PropOp52
 70
     0
102
RTVSPost2010Prop53
 90
        2
102
RTVSPost2010PropOp53
 70
     1
102
RTVSPost2010Prop54
  1
strokes_ogs.tif
102
RTVSPost2010PropOp54
 70
     1
102
RTVSPost2010Prop55
280
     0
102
RTVSPost2010PropOp55
 70
     1
102
RTVSPost2010Prop56
140
1.0
102
RTVSPost2010PropOp56
 70
     1
102
RTVSPost2010Prop57
140
1.0
102
RTVSPost2010PropOp57
 70
     1
102
RTVSPropertyOp0
 70
     1
102
RTVSPropertyOp1
 70
     1
102
RTVSPropertyOp2
 70
     1
102
RTVSPropertyOp3
 70
     1
102
RTVSPropertyOp4
 70
     1
102
RTVSPropertyOp5
 70
     1
102
RTVSPropertyOp6
 70
     1
102
RTVSPropertyOp7
 70
     1
102
RTVSPropertyOp8
 70
     1
102
RTVSPropertyOp9
 70
     1
102
RTVSPropertyOp10
 70
     1
102
RTVSPropertyOp11
 70
     1
102
RTVSPropertyOp12
 70
     1
102
RTVSPropertyOp13
 70
     1
102
RTVSPropertyOp14
 70
     1
102
RTVSPropertyOp15
 70
     1
102
RTVSPropertyOp16
 70
     1
102
RTVSPropertyOp17
 70
     1
102
RTVSPropertyOp18
 70
     1
102
RTVSPropertyOp19
 70
     1
102
RTVSPropertyOp20
 70
     1
102
RTVSPropertyOp21
 70
     1
102
RTVSPropertyOp22
 70
     1
102
RTVSPropertyOp23
 70
     1
102
RTVSPropertyOp24
 70
     1
102
RTVSPropertyOp25
 70
     1
102
RTVSPropertyOp26
 70
     1
102
RTVSPropertyOp27
 70
     1
102
RTVSPropertyOp28
 70
     1
102
RTVSPropertyOp29
 70
     1
102
RTVSPropertyOp30
 70
     1
102
RTVSPropertyOp31
 70
     1
102
RTVSPropertyOp32
 70
     1
102
RTVSPropertyOp33
 70
     1
102
RTVSPropertyOp34
 70
     1
102
RTVSPropertyOp35
 70
     1
102
RTVSPropertyOp36
 70
     1
102
RTVSPropertyOp37
 70
     1
102
RTVSPropertyOp38
 70
     1
102
RTVSPropertyOp39
 70
     1
102
RTVSPropertyOp40
 70
     1
102
RTVSPropertyOp41
 70
     1
102
RTVSPropertyOp42
 70
     1
102
RTVSPropertyOp43
 70
     1
102
RTVSPropertyOp44
 70
     1
102
RTVSPropertyOp45
 70
     1
102
RTVSPropertyOp46
 70
     1
102
RTVSPropertyOp47
 70
     1
102
RTVSPropertyOp48
 70
     1
102
RTVSPropertyOp49
 70
     1
102
RTVSPropertyOp50
 70
     1
102
RTVSPropertyOp51
 70
     0
102
RTVSPropertyOp52
 70
     0
102
RTVSPropertyOp53
 70
     1
102
RTVSPropertyOp54
 70
     1
102
RTVSPropertyOp55
 70
     1
102
RTVSPropertyOp56
 70
     1
102
RTVSPropertyOp57
 70
     1
102
RTVSPropertyOp58
 70
     1
102
RTVSPropertyOp59
 70
     1
102
RTVSPropertyOp60
 70
     1
102
RTVSPropertyOp61
 70
     1
102
RTVSPropertyOp62
 70
     1
  0
XRECORD
  5
F52
102
{ACAD_REACTORS
330
F51
102
}
330
F51
100
AcDbXrecord
280
     1
102
RTVSPost2010Prop28
280
     0
102
RTVSPost2010PropOp28
 70
     1
102
RTVSPost2010Prop29
280
     1
102
RTVSPost2010PropOp29
 70
     1
102
RTVSPost2010Prop30
280
     1
102
RTVSPost2010PropOp30
 70
     1
102
RTVSPost2010Prop31
280
     0
102
RTVSPost2010PropOp31
 70
     1
102
RTVSPost2010Prop32
280
     0
102
RTVSPost2010PropOp32
 70
     1
102
RTVSPost2010Prop33
280
     0
102
RTVSPost2010PropOp33
 70
     1
102
RTVSPost2010Prop34
280
     0
102
RTVSPost2010PropOp34
 70
     1
102
RTVSPost2010Prop35
280
     0
102
RTVSPost2010PropOp35
 70
     1
102
RTVSPost2010Prop36
280
     0
102
RTVSPost2010PropOp36
 70
     1
102
RTVSPost2010Prop37
 90
       50
102
RTVSPost2010PropOp37
 70
     1
102
RTVSPost2010Prop38
140
0.0
102
RTVSPost2010PropOp38
 70
     1
102
RTVSPost2010Prop39
140
1.0
102
RTVSPost2010PropOp39
 70
     1
102
RTVSPost2010Prop40
 90
        0
102
RTVSPost2010PropOp40
 70
     1
102
RTVSPost2010Prop41ColorIndex
 90
       18
102
RTVSPost2010Prop41ColorRGB
 90
        0
102
RTVSPost2010PropOp41
 70
     1
102
RTVSPost2010Prop42
 90
       50
102
RTVSPost2010PropOp42
 70
     1
102
RTVSPost2010Prop43
 90
        3
102
RTVSPost2010PropOp43
 70
     1
102
RTVSPost2010Prop44ColorIndex
 90
        5
102
RTVSPost2010Prop44ColorRGB
 90
      255
102
RTVSPost2010PropOp44
 70
     1
102
RTVSPost2010Prop45
280
     0
102
RTVSPost2010PropOp45
 70
     1
102
RTVSPost2010Prop46
 90
       50
102
RTVSPost2010PropOp46
 70
     1
102
RTVSPost2010Prop47
 90
       50
102
RTVSPost2010PropOp47
 70
     1
102
RTVSPost2010Prop48
 90
       50
102
RTVSPost2010PropOp48
 70
     1
102
RTVSPost2010Prop49
280
     0
102
RTVSPost2010PropOp49
 70
     1
102
RTVSPost2010Prop50
 90
       50
102
RTVSPost2010PropOp50
 70
     1
102
RTVSPost2010Prop51ColorIndex
 90
      256
102
RTVSPost2010Prop51ColorRGB
 90
-16777216
102
RTVSPost2010PropOp51
 70
     0
102
RTVSPost2010Prop52
140
1.0
102
RTVSPost2010PropOp52
 70
     0
102
RTVSPost2010Prop53
 90
        2
102
RTVSPost2010PropOp53
 70
     1
102
RTVSPost2010Prop54
  1
strokes_ogs.tif
102
RTVSPost2010PropOp54
 70
     1
102
RTVSPost2010Prop55
280
     0
102
RTVSPost2010PropOp55
 70
     1
102
RTVSPost2010Prop56
140
1.0
102
RTVSPost2010PropOp56
 70
     1
102
RTVSPost2010Prop57
140
1.0
102
RTVSPost2010PropOp57
 70
     1
102
RTVSPropertyOp0
 70
     0
102
RTVSPropertyOp1
 70
     0
102
RTVSPropertyOp2
 70
     0
102
RTVSPropertyOp3
 70
     0
102
RTVSPropertyOp4
 70
     0
102
RTVSPropertyOp5
 70
     0
102
RTVSPropertyOp6
 70
     0
102
RTVSPropertyOp7
 70
     0
102
RTVSPropertyOp8
 70
     0
102
RTVSPropertyOp9
 70
     0
102
RTVSPropertyOp10
 70
     0
102
RTVSPropertyOp11
 70
     0
102
RTVSPropertyOp12
 70
     0
102
RTVSPropertyOp13
 70
     0
102
RTVSPropertyOp14
 70
     2
102
RTVSPropertyOp15
 70
     0
102
RTVSPropertyOp16
 70
     0
102
RTVSPropertyOp17
 70
     0
102
RTVSPropertyOp18
 70
     0
102
RTVSPropertyOp19
 70
     0
102
RTVSPropertyOp20
 70
     0
102
RTVSPropertyOp21
 70
     0
102
RTVSPropertyOp22
 70
     0
102
RTVSPropertyOp23
 70
     0
102
RTVSPropertyOp24
 70
     0
102
RTVSPropertyOp25
 70
     0
102
RTVSPropertyOp26
 70
     0
102
RTVSPropertyOp27
 70
     0
102
RTVSPropertyOp28
 70
     1
102
RTVSPropertyOp29
 70
     1
102
RTVSPropertyOp30
 70
     1
102
RTVSPropertyOp31
 70
     1
102
RTVSPropertyOp32
 70
     1
102
RTVSPropertyOp33
 70
     1
102
RTVSPropertyOp34
 70
     1
102
RTVSPropertyOp35
 70
     1
102
RTVSPropertyOp36
 70
     1
102
RTVSPropertyOp37
 70
     1
102
RTVSPropertyOp38
 70
     1
102
RTVSPropertyOp39
 70
     1
102
RTVSPropertyOp40
 70
     1
102
RTVSPropertyOp41
 70
     1
102
RTVSPropertyOp42
 70
     1
102
RTVSPropertyOp43
 70
     1
102
RTVSPropertyOp44
 70
     1
102
RTVSPropertyOp45
 70
     1
102
RTVSPropertyOp46
 70
     1
102
RTVSPropertyOp47
 70
     1
102
RTVSPropertyOp48
 70
     1
102
RTVSPropertyOp49
 70
     1
102
RTVSPropertyOp50
 70
     1
102
RTVSPropertyOp51
 70
     0
102
RTVSPropertyOp52
 70
     0
102
RTVSPropertyOp53
 70
     1
102
RTVSPropertyOp54
 70
     1
102
RTVSPropertyOp55
 70
     1
102
RTVSPropertyOp56
 70
     1
102
RTVSPropertyOp57
 70
     1
102
RTVSPropertyOp58
 70
     1
102
RTVSPropertyOp59
 70
     1
102
RTVSPropertyOp60
 70
     1
102
RTVSPropertyOp61
 70
     1
102
RTVSPropertyOp62
 70
     1
  0
XRECORD
  5
F40
102
{ACAD_REACTORS
330
F3F
102
}
330
F3F
100
AcDbXrecord
280
     1
102
RTVSPost2010Prop28
280
     0
102
RTVSPost2010PropOp28
 70
     1
102
RTVSPost2010Prop29
280
     1
102
RTVSPost2010PropOp29
 70
     1
102
RTVSPost2010Prop30
280
     1
102
RTVSPost2010PropOp30
 70
     1
102
RTVSPost2010Prop31
280
     0
102
RTVSPost2010PropOp31
 70
     1
102
RTVSPost2010Prop32
280
     0
102
RTVSPost2010PropOp32
 70
     1
102
RTVSPost2010Prop33
280
     0
102
RTVSPost2010PropOp33
 70
     1
102
RTVSPost2010Prop34
280
     0
102
RTVSPost2010PropOp34
 70
     1
102
RTVSPost2010Prop35
280
     0
102
RTVSPost2010PropOp35
 70
     1
102
RTVSPost2010Prop36
280
     0
102
RTVSPost2010PropOp36
 70
     1
102
RTVSPost2010Prop37
 90
       50
102
RTVSPost2010PropOp37
 70
     1
102
RTVSPost2010Prop38
140
0.0
102
RTVSPost2010PropOp38
 70
     1
102
RTVSPost2010Prop39
140
1.0
102
RTVSPost2010PropOp39
 70
     1
102
RTVSPost2010Prop40
 90
        0
102
RTVSPost2010PropOp40
 70
     1
102
RTVSPost2010Prop41ColorIndex
 90
       18
102
RTVSPost2010Prop41ColorRGB
 90
        0
102
RTVSPost2010PropOp41
 70
     1
102
RTVSPost2010Prop42
 90
       50
102
RTVSPost2010PropOp42
 70
     1
102
RTVSPost2010Prop43
 90
        3
102
RTVSPost2010PropOp43
 70
     1
102
RTVSPost2010Prop44ColorIndex
 90
        5
102
RTVSPost2010Prop44ColorRGB
 90
      255
102
RTVSPost2010PropOp44
 70
     1
102
RTVSPost2010Prop45
280
     0
102
RTVSPost2010PropOp45
 70
     1
102
RTVSPost2010Prop46
 90
       50
102
RTVSPost2010PropOp46
 70
     1
102
RTVSPost2010Prop47
 90
       50
102
RTVSPost2010PropOp47
 70
     1
102
RTVSPost2010Prop48
 90
       50
102
RTVSPost2010PropOp48
 70
     1
102
RTVSPost2010Prop49
280
     0
102
RTVSPost2010PropOp49
 70
     1
102
RTVSPost2010Prop50
 90
       50
102
RTVSPost2010PropOp50
 70
     1
102
RTVSPost2010Prop51ColorIndex
 90
      256
102
RTVSPost2010Prop51ColorRGB
 90
-16777216
102
RTVSPost2010PropOp51
 70
     0
102
RTVSPost2010Prop52
140
1.0
102
RTVSPost2010PropOp52
 70
     0
102
RTVSPost2010Prop53
 90
        2
102
RTVSPost2010PropOp53
 70
     1
102
RTVSPost2010Prop54
  1
strokes_ogs.tif
102
RTVSPost2010PropOp54
 70
     1
102
RTVSPost2010Prop55
280
     0
102
RTVSPost2010PropOp55
 70
     1
102
RTVSPost2010Prop56
140
1.0
102
RTVSPost2010PropOp56
 70
     1
102
RTVSPost2010Prop57
140
1.0
102
RTVSPost2010PropOp57
 70
     1
102
RTVSPropertyOp0
 70
     1
102
RTVSPropertyOp1
 70
     1
102
RTVSPropertyOp2
 70
     1
102
RTVSPropertyOp3
 70
     1
102
RTVSPropertyOp4
 70
     1
102
RTVSPropertyOp5
 70
     1
102
RTVSPropertyOp6
 70
     1
102
RTVSPropertyOp7
 70
     1
102
RTVSPropertyOp8
 70
     1
102
RTVSPropertyOp9
 70
     1
102
RTVSPropertyOp10
 70
     1
102
RTVSPropertyOp11
 70
     1
102
RTVSPropertyOp12
 70
     1
102
RTVSPropertyOp13
 70
     1
102
RTVSPropertyOp14
 70
     1
102
RTVSPropertyOp15
 70
     1
102
RTVSPropertyOp16
 70
     1
102
RTVSPropertyOp17
 70
     1
102
RTVSPropertyOp18
 70
     1
102
RTVSPropertyOp19
 70
     1
102
RTVSPropertyOp20
 70
     1
102
RTVSPropertyOp21
 70
     1
102
RTVSPropertyOp22
 70
     1
102
RTVSPropertyOp23
 70
     1
102
RTVSPropertyOp24
 70
     1
102
RTVSPropertyOp25
 70
     1
102
RTVSPropertyOp26
 70
     1
102
RTVSPropertyOp27
 70
     1
102
RTVSPropertyOp28
 70
     1
102
RTVSPropertyOp29
 70
     1
102
RTVSPropertyOp30
 70
     1
102
RTVSPropertyOp31
 70
     1
102
RTVSPropertyOp32
 70
     1
102
RTVSPropertyOp33
 70
     1
102
RTVSPropertyOp34
 70
     1
102
RTVSPropertyOp35
 70
     1
102
RTVSPropertyOp36
 70
     1
102
RTVSPropertyOp37
 70
     1
102
RTVSPropertyOp38
 70
     1
102
RTVSPropertyOp39
 70
     1
102
RTVSPropertyOp40
 70
     1
102
RTVSPropertyOp41
 70
     1
102
RTVSPropertyOp42
 70
     1
102
RTVSPropertyOp43
 70
     1
102
RTVSPropertyOp44
 70
     1
102
RTVSPropertyOp45
 70
     1
102
RTVSPropertyOp46
 70
     1
102
RTVSPropertyOp47
 70
     1
102
RTVSPropertyOp48
 70
     1
102
RTVSPropertyOp49
 70
     1
102
RTVSPropertyOp50
 70
     1
102
RTVSPropertyOp51
 70
     0
102
RTVSPropertyOp52
 70
     0
102
RTVSPropertyOp53
 70
     1
102
RTVSPropertyOp54
 70
     1
102
RTVSPropertyOp55
 70
     1
102
RTVSPropertyOp56
 70
     1
102
RTVSPropertyOp57
 70
     1
102
RTVSPropertyOp58
 70
     1
102
RTVSPropertyOp59
 70
     1
102
RTVSPropertyOp60
 70
     1
102
RTVSPropertyOp61
 70
     1
102
RTVSPropertyOp62
 70
     1
  0
XRECORD
  5
F5E
102
{ACAD_REACTORS
330
F5D
102
}
330
F5D
100
AcDbXrecord
280
     1
102
RTVSPost2010Prop28
280
     0
102
RTVSPost2010PropOp28
 70
     1
102
RTVSPost2010Prop29
280
     1
102
RTVSPost2010PropOp29
 70
     1
102
RTVSPost2010Prop30
280
     1
102
RTVSPost2010PropOp30
 70
     1
102
RTVSPost2010Prop31
280
     0
102
RTVSPost2010PropOp31
 70
     1
102
RTVSPost2010Prop32
280
     0
102
RTVSPost2010PropOp32
 70
     1
102
RTVSPost2010Prop33
280
     0
102
RTVSPost2010PropOp33
 70
     1
102
RTVSPost2010Prop34
280
     0
102
RTVSPost2010PropOp34
 70
     1
102
RTVSPost2010Prop35
280
     0
102
RTVSPost2010PropOp35
 70
     1
102
RTVSPost2010Prop36
280
     0
102
RTVSPost2010PropOp36
 70
     1
102
RTVSPost2010Prop37
 90
       50
102
RTVSPost2010PropOp37
 70
     1
102
RTVSPost2010Prop38
140
0.0
102
RTVSPost2010PropOp38
 70
     1
102
RTVSPost2010Prop39
140
1.0
102
RTVSPost2010PropOp39
 70
     1
102
RTVSPost2010Prop40
 90
        0
102
RTVSPost2010PropOp40
 70
     1
102
RTVSPost2010Prop41ColorIndex
 90
       18
102
RTVSPost2010Prop41ColorRGB
 90
        0
102
RTVSPost2010PropOp41
 70
     1
102
RTVSPost2010Prop42
 90
       50
102
RTVSPost2010PropOp42
 70
     1
102
RTVSPost2010Prop43
 90
        3
102
RTVSPost2010PropOp43
 70
     1
102
RTVSPost2010Prop44ColorIndex
 90
        5
102
RTVSPost2010Prop44ColorRGB
 90
      255
102
RTVSPost2010PropOp44
 70
     1
102
RTVSPost2010Prop45
280
     0
102
RTVSPost2010PropOp45
 70
     1
102
RTVSPost2010Prop46
 90
       50
102
RTVSPost2010PropOp46
 70
     1
102
RTVSPost2010Prop47
 90
       50
102
RTVSPost2010PropOp47
 70
     1
102
RTVSPost2010Prop48
 90
       50
102
RTVSPost2010PropOp48
 70
     1
102
RTVSPost2010Prop49
280
     0
102
RTVSPost2010PropOp49
 70
     1
102
RTVSPost2010Prop50
 90
       50
102
RTVSPost2010PropOp50
 70
     1
102
RTVSPost2010Prop51ColorIndex
 90
      256
102
RTVSPost2010Prop51ColorRGB
 90
-16777216
102
RTVSPost2010PropOp51
 70
     0
102
RTVSPost2010Prop52
140
1.0
102
RTVSPost2010PropOp52
 70
     0
102
RTVSPost2010Prop53
 90
        2
102
RTVSPost2010PropOp53
 70
     1
102
RTVSPost2010Prop54
  1
strokes_ogs.tif
102
RTVSPost2010PropOp54
 70
     1
102
RTVSPost2010Prop55
280
     0
102
RTVSPost2010PropOp55
 70
     1
102
RTVSPost2010Prop56
140
1.0
102
RTVSPost2010PropOp56
 70
     1
102
RTVSPost2010Prop57
140
1.0
102
RTVSPost2010PropOp57
 70
     1
102
RTVSPropertyOp0
 70
     1
102
RTVSPropertyOp1
 70
     1
102
RTVSPropertyOp2
 70
     1
102
RTVSPropertyOp3
 70
     1
102
RTVSPropertyOp4
 70
     1
102
RTVSPropertyOp5
 70
     1
102
RTVSPropertyOp6
 70
     1
102
RTVSPropertyOp7
 70
     1
102
RTVSPropertyOp8
 70
     1
102
RTVSPropertyOp9
 70
     1
102
RTVSPropertyOp10
 70
     1
102
RTVSPropertyOp11
 70
     1
102
RTVSPropertyOp12
 70
     1
102
RTVSPropertyOp13
 70
     1
102
RTVSPropertyOp14
 70
     1
102
RTVSPropertyOp15
 70
     1
102
RTVSPropertyOp16
 70
     1
102
RTVSPropertyOp17
 70
     1
102
RTVSPropertyOp18
 70
     1
102
RTVSPropertyOp19
 70
     1
102
RTVSPropertyOp20
 70
     1
102
RTVSPropertyOp21
 70
     1
102
RTVSPropertyOp22
 70
     1
102
RTVSPropertyOp23
 70
     1
102
RTVSPropertyOp24
 70
     1
102
RTVSPropertyOp25
 70
     1
102
RTVSPropertyOp26
 70
     1
102
RTVSPropertyOp27
 70
     1
102
RTVSPropertyOp28
 70
     1
102
RTVSPropertyOp29
 70
     1
102
RTVSPropertyOp30
 70
     1
102
RTVSPropertyOp31
 70
     1
102
RTVSPropertyOp32
 70
     1
102
RTVSPropertyOp33
 70
     1
102
RTVSPropertyOp34
 70
     1
102
RTVSPropertyOp35
 70
     1
102
RTVSPropertyOp36
 70
     1
102
RTVSPropertyOp37
 70
     1
102
RTVSPropertyOp38
 70
     1
102
RTVSPropertyOp39
 70
     1
102
RTVSPropertyOp40
 70
     1
102
RTVSPropertyOp41
 70
     1
102
RTVSPropertyOp42
 70
     1
102
RTVSPropertyOp43
 70
     1
102
RTVSPropertyOp44
 70
     1
102
RTVSPropertyOp45
 70
     1
102
RTVSPropertyOp46
 70
     1
102
RTVSPropertyOp47
 70
     1
102
RTVSPropertyOp48
 70
     1
102
RTVSPropertyOp49
 70
     1
102
RTVSPropertyOp50
 70
     1
102
RTVSPropertyOp51
 70
     0
102
RTVSPropertyOp52
 70
     0
102
RTVSPropertyOp53
 70
     1
102
RTVSPropertyOp54
 70
     1
102
RTVSPropertyOp55
 70
     1
102
RTVSPropertyOp56
 70
     1
102
RTVSPropertyOp57
 70
     1
102
RTVSPropertyOp58
 70
     1
102
RTVSPropertyOp59
 70
     1
102
RTVSPropertyOp60
 70
     1
102
RTVSPropertyOp61
 70
     1
102
RTVSPropertyOp62
 70
     1
  0
XRECORD
  5
F5C
102
{ACAD_REACTORS
330
F5B
102
}
330
F5B
100
AcDbXrecord
280
     1
102
RTVSPost2010Prop28
280
     0
102
RTVSPost2010PropOp28
 70
     1
102
RTVSPost2010Prop29
280
     1
102
RTVSPost2010PropOp29
 70
     1
102
RTVSPost2010Prop30
280
     1
102
RTVSPost2010PropOp30
 70
     1
102
RTVSPost2010Prop31
280
     0
102
RTVSPost2010PropOp31
 70
     1
102
RTVSPost2010Prop32
280
     0
102
RTVSPost2010PropOp32
 70
     1
102
RTVSPost2010Prop33
280
     0
102
RTVSPost2010PropOp33
 70
     1
102
RTVSPost2010Prop34
280
     0
102
RTVSPost2010PropOp34
 70
     1
102
RTVSPost2010Prop35
280
     0
102
RTVSPost2010PropOp35
 70
     1
102
RTVSPost2010Prop36
280
     0
102
RTVSPost2010PropOp36
 70
     1
102
RTVSPost2010Prop37
 90
       50
102
RTVSPost2010PropOp37
 70
     1
102
RTVSPost2010Prop38
140
0.0
102
RTVSPost2010PropOp38
 70
     1
102
RTVSPost2010Prop39
140
1.0
102
RTVSPost2010PropOp39
 70
     1
102
RTVSPost2010Prop40
 90
        0
102
RTVSPost2010PropOp40
 70
     1
102
RTVSPost2010Prop41ColorIndex
 90
       18
102
RTVSPost2010Prop41ColorRGB
 90
        0
102
RTVSPost2010PropOp41
 70
     1
102
RTVSPost2010Prop42
 90
       50
102
RTVSPost2010PropOp42
 70
     1
102
RTVSPost2010Prop43
 90
        3
102
RTVSPost2010PropOp43
 70
     1
102
RTVSPost2010Prop44ColorIndex
 90
        5
102
RTVSPost2010Prop44ColorRGB
 90
      255
102
RTVSPost2010PropOp44
 70
     1
102
RTVSPost2010Prop45
280
     0
102
RTVSPost2010PropOp45
 70
     1
102
RTVSPost2010Prop46
 90
       50
102
RTVSPost2010PropOp46
 70
     1
102
RTVSPost2010Prop47
 90
       50
102
RTVSPost2010PropOp47
 70
     1
102
RTVSPost2010Prop48
 90
       50
102
RTVSPost2010PropOp48
 70
     1
102
RTVSPost2010Prop49
280
     0
102
RTVSPost2010PropOp49
 70
     1
102
RTVSPost2010Prop50
 90
       50
102
RTVSPost2010PropOp50
 70
     1
102
RTVSPost2010Prop51ColorIndex
 90
      256
102
RTVSPost2010Prop51ColorRGB
 90
-16777216
102
RTVSPost2010PropOp51
 70
     0
102
RTVSPost2010Prop52
140
1.0
102
RTVSPost2010PropOp52
 70
     0
102
RTVSPost2010Prop53
 90
        2
102
RTVSPost2010PropOp53
 70
     1
102
RTVSPost2010Prop54
  1
strokes_ogs.tif
102
RTVSPost2010PropOp54
 70
     1
102
RTVSPost2010Prop55
280
     0
102
RTVSPost2010PropOp55
 70
     1
102
RTVSPost2010Prop56
140
1.0
102
RTVSPost2010PropOp56
 70
     1
102
RTVSPost2010Prop57
140
1.0
102
RTVSPost2010PropOp57
 70
     1
102
RTVSPropertyOp0
 70
     1
102
RTVSPropertyOp1
 70
     1
102
RTVSPropertyOp2
 70
     1
102
RTVSPropertyOp3
 70
     1
102
RTVSPropertyOp4
 70
     1
102
RTVSPropertyOp5
 70
     1
102
RTVSPropertyOp6
 70
     1
102
RTVSPropertyOp7
 70
     1
102
RTVSPropertyOp8
 70
     1
102
RTVSPropertyOp9
 70
     1
102
RTVSPropertyOp10
 70
     1
102
RTVSPropertyOp11
 70
     1
102
RTVSPropertyOp12
 70
     1
102
RTVSPropertyOp13
 70
     1
102
RTVSPropertyOp14
 70
     1
102
RTVSPropertyOp15
 70
     1
102
RTVSPropertyOp16
 70
     1
102
RTVSPropertyOp17
 70
     1
102
RTVSPropertyOp18
 70
     1
102
RTVSPropertyOp19
 70
     1
102
RTVSPropertyOp20
 70
     1
102
RTVSPropertyOp21
 70
     1
102
RTVSPropertyOp22
 70
     1
102
RTVSPropertyOp23
 70
     1
102
RTVSPropertyOp24
 70
     1
102
RTVSPropertyOp25
 70
     1
102
RTVSPropertyOp26
 70
     1
102
RTVSPropertyOp27
 70
     1
102
RTVSPropertyOp28
 70
     1
102
RTVSPropertyOp29
 70
     1
102
RTVSPropertyOp30
 70
     1
102
RTVSPropertyOp31
 70
     1
102
RTVSPropertyOp32
 70
     1
102
RTVSPropertyOp33
 70
     1
102
RTVSPropertyOp34
 70
     1
102
RTVSPropertyOp35
 70
     1
102
RTVSPropertyOp36
 70
     1
102
RTVSPropertyOp37
 70
     1
102
RTVSPropertyOp38
 70
     1
102
RTVSPropertyOp39
 70
     1
102
RTVSPropertyOp40
 70
     1
102
RTVSPropertyOp41
 70
     1
102
RTVSPropertyOp42
 70
     1
102
RTVSPropertyOp43
 70
     1
102
RTVSPropertyOp44
 70
     1
102
RTVSPropertyOp45
 70
     1
102
RTVSPropertyOp46
 70
     1
102
RTVSPropertyOp47
 70
     1
102
RTVSPropertyOp48
 70
     1
102
RTVSPropertyOp49
 70
     1
102
RTVSPropertyOp50
 70
     1
102
RTVSPropertyOp51
 70
     0
102
RTVSPropertyOp52
 70
     0
102
RTVSPropertyOp53
 70
     1
102
RTVSPropertyOp54
 70
     1
102
RTVSPropertyOp55
 70
     1
102
RTVSPropertyOp56
 70
     1
102
RTVSPropertyOp57
 70
     1
102
RTVSPropertyOp58
 70
     1
102
RTVSPropertyOp59
 70
     1
102
RTVSPropertyOp60
 70
     1
102
RTVSPropertyOp61
 70
     1
102
RTVSPropertyOp62
 70
     1
  0
XRECORD
  5
F56
102
{ACAD_REACTORS
330
F55
102
}
330
F55
100
AcDbXrecord
280
     1
102
RTVSPost2010Prop28
280
     0
102
RTVSPost2010PropOp28
 70
     1
102
RTVSPost2010Prop29
280
     1
102
RTVSPost2010PropOp29
 70
     1
102
RTVSPost2010Prop30
280
     1
102
RTVSPost2010PropOp30
 70
     1
102
RTVSPost2010Prop31
280
     0
102
RTVSPost2010PropOp31
 70
     1
102
RTVSPost2010Prop32
280
     0
102
RTVSPost2010PropOp32
 70
     1
102
RTVSPost2010Prop33
280
     0
102
RTVSPost2010PropOp33
 70
     1
102
RTVSPost2010Prop34
280
     0
102
RTVSPost2010PropOp34
 70
     1
102
RTVSPost2010Prop35
280
     0
102
RTVSPost2010PropOp35
 70
     1
102
RTVSPost2010Prop36
280
     0
102
RTVSPost2010PropOp36
 70
     1
102
RTVSPost2010Prop37
 90
       50
102
RTVSPost2010PropOp37
 70
     1
102
RTVSPost2010Prop38
140
0.0
102
RTVSPost2010PropOp38
 70
     1
102
RTVSPost2010Prop39
140
1.0
102
RTVSPost2010PropOp39
 70
     1
102
RTVSPost2010Prop40
 90
        0
102
RTVSPost2010PropOp40
 70
     1
102
RTVSPost2010Prop41ColorIndex
 90
       18
102
RTVSPost2010Prop41ColorRGB
 90
        0
102
RTVSPost2010PropOp41
 70
     1
102
RTVSPost2010Prop42
 90
       50
102
RTVSPost2010PropOp42
 70
     1
102
RTVSPost2010Prop43
 90
        3
102
RTVSPost2010PropOp43
 70
     1
102
RTVSPost2010Prop44ColorIndex
 90
        5
102
RTVSPost2010Prop44ColorRGB
 90
      255
102
RTVSPost2010PropOp44
 70
     1
102
RTVSPost2010Prop45
280
     0
102
RTVSPost2010PropOp45
 70
     1
102
RTVSPost2010Prop46
 90
       50
102
RTVSPost2010PropOp46
 70
     1
102
RTVSPost2010Prop47
 90
       50
102
RTVSPost2010PropOp47
 70
     1
102
RTVSPost2010Prop48
 90
       50
102
RTVSPost2010PropOp48
 70
     1
102
RTVSPost2010Prop49
280
     0
102
RTVSPost2010PropOp49
 70
     1
102
RTVSPost2010Prop50
 90
       50
102
RTVSPost2010PropOp50
 70
     1
102
RTVSPost2010Prop51ColorIndex
 90
      256
102
RTVSPost2010Prop51ColorRGB
 90
-16777216
102
RTVSPost2010PropOp51
 70
     0
102
RTVSPost2010Prop52
140
1.0
102
RTVSPost2010PropOp52
 70
     0
102
RTVSPost2010Prop53
 90
        2
102
RTVSPost2010PropOp53
 70
     1
102
RTVSPost2010Prop54
  1
strokes_ogs.tif
102
RTVSPost2010PropOp54
 70
     1
102
RTVSPost2010Prop55
280
     0
102
RTVSPost2010PropOp55
 70
     1
102
RTVSPost2010Prop56
140
1.0
102
RTVSPost2010PropOp56
 70
     1
102
RTVSPost2010Prop57
140
1.0
102
RTVSPost2010PropOp57
 70
     1
102
RTVSPropertyOp0
 70
     1
102
RTVSPropertyOp1
 70
     1
102
RTVSPropertyOp2
 70
     1
102
RTVSPropertyOp3
 70
     1
102
RTVSPropertyOp4
 70
     1
102
RTVSPropertyOp5
 70
     1
102
RTVSPropertyOp6
 70
     1
102
RTVSPropertyOp7
 70
     1
102
RTVSPropertyOp8
 70
     1
102
RTVSPropertyOp9
 70
     1
102
RTVSPropertyOp10
 70
     1
102
RTVSPropertyOp11
 70
     1
102
RTVSPropertyOp12
 70
     1
102
RTVSPropertyOp13
 70
     1
102
RTVSPropertyOp14
 70
     1
102
RTVSPropertyOp15
 70
     1
102
RTVSPropertyOp16
 70
     1
102
RTVSPropertyOp17
 70
     1
102
RTVSPropertyOp18
 70
     1
102
RTVSPropertyOp19
 70
     1
102
RTVSPropertyOp20
 70
     1
102
RTVSPropertyOp21
 70
     1
102
RTVSPropertyOp22
 70
     1
102
RTVSPropertyOp23
 70
     1
102
RTVSPropertyOp24
 70
     1
102
RTVSPropertyOp25
 70
     1
102
RTVSPropertyOp26
 70
     1
102
RTVSPropertyOp27
 70
     1
102
RTVSPropertyOp28
 70
     1
102
RTVSPropertyOp29
 70
     1
102
RTVSPropertyOp30
 70
     1
102
RTVSPropertyOp31
 70
     1
102
RTVSPropertyOp32
 70
     1
102
RTVSPropertyOp33
 70
     1
102
RTVSPropertyOp34
 70
     1
102
RTVSPropertyOp35
 70
     1
102
RTVSPropertyOp36
 70
     1
102
RTVSPropertyOp37
 70
     1
102
RTVSPropertyOp38
 70
     1
102
RTVSPropertyOp39
 70
     1
102
RTVSPropertyOp40
 70
     1
102
RTVSPropertyOp41
 70
     1
102
RTVSPropertyOp42
 70
     1
102
RTVSPropertyOp43
 70
     1
102
RTVSPropertyOp44
 70
     1
102
RTVSPropertyOp45
 70
     1
102
RTVSPropertyOp46
 70
     1
102
RTVSPropertyOp47
 70
     1
102
RTVSPropertyOp48
 70
     1
102
RTVSPropertyOp49
 70
     1
102
RTVSPropertyOp50
 70
     1
102
RTVSPropertyOp51
 70
     0
102
RTVSPropertyOp52
 70
     0
102
RTVSPropertyOp53
 70
     1
102
RTVSPropertyOp54
 70
     1
102
RTVSPropertyOp55
 70
     1
102
RTVSPropertyOp56
 70
     1
102
RTVSPropertyOp57
 70
     1
102
RTVSPropertyOp58
 70
     1
102
RTVSPropertyOp59
 70
     1
102
RTVSPropertyOp60
 70
     1
102
RTVSPropertyOp61
 70
     1
102
RTVSPropertyOp62
 70
     1
  0
XRECORD
  5
F58
102
{ACAD_REACTORS
330
F57
102
}
330
F57
100
AcDbXrecord
280
     1
102
RTVSPost2010Prop28
280
     0
102
RTVSPost2010PropOp28
 70
     1
102
RTVSPost2010Prop29
280
     1
102
RTVSPost2010PropOp29
 70
     1
102
RTVSPost2010Prop30
280
     1
102
RTVSPost2010PropOp30
 70
     1
102
RTVSPost2010Prop31
280
     0
102
RTVSPost2010PropOp31
 70
     1
102
RTVSPost2010Prop32
280
     0
102
RTVSPost2010PropOp32
 70
     1
102
RTVSPost2010Prop33
280
     0
102
RTVSPost2010PropOp33
 70
     1
102
RTVSPost2010Prop34
280
     0
102
RTVSPost2010PropOp34
 70
     1
102
RTVSPost2010Prop35
280
     0
102
RTVSPost2010PropOp35
 70
     1
102
RTVSPost2010Prop36
280
     0
102
RTVSPost2010PropOp36
 70
     1
102
RTVSPost2010Prop37
 90
       50
102
RTVSPost2010PropOp37
 70
     1
102
RTVSPost2010Prop38
140
0.0
102
RTVSPost2010PropOp38
 70
     1
102
RTVSPost2010Prop39
140
1.0
102
RTVSPost2010PropOp39
 70
     1
102
RTVSPost2010Prop40
 90
        0
102
RTVSPost2010PropOp40
 70
     1
102
RTVSPost2010Prop41ColorIndex
 90
       18
102
RTVSPost2010Prop41ColorRGB
 90
        0
102
RTVSPost2010PropOp41
 70
     1
102
RTVSPost2010Prop42
 90
       50
102
RTVSPost2010PropOp42
 70
     1
102
RTVSPost2010Prop43
 90
        3
102
RTVSPost2010PropOp43
 70
     1
102
RTVSPost2010Prop44ColorIndex
 90
        5
102
RTVSPost2010Prop44ColorRGB
 90
      255
102
RTVSPost2010PropOp44
 70
     1
102
RTVSPost2010Prop45
280
     0
102
RTVSPost2010PropOp45
 70
     1
102
RTVSPost2010Prop46
 90
       50
102
RTVSPost2010PropOp46
 70
     1
102
RTVSPost2010Prop47
 90
       50
102
RTVSPost2010PropOp47
 70
     1
102
RTVSPost2010Prop48
 90
       50
102
RTVSPost2010PropOp48
 70
     1
102
RTVSPost2010Prop49
280
     0
102
RTVSPost2010PropOp49
 70
     1
102
RTVSPost2010Prop50
 90
       50
102
RTVSPost2010PropOp50
 70
     1
102
RTVSPost2010Prop51ColorIndex
 90
      256
102
RTVSPost2010Prop51ColorRGB
 90
-16777216
102
RTVSPost2010PropOp51
 70
     0
102
RTVSPost2010Prop52
140
1.0
102
RTVSPost2010PropOp52
 70
     0
102
RTVSPost2010Prop53
 90
        2
102
RTVSPost2010PropOp53
 70
     1
102
RTVSPost2010Prop54
  1
strokes_ogs.tif
102
RTVSPost2010PropOp54
 70
     1
102
RTVSPost2010Prop55
280
     0
102
RTVSPost2010PropOp55
 70
     1
102
RTVSPost2010Prop56
140
1.0
102
RTVSPost2010PropOp56
 70
     1
102
RTVSPost2010Prop57
140
1.0
102
RTVSPost2010PropOp57
 70
     1
102
RTVSPropertyOp0
 70
     1
102
RTVSPropertyOp1
 70
     1
102
RTVSPropertyOp2
 70
     1
102
RTVSPropertyOp3
 70
     1
102
RTVSPropertyOp4
 70
     1
102
RTVSPropertyOp5
 70
     1
102
RTVSPropertyOp6
 70
     1
102
RTVSPropertyOp7
 70
     1
102
RTVSPropertyOp8
 70
     1
102
RTVSPropertyOp9
 70
     1
102
RTVSPropertyOp10
 70
     1
102
RTVSPropertyOp11
 70
     1
102
RTVSPropertyOp12
 70
     1
102
RTVSPropertyOp13
 70
     1
102
RTVSPropertyOp14
 70
     1
102
RTVSPropertyOp15
 70
     1
102
RTVSPropertyOp16
 70
     1
102
RTVSPropertyOp17
 70
     1
102
RTVSPropertyOp18
 70
     1
102
RTVSPropertyOp19
 70
     1
102
RTVSPropertyOp20
 70
     1
102
RTVSPropertyOp21
 70
     1
102
RTVSPropertyOp22
 70
     1
102
RTVSPropertyOp23
 70
     1
102
RTVSPropertyOp24
 70
     1
102
RTVSPropertyOp25
 70
     1
102
RTVSPropertyOp26
 70
     1
102
RTVSPropertyOp27
 70
     1
102
RTVSPropertyOp28
 70
     1
102
RTVSPropertyOp29
 70
     1
102
RTVSPropertyOp30
 70
     1
102
RTVSPropertyOp31
 70
     1
102
RTVSPropertyOp32
 70
     1
102
RTVSPropertyOp33
 70
     1
102
RTVSPropertyOp34
 70
     1
102
RTVSPropertyOp35
 70
     1
102
RTVSPropertyOp36
 70
     1
102
RTVSPropertyOp37
 70
     1
102
RTVSPropertyOp38
 70
     1
102
RTVSPropertyOp39
 70
     1
102
RTVSPropertyOp40
 70
     1
102
RTVSPropertyOp41
 70
     1
102
RTVSPropertyOp42
 70
     1
102
RTVSPropertyOp43
 70
     1
102
RTVSPropertyOp44
 70
     1
102
RTVSPropertyOp45
 70
     1
102
RTVSPropertyOp46
 70
     1
102
RTVSPropertyOp47
 70
     1
102
RTVSPropertyOp48
 70
     1
102
RTVSPropertyOp49
 70
     1
102
RTVSPropertyOp50
 70
     1
102
RTVSPropertyOp51
 70
     0
102
RTVSPropertyOp52
 70
     0
102
RTVSPropertyOp53
 70
     1
102
RTVSPropertyOp54
 70
     1
102
RTVSPropertyOp55
 70
     1
102
RTVSPropertyOp56
 70
     1
102
RTVSPropertyOp57
 70
     1
102
RTVSPropertyOp58
 70
     1
102
RTVSPropertyOp59
 70
     1
102
RTVSPropertyOp60
 70
     1
102
RTVSPropertyOp61
 70
     1
102
RTVSPropertyOp62
 70
     1
  0
XRECORD
  5
F46
102
{ACAD_REACTORS
330
F45
102
}
330
F45
100
AcDbXrecord
280
     1
102
RTVSPost2010Prop28
280
     0
102
RTVSPost2010PropOp28
 70
     1
102
RTVSPost2010Prop29
280
     1
102
RTVSPost2010PropOp29
 70
     1
102
RTVSPost2010Prop30
280
     1
102
RTVSPost2010PropOp30
 70
     1
102
RTVSPost2010Prop31
280
     0
102
RTVSPost2010PropOp31
 70
     1
102
RTVSPost2010Prop32
280
     0
102
RTVSPost2010PropOp32
 70
     1
102
RTVSPost2010Prop33
280
     0
102
RTVSPost2010PropOp33
 70
     1
102
RTVSPost2010Prop34
280
     0
102
RTVSPost2010PropOp34
 70
     1
102
RTVSPost2010Prop35
280
     0
102
RTVSPost2010PropOp35
 70
     1
102
RTVSPost2010Prop36
280
     0
102
RTVSPost2010PropOp36
 70
     1
102
RTVSPost2010Prop37
 90
       50
102
RTVSPost2010PropOp37
 70
     1
102
RTVSPost2010Prop38
140
0.0
102
RTVSPost2010PropOp38
 70
     1
102
RTVSPost2010Prop39
140
1.0
102
RTVSPost2010PropOp39
 70
     1
102
RTVSPost2010Prop40
 90
        0
102
RTVSPost2010PropOp40
 70
     1
102
RTVSPost2010Prop41ColorIndex
 90
       18
102
RTVSPost2010Prop41ColorRGB
 90
        0
102
RTVSPost2010PropOp41
 70
     1
102
RTVSPost2010Prop42
 90
       50
102
RTVSPost2010PropOp42
 70
     1
102
RTVSPost2010Prop43
 90
        3
102
RTVSPost2010PropOp43
 70
     1
102
RTVSPost2010Prop44ColorIndex
 90
        5
102
RTVSPost2010Prop44ColorRGB
 90
      255
102
RTVSPost2010PropOp44
 70
     1
102
RTVSPost2010Prop45
280
     0
102
RTVSPost2010PropOp45
 70
     1
102
RTVSPost2010Prop46
 90
       50
102
RTVSPost2010PropOp46
 70
     1
102
RTVSPost2010Prop47
 90
       50
102
RTVSPost2010PropOp47
 70
     1
102
RTVSPost2010Prop48
 90
       50
102
RTVSPost2010PropOp48
 70
     1
102
RTVSPost2010Prop49
280
     0
102
RTVSPost2010PropOp49
 70
     1
102
RTVSPost2010Prop50
 90
       50
102
RTVSPost2010PropOp50
 70
     1
102
RTVSPost2010Prop51ColorIndex
 90
      256
102
RTVSPost2010Prop51ColorRGB
 90
-16777216
102
RTVSPost2010PropOp51
 70
     0
102
RTVSPost2010Prop52
140
1.0
102
RTVSPost2010PropOp52
 70
     0
102
RTVSPost2010Prop53
 90
        2
102
RTVSPost2010PropOp53
 70
     1
102
RTVSPost2010Prop54
  1
strokes_ogs.tif
102
RTVSPost2010PropOp54
 70
     1
102
RTVSPost2010Prop55
280
     0
102
RTVSPost2010PropOp55
 70
     1
102
RTVSPost2010Prop56
140
1.0
102
RTVSPost2010PropOp56
 70
     1
102
RTVSPost2010Prop57
140
1.0
102
RTVSPost2010PropOp57
 70
     1
102
RTVSPropertyOp0
 70
     1
102
RTVSPropertyOp1
 70
     1
102
RTVSPropertyOp2
 70
     1
102
RTVSPropertyOp3
 70
     1
102
RTVSPropertyOp4
 70
     1
102
RTVSPropertyOp5
 70
     1
102
RTVSPropertyOp6
 70
     1
102
RTVSPropertyOp7
 70
     1
102
RTVSPropertyOp8
 70
     1
102
RTVSPropertyOp9
 70
     1
102
RTVSPropertyOp10
 70
     1
102
RTVSPropertyOp11
 70
     1
102
RTVSPropertyOp12
 70
     1
102
RTVSPropertyOp13
 70
     1
102
RTVSPropertyOp14
 70
     1
102
RTVSPropertyOp15
 70
     1
102
RTVSPropertyOp16
 70
     1
102
RTVSPropertyOp17
 70
     1
102
RTVSPropertyOp18
 70
     1
102
RTVSPropertyOp19
 70
     1
102
RTVSPropertyOp20
 70
     1
102
RTVSPropertyOp21
 70
     1
102
RTVSPropertyOp22
 70
     1
102
RTVSPropertyOp23
 70
     1
102
RTVSPropertyOp24
 70
     1
102
RTVSPropertyOp25
 70
     1
102
RTVSPropertyOp26
 70
     1
102
RTVSPropertyOp27
 70
     1
102
RTVSPropertyOp28
 70
     1
102
RTVSPropertyOp29
 70
     1
102
RTVSPropertyOp30
 70
     1
102
RTVSPropertyOp31
 70
     1
102
RTVSPropertyOp32
 70
     1
102
RTVSPropertyOp33
 70
     1
102
RTVSPropertyOp34
 70
     1
102
RTVSPropertyOp35
 70
     1
102
RTVSPropertyOp36
 70
     1
102
RTVSPropertyOp37
 70
     1
102
RTVSPropertyOp38
 70
     1
102
RTVSPropertyOp39
 70
     1
102
RTVSPropertyOp40
 70
     1
102
RTVSPropertyOp41
 70
     1
102
RTVSPropertyOp42
 70
     1
102
RTVSPropertyOp43
 70
     1
102
RTVSPropertyOp44
 70
     1
102
RTVSPropertyOp45
 70
     1
102
RTVSPropertyOp46
 70
     1
102
RTVSPropertyOp47
 70
     1
102
RTVSPropertyOp48
 70
     1
102
RTVSPropertyOp49
 70
     1
102
RTVSPropertyOp50
 70
     1
102
RTVSPropertyOp51
 70
     0
102
RTVSPropertyOp52
 70
     0
102
RTVSPropertyOp53
 70
     1
102
RTVSPropertyOp54
 70
     1
102
RTVSPropertyOp55
 70
     1
102
RTVSPropertyOp56
 70
     1
102
RTVSPropertyOp57
 70
     1
102
RTVSPropertyOp58
 70
     1
102
RTVSPropertyOp59
 70
     1
102
RTVSPropertyOp60
 70
     1
102
RTVSPropertyOp61
 70
     1
102
RTVSPropertyOp62
 70
     1
  0
XRECORD
  5
F3A
102
{ACAD_REACTORS
330
F39
102
}
330
F39
100
AcDbXrecord
280
     1
102
RTVSPost2010Prop28
280
     0
102
RTVSPost2010PropOp28
 70
     1
102
RTVSPost2010Prop29
280
     1
102
RTVSPost2010PropOp29
 70
     1
102
RTVSPost2010Prop30
280
     1
102
RTVSPost2010PropOp30
 70
     1
102
RTVSPost2010Prop31
280
     0
102
RTVSPost2010PropOp31
 70
     1
102
RTVSPost2010Prop32
280
     0
102
RTVSPost2010PropOp32
 70
     1
102
RTVSPost2010Prop33
280
     0
102
RTVSPost2010PropOp33
 70
     1
102
RTVSPost2010Prop34
280
     0
102
RTVSPost2010PropOp34
 70
     1
102
RTVSPost2010Prop35
280
     0
102
RTVSPost2010PropOp35
 70
     1
102
RTVSPost2010Prop36
280
     0
102
RTVSPost2010PropOp36
 70
     1
102
RTVSPost2010Prop37
 90
       50
102
RTVSPost2010PropOp37
 70
     1
102
RTVSPost2010Prop38
140
0.0
102
RTVSPost2010PropOp38
 70
     1
102
RTVSPost2010Prop39
140
1.0
102
RTVSPost2010PropOp39
 70
     1
102
RTVSPost2010Prop40
 90
        0
102
RTVSPost2010PropOp40
 70
     1
102
RTVSPost2010Prop41ColorIndex
 90
       18
102
RTVSPost2010Prop41ColorRGB
 90
        0
102
RTVSPost2010PropOp41
 70
     1
102
RTVSPost2010Prop42
 90
       50
102
RTVSPost2010PropOp42
 70
     1
102
RTVSPost2010Prop43
 90
        3
102
RTVSPost2010PropOp43
 70
     1
102
RTVSPost2010Prop44ColorIndex
 90
        5
102
RTVSPost2010Prop44ColorRGB
 90
      255
102
RTVSPost2010PropOp44
 70
     1
102
RTVSPost2010Prop45
280
     0
102
RTVSPost2010PropOp45
 70
     1
102
RTVSPost2010Prop46
 90
       50
102
RTVSPost2010PropOp46
 70
     1
102
RTVSPost2010Prop47
 90
       50
102
RTVSPost2010PropOp47
 70
     1
102
RTVSPost2010Prop48
 90
       50
102
RTVSPost2010PropOp48
 70
     1
102
RTVSPost2010Prop49
280
     0
102
RTVSPost2010PropOp49
 70
     1
102
RTVSPost2010Prop50
 90
       50
102
RTVSPost2010PropOp50
 70
     1
102
RTVSPost2010Prop51ColorIndex
 90
      256
102
RTVSPost2010Prop51ColorRGB
 90
-16777216
102
RTVSPost2010PropOp51
 70
     0
102
RTVSPost2010Prop52
140
1.0
102
RTVSPost2010PropOp52
 70
     0
102
RTVSPost2010Prop53
 90
        2
102
RTVSPost2010PropOp53
 70
     1
102
RTVSPost2010Prop54
  1
strokes_ogs.tif
102
RTVSPost2010PropOp54
 70
     1
102
RTVSPost2010Prop55
280
     0
102
RTVSPost2010PropOp55
 70
     1
102
RTVSPost2010Prop56
140
1.0
102
RTVSPost2010PropOp56
 70
     1
102
RTVSPost2010Prop57
140
1.0
102
RTVSPost2010PropOp57
 70
     1
102
RTVSPropertyOp0
 70
     1
102
RTVSPropertyOp1
 70
     1
102
RTVSPropertyOp2
 70
     1
102
RTVSPropertyOp3
 70
     1
102
RTVSPropertyOp4
 70
     1
102
RTVSPropertyOp5
 70
     1
102
RTVSPropertyOp6
 70
     1
102
RTVSPropertyOp7
 70
     1
102
RTVSPropertyOp8
 70
     1
102
RTVSPropertyOp9
 70
     1
102
RTVSPropertyOp10
 70
     1
102
RTVSPropertyOp11
 70
     1
102
RTVSPropertyOp12
 70
     1
102
RTVSPropertyOp13
 70
     1
102
RTVSPropertyOp14
 70
     1
102
RTVSPropertyOp15
 70
     1
102
RTVSPropertyOp16
 70
     1
102
RTVSPropertyOp17
 70
     1
102
RTVSPropertyOp18
 70
     1
102
RTVSPropertyOp19
 70
     1
102
RTVSPropertyOp20
 70
     1
102
RTVSPropertyOp21
 70
     1
102
RTVSPropertyOp22
 70
     1
102
RTVSPropertyOp23
 70
     1
102
RTVSPropertyOp24
 70
     1
102
RTVSPropertyOp25
 70
     1
102
RTVSPropertyOp26
 70
     1
102
RTVSPropertyOp27
 70
     1
102
RTVSPropertyOp28
 70
     1
102
RTVSPropertyOp29
 70
     1
102
RTVSPropertyOp30
 70
     1
102
RTVSPropertyOp31
 70
     1
102
RTVSPropertyOp32
 70
     1
102
RTVSPropertyOp33
 70
     1
102
RTVSPropertyOp34
 70
     1
102
RTVSPropertyOp35
 70
     1
102
RTVSPropertyOp36
 70
     1
102
RTVSPropertyOp37
 70
     1
102
RTVSPropertyOp38
 70
     1
102
RTVSPropertyOp39
 70
     1
102
RTVSPropertyOp40
 70
     1
102
RTVSPropertyOp41
 70
     1
102
RTVSPropertyOp42
 70
     1
102
RTVSPropertyOp43
 70
     1
102
RTVSPropertyOp44
 70
     1
102
RTVSPropertyOp45
 70
     1
102
RTVSPropertyOp46
 70
     1
102
RTVSPropertyOp47
 70
     1
102
RTVSPropertyOp48
 70
     1
102
RTVSPropertyOp49
 70
     1
102
RTVSPropertyOp50
 70
     1
102
RTVSPropertyOp51
 70
     0
102
RTVSPropertyOp52
 70
     0
102
RTVSPropertyOp53
 70
     1
102
RTVSPropertyOp54
 70
     1
102
RTVSPropertyOp55
 70
     1
102
RTVSPropertyOp56
 70
     1
102
RTVSPropertyOp57
 70
     1
102
RTVSPropertyOp58
 70
     1
102
RTVSPropertyOp59
 70
     1
102
RTVSPropertyOp60
 70
     1
102
RTVSPropertyOp61
 70
     1
102
RTVSPropertyOp62
 70
     1
  0
XRECORD
  5
F5A
102
{ACAD_REACTORS
330
F59
102
}
330
F59
100
AcDbXrecord
280
     1
102
RTVSPost2010Prop28
280
     0
102
RTVSPost2010PropOp28
 70
     1
102
RTVSPost2010Prop29
280
     1
102
RTVSPost2010PropOp29
 70
     1
102
RTVSPost2010Prop30
280
     1
102
RTVSPost2010PropOp30
 70
     1
102
RTVSPost2010Prop31
280
     0
102
RTVSPost2010PropOp31
 70
     1
102
RTVSPost2010Prop32
280
     0
102
RTVSPost2010PropOp32
 70
     1
102
RTVSPost2010Prop33
280
     0
102
RTVSPost2010PropOp33
 70
     1
102
RTVSPost2010Prop34
280
     0
102
RTVSPost2010PropOp34
 70
     1
102
RTVSPost2010Prop35
280
     0
102
RTVSPost2010PropOp35
 70
     1
102
RTVSPost2010Prop36
280
     0
102
RTVSPost2010PropOp36
 70
     1
102
RTVSPost2010Prop37
 90
       50
102
RTVSPost2010PropOp37
 70
     1
102
RTVSPost2010Prop38
140
0.0
102
RTVSPost2010PropOp38
 70
     1
102
RTVSPost2010Prop39
140
1.0
102
RTVSPost2010PropOp39
 70
     1
102
RTVSPost2010Prop40
 90
        0
102
RTVSPost2010PropOp40
 70
     1
102
RTVSPost2010Prop41ColorIndex
 90
       18
102
RTVSPost2010Prop41ColorRGB
 90
        0
102
RTVSPost2010PropOp41
 70
     1
102
RTVSPost2010Prop42
 90
       50
102
RTVSPost2010PropOp42
 70
     1
102
RTVSPost2010Prop43
 90
        3
102
RTVSPost2010PropOp43
 70
     1
102
RTVSPost2010Prop44ColorIndex
 90
        5
102
RTVSPost2010Prop44ColorRGB
 90
      255
102
RTVSPost2010PropOp44
 70
     1
102
RTVSPost2010Prop45
280
     0
102
RTVSPost2010PropOp45
 70
     1
102
RTVSPost2010Prop46
 90
       50
102
RTVSPost2010PropOp46
 70
     1
102
RTVSPost2010Prop47
 90
       50
102
RTVSPost2010PropOp47
 70
     1
102
RTVSPost2010Prop48
 90
       50
102
RTVSPost2010PropOp48
 70
     1
102
RTVSPost2010Prop49
280
     0
102
RTVSPost2010PropOp49
 70
     1
102
RTVSPost2010Prop50
 90
       50
102
RTVSPost2010PropOp50
 70
     1
102
RTVSPost2010Prop51ColorIndex
 90
      256
102
RTVSPost2010Prop51ColorRGB
 90
-16777216
102
RTVSPost2010PropOp51
 70
     0
102
RTVSPost2010Prop52
140
1.0
102
RTVSPost2010PropOp52
 70
     0
102
RTVSPost2010Prop53
 90
        2
102
RTVSPost2010PropOp53
 70
     1
102
RTVSPost2010Prop54
  1
strokes_ogs.tif
102
RTVSPost2010PropOp54
 70
     1
102
RTVSPost2010Prop55
280
     0
102
RTVSPost2010PropOp55
 70
     1
102
RTVSPost2010Prop56
140
1.0
102
RTVSPost2010PropOp56
 70
     1
102
RTVSPost2010Prop57
140
1.0
102
RTVSPost2010PropOp57
 70
     1
102
RTVSPropertyOp0
 70
     1
102
RTVSPropertyOp1
 70
     1
102
RTVSPropertyOp2
 70
     1
102
RTVSPropertyOp3
 70
     1
102
RTVSPropertyOp4
 70
     1
102
RTVSPropertyOp5
 70
     1
102
RTVSPropertyOp6
 70
     1
102
RTVSPropertyOp7
 70
     1
102
RTVSPropertyOp8
 70
     1
102
RTVSPropertyOp9
 70
     1
102
RTVSPropertyOp10
 70
     1
102
RTVSPropertyOp11
 70
     1
102
RTVSPropertyOp12
 70
     1
102
RTVSPropertyOp13
 70
     1
102
RTVSPropertyOp14
 70
     1
102
RTVSPropertyOp15
 70
     1
102
RTVSPropertyOp16
 70
     1
102
RTVSPropertyOp17
 70
     1
102
RTVSPropertyOp18
 70
     1
102
RTVSPropertyOp19
 70
     1
102
RTVSPropertyOp20
 70
     1
102
RTVSPropertyOp21
 70
     1
102
RTVSPropertyOp22
 70
     1
102
RTVSPropertyOp23
 70
     1
102
RTVSPropertyOp24
 70
     1
102
RTVSPropertyOp25
 70
     1
102
RTVSPropertyOp26
 70
     1
102
RTVSPropertyOp27
 70
     1
102
RTVSPropertyOp28
 70
     1
102
RTVSPropertyOp29
 70
     1
102
RTVSPropertyOp30
 70
     1
102
RTVSPropertyOp31
 70
     1
102
RTVSPropertyOp32
 70
     1
102
RTVSPropertyOp33
 70
     1
102
RTVSPropertyOp34
 70
     1
102
RTVSPropertyOp35
 70
     1
102
RTVSPropertyOp36
 70
     1
102
RTVSPropertyOp37
 70
     1
102
RTVSPropertyOp38
 70
     1
102
RTVSPropertyOp39
 70
     1
102
RTVSPropertyOp40
 70
     1
102
RTVSPropertyOp41
 70
     1
102
RTVSPropertyOp42
 70
     1
102
RTVSPropertyOp43
 70
     1
102
RTVSPropertyOp44
 70
     1
102
RTVSPropertyOp45
 70
     1
102
RTVSPropertyOp46
 70
     1
102
RTVSPropertyOp47
 70
     1
102
RTVSPropertyOp48
 70
     1
102
RTVSPropertyOp49
 70
     1
102
RTVSPropertyOp50
 70
     1
102
RTVSPropertyOp51
 70
     0
102
RTVSPropertyOp52
 70
     0
102
RTVSPropertyOp53
 70
     1
102
RTVSPropertyOp54
 70
     1
102
RTVSPropertyOp55
 70
     1
102
RTVSPropertyOp56
 70
     1
102
RTVSPropertyOp57
 70
     1
102
RTVSPropertyOp58
 70
     1
102
RTVSPropertyOp59
 70
     1
102
RTVSPropertyOp60
 70
     1
102
RTVSPropertyOp61
 70
     1
102
RTVSPropertyOp62
 70
     1
  0
ENDSEC
  0
EOF
