  0
SECTION
  2
HEADER
  9
$ACADVER
  1
AC1015
  9
$ACADMAINTVER
 70
    18
  9
$DWGCODEPAGE
  3
ANSI_1252
  9
$INSBASE
 10
0.0
 20
0.0
 30
0.0
  9
$EXTMIN
 10
-177.8
 20
-202.3610421566281
 30
0.0
  9
$EXTMAX
 10
261.9492782986674
 20
205.8
 30
0.0
  9
$LIMMIN
 10
0.0
 20
0.0
  9
$LIMMAX
 10
12.0
 20
9.0
  9
$ORTHOMODE
 70
     0
  9
$REGENMODE
 70
     1
  9
$FILLMODE
 70
     1
  9
$QTEXTMODE
 70
     0
  9
$MIRRTEXT
 70
     0
  9
$LTSCALE
 40
1.0
  9
$ATTMODE
 70
     1
  9
$TEXTSIZE
 40
0.2
  9
$TRACEWID
 40
0.05
  9
$TEXTSTYLE
  7
Standard
  9
$CLAYER
  8
0
  9
$CELTYPE
  6
ByLayer
  9
$CECOLOR
 62
   256
  9
$CELTSCALE
 40
1.0
  9
$DISPSILH
 70
     0
  9
$DIMSCALE
 40
1.0
  9
$DIMASZ
 40
0.18
  9
$DIMEXO
 40
0.0625
  9
$DIMDLI
 40
0.38
  9
$DIMRND
 40
0.0
  9
$DIMDLE
 40
0.0
  9
$DIMEXE
 40
0.18
  9
$DIMTP
 40
0.0
  9
$DIMTM
 40
0.0
  9
$DIMTXT
 40
0.18
  9
$DIMCEN
 40
0.09
  9
$DIMTSZ
 40
0.0
  9
$DIMTOL
 70
     0
  9
$DIMLIM
 70
     0
  9
$DIMTIH
 70
     1
  9
$DIMTOH
 70
     1
  9
$DIMSE1
 70
     0
  9
$DIMSE2
 70
     0
  9
$DIMTAD
 70
     0
  9
$DIMZIN
 70
     0
  9
$DIMBLK
  1

  9
$DIMASO
 70
     1
  9
$DIMSHO
 70
     1
  9
$DIMPOST
  1

  9
$DIMAPOST
  1

  9
$DIMALT
 70
     0
  9
$DIMALTD
 70
     2
  9
$DIMALTF
 40
25.4
  9
$DIMLFAC
 40
1.0
  9
$DIMTOFL
 70
     0
  9
$DIMTVP
 40
0.0
  9
$DIMTIX
 70
     0
  9
$DIMSOXD
 70
     0
  9
$DIMSAH
 70
     0
  9
$DIMBLK1
  1

  9
$DIMBLK2
  1

  9
$DIMSTYLE
  2
Standard
  9
$DIMCLRD
 70
     0
  9
$DIMCLRE
 70
     0
  9
$DIMCLRT
 70
     0
  9
$DIMTFAC
 40
1.0
  9
$DIMGAP
 40
0.09
  9
$DIMJUST
 70
     0
  9
$DIMSD1
 70
     0
  9
$DIMSD2
 70
     0
  9
$DIMTOLJ
 70
     1
  9
$DIMTZIN
 70
     0
  9
$DIMALTZ
 70
     0
  9
$DIMALTTZ
 70
     0
  9
$DIMUPT
 70
     0
  9
$DIMDEC
 70
     4
  9
$DIMTDEC
 70
     4
  9
$DIMALTU
 70
     2
  9
$DIMALTTD
 70
     2
  9
$DIMTXSTY
  7
Standard
  9
$DIMAUNIT
 70
     0
  9
$DIMADEC
 70
     0
  9
$DIMALTRND
 40
0.0
  9
$DIMAZIN
 70
     0
  9
$DIMDSEP
 70
    46
  9
$DIMATFIT
 70
     3
  9
$DIMFRAC
 70
     0
  9
$DIMLDRBLK
  1

  9
$DIMLUNIT
 70
     2
  9
$DIMLWD
 70
    -2
  9
$DIMLWE
 70
    -2
  9
$DIMTMOVE
 70
     0
  9
$LUNITS
 70
     2
  9
$LUPREC
 70
     4
  9
$SKETCHINC
 40
0.1
  9
$FILLETRAD
 40
0.0
  9
$AUNITS
 70
     0
  9
$AUPREC
 70
     0
  9
$MENU
  1
.
  9
$ELEVATION
 40
0.0
  9
$PELEVATION
 40
0.0
  9
$THICKNESS
 40
0.0
  9
$LIMCHECK
 70
     0
  9
$CHAMFERA
 40
0.0
  9
$CHAMFERB
 40
0.0
  9
$CHAMFERC
 40
0.0
  9
$CHAMFERD
 40
0.0
  9
$SKPOLY
 70
     0
  9
$TDCREATE
 40
2460619.646446760
  9
$TDUCREATE
 40
2460619.354780092
  9
$TDUPDATE
 40
2460619.651342593
  9
$TDUUPDATE
 40
2460619.359675926
  9
$TDINDWG
 40
0.0008217593
  9
$TDUSRTIMER
 40
0.0008217593
  9
$USRTIMER
 70
     1
  9
$ANGBASE
 50
0.0
  9
$ANGDIR
 70
     0
  9
$PDMODE
 70
     0
  9
$PDSIZE
 40
0.0
  9
$PLINEWID
 40
0.0
  9
$SPLFRAME
 70
     0
  9
$SPLINETYPE
 70
     6
  9
$SPLINESEGS
 70
     8
  9
$HANDSEED
  5
C48
  9
$SURFTAB1
 70
     6
  9
$SURFTAB2
 70
     6
  9
$SURFTYPE
 70
     6
  9
$SURFU
 70
     6
  9
$SURFV
 70
     6
  9
$UCSBASE
  2

  9
$UCSNAME
  2

  9
$UCSORG
 10
0.0
 20
0.0
 30
0.0
  9
$UCSXDIR
 10
1.0
 20
0.0
 30
0.0
  9
$UCSYDIR
 10
0.0
 20
1.0
 30
0.0
  9
$UCSORTHOREF
  2

  9
$UCSORTHOVIEW
 70
     0
  9
$UCSORGTOP
 10
0.0
 20
0.0
 30
0.0
  9
$UCSORGBOTTOM
 10
0.0
 20
0.0
 30
0.0
  9
$UCSORGLEFT
 10
0.0
 20
0.0
 30
0.0
  9
$UCSORGRIGHT
 10
0.0
 20
0.0
 30
0.0
  9
$UCSORGFRONT
 10
0.0
 20
0.0
 30
0.0
  9
$UCSORGBACK
 10
0.0
 20
0.0
 30
0.0
  9
$PUCSBASE
  2

  9
$PUCSNAME
  2

  9
$PUCSORG
 10
0.0
 20
0.0
 30
0.0
  9
$PUCSXDIR
 10
1.0
 20
0.0
 30
0.0
  9
$PUCSYDIR
 10
0.0
 20
1.0
 30
0.0
  9
$PUCSORTHOREF
  2

  9
$PUCSORTHOVIEW
 70
     0
  9
$PUCSORGTOP
 10
0.0
 20
0.0
 30
0.0
  9
$PUCSORGBOTTOM
 10
0.0
 20
0.0
 30
0.0
  9
$PUCSORGLEFT
 10
0.0
 20
0.0
 30
0.0
  9
$PUCSORGRIGHT
 10
0.0
 20
0.0
 30
0.0
  9
$PUCSORGFRONT
 10
0.0
 20
0.0
 30
0.0
  9
$PUCSORGBACK
 10
0.0
 20
0.0
 30
0.0
  9
$USERI1
 70
     0
  9
$USERI2
 70
     0
  9
$USERI3
 70
     0
  9
$USERI4
 70
     0
  9
$USERI5
 70
     0
  9
$USERR1
 40
0.0
  9
$USERR2
 40
0.0
  9
$USERR3
 40
0.0
  9
$USERR4
 40
0.0
  9
$USERR5
 40
0.0
  9
$WORLDVIEW
 70
     1
  9
$SHADEDGE
 70
     3
  9
$SHADEDIF
 70
    70
  9
$TILEMODE
 70
     1
  9
$MAXACTVP
 70
    48
  9
$PINSBASE
 10
0.0
 20
0.0
 30
0.0
  9
$PLIMCHECK
 70
     0
  9
$PEXTMIN
 10
0.0
 20
0.0
 30
0.0
  9
$PEXTMAX
 10
0.0
 20
0.0
 30
0.0
  9
$PLIMMIN
 10
0.0
 20
0.0
  9
$PLIMMAX
 10
12.0
 20
9.0
  9
$UNITMODE
 70
     0
  9
$VISRETAIN
 70
     1
  9
$PLINEGEN
 70
     0
  9
$PSLTSCALE
 70
     1
  9
$TREEDEPTH
 70
  3020
  9
$CMLSTYLE
  2
Standard
  9
$CMLJUST
 70
     0
  9
$CMLSCALE
 40
1.0
  9
$PROXYGRAPHICS
 70
     1
  9
$MEASUREMENT
 70
     0
  9
$CELWEIGHT
370
    -1
  9
$ENDCAPS
280
     0
  9
$JOINSTYLE
280
     0
  9
$LWDISPLAY
290
     0
  9
$INSUNITS
 70
     1
  9
$HYPERLINKBASE
  1

  9
$STYLESHEET
  1

  9
$XEDIT
290
     1
  9
$CEPSNTYPE
380
     0
  9
$PSTYLEMODE
290
     1
  9
$FINGERPRINTGUID
  2
{DE327A94-1AA4-5B4E-B6B7-9B11D369EB2E}
  9
$VERSIONGUID
  2
{1B0804C6-C718-C849-AD8C-35D48A226507}
  9
$EXTNAMES
290
     1
  9
$PSVPSCALE
 40
0.0
  9
$OLESTARTUP
290
     0
  0
ENDSEC
  0
SECTION
  2
CLASSES
  0
CLASS
  1
ACDBDICTIONARYWDFLT
  2
AcDbDictionaryWithDefault
  3
ObjectDBX Classes
 90
        0
280
     0
281
     0
  0
CLASS
  1
ACDBPLACEHOLDER
  2
AcDbPlaceHolder
  3
ObjectDBX Classes
 90
        0
280
     0
281
     0
  0
CLASS
  1
LAYOUT
  2
AcDbLayout
  3
ObjectDBX Classes
 90
        0
280
     0
281
     0
  0
CLASS
  1
DICTIONARYVAR
  2
AcDbDictionaryVar
  3
ObjectDBX Classes
 90
        0
280
     0
281
     0
  0
CLASS
  1
TABLESTYLE
  2
AcDbTableStyle
  3
ObjectDBX Classes
 90
     4095
280
     0
281
     0
  0
CLASS
  1
MATERIAL
  2
AcDbMaterial
  3
ObjectDBX Classes
 90
     1153
280
     0
281
     0
  0
CLASS
  1
VISUALSTYLE
  2
AcDbVisualStyle
  3
ObjectDBX Classes
 90
     4095
280
     0
281
     0
  0
CLASS
  1
SCALE
  2
AcDbScale
  3
ObjectDBX Classes
 90
     1153
280
     0
281
     0
  0
CLASS
  1
MLEADERSTYLE
  2
AcDbMLeaderStyle
  3
ACDB_MLEADERSTYLE_CLASS
 90
     4095
280
     0
281
     0
  0
CLASS
  1
CELLSTYLEMAP
  2
AcDbCellStyleMap
  3
ObjectDBX Classes
 90
     1152
280
     0
281
     0
  0
CLASS
  1
EXACXREFPANELOBJECT
  2
ExAcXREFPanelObject
  3
EXAC_ESW
 90
    33793
280
     0
281
     0
  0
CLASS
  1
NPOCOLLECTION
  2
AcDbImpNonPersistentObjectsCollection
  3
ObjectDBX Classes
 90
    33921
280
     0
281
     0
  0
CLASS
  1
LAYER_INDEX
  2
AcDbLayerIndex
  3
ObjectDBX Classes
 90
    32768
280
     0
281
     0
  0
CLASS
  1
SPATIAL_INDEX
  2
AcDbSpatialIndex
  3
ObjectDBX Classes
 90
    32768
280
     0
281
     0
  0
CLASS
  1
IDBUFFER
  2
AcDbIdBuffer
  3
ObjectDBX Classes
 90
    32768
280
     0
281
     0
  0
CLASS
  1
ACDBSECTIONVIEWSTYLE
  2
AcDbSectionViewStyle
  3
ObjectDBX Classes
 90
     1025
280
     0
281
     0
  0
CLASS
  1
ACDBDETAILVIEWSTYLE
  2
AcDbDetailViewStyle
  3
ObjectDBX Classes
 90
     1025
280
     0
281
     0
  0
CLASS
  1
XRECORD
  2
AcDbXrecord
  3
ObjectDBX Classes
 90
        0
280
     0
281
     0
  0
ENDSEC
  0
SECTION
  2
TABLES
  0
TABLE
  2
VPORT
  5
8
102
{ACAD_XDICTIONARY
360
B5E
102
}
330
0
100
AcDbSymbolTable
 70
     1
  0
VPORT
  5
94
330
8
100
AcDbSymbolTableRecord
100
AcDbViewportTableRecord
  2
*Active
 70
     0
 10
0.0
 20
0.0
 11
1.0
 21
1.0
 12
42.07463914933367
 22
1.719478921685947
 13
0.0
 23
0.0
 14
0.5
 24
0.5
 15
0.5
 25
0.5
 16
0.0
 26
0.0
 36
1.0
 17
0.0
 27
0.0
 37
0.0
 40
475.0154917116871
 41
0.9846153846153846
 42
50.0
 43
0.0
 44
0.0
 50
0.0
 51
0.0
 71
     0
 72
  1000
 73
     1
 74
     3
 75
     0
 76
     1
 77
     0
 78
     0
281
     0
 65
     1
110
0.0
120
0.0
130
0.0
111
1.0
121
0.0
131
0.0
112
0.0
122
1.0
132
0.0
 79
     0
146
0.0
1001
ACAD_NAV_VCDISPLAY
1070
     3
  0
ENDTAB
  0
TABLE
  2
LTYPE
  5
5
330
0
100
AcDbSymbolTable
 70
     1
  0
LTYPE
  5
14
330
5
100
AcDbSymbolTableRecord
100
AcDbLinetypeTableRecord
  2
ByBlock
 70
     0
  3

 72
    65
 73
     0
 40
0.0
  0
LTYPE
  5
15
330
5
100
AcDbSymbolTableRecord
100
AcDbLinetypeTableRecord
  2
ByLayer
 70
     0
  3

 72
    65
 73
     0
 40
0.0
  0
LTYPE
  5
16
330
5
100
AcDbSymbolTableRecord
100
AcDbLinetypeTableRecord
  2
Continuous
 70
     0
  3
Solid line
 72
    65
 73
     0
 40
0.0
  0
ENDTAB
  0
TABLE
  2
LAYER
  5
2
102
{ACAD_XDICTIONARY
360
18E
102
}
330
0
100
AcDbSymbolTable
 70
     1
  0
LAYER
  5
10
102
{ACAD_XDICTIONARY
360
E6
102
}
330
2
100
AcDbSymbolTableRecord
100
AcDbLayerTableRecord
  2
0
 70
     0
 62
     7
  6
Continuous
370
    -3
390
F
  0
ENDTAB
  0
TABLE
  2
STYLE
  5
3
330
0
100
AcDbSymbolTable
 70
     1
  0
STYLE
  5
11
330
3
100
AcDbSymbolTableRecord
100
AcDbTextStyleTableRecord
  2
Standard
 70
     0
 40
0.0
 41
1.0
 50
0.0
 71
     0
 42
0.2
  3
arial_1.ttf
  4

1001
ACAD
1000
Arial
1071
       34
  0
ENDTAB
  0
TABLE
  2
VIEW
  5
6
330
0
100
AcDbSymbolTable
 70
     0
  0
ENDTAB
  0
TABLE
  2
UCS
  5
7
330
0
100
AcDbSymbolTable
 70
     0
  0
ENDTAB
  0
TABLE
  2
APPID
  5
9
330
0
100
AcDbSymbolTable
 70
     7
  0
APPID
  5
12
330
9
100
AcDbSymbolTableRecord
100
AcDbRegAppTableRecord
  2
ACAD
 70
     0
  0
APPID
  5
DD
330
9
100
AcDbSymbolTableRecord
100
AcDbRegAppTableRecord
  2
AcadAnnoPO
 70
     0
  0
APPID
  5
DE
330
9
100
AcDbSymbolTableRecord
100
AcDbRegAppTableRecord
  2
AcadAnnotative
 70
     0
  0
APPID
  5
DF
330
9
100
AcDbSymbolTableRecord
100
AcDbRegAppTableRecord
  2
ACAD_DSTYLE_DIMJAG
 70
     0
  0
APPID
  5
E0
330
9
100
AcDbSymbolTableRecord
100
AcDbRegAppTableRecord
  2
ACAD_DSTYLE_DIMTALN
 70
     0
  0
APPID
  5
107
330
9
100
AcDbSymbolTableRecord
100
AcDbRegAppTableRecord
  2
ACAD_MLEADERVER
 70
     0
  0
APPID
  5
1A6
330
9
100
AcDbSymbolTableRecord
100
AcDbRegAppTableRecord
  2
ACAD_NAV_VCDISPLAY
 70
     0
  0
ENDTAB
  0
TABLE
  2
DIMSTYLE
  5
A
330
0
100
AcDbSymbolTable
 70
     1
100
AcDbDimStyleTable
 71
     0
  0
DIMSTYLE
105
27
330
A
100
AcDbSymbolTableRecord
100
AcDbDimStyleTableRecord
  2
Standard
 70
     0
340
11
  0
ENDTAB
  0
TABLE
  2
BLOCK_RECORD
  5
1
330
0
100
AcDbSymbolTable
 70
     7
  0
BLOCK_RECORD
  5
1F
102
{ACAD_XDICTIONARY
360
15D
102
}
330
1
100
AcDbSymbolTableRecord
100
AcDbBlockTableRecord
  2
*Model_Space
340
22
  0
BLOCK_RECORD
  5
58
102
{ACAD_XDICTIONARY
360
B12
102
}
330
1
100
AcDbSymbolTableRecord
100
AcDbBlockTableRecord
  2
*Paper_Space
340
59
  0
BLOCK_RECORD
  5
5D
102
{ACAD_XDICTIONARY
360
B14
102
}
330
1
100
AcDbSymbolTableRecord
100
AcDbBlockTableRecord
  2
*Paper_Space0
340
5E
  0
BLOCK_RECORD
  5
889
330
1
100
AcDbSymbolTableRecord
100
AcDbBlockTableRecord
  2
PU140-B-Front
340
0
102
{BLKREFS
331
B08
102
}
  0
BLOCK_RECORD
  5
8BD
330
1
100
AcDbSymbolTableRecord
100
AcDbBlockTableRecord
  2
PU140-B-Left
340
0
102
{BLKREFS
331
B09
102
}
  0
BLOCK_RECORD
  5
8F4
330
1
100
AcDbSymbolTableRecord
100
AcDbBlockTableRecord
  2
PU140-B-Right
340
0
102
{BLKREFS
331
B0A
102
}
  0
BLOCK_RECORD
  5
92B
330
1
100
AcDbSymbolTableRecord
100
AcDbBlockTableRecord
  2
PU140-B-Top
340
0
102
{BLKREFS
331
B0B
102
}
  0
BLOCK_RECORD
  5
984
330
1
100
AcDbSymbolTableRecord
100
AcDbBlockTableRecord
  2
PU140-B-Bottom
340
0
102
{BLKREFS
331
B0C
102
}
  0
BLOCK_RECORD
  5
9D7
330
1
100
AcDbSymbolTableRecord
100
AcDbBlockTableRecord
  2
PU140-B-ISO
340
0
102
{BLKREFS
331
B0D
102
}
  0
ENDTAB
  0
ENDSEC
  0
SECTION
  2
BLOCKS
  0
BLOCK
  5
20
330
1F
100
AcDbEntity
  8
0
100
AcDbBlockBegin
  2
*Model_Space
 70
     0
 10
0.0
 20
0.0
 30
0.0
  3
*Model_Space
  1

  0
ENDBLK
  5
21
330
1F
100
AcDbEntity
  8
0
100
AcDbBlockEnd
  0
BLOCK
  5
5A
330
58
100
AcDbEntity
 67
     1
  8
0
100
AcDbBlockBegin
  2
*Paper_Space
 70
     0
 10
0.0
 20
0.0
 30
0.0
  3
*Paper_Space
  1

  0
ENDBLK
  5
5B
330
58
100
AcDbEntity
 67
     1
  8
0
100
AcDbBlockEnd
  0
BLOCK
  5
5F
330
5D
100
AcDbEntity
 67
     1
  8
0
100
AcDbBlockBegin
  2
*Paper_Space0
 70
     0
 10
0.0
 20
0.0
 30
0.0
  3
*Paper_Space0
  1

  0
ENDBLK
  5
60
330
5D
100
AcDbEntity
 67
     1
  8
0
100
AcDbBlockEnd
  0
BLOCK
  5
88A
330
889
100
AcDbEntity
  8
0
100
AcDbBlockBegin
  2
PU140-B-Front
 70
     0
 10
0.0
 20
0.0
 30
0.0
  3
PU140-B-Front
  1

  0
LINE
  5
88C
330
889
100
AcDbEntity
  8
0
100
AcDbLine
 10
-73.99999999999998
 20
97.00000000000002
 30
0.0
 11
-74.0
 21
7.999999999999989
 31
0.0
  0
LINE
  5
88D
330
889
100
AcDbEntity
  8
0
100
AcDbLine
 10
69.99999999999997
 20
97.0
 30
0.0
 11
70.0
 21
8.000000000000007
 31
0.0
  0
LINE
  5
88E
330
889
100
AcDbEntity
  8
0
100
AcDbLine
 10
-66.0
 20
0.0
 30
0.0
 11
65.99999999999997
 21
0.0
 31
0.0
  0
LINE
  5
88F
330
889
100
AcDbEntity
  8
0
100
AcDbLine
 10
73.99999999999998
 20
8.000000000000007
 30
0.0
 11
73.99999999999997
 21
97.0
 31
0.0
  0
LINE
  5
890
330
889
100
AcDbEntity
  8
0
100
AcDbLine
 10
65.99999999999997
 20
4.0
 30
0.0
 11
-66.0
 21
4.0
 31
0.0
  0
LINE
  5
891
330
889
100
AcDbEntity
  8
0
100
AcDbLine
 10
-70.0
 20
7.999999999999989
 30
0.0
 11
-69.99999999999999
 21
97.00000000000002
 31
0.0
  0
LINE
  5
892
330
889
100
AcDbEntity
  8
0
100
AcDbLine
 10
-73.99999999999998
 20
104.0
 30
0.0
 11
-73.99999999999998
 21
97.00000000000002
 31
0.0
  0
LINE
  5
893
330
889
100
AcDbEntity
  8
0
100
AcDbLine
 10
69.99999999999997
 20
104.0
 30
0.0
 11
69.99999999999997
 21
97.0
 31
0.0
  0
LINE
  5
894
330
889
100
AcDbEntity
  8
0
100
AcDbLine
 10
73.99999999999997
 20
97.0
 30
0.0
 11
73.99999999999997
 21
104.0
 31
0.0
  0
LINE
  5
895
330
889
100
AcDbEntity
  8
0
100
AcDbLine
 10
-69.99999999999999
 20
97.00000000000002
 30
0.0
 11
-69.99999999999999
 21
104.0
 31
0.0
  0
LINE
  5
896
330
889
100
AcDbEntity
  8
0
100
AcDbLine
 10
-69.99999999999999
 20
104.0
 30
0.0
 11
-73.99999999999998
 21
104.0
 31
0.0
  0
LINE
  5
897
330
889
100
AcDbEntity
  8
0
100
AcDbLine
 10
-73.99999999999998
 20
97.00000000000002
 30
0.0
 11
-69.99999999999999
 21
97.00000000000002
 31
0.0
  0
LINE
  5
898
330
889
100
AcDbEntity
  8
0
100
AcDbLine
 10
69.99999999999997
 20
97.0
 30
0.0
 11
73.99999999999997
 21
97.0
 31
0.0
  0
LINE
  5
899
330
889
100
AcDbEntity
  8
0
100
AcDbLine
 10
73.99999999999997
 20
104.0
 30
0.0
 11
69.99999999999997
 21
104.0
 31
0.0
  0
ARC
  5
89A
330
889
100
AcDbEntity
  8
0
100
AcDbCircle
 10
-66.0
 20
8.0
 30
0.0
 40
8.0
100
AcDbArc
 50
180.0
 51
270.0
  0
ARC
  5
89B
330
889
100
AcDbEntity
  8
0
100
AcDbCircle
 10
-66.0
 20
8.0
 30
0.0
 40
4.0
100
AcDbArc
 50
180.0
 51
270.0
  0
ARC
  5
89C
330
889
100
AcDbEntity
  8
0
100
AcDbCircle
 10
66.0
 20
8.0
 30
0.0
 40
8.0
100
AcDbArc
 50
269.9999999999998
 51
0.0
  0
ARC
  5
89D
330
889
100
AcDbEntity
  8
0
100
AcDbCircle
 10
66.0
 20
8.0
 30
0.0
 40
4.0
100
AcDbArc
 50
269.9999999999995
 51
0.0
  0
ARC
  5
89E
330
889
100
AcDbEntity
  8
0
100
AcDbCircle
 10
59.99999999999999
 20
14.00000000000004
 30
0.0
 40
3.999999999999999
100
AcDbArc
 50
89.99999999999898
 51
180.0
  0
ARC
  5
89F
330
889
100
AcDbEntity
  8
0
100
AcDbCircle
 10
59.99999999999999
 20
14.00000000000004
 30
0.0
 40
7.999999999999998
100
AcDbArc
 50
89.99999999999948
 51
180.0
  0
ARC
  5
8A0
330
889
100
AcDbEntity
  8
0
100
AcDbCircle
 10
48.00000000000004
 20
8.0
 30
0.0
 40
4.0
100
AcDbArc
 50
270.0000000000001
 51
0.0
  0
ARC
  5
8A1
330
889
100
AcDbEntity
  8
0
100
AcDbCircle
 10
48.00000000000004
 20
8.0
 30
0.0
 40
8.0
100
AcDbArc
 50
330.0
 51
0.0
  0
LINE
  5
8A2
330
889
100
AcDbEntity
  8
0
100
AcDbLine
 10
66.0
 20
18.00000000000004
 30
0.0
 11
60.00000000000006
 21
18.00000000000004
 31
0.0
  0
LINE
  5
8A3
330
889
100
AcDbEntity
  8
0
100
AcDbLine
 10
66.0
 20
22.00000000000005
 30
0.0
 11
60.00000000000006
 21
22.00000000000004
 31
0.0
  0
ARC
  5
8A4
330
889
100
AcDbEntity
  8
0
100
AcDbCircle
 10
65.99999999999997
 20
26.00000000000005
 30
0.0
 40
8.000000000000017
100
AcDbArc
 50
270.0
 51
300.0
  0
ARC
  5
8A5
330
889
100
AcDbEntity
  8
0
100
AcDbCircle
 10
65.99999999999997
 20
26.00000000000005
 30
0.0
 40
4.000000000000012
100
AcDbArc
 50
270.0
 51
0.0
  0
LINE
  5
8A6
330
889
100
AcDbEntity
  8
0
100
AcDbLine
 10
56.00000000000004
 20
14.00000000000004
 30
0.0
 11
56.00000000000004
 21
7.999999999999912
 31
0.0
  0
LINE
  5
8A7
330
889
100
AcDbEntity
  8
0
100
AcDbLine
 10
52.00000000000006
 20
7.999999999999911
 30
0.0
 11
52.00000000000004
 21
14.00000000000004
 31
0.0
  0
LINE
  5
8A8
330
889
100
AcDbEntity
  8
0
100
AcDbLine
 10
-52.00000000000006
 20
7.999999999999998
 30
0.0
 11
-51.99999999999999
 21
14.00000000000011
 31
0.0
  0
LINE
  5
8A9
330
889
100
AcDbEntity
  8
0
100
AcDbLine
 10
-55.99999999999997
 20
14.00000000000011
 30
0.0
 11
-56.00000000000004
 21
7.999999999999999
 31
0.0
  0
ARC
  5
8AA
330
889
100
AcDbEntity
  8
0
100
AcDbCircle
 10
-59.99999999999999
 20
14.00000000000004
 30
0.0
 40
7.999999999999998
100
AcDbArc
 50
0.0
 51
90.00000000000049
  0
ARC
  5
8AB
330
889
100
AcDbEntity
  8
0
100
AcDbCircle
 10
-59.99999999999999
 20
14.00000000000004
 30
0.0
 40
3.999999999999999
100
AcDbArc
 50
0.0
 51
90.00000000000103
  0
ARC
  5
8AC
330
889
100
AcDbEntity
  8
0
100
AcDbCircle
 10
-48.00000000000006
 20
8.0
 30
0.0
 40
4.0
100
AcDbArc
 50
180.0
 51
269.9999999999999
  0
ARC
  5
8AD
330
889
100
AcDbEntity
  8
0
100
AcDbCircle
 10
-48.00000000000006
 20
8.0
 30
0.0
 40
8.0
100
AcDbArc
 50
180.0
 51
210.0
  0
LINE
  5
8AE
330
889
100
AcDbEntity
  8
0
100
AcDbLine
 10
-66.0
 20
22.00000000000003
 30
0.0
 11
-60.00000000000006
 21
22.00000000000004
 31
0.0
  0
LINE
  5
8AF
330
889
100
AcDbEntity
  8
0
100
AcDbLine
 10
-66.0
 20
18.00000000000003
 30
0.0
 11
-60.00000000000006
 21
18.00000000000004
 31
0.0
  0
ARC
  5
8B0
330
889
100
AcDbEntity
  8
0
100
AcDbCircle
 10
-66.0
 20
26.00000000000005
 30
0.0
 40
8.000000000000017
100
AcDbArc
 50
240.0
 51
270.0
  0
ARC
  5
8B1
330
889
100
AcDbEntity
  8
0
100
AcDbCircle
 10
-66.0
 20
26.00000000000005
 30
0.0
 40
4.000000000000012
100
AcDbArc
 50
180.0
 51
270.0
  0
ARC
  5
8B2
330
889
100
AcDbEntity
  8
0
100
AcDbCircle
 10
-72.30000000000003
 20
51.49999999999997
 30
0.0
 40
3.700000000000027
100
AcDbArc
 50
153.7398124562636
 51
180.0
  0
ARC
  5
8B3
330
889
100
AcDbEntity
  8
0
100
AcDbCircle
 10
-76.50000000000003
 20
56.99999999999994
 30
0.0
 40
2.5
100
AcDbArc
 50
333.7398124562632
 51
0.0
  0
LINE
  5
8B4
330
889
100
AcDbEntity
  8
0
100
AcDbLine
 10
-75.61813811706378
 20
53.13705816515125
 30
0.0
 11
-74.25801478576774
 21
55.89387961814094
 31
0.0
  0
LINE
  5
8B5
330
889
100
AcDbEntity
  8
0
100
AcDbLine
 10
-76.0
 20
8.000000000000008
 30
0.0
 11
-76.00000000000001
 21
51.49999999999991
 31
0.0
  0
ARC
  5
8B6
330
889
100
AcDbEntity
  8
0
100
AcDbCircle
 10
-66.0
 20
7.999999999999998
 30
0.0
 40
10.00000000000001
100
AcDbArc
 50
180.0
 51
269.9999999999999
  0
LINE
  5
8B7
330
889
100
AcDbEntity
  8
0
100
AcDbLine
 10
65.99999999999997
 20
-2.00000000000001
 30
0.0
 11
-66.00000000000001
 21
-2.00000000000001
 31
0.0
  0
ARC
  5
8B8
330
889
100
AcDbEntity
  8
0
100
AcDbCircle
 10
66.0
 20
7.999999999999998
 30
0.0
 40
10.00000000000001
100
AcDbArc
 50
269.9999999999999
 51
0.0
  0
LINE
  5
8B9
330
889
100
AcDbEntity
  8
0
100
AcDbLine
 10
76.0
 20
51.49999999999999
 30
0.0
 11
76.0
 21
7.999999999999998
 31
0.0
  0
ARC
  5
8BA
330
889
100
AcDbEntity
  8
0
100
AcDbCircle
 10
72.29999999999998
 20
51.49999999999998
 30
0.0
 40
3.700000000000017
100
AcDbArc
 50
0.0
 51
26.26018754373655
  0
ARC
  5
8BB
330
889
100
AcDbEntity
  8
0
100
AcDbCircle
 10
76.49999999999998
 20
56.99999999999996
 30
0.0
 40
2.5
100
AcDbArc
 50
180.0
 51
206.260187543737
  0
LINE
  5
8BC
330
889
100
AcDbEntity
  8
0
100
AcDbLine
 10
75.61813811706374
 20
53.13705816515128
 30
0.0
 11
74.25801478576771
 21
55.89387961814097
 31
0.0
  0
ENDBLK
  5
88B
330
889
100
AcDbEntity
  8
0
100
AcDbBlockEnd
  0
BLOCK
  5
8BE
330
8BD
100
AcDbEntity
  8
0
100
AcDbBlockBegin
  2
PU140-B-Left
 70
     0
 10
0.0
 20
0.0
 30
0.0
  3
PU140-B-Left
  1

  0
ARC
  5
8C0
330
8BD
100
AcDbEntity
  8
0
100
AcDbCircle
 10
-20.75253999999998
 20
-2.500000000000008
 30
0.0
 40
2.5
100
AcDbArc
 50
90.0
 51
116.2601875437368
  0
LINE
  5
8C1
330
8BD
100
AcDbEntity
  8
0
100
AcDbLine
 10
-24.61548183484867
 20
-1.618138117063763
 30
0.0
 11
-21.85866038185897
 21
-0.2580147857677417
 31
0.0
  0
ARC
  5
8C2
330
8BD
100
AcDbEntity
  8
0
100
AcDbCircle
 10
-26.25253999999998
 20
1.699999999999981
 30
0.0
 40
3.700000000000001
100
AcDbArc
 50
243.7398124562631
 51
296.2601875437368
  0
ARC
  5
8C3
330
8BD
100
AcDbEntity
  8
0
100
AcDbCircle
 10
-31.75253999999999
 20
-2.500000000000008
 30
0.0
 40
2.5
100
AcDbArc
 50
63.73981245626318
 51
90.0
  0
LINE
  5
8C4
330
8BD
100
AcDbEntity
  8
0
100
AcDbLine
 10
-27.8895981651513
 20
-1.618138117063756
 30
0.0
 11
-30.64641961814099
 21
-0.2580147857677351
 31
0.0
  0
CIRCLE
  5
8C5
330
8BD
100
AcDbEntity
  8
0
100
AcDbCircle
 10
-22.49999999999997
 20
85.00000000000001
 30
0.0
 40
4.5
  0
CIRCLE
  5
8C6
330
8BD
100
AcDbEntity
  8
0
100
AcDbCircle
 10
17.50000000000003
 20
72.00000000000002
 30
0.0
 40
4.5
  0
CIRCLE
  5
8C7
330
8BD
100
AcDbEntity
  8
0
100
AcDbCircle
 10
-12.5
 20
92.00000000000002
 30
0.0
 40
3.0
  0
CIRCLE
  5
8C8
330
8BD
100
AcDbEntity
  8
0
100
AcDbCircle
 10
7.5
 20
92.00000000000002
 30
0.0
 40
3.0
  0
CIRCLE
  5
8C9
330
8BD
100
AcDbEntity
  8
0
100
AcDbCircle
 10
27.5
 20
92.00000000000002
 30
0.0
 40
3.0
  0
CIRCLE
  5
8CA
330
8BD
100
AcDbEntity
  8
0
100
AcDbCircle
 10
-2.5
 20
72.00000000000001
 30
0.0
 40
3.0
  0
CIRCLE
  5
8CB
330
8BD
100
AcDbEntity
  8
0
100
AcDbCircle
 10
-27.5
 20
72.00000000000001
 30
0.0
 40
3.0
  0
CIRCLE
  5
8CC
330
8BD
100
AcDbEntity
  8
0
100
AcDbCircle
 10
0.0
 20
52.00000000000002
 30
0.0
 40
5.5
  0
LINE
  5
8CD
330
8BD
100
AcDbEntity
  8
0
100
AcDbLine
 10
-17.50507999999998
 20
7.999999999999976
 30
0.0
 11
-17.50507999999998
 21
26.00508000000005
 31
0.0
  0
LINE
  5
8CE
330
8BD
100
AcDbEntity
  8
0
100
AcDbLine
 10
-17.50507999999998
 20
26.00508000000005
 30
0.0
 11
-17.49999999999998
 21
26.00508000000005
 31
0.0
  0
LINE
  5
8CF
330
8BD
100
AcDbEntity
  8
0
100
AcDbLine
 10
-17.49999999999998
 20
26.00508000000005
 30
0.0
 11
-17.49999999999998
 21
26.00000000000005
 31
0.0
  0
LINE
  5
8D0
330
8BD
100
AcDbEntity
  8
0
100
AcDbLine
 10
17.5
 20
26.00000000000005
 30
0.0
 11
17.5
 21
26.00508000000005
 31
0.0
  0
LINE
  5
8D1
330
8BD
100
AcDbEntity
  8
0
100
AcDbLine
 10
17.5
 20
26.00508000000005
 30
0.0
 11
17.50508
 21
26.00508000000005
 31
0.0
  0
LINE
  5
8D2
330
8BD
100
AcDbEntity
  8
0
100
AcDbLine
 10
17.50508
 20
26.00508000000005
 30
0.0
 11
17.50508
 21
7.999999999999984
 31
0.0
  0
LINE
  5
8D3
330
8BD
100
AcDbEntity
  8
0
100
AcDbLine
 10
-17.50507999999998
 20
7.999999999999976
 30
0.0
 11
-17.5
 21
7.999999999999976
 31
0.0
  0
LINE
  5
8D4
330
8BD
100
AcDbEntity
  8
0
100
AcDbLine
 10
17.5
 20
7.999999999999984
 30
0.0
 11
17.50508
 21
7.999999999999984
 31
0.0
  0
LINE
  5
8D5
330
8BD
100
AcDbEntity
  8
0
100
AcDbLine
 10
-17.49999999999998
 20
18.00000000000003
 30
0.0
 11
17.5
 21
18.00000000000003
 31
0.0
  0
LINE
  5
8D6
330
8BD
100
AcDbEntity
  8
0
100
AcDbLine
 10
-17.49999999999998
 20
18.00000000000003
 30
0.0
 11
-17.49999999999998
 21
26.00000000000005
 31
0.0
  0
LINE
  5
8D7
330
8BD
100
AcDbEntity
  8
0
100
AcDbLine
 10
17.5
 20
18.00000000000003
 30
0.0
 11
17.5
 21
26.00000000000005
 31
0.0
  0
LINE
  5
8D8
330
8BD
100
AcDbEntity
  8
0
100
AcDbLine
 10
35.0
 20
97.00000000000002
 30
0.0
 11
35.0
 21
7.999999999999989
 31
0.0
  0
LINE
  5
8D9
330
8BD
100
AcDbEntity
  8
0
100
AcDbLine
 10
-27.99999999999995
 20
104.0
 30
0.0
 11
27.99999999999999
 21
104.0
 31
0.0
  0
LINE
  5
8DA
330
8BD
100
AcDbEntity
  8
0
100
AcDbLine
 10
-34.99999999999997
 20
7.999999999999971
 30
0.0
 11
-34.99999999999996
 21
97.00000000000002
 31
0.0
  0
LINE
  5
8DB
330
8BD
100
AcDbEntity
  8
0
100
AcDbLine
 10
27.99999999999999
 20
104.0
 30
0.0
 11
35.0
 21
97.00000000000002
 31
0.0
  0
LINE
  5
8DC
330
8BD
100
AcDbEntity
  8
0
100
AcDbLine
 10
-34.99999999999996
 20
97.00000000000002
 30
0.0
 11
-27.99999999999995
 21
104.0
 31
0.0
  0
LINE
  5
8DD
330
8BD
100
AcDbEntity
  8
0
100
AcDbLine
 10
-17.50507999999999
 20
0.0
 30
0.0
 11
-20.75254000000001
 21
0.0
 31
0.0
  0
LINE
  5
8DE
330
8BD
100
AcDbEntity
  8
0
100
AcDbLine
 10
20.75254000000001
 20
0.0
 30
0.0
 11
17.50508
 21
0.0
 31
0.0
  0
LINE
  5
8DF
330
8BD
100
AcDbEntity
  8
0
100
AcDbLine
 10
35.0
 20
0.0
 30
0.0
 11
31.75254000000001
 21
0.0
 31
0.0
  0
LINE
  5
8E0
330
8BD
100
AcDbEntity
  8
0
100
AcDbLine
 10
34.99999999999994
 20
8.000000000000035
 30
0.0
 11
35.0
 21
0.0
 31
0.0
  0
LINE
  5
8E1
330
8BD
100
AcDbEntity
  8
0
100
AcDbLine
 10
-31.75254000000001
 20
0.0
 30
0.0
 11
-34.99999999999997
 21
0.0
 31
0.0
  0
LINE
  5
8E2
330
8BD
100
AcDbEntity
  8
0
100
AcDbLine
 10
-34.99999999999997
 20
0.0
 30
0.0
 11
-34.99999999999996
 21
7.999999999999982
 31
0.0
  0
LINE
  5
8E3
330
8BD
100
AcDbEntity
  8
0
100
AcDbLine
 10
-17.5
 20
0.0
 30
0.0
 11
-17.50507999999999
 21
0.0
 31
0.0
  0
LINE
  5
8E4
330
8BD
100
AcDbEntity
  8
0
100
AcDbLine
 10
17.5
 20
0.0
 30
0.0
 11
-17.49999999999999
 21
0.0
 31
0.0
  0
LINE
  5
8E5
330
8BD
100
AcDbEntity
  8
0
100
AcDbLine
 10
17.50508
 20
0.0
 30
0.0
 11
17.5
 21
0.0
 31
0.0
  0
LINE
  5
8E6
330
8BD
100
AcDbEntity
  8
0
100
AcDbLine
 10
17.5
 20
18.00000000000004
 30
0.0
 11
17.5
 21
14.00000000000011
 31
0.0
  0
LINE
  5
8E7
330
8BD
100
AcDbEntity
  8
0
100
AcDbLine
 10
-17.49999999999998
 20
18.00000000000004
 30
0.0
 11
-17.49999999999998
 21
14.00000000000012
 31
0.0
  0
LINE
  5
8E8
330
8BD
100
AcDbEntity
  8
0
100
AcDbLine
 10
-17.49999999999996
 20
7.999999999999976
 30
0.0
 11
-17.5
 21
0.0
 31
0.0
  0
LINE
  5
8E9
330
8BD
100
AcDbEntity
  8
0
100
AcDbLine
 10
17.5
 20
0.0
 30
0.0
 11
17.50000000000001
 21
7.999999999999985
 31
0.0
  0
ARC
  5
8EA
330
8BD
100
AcDbEntity
  8
0
100
AcDbCircle
 10
12.5
 20
92.0
 30
0.0
 40
3.000000000000004
100
AcDbArc
 50
146.4426902380789
 51
213.5573097619202
  0
ARC
  5
8EB
330
8BD
100
AcDbEntity
  8
0
100
AcDbCircle
 10
-7.5
 20
92.0
 30
0.0
 40
3.000000000000004
100
AcDbArc
 50
146.4426902380786
 51
213.5573097619202
  0
ARC
  5
8EC
330
8BD
100
AcDbEntity
  8
0
100
AcDbCircle
 10
2.500000000000004
 20
71.99999999999999
 30
0.0
 40
2.999999999999997
100
AcDbArc
 50
146.442690238079
 51
213.5573097619201
  0
ARC
  5
8ED
330
8BD
100
AcDbEntity
  8
0
100
AcDbCircle
 10
20.75253999999998
 20
-2.500000000000008
 30
0.0
 40
2.5
100
AcDbArc
 50
63.73981245626318
 51
90.0
  0
LINE
  5
8EE
330
8BD
100
AcDbEntity
  8
0
100
AcDbLine
 10
24.61548183484867
 20
-1.618138117063763
 30
0.0
 11
21.85866038185897
 21
-0.2580147857677417
 31
0.0
  0
ARC
  5
8EF
330
8BD
100
AcDbEntity
  8
0
100
AcDbCircle
 10
26.25253999999998
 20
1.699999999999981
 30
0.0
 40
3.700000000000001
100
AcDbArc
 50
243.7398124562632
 51
296.2601875437369
  0
ARC
  5
8F0
330
8BD
100
AcDbEntity
  8
0
100
AcDbCircle
 10
31.75253999999999
 20
-2.500000000000008
 30
0.0
 40
2.5
100
AcDbArc
 50
90.0
 51
116.2601875437368
  0
LINE
  5
8F1
330
8BD
100
AcDbEntity
  8
0
100
AcDbLine
 10
27.8895981651513
 20
-1.618138117063756
 30
0.0
 11
30.64641961814099
 21
-0.2580147857677351
 31
0.0
  0
LINE
  5
8F2
330
8BD
100
AcDbEntity
  8
0
100
AcDbLine
 10
17.5
 20
14.00000000000011
 30
0.0
 11
17.5
 21
7.999999999999999
 31
0.0
  0
LINE
  5
8F3
330
8BD
100
AcDbEntity
  8
0
100
AcDbLine
 10
-17.49999999999999
 20
7.999999999999999
 30
0.0
 11
-17.49999999999998
 21
14.00000000000012
 31
0.0
  0
ENDBLK
  5
8BF
330
8BD
100
AcDbEntity
  8
0
100
AcDbBlockEnd
  0
BLOCK
  5
8F5
330
8F4
100
AcDbEntity
  8
0
100
AcDbBlockBegin
  2
PU140-B-Right
 70
     0
 10
0.0
 20
0.0
 30
0.0
  3
PU140-B-Right
  1

  0
ARC
  5
8F7
330
8F4
100
AcDbEntity
  8
0
100
AcDbCircle
 10
20.75253999999998
 20
-2.500000000000017
 30
0.0
 40
2.5
100
AcDbArc
 50
63.73981245626318
 51
90.0
  0
LINE
  5
8F8
330
8F4
100
AcDbEntity
  8
0
100
AcDbLine
 10
24.61548183484867
 20
-1.618138117063772
 30
0.0
 11
21.85866038185897
 21
-0.2580147857677506
 31
0.0
  0
ARC
  5
8F9
330
8F4
100
AcDbEntity
  8
0
100
AcDbCircle
 10
26.25253999999998
 20
1.699999999999981
 30
0.0
 40
3.700000000000001
100
AcDbArc
 50
243.7398124562632
 51
296.2601875437369
  0
ARC
  5
8FA
330
8F4
100
AcDbEntity
  8
0
100
AcDbCircle
 10
31.75253999999998
 20
-2.500000000000008
 30
0.0
 40
2.5
100
AcDbArc
 50
90.0
 51
116.2601875437368
  0
LINE
  5
8FB
330
8F4
100
AcDbEntity
  8
0
100
AcDbLine
 10
27.88959816515129
 20
-1.618138117063756
 30
0.0
 11
30.64641961814098
 21
-0.2580147857677351
 31
0.0
  0
LINE
  5
8FC
330
8F4
100
AcDbEntity
  8
0
100
AcDbLine
 10
20.75254000000001
 20
0.0
 30
0.0
 11
17.50507999999999
 21
0.0
 31
0.0
  0
LINE
  5
8FD
330
8F4
100
AcDbEntity
  8
0
100
AcDbLine
 10
-17.50508
 20
0.0
 30
0.0
 11
-20.75254000000001
 21
0.0
 31
0.0
  0
LINE
  5
8FE
330
8F4
100
AcDbEntity
  8
0
100
AcDbLine
 10
34.99999999999999
 20
0.0
 30
0.0
 11
31.75254000000001
 21
0.0
 31
0.0
  0
LINE
  5
8FF
330
8F4
100
AcDbEntity
  8
0
100
AcDbLine
 10
-31.75254000000001
 20
0.0
 30
0.0
 11
-35.0
 21
0.0
 31
0.0
  0
LINE
  5
900
330
8F4
100
AcDbEntity
  8
0
100
AcDbLine
 10
-35.00000000000002
 20
0.0
 30
0.0
 11
-35.00000000000002
 21
8.000000000000023
 31
0.0
  0
LINE
  5
901
330
8F4
100
AcDbEntity
  8
0
100
AcDbLine
 10
34.99999999999993
 20
8.000000000000049
 30
0.0
 11
34.99999999999999
 21
0.0
 31
0.0
  0
LINE
  5
902
330
8F4
100
AcDbEntity
  8
0
100
AcDbLine
 10
17.49999999999999
 20
0.0
 30
0.0
 11
-17.5
 21
0.0
 31
0.0
  0
LINE
  5
903
330
8F4
100
AcDbEntity
  8
0
100
AcDbLine
 10
17.5
 20
7.999999999999976
 30
0.0
 11
17.50507999999998
 21
7.999999999999976
 31
0.0
  0
LINE
  5
904
330
8F4
100
AcDbEntity
  8
0
100
AcDbLine
 10
17.50507999999999
 20
0.0
 30
0.0
 11
17.5
 21
0.0
 31
0.0
  0
LINE
  5
905
330
8F4
100
AcDbEntity
  8
0
100
AcDbLine
 10
-17.5
 20
0.0
 30
0.0
 11
-17.50508
 21
0.0
 31
0.0
  0
LINE
  5
906
330
8F4
100
AcDbEntity
  8
0
100
AcDbLine
 10
-17.50508
 20
7.999999999999984
 30
0.0
 11
-17.5
 21
7.999999999999984
 31
0.0
  0
LINE
  5
907
330
8F4
100
AcDbEntity
  8
0
100
AcDbLine
 10
-17.50508
 20
7.999999999999984
 30
0.0
 11
-17.50508
 21
26.00508000000005
 31
0.0
  0
LINE
  5
908
330
8F4
100
AcDbEntity
  8
0
100
AcDbLine
 10
-17.50508
 20
26.00508000000005
 30
0.0
 11
-17.5
 21
26.00508000000005
 31
0.0
  0
LINE
  5
909
330
8F4
100
AcDbEntity
  8
0
100
AcDbLine
 10
-17.5
 20
26.00508000000005
 30
0.0
 11
-17.5
 21
26.00000000000005
 31
0.0
  0
LINE
  5
90A
330
8F4
100
AcDbEntity
  8
0
100
AcDbLine
 10
17.49999999999998
 20
26.00000000000005
 30
0.0
 11
17.49999999999998
 21
26.00508000000005
 31
0.0
  0
LINE
  5
90B
330
8F4
100
AcDbEntity
  8
0
100
AcDbLine
 10
17.49999999999998
 20
26.00508000000005
 30
0.0
 11
17.50507999999998
 21
26.00508000000005
 31
0.0
  0
LINE
  5
90C
330
8F4
100
AcDbEntity
  8
0
100
AcDbLine
 10
17.50507999999998
 20
26.00508000000005
 30
0.0
 11
17.50507999999998
 21
7.999999999999976
 31
0.0
  0
LINE
  5
90D
330
8F4
100
AcDbEntity
  8
0
100
AcDbLine
 10
-17.5
 20
18.00000000000004
 30
0.0
 11
-17.5
 21
14.00000000000011
 31
0.0
  0
LINE
  5
90E
330
8F4
100
AcDbEntity
  8
0
100
AcDbLine
 10
17.49999999999998
 20
18.00000000000004
 30
0.0
 11
17.49999999999998
 21
14.00000000000012
 31
0.0
  0
LINE
  5
90F
330
8F4
100
AcDbEntity
  8
0
100
AcDbLine
 10
-17.5
 20
18.00000000000004
 30
0.0
 11
17.49999999999998
 21
18.00000000000004
 31
0.0
  0
LINE
  5
910
330
8F4
100
AcDbEntity
  8
0
100
AcDbLine
 10
17.49999999999998
 20
18.00000000000003
 30
0.0
 11
17.49999999999998
 21
26.00000000000005
 31
0.0
  0
LINE
  5
911
330
8F4
100
AcDbEntity
  8
0
100
AcDbLine
 10
-17.5
 20
18.00000000000003
 30
0.0
 11
-17.5
 21
26.00000000000005
 31
0.0
  0
LINE
  5
912
330
8F4
100
AcDbEntity
  8
0
100
AcDbLine
 10
-17.5
 20
14.00000000000004
 30
0.0
 11
-17.5
 21
7.999999999999912
 31
0.0
  0
LINE
  5
913
330
8F4
100
AcDbEntity
  8
0
100
AcDbLine
 10
17.49999999999999
 20
7.999999999999912
 30
0.0
 11
17.5
 21
14.00000000000013
 31
0.0
  0
LINE
  5
914
330
8F4
100
AcDbEntity
  8
0
100
AcDbLine
 10
17.49999999999998
 20
0.0
 30
0.0
 11
17.49999999999996
 21
7.999999999999976
 31
0.0
  0
LINE
  5
915
330
8F4
100
AcDbEntity
  8
0
100
AcDbLine
 10
-17.50000000000001
 20
7.999999999999985
 30
0.0
 11
-17.50000000000001
 21
0.0
 31
0.0
  0
ARC
  5
916
330
8F4
100
AcDbEntity
  8
0
100
AcDbCircle
 10
-20.75253999999998
 20
-2.500000000000017
 30
0.0
 40
2.5
100
AcDbArc
 50
90.0
 51
116.2601875437368
  0
LINE
  5
917
330
8F4
100
AcDbEntity
  8
0
100
AcDbLine
 10
-24.61548183484867
 20
-1.618138117063772
 30
0.0
 11
-21.85866038185897
 21
-0.2580147857677506
 31
0.0
  0
ARC
  5
918
330
8F4
100
AcDbEntity
  8
0
100
AcDbCircle
 10
-26.25253999999998
 20
1.699999999999981
 30
0.0
 40
3.700000000000001
100
AcDbArc
 50
243.7398124562631
 51
296.2601875437368
  0
ARC
  5
919
330
8F4
100
AcDbEntity
  8
0
100
AcDbCircle
 10
-31.75253999999998
 20
-2.500000000000008
 30
0.0
 40
2.5
100
AcDbArc
 50
63.73981245626318
 51
90.0
  0
LINE
  5
91A
330
8F4
100
AcDbEntity
  8
0
100
AcDbLine
 10
-27.88959816515129
 20
-1.618138117063756
 30
0.0
 11
-30.64641961814098
 21
-0.2580147857677351
 31
0.0
  0
LINE
  5
91B
330
8F4
100
AcDbEntity
  8
0
100
AcDbLine
 10
35.0
 20
97.0
 30
0.0
 11
34.99999999999999
 21
7.999999999999989
 31
0.0
  0
LINE
  5
91C
330
8F4
100
AcDbEntity
  8
0
100
AcDbLine
 10
-28.0
 20
104.0
 30
0.0
 11
28.0
 21
104.0
 31
0.0
  0
LINE
  5
91D
330
8F4
100
AcDbEntity
  8
0
100
AcDbLine
 10
-35.0
 20
8.000000000000007
 30
0.0
 11
-35.0
 21
97.0
 31
0.0
  0
LINE
  5
91E
330
8F4
100
AcDbEntity
  8
0
100
AcDbLine
 10
28.0
 20
104.0
 30
0.0
 11
35.0
 21
97.0
 31
0.0
  0
LINE
  5
91F
330
8F4
100
AcDbEntity
  8
0
100
AcDbLine
 10
-35.0
 20
97.0
 30
0.0
 11
-28.0
 21
104.0
 31
0.0
  0
CIRCLE
  5
920
330
8F4
100
AcDbEntity
  8
0
100
AcDbCircle
 10
-22.5
 20
84.99999999999998
 30
0.0
 40
4.5
  0
CIRCLE
  5
921
330
8F4
100
AcDbEntity
  8
0
100
AcDbCircle
 10
17.5
 20
72.0
 30
0.0
 40
4.5
  0
CIRCLE
  5
922
330
8F4
100
AcDbEntity
  8
0
100
AcDbCircle
 10
-12.5
 20
92.0
 30
0.0
 40
3.0
  0
CIRCLE
  5
923
330
8F4
100
AcDbEntity
  8
0
100
AcDbCircle
 10
7.5
 20
92.0
 30
0.0
 40
3.0
  0
CIRCLE
  5
924
330
8F4
100
AcDbEntity
  8
0
100
AcDbCircle
 10
27.5
 20
92.0
 30
0.0
 40
3.0
  0
CIRCLE
  5
925
330
8F4
100
AcDbEntity
  8
0
100
AcDbCircle
 10
-27.5
 20
71.99999999999999
 30
0.0
 40
3.0
  0
CIRCLE
  5
926
330
8F4
100
AcDbEntity
  8
0
100
AcDbCircle
 10
-2.500000000000004
 20
71.99999999999999
 30
0.0
 40
3.0
  0
CIRCLE
  5
927
330
8F4
100
AcDbEntity
  8
0
100
AcDbCircle
 10
0.0
 20
51.99999999999999
 30
0.0
 40
5.5
  0
ARC
  5
928
330
8F4
100
AcDbEntity
  8
0
100
AcDbCircle
 10
12.5
 20
92.00000000000002
 30
0.0
 40
3.000000000000004
100
AcDbArc
 50
146.4426902380797
 51
213.557309761921
  0
ARC
  5
929
330
8F4
100
AcDbEntity
  8
0
100
AcDbCircle
 10
-7.5
 20
92.00000000000002
 30
0.0
 40
3.000000000000004
100
AcDbArc
 50
146.4426902380798
 51
213.557309761921
  0
ARC
  5
92A
330
8F4
100
AcDbEntity
  8
0
100
AcDbCircle
 10
2.5
 20
72.00000000000001
 30
0.0
 40
2.999999999999997
100
AcDbArc
 50
146.4426902380798
 51
213.5573097619209
  0
ENDBLK
  5
8F6
330
8F4
100
AcDbEntity
  8
0
100
AcDbBlockEnd
  0
BLOCK
  5
92C
330
92B
100
AcDbEntity
  8
0
100
AcDbBlockBegin
  2
PU140-B-Top
 70
     0
 10
0.0
 20
0.0
 30
0.0
  3
PU140-B-Top
  1

  0
ARC
  5
92E
330
92B
100
AcDbEntity
  8
0
100
AcDbCircle
 10
76.49999999999998
 20
20.75254000000002
 30
0.0
 40
2.5
100
AcDbArc
 50
153.7398124562632
 51
180.0
  0
LINE
  5
92F
330
92B
100
AcDbEntity
  8
0
100
AcDbLine
 10
74.25801478576771
 20
21.85866038185901
 30
0.0
 11
75.61813811706374
 21
24.6154818348487
 31
0.0
  0
ARC
  5
930
330
92B
100
AcDbEntity
  8
0
100
AcDbCircle
 10
-76.50000000000003
 20
20.75254000000001
 30
0.0
 40
2.5
100
AcDbArc
 50
0.0
 51
26.26018754373682
  0
LINE
  5
931
330
92B
100
AcDbEntity
  8
0
100
AcDbLine
 10
-75.61813811706375
 20
24.6154818348487
 30
0.0
 11
-74.25801478576774
 21
21.858660381859
 31
0.0
  0
ARC
  5
932
330
92B
100
AcDbEntity
  8
0
100
AcDbCircle
 10
-72.30000000000003
 20
26.25254
 30
0.0
 40
3.7
100
AcDbArc
 50
153.7398124562631
 51
206.2601875437367
  0
ARC
  5
933
330
92B
100
AcDbEntity
  8
0
100
AcDbCircle
 10
-76.50000000000003
 20
31.75253999999999
 30
0.0
 40
2.5
100
AcDbArc
 50
333.7398124562632
 51
0.0
  0
LINE
  5
934
330
92B
100
AcDbEntity
  8
0
100
AcDbLine
 10
-75.61813811706375
 20
27.88959816515131
 30
0.0
 11
-74.25801478576774
 21
30.646419618141
 31
0.0
  0
ARC
  5
935
330
92B
100
AcDbEntity
  8
0
100
AcDbCircle
 10
72.29999999999998
 20
26.25254000000002
 30
0.0
 40
3.7
100
AcDbArc
 50
333.7398124562632
 51
26.2601875437368
  0
ARC
  5
936
330
92B
100
AcDbEntity
  8
0
100
AcDbCircle
 10
76.49999999999998
 20
31.75253999999999
 30
0.0
 40
2.5
100
AcDbArc
 50
180.0
 51
206.2601875437367
  0
LINE
  5
937
330
92B
100
AcDbEntity
  8
0
100
AcDbLine
 10
75.61813811706374
 20
27.88959816515129
 30
0.0
 11
74.25801478576771
 21
30.64641961814098
 31
0.0
  0
LINE
  5
938
330
92B
100
AcDbEntity
  8
0
100
AcDbLine
 10
-73.99999999999998
 20
-27.99999999999999
 30
0.0
 11
-73.99999999999998
 21
-35.0
 31
0.0
  0
LINE
  5
939
330
92B
100
AcDbEntity
  8
0
100
AcDbLine
 10
-73.99999999999998
 20
34.99999999999996
 30
0.0
 11
-73.99999999999998
 21
27.99999999999995
 31
0.0
  0
LINE
  5
93A
330
92B
100
AcDbEntity
  8
0
100
AcDbLine
 10
69.99999999999997
 20
-28.0
 30
0.0
 11
69.99999999999997
 21
-35.0
 31
0.0
  0
LINE
  5
93B
330
92B
100
AcDbEntity
  8
0
100
AcDbLine
 10
69.99999999999997
 20
35.0
 30
0.0
 11
69.99999999999997
 21
28.0
 31
0.0
  0
LINE
  5
93C
330
92B
100
AcDbEntity
  8
0
100
AcDbLine
 10
73.99999999999997
 20
28.0
 30
0.0
 11
73.99999999999997
 21
35.0
 31
0.0
  0
LINE
  5
93D
330
92B
100
AcDbEntity
  8
0
100
AcDbLine
 10
73.99999999999997
 20
-35.0
 30
0.0
 11
73.99999999999997
 21
-28.0
 31
0.0
  0
LINE
  5
93E
330
92B
100
AcDbEntity
  8
0
100
AcDbLine
 10
-69.99999999999999
 20
27.99999999999995
 30
0.0
 11
-69.99999999999999
 21
34.99999999999996
 31
0.0
  0
LINE
  5
93F
330
92B
100
AcDbEntity
  8
0
100
AcDbLine
 10
-69.99999999999999
 20
-35.0
 30
0.0
 11
-69.99999999999999
 21
-27.99999999999999
 31
0.0
  0
LINE
  5
940
330
92B
100
AcDbEntity
  8
0
100
AcDbLine
 10
-69.99999999999999
 20
34.99999999999996
 30
0.0
 11
-73.99999999999998
 21
34.99999999999996
 31
0.0
  0
LINE
  5
941
330
92B
100
AcDbEntity
  8
0
100
AcDbLine
 10
-69.99999999999999
 20
-27.99999999999999
 30
0.0
 11
-73.99999999999998
 21
-27.99999999999999
 31
0.0
  0
LINE
  5
942
330
92B
100
AcDbEntity
  8
0
100
AcDbLine
 10
-73.99999999999998
 20
-35.0
 30
0.0
 11
-69.99999999999999
 21
-35.0
 31
0.0
  0
LINE
  5
943
330
92B
100
AcDbEntity
  8
0
100
AcDbLine
 10
-73.99999999999998
 20
27.99999999999995
 30
0.0
 11
-69.99999999999999
 21
27.99999999999995
 31
0.0
  0
LINE
  5
944
330
92B
100
AcDbEntity
  8
0
100
AcDbLine
 10
69.99999999999997
 20
-35.0
 30
0.0
 11
73.99999999999997
 21
-35.0
 31
0.0
  0
LINE
  5
945
330
92B
100
AcDbEntity
  8
0
100
AcDbLine
 10
73.99999999999997
 20
-28.0
 30
0.0
 11
69.99999999999997
 21
-28.0
 31
0.0
  0
LINE
  5
946
330
92B
100
AcDbEntity
  8
0
100
AcDbLine
 10
69.99999999999997
 20
28.0
 30
0.0
 11
73.99999999999997
 21
28.0
 31
0.0
  0
LINE
  5
947
330
92B
100
AcDbEntity
  8
0
100
AcDbLine
 10
73.99999999999997
 20
35.0
 30
0.0
 11
69.99999999999997
 21
35.0
 31
0.0
  0
LINE
  5
948
330
92B
100
AcDbEntity
  8
0
100
AcDbLine
 10
-73.99999999999998
 20
27.99999999999995
 30
0.0
 11
-73.99999999999998
 21
-27.99999999999999
 31
0.0
  0
LINE
  5
949
330
92B
100
AcDbEntity
  8
0
100
AcDbLine
 10
69.99999999999997
 20
28.0
 30
0.0
 11
69.99999999999997
 21
-28.0
 31
0.0
  0
LINE
  5
94A
330
92B
100
AcDbEntity
  8
0
100
AcDbLine
 10
73.99999999999997
 20
-28.0
 30
0.0
 11
73.99999999999997
 21
28.0
 31
0.0
  0
LINE
  5
94B
330
92B
100
AcDbEntity
  8
0
100
AcDbLine
 10
-66.00000000000001
 20
34.99999999999997
 30
0.0
 11
66.0
 21
34.99999999999999
 31
0.0
  0
LINE
  5
94C
330
92B
100
AcDbEntity
  8
0
100
AcDbLine
 10
65.99999999999997
 20
-35.0
 30
0.0
 11
-66.0
 21
-35.0
 31
0.0
  0
LINE
  5
94D
330
92B
100
AcDbEntity
  8
0
100
AcDbLine
 10
-69.99999999999999
 20
-27.99999999999999
 30
0.0
 11
-69.99999999999999
 21
27.99999999999995
 31
0.0
  0
LINE
  5
94E
330
92B
100
AcDbEntity
  8
0
100
AcDbLine
 10
66.0
 20
17.5
 30
0.0
 11
66.0
 21
17.50507999999999
 31
0.0
  0
LINE
  5
94F
330
92B
100
AcDbEntity
  8
0
100
AcDbLine
 10
66.0
 20
-17.50508
 30
0.0
 11
47.99492000000006
 21
-17.50508
 31
0.0
  0
LINE
  5
950
330
92B
100
AcDbEntity
  8
0
100
AcDbLine
 10
47.99492000000006
 20
-17.50508
 30
0.0
 11
47.99492000000006
 21
-17.5
 31
0.0
  0
LINE
  5
951
330
92B
100
AcDbEntity
  8
0
100
AcDbLine
 10
47.99492000000006
 20
-17.5
 30
0.0
 11
48.00000000000006
 21
-17.5
 31
0.0
  0
LINE
  5
952
330
92B
100
AcDbEntity
  8
0
100
AcDbLine
 10
48.00000000000006
 20
17.49999999999999
 30
0.0
 11
47.99492000000006
 21
17.49999999999999
 31
0.0
  0
LINE
  5
953
330
92B
100
AcDbEntity
  8
0
100
AcDbLine
 10
47.99492000000006
 20
17.49999999999999
 30
0.0
 11
47.99492000000006
 21
17.50507999999999
 31
0.0
  0
LINE
  5
954
330
92B
100
AcDbEntity
  8
0
100
AcDbLine
 10
47.99492000000006
 20
17.50507999999999
 30
0.0
 11
66.0
 21
17.50507999999999
 31
0.0
  0
LINE
  5
955
330
92B
100
AcDbEntity
  8
0
100
AcDbLine
 10
66.0
 20
-17.50508
 30
0.0
 11
66.0
 21
-17.5
 31
0.0
  0
LINE
  5
956
330
92B
100
AcDbEntity
  8
0
100
AcDbLine
 10
51.99999999999999
 20
-17.49999999999998
 30
0.0
 11
60.00000000000006
 21
-17.5
 31
0.0
  0
LINE
  5
957
330
92B
100
AcDbEntity
  8
0
100
AcDbLine
 10
52.00000000000004
 20
17.5
 30
0.0
 11
52.00000000000004
 21
-17.5
 31
0.0
  0
LINE
  5
958
330
92B
100
AcDbEntity
  8
0
100
AcDbLine
 10
52.00000000000006
 20
17.5
 30
0.0
 11
60.00000000000013
 21
17.49999999999998
 31
0.0
  0
LINE
  5
959
330
92B
100
AcDbEntity
  8
0
100
AcDbLine
 10
48.00000000000005
 20
17.49999999999999
 30
0.0
 11
52.00000000000004
 21
17.49999999999999
 31
0.0
  0
LINE
  5
95A
330
92B
100
AcDbEntity
  8
0
100
AcDbLine
 10
48.00000000000005
 20
-17.5
 30
0.0
 11
52.00000000000004
 21
-17.5
 31
0.0
  0
LINE
  5
95B
330
92B
100
AcDbEntity
  8
0
100
AcDbLine
 10
66.0
 20
-17.5
 30
0.0
 11
60.00000000000006
 21
-17.5
 31
0.0
  0
LINE
  5
95C
330
92B
100
AcDbEntity
  8
0
100
AcDbLine
 10
60.00000000000013
 20
17.49999999999999
 30
0.0
 11
66.0
 21
17.49999999999999
 31
0.0
  0
LINE
  5
95D
330
92B
100
AcDbEntity
  8
0
100
AcDbLine
 10
69.99999999999999
 20
17.49999999999998
 30
0.0
 11
65.99999999999997
 21
17.49999999999998
 31
0.0
  0
LINE
  5
95E
330
92B
100
AcDbEntity
  8
0
100
AcDbLine
 10
69.99999999999999
 20
-17.5
 30
0.0
 11
65.99999999999997
 21
-17.5
 31
0.0
  0
LINE
  5
95F
330
92B
100
AcDbEntity
  8
0
100
AcDbLine
 10
-66.00000000000001
 20
17.50507999999999
 30
0.0
 11
-47.99492000000006
 21
17.50507999999999
 31
0.0
  0
LINE
  5
960
330
92B
100
AcDbEntity
  8
0
100
AcDbLine
 10
-47.99492000000006
 20
17.50507999999999
 30
0.0
 11
-47.99492000000006
 21
17.49999999999999
 31
0.0
  0
LINE
  5
961
330
92B
100
AcDbEntity
  8
0
100
AcDbLine
 10
-47.99492000000006
 20
17.49999999999999
 30
0.0
 11
-48.00000000000006
 21
17.49999999999999
 31
0.0
  0
LINE
  5
962
330
92B
100
AcDbEntity
  8
0
100
AcDbLine
 10
-48.00000000000006
 20
-17.5
 30
0.0
 11
-47.99492000000006
 21
-17.5
 31
0.0
  0
LINE
  5
963
330
92B
100
AcDbEntity
  8
0
100
AcDbLine
 10
-47.99492000000006
 20
-17.5
 30
0.0
 11
-47.99492000000006
 21
-17.50508
 31
0.0
  0
LINE
  5
964
330
92B
100
AcDbEntity
  8
0
100
AcDbLine
 10
-47.99492000000006
 20
-17.50508
 30
0.0
 11
-66.00000000000001
 21
-17.50508
 31
0.0
  0
LINE
  5
965
330
92B
100
AcDbEntity
  8
0
100
AcDbLine
 10
-66.00000000000001
 20
17.50507999999999
 30
0.0
 11
-66.0
 21
17.5
 31
0.0
  0
LINE
  5
966
330
92B
100
AcDbEntity
  8
0
100
AcDbLine
 10
-66.0
 20
-17.5
 30
0.0
 11
-66.00000000000001
 21
-17.50508
 31
0.0
  0
LINE
  5
967
330
92B
100
AcDbEntity
  8
0
100
AcDbLine
 10
-51.99999999999999
 20
-17.49999999999998
 30
0.0
 11
-52.00000000000006
 21
17.5
 31
0.0
  0
LINE
  5
968
330
92B
100
AcDbEntity
  8
0
100
AcDbLine
 10
-51.99999999999999
 20
-17.49999999999998
 30
0.0
 11
-60.00000000000006
 21
-17.5
 31
0.0
  0
LINE
  5
969
330
92B
100
AcDbEntity
  8
0
100
AcDbLine
 10
-52.00000000000007
 20
17.5
 30
0.0
 11
-60.00000000000014
 21
17.49999999999998
 31
0.0
  0
LINE
  5
96A
330
92B
100
AcDbEntity
  8
0
100
AcDbLine
 10
-48.00000000000007
 20
17.49999999999999
 30
0.0
 11
-52.00000000000006
 21
17.49999999999999
 31
0.0
  0
LINE
  5
96B
330
92B
100
AcDbEntity
  8
0
100
AcDbLine
 10
-48.00000000000007
 20
-17.5
 30
0.0
 11
-52.00000000000006
 21
-17.5
 31
0.0
  0
CIRCLE
  5
96C
330
92B
100
AcDbEntity
  8
0
100
AcDbCircle
 10
15.0
 20
-12.5
 30
0.0
 40
4.5
  0
CIRCLE
  5
96D
330
92B
100
AcDbEntity
  8
0
100
AcDbCircle
 10
-15.0
 20
12.49999999999998
 30
0.0
 40
4.5
  0
ARC
  5
96E
330
92B
100
AcDbEntity
  8
0
100
AcDbCircle
 10
1.499999999999996
 20
0.0
 30
0.0
 40
8.5
100
AcDbArc
 50
270.0
 51
90.00000000000007
  0
LINE
  5
96F
330
92B
100
AcDbEntity
  8
0
100
AcDbLine
 10
1.499999999999996
 20
-8.500000000000001
 30
0.0
 11
-1.500000000000001
 21
-8.500000000000001
 31
0.0
  0
ARC
  5
970
330
92B
100
AcDbEntity
  8
0
100
AcDbCircle
 10
-1.500000000000005
 20
-0.0000000000000006
 30
0.0
 40
8.5
100
AcDbArc
 50
89.99999999999998
 51
270.0
  0
LINE
  5
971
330
92B
100
AcDbEntity
  8
0
100
AcDbLine
 10
-1.500000000000003
 20
8.499999999999984
 30
0.0
 11
1.49999999999999
 21
8.499999999999984
 31
0.0
  0
ARC
  5
972
330
92B
100
AcDbEntity
  8
0
100
AcDbCircle
 10
76.49999999999998
 20
-20.75254000000002
 30
0.0
 40
2.5
100
AcDbArc
 50
180.0
 51
206.2601875437367
  0
LINE
  5
973
330
92B
100
AcDbEntity
  8
0
100
AcDbLine
 10
74.25801478576771
 20
-21.85866038185901
 30
0.0
 11
75.61813811706374
 21
-24.6154818348487
 31
0.0
  0
ARC
  5
974
330
92B
100
AcDbEntity
  8
0
100
AcDbCircle
 10
-76.50000000000003
 20
-20.75254000000001
 30
0.0
 40
2.5
100
AcDbArc
 50
333.7398124562632
 51
0.0
  0
LINE
  5
975
330
92B
100
AcDbEntity
  8
0
100
AcDbLine
 10
-75.61813811706375
 20
-24.6154818348487
 30
0.0
 11
-74.25801478576774
 21
-21.858660381859
 31
0.0
  0
ARC
  5
976
330
92B
100
AcDbEntity
  8
0
100
AcDbCircle
 10
-72.30000000000003
 20
-26.25254
 30
0.0
 40
3.7
100
AcDbArc
 50
153.7398124562633
 51
206.2601875437368
  0
ARC
  5
977
330
92B
100
AcDbEntity
  8
0
100
AcDbCircle
 10
-76.50000000000003
 20
-31.75253999999999
 30
0.0
 40
2.5
100
AcDbArc
 50
0.0
 51
26.26018754373682
  0
LINE
  5
978
330
92B
100
AcDbEntity
  8
0
100
AcDbLine
 10
-75.61813811706375
 20
-27.88959816515131
 30
0.0
 11
-74.25801478576774
 21
-30.646419618141
 31
0.0
  0
ARC
  5
979
330
92B
100
AcDbEntity
  8
0
100
AcDbCircle
 10
72.29999999999998
 20
-26.25254000000002
 30
0.0
 40
3.7
100
AcDbArc
 50
333.7398124562632
 51
26.26018754373687
  0
ARC
  5
97A
330
92B
100
AcDbEntity
  8
0
100
AcDbCircle
 10
76.49999999999998
 20
-31.75253999999999
 30
0.0
 40
2.5
100
AcDbArc
 50
153.7398124562632
 51
180.0
  0
LINE
  5
97B
330
92B
100
AcDbEntity
  8
0
100
AcDbLine
 10
75.61813811706374
 20
-27.88959816515129
 30
0.0
 11
74.25801478576771
 21
-30.64641961814098
 31
0.0
  0
LINE
  5
97C
330
92B
100
AcDbEntity
  8
0
100
AcDbLine
 10
65.99999999999996
 20
-35.00000000000002
 30
0.0
 11
70.0
 21
-35.00000000000002
 31
0.0
  0
LINE
  5
97D
330
92B
100
AcDbEntity
  8
0
100
AcDbLine
 10
70.0
 20
34.99999999999996
 30
0.0
 11
66.0
 21
34.99999999999999
 31
0.0
  0
LINE
  5
97E
330
92B
100
AcDbEntity
  8
0
100
AcDbLine
 10
-70.0
 20
-34.99999999999996
 30
0.0
 11
-66.0
 21
-35.0
 31
0.0
  0
LINE
  5
97F
330
92B
100
AcDbEntity
  8
0
100
AcDbLine
 10
-65.99999999999996
 20
34.99999999999996
 30
0.0
 11
-70.0
 21
34.99999999999996
 31
0.0
  0
LINE
  5
980
330
92B
100
AcDbEntity
  8
0
100
AcDbLine
 10
-66.0
 20
-17.5
 30
0.0
 11
-60.00000000000006
 21
-17.5
 31
0.0
  0
LINE
  5
981
330
92B
100
AcDbEntity
  8
0
100
AcDbLine
 10
-60.00000000000014
 20
17.49999999999999
 30
0.0
 11
-66.0
 21
17.49999999999998
 31
0.0
  0
LINE
  5
982
330
92B
100
AcDbEntity
  8
0
100
AcDbLine
 10
-70.00000000000001
 20
17.49999999999998
 30
0.0
 11
-66.0
 21
17.49999999999998
 31
0.0
  0
LINE
  5
983
330
92B
100
AcDbEntity
  8
0
100
AcDbLine
 10
-70.00000000000001
 20
-17.5
 30
0.0
 11
-66.0
 21
-17.5
 31
0.0
  0
ENDBLK
  5
92D
330
92B
100
AcDbEntity
  8
0
100
AcDbBlockEnd
  0
BLOCK
  5
985
330
984
100
AcDbEntity
  8
0
100
AcDbBlockBegin
  2
PU140-B-Bottom
 70
     0
 10
0.0
 20
0.0
 30
0.0
  3
PU140-B-Bottom
  1

  0
ARC
  5
987
330
984
100
AcDbEntity
  8
0
100
AcDbCircle
 10
76.5
 20
-20.75253999999998
 30
0.0
 40
2.5
100
AcDbArc
 50
180.0
 51
206.2601875437367
  0
LINE
  5
988
330
984
100
AcDbEntity
  8
0
100
AcDbLine
 10
75.61813811706375
 20
-24.61548183484867
 30
0.0
 11
74.25801478576774
 21
-21.85866038185897
 31
0.0
  0
ARC
  5
989
330
984
100
AcDbEntity
  8
0
100
AcDbCircle
 10
-76.50000000000003
 20
-20.75253999999998
 30
0.0
 40
2.5
100
AcDbArc
 50
333.7398124562632
 51
0.0
  0
LINE
  5
98A
330
984
100
AcDbEntity
  8
0
100
AcDbLine
 10
-75.61813811706378
 20
-24.61548183484867
 30
0.0
 11
-74.25801478576774
 21
-21.85866038185897
 31
0.0
  0
ARC
  5
98B
330
984
100
AcDbEntity
  8
0
100
AcDbCircle
 10
-72.30000000000003
 20
-26.25253999999998
 30
0.0
 40
3.7
100
AcDbArc
 50
153.7398124562633
 51
206.2601875437368
  0
ARC
  5
98C
330
984
100
AcDbEntity
  8
0
100
AcDbCircle
 10
-76.5
 20
-31.75253999999999
 30
0.0
 40
2.5
100
AcDbArc
 50
0.0
 51
26.26018754373682
  0
LINE
  5
98D
330
984
100
AcDbEntity
  8
0
100
AcDbLine
 10
-75.61813811706374
 20
-27.8895981651513
 30
0.0
 11
-74.25801478576772
 21
-30.64641961814099
 31
0.0
  0
ARC
  5
98E
330
984
100
AcDbEntity
  8
0
100
AcDbCircle
 10
72.30000000000001
 20
-26.25253999999998
 30
0.0
 40
3.7
100
AcDbArc
 50
333.7398124562631
 51
26.26018754373671
  0
ARC
  5
98F
330
984
100
AcDbEntity
  8
0
100
AcDbCircle
 10
76.5
 20
-31.75253999999998
 30
0.0
 40
2.5
100
AcDbArc
 50
153.7398124562632
 51
180.0
  0
LINE
  5
990
330
984
100
AcDbEntity
  8
0
100
AcDbLine
 10
75.61813811706374
 20
-27.88959816515129
 30
0.0
 11
74.25801478576772
 21
-30.64641961814098
 31
0.0
  0
LINE
  5
991
330
984
100
AcDbEntity
  8
0
100
AcDbLine
 10
-74.0
 20
-20.75254000000001
 30
0.0
 11
-74.0
 21
-17.50507999999998
 31
0.0
  0
LINE
  5
992
330
984
100
AcDbEntity
  8
0
100
AcDbLine
 10
-74.0
 20
17.50508
 30
0.0
 11
-74.0
 21
20.75254000000001
 31
0.0
  0
LINE
  5
993
330
984
100
AcDbEntity
  8
0
100
AcDbLine
 10
-73.99999999999998
 20
31.75254000000001
 30
0.0
 11
-74.0
 21
35.0
 31
0.0
  0
LINE
  5
994
330
984
100
AcDbEntity
  8
0
100
AcDbLine
 10
-74.0
 20
-34.99999999999997
 30
0.0
 11
-73.99999999999998
 21
-31.75254000000001
 31
0.0
  0
LINE
  5
995
330
984
100
AcDbEntity
  8
0
100
AcDbLine
 10
-74.0
 20
34.99999999999994
 30
0.0
 11
-66.0
 21
35.0
 31
0.0
  0
LINE
  5
996
330
984
100
AcDbEntity
  8
0
100
AcDbLine
 10
-65.99999999999996
 20
-34.99999999999997
 30
0.0
 11
-74.0
 21
-34.99999999999996
 31
0.0
  0
LINE
  5
997
330
984
100
AcDbEntity
  8
0
100
AcDbLine
 10
-74.0
 20
-17.49999999999998
 30
0.0
 11
-74.0
 21
17.5
 31
0.0
  0
LINE
  5
998
330
984
100
AcDbEntity
  8
0
100
AcDbLine
 10
-74.0
 20
-17.50507999999998
 30
0.0
 11
-74.0
 21
-17.5
 31
0.0
  0
LINE
  5
999
330
984
100
AcDbEntity
  8
0
100
AcDbLine
 10
-74.0
 20
17.5
 30
0.0
 11
-74.0
 21
17.50508
 31
0.0
  0
LINE
  5
99A
330
984
100
AcDbEntity
  8
0
100
AcDbLine
 10
-66.00000000000001
 20
-17.5
 30
0.0
 11
-66.00000000000001
 21
-17.50507999999999
 31
0.0
  0
LINE
  5
99B
330
984
100
AcDbEntity
  8
0
100
AcDbLine
 10
-66.00000000000001
 20
17.50508
 30
0.0
 11
-47.99492000000006
 21
17.50508
 31
0.0
  0
LINE
  5
99C
330
984
100
AcDbEntity
  8
0
100
AcDbLine
 10
-47.99492000000006
 20
17.50508
 30
0.0
 11
-47.99492000000006
 21
17.5
 31
0.0
  0
LINE
  5
99D
330
984
100
AcDbEntity
  8
0
100
AcDbLine
 10
-47.99492000000006
 20
17.5
 30
0.0
 11
-48.00000000000006
 21
17.5
 31
0.0
  0
LINE
  5
99E
330
984
100
AcDbEntity
  8
0
100
AcDbLine
 10
-48.00000000000006
 20
-17.49999999999999
 30
0.0
 11
-47.99492000000006
 21
-17.49999999999999
 31
0.0
  0
LINE
  5
99F
330
984
100
AcDbEntity
  8
0
100
AcDbLine
 10
-47.99492000000006
 20
-17.49999999999999
 30
0.0
 11
-47.99492000000006
 21
-17.50507999999999
 31
0.0
  0
LINE
  5
9A0
330
984
100
AcDbEntity
  8
0
100
AcDbLine
 10
-47.99492000000006
 20
-17.50507999999999
 30
0.0
 11
-66.00000000000001
 21
-17.50507999999999
 31
0.0
  0
LINE
  5
9A1
330
984
100
AcDbEntity
  8
0
100
AcDbLine
 10
-66.00000000000001
 20
17.50508
 30
0.0
 11
-66.00000000000001
 21
17.5
 31
0.0
  0
LINE
  5
9A2
330
984
100
AcDbEntity
  8
0
100
AcDbLine
 10
-56.00000000000004
 20
17.5
 30
0.0
 11
-56.00000000000004
 21
-17.49999999999999
 31
0.0
  0
LINE
  5
9A3
330
984
100
AcDbEntity
  8
0
100
AcDbLine
 10
-60.00000000000006
 20
17.5
 30
0.0
 11
-55.99999999999997
 21
17.5
 31
0.0
  0
LINE
  5
9A4
330
984
100
AcDbEntity
  8
0
100
AcDbLine
 10
-60.00000000000014
 20
-17.49999999999998
 30
0.0
 11
-56.00000000000007
 21
-17.49999999999998
 31
0.0
  0
LINE
  5
9A5
330
984
100
AcDbEntity
  8
0
100
AcDbLine
 10
-56.00000000000005
 20
-17.49999999999999
 30
0.0
 11
-48.00000000000007
 21
-17.49999999999999
 31
0.0
  0
LINE
  5
9A6
330
984
100
AcDbEntity
  8
0
100
AcDbLine
 10
-56.00000000000005
 20
17.5
 30
0.0
 11
-48.00000000000007
 21
17.5
 31
0.0
  0
LINE
  5
9A7
330
984
100
AcDbEntity
  8
0
100
AcDbLine
 10
-74.0
 20
-17.49999999999996
 30
0.0
 11
-66.0
 21
-17.5
 31
0.0
  0
LINE
  5
9A8
330
984
100
AcDbEntity
  8
0
100
AcDbLine
 10
66.0
 20
-17.49999999999998
 30
0.0
 11
74.0
 21
-17.49999999999996
 31
0.0
  0
LINE
  5
9A9
330
984
100
AcDbEntity
  8
0
100
AcDbLine
 10
-66.0
 20
17.5
 30
0.0
 11
-74.0
 21
17.50000000000001
 31
0.0
  0
LINE
  5
9AA
330
984
100
AcDbEntity
  8
0
100
AcDbLine
 10
74.0
 20
17.50000000000001
 30
0.0
 11
66.0
 21
17.50000000000001
 31
0.0
  0
LINE
  5
9AB
330
984
100
AcDbEntity
  8
0
100
AcDbLine
 10
66.0
 20
-17.50507999999999
 30
0.0
 11
47.99492000000006
 21
-17.50507999999999
 31
0.0
  0
LINE
  5
9AC
330
984
100
AcDbEntity
  8
0
100
AcDbLine
 10
47.99492000000006
 20
-17.50507999999999
 30
0.0
 11
47.99492000000006
 21
-17.49999999999999
 31
0.0
  0
LINE
  5
9AD
330
984
100
AcDbEntity
  8
0
100
AcDbLine
 10
47.99492000000006
 20
-17.49999999999999
 30
0.0
 11
48.00000000000006
 21
-17.49999999999999
 31
0.0
  0
LINE
  5
9AE
330
984
100
AcDbEntity
  8
0
100
AcDbLine
 10
48.00000000000006
 20
17.5
 30
0.0
 11
47.99492000000006
 21
17.5
 31
0.0
  0
LINE
  5
9AF
330
984
100
AcDbEntity
  8
0
100
AcDbLine
 10
47.99492000000006
 20
17.5
 30
0.0
 11
47.99492000000006
 21
17.50508
 31
0.0
  0
LINE
  5
9B0
330
984
100
AcDbEntity
  8
0
100
AcDbLine
 10
47.99492000000006
 20
17.50508
 30
0.0
 11
66.0
 21
17.50508
 31
0.0
  0
LINE
  5
9B1
330
984
100
AcDbEntity
  8
0
100
AcDbLine
 10
73.99999999999998
 20
-17.5
 30
0.0
 11
74.0
 21
-17.50507999999998
 31
0.0
  0
LINE
  5
9B2
330
984
100
AcDbEntity
  8
0
100
AcDbLine
 10
66.0
 20
-17.50507999999999
 30
0.0
 11
66.0
 21
-17.5
 31
0.0
  0
LINE
  5
9B3
330
984
100
AcDbEntity
  8
0
100
AcDbLine
 10
66.0
 20
17.5
 30
0.0
 11
66.0
 21
17.50508
 31
0.0
  0
LINE
  5
9B4
330
984
100
AcDbEntity
  8
0
100
AcDbLine
 10
74.0
 20
17.50508
 30
0.0
 11
73.99999999999998
 21
17.5
 31
0.0
  0
LINE
  5
9B5
330
984
100
AcDbEntity
  8
0
100
AcDbLine
 10
73.99999999999998
 20
17.5
 30
0.0
 11
73.99999999999998
 21
-17.49999999999998
 31
0.0
  0
LINE
  5
9B6
330
984
100
AcDbEntity
  8
0
100
AcDbLine
 10
60.00000000000006
 20
17.5
 30
0.0
 11
55.99999999999997
 21
17.5
 31
0.0
  0
LINE
  5
9B7
330
984
100
AcDbEntity
  8
0
100
AcDbLine
 10
60.00000000000013
 20
-17.49999999999998
 30
0.0
 11
56.00000000000004
 21
-17.49999999999998
 31
0.0
  0
LINE
  5
9B8
330
984
100
AcDbEntity
  8
0
100
AcDbLine
 10
56.00000000000004
 20
-17.49999999999999
 30
0.0
 11
48.00000000000005
 21
-17.49999999999999
 31
0.0
  0
LINE
  5
9B9
330
984
100
AcDbEntity
  8
0
100
AcDbLine
 10
56.00000000000004
 20
17.5
 30
0.0
 11
48.00000000000005
 21
17.5
 31
0.0
  0
LINE
  5
9BA
330
984
100
AcDbEntity
  8
0
100
AcDbLine
 10
56.00000000000004
 20
-17.49999999999999
 30
0.0
 11
56.00000000000004
 21
17.50000000000001
 31
0.0
  0
LINE
  5
9BB
330
984
100
AcDbEntity
  8
0
100
AcDbLine
 10
66.0
 20
17.5
 30
0.0
 11
60.00000000000006
 21
17.5
 31
0.0
  0
LINE
  5
9BC
330
984
100
AcDbEntity
  8
0
100
AcDbLine
 10
60.00000000000013
 20
-17.49999999999999
 30
0.0
 11
66.0
 21
-17.49999999999999
 31
0.0
  0
CIRCLE
  5
9BD
330
984
100
AcDbEntity
  8
0
100
AcDbCircle
 10
15.0
 20
12.5
 30
0.0
 40
4.5
  0
CIRCLE
  5
9BE
330
984
100
AcDbEntity
  8
0
100
AcDbCircle
 10
-15.0
 20
-12.49999999999998
 30
0.0
 40
4.5
  0
ARC
  5
9BF
330
984
100
AcDbEntity
  8
0
100
AcDbCircle
 10
1.499999999999996
 20
0.0
 30
0.0
 40
8.5
100
AcDbArc
 50
270.0
 51
90.0
  0
LINE
  5
9C0
330
984
100
AcDbEntity
  8
0
100
AcDbLine
 10
1.49999999999999
 20
-8.499999999999984
 30
0.0
 11
-1.500000000000003
 21
-8.499999999999984
 31
0.0
  0
ARC
  5
9C1
330
984
100
AcDbEntity
  8
0
100
AcDbCircle
 10
-1.500000000000005
 20
0.0000000000000006
 30
0.0
 40
8.5
100
AcDbArc
 50
90.0
 51
270.0
  0
LINE
  5
9C2
330
984
100
AcDbEntity
  8
0
100
AcDbLine
 10
-1.500000000000001
 20
8.500000000000001
 30
0.0
 11
1.499999999999996
 21
8.500000000000001
 31
0.0
  0
LINE
  5
9C3
330
984
100
AcDbEntity
  8
0
100
AcDbLine
 10
74.0
 20
-17.50507999999998
 30
0.0
 11
73.99999999999998
 21
-20.75254000000001
 31
0.0
  0
LINE
  5
9C4
330
984
100
AcDbEntity
  8
0
100
AcDbLine
 10
73.99999999999998
 20
20.75254000000001
 30
0.0
 11
74.0
 21
17.50508
 31
0.0
  0
LINE
  5
9C5
330
984
100
AcDbEntity
  8
0
100
AcDbLine
 10
73.99999999999998
 20
35.0
 30
0.0
 11
73.99999999999998
 21
31.75254000000001
 31
0.0
  0
LINE
  5
9C6
330
984
100
AcDbEntity
  8
0
100
AcDbLine
 10
65.99999999999996
 20
35.00000000000002
 30
0.0
 11
74.0
 21
35.00000000000002
 31
0.0
  0
LINE
  5
9C7
330
984
100
AcDbEntity
  8
0
100
AcDbLine
 10
73.99999999999998
 20
-31.75254000000002
 30
0.0
 11
73.99999999999998
 21
-34.99999999999999
 31
0.0
  0
LINE
  5
9C8
330
984
100
AcDbEntity
  8
0
100
AcDbLine
 10
74.0
 20
-34.99999999999993
 30
0.0
 11
66.0
 21
-34.99999999999999
 31
0.0
  0
ARC
  5
9C9
330
984
100
AcDbEntity
  8
0
100
AcDbCircle
 10
76.5
 20
20.75253999999998
 30
0.0
 40
2.5
100
AcDbArc
 50
153.7398124562632
 51
180.0
  0
LINE
  5
9CA
330
984
100
AcDbEntity
  8
0
100
AcDbLine
 10
75.61813811706375
 20
24.61548183484867
 30
0.0
 11
74.25801478576774
 21
21.85866038185897
 31
0.0
  0
ARC
  5
9CB
330
984
100
AcDbEntity
  8
0
100
AcDbCircle
 10
-76.50000000000003
 20
20.75253999999998
 30
0.0
 40
2.5
100
AcDbArc
 50
0.0
 51
26.26018754373682
  0
LINE
  5
9CC
330
984
100
AcDbEntity
  8
0
100
AcDbLine
 10
-75.61813811706378
 20
24.61548183484867
 30
0.0
 11
-74.25801478576774
 21
21.85866038185897
 31
0.0
  0
ARC
  5
9CD
330
984
100
AcDbEntity
  8
0
100
AcDbCircle
 10
-72.30000000000003
 20
26.25253999999998
 30
0.0
 40
3.7
100
AcDbArc
 50
153.7398124562631
 51
206.2601875437367
  0
ARC
  5
9CE
330
984
100
AcDbEntity
  8
0
100
AcDbCircle
 10
-76.5
 20
31.75253999999999
 30
0.0
 40
2.5
100
AcDbArc
 50
333.7398124562632
 51
0.0
  0
LINE
  5
9CF
330
984
100
AcDbEntity
  8
0
100
AcDbLine
 10
-75.61813811706374
 20
27.8895981651513
 30
0.0
 11
-74.25801478576772
 21
30.64641961814099
 31
0.0
  0
ARC
  5
9D0
330
984
100
AcDbEntity
  8
0
100
AcDbCircle
 10
72.30000000000001
 20
26.25253999999998
 30
0.0
 40
3.7
100
AcDbArc
 50
333.7398124562633
 51
26.26018754373687
  0
ARC
  5
9D1
330
984
100
AcDbEntity
  8
0
100
AcDbCircle
 10
76.5
 20
31.75253999999998
 30
0.0
 40
2.5
100
AcDbArc
 50
180.0
 51
206.2601875437367
  0
LINE
  5
9D2
330
984
100
AcDbEntity
  8
0
100
AcDbLine
 10
75.61813811706374
 20
27.88959816515129
 30
0.0
 11
74.25801478576772
 21
30.64641961814098
 31
0.0
  0
LINE
  5
9D3
330
984
100
AcDbEntity
  8
0
100
AcDbLine
 10
66.0
 20
-34.99999999999999
 30
0.0
 11
-66.00000000000001
 21
-34.99999999999997
 31
0.0
  0
LINE
  5
9D4
330
984
100
AcDbEntity
  8
0
100
AcDbLine
 10
-66.0
 20
35.0
 30
0.0
 11
65.99999999999997
 21
35.0
 31
0.0
  0
LINE
  5
9D5
330
984
100
AcDbEntity
  8
0
100
AcDbLine
 10
-66.0
 20
17.5
 30
0.0
 11
-60.00000000000006
 21
17.5
 31
0.0
  0
LINE
  5
9D6
330
984
100
AcDbEntity
  8
0
100
AcDbLine
 10
-60.00000000000014
 20
-17.49999999999999
 30
0.0
 11
-66.0
 21
-17.49999999999998
 31
0.0
  0
ENDBLK
  5
986
330
984
100
AcDbEntity
  8
0
100
AcDbBlockEnd
  0
BLOCK
  5
9D8
330
9D7
100
AcDbEntity
  8
0
100
AcDbBlockBegin
  2
PU140-B-ISO
 70
     0
 10
0.0
 20
0.0
 30
0.0
  3
PU140-B-ISO
  1

  0
ELLIPSE
  5
9DA
330
9D7
100
AcDbEntity
  8
0
100
AcDbEllipse
 10
68.76793052161595
 20
-57.8681582225948
 30
0.0
 11
-2.5
 21
-0.0000000000000012
 31
0.0
210
0.0
220
0.0
230
1.0
 40
0.5773502691896255
 41
5.039460408952729
 42
5.497787143782138
  0
LINE
  5
9DB
330
9D7
100
AcDbEntity
  8
0
100
AcDbLine
 10
67.9647527961335
 20
-56.50129983669806
 30
0.0
 11
67.9647527961335
 21
-20.98369856634197
 31
0.0
  0
ELLIPSE
  5
9DC
330
9D7
100
AcDbEntity
  8
0
100
AcDbEllipse
 10
68.76793052161596
 20
-22.35055695223872
 30
0.0
 11
2.5
 21
-0.0000000000001493
 31
0.0
210
0.0
220
0.0
230
1.0
 40
0.5773502691896258
 41
1.897867755363064
 42
2.356194490192581
  0
LINE
  5
9DD
330
9D7
100
AcDbEntity
  8
0
100
AcDbLine
 10
67.00016356864961
 20
-56.84753749643513
 30
0.0
 11
67.00016356864961
 21
-21.32993622607906
 31
0.0
  0
LINE
  5
9DE
330
9D7
100
AcDbEntity
  8
0
100
AcDbLine
 10
70.87587237087252
 20
-55.93110021622253
 30
0.0
 11
67.9647527961335
 21
-56.50129983669806
 31
0.0
  0
LINE
  5
9DF
330
9D7
100
AcDbEntity
  8
0
100
AcDbLine
 10
70.87587237087252
 20
-55.93110021622253
 30
0.0
 11
70.87587237087252
 21
-20.41349894586644
 31
0.0
  0
LINE
  5
9E0
330
9D7
100
AcDbEntity
  8
0
100
AcDbLine
 10
67.9647527961335
 20
-20.98369856634197
 30
0.0
 11
70.87587237087252
 21
-20.41349894586644
 31
0.0
  0
ELLIPSE
  5
9E1
330
9D7
100
AcDbEntity
  8
0
100
AcDbEllipse
 10
61.34330931915719
 20
-58.88877894875445
 30
0.0
 11
1.249999999999996
 21
2.16506350946109
 31
0.0
210
0.0
220
0.0
230
1.0
 40
0.577350269189626
 41
0.4824694511862467
 42
0.7853981633974536
  0
ELLIPSE
  5
9E2
330
9D7
100
AcDbEntity
  8
0
100
AcDbEllipse
 10
61.34330931915721
 20
-53.58155117272423
 30
0.0
 11
-1.999999999999793
 21
3.464101615137872
 31
0.0
210
0.0
220
0.0
230
1.0
 40
0.5773502691896259
 41
2.356194490192633
 42
2.52902117322068
  0
ELLIPSE
  5
9E3
330
9D7
100
AcDbEntity
  8
0
100
AcDbEllipse
 10
62.12545454197837
 20
-53.12997941778309
 30
0.0
 11
4.129007392883868
 21
-7.151650589302365
 31
0.0
210
0.0
220
0.0
230
1.0
 40
0.5773502691896257
 41
6.032553165927074
 42
7.068583470577037
  0
ELLIPSE
  5
9E4
330
9D7
100
AcDbEntity
  8
0
100
AcDbEllipse
 10
61.34330931915721
 20
-53.58155117272423
 30
0.0
 11
3.999999999999999
 21
-6.928203230275512
 31
0.0
210
0.0
220
0.0
230
1.0
 40
0.577350269189626
 41
0.0000000000000048
 42
0.7853981633974524
  0
ELLIPSE
  5
9E5
330
9D7
100
AcDbEntity
  8
0
100
AcDbEllipse
 10
64.07482168590791
 20
-52.00451177248595
 30
0.0
 11
4.809069058531878
 21
-8.329551946484638
 31
0.0
210
0.0
220
0.0
230
0.9999999999999998
 40
0.5773502691896255
 41
5.926827921433108
 42
7.068583470577035
  0
LINE
  5
9E6
330
9D7
100
AcDbEntity
  8
0
100
AcDbLine
 10
-24.39518395093595
 20
-5.513520766608732
 30
0.0
 11
24.74873734152912
 21
-33.88677695384722
 31
0.0
  0
LINE
  5
9E7
330
9D7
100
AcDbEntity
  8
0
100
AcDbLine
 10
55.37427606433157
 20
-51.56843997953451
 30
0.0
 11
61.87543545627125
 21
-55.32188610451555
 31
0.0
  0
LINE
  5
9E8
330
9D7
100
AcDbEntity
  8
0
100
AcDbLine
 10
61.87543545627133
 20
-52.64858131526387
 30
0.0
 11
57.68942592388222
 21
-50.23178758490868
 31
0.0
  0
LINE
  5
9E9
330
9D7
100
AcDbEntity
  8
0
100
AcDbLine
 10
24.74873734152916
 20
-31.2134721645955
 30
0.0
 11
-24.39518395093591
 21
-2.84021597735701
 31
0.0
  0
LINE
  5
9EA
330
9D7
100
AcDbEntity
  8
0
100
AcDbLine
 10
-24.39518395093595
 20
-6.653920007559781
 30
0.0
 11
24.74873734152912
 21
-35.02717619479826
 31
0.0
  0
LINE
  5
9EB
330
9D7
100
AcDbEntity
  8
0
100
AcDbLine
 10
54.38666135121147
 20
-52.13863960001003
 30
0.0
 11
61.8754354562713
 21
-56.46228534546664
 31
0.0
  0
LINE
  5
9EC
330
9D7
100
AcDbEntity
  8
0
100
AcDbLine
 10
61.34330931915721
 20
-56.84753749643514
 30
0.0
 11
53.78696013305314
 21
-52.48487725974714
 31
0.0
  0
LINE
  5
9ED
330
9D7
100
AcDbEntity
  8
0
100
AcDbLine
 10
24.74873734152915
 20
-35.71965151427244
 30
0.0
 11
-24.34536291093797
 21
-7.375159517888074
 31
0.0
  0
ELLIPSE
  5
9EE
330
9D7
100
AcDbEntity
  8
0
100
AcDbEllipse
 10
-29.73204409767012
 20
39.00916110447985
 30
0.0
 11
-3.7
 21
0.0000000000000004
 31
0.0
210
0.0
220
0.0
230
1.0
 40
0.5773502691896255
 41
5.03946040895273
 42
5.956113878611549
  0
LINE
  5
9EF
330
9D7
100
AcDbEntity
  8
0
100
AcDbLine
 10
-33.23589699093476
 20
39.69545912098117
 30
0.0
 11
-33.23589699093477
 21
9.799043393806039
 31
0.0
  0
LINE
  5
9F0
330
9D7
100
AcDbEntity
  8
0
100
AcDbLine
 10
-30.92074713138416
 20
8.462390999180167
 30
0.0
 11
-30.92074713138417
 21
41.03211151560704
 31
0.0
  0
LINE
  5
9F1
330
9D7
100
AcDbEntity
  8
0
100
AcDbLine
 10
-34.22351170405486
 20
38.0147234508624
 30
0.0
 11
-33.23589699093476
 21
39.69545912098117
 31
0.0
  0
LINE
  5
9F2
330
9D7
100
AcDbEntity
  8
0
100
AcDbLine
 10
-34.22351170405486
 20
38.0147234508624
 30
0.0
 11
-34.22351170405486
 21
10.36924301428157
 31
0.0
  0
ELLIPSE
  5
9F3
330
9D7
100
AcDbEntity
  8
0
100
AcDbEllipse
 10
-36.59097987517962
 20
38.47843832687679
 30
0.0
 11
2.499999999999993
 21
-0.0000000000000003
 31
0.0
210
0.0
220
0.0
230
1.0
 40
0.5773502691896255
 41
5.497787143782134
 42
5.956113878611543
  0
LINE
  5
9F4
330
9D7
100
AcDbEntity
  8
0
100
AcDbLine
 10
-34.82321292221325
 20
10.77300905572685
 30
0.0
 11
-34.82321292221323
 21
37.45781760071717
 31
0.0
  0
ELLIPSE
  5
9F5
330
9D7
100
AcDbEntity
  8
0
100
AcDbEllipse
 10
-32.07832206115946
 20
40.3637853182941
 30
0.0
 11
0.8185290825756521
 21
1.417733958493769
 31
0.0
210
0.0
220
0.0
230
0.9999999999999998
 40
0.5773502691896259
 41
5.497787143782144
 42
8.639379797371937
  0
LINE
  5
9F6
330
9D7
100
AcDbEntity
  8
0
100
AcDbLine
 10
-28.00962755664515
 20
41.60231113608255
 30
0.0
 11
-30.92074713138417
 21
41.03211151560704
 31
0.0
  0
ELLIPSE
  5
9F7
330
9D7
100
AcDbEntity
  8
0
100
AcDbEllipse
 10
-31.11656963035
 20
39.80851729347248
 30
0.0
 11
2.196939809070497
 21
3.805211370480769
 31
0.0
210
0.0
220
0.0
230
0.9999999999999998
 40
0.5773502691896261
 41
5.497787143782137
 42
8.639379797371933
  0
ELLIPSE
  5
9F8
330
9D7
100
AcDbEntity
  8
0
100
AcDbEllipse
 10
-28.81280528212761
 20
42.96916952197931
 30
0.0
 11
-2.499999999999992
 21
0.0000000000001499
 31
0.0
210
0.0
220
0.0
230
1.0
 40
0.5773502691896257
 41
1.897867755363073
 42
2.356194490192592
  0
ELLIPSE
  5
9F9
330
9D7
100
AcDbEntity
  8
0
100
AcDbEllipse
 10
-30.93412562568726
 20
39.70318319826842
 30
0.0
 11
2.750000000000287
 21
4.763139720814248
 31
0.0
210
0.0
220
0.0
230
1.0
 40
0.5773502691896257
 41
5.497787143782377
 42
8.639379797372173
  0
LINE
  5
9FA
330
9D7
100
AcDbEntity
  8
0
100
AcDbLine
 10
-28.00962755664514
 20
6.341049114240302
 30
0.0
 11
-28.00962755664515
 21
41.60231113608255
 31
0.0
  0
ELLIPSE
  5
9FB
330
9D7
100
AcDbEntity
  8
0
100
AcDbEllipse
 10
-28.8128052821276
 20
7.451568251623283
 30
0.0
 11
-2.499999999999992
 21
0.0000000000001499
 31
0.0
210
0.0
220
0.0
230
1.0
 40
0.5773502691896257
 41
1.984213322710999
 42
2.35619449019259
  0
LINE
  5
9FC
330
9D7
100
AcDbEntity
  8
0
100
AcDbLine
 10
-27.04503832916121
 20
41.94854879581964
 30
0.0
 11
-27.04503832916122
 21
6.430947525463599
 31
0.0
  0
ELLIPSE
  5
9FD
330
9D7
100
AcDbEntity
  8
0
100
AcDbEllipse
 10
-24.21661120441506
 20
-0.5092734124220577
 30
0.0
 11
-1.249999999999867
 21
-2.165063509461164
 31
0.0
210
0.0
220
0.0
230
1.0
 40
0.5773502691896258
 41
3.926990816986998
 42
4.298971984468593
  0
ELLIPSE
  5
9FE
330
9D7
100
AcDbEntity
  8
0
100
AcDbEllipse
 10
-24.21661120441504
 20
4.797954363608161
 30
0.0
 11
2.000000000000206
 21
-3.464101615137635
 31
0.0
210
0.0
220
0.0
230
1.0
 40
0.577350269189626
 41
3.926990816987006
 42
4.378440676779442
  0
ELLIPSE
  5
9FF
330
9D7
100
AcDbEntity
  8
0
100
AcDbEllipse
 10
-24.21661120441504
 20
4.797954363608161
 30
0.0
 11
2.0
 21
-3.464101615137754
 31
0.0
210
0.0
220
0.0
230
1.0
 40
0.5773502691896261
 41
5.046337283989791
 42
5.497787143782137
  0
LINE
  5
A00
330
9D7
100
AcDbEntity
  8
0
100
AcDbLine
 10
61.87543545627132
 20
-49.28710997502633
 30
0.0
 11
60.60054549862124
 21
-48.5510519147899
 31
0.0
  0
LINE
  5
A01
330
9D7
100
AcDbEntity
  8
0
100
AcDbLine
 10
24.74873734152916
 20
-27.85200082435797
 30
0.0
 11
-24.77676012603623
 21
0.7415584702910305
 31
0.0
  0
LINE
  5
A02
330
9D7
100
AcDbEntity
  8
0
100
AcDbLine
 10
-24.21661120441503
 20
1.531968039897266
 30
0.0
 11
24.74873734152915
 21
-26.73818912406745
 31
0.0
  0
LINE
  5
A03
330
9D7
100
AcDbEntity
  8
0
100
AcDbLine
 10
61.56513472610516
 20
-47.99414606464464
 30
0.0
 11
61.87543545627132
 21
-48.17329827473582
 31
0.0
  0
ELLIPSE
  5
A04
330
9D7
100
AcDbEntity
  8
0
100
AcDbEllipse
 10
69.68716933715846
 20
-53.90814980509535
 30
0.0
 11
3.699999999999999
 21
0.0000000000000032
 31
0.0
210
0.0
220
0.0
230
1.0
 40
0.5773502691896257
 41
5.039460408952725
 42
5.956113878611543
  0
ELLIPSE
  5
A05
330
9D7
100
AcDbEntity
  8
0
100
AcDbEllipse
 10
66.38997154545851
 20
-50.66785937786008
 30
0.0
 11
4.809069058531873
 21
-8.329551946484629
 31
0.0
210
0.0
220
0.0
230
1.0
 40
0.5773502691896259
 41
0.3563573857464766
 42
0.7853981633974492
  0
ELLIPSE
  5
A06
330
9D7
100
AcDbEntity
  8
0
100
AcDbEllipse
 10
76.54610511466798
 20
-53.37742702749231
 30
0.0
 11
-2.5
 21
-0.0000000000000015
 31
0.0
210
0.0
220
0.0
230
1.0
 40
0.5773502691896257
 41
5.497787143782138
 42
5.956113878611549
  0
ELLIPSE
  5
A07
330
9D7
100
AcDbEntity
  8
0
100
AcDbEllipse
 10
68.33933868938807
 20
-49.54239173256294
 30
0.0
 11
4.12900739288386
 21
-7.151650589302355
 31
0.0
210
0.0
220
0.0
230
1.0
 40
0.5773502691896259
 41
0.3563573857464775
 42
0.785398163397451
  0
ELLIPSE
  5
A08
330
9D7
100
AcDbEntity
  8
0
100
AcDbEllipse
 10
69.12148391220923
 20
-49.09081997762175
 30
0.0
 11
4.000000000000001
 21
-6.928203230275508
 31
0.0
210
0.0
220
0.0
230
1.0
 40
0.577350269189626
 41
0.0873549802103382
 42
0.7853981633974492
  0
LINE
  5
A09
330
9D7
100
AcDbEntity
  8
0
100
AcDbLine
 10
73.1910222304231
 20
-54.59444782159665
 30
0.0
 11
74.17863694354321
 21
-52.9137121514779
 31
0.0
  0
ELLIPSE
  5
A0A
330
9D7
100
AcDbEntity
  8
0
100
AcDbEllipse
 10
69.68716933715848
 20
-18.39054853473925
 30
0.0
 11
3.7
 21
0.0
 31
0.0
210
0.0
220
0.0
230
1.0
 40
0.5773502691896258
 41
5.039460408952727
 42
5.956113878611548
  0
LINE
  5
A0B
330
9D7
100
AcDbEntity
  8
0
100
AcDbLine
 10
73.1910222304231
 20
-19.07684655124058
 30
0.0
 11
73.1910222304231
 21
-54.59444782159665
 31
0.0
  0
ELLIPSE
  5
A0C
330
9D7
100
AcDbEntity
  8
0
100
AcDbEllipse
 10
76.54610511466798
 20
-17.85982575713624
 30
0.0
 11
-2.5
 21
0.0000000000000001
 31
0.0
210
0.0
220
0.0
230
1.0
 40
0.5773502691896258
 41
5.497787143782139
 42
5.956113878611548
  0
LINE
  5
A0D
330
9D7
100
AcDbEntity
  8
0
100
AcDbLine
 10
74.17863694354321
 20
-17.39611088112183
 30
0.0
 11
74.17863694354321
 21
-52.9137121514779
 31
0.0
  0
LINE
  5
A0E
330
9D7
100
AcDbEntity
  8
0
100
AcDbLine
 10
74.77833816170162
 20
-16.83920503097657
 30
0.0
 11
74.77833816170162
 21
-52.35680630133263
 31
0.0
  0
LINE
  5
A0F
330
9D7
100
AcDbEntity
  8
0
100
AcDbLine
 10
73.1910222304231
 20
-19.07684655124058
 30
0.0
 11
74.17863694354321
 21
-17.39611088112183
 31
0.0
  0
ELLIPSE
  5
A10
330
9D7
100
AcDbEntity
  8
0
100
AcDbEllipse
 10
72.03344730064782
 20
-19.74517274855351
 30
0.0
 11
0.8185290825757325
 21
1.417733958493713
 31
0.0
210
0.0
220
0.0
230
1.0
 40
0.5773502691896259
 41
5.497787143782376
 42
8.639379797372169
  0
ELLIPSE
  5
A11
330
9D7
100
AcDbEntity
  8
0
100
AcDbEllipse
 10
71.07169486983835
 20
-19.1899047237319
 30
0.0
 11
2.196939809070721
 21
3.805211370480629
 31
0.0
210
0.0
220
0.0
230
1.0
 40
0.577350269189626
 41
5.49778714378238
 42
8.639379797372171
  0
ELLIPSE
  5
A12
330
9D7
100
AcDbEntity
  8
0
100
AcDbEllipse
 10
70.88925086517559
 20
-19.08457062852782
 30
0.0
 11
2.750000000000285
 21
4.763139720814249
 31
0.0
210
0.0
220
0.0
230
1.0
 40
0.577350269189626
 41
5.497787143782377
 42
8.639379797372171
  0
LINE
  5
A13
330
9D7
100
AcDbEntity
  8
0
100
AcDbLine
 10
65.03530633146377
 20
-60.68758001085575
 30
0.0
 11
66.90405000102322
 21
-60.77937329810144
 31
0.0
  0
SPLINE
  5
A14
330
9D7
100
AcDbEntity
  8
0
100
AcDbSpline
210
0.0
220
0.0
230
1.0
 70
     8
 71
     3
 72
    16
 73
    12
 74
     0
 42
0.000000001
 43
0.0000000001
 40
5.141429758035657
 40
5.141429758035657
 40
5.141429758035657
 40
5.141429758035657
 40
5.283972712334249
 40
5.283972712334249
 40
5.426515666632841
 40
5.426515666632841
 40
5.569058620931433
 40
5.569058620931433
 40
5.711601575230025
 40
5.711601575230025
 40
5.854144529528615
 40
5.854144529528615
 40
5.854144529528615
 40
5.854144529528615
 10
66.9040500010232
 20
-60.77937329810144
 30
0.0
 10
67.3411270445926
 20
-60.80084266239275
 30
0.0
 10
67.79228041007724
 20
-60.77924351084906
 30
0.0
 10
68.69952601976049
 20
-60.6292221554391
 30
0.0
 10
69.15533949660636
 20
-60.50018653407945
 30
0.0
 10
70.03039641377428
 20
-60.12963233564409
 30
0.0
 10
70.44874499803161
 20
-59.88809866790802
 30
0.0
 10
71.20718280593957
 20
-59.31555424710099
 30
0.0
 10
71.54683767045307
 20
-58.98532600744497
 30
0.0
 10
72.13038278018991
 20
-58.27463893969237
 30
0.0
 10
72.37466487686925
 20
-57.89472823995168
 30
0.0
 10
72.57461038377456
 20
-57.50547373466392
 30
0.0
  0
LINE
  5
A15
330
9D7
100
AcDbEntity
  8
0
100
AcDbLine
 10
73.64939333300333
 20
-55.41308310449153
 30
0.0
 11
72.57461038377456
 21
-57.50547373466391
 31
0.0
  0
ELLIPSE
  5
A16
330
9D7
100
AcDbEntity
  8
0
100
AcDbEllipse
 10
-36.41599923110721
 20
67.15684378130544
 30
0.0
 11
2.249999999999769
 21
3.897114317030107
 31
0.0
210
0.0
220
0.0
230
1.0
 40
0.5773502691896261
 41
3.82126647249774
 42
5.603511488271038
  0
ELLIPSE
  5
A17
330
9D7
100
AcDbEntity
  8
0
100
AcDbEllipse
 10
-64.70027047856911
 20
40.21245661069049
 30
0.0
 11
2.249999999999768
 21
3.897114317030107
 31
0.0
210
0.0
220
0.0
230
1.0
 40
0.5773502691896259
 41
3.82126647249774
 42
5.603511488271042
  0
ELLIPSE
  5
A18
330
9D7
100
AcDbEntity
  8
0
100
AcDbEllipse
 10
-33.58757210636101
 20
65.52385061944999
 30
0.0
 11
2.250000000000005
 21
3.897114317029981
 31
0.0
210
0.0
220
0.0
230
0.9999999999999998
 40
0.5773502691896257
 41
0.0
 42
6.283185307179586
  0
ELLIPSE
  5
A19
330
9D7
100
AcDbEntity
  8
0
100
AcDbEllipse
 10
-61.87184335382292
 20
38.57946344883506
 30
0.0
 11
2.25
 21
3.897114317029971
 31
0.0
210
0.0
220
0.0
230
1.0
 40
0.5773502691896259
 41
0.0
 42
6.283185307179586
  0
ELLIPSE
  5
A1A
330
9D7
100
AcDbEntity
  8
0
100
AcDbEllipse
 10
-43.48706704297266
 20
68.78983694316092
 30
0.0
 11
1.500000000000001
 21
2.598076211353316
 31
0.0
210
0.0
220
0.0
230
0.9999999999999998
 40
0.5773502691896259
 41
4.372552070930572
 42
5.052225889838799
  0
ELLIPSE
  5
A1B
330
9D7
100
AcDbEntity
  8
0
100
AcDbEllipse
 10
-57.62920266670362
 20
60.62487113388367
 30
0.0
 11
1.500000000000001
 21
2.598076211353315
 31
0.0
210
0.0
220
0.0
230
1.0
 40
0.577350269189626
 41
4.372552070930575
 42
5.052225889838803
  0
ELLIPSE
  5
A1C
330
9D7
100
AcDbEntity
  8
0
100
AcDbEllipse
 10
-71.77133829043457
 20
52.45990532460641
 30
0.0
 11
1.500000000000001
 21
2.598076211353316
 31
0.0
210
0.0
220
0.0
230
0.9999999999999998
 40
0.5773502691896259
 41
4.372552070930576
 42
5.052225889838802
  0
ELLIPSE
  5
A1D
330
9D7
100
AcDbEntity
  8
0
100
AcDbEllipse
 10
-50.55813485483814
 20
48.37742241996778
 30
0.0
 11
1.500000000000001
 21
2.598076211353316
 31
0.0
210
0.0
220
0.0
230
1.0
 40
0.577350269189626
 41
4.372552070930572
 42
5.052225889838806
  0
ELLIPSE
  5
A1E
330
9D7
100
AcDbEntity
  8
0
100
AcDbEllipse
 10
-32.88046532517446
 20
58.58362968156435
 30
0.0
 11
1.500000000000001
 21
2.598076211353315
 31
0.0
210
0.0
220
0.0
230
1.0
 40
0.577350269189626
 41
4.372552070930572
 42
5.052225889838806
  0
ELLIPSE
  5
A1F
330
9D7
100
AcDbEntity
  8
0
100
AcDbEllipse
 10
-40.65863991822646
 20
67.15684378130548
 30
0.0
 11
1.500000000000003
 21
2.59807621135332
 31
0.0
210
0.0
220
0.0
230
0.9999999999999998
 40
0.5773502691896257
 41
0.0
 42
6.283185307179586
  0
ELLIPSE
  5
A20
330
9D7
100
AcDbEntity
  8
0
100
AcDbEllipse
 10
-54.80077554195741
 20
58.99187797202821
 30
0.0
 11
1.500000000000003
 21
2.59807621135332
 31
0.0
210
0.0
220
0.0
230
0.9999999999999998
 40
0.5773502691896257
 41
0.0
 42
6.283185307179586
  0
ELLIPSE
  5
A21
330
9D7
100
AcDbEntity
  8
0
100
AcDbEllipse
 10
-68.94291116568837
 20
50.82691216275095
 30
0.0
 11
1.500000000000003
 21
2.59807621135332
 31
0.0
210
0.0
220
0.0
230
0.9999999999999998
 40
0.5773502691896257
 41
0.0
 42
6.283185307179586
  0
ELLIPSE
  5
A22
330
9D7
100
AcDbEntity
  8
0
100
AcDbEllipse
 10
-47.72970773009195
 20
46.74442925811232
 30
0.0
 11
1.499999999999999
 21
2.598076211353313
 31
0.0
210
0.0
220
0.0
230
1.0
 40
0.5773502691896258
 41
0.0
 42
6.283185307179586
  0
ELLIPSE
  5
A23
330
9D7
100
AcDbEntity
  8
0
100
AcDbEllipse
 10
-30.05203820042826
 20
56.95063651970888
 30
0.0
 11
1.499999999999999
 21
2.598076211353313
 31
0.0
210
0.0
220
0.0
230
1.0
 40
0.5773502691896258
 41
0.0
 42
6.283185307179586
  0
ELLIPSE
  5
A24
330
9D7
100
AcDbEntity
  8
0
100
AcDbEllipse
 10
-52.32590180780452
 20
31.02687007525358
 30
0.0
 11
2.749999999999717
 21
4.763139720814578
 31
0.0
210
0.0
220
0.0
230
1.0
 40
0.5773502691896258
 41
3.681736631265627
 42
5.74304132950301
  0
ELLIPSE
  5
A25
330
9D7
100
AcDbEntity
  8
0
100
AcDbEllipse
 10
-49.49747468305831
 20
29.39387691339814
 30
0.0
 11
2.75
 21
4.763139720814409
 31
0.0
210
0.0
220
0.0
230
1.0
 40
0.5773502691896258
 41
0.0
 42
6.283185307179586
  0
LINE
  5
A26
330
9D7
100
AcDbEntity
  8
0
100
AcDbLine
 10
-77.07463914933367
 20
53.48052605076606
 30
0.0
 11
-77.07463914933369
 21
-19.18766965180157
 31
0.0
  0
LINE
  5
A27
330
9D7
100
AcDbEntity
  8
0
100
AcDbLine
 10
-32.5269119345812
 20
84.9156444164835
 30
0.0
 11
-72.12489168102783
 21
62.05374015050718
 31
0.0
  0
LINE
  5
A28
330
9D7
100
AcDbEntity
  8
0
100
AcDbLine
 10
24.74873734152915
 20
-5.307227776030218
 30
0.0
 11
24.74873734152917
 21
-77.97542347859781
 31
0.0
  0
LINE
  5
A29
330
9D7
100
AcDbEntity
  8
0
100
AcDbLine
 10
69.29646455628165
 20
26.12789058968723
 30
0.0
 11
29.69848480983498
 21
3.265986323710903
 31
0.0
  0
LINE
  5
A2A
330
9D7
100
AcDbEntity
  8
0
100
AcDbLine
 10
-71.41778489984131
 20
-28.98562862293427
 30
0.0
 11
21.92031021678296
 21
-82.87440296416418
 31
0.0
  0
LINE
  5
A2B
330
9D7
100
AcDbEntity
  8
0
100
AcDbLine
 10
77.07463914933367
 20
21.63715939458473
 30
0.0
 11
77.07463914933367
 21
-51.03103630798288
 31
0.0
  0
LINE
  5
A2C
330
9D7
100
AcDbEntity
  8
0
100
AcDbLine
 10
32.52691193458117
 20
1.632993161855447
 30
0.0
 11
72.12489168102783
 21
24.49489742783178
 31
0.0
  0
LINE
  5
A2D
330
9D7
100
AcDbEntity
  8
0
100
AcDbLine
 10
27.57716446627536
 20
-79.60841664045327
 30
0.0
 11
27.57716446627534
 21
-6.940220937885666
 31
0.0
  0
LINE
  5
A2E
330
9D7
100
AcDbEntity
  8
0
100
AcDbLine
 10
-21.920310216783
 20
2.857738033247034
 30
0.0
 11
24.7487373415292
 21
-24.08664913736796
 31
0.0
  0
LINE
  5
A2F
330
9D7
100
AcDbEntity
  8
0
100
AcDbLine
 10
21.92031021678296
 20
-79.60841664045327
 30
0.0
 11
-71.41778489984131
 21
-25.71964229922337
 31
0.0
  0
LINE
  5
A30
330
9D7
100
AcDbEntity
  8
0
100
AcDbLine
 10
-24.74873734152917
 20
80.42491322138102
 30
0.0
 11
-24.74873734152919
 21
7.756717518813358
 31
0.0
  0
LINE
  5
A31
330
9D7
100
AcDbEntity
  8
0
100
AcDbLine
 10
-69.29646455628163
 20
60.42074698865172
 30
0.0
 11
-29.69848480983501
 21
83.28265125462804
 31
0.0
  0
LINE
  5
A32
330
9D7
100
AcDbEntity
  8
0
100
AcDbLine
 10
-74.24621202458749
 20
-20.82066281365702
 30
0.0
 11
-74.24621202458746
 21
51.84753288891062
 31
0.0
  0
LINE
  5
A33
330
9D7
100
AcDbEntity
  8
0
100
AcDbLine
 10
-72.12489168102783
 20
62.05374015050718
 30
0.0
 11
-77.07463914933367
 21
53.48052605076606
 31
0.0
  0
LINE
  5
A34
330
9D7
100
AcDbEntity
  8
0
100
AcDbLine
 10
29.69848480983498
 20
3.265986323710903
 30
0.0
 11
24.74873734152915
 21
-5.307227776030218
 31
0.0
  0
LINE
  5
A35
330
9D7
100
AcDbEntity
  8
0
100
AcDbLine
 10
72.12489168102783
 20
24.49489742783178
 30
0.0
 11
77.07463914933367
 21
21.63715939458473
 31
0.0
  0
LINE
  5
A36
330
9D7
100
AcDbEntity
  8
0
100
AcDbLine
 10
27.57716446627534
 20
-6.940220937885666
 30
0.0
 11
32.52691193458117
 21
1.632993161855447
 31
0.0
  0
LINE
  5
A37
330
9D7
100
AcDbEntity
  8
0
100
AcDbLine
 10
-29.69848480983501
 20
83.28265125462804
 30
0.0
 11
-24.74873734152917
 21
80.42491322138102
 31
0.0
  0
LINE
  5
A38
330
9D7
100
AcDbEntity
  8
0
100
AcDbLine
 10
-74.24621202458746
 20
51.84753288891062
 30
0.0
 11
-69.29646455628163
 21
60.42074698865172
 31
0.0
  0
LINE
  5
A39
330
9D7
100
AcDbEntity
  8
0
100
AcDbLine
 10
-69.29646455628163
 20
60.42074698865172
 30
0.0
 11
-72.12489168102783
 21
62.05374015050718
 31
0.0
  0
LINE
  5
A3A
330
9D7
100
AcDbEntity
  8
0
100
AcDbLine
 10
-77.07463914933367
 20
53.48052605076606
 30
0.0
 11
-74.24621202458746
 21
51.84753288891062
 31
0.0
  0
LINE
  5
A3B
330
9D7
100
AcDbEntity
  8
0
100
AcDbLine
 10
-32.5269119345812
 20
84.9156444164835
 30
0.0
 11
-29.69848480983501
 21
83.28265125462804
 31
0.0
  0
LINE
  5
A3C
330
9D7
100
AcDbEntity
  8
0
100
AcDbLine
 10
24.74873734152915
 20
-5.307227776030218
 30
0.0
 11
27.57716446627534
 21
-6.940220937885666
 31
0.0
  0
LINE
  5
A3D
330
9D7
100
AcDbEntity
  8
0
100
AcDbLine
 10
32.52691193458117
 20
1.632993161855447
 30
0.0
 11
29.69848480983498
 21
3.265986323710903
 31
0.0
  0
LINE
  5
A3E
330
9D7
100
AcDbEntity
  8
0
100
AcDbLine
 10
69.29646455628165
 20
26.12789058968723
 30
0.0
 11
72.12489168102783
 21
24.49489742783178
 31
0.0
  0
LINE
  5
A3F
330
9D7
100
AcDbEntity
  8
0
100
AcDbLine
 10
59.04341622907672
 20
-61.43721991218028
 30
0.0
 11
48.66223202067494
 21
-55.44364041495241
 31
0.0
  0
LINE
  5
A40
330
9D7
100
AcDbEntity
  8
0
100
AcDbLine
 10
64.70027047856909
 20
-58.17538139110048
 30
0.0
 11
64.70386258101751
 21
-58.17330748978495
 31
0.0
  0
LINE
  5
A41
330
9D7
100
AcDbEntity
  8
0
100
AcDbLine
 10
61.87543545627132
 20
-56.54031432792948
 30
0.0
 11
61.87543545627132
 21
-47.8149938545535
 31
0.0
  0
LINE
  5
A42
330
9D7
100
AcDbEntity
  8
0
100
AcDbLine
 10
59.04341622907672
 20
-58.17538139110047
 30
0.0
 11
59.04700833152514
 21
-58.17330748978491
 31
0.0
  0
LINE
  5
A43
330
9D7
100
AcDbEntity
  8
0
100
AcDbLine
 10
61.87543545627132
 20
-56.54031432792948
 30
0.0
 11
61.87184335382291
 21
-56.54238822924504
 31
0.0
  0
LINE
  5
A44
330
9D7
100
AcDbEntity
  8
0
100
AcDbLine
 10
24.74873734152915
 20
-66.95686743870465
 30
0.0
 11
21.55957262129289
 21
-65.11560232898617
 31
0.0
  0
LINE
  5
A45
330
9D7
100
AcDbEntity
  8
0
100
AcDbLine
 10
21.55957262129289
 20
-65.11560232898617
 30
0.0
 11
21.56316472374131
 21
-65.11352842767061
 31
0.0
  0
LINE
  5
A46
330
9D7
100
AcDbEntity
  8
0
100
AcDbLine
 10
21.56316472374131
 20
-65.11352842767061
 30
0.0
 11
21.56675682618974
 21
-65.11560232898617
 31
0.0
  0
LINE
  5
A47
330
9D7
100
AcDbEntity
  8
0
100
AcDbLine
 10
21.56675682618974
 20
-65.11560232898617
 30
0.0
 11
24.3951839509359
 21
-63.48260916713073
 31
0.0
  0
LINE
  5
A48
330
9D7
100
AcDbEntity
  8
0
100
AcDbLine
 10
51.49065914542106
 20
-53.81064725309691
 30
0.0
 11
59.04700833152514
 21
-58.17330748978491
 31
0.0
  0
LINE
  5
A49
330
9D7
100
AcDbEntity
  8
0
100
AcDbLine
 10
39.94794103459151
 20
-72.46614545865125
 30
0.0
 11
39.95153313703994
 21
-72.46407155733568
 31
0.0
  0
LINE
  5
A4A
330
9D7
100
AcDbEntity
  8
0
100
AcDbLine
 10
39.94794103459151
 20
-72.46614545865125
 30
0.0
 11
39.94794103459151
 21
-57.76505919932102
 31
0.0
  0
LINE
  5
A4B
330
9D7
100
AcDbEntity
  8
0
100
AcDbLine
 10
39.94794103459151
 20
-57.76505919932102
 30
0.0
 11
39.95153313703994
 21
-57.76298529800548
 31
0.0
  0
LINE
  5
A4C
330
9D7
100
AcDbEntity
  8
0
100
AcDbLine
 10
39.95153313703994
 20
-57.76298529800548
 30
0.0
 11
39.95153313703994
 21
-57.76713310063657
 31
0.0
  0
LINE
  5
A4D
330
9D7
100
AcDbEntity
  8
0
100
AcDbLine
 10
39.95153313703994
 20
-57.76713310063657
 30
0.0
 11
64.70027047856909
 21
-43.47844293440137
 31
0.0
  0
LINE
  5
A4E
330
9D7
100
AcDbEntity
  8
0
100
AcDbLine
 10
64.70027047856909
 20
-43.47844293440137
 30
0.0
 11
64.70027047856909
 21
-43.47429513177026
 31
0.0
  0
LINE
  5
A4F
330
9D7
100
AcDbEntity
  8
0
100
AcDbLine
 10
64.70027047856909
 20
-43.47429513177026
 30
0.0
 11
64.70386258101751
 21
-43.47222123045471
 31
0.0
  0
LINE
  5
A50
330
9D7
100
AcDbEntity
  8
0
100
AcDbLine
 10
64.70386258101751
 20
-43.47222123045471
 30
0.0
 11
64.70386258101751
 21
-58.17330748978495
 31
0.0
  0
LINE
  5
A51
330
9D7
100
AcDbEntity
  8
0
100
AcDbLine
 10
24.39518395093593
 20
-58.58362968156433
 30
0.0
 11
24.74873734152916
 21
-58.78775382679624
 31
0.0
  0
ELLIPSE
  5
A52
330
9D7
100
AcDbEntity
  8
0
100
AcDbEllipse
 10
30.05203820042826
 20
-61.84961600527521
 30
0.0
 11
4.000000000000402
 21
-6.928203230275278
 31
0.0
210
0.0
220
0.0
230
1.0
 40
0.5773502691896245
 41
3.571569615296597
 42
3.926990816986902
  0
ELLIPSE
  5
A53
330
9D7
100
AcDbEntity
  8
0
100
AcDbEllipse
 10
21.56675682618974
 20
-61.84961600527525
 30
0.0
 11
2.0
 21
-3.464101615137754
 31
0.0
210
0.0
220
0.0
230
1.0
 40
0.5773502691896258
 41
5.497787143782138
 42
7.068583470577032
  0
LINE
  5
A54
330
9D7
100
AcDbEntity
  8
0
100
AcDbLine
 10
24.74873734152916
 20
-63.68673331236269
 30
0.0
 11
24.39518395093593
 21
-63.4826091671308
 31
0.0
  0
LINE
  5
A55
330
9D7
100
AcDbEntity
  8
0
100
AcDbLine
 10
21.56675682618974
 20
-65.11560232898617
 30
0.0
 11
21.56675682618974
 21
-65.11975013161728
 31
0.0
  0
LINE
  5
A56
330
9D7
100
AcDbEntity
  8
0
100
AcDbLine
 10
21.56316472374131
 20
-65.11767623030173
 30
0.0
 11
21.56316472374131
 21
-65.11352842767061
 31
0.0
  0
ELLIPSE
  5
A57
330
9D7
100
AcDbEntity
  8
0
100
AcDbEllipse
 10
59.04341622907671
 20
-40.21245661069047
 30
0.0
 11
4.00000000000001
 21
-6.928203230275522
 31
0.0
210
0.0
220
0.0
230
1.0
 40
0.5773502691896258
 41
0.0
 42
0.7853981633974474
  0
ELLIPSE
  5
A58
330
9D7
100
AcDbEntity
  8
0
100
AcDbEllipse
 10
34.29467888754755
 20
-54.50114677692567
 30
0.0
 11
4.00000000000001
 21
-6.928203230275522
 31
0.0
210
0.0
220
0.0
230
1.0
 40
0.5773502691896258
 41
0.7497592179711257
 42
0.7853981633974483
  0
LINE
  5
A59
330
9D7
100
AcDbEntity
  8
0
100
AcDbLine
 10
39.95153313703994
 20
-57.76713310063657
 30
0.0
 11
39.94794103459151
 21
-57.76505919932102
 31
0.0
  0
LINE
  5
A5A
330
9D7
100
AcDbEntity
  8
0
100
AcDbLine
 10
61.87543545627132
 20
-56.54031432792948
 30
0.0
 11
64.70386258101751
 21
-58.17330748978495
 31
0.0
  0
LINE
  5
A5B
330
9D7
100
AcDbEntity
  8
0
100
AcDbLine
 10
24.39518395093593
 20
-63.4826091671308
 30
0.0
 11
24.39518395093593
 21
-58.58362968156433
 31
0.0
  0
LINE
  5
A5C
330
9D7
100
AcDbEntity
  8
0
100
AcDbLine
 10
39.94794103459151
 20
-60.47483866156434
 30
0.0
 11
63.04341622907672
 21
-47.14065984096598
 31
0.0
  0
ELLIPSE
  5
A5D
330
9D7
100
AcDbEntity
  8
0
100
AcDbEllipse
 10
1.767766952966369
 20
-52.86815361507025
 30
0.0
 11
-4.500000000000001
 21
-0.0000000000002684
 31
0.0
210
0.0
220
0.0
230
1.0
 40
0.5773502691896255
 41
3.821266472497736
 42
5.603511488271046
  0
ELLIPSE
  5
A5E
330
9D7
100
AcDbEntity
  8
0
100
AcDbEllipse
 10
-1.767766952966385
 20
-30.4144976395578
 30
0.0
 11
-4.500000000000001
 21
-0.0000000000002684
 31
0.0
210
0.0
220
0.0
230
1.0
 40
0.5773502691896255
 41
3.821266472497734
 42
5.603511488271046
  0
ELLIPSE
  5
A5F
330
9D7
100
AcDbEntity
  8
0
100
AcDbEllipse
 10
1.767766952966369
 20
-49.60216729135936
 30
0.0
 11
-4.5
 21
0.0000000000002687
 31
0.0
210
0.0
220
0.0
230
1.0
 40
0.5773502691896257
 41
0.0
 42
6.283185307179586
  0
ELLIPSE
  5
A60
330
9D7
100
AcDbEntity
  8
0
100
AcDbEllipse
 10
-1.767766952966385
 20
-27.14851131584691
 30
0.0
 11
-4.5
 21
0.0000000000002687
 31
0.0
210
0.0
220
0.0
230
1.0
 40
0.5773502691896257
 41
0.0
 42
6.283185307179586
  0
ELLIPSE
  5
A61
330
9D7
100
AcDbEntity
  8
0
100
AcDbEllipse
 10
1.060660171779822
 20
-42.25369806300982
 30
0.0
 11
8.500000000000001
 21
0.0000000000000022
 31
0.0
210
0.0
220
0.0
230
1.0
 40
0.5773502691896255
 41
0.3392247615358637
 42
0.7853981633974488
  0
LINE
  5
A62
330
9D7
100
AcDbEntity
  8
0
100
AcDbLine
 10
7.071067811865461
 20
-38.78358759406699
 30
0.0
 11
4.949747468305822
 21
-37.5588427226754
 31
0.0
  0
ELLIPSE
  5
A63
330
9D7
100
AcDbEntity
  8
0
100
AcDbEllipse
 10
-1.060660171779822
 20
-41.02895319161823
 30
0.0
 11
-8.5
 21
-0.0000000000005085
 31
0.0
210
0.0
220
0.0
230
1.0
 40
0.5773502691896259
 41
3.926990816986997
 42
5.943960545643373
  0
ELLIPSE
  5
A64
330
9D7
100
AcDbEntity
  8
0
100
AcDbEllipse
 10
1.060660171779822
 20
-38.98771173929892
 30
0.0
 11
8.5
 21
0.0
 31
0.0
210
0.0
220
0.0
230
1.0
 40
0.5773502691896259
 41
3.926990816987241
 42
7.068583470577035
  0
LINE
  5
A65
330
9D7
100
AcDbEntity
  8
0
100
AcDbLine
 10
-4.949747468305832
 20
-42.45782220824175
 30
0.0
 11
-7.071067811865474
 21
-41.23307733685016
 31
0.0
  0
ELLIPSE
  5
A66
330
9D7
100
AcDbEntity
  8
0
100
AcDbEllipse
 10
-1.060660171779822
 20
-37.76296686790733
 30
0.0
 11
-8.500000000000003
 21
0.0
 31
0.0
210
0.0
220
0.0
230
1.0
 40
0.5773502691896257
 41
3.92699081698724
 42
7.068583470577034
  0
LINE
  5
A67
330
9D7
100
AcDbEntity
  8
0
100
AcDbLine
 10
4.949747468305822
 20
-34.2928563989645
 30
0.0
 11
7.071067811865461
 21
-35.51760127035608
 31
0.0
  0
LINE
  5
A68
330
9D7
100
AcDbEntity
  8
0
100
AcDbLine
 10
7.071067811865461
 20
-35.51760127035608
 30
0.0
 11
7.071067811865461
 21
-38.78358759406699
 31
0.0
  0
LINE
  5
A69
330
9D7
100
AcDbEntity
  8
0
100
AcDbLine
 10
4.949747468305822
 20
-34.2928563989645
 30
0.0
 11
4.949747468305822
 21
-37.5588427226754
 31
0.0
  0
LINE
  5
A6A
330
9D7
100
AcDbEntity
  8
0
100
AcDbLine
 10
64.70386258101751
 20
-58.17330748978495
 30
0.0
 11
67.00016356864961
 21
-56.84753749643513
 31
0.0
  0
LINE
  5
A6B
330
9D7
100
AcDbEntity
  8
0
100
AcDbLine
 10
59.04700833152514
 20
-58.17330748978491
 30
0.0
 11
61.34330931915721
 21
-56.84753749643514
 31
0.0
  0
LINE
  5
A6C
330
9D7
100
AcDbEntity
  8
0
100
AcDbLine
 10
37.65164004695944
 20
-73.791915452001
 30
0.0
 11
39.94794103459151
 21
-72.46614545865125
 31
0.0
  0
LINE
  5
A6D
330
9D7
100
AcDbEntity
  8
0
100
AcDbLine
 10
27.57716446627536
 20
-79.60841664045327
 30
0.0
 11
29.87346545390741
 21
-78.28264664710349
 31
0.0
  0
ELLIPSE
  5
A6E
330
9D7
100
AcDbEntity
  8
0
100
AcDbEllipse
 10
21.92031021678296
 20
-76.34243031674238
 30
0.0
 11
3.999999999999998
 21
-6.928203230275513
 31
0.0
210
0.0
220
0.0
230
1.0
 40
0.5773502691896254
 41
5.497787143782134
 42
7.068583470577038
  0
LINE
  5
A6F
330
9D7
100
AcDbEntity
  8
0
100
AcDbLine
 10
74.77833816170162
 20
-52.35680630133263
 30
0.0
 11
77.07463914933367
 21
-51.03103630798288
 31
0.0
  0
LINE
  5
A70
330
9D7
100
AcDbEntity
  8
0
100
AcDbLine
 10
21.92031021678296
 20
-79.60841664045327
 30
0.0
 11
24.21661120441503
 21
-78.28264664710349
 31
0.0
  0
ELLIPSE
  5
A71
330
9D7
100
AcDbEntity
  8
0
100
AcDbEllipse
 10
21.92031021678296
 20
-76.34243031674238
 30
0.0
 11
1.999999999999998
 21
-3.464101615137755
 31
0.0
210
0.0
220
0.0
230
1.0
 40
0.5773502691896257
 41
5.49778714378213
 42
7.068583470577036
  0
ELLIPSE
  5
A72
330
9D7
100
AcDbEntity
  8
0
100
AcDbEllipse
 10
71.41778489984128
 20
-47.76504998427197
 30
0.0
 11
3.999999999999972
 21
-6.928203230275525
 31
0.0
210
0.0
220
0.0
230
1.0
 40
0.5773502691896219
 41
0.0
 42
0.7853981633974474
  0
LINE
  5
A73
330
9D7
100
AcDbEntity
  8
0
100
AcDbLine
 10
24.74873734152917
 20
-77.97542347859781
 30
0.0
 11
27.57716446627536
 21
-79.60841664045327
 31
0.0
  0
LINE
  5
A74
330
9D7
100
AcDbEntity
  8
0
100
AcDbLine
 10
21.92031021678296
 20
-82.87440296416418
 30
0.0
 11
21.92031021678296
 21
-79.60841664045327
 31
0.0
  0
LINE
  5
A75
330
9D7
100
AcDbEntity
  8
0
100
AcDbLine
 10
65.34330931915722
 20
-60.50975440299973
 30
0.0
 11
63.0434162290767
 21
-61.83759829766509
 31
0.0
  0
LINE
  5
A76
330
9D7
100
AcDbEntity
  8
0
100
AcDbLine
 10
38.29467888754756
 20
-76.12628846390027
 30
0.0
 11
36.30278878516051
 21
-77.27630675070958
 31
0.0
  0
LINE
  5
A77
330
9D7
100
AcDbEntity
  8
0
100
AcDbLine
 10
28.21661120441504
 20
-81.94486355366811
 30
0.0
 11
25.92031021678296
 21
-83.2706335470179
 31
0.0
  0
LINE
  5
A78
330
9D7
100
AcDbEntity
  8
0
100
AcDbLine
 10
75.41778489984126
 20
-54.6932532145475
 30
0.0
 11
73.42948689990262
 21
-55.84119760004127
 31
0.0
  0
ELLIPSE
  5
A79
330
9D7
100
AcDbEntity
  8
0
100
AcDbEllipse
 10
59.04341622907672
 20
-54.90939506738957
 30
0.0
 11
3.999999999999957
 21
-6.928203230275536
 31
0.0
210
0.0
220
0.0
230
1.0
 40
0.5773502691896244
 41
5.497787143782142
 42
7.068583470577035
  0
ELLIPSE
  5
A7A
330
9D7
100
AcDbEntity
  8
0
100
AcDbEllipse
 10
59.04341622907672
 20
-54.90939506738957
 30
0.0
 11
1.999999999999986
 21
-3.464101615137762
 31
0.0
210
0.0
220
0.0
230
1.0
 40
0.577350269189623
 41
5.49778714378214
 42
7.06858347057703
  0
ELLIPSE
  5
A7B
330
9D7
100
AcDbEntity
  8
0
100
AcDbEllipse
 10
34.29467888754754
 20
-69.19808523362478
 30
0.0
 11
3.999999999999999
 21
-6.928203230275512
 31
0.0
210
0.0
220
0.0
230
1.0
 40
0.577350269189625
 41
0.0000000000000009
 42
0.7853981633974481
  0
ELLIPSE
  5
A7C
330
9D7
100
AcDbEntity
  8
0
100
AcDbEllipse
 10
-59.04341622907672
 20
-15.30931089239486
 30
0.0
 11
-1.999999999999793
 21
3.464101615137872
 31
0.0
210
0.0
220
0.0
230
1.0
 40
0.5773502691896258
 41
0.7853981633976935
 42
2.356194490192585
  0
LINE
  5
A7D
330
9D7
100
AcDbEntity
  8
0
100
AcDbLine
 10
59.04341622907672
 20
-58.17538139110047
 30
0.0
 11
59.04341622907672
 21
-61.44136771481138
 31
0.0
  0
LINE
  5
A7E
330
9D7
100
AcDbEntity
  8
0
100
AcDbLine
 10
39.95153313703994
 20
-72.46407155733568
 30
0.0
 11
39.94794103459152
 21
-72.46199765602013
 31
0.0
  0
LINE
  5
A7F
330
9D7
100
AcDbEntity
  8
0
100
AcDbLine
 10
64.70027047856909
 20
-58.17538139110048
 30
0.0
 11
61.87184335382291
 21
-56.54238822924504
 31
0.0
  0
LINE
  5
A80
330
9D7
100
AcDbEntity
  8
0
100
AcDbLine
 10
-59.04341622907673
 20
-18.57944501873687
 30
0.0
 11
-59.04341622907672
 21
-18.57529721610577
 31
0.0
  0
LINE
  5
A81
330
9D7
100
AcDbEntity
  8
0
100
AcDbLine
 10
-61.87543545627133
 20
-13.67424382922387
 30
0.0
 11
-61.87184335382291
 21
-13.67631773053943
 31
0.0
  0
ELLIPSE
  5
A82
330
9D7
100
AcDbEntity
  8
0
100
AcDbEllipse
 10
33.58757210636099
 20
-10.00208311636465
 30
0.0
 11
2.249999999999771
 21
3.897114317030116
 31
0.0
210
0.0
220
0.0
230
1.0
 40
0.5773502691896259
 41
3.82126647249774
 42
5.60351148827104
  0
ELLIPSE
  5
A83
330
9D7
100
AcDbEntity
  8
0
100
AcDbEllipse
 10
61.87184335382291
 20
-4.286607049870565
 30
0.0
 11
2.249999999999766
 21
3.897114317030107
 31
0.0
210
0.0
220
0.0
230
1.0
 40
0.5773502691896259
 41
3.821266472497736
 42
5.60351148827104
  0
ELLIPSE
  5
A84
330
9D7
100
AcDbEntity
  8
0
100
AcDbEllipse
 10
36.41599923110719
 20
-11.6350762782201
 30
0.0
 11
-2.25
 21
-3.897114317029973
 31
0.0
210
0.0
220
0.0
230
1.0
 40
0.577350269189626
 41
0.0
 42
6.283185307179586
  0
ELLIPSE
  5
A85
330
9D7
100
AcDbEntity
  8
0
100
AcDbEllipse
 10
64.70027047856909
 20
-5.919600211726017
 30
0.0
 11
-2.25
 21
-3.897114317029973
 31
0.0
210
0.0
220
0.0
230
1.0
 40
0.577350269189626
 41
0.0
 42
6.283185307179586
  0
ELLIPSE
  5
A86
330
9D7
100
AcDbEntity
  8
0
100
AcDbEllipse
 10
40.65863991822646
 20
-0.2041241452319298
 30
0.0
 11
1.500000000000002
 21
2.598076211353321
 31
0.0
210
0.0
220
0.0
230
1.0
 40
0.5773502691896259
 41
4.372552070930575
 42
5.052225889838801
  0
ELLIPSE
  5
A87
330
9D7
100
AcDbEntity
  8
0
100
AcDbEllipse
 10
54.80077554195741
 20
7.960841664045323
 30
0.0
 11
1.500000000000003
 21
2.598076211353321
 31
0.0
210
0.0
220
0.0
230
1.0
 40
0.5773502691896258
 41
4.372552070930575
 42
5.052225889838801
  0
ELLIPSE
  5
A88
330
9D7
100
AcDbEntity
  8
0
100
AcDbEllipse
 10
68.94291116568837
 20
16.12580747332259
 30
0.0
 11
1.500000000000002
 21
2.598076211353319
 31
0.0
210
0.0
220
0.0
230
0.9999999999999998
 40
0.5773502691896258
 41
4.372552070930575
 42
5.052225889838801
  0
ELLIPSE
  5
A89
330
9D7
100
AcDbEntity
  8
0
100
AcDbEllipse
 10
30.05203820042826
 20
-22.65778012074441
 30
0.0
 11
1.499999999999998
 21
2.598076211353312
 31
0.0
210
0.0
220
0.0
230
0.9999999999999998
 40
0.5773502691896257
 41
4.372552070930571
 42
5.05222588983881
  0
ELLIPSE
  5
A8A
330
9D7
100
AcDbEntity
  8
0
100
AcDbEllipse
 10
47.72970773009194
 20
-12.45157285914783
 30
0.0
 11
1.499999999999998
 21
2.598076211353312
 31
0.0
210
0.0
220
0.0
230
0.9999999999999998
 40
0.577350269189626
 41
4.372552070930568
 42
5.05222588983881
  0
ELLIPSE
  5
A8B
330
9D7
100
AcDbEntity
  8
0
100
AcDbEllipse
 10
43.48706704297266
 20
-1.837117307087385
 30
0.0
 11
-1.5
 21
-2.598076211353316
 31
0.0
210
0.0
220
0.0
230
0.9999999999999998
 40
0.5773502691896259
 41
0.0
 42
6.283185307179586
  0
ELLIPSE
  5
A8C
330
9D7
100
AcDbEntity
  8
0
100
AcDbEllipse
 10
57.62920266670362
 20
6.327848502189867
 30
0.0
 11
-1.5
 21
-2.598076211353316
 31
0.0
210
0.0
220
0.0
230
0.9999999999999998
 40
0.5773502691896259
 41
0.0
 42
6.283185307179586
  0
ELLIPSE
  5
A8D
330
9D7
100
AcDbEntity
  8
0
100
AcDbEllipse
 10
71.77133829043457
 20
14.49281431146713
 30
0.0
 11
-1.5
 21
-2.598076211353316
 31
0.0
210
0.0
220
0.0
230
0.9999999999999998
 40
0.5773502691896259
 41
0.0
 42
6.283185307179586
  0
ELLIPSE
  5
A8E
330
9D7
100
AcDbEntity
  8
0
100
AcDbEllipse
 10
32.88046532517445
 20
-24.29077328259986
 30
0.0
 11
-1.5
 21
-2.598076211353316
 31
0.0
210
0.0
220
0.0
230
0.9999999999999998
 40
0.5773502691896259
 41
0.0
 42
6.283185307179586
  0
ELLIPSE
  5
A8F
330
9D7
100
AcDbEntity
  8
0
100
AcDbEllipse
 10
50.55813485483813
 20
-14.08456602100328
 30
0.0
 11
-1.5
 21
-2.598076211353316
 31
0.0
210
0.0
220
0.0
230
0.9999999999999998
 40
0.5773502691896259
 41
0.0
 42
6.283185307179586
  0
ELLIPSE
  5
A90
330
9D7
100
AcDbEntity
  8
0
100
AcDbEllipse
 10
49.49747468305831
 20
-27.76088375154269
 30
0.0
 11
2.749999999999716
 21
4.763139720814574
 31
0.0
210
0.0
220
0.0
230
1.0
 40
0.5773502691896258
 41
3.681736631265629
 42
5.743041329503008
  0
ELLIPSE
  5
A91
330
9D7
100
AcDbEntity
  8
0
100
AcDbEllipse
 10
52.32590180780452
 20
-29.39387691339814
 30
0.0
 11
-2.75
 21
-4.763139720814414
 31
0.0
210
0.0
220
0.0
230
1.0
 40
0.577350269189626
 41
0.0
 42
6.283185307179586
  0
LINE
  5
A92
330
9D7
100
AcDbEntity
  8
0
100
AcDbLine
 10
-21.70925979738684
 20
-11.548654346808
 30
0.0
 11
-21.5595726212929
 21
-11.63507627822007
 31
0.0
  0
LINE
  5
A93
330
9D7
100
AcDbEntity
  8
0
100
AcDbLine
 10
-21.5595726212929
 20
-11.63507627822007
 30
0.0
 11
-21.56316472374133
 21
-11.63715017953563
 31
0.0
  0
LINE
  5
A94
330
9D7
100
AcDbEntity
  8
0
100
AcDbLine
 10
-21.56316472374133
 20
-11.63715017953563
 30
0.0
 11
-21.56675682618975
 21
-11.63507627822008
 31
0.0
  0
LINE
  5
A95
330
9D7
100
AcDbEntity
  8
0
100
AcDbLine
 10
-21.56675682618975
 20
-11.63507627822008
 30
0.0
 11
-46.31549416771891
 21
-25.92376644445528
 31
0.0
  0
LINE
  5
A96
330
9D7
100
AcDbEntity
  8
0
100
AcDbLine
 10
-46.31549416771891
 20
-25.92376644445528
 30
0.0
 11
-46.31190206527048
 21
-25.92584034577083
 31
0.0
  0
LINE
  5
A97
330
9D7
100
AcDbEntity
  8
0
100
AcDbLine
 10
-46.31190206527048
 20
-25.92584034577083
 30
0.0
 11
-46.31549416771891
 21
-25.92791424708639
 31
0.0
  0
LINE
  5
A98
330
9D7
100
AcDbEntity
  8
0
100
AcDbLine
 10
-46.31549416771891
 20
-25.92791424708639
 30
0.0
 11
-59.04700833152516
 21
-18.57737111742132
 31
0.0
  0
LINE
  5
A99
330
9D7
100
AcDbEntity
  8
0
100
AcDbLine
 10
-59.04341622907672
 20
-18.57529721610577
 30
0.0
 11
-59.04700833152516
 21
-18.57737111742132
 31
0.0
  0
LINE
  5
A9A
330
9D7
100
AcDbEntity
  8
0
100
AcDbLine
 10
-49.14392129246509
 20
-21.02478695888892
 30
0.0
 11
-51.97234841721128
 21
-19.39179379703347
 31
0.0
  0
LINE
  5
A9B
330
9D7
100
AcDbEntity
  8
0
100
AcDbLine
 10
-51.97234841721122
 20
-14.49281431146705
 30
0.0
 11
-49.14392129246504
 21
-16.1258074733225
 31
0.0
  0
LINE
  5
A9C
330
9D7
100
AcDbEntity
  8
0
100
AcDbLine
 10
-24.39518395093594
 20
-6.736096792653718
 30
0.0
 11
-49.14392129246509
 21
-21.02478695888892
 31
0.0
  0
LINE
  5
A9D
330
9D7
100
AcDbEntity
  8
0
100
AcDbLine
 10
-49.14392129246504
 20
-16.1258074733225
 30
0.0
 11
-24.39518395093594
 21
-1.837117307087261
 31
0.0
  0
ELLIPSE
  5
A9E
330
9D7
100
AcDbEntity
  8
0
100
AcDbEllipse
 10
-54.80077554195742
 20
-12.85982114961166
 30
0.0
 11
3.9999999999996
 21
-6.928203230275737
 31
0.0
210
0.0
220
0.0
230
1.0
 40
0.5773502691896273
 41
0.7853981633976961
 42
2.356194490192594
  0
LINE
  5
A9F
330
9D7
100
AcDbEntity
  8
0
100
AcDbLine
 10
-54.80077554195748
 20
-9.593834825900726
 30
0.0
 11
-54.80077554195748
 21
-6.327848502189823
 31
0.0
  0
ELLIPSE
  5
AA0
330
9D7
100
AcDbEntity
  8
0
100
AcDbEllipse
 10
-54.80077554195742
 20
-12.85982114961166
 30
0.0
 11
1.9999999999998
 21
-3.464101615137868
 31
0.0
210
0.0
220
0.0
230
1.0
 40
0.5773502691896272
 41
0.7853981633977059
 42
2.356194490192603
  0
ELLIPSE
  5
AA1
330
9D7
100
AcDbEntity
  8
0
100
AcDbEllipse
 10
-30.05203820042833
 20
1.428869016623561
 30
0.0
 11
3.9999999999996
 21
-6.928203230275737
 31
0.0
210
0.0
220
0.0
230
1.0
 40
0.5773502691896273
 41
0.785398163397697
 42
2.356194490192592
  0
LINE
  5
AA2
330
9D7
100
AcDbEntity
  8
0
100
AcDbLine
 10
-54.80077554195748
 20
-6.327848502189823
 30
0.0
 11
-30.05203820042837
 21
7.960841664045412
 31
0.0
  0
ELLIPSE
  5
AA3
330
9D7
100
AcDbEntity
  8
0
100
AcDbEllipse
 10
-21.56675682618975
 20
-8.369089954509174
 30
0.0
 11
-1.999999999999793
 21
3.464101615137874
 31
0.0
210
0.0
220
0.0
230
1.0
 40
0.5773502691896258
 41
0.7853981633976908
 42
2.356194490192585
  0
ELLIPSE
  5
AA4
330
9D7
100
AcDbEntity
  8
0
100
AcDbEllipse
 10
-46.3154941677189
 20
-22.65778012074438
 30
0.0
 11
-1.999999999999793
 21
3.464101615137874
 31
0.0
210
0.0
220
0.0
230
1.0
 40
0.5773502691896258
 41
0.785398163397689
 42
2.356194490192583
  0
ELLIPSE
  5
AA5
330
9D7
100
AcDbEntity
  8
0
100
AcDbEllipse
 10
-46.3154941677189
 20
-22.65778012074438
 30
0.0
 11
-4.000000000000003
 21
6.928203230275511
 31
0.0
210
0.0
220
0.0
230
1.0
 40
0.5773502691896258
 41
0.7853981633974483
 42
1.309730329170493
  0
LINE
  5
AA6
330
9D7
100
AcDbEntity
  8
0
100
AcDbLine
 10
-46.31549416771891
 20
-25.92376644445528
 30
0.0
 11
-46.31549416771891
 21
-25.92791424708639
 31
0.0
  0
LINE
  5
AA7
330
9D7
100
AcDbEntity
  8
0
100
AcDbLine
 10
-59.04700833152516
 20
-18.57737111742132
 30
0.0
 11
-61.34330931915721
 21
-19.9031411107711
 31
0.0
  0
ELLIPSE
  5
AA8
330
9D7
100
AcDbEntity
  8
0
100
AcDbEllipse
 10
-71.4177848998413
 20
-22.45365597551246
 30
0.0
 11
-3.999999999999549
 21
6.928203230275772
 31
0.0
210
0.0
220
0.0
230
1.0
 40
0.577350269189622
 41
0.7853981633976881
 42
2.356194490192589
  0
LINE
  5
AA9
330
9D7
100
AcDbEntity
  8
0
100
AcDbLine
 10
-21.920310216783
 20
2.857738033247034
 30
0.0
 11
-24.21661120441503
 21
1.531968039897266
 31
0.0
  0
LINE
  5
AAA
330
9D7
100
AcDbEntity
  8
0
100
AcDbLine
 10
-69.12148391220924
 20
-24.3938723058736
 30
0.0
 11
-71.41778489984131
 21
-25.71964229922337
 31
0.0
  0
LINE
  5
AAB
330
9D7
100
AcDbEntity
  8
0
100
AcDbLine
 10
-27.04503832916122
 20
6.430947525463599
 30
0.0
 11
-24.74873734152919
 21
7.756717518813358
 31
0.0
  0
LINE
  5
AAC
330
9D7
100
AcDbEntity
  8
0
100
AcDbLine
 10
-74.24621202458749
 20
-20.82066281365702
 30
0.0
 11
-71.94991103695544
 21
-19.49489282030726
 31
0.0
  0
LINE
  5
AAD
330
9D7
100
AcDbEntity
  8
0
100
AcDbLine
 10
-64.17173644390341
 20
-15.00416162520477
 30
0.0
 11
-61.87543545627135
 21
-13.67839163185498
 31
0.0
  0
ELLIPSE
  5
AAE
330
9D7
100
AcDbEntity
  8
0
100
AcDbEllipse
 10
-71.4177848998413
 20
-22.45365597551246
 30
0.0
 11
2.000000000000184
 21
-3.464101615137646
 31
0.0
210
0.0
220
0.0
230
1.0
 40
0.5773502691896226
 41
3.926990816986993
 42
5.4977871437819
  0
ELLIPSE
  5
AAF
330
9D7
100
AcDbEntity
  8
0
100
AcDbEllipse
 10
-21.920310216783
 20
6.12372435695792
 30
0.0
 11
-1.99999999999979
 21
3.464101615137876
 31
0.0
210
0.0
220
0.0
230
1.0
 40
0.5773502691896251
 41
0.7853981633976926
 42
2.356194490192596
  0
LINE
  5
AB0
330
9D7
100
AcDbEntity
  8
0
100
AcDbLine
 10
-71.41778489984131
 20
-25.71964229922337
 30
0.0
 11
-71.41778489984131
 21
-28.98562862293427
 31
0.0
  0
LINE
  5
AB1
330
9D7
100
AcDbEntity
  8
0
100
AcDbLine
 10
-77.07463914933369
 20
-19.18766965180157
 30
0.0
 11
-74.24621202458749
 21
-20.82066281365702
 31
0.0
  0
LINE
  5
AB2
330
9D7
100
AcDbEntity
  8
0
100
AcDbLine
 10
-61.34330931915721
 20
-19.9031411107711
 30
0.0
 11
24.74873734152915
 21
-69.60840742540419
 31
0.0
  0
ELLIPSE
  5
AB3
330
9D7
100
AcDbEntity
  8
0
100
AcDbEllipse
 10
39.41940699992584
 20
-74.81253617816067
 30
0.0
 11
-2.5
 21
-0.0000000000000008
 31
0.0
210
0.0
220
0.0
230
1.0
 40
0.5773502691896252
 41
5.497787143782138
 42
5.956113878611549
  0
LINE
  5
AB4
330
9D7
100
AcDbEntity
  8
0
100
AcDbLine
 10
37.65164004695942
 20
-38.27431418164495
 30
0.0
 11
37.65164004695944
 21
-73.791915452001
 31
0.0
  0
ELLIPSE
  5
AB5
330
9D7
100
AcDbEntity
  8
0
100
AcDbEllipse
 10
39.41940699992579
 20
-39.2949349078046
 30
0.0
 11
-2.5
 21
-0.0000000000000001
 31
0.0
210
0.0
220
0.0
230
1.0
 40
0.5773502691896257
 41
5.497787143782137
 42
5.956113878611547
  0
LINE
  5
AB6
330
9D7
100
AcDbEntity
  8
0
100
AcDbLine
 10
37.05193882880107
 20
-74.34882130214624
 30
0.0
 11
37.05193882880103
 21
-38.8312200317902
 31
0.0
  0
LINE
  5
AB7
330
9D7
100
AcDbEntity
  8
0
100
AcDbLine
 10
36.06432411568098
 20
-76.02955697226501
 30
0.0
 11
37.05193882880107
 21
-74.34882130214624
 31
0.0
  0
LINE
  5
AB8
330
9D7
100
AcDbEntity
  8
0
100
AcDbLine
 10
37.05193882880103
 20
-38.8312200317902
 30
0.0
 11
36.06432411568093
 21
-40.51195570190894
 31
0.0
  0
LINE
  5
AB9
330
9D7
100
AcDbEntity
  8
0
100
AcDbLine
 10
36.06432411568098
 20
-76.02955697226501
 30
0.0
 11
36.06432411568093
 21
-40.51195570190894
 31
0.0
  0
ELLIPSE
  5
ABA
330
9D7
100
AcDbEntity
  8
0
100
AcDbEllipse
 10
31.99478579746705
 20
-70.52592912829012
 30
0.0
 11
4.000000000000002
 21
-6.928203230275508
 31
0.0
210
0.0
220
0.0
230
1.0
 40
0.5773502691896257
 41
0.0873549802103533
 42
0.7853981633974501
  0
ELLIPSE
  5
ABB
330
9D7
100
AcDbEntity
  8
0
100
AcDbEllipse
 10
31.21264057464594
 20
-70.97750088323128
 30
0.0
 11
4.129007392883866
 21
-7.151650589302365
 31
0.0
210
0.0
220
0.0
230
1.0
 40
0.5773502691896258
 41
0.3563573857464775
 42
0.7853981633974511
  0
ELLIPSE
  5
ABC
330
9D7
100
AcDbEntity
  8
0
100
AcDbEllipse
 10
29.26327343071637
 20
-72.10296852852843
 30
0.0
 11
4.809069058531877
 21
-8.329551946484638
 31
0.0
210
0.0
220
0.0
230
1.0
 40
0.5773502691896259
 41
0.356357385746477
 42
0.7853981633974504
  0
ELLIPSE
  5
ABD
330
9D7
100
AcDbEntity
  8
0
100
AcDbEllipse
 10
-65.23239661568323
 20
-20.76046252074521
 30
0.0
 11
-1.850000000000001
 21
-3.204293994002423
 31
0.0
210
0.0
220
0.0
230
1.0
 40
0.5773502691896258
 41
0.3270714285680417
 42
1.243724898226859
  0
LINE
  5
ABE
330
9D7
100
AcDbEntity
  8
0
100
AcDbLine
 10
24.74873734152916
 20
-76.75699525518393
 30
0.0
 11
-66.38997154545851
 21
-24.13803714568667
 31
0.0
  0
LINE
  5
ABF
330
9D7
100
AcDbEntity
  8
0
100
AcDbLine
 10
-64.07482168590791
 20
-22.8013847510608
 30
0.0
 11
24.74873734152911
 21
-74.08369046593216
 31
0.0
  0
LINE
  5
AC0
330
9D7
100
AcDbEntity
  8
0
100
AcDbLine
 10
-62.12545454197836
 20
-20.56538105612041
 30
0.0
 11
-64.07482168590791
 21
-22.8013847510608
 31
0.0
  0
LINE
  5
AC1
330
9D7
100
AcDbEntity
  8
0
100
AcDbLine
 10
-62.12545454197836
 20
-20.56538105612041
 30
0.0
 11
24.74873734152913
 21
-70.72221912569466
 31
0.0
  0
ELLIPSE
  5
AC2
330
9D7
100
AcDbEntity
  8
0
100
AcDbEllipse
 10
-61.34330931915719
 20
-21.94438256309041
 30
0.0
 11
-1.249999999999867
 21
-2.165063509461165
 31
0.0
210
0.0
220
0.0
230
1.0
 40
0.5773502691896259
 41
3.926990816986998
 42
4.385317551816513
  0
ELLIPSE
  5
AC3
330
9D7
100
AcDbEntity
  8
0
100
AcDbEllipse
 10
-66.85874221241227
 20
-17.94354931654454
 30
0.0
 11
-3.7
 21
0.0000000000000001
 31
0.0
210
0.0
220
0.0
230
1.0
 40
0.5773502691896257
 41
5.039460408952728
 42
5.956113878611546
  0
ELLIPSE
  5
AC4
330
9D7
100
AcDbEntity
  8
0
100
AcDbEllipse
 10
-66.38997154545851
 20
-19.55084658192437
 30
0.0
 11
-2.809069058531594
 21
4.86545033134706
 31
0.0
210
0.0
220
0.0
230
0.9999999999999998
 40
0.5773502691896259
 41
0.7853981633976899
 42
2.356194490192583
  0
ELLIPSE
  5
AC5
330
9D7
100
AcDbEntity
  8
0
100
AcDbEllipse
 10
-64.07482168590791
 20
-18.21419418729849
 30
0.0
 11
2.809069058532185
 21
-4.86545033134674
 31
0.0
210
0.0
220
0.0
230
1.0
 40
0.5773502691896258
 41
3.926990816987
 42
5.497787143781893
  0
LINE
  5
AC6
330
9D7
100
AcDbEntity
  8
0
100
AcDbLine
 10
-65.13632567138731
 20
-15.35039928494181
 30
0.0
 11
-68.04744524612631
 21
-15.92059890541734
 31
0.0
  0
ELLIPSE
  5
AC7
330
9D7
100
AcDbEntity
  8
0
100
AcDbEllipse
 10
-62.12545454197834
 20
-17.08872654200135
 30
0.0
 11
2.129007392884099
 21
-3.687548974164501
 31
0.0
210
0.0
220
0.0
230
1.0
 40
0.5773502691896257
 41
3.926990816986998
 42
5.497787143781893
  0
ELLIPSE
  5
AC8
330
9D7
100
AcDbEntity
  8
0
100
AcDbEllipse
 10
-65.93950339686976
 20
-13.98354089904507
 30
0.0
 11
-2.499999999999992
 21
0.0000000000001502
 31
0.0
210
0.0
220
0.0
230
1.0
 40
0.5773502691896261
 41
1.897867755363071
 42
2.35619449019259
  0
ELLIPSE
  5
AC9
330
9D7
100
AcDbEntity
  8
0
100
AcDbEllipse
 10
-61.34330931915721
 20
-16.6371547870602
 30
0.0
 11
2.000000000000208
 21
-3.464101615137632
 31
0.0
210
0.0
220
0.0
230
1.0
 40
0.5773502691896258
 41
3.926990816987006
 42
5.497787143781895
  0
ELLIPSE
  5
ACA
330
9D7
100
AcDbEntity
  8
0
100
AcDbEllipse
 10
-66.85874221241228
 20
17.57405195381149
 30
0.0
 11
-3.7
 21
0.0000000000000001
 31
0.0
210
0.0
220
0.0
230
1.0
 40
0.5773502691896257
 41
5.039460408952728
 42
5.956113878611546
  0
LINE
  5
ACB
330
9D7
100
AcDbEntity
  8
0
100
AcDbLine
 10
-70.36259510567692
 20
-17.25725130004323
 30
0.0
 11
-70.36259510567693
 21
18.26034997031282
 31
0.0
  0
LINE
  5
ACC
330
9D7
100
AcDbEntity
  8
0
100
AcDbLine
 10
-68.04744524612634
 20
19.59700236493865
 30
0.0
 11
-68.04744524612631
 21
-15.92059890541734
 31
0.0
  0
LINE
  5
ACD
330
9D7
100
AcDbEntity
  8
0
100
AcDbLine
 10
-65.13632567138731
 20
20.16720198541418
 30
0.0
 11
-68.04744524612634
 21
19.59700236493865
 31
0.0
  0
LINE
  5
ACE
330
9D7
100
AcDbEntity
  8
0
100
AcDbLine
 10
-65.13632567138731
 20
20.16720198541418
 30
0.0
 11
-65.13632567138731
 21
-15.35039928494181
 31
0.0
  0
ELLIPSE
  5
ACF
330
9D7
100
AcDbEntity
  8
0
100
AcDbEllipse
 10
-65.93950339686978
 20
21.53406037131092
 30
0.0
 11
-2.499999999999993
 21
0.0000000000001489
 31
0.0
210
0.0
220
0.0
230
1.0
 40
0.5773502691896258
 41
1.897867755363071
 42
2.35619449019259
  0
LINE
  5
AD0
330
9D7
100
AcDbEntity
  8
0
100
AcDbLine
 10
-64.1717364439034
 20
20.51343964515128
 30
0.0
 11
-64.17173644390341
 21
-15.00416162520477
 31
0.0
  0
ELLIPSE
  5
AD1
330
9D7
100
AcDbEntity
  8
0
100
AcDbEllipse
 10
-69.20502017590163
 20
18.92867616762573
 30
0.0
 11
0.8185290825757371
 21
1.41773395849372
 31
0.0
210
0.0
220
0.0
230
1.0
 40
0.5773502691896259
 41
5.497787143782373
 42
8.639379797372168
  0
LINE
  5
AD2
330
9D7
100
AcDbEntity
  8
0
100
AcDbLine
 10
-71.35020981879704
 20
16.57961430019406
 30
0.0
 11
-70.36259510567693
 21
18.26034997031282
 31
0.0
  0
ELLIPSE
  5
AD3
330
9D7
100
AcDbEntity
  8
0
100
AcDbEllipse
 10
-68.24326774509218
 20
18.37340814280412
 30
0.0
 11
2.196939809070725
 21
3.805211370480637
 31
0.0
210
0.0
220
0.0
230
1.0
 40
0.5773502691896259
 41
5.497787143782375
 42
8.639379797372168
  0
ELLIPSE
  5
AD4
330
9D7
100
AcDbEntity
  8
0
100
AcDbEllipse
 10
-73.7176779899218
 20
17.04332917620847
 30
0.0
 11
2.499999999999993
 21
0.0000000000000001
 31
0.0
210
0.0
220
0.0
230
1.0
 40
0.5773502691896258
 41
5.497787143782134
 42
5.956113878611544
  0
ELLIPSE
  5
AD5
330
9D7
100
AcDbEntity
  8
0
100
AcDbEllipse
 10
-68.06082374042944
 20
18.26807404760007
 30
0.0
 11
2.750000000000287
 21
4.763139720814248
 31
0.0
210
0.0
220
0.0
230
1.0
 40
0.5773502691896257
 41
5.497787143782379
 42
8.639379797372173
  0
LINE
  5
AD6
330
9D7
100
AcDbEntity
  8
0
100
AcDbLine
 10
-71.35020981879701
 20
-18.93798697016199
 30
0.0
 11
-70.36259510567692
 21
-17.25725130004323
 31
0.0
  0
LINE
  5
AD7
330
9D7
100
AcDbEntity
  8
0
100
AcDbLine
 10
-71.35020981879701
 20
-18.93798697016199
 30
0.0
 11
-71.35020981879704
 21
16.57961430019406
 31
0.0
  0
ELLIPSE
  5
AD8
330
9D7
100
AcDbEntity
  8
0
100
AcDbEllipse
 10
-73.71767798992178
 20
-18.47427209414756
 30
0.0
 11
2.499999999999993
 21
0.0000000000000001
 31
0.0
210
0.0
220
0.0
230
1.0
 40
0.5773502691896258
 41
5.497787143782134
 42
5.956113878611544
  0
LINE
  5
AD9
330
9D7
100
AcDbEntity
  8
0
100
AcDbLine
 10
-71.94991103695544
 20
-19.49489282030726
 30
0.0
 11
-71.94991103695542
 21
16.02270845004879
 31
0.0
  0
LINE
  5
ADA
330
9D7
100
AcDbEntity
  8
0
100
AcDbLine
 10
-68.33933868938807
 20
-24.15296874134057
 30
0.0
 11
-66.38997154545851
 21
-24.13803714568667
 31
0.0
  0
ELLIPSE
  5
ADB
330
9D7
100
AcDbEntity
  8
0
100
AcDbEllipse
 10
-68.33933868938807
 20
-20.67631422722152
 30
0.0
 11
-2.129007392883643
 21
3.68754897416473
 31
0.0
210
0.0
220
0.0
230
0.9999999999999998
 40
0.5773502691896259
 41
0.7853981633976872
 42
2.356194490192583
  0
ELLIPSE
  5
ADC
330
9D7
100
AcDbEntity
  8
0
100
AcDbEllipse
 10
-69.12148391220923
 20
-26.43511375819289
 30
0.0
 11
1.249999999999996
 21
2.16506350946109
 31
0.0
210
0.0
220
0.0
230
1.0
 40
0.5773502691896259
 41
0.3270714285680398
 42
0.7853981633974536
  0
ELLIPSE
  5
ADD
330
9D7
100
AcDbEntity
  8
0
100
AcDbEllipse
 10
-69.12148391220923
 20
-21.12788598216269
 30
0.0
 11
-1.999999999999794
 21
3.464101615137873
 31
0.0
210
0.0
220
0.0
230
1.0
 40
0.5773502691896258
 41
0.7853981633976961
 42
2.356194490192585
  0
LINE
  5
ADE
330
9D7
100
AcDbEntity
  8
0
100
AcDbLine
 10
24.74873734152917
 20
-77.89739449613496
 30
0.0
 11
-68.33933868938807
 21
-24.15296874134057
 31
0.0
  0
ELLIPSE
  5
ADF
330
9D7
100
AcDbEntity
  8
0
100
AcDbEllipse
 10
24.21661120441506
 20
-80.32388809942279
 30
0.0
 11
1.249999999999996
 21
2.16506350946109
 31
0.0
210
0.0
220
0.0
230
1.0
 40
0.5773502691896259
 41
0.48035964125169
 42
0.785398163397451
  0
LINE
  5
AE0
330
9D7
100
AcDbEntity
  8
0
100
AcDbLine
 10
24.21661120441503
 20
-78.28264664710349
 30
0.0
 11
-69.12148391220923
 21
-24.3938723058736
 31
0.0
  0
ELLIPSE
  5
AE1
330
9D7
100
AcDbEntity
  8
0
100
AcDbEllipse
 10
32.56047122241632
 20
-75.34325895576369
 30
0.0
 11
3.7
 21
0.000000000000001
 31
0.0
210
0.0
220
0.0
230
1.0
 40
0.5773502691896254
 41
5.039460408952725
 42
5.956113878611544
  0
ELLIPSE
  5
AE2
330
9D7
100
AcDbEntity
  8
0
100
AcDbEllipse
 10
26.94812357116577
 20
-73.43962092315428
 30
0.0
 11
4.809069058531873
 21
-8.329551946484629
 31
0.0
210
0.0
220
0.0
230
1.0
 40
0.5773502691896259
 41
5.926827921433109
 42
7.068583470577035
  0
ELLIPSE
  5
AE3
330
9D7
100
AcDbEntity
  8
0
100
AcDbEllipse
 10
24.21661120441504
 20
-75.0166603233926
 30
0.0
 11
-1.999999999999795
 21
3.464101615137873
 31
0.0
210
0.0
220
0.0
230
1.0
 40
0.5773502691896259
 41
2.356194490192631
 42
2.530118350227274
  0
ELLIPSE
  5
AE4
330
9D7
100
AcDbEntity
  8
0
100
AcDbEllipse
 10
31.64123240687381
 20
-79.30326737326314
 30
0.0
 11
-2.5
 21
-0.0000000000000003
 31
0.0
210
0.0
220
0.0
230
1.0
 40
0.5773502691896254
 41
5.039460408952727
 42
5.497787143782136
  0
ELLIPSE
  5
AE5
330
9D7
100
AcDbEntity
  8
0
100
AcDbEllipse
 10
24.21661120441504
 20
-75.0166603233926
 30
0.0
 11
3.999999999999999
 21
-6.928203230275512
 31
0.0
210
0.0
220
0.0
230
1.0
 40
0.5773502691896258
 41
0.0000000000000004
 42
0.7853981633974502
  0
ELLIPSE
  5
AE6
330
9D7
100
AcDbEntity
  8
0
100
AcDbEllipse
 10
24.99875642723621
 20
-74.56508856845144
 30
0.0
 11
4.12900739288386
 21
-7.151650589302355
 31
0.0
210
0.0
220
0.0
230
1.0
 40
0.5773502691896259
 41
6.032553165927083
 42
7.068583470577037
  0
LINE
  5
AE7
330
9D7
100
AcDbEntity
  8
0
100
AcDbLine
 10
33.74917425613035
 20
-77.36620936689085
 30
0.0
 11
30.83805468139134
 21
-77.93640898736639
 31
0.0
  0
ELLIPSE
  5
AE8
330
9D7
100
AcDbEntity
  8
0
100
AcDbEllipse
 10
32.56047122241628
 20
-39.82565768540762
 30
0.0
 11
3.7
 21
0.0000000000000003
 31
0.0
210
0.0
220
0.0
230
1.0
 40
0.5773502691896257
 41
5.039460408952727
 42
5.956113878611549
  0
LINE
  5
AE9
330
9D7
100
AcDbEntity
  8
0
100
AcDbLine
 10
33.74917425613035
 20
-41.84860809653479
 30
0.0
 11
33.74917425613035
 21
-77.36620936689085
 31
0.0
  0
ELLIPSE
  5
AEA
330
9D7
100
AcDbEntity
  8
0
100
AcDbEllipse
 10
31.6412324068738
 20
-43.78566610290708
 30
0.0
 11
-2.5
 21
-0.0000000000000001
 31
0.0
210
0.0
220
0.0
230
1.0
 40
0.5773502691896258
 41
5.039460408952727
 42
5.497787143782137
  0
LINE
  5
AEB
330
9D7
100
AcDbEntity
  8
0
100
AcDbLine
 10
29.87346545390741
 20
-78.28264664710349
 30
0.0
 11
29.8734654539074
 21
-42.76504537674743
 31
0.0
  0
LINE
  5
AEC
330
9D7
100
AcDbEntity
  8
0
100
AcDbLine
 10
30.83805468139133
 20
-42.41880771701032
 30
0.0
 11
30.83805468139134
 21
-77.93640898736639
 31
0.0
  0
LINE
  5
AED
330
9D7
100
AcDbEntity
  8
0
100
AcDbLine
 10
33.74917425613035
 20
-41.84860809653479
 30
0.0
 11
30.83805468139133
 21
-42.41880771701032
 31
0.0
  0
ELLIPSE
  5
AEE
330
9D7
100
AcDbEntity
  8
0
100
AcDbEllipse
 10
34.90674918590564
 20
-41.18028189922187
 30
0.0
 11
0.8185290825756478
 21
1.417733958493762
 31
0.0
210
0.0
220
0.0
230
1.0
 40
0.5773502691896259
 41
5.497787143782139
 42
8.639379797371933
  0
ELLIPSE
  5
AEF
330
9D7
100
AcDbEntity
  8
0
100
AcDbEllipse
 10
33.76255275043342
 20
-40.51967977919618
 30
0.0
 11
2.750000000000285
 21
4.763139720814249
 31
0.0
210
0.0
220
0.0
230
1.0
 40
0.577350269189626
 41
5.497787143782377
 42
8.639379797372169
  0
ELLIPSE
  5
AF0
330
9D7
100
AcDbEntity
  8
0
100
AcDbEllipse
 10
33.94499675509618
 20
-40.62501387440025
 30
0.0
 11
2.196939809070494
 21
3.805211370480763
 31
0.0
210
0.0
220
0.0
230
1.0
 40
0.5773502691896258
 41
5.497787143782137
 42
8.639379797371933
  0
LINE
  5
AF1
330
9D7
100
AcDbEntity
  8
0
100
AcDbLine
 10
36.52269521826119
 20
-76.84819225515989
 30
0.0
 11
35.44791226903241
 21
-78.94058288533227
 31
0.0
  0
SPLINE
  5
AF2
330
9D7
100
AcDbEntity
  8
0
100
AcDbSpline
210
0.0
220
0.0
230
1.0
 70
     8
 71
     3
 72
    16
 73
    12
 74
     0
 42
0.000000001
 43
0.0000000001
 40
0.4290407776509693
 40
0.4290407776509693
 40
0.4290407776509693
 40
0.4290407776509693
 40
0.5715837319495608
 40
0.5715837319495608
 40
0.7141266862481521
 40
0.7141266862481521
 40
0.8566696405467435
 40
0.8566696405467435
 40
0.9992125948453349
 40
0.9992125948453349
 40
1.141755549143926
 40
1.141755549143926
 40
1.141755549143926
 40
1.141755549143926
 10
35.44791226903241
 20
-78.94058288533225
 30
0.0
 10
35.2479667621271
 20
-79.32983739062001
 30
0.0
 10
35.00368466544775
 20
-79.70974809036071
 30
0.0
 10
34.42013955571093
 20
-80.42043515811331
 30
0.0
 10
34.08048469119742
 20
-80.75066339776933
 30
0.0
 10
33.32204688328949
 20
-81.32320781857636
 30
0.0
 10
32.90369829903214
 20
-81.56474148631245
 30
0.0
 10
32.02864138186423
 20
-81.93529568474779
 30
0.0
 10
31.57282790501835
 20
-82.06433130610745
 30
0.0
 10
30.6655822953351
 20
-82.21435266151742
 30
0.0
 10
30.21442892985046
 20
-82.23595181306109
 30
0.0
 10
29.77735188628106
 20
-82.21448244876979
 30
0.0
  0
LINE
  5
AF3
330
9D7
100
AcDbEntity
  8
0
100
AcDbLine
 10
27.90860821672163
 20
-82.1226891615241
 30
0.0
 11
29.77735188628108
 21
-82.21448244876979
 31
0.0
  0
LINE
  5
AF4
330
9D7
100
AcDbEntity
  8
0
100
AcDbLine
 10
-61.87543545627135
 20
-13.67839163185498
 30
0.0
 11
-61.87543545627135
 21
1.022694627475244
 31
0.0
  0
LINE
  5
AF5
330
9D7
100
AcDbEntity
  8
0
100
AcDbLine
 10
-61.87543545627135
 20
1.022694627475244
 30
0.0
 11
-61.87184335382291
 21
1.024768528790795
 31
0.0
  0
LINE
  5
AF6
330
9D7
100
AcDbEntity
  8
0
100
AcDbLine
 10
-61.87184335382291
 20
1.024768528790795
 30
0.0
 11
-61.87184335382291
 21
1.020620726159693
 31
0.0
  0
LINE
  5
AF7
330
9D7
100
AcDbEntity
  8
0
100
AcDbLine
 10
-61.87184335382291
 20
1.020620726159693
 30
0.0
 11
-37.12310601229376
 21
15.30931089239488
 31
0.0
  0
LINE
  5
AF8
330
9D7
100
AcDbEntity
  8
0
100
AcDbLine
 10
-37.12310601229376
 20
15.30931089239488
 30
0.0
 11
-37.12310601229376
 21
15.313458695026
 31
0.0
  0
LINE
  5
AF9
330
9D7
100
AcDbEntity
  8
0
100
AcDbLine
 10
-37.12310601229376
 20
15.313458695026
 30
0.0
 11
-37.11951390984533
 21
15.31553259634155
 31
0.0
  0
LINE
  5
AFA
330
9D7
100
AcDbEntity
  8
0
100
AcDbLine
 10
-37.11951390984533
 20
15.31553259634155
 30
0.0
 11
-37.11951390984533
 21
15.14268873351718
 31
0.0
  0
LINE
  5
AFB
330
9D7
100
AcDbEntity
  8
0
100
AcDbLine
 10
-61.87543545627135
 20
-13.67839163185498
 30
0.0
 11
-61.87184335382291
 21
-13.67631773053943
 31
0.0
  0
LINE
  5
AFC
330
9D7
100
AcDbEntity
  8
0
100
AcDbLine
 10
-59.04341622907672
 20
-7.144345083117586
 30
0.0
 11
-59.04341622907672
 21
-3.878358759406683
 31
0.0
  0
LINE
  5
AFD
330
9D7
100
AcDbEntity
  8
0
100
AcDbLine
 10
-59.04341622907672
 20
-3.878358759406683
 30
0.0
 11
-34.29467888754756
 21
10.41033140682851
 31
0.0
  0
ELLIPSE
  5
AFE
330
9D7
100
AcDbEntity
  8
0
100
AcDbEllipse
 10
-34.29467888754756
 20
13.67631773053943
 30
0.0
 11
2.000000000000214
 21
-3.464101615137645
 31
0.0
210
0.0
220
0.0
230
1.0
 40
0.5773502691896259
 41
3.926990816986998
 42
5.497787143781895
  0
ELLIPSE
  5
AFF
330
9D7
100
AcDbEntity
  8
0
100
AcDbEllipse
 10
-59.04341622907672
 20
-0.6123724356957628
 30
0.0
 11
4.000000000000008
 21
-6.928203230275522
 31
0.0
210
0.0
220
0.0
230
1.0
 40
0.5773502691896259
 41
4.97345497800909
 42
5.497787143782137
  0
ELLIPSE
  5
B00
330
9D7
100
AcDbEntity
  8
0
100
AcDbEllipse
 10
-59.04341622907672
 20
-0.6123724356957628
 30
0.0
 11
2.000000000000214
 21
-3.464101615137645
 31
0.0
210
0.0
220
0.0
230
1.0
 40
0.5773502691896259
 41
3.926990816987
 42
5.497787143781895
  0
LINE
  5
B01
330
9D7
100
AcDbEntity
  8
0
100
AcDbLine
 10
-61.87543545627135
 20
1.022694627475244
 30
0.0
 11
-61.87184335382291
 21
1.020620726159693
 31
0.0
  0
LINE
  5
B02
330
9D7
100
AcDbEntity
  8
0
100
AcDbLine
 10
-49.14392129246509
 20
-21.02478695888892
 30
0.0
 11
-49.14392129246504
 21
-16.1258074733225
 31
0.0
  0
LINE
  5
B03
330
9D7
100
AcDbEntity
  8
0
100
AcDbLine
 10
-51.97234841721122
 20
-14.49281431146705
 30
0.0
 11
-51.97234841721128
 21
-19.39179379703347
 31
0.0
  0
LINE
  5
B04
330
9D7
100
AcDbEntity
  8
0
100
AcDbLine
 10
-24.39518395093594
 20
-1.837117307087261
 30
0.0
 11
-24.39518395093594
 21
-6.736096792653718
 31
0.0
  0
LINE
  5
B05
330
9D7
100
AcDbEntity
  8
0
100
AcDbLine
 10
-59.04341622907672
 20
-3.878358759406683
 30
0.0
 11
-54.80077554195748
 21
-6.327848502189823
 31
0.0
  0
LINE
  5
B06
330
9D7
100
AcDbEntity
  8
0
100
AcDbLine
 10
-59.04341622907672
 20
-7.144345083117586
 30
0.0
 11
-54.80077554195748
 21
-9.593834825900726
 31
0.0
  0
LINE
  5
B07
330
9D7
100
AcDbEntity
  8
0
100
AcDbLine
 10
-30.05203820042837
 20
7.960841664045412
 30
0.0
 11
-34.29467888754756
 21
10.41033140682851
 31
0.0
  0
ENDBLK
  5
9D9
330
9D7
100
AcDbEntity
  8
0
100
AcDbBlockEnd
  0
ENDSEC
  0
SECTION
  2
ENTITIES
  0
INSERT
  5
B08
330
1F
100
AcDbEntity
  8
0
100
AcDbBlockReference
  2
PU140-B-Front
 10
0.0
 20
0.0
 30
0.0
  0
INSERT
  5
B09
330
1F
100
AcDbEntity
  8
0
100
AcDbBlockReference
  2
PU140-B-Left
 10
142.8
 20
0.0
 30
0.0
  0
INSERT
  5
B0A
330
1F
100
AcDbEntity
  8
0
100
AcDbBlockReference
  2
PU140-B-Right
 10
-142.8
 20
0.0
 30
0.0
  0
INSERT
  5
B0B
330
1F
100
AcDbEntity
  8
0
100
AcDbBlockReference
  2
PU140-B-Top
 10
0.0
 20
-68.80000000000002
 30
0.0
  0
INSERT
  5
B0C
330
1F
100
AcDbEntity
  8
0
100
AcDbBlockReference
  2
PU140-B-Bottom
 10
0.0
 20
170.8
 30
0.0
  0
INSERT
  5
B0D
330
1F
100
AcDbEntity
  8
0
100
AcDbBlockReference
  2
PU140-B-ISO
 10
184.8746391493337
 20
-118.7156444164835
 30
0.0
  0
MTEXT
  5
B0E
330
1F
100
AcDbEntity
  8
0
100
AcDbMText
 10
0.0
 20
-135.6
 30
0.0
 40
10.6
 41
0.0
 71
     5
 72
     5
  1
PU140-B
 73
     1
 44
1.0
1001
ACAD
1000
MTEXTBEGIN
1070
    73
1070
     1
1070
    44
1040
1.0
1070
    74
1070
     0
1000
MTEXTEND
  0
ENDSEC
  0
SECTION
  2
OBJECTS
  0
DICTIONARY
  5
C
330
0
100
AcDbDictionary
281
     1
  3
ACAD_CIP_PREVIOUS_PRODUCT_INFO
350
1A5
  3
ACAD_COLOR
350
73
  3
ACAD_DETAILVIEWSTYLE
350
1AB
  3
ACAD_GROUP
350
D
  3
ACAD_LAYOUT
350
1A
  3
ACAD_MATERIAL
350
72
  3
ACAD_MLEADERSTYLE
350
D7
  3
ACAD_MLINESTYLE
350
17
  3
ACAD_PLOTSETTINGS
350
19
  3
ACAD_PLOTSTYLENAME
350
E
  3
ACAD_SCALELIST
350
B6
  3
ACAD_SECTIONVIEWSTYLE
350
1A8
  3
ACAD_TABLESTYLE
350
86
  3
ACAD_VISUALSTYLE
350
99
  3
ACDB_RECOMPOSE_DATA
350
C06
  3
AcDbVariableDictionary
350
66
  3
DWGPROPS
350
C07
  0
DICTIONARY
  5
B5E
330
8
100
AcDbDictionary
280
     1
281
     1
  0
DICTIONARY
  5
18E
330
2
100
AcDbDictionary
280
     1
281
     1
  3
ACAD_LAYERSTATES
360
18F
  0
DICTIONARY
  5
E6
330
10
100
AcDbDictionary
280
     1
281
     1
  0
DICTIONARY
  5
15D
330
1F
100
AcDbDictionary
280
     1
281
     1
  3
ACAD_LAYOUTSELFREF
360
B66
  0
DICTIONARY
  5
B12
330
58
100
AcDbDictionary
280
     1
281
     1
  3
ACAD_LAYOUTSELFREF
360
B68
  0
DICTIONARY
  5
B14
330
5D
100
AcDbDictionary
280
     1
281
     1
  3
ACAD_LAYOUTSELFREF
360
B6B
  0
XRECORD
  5
1A5
102
{ACAD_REACTORS
330
C
102
}
330
C
100
AcDbXrecord
280
     1
300
ACD
300
2021
300
87393ACD_2021_0F
  0
DICTIONARY
  5
73
102
{ACAD_REACTORS
330
C
102
}
330
C
100
AcDbDictionary
281
     1
  0
DICTIONARY
  5
1AB
102
{ACAD_REACTORS
330
C
102
}
330
C
100
AcDbDictionary
281
     1
  3
Imperial24
350
1AC
  0
DICTIONARY
  5
D
102
{ACAD_REACTORS
330
C
102
}
330
C
100
AcDbDictionary
281
     1
  0
DICTIONARY
  5
1A
102
{ACAD_REACTORS
330
C
102
}
330
C
100
AcDbDictionary
281
     1
  3
Layout1
350
59
  3
Layout2
350
5E
  3
Model
350
22
  0
DICTIONARY
  5
72
102
{ACAD_REACTORS
330
C
102
}
330
C
100
AcDbDictionary
281
     1
  3
ByBlock
350
97
  3
ByLayer
350
96
  3
Global
350
98
  0
DICTIONARY
  5
D7
102
{ACAD_REACTORS
330
C
102
}
330
C
100
AcDbDictionary
281
     1
  3
Standard
350
D8
  0
DICTIONARY
  5
17
102
{ACAD_REACTORS
330
C
102
}
330
C
100
AcDbDictionary
281
     1
  3
Standard
350
18
  0
DICTIONARY
  5
19
102
{ACAD_REACTORS
330
C
102
}
330
C
100
AcDbDictionary
281
     1
  0
ACDBDICTIONARYWDFLT
  5
E
102
{ACAD_REACTORS
330
C
102
}
330
C
100
AcDbDictionary
281
     1
  3
Normal
350
F
100
AcDbDictionaryWithDefault
340
F
  0
DICTIONARY
  5
B6
102
{ACAD_REACTORS
330
C
102
}
330
C
100
AcDbDictionary
281
     1
  3
A0
350
B7
  3
A1
350
124
  3
A2
350
125
  3
A3
350
126
  3
A4
350
127
  3
A5
350
128
  3
A6
350
129
  3
A7
350
12A
  3
A8
350
12B
  3
A9
350
12C
  3
B0
350
12D
  3
B1
350
12E
  3
B2
350
12F
  3
B3
350
130
  3
B4
350
131
  3
B5
350
132
  3
B6
350
133
  3
B7
350
134
  3
B8
350
135
  3
B9
350
136
  3
C0
350
137
  3
C1
350
138
  3
C2
350
139
  3
C3
350
13A
  3
C4
350
13B
  3
C5
350
13C
  3
C6
350
13D
  3
C7
350
13E
  3
C8
350
13F
  3
C9
350
140
  3
D0
350
141
  3
D1
350
142
  3
D2
350
143
  0
DICTIONARY
  5
1A8
102
{ACAD_REACTORS
330
C
102
}
330
C
100
AcDbDictionary
281
     1
  3
Imperial24
350
1AA
  0
DICTIONARY
  5
86
102
{ACAD_REACTORS
330
C
102
}
330
C
100
AcDbDictionary
281
     1
  3
Standard
350
87
  0
DICTIONARY
  5
99
102
{ACAD_REACTORS
330
C
102
}
330
C
100
AcDbDictionary
281
     1
  3
2dWireframe
350
9F
  3
Basic
350
9E
  3
Brighten
350
A5
  3
ColorChange
350
A9
  3
Conceptual
350
A2
  3
Dim
350
A4
  3
EdgeColorOff
350
175
  3
Facepattern
350
A8
  3
Flat
350
9A
  3
FlatWithEdges
350
9B
  3
Gouraud
350
9C
  3
GouraudWithEdges
350
9D
  3
Hidden
350
A1
  3
JitterOff
350
173
  3
Linepattern
350
A7
  3
OverhangOff
350
174
  3
Realistic
350
A3
  3
Shaded
350
182
  3
Shaded with edges
350
181
  3
Shades of Gray
350
17E
  3
Sketchy
350
17F
  3
Thicken
350
A6
  3
Wireframe
350
A0
  3
X-Ray
350
180
  0
XRECORD
  5
C06
102
{ACAD_REACTORS
330
C
102
}
330
C
100
AcDbXrecord
280
     1
 90
        1
330
87
  0
DICTIONARY
  5
66
102
{ACAD_REACTORS
330
C
102
}
330
C
100
AcDbDictionary
281
     1
  3
CANNOSCALE
350
F0
  3
CMLEADERSTYLE
350
EF
  3
CTABLESTYLE
350
89
  3
CVIEWDETAILSTYLE
350
1B7
  3
CVIEWSECTIONSTYLE
350
1B8
  3
DIMASSOC
350
67
  3
HIDETEXT
350
6B
  3
INDEXCTL
350
BB9
  3
LAYEREVAL
350
14D
  3
LAYERNOTIFY
350
14E
  3
LIGHTINGUNITS
350
BB7
  3
MSLTSCALE
350
BB6
  3
SORTENTS
350
BB8
  3
XCLIPFRAME
350
C04
  0
XRECORD
  5
C07
102
{ACAD_REACTORS
330
C
102
}
330
C
100
AcDbXrecord
280
     1
  1
DWGPROPS COOKIE
  2

  3

  4

  6

  7

  8
KhuNguyen
  9

300
=
301
=
302
=
303
=
304
=
305
=
306
=
307
=
308
=
309
=
 40
0.0008217592592593
 41
2460619.64644676
 42
2460619.651342593
  1

 90
        0
  0
DICTIONARY
  5
18F
102
{ACAD_REACTORS
330
18E
102
}
330
18E
100
AcDbDictionary
281
     1
  0
XRECORD
  5
B66
102
{ACAD_REACTORS
330
15D
102
}
330
15D
100
AcDbXrecord
280
     1
340
1F
  0
XRECORD
  5
B68
102
{ACAD_REACTORS
330
B12
102
}
330
B12
100
AcDbXrecord
280
     1
340
58
  0
XRECORD
  5
B6B
102
{ACAD_REACTORS
330
B14
102
}
330
B14
100
AcDbXrecord
280
     1
340
5D
  0
ACDBDETAILVIEWSTYLE
  5
1AC
102
{ACAD_XDICTIONARY
360
C46
102
}
102
{ACAD_REACTORS
330
1AB
102
}
330
1AB
100
AcDbModelDocViewStyle
 70
     0
  3
Imperial24
290
     0
100
AcDbDetailViewStyle
 70
     0
 71
     0
 90
        3
 71
     1
340
11
 40
0.24
340
0
 40
0.24
300

 40
0.36
280
     3
 71
     2
340
16
 90
       25
 71
     3
340
11
 40
0.24
 90
        1
 40
0.75
 90
        1
300
%<\AcVar ViewType \f "%tc1">% %<\AcVar ViewDetailId>%\PSCALE %<\AcVar ViewScale \f "%sn">%
 71
     4
340
16
 90
       25
340
16
 90
       25
280
     0
  0
LAYOUT
  5
59
102
{ACAD_XDICTIONARY
360
C0A
102
}
102
{ACAD_REACTORS
330
1A
102
}
330
1A
100
AcDbPlotSettings
  1

  2
None
  4

  6

 40
0.0
 41
0.0
 42
0.0
 43
0.0
 44
0.0
 45
0.0
 46
0.0
 47
0.0
 48
0.0
 49
0.0
140
0.0
141
0.0
142
1.0
143
1.0
 70
   688
 72
     0
 73
     0
 74
     5
  7

 75
    16
147
1.0
148
0.0
149
0.0
100
AcDbLayout
  1
Layout1
 70
     1
 71
     1
 10
0.0
 20
0.0
 11
12.0
 21
9.0
 12
0.0
 22
0.0
 32
0.0
 14
0.0
 24
0.0
 34
0.0
 15
0.0
 25
0.0
 35
0.0
146
0.0
 13
0.0
 23
0.0
 33
0.0
 16
1.0
 26
0.0
 36
0.0
 17
0.0
 27
1.0
 37
0.0
 76
     0
330
58
  0
LAYOUT
  5
5E
102
{ACAD_XDICTIONARY
360
C0C
102
}
102
{ACAD_REACTORS
330
1A
102
}
330
1A
100
AcDbPlotSettings
  1

  2
None
  4

  6

 40
0.0
 41
0.0
 42
0.0
 43
0.0
 44
0.0
 45
0.0
 46
0.0
 47
0.0
 48
0.0
 49
0.0
140
0.0
141
0.0
142
1.0
143
1.0
 70
   688
 72
     0
 73
     0
 74
     5
  7

 75
    16
147
1.0
148
0.0
149
0.0
100
AcDbLayout
  1
Layout2
 70
     1
 71
     2
 10
0.0
 20
0.0
 11
12.0
 21
9.0
 12
0.0
 22
0.0
 32
0.0
 14
0.0
 24
0.0
 34
0.0
 15
0.0
 25
0.0
 35
0.0
146
0.0
 13
0.0
 23
0.0
 33
0.0
 16
1.0
 26
0.0
 36
0.0
 17
0.0
 27
1.0
 37
0.0
 76
     0
330
5D
  0
LAYOUT
  5
22
102
{ACAD_XDICTIONARY
360
C08
102
}
102
{ACAD_REACTORS
330
1A
102
}
330
1A
100
AcDbPlotSettings
  1

  2
none_device
  4
ANSI_A_(8.50_x_11.00_Inches)
  6

 40
6.349999904632568
 41
19.04999923706055
 42
6.350006103515625
 43
19.04998779296875
 44
215.8999938964844
 45
279.3999938964844
 46
0.0
 47
0.0
 48
0.0
 49
0.0
140
0.0
141
0.0
142
1.0
143
2.584895464708373
 70
 11952
 72
     0
 73
     1
 74
     0
  7

 75
     0
147
0.3868628397755418
148
0.0
149
0.0
100
AcDbLayout
  1
Model
 70
     1
 71
     0
 10
0.0
 20
0.0
 11
12.0
 21
9.0
 12
0.0
 22
0.0
 32
0.0
 14
0.0
 24
0.0
 34
0.0
 15
0.0
 25
0.0
 35
0.0
146
0.0
 13
0.0
 23
0.0
 33
0.0
 16
1.0
 26
0.0
 36
0.0
 17
0.0
 27
1.0
 37
0.0
 76
     0
330
1F
331
94
  0
MATERIAL
  5
97
102
{ACAD_XDICTIONARY
360
188
102
}
102
{ACAD_REACTORS
330
72
102
}
330
72
100
AcDbMaterial
  1
ByBlock
  0
MATERIAL
  5
96
102
{ACAD_XDICTIONARY
360
186
102
}
102
{ACAD_REACTORS
330
72
102
}
330
72
100
AcDbMaterial
  1
ByLayer
  0
MATERIAL
  5
98
102
{ACAD_XDICTIONARY
360
110
102
}
102
{ACAD_REACTORS
330
72
102
}
330
72
100
AcDbMaterial
  1
Global
 43
0.0208000000566244
 43
0.0
 43
0.0
 43
0.0
 43
0.0
 43
0.0208000000566244
 43
0.0
 43
0.0
 43
0.0
 43
0.0
 43
1.0
 43
0.0
 43
0.0
 43
0.0
 43
0.0
 43
1.0
 49
0.0208000000566244
 49
0.0
 49
0.0
 49
0.0
 49
0.0
 49
0.0208000000566244
 49
0.0
 49
0.0
 49
0.0
 49
0.0
 49
1.0
 49
0.0
 49
0.0
 49
0.0
 49
0.0
 49
1.0
142
0.0208000000566244
142
0.0
142
0.0
142
0.0
142
0.0
142
0.0208000000566244
142
0.0
142
0.0
142
0.0
142
0.0
142
1.0
142
0.0
142
0.0
142
0.0
142
0.0
142
1.0
144
0.0208000000566244
144
0.0
144
0.0
144
0.0
144
0.0
144
0.0208000000566244
144
0.0
144
0.0
144
0.0
144
0.0
144
1.0
144
0.0
144
0.0
144
0.0
144
0.0
144
1.0
1001
ACAD
1070
    -1
1070
     3
1070
     0
1000

1071
        0
1070
     0
  0
MLEADERSTYLE
  5
D8
102
{ACAD_XDICTIONARY
360
C32
102
}
102
{ACAD_REACTORS
330
D7
102
}
330
D7
100
AcDbMLeaderStyle
170
     2
171
     1
172
     0
 90
        2
 40
0.0
 41
0.0
173
     1
 91
-1056964608
340
14
 92
       -2
290
     1
 42
0.09
291
     1
 43
0.36
  3
Standard
 44
0.18
300

342
11
174
     1
178
     1
175
     1
176
     0
 93
-1056964608
 45
0.18
292
     0
297
     0
 46
0.18
 94
-1056964608
 47
1.0
 49
1.0
140
1.0
293
     1
141
0.0
294
     1
177
     0
142
1.0
295
     0
296
     0
143
0.125
1001
ACAD_MLEADERVER
1070
     2
  0
MLINESTYLE
  5
18
102
{ACAD_REACTORS
330
17
102
}
330
17
100
AcDbMlineStyle
  2
STANDARD
 70
     0
  3

 62
   256
 51
90.0
 52
90.0
 71
     2
 49
0.5
 62
   256
  6
BYLAYER
 49
-0.5
 62
   256
  6
BYLAYER
  0
ACDBPLACEHOLDER
  5
F
102
{ACAD_REACTORS
330
E
102
}
330
E
  0
SCALE
  5
B7
102
{ACAD_REACTORS
330
B6
102
}
330
B6
100
AcDbScale
 70
     0
300
1:1
140
1.0
141
1.0
290
     1
  0
SCALE
  5
124
102
{ACAD_REACTORS
330
B6
102
}
330
B6
100
AcDbScale
 70
     0
300
1:2
140
1.0
141
2.0
290
     0
  0
SCALE
  5
125
102
{ACAD_REACTORS
330
B6
102
}
330
B6
100
AcDbScale
 70
     0
300
1:4
140
1.0
141
4.0
290
     0
  0
SCALE
  5
126
102
{ACAD_REACTORS
330
B6
102
}
330
B6
100
AcDbScale
 70
     0
300
1:5
140
1.0
141
5.0
290
     0
  0
SCALE
  5
127
102
{ACAD_REACTORS
330
B6
102
}
330
B6
100
AcDbScale
 70
     0
300
1:8
140
1.0
141
8.0
290
     0
  0
SCALE
  5
128
102
{ACAD_REACTORS
330
B6
102
}
330
B6
100
AcDbScale
 70
     0
300
1:10
140
1.0
141
10.0
290
     0
  0
SCALE
  5
129
102
{ACAD_REACTORS
330
B6
102
}
330
B6
100
AcDbScale
 70
     0
300
1:16
140
1.0
141
16.0
290
     0
  0
SCALE
  5
12A
102
{ACAD_REACTORS
330
B6
102
}
330
B6
100
AcDbScale
 70
     0
300
1:20
140
1.0
141
20.0
290
     0
  0
SCALE
  5
12B
102
{ACAD_REACTORS
330
B6
102
}
330
B6
100
AcDbScale
 70
     0
300
1:30
140
1.0
141
30.0
290
     0
  0
SCALE
  5
12C
102
{ACAD_REACTORS
330
B6
102
}
330
B6
100
AcDbScale
 70
     0
300
1:40
140
1.0
141
40.0
290
     0
  0
SCALE
  5
12D
102
{ACAD_REACTORS
330
B6
102
}
330
B6
100
AcDbScale
 70
     0
300
1:50
140
1.0
141
50.0
290
     0
  0
SCALE
  5
12E
102
{ACAD_REACTORS
330
B6
102
}
330
B6
100
AcDbScale
 70
     0
300
1:100
140
1.0
141
100.0
290
     0
  0
SCALE
  5
12F
102
{ACAD_REACTORS
330
B6
102
}
330
B6
100
AcDbScale
 70
     0
300
2:1
140
2.0
141
1.0
290
     0
  0
SCALE
  5
130
102
{ACAD_REACTORS
330
B6
102
}
330
B6
100
AcDbScale
 70
     0
300
4:1
140
4.0
141
1.0
290
     0
  0
SCALE
  5
131
102
{ACAD_REACTORS
330
B6
102
}
330
B6
100
AcDbScale
 70
     0
300
8:1
140
8.0
141
1.0
290
     0
  0
SCALE
  5
132
102
{ACAD_REACTORS
330
B6
102
}
330
B6
100
AcDbScale
 70
     0
300
10:1
140
10.0
141
1.0
290
     0
  0
SCALE
  5
133
102
{ACAD_REACTORS
330
B6
102
}
330
B6
100
AcDbScale
 70
     0
300
100:1
140
100.0
141
1.0
290
     0
  0
SCALE
  5
134
102
{ACAD_REACTORS
330
B6
102
}
330
B6
100
AcDbScale
 70
     0
300
1/128" = 1'-0"
140
0.0078125
141
12.0
290
     0
  0
SCALE
  5
135
102
{ACAD_REACTORS
330
B6
102
}
330
B6
100
AcDbScale
 70
     0
300
1/64" = 1'-0"
140
0.015625
141
12.0
290
     0
  0
SCALE
  5
136
102
{ACAD_REACTORS
330
B6
102
}
330
B6
100
AcDbScale
 70
     0
300
1/32" = 1'-0"
140
0.03125
141
12.0
290
     0
  0
SCALE
  5
137
102
{ACAD_REACTORS
330
B6
102
}
330
B6
100
AcDbScale
 70
     0
300
1/16" = 1'-0"
140
0.0625
141
12.0
290
     0
  0
SCALE
  5
138
102
{ACAD_REACTORS
330
B6
102
}
330
B6
100
AcDbScale
 70
     0
300
3/32" = 1'-0"
140
0.09375
141
12.0
290
     0
  0
SCALE
  5
139
102
{ACAD_REACTORS
330
B6
102
}
330
B6
100
AcDbScale
 70
     0
300
1/8" = 1'-0"
140
0.125
141
12.0
290
     0
  0
SCALE
  5
13A
102
{ACAD_REACTORS
330
B6
102
}
330
B6
100
AcDbScale
 70
     0
300
3/16" = 1'-0"
140
0.1875
141
12.0
290
     0
  0
SCALE
  5
13B
102
{ACAD_REACTORS
330
B6
102
}
330
B6
100
AcDbScale
 70
     0
300
1/4" = 1'-0"
140
0.25
141
12.0
290
     0
  0
SCALE
  5
13C
102
{ACAD_REACTORS
330
B6
102
}
330
B6
100
AcDbScale
 70
     0
300
3/8" = 1'-0"
140
0.375
141
12.0
290
     0
  0
SCALE
  5
13D
102
{ACAD_REACTORS
330
B6
102
}
330
B6
100
AcDbScale
 70
     0
300
1/2" = 1'-0"
140
0.5
141
12.0
290
     0
  0
SCALE
  5
13E
102
{ACAD_REACTORS
330
B6
102
}
330
B6
100
AcDbScale
 70
     0
300
3/4" = 1'-0"
140
0.75
141
12.0
290
     0
  0
SCALE
  5
13F
102
{ACAD_REACTORS
330
B6
102
}
330
B6
100
AcDbScale
 70
     0
300
1" = 1'-0"
140
1.0
141
12.0
290
     0
  0
SCALE
  5
140
102
{ACAD_REACTORS
330
B6
102
}
330
B6
100
AcDbScale
 70
     0
300
1-1/2" = 1'-0"
140
1.5
141
12.0
290
     0
  0
SCALE
  5
141
102
{ACAD_REACTORS
330
B6
102
}
330
B6
100
AcDbScale
 70
     0
300
3" = 1'-0"
140
3.0
141
12.0
290
     0
  0
SCALE
  5
142
102
{ACAD_REACTORS
330
B6
102
}
330
B6
100
AcDbScale
 70
     0
300
6" = 1'-0"
140
6.0
141
12.0
290
     0
  0
SCALE
  5
143
102
{ACAD_REACTORS
330
B6
102
}
330
B6
100
AcDbScale
 70
     0
300
1'-0" = 1'-0"
140
12.0
141
12.0
290
     0
  0
ACDBSECTIONVIEWSTYLE
  5
1AA
102
{ACAD_XDICTIONARY
360
C44
102
}
102
{ACAD_REACTORS
330
1A8
102
}
330
1A8
100
AcDbModelDocViewStyle
 70
     0
  3
Imperial24
290
     0
100
AcDbSectionViewStyle
 70
     0
 71
     0
 90
       78
 71
     1
340
11
 40
0.24
340
0
340
0
 40
0.24
300
I, O, Q, S, X, Z
 40
0.48
 90
        3
 40
0.18
 90
        1
 71
     2
340
16
 90
       25
340
16
 90
       50
 40
0.24
 40
0.0
 40
0.24
 71
     3
340
11
 40
0.24
 90
        1
 40
0.75
 90
        1
300
%<\AcVar ViewType \f "%tc1">% %<\AcVar ViewSectionStartId>%-%<\AcVar ViewSectionEndId>%\PSCALE %<\AcVar ViewScale \f "%sn">%
 71
     4
300
ANSI31
 40
1.0
 90
        0
290
     0
290
     0
 90
        6
 40
0.0
 40
1.570796326794896
 40
0.2617993877991494
 40
1.308996938995747
 40
-0.2617993877991494
 40
1.832595714594046
  0
TABLESTYLE
  5
87
102
{ACAD_XDICTIONARY
360
104
102
}
102
{ACAD_REACTORS
330
86
102
}
330
86
100
AcDbTableStyle
  3
Standard
 70
     0
 71
     0
 40
0.06
 41
0.06
280
     0
281
     0
  7
Standard
140
0.18
170
     2
 62
     0
 63
     7
283
     0
274
    -2
284
     1
 64
     0
275
    -2
285
     1
 65
     0
276
    -2
286
     1
 66
     0
277
    -2
287
     1
 67
     0
278
    -2
288
     1
 68
     0
279
    -2
289
     1
 69
     0
  7
Standard
140
0.25
170
     5
 62
     0
 63
     7
283
     0
274
    -2
284
     1
 64
     0
275
    -2
285
     1
 65
     0
276
    -2
286
     1
 66
     0
277
    -2
287
     1
 67
     0
278
    -2
288
     1
 68
     0
279
    -2
289
     1
 69
     0
  7
Standard
140
0.18
170
     5
 62
     0
 63
     7
283
     0
274
    -2
284
     1
 64
     0
275
    -2
285
     1
 65
     0
276
    -2
286
     1
 66
     0
277
    -2
287
     1
 67
     0
278
    -2
288
     1
 68
     0
279
    -2
289
     1
 69
     0
  0
VISUALSTYLE
  5
9F
102
{ACAD_XDICTIONARY
360
C1C
102
}
102
{ACAD_REACTORS
330
99
102
}
330
99
100
AcDbVisualStyle
  2
2dWireframe
 70
     4
 71
     0
 72
     2
 73
     1
 90
        0
 40
-0.6
 41
-30.0
 62
     5
 63
     7
 74
     1
 91
        4
 64
     7
 65
   257
 75
     1
175
     1
 42
1.0
 92
        0
 66
   257
 43
1.0
 76
     1
 77
     6
 78
     2
 67
     7
 79
     5
170
     0
171
     0
290
     0
174
     0
 93
        1
 44
0.0
173
     0
291
     0
 45
0.0
1001
ACAD
1000
AcDbSavedByObjectVersion
1070
     0
  0
VISUALSTYLE
  5
9E
102
{ACAD_XDICTIONARY
360
C1A
102
}
102
{ACAD_REACTORS
330
99
102
}
330
99
100
AcDbVisualStyle
  2
Basic
 70
     7
 71
     1
 72
     0
 73
     1
 90
        0
 40
-0.6
 41
-30.0
 62
     5
 63
     7
 74
     0
 91
        4
 64
     7
 65
   257
 75
     1
175
     1
 42
1.0
 92
        8
 66
     7
 43
1.0
 76
     1
 77
     6
 78
     2
 67
     7
 79
     5
170
     0
171
     0
290
     0
174
     0
 93
        1
 44
0.0
173
     0
291
     1
 45
0.0
1001
ACAD
1000
AcDbSavedByObjectVersion
1070
     0
  0
VISUALSTYLE
  5
A5
102
{ACAD_XDICTIONARY
360
C28
102
}
102
{ACAD_REACTORS
330
99
102
}
330
99
100
AcDbVisualStyle
  2
Brighten
 70
    12
 71
     2
 72
     2
 73
     1
 90
        0
 40
-0.6
 41
-30.0
 62
     5
 63
     7
 74
     1
 91
        4
 64
     7
 65
   257
 75
     1
175
     1
 42
1.0
 92
        8
 66
     7
 43
1.0
 76
     1
 77
     6
 78
     2
 67
     7
 79
     5
170
     0
171
     0
290
     0
174
     0
 93
        1
 44
50.0
173
     0
291
     1
 45
0.0
1001
ACAD
1000
AcDbSavedByObjectVersion
1070
     0
  0
VISUALSTYLE
  5
A9
102
{ACAD_XDICTIONARY
360
C30
102
}
102
{ACAD_REACTORS
330
99
102
}
330
99
100
AcDbVisualStyle
  2
ColorChange
 70
    16
 71
     2
 72
     2
 73
     3
 90
        0
 40
-0.6
 41
-30.0
 62
     5
 63
     8
 74
     1
 91
        4
 64
     7
 65
   257
 75
     1
175
     1
 42
1.0
 92
        8
 66
     8
 43
1.0
 76
     1
 77
     6
 78
     2
 67
     7
 79
     5
170
     0
171
     0
290
     0
174
     0
 93
        1
 44
0.0
173
     0
291
     1
 45
0.0
1001
ACAD
1000
AcDbSavedByObjectVersion
1070
     0
  0
VISUALSTYLE
  5
A2
102
{ACAD_XDICTIONARY
360
C22
102
}
102
{ACAD_REACTORS
330
99
102
}
330
99
100
AcDbVisualStyle
  2
Conceptual
 70
     9
 71
     3
 72
     2
 73
     1
 90
        0
 40
-0.6
 41
-30.0
 62
     5
 63
     7
 74
     2
 91
        2
 64
     7
 65
   257
 75
     1
175
     1
 42
40.0
 92
        8
 66
     7
 43
1.0
 76
     1
 77
     6
 78
     2
 67
     7
 79
     3
170
     0
171
     0
290
     0
174
     0
 93
        1
 44
0.0
173
     0
291
     0
 45
0.0
1001
ACAD
1000
AcDbSavedByObjectVersion
1070
     0
  0
VISUALSTYLE
  5
A4
102
{ACAD_XDICTIONARY
360
C26
102
}
102
{ACAD_REACTORS
330
99
102
}
330
99
100
AcDbVisualStyle
  2
Dim
 70
    11
 71
     2
 72
     2
 73
     1
 90
        0
 40
-0.6
 41
-30.0
 62
     5
 63
     7
 74
     1
 91
        4
 64
     7
 65
   257
 75
     1
175
     1
 42
1.0
 92
        8
 66
     7
 43
1.0
 76
     1
 77
     6
 78
     2
 67
     7
 79
     5
170
     0
171
     0
290
     0
174
     0
 93
        1
 44
-50.0
173
     0
291
     1
 45
0.0
1001
ACAD
1000
AcDbSavedByObjectVersion
1070
     0
  0
VISUALSTYLE
  5
175
102
{ACAD_XDICTIONARY
360
C38
102
}
102
{ACAD_REACTORS
330
99
102
}
330
99
100
AcDbVisualStyle
  2
EdgeColorOff
 70
    22
 71
     2
 72
     2
 73
     0
 90
        0
 40
-0.6
 41
-30.0
 62
     5
 63
     7
 74
     1
 91
        4
 64
     7
 65
   257
 75
     1
175
     1
 42
1.0
 92
        8
 66
     7
 43
1.0
 76
     1
 77
     6
 78
     2
 67
     7
 79
     5
170
     0
171
     0
290
     0
174
     0
 93
        1
 44
0.0
173
     0
291
     1
 45
0.0
1001
ACAD
1000
AcDbSavedByObjectVersion
1070
     0
  0
VISUALSTYLE
  5
A8
102
{ACAD_XDICTIONARY
360
C2E
102
}
102
{ACAD_REACTORS
330
99
102
}
330
99
100
AcDbVisualStyle
  2
Facepattern
 70
    15
 71
     2
 72
     2
 73
     1
 90
        0
 40
-0.6
 41
-30.0
 62
     5
 63
     7
 74
     1
 91
        4
 64
     7
 65
   257
 75
     1
175
     1
 42
1.0
 92
        8
 66
     7
 43
1.0
 76
     1
 77
     6
 78
     2
 67
     7
 79
     5
170
     0
171
     0
290
     0
174
     0
 93
        1
 44
0.0
173
     0
291
     1
 45
0.0
1001
ACAD
1000
AcDbSavedByObjectVersion
1070
     0
  0
VISUALSTYLE
  5
9A
102
{ACAD_XDICTIONARY
360
C12
102
}
102
{ACAD_REACTORS
330
99
102
}
330
99
100
AcDbVisualStyle
  2
Flat
 70
     0
 71
     2
 72
     1
 73
     1
 90
        2
 40
-0.6
 41
30.0
 62
     5
 63
     7
 74
     0
 91
        0
 64
     7
 65
   257
 75
     1
175
     1
 42
1.0
 92
        8
 66
     7
 43
1.0
 76
     1
 77
     6
 78
     2
 67
     7
 79
     5
170
     0
171
     0
290
     0
174
     0
 93
       13
 44
0.0
173
     0
291
     1
 45
0.0
1001
ACAD
1000
AcDbSavedByObjectVersion
1070
     0
  0
VISUALSTYLE
  5
9B
102
{ACAD_XDICTIONARY
360
C14
102
}
102
{ACAD_REACTORS
330
99
102
}
330
99
100
AcDbVisualStyle
  2
FlatWithEdges
 70
     1
 71
     2
 72
     1
 73
     1
 90
        2
 40
-0.6
 41
30.0
 62
     5
 63
     7
 74
     1
 91
        0
 64
     7
 65
   257
 75
     1
175
     1
 42
1.0
 92
        0
 66
   257
 43
1.0
 76
     1
 77
     6
 78
     2
 67
     7
 79
     5
170
     0
171
     0
290
     0
174
     0
 93
       13
 44
0.0
173
     0
291
     1
 45
0.0
1001
ACAD
1000
AcDbSavedByObjectVersion
1070
     0
  0
VISUALSTYLE
  5
9C
102
{ACAD_XDICTIONARY
360
C16
102
}
102
{ACAD_REACTORS
330
99
102
}
330
99
100
AcDbVisualStyle
  2
Gouraud
 70
     2
 71
     2
 72
     2
 73
     1
 90
        2
 40
-0.6
 41
30.0
 62
     5
 63
     7
 74
     0
 91
        0
 64
     7
 65
   257
 75
     1
175
     1
 42
1.0
 92
        0
 66
     7
 43
1.0
 76
     1
 77
     6
 78
     2
 67
     7
 79
     5
170
     0
171
     0
290
     0
174
     0
 93
       13
 44
0.0
173
     0
291
     1
 45
0.0
1001
ACAD
1000
AcDbSavedByObjectVersion
1070
     0
  0
VISUALSTYLE
  5
9D
102
{ACAD_XDICTIONARY
360
C18
102
}
102
{ACAD_REACTORS
330
99
102
}
330
99
100
AcDbVisualStyle
  2
GouraudWithEdges
 70
     3
 71
     2
 72
     2
 73
     1
 90
        2
 40
-0.6
 41
30.0
 62
     5
 63
     7
 74
     1
 91
        0
 64
     7
 65
   257
 75
     1
175
     1
 42
1.0
 92
        0
 66
   257
 43
1.0
 76
     1
 77
     6
 78
     2
 67
     7
 79
     5
170
     0
171
     0
290
     0
174
     0
 93
       13
 44
0.0
173
     0
291
     1
 45
0.0
1001
ACAD
1000
AcDbSavedByObjectVersion
1070
     0
  0
VISUALSTYLE
  5
A1
102
{ACAD_XDICTIONARY
360
C20
102
}
102
{ACAD_REACTORS
330
99
102
}
330
99
100
AcDbVisualStyle
  2
Hidden
 70
     6
 71
     1
 72
     2
 73
     2
 90
        0
 40
-0.6
 41
-30.0
 62
     5
 63
     7
 74
     2
 91
        2
 64
     7
 65
   257
 75
     2
175
     1
 42
40.0
 92
        0
 66
   257
 43
1.0
 76
     1
 77
     6
 78
     2
 67
     7
 79
     3
170
     0
171
     0
290
     0
174
     0
 93
        1
 44
0.0
173
     0
291
     0
 45
0.0
1001
ACAD
1000
AcDbSavedByObjectVersion
1070
     0
  0
VISUALSTYLE
  5
173
102
{ACAD_XDICTIONARY
360
C34
102
}
102
{ACAD_REACTORS
330
99
102
}
330
99
100
AcDbVisualStyle
  2
JitterOff
 70
    20
 71
     2
 72
     2
 73
     0
 90
        0
 40
-0.6
 41
-30.0
 62
     5
 63
     7
 74
     1
 91
        4
 64
     7
 65
   257
 75
     1
175
     1
 42
1.0
 92
       10
 66
     7
 43
1.0
 76
     1
 77
     6
 78
     2
 67
     7
 79
     5
170
     0
171
     0
290
     0
174
     0
 93
        1
 44
0.0
173
     0
291
     1
 45
0.0
1001
ACAD
1000
AcDbSavedByObjectVersion
1070
     0
  0
VISUALSTYLE
  5
A7
102
{ACAD_XDICTIONARY
360
C2C
102
}
102
{ACAD_REACTORS
330
99
102
}
330
99
100
AcDbVisualStyle
  2
Linepattern
 70
    14
 71
     2
 72
     2
 73
     1
 90
        0
 40
-0.6
 41
-30.0
 62
     5
 63
     7
 74
     1
 91
        4
 64
     7
 65
   257
 75
     7
175
     7
 42
1.0
 92
        8
 66
     7
 43
1.0
 76
     1
 77
     6
 78
     2
 67
     7
 79
     5
170
     0
171
     0
290
     0
174
     0
 93
        1
 44
0.0
173
     0
291
     1
 45
0.0
1001
ACAD
1000
AcDbSavedByObjectVersion
1070
     0
  0
VISUALSTYLE
  5
174
102
{ACAD_XDICTIONARY
360
C36
102
}
102
{ACAD_REACTORS
330
99
102
}
330
99
100
AcDbVisualStyle
  2
OverhangOff
 70
    21
 71
     2
 72
     2
 73
     0
 90
        0
 40
-0.6
 41
-30.0
 62
     5
 63
     7
 74
     1
 91
        4
 64
     7
 65
   257
 75
     1
175
     1
 42
1.0
 92
        9
 66
     7
 43
1.0
 76
     1
 77
     6
 78
     2
 67
     7
 79
     5
170
     0
171
     0
290
     0
174
     0
 93
        1
 44
0.0
173
     0
291
     1
 45
0.0
1001
ACAD
1000
AcDbSavedByObjectVersion
1070
     0
  0
VISUALSTYLE
  5
A3
102
{ACAD_XDICTIONARY
360
C24
102
}
102
{ACAD_REACTORS
330
99
102
}
330
99
100
AcDbVisualStyle
  2
Realistic
 70
     8
 71
     2
 72
     2
 73
     0
 90
        2
 40
-0.6
 41
30.0
 62
     5
 63
     7
 74
     0
 91
        0
 64
     7
 65
   257
 75
     1
175
     1
 42
1.0
 92
        8
 66
   257
 43
1.0
 76
     1
 77
     6
 78
     2
 67
     7
 79
     3
170
     0
171
     0
290
     0
174
     0
 93
       13
 44
0.0
173
     0
291
     0
 45
0.0
1001
ACAD
1000
AcDbSavedByObjectVersion
1070
     0
  0
VISUALSTYLE
  5
182
102
{ACAD_XDICTIONARY
360
C42
102
}
102
{ACAD_REACTORS
330
99
102
}
330
99
100
AcDbVisualStyle
  2
Shaded
 70
    27
 71
     2
 72
     2
 73
     1
 90
        2
 40
-0.6
 41
30.0
 62
     5
 63
     7
 74
     0
 91
        4
 64
     7
 65
   257
 75
     1
175
     1
 42
1.0
 92
        8
 66
   257
 43
1.0
 76
     1
 77
     6
 78
     2
 67
     8
 79
     3
170
     0
171
     0
290
     0
174
     0
 93
        5
 44
0.0
173
     0
291
     0
 45
0.0
1001
ACAD
1000
AcDbSavedByObjectVersion
1070
     0
  0
VISUALSTYLE
  5
181
102
{ACAD_XDICTIONARY
360
C40
102
}
102
{ACAD_REACTORS
330
99
102
}
330
99
100
AcDbVisualStyle
  2
Shaded with edges
 70
    26
 71
     2
 72
     2
 73
     1
 90
        2
 40
-0.6
 41
30.0
 62
     5
 63
     7
 74
     1
 91
        2
 64
     7
 65
   257
 75
     2
175
     1
 42
1.0
 92
        8
 66
   257
 43
1.0
 76
     1
 77
     6
 78
     2
 67
     7
 79
     3
170
     0
171
     0
290
     0
174
     0
 93
        5
 44
0.0
173
     0
291
     0
 45
0.0
1001
ACAD
1000
AcDbSavedByObjectVersion
1070
     0
  0
VISUALSTYLE
  5
17E
102
{ACAD_XDICTIONARY
360
C3A
102
}
102
{ACAD_REACTORS
330
99
102
}
330
99
100
AcDbVisualStyle
  2
Shades of Gray
 70
    23
 71
     2
 72
     2
 73
     3
 90
        0
 40
-0.6
 41
-30.0
 62
     5
 63
     7
 74
     2
 91
        2
 64
     7
 65
     7
 75
     1
175
     1
 42
40.0
 92
        8
 66
     7
 43
1.0
 76
     1
 77
     6
 78
     2
 67
     7
 79
     3
170
     0
171
     0
290
     0
174
     0
 93
        1
 44
0.0
173
     0
291
     0
 45
0.0
1001
ACAD
1000
AcDbSavedByObjectVersion
1070
     0
  0
VISUALSTYLE
  5
17F
102
{ACAD_XDICTIONARY
360
C3C
102
}
102
{ACAD_REACTORS
330
99
102
}
330
99
100
AcDbVisualStyle
  2
Sketchy
 70
    24
 71
     1
 72
     2
 73
     2
 90
        0
 40
-0.6
 41
-30.0
 62
     5
 63
     7
 74
     2
 91
        2
 64
     7
 65
     7
 75
     1
175
     1
 42
40.0
 92
       11
 66
     7
 43
1.0
 76
     1
 77
     6
 78
     2
 67
     7
 79
     6
170
     0
171
     0
290
     0
174
     0
 93
        1
 44
0.0
173
     0
291
     0
 45
0.0
1001
ACAD
1000
AcDbSavedByObjectVersion
1070
     0
  0
VISUALSTYLE
  5
A6
102
{ACAD_XDICTIONARY
360
C2A
102
}
102
{ACAD_REACTORS
330
99
102
}
330
99
100
AcDbVisualStyle
  2
Thicken
 70
    13
 71
     2
 72
     2
 73
     1
 90
        0
 40
-0.6
 41
-30.0
 62
     5
 63
     7
 74
     1
 91
        4
 64
     7
 65
   257
 75
     1
175
     1
 42
1.0
 92
       12
 66
     7
 43
1.0
 76
     1
 77
     6
 78
     2
 67
     7
 79
     5
170
     0
171
     0
290
     0
174
     0
 93
        1
 44
0.0
173
     0
291
     1
 45
0.0
1001
ACAD
1000
AcDbSavedByObjectVersion
1070
     0
  0
VISUALSTYLE
  5
A0
102
{ACAD_XDICTIONARY
360
C1E
102
}
102
{ACAD_REACTORS
330
99
102
}
330
99
100
AcDbVisualStyle
  2
Wireframe
 70
     5
 71
     0
 72
     2
 73
     0
 90
        0
 40
-0.6
 41
-30.0
 62
     5
 63
     7
 74
     1
 91
        4
 64
     7
 65
   257
 75
     1
175
     1
 42
1.0
 92
        0
 66
   257
 43
1.0
 76
     1
 77
     6
 78
     2
 67
     7
 79
     3
170
     0
171
     0
290
     0
174
     0
 93
        1
 44
0.0
173
     0
291
     0
 45
0.0
1001
ACAD
1000
AcDbSavedByObjectVersion
1070
     0
  0
VISUALSTYLE
  5
180
102
{ACAD_XDICTIONARY
360
C3E
102
}
102
{ACAD_REACTORS
330
99
102
}
330
99
100
AcDbVisualStyle
  2
X-Ray
 70
    25
 71
     2
 72
     2
 73
     1
 90
        1
 40
0.5
 41
-30.0
 62
     5
 63
     7
 74
     1
 91
        0
 64
     7
 65
   257
 75
     1
175
     1
 42
1.0
 92
        8
 66
     7
 43
1.0
 76
     1
 77
     6
 78
     2
 67
     7
 79
     3
170
     0
171
     0
290
     0
174
     0
 93
       13
 44
0.0
173
     0
291
     0
 45
0.0
1001
ACAD
1000
AcDbSavedByObjectVersion
1070
     0
  0
DICTIONARYVAR
  5
F0
102
{ACAD_REACTORS
330
66
102
}
330
66
100
DictionaryVariables
280
     0
  1
1:1
  0
DICTIONARYVAR
  5
EF
102
{ACAD_REACTORS
330
66
102
}
330
66
100
DictionaryVariables
280
     0
  1
STANDARD
  0
DICTIONARYVAR
  5
89
102
{ACAD_REACTORS
330
66
102
}
330
66
100
DictionaryVariables
280
     0
  1
STANDARD
  0
DICTIONARYVAR
  5
1B7
102
{ACAD_REACTORS
330
66
102
}
330
66
100
DictionaryVariables
280
     0
  1
Imperial24
  0
DICTIONARYVAR
  5
1B8
102
{ACAD_REACTORS
330
66
102
}
330
66
100
DictionaryVariables
280
     0
  1
Imperial24
  0
DICTIONARYVAR
  5
67
102
{ACAD_REACTORS
330
66
102
}
330
66
100
DictionaryVariables
280
     0
  1
2
  0
DICTIONARYVAR
  5
6B
102
{ACAD_REACTORS
330
66
102
}
330
66
100
DictionaryVariables
280
     0
  1
1
  0
DICTIONARYVAR
  5
BB9
102
{ACAD_REACTORS
330
66
102
}
330
66
100
DictionaryVariables
280
     0
  1
0
  0
DICTIONARYVAR
  5
14D
102
{ACAD_REACTORS
330
66
102
}
330
66
100
DictionaryVariables
280
     0
  1
0
  0
DICTIONARYVAR
  5
14E
102
{ACAD_REACTORS
330
66
102
}
330
66
100
DictionaryVariables
280
     0
  1
0
  0
DICTIONARYVAR
  5
BB7
102
{ACAD_REACTORS
330
66
102
}
330
66
100
DictionaryVariables
280
     0
  1
2
  0
DICTIONARYVAR
  5
BB6
102
{ACAD_REACTORS
330
66
102
}
330
66
100
DictionaryVariables
280
     0
  1
1
  0
DICTIONARYVAR
  5
BB8
102
{ACAD_REACTORS
330
66
102
}
330
66
100
DictionaryVariables
280
     0
  1
127
  0
DICTIONARYVAR
  5
C04
102
{ACAD_REACTORS
330
66
102
}
330
66
100
DictionaryVariables
280
     0
  1
2
  0
DICTIONARY
  5
C46
330
1AC
100
AcDbDictionary
280
     1
281
     1
  3
ACAD_XREC_ROUNDTRIP
360
C47
  0
DICTIONARY
  5
C0A
330
59
100
AcDbDictionary
280
     1
281
     1
  3
ACAD_XREC_ROUNDTRIP
360
C0B
  0
DICTIONARY
  5
C0C
330
5E
100
AcDbDictionary
280
     1
281
     1
  3
ACAD_XREC_ROUNDTRIP
360
C0D
  0
DICTIONARY
  5
C08
330
22
100
AcDbDictionary
280
     1
281
     1
  3
ACAD_XREC_ROUNDTRIP
360
C09
  0
DICTIONARY
  5
188
330
97
100
AcDbDictionary
280
     1
281
     1
  3
ACAD_XREC_ROUNDTRIP
360
C10
  3
FBXASSET
360
189
  0
DICTIONARY
  5
186
330
96
100
AcDbDictionary
280
     1
281
     1
  3
ACAD_XREC_ROUNDTRIP
360
C0F
  3
FBXASSET
360
187
  0
DICTIONARY
  5
110
330
98
100
AcDbDictionary
280
     1
281
     1
  3
ACAD_XREC_ROUNDTRIP
360
C11
  3
BUMPTILE
360
112
  3
DIFFUSETILE
360
111
  3
FBXASSET
360
18A
  3
OPACITYTILE
360
113
  3
REFLECTIONTILE
360
114
  0
DICTIONARY
  5
C32
330
D8
100
AcDbDictionary
280
     1
281
     1
  3
ACAD_XREC_ROUNDTRIP
360
C33
  0
DICTIONARY
  5
C44
330
1AA
100
AcDbDictionary
280
     1
281
     1
  3
ACAD_XREC_ROUNDTRIP
360
C45
  0
DICTIONARY
  5
104
330
87
100
AcDbDictionary
280
     1
281
     1
  3
ACAD_ROUNDTRIP_2008_TABLESTYLE_CELLSTYLEMAP
360
C05
  3
ACAD_XREC_ROUNDTRIP
360
C0E
  0
DICTIONARY
  5
C1C
330
9F
100
AcDbDictionary
280
     1
281
     1
  3
ACAD_XREC_ROUNDTRIP
360
C1D
  0
DICTIONARY
  5
C1A
330
9E
100
AcDbDictionary
280
     1
281
     1
  3
ACAD_XREC_ROUNDTRIP
360
C1B
  0
DICTIONARY
  5
C28
330
A5
100
AcDbDictionary
280
     1
281
     1
  3
ACAD_XREC_ROUNDTRIP
360
C29
  0
DICTIONARY
  5
C30
330
A9
100
AcDbDictionary
280
     1
281
     1
  3
ACAD_XREC_ROUNDTRIP
360
C31
  0
DICTIONARY
  5
C22
330
A2
100
AcDbDictionary
280
     1
281
     1
  3
ACAD_XREC_ROUNDTRIP
360
C23
  0
DICTIONARY
  5
C26
330
A4
100
AcDbDictionary
280
     1
281
     1
  3
ACAD_XREC_ROUNDTRIP
360
C27
  0
DICTIONARY
  5
C38
330
175
100
AcDbDictionary
280
     1
281
     1
  3
ACAD_XREC_ROUNDTRIP
360
C39
  0
DICTIONARY
  5
C2E
330
A8
100
AcDbDictionary
280
     1
281
     1
  3
ACAD_XREC_ROUNDTRIP
360
C2F
  0
DICTIONARY
  5
C12
330
9A
100
AcDbDictionary
280
     1
281
     1
  3
ACAD_XREC_ROUNDTRIP
360
C13
  0
DICTIONARY
  5
C14
330
9B
100
AcDbDictionary
280
     1
281
     1
  3
ACAD_XREC_ROUNDTRIP
360
C15
  0
DICTIONARY
  5
C16
330
9C
100
AcDbDictionary
280
     1
281
     1
  3
ACAD_XREC_ROUNDTRIP
360
C17
  0
DICTIONARY
  5
C18
330
9D
100
AcDbDictionary
280
     1
281
     1
  3
ACAD_XREC_ROUNDTRIP
360
C19
  0
DICTIONARY
  5
C20
330
A1
100
AcDbDictionary
280
     1
281
     1
  3
ACAD_XREC_ROUNDTRIP
360
C21
  0
DICTIONARY
  5
C34
330
173
100
AcDbDictionary
280
     1
281
     1
  3
ACAD_XREC_ROUNDTRIP
360
C35
  0
DICTIONARY
  5
C2C
330
A7
100
AcDbDictionary
280
     1
281
     1
  3
ACAD_XREC_ROUNDTRIP
360
C2D
  0
DICTIONARY
  5
C36
330
174
100
AcDbDictionary
280
     1
281
     1
  3
ACAD_XREC_ROUNDTRIP
360
C37
  0
DICTIONARY
  5
C24
330
A3
100
AcDbDictionary
280
     1
281
     1
  3
ACAD_XREC_ROUNDTRIP
360
C25
  0
DICTIONARY
  5
C42
330
182
100
AcDbDictionary
280
     1
281
     1
  3
ACAD_XREC_ROUNDTRIP
360
C43
  0
DICTIONARY
  5
C40
330
181
100
AcDbDictionary
280
     1
281
     1
  3
ACAD_XREC_ROUNDTRIP
360
C41
  0
DICTIONARY
  5
C3A
330
17E
100
AcDbDictionary
280
     1
281
     1
  3
ACAD_XREC_ROUNDTRIP
360
C3B
  0
DICTIONARY
  5
C3C
330
17F
100
AcDbDictionary
280
     1
281
     1
  3
ACAD_XREC_ROUNDTRIP
360
C3D
  0
DICTIONARY
  5
C2A
330
A6
100
AcDbDictionary
280
     1
281
     1
  3
ACAD_XREC_ROUNDTRIP
360
C2B
  0
DICTIONARY
  5
C1E
330
A0
100
AcDbDictionary
280
     1
281
     1
  3
ACAD_XREC_ROUNDTRIP
360
C1F
  0
DICTIONARY
  5
C3E
330
180
100
AcDbDictionary
280
     1
281
     1
  3
ACAD_XREC_ROUNDTRIP
360
C3F
  0
XRECORD
  5
C47
102
{ACAD_REACTORS
330
C46
102
}
330
C46
100
AcDbXrecord
280
     1
102
DISPLAYNAME
  1
Imperial24
102
FLAGS
 90
        0
  0
XRECORD
  5
C0B
102
{ACAD_REACTORS
330
C0A
102
}
330
C0A
100
AcDbXrecord
280
     1
102
SHADEPLOT
 70
     0
102
SHADEPLOTRESLEVEL
 70
     2
102
SHADEPLOTCUSTOMDPI
 70
   300
  0
XRECORD
  5
C0D
102
{ACAD_REACTORS
330
C0C
102
}
330
C0C
100
AcDbXrecord
280
     1
102
SHADEPLOT
 70
     0
102
SHADEPLOTRESLEVEL
 70
     2
102
SHADEPLOTCUSTOMDPI
 70
   300
  0
XRECORD
  5
C09
102
{ACAD_REACTORS
330
C08
102
}
330
C08
100
AcDbXrecord
280
     1
102
SHADEPLOT
 70
     0
102
SHADEPLOTRESLEVEL
 70
     2
102
SHADEPLOTCUSTOMDPI
 70
   300
  0
XRECORD
  5
C10
102
{ACAD_REACTORS
330
188
102
}
330
188
100
AcDbXrecord
280
     1
102
MATERIAL
148
0.0
149
0.0
149
0.0
 93
        0
 94
       63
282
     0
 72
     1
 77
     1
171
     1
175
     1
179
     1
273
     0
  0
XRECORD
  5
189
102
{ACAD_REACTORS
330
188
102
}
330
188
100
AcDbXrecord
280
     1
 70
     1
 90
429727718
  1
508B35C9-AEE7-456F-BE74-D52651303AC6
310
504B03040A0000080000B670623B3DEE336E79000000790000001B0000006175746F6465736B2D64657369676E2D7061636B6167652E786D6C3C3F786D6C2076657273696F6E3D22312E302220656E636F64696E673D227574662D3822203F3E3C666F726D6174733E3C666F726D61743E687474703A2F2F736368656D612E
310
6175746F6465736B2E636F6D2F64657369676E2D7061636B6167652F323030393C2F666F726D61743E3C2F666F726D6174733E504B0304140006080800B670623BD486FD9CA0000000F4000000130000005B436F6E74656E745F54797065735D2E786D6C7D8EC10E82300C865F65E91D8A1E8C310C0EEA1BF002731658846E
310
D98AC1B77784ABF1D8FE5FBFBF75BBCE937A534CCEB38643598122B6FEE978D0B0485F9C41B54DDD7D022595594E1A469170414C76A4D9A4D207E29CF43ECE46F218070CC6BECC4078ACAA135ACF422C856C0E68EA1BF5669944DDD7BCDE7B1F8E415D77AECB980613C2E4AC91FC167A2B244592486606FC29C8FD7F045B9A
310
EF7053A7E60B504B0304140006080800B670623B28ED286BEB0000007C01000008000000636F72652E786D6C8D90416EC3201045AF82665B6183218D6D61A254764FD00B204C5C94182C03558F5F9C3852BBEB6A467FFE9B197D71FA9E6FE8CBACC17AD7012D0820E3B41FAD9B3A48F1826B40272956EFE32F1B20A766D3C1
310
268314D3EAD3B24BDABB685CCCAAF3A3D94515828980F42D371D04FD696655A814B3235C8B45E9AB9A4C419F5D8653B2237A1CB163DE672FD6AC209BF3C08E0D1B30EB19C3FC9D72FCC6EB231EFA33EDE96BDD341517E5064B11EDFCBCAF57A3A2194156843498524CAA0FCA5B7268F9E185D42D21A2DCEC7FA0B48CFF8492
310
759155FBBB0F2C80A4F991FB408A72CB22977B50B96EB9C91F504B0304140006080800B670623B55019EA25F0000007C00000007000000636E782E786D6C4DCB3B0E80201045D1AD90E915ED2CF8AC45050C11660C8261F98AB1B07AC9C97D42D718D865D3E909258CFD00CCE24AC6E326A164D74DC0B4128928FF32603847
310
2BA13128B1252AC747C6BAB984FC68F0B87FE8960A5C09FE86CFB69FBA01504B0304140006080800B670623B7BC41AC871010000D40300000C0000006662782F636F72652E786D6CC553ED6E8320147D15C2DF4501B56B6D90A64BBB27D80B50A5CE54C120983EFEAE1F4DD7A56BBA5FF3879273EEE59E7310BE393735EA95
310
ED2AA333CC428A91D2B9292A5D66D8BB63B0C26823B835C67D2BC348CB46657880B1E0A535BE9DA1DC68A7B403549B42CDA0EC3AE530CA6B5864B8CB3F552343E91D5474A7B095F949962A6421D0502778E72C0840D390E18DC5F170E664C205F7BE2A66B62A605A75AC94C522DDEEE3651AEF837817C741F2CE92E02D592D
310
83FD6ECB76EC7595A651C2C9D02CB8AB9A8BBADC2AE954814544691A3016D0E883256BBA58278B17BA5A53CAC9507ED3E4DBE2C9265F691747B3DCA9ADC382819091F8E1162272A8933DE82182932144F88C09DF060D8140C84E1EEA8B8F1340BDCA9DB1093085F157AA97B557309586747CD0EF0B4EA64E983A6E0EAEEFCE
310
889E9EF17847386AA94B30211D2C0FDE0D3AF9A4610EAD5536E8DD1969631B593F67E381C33F5157F17725E5A636F6BF1491F980C8FC7B90E13E8A2F504B0304140006080800B670623B70102A487D0000009D0000000B0000006662782F636E782E786D6C4DCCD10A83201886E15B91FFDC95A5C30335ACCDFB886521330D
310
A76397BF1A1DECE883878F57749FD5A3B74D2F17830472A901D9F088930B8B849267CC01754AA418F3DF0D5018572BE160506249B16C274D761E8BCFBB7A179E27F65CB39A0F14D396184C9921B81F34C3ACA1B4B99ABB6E6F062A25AA5F69DF23ACBE504B0304140006080800B670623B3610CA3329010000120200003100
310
00006662782F42384135303843342D343331462D343546312D424341352D3532343432364645413344462F636F72652E786D6C8D515B6EC32010BC0AE22B55850D0E446E848992B43E412FE000495162B07854397EA176A4F62F3F2C9A9D991D58BEBB8F37F0AD7D30CE76905418026DA553C65E3A98E219B510EC04F7CEC5
310
3F3408EC30EA0E16180A7EF12E4D0B249D8DDAC68C5AA7F4020E21E80881BCE54B0783FCD2E3500D296646B856D320AFC34557A4CAEDCC133C449F0380794839A138B47B86DB2345744D7A44594FD0E1B867883594369BFE63BF7EEF793D0B054FC9A8456E548E63CE46FB674D8A58F068C6477CE9F510B582A2C1F80D1182
310
70F349E816B32D65AFB8DD62CCEB42FF274A937A52948C8DEB66893BCB021484D7734370E5D2E9F608A3EF93F3119479ABA0E50B14B8C298119A43CCC4FCFCECB8A18B6388CEE7EF5D5D4F994BD86CBBA182D76543B9FCAE2FD7B24DF103504B0304140006080800B670623B1B8617914E0100003303000030000000666278
310
2F42384135303843342D343331462D343546312D424341352D3532343432364645413344462F636E782E786D6CD593C16EC32010447F0571AD6CE3D489D20813A9877E410FBD62D82434182CC055F3F75D1292E692438FBD206B7698593D61BEFD1E2DF982108D773D6D6B460938E5B571FB9ECE6957AD29D90A1EBC4F7736
310
4A9C1CA1A759A682EF839FA72269D8C9D92654AD71C72206887E0E0A22CAF926B15E498B01E0AA19451807D01A34B919F16B070157417138917400F2F6FA41FCF0092A45DEE414C19BDC21783E4BD39D891265658C3D8DEA00A3ACE59CBC8678ACB54CB26EEB6BD7839D7E9348BE70AD9C8321B9BCA7F9A4A26C542347DEE0
310
50F09802D22BA6749A800A394DD62899107273365E3C82CFC6A55557BC06C10774B7ABE7AEC3B0F34CF06446280E154026D0542C187BA9DAB6628BF7B6DBB0E5A65B3EB1F58631DE64BBE083F7B65CC218087E22CABB042E51D1F2268F1FE12B3EA24D40D63E9CFE00120194D60B9D5BC67FE6D39CDF37E20AF817881F504B
310
0304140006080800B670623BBFEF2E3B690500003C100000340000006662782F42384135303843342D343331462D343546312D424341352D3532343432364645413344462F6F626A656374732E786D6CAD575D739B3814FD2B0CFB0C98D84E931D4227B6938EA793B6534F3BFB90198F0099B001899144EAECAFDF231018B0
310
D37A3FFC609090EEE7B94757C1FB7D915B2F54C88CB31BDB7727B64559CC938CA53776A576CE956DBD0F03C1B9EA2DB32D460A7A63EB693B0C52C1ABD24C257447AA5C8D66EF177F5832A68CDA569C13296F6C193FD182B8A4523CA1F2D94D88226EBADBBBBEDB2C1C8A4D05299F46424B222853B014F30C52ACC6287F389C
310
D85E1878FA7B18E87FB36AFAF62AAFF667A83F635211161F291B8999FAB3D5DDC5FCDA99CF6653677679E13B8BFBC5CAF1DF4D27CBCBE5F2FAF6EE1A8AA51290642C117467871F101B91C581D77CEA2C36869F3229E68CD1B8F61F1ED6361B89092D294B90C78C4A68EB793D190E7D1D9BDEE7A91E1B95FDE9F3BCEAEFE809
310
6A6D6F9F7D4B79F4275C90E7A04248AA51D5C4C738DAE06F72885AC4796EBE65D22A88A22223B995679120E2D50EB1542F098381188D4EA111AE3DB043FF20AF6F2B4AE3D7D83D65E5AECA730D4D3BAC91BD05FEA992B565D95F549CD6069B90AB2A63EACA38A45E4B6A87D781574F86817E4C2FCCC72690D62E2729520E37
310
9BAF234797BAF6D62B3BFC781FED37BA1E4F2B2F052FA9501A3E80569BB8F6A9A364D4FA67654E6F803383981F82F21591FF84F23D9882BC896C3FDBCF8C162508933B2E0AE4C69DD43F6BD2BE38DDDBF10BF86CB4FA784D37F3AF16075E67EC9030DECA1FC0A55373F5DFF3378C591FA9BDF485C10B0A8C8BA909E5262639
310
A8E72163488806A595734C81CB77D1DE0ED7604A303B76913CEC0272F412782FF88EFF4636D8AA56DF7B322474C4B767303F625997056C7B032C473C592B36CEBD15F3F9FF5233B7ABCDC74D257624A60F8658567497B14CE1EC3C80B76FD02011038F9EE9EB0F2E12387A9C844D3F09855125116D1D731DF8B43D2CF4E0A0
310
79A020C6BE946BCE0B7EA1E1219331CD73C228AF5A2DDD31A4B1DA918CE91350854D40A71723140BFA92E94E62B0626016CEFA5864A50E5977E8753CEDBEE1CBB7F52780D20E17AF0BA0F5F9B02A3AD07DCC732EB6D1EBB661421BE0C39E21BABF0FE16D22EA6929407C8DE596724C88B749B6DB5512BC7B228ADFD7CB7EA6
310
3A22397E690BA8D5D8D4E40CEC8CDA23C2C0B7D5898640101CEC9C6D331CE328CB93CAFBBAC70A642DF70DF95155945B52F08AA973C23469FD69ADEF84F7BB18F983A8F8C90E37F5D35980B2139A1C523540813E824EF83448CF7C72B598CE97D7CEEDDDDD3B6736BFBC771677EF66CE6A7E7139F7A793E9EDF2B2B3A8B624
310
0CDA13AA5F8388264EC4A0129909F3B7F5A16CEDF08128E97D680ACA4B9BE7B7B58BB638F0B00700EF36AE8B32A705658A68F83EE897FC2B41573190D1CCAF0B92D233A47CFEB019D9809933F67DD1A5467F8CF69AD9A5AE859342D45355448C64F968A371DC2D596ADC6E43D93D1B466F877A64E2893E54F23C4B40388995
310
525E5005DA3983ED45412510D3EFCA13737B3863F74BD30F2A12E5B4B5E489A025CE25500DB855B11ACE5BBFA185D35DD48D8DC3CE7DC69F2944DB42AA6F6CF09BCA622ADD08C7A36E7C6AE18000BAB08E040135C2D21C9D75B3A91B77BB746C403F38018DFE6EC939DD92F16B40BC05294B9CDA035AAD6D330AE27FE4786B
310
8E45145EA34A75BE1C263A676A35A8ACC6297337400BF16C54EF515F3F77CB77EB3583889C754FFA29081AA98E2222ADEF05DA3E63D2EDEA8B8756C05A7FB6CABC4A91CBF325398202CC952E70A008A830324BA200D5E5EF8F5F04C75DB4B0EE3340E071C98B823333B83577596BF3849B69F2085AA0FAFA212F26BEFF5877
310
FDE622B28D88A42E49E43326DA82D31E8CB006401E1DA726059ECEC168F97A6599036306A135688F9AD2E61A6EA178F4CD51974A9F2CCB9F36FE5EBD14601068D9C3BF01504B0304140006080000B670623B000000000000000000000000350000006662782F42384135303843342D343331462D343546312D424341352D35
310
32343432364645413344462F76657274696365732E62696E504B0304140006080800B670623BF270F1330600000004000000360000006662782F42384135303843342D343331462D343546312D424341352D3532343432364645413344462F747269616E676C65732E62696E636660600000504B0304140006080000B67062
310
3B000000000000000000000000370000006662782F42384135303843342D343331462D343546312D424341352D3532343432364645413344462F617474726962757465732E62696E504B0304140006080800B670623B08DA0BD19000000041010000360000006662782F42384135303843342D343331462D343546312D4243
310
41352D3532343432364645413344462F6469726563746F72792E786D6C858F410AC3201045AF22B36F53E9A60B35CBEEBAE80D244E44489C6234F4F835464A48035D0DF398FF9F8AF63D0E6CC63039F212F8F9020C7D47C6792B21C5FE7403D62A1188E2E60C98D7234A5830286103A55745067B9D86B8A3CF9C7F90C11DE6
310
07FB144396D7B6A82D282E9A152AD114D5EF2CB866EEE831B8EEA07A7BB5A8D7D61A2BAAEB7FD5F70921FF497D00504B0304140006080800B670623B3B4606F3FE000000A00100003B0000006662782F42384135303843342D343331462D343546312D424341352D3532343432364645413344462F7265736F75726365732F
310
636F72652E786D6C8D504B6E833010BD0A9A6D65B08134808CA354A427E8052C332156828DFCA97AFC9A40A576D7CDCCE87D344F8F9FBEE647F689CE6B6B7A6039850C8DB2A336530F315C4903D94970676DF82583CCC8197B5861107C72362E3BA4AC096842428D1D7107A5F71820538F74F4E0D50D6799CB1892C2DFF345
310
AABB9C306779A2934E701F5C0A906D4FD609C2A1B7D129F4BCD858C163D4E3AED163FAA9AF1A1D88F67CA98E6D35906AA82A52BFB39ABCD5CD915C86331BD86BD3B665CD8BD52C78D0F34F46E550061C419494B6843142CB0F5677F4D0D58717DA7494F26295FF31C565FCA7296A13AA728FBBD93C0896823C09C18BB5AFB4
310
9E65A6BD762BBE01504B010214000A0000080000B670623B3DEE336E79000000790000001B00000000000000000000000000000000006175746F6465736B2D64657369676E2D7061636B6167652E786D6C504B01021400140006080800B670623BD486FD9CA0000000F40000001300000000000000000000000000B2000000
310
5B436F6E74656E745F54797065735D2E786D6C504B01021400140006080800B670623B28ED286BEB0000007C010000080000000000000000000000000083010000636F72652E786D6C504B01021400140006080800B670623B55019EA25F0000007C000000070000000000000000000000000094020000636E782E786D6C50
310
4B01021400140006080800B670623B7BC41AC871010000D40300000C00000000000000000000000000180300006662782F636F72652E786D6C504B01021400140006080800B670623B70102A487D0000009D0000000B00000000000000000000000000B30400006662782F636E782E786D6C504B01021400140006080800B6
310
70623B3610CA3329010000120200003100000000000000000000000000590500006662782F42384135303843342D343331462D343546312D424341352D3532343432364645413344462F636F72652E786D6C504B01021400140006080800B670623B1B8617914E010000330300003000000000000000000000000000D10600
310
006662782F42384135303843342D343331462D343546312D424341352D3532343432364645413344462F636E782E786D6C504B01021400140006080800B670623BBFEF2E3B690500003C10000034000000000000000000000000006D0800006662782F42384135303843342D343331462D343546312D424341352D35323434
310
32364645413344462F6F626A656374732E786D6C504B01021400140006080000B670623B0000000000000000000000003500000000000000000000000000280E00006662782F42384135303843342D343331462D343546312D424341352D3532343432364645413344462F76657274696365732E62696E504B010214001400
310
06080800B670623BF270F133060000000400000036000000000000000000000000007B0E00006662782F42384135303843342D343331462D343546312D424341352D3532343432364645413344462F747269616E676C65732E62696E504B01021400140006080000B670623B00000000000000000000000037000000000000
310
00000000000000D50E00006662782F42384135303843342D343331462D343546312D424341352D3532343432364645413344462F617474726962757465732E62696E504B01021400140006080800B670623B08DA0BD1900000004101000036000000000000000000000000002A0F00006662782F42384135303843342D3433
310
31462D343546312D424341352D3532343432364645413344462F6469726563746F72792E786D6C504B01021400140006080800B670623B3B4606F3FE000000A00100003B000000000000000000000000000E1000006662782F42384135303843342D343331462D343546312D424341352D3532343432364645413344462F72
310
65736F75726365732F636F72652E786D6C504B0506000000000E000E0080040000651100000000
  0
XRECORD
  5
C0F
102
{ACAD_REACTORS
330
186
102
}
330
186
100
AcDbXrecord
280
     1
102
MATERIAL
148
0.0
149
0.0
149
0.0
 93
        0
 94
       63
282
     0
 72
     1
 77
     1
171
     1
175
     1
179
     1
273
     0
  0
XRECORD
  5
187
102
{ACAD_REACTORS
330
186
102
}
330
186
100
AcDbXrecord
280
     1
 70
     1
 90
429727718
  1
887D55A9-D0DD-414E-B741-A7DCD4DA2B4C
310
504B03040A0000080000B670623B3DEE336E79000000790000001B0000006175746F6465736B2D64657369676E2D7061636B6167652E786D6C3C3F786D6C2076657273696F6E3D22312E302220656E636F64696E673D227574662D3822203F3E3C666F726D6174733E3C666F726D61743E687474703A2F2F736368656D612E
310
6175746F6465736B2E636F6D2F64657369676E2D7061636B6167652F323030393C2F666F726D61743E3C2F666F726D6174733E504B0304140006080800B670623BD486FD9CA0000000F4000000130000005B436F6E74656E745F54797065735D2E786D6C7D8EC10E82300C865F65E91D8A1E8C310C0EEA1BF002731658846E
310
D98AC1B77784ABF1D8FE5FBFBF75BBCE937A534CCEB38643598122B6FEE978D0B0485F9C41B54DDD7D022595594E1A469170414C76A4D9A4D207E29CF43ECE46F218070CC6BECC4078ACAA135ACF422C856C0E68EA1BF5669944DDD7BCDE7B1F8E415D77AECB980613C2E4AC91FC167A2B244592486606FC29C8FD7F045B9A
310
EF7053A7E60B504B0304140006080800B670623BBC1638F5EC0000007C01000008000000636F72652E786D6C8D90416EC3201045AF82665B61836BE2D8C24471DB9CA01740401C94182C03558F5F9C3852BBEB6A467FFE9B197D7EF89E6EE8CB2CC17AD7032D0820E394D7D68D3DA478C67B4007C117EFE32F1B202727D3C3
310
2A83E0E3E2D3BC49CABB685CCCAAF3DA6CA20CC14440EA969B1E82BA98491632C5EC08D76296EA2A4753D06797E194AC468F2356E77DF66CCD02825543D50CACC62D39ED70FDC68EB8FD68F6F8787A6784342D1DDA1D2F5758F068A7E77DB518198D065111D2624A31A93E69DD11D6D5EC85EC3B4278B9DAFF4069D6FF8492
310
75F1B5DADE7D600104CD8FDC0782976B16B9DC83CA75CD4DFC00504B0304140006080800B670623B55019EA25F0000007C00000007000000636E782E786D6C4DCB3B0E80201045D1AD90E915ED2CF8AC45050C11660C8261F98AB1B07AC9C97D42D718D865D3E909258CFD00CCE24AC6E326A164D74DC0B4128928FF326038
310
472BA13128B1252AC747C6BAB984FC68F0B87FE8960A5C09FE86CFB69FBA01504B0304140006080800B670623B3586FFB671010000D40300000C0000006662782F636F72652E786D6CC553ED6E8320147D15C2DF4541A76D6D90A6DDD627D80B50A4CE54C120983EFEAE1F4DD7A55BBA5FF3879273EEE59E7310B6393735EA
310
95ED2AA3731C851423A5A5292A5DE6D8BB63B0C268C39935C67D29C3488B46E578803167A535BE9D2169B453DA01AA4DA16650749D7218C91A1639EEE4876A4428BC838AEE14B6429E44A9C228041AEA38EB9C0501681A32BC313F1ECE8C4C3867DE57C5CC56054CAB8E95B298A7F12E5EEED224C8E87E11242FE936C8DE96
310
AB60BB7F4D295D66D12E5B30323473E6AAE6A24E5A259C2A308F29CD82280A68FC1E256B9AAE93F489AED694323294DF34F9B678B0C957DA3DC7B3DCA9ADC33C022123F1CD2D44E450277AD04338234388F01913BE0D1A0281909D38D4171F27807A259DB1093085F157AA17B557309586747CD0CF0B46A64E983A6E0EAEEF
310
CE881F9EF1FB8E70D44297604238581EBC1B74B249C31C5AAB6CD0BB33D2C636A27ECCC62F0EFF445DC5DF95244D6DEC7F2922F30191F9F720C37DE49F504B0304140006080800B670623B4220A0FF7D0000009D0000000B0000006662782F636E782E786D6C4DCCD10A83201886E15B91FFDCE542CB0335D0EC3E6259C84A
310
C3E9D8E5AF46073BFAE0E1E315DD675BD1DBA5978F41C2FD4600B9F088930F8B849267CC01754AA418F3DF0D50183727E164506249B1EC174D6E1ECB9A0F5D7D785E68DB8151CD286E5A5363CA6B8A39E90D36D40E96B086F55A43A544F52B1D7B86D517504B0304140006080800B670623B2FA3FEDE290100001202000031
310
0000006662782F45374635344235342D363743322D343832342D383044432D4334454645303536354442422F636F72652E786D6C8D515B6EC32010BC0AE22B55850D2E386E848994D7097A0117488A1283C5A3CAF10BB523B57FF961D1ECCCECC0F2ED7DBC816FED8371B687A4C210682B9D32F6D2C314CFA883602BB8772E
310
FEA141608751F7B0C050F08B77695A20E96CD43666D43AA5177008414708E42D5F7A18E4971E876A483133C2B59A06791D2EBA22556E679EE021FA1C00CC43CA09C5717D6274C7286AD7FB06D1AEA1A8C3873DDAD3E3E98859CB0EBB1DAF67A1E02919B5C88DCA71CCD968FFAC49110B1ECDF8882FBD1EA256503418BF2342
310
106E3E08DD60B6A1EC15771B8C795DE8FF4469524F8A92B1F1AD59E2CEB20005E1F5DC105CB9F4797B84D1F7C9F908CABC55D0F2050A5C61CC1AD2F27A26E6E767C7962E8E213A9FBF7775FDCC5CC266DB960A5E970DE5F2BBBE5CCB36C50F504B0304140006080800B670623B1B8617914E01000033030000300000006662
310
782F45374635344235342D363743322D343832342D383044432D4334454645303536354442422F636E782E786D6CD593C16EC32010447F0571AD6CE3D489D20813A9877E410FBD62D82434182CC055F3F75D1292E692438FBD206B7698593D61BEFD1E2DF982108D773D6D6B460938E5B571FB9ECE6957AD29D90A1EBC4F77
310
364A9C1CA1A759A682EF839FA72269D8C9D92654AD71C72206887E0E0A22CAF926B15E498B01E0AA19451807D01A34B919F16B070157417138917400F2F6FA41FCF0092A45DEE414C19BDC21783E4BD39D891265658C3D8DEA00A3ACE59CBC8678ACB54CB26EEB6BD7839D7E9348BE70AD9C8321B9BCA7F9A4A26C542347DE
310
E050F09802D22BA6749A800A394DD62899107273365E3C82CFC6A55557BC06C10774B7ABE7AEC3B0F34CF06446280E154026D0542C187BA9DAB6628BF7B6DBB0E5A65B3EB1F58631DE64BBE083F7B65CC218087E22CABB042E51D1F2268F1FE12B3EA24D40D63E9CFE00120194D60B9D5BC67FE6D39CDF37E20AF817881F50
310
4B0304140006080800B670623B29652116630500003C100000340000006662782F45374635344235342D363743322D343832342D383044432D4334454645303536354442422F6F626A656374732E786D6CAD575D739B3814FD2B0CFB0C989834C90EA1639B24E3E9A6EDD4D3CE3E64C623834CD8006224913AFDF57B040203
310
B65BEF871F0C12D2FD3CF7E8CA7FBFCB33E3957291B2E2D674ED8969D02262715A24B76625B7D6B569BC0F7CCE98EC2D338D82E4F4D654D366E0279C55A59E8AE99654991CCDDECFFF3444440B6A1A514684B83545F44C7362934AB2988A173B2692D8C97667BB76B3702836E1A47C1E092D09A78584A5982F20C5688C7287
310
C389E904BEA3BE07BEFAD7ABA6A75739B53F43FD69212429A20365233153D70BEF2E2E6FAC4BCF9B5ADEBB0BD79ADFCF43CBBD9A4E16EF168B9BD9DD0D140BC921495BC2E9D60C1E101B9E46BED37CEA2CD6861F3329624541A3DA7F7858DBAC25C6B4A4458C3CA654405BCFEBC970E8AAD8F43E4FD558ABEC4F9FE7557F47
310
4F506B7BFBEC5BCA367FC105710E2AB8A00A554D7CB4A30DFE26FBA86D18CBF4B75418399194A72433B274C3097F33032C554B027F2046A1932B842B0FCCC0DDCBEBDB8AD2F835768F59B9ADB24C41D30C6A64AF817F2A456D59FA83F2E3DA60137255A585BCD60EC9B7929AC18DEFD49381AF1ED30BFDB109A4B1CD488294
310
C3CDE6EBC8D185AABD6568061FEE37BB95AAC7E3CA4BCE4ACAA5820FA0D526AE7DAA2869B5EE5999531BE0CC20E6FBA07C41E43FA27CF7A6206F3CDD793B4F6B919C1462CB788EDCD893FA674CDA17AB7B3B7C019F8D561FAEE966FED562DFE98C1D12C6A9FC015C2A35D7FF3D7FC398F591DA4B5FE0BFA2C0189FEA50AE22
310
92817A1ED3020951A03432862970F976B33383259812CC8E5D240BBA801CBCF8CE2BBEE3BF910DB6AAD5F79E05123AE2DB33981FB1ACCB02B69D00CB014FD68AB573A7627EF9BFD4CC2C5C7D58557C4B22FAA88925A4DBB44825CECE3D78FB060D1231F0E885BE7D673C86A3874958F593906B5502D1563157814FDAC3420D
310
F69A070A22EC4B98E23CFF171A1E5311D12C23056555ABA53B8614563B92D17D02AAB009E8F46284624E5F53D5490C560CCCC2591FF1B45421EB0EBD8EA7ED13BE7C5D7E0428CD60FEF60779EB13E6664FF711CB185F6FDED60D139A001FF60CD1FD6D086F1D51474901E26B2CB794A343BC8ED3EDB612E0DD2351FCB65CF4
310
33D511C9E14B5B40ADC6A6263DB0336A8F700DDF56271A024E70B0B3629DE21847591E55DED73D56206AB927E46FAABC5C939C55853C274C93D69FD6FA4E78BF8B11DF898C9ECD60553FAD39283BA6F18984AA23E8884F83F45C5F5F859797B31B2B9C84A1E5B9DE9D35BFF25C6B76152E422F9C5DCC3D847F5801ED09D5AF
310
41441327A25FF15487F9EB725FB666F048A4701E9A827292E6F97569A32DF61DEC01C0BB8DCBBCCC684E0B49147C1FD54BF685A0AB18C868E6973949E819523E3DAC463660E68C7D9F55A9D1EFA3BD7A76A16AE1A810F95CE59B82A4D968A376DC2E8B44BBDD86B27B368CDE0ED548C7137DA860591A83706223A12CA712B4
310
7306DBF39C0A20A6DF95C7FAF670C6EED7A61F946493D1D6926782963813403548A78AE470DEF80D2D9CEAA26E4D1C76F60BFE74219A06527D6B82DF641A51616F703CAAC6A7160E08A00BEB4810A0274592A1B36E3675E36E978A0DE80727A0D6DF2D39A75BD27E0D8837276589537B40ABB56D5A41F48F1C6FCD3188C4EB
310
A6929D2FFB89CE995A4D00AE813BDD032DC48B56BD437DFDDC2DD7AED70C2272D63DE9A72068A45A92F0A4BE17A8A06B9366E16707AD80B1FC649459952097E74BB23805982B55E0401150A165964402AA8BDF9F3E7386BB686EDCA780C0D382E5392BF460A6EFB2C6EA1937D3F809B440D5F5435C4C5CF7A9EEFAF54564BD
310
2182DA24162F98680B4E7930C21A0079709CEAEB99A372305ABE0C0D7D6078105A83F6A0296DAEE1068A47DD1C55A9F4C9B2FC69E3EFD44B81028E963DF81B504B0304140006080000B670623B000000000000000000000000350000006662782F45374635344235342D363743322D343832342D383044432D433445464530
310
3536354442422F76657274696365732E62696E504B0304140006080800B670623BF270F1330600000004000000360000006662782F45374635344235342D363743322D343832342D383044432D4334454645303536354442422F747269616E676C65732E62696E636660600000504B0304140006080000B670623B00000000
310
0000000000000000370000006662782F45374635344235342D363743322D343832342D383044432D4334454645303536354442422F617474726962757465732E62696E504B0304140006080800B670623B08DA0BD19000000041010000360000006662782F45374635344235342D363743322D343832342D383044432D4334
310
454645303536354442422F6469726563746F72792E786D6C858F410AC3201045AF22B36F53E9A60B35CBEEBAE80D244E44489C6234F4F835464A48035D0DF398FF9F8AF63D0E6CC63039F212F8F9020C7D47C6792B21C5FE7403D62A1188E2E60C98D7234A5830286103A55745067B9D86B8A3CF9C7F90C11DE607FB144396
310
D7B6A82D282E9A152AD114D5EF2CB866EEE831B8EEA07A7BB5A8D7D61A2BAAEB7FD5F70921FF497D00504B0304140006080800B670623B6378F24DFF000000A00100003B0000006662782F45374635344235342D363743322D343832342D383044432D4334454645303536354442422F7265736F75726365732F636F72652E
310
786D6C8D504B6E833010BD0A9A6D65B0094E42641C85B639412F6099496225D8C89FAAC7AF09546A77DDCC8CDE47F3F4C4F16B7C149FE88371B603565228D06A37187BED20C50BD9437194C23B177FC9A0B06AC40E6618A4B87A97A615D2CE46B431A3D60DB8822A048C50E8473E3A08FA86A32A558A5911EEE5A4F45D5DB1
310
6465A6B34E8A107D0E502C4FE609D26370C96B0CA25A58295232C3AA3143FE692E063D485EF7F5AEE71BD2D2F39634AFFC44DAF7DD9E9CCE6F9CD25DCBFA762BAAD92C4534E34F46ED51451C40D694B6843142EB0FD61C283F34FC85EE0F948A6A96FF31A569F8A729191B37F51A77B105902C0779125254735F793DCBCC7B
310
EE567E03504B010214000A0000080000B670623B3DEE336E79000000790000001B00000000000000000000000000000000006175746F6465736B2D64657369676E2D7061636B6167652E786D6C504B01021400140006080800B670623BD486FD9CA0000000F40000001300000000000000000000000000B20000005B436F6E
310
74656E745F54797065735D2E786D6C504B01021400140006080800B670623BBC1638F5EC0000007C010000080000000000000000000000000083010000636F72652E786D6C504B01021400140006080800B670623B55019EA25F0000007C000000070000000000000000000000000095020000636E782E786D6C504B010214
310
00140006080800B670623B3586FFB671010000D40300000C00000000000000000000000000190300006662782F636F72652E786D6C504B01021400140006080800B670623B4220A0FF7D0000009D0000000B00000000000000000000000000B40400006662782F636E782E786D6C504B01021400140006080800B670623B2F
310
A3FEDE290100001202000031000000000000000000000000005A0500006662782F45374635344235342D363743322D343832342D383044432D4334454645303536354442422F636F72652E786D6C504B01021400140006080800B670623B1B8617914E010000330300003000000000000000000000000000D2060000666278
310
2F45374635344235342D363743322D343832342D383044432D4334454645303536354442422F636E782E786D6C504B01021400140006080800B670623B29652116630500003C10000034000000000000000000000000006E0800006662782F45374635344235342D363743322D343832342D383044432D4334454645303536
310
354442422F6F626A656374732E786D6C504B01021400140006080000B670623B0000000000000000000000003500000000000000000000000000230E00006662782F45374635344235342D363743322D343832342D383044432D4334454645303536354442422F76657274696365732E62696E504B01021400140006080800
310
B670623BF270F13306000000040000003600000000000000000000000000760E00006662782F45374635344235342D363743322D343832342D383044432D4334454645303536354442422F747269616E676C65732E62696E504B01021400140006080000B670623B0000000000000000000000003700000000000000000000
310
000000D00E00006662782F45374635344235342D363743322D343832342D383044432D4334454645303536354442422F617474726962757465732E62696E504B01021400140006080800B670623B08DA0BD190000000410100003600000000000000000000000000250F00006662782F45374635344235342D363743322D34
310
3832342D383044432D4334454645303536354442422F6469726563746F72792E786D6C504B01021400140006080800B670623B6378F24DFF000000A00100003B00000000000000000000000000091000006662782F45374635344235342D363743322D343832342D383044432D4334454645303536354442422F7265736F75
310
726365732F636F72652E786D6C504B0506000000000E000E0080040000611100000000
  0
XRECORD
  5
C11
102
{ACAD_REACTORS
330
110
102
}
330
110
100
AcDbXrecord
280
     1
102
MATERIAL
148
0.0
149
0.0
149
0.0
 93
        0
 94
       63
282
     0
 72
     1
 77
     1
171
     1
175
     1
179
     1
273
     0
  0
XRECORD
  5
112
102
{ACAD_REACTORS
330
110
102
}
330
110
100
AcDbXrecord
280
     1
270
     1
271
     1
  0
XRECORD
  5
111
102
{ACAD_REACTORS
330
110
102
}
330
110
100
AcDbXrecord
280
     1
270
     1
271
     1
  0
XRECORD
  5
18A
102
{ACAD_REACTORS
330
110
102
}
330
110
100
AcDbXrecord
280
     1
 70
     0
 90
1778669749
  1
9BF507EE-FAF7-4A99-A33D-4EE51894BC40
310
504B03040A0000080000B670623B3DEE336E79000000790000001B0000006175746F6465736B2D64657369676E2D7061636B6167652E786D6C3C3F786D6C2076657273696F6E3D22312E302220656E636F64696E673D227574662D3822203F3E3C666F726D6174733E3C666F726D61743E687474703A2F2F736368656D612E
310
6175746F6465736B2E636F6D2F64657369676E2D7061636B6167652F323030393C2F666F726D61743E3C2F666F726D6174733E504B0304140006080800B670623BD486FD9CA0000000F4000000130000005B436F6E74656E745F54797065735D2E786D6C7D8EC10E82300C865F65E91D8A1E8C310C0EEA1BF002731658846E
310
D98AC1B77784ABF1D8FE5FBFBF75BBCE937A534CCEB38643598122B6FEE978D0B0485F9C41B54DDD7D022595594E1A469170414C76A4D9A4D207E29CF43ECE46F218070CC6BECC4078ACAA135ACF422C856C0E68EA1BF5669944DDD7BCDE7B1F8E415D77AECB980613C2E4AC91FC167A2B244592486606FC29C8FD7F045B9A
310
EF7053A7E60B504B0304140006080800B670623BCA089DFFEC0000007C01000008000000636F72652E786D6C8D90416E83301045AF62CDB632D8402020E32882F604BD80653BC44AB011B6AB1EBF262152BBEB6A467FFE9B197D76FA9EEFE84BAFDE38DB03CD08206DA553C64E3DC470C1474027CE56E7C22F1B202B66DDC3
310
260367D3EAE2B24BD2D9A06D48AA754AEFA2F05E0740F29E9A1EBCBCEA59642286E4F0B76C11F226269DD15797E0188D42CF2346A57DE662F40ABCAEC77628C6120F654571D50C04B7F5B9C1E3997CD4F550BE3745C3F20DE62C98F9755FAE5A04AD801784B498524C8A4F5A75E4D055873772EC0861F966FF03C545FD138A
310
C686B2D8DF7D621E384D8F3C069CE55B16A93C824A75CB8DFF00504B0304140006080800B670623B55019EA25F0000007C00000007000000636E782E786D6C4DCB3B0E80201045D1AD90E915ED2CF8AC45050C11660C8261F98AB1B07AC9C97D42D718D865D3E909258CFD00CCE24AC6E326A164D74DC0B4128928FF326038
310
472BA13128B1252AC747C6BAB984FC68F0B87FE8960A5C09FE86CFB69FBA01504B0304140006080800B670623B68FC0B7272010000D40300000C0000006662782F636F72652E786D6CC5535B6E833010BC8AE5DF0A6C1E8124328E22D29EA01770C0A128602363A31CBFCB234A53A555FA553EC09AD9F5CE8C31DB5DDA060D
310
D2F4B556190E7C8A9154852E6B5565D8D993B7C668C799D1DA7E29C3488956667884316795D1AE5BA0422B2B950554E9522EA0E87B69312A1A5864B82F3E642B7CE12C54F467BF13C55954D20F7CA0A18EB3DE1A1080E621E31BF3D3F1C2C88C73E65C5D2E6C5DC2B4FA544B8379921C36797888BC3C8A032F4E73EA6D927D
310
EA1DF6F42D49F2E8350D5346C666CE6CDD5ED515460A2B4BCC434A375E1078347C0FE22D5D6DE3D50B5D6F2965642CBF6B725DF96493AB958DC245EEDCD6631E809089F8E61622B2A81703E8219C913144F84C09DF070D8140C8561C9BAB8F3340832CAC363130A576376A108D933095FA747AD0CF0B46E64E983A6D0EAE1F
310
CE089F9EF1FB8E70D44255604258581E9D1D75B259C3125A278D37D80B52DAB4A279CEC62F0EFF44DDC43F9454E8469BFF5244960322CBEF41C6FBC83F01504B0304140006080800B670623B0F71DDB67E0000009D0000000B0000006662782F636E782E786D6C4DCCD10A83201886E15B91FFDCA54DB73F502386BB8F5816
310
32D3703976F9ABD1C18E3E78F87855FB990379BBFCF2296AE02706C4C5471A7C9C349475A408A4352AA7B4FEDD80C47E761A7606A3A69CCA72D0E0C6BE8475D3E0E3F3409428EA6B27A84079A782899AA2EC1A7AE3ECCC2FD858CB2D544655BFD2B67BD87C01504B0304140006080800B670623BE134B4FB28010000120200
310
00310000006662782F38353834323741342D343835462D343034322D383541392D4331303331363839454531452F636F72652E786D6C8D515B6EC32010BC0AE22B55850D0EA424C24451959EA0172086A42831583CAA1CBF503B52FB971F16CDCECC0EACD8DFC71BF836215AEF7A481A0C817183D7D65D7A98D3197108F652
310
04EFD31F1A044E8DA6871586525C82CFD3020DDE25E352419DD76601558C264130DCCAA58771F832A36A544E8511AFCDA486ABBA988634A55D7852C4144A00300FA927949C71DABD1D28A29C7D208A6987383B6CD13BC16BB2E1DBE3911C453B0BA5C8D9EA456E758963CFD684674DAA588A64C747FC2118958C86B2C3788B
310
0841B8FB247487D98EB257CC77188BB6D2FF89F2A49F1465EBD2BA5BE2CEB2082511EDDC9042FB7CBA3DC298FBE4430275DE2A9AE1054ADC60CC08E3A29D89E5F9C5714317C7987C28DFBBBA9E0A97B0D97643A568EB864AF95D5FA9759BF207504B0304140006080800B670623B1B8617914E010000330300003000000066
310
62782F38353834323741342D343835462D343034322D383541392D4331303331363839454531452F636E782E786D6CD593C16EC32010447F0571AD6CE3D489D20813A9877E410FBD62D82434182CC055F3F75D1292E692438FBD206B7698593D61BEFD1E2DF982108D773D6D6B460938E5B571FB9ECE6957AD29D90A1EBC4F
310
77364A9C1CA1A759A682EF839FA72269D8C9D92654AD71C72206887E0E0A22CAF926B15E498B01E0AA19451807D01A34B919F16B070157417138917400F2F6FA41FCF0092A45DEE414C19BDC21783E4BD39D891265658C3D8DEA00A3ACE59CBC8678ACB54CB26EEB6BD7839D7E9348BE70AD9C8321B9BCA7F9A4A26C542347
310
DEE050F09802D22BA6749A800A394DD62899107273365E3C82CFC6A55557BC06C10774B7ABE7AEC3B0F34CF06446280E154026D0542C187BA9DAB6628BF7B6DBB0E5A65B3EB1F58631DE64BBE083F7B65CC218087E22CABB042E51D1F2268F1FE12B3EA24D40D63E9CFE00120194D60B9D5BC67FE6D39CDF37E20AF817881F
310
504B0304140006080800B670623B5933D422630500003B100000340000006662782F38353834323741342D343835462D343034322D383541392D4331303331363839454531452F6F626A656374732E786D6CAD575B6FA33814FE2B887D0642934E9B156594264D158D3A534DD4D13E548A0C38942D60649B4EBABF7E3F8321
310
40924EF6928780CDF1B97EE762EFF32E4B8D37CA45C2F21BD3B547A641F39045491EDF98A5DC5AD7A6F1D9F73863B243661A39C9E88DA9B64DDF8B392B0BBD15D12D295339D85DDEFE618890E6D434C2940871638AF08566C426A5641115AF764424B1E3EDCE76ED9AB0CF36E6A47819302D08A7B984A6D8CFC1C5A89572FB
310
CB91E9F89EA3BEFB9EFAD754E3D3544E654F5F7E920B49F2F040D880CDD89D2CEE2E2EA7D6E56432B6269F2E5CEB7679BBB0DCABF168FE693E9FCEEEA6102C240727AD09A75BD3BF876F78127A4EFDA9D5582B7E4CA590E5390D2BFB6161A5B3E618D182E611E2985001691DAB47FDA5AB7CD3F93C566B2DB2BB7D9E55DD13
310
1D468DEECDB3AB290BFE8409E21C54704115AA6AFF68436BFC8DF65E0B184BF5B74418199194272435D224E084BF9B3E481589EFF5D828747285706581E9BB7B7E5D5D911ABFC6EE312DB7659A2A689A7E85EC0DF04FA5A8344BFEA2FCB834E8845895492EAFB541F2BDA0A63FF59C6AD3F7D4637CA13FD68E34B629891172
310
98597F1D183A57B9B75A98FE9765B05BAB7C3C2EBCE0ACA05C2AF8005A4DE09AA7F29216EB9E15397500C6F47CBE77CA7778FE2BD277AF0AE2C693DD6437D1522427B9D8329E2136F6A8FA19A3E6C56ADF0E5F50CF06D48734EDCEBF22F69C56D97EC138153F804B85E6FABFC7AFEFB32E523BE1F3BD372418E363EDCA7548
310
52949E8724474014288D94610BB57C1BEC4C7F854A89CA8E5324F55B871CBC78CE1BBEE3BFE68D6A5589EF3C730474506FCFA8FCF0659516D0ED04580EEA6425581B77CAE797FF4BCECC16EB2FEB926F49481F746159D06D922712BD730FDEAE42BD40F42C7AA5EF3F198F60E86110D6DD20645A9480B795CF95E3E3A659A8
310
C55E724F408873315335CFFB8584874484344D494E59D94869DB90C26A5B64F49C802CAC1D3ABE18A098D3B7444D123D8A9E5AE8F5214F0AE5B2B6E9B575DA3E61CBD3EA2B4009FA940524DD1305FB6A1FB294F14DF0BEA90BA109ECE1481FDC3FFAE8D60E75141700BE82725371B4873751B2DD960265F788137FACE6DD40
310
B575E4F0A5C99F46629D92131467A41EE11ABD8D4CCC039CA0AFB37C93A08B232B8F0AEFCA1E0A1015DF13FC83322B362463652ECF71D3A8B1A7D1BE65DE1D62C44F22C317D35F574FEB16153BA2D13E543D10A80E74C4A65E78A6B7CBCBD1D5DD9DB59C2DAFACC96C3AB566E3F1C29ADCDD5DBAD7D3C9ED7C822ED74F80A6
310
41755310DE4443F44A9E68373FADF6596BFA0F440AE7BECE2727AE9F4F2B1B53B1E7E00CF0DD1E5C65454A339A4BA2D0FBA05ED2EF0443458F47BDBFCA484CCFE0F2ED7E3DD0013B679C7B5499467F0ECEEADDB9CA85A34CE44B99053949D2C1416DB85DE4B136BB7165FBAC0B7AB3542BED4F8CA182A549847A1319316519
310
95A83A67147B9E5101C47487F2485F1ECE38FD568F839204296D3479219888530154036E6528FBFBC66F98E0D4107563A2D7D9AFF8D389681A08F58D89F22693900A3B407754734FC51C10C010D6D640809EE4718AC1BA3ED4AEDB53CA37283F68805A7E4B72CEB0A4EDEAD5DD8C14059A76AFAA56BA6901E13F32BC51C720
310
12AF41295B5BF61BAD3195181FB506E6B40F4C10AF5AF40EF9F5B159AE5DD1F43C72D635E94310D45C2D49785C5D0B94D3B54AB3C5A38349C0587D338AB48C11CBF339599C02CCA54A70A008A8D03C0B2201D5F9EFCF8F9CE12A9A19CB0410789EB32C63B95ECCF455D658BFE0621A3DA32C5075FB101723D77DAE867E7D0F
310
D90444509B44E2151B4DC2290B065803200FBAA9BE9D392A0603F2D5C2D00D6302A615680F66D2FA166E2079D4C551A54AB758161FCEFD4E450A14704CECFEDF504B0304140006080000B670623B000000000000000000000000350000006662782F38353834323741342D343835462D343034322D383541392D4331303331
310
363839454531452F76657274696365732E62696E504B0304140006080800B670623BF270F1330600000004000000360000006662782F38353834323741342D343835462D343034322D383541392D4331303331363839454531452F747269616E676C65732E62696E636660600000504B0304140006080000B670623B000000
310
000000000000000000370000006662782F38353834323741342D343835462D343034322D383541392D4331303331363839454531452F617474726962757465732E62696E504B0304140006080800B670623B08DA0BD19000000041010000360000006662782F38353834323741342D343835462D343034322D383541392D43
310
31303331363839454531452F6469726563746F72792E786D6C858F410AC3201045AF22B36F53E9A60B35CBEEBAE80D244E44489C6234F4F835464A48035D0DF398FF9F8AF63D0E6CC63039F212F8F9020C7D47C6792B21C5FE7403D62A1188E2E60C98D7234A5830286103A55745067B9D86B8A3CF9C7F90C11DE607FB1443
310
96D7B6A82D282E9A152AD114D5EF2CB866EEE831B8EEA07A7BB5A8D7D61A2BAAEB7FD5F70921FF497D00504B0304140006080800B670623BD9A3B367FE000000A00100003B0000006662782F38353834323741342D343835462D343034322D383541392D4331303331363839454531452F7265736F75726365732F636F7265
310
2E786D6C8D504B6E833010BD0A9A6D65B01D0201194711694FD00B586642AD043BF2A7EAF16B122AB5BB6E6646EFA3797AE2F8B5DC8A4FF4C1383B002B291468B59B8C9D0748F1420E501CA5F0CEC55F3228AC5A708015062966EFD27D83B4B3116DCCA875136EA00A012314FA968F0182FEC045952AC5AC08D7F2AEF455CD
310
58B232D3592745883E07289E4FD609D26370C96B0CA27AB252A464A64D63A6FCD35C0C7A904D73EE467EE664DCD58CD4ED4849D79C5A723ED1B7A61977AF2D6F45B59AA58866F9C9A83DAA8813484E6947182394BFB3BAA7FBBEDEBFD0434FA9A856F91F53BA4FFF342563E38E6F719FB60092E5200F428A6AED2BAF479979
310
AFDDCA6F504B010214000A0000080000B670623B3DEE336E79000000790000001B00000000000000000000000000000000006175746F6465736B2D64657369676E2D7061636B6167652E786D6C504B01021400140006080800B670623BD486FD9CA0000000F40000001300000000000000000000000000B20000005B436F6E
310
74656E745F54797065735D2E786D6C504B01021400140006080800B670623BCA089DFFEC0000007C010000080000000000000000000000000083010000636F72652E786D6C504B01021400140006080800B670623B55019EA25F0000007C000000070000000000000000000000000095020000636E782E786D6C504B010214
310
00140006080800B670623B68FC0B7272010000D40300000C00000000000000000000000000190300006662782F636F72652E786D6C504B01021400140006080800B670623B0F71DDB67E0000009D0000000B00000000000000000000000000B50400006662782F636E782E786D6C504B01021400140006080800B670623BE1
310
34B4FB280100001202000031000000000000000000000000005C0500006662782F38353834323741342D343835462D343034322D383541392D4331303331363839454531452F636F72652E786D6C504B01021400140006080800B670623B1B8617914E010000330300003000000000000000000000000000D3060000666278
310
2F38353834323741342D343835462D343034322D383541392D4331303331363839454531452F636E782E786D6C504B01021400140006080800B670623B5933D422630500003B10000034000000000000000000000000006F0800006662782F38353834323741342D343835462D343034322D383541392D4331303331363839
310
454531452F6F626A656374732E786D6C504B01021400140006080000B670623B0000000000000000000000003500000000000000000000000000240E00006662782F38353834323741342D343835462D343034322D383541392D4331303331363839454531452F76657274696365732E62696E504B01021400140006080800
310
B670623BF270F13306000000040000003600000000000000000000000000770E00006662782F38353834323741342D343835462D343034322D383541392D4331303331363839454531452F747269616E676C65732E62696E504B01021400140006080000B670623B0000000000000000000000003700000000000000000000
310
000000D10E00006662782F38353834323741342D343835462D343034322D383541392D4331303331363839454531452F617474726962757465732E62696E504B01021400140006080800B670623B08DA0BD190000000410100003600000000000000000000000000260F00006662782F38353834323741342D343835462D34
310
3034322D383541392D4331303331363839454531452F6469726563746F72792E786D6C504B01021400140006080800B670623BD9A3B367FE000000A00100003B000000000000000000000000000A1000006662782F38353834323741342D343835462D343034322D383541392D4331303331363839454531452F7265736F75
310
726365732F636F72652E786D6C504B0506000000000E000E0080040000611100000000
  0
XRECORD
  5
113
102
{ACAD_REACTORS
330
110
102
}
330
110
100
AcDbXrecord
280
     1
270
     1
271
     1
  0
XRECORD
  5
114
102
{ACAD_REACTORS
330
110
102
}
330
110
100
AcDbXrecord
280
     1
270
     1
271
     1
  0
XRECORD
  5
C33
102
{ACAD_REACTORS
330
C32
102
}
330
C32
100
AcDbXrecord
280
     1
102
ACAD_ROUNDTRIP_2012_MLEADER_STYLE
298
     1
  0
XRECORD
  5
C45
102
{ACAD_REACTORS
330
C44
102
}
330
C44
100
AcDbXrecord
280
     1
102
DISPLAYNAME
  1
Imperial24
102
FLAGS
 90
        0
  0
CELLSTYLEMAP
  5
C05
102
{ACAD_REACTORS
330
104
102
}
330
104
100
AcDbCellStyleMap
 90
        3
300
CELLSTYLE
  1
TABLEFORMAT_BEGIN
 90
        5
170
     1
 91
        0
 92
    32768
 62
   257
 93
        1
300
CONTENTFORMAT
  1
CONTENTFORMAT_BEGIN
 90
        0
 91
        0
 92
      512
 93
        0
300

 40
0.0
140
1.0
 94
        5
 62
     0
340
11
144
0.25
309
CONTENTFORMAT_END
171
     1
301
MARGIN
  1
CELLMARGIN_BEGIN
 40
0.06
 40
0.06
 40
0.06
 40
0.06
 40
0.18
 40
0.18
309
CELLMARGIN_END
 94
        6
 95
        1
302
GRIDFORMAT
  1
GRIDFORMAT_BEGIN
 90
        0
 91
        1
 62
     0
 92
       -2
340
0
 93
        0
 40
0.045
309
GRIDFORMAT_END
 95
        2
302
GRIDFORMAT
  1
GRIDFORMAT_BEGIN
 90
        0
 91
        1
 62
     0
 92
       -2
340
0
 93
        0
 40
0.045
309
GRIDFORMAT_END
 95
        4
302
GRIDFORMAT
  1
GRIDFORMAT_BEGIN
 90
        0
 91
        1
 62
     0
 92
       -2
340
0
 93
        0
 40
0.045
309
GRIDFORMAT_END
 95
        8
302
GRIDFORMAT
  1
GRIDFORMAT_BEGIN
 90
        0
 91
        1
 62
     0
 92
       -2
340
0
 93
        0
 40
0.045
309
GRIDFORMAT_END
 95
       16
302
GRIDFORMAT
  1
GRIDFORMAT_BEGIN
 90
        0
 91
        1
 62
     0
 92
       -2
340
0
 93
        0
 40
0.045
309
GRIDFORMAT_END
 95
       32
302
GRIDFORMAT
  1
GRIDFORMAT_BEGIN
 90
        0
 91
        1
 62
     0
 92
       -2
340
0
 93
        0
 40
0.045
309
GRIDFORMAT_END
309
TABLEFORMAT_END
  1
CELLSTYLE_BEGIN
 90
        1
 91
        1
300
_TITLE
309
CELLSTYLE_END
300
CELLSTYLE
  1
TABLEFORMAT_BEGIN
 90
        5
170
     1
 91
        0
 92
        0
 62
   257
 93
        1
300
CONTENTFORMAT
  1
CONTENTFORMAT_BEGIN
 90
        0
 91
        0
 92
      512
 93
        0
300

 40
0.0
140
1.0
 94
        5
 62
     0
340
11
144
0.18
309
CONTENTFORMAT_END
171
     1
301
MARGIN
  1
CELLMARGIN_BEGIN
 40
0.06
 40
0.06
 40
0.06
 40
0.06
 40
0.18
 40
0.18
309
CELLMARGIN_END
 94
        6
 95
        1
302
GRIDFORMAT
  1
GRIDFORMAT_BEGIN
 90
        0
 91
        1
 62
     0
 92
       -2
340
0
 93
        0
 40
0.045
309
GRIDFORMAT_END
 95
        2
302
GRIDFORMAT
  1
GRIDFORMAT_BEGIN
 90
        0
 91
        1
 62
     0
 92
       -2
340
0
 93
        0
 40
0.045
309
GRIDFORMAT_END
 95
        4
302
GRIDFORMAT
  1
GRIDFORMAT_BEGIN
 90
        0
 91
        1
 62
     0
 92
       -2
340
0
 93
        0
 40
0.045
309
GRIDFORMAT_END
 95
        8
302
GRIDFORMAT
  1
GRIDFORMAT_BEGIN
 90
        0
 91
        1
 62
     0
 92
       -2
340
0
 93
        0
 40
0.045
309
GRIDFORMAT_END
 95
       16
302
GRIDFORMAT
  1
GRIDFORMAT_BEGIN
 90
        0
 91
        1
 62
     0
 92
       -2
340
0
 93
        0
 40
0.045
309
GRIDFORMAT_END
 95
       32
302
GRIDFORMAT
  1
GRIDFORMAT_BEGIN
 90
        0
 91
        1
 62
     0
 92
       -2
340
0
 93
        0
 40
0.045
309
GRIDFORMAT_END
309
TABLEFORMAT_END
  1
CELLSTYLE_BEGIN
 90
        2
 91
        1
300
_HEADER
309
CELLSTYLE_END
300
CELLSTYLE
  1
TABLEFORMAT_BEGIN
 90
        5
170
     1
 91
        0
 92
        0
 62
   257
 93
        1
300
CONTENTFORMAT
  1
CONTENTFORMAT_BEGIN
 90
        0
 91
        0
 92
      512
 93
        0
300

 40
0.0
140
1.0
 94
        2
 62
     0
340
11
144
0.18
309
CONTENTFORMAT_END
171
     1
301
MARGIN
  1
CELLMARGIN_BEGIN
 40
0.06
 40
0.06
 40
0.06
 40
0.06
 40
0.18
 40
0.18
309
CELLMARGIN_END
 94
        6
 95
        1
302
GRIDFORMAT
  1
GRIDFORMAT_BEGIN
 90
        0
 91
        1
 62
     0
 92
       -2
340
0
 93
        0
 40
0.045
309
GRIDFORMAT_END
 95
        2
302
GRIDFORMAT
  1
GRIDFORMAT_BEGIN
 90
        0
 91
        1
 62
     0
 92
       -2
340
0
 93
        0
 40
0.045
309
GRIDFORMAT_END
 95
        4
302
GRIDFORMAT
  1
GRIDFORMAT_BEGIN
 90
        0
 91
        1
 62
     0
 92
       -2
340
0
 93
        0
 40
0.045
309
GRIDFORMAT_END
 95
        8
302
GRIDFORMAT
  1
GRIDFORMAT_BEGIN
 90
        0
 91
        1
 62
     0
 92
       -2
340
0
 93
        0
 40
0.045
309
GRIDFORMAT_END
 95
       16
302
GRIDFORMAT
  1
GRIDFORMAT_BEGIN
 90
        0
 91
        1
 62
     0
 92
       -2
340
0
 93
        0
 40
0.045
309
GRIDFORMAT_END
 95
       32
302
GRIDFORMAT
  1
GRIDFORMAT_BEGIN
 90
        0
 91
        1
 62
     0
 92
       -2
340
0
 93
        0
 40
0.045
309
GRIDFORMAT_END
309
TABLEFORMAT_END
  1
CELLSTYLE_BEGIN
 90
        3
 91
        2
300
_DATA
309
CELLSTYLE_END
  0
XRECORD
  5
C0E
102
{ACAD_REACTORS
330
104
102
}
330
104
100
AcDbXrecord
280
     1
102
ACAD_ROUNDTRIP_PRE2007_TABLESTYLE
 90
      512
 91
        0
  1

 92
      512
 93
        0
  2

 94
      512
 95
        0
  3

  0
XRECORD
  5
C1D
102
{ACAD_REACTORS
330
C1C
102
}
330
C1C
100
AcDbXrecord
280
     1
102
RTVSPost2010Prop28
280
     1
102
RTVSPost2010PropOp28
 70
     1
102
RTVSPost2010Prop29
280
     1
102
RTVSPost2010PropOp29
 70
     1
102
RTVSPost2010Prop30
280
     0
102
RTVSPost2010PropOp30
 70
     1
102
RTVSPost2010Prop31
280
     0
102
RTVSPost2010PropOp31
 70
     1
102
RTVSPost2010Prop32
280
     0
102
RTVSPost2010PropOp32
 70
     1
102
RTVSPost2010Prop33
280
     0
102
RTVSPost2010PropOp33
 70
     1
102
RTVSPost2010Prop34
280
     0
102
RTVSPost2010PropOp34
 70
     1
102
RTVSPost2010Prop35
280
     0
102
RTVSPost2010PropOp35
 70
     1
102
RTVSPost2010Prop36
280
     0
102
RTVSPost2010PropOp36
 70
     1
102
RTVSPost2010Prop37
 90
       50
102
RTVSPost2010PropOp37
 70
     1
102
RTVSPost2010Prop38
140
0.0
102
RTVSPost2010PropOp38
 70
     1
102
RTVSPost2010Prop39
140
1.0
102
RTVSPost2010PropOp39
 70
     1
102
RTVSPost2010Prop40
 90
        0
102
RTVSPost2010PropOp40
 70
     1
102
RTVSPost2010Prop41ColorIndex
 90
       18
102
RTVSPost2010Prop41ColorRGB
 90
        0
102
RTVSPost2010PropOp41
 70
     1
102
RTVSPost2010Prop42
 90
       50
102
RTVSPost2010PropOp42
 70
     1
102
RTVSPost2010Prop43
 90
        3
102
RTVSPost2010PropOp43
 70
     1
102
RTVSPost2010Prop44ColorIndex
 90
        5
102
RTVSPost2010Prop44ColorRGB
 90
      255
102
RTVSPost2010PropOp44
 70
     1
102
RTVSPost2010Prop45
280
     0
102
RTVSPost2010PropOp45
 70
     1
102
RTVSPost2010Prop46
 90
       50
102
RTVSPost2010PropOp46
 70
     1
102
RTVSPost2010Prop47
 90
       50
102
RTVSPost2010PropOp47
 70
     1
102
RTVSPost2010Prop48
 90
       50
102
RTVSPost2010PropOp48
 70
     1
102
RTVSPost2010Prop49
280
     0
102
RTVSPost2010PropOp49
 70
     1
102
RTVSPost2010Prop50
 90
       50
102
RTVSPost2010PropOp50
 70
     1
102
RTVSPost2010Prop51ColorIndex
 90
      256
102
RTVSPost2010Prop51ColorRGB
 90
-16777216
102
RTVSPost2010PropOp51
 70
     0
102
RTVSPost2010Prop52
140
1.0
102
RTVSPost2010PropOp52
 70
     0
102
RTVSPost2010Prop53
 90
        2
102
RTVSPost2010PropOp53
 70
     1
102
RTVSPost2010Prop54
  1
strokes_ogs.tif
102
RTVSPost2010PropOp54
 70
     1
102
RTVSPost2010Prop55
280
     0
102
RTVSPost2010PropOp55
 70
     1
102
RTVSPost2010Prop56
140
1.0
102
RTVSPost2010PropOp56
 70
     1
102
RTVSPost2010Prop57
140
1.0
102
RTVSPost2010PropOp57
 70
     1
102
RTVSPropertyOp0
 70
     1
102
RTVSPropertyOp1
 70
     1
102
RTVSPropertyOp2
 70
     1
102
RTVSPropertyOp3
 70
     1
102
RTVSPropertyOp4
 70
     1
102
RTVSPropertyOp5
 70
     1
102
RTVSPropertyOp6
 70
     1
102
RTVSPropertyOp7
 70
     1
102
RTVSPropertyOp8
 70
     1
102
RTVSPropertyOp9
 70
     1
102
RTVSPropertyOp10
 70
     1
102
RTVSPropertyOp11
 70
     1
102
RTVSPropertyOp12
 70
     1
102
RTVSPropertyOp13
 70
     1
102
RTVSPropertyOp14
 70
     1
102
RTVSPropertyOp15
 70
     1
102
RTVSPropertyOp16
 70
     1
102
RTVSPropertyOp17
 70
     1
102
RTVSPropertyOp18
 70
     1
102
RTVSPropertyOp19
 70
     1
102
RTVSPropertyOp20
 70
     1
102
RTVSPropertyOp21
 70
     1
102
RTVSPropertyOp22
 70
     1
102
RTVSPropertyOp23
 70
     1
102
RTVSPropertyOp24
 70
     1
102
RTVSPropertyOp25
 70
     1
102
RTVSPropertyOp26
 70
     1
102
RTVSPropertyOp27
 70
     1
102
RTVSPropertyOp28
 70
     1
102
RTVSPropertyOp29
 70
     1
102
RTVSPropertyOp30
 70
     1
102
RTVSPropertyOp31
 70
     1
102
RTVSPropertyOp32
 70
     1
102
RTVSPropertyOp33
 70
     1
102
RTVSPropertyOp34
 70
     1
102
RTVSPropertyOp35
 70
     1
102
RTVSPropertyOp36
 70
     1
102
RTVSPropertyOp37
 70
     1
102
RTVSPropertyOp38
 70
     1
102
RTVSPropertyOp39
 70
     1
102
RTVSPropertyOp40
 70
     1
102
RTVSPropertyOp41
 70
     1
102
RTVSPropertyOp42
 70
     1
102
RTVSPropertyOp43
 70
     1
102
RTVSPropertyOp44
 70
     1
102
RTVSPropertyOp45
 70
     1
102
RTVSPropertyOp46
 70
     1
102
RTVSPropertyOp47
 70
     1
102
RTVSPropertyOp48
 70
     1
102
RTVSPropertyOp49
 70
     1
102
RTVSPropertyOp50
 70
     1
102
RTVSPropertyOp51
 70
     0
102
RTVSPropertyOp52
 70
     0
102
RTVSPropertyOp53
 70
     1
102
RTVSPropertyOp54
 70
     1
102
RTVSPropertyOp55
 70
     1
102
RTVSPropertyOp56
 70
     1
102
RTVSPropertyOp57
 70
     1
102
RTVSPropertyOp58
 70
     1
102
RTVSPropertyOp59
 70
     1
102
RTVSPropertyOp60
 70
     1
102
RTVSPropertyOp61
 70
     1
102
RTVSPropertyOp62
 70
     1
  0
XRECORD
  5
C1B
102
{ACAD_REACTORS
330
C1A
102
}
330
C1A
100
AcDbXrecord
280
     1
102
RTVSPost2010Prop28
280
     0
102
RTVSPost2010PropOp28
 70
     1
102
RTVSPost2010Prop29
280
     1
102
RTVSPost2010PropOp29
 70
     1
102
RTVSPost2010Prop30
280
     1
102
RTVSPost2010PropOp30
 70
     1
102
RTVSPost2010Prop31
280
     0
102
RTVSPost2010PropOp31
 70
     1
102
RTVSPost2010Prop32
280
     0
102
RTVSPost2010PropOp32
 70
     1
102
RTVSPost2010Prop33
280
     0
102
RTVSPost2010PropOp33
 70
     1
102
RTVSPost2010Prop34
280
     0
102
RTVSPost2010PropOp34
 70
     1
102
RTVSPost2010Prop35
280
     0
102
RTVSPost2010PropOp35
 70
     1
102
RTVSPost2010Prop36
280
     0
102
RTVSPost2010PropOp36
 70
     1
102
RTVSPost2010Prop37
 90
       50
102
RTVSPost2010PropOp37
 70
     1
102
RTVSPost2010Prop38
140
0.0
102
RTVSPost2010PropOp38
 70
     1
102
RTVSPost2010Prop39
140
1.0
102
RTVSPost2010PropOp39
 70
     1
102
RTVSPost2010Prop40
 90
        0
102
RTVSPost2010PropOp40
 70
     1
102
RTVSPost2010Prop41ColorIndex
 90
       18
102
RTVSPost2010Prop41ColorRGB
 90
        0
102
RTVSPost2010PropOp41
 70
     1
102
RTVSPost2010Prop42
 90
       50
102
RTVSPost2010PropOp42
 70
     1
102
RTVSPost2010Prop43
 90
        3
102
RTVSPost2010PropOp43
 70
     1
102
RTVSPost2010Prop44ColorIndex
 90
        5
102
RTVSPost2010Prop44ColorRGB
 90
      255
102
RTVSPost2010PropOp44
 70
     1
102
RTVSPost2010Prop45
280
     0
102
RTVSPost2010PropOp45
 70
     1
102
RTVSPost2010Prop46
 90
       50
102
RTVSPost2010PropOp46
 70
     1
102
RTVSPost2010Prop47
 90
       50
102
RTVSPost2010PropOp47
 70
     1
102
RTVSPost2010Prop48
 90
       50
102
RTVSPost2010PropOp48
 70
     1
102
RTVSPost2010Prop49
280
     0
102
RTVSPost2010PropOp49
 70
     1
102
RTVSPost2010Prop50
 90
       50
102
RTVSPost2010PropOp50
 70
     1
102
RTVSPost2010Prop51ColorIndex
 90
      256
102
RTVSPost2010Prop51ColorRGB
 90
-16777216
102
RTVSPost2010PropOp51
 70
     0
102
RTVSPost2010Prop52
140
1.0
102
RTVSPost2010PropOp52
 70
     0
102
RTVSPost2010Prop53
 90
        2
102
RTVSPost2010PropOp53
 70
     1
102
RTVSPost2010Prop54
  1
strokes_ogs.tif
102
RTVSPost2010PropOp54
 70
     1
102
RTVSPost2010Prop55
280
     0
102
RTVSPost2010PropOp55
 70
     1
102
RTVSPost2010Prop56
140
1.0
102
RTVSPost2010PropOp56
 70
     1
102
RTVSPost2010Prop57
140
1.0
102
RTVSPost2010PropOp57
 70
     1
102
RTVSPropertyOp0
 70
     1
102
RTVSPropertyOp1
 70
     1
102
RTVSPropertyOp2
 70
     1
102
RTVSPropertyOp3
 70
     1
102
RTVSPropertyOp4
 70
     1
102
RTVSPropertyOp5
 70
     1
102
RTVSPropertyOp6
 70
     1
102
RTVSPropertyOp7
 70
     1
102
RTVSPropertyOp8
 70
     1
102
RTVSPropertyOp9
 70
     1
102
RTVSPropertyOp10
 70
     1
102
RTVSPropertyOp11
 70
     1
102
RTVSPropertyOp12
 70
     1
102
RTVSPropertyOp13
 70
     1
102
RTVSPropertyOp14
 70
     1
102
RTVSPropertyOp15
 70
     1
102
RTVSPropertyOp16
 70
     1
102
RTVSPropertyOp17
 70
     1
102
RTVSPropertyOp18
 70
     1
102
RTVSPropertyOp19
 70
     1
102
RTVSPropertyOp20
 70
     1
102
RTVSPropertyOp21
 70
     1
102
RTVSPropertyOp22
 70
     1
102
RTVSPropertyOp23
 70
     1
102
RTVSPropertyOp24
 70
     1
102
RTVSPropertyOp25
 70
     1
102
RTVSPropertyOp26
 70
     1
102
RTVSPropertyOp27
 70
     1
102
RTVSPropertyOp28
 70
     1
102
RTVSPropertyOp29
 70
     1
102
RTVSPropertyOp30
 70
     1
102
RTVSPropertyOp31
 70
     1
102
RTVSPropertyOp32
 70
     1
102
RTVSPropertyOp33
 70
     1
102
RTVSPropertyOp34
 70
     1
102
RTVSPropertyOp35
 70
     1
102
RTVSPropertyOp36
 70
     1
102
RTVSPropertyOp37
 70
     1
102
RTVSPropertyOp38
 70
     1
102
RTVSPropertyOp39
 70
     1
102
RTVSPropertyOp40
 70
     1
102
RTVSPropertyOp41
 70
     1
102
RTVSPropertyOp42
 70
     1
102
RTVSPropertyOp43
 70
     1
102
RTVSPropertyOp44
 70
     1
102
RTVSPropertyOp45
 70
     1
102
RTVSPropertyOp46
 70
     1
102
RTVSPropertyOp47
 70
     1
102
RTVSPropertyOp48
 70
     1
102
RTVSPropertyOp49
 70
     1
102
RTVSPropertyOp50
 70
     1
102
RTVSPropertyOp51
 70
     0
102
RTVSPropertyOp52
 70
     0
102
RTVSPropertyOp53
 70
     1
102
RTVSPropertyOp54
 70
     1
102
RTVSPropertyOp55
 70
     1
102
RTVSPropertyOp56
 70
     1
102
RTVSPropertyOp57
 70
     1
102
RTVSPropertyOp58
 70
     1
102
RTVSPropertyOp59
 70
     1
102
RTVSPropertyOp60
 70
     1
102
RTVSPropertyOp61
 70
     1
102
RTVSPropertyOp62
 70
     1
  0
XRECORD
  5
C29
102
{ACAD_REACTORS
330
C28
102
}
330
C28
100
AcDbXrecord
280
     1
102
RTVSPost2010Prop28
280
     0
102
RTVSPost2010PropOp28
 70
     1
102
RTVSPost2010Prop29
280
     1
102
RTVSPost2010PropOp29
 70
     1
102
RTVSPost2010Prop30
280
     1
102
RTVSPost2010PropOp30
 70
     1
102
RTVSPost2010Prop31
280
     0
102
RTVSPost2010PropOp31
 70
     1
102
RTVSPost2010Prop32
280
     0
102
RTVSPost2010PropOp32
 70
     1
102
RTVSPost2010Prop33
280
     0
102
RTVSPost2010PropOp33
 70
     1
102
RTVSPost2010Prop34
280
     0
102
RTVSPost2010PropOp34
 70
     1
102
RTVSPost2010Prop35
280
     0
102
RTVSPost2010PropOp35
 70
     1
102
RTVSPost2010Prop36
280
     0
102
RTVSPost2010PropOp36
 70
     1
102
RTVSPost2010Prop37
 90
       50
102
RTVSPost2010PropOp37
 70
     1
102
RTVSPost2010Prop38
140
0.0
102
RTVSPost2010PropOp38
 70
     1
102
RTVSPost2010Prop39
140
1.0
102
RTVSPost2010PropOp39
 70
     1
102
RTVSPost2010Prop40
 90
        0
102
RTVSPost2010PropOp40
 70
     1
102
RTVSPost2010Prop41ColorIndex
 90
       18
102
RTVSPost2010Prop41ColorRGB
 90
        0
102
RTVSPost2010PropOp41
 70
     1
102
RTVSPost2010Prop42
 90
       50
102
RTVSPost2010PropOp42
 70
     1
102
RTVSPost2010Prop43
 90
        3
102
RTVSPost2010PropOp43
 70
     1
102
RTVSPost2010Prop44ColorIndex
 90
        5
102
RTVSPost2010Prop44ColorRGB
 90
      255
102
RTVSPost2010PropOp44
 70
     1
102
RTVSPost2010Prop45
280
     0
102
RTVSPost2010PropOp45
 70
     1
102
RTVSPost2010Prop46
 90
       50
102
RTVSPost2010PropOp46
 70
     1
102
RTVSPost2010Prop47
 90
       50
102
RTVSPost2010PropOp47
 70
     1
102
RTVSPost2010Prop48
 90
       50
102
RTVSPost2010PropOp48
 70
     1
102
RTVSPost2010Prop49
280
     0
102
RTVSPost2010PropOp49
 70
     1
102
RTVSPost2010Prop50
 90
       50
102
RTVSPost2010PropOp50
 70
     1
102
RTVSPost2010Prop51ColorIndex
 90
      256
102
RTVSPost2010Prop51ColorRGB
 90
-16777216
102
RTVSPost2010PropOp51
 70
     0
102
RTVSPost2010Prop52
140
1.0
102
RTVSPost2010PropOp52
 70
     0
102
RTVSPost2010Prop53
 90
        2
102
RTVSPost2010PropOp53
 70
     1
102
RTVSPost2010Prop54
  1
strokes_ogs.tif
102
RTVSPost2010PropOp54
 70
     1
102
RTVSPost2010Prop55
280
     0
102
RTVSPost2010PropOp55
 70
     1
102
RTVSPost2010Prop56
140
1.0
102
RTVSPost2010PropOp56
 70
     1
102
RTVSPost2010Prop57
140
1.0
102
RTVSPost2010PropOp57
 70
     1
102
RTVSPropertyOp0
 70
     1
102
RTVSPropertyOp1
 70
     1
102
RTVSPropertyOp2
 70
     1
102
RTVSPropertyOp3
 70
     1
102
RTVSPropertyOp4
 70
     1
102
RTVSPropertyOp5
 70
     1
102
RTVSPropertyOp6
 70
     1
102
RTVSPropertyOp7
 70
     1
102
RTVSPropertyOp8
 70
     1
102
RTVSPropertyOp9
 70
     1
102
RTVSPropertyOp10
 70
     1
102
RTVSPropertyOp11
 70
     1
102
RTVSPropertyOp12
 70
     1
102
RTVSPropertyOp13
 70
     1
102
RTVSPropertyOp14
 70
     1
102
RTVSPropertyOp15
 70
     1
102
RTVSPropertyOp16
 70
     1
102
RTVSPropertyOp17
 70
     1
102
RTVSPropertyOp18
 70
     1
102
RTVSPropertyOp19
 70
     1
102
RTVSPropertyOp20
 70
     1
102
RTVSPropertyOp21
 70
     1
102
RTVSPropertyOp22
 70
     1
102
RTVSPropertyOp23
 70
     1
102
RTVSPropertyOp24
 70
     1
102
RTVSPropertyOp25
 70
     1
102
RTVSPropertyOp26
 70
     1
102
RTVSPropertyOp27
 70
     1
102
RTVSPropertyOp28
 70
     1
102
RTVSPropertyOp29
 70
     1
102
RTVSPropertyOp30
 70
     1
102
RTVSPropertyOp31
 70
     1
102
RTVSPropertyOp32
 70
     1
102
RTVSPropertyOp33
 70
     1
102
RTVSPropertyOp34
 70
     1
102
RTVSPropertyOp35
 70
     1
102
RTVSPropertyOp36
 70
     1
102
RTVSPropertyOp37
 70
     1
102
RTVSPropertyOp38
 70
     1
102
RTVSPropertyOp39
 70
     1
102
RTVSPropertyOp40
 70
     1
102
RTVSPropertyOp41
 70
     1
102
RTVSPropertyOp42
 70
     1
102
RTVSPropertyOp43
 70
     1
102
RTVSPropertyOp44
 70
     1
102
RTVSPropertyOp45
 70
     1
102
RTVSPropertyOp46
 70
     1
102
RTVSPropertyOp47
 70
     1
102
RTVSPropertyOp48
 70
     1
102
RTVSPropertyOp49
 70
     1
102
RTVSPropertyOp50
 70
     1
102
RTVSPropertyOp51
 70
     0
102
RTVSPropertyOp52
 70
     0
102
RTVSPropertyOp53
 70
     1
102
RTVSPropertyOp54
 70
     1
102
RTVSPropertyOp55
 70
     1
102
RTVSPropertyOp56
 70
     1
102
RTVSPropertyOp57
 70
     1
102
RTVSPropertyOp58
 70
     1
102
RTVSPropertyOp59
 70
     1
102
RTVSPropertyOp60
 70
     1
102
RTVSPropertyOp61
 70
     1
102
RTVSPropertyOp62
 70
     1
  0
XRECORD
  5
C31
102
{ACAD_REACTORS
330
C30
102
}
330
C30
100
AcDbXrecord
280
     1
102
RTVSPost2010Prop28
280
     0
102
RTVSPost2010PropOp28
 70
     1
102
RTVSPost2010Prop29
280
     1
102
RTVSPost2010PropOp29
 70
     1
102
RTVSPost2010Prop30
280
     1
102
RTVSPost2010PropOp30
 70
     1
102
RTVSPost2010Prop31
280
     0
102
RTVSPost2010PropOp31
 70
     1
102
RTVSPost2010Prop32
280
     0
102
RTVSPost2010PropOp32
 70
     1
102
RTVSPost2010Prop33
280
     0
102
RTVSPost2010PropOp33
 70
     1
102
RTVSPost2010Prop34
280
     0
102
RTVSPost2010PropOp34
 70
     1
102
RTVSPost2010Prop35
280
     0
102
RTVSPost2010PropOp35
 70
     1
102
RTVSPost2010Prop36
280
     0
102
RTVSPost2010PropOp36
 70
     1
102
RTVSPost2010Prop37
 90
       50
102
RTVSPost2010PropOp37
 70
     1
102
RTVSPost2010Prop38
140
0.0
102
RTVSPost2010PropOp38
 70
     1
102
RTVSPost2010Prop39
140
1.0
102
RTVSPost2010PropOp39
 70
     1
102
RTVSPost2010Prop40
 90
        0
102
RTVSPost2010PropOp40
 70
     1
102
RTVSPost2010Prop41ColorIndex
 90
       18
102
RTVSPost2010Prop41ColorRGB
 90
        0
102
RTVSPost2010PropOp41
 70
     1
102
RTVSPost2010Prop42
 90
       50
102
RTVSPost2010PropOp42
 70
     1
102
RTVSPost2010Prop43
 90
        3
102
RTVSPost2010PropOp43
 70
     1
102
RTVSPost2010Prop44ColorIndex
 90
        5
102
RTVSPost2010Prop44ColorRGB
 90
      255
102
RTVSPost2010PropOp44
 70
     1
102
RTVSPost2010Prop45
280
     0
102
RTVSPost2010PropOp45
 70
     1
102
RTVSPost2010Prop46
 90
       50
102
RTVSPost2010PropOp46
 70
     1
102
RTVSPost2010Prop47
 90
       50
102
RTVSPost2010PropOp47
 70
     1
102
RTVSPost2010Prop48
 90
       50
102
RTVSPost2010PropOp48
 70
     1
102
RTVSPost2010Prop49
280
     0
102
RTVSPost2010PropOp49
 70
     1
102
RTVSPost2010Prop50
 90
       50
102
RTVSPost2010PropOp50
 70
     1
102
RTVSPost2010Prop51ColorIndex
 90
      256
102
RTVSPost2010Prop51ColorRGB
 90
-16777216
102
RTVSPost2010PropOp51
 70
     0
102
RTVSPost2010Prop52
140
1.0
102
RTVSPost2010PropOp52
 70
     0
102
RTVSPost2010Prop53
 90
        2
102
RTVSPost2010PropOp53
 70
     1
102
RTVSPost2010Prop54
  1
strokes_ogs.tif
102
RTVSPost2010PropOp54
 70
     1
102
RTVSPost2010Prop55
280
     0
102
RTVSPost2010PropOp55
 70
     1
102
RTVSPost2010Prop56
140
1.0
102
RTVSPost2010PropOp56
 70
     1
102
RTVSPost2010Prop57
140
1.0
102
RTVSPost2010PropOp57
 70
     1
102
RTVSPropertyOp0
 70
     1
102
RTVSPropertyOp1
 70
     1
102
RTVSPropertyOp2
 70
     1
102
RTVSPropertyOp3
 70
     1
102
RTVSPropertyOp4
 70
     1
102
RTVSPropertyOp5
 70
     1
102
RTVSPropertyOp6
 70
     1
102
RTVSPropertyOp7
 70
     1
102
RTVSPropertyOp8
 70
     1
102
RTVSPropertyOp9
 70
     1
102
RTVSPropertyOp10
 70
     1
102
RTVSPropertyOp11
 70
     1
102
RTVSPropertyOp12
 70
     1
102
RTVSPropertyOp13
 70
     1
102
RTVSPropertyOp14
 70
     1
102
RTVSPropertyOp15
 70
     1
102
RTVSPropertyOp16
 70
     1
102
RTVSPropertyOp17
 70
     1
102
RTVSPropertyOp18
 70
     1
102
RTVSPropertyOp19
 70
     1
102
RTVSPropertyOp20
 70
     1
102
RTVSPropertyOp21
 70
     1
102
RTVSPropertyOp22
 70
     1
102
RTVSPropertyOp23
 70
     1
102
RTVSPropertyOp24
 70
     1
102
RTVSPropertyOp25
 70
     1
102
RTVSPropertyOp26
 70
     1
102
RTVSPropertyOp27
 70
     1
102
RTVSPropertyOp28
 70
     1
102
RTVSPropertyOp29
 70
     1
102
RTVSPropertyOp30
 70
     1
102
RTVSPropertyOp31
 70
     1
102
RTVSPropertyOp32
 70
     1
102
RTVSPropertyOp33
 70
     1
102
RTVSPropertyOp34
 70
     1
102
RTVSPropertyOp35
 70
     1
102
RTVSPropertyOp36
 70
     1
102
RTVSPropertyOp37
 70
     1
102
RTVSPropertyOp38
 70
     1
102
RTVSPropertyOp39
 70
     1
102
RTVSPropertyOp40
 70
     1
102
RTVSPropertyOp41
 70
     1
102
RTVSPropertyOp42
 70
     1
102
RTVSPropertyOp43
 70
     1
102
RTVSPropertyOp44
 70
     1
102
RTVSPropertyOp45
 70
     1
102
RTVSPropertyOp46
 70
     1
102
RTVSPropertyOp47
 70
     1
102
RTVSPropertyOp48
 70
     1
102
RTVSPropertyOp49
 70
     1
102
RTVSPropertyOp50
 70
     1
102
RTVSPropertyOp51
 70
     0
102
RTVSPropertyOp52
 70
     0
102
RTVSPropertyOp53
 70
     1
102
RTVSPropertyOp54
 70
     1
102
RTVSPropertyOp55
 70
     1
102
RTVSPropertyOp56
 70
     1
102
RTVSPropertyOp57
 70
     1
102
RTVSPropertyOp58
 70
     1
102
RTVSPropertyOp59
 70
     1
102
RTVSPropertyOp60
 70
     1
102
RTVSPropertyOp61
 70
     1
102
RTVSPropertyOp62
 70
     1
  0
XRECORD
  5
C23
102
{ACAD_REACTORS
330
C22
102
}
330
C22
100
AcDbXrecord
280
     1
102
RTVSPost2010Prop28
280
     0
102
RTVSPost2010PropOp28
 70
     1
102
RTVSPost2010Prop29
280
     1
102
RTVSPost2010PropOp29
 70
     1
102
RTVSPost2010Prop30
280
     1
102
RTVSPost2010PropOp30
 70
     1
102
RTVSPost2010Prop31
280
     0
102
RTVSPost2010PropOp31
 70
     1
102
RTVSPost2010Prop32
280
     0
102
RTVSPost2010PropOp32
 70
     1
102
RTVSPost2010Prop33
280
     0
102
RTVSPost2010PropOp33
 70
     1
102
RTVSPost2010Prop34
280
     0
102
RTVSPost2010PropOp34
 70
     1
102
RTVSPost2010Prop35
280
     0
102
RTVSPost2010PropOp35
 70
     1
102
RTVSPost2010Prop36
280
     0
102
RTVSPost2010PropOp36
 70
     1
102
RTVSPost2010Prop37
 90
       50
102
RTVSPost2010PropOp37
 70
     1
102
RTVSPost2010Prop38
140
0.0
102
RTVSPost2010PropOp38
 70
     1
102
RTVSPost2010Prop39
140
1.0
102
RTVSPost2010PropOp39
 70
     1
102
RTVSPost2010Prop40
 90
        0
102
RTVSPost2010PropOp40
 70
     1
102
RTVSPost2010Prop41ColorIndex
 90
       18
102
RTVSPost2010Prop41ColorRGB
 90
        0
102
RTVSPost2010PropOp41
 70
     1
102
RTVSPost2010Prop42
 90
       50
102
RTVSPost2010PropOp42
 70
     1
102
RTVSPost2010Prop43
 90
        3
102
RTVSPost2010PropOp43
 70
     1
102
RTVSPost2010Prop44ColorIndex
 90
        5
102
RTVSPost2010Prop44ColorRGB
 90
      255
102
RTVSPost2010PropOp44
 70
     1
102
RTVSPost2010Prop45
280
     0
102
RTVSPost2010PropOp45
 70
     1
102
RTVSPost2010Prop46
 90
       50
102
RTVSPost2010PropOp46
 70
     1
102
RTVSPost2010Prop47
 90
       50
102
RTVSPost2010PropOp47
 70
     1
102
RTVSPost2010Prop48
 90
       50
102
RTVSPost2010PropOp48
 70
     1
102
RTVSPost2010Prop49
280
     0
102
RTVSPost2010PropOp49
 70
     1
102
RTVSPost2010Prop50
 90
       50
102
RTVSPost2010PropOp50
 70
     1
102
RTVSPost2010Prop51ColorIndex
 90
      256
102
RTVSPost2010Prop51ColorRGB
 90
-16777216
102
RTVSPost2010PropOp51
 70
     0
102
RTVSPost2010Prop52
140
1.0
102
RTVSPost2010PropOp52
 70
     0
102
RTVSPost2010Prop53
 90
        2
102
RTVSPost2010PropOp53
 70
     1
102
RTVSPost2010Prop54
  1
strokes_ogs.tif
102
RTVSPost2010PropOp54
 70
     1
102
RTVSPost2010Prop55
280
     0
102
RTVSPost2010PropOp55
 70
     1
102
RTVSPost2010Prop56
140
1.0
102
RTVSPost2010PropOp56
 70
     1
102
RTVSPost2010Prop57
140
1.0
102
RTVSPost2010PropOp57
 70
     1
102
RTVSPropertyOp0
 70
     1
102
RTVSPropertyOp1
 70
     1
102
RTVSPropertyOp2
 70
     1
102
RTVSPropertyOp3
 70
     1
102
RTVSPropertyOp4
 70
     1
102
RTVSPropertyOp5
 70
     1
102
RTVSPropertyOp6
 70
     1
102
RTVSPropertyOp7
 70
     1
102
RTVSPropertyOp8
 70
     1
102
RTVSPropertyOp9
 70
     1
102
RTVSPropertyOp10
 70
     1
102
RTVSPropertyOp11
 70
     1
102
RTVSPropertyOp12
 70
     1
102
RTVSPropertyOp13
 70
     1
102
RTVSPropertyOp14
 70
     1
102
RTVSPropertyOp15
 70
     1
102
RTVSPropertyOp16
 70
     1
102
RTVSPropertyOp17
 70
     1
102
RTVSPropertyOp18
 70
     1
102
RTVSPropertyOp19
 70
     1
102
RTVSPropertyOp20
 70
     1
102
RTVSPropertyOp21
 70
     1
102
RTVSPropertyOp22
 70
     1
102
RTVSPropertyOp23
 70
     1
102
RTVSPropertyOp24
 70
     1
102
RTVSPropertyOp25
 70
     1
102
RTVSPropertyOp26
 70
     1
102
RTVSPropertyOp27
 70
     1
102
RTVSPropertyOp28
 70
     1
102
RTVSPropertyOp29
 70
     1
102
RTVSPropertyOp30
 70
     1
102
RTVSPropertyOp31
 70
     1
102
RTVSPropertyOp32
 70
     1
102
RTVSPropertyOp33
 70
     1
102
RTVSPropertyOp34
 70
     1
102
RTVSPropertyOp35
 70
     1
102
RTVSPropertyOp36
 70
     1
102
RTVSPropertyOp37
 70
     1
102
RTVSPropertyOp38
 70
     1
102
RTVSPropertyOp39
 70
     1
102
RTVSPropertyOp40
 70
     1
102
RTVSPropertyOp41
 70
     1
102
RTVSPropertyOp42
 70
     1
102
RTVSPropertyOp43
 70
     1
102
RTVSPropertyOp44
 70
     1
102
RTVSPropertyOp45
 70
     1
102
RTVSPropertyOp46
 70
     1
102
RTVSPropertyOp47
 70
     1
102
RTVSPropertyOp48
 70
     1
102
RTVSPropertyOp49
 70
     1
102
RTVSPropertyOp50
 70
     1
102
RTVSPropertyOp51
 70
     0
102
RTVSPropertyOp52
 70
     0
102
RTVSPropertyOp53
 70
     1
102
RTVSPropertyOp54
 70
     1
102
RTVSPropertyOp55
 70
     1
102
RTVSPropertyOp56
 70
     1
102
RTVSPropertyOp57
 70
     1
102
RTVSPropertyOp58
 70
     1
102
RTVSPropertyOp59
 70
     1
102
RTVSPropertyOp60
 70
     1
102
RTVSPropertyOp61
 70
     1
102
RTVSPropertyOp62
 70
     1
  0
XRECORD
  5
C27
102
{ACAD_REACTORS
330
C26
102
}
330
C26
100
AcDbXrecord
280
     1
102
RTVSPost2010Prop28
280
     0
102
RTVSPost2010PropOp28
 70
     1
102
RTVSPost2010Prop29
280
     1
102
RTVSPost2010PropOp29
 70
     1
102
RTVSPost2010Prop30
280
     1
102
RTVSPost2010PropOp30
 70
     1
102
RTVSPost2010Prop31
280
     0
102
RTVSPost2010PropOp31
 70
     1
102
RTVSPost2010Prop32
280
     0
102
RTVSPost2010PropOp32
 70
     1
102
RTVSPost2010Prop33
280
     0
102
RTVSPost2010PropOp33
 70
     1
102
RTVSPost2010Prop34
280
     0
102
RTVSPost2010PropOp34
 70
     1
102
RTVSPost2010Prop35
280
     0
102
RTVSPost2010PropOp35
 70
     1
102
RTVSPost2010Prop36
280
     0
102
RTVSPost2010PropOp36
 70
     1
102
RTVSPost2010Prop37
 90
       50
102
RTVSPost2010PropOp37
 70
     1
102
RTVSPost2010Prop38
140
0.0
102
RTVSPost2010PropOp38
 70
     1
102
RTVSPost2010Prop39
140
1.0
102
RTVSPost2010PropOp39
 70
     1
102
RTVSPost2010Prop40
 90
        0
102
RTVSPost2010PropOp40
 70
     1
102
RTVSPost2010Prop41ColorIndex
 90
       18
102
RTVSPost2010Prop41ColorRGB
 90
        0
102
RTVSPost2010PropOp41
 70
     1
102
RTVSPost2010Prop42
 90
       50
102
RTVSPost2010PropOp42
 70
     1
102
RTVSPost2010Prop43
 90
        3
102
RTVSPost2010PropOp43
 70
     1
102
RTVSPost2010Prop44ColorIndex
 90
        5
102
RTVSPost2010Prop44ColorRGB
 90
      255
102
RTVSPost2010PropOp44
 70
     1
102
RTVSPost2010Prop45
280
     0
102
RTVSPost2010PropOp45
 70
     1
102
RTVSPost2010Prop46
 90
       50
102
RTVSPost2010PropOp46
 70
     1
102
RTVSPost2010Prop47
 90
       50
102
RTVSPost2010PropOp47
 70
     1
102
RTVSPost2010Prop48
 90
       50
102
RTVSPost2010PropOp48
 70
     1
102
RTVSPost2010Prop49
280
     0
102
RTVSPost2010PropOp49
 70
     1
102
RTVSPost2010Prop50
 90
       50
102
RTVSPost2010PropOp50
 70
     1
102
RTVSPost2010Prop51ColorIndex
 90
      256
102
RTVSPost2010Prop51ColorRGB
 90
-16777216
102
RTVSPost2010PropOp51
 70
     0
102
RTVSPost2010Prop52
140
1.0
102
RTVSPost2010PropOp52
 70
     0
102
RTVSPost2010Prop53
 90
        2
102
RTVSPost2010PropOp53
 70
     1
102
RTVSPost2010Prop54
  1
strokes_ogs.tif
102
RTVSPost2010PropOp54
 70
     1
102
RTVSPost2010Prop55
280
     0
102
RTVSPost2010PropOp55
 70
     1
102
RTVSPost2010Prop56
140
1.0
102
RTVSPost2010PropOp56
 70
     1
102
RTVSPost2010Prop57
140
1.0
102
RTVSPost2010PropOp57
 70
     1
102
RTVSPropertyOp0
 70
     1
102
RTVSPropertyOp1
 70
     1
102
RTVSPropertyOp2
 70
     1
102
RTVSPropertyOp3
 70
     1
102
RTVSPropertyOp4
 70
     1
102
RTVSPropertyOp5
 70
     1
102
RTVSPropertyOp6
 70
     1
102
RTVSPropertyOp7
 70
     1
102
RTVSPropertyOp8
 70
     1
102
RTVSPropertyOp9
 70
     1
102
RTVSPropertyOp10
 70
     1
102
RTVSPropertyOp11
 70
     1
102
RTVSPropertyOp12
 70
     1
102
RTVSPropertyOp13
 70
     1
102
RTVSPropertyOp14
 70
     1
102
RTVSPropertyOp15
 70
     1
102
RTVSPropertyOp16
 70
     1
102
RTVSPropertyOp17
 70
     1
102
RTVSPropertyOp18
 70
     1
102
RTVSPropertyOp19
 70
     1
102
RTVSPropertyOp20
 70
     1
102
RTVSPropertyOp21
 70
     1
102
RTVSPropertyOp22
 70
     1
102
RTVSPropertyOp23
 70
     1
102
RTVSPropertyOp24
 70
     1
102
RTVSPropertyOp25
 70
     1
102
RTVSPropertyOp26
 70
     1
102
RTVSPropertyOp27
 70
     1
102
RTVSPropertyOp28
 70
     1
102
RTVSPropertyOp29
 70
     1
102
RTVSPropertyOp30
 70
     1
102
RTVSPropertyOp31
 70
     1
102
RTVSPropertyOp32
 70
     1
102
RTVSPropertyOp33
 70
     1
102
RTVSPropertyOp34
 70
     1
102
RTVSPropertyOp35
 70
     1
102
RTVSPropertyOp36
 70
     1
102
RTVSPropertyOp37
 70
     1
102
RTVSPropertyOp38
 70
     1
102
RTVSPropertyOp39
 70
     1
102
RTVSPropertyOp40
 70
     1
102
RTVSPropertyOp41
 70
     1
102
RTVSPropertyOp42
 70
     1
102
RTVSPropertyOp43
 70
     1
102
RTVSPropertyOp44
 70
     1
102
RTVSPropertyOp45
 70
     1
102
RTVSPropertyOp46
 70
     1
102
RTVSPropertyOp47
 70
     1
102
RTVSPropertyOp48
 70
     1
102
RTVSPropertyOp49
 70
     1
102
RTVSPropertyOp50
 70
     1
102
RTVSPropertyOp51
 70
     0
102
RTVSPropertyOp52
 70
     0
102
RTVSPropertyOp53
 70
     1
102
RTVSPropertyOp54
 70
     1
102
RTVSPropertyOp55
 70
     1
102
RTVSPropertyOp56
 70
     1
102
RTVSPropertyOp57
 70
     1
102
RTVSPropertyOp58
 70
     1
102
RTVSPropertyOp59
 70
     1
102
RTVSPropertyOp60
 70
     1
102
RTVSPropertyOp61
 70
     1
102
RTVSPropertyOp62
 70
     1
  0
XRECORD
  5
C39
102
{ACAD_REACTORS
330
C38
102
}
330
C38
100
AcDbXrecord
280
     1
102
RTVSPost2010Prop28
280
     0
102
RTVSPost2010PropOp28
 70
     1
102
RTVSPost2010Prop29
280
     1
102
RTVSPost2010PropOp29
 70
     1
102
RTVSPost2010Prop30
280
     1
102
RTVSPost2010PropOp30
 70
     1
102
RTVSPost2010Prop31
280
     0
102
RTVSPost2010PropOp31
 70
     1
102
RTVSPost2010Prop32
280
     0
102
RTVSPost2010PropOp32
 70
     1
102
RTVSPost2010Prop33
280
     0
102
RTVSPost2010PropOp33
 70
     1
102
RTVSPost2010Prop34
280
     0
102
RTVSPost2010PropOp34
 70
     1
102
RTVSPost2010Prop35
280
     0
102
RTVSPost2010PropOp35
 70
     1
102
RTVSPost2010Prop36
280
     0
102
RTVSPost2010PropOp36
 70
     1
102
RTVSPost2010Prop37
 90
       50
102
RTVSPost2010PropOp37
 70
     1
102
RTVSPost2010Prop38
140
0.0
102
RTVSPost2010PropOp38
 70
     1
102
RTVSPost2010Prop39
140
1.0
102
RTVSPost2010PropOp39
 70
     1
102
RTVSPost2010Prop40
 90
        0
102
RTVSPost2010PropOp40
 70
     1
102
RTVSPost2010Prop41ColorIndex
 90
       18
102
RTVSPost2010Prop41ColorRGB
 90
        0
102
RTVSPost2010PropOp41
 70
     1
102
RTVSPost2010Prop42
 90
       50
102
RTVSPost2010PropOp42
 70
     1
102
RTVSPost2010Prop43
 90
        3
102
RTVSPost2010PropOp43
 70
     1
102
RTVSPost2010Prop44ColorIndex
 90
        5
102
RTVSPost2010Prop44ColorRGB
 90
      255
102
RTVSPost2010PropOp44
 70
     1
102
RTVSPost2010Prop45
280
     0
102
RTVSPost2010PropOp45
 70
     1
102
RTVSPost2010Prop46
 90
       50
102
RTVSPost2010PropOp46
 70
     1
102
RTVSPost2010Prop47
 90
       50
102
RTVSPost2010PropOp47
 70
     1
102
RTVSPost2010Prop48
 90
       50
102
RTVSPost2010PropOp48
 70
     1
102
RTVSPost2010Prop49
280
     0
102
RTVSPost2010PropOp49
 70
     1
102
RTVSPost2010Prop50
 90
       50
102
RTVSPost2010PropOp50
 70
     1
102
RTVSPost2010Prop51ColorIndex
 90
      256
102
RTVSPost2010Prop51ColorRGB
 90
-16777216
102
RTVSPost2010PropOp51
 70
     0
102
RTVSPost2010Prop52
140
1.0
102
RTVSPost2010PropOp52
 70
     0
102
RTVSPost2010Prop53
 90
        2
102
RTVSPost2010PropOp53
 70
     1
102
RTVSPost2010Prop54
  1
strokes_ogs.tif
102
RTVSPost2010PropOp54
 70
     1
102
RTVSPost2010Prop55
280
     0
102
RTVSPost2010PropOp55
 70
     1
102
RTVSPost2010Prop56
140
1.0
102
RTVSPost2010PropOp56
 70
     1
102
RTVSPost2010Prop57
140
1.0
102
RTVSPost2010PropOp57
 70
     1
102
RTVSPropertyOp0
 70
     0
102
RTVSPropertyOp1
 70
     0
102
RTVSPropertyOp2
 70
     0
102
RTVSPropertyOp3
 70
     0
102
RTVSPropertyOp4
 70
     0
102
RTVSPropertyOp5
 70
     0
102
RTVSPropertyOp6
 70
     0
102
RTVSPropertyOp7
 70
     0
102
RTVSPropertyOp8
 70
     0
102
RTVSPropertyOp9
 70
     0
102
RTVSPropertyOp10
 70
     0
102
RTVSPropertyOp11
 70
     0
102
RTVSPropertyOp12
 70
     0
102
RTVSPropertyOp13
 70
     0
102
RTVSPropertyOp14
 70
     2
102
RTVSPropertyOp15
 70
     0
102
RTVSPropertyOp16
 70
     0
102
RTVSPropertyOp17
 70
     0
102
RTVSPropertyOp18
 70
     0
102
RTVSPropertyOp19
 70
     0
102
RTVSPropertyOp20
 70
     0
102
RTVSPropertyOp21
 70
     0
102
RTVSPropertyOp22
 70
     0
102
RTVSPropertyOp23
 70
     0
102
RTVSPropertyOp24
 70
     0
102
RTVSPropertyOp25
 70
     0
102
RTVSPropertyOp26
 70
     0
102
RTVSPropertyOp27
 70
     0
102
RTVSPropertyOp28
 70
     1
102
RTVSPropertyOp29
 70
     1
102
RTVSPropertyOp30
 70
     1
102
RTVSPropertyOp31
 70
     1
102
RTVSPropertyOp32
 70
     1
102
RTVSPropertyOp33
 70
     1
102
RTVSPropertyOp34
 70
     1
102
RTVSPropertyOp35
 70
     1
102
RTVSPropertyOp36
 70
     1
102
RTVSPropertyOp37
 70
     1
102
RTVSPropertyOp38
 70
     1
102
RTVSPropertyOp39
 70
     1
102
RTVSPropertyOp40
 70
     1
102
RTVSPropertyOp41
 70
     1
102
RTVSPropertyOp42
 70
     1
102
RTVSPropertyOp43
 70
     1
102
RTVSPropertyOp44
 70
     1
102
RTVSPropertyOp45
 70
     1
102
RTVSPropertyOp46
 70
     1
102
RTVSPropertyOp47
 70
     1
102
RTVSPropertyOp48
 70
     1
102
RTVSPropertyOp49
 70
     1
102
RTVSPropertyOp50
 70
     1
102
RTVSPropertyOp51
 70
     0
102
RTVSPropertyOp52
 70
     0
102
RTVSPropertyOp53
 70
     1
102
RTVSPropertyOp54
 70
     1
102
RTVSPropertyOp55
 70
     1
102
RTVSPropertyOp56
 70
     1
102
RTVSPropertyOp57
 70
     1
102
RTVSPropertyOp58
 70
     1
102
RTVSPropertyOp59
 70
     1
102
RTVSPropertyOp60
 70
     1
102
RTVSPropertyOp61
 70
     1
102
RTVSPropertyOp62
 70
     1
  0
XRECORD
  5
C2F
102
{ACAD_REACTORS
330
C2E
102
}
330
C2E
100
AcDbXrecord
280
     1
102
RTVSPost2010Prop28
280
     0
102
RTVSPost2010PropOp28
 70
     1
102
RTVSPost2010Prop29
280
     1
102
RTVSPost2010PropOp29
 70
     1
102
RTVSPost2010Prop30
280
     1
102
RTVSPost2010PropOp30
 70
     1
102
RTVSPost2010Prop31
280
     0
102
RTVSPost2010PropOp31
 70
     1
102
RTVSPost2010Prop32
280
     0
102
RTVSPost2010PropOp32
 70
     1
102
RTVSPost2010Prop33
280
     0
102
RTVSPost2010PropOp33
 70
     1
102
RTVSPost2010Prop34
280
     0
102
RTVSPost2010PropOp34
 70
     1
102
RTVSPost2010Prop35
280
     0
102
RTVSPost2010PropOp35
 70
     1
102
RTVSPost2010Prop36
280
     0
102
RTVSPost2010PropOp36
 70
     1
102
RTVSPost2010Prop37
 90
       50
102
RTVSPost2010PropOp37
 70
     1
102
RTVSPost2010Prop38
140
0.0
102
RTVSPost2010PropOp38
 70
     1
102
RTVSPost2010Prop39
140
1.0
102
RTVSPost2010PropOp39
 70
     1
102
RTVSPost2010Prop40
 90
        0
102
RTVSPost2010PropOp40
 70
     1
102
RTVSPost2010Prop41ColorIndex
 90
       18
102
RTVSPost2010Prop41ColorRGB
 90
        0
102
RTVSPost2010PropOp41
 70
     1
102
RTVSPost2010Prop42
 90
       50
102
RTVSPost2010PropOp42
 70
     1
102
RTVSPost2010Prop43
 90
        3
102
RTVSPost2010PropOp43
 70
     1
102
RTVSPost2010Prop44ColorIndex
 90
        5
102
RTVSPost2010Prop44ColorRGB
 90
      255
102
RTVSPost2010PropOp44
 70
     1
102
RTVSPost2010Prop45
280
     0
102
RTVSPost2010PropOp45
 70
     1
102
RTVSPost2010Prop46
 90
       50
102
RTVSPost2010PropOp46
 70
     1
102
RTVSPost2010Prop47
 90
       50
102
RTVSPost2010PropOp47
 70
     1
102
RTVSPost2010Prop48
 90
       50
102
RTVSPost2010PropOp48
 70
     1
102
RTVSPost2010Prop49
280
     0
102
RTVSPost2010PropOp49
 70
     1
102
RTVSPost2010Prop50
 90
       50
102
RTVSPost2010PropOp50
 70
     1
102
RTVSPost2010Prop51ColorIndex
 90
      256
102
RTVSPost2010Prop51ColorRGB
 90
-16777216
102
RTVSPost2010PropOp51
 70
     0
102
RTVSPost2010Prop52
140
1.0
102
RTVSPost2010PropOp52
 70
     0
102
RTVSPost2010Prop53
 90
        2
102
RTVSPost2010PropOp53
 70
     1
102
RTVSPost2010Prop54
  1
strokes_ogs.tif
102
RTVSPost2010PropOp54
 70
     1
102
RTVSPost2010Prop55
280
     0
102
RTVSPost2010PropOp55
 70
     1
102
RTVSPost2010Prop56
140
1.0
102
RTVSPost2010PropOp56
 70
     1
102
RTVSPost2010Prop57
140
1.0
102
RTVSPost2010PropOp57
 70
     1
102
RTVSPropertyOp0
 70
     1
102
RTVSPropertyOp1
 70
     1
102
RTVSPropertyOp2
 70
     1
102
RTVSPropertyOp3
 70
     1
102
RTVSPropertyOp4
 70
     1
102
RTVSPropertyOp5
 70
     1
102
RTVSPropertyOp6
 70
     1
102
RTVSPropertyOp7
 70
     1
102
RTVSPropertyOp8
 70
     1
102
RTVSPropertyOp9
 70
     1
102
RTVSPropertyOp10
 70
     1
102
RTVSPropertyOp11
 70
     1
102
RTVSPropertyOp12
 70
     1
102
RTVSPropertyOp13
 70
     1
102
RTVSPropertyOp14
 70
     1
102
RTVSPropertyOp15
 70
     1
102
RTVSPropertyOp16
 70
     1
102
RTVSPropertyOp17
 70
     1
102
RTVSPropertyOp18
 70
     1
102
RTVSPropertyOp19
 70
     1
102
RTVSPropertyOp20
 70
     1
102
RTVSPropertyOp21
 70
     1
102
RTVSPropertyOp22
 70
     1
102
RTVSPropertyOp23
 70
     1
102
RTVSPropertyOp24
 70
     1
102
RTVSPropertyOp25
 70
     1
102
RTVSPropertyOp26
 70
     1
102
RTVSPropertyOp27
 70
     1
102
RTVSPropertyOp28
 70
     1
102
RTVSPropertyOp29
 70
     1
102
RTVSPropertyOp30
 70
     1
102
RTVSPropertyOp31
 70
     1
102
RTVSPropertyOp32
 70
     1
102
RTVSPropertyOp33
 70
     1
102
RTVSPropertyOp34
 70
     1
102
RTVSPropertyOp35
 70
     1
102
RTVSPropertyOp36
 70
     1
102
RTVSPropertyOp37
 70
     1
102
RTVSPropertyOp38
 70
     1
102
RTVSPropertyOp39
 70
     1
102
RTVSPropertyOp40
 70
     1
102
RTVSPropertyOp41
 70
     1
102
RTVSPropertyOp42
 70
     1
102
RTVSPropertyOp43
 70
     1
102
RTVSPropertyOp44
 70
     1
102
RTVSPropertyOp45
 70
     1
102
RTVSPropertyOp46
 70
     1
102
RTVSPropertyOp47
 70
     1
102
RTVSPropertyOp48
 70
     1
102
RTVSPropertyOp49
 70
     1
102
RTVSPropertyOp50
 70
     1
102
RTVSPropertyOp51
 70
     0
102
RTVSPropertyOp52
 70
     0
102
RTVSPropertyOp53
 70
     1
102
RTVSPropertyOp54
 70
     1
102
RTVSPropertyOp55
 70
     1
102
RTVSPropertyOp56
 70
     1
102
RTVSPropertyOp57
 70
     1
102
RTVSPropertyOp58
 70
     1
102
RTVSPropertyOp59
 70
     1
102
RTVSPropertyOp60
 70
     1
102
RTVSPropertyOp61
 70
     1
102
RTVSPropertyOp62
 70
     1
  0
XRECORD
  5
C13
102
{ACAD_REACTORS
330
C12
102
}
330
C12
100
AcDbXrecord
280
     1
102
RTVSPost2010Prop28
280
     0
102
RTVSPost2010PropOp28
 70
     1
102
RTVSPost2010Prop29
280
     1
102
RTVSPost2010PropOp29
 70
     1
102
RTVSPost2010Prop30
280
     1
102
RTVSPost2010PropOp30
 70
     1
102
RTVSPost2010Prop31
280
     0
102
RTVSPost2010PropOp31
 70
     1
102
RTVSPost2010Prop32
280
     0
102
RTVSPost2010PropOp32
 70
     1
102
RTVSPost2010Prop33
280
     0
102
RTVSPost2010PropOp33
 70
     1
102
RTVSPost2010Prop34
280
     0
102
RTVSPost2010PropOp34
 70
     1
102
RTVSPost2010Prop35
280
     0
102
RTVSPost2010PropOp35
 70
     1
102
RTVSPost2010Prop36
280
     0
102
RTVSPost2010PropOp36
 70
     1
102
RTVSPost2010Prop37
 90
       50
102
RTVSPost2010PropOp37
 70
     1
102
RTVSPost2010Prop38
140
0.0
102
RTVSPost2010PropOp38
 70
     1
102
RTVSPost2010Prop39
140
1.0
102
RTVSPost2010PropOp39
 70
     1
102
RTVSPost2010Prop40
 90
        0
102
RTVSPost2010PropOp40
 70
     1
102
RTVSPost2010Prop41ColorIndex
 90
       18
102
RTVSPost2010Prop41ColorRGB
 90
        0
102
RTVSPost2010PropOp41
 70
     1
102
RTVSPost2010Prop42
 90
       50
102
RTVSPost2010PropOp42
 70
     1
102
RTVSPost2010Prop43
 90
        3
102
RTVSPost2010PropOp43
 70
     1
102
RTVSPost2010Prop44ColorIndex
 90
        5
102
RTVSPost2010Prop44ColorRGB
 90
      255
102
RTVSPost2010PropOp44
 70
     1
102
RTVSPost2010Prop45
280
     0
102
RTVSPost2010PropOp45
 70
     1
102
RTVSPost2010Prop46
 90
       50
102
RTVSPost2010PropOp46
 70
     1
102
RTVSPost2010Prop47
 90
       50
102
RTVSPost2010PropOp47
 70
     1
102
RTVSPost2010Prop48
 90
       50
102
RTVSPost2010PropOp48
 70
     1
102
RTVSPost2010Prop49
280
     0
102
RTVSPost2010PropOp49
 70
     1
102
RTVSPost2010Prop50
 90
       50
102
RTVSPost2010PropOp50
 70
     1
102
RTVSPost2010Prop51ColorIndex
 90
      256
102
RTVSPost2010Prop51ColorRGB
 90
-16777216
102
RTVSPost2010PropOp51
 70
     0
102
RTVSPost2010Prop52
140
1.0
102
RTVSPost2010PropOp52
 70
     0
102
RTVSPost2010Prop53
 90
        2
102
RTVSPost2010PropOp53
 70
     1
102
RTVSPost2010Prop54
  1
strokes_ogs.tif
102
RTVSPost2010PropOp54
 70
     1
102
RTVSPost2010Prop55
280
     0
102
RTVSPost2010PropOp55
 70
     1
102
RTVSPost2010Prop56
140
1.0
102
RTVSPost2010PropOp56
 70
     1
102
RTVSPost2010Prop57
140
1.0
102
RTVSPost2010PropOp57
 70
     1
102
RTVSPropertyOp0
 70
     1
102
RTVSPropertyOp1
 70
     1
102
RTVSPropertyOp2
 70
     1
102
RTVSPropertyOp3
 70
     1
102
RTVSPropertyOp4
 70
     1
102
RTVSPropertyOp5
 70
     1
102
RTVSPropertyOp6
 70
     1
102
RTVSPropertyOp7
 70
     1
102
RTVSPropertyOp8
 70
     1
102
RTVSPropertyOp9
 70
     1
102
RTVSPropertyOp10
 70
     1
102
RTVSPropertyOp11
 70
     1
102
RTVSPropertyOp12
 70
     1
102
RTVSPropertyOp13
 70
     1
102
RTVSPropertyOp14
 70
     1
102
RTVSPropertyOp15
 70
     1
102
RTVSPropertyOp16
 70
     1
102
RTVSPropertyOp17
 70
     1
102
RTVSPropertyOp18
 70
     1
102
RTVSPropertyOp19
 70
     1
102
RTVSPropertyOp20
 70
     1
102
RTVSPropertyOp21
 70
     1
102
RTVSPropertyOp22
 70
     1
102
RTVSPropertyOp23
 70
     1
102
RTVSPropertyOp24
 70
     1
102
RTVSPropertyOp25
 70
     1
102
RTVSPropertyOp26
 70
     1
102
RTVSPropertyOp27
 70
     1
102
RTVSPropertyOp28
 70
     1
102
RTVSPropertyOp29
 70
     1
102
RTVSPropertyOp30
 70
     1
102
RTVSPropertyOp31
 70
     1
102
RTVSPropertyOp32
 70
     1
102
RTVSPropertyOp33
 70
     1
102
RTVSPropertyOp34
 70
     1
102
RTVSPropertyOp35
 70
     1
102
RTVSPropertyOp36
 70
     1
102
RTVSPropertyOp37
 70
     1
102
RTVSPropertyOp38
 70
     1
102
RTVSPropertyOp39
 70
     1
102
RTVSPropertyOp40
 70
     1
102
RTVSPropertyOp41
 70
     1
102
RTVSPropertyOp42
 70
     1
102
RTVSPropertyOp43
 70
     1
102
RTVSPropertyOp44
 70
     1
102
RTVSPropertyOp45
 70
     1
102
RTVSPropertyOp46
 70
     1
102
RTVSPropertyOp47
 70
     1
102
RTVSPropertyOp48
 70
     1
102
RTVSPropertyOp49
 70
     1
102
RTVSPropertyOp50
 70
     1
102
RTVSPropertyOp51
 70
     0
102
RTVSPropertyOp52
 70
     0
102
RTVSPropertyOp53
 70
     1
102
RTVSPropertyOp54
 70
     1
102
RTVSPropertyOp55
 70
     1
102
RTVSPropertyOp56
 70
     1
102
RTVSPropertyOp57
 70
     1
102
RTVSPropertyOp58
 70
     1
102
RTVSPropertyOp59
 70
     1
102
RTVSPropertyOp60
 70
     1
102
RTVSPropertyOp61
 70
     1
102
RTVSPropertyOp62
 70
     1
  0
XRECORD
  5
C15
102
{ACAD_REACTORS
330
C14
102
}
330
C14
100
AcDbXrecord
280
     1
102
RTVSPost2010Prop28
280
     0
102
RTVSPost2010PropOp28
 70
     1
102
RTVSPost2010Prop29
280
     1
102
RTVSPost2010PropOp29
 70
     1
102
RTVSPost2010Prop30
280
     1
102
RTVSPost2010PropOp30
 70
     1
102
RTVSPost2010Prop31
280
     0
102
RTVSPost2010PropOp31
 70
     1
102
RTVSPost2010Prop32
280
     0
102
RTVSPost2010PropOp32
 70
     1
102
RTVSPost2010Prop33
280
     0
102
RTVSPost2010PropOp33
 70
     1
102
RTVSPost2010Prop34
280
     0
102
RTVSPost2010PropOp34
 70
     1
102
RTVSPost2010Prop35
280
     0
102
RTVSPost2010PropOp35
 70
     1
102
RTVSPost2010Prop36
280
     0
102
RTVSPost2010PropOp36
 70
     1
102
RTVSPost2010Prop37
 90
       50
102
RTVSPost2010PropOp37
 70
     1
102
RTVSPost2010Prop38
140
0.0
102
RTVSPost2010PropOp38
 70
     1
102
RTVSPost2010Prop39
140
1.0
102
RTVSPost2010PropOp39
 70
     1
102
RTVSPost2010Prop40
 90
        0
102
RTVSPost2010PropOp40
 70
     1
102
RTVSPost2010Prop41ColorIndex
 90
       18
102
RTVSPost2010Prop41ColorRGB
 90
        0
102
RTVSPost2010PropOp41
 70
     1
102
RTVSPost2010Prop42
 90
       50
102
RTVSPost2010PropOp42
 70
     1
102
RTVSPost2010Prop43
 90
        3
102
RTVSPost2010PropOp43
 70
     1
102
RTVSPost2010Prop44ColorIndex
 90
        5
102
RTVSPost2010Prop44ColorRGB
 90
      255
102
RTVSPost2010PropOp44
 70
     1
102
RTVSPost2010Prop45
280
     0
102
RTVSPost2010PropOp45
 70
     1
102
RTVSPost2010Prop46
 90
       50
102
RTVSPost2010PropOp46
 70
     1
102
RTVSPost2010Prop47
 90
       50
102
RTVSPost2010PropOp47
 70
     1
102
RTVSPost2010Prop48
 90
       50
102
RTVSPost2010PropOp48
 70
     1
102
RTVSPost2010Prop49
280
     0
102
RTVSPost2010PropOp49
 70
     1
102
RTVSPost2010Prop50
 90
       50
102
RTVSPost2010PropOp50
 70
     1
102
RTVSPost2010Prop51ColorIndex
 90
      256
102
RTVSPost2010Prop51ColorRGB
 90
-16777216
102
RTVSPost2010PropOp51
 70
     0
102
RTVSPost2010Prop52
140
1.0
102
RTVSPost2010PropOp52
 70
     0
102
RTVSPost2010Prop53
 90
        2
102
RTVSPost2010PropOp53
 70
     1
102
RTVSPost2010Prop54
  1
strokes_ogs.tif
102
RTVSPost2010PropOp54
 70
     1
102
RTVSPost2010Prop55
280
     0
102
RTVSPost2010PropOp55
 70
     1
102
RTVSPost2010Prop56
140
1.0
102
RTVSPost2010PropOp56
 70
     1
102
RTVSPost2010Prop57
140
1.0
102
RTVSPost2010PropOp57
 70
     1
102
RTVSPropertyOp0
 70
     1
102
RTVSPropertyOp1
 70
     1
102
RTVSPropertyOp2
 70
     1
102
RTVSPropertyOp3
 70
     1
102
RTVSPropertyOp4
 70
     1
102
RTVSPropertyOp5
 70
     1
102
RTVSPropertyOp6
 70
     1
102
RTVSPropertyOp7
 70
     1
102
RTVSPropertyOp8
 70
     1
102
RTVSPropertyOp9
 70
     1
102
RTVSPropertyOp10
 70
     1
102
RTVSPropertyOp11
 70
     1
102
RTVSPropertyOp12
 70
     1
102
RTVSPropertyOp13
 70
     1
102
RTVSPropertyOp14
 70
     1
102
RTVSPropertyOp15
 70
     1
102
RTVSPropertyOp16
 70
     1
102
RTVSPropertyOp17
 70
     1
102
RTVSPropertyOp18
 70
     1
102
RTVSPropertyOp19
 70
     1
102
RTVSPropertyOp20
 70
     1
102
RTVSPropertyOp21
 70
     1
102
RTVSPropertyOp22
 70
     1
102
RTVSPropertyOp23
 70
     1
102
RTVSPropertyOp24
 70
     1
102
RTVSPropertyOp25
 70
     1
102
RTVSPropertyOp26
 70
     1
102
RTVSPropertyOp27
 70
     1
102
RTVSPropertyOp28
 70
     1
102
RTVSPropertyOp29
 70
     1
102
RTVSPropertyOp30
 70
     1
102
RTVSPropertyOp31
 70
     1
102
RTVSPropertyOp32
 70
     1
102
RTVSPropertyOp33
 70
     1
102
RTVSPropertyOp34
 70
     1
102
RTVSPropertyOp35
 70
     1
102
RTVSPropertyOp36
 70
     1
102
RTVSPropertyOp37
 70
     1
102
RTVSPropertyOp38
 70
     1
102
RTVSPropertyOp39
 70
     1
102
RTVSPropertyOp40
 70
     1
102
RTVSPropertyOp41
 70
     1
102
RTVSPropertyOp42
 70
     1
102
RTVSPropertyOp43
 70
     1
102
RTVSPropertyOp44
 70
     1
102
RTVSPropertyOp45
 70
     1
102
RTVSPropertyOp46
 70
     1
102
RTVSPropertyOp47
 70
     1
102
RTVSPropertyOp48
 70
     1
102
RTVSPropertyOp49
 70
     1
102
RTVSPropertyOp50
 70
     1
102
RTVSPropertyOp51
 70
     0
102
RTVSPropertyOp52
 70
     0
102
RTVSPropertyOp53
 70
     1
102
RTVSPropertyOp54
 70
     1
102
RTVSPropertyOp55
 70
     1
102
RTVSPropertyOp56
 70
     1
102
RTVSPropertyOp57
 70
     1
102
RTVSPropertyOp58
 70
     1
102
RTVSPropertyOp59
 70
     1
102
RTVSPropertyOp60
 70
     1
102
RTVSPropertyOp61
 70
     1
102
RTVSPropertyOp62
 70
     1
  0
XRECORD
  5
C17
102
{ACAD_REACTORS
330
C16
102
}
330
C16
100
AcDbXrecord
280
     1
102
RTVSPost2010Prop28
280
     0
102
RTVSPost2010PropOp28
 70
     1
102
RTVSPost2010Prop29
280
     1
102
RTVSPost2010PropOp29
 70
     1
102
RTVSPost2010Prop30
280
     1
102
RTVSPost2010PropOp30
 70
     1
102
RTVSPost2010Prop31
280
     0
102
RTVSPost2010PropOp31
 70
     1
102
RTVSPost2010Prop32
280
     0
102
RTVSPost2010PropOp32
 70
     1
102
RTVSPost2010Prop33
280
     0
102
RTVSPost2010PropOp33
 70
     1
102
RTVSPost2010Prop34
280
     0
102
RTVSPost2010PropOp34
 70
     1
102
RTVSPost2010Prop35
280
     0
102
RTVSPost2010PropOp35
 70
     1
102
RTVSPost2010Prop36
280
     0
102
RTVSPost2010PropOp36
 70
     1
102
RTVSPost2010Prop37
 90
       50
102
RTVSPost2010PropOp37
 70
     1
102
RTVSPost2010Prop38
140
0.0
102
RTVSPost2010PropOp38
 70
     1
102
RTVSPost2010Prop39
140
1.0
102
RTVSPost2010PropOp39
 70
     1
102
RTVSPost2010Prop40
 90
        0
102
RTVSPost2010PropOp40
 70
     1
102
RTVSPost2010Prop41ColorIndex
 90
       18
102
RTVSPost2010Prop41ColorRGB
 90
        0
102
RTVSPost2010PropOp41
 70
     1
102
RTVSPost2010Prop42
 90
       50
102
RTVSPost2010PropOp42
 70
     1
102
RTVSPost2010Prop43
 90
        3
102
RTVSPost2010PropOp43
 70
     1
102
RTVSPost2010Prop44ColorIndex
 90
        5
102
RTVSPost2010Prop44ColorRGB
 90
      255
102
RTVSPost2010PropOp44
 70
     1
102
RTVSPost2010Prop45
280
     0
102
RTVSPost2010PropOp45
 70
     1
102
RTVSPost2010Prop46
 90
       50
102
RTVSPost2010PropOp46
 70
     1
102
RTVSPost2010Prop47
 90
       50
102
RTVSPost2010PropOp47
 70
     1
102
RTVSPost2010Prop48
 90
       50
102
RTVSPost2010PropOp48
 70
     1
102
RTVSPost2010Prop49
280
     0
102
RTVSPost2010PropOp49
 70
     1
102
RTVSPost2010Prop50
 90
       50
102
RTVSPost2010PropOp50
 70
     1
102
RTVSPost2010Prop51ColorIndex
 90
      256
102
RTVSPost2010Prop51ColorRGB
 90
-16777216
102
RTVSPost2010PropOp51
 70
     0
102
RTVSPost2010Prop52
140
1.0
102
RTVSPost2010PropOp52
 70
     0
102
RTVSPost2010Prop53
 90
        2
102
RTVSPost2010PropOp53
 70
     1
102
RTVSPost2010Prop54
  1
strokes_ogs.tif
102
RTVSPost2010PropOp54
 70
     1
102
RTVSPost2010Prop55
280
     0
102
RTVSPost2010PropOp55
 70
     1
102
RTVSPost2010Prop56
140
1.0
102
RTVSPost2010PropOp56
 70
     1
102
RTVSPost2010Prop57
140
1.0
102
RTVSPost2010PropOp57
 70
     1
102
RTVSPropertyOp0
 70
     1
102
RTVSPropertyOp1
 70
     1
102
RTVSPropertyOp2
 70
     1
102
RTVSPropertyOp3
 70
     1
102
RTVSPropertyOp4
 70
     1
102
RTVSPropertyOp5
 70
     1
102
RTVSPropertyOp6
 70
     1
102
RTVSPropertyOp7
 70
     1
102
RTVSPropertyOp8
 70
     1
102
RTVSPropertyOp9
 70
     1
102
RTVSPropertyOp10
 70
     1
102
RTVSPropertyOp11
 70
     1
102
RTVSPropertyOp12
 70
     1
102
RTVSPropertyOp13
 70
     1
102
RTVSPropertyOp14
 70
     1
102
RTVSPropertyOp15
 70
     1
102
RTVSPropertyOp16
 70
     1
102
RTVSPropertyOp17
 70
     1
102
RTVSPropertyOp18
 70
     1
102
RTVSPropertyOp19
 70
     1
102
RTVSPropertyOp20
 70
     1
102
RTVSPropertyOp21
 70
     1
102
RTVSPropertyOp22
 70
     1
102
RTVSPropertyOp23
 70
     1
102
RTVSPropertyOp24
 70
     1
102
RTVSPropertyOp25
 70
     1
102
RTVSPropertyOp26
 70
     1
102
RTVSPropertyOp27
 70
     1
102
RTVSPropertyOp28
 70
     1
102
RTVSPropertyOp29
 70
     1
102
RTVSPropertyOp30
 70
     1
102
RTVSPropertyOp31
 70
     1
102
RTVSPropertyOp32
 70
     1
102
RTVSPropertyOp33
 70
     1
102
RTVSPropertyOp34
 70
     1
102
RTVSPropertyOp35
 70
     1
102
RTVSPropertyOp36
 70
     1
102
RTVSPropertyOp37
 70
     1
102
RTVSPropertyOp38
 70
     1
102
RTVSPropertyOp39
 70
     1
102
RTVSPropertyOp40
 70
     1
102
RTVSPropertyOp41
 70
     1
102
RTVSPropertyOp42
 70
     1
102
RTVSPropertyOp43
 70
     1
102
RTVSPropertyOp44
 70
     1
102
RTVSPropertyOp45
 70
     1
102
RTVSPropertyOp46
 70
     1
102
RTVSPropertyOp47
 70
     1
102
RTVSPropertyOp48
 70
     1
102
RTVSPropertyOp49
 70
     1
102
RTVSPropertyOp50
 70
     1
102
RTVSPropertyOp51
 70
     0
102
RTVSPropertyOp52
 70
     0
102
RTVSPropertyOp53
 70
     1
102
RTVSPropertyOp54
 70
     1
102
RTVSPropertyOp55
 70
     1
102
RTVSPropertyOp56
 70
     1
102
RTVSPropertyOp57
 70
     1
102
RTVSPropertyOp58
 70
     1
102
RTVSPropertyOp59
 70
     1
102
RTVSPropertyOp60
 70
     1
102
RTVSPropertyOp61
 70
     1
102
RTVSPropertyOp62
 70
     1
  0
XRECORD
  5
C19
102
{ACAD_REACTORS
330
C18
102
}
330
C18
100
AcDbXrecord
280
     1
102
RTVSPost2010Prop28
280
     0
102
RTVSPost2010PropOp28
 70
     1
102
RTVSPost2010Prop29
280
     1
102
RTVSPost2010PropOp29
 70
     1
102
RTVSPost2010Prop30
280
     1
102
RTVSPost2010PropOp30
 70
     1
102
RTVSPost2010Prop31
280
     0
102
RTVSPost2010PropOp31
 70
     1
102
RTVSPost2010Prop32
280
     0
102
RTVSPost2010PropOp32
 70
     1
102
RTVSPost2010Prop33
280
     0
102
RTVSPost2010PropOp33
 70
     1
102
RTVSPost2010Prop34
280
     0
102
RTVSPost2010PropOp34
 70
     1
102
RTVSPost2010Prop35
280
     0
102
RTVSPost2010PropOp35
 70
     1
102
RTVSPost2010Prop36
280
     0
102
RTVSPost2010PropOp36
 70
     1
102
RTVSPost2010Prop37
 90
       50
102
RTVSPost2010PropOp37
 70
     1
102
RTVSPost2010Prop38
140
0.0
102
RTVSPost2010PropOp38
 70
     1
102
RTVSPost2010Prop39
140
1.0
102
RTVSPost2010PropOp39
 70
     1
102
RTVSPost2010Prop40
 90
        0
102
RTVSPost2010PropOp40
 70
     1
102
RTVSPost2010Prop41ColorIndex
 90
       18
102
RTVSPost2010Prop41ColorRGB
 90
        0
102
RTVSPost2010PropOp41
 70
     1
102
RTVSPost2010Prop42
 90
       50
102
RTVSPost2010PropOp42
 70
     1
102
RTVSPost2010Prop43
 90
        3
102
RTVSPost2010PropOp43
 70
     1
102
RTVSPost2010Prop44ColorIndex
 90
        5
102
RTVSPost2010Prop44ColorRGB
 90
      255
102
RTVSPost2010PropOp44
 70
     1
102
RTVSPost2010Prop45
280
     0
102
RTVSPost2010PropOp45
 70
     1
102
RTVSPost2010Prop46
 90
       50
102
RTVSPost2010PropOp46
 70
     1
102
RTVSPost2010Prop47
 90
       50
102
RTVSPost2010PropOp47
 70
     1
102
RTVSPost2010Prop48
 90
       50
102
RTVSPost2010PropOp48
 70
     1
102
RTVSPost2010Prop49
280
     0
102
RTVSPost2010PropOp49
 70
     1
102
RTVSPost2010Prop50
 90
       50
102
RTVSPost2010PropOp50
 70
     1
102
RTVSPost2010Prop51ColorIndex
 90
      256
102
RTVSPost2010Prop51ColorRGB
 90
-16777216
102
RTVSPost2010PropOp51
 70
     0
102
RTVSPost2010Prop52
140
1.0
102
RTVSPost2010PropOp52
 70
     0
102
RTVSPost2010Prop53
 90
        2
102
RTVSPost2010PropOp53
 70
     1
102
RTVSPost2010Prop54
  1
strokes_ogs.tif
102
RTVSPost2010PropOp54
 70
     1
102
RTVSPost2010Prop55
280
     0
102
RTVSPost2010PropOp55
 70
     1
102
RTVSPost2010Prop56
140
1.0
102
RTVSPost2010PropOp56
 70
     1
102
RTVSPost2010Prop57
140
1.0
102
RTVSPost2010PropOp57
 70
     1
102
RTVSPropertyOp0
 70
     1
102
RTVSPropertyOp1
 70
     1
102
RTVSPropertyOp2
 70
     1
102
RTVSPropertyOp3
 70
     1
102
RTVSPropertyOp4
 70
     1
102
RTVSPropertyOp5
 70
     1
102
RTVSPropertyOp6
 70
     1
102
RTVSPropertyOp7
 70
     1
102
RTVSPropertyOp8
 70
     1
102
RTVSPropertyOp9
 70
     1
102
RTVSPropertyOp10
 70
     1
102
RTVSPropertyOp11
 70
     1
102
RTVSPropertyOp12
 70
     1
102
RTVSPropertyOp13
 70
     1
102
RTVSPropertyOp14
 70
     1
102
RTVSPropertyOp15
 70
     1
102
RTVSPropertyOp16
 70
     1
102
RTVSPropertyOp17
 70
     1
102
RTVSPropertyOp18
 70
     1
102
RTVSPropertyOp19
 70
     1
102
RTVSPropertyOp20
 70
     1
102
RTVSPropertyOp21
 70
     1
102
RTVSPropertyOp22
 70
     1
102
RTVSPropertyOp23
 70
     1
102
RTVSPropertyOp24
 70
     1
102
RTVSPropertyOp25
 70
     1
102
RTVSPropertyOp26
 70
     1
102
RTVSPropertyOp27
 70
     1
102
RTVSPropertyOp28
 70
     1
102
RTVSPropertyOp29
 70
     1
102
RTVSPropertyOp30
 70
     1
102
RTVSPropertyOp31
 70
     1
102
RTVSPropertyOp32
 70
     1
102
RTVSPropertyOp33
 70
     1
102
RTVSPropertyOp34
 70
     1
102
RTVSPropertyOp35
 70
     1
102
RTVSPropertyOp36
 70
     1
102
RTVSPropertyOp37
 70
     1
102
RTVSPropertyOp38
 70
     1
102
RTVSPropertyOp39
 70
     1
102
RTVSPropertyOp40
 70
     1
102
RTVSPropertyOp41
 70
     1
102
RTVSPropertyOp42
 70
     1
102
RTVSPropertyOp43
 70
     1
102
RTVSPropertyOp44
 70
     1
102
RTVSPropertyOp45
 70
     1
102
RTVSPropertyOp46
 70
     1
102
RTVSPropertyOp47
 70
     1
102
RTVSPropertyOp48
 70
     1
102
RTVSPropertyOp49
 70
     1
102
RTVSPropertyOp50
 70
     1
102
RTVSPropertyOp51
 70
     0
102
RTVSPropertyOp52
 70
     0
102
RTVSPropertyOp53
 70
     1
102
RTVSPropertyOp54
 70
     1
102
RTVSPropertyOp55
 70
     1
102
RTVSPropertyOp56
 70
     1
102
RTVSPropertyOp57
 70
     1
102
RTVSPropertyOp58
 70
     1
102
RTVSPropertyOp59
 70
     1
102
RTVSPropertyOp60
 70
     1
102
RTVSPropertyOp61
 70
     1
102
RTVSPropertyOp62
 70
     1
  0
XRECORD
  5
C21
102
{ACAD_REACTORS
330
C20
102
}
330
C20
100
AcDbXrecord
280
     1
102
RTVSPost2010Prop28
280
     0
102
RTVSPost2010PropOp28
 70
     1
102
RTVSPost2010Prop29
280
     1
102
RTVSPost2010PropOp29
 70
     1
102
RTVSPost2010Prop30
280
     1
102
RTVSPost2010PropOp30
 70
     1
102
RTVSPost2010Prop31
280
     0
102
RTVSPost2010PropOp31
 70
     1
102
RTVSPost2010Prop32
280
     0
102
RTVSPost2010PropOp32
 70
     1
102
RTVSPost2010Prop33
280
     0
102
RTVSPost2010PropOp33
 70
     1
102
RTVSPost2010Prop34
280
     0
102
RTVSPost2010PropOp34
 70
     1
102
RTVSPost2010Prop35
280
     0
102
RTVSPost2010PropOp35
 70
     1
102
RTVSPost2010Prop36
280
     0
102
RTVSPost2010PropOp36
 70
     1
102
RTVSPost2010Prop37
 90
       50
102
RTVSPost2010PropOp37
 70
     1
102
RTVSPost2010Prop38
140
0.0
102
RTVSPost2010PropOp38
 70
     1
102
RTVSPost2010Prop39
140
1.0
102
RTVSPost2010PropOp39
 70
     1
102
RTVSPost2010Prop40
 90
        0
102
RTVSPost2010PropOp40
 70
     1
102
RTVSPost2010Prop41ColorIndex
 90
       18
102
RTVSPost2010Prop41ColorRGB
 90
        0
102
RTVSPost2010PropOp41
 70
     1
102
RTVSPost2010Prop42
 90
       50
102
RTVSPost2010PropOp42
 70
     1
102
RTVSPost2010Prop43
 90
        3
102
RTVSPost2010PropOp43
 70
     1
102
RTVSPost2010Prop44ColorIndex
 90
        5
102
RTVSPost2010Prop44ColorRGB
 90
      255
102
RTVSPost2010PropOp44
 70
     1
102
RTVSPost2010Prop45
280
     0
102
RTVSPost2010PropOp45
 70
     1
102
RTVSPost2010Prop46
 90
       50
102
RTVSPost2010PropOp46
 70
     1
102
RTVSPost2010Prop47
 90
       50
102
RTVSPost2010PropOp47
 70
     1
102
RTVSPost2010Prop48
 90
       50
102
RTVSPost2010PropOp48
 70
     1
102
RTVSPost2010Prop49
280
     0
102
RTVSPost2010PropOp49
 70
     1
102
RTVSPost2010Prop50
 90
       50
102
RTVSPost2010PropOp50
 70
     1
102
RTVSPost2010Prop51ColorIndex
 90
      256
102
RTVSPost2010Prop51ColorRGB
 90
-16777216
102
RTVSPost2010PropOp51
 70
     0
102
RTVSPost2010Prop52
140
1.0
102
RTVSPost2010PropOp52
 70
     0
102
RTVSPost2010Prop53
 90
        2
102
RTVSPost2010PropOp53
 70
     1
102
RTVSPost2010Prop54
  1
strokes_ogs.tif
102
RTVSPost2010PropOp54
 70
     1
102
RTVSPost2010Prop55
280
     0
102
RTVSPost2010PropOp55
 70
     1
102
RTVSPost2010Prop56
140
1.0
102
RTVSPost2010PropOp56
 70
     1
102
RTVSPost2010Prop57
140
1.0
102
RTVSPost2010PropOp57
 70
     1
102
RTVSPropertyOp0
 70
     1
102
RTVSPropertyOp1
 70
     1
102
RTVSPropertyOp2
 70
     1
102
RTVSPropertyOp3
 70
     1
102
RTVSPropertyOp4
 70
     1
102
RTVSPropertyOp5
 70
     1
102
RTVSPropertyOp6
 70
     1
102
RTVSPropertyOp7
 70
     1
102
RTVSPropertyOp8
 70
     1
102
RTVSPropertyOp9
 70
     1
102
RTVSPropertyOp10
 70
     1
102
RTVSPropertyOp11
 70
     1
102
RTVSPropertyOp12
 70
     1
102
RTVSPropertyOp13
 70
     1
102
RTVSPropertyOp14
 70
     1
102
RTVSPropertyOp15
 70
     1
102
RTVSPropertyOp16
 70
     1
102
RTVSPropertyOp17
 70
     1
102
RTVSPropertyOp18
 70
     1
102
RTVSPropertyOp19
 70
     1
102
RTVSPropertyOp20
 70
     1
102
RTVSPropertyOp21
 70
     1
102
RTVSPropertyOp22
 70
     1
102
RTVSPropertyOp23
 70
     1
102
RTVSPropertyOp24
 70
     1
102
RTVSPropertyOp25
 70
     1
102
RTVSPropertyOp26
 70
     1
102
RTVSPropertyOp27
 70
     1
102
RTVSPropertyOp28
 70
     1
102
RTVSPropertyOp29
 70
     1
102
RTVSPropertyOp30
 70
     1
102
RTVSPropertyOp31
 70
     1
102
RTVSPropertyOp32
 70
     1
102
RTVSPropertyOp33
 70
     1
102
RTVSPropertyOp34
 70
     1
102
RTVSPropertyOp35
 70
     1
102
RTVSPropertyOp36
 70
     1
102
RTVSPropertyOp37
 70
     1
102
RTVSPropertyOp38
 70
     1
102
RTVSPropertyOp39
 70
     1
102
RTVSPropertyOp40
 70
     1
102
RTVSPropertyOp41
 70
     1
102
RTVSPropertyOp42
 70
     1
102
RTVSPropertyOp43
 70
     1
102
RTVSPropertyOp44
 70
     1
102
RTVSPropertyOp45
 70
     1
102
RTVSPropertyOp46
 70
     1
102
RTVSPropertyOp47
 70
     1
102
RTVSPropertyOp48
 70
     1
102
RTVSPropertyOp49
 70
     1
102
RTVSPropertyOp50
 70
     1
102
RTVSPropertyOp51
 70
     0
102
RTVSPropertyOp52
 70
     0
102
RTVSPropertyOp53
 70
     1
102
RTVSPropertyOp54
 70
     1
102
RTVSPropertyOp55
 70
     1
102
RTVSPropertyOp56
 70
     1
102
RTVSPropertyOp57
 70
     1
102
RTVSPropertyOp58
 70
     1
102
RTVSPropertyOp59
 70
     1
102
RTVSPropertyOp60
 70
     1
102
RTVSPropertyOp61
 70
     1
102
RTVSPropertyOp62
 70
     1
  0
XRECORD
  5
C35
102
{ACAD_REACTORS
330
C34
102
}
330
C34
100
AcDbXrecord
280
     1
102
RTVSPost2010Prop28
280
     0
102
RTVSPost2010PropOp28
 70
     1
102
RTVSPost2010Prop29
280
     1
102
RTVSPost2010PropOp29
 70
     1
102
RTVSPost2010Prop30
280
     1
102
RTVSPost2010PropOp30
 70
     1
102
RTVSPost2010Prop31
280
     0
102
RTVSPost2010PropOp31
 70
     1
102
RTVSPost2010Prop32
280
     0
102
RTVSPost2010PropOp32
 70
     1
102
RTVSPost2010Prop33
280
     0
102
RTVSPost2010PropOp33
 70
     1
102
RTVSPost2010Prop34
280
     0
102
RTVSPost2010PropOp34
 70
     1
102
RTVSPost2010Prop35
280
     0
102
RTVSPost2010PropOp35
 70
     1
102
RTVSPost2010Prop36
280
     0
102
RTVSPost2010PropOp36
 70
     1
102
RTVSPost2010Prop37
 90
       50
102
RTVSPost2010PropOp37
 70
     1
102
RTVSPost2010Prop38
140
0.0
102
RTVSPost2010PropOp38
 70
     1
102
RTVSPost2010Prop39
140
1.0
102
RTVSPost2010PropOp39
 70
     1
102
RTVSPost2010Prop40
 90
        0
102
RTVSPost2010PropOp40
 70
     1
102
RTVSPost2010Prop41ColorIndex
 90
       18
102
RTVSPost2010Prop41ColorRGB
 90
        0
102
RTVSPost2010PropOp41
 70
     1
102
RTVSPost2010Prop42
 90
       50
102
RTVSPost2010PropOp42
 70
     1
102
RTVSPost2010Prop43
 90
        3
102
RTVSPost2010PropOp43
 70
     1
102
RTVSPost2010Prop44ColorIndex
 90
        5
102
RTVSPost2010Prop44ColorRGB
 90
      255
102
RTVSPost2010PropOp44
 70
     1
102
RTVSPost2010Prop45
280
     0
102
RTVSPost2010PropOp45
 70
     1
102
RTVSPost2010Prop46
 90
       50
102
RTVSPost2010PropOp46
 70
     1
102
RTVSPost2010Prop47
 90
       50
102
RTVSPost2010PropOp47
 70
     1
102
RTVSPost2010Prop48
 90
       50
102
RTVSPost2010PropOp48
 70
     1
102
RTVSPost2010Prop49
280
     0
102
RTVSPost2010PropOp49
 70
     1
102
RTVSPost2010Prop50
 90
       50
102
RTVSPost2010PropOp50
 70
     1
102
RTVSPost2010Prop51ColorIndex
 90
      256
102
RTVSPost2010Prop51ColorRGB
 90
-16777216
102
RTVSPost2010PropOp51
 70
     0
102
RTVSPost2010Prop52
140
1.0
102
RTVSPost2010PropOp52
 70
     0
102
RTVSPost2010Prop53
 90
        2
102
RTVSPost2010PropOp53
 70
     1
102
RTVSPost2010Prop54
  1
strokes_ogs.tif
102
RTVSPost2010PropOp54
 70
     1
102
RTVSPost2010Prop55
280
     0
102
RTVSPost2010PropOp55
 70
     1
102
RTVSPost2010Prop56
140
1.0
102
RTVSPost2010PropOp56
 70
     1
102
RTVSPost2010Prop57
140
1.0
102
RTVSPost2010PropOp57
 70
     1
102
RTVSPropertyOp0
 70
     0
102
RTVSPropertyOp1
 70
     0
102
RTVSPropertyOp2
 70
     0
102
RTVSPropertyOp3
 70
     0
102
RTVSPropertyOp4
 70
     0
102
RTVSPropertyOp5
 70
     0
102
RTVSPropertyOp6
 70
     0
102
RTVSPropertyOp7
 70
     0
102
RTVSPropertyOp8
 70
     0
102
RTVSPropertyOp9
 70
     0
102
RTVSPropertyOp10
 70
     0
102
RTVSPropertyOp11
 70
     0
102
RTVSPropertyOp12
 70
     0
102
RTVSPropertyOp13
 70
     0
102
RTVSPropertyOp14
 70
     2
102
RTVSPropertyOp15
 70
     0
102
RTVSPropertyOp16
 70
     0
102
RTVSPropertyOp17
 70
     0
102
RTVSPropertyOp18
 70
     0
102
RTVSPropertyOp19
 70
     0
102
RTVSPropertyOp20
 70
     0
102
RTVSPropertyOp21
 70
     0
102
RTVSPropertyOp22
 70
     0
102
RTVSPropertyOp23
 70
     0
102
RTVSPropertyOp24
 70
     0
102
RTVSPropertyOp25
 70
     0
102
RTVSPropertyOp26
 70
     0
102
RTVSPropertyOp27
 70
     0
102
RTVSPropertyOp28
 70
     1
102
RTVSPropertyOp29
 70
     1
102
RTVSPropertyOp30
 70
     1
102
RTVSPropertyOp31
 70
     1
102
RTVSPropertyOp32
 70
     1
102
RTVSPropertyOp33
 70
     1
102
RTVSPropertyOp34
 70
     1
102
RTVSPropertyOp35
 70
     1
102
RTVSPropertyOp36
 70
     1
102
RTVSPropertyOp37
 70
     1
102
RTVSPropertyOp38
 70
     1
102
RTVSPropertyOp39
 70
     1
102
RTVSPropertyOp40
 70
     1
102
RTVSPropertyOp41
 70
     1
102
RTVSPropertyOp42
 70
     1
102
RTVSPropertyOp43
 70
     1
102
RTVSPropertyOp44
 70
     1
102
RTVSPropertyOp45
 70
     1
102
RTVSPropertyOp46
 70
     1
102
RTVSPropertyOp47
 70
     1
102
RTVSPropertyOp48
 70
     1
102
RTVSPropertyOp49
 70
     1
102
RTVSPropertyOp50
 70
     1
102
RTVSPropertyOp51
 70
     0
102
RTVSPropertyOp52
 70
     0
102
RTVSPropertyOp53
 70
     1
102
RTVSPropertyOp54
 70
     1
102
RTVSPropertyOp55
 70
     1
102
RTVSPropertyOp56
 70
     1
102
RTVSPropertyOp57
 70
     1
102
RTVSPropertyOp58
 70
     1
102
RTVSPropertyOp59
 70
     1
102
RTVSPropertyOp60
 70
     1
102
RTVSPropertyOp61
 70
     1
102
RTVSPropertyOp62
 70
     1
  0
XRECORD
  5
C2D
102
{ACAD_REACTORS
330
C2C
102
}
330
C2C
100
AcDbXrecord
280
     1
102
RTVSPost2010Prop28
280
     0
102
RTVSPost2010PropOp28
 70
     1
102
RTVSPost2010Prop29
280
     1
102
RTVSPost2010PropOp29
 70
     1
102
RTVSPost2010Prop30
280
     1
102
RTVSPost2010PropOp30
 70
     1
102
RTVSPost2010Prop31
280
     0
102
RTVSPost2010PropOp31
 70
     1
102
RTVSPost2010Prop32
280
     0
102
RTVSPost2010PropOp32
 70
     1
102
RTVSPost2010Prop33
280
     0
102
RTVSPost2010PropOp33
 70
     1
102
RTVSPost2010Prop34
280
     0
102
RTVSPost2010PropOp34
 70
     1
102
RTVSPost2010Prop35
280
     0
102
RTVSPost2010PropOp35
 70
     1
102
RTVSPost2010Prop36
280
     0
102
RTVSPost2010PropOp36
 70
     1
102
RTVSPost2010Prop37
 90
       50
102
RTVSPost2010PropOp37
 70
     1
102
RTVSPost2010Prop38
140
0.0
102
RTVSPost2010PropOp38
 70
     1
102
RTVSPost2010Prop39
140
1.0
102
RTVSPost2010PropOp39
 70
     1
102
RTVSPost2010Prop40
 90
        0
102
RTVSPost2010PropOp40
 70
     1
102
RTVSPost2010Prop41ColorIndex
 90
       18
102
RTVSPost2010Prop41ColorRGB
 90
        0
102
RTVSPost2010PropOp41
 70
     1
102
RTVSPost2010Prop42
 90
       50
102
RTVSPost2010PropOp42
 70
     1
102
RTVSPost2010Prop43
 90
        3
102
RTVSPost2010PropOp43
 70
     1
102
RTVSPost2010Prop44ColorIndex
 90
        5
102
RTVSPost2010Prop44ColorRGB
 90
      255
102
RTVSPost2010PropOp44
 70
     1
102
RTVSPost2010Prop45
280
     0
102
RTVSPost2010PropOp45
 70
     1
102
RTVSPost2010Prop46
 90
       50
102
RTVSPost2010PropOp46
 70
     1
102
RTVSPost2010Prop47
 90
       50
102
RTVSPost2010PropOp47
 70
     1
102
RTVSPost2010Prop48
 90
       50
102
RTVSPost2010PropOp48
 70
     1
102
RTVSPost2010Prop49
280
     0
102
RTVSPost2010PropOp49
 70
     1
102
RTVSPost2010Prop50
 90
       50
102
RTVSPost2010PropOp50
 70
     1
102
RTVSPost2010Prop51ColorIndex
 90
      256
102
RTVSPost2010Prop51ColorRGB
 90
-16777216
102
RTVSPost2010PropOp51
 70
     0
102
RTVSPost2010Prop52
140
1.0
102
RTVSPost2010PropOp52
 70
     0
102
RTVSPost2010Prop53
 90
        2
102
RTVSPost2010PropOp53
 70
     1
102
RTVSPost2010Prop54
  1
strokes_ogs.tif
102
RTVSPost2010PropOp54
 70
     1
102
RTVSPost2010Prop55
280
     0
102
RTVSPost2010PropOp55
 70
     1
102
RTVSPost2010Prop56
140
1.0
102
RTVSPost2010PropOp56
 70
     1
102
RTVSPost2010Prop57
140
1.0
102
RTVSPost2010PropOp57
 70
     1
102
RTVSPropertyOp0
 70
     1
102
RTVSPropertyOp1
 70
     1
102
RTVSPropertyOp2
 70
     1
102
RTVSPropertyOp3
 70
     1
102
RTVSPropertyOp4
 70
     1
102
RTVSPropertyOp5
 70
     1
102
RTVSPropertyOp6
 70
     1
102
RTVSPropertyOp7
 70
     1
102
RTVSPropertyOp8
 70
     1
102
RTVSPropertyOp9
 70
     1
102
RTVSPropertyOp10
 70
     1
102
RTVSPropertyOp11
 70
     1
102
RTVSPropertyOp12
 70
     1
102
RTVSPropertyOp13
 70
     1
102
RTVSPropertyOp14
 70
     1
102
RTVSPropertyOp15
 70
     1
102
RTVSPropertyOp16
 70
     1
102
RTVSPropertyOp17
 70
     1
102
RTVSPropertyOp18
 70
     1
102
RTVSPropertyOp19
 70
     1
102
RTVSPropertyOp20
 70
     1
102
RTVSPropertyOp21
 70
     1
102
RTVSPropertyOp22
 70
     1
102
RTVSPropertyOp23
 70
     1
102
RTVSPropertyOp24
 70
     1
102
RTVSPropertyOp25
 70
     1
102
RTVSPropertyOp26
 70
     1
102
RTVSPropertyOp27
 70
     1
102
RTVSPropertyOp28
 70
     1
102
RTVSPropertyOp29
 70
     1
102
RTVSPropertyOp30
 70
     1
102
RTVSPropertyOp31
 70
     1
102
RTVSPropertyOp32
 70
     1
102
RTVSPropertyOp33
 70
     1
102
RTVSPropertyOp34
 70
     1
102
RTVSPropertyOp35
 70
     1
102
RTVSPropertyOp36
 70
     1
102
RTVSPropertyOp37
 70
     1
102
RTVSPropertyOp38
 70
     1
102
RTVSPropertyOp39
 70
     1
102
RTVSPropertyOp40
 70
     1
102
RTVSPropertyOp41
 70
     1
102
RTVSPropertyOp42
 70
     1
102
RTVSPropertyOp43
 70
     1
102
RTVSPropertyOp44
 70
     1
102
RTVSPropertyOp45
 70
     1
102
RTVSPropertyOp46
 70
     1
102
RTVSPropertyOp47
 70
     1
102
RTVSPropertyOp48
 70
     1
102
RTVSPropertyOp49
 70
     1
102
RTVSPropertyOp50
 70
     1
102
RTVSPropertyOp51
 70
     0
102
RTVSPropertyOp52
 70
     0
102
RTVSPropertyOp53
 70
     1
102
RTVSPropertyOp54
 70
     1
102
RTVSPropertyOp55
 70
     1
102
RTVSPropertyOp56
 70
     1
102
RTVSPropertyOp57
 70
     1
102
RTVSPropertyOp58
 70
     1
102
RTVSPropertyOp59
 70
     1
102
RTVSPropertyOp60
 70
     1
102
RTVSPropertyOp61
 70
     1
102
RTVSPropertyOp62
 70
     1
  0
XRECORD
  5
C37
102
{ACAD_REACTORS
330
C36
102
}
330
C36
100
AcDbXrecord
280
     1
102
RTVSPost2010Prop28
280
     0
102
RTVSPost2010PropOp28
 70
     1
102
RTVSPost2010Prop29
280
     1
102
RTVSPost2010PropOp29
 70
     1
102
RTVSPost2010Prop30
280
     1
102
RTVSPost2010PropOp30
 70
     1
102
RTVSPost2010Prop31
280
     0
102
RTVSPost2010PropOp31
 70
     1
102
RTVSPost2010Prop32
280
     0
102
RTVSPost2010PropOp32
 70
     1
102
RTVSPost2010Prop33
280
     0
102
RTVSPost2010PropOp33
 70
     1
102
RTVSPost2010Prop34
280
     0
102
RTVSPost2010PropOp34
 70
     1
102
RTVSPost2010Prop35
280
     0
102
RTVSPost2010PropOp35
 70
     1
102
RTVSPost2010Prop36
280
     0
102
RTVSPost2010PropOp36
 70
     1
102
RTVSPost2010Prop37
 90
       50
102
RTVSPost2010PropOp37
 70
     1
102
RTVSPost2010Prop38
140
0.0
102
RTVSPost2010PropOp38
 70
     1
102
RTVSPost2010Prop39
140
1.0
102
RTVSPost2010PropOp39
 70
     1
102
RTVSPost2010Prop40
 90
        0
102
RTVSPost2010PropOp40
 70
     1
102
RTVSPost2010Prop41ColorIndex
 90
       18
102
RTVSPost2010Prop41ColorRGB
 90
        0
102
RTVSPost2010PropOp41
 70
     1
102
RTVSPost2010Prop42
 90
       50
102
RTVSPost2010PropOp42
 70
     1
102
RTVSPost2010Prop43
 90
        3
102
RTVSPost2010PropOp43
 70
     1
102
RTVSPost2010Prop44ColorIndex
 90
        5
102
RTVSPost2010Prop44ColorRGB
 90
      255
102
RTVSPost2010PropOp44
 70
     1
102
RTVSPost2010Prop45
280
     0
102
RTVSPost2010PropOp45
 70
     1
102
RTVSPost2010Prop46
 90
       50
102
RTVSPost2010PropOp46
 70
     1
102
RTVSPost2010Prop47
 90
       50
102
RTVSPost2010PropOp47
 70
     1
102
RTVSPost2010Prop48
 90
       50
102
RTVSPost2010PropOp48
 70
     1
102
RTVSPost2010Prop49
280
     0
102
RTVSPost2010PropOp49
 70
     1
102
RTVSPost2010Prop50
 90
       50
102
RTVSPost2010PropOp50
 70
     1
102
RTVSPost2010Prop51ColorIndex
 90
      256
102
RTVSPost2010Prop51ColorRGB
 90
-16777216
102
RTVSPost2010PropOp51
 70
     0
102
RTVSPost2010Prop52
140
1.0
102
RTVSPost2010PropOp52
 70
     0
102
RTVSPost2010Prop53
 90
        2
102
RTVSPost2010PropOp53
 70
     1
102
RTVSPost2010Prop54
  1
strokes_ogs.tif
102
RTVSPost2010PropOp54
 70
     1
102
RTVSPost2010Prop55
280
     0
102
RTVSPost2010PropOp55
 70
     1
102
RTVSPost2010Prop56
140
1.0
102
RTVSPost2010PropOp56
 70
     1
102
RTVSPost2010Prop57
140
1.0
102
RTVSPost2010PropOp57
 70
     1
102
RTVSPropertyOp0
 70
     0
102
RTVSPropertyOp1
 70
     0
102
RTVSPropertyOp2
 70
     0
102
RTVSPropertyOp3
 70
     0
102
RTVSPropertyOp4
 70
     0
102
RTVSPropertyOp5
 70
     0
102
RTVSPropertyOp6
 70
     0
102
RTVSPropertyOp7
 70
     0
102
RTVSPropertyOp8
 70
     0
102
RTVSPropertyOp9
 70
     0
102
RTVSPropertyOp10
 70
     0
102
RTVSPropertyOp11
 70
     0
102
RTVSPropertyOp12
 70
     0
102
RTVSPropertyOp13
 70
     0
102
RTVSPropertyOp14
 70
     2
102
RTVSPropertyOp15
 70
     0
102
RTVSPropertyOp16
 70
     0
102
RTVSPropertyOp17
 70
     0
102
RTVSPropertyOp18
 70
     0
102
RTVSPropertyOp19
 70
     0
102
RTVSPropertyOp20
 70
     0
102
RTVSPropertyOp21
 70
     0
102
RTVSPropertyOp22
 70
     0
102
RTVSPropertyOp23
 70
     0
102
RTVSPropertyOp24
 70
     0
102
RTVSPropertyOp25
 70
     0
102
RTVSPropertyOp26
 70
     0
102
RTVSPropertyOp27
 70
     0
102
RTVSPropertyOp28
 70
     1
102
RTVSPropertyOp29
 70
     1
102
RTVSPropertyOp30
 70
     1
102
RTVSPropertyOp31
 70
     1
102
RTVSPropertyOp32
 70
     1
102
RTVSPropertyOp33
 70
     1
102
RTVSPropertyOp34
 70
     1
102
RTVSPropertyOp35
 70
     1
102
RTVSPropertyOp36
 70
     1
102
RTVSPropertyOp37
 70
     1
102
RTVSPropertyOp38
 70
     1
102
RTVSPropertyOp39
 70
     1
102
RTVSPropertyOp40
 70
     1
102
RTVSPropertyOp41
 70
     1
102
RTVSPropertyOp42
 70
     1
102
RTVSPropertyOp43
 70
     1
102
RTVSPropertyOp44
 70
     1
102
RTVSPropertyOp45
 70
     1
102
RTVSPropertyOp46
 70
     1
102
RTVSPropertyOp47
 70
     1
102
RTVSPropertyOp48
 70
     1
102
RTVSPropertyOp49
 70
     1
102
RTVSPropertyOp50
 70
     1
102
RTVSPropertyOp51
 70
     0
102
RTVSPropertyOp52
 70
     0
102
RTVSPropertyOp53
 70
     1
102
RTVSPropertyOp54
 70
     1
102
RTVSPropertyOp55
 70
     1
102
RTVSPropertyOp56
 70
     1
102
RTVSPropertyOp57
 70
     1
102
RTVSPropertyOp58
 70
     1
102
RTVSPropertyOp59
 70
     1
102
RTVSPropertyOp60
 70
     1
102
RTVSPropertyOp61
 70
     1
102
RTVSPropertyOp62
 70
     1
  0
XRECORD
  5
C25
102
{ACAD_REACTORS
330
C24
102
}
330
C24
100
AcDbXrecord
280
     1
102
RTVSPost2010Prop28
280
     0
102
RTVSPost2010PropOp28
 70
     1
102
RTVSPost2010Prop29
280
     1
102
RTVSPost2010PropOp29
 70
     1
102
RTVSPost2010Prop30
280
     1
102
RTVSPost2010PropOp30
 70
     1
102
RTVSPost2010Prop31
280
     0
102
RTVSPost2010PropOp31
 70
     1
102
RTVSPost2010Prop32
280
     0
102
RTVSPost2010PropOp32
 70
     1
102
RTVSPost2010Prop33
280
     0
102
RTVSPost2010PropOp33
 70
     1
102
RTVSPost2010Prop34
280
     0
102
RTVSPost2010PropOp34
 70
     1
102
RTVSPost2010Prop35
280
     0
102
RTVSPost2010PropOp35
 70
     1
102
RTVSPost2010Prop36
280
     0
102
RTVSPost2010PropOp36
 70
     1
102
RTVSPost2010Prop37
 90
       50
102
RTVSPost2010PropOp37
 70
     1
102
RTVSPost2010Prop38
140
0.0
102
RTVSPost2010PropOp38
 70
     1
102
RTVSPost2010Prop39
140
1.0
102
RTVSPost2010PropOp39
 70
     1
102
RTVSPost2010Prop40
 90
        0
102
RTVSPost2010PropOp40
 70
     1
102
RTVSPost2010Prop41ColorIndex
 90
       18
102
RTVSPost2010Prop41ColorRGB
 90
        0
102
RTVSPost2010PropOp41
 70
     1
102
RTVSPost2010Prop42
 90
       50
102
RTVSPost2010PropOp42
 70
     1
102
RTVSPost2010Prop43
 90
        3
102
RTVSPost2010PropOp43
 70
     1
102
RTVSPost2010Prop44ColorIndex
 90
        5
102
RTVSPost2010Prop44ColorRGB
 90
      255
102
RTVSPost2010PropOp44
 70
     1
102
RTVSPost2010Prop45
280
     0
102
RTVSPost2010PropOp45
 70
     1
102
RTVSPost2010Prop46
 90
       50
102
RTVSPost2010PropOp46
 70
     1
102
RTVSPost2010Prop47
 90
       50
102
RTVSPost2010PropOp47
 70
     1
102
RTVSPost2010Prop48
 90
       50
102
RTVSPost2010PropOp48
 70
     1
102
RTVSPost2010Prop49
280
     0
102
RTVSPost2010PropOp49
 70
     1
102
RTVSPost2010Prop50
 90
       50
102
RTVSPost2010PropOp50
 70
     1
102
RTVSPost2010Prop51ColorIndex
 90
      256
102
RTVSPost2010Prop51ColorRGB
 90
-16777216
102
RTVSPost2010PropOp51
 70
     0
102
RTVSPost2010Prop52
140
1.0
102
RTVSPost2010PropOp52
 70
     0
102
RTVSPost2010Prop53
 90
        2
102
RTVSPost2010PropOp53
 70
     1
102
RTVSPost2010Prop54
  1
strokes_ogs.tif
102
RTVSPost2010PropOp54
 70
     1
102
RTVSPost2010Prop55
280
     0
102
RTVSPost2010PropOp55
 70
     1
102
RTVSPost2010Prop56
140
1.0
102
RTVSPost2010PropOp56
 70
     1
102
RTVSPost2010Prop57
140
1.0
102
RTVSPost2010PropOp57
 70
     1
102
RTVSPropertyOp0
 70
     1
102
RTVSPropertyOp1
 70
     1
102
RTVSPropertyOp2
 70
     1
102
RTVSPropertyOp3
 70
     1
102
RTVSPropertyOp4
 70
     1
102
RTVSPropertyOp5
 70
     1
102
RTVSPropertyOp6
 70
     1
102
RTVSPropertyOp7
 70
     1
102
RTVSPropertyOp8
 70
     1
102
RTVSPropertyOp9
 70
     1
102
RTVSPropertyOp10
 70
     1
102
RTVSPropertyOp11
 70
     1
102
RTVSPropertyOp12
 70
     1
102
RTVSPropertyOp13
 70
     1
102
RTVSPropertyOp14
 70
     1
102
RTVSPropertyOp15
 70
     1
102
RTVSPropertyOp16
 70
     1
102
RTVSPropertyOp17
 70
     1
102
RTVSPropertyOp18
 70
     1
102
RTVSPropertyOp19
 70
     1
102
RTVSPropertyOp20
 70
     1
102
RTVSPropertyOp21
 70
     1
102
RTVSPropertyOp22
 70
     1
102
RTVSPropertyOp23
 70
     1
102
RTVSPropertyOp24
 70
     1
102
RTVSPropertyOp25
 70
     1
102
RTVSPropertyOp26
 70
     1
102
RTVSPropertyOp27
 70
     1
102
RTVSPropertyOp28
 70
     1
102
RTVSPropertyOp29
 70
     1
102
RTVSPropertyOp30
 70
     1
102
RTVSPropertyOp31
 70
     1
102
RTVSPropertyOp32
 70
     1
102
RTVSPropertyOp33
 70
     1
102
RTVSPropertyOp34
 70
     1
102
RTVSPropertyOp35
 70
     1
102
RTVSPropertyOp36
 70
     1
102
RTVSPropertyOp37
 70
     1
102
RTVSPropertyOp38
 70
     1
102
RTVSPropertyOp39
 70
     1
102
RTVSPropertyOp40
 70
     1
102
RTVSPropertyOp41
 70
     1
102
RTVSPropertyOp42
 70
     1
102
RTVSPropertyOp43
 70
     1
102
RTVSPropertyOp44
 70
     1
102
RTVSPropertyOp45
 70
     1
102
RTVSPropertyOp46
 70
     1
102
RTVSPropertyOp47
 70
     1
102
RTVSPropertyOp48
 70
     1
102
RTVSPropertyOp49
 70
     1
102
RTVSPropertyOp50
 70
     1
102
RTVSPropertyOp51
 70
     0
102
RTVSPropertyOp52
 70
     0
102
RTVSPropertyOp53
 70
     1
102
RTVSPropertyOp54
 70
     1
102
RTVSPropertyOp55
 70
     1
102
RTVSPropertyOp56
 70
     1
102
RTVSPropertyOp57
 70
     1
102
RTVSPropertyOp58
 70
     1
102
RTVSPropertyOp59
 70
     1
102
RTVSPropertyOp60
 70
     1
102
RTVSPropertyOp61
 70
     1
102
RTVSPropertyOp62
 70
     1
  0
XRECORD
  5
C43
102
{ACAD_REACTORS
330
C42
102
}
330
C42
100
AcDbXrecord
280
     1
102
RTVSPost2010Prop28
280
     0
102
RTVSPost2010PropOp28
 70
     1
102
RTVSPost2010Prop29
280
     1
102
RTVSPost2010PropOp29
 70
     1
102
RTVSPost2010Prop30
280
     1
102
RTVSPost2010PropOp30
 70
     1
102
RTVSPost2010Prop31
280
     0
102
RTVSPost2010PropOp31
 70
     1
102
RTVSPost2010Prop32
280
     0
102
RTVSPost2010PropOp32
 70
     1
102
RTVSPost2010Prop33
280
     0
102
RTVSPost2010PropOp33
 70
     1
102
RTVSPost2010Prop34
280
     0
102
RTVSPost2010PropOp34
 70
     1
102
RTVSPost2010Prop35
280
     0
102
RTVSPost2010PropOp35
 70
     1
102
RTVSPost2010Prop36
280
     0
102
RTVSPost2010PropOp36
 70
     1
102
RTVSPost2010Prop37
 90
       50
102
RTVSPost2010PropOp37
 70
     1
102
RTVSPost2010Prop38
140
0.0
102
RTVSPost2010PropOp38
 70
     1
102
RTVSPost2010Prop39
140
1.0
102
RTVSPost2010PropOp39
 70
     1
102
RTVSPost2010Prop40
 90
        0
102
RTVSPost2010PropOp40
 70
     1
102
RTVSPost2010Prop41ColorIndex
 90
       18
102
RTVSPost2010Prop41ColorRGB
 90
        0
102
RTVSPost2010PropOp41
 70
     1
102
RTVSPost2010Prop42
 90
       50
102
RTVSPost2010PropOp42
 70
     1
102
RTVSPost2010Prop43
 90
        3
102
RTVSPost2010PropOp43
 70
     1
102
RTVSPost2010Prop44ColorIndex
 90
        5
102
RTVSPost2010Prop44ColorRGB
 90
      255
102
RTVSPost2010PropOp44
 70
     1
102
RTVSPost2010Prop45
280
     0
102
RTVSPost2010PropOp45
 70
     1
102
RTVSPost2010Prop46
 90
       50
102
RTVSPost2010PropOp46
 70
     1
102
RTVSPost2010Prop47
 90
       50
102
RTVSPost2010PropOp47
 70
     1
102
RTVSPost2010Prop48
 90
       50
102
RTVSPost2010PropOp48
 70
     1
102
RTVSPost2010Prop49
280
     0
102
RTVSPost2010PropOp49
 70
     1
102
RTVSPost2010Prop50
 90
       50
102
RTVSPost2010PropOp50
 70
     1
102
RTVSPost2010Prop51ColorIndex
 90
      256
102
RTVSPost2010Prop51ColorRGB
 90
-16777216
102
RTVSPost2010PropOp51
 70
     0
102
RTVSPost2010Prop52
140
1.0
102
RTVSPost2010PropOp52
 70
     0
102
RTVSPost2010Prop53
 90
        2
102
RTVSPost2010PropOp53
 70
     1
102
RTVSPost2010Prop54
  1
strokes_ogs.tif
102
RTVSPost2010PropOp54
 70
     1
102
RTVSPost2010Prop55
280
     0
102
RTVSPost2010PropOp55
 70
     1
102
RTVSPost2010Prop56
140
1.0
102
RTVSPost2010PropOp56
 70
     1
102
RTVSPost2010Prop57
140
1.0
102
RTVSPost2010PropOp57
 70
     1
102
RTVSPropertyOp0
 70
     1
102
RTVSPropertyOp1
 70
     1
102
RTVSPropertyOp2
 70
     1
102
RTVSPropertyOp3
 70
     1
102
RTVSPropertyOp4
 70
     1
102
RTVSPropertyOp5
 70
     1
102
RTVSPropertyOp6
 70
     1
102
RTVSPropertyOp7
 70
     1
102
RTVSPropertyOp8
 70
     1
102
RTVSPropertyOp9
 70
     1
102
RTVSPropertyOp10
 70
     1
102
RTVSPropertyOp11
 70
     1
102
RTVSPropertyOp12
 70
     1
102
RTVSPropertyOp13
 70
     1
102
RTVSPropertyOp14
 70
     1
102
RTVSPropertyOp15
 70
     1
102
RTVSPropertyOp16
 70
     1
102
RTVSPropertyOp17
 70
     1
102
RTVSPropertyOp18
 70
     1
102
RTVSPropertyOp19
 70
     1
102
RTVSPropertyOp20
 70
     1
102
RTVSPropertyOp21
 70
     1
102
RTVSPropertyOp22
 70
     1
102
RTVSPropertyOp23
 70
     1
102
RTVSPropertyOp24
 70
     1
102
RTVSPropertyOp25
 70
     1
102
RTVSPropertyOp26
 70
     1
102
RTVSPropertyOp27
 70
     1
102
RTVSPropertyOp28
 70
     1
102
RTVSPropertyOp29
 70
     1
102
RTVSPropertyOp30
 70
     1
102
RTVSPropertyOp31
 70
     1
102
RTVSPropertyOp32
 70
     1
102
RTVSPropertyOp33
 70
     1
102
RTVSPropertyOp34
 70
     1
102
RTVSPropertyOp35
 70
     1
102
RTVSPropertyOp36
 70
     1
102
RTVSPropertyOp37
 70
     1
102
RTVSPropertyOp38
 70
     1
102
RTVSPropertyOp39
 70
     1
102
RTVSPropertyOp40
 70
     1
102
RTVSPropertyOp41
 70
     1
102
RTVSPropertyOp42
 70
     1
102
RTVSPropertyOp43
 70
     1
102
RTVSPropertyOp44
 70
     1
102
RTVSPropertyOp45
 70
     1
102
RTVSPropertyOp46
 70
     1
102
RTVSPropertyOp47
 70
     1
102
RTVSPropertyOp48
 70
     1
102
RTVSPropertyOp49
 70
     1
102
RTVSPropertyOp50
 70
     1
102
RTVSPropertyOp51
 70
     0
102
RTVSPropertyOp52
 70
     0
102
RTVSPropertyOp53
 70
     1
102
RTVSPropertyOp54
 70
     1
102
RTVSPropertyOp55
 70
     1
102
RTVSPropertyOp56
 70
     1
102
RTVSPropertyOp57
 70
     1
102
RTVSPropertyOp58
 70
     1
102
RTVSPropertyOp59
 70
     1
102
RTVSPropertyOp60
 70
     1
102
RTVSPropertyOp61
 70
     1
102
RTVSPropertyOp62
 70
     1
  0
XRECORD
  5
C41
102
{ACAD_REACTORS
330
C40
102
}
330
C40
100
AcDbXrecord
280
     1
102
RTVSPost2010Prop28
280
     0
102
RTVSPost2010PropOp28
 70
     1
102
RTVSPost2010Prop29
280
     1
102
RTVSPost2010PropOp29
 70
     1
102
RTVSPost2010Prop30
280
     1
102
RTVSPost2010PropOp30
 70
     1
102
RTVSPost2010Prop31
280
     0
102
RTVSPost2010PropOp31
 70
     1
102
RTVSPost2010Prop32
280
     0
102
RTVSPost2010PropOp32
 70
     1
102
RTVSPost2010Prop33
280
     0
102
RTVSPost2010PropOp33
 70
     1
102
RTVSPost2010Prop34
280
     0
102
RTVSPost2010PropOp34
 70
     1
102
RTVSPost2010Prop35
280
     0
102
RTVSPost2010PropOp35
 70
     1
102
RTVSPost2010Prop36
280
     0
102
RTVSPost2010PropOp36
 70
     1
102
RTVSPost2010Prop37
 90
       50
102
RTVSPost2010PropOp37
 70
     1
102
RTVSPost2010Prop38
140
0.0
102
RTVSPost2010PropOp38
 70
     1
102
RTVSPost2010Prop39
140
1.0
102
RTVSPost2010PropOp39
 70
     1
102
RTVSPost2010Prop40
 90
        0
102
RTVSPost2010PropOp40
 70
     1
102
RTVSPost2010Prop41ColorIndex
 90
       18
102
RTVSPost2010Prop41ColorRGB
 90
        0
102
RTVSPost2010PropOp41
 70
     1
102
RTVSPost2010Prop42
 90
       50
102
RTVSPost2010PropOp42
 70
     1
102
RTVSPost2010Prop43
 90
        3
102
RTVSPost2010PropOp43
 70
     1
102
RTVSPost2010Prop44ColorIndex
 90
        5
102
RTVSPost2010Prop44ColorRGB
 90
      255
102
RTVSPost2010PropOp44
 70
     1
102
RTVSPost2010Prop45
280
     0
102
RTVSPost2010PropOp45
 70
     1
102
RTVSPost2010Prop46
 90
       50
102
RTVSPost2010PropOp46
 70
     1
102
RTVSPost2010Prop47
 90
       50
102
RTVSPost2010PropOp47
 70
     1
102
RTVSPost2010Prop48
 90
       50
102
RTVSPost2010PropOp48
 70
     1
102
RTVSPost2010Prop49
280
     0
102
RTVSPost2010PropOp49
 70
     1
102
RTVSPost2010Prop50
 90
       50
102
RTVSPost2010PropOp50
 70
     1
102
RTVSPost2010Prop51ColorIndex
 90
      256
102
RTVSPost2010Prop51ColorRGB
 90
-16777216
102
RTVSPost2010PropOp51
 70
     0
102
RTVSPost2010Prop52
140
1.0
102
RTVSPost2010PropOp52
 70
     0
102
RTVSPost2010Prop53
 90
        2
102
RTVSPost2010PropOp53
 70
     1
102
RTVSPost2010Prop54
  1
strokes_ogs.tif
102
RTVSPost2010PropOp54
 70
     1
102
RTVSPost2010Prop55
280
     0
102
RTVSPost2010PropOp55
 70
     1
102
RTVSPost2010Prop56
140
1.0
102
RTVSPost2010PropOp56
 70
     1
102
RTVSPost2010Prop57
140
1.0
102
RTVSPost2010PropOp57
 70
     1
102
RTVSPropertyOp0
 70
     1
102
RTVSPropertyOp1
 70
     1
102
RTVSPropertyOp2
 70
     1
102
RTVSPropertyOp3
 70
     1
102
RTVSPropertyOp4
 70
     1
102
RTVSPropertyOp5
 70
     1
102
RTVSPropertyOp6
 70
     1
102
RTVSPropertyOp7
 70
     1
102
RTVSPropertyOp8
 70
     1
102
RTVSPropertyOp9
 70
     1
102
RTVSPropertyOp10
 70
     1
102
RTVSPropertyOp11
 70
     1
102
RTVSPropertyOp12
 70
     1
102
RTVSPropertyOp13
 70
     1
102
RTVSPropertyOp14
 70
     1
102
RTVSPropertyOp15
 70
     1
102
RTVSPropertyOp16
 70
     1
102
RTVSPropertyOp17
 70
     1
102
RTVSPropertyOp18
 70
     1
102
RTVSPropertyOp19
 70
     1
102
RTVSPropertyOp20
 70
     1
102
RTVSPropertyOp21
 70
     1
102
RTVSPropertyOp22
 70
     1
102
RTVSPropertyOp23
 70
     1
102
RTVSPropertyOp24
 70
     1
102
RTVSPropertyOp25
 70
     1
102
RTVSPropertyOp26
 70
     1
102
RTVSPropertyOp27
 70
     1
102
RTVSPropertyOp28
 70
     1
102
RTVSPropertyOp29
 70
     1
102
RTVSPropertyOp30
 70
     1
102
RTVSPropertyOp31
 70
     1
102
RTVSPropertyOp32
 70
     1
102
RTVSPropertyOp33
 70
     1
102
RTVSPropertyOp34
 70
     1
102
RTVSPropertyOp35
 70
     1
102
RTVSPropertyOp36
 70
     1
102
RTVSPropertyOp37
 70
     1
102
RTVSPropertyOp38
 70
     1
102
RTVSPropertyOp39
 70
     1
102
RTVSPropertyOp40
 70
     1
102
RTVSPropertyOp41
 70
     1
102
RTVSPropertyOp42
 70
     1
102
RTVSPropertyOp43
 70
     1
102
RTVSPropertyOp44
 70
     1
102
RTVSPropertyOp45
 70
     1
102
RTVSPropertyOp46
 70
     1
102
RTVSPropertyOp47
 70
     1
102
RTVSPropertyOp48
 70
     1
102
RTVSPropertyOp49
 70
     1
102
RTVSPropertyOp50
 70
     1
102
RTVSPropertyOp51
 70
     0
102
RTVSPropertyOp52
 70
     0
102
RTVSPropertyOp53
 70
     1
102
RTVSPropertyOp54
 70
     1
102
RTVSPropertyOp55
 70
     1
102
RTVSPropertyOp56
 70
     1
102
RTVSPropertyOp57
 70
     1
102
RTVSPropertyOp58
 70
     1
102
RTVSPropertyOp59
 70
     1
102
RTVSPropertyOp60
 70
     1
102
RTVSPropertyOp61
 70
     1
102
RTVSPropertyOp62
 70
     1
  0
XRECORD
  5
C3B
102
{ACAD_REACTORS
330
C3A
102
}
330
C3A
100
AcDbXrecord
280
     1
102
RTVSPost2010Prop28
280
     0
102
RTVSPost2010PropOp28
 70
     1
102
RTVSPost2010Prop29
280
     1
102
RTVSPost2010PropOp29
 70
     1
102
RTVSPost2010Prop30
280
     1
102
RTVSPost2010PropOp30
 70
     1
102
RTVSPost2010Prop31
280
     0
102
RTVSPost2010PropOp31
 70
     1
102
RTVSPost2010Prop32
280
     0
102
RTVSPost2010PropOp32
 70
     1
102
RTVSPost2010Prop33
280
     0
102
RTVSPost2010PropOp33
 70
     1
102
RTVSPost2010Prop34
280
     0
102
RTVSPost2010PropOp34
 70
     1
102
RTVSPost2010Prop35
280
     0
102
RTVSPost2010PropOp35
 70
     1
102
RTVSPost2010Prop36
280
     0
102
RTVSPost2010PropOp36
 70
     1
102
RTVSPost2010Prop37
 90
       50
102
RTVSPost2010PropOp37
 70
     1
102
RTVSPost2010Prop38
140
0.0
102
RTVSPost2010PropOp38
 70
     1
102
RTVSPost2010Prop39
140
1.0
102
RTVSPost2010PropOp39
 70
     1
102
RTVSPost2010Prop40
 90
        0
102
RTVSPost2010PropOp40
 70
     1
102
RTVSPost2010Prop41ColorIndex
 90
       18
102
RTVSPost2010Prop41ColorRGB
 90
        0
102
RTVSPost2010PropOp41
 70
     1
102
RTVSPost2010Prop42
 90
       50
102
RTVSPost2010PropOp42
 70
     1
102
RTVSPost2010Prop43
 90
        3
102
RTVSPost2010PropOp43
 70
     1
102
RTVSPost2010Prop44ColorIndex
 90
        5
102
RTVSPost2010Prop44ColorRGB
 90
      255
102
RTVSPost2010PropOp44
 70
     1
102
RTVSPost2010Prop45
280
     0
102
RTVSPost2010PropOp45
 70
     1
102
RTVSPost2010Prop46
 90
       50
102
RTVSPost2010PropOp46
 70
     1
102
RTVSPost2010Prop47
 90
       50
102
RTVSPost2010PropOp47
 70
     1
102
RTVSPost2010Prop48
 90
       50
102
RTVSPost2010PropOp48
 70
     1
102
RTVSPost2010Prop49
280
     0
102
RTVSPost2010PropOp49
 70
     1
102
RTVSPost2010Prop50
 90
       50
102
RTVSPost2010PropOp50
 70
     1
102
RTVSPost2010Prop51ColorIndex
 90
      256
102
RTVSPost2010Prop51ColorRGB
 90
-16777216
102
RTVSPost2010PropOp51
 70
     0
102
RTVSPost2010Prop52
140
1.0
102
RTVSPost2010PropOp52
 70
     0
102
RTVSPost2010Prop53
 90
        2
102
RTVSPost2010PropOp53
 70
     1
102
RTVSPost2010Prop54
  1
strokes_ogs.tif
102
RTVSPost2010PropOp54
 70
     1
102
RTVSPost2010Prop55
280
     0
102
RTVSPost2010PropOp55
 70
     1
102
RTVSPost2010Prop56
140
1.0
102
RTVSPost2010PropOp56
 70
     1
102
RTVSPost2010Prop57
140
1.0
102
RTVSPost2010PropOp57
 70
     1
102
RTVSPropertyOp0
 70
     1
102
RTVSPropertyOp1
 70
     1
102
RTVSPropertyOp2
 70
     1
102
RTVSPropertyOp3
 70
     1
102
RTVSPropertyOp4
 70
     1
102
RTVSPropertyOp5
 70
     1
102
RTVSPropertyOp6
 70
     1
102
RTVSPropertyOp7
 70
     1
102
RTVSPropertyOp8
 70
     1
102
RTVSPropertyOp9
 70
     1
102
RTVSPropertyOp10
 70
     1
102
RTVSPropertyOp11
 70
     1
102
RTVSPropertyOp12
 70
     1
102
RTVSPropertyOp13
 70
     1
102
RTVSPropertyOp14
 70
     1
102
RTVSPropertyOp15
 70
     1
102
RTVSPropertyOp16
 70
     1
102
RTVSPropertyOp17
 70
     1
102
RTVSPropertyOp18
 70
     1
102
RTVSPropertyOp19
 70
     1
102
RTVSPropertyOp20
 70
     1
102
RTVSPropertyOp21
 70
     1
102
RTVSPropertyOp22
 70
     1
102
RTVSPropertyOp23
 70
     1
102
RTVSPropertyOp24
 70
     1
102
RTVSPropertyOp25
 70
     1
102
RTVSPropertyOp26
 70
     1
102
RTVSPropertyOp27
 70
     1
102
RTVSPropertyOp28
 70
     1
102
RTVSPropertyOp29
 70
     1
102
RTVSPropertyOp30
 70
     1
102
RTVSPropertyOp31
 70
     1
102
RTVSPropertyOp32
 70
     1
102
RTVSPropertyOp33
 70
     1
102
RTVSPropertyOp34
 70
     1
102
RTVSPropertyOp35
 70
     1
102
RTVSPropertyOp36
 70
     1
102
RTVSPropertyOp37
 70
     1
102
RTVSPropertyOp38
 70
     1
102
RTVSPropertyOp39
 70
     1
102
RTVSPropertyOp40
 70
     1
102
RTVSPropertyOp41
 70
     1
102
RTVSPropertyOp42
 70
     1
102
RTVSPropertyOp43
 70
     1
102
RTVSPropertyOp44
 70
     1
102
RTVSPropertyOp45
 70
     1
102
RTVSPropertyOp46
 70
     1
102
RTVSPropertyOp47
 70
     1
102
RTVSPropertyOp48
 70
     1
102
RTVSPropertyOp49
 70
     1
102
RTVSPropertyOp50
 70
     1
102
RTVSPropertyOp51
 70
     0
102
RTVSPropertyOp52
 70
     0
102
RTVSPropertyOp53
 70
     1
102
RTVSPropertyOp54
 70
     1
102
RTVSPropertyOp55
 70
     1
102
RTVSPropertyOp56
 70
     1
102
RTVSPropertyOp57
 70
     1
102
RTVSPropertyOp58
 70
     1
102
RTVSPropertyOp59
 70
     1
102
RTVSPropertyOp60
 70
     1
102
RTVSPropertyOp61
 70
     1
102
RTVSPropertyOp62
 70
     1
  0
XRECORD
  5
C3D
102
{ACAD_REACTORS
330
C3C
102
}
330
C3C
100
AcDbXrecord
280
     1
102
RTVSPost2010Prop28
280
     0
102
RTVSPost2010PropOp28
 70
     1
102
RTVSPost2010Prop29
280
     1
102
RTVSPost2010PropOp29
 70
     1
102
RTVSPost2010Prop30
280
     1
102
RTVSPost2010PropOp30
 70
     1
102
RTVSPost2010Prop31
280
     0
102
RTVSPost2010PropOp31
 70
     1
102
RTVSPost2010Prop32
280
     0
102
RTVSPost2010PropOp32
 70
     1
102
RTVSPost2010Prop33
280
     0
102
RTVSPost2010PropOp33
 70
     1
102
RTVSPost2010Prop34
280
     0
102
RTVSPost2010PropOp34
 70
     1
102
RTVSPost2010Prop35
280
     0
102
RTVSPost2010PropOp35
 70
     1
102
RTVSPost2010Prop36
280
     0
102
RTVSPost2010PropOp36
 70
     1
102
RTVSPost2010Prop37
 90
       50
102
RTVSPost2010PropOp37
 70
     1
102
RTVSPost2010Prop38
140
0.0
102
RTVSPost2010PropOp38
 70
     1
102
RTVSPost2010Prop39
140
1.0
102
RTVSPost2010PropOp39
 70
     1
102
RTVSPost2010Prop40
 90
        0
102
RTVSPost2010PropOp40
 70
     1
102
RTVSPost2010Prop41ColorIndex
 90
       18
102
RTVSPost2010Prop41ColorRGB
 90
        0
102
RTVSPost2010PropOp41
 70
     1
102
RTVSPost2010Prop42
 90
       50
102
RTVSPost2010PropOp42
 70
     1
102
RTVSPost2010Prop43
 90
        3
102
RTVSPost2010PropOp43
 70
     1
102
RTVSPost2010Prop44ColorIndex
 90
        5
102
RTVSPost2010Prop44ColorRGB
 90
      255
102
RTVSPost2010PropOp44
 70
     1
102
RTVSPost2010Prop45
280
     0
102
RTVSPost2010PropOp45
 70
     1
102
RTVSPost2010Prop46
 90
       50
102
RTVSPost2010PropOp46
 70
     1
102
RTVSPost2010Prop47
 90
       50
102
RTVSPost2010PropOp47
 70
     1
102
RTVSPost2010Prop48
 90
       50
102
RTVSPost2010PropOp48
 70
     1
102
RTVSPost2010Prop49
280
     0
102
RTVSPost2010PropOp49
 70
     1
102
RTVSPost2010Prop50
 90
       50
102
RTVSPost2010PropOp50
 70
     1
102
RTVSPost2010Prop51ColorIndex
 90
      256
102
RTVSPost2010Prop51ColorRGB
 90
-16777216
102
RTVSPost2010PropOp51
 70
     0
102
RTVSPost2010Prop52
140
1.0
102
RTVSPost2010PropOp52
 70
     0
102
RTVSPost2010Prop53
 90
        2
102
RTVSPost2010PropOp53
 70
     1
102
RTVSPost2010Prop54
  1
strokes_ogs.tif
102
RTVSPost2010PropOp54
 70
     1
102
RTVSPost2010Prop55
280
     0
102
RTVSPost2010PropOp55
 70
     1
102
RTVSPost2010Prop56
140
1.0
102
RTVSPost2010PropOp56
 70
     1
102
RTVSPost2010Prop57
140
1.0
102
RTVSPost2010PropOp57
 70
     1
102
RTVSPropertyOp0
 70
     1
102
RTVSPropertyOp1
 70
     1
102
RTVSPropertyOp2
 70
     1
102
RTVSPropertyOp3
 70
     1
102
RTVSPropertyOp4
 70
     1
102
RTVSPropertyOp5
 70
     1
102
RTVSPropertyOp6
 70
     1
102
RTVSPropertyOp7
 70
     1
102
RTVSPropertyOp8
 70
     1
102
RTVSPropertyOp9
 70
     1
102
RTVSPropertyOp10
 70
     1
102
RTVSPropertyOp11
 70
     1
102
RTVSPropertyOp12
 70
     1
102
RTVSPropertyOp13
 70
     1
102
RTVSPropertyOp14
 70
     1
102
RTVSPropertyOp15
 70
     1
102
RTVSPropertyOp16
 70
     1
102
RTVSPropertyOp17
 70
     1
102
RTVSPropertyOp18
 70
     1
102
RTVSPropertyOp19
 70
     1
102
RTVSPropertyOp20
 70
     1
102
RTVSPropertyOp21
 70
     1
102
RTVSPropertyOp22
 70
     1
102
RTVSPropertyOp23
 70
     1
102
RTVSPropertyOp24
 70
     1
102
RTVSPropertyOp25
 70
     1
102
RTVSPropertyOp26
 70
     1
102
RTVSPropertyOp27
 70
     1
102
RTVSPropertyOp28
 70
     1
102
RTVSPropertyOp29
 70
     1
102
RTVSPropertyOp30
 70
     1
102
RTVSPropertyOp31
 70
     1
102
RTVSPropertyOp32
 70
     1
102
RTVSPropertyOp33
 70
     1
102
RTVSPropertyOp34
 70
     1
102
RTVSPropertyOp35
 70
     1
102
RTVSPropertyOp36
 70
     1
102
RTVSPropertyOp37
 70
     1
102
RTVSPropertyOp38
 70
     1
102
RTVSPropertyOp39
 70
     1
102
RTVSPropertyOp40
 70
     1
102
RTVSPropertyOp41
 70
     1
102
RTVSPropertyOp42
 70
     1
102
RTVSPropertyOp43
 70
     1
102
RTVSPropertyOp44
 70
     1
102
RTVSPropertyOp45
 70
     1
102
RTVSPropertyOp46
 70
     1
102
RTVSPropertyOp47
 70
     1
102
RTVSPropertyOp48
 70
     1
102
RTVSPropertyOp49
 70
     1
102
RTVSPropertyOp50
 70
     1
102
RTVSPropertyOp51
 70
     0
102
RTVSPropertyOp52
 70
     0
102
RTVSPropertyOp53
 70
     1
102
RTVSPropertyOp54
 70
     1
102
RTVSPropertyOp55
 70
     1
102
RTVSPropertyOp56
 70
     1
102
RTVSPropertyOp57
 70
     1
102
RTVSPropertyOp58
 70
     1
102
RTVSPropertyOp59
 70
     1
102
RTVSPropertyOp60
 70
     1
102
RTVSPropertyOp61
 70
     1
102
RTVSPropertyOp62
 70
     1
  0
XRECORD
  5
C2B
102
{ACAD_REACTORS
330
C2A
102
}
330
C2A
100
AcDbXrecord
280
     1
102
RTVSPost2010Prop28
280
     0
102
RTVSPost2010PropOp28
 70
     1
102
RTVSPost2010Prop29
280
     1
102
RTVSPost2010PropOp29
 70
     1
102
RTVSPost2010Prop30
280
     1
102
RTVSPost2010PropOp30
 70
     1
102
RTVSPost2010Prop31
280
     0
102
RTVSPost2010PropOp31
 70
     1
102
RTVSPost2010Prop32
280
     0
102
RTVSPost2010PropOp32
 70
     1
102
RTVSPost2010Prop33
280
     0
102
RTVSPost2010PropOp33
 70
     1
102
RTVSPost2010Prop34
280
     0
102
RTVSPost2010PropOp34
 70
     1
102
RTVSPost2010Prop35
280
     0
102
RTVSPost2010PropOp35
 70
     1
102
RTVSPost2010Prop36
280
     0
102
RTVSPost2010PropOp36
 70
     1
102
RTVSPost2010Prop37
 90
       50
102
RTVSPost2010PropOp37
 70
     1
102
RTVSPost2010Prop38
140
0.0
102
RTVSPost2010PropOp38
 70
     1
102
RTVSPost2010Prop39
140
1.0
102
RTVSPost2010PropOp39
 70
     1
102
RTVSPost2010Prop40
 90
        0
102
RTVSPost2010PropOp40
 70
     1
102
RTVSPost2010Prop41ColorIndex
 90
       18
102
RTVSPost2010Prop41ColorRGB
 90
        0
102
RTVSPost2010PropOp41
 70
     1
102
RTVSPost2010Prop42
 90
       50
102
RTVSPost2010PropOp42
 70
     1
102
RTVSPost2010Prop43
 90
        3
102
RTVSPost2010PropOp43
 70
     1
102
RTVSPost2010Prop44ColorIndex
 90
        5
102
RTVSPost2010Prop44ColorRGB
 90
      255
102
RTVSPost2010PropOp44
 70
     1
102
RTVSPost2010Prop45
280
     0
102
RTVSPost2010PropOp45
 70
     1
102
RTVSPost2010Prop46
 90
       50
102
RTVSPost2010PropOp46
 70
     1
102
RTVSPost2010Prop47
 90
       50
102
RTVSPost2010PropOp47
 70
     1
102
RTVSPost2010Prop48
 90
       50
102
RTVSPost2010PropOp48
 70
     1
102
RTVSPost2010Prop49
280
     0
102
RTVSPost2010PropOp49
 70
     1
102
RTVSPost2010Prop50
 90
       50
102
RTVSPost2010PropOp50
 70
     1
102
RTVSPost2010Prop51ColorIndex
 90
      256
102
RTVSPost2010Prop51ColorRGB
 90
-16777216
102
RTVSPost2010PropOp51
 70
     0
102
RTVSPost2010Prop52
140
1.0
102
RTVSPost2010PropOp52
 70
     0
102
RTVSPost2010Prop53
 90
        2
102
RTVSPost2010PropOp53
 70
     1
102
RTVSPost2010Prop54
  1
strokes_ogs.tif
102
RTVSPost2010PropOp54
 70
     1
102
RTVSPost2010Prop55
280
     0
102
RTVSPost2010PropOp55
 70
     1
102
RTVSPost2010Prop56
140
1.0
102
RTVSPost2010PropOp56
 70
     1
102
RTVSPost2010Prop57
140
1.0
102
RTVSPost2010PropOp57
 70
     1
102
RTVSPropertyOp0
 70
     1
102
RTVSPropertyOp1
 70
     1
102
RTVSPropertyOp2
 70
     1
102
RTVSPropertyOp3
 70
     1
102
RTVSPropertyOp4
 70
     1
102
RTVSPropertyOp5
 70
     1
102
RTVSPropertyOp6
 70
     1
102
RTVSPropertyOp7
 70
     1
102
RTVSPropertyOp8
 70
     1
102
RTVSPropertyOp9
 70
     1
102
RTVSPropertyOp10
 70
     1
102
RTVSPropertyOp11
 70
     1
102
RTVSPropertyOp12
 70
     1
102
RTVSPropertyOp13
 70
     1
102
RTVSPropertyOp14
 70
     1
102
RTVSPropertyOp15
 70
     1
102
RTVSPropertyOp16
 70
     1
102
RTVSPropertyOp17
 70
     1
102
RTVSPropertyOp18
 70
     1
102
RTVSPropertyOp19
 70
     1
102
RTVSPropertyOp20
 70
     1
102
RTVSPropertyOp21
 70
     1
102
RTVSPropertyOp22
 70
     1
102
RTVSPropertyOp23
 70
     1
102
RTVSPropertyOp24
 70
     1
102
RTVSPropertyOp25
 70
     1
102
RTVSPropertyOp26
 70
     1
102
RTVSPropertyOp27
 70
     1
102
RTVSPropertyOp28
 70
     1
102
RTVSPropertyOp29
 70
     1
102
RTVSPropertyOp30
 70
     1
102
RTVSPropertyOp31
 70
     1
102
RTVSPropertyOp32
 70
     1
102
RTVSPropertyOp33
 70
     1
102
RTVSPropertyOp34
 70
     1
102
RTVSPropertyOp35
 70
     1
102
RTVSPropertyOp36
 70
     1
102
RTVSPropertyOp37
 70
     1
102
RTVSPropertyOp38
 70
     1
102
RTVSPropertyOp39
 70
     1
102
RTVSPropertyOp40
 70
     1
102
RTVSPropertyOp41
 70
     1
102
RTVSPropertyOp42
 70
     1
102
RTVSPropertyOp43
 70
     1
102
RTVSPropertyOp44
 70
     1
102
RTVSPropertyOp45
 70
     1
102
RTVSPropertyOp46
 70
     1
102
RTVSPropertyOp47
 70
     1
102
RTVSPropertyOp48
 70
     1
102
RTVSPropertyOp49
 70
     1
102
RTVSPropertyOp50
 70
     1
102
RTVSPropertyOp51
 70
     0
102
RTVSPropertyOp52
 70
     0
102
RTVSPropertyOp53
 70
     1
102
RTVSPropertyOp54
 70
     1
102
RTVSPropertyOp55
 70
     1
102
RTVSPropertyOp56
 70
     1
102
RTVSPropertyOp57
 70
     1
102
RTVSPropertyOp58
 70
     1
102
RTVSPropertyOp59
 70
     1
102
RTVSPropertyOp60
 70
     1
102
RTVSPropertyOp61
 70
     1
102
RTVSPropertyOp62
 70
     1
  0
XRECORD
  5
C1F
102
{ACAD_REACTORS
330
C1E
102
}
330
C1E
100
AcDbXrecord
280
     1
102
RTVSPost2010Prop28
280
     0
102
RTVSPost2010PropOp28
 70
     1
102
RTVSPost2010Prop29
280
     1
102
RTVSPost2010PropOp29
 70
     1
102
RTVSPost2010Prop30
280
     1
102
RTVSPost2010PropOp30
 70
     1
102
RTVSPost2010Prop31
280
     0
102
RTVSPost2010PropOp31
 70
     1
102
RTVSPost2010Prop32
280
     0
102
RTVSPost2010PropOp32
 70
     1
102
RTVSPost2010Prop33
280
     0
102
RTVSPost2010PropOp33
 70
     1
102
RTVSPost2010Prop34
280
     0
102
RTVSPost2010PropOp34
 70
     1
102
RTVSPost2010Prop35
280
     0
102
RTVSPost2010PropOp35
 70
     1
102
RTVSPost2010Prop36
280
     0
102
RTVSPost2010PropOp36
 70
     1
102
RTVSPost2010Prop37
 90
       50
102
RTVSPost2010PropOp37
 70
     1
102
RTVSPost2010Prop38
140
0.0
102
RTVSPost2010PropOp38
 70
     1
102
RTVSPost2010Prop39
140
1.0
102
RTVSPost2010PropOp39
 70
     1
102
RTVSPost2010Prop40
 90
        0
102
RTVSPost2010PropOp40
 70
     1
102
RTVSPost2010Prop41ColorIndex
 90
       18
102
RTVSPost2010Prop41ColorRGB
 90
        0
102
RTVSPost2010PropOp41
 70
     1
102
RTVSPost2010Prop42
 90
       50
102
RTVSPost2010PropOp42
 70
     1
102
RTVSPost2010Prop43
 90
        3
102
RTVSPost2010PropOp43
 70
     1
102
RTVSPost2010Prop44ColorIndex
 90
        5
102
RTVSPost2010Prop44ColorRGB
 90
      255
102
RTVSPost2010PropOp44
 70
     1
102
RTVSPost2010Prop45
280
     0
102
RTVSPost2010PropOp45
 70
     1
102
RTVSPost2010Prop46
 90
       50
102
RTVSPost2010PropOp46
 70
     1
102
RTVSPost2010Prop47
 90
       50
102
RTVSPost2010PropOp47
 70
     1
102
RTVSPost2010Prop48
 90
       50
102
RTVSPost2010PropOp48
 70
     1
102
RTVSPost2010Prop49
280
     0
102
RTVSPost2010PropOp49
 70
     1
102
RTVSPost2010Prop50
 90
       50
102
RTVSPost2010PropOp50
 70
     1
102
RTVSPost2010Prop51ColorIndex
 90
      256
102
RTVSPost2010Prop51ColorRGB
 90
-16777216
102
RTVSPost2010PropOp51
 70
     0
102
RTVSPost2010Prop52
140
1.0
102
RTVSPost2010PropOp52
 70
     0
102
RTVSPost2010Prop53
 90
        2
102
RTVSPost2010PropOp53
 70
     1
102
RTVSPost2010Prop54
  1
strokes_ogs.tif
102
RTVSPost2010PropOp54
 70
     1
102
RTVSPost2010Prop55
280
     0
102
RTVSPost2010PropOp55
 70
     1
102
RTVSPost2010Prop56
140
1.0
102
RTVSPost2010PropOp56
 70
     1
102
RTVSPost2010Prop57
140
1.0
102
RTVSPost2010PropOp57
 70
     1
102
RTVSPropertyOp0
 70
     1
102
RTVSPropertyOp1
 70
     1
102
RTVSPropertyOp2
 70
     1
102
RTVSPropertyOp3
 70
     1
102
RTVSPropertyOp4
 70
     1
102
RTVSPropertyOp5
 70
     1
102
RTVSPropertyOp6
 70
     1
102
RTVSPropertyOp7
 70
     1
102
RTVSPropertyOp8
 70
     1
102
RTVSPropertyOp9
 70
     1
102
RTVSPropertyOp10
 70
     1
102
RTVSPropertyOp11
 70
     1
102
RTVSPropertyOp12
 70
     1
102
RTVSPropertyOp13
 70
     1
102
RTVSPropertyOp14
 70
     1
102
RTVSPropertyOp15
 70
     1
102
RTVSPropertyOp16
 70
     1
102
RTVSPropertyOp17
 70
     1
102
RTVSPropertyOp18
 70
     1
102
RTVSPropertyOp19
 70
     1
102
RTVSPropertyOp20
 70
     1
102
RTVSPropertyOp21
 70
     1
102
RTVSPropertyOp22
 70
     1
102
RTVSPropertyOp23
 70
     1
102
RTVSPropertyOp24
 70
     1
102
RTVSPropertyOp25
 70
     1
102
RTVSPropertyOp26
 70
     1
102
RTVSPropertyOp27
 70
     1
102
RTVSPropertyOp28
 70
     1
102
RTVSPropertyOp29
 70
     1
102
RTVSPropertyOp30
 70
     1
102
RTVSPropertyOp31
 70
     1
102
RTVSPropertyOp32
 70
     1
102
RTVSPropertyOp33
 70
     1
102
RTVSPropertyOp34
 70
     1
102
RTVSPropertyOp35
 70
     1
102
RTVSPropertyOp36
 70
     1
102
RTVSPropertyOp37
 70
     1
102
RTVSPropertyOp38
 70
     1
102
RTVSPropertyOp39
 70
     1
102
RTVSPropertyOp40
 70
     1
102
RTVSPropertyOp41
 70
     1
102
RTVSPropertyOp42
 70
     1
102
RTVSPropertyOp43
 70
     1
102
RTVSPropertyOp44
 70
     1
102
RTVSPropertyOp45
 70
     1
102
RTVSPropertyOp46
 70
     1
102
RTVSPropertyOp47
 70
     1
102
RTVSPropertyOp48
 70
     1
102
RTVSPropertyOp49
 70
     1
102
RTVSPropertyOp50
 70
     1
102
RTVSPropertyOp51
 70
     0
102
RTVSPropertyOp52
 70
     0
102
RTVSPropertyOp53
 70
     1
102
RTVSPropertyOp54
 70
     1
102
RTVSPropertyOp55
 70
     1
102
RTVSPropertyOp56
 70
     1
102
RTVSPropertyOp57
 70
     1
102
RTVSPropertyOp58
 70
     1
102
RTVSPropertyOp59
 70
     1
102
RTVSPropertyOp60
 70
     1
102
RTVSPropertyOp61
 70
     1
102
RTVSPropertyOp62
 70
     1
  0
XRECORD
  5
C3F
102
{ACAD_REACTORS
330
C3E
102
}
330
C3E
100
AcDbXrecord
280
     1
102
RTVSPost2010Prop28
280
     0
102
RTVSPost2010PropOp28
 70
     1
102
RTVSPost2010Prop29
280
     1
102
RTVSPost2010PropOp29
 70
     1
102
RTVSPost2010Prop30
280
     1
102
RTVSPost2010PropOp30
 70
     1
102
RTVSPost2010Prop31
280
     0
102
RTVSPost2010PropOp31
 70
     1
102
RTVSPost2010Prop32
280
     0
102
RTVSPost2010PropOp32
 70
     1
102
RTVSPost2010Prop33
280
     0
102
RTVSPost2010PropOp33
 70
     1
102
RTVSPost2010Prop34
280
     0
102
RTVSPost2010PropOp34
 70
     1
102
RTVSPost2010Prop35
280
     0
102
RTVSPost2010PropOp35
 70
     1
102
RTVSPost2010Prop36
280
     0
102
RTVSPost2010PropOp36
 70
     1
102
RTVSPost2010Prop37
 90
       50
102
RTVSPost2010PropOp37
 70
     1
102
RTVSPost2010Prop38
140
0.0
102
RTVSPost2010PropOp38
 70
     1
102
RTVSPost2010Prop39
140
1.0
102
RTVSPost2010PropOp39
 70
     1
102
RTVSPost2010Prop40
 90
        0
102
RTVSPost2010PropOp40
 70
     1
102
RTVSPost2010Prop41ColorIndex
 90
       18
102
RTVSPost2010Prop41ColorRGB
 90
        0
102
RTVSPost2010PropOp41
 70
     1
102
RTVSPost2010Prop42
 90
       50
102
RTVSPost2010PropOp42
 70
     1
102
RTVSPost2010Prop43
 90
        3
102
RTVSPost2010PropOp43
 70
     1
102
RTVSPost2010Prop44ColorIndex
 90
        5
102
RTVSPost2010Prop44ColorRGB
 90
      255
102
RTVSPost2010PropOp44
 70
     1
102
RTVSPost2010Prop45
280
     0
102
RTVSPost2010PropOp45
 70
     1
102
RTVSPost2010Prop46
 90
       50
102
RTVSPost2010PropOp46
 70
     1
102
RTVSPost2010Prop47
 90
       50
102
RTVSPost2010PropOp47
 70
     1
102
RTVSPost2010Prop48
 90
       50
102
RTVSPost2010PropOp48
 70
     1
102
RTVSPost2010Prop49
280
     0
102
RTVSPost2010PropOp49
 70
     1
102
RTVSPost2010Prop50
 90
       50
102
RTVSPost2010PropOp50
 70
     1
102
RTVSPost2010Prop51ColorIndex
 90
      256
102
RTVSPost2010Prop51ColorRGB
 90
-16777216
102
RTVSPost2010PropOp51
 70
     0
102
RTVSPost2010Prop52
140
1.0
102
RTVSPost2010PropOp52
 70
     0
102
RTVSPost2010Prop53
 90
        2
102
RTVSPost2010PropOp53
 70
     1
102
RTVSPost2010Prop54
  1
strokes_ogs.tif
102
RTVSPost2010PropOp54
 70
     1
102
RTVSPost2010Prop55
280
     0
102
RTVSPost2010PropOp55
 70
     1
102
RTVSPost2010Prop56
140
1.0
102
RTVSPost2010PropOp56
 70
     1
102
RTVSPost2010Prop57
140
1.0
102
RTVSPost2010PropOp57
 70
     1
102
RTVSPropertyOp0
 70
     1
102
RTVSPropertyOp1
 70
     1
102
RTVSPropertyOp2
 70
     1
102
RTVSPropertyOp3
 70
     1
102
RTVSPropertyOp4
 70
     1
102
RTVSPropertyOp5
 70
     1
102
RTVSPropertyOp6
 70
     1
102
RTVSPropertyOp7
 70
     1
102
RTVSPropertyOp8
 70
     1
102
RTVSPropertyOp9
 70
     1
102
RTVSPropertyOp10
 70
     1
102
RTVSPropertyOp11
 70
     1
102
RTVSPropertyOp12
 70
     1
102
RTVSPropertyOp13
 70
     1
102
RTVSPropertyOp14
 70
     1
102
RTVSPropertyOp15
 70
     1
102
RTVSPropertyOp16
 70
     1
102
RTVSPropertyOp17
 70
     1
102
RTVSPropertyOp18
 70
     1
102
RTVSPropertyOp19
 70
     1
102
RTVSPropertyOp20
 70
     1
102
RTVSPropertyOp21
 70
     1
102
RTVSPropertyOp22
 70
     1
102
RTVSPropertyOp23
 70
     1
102
RTVSPropertyOp24
 70
     1
102
RTVSPropertyOp25
 70
     1
102
RTVSPropertyOp26
 70
     1
102
RTVSPropertyOp27
 70
     1
102
RTVSPropertyOp28
 70
     1
102
RTVSPropertyOp29
 70
     1
102
RTVSPropertyOp30
 70
     1
102
RTVSPropertyOp31
 70
     1
102
RTVSPropertyOp32
 70
     1
102
RTVSPropertyOp33
 70
     1
102
RTVSPropertyOp34
 70
     1
102
RTVSPropertyOp35
 70
     1
102
RTVSPropertyOp36
 70
     1
102
RTVSPropertyOp37
 70
     1
102
RTVSPropertyOp38
 70
     1
102
RTVSPropertyOp39
 70
     1
102
RTVSPropertyOp40
 70
     1
102
RTVSPropertyOp41
 70
     1
102
RTVSPropertyOp42
 70
     1
102
RTVSPropertyOp43
 70
     1
102
RTVSPropertyOp44
 70
     1
102
RTVSPropertyOp45
 70
     1
102
RTVSPropertyOp46
 70
     1
102
RTVSPropertyOp47
 70
     1
102
RTVSPropertyOp48
 70
     1
102
RTVSPropertyOp49
 70
     1
102
RTVSPropertyOp50
 70
     1
102
RTVSPropertyOp51
 70
     0
102
RTVSPropertyOp52
 70
     0
102
RTVSPropertyOp53
 70
     1
102
RTVSPropertyOp54
 70
     1
102
RTVSPropertyOp55
 70
     1
102
RTVSPropertyOp56
 70
     1
102
RTVSPropertyOp57
 70
     1
102
RTVSPropertyOp58
 70
     1
102
RTVSPropertyOp59
 70
     1
102
RTVSPropertyOp60
 70
     1
102
RTVSPropertyOp61
 70
     1
102
RTVSPropertyOp62
 70
     1
  0
ENDSEC
  0
EOF
