  0
SECTION
  2
HEADER
  9
$ACADVER
  1
AC1015
  9
$ACADMAINTVER
 70
    18
  9
$DWGCODEPAGE
  3
ANSI_1252
  9
$INSBASE
 10
0.0
 20
0.0
 30
0.0
  9
$EXTMIN
 10
-444.0069575468158
 20
-406.0637510019165
 30
-0.0015258207003583
  9
$EXTMAX
 10
557.5753795560163
 20
315.521713969905
 30
0.0000000349246037
  9
$LIMMIN
 10
0.0
 20
0.0
  9
$LIMMAX
 10
420.0
 20
297.0
  9
$ORTHOMODE
 70
     0
  9
$REGENMODE
 70
     1
  9
$FILLMODE
 70
     1
  9
$QTEXTMODE
 70
     0
  9
$MIRRTEXT
 70
     0
  9
$LTSCALE
 40
1.0
  9
$ATTMODE
 70
     1
  9
$TEXTSIZE
 40
2.5
  9
$TRACEWID
 40
1.0
  9
$TEXTSTYLE
  7
Standard
  9
$CLAYER
  8
0
  9
$CELTYPE
  6
ByLayer
  9
$CECOLOR
 62
   256
  9
$CELTSCALE
 40
1.0
  9
$DISPSILH
 70
     0
  9
$DIMSCALE
 40
1.0
  9
$DIMASZ
 40
2.5
  9
$DIMEXO
 40
0.625
  9
$DIMDLI
 40
3.75
  9
$DIMRND
 40
0.0
  9
$DIMDLE
 40
0.0
  9
$DIMEXE
 40
1.25
  9
$DIMTP
 40
0.0
  9
$DIMTM
 40
0.0
  9
$DIMTXT
 40
2.5
  9
$DIMCEN
 40
2.5
  9
$DIMTSZ
 40
0.0
  9
$DIMTOL
 70
     0
  9
$DIMLIM
 70
     0
  9
$DIMTIH
 70
     0
  9
$DIMTOH
 70
     0
  9
$DIMSE1
 70
     0
  9
$DIMSE2
 70
     0
  9
$DIMTAD
 70
     1
  9
$DIMZIN
 70
     8
  9
$DIMBLK
  1

  9
$DIMASO
 70
     1
  9
$DIMSHO
 70
     1
  9
$DIMPOST
  1

  9
$DIMAPOST
  1

  9
$DIMALT
 70
     0
  9
$DIMALTD
 70
     3
  9
$DIMALTF
 40
0.03937007874016
  9
$DIMLFAC
 40
1.0
  9
$DIMTOFL
 70
     1
  9
$DIMTVP
 40
0.0
  9
$DIMTIX
 70
     0
  9
$DIMSOXD
 70
     0
  9
$DIMSAH
 70
     0
  9
$DIMBLK1
  1

  9
$DIMBLK2
  1

  9
$DIMSTYLE
  2
ISO-25
  9
$DIMCLRD
 70
     0
  9
$DIMCLRE
 70
     0
  9
$DIMCLRT
 70
     0
  9
$DIMTFAC
 40
1.0
  9
$DIMGAP
 40
0.625
  9
$DIMJUST
 70
     0
  9
$DIMSD1
 70
     0
  9
$DIMSD2
 70
     0
  9
$DIMTOLJ
 70
     0
  9
$DIMTZIN
 70
     8
  9
$DIMALTZ
 70
     0
  9
$DIMALTTZ
 70
     0
  9
$DIMUPT
 70
     0
  9
$DIMDEC
 70
     2
  9
$DIMTDEC
 70
     2
  9
$DIMALTU
 70
     2
  9
$DIMALTTD
 70
     3
  9
$DIMTXSTY
  7
Standard
  9
$DIMAUNIT
 70
     0
  9
$DIMADEC
 70
     0
  9
$DIMALTRND
 40
0.0
  9
$DIMAZIN
 70
     0
  9
$DIMDSEP
 70
    44
  9
$DIMATFIT
 70
     3
  9
$DIMFRAC
 70
     0
  9
$DIMLDRBLK
  1

  9
$DIMLUNIT
 70
     2
  9
$DIMLWD
 70
    -2
  9
$DIMLWE
 70
    -2
  9
$DIMTMOVE
 70
     0
  9
$LUNITS
 70
     2
  9
$LUPREC
 70
     4
  9
$SKETCHINC
 40
1.0
  9
$FILLETRAD
 40
0.0
  9
$AUNITS
 70
     0
  9
$AUPREC
 70
     0
  9
$MENU
  1
.
  9
$ELEVATION
 40
0.0
  9
$PELEVATION
 40
0.0
  9
$THICKNESS
 40
0.0
  9
$LIMCHECK
 70
     0
  9
$CHAMFERA
 40
0.0
  9
$CHAMFERB
 40
0.0
  9
$CHAMFERC
 40
0.0
  9
$CHAMFERD
 40
0.0
  9
$SKPOLY
 70
     0
  9
$TDCREATE
 40
2460823.717523148
  9
$TDUCREATE
 40
2460823.425856482
  9
$TDUPDATE
 40
2460823.731261574
  9
$TDUUPDATE
 40
2460823.439594908
  9
$TDINDWG
 40
0.0038541667
  9
$TDUSRTIMER
 40
0.0038541667
  9
$USRTIMER
 70
     1
  9
$ANGBASE
 50
0.0
  9
$ANGDIR
 70
     0
  9
$PDMODE
 70
     0
  9
$PDSIZE
 40
0.0
  9
$PLINEWID
 40
0.0
  9
$SPLFRAME
 70
     0
  9
$SPLINETYPE
 70
     6
  9
$SPLINESEGS
 70
     8
  9
$HANDSEED
  5
7304
  9
$SURFTAB1
 70
     6
  9
$SURFTAB2
 70
     6
  9
$SURFTYPE
 70
     6
  9
$SURFU
 70
     6
  9
$SURFV
 70
     6
  9
$UCSBASE
  2

  9
$UCSNAME
  2

  9
$UCSORG
 10
0.0
 20
0.0
 30
0.0
  9
$UCSXDIR
 10
1.0
 20
0.0
 30
0.0
  9
$UCSYDIR
 10
0.0
 20
1.0
 30
0.0
  9
$UCSORTHOREF
  2

  9
$UCSORTHOVIEW
 70
     0
  9
$UCSORGTOP
 10
0.0
 20
0.0
 30
0.0
  9
$UCSORGBOTTOM
 10
0.0
 20
0.0
 30
0.0
  9
$UCSORGLEFT
 10
0.0
 20
0.0
 30
0.0
  9
$UCSORGRIGHT
 10
0.0
 20
0.0
 30
0.0
  9
$UCSORGFRONT
 10
0.0
 20
0.0
 30
0.0
  9
$UCSORGBACK
 10
0.0
 20
0.0
 30
0.0
  9
$PUCSBASE
  2

  9
$PUCSNAME
  2

  9
$PUCSORG
 10
0.0
 20
0.0
 30
0.0
  9
$PUCSXDIR
 10
1.0
 20
0.0
 30
0.0
  9
$PUCSYDIR
 10
0.0
 20
1.0
 30
0.0
  9
$PUCSORTHOREF
  2

  9
$PUCSORTHOVIEW
 70
     0
  9
$PUCSORGTOP
 10
0.0
 20
0.0
 30
0.0
  9
$PUCSORGBOTTOM
 10
0.0
 20
0.0
 30
0.0
  9
$PUCSORGLEFT
 10
0.0
 20
0.0
 30
0.0
  9
$PUCSORGRIGHT
 10
0.0
 20
0.0
 30
0.0
  9
$PUCSORGFRONT
 10
0.0
 20
0.0
 30
0.0
  9
$PUCSORGBACK
 10
0.0
 20
0.0
 30
0.0
  9
$USERI1
 70
     0
  9
$USERI2
 70
     0
  9
$USERI3
 70
     0
  9
$USERI4
 70
     0
  9
$USERI5
 70
     0
  9
$USERR1
 40
0.0
  9
$USERR2
 40
0.0
  9
$USERR3
 40
0.0
  9
$USERR4
 40
0.0
  9
$USERR5
 40
0.0
  9
$WORLDVIEW
 70
     1
  9
$SHADEDGE
 70
     3
  9
$SHADEDIF
 70
    70
  9
$TILEMODE
 70
     1
  9
$MAXACTVP
 70
    48
  9
$PINSBASE
 10
0.0
 20
0.0
 30
0.0
  9
$PLIMCHECK
 70
     0
  9
$PEXTMIN
 10
0.0
 20
0.0
 30
0.0
  9
$PEXTMAX
 10
0.0
 20
0.0
 30
0.0
  9
$PLIMMIN
 10
0.0
 20
0.0
  9
$PLIMMAX
 10
12.0
 20
9.0
  9
$UNITMODE
 70
     0
  9
$VISRETAIN
 70
     1
  9
$PLINEGEN
 70
     0
  9
$PSLTSCALE
 70
     1
  9
$TREEDEPTH
 70
  3020
  9
$CMLSTYLE
  2
Standard
  9
$CMLJUST
 70
     0
  9
$CMLSCALE
 40
20.0
  9
$PROXYGRAPHICS
 70
     1
  9
$MEASUREMENT
 70
     1
  9
$CELWEIGHT
370
    -1
  9
$ENDCAPS
280
     0
  9
$JOINSTYLE
280
     0
  9
$LWDISPLAY
290
     0
  9
$INSUNITS
 70
     4
  9
$HYPERLINKBASE
  1

  9
$STYLESHEET
  1

  9
$XEDIT
290
     1
  9
$CEPSNTYPE
380
     0
  9
$PSTYLEMODE
290
     1
  9
$FINGERPRINTGUID
  2
{9A7B8933-4687-FD4F-A20B-7940C0D43D44}
  9
$VERSIONGUID
  2
{0C77046F-CF1E-8346-97CD-25EF86EAF94A}
  9
$EXTNAMES
290
     1
  9
$PSVPSCALE
 40
0.0
  9
$OLESTARTUP
290
     0
  0
ENDSEC
  0
SECTION
  2
CLASSES
  0
CLASS
  1
ACDBDICTIONARYWDFLT
  2
AcDbDictionaryWithDefault
  3
ObjectDBX Classes
 90
        0
280
     0
281
     0
  0
CLASS
  1
ACDBPLACEHOLDER
  2
AcDbPlaceHolder
  3
ObjectDBX Classes
 90
        0
280
     0
281
     0
  0
CLASS
  1
LAYOUT
  2
AcDbLayout
  3
ObjectDBX Classes
 90
        0
280
     0
281
     0
  0
CLASS
  1
DICTIONARYVAR
  2
AcDbDictionaryVar
  3
ObjectDBX Classes
 90
        0
280
     0
281
     0
  0
CLASS
  1
TABLESTYLE
  2
AcDbTableStyle
  3
ObjectDBX Classes
 90
     4095
280
     0
281
     0
  0
CLASS
  1
MATERIAL
  2
AcDbMaterial
  3
ObjectDBX Classes
 90
     1153
280
     0
281
     0
  0
CLASS
  1
VISUALSTYLE
  2
AcDbVisualStyle
  3
ObjectDBX Classes
 90
     4095
280
     0
281
     0
  0
CLASS
  1
SCALE
  2
AcDbScale
  3
ObjectDBX Classes
 90
     1153
280
     0
281
     0
  0
CLASS
  1
MLEADERSTYLE
  2
AcDbMLeaderStyle
  3
ACDB_MLEADERSTYLE_CLASS
 90
     4095
280
     0
281
     0
  0
CLASS
  1
CELLSTYLEMAP
  2
AcDbCellStyleMap
  3
ObjectDBX Classes
 90
     1152
280
     0
281
     0
  0
CLASS
  1
EXACXREFPANELOBJECT
  2
ExAcXREFPanelObject
  3
EXAC_ESW
 90
    33793
280
     0
281
     0
  0
CLASS
  1
NPOCOLLECTION
  2
AcDbImpNonPersistentObjectsCollection
  3
ObjectDBX Classes
 90
    33921
280
     0
281
     0
  0
CLASS
  1
LAYER_INDEX
  2
AcDbLayerIndex
  3
ObjectDBX Classes
 90
    32768
280
     0
281
     0
  0
CLASS
  1
SPATIAL_INDEX
  2
AcDbSpatialIndex
  3
ObjectDBX Classes
 90
    32768
280
     0
281
     0
  0
CLASS
  1
IDBUFFER
  2
AcDbIdBuffer
  3
ObjectDBX Classes
 90
    32768
280
     0
281
     0
  0
CLASS
  1
ACDBSECTIONVIEWSTYLE
  2
AcDbSectionViewStyle
  3
ObjectDBX Classes
 90
     1025
280
     0
281
     0
  0
CLASS
  1
ACDBDETAILVIEWSTYLE
  2
AcDbDetailViewStyle
  3
ObjectDBX Classes
 90
     1025
280
     0
281
     0
  0
CLASS
  1
RAPIDRTRENDERSETTINGS
  2
AcDbRapidRTRenderSettings
  3
ObjectDBX Classes
 90
     1024
280
     0
281
     0
  0
CLASS
  1
MENTALRAYRENDERSETTINGS
  2
AcDbMentalRayRenderSettings
  3
SCENEOE
 90
     1024
280
     0
281
     0
  0
CLASS
  1
XRECORD
  2
AcDbXrecord
  3
ObjectDBX Classes
 90
        0
280
     0
281
     0
  0
ENDSEC
  0
SECTION
  2
TABLES
  0
TABLE
  2
VPORT
  5
8
102
{ACAD_XDICTIONARY
360
720D
102
}
330
0
100
AcDbSymbolTable
 70
     1
  0
VPORT
  5
EA
330
8
100
AcDbSymbolTableRecord
100
AcDbViewportTableRecord
  2
*Active
 70
     0
 10
0.0
 20
0.0
 11
1.0
 21
1.0
 12
56.7842110046002
 22
-45.27101851600576
 13
0.0
 23
0.0
 14
10.0
 24
10.0
 15
10.0
 25
10.0
 16
0.0
 26
0.0
 36
1.0
 17
0.0
 27
0.0
 37
0.0
 40
1081.905417080668
 41
0.9846153846153844
 42
50.0
 43
0.0
 44
0.0
 50
0.0
 51
0.0
 71
     0
 72
  1000
 73
     1
 74
     3
 75
     0
 76
     1
 77
     0
 78
     0
281
     0
 65
     1
110
0.0
120
0.0
130
0.0
111
1.0
121
0.0
131
0.0
112
0.0
122
1.0
132
0.0
 79
     0
146
0.0
1001
ACAD_NAV_VCDISPLAY
1070
     3
  0
ENDTAB
  0
TABLE
  2
LTYPE
  5
5
330
0
100
AcDbSymbolTable
 70
     1
  0
LTYPE
  5
14
330
5
100
AcDbSymbolTableRecord
100
AcDbLinetypeTableRecord
  2
ByBlock
 70
     0
  3

 72
    65
 73
     0
 40
0.0
  0
LTYPE
  5
15
330
5
100
AcDbSymbolTableRecord
100
AcDbLinetypeTableRecord
  2
ByLayer
 70
     0
  3

 72
    65
 73
     0
 40
0.0
  0
LTYPE
  5
16
330
5
100
AcDbSymbolTableRecord
100
AcDbLinetypeTableRecord
  2
Continuous
 70
     0
  3
Solid line
 72
    65
 73
     0
 40
0.0
  0
ENDTAB
  0
TABLE
  2
LAYER
  5
2
102
{ACAD_XDICTIONARY
360
1FF
102
}
330
0
100
AcDbSymbolTable
 70
     1
  0
LAYER
  5
10
102
{ACAD_XDICTIONARY
360
13C
102
}
330
2
100
AcDbSymbolTableRecord
100
AcDbLayerTableRecord
  2
0
 70
     0
 62
     7
  6
Continuous
370
    -3
390
F
  0
ENDTAB
  0
TABLE
  2
STYLE
  5
3
330
0
100
AcDbSymbolTable
 70
     1
  0
STYLE
  5
11
330
3
100
AcDbSymbolTableRecord
100
AcDbTextStyleTableRecord
  2
Standard
 70
     0
 40
0.0
 41
1.0
 50
0.0
 71
     0
 42
2.5
  3
arial.ttf
  4

1001
ACAD
1000
Arial
1071
       34
  0
ENDTAB
  0
TABLE
  2
VIEW
  5
6
330
0
100
AcDbSymbolTable
 70
     0
  0
ENDTAB
  0
TABLE
  2
UCS
  5
7
330
0
100
AcDbSymbolTable
 70
     0
  0
ENDTAB
  0
TABLE
  2
APPID
  5
9
330
0
100
AcDbSymbolTable
 70
     9
  0
APPID
  5
12
330
9
100
AcDbSymbolTableRecord
100
AcDbRegAppTableRecord
  2
ACAD
 70
     0
  0
APPID
  5
9E
330
9
100
AcDbSymbolTableRecord
100
AcDbRegAppTableRecord
  2
ACAD_PSEXT
 70
     0
  0
APPID
  5
133
330
9
100
AcDbSymbolTableRecord
100
AcDbRegAppTableRecord
  2
AcadAnnoPO
 70
     0
  0
APPID
  5
134
330
9
100
AcDbSymbolTableRecord
100
AcDbRegAppTableRecord
  2
AcadAnnotative
 70
     0
  0
APPID
  5
135
330
9
100
AcDbSymbolTableRecord
100
AcDbRegAppTableRecord
  2
ACAD_DSTYLE_DIMJAG
 70
     0
  0
APPID
  5
136
330
9
100
AcDbSymbolTableRecord
100
AcDbRegAppTableRecord
  2
ACAD_DSTYLE_DIMTALN
 70
     0
  0
APPID
  5
165
330
9
100
AcDbSymbolTableRecord
100
AcDbRegAppTableRecord
  2
ACAD_MLEADERVER
 70
     0
  0
APPID
  5
217
330
9
100
AcDbSymbolTableRecord
100
AcDbRegAppTableRecord
  2
ACAD_NAV_VCDISPLAY
 70
     0
  0
APPID
  5
2AB
330
9
100
AcDbSymbolTableRecord
100
AcDbRegAppTableRecord
  2
ACAD_EXEMPT_FROM_CAD_STANDARDS
 70
     0
  0
ENDTAB
  0
TABLE
  2
DIMSTYLE
  5
A
330
0
100
AcDbSymbolTable
 70
     1
100
AcDbDimStyleTable
 71
     0
  0
DIMSTYLE
105
27
330
A
100
AcDbSymbolTableRecord
100
AcDbDimStyleTableRecord
  2
ISO-25
 70
     0
 41
2.5
 42
0.625
 43
3.75
 44
1.25
 73
     0
 74
     0
 77
     1
 78
     8
140
2.5
141
2.5
143
0.03937007874016
147
0.625
171
     3
172
     1
271
     2
272
     2
274
     3
278
    44
283
     0
284
     8
340
11
  0
ENDTAB
  0
TABLE
  2
BLOCK_RECORD
  5
1
330
0
100
AcDbSymbolTable
 70
     7
  0
BLOCK_RECORD
  5
1F
102
{ACAD_XDICTIONARY
360
1CE
102
}
330
1
100
AcDbSymbolTableRecord
100
AcDbBlockTableRecord
  2
*Model_Space
340
22
  0
BLOCK_RECORD
  5
D2
102
{ACAD_XDICTIONARY
360
71C0
102
}
330
1
100
AcDbSymbolTableRecord
100
AcDbBlockTableRecord
  2
*Paper_Space
340
D3
  0
BLOCK_RECORD
  5
D6
102
{ACAD_XDICTIONARY
360
71C2
102
}
330
1
100
AcDbSymbolTableRecord
100
AcDbBlockTableRecord
  2
*Paper_Space0
340
D7
  0
BLOCK_RECORD
  5
6F2F
330
1
100
AcDbSymbolTableRecord
100
AcDbBlockTableRecord
  2
NP15_240_260-Front
340
0
102
{BLKREFS
331
71B6
102
}
  0
BLOCK_RECORD
  5
6F36
330
1
100
AcDbSymbolTableRecord
100
AcDbBlockTableRecord
  2
NP15_240_260-Left
340
0
102
{BLKREFS
331
71B7
102
}
  0
BLOCK_RECORD
  5
6F3D
330
1
100
AcDbSymbolTableRecord
100
AcDbBlockTableRecord
  2
NP15_240_260-Right
340
0
102
{BLKREFS
331
71B8
102
}
  0
BLOCK_RECORD
  5
6F44
330
1
100
AcDbSymbolTableRecord
100
AcDbBlockTableRecord
  2
NP15_240_260-Top
340
0
102
{BLKREFS
331
71B9
102
}
  0
BLOCK_RECORD
  5
6FE1
330
1
100
AcDbSymbolTableRecord
100
AcDbBlockTableRecord
  2
NP15_240_260-Bottom
340
0
102
{BLKREFS
331
71BA
102
}
  0
BLOCK_RECORD
  5
707E
330
1
100
AcDbSymbolTableRecord
100
AcDbBlockTableRecord
  2
NP15_240_260-ISO
340
0
102
{BLKREFS
331
71BB
102
}
  0
ENDTAB
  0
ENDSEC
  0
SECTION
  2
BLOCKS
  0
BLOCK
  5
20
330
1F
100
AcDbEntity
  8
0
100
AcDbBlockBegin
  2
*Model_Space
 70
     0
 10
0.0
 20
0.0
 30
0.0
  3
*Model_Space
  1

  0
ENDBLK
  5
21
330
1F
100
AcDbEntity
  8
0
100
AcDbBlockEnd
  0
BLOCK
  5
D4
330
D2
100
AcDbEntity
 67
     1
  8
0
100
AcDbBlockBegin
  2
*Paper_Space
 70
     0
 10
0.0
 20
0.0
 30
0.0
  3
*Paper_Space
  1

  0
ENDBLK
  5
D5
330
D2
100
AcDbEntity
 67
     1
  8
0
100
AcDbBlockEnd
  0
BLOCK
  5
D8
330
D6
100
AcDbEntity
 67
     1
  8
0
100
AcDbBlockBegin
  2
*Paper_Space0
 70
     0
 10
0.0
 20
0.0
 30
0.0
  3
*Paper_Space0
  1

  0
ENDBLK
  5
D9
330
D6
100
AcDbEntity
 67
     1
  8
0
100
AcDbBlockEnd
  0
BLOCK
  5
6F30
330
6F2F
100
AcDbEntity
  8
0
100
AcDbBlockBegin
  2
NP15_240_260-Front
 70
     0
 10
0.0
 20
0.0
 30
0.0
  3
NP15_240_260-Front
  1

  0
LINE
  5
6F32
330
6F2F
100
AcDbEntity
  8
0
100
AcDbLine
 10
129.9999999999999
 20
0.0
 30
0.0
 11
130.0
 21
1.5
 31
0.0
  0
LINE
  5
6F33
330
6F2F
100
AcDbEntity
  8
0
100
AcDbLine
 10
129.9999999999999
 20
0.0
 30
0.0
 11
-129.9999999999999
 21
0.0
 31
0.0
  0
LINE
  5
6F34
330
6F2F
100
AcDbEntity
  8
0
100
AcDbLine
 10
-129.9999999999999
 20
1.5
 30
0.0
 11
129.9999999999999
 21
1.5
 31
0.0
  0
LINE
  5
6F35
330
6F2F
100
AcDbEntity
  8
0
100
AcDbLine
 10
-129.9999999999999
 20
0.0
 30
0.0
 11
-129.9999999999999
 21
1.5
 31
0.0
  0
ENDBLK
  5
6F31
330
6F2F
100
AcDbEntity
  8
0
100
AcDbBlockEnd
  0
BLOCK
  5
6F37
330
6F36
100
AcDbEntity
  8
0
100
AcDbBlockBegin
  2
NP15_240_260-Left
 70
     0
 10
0.0
 20
0.0
 30
0.0
  3
NP15_240_260-Left
  1

  0
LINE
  5
6F39
330
6F36
100
AcDbEntity
  8
0
100
AcDbLine
 10
120.0
 20
0.0
 30
0.0
 11
120.0
 21
1.5
 31
0.0
  0
LINE
  5
6F3A
330
6F36
100
AcDbEntity
  8
0
100
AcDbLine
 10
120.0
 20
0.0
 30
0.0
 11
-119.9999999999999
 21
0.0
 31
0.0
  0
LINE
  5
6F3B
330
6F36
100
AcDbEntity
  8
0
100
AcDbLine
 10
-119.9999999999999
 20
1.5
 30
0.0
 11
120.0
 21
1.5
 31
0.0
  0
LINE
  5
6F3C
330
6F36
100
AcDbEntity
  8
0
100
AcDbLine
 10
-119.9999999999999
 20
0.0
 30
0.0
 11
-119.9999999999999
 21
1.5
 31
0.0
  0
ENDBLK
  5
6F38
330
6F36
100
AcDbEntity
  8
0
100
AcDbBlockEnd
  0
BLOCK
  5
6F3E
330
6F3D
100
AcDbEntity
  8
0
100
AcDbBlockBegin
  2
NP15_240_260-Right
 70
     0
 10
0.0
 20
0.0
 30
0.0
  3
NP15_240_260-Right
  1

  0
LINE
  5
6F40
330
6F3D
100
AcDbEntity
  8
0
100
AcDbLine
 10
120.0
 20
0.0
 30
0.0
 11
-119.9999999999999
 21
0.0
 31
0.0
  0
LINE
  5
6F41
330
6F3D
100
AcDbEntity
  8
0
100
AcDbLine
 10
120.0
 20
0.0
 30
0.0
 11
120.0
 21
1.5
 31
0.0
  0
LINE
  5
6F42
330
6F3D
100
AcDbEntity
  8
0
100
AcDbLine
 10
-119.9999999999999
 20
1.5
 30
0.0
 11
120.0
 21
1.5
 31
0.0
  0
LINE
  5
6F43
330
6F3D
100
AcDbEntity
  8
0
100
AcDbLine
 10
-119.9999999999999
 20
0.0
 30
0.0
 11
-119.9999999999999
 21
1.5
 31
0.0
  0
ENDBLK
  5
6F3F
330
6F3D
100
AcDbEntity
  8
0
100
AcDbBlockEnd
  0
BLOCK
  5
6F45
330
6F44
100
AcDbEntity
  8
0
100
AcDbBlockBegin
  2
NP15_240_260-Top
 70
     0
 10
0.0
 20
0.0
 30
0.0
  3
NP15_240_260-Top
  1

  0
CIRCLE
  5
6F47
330
6F44
100
AcDbEntity
  8
0
100
AcDbCircle
 10
100.0
 20
100.0
 30
0.0
 40
2.5
  0
CIRCLE
  5
6F48
330
6F44
100
AcDbEntity
  8
0
100
AcDbCircle
 10
60.00000000000001
 20
100.0
 30
0.0
 40
2.5
  0
CIRCLE
  5
6F49
330
6F44
100
AcDbEntity
  8
0
100
AcDbCircle
 10
20.00000000000001
 20
100.0
 30
0.0
 40
2.5
  0
CIRCLE
  5
6F4A
330
6F44
100
AcDbEntity
  8
0
100
AcDbCircle
 10
-19.99999999999998
 20
100.0
 30
0.0
 40
2.5
  0
CIRCLE
  5
6F4B
330
6F44
100
AcDbEntity
  8
0
100
AcDbCircle
 10
-59.99999999999999
 20
100.0
 30
0.0
 40
2.5
  0
CIRCLE
  5
6F4C
330
6F44
100
AcDbEntity
  8
0
100
AcDbCircle
 10
100.0
 20
80.00000000000001
 30
0.0
 40
2.5
  0
CIRCLE
  5
6F4D
330
6F44
100
AcDbEntity
  8
0
100
AcDbCircle
 10
60.00000000000001
 20
80.00000000000001
 30
0.0
 40
2.5
  0
CIRCLE
  5
6F4E
330
6F44
100
AcDbEntity
  8
0
100
AcDbCircle
 10
20.00000000000002
 20
80.0
 30
0.0
 40
2.5
  0
CIRCLE
  5
6F4F
330
6F44
100
AcDbEntity
  8
0
100
AcDbCircle
 10
-19.99999999999998
 20
80.0
 30
0.0
 40
2.5
  0
CIRCLE
  5
6F50
330
6F44
100
AcDbEntity
  8
0
100
AcDbCircle
 10
-59.99999999999999
 20
79.99999999999999
 30
0.0
 40
2.5
  0
CIRCLE
  5
6F51
330
6F44
100
AcDbEntity
  8
0
100
AcDbCircle
 10
100.0
 20
60.00000000000001
 30
0.0
 40
2.5
  0
CIRCLE
  5
6F52
330
6F44
100
AcDbEntity
  8
0
100
AcDbCircle
 10
60.00000000000003
 20
60.0
 30
0.0
 40
2.5
  0
CIRCLE
  5
6F53
330
6F44
100
AcDbEntity
  8
0
100
AcDbCircle
 10
20.00000000000002
 20
60.0
 30
0.0
 40
2.5
  0
CIRCLE
  5
6F54
330
6F44
100
AcDbEntity
  8
0
100
AcDbCircle
 10
-19.99999999999998
 20
60.0
 30
0.0
 40
2.5
  0
CIRCLE
  5
6F55
330
6F44
100
AcDbEntity
  8
0
100
AcDbCircle
 10
-59.99999999999997
 20
60.0
 30
0.0
 40
2.5
  0
CIRCLE
  5
6F56
330
6F44
100
AcDbEntity
  8
0
100
AcDbCircle
 10
100.0
 20
40.00000000000001
 30
0.0
 40
2.5
  0
CIRCLE
  5
6F57
330
6F44
100
AcDbEntity
  8
0
100
AcDbCircle
 10
60.00000000000003
 20
40.0
 30
0.0
 40
2.5
  0
CIRCLE
  5
6F58
330
6F44
100
AcDbEntity
  8
0
100
AcDbCircle
 10
20.00000000000003
 20
40.0
 30
0.0
 40
2.5
  0
CIRCLE
  5
6F59
330
6F44
100
AcDbEntity
  8
0
100
AcDbCircle
 10
-19.99999999999997
 20
40.0
 30
0.0
 40
2.5
  0
CIRCLE
  5
6F5A
330
6F44
100
AcDbEntity
  8
0
100
AcDbCircle
 10
-59.99999999999997
 20
39.99999999999999
 30
0.0
 40
2.5
  0
CIRCLE
  5
6F5B
330
6F44
100
AcDbEntity
  8
0
100
AcDbCircle
 10
100.0
 20
20.00000000000002
 30
0.0
 40
2.5
  0
CIRCLE
  5
6F5C
330
6F44
100
AcDbEntity
  8
0
100
AcDbCircle
 10
60.00000000000003
 20
20.00000000000001
 30
0.0
 40
2.5
  0
CIRCLE
  5
6F5D
330
6F44
100
AcDbEntity
  8
0
100
AcDbCircle
 10
20.00000000000003
 20
20.0
 30
0.0
 40
2.5
  0
CIRCLE
  5
6F5E
330
6F44
100
AcDbEntity
  8
0
100
AcDbCircle
 10
-19.99999999999997
 20
20.0
 30
0.0
 40
2.5
  0
CIRCLE
  5
6F5F
330
6F44
100
AcDbEntity
  8
0
100
AcDbCircle
 10
-59.99999999999996
 20
19.99999999999998
 30
0.0
 40
2.5
  0
CIRCLE
  5
6F60
330
6F44
100
AcDbEntity
  8
0
100
AcDbCircle
 10
100.0
 20
0.0000000000000222
 30
0.0
 40
2.5
  0
CIRCLE
  5
6F61
330
6F44
100
AcDbEntity
  8
0
100
AcDbCircle
 10
60.00000000000003
 20
0.0000000000000133
 30
0.0
 40
2.5
  0
CIRCLE
  5
6F62
330
6F44
100
AcDbEntity
  8
0
100
AcDbCircle
 10
20.00000000000003
 20
0.0000000000000044
 30
0.0
 40
2.5
  0
CIRCLE
  5
6F63
330
6F44
100
AcDbEntity
  8
0
100
AcDbCircle
 10
-19.99999999999996
 20
-0.0000000000000044
 30
0.0
 40
2.5
  0
CIRCLE
  5
6F64
330
6F44
100
AcDbEntity
  8
0
100
AcDbCircle
 10
-59.99999999999996
 20
-0.0000000000000133
 30
0.0
 40
2.5
  0
CIRCLE
  5
6F65
330
6F44
100
AcDbEntity
  8
0
100
AcDbCircle
 10
100.0
 20
-19.99999999999998
 30
0.0
 40
2.5
  0
CIRCLE
  5
6F66
330
6F44
100
AcDbEntity
  8
0
100
AcDbCircle
 10
60.00000000000003
 20
-19.99999999999998
 30
0.0
 40
2.5
  0
CIRCLE
  5
6F67
330
6F44
100
AcDbEntity
  8
0
100
AcDbCircle
 10
20.00000000000004
 20
-20.0
 30
0.0
 40
2.5
  0
CIRCLE
  5
6F68
330
6F44
100
AcDbEntity
  8
0
100
AcDbCircle
 10
-19.99999999999996
 20
-20.0
 30
0.0
 40
2.5
  0
CIRCLE
  5
6F69
330
6F44
100
AcDbEntity
  8
0
100
AcDbCircle
 10
-59.99999999999996
 20
-20.00000000000001
 30
0.0
 40
2.5
  0
CIRCLE
  5
6F6A
330
6F44
100
AcDbEntity
  8
0
100
AcDbCircle
 10
100.0
 20
-39.99999999999998
 30
0.0
 40
2.5
  0
CIRCLE
  5
6F6B
330
6F44
100
AcDbEntity
  8
0
100
AcDbCircle
 10
60.00000000000004
 20
-39.99999999999999
 30
0.0
 40
2.5
  0
CIRCLE
  5
6F6C
330
6F44
100
AcDbEntity
  8
0
100
AcDbCircle
 10
20.00000000000004
 20
-40.0
 30
0.0
 40
2.5
  0
CIRCLE
  5
6F6D
330
6F44
100
AcDbEntity
  8
0
100
AcDbCircle
 10
-19.99999999999996
 20
-40.0
 30
0.0
 40
2.5
  0
CIRCLE
  5
6F6E
330
6F44
100
AcDbEntity
  8
0
100
AcDbCircle
 10
-59.99999999999996
 20
-40.0
 30
0.0
 40
2.5
  0
CIRCLE
  5
6F6F
330
6F44
100
AcDbEntity
  8
0
100
AcDbCircle
 10
100.0
 20
-59.99999999999999
 30
0.0
 40
2.5
  0
CIRCLE
  5
6F70
330
6F44
100
AcDbEntity
  8
0
100
AcDbCircle
 10
60.00000000000004
 20
-60.0
 30
0.0
 40
2.5
  0
CIRCLE
  5
6F71
330
6F44
100
AcDbEntity
  8
0
100
AcDbCircle
 10
20.00000000000005
 20
-60.0
 30
0.0
 40
2.5
  0
CIRCLE
  5
6F72
330
6F44
100
AcDbEntity
  8
0
100
AcDbCircle
 10
-19.99999999999995
 20
-60.0
 30
0.0
 40
2.5
  0
CIRCLE
  5
6F73
330
6F44
100
AcDbEntity
  8
0
100
AcDbCircle
 10
-59.99999999999996
 20
-60.0
 30
0.0
 40
2.5
  0
CIRCLE
  5
6F74
330
6F44
100
AcDbEntity
  8
0
100
AcDbCircle
 10
100.0
 20
-79.99999999999999
 30
0.0
 40
2.5
  0
CIRCLE
  5
6F75
330
6F44
100
AcDbEntity
  8
0
100
AcDbCircle
 10
60.00000000000006
 20
-79.99999999999999
 30
0.0
 40
2.5
  0
CIRCLE
  5
6F76
330
6F44
100
AcDbEntity
  8
0
100
AcDbCircle
 10
20.00000000000005
 20
-80.0
 30
0.0
 40
2.5
  0
CIRCLE
  5
6F77
330
6F44
100
AcDbEntity
  8
0
100
AcDbCircle
 10
-19.99999999999994
 20
-80.0
 30
0.0
 40
2.5
  0
CIRCLE
  5
6F78
330
6F44
100
AcDbEntity
  8
0
100
AcDbCircle
 10
-59.99999999999994
 20
-80.00000000000001
 30
0.0
 40
2.5
  0
CIRCLE
  5
6F79
330
6F44
100
AcDbEntity
  8
0
100
AcDbCircle
 10
-100.0
 20
100.0
 30
0.0
 40
2.5
  0
CIRCLE
  5
6F7A
330
6F44
100
AcDbEntity
  8
0
100
AcDbCircle
 10
-100.0
 20
79.99999999999999
 30
0.0
 40
2.5
  0
CIRCLE
  5
6F7B
330
6F44
100
AcDbEntity
  8
0
100
AcDbCircle
 10
-100.0
 20
59.99999999999999
 30
0.0
 40
2.5
  0
CIRCLE
  5
6F7C
330
6F44
100
AcDbEntity
  8
0
100
AcDbCircle
 10
-99.99999999999998
 20
39.99999999999998
 30
0.0
 40
2.5
  0
CIRCLE
  5
6F7D
330
6F44
100
AcDbEntity
  8
0
100
AcDbCircle
 10
-99.99999999999998
 20
19.99999999999998
 30
0.0
 40
2.5
  0
CIRCLE
  5
6F7E
330
6F44
100
AcDbEntity
  8
0
100
AcDbCircle
 10
-99.99999999999998
 20
-0.0000000000000222
 30
0.0
 40
2.5
  0
CIRCLE
  5
6F7F
330
6F44
100
AcDbEntity
  8
0
100
AcDbCircle
 10
-99.99999999999998
 20
-20.00000000000002
 30
0.0
 40
2.5
  0
CIRCLE
  5
6F80
330
6F44
100
AcDbEntity
  8
0
100
AcDbCircle
 10
-99.99999999999998
 20
-40.00000000000001
 30
0.0
 40
2.5
  0
CIRCLE
  5
6F81
330
6F44
100
AcDbEntity
  8
0
100
AcDbCircle
 10
-99.99999999999994
 20
-60.00000000000001
 30
0.0
 40
2.5
  0
CIRCLE
  5
6F82
330
6F44
100
AcDbEntity
  8
0
100
AcDbCircle
 10
-99.99999999999994
 20
-80.00000000000001
 30
0.0
 40
2.5
  0
CIRCLE
  5
6F83
330
6F44
100
AcDbEntity
  8
0
100
AcDbCircle
 10
100.0
 20
-100.0
 30
0.0
 40
2.5
  0
CIRCLE
  5
6F84
330
6F44
100
AcDbEntity
  8
0
100
AcDbCircle
 10
60.00000000000006
 20
-100.0
 30
0.0
 40
2.5
  0
CIRCLE
  5
6F85
330
6F44
100
AcDbEntity
  8
0
100
AcDbCircle
 10
20.00000000000006
 20
-100.0
 30
0.0
 40
2.5
  0
CIRCLE
  5
6F86
330
6F44
100
AcDbEntity
  8
0
100
AcDbCircle
 10
-19.99999999999994
 20
-100.0
 30
0.0
 40
2.5
  0
CIRCLE
  5
6F87
330
6F44
100
AcDbEntity
  8
0
100
AcDbCircle
 10
-59.99999999999994
 20
-100.0
 30
0.0
 40
2.5
  0
CIRCLE
  5
6F88
330
6F44
100
AcDbEntity
  8
0
100
AcDbCircle
 10
-99.99999999999994
 20
-100.0
 30
0.0
 40
2.5
  0
CIRCLE
  5
6F89
330
6F44
100
AcDbEntity
  8
0
100
AcDbCircle
 10
120.0
 20
110.0
 30
0.0
 40
2.5
  0
CIRCLE
  5
6F8A
330
6F44
100
AcDbEntity
  8
0
100
AcDbCircle
 10
80.00000000000001
 20
110.0
 30
0.0
 40
2.5
  0
CIRCLE
  5
6F8B
330
6F44
100
AcDbEntity
  8
0
100
AcDbCircle
 10
40.0
 20
110.0
 30
0.0
 40
2.5
  0
CIRCLE
  5
6F8C
330
6F44
100
AcDbEntity
  8
0
100
AcDbCircle
 10
0.0000000000000111
 20
110.0
 30
0.0
 40
2.5
  0
CIRCLE
  5
6F8D
330
6F44
100
AcDbEntity
  8
0
100
AcDbCircle
 10
-39.99999999999999
 20
110.0
 30
0.0
 40
2.5
  0
CIRCLE
  5
6F8E
330
6F44
100
AcDbEntity
  8
0
100
AcDbCircle
 10
-79.99999999999999
 20
110.0
 30
0.0
 40
2.5
  0
CIRCLE
  5
6F8F
330
6F44
100
AcDbEntity
  8
0
100
AcDbCircle
 10
120.0
 20
90.00000000000001
 30
0.0
 40
2.5
  0
CIRCLE
  5
6F90
330
6F44
100
AcDbEntity
  8
0
100
AcDbCircle
 10
80.00000000000001
 20
90.00000000000001
 30
0.0
 40
2.5
  0
CIRCLE
  5
6F91
330
6F44
100
AcDbEntity
  8
0
100
AcDbCircle
 10
40.00000000000001
 20
90.0
 30
0.0
 40
2.5
  0
CIRCLE
  5
6F92
330
6F44
100
AcDbEntity
  8
0
100
AcDbCircle
 10
0.0000000000000155
 20
90.0
 30
0.0
 40
2.5
  0
CIRCLE
  5
6F93
330
6F44
100
AcDbEntity
  8
0
100
AcDbCircle
 10
-39.99999999999999
 20
90.0
 30
0.0
 40
2.5
  0
CIRCLE
  5
6F94
330
6F44
100
AcDbEntity
  8
0
100
AcDbCircle
 10
-79.99999999999999
 20
89.99999999999998
 30
0.0
 40
2.5
  0
CIRCLE
  5
6F95
330
6F44
100
AcDbEntity
  8
0
100
AcDbCircle
 10
120.0
 20
70.00000000000003
 30
0.0
 40
2.5
  0
CIRCLE
  5
6F96
330
6F44
100
AcDbEntity
  8
0
100
AcDbCircle
 10
80.00000000000001
 20
70.00000000000001
 30
0.0
 40
2.5
  0
CIRCLE
  5
6F97
330
6F44
100
AcDbEntity
  8
0
100
AcDbCircle
 10
40.00000000000001
 20
70.00000000000001
 30
0.0
 40
2.5
  0
CIRCLE
  5
6F98
330
6F44
100
AcDbEntity
  8
0
100
AcDbCircle
 10
0.00000000000002
 20
70.0
 30
0.0
 40
2.5
  0
CIRCLE
  5
6F99
330
6F44
100
AcDbEntity
  8
0
100
AcDbCircle
 10
-39.99999999999998
 20
69.99999999999999
 30
0.0
 40
2.5
  0
CIRCLE
  5
6F9A
330
6F44
100
AcDbEntity
  8
0
100
AcDbCircle
 10
-79.99999999999999
 20
69.99999999999999
 30
0.0
 40
2.5
  0
CIRCLE
  5
6F9B
330
6F44
100
AcDbEntity
  8
0
100
AcDbCircle
 10
120.0
 20
50.00000000000003
 30
0.0
 40
2.5
  0
CIRCLE
  5
6F9C
330
6F44
100
AcDbEntity
  8
0
100
AcDbCircle
 10
80.00000000000001
 20
50.00000000000001
 30
0.0
 40
2.5
  0
CIRCLE
  5
6F9D
330
6F44
100
AcDbEntity
  8
0
100
AcDbCircle
 10
40.00000000000002
 20
50.0
 30
0.0
 40
2.5
  0
CIRCLE
  5
6F9E
330
6F44
100
AcDbEntity
  8
0
100
AcDbCircle
 10
0.0000000000000244
 20
50.0
 30
0.0
 40
2.5
  0
CIRCLE
  5
6F9F
330
6F44
100
AcDbEntity
  8
0
100
AcDbCircle
 10
-39.99999999999997
 20
50.0
 30
0.0
 40
2.5
  0
CIRCLE
  5
6FA0
330
6F44
100
AcDbEntity
  8
0
100
AcDbCircle
 10
-79.99999999999997
 20
49.99999999999999
 30
0.0
 40
2.5
  0
CIRCLE
  5
6FA1
330
6F44
100
AcDbEntity
  8
0
100
AcDbCircle
 10
120.0
 20
30.00000000000003
 30
0.0
 40
2.5
  0
CIRCLE
  5
6FA2
330
6F44
100
AcDbEntity
  8
0
100
AcDbCircle
 10
80.00000000000003
 20
30.00000000000002
 30
0.0
 40
2.5
  0
CIRCLE
  5
6FA3
330
6F44
100
AcDbEntity
  8
0
100
AcDbCircle
 10
40.00000000000002
 20
30.00000000000001
 30
0.0
 40
2.5
  0
CIRCLE
  5
6FA4
330
6F44
100
AcDbEntity
  8
0
100
AcDbCircle
 10
0.0000000000000289
 20
30.0
 30
0.0
 40
2.5
  0
CIRCLE
  5
6FA5
330
6F44
100
AcDbEntity
  8
0
100
AcDbCircle
 10
-39.99999999999997
 20
30.0
 30
0.0
 40
2.5
  0
CIRCLE
  5
6FA6
330
6F44
100
AcDbEntity
  8
0
100
AcDbCircle
 10
-79.99999999999997
 20
29.99999999999998
 30
0.0
 40
2.5
  0
CIRCLE
  5
6FA7
330
6F44
100
AcDbEntity
  8
0
100
AcDbCircle
 10
120.0
 20
10.00000000000002
 30
0.0
 40
2.5
  0
CIRCLE
  5
6FA8
330
6F44
100
AcDbEntity
  8
0
100
AcDbCircle
 10
80.00000000000003
 20
10.00000000000001
 30
0.0
 40
2.5
  0
CIRCLE
  5
6FA9
330
6F44
100
AcDbEntity
  8
0
100
AcDbCircle
 10
40.00000000000003
 20
10.00000000000001
 30
0.0
 40
2.5
  0
CIRCLE
  5
6FAA
330
6F44
100
AcDbEntity
  8
0
100
AcDbCircle
 10
0.0000000000000333
 20
10.0
 30
0.0
 40
2.5
  0
CIRCLE
  5
6FAB
330
6F44
100
AcDbEntity
  8
0
100
AcDbCircle
 10
-39.99999999999996
 20
9.999999999999991
 30
0.0
 40
2.5
  0
CIRCLE
  5
6FAC
330
6F44
100
AcDbEntity
  8
0
100
AcDbCircle
 10
-79.99999999999997
 20
9.999999999999982
 30
0.0
 40
2.5
  0
CIRCLE
  5
6FAD
330
6F44
100
AcDbEntity
  8
0
100
AcDbCircle
 10
120.0
 20
-9.999999999999973
 30
0.0
 40
2.5
  0
CIRCLE
  5
6FAE
330
6F44
100
AcDbEntity
  8
0
100
AcDbCircle
 10
80.00000000000003
 20
-9.999999999999982
 30
0.0
 40
2.5
  0
CIRCLE
  5
6FAF
330
6F44
100
AcDbEntity
  8
0
100
AcDbCircle
 10
40.00000000000003
 20
-9.999999999999991
 30
0.0
 40
2.5
  0
CIRCLE
  5
6FB0
330
6F44
100
AcDbEntity
  8
0
100
AcDbCircle
 10
0.0000000000000377
 20
-10.0
 30
0.0
 40
2.5
  0
CIRCLE
  5
6FB1
330
6F44
100
AcDbEntity
  8
0
100
AcDbCircle
 10
-39.99999999999996
 20
-10.00000000000001
 30
0.0
 40
2.5
  0
CIRCLE
  5
6FB2
330
6F44
100
AcDbEntity
  8
0
100
AcDbCircle
 10
-79.99999999999997
 20
-10.00000000000001
 30
0.0
 40
2.5
  0
CIRCLE
  5
6FB3
330
6F44
100
AcDbEntity
  8
0
100
AcDbCircle
 10
120.0
 20
-29.99999999999997
 30
0.0
 40
2.5
  0
CIRCLE
  5
6FB4
330
6F44
100
AcDbEntity
  8
0
100
AcDbCircle
 10
80.00000000000003
 20
-29.99999999999998
 30
0.0
 40
2.5
  0
CIRCLE
  5
6FB5
330
6F44
100
AcDbEntity
  8
0
100
AcDbCircle
 10
40.00000000000004
 20
-30.0
 30
0.0
 40
2.5
  0
CIRCLE
  5
6FB6
330
6F44
100
AcDbEntity
  8
0
100
AcDbCircle
 10
0.0000000000000422
 20
-30.0
 30
0.0
 40
2.5
  0
CIRCLE
  5
6FB7
330
6F44
100
AcDbEntity
  8
0
100
AcDbCircle
 10
-39.99999999999996
 20
-30.00000000000001
 30
0.0
 40
2.5
  0
CIRCLE
  5
6FB8
330
6F44
100
AcDbEntity
  8
0
100
AcDbCircle
 10
-79.99999999999996
 20
-30.00000000000002
 30
0.0
 40
2.5
  0
CIRCLE
  5
6FB9
330
6F44
100
AcDbEntity
  8
0
100
AcDbCircle
 10
120.0
 20
-49.99999999999997
 30
0.0
 40
2.5
  0
CIRCLE
  5
6FBA
330
6F44
100
AcDbEntity
  8
0
100
AcDbCircle
 10
80.00000000000005
 20
-49.99999999999999
 30
0.0
 40
2.5
  0
CIRCLE
  5
6FBB
330
6F44
100
AcDbEntity
  8
0
100
AcDbCircle
 10
40.00000000000004
 20
-50.0
 30
0.0
 40
2.5
  0
CIRCLE
  5
6FBC
330
6F44
100
AcDbEntity
  8
0
100
AcDbCircle
 10
0.0000000000000466
 20
-50.0
 30
0.0
 40
2.5
  0
CIRCLE
  5
6FBD
330
6F44
100
AcDbEntity
  8
0
100
AcDbCircle
 10
-39.99999999999996
 20
-50.0
 30
0.0
 40
2.5
  0
CIRCLE
  5
6FBE
330
6F44
100
AcDbEntity
  8
0
100
AcDbCircle
 10
-79.99999999999996
 20
-50.00000000000001
 30
0.0
 40
2.5
  0
CIRCLE
  5
6FBF
330
6F44
100
AcDbEntity
  8
0
100
AcDbCircle
 10
120.0
 20
-69.99999999999997
 30
0.0
 40
2.5
  0
CIRCLE
  5
6FC0
330
6F44
100
AcDbEntity
  8
0
100
AcDbCircle
 10
80.00000000000005
 20
-69.99999999999999
 30
0.0
 40
2.5
  0
CIRCLE
  5
6FC1
330
6F44
100
AcDbEntity
  8
0
100
AcDbCircle
 10
40.00000000000006
 20
-69.99999999999999
 30
0.0
 40
2.5
  0
CIRCLE
  5
6FC2
330
6F44
100
AcDbEntity
  8
0
100
AcDbCircle
 10
0.0000000000000511
 20
-70.0
 30
0.0
 40
2.5
  0
CIRCLE
  5
6FC3
330
6F44
100
AcDbEntity
  8
0
100
AcDbCircle
 10
-39.99999999999995
 20
-70.00000000000001
 30
0.0
 40
2.5
  0
CIRCLE
  5
6FC4
330
6F44
100
AcDbEntity
  8
0
100
AcDbCircle
 10
-79.99999999999994
 20
-70.00000000000001
 30
0.0
 40
2.5
  0
CIRCLE
  5
6FC5
330
6F44
100
AcDbEntity
  8
0
100
AcDbCircle
 10
120.0
 20
-89.99999999999998
 30
0.0
 40
2.5
  0
CIRCLE
  5
6FC6
330
6F44
100
AcDbEntity
  8
0
100
AcDbCircle
 10
80.00000000000005
 20
-89.99999999999998
 30
0.0
 40
2.5
  0
CIRCLE
  5
6FC7
330
6F44
100
AcDbEntity
  8
0
100
AcDbCircle
 10
40.00000000000006
 20
-90.0
 30
0.0
 40
2.5
  0
CIRCLE
  5
6FC8
330
6F44
100
AcDbEntity
  8
0
100
AcDbCircle
 10
0.0000000000000555
 20
-90.0
 30
0.0
 40
2.5
  0
CIRCLE
  5
6FC9
330
6F44
100
AcDbEntity
  8
0
100
AcDbCircle
 10
-39.99999999999995
 20
-90.0
 30
0.0
 40
2.5
  0
CIRCLE
  5
6FCA
330
6F44
100
AcDbEntity
  8
0
100
AcDbCircle
 10
-79.99999999999994
 20
-90.00000000000001
 30
0.0
 40
2.5
  0
CIRCLE
  5
6FCB
330
6F44
100
AcDbEntity
  8
0
100
AcDbCircle
 10
-120.0
 20
110.0
 30
0.0
 40
2.5
  0
CIRCLE
  5
6FCC
330
6F44
100
AcDbEntity
  8
0
100
AcDbCircle
 10
-120.0
 20
89.99999999999998
 30
0.0
 40
2.5
  0
CIRCLE
  5
6FCD
330
6F44
100
AcDbEntity
  8
0
100
AcDbCircle
 10
-120.0
 20
69.99999999999997
 30
0.0
 40
2.5
  0
CIRCLE
  5
6FCE
330
6F44
100
AcDbEntity
  8
0
100
AcDbCircle
 10
-120.0
 20
49.99999999999997
 30
0.0
 40
2.5
  0
CIRCLE
  5
6FCF
330
6F44
100
AcDbEntity
  8
0
100
AcDbCircle
 10
-119.9999999999999
 20
29.99999999999997
 30
0.0
 40
2.5
  0
CIRCLE
  5
6FD0
330
6F44
100
AcDbEntity
  8
0
100
AcDbCircle
 10
-119.9999999999999
 20
9.999999999999973
 30
0.0
 40
2.5
  0
CIRCLE
  5
6FD1
330
6F44
100
AcDbEntity
  8
0
100
AcDbCircle
 10
-119.9999999999999
 20
-10.00000000000002
 30
0.0
 40
2.5
  0
CIRCLE
  5
6FD2
330
6F44
100
AcDbEntity
  8
0
100
AcDbCircle
 10
-119.9999999999999
 20
-30.00000000000003
 30
0.0
 40
2.5
  0
CIRCLE
  5
6FD3
330
6F44
100
AcDbEntity
  8
0
100
AcDbCircle
 10
-119.9999999999999
 20
-50.00000000000003
 30
0.0
 40
2.5
  0
CIRCLE
  5
6FD4
330
6F44
100
AcDbEntity
  8
0
100
AcDbCircle
 10
-119.9999999999999
 20
-70.00000000000003
 30
0.0
 40
2.5
  0
CIRCLE
  5
6FD5
330
6F44
100
AcDbEntity
  8
0
100
AcDbCircle
 10
-119.9999999999999
 20
-90.00000000000001
 30
0.0
 40
2.5
  0
CIRCLE
  5
6FD6
330
6F44
100
AcDbEntity
  8
0
100
AcDbCircle
 10
120.0
 20
-110.0
 30
0.0
 40
2.5
  0
CIRCLE
  5
6FD7
330
6F44
100
AcDbEntity
  8
0
100
AcDbCircle
 10
80.00000000000005
 20
-110.0
 30
0.0
 40
2.5
  0
CIRCLE
  5
6FD8
330
6F44
100
AcDbEntity
  8
0
100
AcDbCircle
 10
40.00000000000006
 20
-110.0
 30
0.0
 40
2.5
  0
CIRCLE
  5
6FD9
330
6F44
100
AcDbEntity
  8
0
100
AcDbCircle
 10
0.00000000000006
 20
-110.0
 30
0.0
 40
2.5
  0
CIRCLE
  5
6FDA
330
6F44
100
AcDbEntity
  8
0
100
AcDbCircle
 10
-39.99999999999995
 20
-110.0
 30
0.0
 40
2.5
  0
CIRCLE
  5
6FDB
330
6F44
100
AcDbEntity
  8
0
100
AcDbCircle
 10
-79.99999999999994
 20
-110.0
 30
0.0
 40
2.5
  0
CIRCLE
  5
6FDC
330
6F44
100
AcDbEntity
  8
0
100
AcDbCircle
 10
-119.9999999999999
 20
-110.0
 30
0.0
 40
2.5
  0
LINE
  5
6FDD
330
6F44
100
AcDbEntity
  8
0
100
AcDbLine
 10
130.0
 20
-119.9999999999999
 30
0.0
 11
130.0
 21
120.0
 31
0.0
  0
LINE
  5
6FDE
330
6F44
100
AcDbEntity
  8
0
100
AcDbLine
 10
-129.9999999999999
 20
-120.0
 30
0.0
 11
129.9999999999999
 21
-119.9999999999999
 31
0.0
  0
LINE
  5
6FDF
330
6F44
100
AcDbEntity
  8
0
100
AcDbLine
 10
-130.0
 20
119.9999999999999
 30
0.0
 11
-129.9999999999999
 21
-120.0
 31
0.0
  0
LINE
  5
6FE0
330
6F44
100
AcDbEntity
  8
0
100
AcDbLine
 10
130.0
 20
120.0
 30
0.0
 11
-130.0
 21
119.9999999999999
 31
0.0
  0
ENDBLK
  5
6F46
330
6F44
100
AcDbEntity
  8
0
100
AcDbBlockEnd
  0
BLOCK
  5
6FE2
330
6FE1
100
AcDbEntity
  8
0
100
AcDbBlockBegin
  2
NP15_240_260-Bottom
 70
     0
 10
0.0
 20
0.0
 30
0.0
  3
NP15_240_260-Bottom
  1

  0
CIRCLE
  5
6FE4
330
6FE1
100
AcDbEntity
  8
0
100
AcDbCircle
 10
100.0
 20
-100.0
 30
0.0
 40
2.5
  0
CIRCLE
  5
6FE5
330
6FE1
100
AcDbEntity
  8
0
100
AcDbCircle
 10
60.00000000000001
 20
-100.0
 30
0.0
 40
2.5
  0
CIRCLE
  5
6FE6
330
6FE1
100
AcDbEntity
  8
0
100
AcDbCircle
 10
20.00000000000001
 20
-100.0
 30
0.0
 40
2.5
  0
CIRCLE
  5
6FE7
330
6FE1
100
AcDbEntity
  8
0
100
AcDbCircle
 10
-19.99999999999998
 20
-100.0
 30
0.0
 40
2.5
  0
CIRCLE
  5
6FE8
330
6FE1
100
AcDbEntity
  8
0
100
AcDbCircle
 10
-59.99999999999999
 20
-100.0
 30
0.0
 40
2.5
  0
CIRCLE
  5
6FE9
330
6FE1
100
AcDbEntity
  8
0
100
AcDbCircle
 10
100.0
 20
-80.00000000000001
 30
0.0
 40
2.5
  0
CIRCLE
  5
6FEA
330
6FE1
100
AcDbEntity
  8
0
100
AcDbCircle
 10
60.00000000000001
 20
-80.00000000000001
 30
0.0
 40
2.5
  0
CIRCLE
  5
6FEB
330
6FE1
100
AcDbEntity
  8
0
100
AcDbCircle
 10
20.00000000000002
 20
-80.0
 30
0.0
 40
2.5
  0
CIRCLE
  5
6FEC
330
6FE1
100
AcDbEntity
  8
0
100
AcDbCircle
 10
-19.99999999999998
 20
-80.0
 30
0.0
 40
2.5
  0
CIRCLE
  5
6FED
330
6FE1
100
AcDbEntity
  8
0
100
AcDbCircle
 10
-59.99999999999999
 20
-79.99999999999999
 30
0.0
 40
2.5
  0
CIRCLE
  5
6FEE
330
6FE1
100
AcDbEntity
  8
0
100
AcDbCircle
 10
100.0
 20
-60.00000000000001
 30
0.0
 40
2.5
  0
CIRCLE
  5
6FEF
330
6FE1
100
AcDbEntity
  8
0
100
AcDbCircle
 10
60.00000000000003
 20
-60.0
 30
0.0
 40
2.5
  0
CIRCLE
  5
6FF0
330
6FE1
100
AcDbEntity
  8
0
100
AcDbCircle
 10
20.00000000000002
 20
-60.0
 30
0.0
 40
2.5
  0
CIRCLE
  5
6FF1
330
6FE1
100
AcDbEntity
  8
0
100
AcDbCircle
 10
-19.99999999999998
 20
-60.0
 30
0.0
 40
2.5
  0
CIRCLE
  5
6FF2
330
6FE1
100
AcDbEntity
  8
0
100
AcDbCircle
 10
-59.99999999999997
 20
-60.0
 30
0.0
 40
2.5
  0
CIRCLE
  5
6FF3
330
6FE1
100
AcDbEntity
  8
0
100
AcDbCircle
 10
100.0
 20
-40.00000000000001
 30
0.0
 40
2.5
  0
CIRCLE
  5
6FF4
330
6FE1
100
AcDbEntity
  8
0
100
AcDbCircle
 10
60.00000000000003
 20
-40.0
 30
0.0
 40
2.5
  0
CIRCLE
  5
6FF5
330
6FE1
100
AcDbEntity
  8
0
100
AcDbCircle
 10
20.00000000000003
 20
-40.0
 30
0.0
 40
2.5
  0
CIRCLE
  5
6FF6
330
6FE1
100
AcDbEntity
  8
0
100
AcDbCircle
 10
-19.99999999999997
 20
-40.0
 30
0.0
 40
2.5
  0
CIRCLE
  5
6FF7
330
6FE1
100
AcDbEntity
  8
0
100
AcDbCircle
 10
-59.99999999999997
 20
-39.99999999999999
 30
0.0
 40
2.5
  0
CIRCLE
  5
6FF8
330
6FE1
100
AcDbEntity
  8
0
100
AcDbCircle
 10
100.0
 20
-20.00000000000002
 30
0.0
 40
2.5
  0
CIRCLE
  5
6FF9
330
6FE1
100
AcDbEntity
  8
0
100
AcDbCircle
 10
60.00000000000003
 20
-20.00000000000001
 30
0.0
 40
2.5
  0
CIRCLE
  5
6FFA
330
6FE1
100
AcDbEntity
  8
0
100
AcDbCircle
 10
20.00000000000003
 20
-20.0
 30
0.0
 40
2.5
  0
CIRCLE
  5
6FFB
330
6FE1
100
AcDbEntity
  8
0
100
AcDbCircle
 10
-19.99999999999997
 20
-20.0
 30
0.0
 40
2.5
  0
CIRCLE
  5
6FFC
330
6FE1
100
AcDbEntity
  8
0
100
AcDbCircle
 10
-59.99999999999996
 20
-19.99999999999998
 30
0.0
 40
2.5
  0
CIRCLE
  5
6FFD
330
6FE1
100
AcDbEntity
  8
0
100
AcDbCircle
 10
100.0
 20
-0.0000000000000222
 30
0.0
 40
2.5
  0
CIRCLE
  5
6FFE
330
6FE1
100
AcDbEntity
  8
0
100
AcDbCircle
 10
60.00000000000003
 20
-0.0000000000000133
 30
0.0
 40
2.5
  0
CIRCLE
  5
6FFF
330
6FE1
100
AcDbEntity
  8
0
100
AcDbCircle
 10
20.00000000000003
 20
-0.0000000000000044
 30
0.0
 40
2.5
  0
CIRCLE
  5
7000
330
6FE1
100
AcDbEntity
  8
0
100
AcDbCircle
 10
-19.99999999999996
 20
0.0000000000000044
 30
0.0
 40
2.5
  0
CIRCLE
  5
7001
330
6FE1
100
AcDbEntity
  8
0
100
AcDbCircle
 10
-59.99999999999996
 20
0.0000000000000133
 30
0.0
 40
2.5
  0
CIRCLE
  5
7002
330
6FE1
100
AcDbEntity
  8
0
100
AcDbCircle
 10
100.0
 20
19.99999999999998
 30
0.0
 40
2.5
  0
CIRCLE
  5
7003
330
6FE1
100
AcDbEntity
  8
0
100
AcDbCircle
 10
60.00000000000003
 20
19.99999999999998
 30
0.0
 40
2.5
  0
CIRCLE
  5
7004
330
6FE1
100
AcDbEntity
  8
0
100
AcDbCircle
 10
20.00000000000004
 20
20.0
 30
0.0
 40
2.5
  0
CIRCLE
  5
7005
330
6FE1
100
AcDbEntity
  8
0
100
AcDbCircle
 10
-19.99999999999996
 20
20.0
 30
0.0
 40
2.5
  0
CIRCLE
  5
7006
330
6FE1
100
AcDbEntity
  8
0
100
AcDbCircle
 10
-59.99999999999996
 20
20.00000000000001
 30
0.0
 40
2.5
  0
CIRCLE
  5
7007
330
6FE1
100
AcDbEntity
  8
0
100
AcDbCircle
 10
100.0
 20
39.99999999999998
 30
0.0
 40
2.5
  0
CIRCLE
  5
7008
330
6FE1
100
AcDbEntity
  8
0
100
AcDbCircle
 10
60.00000000000004
 20
39.99999999999999
 30
0.0
 40
2.5
  0
CIRCLE
  5
7009
330
6FE1
100
AcDbEntity
  8
0
100
AcDbCircle
 10
20.00000000000004
 20
40.0
 30
0.0
 40
2.5
  0
CIRCLE
  5
700A
330
6FE1
100
AcDbEntity
  8
0
100
AcDbCircle
 10
-19.99999999999996
 20
40.0
 30
0.0
 40
2.5
  0
CIRCLE
  5
700B
330
6FE1
100
AcDbEntity
  8
0
100
AcDbCircle
 10
-59.99999999999996
 20
40.0
 30
0.0
 40
2.5
  0
CIRCLE
  5
700C
330
6FE1
100
AcDbEntity
  8
0
100
AcDbCircle
 10
100.0
 20
59.99999999999999
 30
0.0
 40
2.5
  0
CIRCLE
  5
700D
330
6FE1
100
AcDbEntity
  8
0
100
AcDbCircle
 10
60.00000000000004
 20
60.0
 30
0.0
 40
2.5
  0
CIRCLE
  5
700E
330
6FE1
100
AcDbEntity
  8
0
100
AcDbCircle
 10
20.00000000000005
 20
60.0
 30
0.0
 40
2.5
  0
CIRCLE
  5
700F
330
6FE1
100
AcDbEntity
  8
0
100
AcDbCircle
 10
-19.99999999999995
 20
60.0
 30
0.0
 40
2.5
  0
CIRCLE
  5
7010
330
6FE1
100
AcDbEntity
  8
0
100
AcDbCircle
 10
-59.99999999999996
 20
60.0
 30
0.0
 40
2.5
  0
CIRCLE
  5
7011
330
6FE1
100
AcDbEntity
  8
0
100
AcDbCircle
 10
100.0
 20
79.99999999999999
 30
0.0
 40
2.5
  0
CIRCLE
  5
7012
330
6FE1
100
AcDbEntity
  8
0
100
AcDbCircle
 10
60.00000000000006
 20
79.99999999999999
 30
0.0
 40
2.5
  0
CIRCLE
  5
7013
330
6FE1
100
AcDbEntity
  8
0
100
AcDbCircle
 10
20.00000000000005
 20
80.0
 30
0.0
 40
2.5
  0
CIRCLE
  5
7014
330
6FE1
100
AcDbEntity
  8
0
100
AcDbCircle
 10
-19.99999999999994
 20
80.0
 30
0.0
 40
2.5
  0
CIRCLE
  5
7015
330
6FE1
100
AcDbEntity
  8
0
100
AcDbCircle
 10
-59.99999999999994
 20
80.00000000000001
 30
0.0
 40
2.5
  0
CIRCLE
  5
7016
330
6FE1
100
AcDbEntity
  8
0
100
AcDbCircle
 10
-100.0
 20
-100.0
 30
0.0
 40
2.5
  0
CIRCLE
  5
7017
330
6FE1
100
AcDbEntity
  8
0
100
AcDbCircle
 10
-100.0
 20
-79.99999999999999
 30
0.0
 40
2.5
  0
CIRCLE
  5
7018
330
6FE1
100
AcDbEntity
  8
0
100
AcDbCircle
 10
-100.0
 20
-59.99999999999999
 30
0.0
 40
2.5
  0
CIRCLE
  5
7019
330
6FE1
100
AcDbEntity
  8
0
100
AcDbCircle
 10
-99.99999999999998
 20
-39.99999999999998
 30
0.0
 40
2.5
  0
CIRCLE
  5
701A
330
6FE1
100
AcDbEntity
  8
0
100
AcDbCircle
 10
-99.99999999999998
 20
-19.99999999999998
 30
0.0
 40
2.5
  0
CIRCLE
  5
701B
330
6FE1
100
AcDbEntity
  8
0
100
AcDbCircle
 10
-99.99999999999998
 20
0.0000000000000222
 30
0.0
 40
2.5
  0
CIRCLE
  5
701C
330
6FE1
100
AcDbEntity
  8
0
100
AcDbCircle
 10
-99.99999999999998
 20
20.00000000000002
 30
0.0
 40
2.5
  0
CIRCLE
  5
701D
330
6FE1
100
AcDbEntity
  8
0
100
AcDbCircle
 10
-99.99999999999998
 20
40.00000000000001
 30
0.0
 40
2.5
  0
CIRCLE
  5
701E
330
6FE1
100
AcDbEntity
  8
0
100
AcDbCircle
 10
-99.99999999999994
 20
60.00000000000001
 30
0.0
 40
2.5
  0
CIRCLE
  5
701F
330
6FE1
100
AcDbEntity
  8
0
100
AcDbCircle
 10
-99.99999999999994
 20
80.00000000000001
 30
0.0
 40
2.5
  0
CIRCLE
  5
7020
330
6FE1
100
AcDbEntity
  8
0
100
AcDbCircle
 10
100.0
 20
100.0
 30
0.0
 40
2.5
  0
CIRCLE
  5
7021
330
6FE1
100
AcDbEntity
  8
0
100
AcDbCircle
 10
60.00000000000006
 20
100.0
 30
0.0
 40
2.5
  0
CIRCLE
  5
7022
330
6FE1
100
AcDbEntity
  8
0
100
AcDbCircle
 10
20.00000000000006
 20
100.0
 30
0.0
 40
2.5
  0
CIRCLE
  5
7023
330
6FE1
100
AcDbEntity
  8
0
100
AcDbCircle
 10
-19.99999999999994
 20
100.0
 30
0.0
 40
2.5
  0
CIRCLE
  5
7024
330
6FE1
100
AcDbEntity
  8
0
100
AcDbCircle
 10
-59.99999999999994
 20
100.0
 30
0.0
 40
2.5
  0
CIRCLE
  5
7025
330
6FE1
100
AcDbEntity
  8
0
100
AcDbCircle
 10
-99.99999999999994
 20
100.0
 30
0.0
 40
2.5
  0
CIRCLE
  5
7026
330
6FE1
100
AcDbEntity
  8
0
100
AcDbCircle
 10
120.0
 20
-110.0
 30
0.0
 40
2.5
  0
CIRCLE
  5
7027
330
6FE1
100
AcDbEntity
  8
0
100
AcDbCircle
 10
80.00000000000001
 20
-110.0
 30
0.0
 40
2.5
  0
CIRCLE
  5
7028
330
6FE1
100
AcDbEntity
  8
0
100
AcDbCircle
 10
40.0
 20
-110.0
 30
0.0
 40
2.5
  0
CIRCLE
  5
7029
330
6FE1
100
AcDbEntity
  8
0
100
AcDbCircle
 10
0.0000000000000111
 20
-110.0
 30
0.0
 40
2.5
  0
CIRCLE
  5
702A
330
6FE1
100
AcDbEntity
  8
0
100
AcDbCircle
 10
-39.99999999999999
 20
-110.0
 30
0.0
 40
2.5
  0
CIRCLE
  5
702B
330
6FE1
100
AcDbEntity
  8
0
100
AcDbCircle
 10
-79.99999999999999
 20
-110.0
 30
0.0
 40
2.5
  0
CIRCLE
  5
702C
330
6FE1
100
AcDbEntity
  8
0
100
AcDbCircle
 10
120.0
 20
-90.00000000000001
 30
0.0
 40
2.5
  0
CIRCLE
  5
702D
330
6FE1
100
AcDbEntity
  8
0
100
AcDbCircle
 10
80.00000000000001
 20
-90.00000000000001
 30
0.0
 40
2.5
  0
CIRCLE
  5
702E
330
6FE1
100
AcDbEntity
  8
0
100
AcDbCircle
 10
40.00000000000001
 20
-90.0
 30
0.0
 40
2.5
  0
CIRCLE
  5
702F
330
6FE1
100
AcDbEntity
  8
0
100
AcDbCircle
 10
0.0000000000000155
 20
-90.0
 30
0.0
 40
2.5
  0
CIRCLE
  5
7030
330
6FE1
100
AcDbEntity
  8
0
100
AcDbCircle
 10
-39.99999999999999
 20
-90.0
 30
0.0
 40
2.5
  0
CIRCLE
  5
7031
330
6FE1
100
AcDbEntity
  8
0
100
AcDbCircle
 10
-79.99999999999999
 20
-89.99999999999998
 30
0.0
 40
2.5
  0
CIRCLE
  5
7032
330
6FE1
100
AcDbEntity
  8
0
100
AcDbCircle
 10
120.0
 20
-70.00000000000003
 30
0.0
 40
2.5
  0
CIRCLE
  5
7033
330
6FE1
100
AcDbEntity
  8
0
100
AcDbCircle
 10
80.00000000000001
 20
-70.00000000000001
 30
0.0
 40
2.5
  0
CIRCLE
  5
7034
330
6FE1
100
AcDbEntity
  8
0
100
AcDbCircle
 10
40.00000000000001
 20
-70.00000000000001
 30
0.0
 40
2.5
  0
CIRCLE
  5
7035
330
6FE1
100
AcDbEntity
  8
0
100
AcDbCircle
 10
0.00000000000002
 20
-70.0
 30
0.0
 40
2.5
  0
CIRCLE
  5
7036
330
6FE1
100
AcDbEntity
  8
0
100
AcDbCircle
 10
-39.99999999999998
 20
-69.99999999999999
 30
0.0
 40
2.5
  0
CIRCLE
  5
7037
330
6FE1
100
AcDbEntity
  8
0
100
AcDbCircle
 10
-79.99999999999999
 20
-69.99999999999999
 30
0.0
 40
2.5
  0
CIRCLE
  5
7038
330
6FE1
100
AcDbEntity
  8
0
100
AcDbCircle
 10
120.0
 20
-50.00000000000003
 30
0.0
 40
2.5
  0
CIRCLE
  5
7039
330
6FE1
100
AcDbEntity
  8
0
100
AcDbCircle
 10
80.00000000000001
 20
-50.00000000000001
 30
0.0
 40
2.5
  0
CIRCLE
  5
703A
330
6FE1
100
AcDbEntity
  8
0
100
AcDbCircle
 10
40.00000000000002
 20
-50.0
 30
0.0
 40
2.5
  0
CIRCLE
  5
703B
330
6FE1
100
AcDbEntity
  8
0
100
AcDbCircle
 10
0.0000000000000244
 20
-50.0
 30
0.0
 40
2.5
  0
CIRCLE
  5
703C
330
6FE1
100
AcDbEntity
  8
0
100
AcDbCircle
 10
-39.99999999999997
 20
-50.0
 30
0.0
 40
2.5
  0
CIRCLE
  5
703D
330
6FE1
100
AcDbEntity
  8
0
100
AcDbCircle
 10
-79.99999999999997
 20
-49.99999999999999
 30
0.0
 40
2.5
  0
CIRCLE
  5
703E
330
6FE1
100
AcDbEntity
  8
0
100
AcDbCircle
 10
120.0
 20
-30.00000000000003
 30
0.0
 40
2.5
  0
CIRCLE
  5
703F
330
6FE1
100
AcDbEntity
  8
0
100
AcDbCircle
 10
80.00000000000003
 20
-30.00000000000002
 30
0.0
 40
2.5
  0
CIRCLE
  5
7040
330
6FE1
100
AcDbEntity
  8
0
100
AcDbCircle
 10
40.00000000000002
 20
-30.00000000000001
 30
0.0
 40
2.5
  0
CIRCLE
  5
7041
330
6FE1
100
AcDbEntity
  8
0
100
AcDbCircle
 10
0.0000000000000289
 20
-30.0
 30
0.0
 40
2.5
  0
CIRCLE
  5
7042
330
6FE1
100
AcDbEntity
  8
0
100
AcDbCircle
 10
-39.99999999999997
 20
-30.0
 30
0.0
 40
2.5
  0
CIRCLE
  5
7043
330
6FE1
100
AcDbEntity
  8
0
100
AcDbCircle
 10
-79.99999999999997
 20
-29.99999999999998
 30
0.0
 40
2.5
  0
CIRCLE
  5
7044
330
6FE1
100
AcDbEntity
  8
0
100
AcDbCircle
 10
120.0
 20
-10.00000000000002
 30
0.0
 40
2.5
  0
CIRCLE
  5
7045
330
6FE1
100
AcDbEntity
  8
0
100
AcDbCircle
 10
80.00000000000003
 20
-10.00000000000001
 30
0.0
 40
2.5
  0
CIRCLE
  5
7046
330
6FE1
100
AcDbEntity
  8
0
100
AcDbCircle
 10
40.00000000000003
 20
-10.00000000000001
 30
0.0
 40
2.5
  0
CIRCLE
  5
7047
330
6FE1
100
AcDbEntity
  8
0
100
AcDbCircle
 10
0.0000000000000333
 20
-10.0
 30
0.0
 40
2.5
  0
CIRCLE
  5
7048
330
6FE1
100
AcDbEntity
  8
0
100
AcDbCircle
 10
-39.99999999999996
 20
-9.999999999999991
 30
0.0
 40
2.5
  0
CIRCLE
  5
7049
330
6FE1
100
AcDbEntity
  8
0
100
AcDbCircle
 10
-79.99999999999997
 20
-9.999999999999982
 30
0.0
 40
2.5
  0
CIRCLE
  5
704A
330
6FE1
100
AcDbEntity
  8
0
100
AcDbCircle
 10
120.0
 20
9.999999999999973
 30
0.0
 40
2.5
  0
CIRCLE
  5
704B
330
6FE1
100
AcDbEntity
  8
0
100
AcDbCircle
 10
80.00000000000003
 20
9.999999999999982
 30
0.0
 40
2.5
  0
CIRCLE
  5
704C
330
6FE1
100
AcDbEntity
  8
0
100
AcDbCircle
 10
40.00000000000003
 20
9.999999999999991
 30
0.0
 40
2.5
  0
CIRCLE
  5
704D
330
6FE1
100
AcDbEntity
  8
0
100
AcDbCircle
 10
0.0000000000000377
 20
10.0
 30
0.0
 40
2.5
  0
CIRCLE
  5
704E
330
6FE1
100
AcDbEntity
  8
0
100
AcDbCircle
 10
-39.99999999999996
 20
10.00000000000001
 30
0.0
 40
2.5
  0
CIRCLE
  5
704F
330
6FE1
100
AcDbEntity
  8
0
100
AcDbCircle
 10
-79.99999999999997
 20
10.00000000000001
 30
0.0
 40
2.5
  0
CIRCLE
  5
7050
330
6FE1
100
AcDbEntity
  8
0
100
AcDbCircle
 10
120.0
 20
29.99999999999997
 30
0.0
 40
2.5
  0
CIRCLE
  5
7051
330
6FE1
100
AcDbEntity
  8
0
100
AcDbCircle
 10
80.00000000000003
 20
29.99999999999998
 30
0.0
 40
2.5
  0
CIRCLE
  5
7052
330
6FE1
100
AcDbEntity
  8
0
100
AcDbCircle
 10
40.00000000000004
 20
30.0
 30
0.0
 40
2.5
  0
CIRCLE
  5
7053
330
6FE1
100
AcDbEntity
  8
0
100
AcDbCircle
 10
0.0000000000000422
 20
30.0
 30
0.0
 40
2.5
  0
CIRCLE
  5
7054
330
6FE1
100
AcDbEntity
  8
0
100
AcDbCircle
 10
-39.99999999999996
 20
30.00000000000001
 30
0.0
 40
2.5
  0
CIRCLE
  5
7055
330
6FE1
100
AcDbEntity
  8
0
100
AcDbCircle
 10
-79.99999999999996
 20
30.00000000000002
 30
0.0
 40
2.5
  0
CIRCLE
  5
7056
330
6FE1
100
AcDbEntity
  8
0
100
AcDbCircle
 10
120.0
 20
49.99999999999997
 30
0.0
 40
2.5
  0
CIRCLE
  5
7057
330
6FE1
100
AcDbEntity
  8
0
100
AcDbCircle
 10
80.00000000000005
 20
49.99999999999999
 30
0.0
 40
2.5
  0
CIRCLE
  5
7058
330
6FE1
100
AcDbEntity
  8
0
100
AcDbCircle
 10
40.00000000000004
 20
50.0
 30
0.0
 40
2.5
  0
CIRCLE
  5
7059
330
6FE1
100
AcDbEntity
  8
0
100
AcDbCircle
 10
0.0000000000000466
 20
50.0
 30
0.0
 40
2.5
  0
CIRCLE
  5
705A
330
6FE1
100
AcDbEntity
  8
0
100
AcDbCircle
 10
-39.99999999999996
 20
50.0
 30
0.0
 40
2.5
  0
CIRCLE
  5
705B
330
6FE1
100
AcDbEntity
  8
0
100
AcDbCircle
 10
-79.99999999999996
 20
50.00000000000001
 30
0.0
 40
2.5
  0
CIRCLE
  5
705C
330
6FE1
100
AcDbEntity
  8
0
100
AcDbCircle
 10
120.0
 20
69.99999999999997
 30
0.0
 40
2.5
  0
CIRCLE
  5
705D
330
6FE1
100
AcDbEntity
  8
0
100
AcDbCircle
 10
80.00000000000005
 20
69.99999999999999
 30
0.0
 40
2.5
  0
CIRCLE
  5
705E
330
6FE1
100
AcDbEntity
  8
0
100
AcDbCircle
 10
40.00000000000006
 20
69.99999999999999
 30
0.0
 40
2.5
  0
CIRCLE
  5
705F
330
6FE1
100
AcDbEntity
  8
0
100
AcDbCircle
 10
0.0000000000000511
 20
70.0
 30
0.0
 40
2.5
  0
CIRCLE
  5
7060
330
6FE1
100
AcDbEntity
  8
0
100
AcDbCircle
 10
-39.99999999999995
 20
70.00000000000001
 30
0.0
 40
2.5
  0
CIRCLE
  5
7061
330
6FE1
100
AcDbEntity
  8
0
100
AcDbCircle
 10
-79.99999999999994
 20
70.00000000000001
 30
0.0
 40
2.5
  0
CIRCLE
  5
7062
330
6FE1
100
AcDbEntity
  8
0
100
AcDbCircle
 10
120.0
 20
89.99999999999998
 30
0.0
 40
2.5
  0
CIRCLE
  5
7063
330
6FE1
100
AcDbEntity
  8
0
100
AcDbCircle
 10
80.00000000000005
 20
89.99999999999998
 30
0.0
 40
2.5
  0
CIRCLE
  5
7064
330
6FE1
100
AcDbEntity
  8
0
100
AcDbCircle
 10
40.00000000000006
 20
90.0
 30
0.0
 40
2.5
  0
CIRCLE
  5
7065
330
6FE1
100
AcDbEntity
  8
0
100
AcDbCircle
 10
0.0000000000000555
 20
90.0
 30
0.0
 40
2.5
  0
CIRCLE
  5
7066
330
6FE1
100
AcDbEntity
  8
0
100
AcDbCircle
 10
-39.99999999999995
 20
90.0
 30
0.0
 40
2.5
  0
CIRCLE
  5
7067
330
6FE1
100
AcDbEntity
  8
0
100
AcDbCircle
 10
-79.99999999999994
 20
90.00000000000001
 30
0.0
 40
2.5
  0
CIRCLE
  5
7068
330
6FE1
100
AcDbEntity
  8
0
100
AcDbCircle
 10
-120.0
 20
-110.0
 30
0.0
 40
2.5
  0
CIRCLE
  5
7069
330
6FE1
100
AcDbEntity
  8
0
100
AcDbCircle
 10
-120.0
 20
-89.99999999999998
 30
0.0
 40
2.5
  0
CIRCLE
  5
706A
330
6FE1
100
AcDbEntity
  8
0
100
AcDbCircle
 10
-120.0
 20
-69.99999999999997
 30
0.0
 40
2.5
  0
CIRCLE
  5
706B
330
6FE1
100
AcDbEntity
  8
0
100
AcDbCircle
 10
-120.0
 20
-49.99999999999997
 30
0.0
 40
2.5
  0
CIRCLE
  5
706C
330
6FE1
100
AcDbEntity
  8
0
100
AcDbCircle
 10
-119.9999999999999
 20
-29.99999999999997
 30
0.0
 40
2.5
  0
CIRCLE
  5
706D
330
6FE1
100
AcDbEntity
  8
0
100
AcDbCircle
 10
-119.9999999999999
 20
-9.999999999999973
 30
0.0
 40
2.5
  0
CIRCLE
  5
706E
330
6FE1
100
AcDbEntity
  8
0
100
AcDbCircle
 10
-119.9999999999999
 20
10.00000000000002
 30
0.0
 40
2.5
  0
CIRCLE
  5
706F
330
6FE1
100
AcDbEntity
  8
0
100
AcDbCircle
 10
-119.9999999999999
 20
30.00000000000003
 30
0.0
 40
2.5
  0
CIRCLE
  5
7070
330
6FE1
100
AcDbEntity
  8
0
100
AcDbCircle
 10
-119.9999999999999
 20
50.00000000000003
 30
0.0
 40
2.5
  0
CIRCLE
  5
7071
330
6FE1
100
AcDbEntity
  8
0
100
AcDbCircle
 10
-119.9999999999999
 20
70.00000000000003
 30
0.0
 40
2.5
  0
CIRCLE
  5
7072
330
6FE1
100
AcDbEntity
  8
0
100
AcDbCircle
 10
-119.9999999999999
 20
90.00000000000001
 30
0.0
 40
2.5
  0
CIRCLE
  5
7073
330
6FE1
100
AcDbEntity
  8
0
100
AcDbCircle
 10
120.0
 20
110.0
 30
0.0
 40
2.5
  0
CIRCLE
  5
7074
330
6FE1
100
AcDbEntity
  8
0
100
AcDbCircle
 10
80.00000000000005
 20
110.0
 30
0.0
 40
2.5
  0
CIRCLE
  5
7075
330
6FE1
100
AcDbEntity
  8
0
100
AcDbCircle
 10
40.00000000000006
 20
110.0
 30
0.0
 40
2.5
  0
CIRCLE
  5
7076
330
6FE1
100
AcDbEntity
  8
0
100
AcDbCircle
 10
0.00000000000006
 20
110.0
 30
0.0
 40
2.5
  0
CIRCLE
  5
7077
330
6FE1
100
AcDbEntity
  8
0
100
AcDbCircle
 10
-39.99999999999995
 20
110.0
 30
0.0
 40
2.5
  0
CIRCLE
  5
7078
330
6FE1
100
AcDbEntity
  8
0
100
AcDbCircle
 10
-79.99999999999994
 20
110.0
 30
0.0
 40
2.5
  0
CIRCLE
  5
7079
330
6FE1
100
AcDbEntity
  8
0
100
AcDbCircle
 10
-119.9999999999999
 20
110.0
 30
0.0
 40
2.5
  0
LINE
  5
707A
330
6FE1
100
AcDbEntity
  8
0
100
AcDbLine
 10
130.0
 20
-120.0
 30
0.0
 11
129.9999999999999
 21
119.9999999999999
 31
0.0
  0
LINE
  5
707B
330
6FE1
100
AcDbEntity
  8
0
100
AcDbLine
 10
129.9999999999999
 20
119.9999999999999
 30
0.0
 11
-129.9999999999999
 21
120.0
 31
0.0
  0
LINE
  5
707C
330
6FE1
100
AcDbEntity
  8
0
100
AcDbLine
 10
-129.9999999999999
 20
120.0
 30
0.0
 11
-130.0
 21
-119.9999999999999
 31
0.0
  0
LINE
  5
707D
330
6FE1
100
AcDbEntity
  8
0
100
AcDbLine
 10
-130.0
 20
-119.9999999999999
 30
0.0
 11
130.0
 21
-120.0
 31
0.0
  0
ENDBLK
  5
6FE3
330
6FE1
100
AcDbEntity
  8
0
100
AcDbBlockEnd
  0
BLOCK
  5
707F
330
707E
100
AcDbEntity
  8
0
100
AcDbBlockBegin
  2
NP15_240_260-ISO
 70
     0
 10
0.0
 20
0.0
 30
0.0
  3
NP15_240_260-ISO
  1

  0
ELLIPSE
  5
7081
330
707E
100
AcDbEntity
  8
0
100
AcDbEllipse
 10
141.4213562373095
 20
0.6123724356957289
 30
0.0
 11
-2.5
 21
0.0000000000001496
 31
0.0
210
0.0
220
0.0
230
1.0
 40
0.5773502691896258
 41
0.0
 42
6.283185307179586
  0
ELLIPSE
  5
7082
330
707E
100
AcDbEntity
  8
0
100
AcDbEllipse
 10
141.4213562373095
 20
-0.6123724356958605
 30
0.0
 11
-2.499999999999999
 21
-0.0000000000001487
 31
0.0
210
0.0
220
0.0
230
1.0
 40
0.5773502691896259
 41
3.579741684173548
 42
5.845036276594999
  0
ELLIPSE
  5
7083
330
707E
100
AcDbEntity
  8
0
100
AcDbEllipse
 10
113.1370849898476
 20
16.94230405425025
 30
0.0
 11
-2.5
 21
0.0000000000001496
 31
0.0
210
0.0
220
0.0
230
1.0
 40
0.5773502691896258
 41
0.0
 42
6.283185307179586
  0
ELLIPSE
  5
7084
330
707E
100
AcDbEntity
  8
0
100
AcDbEllipse
 10
113.1370849898476
 20
15.71755918285865
 30
0.0
 11
-2.5
 21
-0.000000000000149
 31
0.0
210
0.0
220
0.0
230
1.0
 40
0.5773502691896259
 41
3.579741684173542
 42
5.845036276594997
  0
ELLIPSE
  5
7085
330
707E
100
AcDbEntity
  8
0
100
AcDbEllipse
 10
84.85281374238569
 20
33.27223567280476
 30
0.0
 11
-2.5
 21
0.0000000000001496
 31
0.0
210
0.0
220
0.0
230
1.0
 40
0.5773502691896258
 41
0.0
 42
6.283185307179586
  0
ELLIPSE
  5
7086
330
707E
100
AcDbEntity
  8
0
100
AcDbEllipse
 10
84.85281374238569
 20
32.04749080141318
 30
0.0
 11
-2.5
 21
-0.0000000000001489
 31
0.0
210
0.0
220
0.0
230
1.0
 40
0.5773502691896257
 41
3.579741684173542
 42
5.845036276594997
  0
ELLIPSE
  5
7087
330
707E
100
AcDbEntity
  8
0
100
AcDbEllipse
 10
56.56854249492377
 20
49.60216729135928
 30
0.0
 11
-2.5
 21
0.0000000000001496
 31
0.0
210
0.0
220
0.0
230
1.0
 40
0.5773502691896258
 41
0.0
 42
6.283185307179586
  0
ELLIPSE
  5
7088
330
707E
100
AcDbEntity
  8
0
100
AcDbEllipse
 10
56.56854249492377
 20
48.37742241996768
 30
0.0
 11
-2.499999999999999
 21
-0.0000000000001487
 31
0.0
210
0.0
220
0.0
230
1.0
 40
0.5773502691896259
 41
3.579741684173548
 42
5.845036276595002
  0
ELLIPSE
  5
7089
330
707E
100
AcDbEntity
  8
0
100
AcDbEllipse
 10
28.28427124746188
 20
65.93209890991379
 30
0.0
 11
-2.5
 21
0.0000000000001496
 31
0.0
210
0.0
220
0.0
230
1.0
 40
0.5773502691896258
 41
0.0
 42
6.283185307179586
  0
ELLIPSE
  5
708A
330
707E
100
AcDbEntity
  8
0
100
AcDbEllipse
 10
28.28427124746188
 20
64.7073540385222
 30
0.0
 11
-2.5
 21
-0.000000000000149
 31
0.0
210
0.0
220
0.0
230
1.0
 40
0.5773502691896259
 41
3.579741684173542
 42
5.845036276594997
  0
ELLIPSE
  5
708B
330
707E
100
AcDbEntity
  8
0
100
AcDbEllipse
 10
127.2792206135785
 20
-7.552593373581528
 30
0.0
 11
-2.5
 21
0.0000000000001496
 31
0.0
210
0.0
220
0.0
230
1.0
 40
0.5773502691896258
 41
0.0
 42
6.283185307179586
  0
ELLIPSE
  5
708C
330
707E
100
AcDbEntity
  8
0
100
AcDbEllipse
 10
127.2792206135785
 20
-8.777338244973119
 30
0.0
 11
-2.499999999999999
 21
-0.0000000000001487
 31
0.0
210
0.0
220
0.0
230
1.0
 40
0.5773502691896259
 41
3.579741684173548
 42
5.845036276595002
  0
ELLIPSE
  5
708D
330
707E
100
AcDbEntity
  8
0
100
AcDbEllipse
 10
98.99494936611667
 20
8.777338244972987
 30
0.0
 11
-2.5
 21
0.0000000000001496
 31
0.0
210
0.0
220
0.0
230
1.0
 40
0.5773502691896258
 41
0.0
 42
6.283185307179586
  0
ELLIPSE
  5
708E
330
707E
100
AcDbEntity
  8
0
100
AcDbEllipse
 10
98.99494936611667
 20
7.552593373581397
 30
0.0
 11
-2.5
 21
-0.000000000000149
 31
0.0
210
0.0
220
0.0
230
1.0
 40
0.5773502691896259
 41
3.579741684173542
 42
5.845036276595001
  0
ELLIPSE
  5
708F
330
707E
100
AcDbEntity
  8
0
100
AcDbEllipse
 10
70.71067811865474
 20
25.10726986352751
 30
0.0
 11
-2.5
 21
0.0000000000001496
 31
0.0
210
0.0
220
0.0
230
1.0
 40
0.5773502691896258
 41
0.0
 42
6.283185307179586
  0
ELLIPSE
  5
7090
330
707E
100
AcDbEntity
  8
0
100
AcDbEllipse
 10
70.71067811865474
 20
23.88252499213591
 30
0.0
 11
-2.5
 21
-0.0000000000001489
 31
0.0
210
0.0
220
0.0
230
1.0
 40
0.5773502691896257
 41
3.579741684173546
 42
5.845036276595004
  0
ELLIPSE
  5
7091
330
707E
100
AcDbEntity
  8
0
100
AcDbEllipse
 10
42.42640687119282
 20
41.43720148208202
 30
0.0
 11
-2.5
 21
0.0000000000001496
 31
0.0
210
0.0
220
0.0
230
1.0
 40
0.5773502691896258
 41
0.0
 42
6.283185307179586
  0
ELLIPSE
  5
7092
330
707E
100
AcDbEntity
  8
0
100
AcDbEllipse
 10
42.42640687119282
 20
40.21245661069042
 30
0.0
 11
-2.499999999999999
 21
-0.0000000000001487
 31
0.0
210
0.0
220
0.0
230
1.0
 40
0.5773502691896259
 41
3.579741684173548
 42
5.845036276595004
  0
ELLIPSE
  5
7093
330
707E
100
AcDbEntity
  8
0
100
AcDbEllipse
 10
14.14213562373092
 20
57.76713310063652
 30
0.0
 11
-2.5
 21
0.0000000000001496
 31
0.0
210
0.0
220
0.0
230
1.0
 40
0.5773502691896258
 41
0.0
 42
6.283185307179586
  0
ELLIPSE
  5
7094
330
707E
100
AcDbEntity
  8
0
100
AcDbEllipse
 10
14.14213562373092
 20
56.54238822924494
 30
0.0
 11
-2.5
 21
-0.000000000000149
 31
0.0
210
0.0
220
0.0
230
1.0
 40
0.5773502691896259
 41
3.579741684173542
 42
5.845036276595003
  0
ELLIPSE
  5
7095
330
707E
100
AcDbEntity
  8
0
100
AcDbEllipse
 10
113.1370849898476
 20
-15.71755918285879
 30
0.0
 11
-2.5
 21
0.0000000000001496
 31
0.0
210
0.0
220
0.0
230
1.0
 40
0.5773502691896258
 41
0.0
 42
6.283185307179586
  0
ELLIPSE
  5
7096
330
707E
100
AcDbEntity
  8
0
100
AcDbEllipse
 10
113.1370849898476
 20
-16.94230405425038
 30
0.0
 11
-2.499999999999999
 21
-0.0000000000001487
 31
0.0
210
0.0
220
0.0
230
1.0
 40
0.5773502691896259
 41
3.579741684173548
 42
5.845036276595001
  0
ELLIPSE
  5
7097
330
707E
100
AcDbEntity
  8
0
100
AcDbEllipse
 10
84.85281374238569
 20
0.6123724356957245
 30
0.0
 11
-2.5
 21
0.0000000000001496
 31
0.0
210
0.0
220
0.0
230
1.0
 40
0.5773502691896258
 41
0.0
 42
6.283185307179586
  0
ELLIPSE
  5
7098
330
707E
100
AcDbEntity
  8
0
100
AcDbEllipse
 10
84.85281374238569
 20
-0.6123724356958649
 30
0.0
 11
-2.499999999999999
 21
-0.0000000000001487
 31
0.0
210
0.0
220
0.0
230
1.0
 40
0.5773502691896259
 41
3.579741684173548
 42
5.845036276594999
  0
ELLIPSE
  5
7099
330
707E
100
AcDbEntity
  8
0
100
AcDbEllipse
 10
56.56854249492379
 20
16.94230405425024
 30
0.0
 11
-2.5
 21
0.0000000000001496
 31
0.0
210
0.0
220
0.0
230
1.0
 40
0.5773502691896258
 41
0.0
 42
6.283185307179586
  0
ELLIPSE
  5
709A
330
707E
100
AcDbEntity
  8
0
100
AcDbEllipse
 10
56.56854249492379
 20
15.71755918285865
 30
0.0
 11
-2.499999999999999
 21
-0.0000000000001487
 31
0.0
210
0.0
220
0.0
230
1.0
 40
0.5773502691896259
 41
3.579741684173548
 42
5.845036276594999
  0
ELLIPSE
  5
709B
330
707E
100
AcDbEntity
  8
0
100
AcDbEllipse
 10
28.28427124746188
 20
33.27223567280475
 30
0.0
 11
-2.5
 21
0.0000000000001496
 31
0.0
210
0.0
220
0.0
230
1.0
 40
0.5773502691896258
 41
0.0
 42
6.283185307179586
  0
ELLIPSE
  5
709C
330
707E
100
AcDbEntity
  8
0
100
AcDbEllipse
 10
28.28427124746188
 20
32.04749080141317
 30
0.0
 11
-2.5
 21
-0.0000000000001487
 31
0.0
210
0.0
220
0.0
230
1.0
 40
0.5773502691896258
 41
3.57974168417355
 42
5.845036276595
  0
ELLIPSE
  5
709D
330
707E
100
AcDbEntity
  8
0
100
AcDbEllipse
 10
-0.0000000000000242
 20
49.60216729135926
 30
0.0
 11
-2.5
 21
0.0000000000001496
 31
0.0
210
0.0
220
0.0
230
1.0
 40
0.5773502691896258
 41
0.0
 42
6.283185307179586
  0
ELLIPSE
  5
709E
330
707E
100
AcDbEntity
  8
0
100
AcDbEllipse
 10
-0.0000000000000242
 20
48.37742241996767
 30
0.0
 11
-2.499999999999999
 21
-0.0000000000001487
 31
0.0
210
0.0
220
0.0
230
1.0
 40
0.5773502691896259
 41
3.57974168417355
 42
5.845036276594997
  0
ELLIPSE
  5
709F
330
707E
100
AcDbEntity
  8
0
100
AcDbEllipse
 10
98.99494936611667
 20
-23.88252499213605
 30
0.0
 11
-2.5
 21
0.0000000000001496
 31
0.0
210
0.0
220
0.0
230
1.0
 40
0.5773502691896258
 41
0.0
 42
6.283185307179586
  0
ELLIPSE
  5
70A0
330
707E
100
AcDbEntity
  8
0
100
AcDbEllipse
 10
98.99494936611667
 20
-25.10726986352764
 30
0.0
 11
-2.499999999999999
 21
-0.0000000000001487
 31
0.0
210
0.0
220
0.0
230
1.0
 40
0.5773502691896259
 41
3.579741684173546
 42
5.845036276594997
  0
ELLIPSE
  5
70A1
330
707E
100
AcDbEntity
  8
0
100
AcDbEllipse
 10
70.71067811865474
 20
-7.552593373581535
 30
0.0
 11
-2.5
 21
0.0000000000001496
 31
0.0
210
0.0
220
0.0
230
1.0
 40
0.5773502691896258
 41
0.0
 42
6.283185307179586
  0
ELLIPSE
  5
70A2
330
707E
100
AcDbEntity
  8
0
100
AcDbEllipse
 10
70.71067811865474
 20
-8.777338244973124
 30
0.0
 11
-2.499999999999999
 21
-0.0000000000001487
 31
0.0
210
0.0
220
0.0
230
1.0
 40
0.5773502691896259
 41
3.579741684173546
 42
5.845036276594997
  0
ELLIPSE
  5
70A3
330
707E
100
AcDbEntity
  8
0
100
AcDbEllipse
 10
42.42640687119284
 20
8.777338244972979
 30
0.0
 11
-2.5
 21
0.0000000000001496
 31
0.0
210
0.0
220
0.0
230
1.0
 40
0.5773502691896258
 41
0.0
 42
6.283185307179586
  0
ELLIPSE
  5
70A4
330
707E
100
AcDbEntity
  8
0
100
AcDbEllipse
 10
42.42640687119284
 20
7.552593373581389
 30
0.0
 11
-2.499999999999999
 21
-0.0000000000001487
 31
0.0
210
0.0
220
0.0
230
1.0
 40
0.5773502691896259
 41
3.579741684173546
 42
5.845036276594997
  0
ELLIPSE
  5
70A5
330
707E
100
AcDbEntity
  8
0
100
AcDbEllipse
 10
14.14213562373094
 20
25.10726986352749
 30
0.0
 11
-2.5
 21
0.0000000000001496
 31
0.0
210
0.0
220
0.0
230
1.0
 40
0.5773502691896258
 41
0.0
 42
6.283185307179586
  0
ELLIPSE
  5
70A6
330
707E
100
AcDbEntity
  8
0
100
AcDbEllipse
 10
14.14213562373094
 20
23.8825249921359
 30
0.0
 11
-2.5
 21
-0.0000000000001487
 31
0.0
210
0.0
220
0.0
230
1.0
 40
0.5773502691896258
 41
3.579741684173546
 42
5.845036276594997
  0
ELLIPSE
  5
70A7
330
707E
100
AcDbEntity
  8
0
100
AcDbEllipse
 10
-14.14213562373097
 20
41.43720148208202
 30
0.0
 11
-2.5
 21
0.0000000000001496
 31
0.0
210
0.0
220
0.0
230
1.0
 40
0.5773502691896258
 41
0.0
 42
6.283185307179586
  0
ELLIPSE
  5
70A8
330
707E
100
AcDbEntity
  8
0
100
AcDbEllipse
 10
-14.14213562373097
 20
40.21245661069042
 30
0.0
 11
-2.499999999999999
 21
-0.0000000000001487
 31
0.0
210
0.0
220
0.0
230
1.0
 40
0.5773502691896259
 41
3.57974168417355
 42
5.845036276594997
  0
ELLIPSE
  5
70A9
330
707E
100
AcDbEntity
  8
0
100
AcDbEllipse
 10
84.85281374238571
 20
-32.04749080141332
 30
0.0
 11
-2.5
 21
0.0000000000001496
 31
0.0
210
0.0
220
0.0
230
1.0
 40
0.5773502691896258
 41
0.0
 42
6.283185307179586
  0
ELLIPSE
  5
70AA
330
707E
100
AcDbEntity
  8
0
100
AcDbEllipse
 10
84.85281374238571
 20
-33.27223567280491
 30
0.0
 11
-2.5
 21
-0.0000000000001491
 31
0.0
210
0.0
220
0.0
230
1.0
 40
0.5773502691896259
 41
3.579741684173544
 42
5.845036276594998
  0
ELLIPSE
  5
70AB
330
707E
100
AcDbEntity
  8
0
100
AcDbEllipse
 10
56.5685424949238
 20
-15.71755918285879
 30
0.0
 11
-2.5
 21
0.0000000000001496
 31
0.0
210
0.0
220
0.0
230
1.0
 40
0.5773502691896258
 41
0.0
 42
6.283185307179586
  0
ELLIPSE
  5
70AC
330
707E
100
AcDbEntity
  8
0
100
AcDbEllipse
 10
56.5685424949238
 20
-16.94230405425038
 30
0.0
 11
-2.5
 21
-0.0000000000001491
 31
0.0
210
0.0
220
0.0
230
1.0
 40
0.5773502691896259
 41
3.579741684173544
 42
5.845036276594993
  0
ELLIPSE
  5
70AD
330
707E
100
AcDbEntity
  8
0
100
AcDbEllipse
 10
28.2842712474619
 20
0.6123724356957178
 30
0.0
 11
-2.5
 21
0.0000000000001496
 31
0.0
210
0.0
220
0.0
230
1.0
 40
0.5773502691896258
 41
0.0
 42
6.283185307179586
  0
ELLIPSE
  5
70AE
330
707E
100
AcDbEntity
  8
0
100
AcDbEllipse
 10
28.2842712474619
 20
-0.6123724356958716
 30
0.0
 11
-2.5
 21
-0.0000000000001491
 31
0.0
210
0.0
220
0.0
230
1.0
 40
0.5773502691896259
 41
3.579741684173544
 42
5.845036276594997
  0
ELLIPSE
  5
70AF
330
707E
100
AcDbEntity
  8
0
100
AcDbEllipse
 10
-0.0000000000000064
 20
16.94230405425023
 30
0.0
 11
-2.5
 21
0.0000000000001496
 31
0.0
210
0.0
220
0.0
230
1.0
 40
0.5773502691896258
 41
0.0
 42
6.283185307179586
  0
ELLIPSE
  5
70B0
330
707E
100
AcDbEntity
  8
0
100
AcDbEllipse
 10
-0.0000000000000064
 20
15.71755918285864
 30
0.0
 11
-2.5
 21
-0.000000000000149
 31
0.0
210
0.0
220
0.0
230
1.0
 40
0.5773502691896258
 41
3.579741684173548
 42
5.845036276594997
  0
ELLIPSE
  5
70B1
330
707E
100
AcDbEntity
  8
0
100
AcDbEllipse
 10
-28.28427124746191
 20
33.27223567280475
 30
0.0
 11
-2.5
 21
0.0000000000001496
 31
0.0
210
0.0
220
0.0
230
1.0
 40
0.5773502691896258
 41
0.0
 42
6.283185307179586
  0
ELLIPSE
  5
70B2
330
707E
100
AcDbEntity
  8
0
100
AcDbEllipse
 10
-28.28427124746191
 20
32.04749080141316
 30
0.0
 11
-2.5
 21
-0.0000000000001491
 31
0.0
210
0.0
220
0.0
230
1.0
 40
0.5773502691896259
 41
3.579741684173542
 42
5.845036276594993
  0
ELLIPSE
  5
70B3
330
707E
100
AcDbEntity
  8
0
100
AcDbEllipse
 10
70.71067811865477
 20
-40.21245661069058
 30
0.0
 11
-2.5
 21
0.0000000000001496
 31
0.0
210
0.0
220
0.0
230
1.0
 40
0.5773502691896258
 41
0.0
 42
6.283185307179586
  0
ELLIPSE
  5
70B4
330
707E
100
AcDbEntity
  8
0
100
AcDbEllipse
 10
70.71067811865477
 20
-41.43720148208216
 30
0.0
 11
-2.5
 21
-0.0000000000001494
 31
0.0
210
0.0
220
0.0
230
1.0
 40
0.5773502691896258
 41
3.579741684173541
 42
5.845036276594996
  0
ELLIPSE
  5
70B5
330
707E
100
AcDbEntity
  8
0
100
AcDbEllipse
 10
42.42640687119285
 20
-23.88252499213606
 30
0.0
 11
-2.5
 21
0.0000000000001496
 31
0.0
210
0.0
220
0.0
230
1.0
 40
0.5773502691896258
 41
0.0
 42
6.283185307179586
  0
ELLIPSE
  5
70B6
330
707E
100
AcDbEntity
  8
0
100
AcDbEllipse
 10
42.42640687119285
 20
-25.10726986352765
 30
0.0
 11
-2.5
 21
-0.0000000000001494
 31
0.0
210
0.0
220
0.0
230
1.0
 40
0.5773502691896258
 41
3.579741684173541
 42
5.845036276594992
  0
ELLIPSE
  5
70B7
330
707E
100
AcDbEntity
  8
0
100
AcDbEllipse
 10
14.14213562373095
 20
-7.552593373581544
 30
0.0
 11
-2.5
 21
0.0000000000001496
 31
0.0
210
0.0
220
0.0
230
1.0
 40
0.5773502691896258
 41
0.0
 42
6.283185307179586
  0
ELLIPSE
  5
70B8
330
707E
100
AcDbEntity
  8
0
100
AcDbEllipse
 10
14.14213562373095
 20
-8.777338244973133
 30
0.0
 11
-2.5
 21
-0.0000000000001494
 31
0.0
210
0.0
220
0.0
230
1.0
 40
0.5773502691896258
 41
3.579741684173544
 42
5.845036276594996
  0
ELLIPSE
  5
70B9
330
707E
100
AcDbEntity
  8
0
100
AcDbEllipse
 10
-14.14213562373095
 20
8.777338244972971
 30
0.0
 11
-2.5
 21
0.0000000000001496
 31
0.0
210
0.0
220
0.0
230
1.0
 40
0.5773502691896258
 41
0.0
 42
6.283185307179586
  0
ELLIPSE
  5
70BA
330
707E
100
AcDbEntity
  8
0
100
AcDbEllipse
 10
-14.14213562373095
 20
7.552593373581383
 30
0.0
 11
-2.5
 21
-0.0000000000001493
 31
0.0
210
0.0
220
0.0
230
1.0
 40
0.5773502691896259
 41
3.579741684173546
 42
5.845036276594997
  0
ELLIPSE
  5
70BB
330
707E
100
AcDbEntity
  8
0
100
AcDbEllipse
 10
-42.42640687119286
 20
25.10726986352749
 30
0.0
 11
-2.5
 21
0.0000000000001496
 31
0.0
210
0.0
220
0.0
230
1.0
 40
0.5773502691896258
 41
0.0
 42
6.283185307179586
  0
ELLIPSE
  5
70BC
330
707E
100
AcDbEntity
  8
0
100
AcDbEllipse
 10
-42.42640687119286
 20
23.8825249921359
 30
0.0
 11
-2.5
 21
-0.0000000000001494
 31
0.0
210
0.0
220
0.0
230
1.0
 40
0.5773502691896258
 41
3.579741684173541
 42
5.845036276594991
  0
ELLIPSE
  5
70BD
330
707E
100
AcDbEntity
  8
0
100
AcDbEllipse
 10
56.56854249492382
 20
-48.37742241996784
 30
0.0
 11
-2.5
 21
0.0000000000001496
 31
0.0
210
0.0
220
0.0
230
1.0
 40
0.5773502691896258
 41
0.0
 42
6.283185307179586
  0
ELLIPSE
  5
70BE
330
707E
100
AcDbEntity
  8
0
100
AcDbEllipse
 10
56.56854249492382
 20
-49.60216729135943
 30
0.0
 11
-2.5
 21
-0.0000000000001491
 31
0.0
210
0.0
220
0.0
230
1.0
 40
0.5773502691896259
 41
3.579741684173548
 42
5.845036276595002
  0
ELLIPSE
  5
70BF
330
707E
100
AcDbEntity
  8
0
100
AcDbEllipse
 10
28.28427124746191
 20
-32.04749080141333
 30
0.0
 11
-2.5
 21
0.0000000000001496
 31
0.0
210
0.0
220
0.0
230
1.0
 40
0.5773502691896258
 41
0.0
 42
6.283185307179586
  0
ELLIPSE
  5
70C0
330
707E
100
AcDbEntity
  8
0
100
AcDbEllipse
 10
28.28427124746191
 20
-33.27223567280491
 30
0.0
 11
-2.5
 21
-0.0000000000001491
 31
0.0
210
0.0
220
0.0
230
1.0
 40
0.5773502691896259
 41
3.579741684173542
 42
5.845036276594996
  0
ELLIPSE
  5
70C1
330
707E
100
AcDbEntity
  8
0
100
AcDbEllipse
 10
0.0000000000000069
 20
-15.7175591828588
 30
0.0
 11
-2.5
 21
0.0000000000001496
 31
0.0
210
0.0
220
0.0
230
1.0
 40
0.5773502691896258
 41
0.0
 42
6.283185307179586
  0
ELLIPSE
  5
70C2
330
707E
100
AcDbEntity
  8
0
100
AcDbEllipse
 10
0.0000000000000069
 20
-16.94230405425039
 30
0.0
 11
-2.5
 21
-0.0000000000001491
 31
0.0
210
0.0
220
0.0
230
1.0
 40
0.5773502691896259
 41
3.579741684173544
 42
5.845036276594996
  0
ELLIPSE
  5
70C3
330
707E
100
AcDbEntity
  8
0
100
AcDbEllipse
 10
-28.2842712474619
 20
0.6123724356957112
 30
0.0
 11
-2.5
 21
0.0000000000001496
 31
0.0
210
0.0
220
0.0
230
1.0
 40
0.5773502691896258
 41
0.0
 42
6.283185307179586
  0
ELLIPSE
  5
70C4
330
707E
100
AcDbEntity
  8
0
100
AcDbEllipse
 10
-28.2842712474619
 20
-0.6123724356958782
 30
0.0
 11
-2.5
 21
-0.0000000000001488
 31
0.0
210
0.0
220
0.0
230
1.0
 40
0.5773502691896258
 41
3.579741684173548
 42
5.845036276594999
  0
ELLIPSE
  5
70C5
330
707E
100
AcDbEntity
  8
0
100
AcDbEllipse
 10
-56.56854249492382
 20
16.94230405425023
 30
0.0
 11
-2.5
 21
0.0000000000001496
 31
0.0
210
0.0
220
0.0
230
1.0
 40
0.5773502691896258
 41
0.0
 42
6.283185307179586
  0
ELLIPSE
  5
70C6
330
707E
100
AcDbEntity
  8
0
100
AcDbEllipse
 10
-56.56854249492382
 20
15.71755918285863
 30
0.0
 11
-2.5
 21
-0.0000000000001491
 31
0.0
210
0.0
220
0.0
230
1.0
 40
0.5773502691896259
 41
3.579741684173544
 42
5.845036276594996
  0
ELLIPSE
  5
70C7
330
707E
100
AcDbEntity
  8
0
100
AcDbEllipse
 10
42.42640687119286
 20
-56.54238822924511
 30
0.0
 11
-2.5
 21
0.0000000000001496
 31
0.0
210
0.0
220
0.0
230
1.0
 40
0.5773502691896258
 41
0.0
 42
6.283185307179586
  0
ELLIPSE
  5
70C8
330
707E
100
AcDbEntity
  8
0
100
AcDbEllipse
 10
42.42640687119286
 20
-57.76713310063669
 30
0.0
 11
-2.5
 21
-0.0000000000001491
 31
0.0
210
0.0
220
0.0
230
1.0
 40
0.5773502691896259
 41
3.579741684173548
 42
5.845036276594996
  0
ELLIPSE
  5
70C9
330
707E
100
AcDbEntity
  8
0
100
AcDbEllipse
 10
14.14213562373096
 20
-40.21245661069058
 30
0.0
 11
-2.5
 21
0.0000000000001496
 31
0.0
210
0.0
220
0.0
230
1.0
 40
0.5773502691896258
 41
0.0
 42
6.283185307179586
  0
ELLIPSE
  5
70CA
330
707E
100
AcDbEntity
  8
0
100
AcDbEllipse
 10
14.14213562373096
 20
-41.43720148208217
 30
0.0
 11
-2.5
 21
-0.0000000000001491
 31
0.0
210
0.0
220
0.0
230
1.0
 40
0.5773502691896259
 41
3.579741684173548
 42
5.845036276594997
  0
ELLIPSE
  5
70CB
330
707E
100
AcDbEntity
  8
0
100
AcDbEllipse
 10
-14.14213562373094
 20
-23.88252499213607
 30
0.0
 11
-2.5
 21
0.0000000000001496
 31
0.0
210
0.0
220
0.0
230
1.0
 40
0.5773502691896258
 41
0.0
 42
6.283185307179586
  0
ELLIPSE
  5
70CC
330
707E
100
AcDbEntity
  8
0
100
AcDbEllipse
 10
-14.14213562373094
 20
-25.10726986352766
 30
0.0
 11
-2.5
 21
-0.0000000000001491
 31
0.0
210
0.0
220
0.0
230
1.0
 40
0.5773502691896259
 41
3.579741684173542
 42
5.845036276594996
  0
ELLIPSE
  5
70CD
330
707E
100
AcDbEntity
  8
0
100
AcDbEllipse
 10
-42.42640687119284
 20
-7.552593373581551
 30
0.0
 11
-2.5
 21
0.0000000000001496
 31
0.0
210
0.0
220
0.0
230
1.0
 40
0.5773502691896258
 41
0.0
 42
6.283185307179586
  0
ELLIPSE
  5
70CE
330
707E
100
AcDbEntity
  8
0
100
AcDbEllipse
 10
-42.42640687119284
 20
-8.777338244973138
 30
0.0
 11
-2.5
 21
-0.000000000000149
 31
0.0
210
0.0
220
0.0
230
1.0
 40
0.5773502691896258
 41
3.579741684173546
 42
5.845036276594997
  0
ELLIPSE
  5
70CF
330
707E
100
AcDbEntity
  8
0
100
AcDbEllipse
 10
-70.71067811865477
 20
8.777338244972966
 30
0.0
 11
-2.5
 21
0.0000000000001496
 31
0.0
210
0.0
220
0.0
230
1.0
 40
0.5773502691896258
 41
0.0
 42
6.283185307179586
  0
ELLIPSE
  5
70D0
330
707E
100
AcDbEntity
  8
0
100
AcDbEllipse
 10
-70.71067811865477
 20
7.552593373581377
 30
0.0
 11
-2.5
 21
-0.0000000000001491
 31
0.0
210
0.0
220
0.0
230
1.0
 40
0.5773502691896259
 41
3.579741684173544
 42
5.845036276594997
  0
ELLIPSE
  5
70D1
330
707E
100
AcDbEntity
  8
0
100
AcDbEllipse
 10
28.28427124746193
 20
-64.70735403852235
 30
0.0
 11
-2.5
 21
0.0000000000001496
 31
0.0
210
0.0
220
0.0
230
1.0
 40
0.5773502691896258
 41
0.0
 42
6.283185307179586
  0
ELLIPSE
  5
70D2
330
707E
100
AcDbEntity
  8
0
100
AcDbEllipse
 10
28.28427124746193
 20
-65.93209890991395
 30
0.0
 11
-2.499999999999999
 21
-0.0000000000001487
 31
0.0
210
0.0
220
0.0
230
1.0
 40
0.5773502691896259
 41
3.57974168417355
 42
5.845036276594997
  0
ELLIPSE
  5
70D3
330
707E
100
AcDbEntity
  8
0
100
AcDbEllipse
 10
0.0000000000000202
 20
-48.37742241996785
 30
0.0
 11
-2.5
 21
0.0000000000001496
 31
0.0
210
0.0
220
0.0
230
1.0
 40
0.5773502691896258
 41
0.0
 42
6.283185307179586
  0
ELLIPSE
  5
70D4
330
707E
100
AcDbEntity
  8
0
100
AcDbEllipse
 10
0.0000000000000202
 20
-49.60216729135943
 30
0.0
 11
-2.499999999999999
 21
-0.0000000000001487
 31
0.0
210
0.0
220
0.0
230
1.0
 40
0.5773502691896259
 41
3.57974168417355
 42
5.845036276594997
  0
ELLIPSE
  5
70D5
330
707E
100
AcDbEntity
  8
0
100
AcDbEllipse
 10
-28.28427124746188
 20
-32.04749080141333
 30
0.0
 11
-2.5
 21
0.0000000000001496
 31
0.0
210
0.0
220
0.0
230
1.0
 40
0.5773502691896258
 41
0.0
 42
6.283185307179586
  0
ELLIPSE
  5
70D6
330
707E
100
AcDbEntity
  8
0
100
AcDbEllipse
 10
-28.28427124746188
 20
-33.27223567280492
 30
0.0
 11
-2.499999999999999
 21
-0.0000000000001487
 31
0.0
210
0.0
220
0.0
230
1.0
 40
0.5773502691896259
 41
3.579741684173544
 42
5.845036276594997
  0
ELLIPSE
  5
70D7
330
707E
100
AcDbEntity
  8
0
100
AcDbEllipse
 10
-56.56854249492379
 20
-15.71755918285881
 30
0.0
 11
-2.5
 21
0.0000000000001496
 31
0.0
210
0.0
220
0.0
230
1.0
 40
0.5773502691896258
 41
0.0
 42
6.283185307179586
  0
ELLIPSE
  5
70D8
330
707E
100
AcDbEntity
  8
0
100
AcDbEllipse
 10
-56.56854249492379
 20
-16.9423040542504
 30
0.0
 11
-2.5
 21
-0.0000000000001487
 31
0.0
210
0.0
220
0.0
230
1.0
 40
0.5773502691896258
 41
3.579741684173548
 42
5.845036276594999
  0
ELLIPSE
  5
70D9
330
707E
100
AcDbEntity
  8
0
100
AcDbEllipse
 10
-84.85281374238569
 20
0.6123724356957067
 30
0.0
 11
-2.5
 21
0.0000000000001496
 31
0.0
210
0.0
220
0.0
230
1.0
 40
0.5773502691896258
 41
0.0
 42
6.283185307179586
  0
ELLIPSE
  5
70DA
330
707E
100
AcDbEntity
  8
0
100
AcDbEllipse
 10
-84.85281374238569
 20
-0.6123724356958827
 30
0.0
 11
-2.499999999999999
 21
-0.0000000000001487
 31
0.0
210
0.0
220
0.0
230
1.0
 40
0.5773502691896259
 41
3.579741684173548
 42
5.845036276594999
  0
ELLIPSE
  5
70DB
330
707E
100
AcDbEntity
  8
0
100
AcDbEllipse
 10
14.14213562373098
 20
-72.87231984779961
 30
0.0
 11
-2.5
 21
0.0000000000001496
 31
0.0
210
0.0
220
0.0
230
1.0
 40
0.5773502691896258
 41
0.0
 42
6.283185307179586
  0
ELLIPSE
  5
70DC
330
707E
100
AcDbEntity
  8
0
100
AcDbEllipse
 10
14.14213562373098
 20
-74.09706471919121
 30
0.0
 11
-2.499999999999999
 21
-0.0000000000001487
 31
0.0
210
0.0
220
0.0
230
1.0
 40
0.5773502691896259
 41
3.57974168417355
 42
5.845036276594997
  0
ELLIPSE
  5
70DD
330
707E
100
AcDbEntity
  8
0
100
AcDbEllipse
 10
-14.14213562373093
 20
-56.54238822924511
 30
0.0
 11
-2.5
 21
0.0000000000001496
 31
0.0
210
0.0
220
0.0
230
1.0
 40
0.5773502691896258
 41
0.0
 42
6.283185307179586
  0
ELLIPSE
  5
70DE
330
707E
100
AcDbEntity
  8
0
100
AcDbEllipse
 10
-14.14213562373093
 20
-57.76713310063669
 30
0.0
 11
-2.499999999999999
 21
-0.0000000000001487
 31
0.0
210
0.0
220
0.0
230
1.0
 40
0.5773502691896259
 41
3.57974168417355
 42
5.845036276594997
  0
ELLIPSE
  5
70DF
330
707E
100
AcDbEntity
  8
0
100
AcDbEllipse
 10
-42.42640687119283
 20
-40.21245661069059
 30
0.0
 11
-2.5
 21
0.0000000000001496
 31
0.0
210
0.0
220
0.0
230
1.0
 40
0.5773502691896258
 41
0.0
 42
6.283185307179586
  0
ELLIPSE
  5
70E0
330
707E
100
AcDbEntity
  8
0
100
AcDbEllipse
 10
-42.42640687119283
 20
-41.43720148208218
 30
0.0
 11
-2.499999999999999
 21
-0.0000000000001487
 31
0.0
210
0.0
220
0.0
230
1.0
 40
0.5773502691896259
 41
3.579741684173548
 42
5.845036276594997
  0
ELLIPSE
  5
70E1
330
707E
100
AcDbEntity
  8
0
100
AcDbEllipse
 10
-70.71067811865474
 20
-23.88252499213607
 30
0.0
 11
-2.5
 21
0.0000000000001496
 31
0.0
210
0.0
220
0.0
230
1.0
 40
0.5773502691896258
 41
0.0
 42
6.283185307179586
  0
ELLIPSE
  5
70E2
330
707E
100
AcDbEntity
  8
0
100
AcDbEllipse
 10
-70.71067811865474
 20
-25.10726986352767
 30
0.0
 11
-2.5
 21
-0.0000000000001487
 31
0.0
210
0.0
220
0.0
230
1.0
 40
0.5773502691896258
 41
3.579741684173546
 42
5.845036276594999
  0
ELLIPSE
  5
70E3
330
707E
100
AcDbEntity
  8
0
100
AcDbEllipse
 10
-98.99494936611667
 20
-7.552593373581554
 30
0.0
 11
-2.5
 21
0.0000000000001496
 31
0.0
210
0.0
220
0.0
230
1.0
 40
0.5773502691896258
 41
0.0
 42
6.283185307179586
  0
ELLIPSE
  5
70E4
330
707E
100
AcDbEntity
  8
0
100
AcDbEllipse
 10
-98.99494936611667
 20
-8.777338244973144
 30
0.0
 11
-2.499999999999999
 21
-0.0000000000001487
 31
0.0
210
0.0
220
0.0
230
1.0
 40
0.5773502691896259
 41
3.579741684173548
 42
5.845036276594999
  0
ELLIPSE
  5
70E5
330
707E
100
AcDbEntity
  8
0
100
AcDbEllipse
 10
-0.0000000000000331
 20
82.26203052846832
 30
0.0
 11
-2.5
 21
0.0000000000001496
 31
0.0
210
0.0
220
0.0
230
1.0
 40
0.5773502691896258
 41
0.0
 42
6.283185307179586
  0
ELLIPSE
  5
70E6
330
707E
100
AcDbEntity
  8
0
100
AcDbEllipse
 10
-0.000000000000033
 20
81.03728565707672
 30
0.0
 11
-2.499999999999999
 21
-0.0000000000001487
 31
0.0
210
0.0
220
0.0
230
1.0
 40
0.5773502691896259
 41
3.579741684173548
 42
5.845036276594997
  0
ELLIPSE
  5
70E7
330
707E
100
AcDbEntity
  8
0
100
AcDbEllipse
 10
-14.14213562373098
 20
74.09706471919105
 30
0.0
 11
-2.5
 21
0.0000000000001496
 31
0.0
210
0.0
220
0.0
230
1.0
 40
0.5773502691896258
 41
0.0
 42
6.283185307179586
  0
ELLIPSE
  5
70E8
330
707E
100
AcDbEntity
  8
0
100
AcDbEllipse
 10
-14.14213562373098
 20
72.87231984779947
 30
0.0
 11
-2.499999999999999
 21
-0.0000000000001487
 31
0.0
210
0.0
220
0.0
230
1.0
 40
0.5773502691896259
 41
3.57974168417355
 42
5.845036276595004
  0
ELLIPSE
  5
70E9
330
707E
100
AcDbEntity
  8
0
100
AcDbEllipse
 10
-28.28427124746193
 20
65.93209890991379
 30
0.0
 11
-2.5
 21
0.0000000000001496
 31
0.0
210
0.0
220
0.0
230
1.0
 40
0.5773502691896258
 41
0.0
 42
6.283185307179586
  0
ELLIPSE
  5
70EA
330
707E
100
AcDbEntity
  8
0
100
AcDbEllipse
 10
-28.28427124746193
 20
64.7073540385222
 30
0.0
 11
-2.499999999999999
 21
-0.0000000000001487
 31
0.0
210
0.0
220
0.0
230
1.0
 40
0.5773502691896259
 41
3.57974168417355
 42
5.845036276594997
  0
ELLIPSE
  5
70EB
330
707E
100
AcDbEntity
  8
0
100
AcDbEllipse
 10
-42.42640687119288
 20
57.76713310063652
 30
0.0
 11
-2.5
 21
0.0000000000001496
 31
0.0
210
0.0
220
0.0
230
1.0
 40
0.5773502691896258
 41
0.0
 42
6.283185307179586
  0
ELLIPSE
  5
70EC
330
707E
100
AcDbEntity
  8
0
100
AcDbEllipse
 10
-42.42640687119288
 20
56.54238822924494
 30
0.0
 11
-2.499999999999999
 21
-0.0000000000001487
 31
0.0
210
0.0
220
0.0
230
1.0
 40
0.5773502691896259
 41
3.579741684173548
 42
5.845036276594997
  0
ELLIPSE
  5
70ED
330
707E
100
AcDbEntity
  8
0
100
AcDbEllipse
 10
-56.56854249492383
 20
49.60216729135926
 30
0.0
 11
-2.5
 21
0.0000000000001496
 31
0.0
210
0.0
220
0.0
230
1.0
 40
0.5773502691896258
 41
0.0
 42
6.283185307179586
  0
ELLIPSE
  5
70EE
330
707E
100
AcDbEntity
  8
0
100
AcDbEllipse
 10
-56.56854249492383
 20
48.37742241996767
 30
0.0
 11
-2.5
 21
-0.0000000000001491
 31
0.0
210
0.0
220
0.0
230
1.0
 40
0.5773502691896259
 41
3.579741684173548
 42
5.845036276594996
  0
ELLIPSE
  5
70EF
330
707E
100
AcDbEntity
  8
0
100
AcDbEllipse
 10
-70.71067811865477
 20
41.437201482082
 30
0.0
 11
-2.5
 21
0.0000000000001496
 31
0.0
210
0.0
220
0.0
230
1.0
 40
0.5773502691896258
 41
0.0
 42
6.283185307179586
  0
ELLIPSE
  5
70F0
330
707E
100
AcDbEntity
  8
0
100
AcDbEllipse
 10
-70.71067811865477
 20
40.21245661069041
 30
0.0
 11
-2.5
 21
-0.0000000000001494
 31
0.0
210
0.0
220
0.0
230
1.0
 40
0.5773502691896258
 41
3.579741684173541
 42
5.845036276594996
  0
ELLIPSE
  5
70F1
330
707E
100
AcDbEntity
  8
0
100
AcDbEllipse
 10
-84.85281374238571
 20
33.27223567280474
 30
0.0
 11
-2.5
 21
0.0000000000001496
 31
0.0
210
0.0
220
0.0
230
1.0
 40
0.5773502691896258
 41
0.0
 42
6.283185307179586
  0
ELLIPSE
  5
70F2
330
707E
100
AcDbEntity
  8
0
100
AcDbEllipse
 10
-84.85281374238571
 20
32.04749080141315
 30
0.0
 11
-2.5
 21
-0.0000000000001491
 31
0.0
210
0.0
220
0.0
230
1.0
 40
0.5773502691896259
 41
3.579741684173544
 42
5.845036276594998
  0
ELLIPSE
  5
70F3
330
707E
100
AcDbEntity
  8
0
100
AcDbEllipse
 10
-98.99494936611667
 20
25.10726986352748
 30
0.0
 11
-2.5
 21
0.0000000000001496
 31
0.0
210
0.0
220
0.0
230
1.0
 40
0.5773502691896258
 41
0.0
 42
6.283185307179586
  0
ELLIPSE
  5
70F4
330
707E
100
AcDbEntity
  8
0
100
AcDbEllipse
 10
-98.99494936611667
 20
23.88252499213589
 30
0.0
 11
-2.5
 21
-0.0000000000001491
 31
0.0
210
0.0
220
0.0
230
1.0
 40
0.5773502691896259
 41
3.579741684173542
 42
5.845036276594993
  0
ELLIPSE
  5
70F5
330
707E
100
AcDbEntity
  8
0
100
AcDbEllipse
 10
-113.1370849898476
 20
16.94230405425022
 30
0.0
 11
-2.5
 21
0.0000000000001496
 31
0.0
210
0.0
220
0.0
230
1.0
 40
0.5773502691896258
 41
0.0
 42
6.283185307179586
  0
ELLIPSE
  5
70F6
330
707E
100
AcDbEntity
  8
0
100
AcDbEllipse
 10
-113.1370849898476
 20
15.71755918285863
 30
0.0
 11
-2.499999999999999
 21
-0.0000000000001487
 31
0.0
210
0.0
220
0.0
230
1.0
 40
0.5773502691896259
 41
3.579741684173548
 42
5.845036276595001
  0
ELLIPSE
  5
70F7
330
707E
100
AcDbEntity
  8
0
100
AcDbEllipse
 10
-127.2792206135785
 20
8.777338244972961
 30
0.0
 11
-2.5
 21
0.0000000000001496
 31
0.0
210
0.0
220
0.0
230
1.0
 40
0.5773502691896258
 41
0.0
 42
6.283185307179586
  0
ELLIPSE
  5
70F8
330
707E
100
AcDbEntity
  8
0
100
AcDbEllipse
 10
-127.2792206135785
 20
7.552593373581371
 30
0.0
 11
-2.499999999999999
 21
-0.0000000000001487
 31
0.0
210
0.0
220
0.0
230
1.0
 40
0.5773502691896259
 41
3.579741684173548
 42
5.845036276594999
  0
ELLIPSE
  5
70F9
330
707E
100
AcDbEntity
  8
0
100
AcDbEllipse
 10
0.0000000000000291
 20
-81.03728565707687
 30
0.0
 11
-2.5
 21
0.0000000000001496
 31
0.0
210
0.0
220
0.0
230
1.0
 40
0.5773502691896258
 41
0.0
 42
6.283185307179586
  0
ELLIPSE
  5
70FA
330
707E
100
AcDbEntity
  8
0
100
AcDbEllipse
 10
0.0000000000000291
 20
-82.26203052846846
 30
0.0
 11
-2.499999999999999
 21
-0.0000000000001487
 31
0.0
210
0.0
220
0.0
230
1.0
 40
0.5773502691896259
 41
3.579741684173548
 42
5.845036276594997
  0
ELLIPSE
  5
70FB
330
707E
100
AcDbEntity
  8
0
100
AcDbEllipse
 10
-28.28427124746188
 20
-64.70735403852237
 30
0.0
 11
-2.5
 21
0.0000000000001496
 31
0.0
210
0.0
220
0.0
230
1.0
 40
0.5773502691896258
 41
0.0
 42
6.283185307179586
  0
ELLIPSE
  5
70FC
330
707E
100
AcDbEntity
  8
0
100
AcDbEllipse
 10
-28.28427124746188
 20
-65.93209890991395
 30
0.0
 11
-2.5
 21
-0.000000000000149
 31
0.0
210
0.0
220
0.0
230
1.0
 40
0.5773502691896259
 41
3.579741684173542
 42
5.845036276594997
  0
ELLIPSE
  5
70FD
330
707E
100
AcDbEntity
  8
0
100
AcDbEllipse
 10
-56.56854249492379
 20
-48.37742241996785
 30
0.0
 11
-2.5
 21
0.0000000000001496
 31
0.0
210
0.0
220
0.0
230
1.0
 40
0.5773502691896258
 41
0.0
 42
6.283185307179586
  0
ELLIPSE
  5
70FE
330
707E
100
AcDbEntity
  8
0
100
AcDbEllipse
 10
-56.56854249492379
 20
-49.60216729135943
 30
0.0
 11
-2.5
 21
-0.0000000000001489
 31
0.0
210
0.0
220
0.0
230
1.0
 40
0.5773502691896257
 41
3.579741684173541
 42
5.845036276594997
  0
ELLIPSE
  5
70FF
330
707E
100
AcDbEntity
  8
0
100
AcDbEllipse
 10
-84.85281374238567
 20
-32.04749080141333
 30
0.0
 11
-2.5
 21
0.0000000000001496
 31
0.0
210
0.0
220
0.0
230
1.0
 40
0.5773502691896258
 41
0.0
 42
6.283185307179586
  0
ELLIPSE
  5
7100
330
707E
100
AcDbEntity
  8
0
100
AcDbEllipse
 10
-84.85281374238567
 20
-33.27223567280492
 30
0.0
 11
-2.499999999999999
 21
-0.0000000000001487
 31
0.0
210
0.0
220
0.0
230
1.0
 40
0.5773502691896259
 41
3.579741684173546
 42
5.845036276594999
  0
ELLIPSE
  5
7101
330
707E
100
AcDbEntity
  8
0
100
AcDbEllipse
 10
-113.1370849898476
 20
-15.71755918285881
 30
0.0
 11
-2.5
 21
0.0000000000001496
 31
0.0
210
0.0
220
0.0
230
1.0
 40
0.5773502691896258
 41
0.0
 42
6.283185307179586
  0
ELLIPSE
  5
7102
330
707E
100
AcDbEntity
  8
0
100
AcDbEllipse
 10
-113.1370849898476
 20
-16.9423040542504
 30
0.0
 11
-2.5
 21
-0.000000000000149
 31
0.0
210
0.0
220
0.0
230
1.0
 40
0.5773502691896259
 41
3.579741684173542
 42
5.845036276594997
  0
ELLIPSE
  5
7103
330
707E
100
AcDbEntity
  8
0
100
AcDbEllipse
 10
-141.4213562373095
 20
0.6123724356957023
 30
0.0
 11
-2.5
 21
0.0000000000001496
 31
0.0
210
0.0
220
0.0
230
1.0
 40
0.5773502691896258
 41
0.0
 42
6.283185307179586
  0
ELLIPSE
  5
7104
330
707E
100
AcDbEntity
  8
0
100
AcDbEllipse
 10
-141.4213562373095
 20
-0.6123724356958871
 30
0.0
 11
-2.499999999999999
 21
-0.0000000000001487
 31
0.0
210
0.0
220
0.0
230
1.0
 40
0.5773502691896259
 41
3.579741684173548
 42
5.845036276594999
  0
ELLIPSE
  5
7105
330
707E
100
AcDbEntity
  8
0
100
AcDbEllipse
 10
162.6345596729059
 20
-3.470110468942902
 30
0.0
 11
-2.5
 21
0.0000000000001496
 31
0.0
210
0.0
220
0.0
230
1.0
 40
0.5773502691896258
 41
0.0
 42
6.283185307179586
  0
ELLIPSE
  5
7106
330
707E
100
AcDbEntity
  8
0
100
AcDbEllipse
 10
162.6345596729059
 20
-4.694855340334491
 30
0.0
 11
-2.499999999999999
 21
-0.0000000000001487
 31
0.0
210
0.0
220
0.0
230
1.0
 40
0.5773502691896259
 41
3.579741684173548
 42
5.845036276594996
  0
ELLIPSE
  5
7107
330
707E
100
AcDbEntity
  8
0
100
AcDbEllipse
 10
134.350288425444
 20
12.85982114961162
 30
0.0
 11
-2.5
 21
0.0000000000001496
 31
0.0
210
0.0
220
0.0
230
1.0
 40
0.5773502691896258
 41
0.0
 42
6.283185307179586
  0
ELLIPSE
  5
7108
330
707E
100
AcDbEntity
  8
0
100
AcDbEllipse
 10
134.350288425444
 20
11.63507627822003
 30
0.0
 11
-2.499999999999999
 21
-0.0000000000001487
 31
0.0
210
0.0
220
0.0
230
1.0
 40
0.5773502691896259
 41
3.579741684173548
 42
5.845036276595001
  0
ELLIPSE
  5
7109
330
707E
100
AcDbEntity
  8
0
100
AcDbEllipse
 10
106.0660171779821
 20
29.18975276816613
 30
0.0
 11
-2.5
 21
0.0000000000001496
 31
0.0
210
0.0
220
0.0
230
1.0
 40
0.5773502691896258
 41
0.0
 42
6.283185307179586
  0
ELLIPSE
  5
710A
330
707E
100
AcDbEntity
  8
0
100
AcDbEllipse
 10
106.0660171779821
 20
27.96500789677454
 30
0.0
 11
-2.5
 21
-0.000000000000149
 31
0.0
210
0.0
220
0.0
230
1.0
 40
0.5773502691896259
 41
3.579741684173541
 42
5.845036276594993
  0
ELLIPSE
  5
710B
330
707E
100
AcDbEntity
  8
0
100
AcDbEllipse
 10
77.7817459305202
 20
45.51968438672064
 30
0.0
 11
-2.5
 21
0.0000000000001496
 31
0.0
210
0.0
220
0.0
230
1.0
 40
0.5773502691896258
 41
0.0
 42
6.283185307179586
  0
ELLIPSE
  5
710C
330
707E
100
AcDbEntity
  8
0
100
AcDbEllipse
 10
77.7817459305202
 20
44.29493951532905
 30
0.0
 11
-2.5
 21
-0.0000000000001493
 31
0.0
210
0.0
220
0.0
230
1.0
 40
0.5773502691896257
 41
3.57974168417355
 42
5.845036276595002
  0
ELLIPSE
  5
710D
330
707E
100
AcDbEntity
  8
0
100
AcDbEllipse
 10
49.4974746830583
 20
61.84961600527516
 30
0.0
 11
-2.5
 21
0.0000000000001496
 31
0.0
210
0.0
220
0.0
230
1.0
 40
0.5773502691896258
 41
0.0
 42
6.283185307179586
  0
ELLIPSE
  5
710E
330
707E
100
AcDbEntity
  8
0
100
AcDbEllipse
 10
49.4974746830583
 20
60.62487113388357
 30
0.0
 11
-2.5
 21
-0.0000000000001489
 31
0.0
210
0.0
220
0.0
230
1.0
 40
0.5773502691896257
 41
3.579741684173542
 42
5.845036276594997
  0
ELLIPSE
  5
710F
330
707E
100
AcDbEntity
  8
0
100
AcDbEllipse
 10
21.2132034355964
 20
78.17954762382969
 30
0.0
 11
-2.5
 21
0.0000000000001496
 31
0.0
210
0.0
220
0.0
230
1.0
 40
0.5773502691896258
 41
0.0
 42
6.283185307179586
  0
ELLIPSE
  5
7110
330
707E
100
AcDbEntity
  8
0
100
AcDbEllipse
 10
21.2132034355964
 20
76.95480275243809
 30
0.0
 11
-2.5
 21
-0.000000000000149
 31
0.0
210
0.0
220
0.0
230
1.0
 40
0.5773502691896259
 41
3.579741684173542
 42
5.845036276594997
  0
ELLIPSE
  5
7111
330
707E
100
AcDbEntity
  8
0
100
AcDbEllipse
 10
148.492424049175
 20
-11.63507627822016
 30
0.0
 11
-2.5
 21
0.0000000000001496
 31
0.0
210
0.0
220
0.0
230
1.0
 40
0.5773502691896258
 41
0.0
 42
6.283185307179586
  0
ELLIPSE
  5
7112
330
707E
100
AcDbEntity
  8
0
100
AcDbEllipse
 10
148.492424049175
 20
-12.85982114961175
 30
0.0
 11
-2.499999999999999
 21
-0.0000000000001487
 31
0.0
210
0.0
220
0.0
230
1.0
 40
0.5773502691896259
 41
3.579741684173548
 42
5.845036276595001
  0
ELLIPSE
  5
7113
330
707E
100
AcDbEntity
  8
0
100
AcDbEllipse
 10
120.208152801713
 20
4.69485534033436
 30
0.0
 11
-2.5
 21
0.0000000000001496
 31
0.0
210
0.0
220
0.0
230
1.0
 40
0.5773502691896258
 41
0.0
 42
6.283185307179586
  0
ELLIPSE
  5
7114
330
707E
100
AcDbEntity
  8
0
100
AcDbEllipse
 10
120.208152801713
 20
3.47011046894277
 30
0.0
 11
-2.499999999999999
 21
-0.0000000000001487
 31
0.0
210
0.0
220
0.0
230
1.0
 40
0.5773502691896259
 41
3.579741684173548
 42
5.845036276594999
  0
ELLIPSE
  5
7115
330
707E
100
AcDbEntity
  8
0
100
AcDbEllipse
 10
91.92388155425119
 20
21.02478695888887
 30
0.0
 11
-2.5
 21
0.0000000000001496
 31
0.0
210
0.0
220
0.0
230
1.0
 40
0.5773502691896258
 41
0.0
 42
6.283185307179586
  0
ELLIPSE
  5
7116
330
707E
100
AcDbEntity
  8
0
100
AcDbEllipse
 10
91.92388155425119
 20
19.80004208749729
 30
0.0
 11
-2.5
 21
-0.000000000000149
 31
0.0
210
0.0
220
0.0
230
1.0
 40
0.5773502691896259
 41
3.579741684173542
 42
5.845036276594997
  0
ELLIPSE
  5
7117
330
707E
100
AcDbEntity
  8
0
100
AcDbEllipse
 10
63.63961030678925
 20
37.35471857744339
 30
0.0
 11
-2.5
 21
0.0000000000001496
 31
0.0
210
0.0
220
0.0
230
1.0
 40
0.5773502691896258
 41
0.0
 42
6.283185307179586
  0
ELLIPSE
  5
7118
330
707E
100
AcDbEntity
  8
0
100
AcDbEllipse
 10
63.63961030678925
 20
36.1299737060518
 30
0.0
 11
-2.5
 21
-0.0000000000001493
 31
0.0
210
0.0
220
0.0
230
1.0
 40
0.5773502691896257
 41
3.579741684173542
 42
5.845036276594996
  0
ELLIPSE
  5
7119
330
707E
100
AcDbEntity
  8
0
100
AcDbEllipse
 10
35.35533905932736
 20
53.6846501959979
 30
0.0
 11
-2.5
 21
0.0000000000001496
 31
0.0
210
0.0
220
0.0
230
1.0
 40
0.5773502691896258
 41
0.0
 42
6.283185307179586
  0
ELLIPSE
  5
711A
330
707E
100
AcDbEntity
  8
0
100
AcDbEllipse
 10
35.35533905932736
 20
52.45990532460631
 30
0.0
 11
-2.5
 21
-0.0000000000001489
 31
0.0
210
0.0
220
0.0
230
1.0
 40
0.5773502691896257
 41
3.579741684173542
 42
5.845036276594997
  0
ELLIPSE
  5
711B
330
707E
100
AcDbEntity
  8
0
100
AcDbEllipse
 10
7.071067811865445
 20
70.01458181455243
 30
0.0
 11
-2.5
 21
0.0000000000001496
 31
0.0
210
0.0
220
0.0
230
1.0
 40
0.5773502691896258
 41
0.0
 42
6.283185307179586
  0
ELLIPSE
  5
711C
330
707E
100
AcDbEntity
  8
0
100
AcDbEllipse
 10
7.071067811865445
 20
68.78983694316083
 30
0.0
 11
-2.5
 21
-0.000000000000149
 31
0.0
210
0.0
220
0.0
230
1.0
 40
0.5773502691896259
 41
3.579741684173542
 42
5.845036276594997
  0
ELLIPSE
  5
711D
330
707E
100
AcDbEntity
  8
0
100
AcDbEllipse
 10
134.350288425444
 20
-19.80004208749742
 30
0.0
 11
-2.5
 21
0.0000000000001496
 31
0.0
210
0.0
220
0.0
230
1.0
 40
0.5773502691896258
 41
0.0
 42
6.283185307179586
  0
ELLIPSE
  5
711E
330
707E
100
AcDbEntity
  8
0
100
AcDbEllipse
 10
134.350288425444
 20
-21.02478695888901
 30
0.0
 11
-2.499999999999999
 21
-0.0000000000001487
 31
0.0
210
0.0
220
0.0
230
1.0
 40
0.5773502691896259
 41
3.579741684173546
 42
5.845036276594997
  0
ELLIPSE
  5
711F
330
707E
100
AcDbEntity
  8
0
100
AcDbEllipse
 10
106.0660171779821
 20
-3.470110468942902
 30
0.0
 11
-2.5
 21
0.0000000000001496
 31
0.0
210
0.0
220
0.0
230
1.0
 40
0.5773502691896258
 41
0.0
 42
6.283185307179586
  0
ELLIPSE
  5
7120
330
707E
100
AcDbEntity
  8
0
100
AcDbEllipse
 10
106.0660171779821
 20
-4.694855340334491
 30
0.0
 11
-2.499999999999999
 21
-0.0000000000001487
 31
0.0
210
0.0
220
0.0
230
1.0
 40
0.5773502691896259
 41
3.579741684173548
 42
5.845036276594999
  0
ELLIPSE
  5
7121
330
707E
100
AcDbEntity
  8
0
100
AcDbEllipse
 10
77.78174593052023
 20
12.85982114961161
 30
0.0
 11
-2.5
 21
0.0000000000001496
 31
0.0
210
0.0
220
0.0
230
1.0
 40
0.5773502691896258
 41
0.0
 42
6.283185307179586
  0
ELLIPSE
  5
7122
330
707E
100
AcDbEntity
  8
0
100
AcDbEllipse
 10
77.78174593052023
 20
11.63507627822002
 30
0.0
 11
-2.499999999999999
 21
-0.0000000000001487
 31
0.0
210
0.0
220
0.0
230
1.0
 40
0.5773502691896259
 41
3.579741684173548
 42
5.845036276594999
  0
ELLIPSE
  5
7123
330
707E
100
AcDbEntity
  8
0
100
AcDbEllipse
 10
49.49747468305831
 20
29.18975276816613
 30
0.0
 11
-2.5
 21
0.0000000000001496
 31
0.0
210
0.0
220
0.0
230
1.0
 40
0.5773502691896258
 41
0.0
 42
6.283185307179586
  0
ELLIPSE
  5
7124
330
707E
100
AcDbEntity
  8
0
100
AcDbEllipse
 10
49.49747468305831
 20
27.96500789677454
 30
0.0
 11
-2.5
 21
-0.0000000000001493
 31
0.0
210
0.0
220
0.0
230
1.0
 40
0.5773502691896258
 41
3.579741684173544
 42
5.845036276594996
  0
ELLIPSE
  5
7125
330
707E
100
AcDbEntity
  8
0
100
AcDbEllipse
 10
21.21320343559641
 20
45.51968438672064
 30
0.0
 11
-2.5
 21
0.0000000000001496
 31
0.0
210
0.0
220
0.0
230
1.0
 40
0.5773502691896258
 41
0.0
 42
6.283185307179586
  0
ELLIPSE
  5
7126
330
707E
100
AcDbEntity
  8
0
100
AcDbEllipse
 10
21.21320343559641
 20
44.29493951532905
 30
0.0
 11
-2.499999999999999
 21
-0.0000000000001487
 31
0.0
210
0.0
220
0.0
230
1.0
 40
0.5773502691896259
 41
3.57974168417355
 42
5.845036276594997
  0
ELLIPSE
  5
7127
330
707E
100
AcDbEntity
  8
0
100
AcDbEllipse
 10
-7.071067811865495
 20
61.84961600527516
 30
0.0
 11
-2.5
 21
0.0000000000001496
 31
0.0
210
0.0
220
0.0
230
1.0
 40
0.5773502691896258
 41
0.0
 42
6.283185307179586
  0
ELLIPSE
  5
7128
330
707E
100
AcDbEntity
  8
0
100
AcDbEllipse
 10
-7.071067811865495
 20
60.62487113388357
 30
0.0
 11
-2.5
 21
-0.0000000000001493
 31
0.0
210
0.0
220
0.0
230
1.0
 40
0.5773502691896258
 41
3.579741684173541
 42
5.845036276594996
  0
ELLIPSE
  5
7129
330
707E
100
AcDbEntity
  8
0
100
AcDbEllipse
 10
120.2081528017131
 20
-27.96500789677469
 30
0.0
 11
-2.5
 21
0.0000000000001496
 31
0.0
210
0.0
220
0.0
230
1.0
 40
0.5773502691896258
 41
0.0
 42
6.283185307179586
  0
ELLIPSE
  5
712A
330
707E
100
AcDbEntity
  8
0
100
AcDbEllipse
 10
120.2081528017131
 20
-29.18975276816628
 30
0.0
 11
-2.499999999999999
 21
-0.0000000000001487
 31
0.0
210
0.0
220
0.0
230
1.0
 40
0.5773502691896259
 41
3.579741684173546
 42
5.845036276594997
  0
ELLIPSE
  5
712B
330
707E
100
AcDbEntity
  8
0
100
AcDbEllipse
 10
91.92388155425119
 20
-11.63507627822016
 30
0.0
 11
-2.5
 21
0.0000000000001496
 31
0.0
210
0.0
220
0.0
230
1.0
 40
0.5773502691896258
 41
0.0
 42
6.283185307179586
  0
ELLIPSE
  5
712C
330
707E
100
AcDbEntity
  8
0
100
AcDbEllipse
 10
91.92388155425119
 20
-12.85982114961175
 30
0.0
 11
-2.499999999999999
 21
-0.0000000000001487
 31
0.0
210
0.0
220
0.0
230
1.0
 40
0.5773502691896259
 41
3.579741684173548
 42
5.845036276595001
  0
ELLIPSE
  5
712D
330
707E
100
AcDbEntity
  8
0
100
AcDbEllipse
 10
63.63961030678928
 20
4.694855340334349
 30
0.0
 11
-2.5
 21
0.0000000000001496
 31
0.0
210
0.0
220
0.0
230
1.0
 40
0.5773502691896258
 41
0.0
 42
6.283185307179586
  0
ELLIPSE
  5
712E
330
707E
100
AcDbEntity
  8
0
100
AcDbEllipse
 10
63.63961030678928
 20
3.470110468942759
 30
0.0
 11
-2.499999999999999
 21
-0.0000000000001487
 31
0.0
210
0.0
220
0.0
230
1.0
 40
0.5773502691896259
 41
3.579741684173546
 42
5.845036276594998
  0
ELLIPSE
  5
712F
330
707E
100
AcDbEntity
  8
0
100
AcDbEllipse
 10
35.35533905932737
 20
21.02478695888887
 30
0.0
 11
-2.5
 21
0.0000000000001496
 31
0.0
210
0.0
220
0.0
230
1.0
 40
0.5773502691896258
 41
0.0
 42
6.283185307179586
  0
ELLIPSE
  5
7130
330
707E
100
AcDbEntity
  8
0
100
AcDbEllipse
 10
35.35533905932737
 20
19.80004208749728
 30
0.0
 11
-2.5
 21
-0.0000000000001493
 31
0.0
210
0.0
220
0.0
230
1.0
 40
0.5773502691896258
 41
3.579741684173548
 42
5.845036276594999
  0
ELLIPSE
  5
7131
330
707E
100
AcDbEntity
  8
0
100
AcDbEllipse
 10
7.071067811865463
 20
37.35471857744338
 30
0.0
 11
-2.5
 21
0.0000000000001496
 31
0.0
210
0.0
220
0.0
230
1.0
 40
0.5773502691896258
 41
0.0
 42
6.283185307179586
  0
ELLIPSE
  5
7132
330
707E
100
AcDbEntity
  8
0
100
AcDbEllipse
 10
7.071067811865463
 20
36.12997370605179
 30
0.0
 11
-2.499999999999999
 21
-0.0000000000001487
 31
0.0
210
0.0
220
0.0
230
1.0
 40
0.5773502691896259
 41
3.579741684173546
 42
5.845036276594997
  0
ELLIPSE
  5
7133
330
707E
100
AcDbEntity
  8
0
100
AcDbEllipse
 10
-21.21320343559644
 20
53.68465019599789
 30
0.0
 11
-2.5
 21
0.0000000000001496
 31
0.0
210
0.0
220
0.0
230
1.0
 40
0.5773502691896258
 41
0.0
 42
6.283185307179586
  0
ELLIPSE
  5
7134
330
707E
100
AcDbEntity
  8
0
100
AcDbEllipse
 10
-21.21320343559644
 20
52.45990532460631
 30
0.0
 11
-2.5
 21
-0.0000000000001493
 31
0.0
210
0.0
220
0.0
230
1.0
 40
0.5773502691896258
 41
3.579741684173541
 42
5.845036276594996
  0
ELLIPSE
  5
7135
330
707E
100
AcDbEntity
  8
0
100
AcDbEllipse
 10
106.0660171779821
 20
-36.12997370605194
 30
0.0
 11
-2.5
 21
0.0000000000001496
 31
0.0
210
0.0
220
0.0
230
1.0
 40
0.5773502691896258
 41
0.0
 42
6.283185307179586
  0
ELLIPSE
  5
7136
330
707E
100
AcDbEntity
  8
0
100
AcDbEllipse
 10
106.0660171779821
 20
-37.35471857744354
 30
0.0
 11
-2.5
 21
-0.0000000000001491
 31
0.0
210
0.0
220
0.0
230
1.0
 40
0.5773502691896259
 41
3.579741684173542
 42
5.845036276594993
  0
ELLIPSE
  5
7137
330
707E
100
AcDbEntity
  8
0
100
AcDbEllipse
 10
77.78174593052023
 20
-19.80004208749743
 30
0.0
 11
-2.5
 21
0.0000000000001496
 31
0.0
210
0.0
220
0.0
230
1.0
 40
0.5773502691896258
 41
0.0
 42
6.283185307179586
  0
ELLIPSE
  5
7138
330
707E
100
AcDbEntity
  8
0
100
AcDbEllipse
 10
77.78174593052023
 20
-21.02478695888902
 30
0.0
 11
-2.5
 21
-0.0000000000001491
 31
0.0
210
0.0
220
0.0
230
1.0
 40
0.5773502691896259
 41
3.579741684173542
 42
5.845036276594991
  0
ELLIPSE
  5
7139
330
707E
100
AcDbEntity
  8
0
100
AcDbEllipse
 10
49.49747468305833
 20
-3.470110468942911
 30
0.0
 11
-2.5
 21
0.0000000000001496
 31
0.0
210
0.0
220
0.0
230
1.0
 40
0.5773502691896258
 41
0.0
 42
6.283185307179586
  0
ELLIPSE
  5
713A
330
707E
100
AcDbEntity
  8
0
100
AcDbEllipse
 10
49.49747468305833
 20
-4.6948553403345
 30
0.0
 11
-2.5
 21
-0.0000000000001491
 31
0.0
210
0.0
220
0.0
230
1.0
 40
0.5773502691896259
 41
3.579741684173544
 42
5.845036276594996
  0
ELLIPSE
  5
713B
330
707E
100
AcDbEntity
  8
0
100
AcDbEllipse
 10
21.21320343559642
 20
12.8598211496116
 30
0.0
 11
-2.5
 21
0.0000000000001496
 31
0.0
210
0.0
220
0.0
230
1.0
 40
0.5773502691896258
 41
0.0
 42
6.283185307179586
  0
ELLIPSE
  5
713C
330
707E
100
AcDbEntity
  8
0
100
AcDbEllipse
 10
21.21320343559642
 20
11.63507627822001
 30
0.0
 11
-2.5
 21
-0.0000000000001486
 31
0.0
210
0.0
220
0.0
230
1.0
 40
0.5773502691896258
 41
3.579741684173546
 42
5.845036276594997
  0
ELLIPSE
  5
713D
330
707E
100
AcDbEntity
  8
0
100
AcDbEllipse
 10
-7.071067811865486
 20
29.18975276816612
 30
0.0
 11
-2.5
 21
0.0000000000001496
 31
0.0
210
0.0
220
0.0
230
1.0
 40
0.5773502691896258
 41
0.0
 42
6.283185307179586
  0
ELLIPSE
  5
713E
330
707E
100
AcDbEntity
  8
0
100
AcDbEllipse
 10
-7.071067811865486
 20
27.96500789677453
 30
0.0
 11
-2.5
 21
-0.0000000000001491
 31
0.0
210
0.0
220
0.0
230
1.0
 40
0.5773502691896259
 41
3.579741684173542
 42
5.845036276594993
  0
ELLIPSE
  5
713F
330
707E
100
AcDbEntity
  8
0
100
AcDbEllipse
 10
-35.35533905932739
 20
45.51968438672063
 30
0.0
 11
-2.5
 21
0.0000000000001496
 31
0.0
210
0.0
220
0.0
230
1.0
 40
0.5773502691896258
 41
0.0
 42
6.283185307179586
  0
ELLIPSE
  5
7140
330
707E
100
AcDbEntity
  8
0
100
AcDbEllipse
 10
-35.35533905932739
 20
44.29493951532904
 30
0.0
 11
-2.499999999999999
 21
-0.0000000000001494
 31
0.0
210
0.0
220
0.0
230
1.0
 40
0.5773502691896258
 41
3.579741684173542
 42
5.845036276594996
  0
ELLIPSE
  5
7141
330
707E
100
AcDbEntity
  8
0
100
AcDbEllipse
 10
91.9238815542512
 20
-44.2949395153292
 30
0.0
 11
-2.5
 21
0.0000000000001496
 31
0.0
210
0.0
220
0.0
230
1.0
 40
0.5773502691896258
 41
0.0
 42
6.283185307179586
  0
ELLIPSE
  5
7142
330
707E
100
AcDbEntity
  8
0
100
AcDbEllipse
 10
91.9238815542512
 20
-45.51968438672079
 30
0.0
 11
-2.5
 21
-0.0000000000001491
 31
0.0
210
0.0
220
0.0
230
1.0
 40
0.5773502691896259
 41
3.579741684173548
 42
5.845036276595002
  0
ELLIPSE
  5
7143
330
707E
100
AcDbEntity
  8
0
100
AcDbEllipse
 10
63.63961030678929
 20
-27.96500789677469
 30
0.0
 11
-2.5
 21
0.0000000000001496
 31
0.0
210
0.0
220
0.0
230
1.0
 40
0.5773502691896258
 41
0.0
 42
6.283185307179586
  0
ELLIPSE
  5
7144
330
707E
100
AcDbEntity
  8
0
100
AcDbEllipse
 10
63.63961030678929
 20
-29.18975276816628
 30
0.0
 11
-2.5
 21
-0.0000000000001491
 31
0.0
210
0.0
220
0.0
230
1.0
 40
0.5773502691896259
 41
3.579741684173542
 42
5.845036276594996
  0
ELLIPSE
  5
7145
330
707E
100
AcDbEntity
  8
0
100
AcDbEllipse
 10
35.35533905932739
 20
-11.63507627822017
 30
0.0
 11
-2.5
 21
0.0000000000001496
 31
0.0
210
0.0
220
0.0
230
1.0
 40
0.5773502691896258
 41
0.0
 42
6.283185307179586
  0
ELLIPSE
  5
7146
330
707E
100
AcDbEntity
  8
0
100
AcDbEllipse
 10
35.35533905932739
 20
-12.85982114961176
 30
0.0
 11
-2.5
 21
-0.0000000000001491
 31
0.0
210
0.0
220
0.0
230
1.0
 40
0.5773502691896259
 41
3.579741684173546
 42
5.845036276594996
  0
ELLIPSE
  5
7147
330
707E
100
AcDbEntity
  8
0
100
AcDbEllipse
 10
7.071067811865474
 20
4.694855340334345
 30
0.0
 11
-2.5
 21
0.0000000000001496
 31
0.0
210
0.0
220
0.0
230
1.0
 40
0.5773502691896258
 41
0.0
 42
6.283185307179586
  0
ELLIPSE
  5
7148
330
707E
100
AcDbEntity
  8
0
100
AcDbEllipse
 10
7.071067811865474
 20
3.470110468942755
 30
0.0
 11
-2.5
 21
-0.0000000000001486
 31
0.0
210
0.0
220
0.0
230
1.0
 40
0.5773502691896258
 41
3.579741684173546
 42
5.845036276594998
  0
ELLIPSE
  5
7149
330
707E
100
AcDbEntity
  8
0
100
AcDbEllipse
 10
-21.21320343559643
 20
21.02478695888886
 30
0.0
 11
-2.5
 21
0.0000000000001496
 31
0.0
210
0.0
220
0.0
230
1.0
 40
0.5773502691896258
 41
0.0
 42
6.283185307179586
  0
ELLIPSE
  5
714A
330
707E
100
AcDbEntity
  8
0
100
AcDbEllipse
 10
-21.21320343559643
 20
19.80004208749727
 30
0.0
 11
-2.5
 21
-0.0000000000001491
 31
0.0
210
0.0
220
0.0
230
1.0
 40
0.5773502691896259
 41
3.579741684173544
 42
5.845036276594996
  0
ELLIPSE
  5
714B
330
707E
100
AcDbEntity
  8
0
100
AcDbEllipse
 10
-49.49747468305834
 20
37.35471857744338
 30
0.0
 11
-2.5
 21
0.0000000000001496
 31
0.0
210
0.0
220
0.0
230
1.0
 40
0.5773502691896258
 41
0.0
 42
6.283185307179586
  0
ELLIPSE
  5
714C
330
707E
100
AcDbEntity
  8
0
100
AcDbEllipse
 10
-49.49747468305834
 20
36.12997370605179
 30
0.0
 11
-2.5
 21
-0.000000000000149
 31
0.0
210
0.0
220
0.0
230
1.0
 40
0.5773502691896258
 41
3.579741684173541
 42
5.845036276594996
  0
ELLIPSE
  5
714D
330
707E
100
AcDbEntity
  8
0
100
AcDbEllipse
 10
77.78174593052026
 20
-52.45990532460647
 30
0.0
 11
-2.5
 21
0.0000000000001496
 31
0.0
210
0.0
220
0.0
230
1.0
 40
0.5773502691896258
 41
0.0
 42
6.283185307179586
  0
ELLIPSE
  5
714E
330
707E
100
AcDbEntity
  8
0
100
AcDbEllipse
 10
77.78174593052026
 20
-53.68465019599806
 30
0.0
 11
-2.5
 21
-0.0000000000001494
 31
0.0
210
0.0
220
0.0
230
1.0
 40
0.5773502691896258
 41
3.579741684173548
 42
5.845036276595001
  0
ELLIPSE
  5
714F
330
707E
100
AcDbEntity
  8
0
100
AcDbEllipse
 10
49.49747468305834
 20
-36.12997370605195
 30
0.0
 11
-2.5
 21
0.0000000000001496
 31
0.0
210
0.0
220
0.0
230
1.0
 40
0.5773502691896258
 41
0.0
 42
6.283185307179586
  0
ELLIPSE
  5
7150
330
707E
100
AcDbEntity
  8
0
100
AcDbEllipse
 10
49.49747468305834
 20
-37.35471857744354
 30
0.0
 11
-2.5
 21
-0.0000000000001494
 31
0.0
210
0.0
220
0.0
230
1.0
 40
0.5773502691896258
 41
3.579741684173541
 42
5.845036276594991
  0
ELLIPSE
  5
7151
330
707E
100
AcDbEntity
  8
0
100
AcDbEllipse
 10
21.21320343559644
 20
-19.80004208749743
 30
0.0
 11
-2.5
 21
0.0000000000001496
 31
0.0
210
0.0
220
0.0
230
1.0
 40
0.5773502691896258
 41
0.0
 42
6.283185307179586
  0
ELLIPSE
  5
7152
330
707E
100
AcDbEntity
  8
0
100
AcDbEllipse
 10
21.21320343559644
 20
-21.02478695888902
 30
0.0
 11
-2.5
 21
-0.0000000000001494
 31
0.0
210
0.0
220
0.0
230
1.0
 40
0.5773502691896258
 41
3.579741684173542
 42
5.845036276594992
  0
ELLIPSE
  5
7153
330
707E
100
AcDbEntity
  8
0
100
AcDbEllipse
 10
-7.071067811865471
 20
-3.470110468942916
 30
0.0
 11
-2.5
 21
0.0000000000001496
 31
0.0
210
0.0
220
0.0
230
1.0
 40
0.5773502691896258
 41
0.0
 42
6.283185307179586
  0
ELLIPSE
  5
7154
330
707E
100
AcDbEntity
  8
0
100
AcDbEllipse
 10
-7.071067811865471
 20
-4.694855340334505
 30
0.0
 11
-2.5
 21
-0.0000000000001495
 31
0.0
210
0.0
220
0.0
230
1.0
 40
0.5773502691896258
 41
3.579741684173544
 42
5.845036276594997
  0
ELLIPSE
  5
7155
330
707E
100
AcDbEntity
  8
0
100
AcDbEllipse
 10
-35.35533905932738
 20
12.8598211496116
 30
0.0
 11
-2.5
 21
0.0000000000001496
 31
0.0
210
0.0
220
0.0
230
1.0
 40
0.5773502691896258
 41
0.0
 42
6.283185307179586
  0
ELLIPSE
  5
7156
330
707E
100
AcDbEntity
  8
0
100
AcDbEllipse
 10
-35.35533905932738
 20
11.63507627822001
 30
0.0
 11
-2.5
 21
-0.0000000000001494
 31
0.0
210
0.0
220
0.0
230
1.0
 40
0.5773502691896258
 41
3.579741684173544
 42
5.845036276594994
  0
ELLIPSE
  5
7157
330
707E
100
AcDbEntity
  8
0
100
AcDbEllipse
 10
-63.63961030678929
 20
29.18975276816612
 30
0.0
 11
-2.5
 21
0.0000000000001496
 31
0.0
210
0.0
220
0.0
230
1.0
 40
0.5773502691896258
 41
0.0
 42
6.283185307179586
  0
ELLIPSE
  5
7158
330
707E
100
AcDbEntity
  8
0
100
AcDbEllipse
 10
-63.63961030678929
 20
27.96500789677453
 30
0.0
 11
-2.5
 21
-0.000000000000149
 31
0.0
210
0.0
220
0.0
230
1.0
 40
0.5773502691896258
 41
3.579741684173541
 42
5.845036276594996
  0
ELLIPSE
  5
7159
330
707E
100
AcDbEntity
  8
0
100
AcDbEllipse
 10
63.6396103067893
 20
-60.62487113388373
 30
0.0
 11
-2.5
 21
0.0000000000001496
 31
0.0
210
0.0
220
0.0
230
1.0
 40
0.5773502691896258
 41
0.0
 42
6.283185307179586
  0
ELLIPSE
  5
715A
330
707E
100
AcDbEntity
  8
0
100
AcDbEllipse
 10
63.6396103067893
 20
-61.84961600527532
 30
0.0
 11
-2.5
 21
-0.0000000000001491
 31
0.0
210
0.0
220
0.0
230
1.0
 40
0.5773502691896259
 41
3.579741684173548
 42
5.845036276594996
  0
ELLIPSE
  5
715B
330
707E
100
AcDbEntity
  8
0
100
AcDbEllipse
 10
35.3553390593274
 20
-44.2949395153292
 30
0.0
 11
-2.5
 21
0.0000000000001496
 31
0.0
210
0.0
220
0.0
230
1.0
 40
0.5773502691896258
 41
0.0
 42
6.283185307179586
  0
ELLIPSE
  5
715C
330
707E
100
AcDbEntity
  8
0
100
AcDbEllipse
 10
35.3553390593274
 20
-45.51968438672079
 30
0.0
 11
-2.5
 21
-0.0000000000001491
 31
0.0
210
0.0
220
0.0
230
1.0
 40
0.5773502691896259
 41
3.579741684173548
 42
5.845036276594997
  0
ELLIPSE
  5
715D
330
707E
100
AcDbEntity
  8
0
100
AcDbEllipse
 10
7.071067811865489
 20
-27.9650078967747
 30
0.0
 11
-2.5
 21
0.0000000000001496
 31
0.0
210
0.0
220
0.0
230
1.0
 40
0.5773502691896258
 41
0.0
 42
6.283185307179586
  0
ELLIPSE
  5
715E
330
707E
100
AcDbEntity
  8
0
100
AcDbEllipse
 10
7.071067811865489
 20
-29.18975276816628
 30
0.0
 11
-2.5
 21
-0.0000000000001491
 31
0.0
210
0.0
220
0.0
230
1.0
 40
0.5773502691896259
 41
3.579741684173542
 42
5.845036276594993
  0
ELLIPSE
  5
715F
330
707E
100
AcDbEntity
  8
0
100
AcDbEllipse
 10
-21.21320343559641
 20
-11.63507627822017
 30
0.0
 11
-2.5
 21
0.0000000000001496
 31
0.0
210
0.0
220
0.0
230
1.0
 40
0.5773502691896258
 41
0.0
 42
6.283185307179586
  0
ELLIPSE
  5
7160
330
707E
100
AcDbEntity
  8
0
100
AcDbEllipse
 10
-21.21320343559641
 20
-12.85982114961177
 30
0.0
 11
-2.5
 21
-0.0000000000001486
 31
0.0
210
0.0
220
0.0
230
1.0
 40
0.5773502691896258
 41
3.579741684173546
 42
5.845036276594997
  0
ELLIPSE
  5
7161
330
707E
100
AcDbEntity
  8
0
100
AcDbEllipse
 10
-49.49747468305833
 20
4.694855340334338
 30
0.0
 11
-2.5
 21
0.0000000000001496
 31
0.0
210
0.0
220
0.0
230
1.0
 40
0.5773502691896258
 41
0.0
 42
6.283185307179586
  0
ELLIPSE
  5
7162
330
707E
100
AcDbEntity
  8
0
100
AcDbEllipse
 10
-49.49747468305833
 20
3.470110468942748
 30
0.0
 11
-2.5
 21
-0.0000000000001491
 31
0.0
210
0.0
220
0.0
230
1.0
 40
0.5773502691896259
 41
3.579741684173544
 42
5.845036276594996
  0
ELLIPSE
  5
7163
330
707E
100
AcDbEntity
  8
0
100
AcDbEllipse
 10
-77.78174593052023
 20
21.02478695888886
 30
0.0
 11
-2.5
 21
0.0000000000001496
 31
0.0
210
0.0
220
0.0
230
1.0
 40
0.5773502691896258
 41
0.0
 42
6.283185307179586
  0
ELLIPSE
  5
7164
330
707E
100
AcDbEntity
  8
0
100
AcDbEllipse
 10
-77.78174593052023
 20
19.80004208749727
 30
0.0
 11
-2.499999999999999
 21
-0.0000000000001494
 31
0.0
210
0.0
220
0.0
230
1.0
 40
0.5773502691896258
 41
3.579741684173542
 42
5.845036276594996
  0
ELLIPSE
  5
7165
330
707E
100
AcDbEntity
  8
0
100
AcDbEllipse
 10
49.49747468305836
 20
-68.78983694316099
 30
0.0
 11
-2.5
 21
0.0000000000001496
 31
0.0
210
0.0
220
0.0
230
1.0
 40
0.5773502691896258
 41
0.0
 42
6.283185307179586
  0
ELLIPSE
  5
7166
330
707E
100
AcDbEntity
  8
0
100
AcDbEllipse
 10
49.49747468305836
 20
-70.01458181455257
 30
0.0
 11
-2.499999999999999
 21
-0.0000000000001487
 31
0.0
210
0.0
220
0.0
230
1.0
 40
0.5773502691896259
 41
3.579741684173548
 42
5.845036276594997
  0
ELLIPSE
  5
7167
330
707E
100
AcDbEntity
  8
0
100
AcDbEllipse
 10
21.21320343559645
 20
-52.45990532460647
 30
0.0
 11
-2.5
 21
0.0000000000001496
 31
0.0
210
0.0
220
0.0
230
1.0
 40
0.5773502691896258
 41
0.0
 42
6.283185307179586
  0
ELLIPSE
  5
7168
330
707E
100
AcDbEntity
  8
0
100
AcDbEllipse
 10
21.21320343559645
 20
-53.68465019599806
 30
0.0
 11
-2.499999999999999
 21
-0.0000000000001487
 31
0.0
210
0.0
220
0.0
230
1.0
 40
0.5773502691896259
 41
3.57974168417355
 42
5.845036276594997
  0
ELLIPSE
  5
7169
330
707E
100
AcDbEntity
  8
0
100
AcDbEllipse
 10
-7.071067811865459
 20
-36.12997370605196
 30
0.0
 11
-2.5
 21
0.0000000000001496
 31
0.0
210
0.0
220
0.0
230
1.0
 40
0.5773502691896258
 41
0.0
 42
6.283185307179586
  0
ELLIPSE
  5
716A
330
707E
100
AcDbEntity
  8
0
100
AcDbEllipse
 10
-7.071067811865459
 20
-37.35471857744354
 30
0.0
 11
-2.499999999999999
 21
-0.0000000000001487
 31
0.0
210
0.0
220
0.0
230
1.0
 40
0.5773502691896259
 41
3.579741684173546
 42
5.845036276594997
  0
ELLIPSE
  5
716B
330
707E
100
AcDbEntity
  8
0
100
AcDbEllipse
 10
-35.35533905932736
 20
-19.80004208749743
 30
0.0
 11
-2.5
 21
0.0000000000001496
 31
0.0
210
0.0
220
0.0
230
1.0
 40
0.5773502691896258
 41
0.0
 42
6.283185307179586
  0
ELLIPSE
  5
716C
330
707E
100
AcDbEntity
  8
0
100
AcDbEllipse
 10
-35.35533905932736
 20
-21.02478695888903
 30
0.0
 11
-2.5
 21
-0.0000000000001493
 31
0.0
210
0.0
220
0.0
230
1.0
 40
0.5773502691896258
 41
3.579741684173546
 42
5.845036276594997
  0
ELLIPSE
  5
716D
330
707E
100
AcDbEntity
  8
0
100
AcDbEllipse
 10
-63.63961030678928
 20
-3.470110468942922
 30
0.0
 11
-2.5
 21
0.0000000000001496
 31
0.0
210
0.0
220
0.0
230
1.0
 40
0.5773502691896258
 41
0.0
 42
6.283185307179586
  0
ELLIPSE
  5
716E
330
707E
100
AcDbEntity
  8
0
100
AcDbEllipse
 10
-63.63961030678928
 20
-4.694855340334511
 30
0.0
 11
-2.499999999999999
 21
-0.0000000000001487
 31
0.0
210
0.0
220
0.0
230
1.0
 40
0.5773502691896259
 41
3.579741684173546
 42
5.845036276594998
  0
ELLIPSE
  5
716F
330
707E
100
AcDbEntity
  8
0
100
AcDbEllipse
 10
-91.92388155425119
 20
12.85982114961159
 30
0.0
 11
-2.5
 21
0.0000000000001496
 31
0.0
210
0.0
220
0.0
230
1.0
 40
0.5773502691896258
 41
0.0
 42
6.283185307179586
  0
ELLIPSE
  5
7170
330
707E
100
AcDbEntity
  8
0
100
AcDbEllipse
 10
-91.92388155425119
 20
11.63507627822
 30
0.0
 11
-2.5
 21
-0.0000000000001493
 31
0.0
210
0.0
220
0.0
230
1.0
 40
0.5773502691896258
 41
3.579741684173541
 42
5.845036276594996
  0
ELLIPSE
  5
7171
330
707E
100
AcDbEntity
  8
0
100
AcDbEllipse
 10
35.35533905932741
 20
-76.95480275243825
 30
0.0
 11
-2.5
 21
0.0000000000001496
 31
0.0
210
0.0
220
0.0
230
1.0
 40
0.5773502691896258
 41
0.0
 42
6.283185307179586
  0
ELLIPSE
  5
7172
330
707E
100
AcDbEntity
  8
0
100
AcDbEllipse
 10
35.35533905932741
 20
-78.17954762382983
 30
0.0
 11
-2.499999999999999
 21
-0.0000000000001487
 31
0.0
210
0.0
220
0.0
230
1.0
 40
0.5773502691896259
 41
3.57974168417355
 42
5.845036276594997
  0
ELLIPSE
  5
7173
330
707E
100
AcDbEntity
  8
0
100
AcDbEllipse
 10
7.071067811865498
 20
-60.62487113388373
 30
0.0
 11
-2.5
 21
0.0000000000001496
 31
0.0
210
0.0
220
0.0
230
1.0
 40
0.5773502691896258
 41
0.0
 42
6.283185307179586
  0
ELLIPSE
  5
7174
330
707E
100
AcDbEntity
  8
0
100
AcDbEllipse
 10
7.071067811865498
 20
-61.84961600527532
 30
0.0
 11
-2.499999999999999
 21
-0.0000000000001487
 31
0.0
210
0.0
220
0.0
230
1.0
 40
0.5773502691896259
 41
3.57974168417355
 42
5.845036276594997
  0
ELLIPSE
  5
7175
330
707E
100
AcDbEntity
  8
0
100
AcDbEllipse
 10
-21.21320343559641
 20
-44.29493951532921
 30
0.0
 11
-2.5
 21
0.0000000000001496
 31
0.0
210
0.0
220
0.0
230
1.0
 40
0.5773502691896258
 41
0.0
 42
6.283185307179586
  0
ELLIPSE
  5
7176
330
707E
100
AcDbEntity
  8
0
100
AcDbEllipse
 10
-21.21320343559641
 20
-45.5196843867208
 30
0.0
 11
-2.499999999999999
 21
-0.0000000000001487
 31
0.0
210
0.0
220
0.0
230
1.0
 40
0.5773502691896259
 41
3.57974168417355
 42
5.845036276594997
  0
ELLIPSE
  5
7177
330
707E
100
AcDbEntity
  8
0
100
AcDbEllipse
 10
-49.49747468305831
 20
-27.9650078967747
 30
0.0
 11
-2.5
 21
0.0000000000001496
 31
0.0
210
0.0
220
0.0
230
1.0
 40
0.5773502691896258
 41
0.0
 42
6.283185307179586
  0
ELLIPSE
  5
7178
330
707E
100
AcDbEntity
  8
0
100
AcDbEllipse
 10
-49.49747468305831
 20
-29.18975276816629
 30
0.0
 11
-2.5
 21
-0.0000000000001493
 31
0.0
210
0.0
220
0.0
230
1.0
 40
0.5773502691896258
 41
3.579741684173544
 42
5.845036276594996
  0
ELLIPSE
  5
7179
330
707E
100
AcDbEntity
  8
0
100
AcDbEllipse
 10
-77.78174593052023
 20
-11.63507627822018
 30
0.0
 11
-2.5
 21
0.0000000000001496
 31
0.0
210
0.0
220
0.0
230
1.0
 40
0.5773502691896258
 41
0.0
 42
6.283185307179586
  0
ELLIPSE
  5
717A
330
707E
100
AcDbEntity
  8
0
100
AcDbEllipse
 10
-77.78174593052023
 20
-12.85982114961177
 30
0.0
 11
-2.499999999999999
 21
-0.0000000000001487
 31
0.0
210
0.0
220
0.0
230
1.0
 40
0.5773502691896259
 41
3.579741684173548
 42
5.845036276594997
  0
ELLIPSE
  5
717B
330
707E
100
AcDbEntity
  8
0
100
AcDbEllipse
 10
-106.0660171779821
 20
4.694855340334333
 30
0.0
 11
-2.5
 21
0.0000000000001496
 31
0.0
210
0.0
220
0.0
230
1.0
 40
0.5773502691896258
 41
0.0
 42
6.283185307179586
  0
ELLIPSE
  5
717C
330
707E
100
AcDbEntity
  8
0
100
AcDbEllipse
 10
-106.0660171779821
 20
3.470110468942744
 30
0.0
 11
-2.5
 21
-0.0000000000001493
 31
0.0
210
0.0
220
0.0
230
1.0
 40
0.5773502691896258
 41
3.579741684173541
 42
5.845036276594997
  0
ELLIPSE
  5
717D
330
707E
100
AcDbEntity
  8
0
100
AcDbEllipse
 10
21.21320343559647
 20
-85.1197685617155
 30
0.0
 11
-2.5
 21
0.0000000000001496
 31
0.0
210
0.0
220
0.0
230
1.0
 40
0.5773502691896258
 41
0.0
 42
6.283185307179586
  0
ELLIPSE
  5
717E
330
707E
100
AcDbEntity
  8
0
100
AcDbEllipse
 10
21.21320343559647
 20
-86.34451343310709
 30
0.0
 11
-2.499999999999999
 21
-0.0000000000001487
 31
0.0
210
0.0
220
0.0
230
1.0
 40
0.5773502691896259
 41
3.579741684173548
 42
5.845036276594996
  0
ELLIPSE
  5
717F
330
707E
100
AcDbEntity
  8
0
100
AcDbEllipse
 10
-7.071067811865441
 20
-68.78983694316099
 30
0.0
 11
-2.5
 21
0.0000000000001496
 31
0.0
210
0.0
220
0.0
230
1.0
 40
0.5773502691896258
 41
0.0
 42
6.283185307179586
  0
ELLIPSE
  5
7180
330
707E
100
AcDbEntity
  8
0
100
AcDbEllipse
 10
-7.071067811865441
 20
-70.01458181455259
 30
0.0
 11
-2.499999999999999
 21
-0.0000000000001487
 31
0.0
210
0.0
220
0.0
230
1.0
 40
0.5773502691896259
 41
3.57974168417355
 42
5.845036276594997
  0
ELLIPSE
  5
7181
330
707E
100
AcDbEntity
  8
0
100
AcDbEllipse
 10
-35.35533905932735
 20
-52.45990532460648
 30
0.0
 11
-2.5
 21
0.0000000000001496
 31
0.0
210
0.0
220
0.0
230
1.0
 40
0.5773502691896258
 41
0.0
 42
6.283185307179586
  0
ELLIPSE
  5
7182
330
707E
100
AcDbEntity
  8
0
100
AcDbEllipse
 10
-35.35533905932735
 20
-53.68465019599806
 30
0.0
 11
-2.5
 21
-0.000000000000149
 31
0.0
210
0.0
220
0.0
230
1.0
 40
0.5773502691896259
 41
3.579741684173542
 42
5.845036276594997
  0
ELLIPSE
  5
7183
330
707E
100
AcDbEntity
  8
0
100
AcDbEllipse
 10
-63.63961030678925
 20
-36.12997370605196
 30
0.0
 11
-2.5
 21
0.0000000000001496
 31
0.0
210
0.0
220
0.0
230
1.0
 40
0.5773502691896258
 41
0.0
 42
6.283185307179586
  0
ELLIPSE
  5
7184
330
707E
100
AcDbEntity
  8
0
100
AcDbEllipse
 10
-63.63961030678925
 20
-37.35471857744355
 30
0.0
 11
-2.5
 21
-0.0000000000001493
 31
0.0
210
0.0
220
0.0
230
1.0
 40
0.5773502691896257
 41
3.579741684173542
 42
5.845036276594996
  0
ELLIPSE
  5
7185
330
707E
100
AcDbEntity
  8
0
100
AcDbEllipse
 10
-91.92388155425115
 20
-19.80004208749744
 30
0.0
 11
-2.5
 21
0.0000000000001496
 31
0.0
210
0.0
220
0.0
230
1.0
 40
0.5773502691896258
 41
0.0
 42
6.283185307179586
  0
ELLIPSE
  5
7186
330
707E
100
AcDbEntity
  8
0
100
AcDbEllipse
 10
-91.92388155425115
 20
-21.02478695888903
 30
0.0
 11
-2.5
 21
-0.0000000000001489
 31
0.0
210
0.0
220
0.0
230
1.0
 40
0.5773502691896257
 41
3.579741684173542
 42
5.845036276594997
  0
ELLIPSE
  5
7187
330
707E
100
AcDbEntity
  8
0
100
AcDbEllipse
 10
-120.208152801713
 20
-3.470110468942928
 30
0.0
 11
-2.5
 21
0.0000000000001496
 31
0.0
210
0.0
220
0.0
230
1.0
 40
0.5773502691896258
 41
0.0
 42
6.283185307179586
  0
ELLIPSE
  5
7188
330
707E
100
AcDbEntity
  8
0
100
AcDbEllipse
 10
-120.208152801713
 20
-4.694855340334518
 30
0.0
 11
-2.5
 21
-0.000000000000149
 31
0.0
210
0.0
220
0.0
230
1.0
 40
0.5773502691896259
 41
3.579741684173542
 42
5.845036276594997
  0
ELLIPSE
  5
7189
330
707E
100
AcDbEntity
  8
0
100
AcDbEllipse
 10
-7.071067811865512
 20
94.5094792423842
 30
0.0
 11
-2.5
 21
0.0000000000001496
 31
0.0
210
0.0
220
0.0
230
1.0
 40
0.5773502691896258
 41
0.0
 42
6.283185307179586
  0
ELLIPSE
  5
718A
330
707E
100
AcDbEntity
  8
0
100
AcDbEllipse
 10
-7.071067811865512
 20
93.2847343709926
 30
0.0
 11
-2.499999999999999
 21
-0.0000000000001487
 31
0.0
210
0.0
220
0.0
230
1.0
 40
0.5773502691896259
 41
3.579741684173548
 42
5.845036276594997
  0
ELLIPSE
  5
718B
330
707E
100
AcDbEntity
  8
0
100
AcDbEllipse
 10
-21.21320343559646
 20
86.34451343310693
 30
0.0
 11
-2.5
 21
0.0000000000001496
 31
0.0
210
0.0
220
0.0
230
1.0
 40
0.5773502691896258
 41
0.0
 42
6.283185307179586
  0
ELLIPSE
  5
718C
330
707E
100
AcDbEntity
  8
0
100
AcDbEllipse
 10
-21.21320343559646
 20
85.11976856171534
 30
0.0
 11
-2.499999999999999
 21
-0.0000000000001487
 31
0.0
210
0.0
220
0.0
230
1.0
 40
0.5773502691896259
 41
3.579741684173548
 42
5.845036276594997
  0
ELLIPSE
  5
718D
330
707E
100
AcDbEntity
  8
0
100
AcDbEllipse
 10
-35.3553390593274
 20
78.17954762382966
 30
0.0
 11
-2.5
 21
0.0000000000001496
 31
0.0
210
0.0
220
0.0
230
1.0
 40
0.5773502691896258
 41
0.0
 42
6.283185307179586
  0
ELLIPSE
  5
718E
330
707E
100
AcDbEntity
  8
0
100
AcDbEllipse
 10
-35.3553390593274
 20
76.95480275243808
 30
0.0
 11
-2.499999999999999
 21
-0.0000000000001487
 31
0.0
210
0.0
220
0.0
230
1.0
 40
0.5773502691896259
 41
3.57974168417355
 42
5.845036276594997
  0
ELLIPSE
  5
718F
330
707E
100
AcDbEntity
  8
0
100
AcDbEllipse
 10
-49.49747468305836
 20
70.0145818145524
 30
0.0
 11
-2.5
 21
0.0000000000001496
 31
0.0
210
0.0
220
0.0
230
1.0
 40
0.5773502691896258
 41
0.0
 42
6.283185307179586
  0
ELLIPSE
  5
7190
330
707E
100
AcDbEntity
  8
0
100
AcDbEllipse
 10
-49.49747468305836
 20
68.78983694316082
 30
0.0
 11
-2.499999999999999
 21
-0.0000000000001487
 31
0.0
210
0.0
220
0.0
230
1.0
 40
0.5773502691896259
 41
3.579741684173548
 42
5.845036276594997
  0
ELLIPSE
  5
7191
330
707E
100
AcDbEntity
  8
0
100
AcDbEllipse
 10
-63.6396103067893
 20
61.84961600527515
 30
0.0
 11
-2.5
 21
0.0000000000001496
 31
0.0
210
0.0
220
0.0
230
1.0
 40
0.5773502691896258
 41
0.0
 42
6.283185307179586
  0
ELLIPSE
  5
7192
330
707E
100
AcDbEntity
  8
0
100
AcDbEllipse
 10
-63.6396103067893
 20
60.62487113388357
 30
0.0
 11
-2.5
 21
-0.0000000000001491
 31
0.0
210
0.0
220
0.0
230
1.0
 40
0.5773502691896259
 41
3.579741684173548
 42
5.845036276594996
  0
ELLIPSE
  5
7193
330
707E
100
AcDbEntity
  8
0
100
AcDbEllipse
 10
-77.78174593052026
 20
53.68465019599788
 30
0.0
 11
-2.5
 21
0.0000000000001496
 31
0.0
210
0.0
220
0.0
230
1.0
 40
0.5773502691896258
 41
0.0
 42
6.283185307179586
  0
ELLIPSE
  5
7194
330
707E
100
AcDbEntity
  8
0
100
AcDbEllipse
 10
-77.78174593052026
 20
52.45990532460631
 30
0.0
 11
-2.5
 21
-0.0000000000001491
 31
0.0
210
0.0
220
0.0
230
1.0
 40
0.5773502691896259
 41
3.579741684173548
 42
5.845036276594996
  0
ELLIPSE
  5
7195
330
707E
100
AcDbEntity
  8
0
100
AcDbEllipse
 10
-91.92388155425119
 20
45.51968438672062
 30
0.0
 11
-2.5
 21
0.0000000000001496
 31
0.0
210
0.0
220
0.0
230
1.0
 40
0.5773502691896258
 41
0.0
 42
6.283185307179586
  0
ELLIPSE
  5
7196
330
707E
100
AcDbEntity
  8
0
100
AcDbEllipse
 10
-91.92388155425119
 20
44.29493951532903
 30
0.0
 11
-2.5
 21
-0.0000000000001494
 31
0.0
210
0.0
220
0.0
230
1.0
 40
0.5773502691896258
 41
3.579741684173548
 42
5.845036276595001
  0
ELLIPSE
  5
7197
330
707E
100
AcDbEntity
  8
0
100
AcDbEllipse
 10
-106.0660171779821
 20
37.35471857744336
 30
0.0
 11
-2.5
 21
0.0000000000001496
 31
0.0
210
0.0
220
0.0
230
1.0
 40
0.5773502691896258
 41
0.0
 42
6.283185307179586
  0
ELLIPSE
  5
7198
330
707E
100
AcDbEntity
  8
0
100
AcDbEllipse
 10
-106.0660171779821
 20
36.12997370605178
 30
0.0
 11
-2.5
 21
-0.0000000000001491
 31
0.0
210
0.0
220
0.0
230
1.0
 40
0.5773502691896259
 41
3.579741684173544
 42
5.845036276594996
  0
ELLIPSE
  5
7199
330
707E
100
AcDbEntity
  8
0
100
AcDbEllipse
 10
-120.208152801713
 20
29.18975276816611
 30
0.0
 11
-2.5
 21
0.0000000000001496
 31
0.0
210
0.0
220
0.0
230
1.0
 40
0.5773502691896258
 41
0.0
 42
6.283185307179586
  0
ELLIPSE
  5
719A
330
707E
100
AcDbEntity
  8
0
100
AcDbEllipse
 10
-120.208152801713
 20
27.96500789677452
 30
0.0
 11
-2.499999999999999
 21
-0.0000000000001487
 31
0.0
210
0.0
220
0.0
230
1.0
 40
0.5773502691896259
 41
3.579741684173546
 42
5.845036276594997
  0
ELLIPSE
  5
719B
330
707E
100
AcDbEntity
  8
0
100
AcDbEllipse
 10
-134.350288425444
 20
21.02478695888884
 30
0.0
 11
-2.5
 21
0.0000000000001496
 31
0.0
210
0.0
220
0.0
230
1.0
 40
0.5773502691896258
 41
0.0
 42
6.283185307179586
  0
ELLIPSE
  5
719C
330
707E
100
AcDbEntity
  8
0
100
AcDbEllipse
 10
-134.350288425444
 20
19.80004208749726
 30
0.0
 11
-2.499999999999999
 21
-0.0000000000001487
 31
0.0
210
0.0
220
0.0
230
1.0
 40
0.5773502691896259
 41
3.579741684173546
 42
5.845036276594999
  0
ELLIPSE
  5
719D
330
707E
100
AcDbEntity
  8
0
100
AcDbEllipse
 10
-148.492424049175
 20
12.85982114961158
 30
0.0
 11
-2.5
 21
0.0000000000001496
 31
0.0
210
0.0
220
0.0
230
1.0
 40
0.5773502691896258
 41
0.0
 42
6.283185307179586
  0
ELLIPSE
  5
719E
330
707E
100
AcDbEntity
  8
0
100
AcDbEllipse
 10
-148.492424049175
 20
11.63507627821999
 30
0.0
 11
-2.499999999999999
 21
-0.0000000000001487
 31
0.0
210
0.0
220
0.0
230
1.0
 40
0.5773502691896259
 41
3.579741684173548
 42
5.845036276595001
  0
ELLIPSE
  5
719F
330
707E
100
AcDbEntity
  8
0
100
AcDbEllipse
 10
7.071067811865516
 20
-93.28473437099276
 30
0.0
 11
-2.5
 21
0.0000000000001496
 31
0.0
210
0.0
220
0.0
230
1.0
 40
0.5773502691896258
 41
0.0
 42
6.283185307179586
  0
ELLIPSE
  5
71A0
330
707E
100
AcDbEntity
  8
0
100
AcDbEllipse
 10
7.071067811865516
 20
-94.50947924238436
 30
0.0
 11
-2.499999999999999
 21
-0.0000000000001487
 31
0.0
210
0.0
220
0.0
230
1.0
 40
0.5773502691896259
 41
3.579741684173548
 42
5.845036276594997
  0
ELLIPSE
  5
71A1
330
707E
100
AcDbEntity
  8
0
100
AcDbEllipse
 10
-21.21320343559639
 20
-76.95480275243825
 30
0.0
 11
-2.5
 21
0.0000000000001496
 31
0.0
210
0.0
220
0.0
230
1.0
 40
0.5773502691896258
 41
0.0
 42
6.283185307179586
  0
ELLIPSE
  5
71A2
330
707E
100
AcDbEntity
  8
0
100
AcDbEllipse
 10
-21.21320343559639
 20
-78.17954762382983
 30
0.0
 11
-2.499999999999999
 21
-0.0000000000001487
 31
0.0
210
0.0
220
0.0
230
1.0
 40
0.5773502691896259
 41
3.57974168417355
 42
5.845036276594997
  0
ELLIPSE
  5
71A3
330
707E
100
AcDbEntity
  8
0
100
AcDbEllipse
 10
-49.4974746830583
 20
-60.62487113388375
 30
0.0
 11
-2.5
 21
0.0000000000001496
 31
0.0
210
0.0
220
0.0
230
1.0
 40
0.5773502691896258
 41
0.0
 42
6.283185307179586
  0
ELLIPSE
  5
71A4
330
707E
100
AcDbEntity
  8
0
100
AcDbEllipse
 10
-49.4974746830583
 20
-61.84961600527532
 30
0.0
 11
-2.5
 21
-0.000000000000149
 31
0.0
210
0.0
220
0.0
230
1.0
 40
0.5773502691896259
 41
3.579741684173542
 42
5.845036276594997
  0
ELLIPSE
  5
71A5
330
707E
100
AcDbEntity
  8
0
100
AcDbEllipse
 10
-77.7817459305202
 20
-44.29493951532922
 30
0.0
 11
-2.5
 21
0.0000000000001496
 31
0.0
210
0.0
220
0.0
230
1.0
 40
0.5773502691896258
 41
0.0
 42
6.283185307179586
  0
ELLIPSE
  5
71A6
330
707E
100
AcDbEntity
  8
0
100
AcDbEllipse
 10
-77.7817459305202
 20
-45.51968438672081
 30
0.0
 11
-2.5
 21
-0.0000000000001493
 31
0.0
210
0.0
220
0.0
230
1.0
 40
0.5773502691896257
 41
3.579741684173548
 42
5.845036276595003
  0
ELLIPSE
  5
71A7
330
707E
100
AcDbEntity
  8
0
100
AcDbEllipse
 10
-106.0660171779821
 20
-27.96500789677471
 30
0.0
 11
-2.5
 21
0.0000000000001496
 31
0.0
210
0.0
220
0.0
230
1.0
 40
0.5773502691896258
 41
0.0
 42
6.283185307179586
  0
ELLIPSE
  5
71A8
330
707E
100
AcDbEntity
  8
0
100
AcDbEllipse
 10
-106.0660171779821
 20
-29.1897527681663
 30
0.0
 11
-2.5
 21
-0.0000000000001489
 31
0.0
210
0.0
220
0.0
230
1.0
 40
0.5773502691896257
 41
3.579741684173542
 42
5.845036276594997
  0
ELLIPSE
  5
71A9
330
707E
100
AcDbEntity
  8
0
100
AcDbEllipse
 10
-134.350288425444
 20
-11.63507627822018
 30
0.0
 11
-2.5
 21
0.0000000000001496
 31
0.0
210
0.0
220
0.0
230
1.0
 40
0.5773502691896258
 41
0.0
 42
6.283185307179586
  0
ELLIPSE
  5
71AA
330
707E
100
AcDbEntity
  8
0
100
AcDbEllipse
 10
-134.350288425444
 20
-12.85982114961177
 30
0.0
 11
-2.5
 21
-0.000000000000149
 31
0.0
210
0.0
220
0.0
230
1.0
 40
0.5773502691896259
 41
3.579741684173542
 42
5.845036276594997
  0
ELLIPSE
  5
71AB
330
707E
100
AcDbEntity
  8
0
100
AcDbEllipse
 10
-162.6345596729059
 20
4.694855340334324
 30
0.0
 11
-2.5
 21
0.0000000000001496
 31
0.0
210
0.0
220
0.0
230
1.0
 40
0.5773502691896258
 41
0.0
 42
6.283185307179586
  0
ELLIPSE
  5
71AC
330
707E
100
AcDbEntity
  8
0
100
AcDbEllipse
 10
-162.6345596729059
 20
3.470110468942735
 30
0.0
 11
-2.499999999999999
 21
-0.0000000000001487
 31
0.0
210
0.0
220
0.0
230
1.0
 40
0.5773502691896259
 41
3.579741684173548
 42
5.845036276594996
  0
LINE
  5
71AD
330
707E
100
AcDbEntity
  8
0
100
AcDbLine
 10
176.7766952966368
 20
-4.694855340334473
 30
0.0
 11
7.071067811865461
 21
-102.6744450516615
 31
0.0
  0
LINE
  5
71AE
330
707E
100
AcDbEntity
  8
0
100
AcDbLine
 10
176.7766952966368
 20
-4.694855340334473
 30
0.0
 11
176.7766952966368
 21
-3.470110468942893
 31
0.0
  0
LINE
  5
71AF
330
707E
100
AcDbEntity
  8
0
100
AcDbLine
 10
7.071067811865454
 20
-101.4497001802699
 30
0.0
 11
176.7766952966368
 21
-3.470110468942895
 31
0.0
  0
LINE
  5
71B0
330
707E
100
AcDbEntity
  8
0
100
AcDbLine
 10
7.071067811865454
 20
-102.6744450516615
 30
0.0
 11
7.071067811865454
 21
-101.4497001802699
 31
0.0
  0
LINE
  5
71B1
330
707E
100
AcDbEntity
  8
0
100
AcDbLine
 10
7.071067811865454
 20
-102.6744450516615
 30
0.0
 11
-176.7766952966368
 21
3.470110468942717
 31
0.0
  0
LINE
  5
71B2
330
707E
100
AcDbEntity
  8
0
100
AcDbLine
 10
-176.7766952966368
 20
4.694855340334306
 30
0.0
 11
7.071067811865461
 21
-101.4497001802699
 31
0.0
  0
LINE
  5
71B3
330
707E
100
AcDbEntity
  8
0
100
AcDbLine
 10
-176.7766952966368
 20
3.470110468942717
 30
0.0
 11
-176.7766952966368
 21
4.694855340334306
 31
0.0
  0
LINE
  5
71B4
330
707E
100
AcDbEntity
  8
0
100
AcDbLine
 10
-7.071067811865539
 20
102.6744450516615
 30
0.0
 11
-176.7766952966368
 21
4.694855340334314
 31
0.0
  0
LINE
  5
71B5
330
707E
100
AcDbEntity
  8
0
100
AcDbLine
 10
176.7766952966368
 20
-3.470110468942893
 30
0.0
 11
-7.071067811865532
 21
102.6744450516615
 31
0.0
  0
ENDBLK
  5
7080
330
707E
100
AcDbEntity
  8
0
100
AcDbBlockEnd
  0
ENDSEC
  0
SECTION
  2
ENTITIES
  0
INSERT
  5
71B6
330
1F
100
AcDbEntity
  8
0
100
AcDbBlockReference
  2
NP15_240_260-Front
 10
0.0
 20
0.0
 30
0.0
  0
INSERT
  5
71B7
330
1F
100
AcDbEntity
  8
0
100
AcDbBlockReference
  2
NP15_240_260-Left
 10
323.9999999999999
 20
0.0
 30
0.0
  0
INSERT
  5
71B8
330
1F
100
AcDbEntity
  8
0
100
AcDbBlockReference
  2
NP15_240_260-Right
 10
-323.9999999999999
 20
0.0
 30
0.0
  0
INSERT
  5
71B9
330
1F
100
AcDbEntity
  8
0
100
AcDbBlockReference
  2
NP15_240_260-Top
 10
0.0
 20
-194.0
 30
0.0
  0
INSERT
  5
71BA
330
1F
100
AcDbEntity
  8
0
100
AcDbBlockReference
  2
NP15_240_260-Bottom
 10
0.0
 20
195.5
 30
0.0
  0
INSERT
  5
71BB
330
1F
100
AcDbEntity
  8
0
100
AcDbBlockReference
  2
NP15_240_260-ISO
 10
380.7766952966368
 20
-176.6744450516614
 30
0.0
  0
MTEXT
  5
71BC
330
1F
100
AcDbEntity
  8
0
100
AcDbMText
 10
0.0
 20
-388.0
 30
0.0
 40
22.66666666666666
 41
0.0
 71
     5
 72
     5
  1
NP15/240/260
 73
     1
 44
1.0
1001
ACAD
1000
MTEXTBEGIN
1070
    73
1070
     1
1070
    44
1040
1.0
1070
    74
1070
     0
1000
MTEXTEND
  0
ENDSEC
  0
SECTION
  2
OBJECTS
  0
DICTIONARY
  5
C
330
0
100
AcDbDictionary
281
     1
  3
ACAD_CIP_PREVIOUS_PRODUCT_INFO
350
216
  3
ACAD_COLOR
350
6B
  3
ACAD_DETAILVIEWSTYLE
350
21B
  3
ACAD_GROUP
350
D
  3
ACAD_LAYOUT
350
1A
  3
ACAD_MATERIAL
350
6A
  3
ACAD_MLEADERSTYLE
350
12D
  3
ACAD_MLINESTYLE
350
17
  3
ACAD_PLOTSETTINGS
350
19
  3
ACAD_PLOTSTYLENAME
350
E
  3
ACAD_RENDER_ACTIVE_RAPIDRT_SETTINGS
350
2B4
  3
ACAD_RENDER_ACTIVE_SETTINGS
350
7267
  3
ACAD_SCALELIST
350
10C
  3
ACAD_SECTIONVIEWSTYLE
350
219
  3
ACAD_TABLESTYLE
350
7E
  3
ACAD_VISUALSTYLE
350
EF
  3
ACDB_RECOMPOSE_DATA
350
72C2
  3
AcDbVariableDictionary
350
5E
  3
DWGPROPS
350
72C3
  0
DICTIONARY
  5
720D
330
8
100
AcDbDictionary
280
     1
281
     1
  0
DICTIONARY
  5
1FF
330
2
100
AcDbDictionary
280
     1
281
     1
  3
ACAD_LAYERSTATES
360
200
  0
DICTIONARY
  5
13C
330
10
100
AcDbDictionary
280
     1
281
     1
  0
DICTIONARY
  5
1CE
330
1F
100
AcDbDictionary
280
     1
281
     1
  3
ACAD_LAYOUTSELFREF
360
7215
  0
DICTIONARY
  5
71C0
330
D2
100
AcDbDictionary
280
     1
281
     1
  3
ACAD_LAYOUTSELFREF
360
721E
  0
DICTIONARY
  5
71C2
330
D6
100
AcDbDictionary
280
     1
281
     1
  3
ACAD_LAYOUTSELFREF
360
7221
  0
XRECORD
  5
216
102
{ACAD_REACTORS
330
C
102
}
330
C
100
AcDbXrecord
280
     1
300
ACD
300
2021
300
87393ACD_2021_0F
  0
DICTIONARY
  5
6B
102
{ACAD_REACTORS
330
C
102
}
330
C
100
AcDbDictionary
281
     1
  0
DICTIONARY
  5
21B
102
{ACAD_REACTORS
330
C
102
}
330
C
100
AcDbDictionary
281
     1
  3
Metric50
350
21C
  0
DICTIONARY
  5
D
102
{ACAD_REACTORS
330
C
102
}
330
C
100
AcDbDictionary
281
     1
  0
DICTIONARY
  5
1A
102
{ACAD_REACTORS
330
C
102
}
330
C
100
AcDbDictionary
281
     1
  3
Layout1
350
D3
  3
Layout2
350
D7
  3
Model
350
22
  0
DICTIONARY
  5
6A
102
{ACAD_REACTORS
330
C
102
}
330
C
100
AcDbDictionary
281
     1
  3
ByBlock
350
ED
  3
ByLayer
350
EC
  3
Global
350
EE
  0
DICTIONARY
  5
12D
102
{ACAD_REACTORS
330
C
102
}
330
C
100
AcDbDictionary
281
     1
  3
Standard
350
12E
  0
DICTIONARY
  5
17
102
{ACAD_REACTORS
330
C
102
}
330
C
100
AcDbDictionary
281
     1
  3
Standard
350
18
  0
DICTIONARY
  5
19
102
{ACAD_REACTORS
330
C
102
}
330
C
100
AcDbDictionary
281
     1
  0
ACDBDICTIONARYWDFLT
  5
E
102
{ACAD_REACTORS
330
C
102
}
330
C
100
AcDbDictionary
281
     1
  3
Normal
350
F
100
AcDbDictionaryWithDefault
340
F
  0
RAPIDRTRENDERSETTINGS
  5
2B4
102
{ACAD_REACTORS
330
C
102
}
330
C
100
AcDbRenderSettings
 90
        2
  1
Medium
290
     1
290
     0
290
     1
290
     1
  1

  1
Applies 5 rendering levels
 90
        0
100
AcDbRapidRTRenderSettings
 90
        3
 70
     0
 90
        5
 90
        1
 70
     1
 70
     2
 40
3.0
 40
3.0
290
     1
  0
MENTALRAYRENDERSETTINGS
  5
7267
102
{ACAD_XDICTIONARY
360
7268
102
}
102
{ACAD_REACTORS
330
C
102
}
330
C
100
AcDbRenderSettings
 90
        2
  1
Medium
290
     1
290
     1
290
     1
290
     1
  1

  1

 90
        0
100
AcDbMentalRayRenderSettings
 90
        2
 90
        0
 90
        1
 70
     2
 40
3.0
 40
3.0
 40
0.0500000007450581
 40
0.0500000007450581
 40
0.0500000007450581
 40
0.0500000007450581
 70
     0
290
     0
290
     1
 90
        5
 90
        5
 90
        5
290
     0
 90
      500
290
     0
 40
1.0
 90
    10000
 90
        5
 90
        5
 90
        5
290
     0
 90
      200
290
     0
290
     0
290
     0
 40
1.0
 40
1.0
 40
1500.0
 70
     0
 70
     0
 40
10.0
 70
     0
 70
     0
290
     0
  1

 90
       32
 70
     0
 90
     1048
290
     0
 40
1.0
  0
DICTIONARY
  5
10C
102
{ACAD_REACTORS
330
C
102
}
330
C
100
AcDbDictionary
281
     1
  3
A0
350
10D
  3
A1
350
1BE
  3
A2
350
1BF
  3
A3
350
1C0
  3
A4
350
1C1
  3
A5
350
1C2
  3
A6
350
1C3
  3
A7
350
1C4
  3
A8
350
1C5
  3
A9
350
1C6
  3
B0
350
1C7
  3
B1
350
1C8
  3
B2
350
1C9
  3
B3
350
1CA
  3
B4
350
1CB
  3
B5
350
1CC
  3
B6
350
1CD
  0
DICTIONARY
  5
219
102
{ACAD_REACTORS
330
C
102
}
330
C
100
AcDbDictionary
281
     1
  3
Metric50
350
21A
  0
DICTIONARY
  5
7E
102
{ACAD_REACTORS
330
C
102
}
330
C
100
AcDbDictionary
281
     1
  3
Standard
350
7F
  0
DICTIONARY
  5
EF
102
{ACAD_REACTORS
330
C
102
}
330
C
100
AcDbDictionary
281
     1
  3
2dWireframe
350
F5
  3
Basic
350
F4
  3
Brighten
350
FB
  3
ColorChange
350
FF
  3
Conceptual
350
F8
  3
Dim
350
FA
  3
EdgeColorOff
350
1E6
  3
Facepattern
350
FE
  3
Flat
350
F0
  3
FlatWithEdges
350
F1
  3
Gouraud
350
F2
  3
GouraudWithEdges
350
F3
  3
Hidden
350
F7
  3
JitterOff
350
1E4
  3
Linepattern
350
FD
  3
OverhangOff
350
1E5
  3
Realistic
350
F9
  3
Shaded
350
1F3
  3
Shaded with edges
350
1F2
  3
Shades of Gray
350
1EF
  3
Sketchy
350
1F0
  3
Thicken
350
FC
  3
Wireframe
350
F6
  3
X-Ray
350
1F1
  0
XRECORD
  5
72C2
102
{ACAD_REACTORS
330
C
102
}
330
C
100
AcDbXrecord
280
     1
 90
        1
330
7F
  0
DICTIONARY
  5
5E
102
{ACAD_REACTORS
330
C
102
}
330
C
100
AcDbDictionary
281
     1
  3
CANNOSCALE
350
146
  3
CENTEREXE
350
259
  3
CENTERLTYPEFILE
350
25A
  3
CMLEADERSTYLE
350
145
  3
CTABLESTYLE
350
84
  3
CVIEWDETAILSTYLE
350
227
  3
CVIEWSECTIONSTYLE
350
228
  3
DIMASSOC
350
5F
  3
HIDETEXT
350
63
  3
INDEXCTL
350
726F
  3
LAYEREVAL
350
1AE
  3
LAYERNOTIFY
350
1AF
  3
LIGHTINGUNITS
350
726D
  3
MSLTSCALE
350
726C
  3
PSOLHEIGHT
350
72BF
  3
PSOLWIDTH
350
72BE
  3
SORTENTS
350
726E
  3
XCLIPFRAME
350
72C0
  0
XRECORD
  5
72C3
102
{ACAD_REACTORS
330
C
102
}
330
C
100
AcDbXrecord
280
     1
  1
DWGPROPS COOKIE
  2

  3

  4

  6

  7

  8
tronnguyen
  9

300
=
301
=
302
=
303
=
304
=
305
=
306
=
307
=
308
=
309
=
 40
0.0038541666666667
 41
2460823.717523148
 42
2460823.731261574
  1

 90
        0
  0
DICTIONARY
  5
200
102
{ACAD_REACTORS
330
1FF
102
}
330
1FF
100
AcDbDictionary
281
     1
  0
XRECORD
  5
7215
102
{ACAD_REACTORS
330
1CE
102
}
330
1CE
100
AcDbXrecord
280
     1
340
1F
  0
XRECORD
  5
721E
102
{ACAD_REACTORS
330
71C0
102
}
330
71C0
100
AcDbXrecord
280
     1
340
D2
  0
XRECORD
  5
7221
102
{ACAD_REACTORS
330
71C2
102
}
330
71C2
100
AcDbXrecord
280
     1
340
D6
  0
ACDBDETAILVIEWSTYLE
  5
21C
102
{ACAD_XDICTIONARY
360
7302
102
}
102
{ACAD_REACTORS
330
21B
102
}
330
21B
100
AcDbModelDocViewStyle
 70
     0
  3
Metric50
290
     0
100
AcDbDetailViewStyle
 70
     0
 71
     0
 90
        3
 71
     1
340
11
 40
5.0
340
0
 40
5.0
300

 40
0.0
280
     1
 71
     2
340
16
 90
       25
 71
     3
340
11
 40
5.0
 90
        0
 40
15.0
 90
        1
300
%<\AcVar ViewDetailId>% (%<\AcVar ViewScale \f "%sn">%)
 71
     4
340
16
 90
       25
340
16
 90
       25
280
     0
  0
LAYOUT
  5
D3
102
{ACAD_XDICTIONARY
360
72C7
102
}
102
{ACAD_REACTORS
330
1A
102
}
330
1A
100
AcDbPlotSettings
  1

  2
C:\Documents and Settings\basas\Application Data\Autodesk\AutoCAD 2005\R16.1\enu\plotters\Default Windows System Printer.pc3
  4

  6

 40
0.0
 41
0.0
 42
0.0
 43
0.0
 44
0.0
 45
0.0
 46
0.0
 47
0.0
 48
0.0
 49
0.0
140
0.0
141
0.0
142
1.0
143
1.0
 70
   688
 72
     0
 73
     0
 74
     5
  7

 75
    16
147
1.0
148
0.0
149
0.0
100
AcDbLayout
  1
Layout1
 70
     1
 71
     1
 10
0.0
 20
0.0
 11
12.0
 21
9.0
 12
0.0
 22
0.0
 32
0.0
 14
0.0
 24
0.0
 34
0.0
 15
0.0
 25
0.0
 35
0.0
146
0.0
 13
0.0
 23
0.0
 33
0.0
 16
1.0
 26
0.0
 36
0.0
 17
0.0
 27
1.0
 37
0.0
 76
     0
330
D2
  0
LAYOUT
  5
D7
102
{ACAD_XDICTIONARY
360
72C9
102
}
102
{ACAD_REACTORS
330
1A
102
}
330
1A
100
AcDbPlotSettings
  1

  2
C:\Documents and Settings\basas\Application Data\Autodesk\AutoCAD 2005\R16.1\enu\plotters\Default Windows System Printer.pc3
  4

  6

 40
0.0
 41
0.0
 42
0.0
 43
0.0
 44
0.0
 45
0.0
 46
0.0
 47
0.0
 48
0.0
 49
0.0
140
0.0
141
0.0
142
1.0
143
1.0
 70
   688
 72
     0
 73
     0
 74
     5
  7

 75
    16
147
1.0
148
0.0
149
0.0
100
AcDbLayout
  1
Layout2
 70
     1
 71
     2
 10
0.0
 20
0.0
 11
12.0
 21
9.0
 12
0.0
 22
0.0
 32
0.0
 14
0.0
 24
0.0
 34
0.0
 15
0.0
 25
0.0
 35
0.0
146
0.0
 13
0.0
 23
0.0
 33
0.0
 16
1.0
 26
0.0
 36
0.0
 17
0.0
 27
1.0
 37
0.0
 76
     0
330
D6
  0
LAYOUT
  5
22
102
{ACAD_XDICTIONARY
360
72C4
102
}
102
{ACAD_REACTORS
330
1A
102
}
330
1A
100
AcDbPlotSettings
  1

  2
none_device
  4
ISO_A4_(210.00_x_297.00_MM)
  6

 40
7.5
 41
20.0
 42
7.5
 43
20.0
 44
210.0
 45
297.0
 46
11.54999923706054
 47
-13.65000009536743
 48
0.0
 49
0.0
140
0.0
141
0.0
142
1.0
143
8.704084754739808
 70
 11952
 72
     1
 73
     0
 74
     0
  7

 75
     0
147
0.1148885871608098
148
0.0
149
0.0
100
AcDbLayout
  1
Model
 70
     1
 71
     0
 10
0.0
 20
0.0
 11
12.0
 21
9.0
 12
0.0
 22
0.0
 32
0.0
 14
0.0
 24
0.0
 34
0.0
 15
0.0
 25
0.0
 35
0.0
146
0.0
 13
0.0
 23
0.0
 33
0.0
 16
1.0
 26
0.0
 36
0.0
 17
0.0
 27
1.0
 37
0.0
 76
     0
330
1F
331
EA
1001
ACAD_PSEXT
1000
None
1000
None
1000
Not applicable
1000
The layout will not be plotted unless a new plotter configuration name is selected.
1070
     0
  0
MATERIAL
  5
ED
102
{ACAD_XDICTIONARY
360
1F9
102
}
102
{ACAD_REACTORS
330
6A
102
}
330
6A
100
AcDbMaterial
  1
ByBlock
  0
MATERIAL
  5
EC
102
{ACAD_XDICTIONARY
360
1F7
102
}
102
{ACAD_REACTORS
330
6A
102
}
330
6A
100
AcDbMaterial
  1
ByLayer
  0
MATERIAL
  5
EE
102
{ACAD_XDICTIONARY
360
173
102
}
102
{ACAD_REACTORS
330
6A
102
}
330
6A
100
AcDbMaterial
  1
Global
 43
0.0007999999797903
 43
0.0
 43
0.0
 43
0.0
 43
0.0
 43
0.0007999999797903
 43
0.0
 43
0.0
 43
0.0
 43
0.0
 43
1.0
 43
0.0
 43
0.0
 43
0.0
 43
0.0
 43
1.0
 49
0.0007999999797903
 49
0.0
 49
0.0
 49
0.0
 49
0.0
 49
0.0007999999797903
 49
0.0
 49
0.0
 49
0.0
 49
0.0
 49
1.0
 49
0.0
 49
0.0
 49
0.0
 49
0.0
 49
1.0
142
0.0007999999797903
142
0.0
142
0.0
142
0.0
142
0.0
142
0.0007999999797903
142
0.0
142
0.0
142
0.0
142
0.0
142
1.0
142
0.0
142
0.0
142
0.0
142
0.0
142
1.0
144
0.0007999999797903
144
0.0
144
0.0
144
0.0
144
0.0
144
0.0007999999797903
144
0.0
144
0.0
144
0.0
144
0.0
144
1.0
144
0.0
144
0.0
144
0.0
144
0.0
144
1.0
1001
ACAD
1070
    -1
1070
     3
1070
     0
1000

1071
        0
1070
     0
  0
MLEADERSTYLE
  5
12E
102
{ACAD_XDICTIONARY
360
72EE
102
}
102
{ACAD_REACTORS
330
12D
102
}
330
12D
100
AcDbMLeaderStyle
170
     2
171
     1
172
     0
 90
        2
 40
0.0
 41
0.0
173
     1
 91
-1056964608
340
14
 92
       -2
290
     1
 42
2.0
291
     1
 43
8.0
  3
Standard
 44
4.0
300

342
11
174
     1
178
     1
175
     1
176
     0
 93
-1056964608
 45
4.0
292
     0
297
     0
 46
4.0
 94
-1056964608
 47
1.0
 49
1.0
140
1.0
293
     1
141
0.0
294
     1
177
     0
142
1.0
295
     0
296
     0
143
3.75
1001
ACAD_MLEADERVER
1070
     2
  0
MLINESTYLE
  5
18
102
{ACAD_REACTORS
330
17
102
}
330
17
100
AcDbMlineStyle
  2
STANDARD
 70
     0
  3

 62
   256
 51
90.0
 52
90.0
 71
     2
 49
0.5
 62
   256
  6
BYLAYER
 49
-0.5
 62
   256
  6
BYLAYER
  0
ACDBPLACEHOLDER
  5
F
102
{ACAD_REACTORS
330
E
102
}
330
E
  0
DICTIONARY
  5
7268
330
7267
100
AcDbDictionary
280
     1
281
     1
  3
ADSK_XREC_MENTALRAYSETTINGSINFO
360
7269
  0
SCALE
  5
10D
102
{ACAD_REACTORS
330
10C
102
}
330
10C
100
AcDbScale
 70
     0
300
1:1
140
1.0
141
1.0
290
     1
  0
SCALE
  5
1BE
102
{ACAD_REACTORS
330
10C
102
}
330
10C
100
AcDbScale
 70
     0
300
1:2
140
1.0
141
2.0
290
     0
  0
SCALE
  5
1BF
102
{ACAD_REACTORS
330
10C
102
}
330
10C
100
AcDbScale
 70
     0
300
1:4
140
1.0
141
4.0
290
     0
  0
SCALE
  5
1C0
102
{ACAD_REACTORS
330
10C
102
}
330
10C
100
AcDbScale
 70
     0
300
1:5
140
1.0
141
5.0
290
     0
  0
SCALE
  5
1C1
102
{ACAD_REACTORS
330
10C
102
}
330
10C
100
AcDbScale
 70
     0
300
1:8
140
1.0
141
8.0
290
     0
  0
SCALE
  5
1C2
102
{ACAD_REACTORS
330
10C
102
}
330
10C
100
AcDbScale
 70
     0
300
1:10
140
1.0
141
10.0
290
     0
  0
SCALE
  5
1C3
102
{ACAD_REACTORS
330
10C
102
}
330
10C
100
AcDbScale
 70
     0
300
1:16
140
1.0
141
16.0
290
     0
  0
SCALE
  5
1C4
102
{ACAD_REACTORS
330
10C
102
}
330
10C
100
AcDbScale
 70
     0
300
1:20
140
1.0
141
20.0
290
     0
  0
SCALE
  5
1C5
102
{ACAD_REACTORS
330
10C
102
}
330
10C
100
AcDbScale
 70
     0
300
1:30
140
1.0
141
30.0
290
     0
  0
SCALE
  5
1C6
102
{ACAD_REACTORS
330
10C
102
}
330
10C
100
AcDbScale
 70
     0
300
1:40
140
1.0
141
40.0
290
     0
  0
SCALE
  5
1C7
102
{ACAD_REACTORS
330
10C
102
}
330
10C
100
AcDbScale
 70
     0
300
1:50
140
1.0
141
50.0
290
     0
  0
SCALE
  5
1C8
102
{ACAD_REACTORS
330
10C
102
}
330
10C
100
AcDbScale
 70
     0
300
1:100
140
1.0
141
100.0
290
     0
  0
SCALE
  5
1C9
102
{ACAD_REACTORS
330
10C
102
}
330
10C
100
AcDbScale
 70
     0
300
2:1
140
2.0
141
1.0
290
     0
  0
SCALE
  5
1CA
102
{ACAD_REACTORS
330
10C
102
}
330
10C
100
AcDbScale
 70
     0
300
4:1
140
4.0
141
1.0
290
     0
  0
SCALE
  5
1CB
102
{ACAD_REACTORS
330
10C
102
}
330
10C
100
AcDbScale
 70
     0
300
8:1
140
8.0
141
1.0
290
     0
  0
SCALE
  5
1CC
102
{ACAD_REACTORS
330
10C
102
}
330
10C
100
AcDbScale
 70
     0
300
10:1
140
10.0
141
1.0
290
     0
  0
SCALE
  5
1CD
102
{ACAD_REACTORS
330
10C
102
}
330
10C
100
AcDbScale
 70
     0
300
100:1
140
100.0
141
1.0
290
     0
  0
ACDBSECTIONVIEWSTYLE
  5
21A
102
{ACAD_XDICTIONARY
360
7300
102
}
102
{ACAD_REACTORS
330
219
102
}
330
219
100
AcDbModelDocViewStyle
 70
     0
  3
Metric50
290
     0
100
AcDbSectionViewStyle
 70
     0
 71
     0
 90
      102
 71
     1
340
11
 40
5.0
340
0
340
0
 40
5.0
300
I, O, Q, S, X, Z
 40
10.0
 90
        0
 40
2.5
 90
        0
 71
     2
340
16
 90
       25
340
16
 90
       50
 40
5.0
 40
2.5
 40
5.0
 71
     3
340
11
 40
5.0
 90
        0
 40
15.0
 90
        1
300
%<\AcVar ViewSectionStartId>%-%<\AcVar ViewSectionEndId>% (%<\AcVar ViewScale \f "%sn">%)
 71
     4
300
ANSI31
 40
1.0
 90
        0
290
     0
290
     0
 90
        6
 40
0.0
 40
1.570796326794896
 40
0.2617993877991494
 40
1.308996938995747
 40
-0.2617993877991494
 40
1.832595714594046
  0
TABLESTYLE
  5
7F
102
{ACAD_XDICTIONARY
360
162
102
}
102
{ACAD_REACTORS
330
7E
102
}
330
7E
100
AcDbTableStyle
  3
Standard
 70
     0
 71
     0
 40
1.5
 41
1.5
280
     0
281
     0
  7
Standard
140
4.5
170
     2
 62
     0
 63
     7
283
     0
274
    -2
284
     1
 64
     0
275
    -2
285
     1
 65
     0
276
    -2
286
     1
 66
     0
277
    -2
287
     1
 67
     0
278
    -2
288
     1
 68
     0
279
    -2
289
     1
 69
     0
  7
Standard
140
6.0
170
     5
 62
     0
 63
     7
283
     0
274
    -2
284
     1
 64
     0
275
    -2
285
     1
 65
     0
276
    -2
286
     1
 66
     0
277
    -2
287
     1
 67
     0
278
    -2
288
     1
 68
     0
279
    -2
289
     1
 69
     0
  7
Standard
140
4.5
170
     5
 62
     0
 63
     7
283
     0
274
    -2
284
     1
 64
     0
275
    -2
285
     1
 65
     0
276
    -2
286
     1
 66
     0
277
    -2
287
     1
 67
     0
278
    -2
288
     1
 68
     0
279
    -2
289
     1
 69
     0
  0
VISUALSTYLE
  5
F5
102
{ACAD_XDICTIONARY
360
72D8
102
}
102
{ACAD_REACTORS
330
EF
102
}
330
EF
100
AcDbVisualStyle
  2
2dWireframe
 70
     4
 71
     0
 72
     2
 73
     1
 90
        0
 40
-0.6
 41
-30.0
 62
     5
 63
     7
 74
     1
 91
        4
 64
     7
 65
   257
 75
     1
175
     1
 42
1.0
 92
        0
 66
   257
 43
1.0
 76
     1
 77
     6
 78
     2
 67
     7
 79
     5
170
     0
171
     0
290
     0
174
     0
 93
        1
 44
0.0
173
     0
291
     0
 45
0.0
1001
ACAD
1000
AcDbSavedByObjectVersion
1070
     0
  0
VISUALSTYLE
  5
F4
102
{ACAD_XDICTIONARY
360
72D6
102
}
102
{ACAD_REACTORS
330
EF
102
}
330
EF
100
AcDbVisualStyle
  2
Basic
 70
     7
 71
     1
 72
     0
 73
     1
 90
        0
 40
-0.6
 41
-30.0
 62
     5
 63
     7
 74
     0
 91
        4
 64
     7
 65
   257
 75
     1
175
     1
 42
1.0
 92
        8
 66
     7
 43
1.0
 76
     1
 77
     6
 78
     2
 67
     7
 79
     5
170
     0
171
     0
290
     0
174
     0
 93
        1
 44
0.0
173
     0
291
     1
 45
0.0
1001
ACAD
1000
AcDbSavedByObjectVersion
1070
     0
  0
VISUALSTYLE
  5
FB
102
{ACAD_XDICTIONARY
360
72E4
102
}
102
{ACAD_REACTORS
330
EF
102
}
330
EF
100
AcDbVisualStyle
  2
Brighten
 70
    12
 71
     2
 72
     2
 73
     1
 90
        0
 40
-0.6
 41
-30.0
 62
     5
 63
     7
 74
     1
 91
        4
 64
     7
 65
   257
 75
     1
175
     1
 42
1.0
 92
        8
 66
     7
 43
1.0
 76
     1
 77
     6
 78
     2
 67
     7
 79
     5
170
     0
171
     0
290
     0
174
     0
 93
        1
 44
50.0
173
     0
291
     1
 45
0.0
1001
ACAD
1000
AcDbSavedByObjectVersion
1070
     0
  0
VISUALSTYLE
  5
FF
102
{ACAD_XDICTIONARY
360
72EC
102
}
102
{ACAD_REACTORS
330
EF
102
}
330
EF
100
AcDbVisualStyle
  2
ColorChange
 70
    16
 71
     2
 72
     2
 73
     3
 90
        0
 40
-0.6
 41
-30.0
 62
     5
 63
     8
 74
     1
 91
        4
 64
     7
 65
   257
 75
     1
175
     1
 42
1.0
 92
        8
 66
     8
 43
1.0
 76
     1
 77
     6
 78
     2
 67
     7
 79
     5
170
     0
171
     0
290
     0
174
     0
 93
        1
 44
0.0
173
     0
291
     1
 45
0.0
1001
ACAD
1000
AcDbSavedByObjectVersion
1070
     0
  0
VISUALSTYLE
  5
F8
102
{ACAD_XDICTIONARY
360
72DE
102
}
102
{ACAD_REACTORS
330
EF
102
}
330
EF
100
AcDbVisualStyle
  2
Conceptual
 70
     9
 71
     3
 72
     2
 73
     1
 90
        0
 40
-0.6
 41
-30.0
 62
     5
 63
     7
 74
     2
 91
        2
 64
     7
 65
   257
 75
     1
175
     1
 42
40.0
 92
        8
 66
     7
 43
1.0
 76
     1
 77
     6
 78
     2
 67
     7
 79
     3
170
     0
171
     0
290
     0
174
     0
 93
        1
 44
0.0
173
     0
291
     0
 45
0.0
1001
ACAD
1000
AcDbSavedByObjectVersion
1070
     0
  0
VISUALSTYLE
  5
FA
102
{ACAD_XDICTIONARY
360
72E2
102
}
102
{ACAD_REACTORS
330
EF
102
}
330
EF
100
AcDbVisualStyle
  2
Dim
 70
    11
 71
     2
 72
     2
 73
     1
 90
        0
 40
-0.6
 41
-30.0
 62
     5
 63
     7
 74
     1
 91
        4
 64
     7
 65
   257
 75
     1
175
     1
 42
1.0
 92
        8
 66
     7
 43
1.0
 76
     1
 77
     6
 78
     2
 67
     7
 79
     5
170
     0
171
     0
290
     0
174
     0
 93
        1
 44
-50.0
173
     0
291
     1
 45
0.0
1001
ACAD
1000
AcDbSavedByObjectVersion
1070
     0
  0
VISUALSTYLE
  5
1E6
102
{ACAD_XDICTIONARY
360
72F4
102
}
102
{ACAD_REACTORS
330
EF
102
}
330
EF
100
AcDbVisualStyle
  2
EdgeColorOff
 70
    22
 71
     2
 72
     2
 73
     0
 90
        0
 40
-0.6
 41
-30.0
 62
     5
 63
     7
 74
     1
 91
        4
 64
     7
 65
   257
 75
     1
175
     1
 42
1.0
 92
        8
 66
     7
 43
1.0
 76
     1
 77
     6
 78
     2
 67
     7
 79
     5
170
     0
171
     0
290
     0
174
     0
 93
        1
 44
0.0
173
     0
291
     1
 45
0.0
1001
ACAD
1000
AcDbSavedByObjectVersion
1070
     0
  0
VISUALSTYLE
  5
FE
102
{ACAD_XDICTIONARY
360
72EA
102
}
102
{ACAD_REACTORS
330
EF
102
}
330
EF
100
AcDbVisualStyle
  2
Facepattern
 70
    15
 71
     2
 72
     2
 73
     1
 90
        0
 40
-0.6
 41
-30.0
 62
     5
 63
     7
 74
     1
 91
        4
 64
     7
 65
   257
 75
     1
175
     1
 42
1.0
 92
        8
 66
     7
 43
1.0
 76
     1
 77
     6
 78
     2
 67
     7
 79
     5
170
     0
171
     0
290
     0
174
     0
 93
        1
 44
0.0
173
     0
291
     1
 45
0.0
1001
ACAD
1000
AcDbSavedByObjectVersion
1070
     0
  0
VISUALSTYLE
  5
F0
102
{ACAD_XDICTIONARY
360
72CE
102
}
102
{ACAD_REACTORS
330
EF
102
}
330
EF
100
AcDbVisualStyle
  2
Flat
 70
     0
 71
     2
 72
     1
 73
     1
 90
        2
 40
-0.6
 41
30.0
 62
     5
 63
     7
 74
     0
 91
        0
 64
     7
 65
   257
 75
     1
175
     1
 42
1.0
 92
        8
 66
     7
 43
1.0
 76
     1
 77
     6
 78
     2
 67
     7
 79
     5
170
     0
171
     0
290
     0
174
     0
 93
       13
 44
0.0
173
     0
291
     1
 45
0.0
1001
ACAD
1000
AcDbSavedByObjectVersion
1070
     0
  0
VISUALSTYLE
  5
F1
102
{ACAD_XDICTIONARY
360
72D0
102
}
102
{ACAD_REACTORS
330
EF
102
}
330
EF
100
AcDbVisualStyle
  2
FlatWithEdges
 70
     1
 71
     2
 72
     1
 73
     1
 90
        2
 40
-0.6
 41
30.0
 62
     5
 63
     7
 74
     1
 91
        0
 64
     7
 65
   257
 75
     1
175
     1
 42
1.0
 92
        0
 66
   257
 43
1.0
 76
     1
 77
     6
 78
     2
 67
     7
 79
     5
170
     0
171
     0
290
     0
174
     0
 93
       13
 44
0.0
173
     0
291
     1
 45
0.0
1001
ACAD
1000
AcDbSavedByObjectVersion
1070
     0
  0
VISUALSTYLE
  5
F2
102
{ACAD_XDICTIONARY
360
72D2
102
}
102
{ACAD_REACTORS
330
EF
102
}
330
EF
100
AcDbVisualStyle
  2
Gouraud
 70
     2
 71
     2
 72
     2
 73
     1
 90
        2
 40
-0.6
 41
30.0
 62
     5
 63
     7
 74
     0
 91
        0
 64
     7
 65
   257
 75
     1
175
     1
 42
1.0
 92
        0
 66
     7
 43
1.0
 76
     1
 77
     6
 78
     2
 67
     7
 79
     5
170
     0
171
     0
290
     0
174
     0
 93
       13
 44
0.0
173
     0
291
     1
 45
0.0
1001
ACAD
1000
AcDbSavedByObjectVersion
1070
     0
  0
VISUALSTYLE
  5
F3
102
{ACAD_XDICTIONARY
360
72D4
102
}
102
{ACAD_REACTORS
330
EF
102
}
330
EF
100
AcDbVisualStyle
  2
GouraudWithEdges
 70
     3
 71
     2
 72
     2
 73
     1
 90
        2
 40
-0.6
 41
30.0
 62
     5
 63
     7
 74
     1
 91
        0
 64
     7
 65
   257
 75
     1
175
     1
 42
1.0
 92
        0
 66
   257
 43
1.0
 76
     1
 77
     6
 78
     2
 67
     7
 79
     5
170
     0
171
     0
290
     0
174
     0
 93
       13
 44
0.0
173
     0
291
     1
 45
0.0
1001
ACAD
1000
AcDbSavedByObjectVersion
1070
     0
  0
VISUALSTYLE
  5
F7
102
{ACAD_XDICTIONARY
360
72DC
102
}
102
{ACAD_REACTORS
330
EF
102
}
330
EF
100
AcDbVisualStyle
  2
Hidden
 70
     6
 71
     1
 72
     2
 73
     2
 90
        0
 40
-0.6
 41
-30.0
 62
     5
 63
     7
 74
     2
 91
        2
 64
     7
 65
   257
 75
     2
175
     1
 42
40.0
 92
        0
 66
   257
 43
1.0
 76
     1
 77
     6
 78
     2
 67
     7
 79
     3
170
     0
171
     0
290
     0
174
     0
 93
        1
 44
0.0
173
     0
291
     0
 45
0.0
1001
ACAD
1000
AcDbSavedByObjectVersion
1070
     0
  0
VISUALSTYLE
  5
1E4
102
{ACAD_XDICTIONARY
360
72F0
102
}
102
{ACAD_REACTORS
330
EF
102
}
330
EF
100
AcDbVisualStyle
  2
JitterOff
 70
    20
 71
     2
 72
     2
 73
     0
 90
        0
 40
-0.6
 41
-30.0
 62
     5
 63
     7
 74
     1
 91
        4
 64
     7
 65
   257
 75
     1
175
     1
 42
1.0
 92
       10
 66
     7
 43
1.0
 76
     1
 77
     6
 78
     2
 67
     7
 79
     5
170
     0
171
     0
290
     0
174
     0
 93
        1
 44
0.0
173
     0
291
     1
 45
0.0
1001
ACAD
1000
AcDbSavedByObjectVersion
1070
     0
  0
VISUALSTYLE
  5
FD
102
{ACAD_XDICTIONARY
360
72E8
102
}
102
{ACAD_REACTORS
330
EF
102
}
330
EF
100
AcDbVisualStyle
  2
Linepattern
 70
    14
 71
     2
 72
     2
 73
     1
 90
        0
 40
-0.6
 41
-30.0
 62
     5
 63
     7
 74
     1
 91
        4
 64
     7
 65
   257
 75
     7
175
     7
 42
1.0
 92
        8
 66
     7
 43
1.0
 76
     1
 77
     6
 78
     2
 67
     7
 79
     5
170
     0
171
     0
290
     0
174
     0
 93
        1
 44
0.0
173
     0
291
     1
 45
0.0
1001
ACAD
1000
AcDbSavedByObjectVersion
1070
     0
  0
VISUALSTYLE
  5
1E5
102
{ACAD_XDICTIONARY
360
72F2
102
}
102
{ACAD_REACTORS
330
EF
102
}
330
EF
100
AcDbVisualStyle
  2
OverhangOff
 70
    21
 71
     2
 72
     2
 73
     0
 90
        0
 40
-0.6
 41
-30.0
 62
     5
 63
     7
 74
     1
 91
        4
 64
     7
 65
   257
 75
     1
175
     1
 42
1.0
 92
        9
 66
     7
 43
1.0
 76
     1
 77
     6
 78
     2
 67
     7
 79
     5
170
     0
171
     0
290
     0
174
     0
 93
        1
 44
0.0
173
     0
291
     1
 45
0.0
1001
ACAD
1000
AcDbSavedByObjectVersion
1070
     0
  0
VISUALSTYLE
  5
F9
102
{ACAD_XDICTIONARY
360
72E0
102
}
102
{ACAD_REACTORS
330
EF
102
}
330
EF
100
AcDbVisualStyle
  2
Realistic
 70
     8
 71
     2
 72
     2
 73
     0
 90
        2
 40
-0.6
 41
30.0
 62
     5
 63
     7
 74
     0
 91
        0
 64
     7
 65
   257
 75
     1
175
     1
 42
1.0
 92
        8
 66
   257
 43
1.0
 76
     1
 77
     6
 78
     2
 67
     7
 79
     3
170
     0
171
     0
290
     0
174
     0
 93
       13
 44
0.0
173
     0
291
     0
 45
0.0
1001
ACAD
1000
AcDbSavedByObjectVersion
1070
     0
  0
VISUALSTYLE
  5
1F3
102
{ACAD_XDICTIONARY
360
72FE
102
}
102
{ACAD_REACTORS
330
EF
102
}
330
EF
100
AcDbVisualStyle
  2
Shaded
 70
    27
 71
     2
 72
     2
 73
     1
 90
        2
 40
-0.6
 41
30.0
 62
     5
 63
     7
 74
     0
 91
        4
 64
     7
 65
   257
 75
     1
175
     1
 42
1.0
 92
        8
 66
   257
 43
1.0
 76
     1
 77
     6
 78
     2
 67
     8
 79
     3
170
     0
171
     0
290
     0
174
     0
 93
        5
 44
0.0
173
     0
291
     0
 45
0.0
1001
ACAD
1000
AcDbSavedByObjectVersion
1070
     0
  0
VISUALSTYLE
  5
1F2
102
{ACAD_XDICTIONARY
360
72FC
102
}
102
{ACAD_REACTORS
330
EF
102
}
330
EF
100
AcDbVisualStyle
  2
Shaded with edges
 70
    26
 71
     2
 72
     2
 73
     1
 90
        2
 40
-0.6
 41
30.0
 62
     5
 63
     7
 74
     1
 91
        2
 64
     7
 65
   257
 75
     2
175
     1
 42
1.0
 92
        8
 66
   257
 43
1.0
 76
     1
 77
     6
 78
     2
 67
     7
 79
     3
170
     0
171
     0
290
     0
174
     0
 93
        5
 44
0.0
173
     0
291
     0
 45
0.0
1001
ACAD
1000
AcDbSavedByObjectVersion
1070
     0
  0
VISUALSTYLE
  5
1EF
102
{ACAD_XDICTIONARY
360
72F6
102
}
102
{ACAD_REACTORS
330
EF
102
}
330
EF
100
AcDbVisualStyle
  2
Shades of Gray
 70
    23
 71
     2
 72
     2
 73
     3
 90
        0
 40
-0.6
 41
-30.0
 62
     5
 63
     7
 74
     2
 91
        2
 64
     7
 65
     7
 75
     1
175
     1
 42
40.0
 92
        8
 66
     7
 43
1.0
 76
     1
 77
     6
 78
     2
 67
     7
 79
     3
170
     0
171
     0
290
     0
174
     0
 93
        1
 44
0.0
173
     0
291
     0
 45
0.0
1001
ACAD
1000
AcDbSavedByObjectVersion
1070
     0
  0
VISUALSTYLE
  5
1F0
102
{ACAD_XDICTIONARY
360
72F8
102
}
102
{ACAD_REACTORS
330
EF
102
}
330
EF
100
AcDbVisualStyle
  2
Sketchy
 70
    24
 71
     1
 72
     2
 73
     2
 90
        0
 40
-0.6
 41
-30.0
 62
     5
 63
     7
 74
     2
 91
        2
 64
     7
 65
     7
 75
     1
175
     1
 42
40.0
 92
       11
 66
     7
 43
1.0
 76
     1
 77
     6
 78
     2
 67
     7
 79
     6
170
     0
171
     0
290
     0
174
     0
 93
        1
 44
0.0
173
     0
291
     0
 45
0.0
1001
ACAD
1000
AcDbSavedByObjectVersion
1070
     0
  0
VISUALSTYLE
  5
FC
102
{ACAD_XDICTIONARY
360
72E6
102
}
102
{ACAD_REACTORS
330
EF
102
}
330
EF
100
AcDbVisualStyle
  2
Thicken
 70
    13
 71
     2
 72
     2
 73
     1
 90
        0
 40
-0.6
 41
-30.0
 62
     5
 63
     7
 74
     1
 91
        4
 64
     7
 65
   257
 75
     1
175
     1
 42
1.0
 92
       12
 66
     7
 43
1.0
 76
     1
 77
     6
 78
     2
 67
     7
 79
     5
170
     0
171
     0
290
     0
174
     0
 93
        1
 44
0.0
173
     0
291
     1
 45
0.0
1001
ACAD
1000
AcDbSavedByObjectVersion
1070
     0
  0
VISUALSTYLE
  5
F6
102
{ACAD_XDICTIONARY
360
72DA
102
}
102
{ACAD_REACTORS
330
EF
102
}
330
EF
100
AcDbVisualStyle
  2
Wireframe
 70
     5
 71
     0
 72
     2
 73
     0
 90
        0
 40
-0.6
 41
-30.0
 62
     5
 63
     7
 74
     1
 91
        4
 64
     7
 65
   257
 75
     1
175
     1
 42
1.0
 92
        0
 66
   257
 43
1.0
 76
     1
 77
     6
 78
     2
 67
     7
 79
     3
170
     0
171
     0
290
     0
174
     0
 93
        1
 44
0.0
173
     0
291
     0
 45
0.0
1001
ACAD
1000
AcDbSavedByObjectVersion
1070
     0
  0
VISUALSTYLE
  5
1F1
102
{ACAD_XDICTIONARY
360
72FA
102
}
102
{ACAD_REACTORS
330
EF
102
}
330
EF
100
AcDbVisualStyle
  2
X-Ray
 70
    25
 71
     2
 72
     2
 73
     1
 90
        1
 40
0.5
 41
-30.0
 62
     5
 63
     7
 74
     1
 91
        0
 64
     7
 65
   257
 75
     1
175
     1
 42
1.0
 92
        8
 66
     7
 43
1.0
 76
     1
 77
     6
 78
     2
 67
     7
 79
     3
170
     0
171
     0
290
     0
174
     0
 93
       13
 44
0.0
173
     0
291
     0
 45
0.0
1001
ACAD
1000
AcDbSavedByObjectVersion
1070
     0
  0
DICTIONARYVAR
  5
146
102
{ACAD_REACTORS
330
5E
102
}
330
5E
100
DictionaryVariables
280
     0
  1
1:1
  0
DICTIONARYVAR
  5
259
102
{ACAD_REACTORS
330
5E
102
}
330
5E
100
DictionaryVariables
280
     0
  1
3.500000
  0
DICTIONARYVAR
  5
25A
102
{ACAD_REACTORS
330
5E
102
}
330
5E
100
DictionaryVariables
280
     0
  1
acadiso.lin
  0
DICTIONARYVAR
  5
145
102
{ACAD_REACTORS
330
5E
102
}
330
5E
100
DictionaryVariables
280
     0
  1
STANDARD
  0
DICTIONARYVAR
  5
84
102
{ACAD_REACTORS
330
5E
102
}
330
5E
100
DictionaryVariables
280
     0
  1
STANDARD
  0
DICTIONARYVAR
  5
227
102
{ACAD_REACTORS
330
5E
102
}
330
5E
100
DictionaryVariables
280
     0
  1
Metric50
  0
DICTIONARYVAR
  5
228
102
{ACAD_REACTORS
330
5E
102
}
330
5E
100
DictionaryVariables
280
     0
  1
Metric50
  0
DICTIONARYVAR
  5
5F
102
{ACAD_REACTORS
330
5E
102
}
330
5E
100
DictionaryVariables
280
     0
  1
2
  0
DICTIONARYVAR
  5
63
102
{ACAD_REACTORS
330
5E
102
}
330
5E
100
DictionaryVariables
280
     0
  1
1
  0
DICTIONARYVAR
  5
726F
102
{ACAD_REACTORS
330
5E
102
}
330
5E
100
DictionaryVariables
280
     0
  1
0
  0
DICTIONARYVAR
  5
1AE
102
{ACAD_REACTORS
330
5E
102
}
330
5E
100
DictionaryVariables
280
     0
  1
0
  0
DICTIONARYVAR
  5
1AF
102
{ACAD_REACTORS
330
5E
102
}
330
5E
100
DictionaryVariables
280
     0
  1
0
  0
DICTIONARYVAR
  5
726D
102
{ACAD_REACTORS
330
5E
102
}
330
5E
100
DictionaryVariables
280
     0
  1
2
  0
DICTIONARYVAR
  5
726C
102
{ACAD_REACTORS
330
5E
102
}
330
5E
100
DictionaryVariables
280
     0
  1
1
  0
DICTIONARYVAR
  5
72BF
102
{ACAD_REACTORS
330
5E
102
}
330
5E
100
DictionaryVariables
280
     0
  1
80.000000
  0
DICTIONARYVAR
  5
72BE
102
{ACAD_REACTORS
330
5E
102
}
330
5E
100
DictionaryVariables
280
     0
  1
5.000000
  0
DICTIONARYVAR
  5
726E
102
{ACAD_REACTORS
330
5E
102
}
330
5E
100
DictionaryVariables
280
     0
  1
127
  0
DICTIONARYVAR
  5
72C0
102
{ACAD_REACTORS
330
5E
102
}
330
5E
100
DictionaryVariables
280
     0
  1
2
  0
DICTIONARY
  5
7302
330
21C
100
AcDbDictionary
280
     1
281
     1
  3
ACAD_XREC_ROUNDTRIP
360
7303
  0
DICTIONARY
  5
72C7
330
D3
100
AcDbDictionary
280
     1
281
     1
  3
ACAD_XREC_ROUNDTRIP
360
72C8
  0
DICTIONARY
  5
72C9
330
D7
100
AcDbDictionary
280
     1
281
     1
  3
ACAD_XREC_ROUNDTRIP
360
72CA
  0
DICTIONARY
  5
72C4
330
22
100
AcDbDictionary
280
     1
281
     1
  3
ACAD_XREC_ROUNDTRIP
360
72C5
  0
DICTIONARY
  5
1F9
330
ED
100
AcDbDictionary
280
     1
281
     1
  3
ACAD_XREC_ROUNDTRIP
360
72CC
  3
FBXASSET
360
1FA
  0
DICTIONARY
  5
1F7
330
EC
100
AcDbDictionary
280
     1
281
     1
  3
ACAD_XREC_ROUNDTRIP
360
72CB
  3
FBXASSET
360
1F8
  0
DICTIONARY
  5
173
330
EE
100
AcDbDictionary
280
     1
281
     1
  3
ACAD_XREC_ROUNDTRIP
360
72CD
  3
BUMPTILE
360
175
  3
DIFFUSETILE
360
174
  3
FBXASSET
360
1FB
  3
OPACITYTILE
360
176
  3
REFLECTIONTILE
360
177
  0
DICTIONARY
  5
72EE
330
12E
100
AcDbDictionary
280
     1
281
     1
  3
ACAD_XREC_ROUNDTRIP
360
72EF
  0
XRECORD
  5
7269
102
{ACAD_REACTORS
330
7268
102
}
330
7268
100
AcDbXrecord
280
     1
 70
     2
 71
     3
 72
     0
  0
DICTIONARY
  5
7300
330
21A
100
AcDbDictionary
280
     1
281
     1
  3
ACAD_XREC_ROUNDTRIP
360
7301
  0
DICTIONARY
  5
162
330
7F
100
AcDbDictionary
280
     1
281
     1
  3
ACAD_ROUNDTRIP_2008_TABLESTYLE_CELLSTYLEMAP
360
72C1
  3
ACAD_XREC_ROUNDTRIP
360
72C6
  0
DICTIONARY
  5
72D8
330
F5
100
AcDbDictionary
280
     1
281
     1
  3
ACAD_XREC_ROUNDTRIP
360
72D9
  0
DICTIONARY
  5
72D6
330
F4
100
AcDbDictionary
280
     1
281
     1
  3
ACAD_XREC_ROUNDTRIP
360
72D7
  0
DICTIONARY
  5
72E4
330
FB
100
AcDbDictionary
280
     1
281
     1
  3
ACAD_XREC_ROUNDTRIP
360
72E5
  0
DICTIONARY
  5
72EC
330
FF
100
AcDbDictionary
280
     1
281
     1
  3
ACAD_XREC_ROUNDTRIP
360
72ED
  0
DICTIONARY
  5
72DE
330
F8
100
AcDbDictionary
280
     1
281
     1
  3
ACAD_XREC_ROUNDTRIP
360
72DF
  0
DICTIONARY
  5
72E2
330
FA
100
AcDbDictionary
280
     1
281
     1
  3
ACAD_XREC_ROUNDTRIP
360
72E3
  0
DICTIONARY
  5
72F4
330
1E6
100
AcDbDictionary
280
     1
281
     1
  3
ACAD_XREC_ROUNDTRIP
360
72F5
  0
DICTIONARY
  5
72EA
330
FE
100
AcDbDictionary
280
     1
281
     1
  3
ACAD_XREC_ROUNDTRIP
360
72EB
  0
DICTIONARY
  5
72CE
330
F0
100
AcDbDictionary
280
     1
281
     1
  3
ACAD_XREC_ROUNDTRIP
360
72CF
  0
DICTIONARY
  5
72D0
330
F1
100
AcDbDictionary
280
     1
281
     1
  3
ACAD_XREC_ROUNDTRIP
360
72D1
  0
DICTIONARY
  5
72D2
330
F2
100
AcDbDictionary
280
     1
281
     1
  3
ACAD_XREC_ROUNDTRIP
360
72D3
  0
DICTIONARY
  5
72D4
330
F3
100
AcDbDictionary
280
     1
281
     1
  3
ACAD_XREC_ROUNDTRIP
360
72D5
  0
DICTIONARY
  5
72DC
330
F7
100
AcDbDictionary
280
     1
281
     1
  3
ACAD_XREC_ROUNDTRIP
360
72DD
  0
DICTIONARY
  5
72F0
330
1E4
100
AcDbDictionary
280
     1
281
     1
  3
ACAD_XREC_ROUNDTRIP
360
72F1
  0
DICTIONARY
  5
72E8
330
FD
100
AcDbDictionary
280
     1
281
     1
  3
ACAD_XREC_ROUNDTRIP
360
72E9
  0
DICTIONARY
  5
72F2
330
1E5
100
AcDbDictionary
280
     1
281
     1
  3
ACAD_XREC_ROUNDTRIP
360
72F3
  0
DICTIONARY
  5
72E0
330
F9
100
AcDbDictionary
280
     1
281
     1
  3
ACAD_XREC_ROUNDTRIP
360
72E1
  0
DICTIONARY
  5
72FE
330
1F3
100
AcDbDictionary
280
     1
281
     1
  3
ACAD_XREC_ROUNDTRIP
360
72FF
  0
DICTIONARY
  5
72FC
330
1F2
100
AcDbDictionary
280
     1
281
     1
  3
ACAD_XREC_ROUNDTRIP
360
72FD
  0
DICTIONARY
  5
72F6
330
1EF
100
AcDbDictionary
280
     1
281
     1
  3
ACAD_XREC_ROUNDTRIP
360
72F7
  0
DICTIONARY
  5
72F8
330
1F0
100
AcDbDictionary
280
     1
281
     1
  3
ACAD_XREC_ROUNDTRIP
360
72F9
  0
DICTIONARY
  5
72E6
330
FC
100
AcDbDictionary
280
     1
281
     1
  3
ACAD_XREC_ROUNDTRIP
360
72E7
  0
DICTIONARY
  5
72DA
330
F6
100
AcDbDictionary
280
     1
281
     1
  3
ACAD_XREC_ROUNDTRIP
360
72DB
  0
DICTIONARY
  5
72FA
330
1F1
100
AcDbDictionary
280
     1
281
     1
  3
ACAD_XREC_ROUNDTRIP
360
72FB
  0
XRECORD
  5
7303
102
{ACAD_REACTORS
330
7302
102
}
330
7302
100
AcDbXrecord
280
     1
102
DISPLAYNAME
  1
Metric50
102
FLAGS
 90
        0
  0
XRECORD
  5
72C8
102
{ACAD_REACTORS
330
72C7
102
}
330
72C7
100
AcDbXrecord
280
     1
102
SHADEPLOT
 70
     0
102
SHADEPLOTRESLEVEL
 70
     2
102
SHADEPLOTCUSTOMDPI
 70
   300
  0
XRECORD
  5
72CA
102
{ACAD_REACTORS
330
72C9
102
}
330
72C9
100
AcDbXrecord
280
     1
102
SHADEPLOT
 70
     0
102
SHADEPLOTRESLEVEL
 70
     2
102
SHADEPLOTCUSTOMDPI
 70
   300
  0
XRECORD
  5
72C5
102
{ACAD_REACTORS
330
72C4
102
}
330
72C4
100
AcDbXrecord
280
     1
102
SHADEPLOT
 70
     0
102
SHADEPLOTRESLEVEL
 70
     2
102
SHADEPLOTCUSTOMDPI
 70
   300
  0
XRECORD
  5
72CC
102
{ACAD_REACTORS
330
1F9
102
}
330
1F9
100
AcDbXrecord
280
     1
102
MATERIAL
148
0.0
149
0.0
149
0.0
 93
        0
 94
       63
282
     0
 72
     1
 77
     1
171
     1
175
     1
179
     1
273
     0
  0
XRECORD
  5
1FA
102
{ACAD_REACTORS
330
1F9
102
}
330
1F9
100
AcDbXrecord
280
     1
 70
     1
 90
429727718
  1
D62C5603-E3A1-4AEA-B7FB-FE5D8D0755AF
310
504B03040A0000080000CC70623B3DEE336E79000000790000001B0000006175746F6465736B2D64657369676E2D7061636B6167652E786D6C3C3F786D6C2076657273696F6E3D22312E302220656E636F64696E673D227574662D3822203F3E3C666F726D6174733E3C666F726D61743E687474703A2F2F736368656D612E
310
6175746F6465736B2E636F6D2F64657369676E2D7061636B6167652F323030393C2F666F726D61743E3C2F666F726D6174733E504B0304140006080800CC70623BD486FD9CA0000000F4000000130000005B436F6E74656E745F54797065735D2E786D6C7D8EC10E82300C865F65E91D8A1E8C310C0EEA1BF002731658846E
310
D98AC1B77784ABF1D8FE5FBFBF75BBCE937A534CCEB38643598122B6FEE978D0B0485F9C41B54DDD7D022595594E1A469170414C76A4D9A4D207E29CF43ECE46F218070CC6BECC4078ACAA135ACF422C856C0E68EA1BF5669944DDD7BCDE7B1F8E415D77AECB980613C2E4AC91FC167A2B244592486606FC29C8FD7F045B9A
310
EF7053A7E60B504B0304140006080800CC70623B853B8169EB0000007C01000008000000636F72652E786D6C8D90416EC3201045AF62CDB6C206821CC7C244919D9CA01740401C94182C03558F5F9C3852BBEB6A467FFE9B197D7EFC9E1EC5975982F5AE035262288C535E5B377690E21535501C055FBC8FBF6C503839990E
310
5619041F179FE64D52DE45E362569DD7661365082642A11EB9E920A89B99642953CC8E702F67A9EE7234257977194EC9EAE275C4EABCCF5EAD5940D4AC6F0E35A568B8F43562CD7046CD199FD07E60174276A7BE677B5EADB0E0D14EEFFB6A31321A0D82627C4084204C3F096B71DD52F6819B16635EADF63F509AF53FA164
310
5DDCD1EDDD17164090FCC8732078B56691CB33A85CD7DCC40F504B0304140006080800CC70623B55019EA25F0000007C00000007000000636E782E786D6C4DCB3B0E80201045D1AD90E915ED2CF8AC45050C11660C8261F98AB1B07AC9C97D42D718D865D3E909258CFD00CCE24AC6E326A164D74DC0B4128928FF32603847
310
2BA13128B1252AC747C6BAB984FC68F0B87FE8960A5C09FE86CFB69FBA01504B0304140006080800CC70623BDBABAAF470010000D40300000C0000006662782F636F72652E786D6CC553D16E823014FD95A6AF4B694182CC941A83FA05FB810A9511A125A5257EFE2E82712ECEB8A7F100CD39F7F69E734AF9FADC366850B6
310
AF8DCE7018308C942E4C59EB2AC3DE1D498AD15A706B8CFB56869196ADCAF00863C12B6B7C374385D14E6907A836A59A41D9F7CA615434B0C8705F7CAA5606D23BA8E84F41278B93AC54100640439DE0BDB320004D43C63716C7C399D30917DCFBBA9CD9BA8469F5B156168B24CED3F7248AC8769F27244EB73B92EED8862C
310
B7F13E0C179B3C8F979C8ECD82BBBABDAA2BAC924E9558448CBD9330242CFA08E3154B5651FCC6D215639C8EE5774DBE2B5F6CF2B5768B68963BB5F5588420E442FC700B1139D4CB01F450C1E918227C2E09DF070D8140C84E1E9AAB8F1340832A9CB13130A5F1376A908D57309505ECF2A0DF179C4E9D30F5B239B87E3823
310
7A79C6F31DE1A8A5AEC08474B03C7837EAE4938639B44E5932B833D2C6B6B279CDC613877FA26EE21F4A2A4C63EC7F29A2F301D1F9F7A0E37D145F504B0304140006080800CC70623B9C113CC27E0000009D0000000B0000006662782F636E782E786D6C4DCCDF0A83201C86E15B91DFB94BFB330DD428C8FB886521330DA7
310
6397BF1A1DECE883878F57749FCDA1B7892F1BBC047A23808C7F84D9FA55424E0BE6803A256208E9EF06C84F9B91703228B1C690F78B66B34CD9A5439DF5CF0BFBF65E35BCA1B8D6A5C6F540381E886698B5741C695F9503EBA150A2F8958E3DC3EA0B504B0304140006080800CC70623B7DF2F77C2A010000120200003100
310
00006662782F41393633353835312D344632462D344230382D423046372D3739314545314133324237412F636F72652E786D6C8D51DB8EC22014FC15C2939B0D2DB4B45643319AE817EC0F6041255A68B86CFCFC856D4D76DF7CE190393373060EDB3DC707F856CE6B6B7A480A0C81328395DA5C7B18C3057510EC3873D686
310
3F34088C18550F330C39BB3A1BA7051AAC09CA84841A2BD5020AEF55806078A44B0FFD7053A328440C89E1EFC52486BBB8AA8214A99D789CF9E05200300FC927E4FB4D5B375D43103D5527440FB843077C5AA3F5861C8F645F5787F59E95B390B318B55CE45AA638FAA2957BD7248B390B7A7CC51F9C124149C82B8C378810
310
84AB2F42B7B8DD56F413775B8C5999E9FF4471926F8AA236A1AE96B8B3CC434E5839373893369E1FAF30EA395917409EB7F26AF8801C171837A4A6AC9C89E9F9C9B1A58BA30FD6A5EF5DDDCF894B9AD9B6A59C957943A9FCAE2FD5BC4DFE03504B0304140006080800CC70623BAD7543B64E01000033030000300000006662
310
782F41393633353835312D344632462D344230382D423046372D3739314545314133324237412F636E782E786D6CD593CD6EC32010845F0571AD6CE3D48AD20813A9873E410FBD12D82434182C7EAAE6EDBB2424CD25871E7B41D6EC30B3FA84F9E67BB2E40B4234DE8DB46F1925E094D7C6ED479AD3AE5951B2113C789FEE
310
6C943839C1488B4C05DF079FE72A69D8C96C13AAD6B8631503449F83828872B949AC57D26200B826A308D316B4064D6E46FCDA41C05550DC9E483A00797BFD207EFB092A45DE9514C1BBD22178396BD39D891265658C238DEA00936C654E5E433CB65A26D9F6EDB5EBC14EBF49A45CB856E66048291F6939A9A81BB5C89177
310
38143CA680F4AA299D66A042CEB3354A2684DC9D8D178FE0D9B8B41CAAD720F880EE7EF93C0C18769E099ECC04D5A102C8049A8A05632F4DDF376CF1DE0F6BB65C2F8627B65A33C6BB62177CEBBDAD973006829F89F22E814B54F4BC2BE347F8AA8F681390B50FA73F804400B5F542E796F19FF974E7F78DB802FE05E20750
310
4B0304140006080800CC70623BE75B7789680500003C100000340000006662782F41393633353835312D344632462D344230382D423046372D3739314545314133324237412F6F626A656374732E786D6CAD575B8F9B3818FD2B887D06C22499CB8AA1CA655245D5B455A356FB305264C061D8018C6C3393D95FBFC7600890
310
A4CD5EF210B0B1BFEBF98E3F7B1FF6596ABC522E1296DF9BAE3D320D9A872C4AF2F8DE2CE5CEBA358D0FBEC719939D65A691938CDE9B6ADAF4BD98B3B2D05311DD91329583D9D5FC0F438434A7A611A644887B5384CF34233629258BA878B12322891DEFF6B66BD70BFB62634E8AE781D082709A4B588AF91C528CDA28B73F
310
1C998EEF39EABBEFA97FBD6A7C7E9553F9D3D79FE442923C3C523610337627CB87ABE99D359D4CC6D6E4FACAB5E6ABF9D2726FC6A3C5F56271377BB88362213924694B38DD99FE47C48627A1E7D49F5A8BB5E1A74C0A599ED3B0F21F1E56366B89112D681E218F0915D0D6F17AD41FBA2A369DCF6335D62ABBD39779D5DDD1
310
11D4D8DE3CBB96B2E04FB8202E41051754A1AA8E8F76B4C6DFE810B580B1547F4B84911149794252234D024EF8BBE963A95AE27B3D310A9D5C215C7960FAEE415ED75694C6AFB17BCACA5D99A60A9AA65F217B0BFC53292ACB92BF283FAD0D3621576592CB5BED907C2FA8E9DF794E35E97BEA31BED21FEB401ABB94C44839
310
DCACBF0E1C5DA8DA5B2F4DFFD32AD86F543D9E565E7056502E157C00AD2671CD534549AB752FCA9CDA00677A313F04E51B22FF19E57B300579E3C97EB29F682D92935CEC18CF901B7B54FD8C51F362B56FC72FE0B3C1EAE335EDCCBF5AEC39ADB17DC238973F804BA5E6F6BFE7AF1FB32E523BE9F3BD571418E3631DCA4D48
310
5250CF639223210A9446CA30052EDF057BD35F8329C1ECD84552BF0DC8D18BE7BCE23BFE6BD960AB4A7DE79923A103BEBD80F911CBAA2C60DB19B01CF164A5583B772EE6D3FFA56666CBCDA74DC97724A48F9A58967497E489C4D979006FD7A05E227A1EBDD0F737C623387A9C844D3709995625106D157315F8B8392CD4E0
310
A0B9A720C4BE9829CEF37EA1E13111214D53925356365ADA634861B52519DD27A00AEB808EAF0628E6F435519D446F45CF2C9CF5214F0A15B2F6D06B79DA3EE3CBF7F56780D2F4E7EF73A0F5E5B02A38D07DC852C6B7C1FBB6664213E0C39E3EBA7FF4E1AD23EA2829407C85E586727488B751B2DB9502BC7B228A3FD68B6E
310
A65A22397E690AA8D158D7E404EC8CDA235CC3B7D1898680131CEC2CDF2638C65196279577750F15884AEE19F94199155B92B13297978469D4F8D358DF0AEF7631E28DC8F0D9F437D5D39A83B2231A1D52D543813A824EF8D44BCFF2FA6A31BD1E8DAD87F1CCB526B3879935BF59CDADD5C37479BB1CDD4CA7B3556B516589
310
EF352754B706114D9C885EC9131DE6EFEB43D99AFE2391C2F958179413D7CFEF6B1B6DB1E7600F00DE6E5C67454A339A4BA2E0FBA85ED26F045D454F463DBFCE484C2F90F2E5E3666003662ED8F755951A7D1BECD5B30B550B2785C8E7320B7292A4838DDA71BBC863ED7613CAF659337A3354231D4FF4A182A54904C2898C
310
98B28C4AD0CE056CCF332A80986E571EE9DBC305BB5FEB7E509220A58D25CF042D712A806AC0AD0C657FDEF80D2D9CEAA2EE4D1C76F60BFE74219A06527D6F82DF6412526107381E55E353090704D085B52408A8913C4ED159D79BDA71BB4BC506F4831350EB6F975CD22D69BF7AC49B91A2C0A9DDA3D5CA36AD20FC478E37
310
E61844E2352865EBCB61A275A65283CAAA9DD27703B4102F5AF51EF5F573B75CBB5AD38BC845F7A49F82A0966A49C2E3EA5EA0ECD326CD965F1DB402C6FA8B51A4658C5C5E2EC9E214602E55810345408596591009A82E7E7FFACA19EEA299B14A0081A705CB3296EBC14CDF658DCD336EA6D1136881AAEB87B81AB9EE53D5
310
F5EB8BC8362082DA24122F98680A4E7930C01A0079749CEA14382A0783E5EBA5A10F8C098456A03D6A4AEB6BB881E2513747552A5DB22C7EDAF83BD5528081A365F7FF06504B0304140006080000CC70623B000000000000000000000000350000006662782F41393633353835312D344632462D344230382D423046372D37
310
39314545314133324237412F76657274696365732E62696E504B0304140006080800CC70623BF270F1330600000004000000360000006662782F41393633353835312D344632462D344230382D423046372D3739314545314133324237412F747269616E676C65732E62696E636660600000504B0304140006080000CC7062
310
3B000000000000000000000000370000006662782F41393633353835312D344632462D344230382D423046372D3739314545314133324237412F617474726962757465732E62696E504B0304140006080800CC70623B08DA0BD19000000041010000360000006662782F41393633353835312D344632462D344230382D4230
310
46372D3739314545314133324237412F6469726563746F72792E786D6C858F410AC3201045AF22B36F53E9A60B35CBEEBAE80D244E44489C6234F4F835464A48035D0DF398FF9F8AF63D0E6CC63039F212F8F9020C7D47C6792B21C5FE7403D62A1188E2E60C98D7234A5830286103A55745067B9D86B8A3CF9C7F90C11DE6
310
07FB144396D7B6A82D282E9A152AD114D5EF2CB866EEE831B8EEA07A7BB5A8D7D61A2BAAEB7FD5F70921FF497D00504B0304140006080800CC70623BEDD1DC58FD000000A00100003B0000006662782F41393633353835312D344632462D344230382D423046372D3739314545314133324237412F7265736F75726365732F
310
636F72652E786D6C8D504B6E833010BD0A9A6D65B00922041947112427E8052C33A156828DFCA97AFC9A40A576D7CDCCE87D344F8F9FBFE667F689CE6B6B3A6039850C8DB2A336530731DC4903D95970676DF82583CCC8193B5861107C72362E3BA4AC096842428D1D7107A5F7182053CF7474E0D507CE32973124857FE48B
310
540F3961CEF244279DE03EB81420DB9EAC1384436FA353E879B1B182C7A8C75DA3C7F453DF353A1075D537A7BA6464B8F535A99AE14A9A2BBD90E350DD183B5CFABE3AF262350B1EF4FC9351399401471025A527C218A1E53BAB5A5AB765F5469B96525EACF23FA6B88CFF34456DC2A1DCE36E360F82A5202F42F062ED2BAD
310
579969AFDD8A6F504B010214000A0000080000CC70623B3DEE336E79000000790000001B00000000000000000000000000000000006175746F6465736B2D64657369676E2D7061636B6167652E786D6C504B01021400140006080800CC70623BD486FD9CA0000000F40000001300000000000000000000000000B20000005B
310
436F6E74656E745F54797065735D2E786D6C504B01021400140006080800CC70623B853B8169EB0000007C010000080000000000000000000000000083010000636F72652E786D6C504B01021400140006080800CC70623B55019EA25F0000007C000000070000000000000000000000000094020000636E782E786D6C504B
310
01021400140006080800CC70623BDBABAAF470010000D40300000C00000000000000000000000000180300006662782F636F72652E786D6C504B01021400140006080800CC70623B9C113CC27E0000009D0000000B00000000000000000000000000B20400006662782F636E782E786D6C504B01021400140006080800CC70
310
623B7DF2F77C2A010000120200003100000000000000000000000000590500006662782F41393633353835312D344632462D344230382D423046372D3739314545314133324237412F636F72652E786D6C504B01021400140006080800CC70623BAD7543B64E010000330300003000000000000000000000000000D2060000
310
6662782F41393633353835312D344632462D344230382D423046372D3739314545314133324237412F636E782E786D6C504B01021400140006080800CC70623BE75B7789680500003C10000034000000000000000000000000006E0800006662782F41393633353835312D344632462D344230382D423046372D3739314545
310
314133324237412F6F626A656374732E786D6C504B01021400140006080000CC70623B0000000000000000000000003500000000000000000000000000280E00006662782F41393633353835312D344632462D344230382D423046372D3739314545314133324237412F76657274696365732E62696E504B01021400140006
310
080800CC70623BF270F133060000000400000036000000000000000000000000007B0E00006662782F41393633353835312D344632462D344230382D423046372D3739314545314133324237412F747269616E676C65732E62696E504B01021400140006080000CC70623B0000000000000000000000003700000000000000
310
000000000000D50E00006662782F41393633353835312D344632462D344230382D423046372D3739314545314133324237412F617474726962757465732E62696E504B01021400140006080800CC70623B08DA0BD1900000004101000036000000000000000000000000002A0F00006662782F41393633353835312D344632
310
462D344230382D423046372D3739314545314133324237412F6469726563746F72792E786D6C504B01021400140006080800CC70623BEDD1DC58FD000000A00100003B000000000000000000000000000E1000006662782F41393633353835312D344632462D344230382D423046372D3739314545314133324237412F7265
310
736F75726365732F636F72652E786D6C504B0506000000000E000E0080040000641100000000
  0
XRECORD
  5
72CB
102
{ACAD_REACTORS
330
1F7
102
}
330
1F7
100
AcDbXrecord
280
     1
102
MATERIAL
148
0.0
149
0.0
149
0.0
 93
        0
 94
       63
282
     0
 72
     1
 77
     1
171
     1
175
     1
179
     1
273
     0
  0
XRECORD
  5
1F8
102
{ACAD_REACTORS
330
1F7
102
}
330
1F7
100
AcDbXrecord
280
     1
 70
     1
 90
429727718
  1
30362254-06B7-45E0-A893-8CFA70E3D6BC
310
504B03040A0000080000CC70623B3DEE336E79000000790000001B0000006175746F6465736B2D64657369676E2D7061636B6167652E786D6C3C3F786D6C2076657273696F6E3D22312E302220656E636F64696E673D227574662D3822203F3E3C666F726D6174733E3C666F726D61743E687474703A2F2F736368656D612E
310
6175746F6465736B2E636F6D2F64657369676E2D7061636B6167652F323030393C2F666F726D61743E3C2F666F726D6174733E504B0304140006080800CC70623BD486FD9CA0000000F4000000130000005B436F6E74656E745F54797065735D2E786D6C7D8EC10E82300C865F65E91D8A1E8C310C0EEA1BF002731658846E
310
D98AC1B77784ABF1D8FE5FBFBF75BBCE937A534CCEB38643598122B6FEE978D0B0485F9C41B54DDD7D022595594E1A469170414C76A4D9A4D207E29CF43ECE46F218070CC6BECC4078ACAA135ACF422C856C0E68EA1BF5669944DDD7BCDE7B1F8E415D77AECB980613C2E4AC91FC167A2B244592486606FC29C8FD7F045B9A
310
EF7053A7E60B504B0304140006080800CC70623B1EC5D7A3EB0000007C01000008000000636F72652E786D6C8D90416EC3201045AF82665B6103C6756C6122AB4D4ED00B204C5C94182C03558F5F9C3852BBEB6A467FFE9B197D71FC9E6FE8CBACC17AD7032D0820E3B41FAD9B7A48F1820F808E52ACDEC75F36404ECDA687
310
4D0629A6D5A76597B477D1B89855E747B38B2A041301E95B6E7A08FAD3CCAA50296647B8168BD2573599823EBB0CA76447F43862C7BCCF5EAC59410E4DDD9C7973C2755553CCCFA4C603E3040F1565ED3B1FDE4E432BCA0D9622DAF9795FAF464533826484B498524CD807E51D79ED187F21878E10516EF63F505AC67F42C9
310
BA58B1FDDD071640D2FCC87D2045B96591CB3DA85CB7DCE40F504B0304140006080800CC70623B55019EA25F0000007C00000007000000636E782E786D6C4DCB3B0E80201045D1AD90E915ED2CF8AC45050C11660C8261F98AB1B07AC9C97D42D718D865D3E909258CFD00CCE24AC6E326A164D74DC0B4128928FF32603847
310
2BA13128B1252AC747C6BAB984FC68F0B87FE8960A5C09FE86CFB69FBA01504B0304140006080800CC70623B8C9102E971010000D40300000C0000006662782F636F72652E786D6CC5535B6E833010BC8AE5DF0A6C08340F1947A84D4ED00B38C6A128602363A31CBFCB234A53A551FA553EC09AD9F5CE8C31DB9E9B1AF5CA
310
7695D1198E428A91D2D214952E33ECDD315861B4E5CC1AE3BE9561A445A3323CC098B3D21ADFCE9034DA29ED00D5A6503328BA4E398C640D8B0C77F253352214DE4145770A5B214FA2546114020D759C75CE8200340D19DE981F0F6746269C33EFAB6266AB02A655C74A59CCF365BADC27CB5D902ED22848F6340DF238A141
310
BE88E2F57B92BFEDF23523433367AE6A2EEAA455C2A902F398D2751045018D3FA264435F3771F242571B4A1919CA6F9A7C5B3CD9E42BED16F12C776AEB308F40C848FC700B1139D4891EF410CEC810227CC6846F8386402064270EF5C5C709A05E49676C024C61FC95EA45ED154CA5211D1FF4FB8291A913A68E9B83EBBB33
310
E2A7673CDE118E5AE8124C0807CB8377834E366998436B950D7A7746DAD846D4CFD978E0F04FD455FC5D49D2D4C6FE9722321F10997F0F32DC47FE05504B0304140006080800CC70623BFFEA85907E0000009D0000000B0000006662782F636E782E786D6C4DCCD10A83201886E15B91FFDC95D95A811AB6F23E625948A6C3
310
E9D8E5AF46073BFAE0E1E365ED67B3E8ADC3CB78C7815C7240DA3DFC64DCC221C519D7805AC182F7F1EF06C88D9BE6703008B6049F9E274D7A1E938DBB5AE3D6131B2589BA0D3D965551E0B2EA732C9B9A624AAEB41E3A557677029960D9AFB4EF11165F504B0304140006080800CC70623B4FEEA4082C0100001202000031
310
0000006662782F39464131463745442D413632322D343644302D413938332D3331353338454246344243312F636F72652E786D6C8D515B6EC32010BC0AE2AB55850DD871ED0813254D72825EC00192A2C460F1A872FC42ED48ED5F7E00CDCECCCEB26C731F6FE05B39AFADE921293004CA082BB5B9F43086336A21D870E6AC
310
0D7F68109861543DCC30E4ECE26C9C164858139409093556AA051CBC570102714B8F1E7AF1A5C6A11862480C7F2DA6415C878B2A4891CA89C7990F2E050073937C42DE1DB7E4F87ED8A36D4329AA9B3D46DBAEAD504556557BD81DEBDD0761E52CE42C462D17B996298E3E6BE59E35C962CE821E1FF18553435012728A7187
310
0841987E927A8D9B35ADDF70BBC6989599FE4F1427F9A4286A132ABAC49D651EF234CD5CE04CDA78BA3DC2A8FB645D00B9DF8B57E215725C60BCA2A463E54C4CE327C7A65E1C7DB02E7DEFCBF594B864C5CA6CDBD49C957943E9FA5D5FBAF336F90F504B0304140006080800CC70623BAD7543B64E01000033030000300000
310
006662782F39464131463745442D413632322D343644302D413938332D3331353338454246344243312F636E782E786D6CD593CD6EC32010845F0571AD6CE3D48AD20813A9873E410FBD12D82434182C7EAAE6EDBB2424CD25871E7B41D6EC30B3FA84F9E67BB2E40B4234DE8DB46F1925E094D7C6ED479AD3AE5951B2113C
310
789FEE6C943839C1488B4C05DF079FE72A69D8C96C13AAD6B8631503449F83828872B949AC57D26200B826A308D316B4064D6E46FCDA41C05550DC9E483A00797BFD207EFB092A45DE9514C1BBD22178396BD39D891265658C238DEA00936C654E5E433CB65A26D9F6EDB5EBC14EBF49A45CB856E66048291F6939A9A81BB5
310
C8917738143CA680F4AA299D66A042CEB3354A2684DC9D8D178FE0D9B8B41CAAD720F880EE7EF93C0C18769E099ECC04D5A102C8049A8A05632F4DDF376CF1DE0F6BB65C2F8627B65A33C6BB62177CEBBDAD973006829F89F22E814B54F4BC2BE347F8AA8F681390B50FA73F804400B5F542E796F19FF974E7F78DB802FE05
310
E207504B0304140006080800CC70623B16AB87BA640500003C100000340000006662782F39464131463745442D413632322D343644302D413938332D3331353338454246344243312F6F626A656374732E786D6CAD575B6FA33818FD2B887DE6924B3BED8A326A92B68A663B534DD4D13E548A0C38942D60649B369D5FBFC7
310
600890A493BDE42160637FD7F31D7FF63E6FB3D478A55C242CBF3247B66B1A340F5994E4F19559CA8D75611A9F7D8F33263BCB4C232719BD32D5B4E97B316765A1A722BA21652A07B3B7B33F0D11D29C9A46981221AE4C113ED38CD8A4942CA2E2C58E882476BCD9DA23BB5ED8171B73523C0F841684D35CC252CCE79062D4
310
468DFA43D7747CCF51DF7D4FFDEB5593E3AB9CCA9FBEFE241792E4E19EB28198C968BAB8199F5D5A67D3E9C49A9E8F47D6EC76B6B0469F26EEFC7C3EBFBCBEB98462213924694B38DD98FE1D62C393D073EA4FADC5DAF04326852CCF6958F90F0F2B9BB5C48816348F90C7840A68EB78EDF68723159BCEE7891A6B95DDE9D3
310
BCEAEEE8086A6C6F9E5D4B59F0175C10A7A0820BAA5055C7473B5AE3CFDD452D602CD5DF12616444529E90D448938013FE6EFA58AA96F85E4F8C42275708571E98FE6827AF6B2B4AE3D7D83D64E5A64C53054DD3AF90BD06FEA9149565C94FCA0F6B834DC85599E4F2423B24DF0B6AFA979E534DFA9E7A4CC6FA631D486393
310
921829879BF5D781A373557BCB85E97FB90DB62B558F8795179C15944B051F40AB495CF35451D26A4727654E6D8033BD98EF82F21D91FF8AF2DD9982BCF1643BDD4EB516C9492E368C67C88DED563FC36D5EACF66DFF057C3658BDBFA69DF9578B3DA735B64F18C7F20770A9D45CFCF7FCF563D6456A277DBEF78A02637CA2
310
43B90A490AEAB94F72244481D24819A6C0E59B606BFA4B3025981DBB48EAB701D97BF19C577CC77F2D1B6C55A9EF3C732474C0B727303F625995056C3B02963D9EAC146BE78EC5FCEC7FA999EBC5EACBAAE41B12D27B4D2C0BBA49F244E2ECDC81B76B502F113D8F5EE8FB1BE3111CDD4FC2AA9B844CAB1288B68AB90A7CDC
310
1C166AB0D3DC5310625FCC14E779BFD0709F8890A629C9292B1B2DED31A4B0DA928CEE135085754027E3018A397D4D5427D15BD1330B677DC8934285AC3DF45A9EB68FF8F2B8FC0A509AFEECFD0FF2DE25CC6047F7214B195F07EFEB9A094D800F7BFAE8FED187B78EA8A3A400F115961BCAD1215E47C966530AF0EE8128FE
310
58CEBB996A8964FFA529A046635D9353B0336A8F700DDF46271A024E70B0B37C9DE01847591E54DED53D54202AB947E4076556AC49C6CA5C9E1226B7F1A7B1BE15DEED62C41B91E1B3E9AFAAA735036547343A925075041DF0A9979E893B391F8FCFA6967B3EFB644DCF6E5CEBFAE272625DCC6FAF3FB93793C5F90CE1EF57
310
407342756B10D1C489E8953CD1617E5CEECAD6F4EF8914CE5D5D504E5C3F1F9736DA62CFC11E00BCDDB8CC8A9466349744C1F75EBDA4DF09BA8A9E8C7A7E9991989E20E5DBDD6A6003664ED8F7A04A8DBE0DF6EAD9B9AA858342E47399053949D2C146EDB85DE4B176BB0965FBAC19BD19AA918E27FA50C1D22402E144464C
310
59462568E704B6E71915404CB72B8FF4EDE184DDAF753F284990D2C6926782963815403548A70C657FDEF80D2D9CEAA2AE4C1C76F60BFE74219A06527D6582DF6412526107381E55E353090704D085B52408D0933C4ED159D79BDA71BB4BC506F4831350EB6F979CD22D69BF7AC49B91A2C0A9DDA3D5CA36AD20FC478E37E6
310
1844E2352865EBCB6EA275A652E3836BE04EFB400BF1A2556F515F1FBB35B2AB35BD889C744FFA1004B5544B121E57F70215746DD2F5E2C1412B602CBF19455AC6C8E5E9922C4E01E65215385004546899059180EAFCF7A707CE7017CD8CDB0410789AB32C63B91E5CEBBBACB17AC6CD347A022D5075FD106377347AAABA7E
310
7D11590744509B44E205134DC1290F06580320F78E537D3D73540E06CB970B431F185308AD40BBD794D6D77003C5A36E8EAA54BA64597CD8F83BD552A080A365F7FF06504B0304140006080000CC70623B000000000000000000000000350000006662782F39464131463745442D413632322D343644302D413938332D3331
310
353338454246344243312F76657274696365732E62696E504B0304140006080800CC70623BF270F1330600000004000000360000006662782F39464131463745442D413632322D343644302D413938332D3331353338454246344243312F747269616E676C65732E62696E636660600000504B0304140006080000CC70623B
310
000000000000000000000000370000006662782F39464131463745442D413632322D343644302D413938332D3331353338454246344243312F617474726962757465732E62696E504B0304140006080800CC70623B08DA0BD19000000041010000360000006662782F39464131463745442D413632322D343644302D413938
310
332D3331353338454246344243312F6469726563746F72792E786D6C858F410AC3201045AF22B36F53E9A60B35CBEEBAE80D244E44489C6234F4F835464A48035D0DF398FF9F8AF63D0E6CC63039F212F8F9020C7D47C6792B21C5FE7403D62A1188E2E60C98D7234A5830286103A55745067B9D86B8A3CF9C7F90C11DE607
310
FB144396D7B6A82D282E9A152AD114D5EF2CB866EEE831B8EEA07A7BB5A8D7D61A2BAAEB7FD5F70921FF497D00504B0304140006080800CC70623B0D6EF93BFE000000A00100003B0000006662782F39464131463745442D413632322D343644302D413938332D3331353338454246344243312F7265736F75726365732F63
310
6F72652E786D6C8D50596E833010BD0A9ADFCA60B334011947A8694ED00B586642AC041B79A97AFC9A40A5F6AF3F33A3B7689E1E3F7DCD8FEC139DD7D6F4C0720A191A65476DA61E62B892236427C19DB5E1970C322367EC618541F0C9D9B8EC90B226A009093576C41D94DE63804C3DD2D18357379C652E63480A7FCF17A9
310
EE72C29CE5894E3AC17D702940B63D59270887DE46A7D0F36263058F518FBB468FE9A7BE6A7420864373B8D4873369AA8691FA421B3294352543C5CAF65C0F6FEF43CB8BD52C78D0F34F46E550061C419494B6843142CB0F5677F4B52BEB177AEC28E5C52AFF638ACBF84F53D42654E51E77B379102C05791282176B5F693D
310
CB4C7BED567C03504B010214000A0000080000CC70623B3DEE336E79000000790000001B00000000000000000000000000000000006175746F6465736B2D64657369676E2D7061636B6167652E786D6C504B01021400140006080800CC70623BD486FD9CA0000000F40000001300000000000000000000000000B20000005B
310
436F6E74656E745F54797065735D2E786D6C504B01021400140006080800CC70623B1EC5D7A3EB0000007C010000080000000000000000000000000083010000636F72652E786D6C504B01021400140006080800CC70623B55019EA25F0000007C000000070000000000000000000000000094020000636E782E786D6C504B
310
01021400140006080800CC70623B8C9102E971010000D40300000C00000000000000000000000000180300006662782F636F72652E786D6C504B01021400140006080800CC70623BFFEA85907E0000009D0000000B00000000000000000000000000B30400006662782F636E782E786D6C504B01021400140006080800CC70
310
623B4FEEA4082C0100001202000031000000000000000000000000005A0500006662782F39464131463745442D413632322D343644302D413938332D3331353338454246344243312F636F72652E786D6C504B01021400140006080800CC70623BAD7543B64E010000330300003000000000000000000000000000D5060000
310
6662782F39464131463745442D413632322D343644302D413938332D3331353338454246344243312F636E782E786D6C504B01021400140006080800CC70623B16AB87BA640500003C1000003400000000000000000000000000710800006662782F39464131463745442D413632322D343644302D413938332D3331353338
310
454246344243312F6F626A656374732E786D6C504B01021400140006080000CC70623B0000000000000000000000003500000000000000000000000000270E00006662782F39464131463745442D413632322D343644302D413938332D3331353338454246344243312F76657274696365732E62696E504B01021400140006
310
080800CC70623BF270F133060000000400000036000000000000000000000000007A0E00006662782F39464131463745442D413632322D343644302D413938332D3331353338454246344243312F747269616E676C65732E62696E504B01021400140006080000CC70623B0000000000000000000000003700000000000000
310
000000000000D40E00006662782F39464131463745442D413632322D343644302D413938332D3331353338454246344243312F617474726962757465732E62696E504B01021400140006080800CC70623B08DA0BD190000000410100003600000000000000000000000000290F00006662782F39464131463745442D413632
310
322D343644302D413938332D3331353338454246344243312F6469726563746F72792E786D6C504B01021400140006080800CC70623B0D6EF93BFE000000A00100003B000000000000000000000000000D1000006662782F39464131463745442D413632322D343644302D413938332D3331353338454246344243312F7265
310
736F75726365732F636F72652E786D6C504B0506000000000E000E0080040000641100000000
  0
XRECORD
  5
72CD
102
{ACAD_REACTORS
330
173
102
}
330
173
100
AcDbXrecord
280
     1
102
MATERIAL
148
0.0
149
0.0
149
0.0
 93
        0
 94
       63
282
     0
 72
     1
 77
     1
171
     1
175
     1
179
     1
273
     0
  0
XRECORD
  5
175
102
{ACAD_REACTORS
330
173
102
}
330
173
100
AcDbXrecord
280
     1
270
     1
271
     1
  0
XRECORD
  5
174
102
{ACAD_REACTORS
330
173
102
}
330
173
100
AcDbXrecord
280
     1
270
     1
271
     1
  0
XRECORD
  5
1FB
102
{ACAD_REACTORS
330
173
102
}
330
173
100
AcDbXrecord
280
     1
 70
     0
 90
1673772943
  1
ECE7A1D2-D628-4531-984C-D00F80459256
310
504B03040A0000080000CC70623B3DEE336E79000000790000001B0000006175746F6465736B2D64657369676E2D7061636B6167652E786D6C3C3F786D6C2076657273696F6E3D22312E302220656E636F64696E673D227574662D3822203F3E3C666F726D6174733E3C666F726D61743E687474703A2F2F736368656D612E
310
6175746F6465736B2E636F6D2F64657369676E2D7061636B6167652F323030393C2F666F726D61743E3C2F666F726D6174733E504B0304140006080800CC70623BD486FD9CA0000000F4000000130000005B436F6E74656E745F54797065735D2E786D6C7D8EC10E82300C865F65E91D8A1E8C310C0EEA1BF002731658846E
310
D98AC1B77784ABF1D8FE5FBFBF75BBCE937A534CCEB38643598122B6FEE978D0B0485F9C41B54DDD7D022595594E1A469170414C76A4D9A4D207E29CF43ECE46F218070CC6BECC4078ACAA135ACF422C856C0E68EA1BF5669944DDD7BCDE7B1F8E415D77AECB980613C2E4AC91FC167A2B244592486606FC29C8FD7F045B9A
310
EF7053A7E60B504B0304140006080800CC70623BD9DDAED0EC0000007C01000008000000636F72652E786D6C8D90416EC3201045AF82665B61836D9CD8C2444DD39CA01740405C94182C03558F5F9C3852BBEB6A467FFE9B197D7EF89E6EE8CB2CC17A37002D0820E394D7D68D03A478C17B4007C117EFE32F1B20272733C0
310
2A83E0E3E2D3BC49CABB685CCCAAF3DA6CA20CC14440EA969B0182FA34932C648AD911AEC52CD5558EA6A0CF2EC329598D1E47ACCEFBECC59A050463A7EA5833865FEBDD0E37353BE3EE8DBDE3F6786A48D375FBF6CC78B9C282473B3DEFABC5C86834888A900E538A49F5419B9EB47DD5BC907D4F082F57FB1F28CDFA9F50
310
B22ED6D5F6EE030B20687EE43E10BC5CB3C8E51E54AE6B6EE207504B0304140006080800CC70623B55019EA25F0000007C00000007000000636E782E786D6C4DCB3B0E80201045D1AD90E915ED2CF8AC45050C11660C8261F98AB1B07AC9C97D42D718D865D3E909258CFD00CCE24AC6E326A164D74DC0B4128928FF326038
310
472BA13128B1252AC747C6BAB984FC68F0B87FE8960A5C09FE86CFB69FBA01504B0304140006080800CC70623BA24EB22D72010000D40300000C0000006662782F636F72652E786D6CC5535B6E833010BC8AE5DF0A6C5E49888CA3A6694ED00B38E05014B091B1518EDFE511A5A9D228FD2A1F60CDEC7A67C6986DCE4D8D7A
310
69BA4AAB0C073EC548AA5C17952A33ECECD15B61B4E1CC686DBF9561A44423333CC098B3D268D7CE50AE9595CA02AA74216750749DB418E5352C32DCE59FB211BE70162ABA93DF8AFC244AE9073ED050C759670D0840D390E18DF9F1706664C23973AE2A66B62A605A75ACA4C13C4976E1364A12EF355A2EBD384AF65EFA96
310
BC7B8BED2EA6719AAE16FB8491A199335B351775B991C2CA02F390D2D40B028F861F41BCA68B7518BFD0D59A524686F29B26D7164F36B94AD9289CE54E6D1DE6010819891F6E21228B3AD1831EC219194284CF98F06DD01008846CC5A1BEF83801D4CBDC6A1303536877A57A513B0953A94FC707FDBE6064EA84A9E3E6E0FA
310
EE8CF0E9198F7784A316AA0413C2C2F2E0ECA0934D1AE6D05A69BCDE9E91D2A611F573361E38FC1375157F5752AE6B6DFE4B11990F88CCBF0719EE23FF02504B0304140006080800CC70623B408A7D3B7C0000009D0000000B0000006662782F636E782E786D6C4DCCD10A83201886E15B91FFDC552A92A0064DBC8F581632
310
D3703A76F9ABD1C18E3E78F878E5F0D9027ABBFCF2292AE86E2D20171F69F6715550CB827B40839639A5F2770314A7CD293819B45C73AAFB45B35BA61ACAA1C1C7E7855C58C15BC331339661262CC762340413D68D77DA5B42298546CBE6573AF60CEB2F504B0304140006080800CC70623B449FB9BD290100001202000031
310
0000006662782F36394639363044362D344446342D343946362D394244322D3234314243333846323333332F636F72652E786D6C8D515B6EC32010BC0AE22B55850D98B871848994463E412FE002495162B07854397EA176A4F62F3F2C9A9D991D587EB84F37F0AD7D30CEF6905418026DA553C65E7A98E219ED203808EE9D
310
8B7F6810D871D23D2C3014FCE25D9A57483A1BB58D19B54EE9151C43D0110279CB971E06F9A5A7B11A53CC8C70ADE6515EC78BAE4895DB992778883E0700CB907242D17643D7E2538BD869608875438BBAE38922CAC8F1BDD90DB4691A5E2F42C153326A951B95E398B3D1FE599322163C9AE9115F7A3D46ADA0A018778810
310
84E907617BDCEE297BC5BB3DC6BC2EF47FA234AB2745C9D8D8D035EE220B50105E2F0DC1954B9FB747187D9F9D8FA0CCDB042D5FA0C015C65B42DF78BD10F3F3B363CB56C7109DCFDFBBB97E662ED92EB62D13BC2E1BCAE5777DB9966D8A1F504B0304140006080800CC70623BAD7543B64E01000033030000300000006662
310
782F36394639363044362D344446342D343946362D394244322D3234314243333846323333332F636E782E786D6CD593CD6EC32010845F0571AD6CE3D48AD20813A9873E410FBD12D82434182C7EAAE6EDBB2424CD25871E7B41D6EC30B3FA84F9E67BB2E40B4234DE8DB46F1925E094D7C6ED479AD3AE5951B2113C789FEE
310
6C943839C1488B4C05DF079FE72A69D8C96C13AAD6B8631503449F83828872B949AC57D26200B826A308D316B4064D6E46FCDA41C05550DC9E483A00797BFD207EFB092A45DE9514C1BBD22178396BD39D891265658C238DEA00936C654E5E433CB65A26D9F6EDB5EBC14EBF49A45CB856E66048291F6939A9A81BB5C89177
310
38143CA680F4AA299D66A042CEB3354A2684DC9D8D178FE0D9B8B41CAAD720F880EE7EF93C0C18769E099ECC04D5A102C8049A8A05632F4DDF376CF1DE0F6BB65C2F8627B65A33C6BB62177CEBBDAD973006829F89F22E814B54F4BC2BE347F8AA8F681390B50FA73F804400B5F542E796F19FF974E7F78DB802FE05E20750
310
4B0304140006080800CC70623B8D05915C650500003B100000340000006662782F36394639363044362D344446342D343946362D394244322D3234314243333846323333332F6F626A656374732E786D6CAD575B6FA33814FE2B887D06429276DA1565D4266D158D3A339A6846FB502932E050B66023DB74D2FDF5FB190C01
310
9276B2973C046C8ECFF53B17071F77456EBD502133CEAE6CDF9DD81665314F32965ED995DA3A17B6F5310C04E7AA47665B8C14F4CAD6DB7618A48257A5D94AE89654B91AEDDEDDFC61C998326A5B714EA4BCB265FC440BE2924AF184CA6737218AB8E976E7FA6E4338649B0A523E8D98964450A6A029F619B8588D52FE7039
310
B1BD30F0F4F730D0FF866AF6369557DB33949F31A9088B0F848DD8CCFCF9F2767A76E99CCDE733677E3EF59D9BBB9BA5E37F984D16E78BC5E5F5ED25044B25C0C96822E8D60EEFE11B91C581D77CEA34368A1F5329E68CD1B8B61F16D63A1B8E092D294B10C78C4A48EB593D192E7DED9BDEE7995E1B91FDEDD3ACEA9FE831
310
6A756F9F7D4D79F4274C90A7A04248AA51D5F8C718DAE06FB2F75AC4796EBE65D22A88A22223B995679120E2D50E41AA49C260C046A35368846B0BECD0DFF3EBEB8AD4F835768F69B9ADF25C43D30E6B646F807FAA64AD59F61715C7A54127C4AACA98BA3006A9D792DAE165E0D59B61A01FB3A9F9D838D2DAE62445C86166
310
F37564E842E7DE6A69879FEEA2DD5AE7E371E1A5E025154AC307D06A03D73EB5978C58FFA4C8E9033066E0F3BD53BEC1F39F91BE7B55103791EDE6BBB991A2046172CB4581D8B893FA674DDA17A77B3B7C413D1B511FD2743BFF8A38F03A658705E3ADF8015C3A3417FF3D7E439FF591DA0B5F18BC20C1B8981957AE6392A3
310
F43C640C01D1A0B4728E2DD4F26DB4B3C3152A252A3B4E913CEC1C72F012782FF88EFF8637AA552DBEF76408E8A8DE9E50F9E1CB3A2DA0DB1B6039A893B56063DC5B3E3FFB5F72E67AB9FEB4AEC496C4F4C1149625DD662C53E89D7BF0F6151A046260D1337DFDC94502430F83B0EE07A130A224BCAD7DAE1D9FB6CD422FF6
310
920702629C4BB9AE79C12F243C6432A6794E18E5552BA56B431AAB5D91317302B2B071E86C3A42B1A02F999E24061403B5D0EB639195DA655DD3EBEAB4FB862DDF579F014AD0E73C22F99E28DA57FB98E75C6CA2D74D53086D600F4786E0FE3144B771A8A7B900F03594DB8A633CBC49B2EDB69228BB479CF863B5E807AAAB
310
23872F6DFEB4129B949CA33823F58830E86D65621E10047D9DB34D862E8EAC3C2ABC2F7B2C40D67CDFE01F5545B92105AF983AC54D93D69E56FB8E797F88913F898A9FEC705D3F9D1B54EC8426FB500D40A03BD0119B06E1B95DDC7EB8F6975367793EBD70E66733DFB9BC982F9CE564727731999F5D4ECFCE3B8D6A4DC2A0
310
6D50FD148437D110834A64C6CDDF57FBACB5C307A2A477DFE4939736CFEF2B175371E0E10CF0DD1D5C15654E0BCA14D1E87DD02FF93782A162C0A3D95F1524A52770F972BF1EE9809D13CE7DD599467F8ECE9ADD85CE85A34CD45355448C64F9E8A031DC2D596ACC6E5DD93D9B82DE2EF5CAF81363A8E47996A0DE24564A79
310
4115AACE09C55E14540231FDA13C319787134EBF34E3A022514E5B4D9E0826E25C02D5805B15ABE1BEF51B26383D445DD9E875EE33FE4C22DA16427D65A3BCA92CA6D28DD01DF5DC53330704308475351050232CCD31583787BA75774AFB06E5070DD0C8EF484E19968C5D83BA5B90B244D31E54D55A372320FE4786B7EA58
310
44E135AA5467CB7EA333A61683CC6A8C3257034C10CF46F40EF9F5BE59BE5BD30C3C72D235E95D10345C1D45445A5F0BB47E46A5EBE5570F9380B5FA629579952296A773720405982B9DE04011506178964401AA8BDF1FBF0A8EAB6861DD6580C0E38217056766716DAEB2D6FA0917D3E4116581EADB879C4E7CFFB11EFACD
310
3D641311495D92C8676CB409A72D18610D803CE8A626049E8EC1887CB5B44CC39883690DDA8399B4B9855B481E7D71D4A9D22F96E5BB73BF5793020C02137BF837504B0304140006080000CC70623B000000000000000000000000350000006662782F36394639363044362D344446342D343946362D394244322D32343142
310
43333846323333332F76657274696365732E62696E504B0304140006080800CC70623BF270F1330600000004000000360000006662782F36394639363044362D344446342D343946362D394244322D3234314243333846323333332F747269616E676C65732E62696E636660600000504B0304140006080000CC70623B0000
310
00000000000000000000370000006662782F36394639363044362D344446342D343946362D394244322D3234314243333846323333332F617474726962757465732E62696E504B0304140006080800CC70623B08DA0BD19000000041010000360000006662782F36394639363044362D344446342D343946362D394244322D
310
3234314243333846323333332F6469726563746F72792E786D6C858F410AC3201045AF22B36F53E9A60B35CBEEBAE80D244E44489C6234F4F835464A48035D0DF398FF9F8AF63D0E6CC63039F212F8F9020C7D47C6792B21C5FE7403D62A1188E2E60C98D7234A5830286103A55745067B9D86B8A3CF9C7F90C11DE607FB14
310
4396D7B6A82D282E9A152AD114D5EF2CB866EEE831B8EEA07A7BB5A8D7D61A2BAAEB7FD5F70921FF497D00504B0304140006080800CC70623BCA768048FE000000A00100003B0000006662782F36394639363044362D344446342D343946362D394244322D3234314243333846323333332F7265736F75726365732F636F72
310
652E786D6C8D50596E833010BD0A9ADFCA60D600328E9AA639412F609909B1126CE4A5EAF16B0295DABFFECC8CDEA2797AECF8353F924FB44E193D409E5248504B332A3D0D10FC95B4901C39B3C6F85F3248B49871801506CE266BC2B243D2688FDA47549B11775038871E12F988C7004EDE7016A9083E2ADC3D5D84BC8B09
310
D33C8D74D471E6BC8D0192EDC93A815B742658898E651BCB59086ADC356A8C3FD555A1055ED7E7E254D615792D0F075295F585746FF53B694EE78A565DD736979A65AB9933AFE69F8CD2A2F038022F28ED489E135A7CE4554F9BBEA85E68DB53CAB255FEC71496F19FA6A0B42F8B3DEE6673C0F318E4497096AD7DC5F52C33
310
EEB55BFE0D504B010214000A0000080000CC70623B3DEE336E79000000790000001B00000000000000000000000000000000006175746F6465736B2D64657369676E2D7061636B6167652E786D6C504B01021400140006080800CC70623BD486FD9CA0000000F40000001300000000000000000000000000B20000005B436F
310
6E74656E745F54797065735D2E786D6C504B01021400140006080800CC70623BD9DDAED0EC0000007C010000080000000000000000000000000083010000636F72652E786D6C504B01021400140006080800CC70623B55019EA25F0000007C000000070000000000000000000000000095020000636E782E786D6C504B0102
310
1400140006080800CC70623BA24EB22D72010000D40300000C00000000000000000000000000190300006662782F636F72652E786D6C504B01021400140006080800CC70623B408A7D3B7C0000009D0000000B00000000000000000000000000B50400006662782F636E782E786D6C504B01021400140006080800CC70623B
310
449FB9BD290100001202000031000000000000000000000000005A0500006662782F36394639363044362D344446342D343946362D394244322D3234314243333846323333332F636F72652E786D6C504B01021400140006080800CC70623BAD7543B64E010000330300003000000000000000000000000000D20600006662
310
782F36394639363044362D344446342D343946362D394244322D3234314243333846323333332F636E782E786D6C504B01021400140006080800CC70623B8D05915C650500003B10000034000000000000000000000000006E0800006662782F36394639363044362D344446342D343946362D394244322D32343142433338
310
46323333332F6F626A656374732E786D6C504B01021400140006080000CC70623B0000000000000000000000003500000000000000000000000000250E00006662782F36394639363044362D344446342D343946362D394244322D3234314243333846323333332F76657274696365732E62696E504B010214001400060808
310
00CC70623BF270F13306000000040000003600000000000000000000000000780E00006662782F36394639363044362D344446342D343946362D394244322D3234314243333846323333332F747269616E676C65732E62696E504B01021400140006080000CC70623B00000000000000000000000037000000000000000000
310
00000000D20E00006662782F36394639363044362D344446342D343946362D394244322D3234314243333846323333332F617474726962757465732E62696E504B01021400140006080800CC70623B08DA0BD190000000410100003600000000000000000000000000270F00006662782F36394639363044362D344446342D
310
343946362D394244322D3234314243333846323333332F6469726563746F72792E786D6C504B01021400140006080800CC70623BCA768048FE000000A00100003B000000000000000000000000000B1000006662782F36394639363044362D344446342D343946362D394244322D3234314243333846323333332F7265736F
310
75726365732F636F72652E786D6C504B0506000000000E000E0080040000621100000000
  0
XRECORD
  5
176
102
{ACAD_REACTORS
330
173
102
}
330
173
100
AcDbXrecord
280
     1
270
     1
271
     1
  0
XRECORD
  5
177
102
{ACAD_REACTORS
330
173
102
}
330
173
100
AcDbXrecord
280
     1
270
     1
271
     1
  0
XRECORD
  5
72EF
102
{ACAD_REACTORS
330
72EE
102
}
330
72EE
100
AcDbXrecord
280
     1
102
ACAD_ROUNDTRIP_2012_MLEADER_STYLE
298
     1
  0
XRECORD
  5
7301
102
{ACAD_REACTORS
330
7300
102
}
330
7300
100
AcDbXrecord
280
     1
102
DISPLAYNAME
  1
Metric50
102
FLAGS
 90
        0
  0
CELLSTYLEMAP
  5
72C1
102
{ACAD_REACTORS
330
162
102
}
330
162
100
AcDbCellStyleMap
 90
        3
300
CELLSTYLE
  1
TABLEFORMAT_BEGIN
 90
        5
170
     1
 91
        0
 92
    32768
 62
   257
 93
        1
300
CONTENTFORMAT
  1
CONTENTFORMAT_BEGIN
 90
        0
 91
        0
 92
      512
 93
        0
300

 40
0.0
140
1.0
 94
        5
 62
     0
340
11
144
6.0
309
CONTENTFORMAT_END
171
     1
301
MARGIN
  1
CELLMARGIN_BEGIN
 40
1.5
 40
1.5
 40
1.5
 40
1.5
 40
4.5
 40
4.5
309
CELLMARGIN_END
 94
        6
 95
        1
302
GRIDFORMAT
  1
GRIDFORMAT_BEGIN
 90
        0
 91
        1
 62
     0
 92
       -2
340
14
 93
        0
 40
1.125
309
GRIDFORMAT_END
 95
        2
302
GRIDFORMAT
  1
GRIDFORMAT_BEGIN
 90
        0
 91
        1
 62
     0
 92
       -2
340
14
 93
        0
 40
1.125
309
GRIDFORMAT_END
 95
        4
302
GRIDFORMAT
  1
GRIDFORMAT_BEGIN
 90
        0
 91
        1
 62
     0
 92
       -2
340
14
 93
        0
 40
1.125
309
GRIDFORMAT_END
 95
        8
302
GRIDFORMAT
  1
GRIDFORMAT_BEGIN
 90
        0
 91
        1
 62
     0
 92
       -2
340
14
 93
        0
 40
1.125
309
GRIDFORMAT_END
 95
       16
302
GRIDFORMAT
  1
GRIDFORMAT_BEGIN
 90
        0
 91
        1
 62
     0
 92
       -2
340
14
 93
        0
 40
1.125
309
GRIDFORMAT_END
 95
       32
302
GRIDFORMAT
  1
GRIDFORMAT_BEGIN
 90
        0
 91
        1
 62
     0
 92
       -2
340
14
 93
        0
 40
1.125
309
GRIDFORMAT_END
309
TABLEFORMAT_END
  1
CELLSTYLE_BEGIN
 90
        1
 91
        1
300
_TITLE
309
CELLSTYLE_END
300
CELLSTYLE
  1
TABLEFORMAT_BEGIN
 90
        5
170
     1
 91
        0
 92
        0
 62
   257
 93
        1
300
CONTENTFORMAT
  1
CONTENTFORMAT_BEGIN
 90
        0
 91
        0
 92
      512
 93
        0
300

 40
0.0
140
1.0
 94
        5
 62
     0
340
11
144
4.5
309
CONTENTFORMAT_END
171
     1
301
MARGIN
  1
CELLMARGIN_BEGIN
 40
1.5
 40
1.5
 40
1.5
 40
1.5
 40
4.5
 40
4.5
309
CELLMARGIN_END
 94
        6
 95
        1
302
GRIDFORMAT
  1
GRIDFORMAT_BEGIN
 90
        0
 91
        1
 62
     0
 92
       -2
340
14
 93
        0
 40
1.125
309
GRIDFORMAT_END
 95
        2
302
GRIDFORMAT
  1
GRIDFORMAT_BEGIN
 90
        0
 91
        1
 62
     0
 92
       -2
340
14
 93
        0
 40
1.125
309
GRIDFORMAT_END
 95
        4
302
GRIDFORMAT
  1
GRIDFORMAT_BEGIN
 90
        0
 91
        1
 62
     0
 92
       -2
340
14
 93
        0
 40
1.125
309
GRIDFORMAT_END
 95
        8
302
GRIDFORMAT
  1
GRIDFORMAT_BEGIN
 90
        0
 91
        1
 62
     0
 92
       -2
340
14
 93
        0
 40
1.125
309
GRIDFORMAT_END
 95
       16
302
GRIDFORMAT
  1
GRIDFORMAT_BEGIN
 90
        0
 91
        1
 62
     0
 92
       -2
340
14
 93
        0
 40
1.125
309
GRIDFORMAT_END
 95
       32
302
GRIDFORMAT
  1
GRIDFORMAT_BEGIN
 90
        0
 91
        1
 62
     0
 92
       -2
340
14
 93
        0
 40
1.125
309
GRIDFORMAT_END
309
TABLEFORMAT_END
  1
CELLSTYLE_BEGIN
 90
        2
 91
        1
300
_HEADER
309
CELLSTYLE_END
300
CELLSTYLE
  1
TABLEFORMAT_BEGIN
 90
        5
170
     1
 91
        0
 92
        0
 62
   257
 93
        1
300
CONTENTFORMAT
  1
CONTENTFORMAT_BEGIN
 90
        0
 91
        0
 92
      512
 93
        0
300

 40
0.0
140
1.0
 94
        2
 62
     0
340
11
144
4.5
309
CONTENTFORMAT_END
171
     1
301
MARGIN
  1
CELLMARGIN_BEGIN
 40
1.5
 40
1.5
 40
1.5
 40
1.5
 40
4.5
 40
4.5
309
CELLMARGIN_END
 94
        6
 95
        1
302
GRIDFORMAT
  1
GRIDFORMAT_BEGIN
 90
        0
 91
        1
 62
     0
 92
       -2
340
14
 93
        0
 40
1.125
309
GRIDFORMAT_END
 95
        2
302
GRIDFORMAT
  1
GRIDFORMAT_BEGIN
 90
        0
 91
        1
 62
     0
 92
       -2
340
14
 93
        0
 40
1.125
309
GRIDFORMAT_END
 95
        4
302
GRIDFORMAT
  1
GRIDFORMAT_BEGIN
 90
        0
 91
        1
 62
     0
 92
       -2
340
14
 93
        0
 40
1.125
309
GRIDFORMAT_END
 95
        8
302
GRIDFORMAT
  1
GRIDFORMAT_BEGIN
 90
        0
 91
        1
 62
     0
 92
       -2
340
14
 93
        0
 40
1.125
309
GRIDFORMAT_END
 95
       16
302
GRIDFORMAT
  1
GRIDFORMAT_BEGIN
 90
        0
 91
        1
 62
     0
 92
       -2
340
14
 93
        0
 40
1.125
309
GRIDFORMAT_END
 95
       32
302
GRIDFORMAT
  1
GRIDFORMAT_BEGIN
 90
        0
 91
        1
 62
     0
 92
       -2
340
14
 93
        0
 40
1.125
309
GRIDFORMAT_END
309
TABLEFORMAT_END
  1
CELLSTYLE_BEGIN
 90
        3
 91
        2
300
_DATA
309
CELLSTYLE_END
  0
XRECORD
  5
72C6
102
{ACAD_REACTORS
330
162
102
}
330
162
100
AcDbXrecord
280
     1
102
ACAD_ROUNDTRIP_PRE2007_TABLESTYLE
 90
      512
 91
        0
  1

 92
      512
 93
        0
  2

 94
      512
 95
        0
  3

  0
XRECORD
  5
72D9
102
{ACAD_REACTORS
330
72D8
102
}
330
72D8
100
AcDbXrecord
280
     1
102
RTVSPost2010Prop28
280
     1
102
RTVSPost2010PropOp28
 70
     1
102
RTVSPost2010Prop29
280
     1
102
RTVSPost2010PropOp29
 70
     1
102
RTVSPost2010Prop30
280
     0
102
RTVSPost2010PropOp30
 70
     1
102
RTVSPost2010Prop31
280
     0
102
RTVSPost2010PropOp31
 70
     1
102
RTVSPost2010Prop32
280
     0
102
RTVSPost2010PropOp32
 70
     1
102
RTVSPost2010Prop33
280
     0
102
RTVSPost2010PropOp33
 70
     1
102
RTVSPost2010Prop34
280
     0
102
RTVSPost2010PropOp34
 70
     1
102
RTVSPost2010Prop35
280
     0
102
RTVSPost2010PropOp35
 70
     1
102
RTVSPost2010Prop36
280
     0
102
RTVSPost2010PropOp36
 70
     1
102
RTVSPost2010Prop37
 90
       50
102
RTVSPost2010PropOp37
 70
     1
102
RTVSPost2010Prop38
140
0.0
102
RTVSPost2010PropOp38
 70
     1
102
RTVSPost2010Prop39
140
1.0
102
RTVSPost2010PropOp39
 70
     1
102
RTVSPost2010Prop40
 90
        0
102
RTVSPost2010PropOp40
 70
     1
102
RTVSPost2010Prop41ColorIndex
 90
       18
102
RTVSPost2010Prop41ColorRGB
 90
        0
102
RTVSPost2010PropOp41
 70
     1
102
RTVSPost2010Prop42
 90
       50
102
RTVSPost2010PropOp42
 70
     1
102
RTVSPost2010Prop43
 90
        3
102
RTVSPost2010PropOp43
 70
     1
102
RTVSPost2010Prop44ColorIndex
 90
        5
102
RTVSPost2010Prop44ColorRGB
 90
      255
102
RTVSPost2010PropOp44
 70
     1
102
RTVSPost2010Prop45
280
     0
102
RTVSPost2010PropOp45
 70
     1
102
RTVSPost2010Prop46
 90
       50
102
RTVSPost2010PropOp46
 70
     1
102
RTVSPost2010Prop47
 90
       50
102
RTVSPost2010PropOp47
 70
     1
102
RTVSPost2010Prop48
 90
       50
102
RTVSPost2010PropOp48
 70
     1
102
RTVSPost2010Prop49
280
     0
102
RTVSPost2010PropOp49
 70
     1
102
RTVSPost2010Prop50
 90
       50
102
RTVSPost2010PropOp50
 70
     1
102
RTVSPost2010Prop51ColorIndex
 90
      256
102
RTVSPost2010Prop51ColorRGB
 90
-16777216
102
RTVSPost2010PropOp51
 70
     0
102
RTVSPost2010Prop52
140
1.0
102
RTVSPost2010PropOp52
 70
     0
102
RTVSPost2010Prop53
 90
        2
102
RTVSPost2010PropOp53
 70
     1
102
RTVSPost2010Prop54
  1
strokes_ogs.tif
102
RTVSPost2010PropOp54
 70
     1
102
RTVSPost2010Prop55
280
     0
102
RTVSPost2010PropOp55
 70
     1
102
RTVSPost2010Prop56
140
1.0
102
RTVSPost2010PropOp56
 70
     1
102
RTVSPost2010Prop57
140
1.0
102
RTVSPost2010PropOp57
 70
     1
102
RTVSPropertyOp0
 70
     1
102
RTVSPropertyOp1
 70
     1
102
RTVSPropertyOp2
 70
     1
102
RTVSPropertyOp3
 70
     1
102
RTVSPropertyOp4
 70
     1
102
RTVSPropertyOp5
 70
     1
102
RTVSPropertyOp6
 70
     1
102
RTVSPropertyOp7
 70
     1
102
RTVSPropertyOp8
 70
     1
102
RTVSPropertyOp9
 70
     1
102
RTVSPropertyOp10
 70
     1
102
RTVSPropertyOp11
 70
     1
102
RTVSPropertyOp12
 70
     1
102
RTVSPropertyOp13
 70
     1
102
RTVSPropertyOp14
 70
     1
102
RTVSPropertyOp15
 70
     1
102
RTVSPropertyOp16
 70
     1
102
RTVSPropertyOp17
 70
     1
102
RTVSPropertyOp18
 70
     1
102
RTVSPropertyOp19
 70
     1
102
RTVSPropertyOp20
 70
     1
102
RTVSPropertyOp21
 70
     1
102
RTVSPropertyOp22
 70
     1
102
RTVSPropertyOp23
 70
     1
102
RTVSPropertyOp24
 70
     1
102
RTVSPropertyOp25
 70
     1
102
RTVSPropertyOp26
 70
     1
102
RTVSPropertyOp27
 70
     1
102
RTVSPropertyOp28
 70
     1
102
RTVSPropertyOp29
 70
     1
102
RTVSPropertyOp30
 70
     1
102
RTVSPropertyOp31
 70
     1
102
RTVSPropertyOp32
 70
     1
102
RTVSPropertyOp33
 70
     1
102
RTVSPropertyOp34
 70
     1
102
RTVSPropertyOp35
 70
     1
102
RTVSPropertyOp36
 70
     1
102
RTVSPropertyOp37
 70
     1
102
RTVSPropertyOp38
 70
     1
102
RTVSPropertyOp39
 70
     1
102
RTVSPropertyOp40
 70
     1
102
RTVSPropertyOp41
 70
     1
102
RTVSPropertyOp42
 70
     1
102
RTVSPropertyOp43
 70
     1
102
RTVSPropertyOp44
 70
     1
102
RTVSPropertyOp45
 70
     1
102
RTVSPropertyOp46
 70
     1
102
RTVSPropertyOp47
 70
     1
102
RTVSPropertyOp48
 70
     1
102
RTVSPropertyOp49
 70
     1
102
RTVSPropertyOp50
 70
     1
102
RTVSPropertyOp51
 70
     0
102
RTVSPropertyOp52
 70
     0
102
RTVSPropertyOp53
 70
     1
102
RTVSPropertyOp54
 70
     1
102
RTVSPropertyOp55
 70
     1
102
RTVSPropertyOp56
 70
     1
102
RTVSPropertyOp57
 70
     1
102
RTVSPropertyOp58
 70
     1
102
RTVSPropertyOp59
 70
     1
102
RTVSPropertyOp60
 70
     1
102
RTVSPropertyOp61
 70
     1
102
RTVSPropertyOp62
 70
     1
  0
XRECORD
  5
72D7
102
{ACAD_REACTORS
330
72D6
102
}
330
72D6
100
AcDbXrecord
280
     1
102
RTVSPost2010Prop28
280
     0
102
RTVSPost2010PropOp28
 70
     1
102
RTVSPost2010Prop29
280
     1
102
RTVSPost2010PropOp29
 70
     1
102
RTVSPost2010Prop30
280
     1
102
RTVSPost2010PropOp30
 70
     1
102
RTVSPost2010Prop31
280
     0
102
RTVSPost2010PropOp31
 70
     1
102
RTVSPost2010Prop32
280
     0
102
RTVSPost2010PropOp32
 70
     1
102
RTVSPost2010Prop33
280
     0
102
RTVSPost2010PropOp33
 70
     1
102
RTVSPost2010Prop34
280
     0
102
RTVSPost2010PropOp34
 70
     1
102
RTVSPost2010Prop35
280
     0
102
RTVSPost2010PropOp35
 70
     1
102
RTVSPost2010Prop36
280
     0
102
RTVSPost2010PropOp36
 70
     1
102
RTVSPost2010Prop37
 90
       50
102
RTVSPost2010PropOp37
 70
     1
102
RTVSPost2010Prop38
140
0.0
102
RTVSPost2010PropOp38
 70
     1
102
RTVSPost2010Prop39
140
1.0
102
RTVSPost2010PropOp39
 70
     1
102
RTVSPost2010Prop40
 90
        0
102
RTVSPost2010PropOp40
 70
     1
102
RTVSPost2010Prop41ColorIndex
 90
       18
102
RTVSPost2010Prop41ColorRGB
 90
        0
102
RTVSPost2010PropOp41
 70
     1
102
RTVSPost2010Prop42
 90
       50
102
RTVSPost2010PropOp42
 70
     1
102
RTVSPost2010Prop43
 90
        3
102
RTVSPost2010PropOp43
 70
     1
102
RTVSPost2010Prop44ColorIndex
 90
        5
102
RTVSPost2010Prop44ColorRGB
 90
      255
102
RTVSPost2010PropOp44
 70
     1
102
RTVSPost2010Prop45
280
     0
102
RTVSPost2010PropOp45
 70
     1
102
RTVSPost2010Prop46
 90
       50
102
RTVSPost2010PropOp46
 70
     1
102
RTVSPost2010Prop47
 90
       50
102
RTVSPost2010PropOp47
 70
     1
102
RTVSPost2010Prop48
 90
       50
102
RTVSPost2010PropOp48
 70
     1
102
RTVSPost2010Prop49
280
     0
102
RTVSPost2010PropOp49
 70
     1
102
RTVSPost2010Prop50
 90
       50
102
RTVSPost2010PropOp50
 70
     1
102
RTVSPost2010Prop51ColorIndex
 90
      256
102
RTVSPost2010Prop51ColorRGB
 90
-16777216
102
RTVSPost2010PropOp51
 70
     0
102
RTVSPost2010Prop52
140
1.0
102
RTVSPost2010PropOp52
 70
     0
102
RTVSPost2010Prop53
 90
        2
102
RTVSPost2010PropOp53
 70
     1
102
RTVSPost2010Prop54
  1
strokes_ogs.tif
102
RTVSPost2010PropOp54
 70
     1
102
RTVSPost2010Prop55
280
     0
102
RTVSPost2010PropOp55
 70
     1
102
RTVSPost2010Prop56
140
1.0
102
RTVSPost2010PropOp56
 70
     1
102
RTVSPost2010Prop57
140
1.0
102
RTVSPost2010PropOp57
 70
     1
102
RTVSPropertyOp0
 70
     1
102
RTVSPropertyOp1
 70
     1
102
RTVSPropertyOp2
 70
     1
102
RTVSPropertyOp3
 70
     1
102
RTVSPropertyOp4
 70
     1
102
RTVSPropertyOp5
 70
     1
102
RTVSPropertyOp6
 70
     1
102
RTVSPropertyOp7
 70
     1
102
RTVSPropertyOp8
 70
     1
102
RTVSPropertyOp9
 70
     1
102
RTVSPropertyOp10
 70
     1
102
RTVSPropertyOp11
 70
     1
102
RTVSPropertyOp12
 70
     1
102
RTVSPropertyOp13
 70
     1
102
RTVSPropertyOp14
 70
     1
102
RTVSPropertyOp15
 70
     1
102
RTVSPropertyOp16
 70
     1
102
RTVSPropertyOp17
 70
     1
102
RTVSPropertyOp18
 70
     1
102
RTVSPropertyOp19
 70
     1
102
RTVSPropertyOp20
 70
     1
102
RTVSPropertyOp21
 70
     1
102
RTVSPropertyOp22
 70
     1
102
RTVSPropertyOp23
 70
     1
102
RTVSPropertyOp24
 70
     1
102
RTVSPropertyOp25
 70
     1
102
RTVSPropertyOp26
 70
     1
102
RTVSPropertyOp27
 70
     1
102
RTVSPropertyOp28
 70
     1
102
RTVSPropertyOp29
 70
     1
102
RTVSPropertyOp30
 70
     1
102
RTVSPropertyOp31
 70
     1
102
RTVSPropertyOp32
 70
     1
102
RTVSPropertyOp33
 70
     1
102
RTVSPropertyOp34
 70
     1
102
RTVSPropertyOp35
 70
     1
102
RTVSPropertyOp36
 70
     1
102
RTVSPropertyOp37
 70
     1
102
RTVSPropertyOp38
 70
     1
102
RTVSPropertyOp39
 70
     1
102
RTVSPropertyOp40
 70
     1
102
RTVSPropertyOp41
 70
     1
102
RTVSPropertyOp42
 70
     1
102
RTVSPropertyOp43
 70
     1
102
RTVSPropertyOp44
 70
     1
102
RTVSPropertyOp45
 70
     1
102
RTVSPropertyOp46
 70
     1
102
RTVSPropertyOp47
 70
     1
102
RTVSPropertyOp48
 70
     1
102
RTVSPropertyOp49
 70
     1
102
RTVSPropertyOp50
 70
     1
102
RTVSPropertyOp51
 70
     0
102
RTVSPropertyOp52
 70
     0
102
RTVSPropertyOp53
 70
     1
102
RTVSPropertyOp54
 70
     1
102
RTVSPropertyOp55
 70
     1
102
RTVSPropertyOp56
 70
     1
102
RTVSPropertyOp57
 70
     1
102
RTVSPropertyOp58
 70
     1
102
RTVSPropertyOp59
 70
     1
102
RTVSPropertyOp60
 70
     1
102
RTVSPropertyOp61
 70
     1
102
RTVSPropertyOp62
 70
     1
  0
XRECORD
  5
72E5
102
{ACAD_REACTORS
330
72E4
102
}
330
72E4
100
AcDbXrecord
280
     1
102
RTVSPost2010Prop28
280
     0
102
RTVSPost2010PropOp28
 70
     1
102
RTVSPost2010Prop29
280
     1
102
RTVSPost2010PropOp29
 70
     1
102
RTVSPost2010Prop30
280
     1
102
RTVSPost2010PropOp30
 70
     1
102
RTVSPost2010Prop31
280
     0
102
RTVSPost2010PropOp31
 70
     1
102
RTVSPost2010Prop32
280
     0
102
RTVSPost2010PropOp32
 70
     1
102
RTVSPost2010Prop33
280
     0
102
RTVSPost2010PropOp33
 70
     1
102
RTVSPost2010Prop34
280
     0
102
RTVSPost2010PropOp34
 70
     1
102
RTVSPost2010Prop35
280
     0
102
RTVSPost2010PropOp35
 70
     1
102
RTVSPost2010Prop36
280
     0
102
RTVSPost2010PropOp36
 70
     1
102
RTVSPost2010Prop37
 90
       50
102
RTVSPost2010PropOp37
 70
     1
102
RTVSPost2010Prop38
140
0.0
102
RTVSPost2010PropOp38
 70
     1
102
RTVSPost2010Prop39
140
1.0
102
RTVSPost2010PropOp39
 70
     1
102
RTVSPost2010Prop40
 90
        0
102
RTVSPost2010PropOp40
 70
     1
102
RTVSPost2010Prop41ColorIndex
 90
       18
102
RTVSPost2010Prop41ColorRGB
 90
        0
102
RTVSPost2010PropOp41
 70
     1
102
RTVSPost2010Prop42
 90
       50
102
RTVSPost2010PropOp42
 70
     1
102
RTVSPost2010Prop43
 90
        3
102
RTVSPost2010PropOp43
 70
     1
102
RTVSPost2010Prop44ColorIndex
 90
        5
102
RTVSPost2010Prop44ColorRGB
 90
      255
102
RTVSPost2010PropOp44
 70
     1
102
RTVSPost2010Prop45
280
     0
102
RTVSPost2010PropOp45
 70
     1
102
RTVSPost2010Prop46
 90
       50
102
RTVSPost2010PropOp46
 70
     1
102
RTVSPost2010Prop47
 90
       50
102
RTVSPost2010PropOp47
 70
     1
102
RTVSPost2010Prop48
 90
       50
102
RTVSPost2010PropOp48
 70
     1
102
RTVSPost2010Prop49
280
     0
102
RTVSPost2010PropOp49
 70
     1
102
RTVSPost2010Prop50
 90
       50
102
RTVSPost2010PropOp50
 70
     1
102
RTVSPost2010Prop51ColorIndex
 90
      256
102
RTVSPost2010Prop51ColorRGB
 90
-16777216
102
RTVSPost2010PropOp51
 70
     0
102
RTVSPost2010Prop52
140
1.0
102
RTVSPost2010PropOp52
 70
     0
102
RTVSPost2010Prop53
 90
        2
102
RTVSPost2010PropOp53
 70
     1
102
RTVSPost2010Prop54
  1
strokes_ogs.tif
102
RTVSPost2010PropOp54
 70
     1
102
RTVSPost2010Prop55
280
     0
102
RTVSPost2010PropOp55
 70
     1
102
RTVSPost2010Prop56
140
1.0
102
RTVSPost2010PropOp56
 70
     1
102
RTVSPost2010Prop57
140
1.0
102
RTVSPost2010PropOp57
 70
     1
102
RTVSPropertyOp0
 70
     1
102
RTVSPropertyOp1
 70
     1
102
RTVSPropertyOp2
 70
     1
102
RTVSPropertyOp3
 70
     1
102
RTVSPropertyOp4
 70
     1
102
RTVSPropertyOp5
 70
     1
102
RTVSPropertyOp6
 70
     1
102
RTVSPropertyOp7
 70
     1
102
RTVSPropertyOp8
 70
     1
102
RTVSPropertyOp9
 70
     1
102
RTVSPropertyOp10
 70
     1
102
RTVSPropertyOp11
 70
     1
102
RTVSPropertyOp12
 70
     1
102
RTVSPropertyOp13
 70
     1
102
RTVSPropertyOp14
 70
     1
102
RTVSPropertyOp15
 70
     1
102
RTVSPropertyOp16
 70
     1
102
RTVSPropertyOp17
 70
     1
102
RTVSPropertyOp18
 70
     1
102
RTVSPropertyOp19
 70
     1
102
RTVSPropertyOp20
 70
     1
102
RTVSPropertyOp21
 70
     1
102
RTVSPropertyOp22
 70
     1
102
RTVSPropertyOp23
 70
     1
102
RTVSPropertyOp24
 70
     1
102
RTVSPropertyOp25
 70
     1
102
RTVSPropertyOp26
 70
     1
102
RTVSPropertyOp27
 70
     1
102
RTVSPropertyOp28
 70
     1
102
RTVSPropertyOp29
 70
     1
102
RTVSPropertyOp30
 70
     1
102
RTVSPropertyOp31
 70
     1
102
RTVSPropertyOp32
 70
     1
102
RTVSPropertyOp33
 70
     1
102
RTVSPropertyOp34
 70
     1
102
RTVSPropertyOp35
 70
     1
102
RTVSPropertyOp36
 70
     1
102
RTVSPropertyOp37
 70
     1
102
RTVSPropertyOp38
 70
     1
102
RTVSPropertyOp39
 70
     1
102
RTVSPropertyOp40
 70
     1
102
RTVSPropertyOp41
 70
     1
102
RTVSPropertyOp42
 70
     1
102
RTVSPropertyOp43
 70
     1
102
RTVSPropertyOp44
 70
     1
102
RTVSPropertyOp45
 70
     1
102
RTVSPropertyOp46
 70
     1
102
RTVSPropertyOp47
 70
     1
102
RTVSPropertyOp48
 70
     1
102
RTVSPropertyOp49
 70
     1
102
RTVSPropertyOp50
 70
     1
102
RTVSPropertyOp51
 70
     0
102
RTVSPropertyOp52
 70
     0
102
RTVSPropertyOp53
 70
     1
102
RTVSPropertyOp54
 70
     1
102
RTVSPropertyOp55
 70
     1
102
RTVSPropertyOp56
 70
     1
102
RTVSPropertyOp57
 70
     1
102
RTVSPropertyOp58
 70
     1
102
RTVSPropertyOp59
 70
     1
102
RTVSPropertyOp60
 70
     1
102
RTVSPropertyOp61
 70
     1
102
RTVSPropertyOp62
 70
     1
  0
XRECORD
  5
72ED
102
{ACAD_REACTORS
330
72EC
102
}
330
72EC
100
AcDbXrecord
280
     1
102
RTVSPost2010Prop28
280
     0
102
RTVSPost2010PropOp28
 70
     1
102
RTVSPost2010Prop29
280
     1
102
RTVSPost2010PropOp29
 70
     1
102
RTVSPost2010Prop30
280
     1
102
RTVSPost2010PropOp30
 70
     1
102
RTVSPost2010Prop31
280
     0
102
RTVSPost2010PropOp31
 70
     1
102
RTVSPost2010Prop32
280
     0
102
RTVSPost2010PropOp32
 70
     1
102
RTVSPost2010Prop33
280
     0
102
RTVSPost2010PropOp33
 70
     1
102
RTVSPost2010Prop34
280
     0
102
RTVSPost2010PropOp34
 70
     1
102
RTVSPost2010Prop35
280
     0
102
RTVSPost2010PropOp35
 70
     1
102
RTVSPost2010Prop36
280
     0
102
RTVSPost2010PropOp36
 70
     1
102
RTVSPost2010Prop37
 90
       50
102
RTVSPost2010PropOp37
 70
     1
102
RTVSPost2010Prop38
140
0.0
102
RTVSPost2010PropOp38
 70
     1
102
RTVSPost2010Prop39
140
1.0
102
RTVSPost2010PropOp39
 70
     1
102
RTVSPost2010Prop40
 90
        0
102
RTVSPost2010PropOp40
 70
     1
102
RTVSPost2010Prop41ColorIndex
 90
       18
102
RTVSPost2010Prop41ColorRGB
 90
        0
102
RTVSPost2010PropOp41
 70
     1
102
RTVSPost2010Prop42
 90
       50
102
RTVSPost2010PropOp42
 70
     1
102
RTVSPost2010Prop43
 90
        3
102
RTVSPost2010PropOp43
 70
     1
102
RTVSPost2010Prop44ColorIndex
 90
        5
102
RTVSPost2010Prop44ColorRGB
 90
      255
102
RTVSPost2010PropOp44
 70
     1
102
RTVSPost2010Prop45
280
     0
102
RTVSPost2010PropOp45
 70
     1
102
RTVSPost2010Prop46
 90
       50
102
RTVSPost2010PropOp46
 70
     1
102
RTVSPost2010Prop47
 90
       50
102
RTVSPost2010PropOp47
 70
     1
102
RTVSPost2010Prop48
 90
       50
102
RTVSPost2010PropOp48
 70
     1
102
RTVSPost2010Prop49
280
     0
102
RTVSPost2010PropOp49
 70
     1
102
RTVSPost2010Prop50
 90
       50
102
RTVSPost2010PropOp50
 70
     1
102
RTVSPost2010Prop51ColorIndex
 90
      256
102
RTVSPost2010Prop51ColorRGB
 90
-16777216
102
RTVSPost2010PropOp51
 70
     0
102
RTVSPost2010Prop52
140
1.0
102
RTVSPost2010PropOp52
 70
     0
102
RTVSPost2010Prop53
 90
        2
102
RTVSPost2010PropOp53
 70
     1
102
RTVSPost2010Prop54
  1
strokes_ogs.tif
102
RTVSPost2010PropOp54
 70
     1
102
RTVSPost2010Prop55
280
     0
102
RTVSPost2010PropOp55
 70
     1
102
RTVSPost2010Prop56
140
1.0
102
RTVSPost2010PropOp56
 70
     1
102
RTVSPost2010Prop57
140
1.0
102
RTVSPost2010PropOp57
 70
     1
102
RTVSPropertyOp0
 70
     1
102
RTVSPropertyOp1
 70
     1
102
RTVSPropertyOp2
 70
     1
102
RTVSPropertyOp3
 70
     1
102
RTVSPropertyOp4
 70
     1
102
RTVSPropertyOp5
 70
     1
102
RTVSPropertyOp6
 70
     1
102
RTVSPropertyOp7
 70
     1
102
RTVSPropertyOp8
 70
     1
102
RTVSPropertyOp9
 70
     1
102
RTVSPropertyOp10
 70
     1
102
RTVSPropertyOp11
 70
     1
102
RTVSPropertyOp12
 70
     1
102
RTVSPropertyOp13
 70
     1
102
RTVSPropertyOp14
 70
     1
102
RTVSPropertyOp15
 70
     1
102
RTVSPropertyOp16
 70
     1
102
RTVSPropertyOp17
 70
     1
102
RTVSPropertyOp18
 70
     1
102
RTVSPropertyOp19
 70
     1
102
RTVSPropertyOp20
 70
     1
102
RTVSPropertyOp21
 70
     1
102
RTVSPropertyOp22
 70
     1
102
RTVSPropertyOp23
 70
     1
102
RTVSPropertyOp24
 70
     1
102
RTVSPropertyOp25
 70
     1
102
RTVSPropertyOp26
 70
     1
102
RTVSPropertyOp27
 70
     1
102
RTVSPropertyOp28
 70
     1
102
RTVSPropertyOp29
 70
     1
102
RTVSPropertyOp30
 70
     1
102
RTVSPropertyOp31
 70
     1
102
RTVSPropertyOp32
 70
     1
102
RTVSPropertyOp33
 70
     1
102
RTVSPropertyOp34
 70
     1
102
RTVSPropertyOp35
 70
     1
102
RTVSPropertyOp36
 70
     1
102
RTVSPropertyOp37
 70
     1
102
RTVSPropertyOp38
 70
     1
102
RTVSPropertyOp39
 70
     1
102
RTVSPropertyOp40
 70
     1
102
RTVSPropertyOp41
 70
     1
102
RTVSPropertyOp42
 70
     1
102
RTVSPropertyOp43
 70
     1
102
RTVSPropertyOp44
 70
     1
102
RTVSPropertyOp45
 70
     1
102
RTVSPropertyOp46
 70
     1
102
RTVSPropertyOp47
 70
     1
102
RTVSPropertyOp48
 70
     1
102
RTVSPropertyOp49
 70
     1
102
RTVSPropertyOp50
 70
     1
102
RTVSPropertyOp51
 70
     0
102
RTVSPropertyOp52
 70
     0
102
RTVSPropertyOp53
 70
     1
102
RTVSPropertyOp54
 70
     1
102
RTVSPropertyOp55
 70
     1
102
RTVSPropertyOp56
 70
     1
102
RTVSPropertyOp57
 70
     1
102
RTVSPropertyOp58
 70
     1
102
RTVSPropertyOp59
 70
     1
102
RTVSPropertyOp60
 70
     1
102
RTVSPropertyOp61
 70
     1
102
RTVSPropertyOp62
 70
     1
  0
XRECORD
  5
72DF
102
{ACAD_REACTORS
330
72DE
102
}
330
72DE
100
AcDbXrecord
280
     1
102
RTVSPost2010Prop28
280
     0
102
RTVSPost2010PropOp28
 70
     1
102
RTVSPost2010Prop29
280
     1
102
RTVSPost2010PropOp29
 70
     1
102
RTVSPost2010Prop30
280
     1
102
RTVSPost2010PropOp30
 70
     1
102
RTVSPost2010Prop31
280
     0
102
RTVSPost2010PropOp31
 70
     1
102
RTVSPost2010Prop32
280
     0
102
RTVSPost2010PropOp32
 70
     1
102
RTVSPost2010Prop33
280
     0
102
RTVSPost2010PropOp33
 70
     1
102
RTVSPost2010Prop34
280
     0
102
RTVSPost2010PropOp34
 70
     1
102
RTVSPost2010Prop35
280
     0
102
RTVSPost2010PropOp35
 70
     1
102
RTVSPost2010Prop36
280
     0
102
RTVSPost2010PropOp36
 70
     1
102
RTVSPost2010Prop37
 90
       50
102
RTVSPost2010PropOp37
 70
     1
102
RTVSPost2010Prop38
140
0.0
102
RTVSPost2010PropOp38
 70
     1
102
RTVSPost2010Prop39
140
1.0
102
RTVSPost2010PropOp39
 70
     1
102
RTVSPost2010Prop40
 90
        0
102
RTVSPost2010PropOp40
 70
     1
102
RTVSPost2010Prop41ColorIndex
 90
       18
102
RTVSPost2010Prop41ColorRGB
 90
        0
102
RTVSPost2010PropOp41
 70
     1
102
RTVSPost2010Prop42
 90
       50
102
RTVSPost2010PropOp42
 70
     1
102
RTVSPost2010Prop43
 90
        3
102
RTVSPost2010PropOp43
 70
     1
102
RTVSPost2010Prop44ColorIndex
 90
        5
102
RTVSPost2010Prop44ColorRGB
 90
      255
102
RTVSPost2010PropOp44
 70
     1
102
RTVSPost2010Prop45
280
     0
102
RTVSPost2010PropOp45
 70
     1
102
RTVSPost2010Prop46
 90
       50
102
RTVSPost2010PropOp46
 70
     1
102
RTVSPost2010Prop47
 90
       50
102
RTVSPost2010PropOp47
 70
     1
102
RTVSPost2010Prop48
 90
       50
102
RTVSPost2010PropOp48
 70
     1
102
RTVSPost2010Prop49
280
     0
102
RTVSPost2010PropOp49
 70
     1
102
RTVSPost2010Prop50
 90
       50
102
RTVSPost2010PropOp50
 70
     1
102
RTVSPost2010Prop51ColorIndex
 90
      256
102
RTVSPost2010Prop51ColorRGB
 90
-16777216
102
RTVSPost2010PropOp51
 70
     0
102
RTVSPost2010Prop52
140
1.0
102
RTVSPost2010PropOp52
 70
     0
102
RTVSPost2010Prop53
 90
        2
102
RTVSPost2010PropOp53
 70
     1
102
RTVSPost2010Prop54
  1
strokes_ogs.tif
102
RTVSPost2010PropOp54
 70
     1
102
RTVSPost2010Prop55
280
     0
102
RTVSPost2010PropOp55
 70
     1
102
RTVSPost2010Prop56
140
1.0
102
RTVSPost2010PropOp56
 70
     1
102
RTVSPost2010Prop57
140
1.0
102
RTVSPost2010PropOp57
 70
     1
102
RTVSPropertyOp0
 70
     1
102
RTVSPropertyOp1
 70
     1
102
RTVSPropertyOp2
 70
     1
102
RTVSPropertyOp3
 70
     1
102
RTVSPropertyOp4
 70
     1
102
RTVSPropertyOp5
 70
     1
102
RTVSPropertyOp6
 70
     1
102
RTVSPropertyOp7
 70
     1
102
RTVSPropertyOp8
 70
     1
102
RTVSPropertyOp9
 70
     1
102
RTVSPropertyOp10
 70
     1
102
RTVSPropertyOp11
 70
     1
102
RTVSPropertyOp12
 70
     1
102
RTVSPropertyOp13
 70
     1
102
RTVSPropertyOp14
 70
     1
102
RTVSPropertyOp15
 70
     1
102
RTVSPropertyOp16
 70
     1
102
RTVSPropertyOp17
 70
     1
102
RTVSPropertyOp18
 70
     1
102
RTVSPropertyOp19
 70
     1
102
RTVSPropertyOp20
 70
     1
102
RTVSPropertyOp21
 70
     1
102
RTVSPropertyOp22
 70
     1
102
RTVSPropertyOp23
 70
     1
102
RTVSPropertyOp24
 70
     1
102
RTVSPropertyOp25
 70
     1
102
RTVSPropertyOp26
 70
     1
102
RTVSPropertyOp27
 70
     1
102
RTVSPropertyOp28
 70
     1
102
RTVSPropertyOp29
 70
     1
102
RTVSPropertyOp30
 70
     1
102
RTVSPropertyOp31
 70
     1
102
RTVSPropertyOp32
 70
     1
102
RTVSPropertyOp33
 70
     1
102
RTVSPropertyOp34
 70
     1
102
RTVSPropertyOp35
 70
     1
102
RTVSPropertyOp36
 70
     1
102
RTVSPropertyOp37
 70
     1
102
RTVSPropertyOp38
 70
     1
102
RTVSPropertyOp39
 70
     1
102
RTVSPropertyOp40
 70
     1
102
RTVSPropertyOp41
 70
     1
102
RTVSPropertyOp42
 70
     1
102
RTVSPropertyOp43
 70
     1
102
RTVSPropertyOp44
 70
     1
102
RTVSPropertyOp45
 70
     1
102
RTVSPropertyOp46
 70
     1
102
RTVSPropertyOp47
 70
     1
102
RTVSPropertyOp48
 70
     1
102
RTVSPropertyOp49
 70
     1
102
RTVSPropertyOp50
 70
     1
102
RTVSPropertyOp51
 70
     0
102
RTVSPropertyOp52
 70
     0
102
RTVSPropertyOp53
 70
     1
102
RTVSPropertyOp54
 70
     1
102
RTVSPropertyOp55
 70
     1
102
RTVSPropertyOp56
 70
     1
102
RTVSPropertyOp57
 70
     1
102
RTVSPropertyOp58
 70
     1
102
RTVSPropertyOp59
 70
     1
102
RTVSPropertyOp60
 70
     1
102
RTVSPropertyOp61
 70
     1
102
RTVSPropertyOp62
 70
     1
  0
XRECORD
  5
72E3
102
{ACAD_REACTORS
330
72E2
102
}
330
72E2
100
AcDbXrecord
280
     1
102
RTVSPost2010Prop28
280
     0
102
RTVSPost2010PropOp28
 70
     1
102
RTVSPost2010Prop29
280
     1
102
RTVSPost2010PropOp29
 70
     1
102
RTVSPost2010Prop30
280
     1
102
RTVSPost2010PropOp30
 70
     1
102
RTVSPost2010Prop31
280
     0
102
RTVSPost2010PropOp31
 70
     1
102
RTVSPost2010Prop32
280
     0
102
RTVSPost2010PropOp32
 70
     1
102
RTVSPost2010Prop33
280
     0
102
RTVSPost2010PropOp33
 70
     1
102
RTVSPost2010Prop34
280
     0
102
RTVSPost2010PropOp34
 70
     1
102
RTVSPost2010Prop35
280
     0
102
RTVSPost2010PropOp35
 70
     1
102
RTVSPost2010Prop36
280
     0
102
RTVSPost2010PropOp36
 70
     1
102
RTVSPost2010Prop37
 90
       50
102
RTVSPost2010PropOp37
 70
     1
102
RTVSPost2010Prop38
140
0.0
102
RTVSPost2010PropOp38
 70
     1
102
RTVSPost2010Prop39
140
1.0
102
RTVSPost2010PropOp39
 70
     1
102
RTVSPost2010Prop40
 90
        0
102
RTVSPost2010PropOp40
 70
     1
102
RTVSPost2010Prop41ColorIndex
 90
       18
102
RTVSPost2010Prop41ColorRGB
 90
        0
102
RTVSPost2010PropOp41
 70
     1
102
RTVSPost2010Prop42
 90
       50
102
RTVSPost2010PropOp42
 70
     1
102
RTVSPost2010Prop43
 90
        3
102
RTVSPost2010PropOp43
 70
     1
102
RTVSPost2010Prop44ColorIndex
 90
        5
102
RTVSPost2010Prop44ColorRGB
 90
      255
102
RTVSPost2010PropOp44
 70
     1
102
RTVSPost2010Prop45
280
     0
102
RTVSPost2010PropOp45
 70
     1
102
RTVSPost2010Prop46
 90
       50
102
RTVSPost2010PropOp46
 70
     1
102
RTVSPost2010Prop47
 90
       50
102
RTVSPost2010PropOp47
 70
     1
102
RTVSPost2010Prop48
 90
       50
102
RTVSPost2010PropOp48
 70
     1
102
RTVSPost2010Prop49
280
     0
102
RTVSPost2010PropOp49
 70
     1
102
RTVSPost2010Prop50
 90
       50
102
RTVSPost2010PropOp50
 70
     1
102
RTVSPost2010Prop51ColorIndex
 90
      256
102
RTVSPost2010Prop51ColorRGB
 90
-16777216
102
RTVSPost2010PropOp51
 70
     0
102
RTVSPost2010Prop52
140
1.0
102
RTVSPost2010PropOp52
 70
     0
102
RTVSPost2010Prop53
 90
        2
102
RTVSPost2010PropOp53
 70
     1
102
RTVSPost2010Prop54
  1
strokes_ogs.tif
102
RTVSPost2010PropOp54
 70
     1
102
RTVSPost2010Prop55
280
     0
102
RTVSPost2010PropOp55
 70
     1
102
RTVSPost2010Prop56
140
1.0
102
RTVSPost2010PropOp56
 70
     1
102
RTVSPost2010Prop57
140
1.0
102
RTVSPost2010PropOp57
 70
     1
102
RTVSPropertyOp0
 70
     1
102
RTVSPropertyOp1
 70
     1
102
RTVSPropertyOp2
 70
     1
102
RTVSPropertyOp3
 70
     1
102
RTVSPropertyOp4
 70
     1
102
RTVSPropertyOp5
 70
     1
102
RTVSPropertyOp6
 70
     1
102
RTVSPropertyOp7
 70
     1
102
RTVSPropertyOp8
 70
     1
102
RTVSPropertyOp9
 70
     1
102
RTVSPropertyOp10
 70
     1
102
RTVSPropertyOp11
 70
     1
102
RTVSPropertyOp12
 70
     1
102
RTVSPropertyOp13
 70
     1
102
RTVSPropertyOp14
 70
     1
102
RTVSPropertyOp15
 70
     1
102
RTVSPropertyOp16
 70
     1
102
RTVSPropertyOp17
 70
     1
102
RTVSPropertyOp18
 70
     1
102
RTVSPropertyOp19
 70
     1
102
RTVSPropertyOp20
 70
     1
102
RTVSPropertyOp21
 70
     1
102
RTVSPropertyOp22
 70
     1
102
RTVSPropertyOp23
 70
     1
102
RTVSPropertyOp24
 70
     1
102
RTVSPropertyOp25
 70
     1
102
RTVSPropertyOp26
 70
     1
102
RTVSPropertyOp27
 70
     1
102
RTVSPropertyOp28
 70
     1
102
RTVSPropertyOp29
 70
     1
102
RTVSPropertyOp30
 70
     1
102
RTVSPropertyOp31
 70
     1
102
RTVSPropertyOp32
 70
     1
102
RTVSPropertyOp33
 70
     1
102
RTVSPropertyOp34
 70
     1
102
RTVSPropertyOp35
 70
     1
102
RTVSPropertyOp36
 70
     1
102
RTVSPropertyOp37
 70
     1
102
RTVSPropertyOp38
 70
     1
102
RTVSPropertyOp39
 70
     1
102
RTVSPropertyOp40
 70
     1
102
RTVSPropertyOp41
 70
     1
102
RTVSPropertyOp42
 70
     1
102
RTVSPropertyOp43
 70
     1
102
RTVSPropertyOp44
 70
     1
102
RTVSPropertyOp45
 70
     1
102
RTVSPropertyOp46
 70
     1
102
RTVSPropertyOp47
 70
     1
102
RTVSPropertyOp48
 70
     1
102
RTVSPropertyOp49
 70
     1
102
RTVSPropertyOp50
 70
     1
102
RTVSPropertyOp51
 70
     0
102
RTVSPropertyOp52
 70
     0
102
RTVSPropertyOp53
 70
     1
102
RTVSPropertyOp54
 70
     1
102
RTVSPropertyOp55
 70
     1
102
RTVSPropertyOp56
 70
     1
102
RTVSPropertyOp57
 70
     1
102
RTVSPropertyOp58
 70
     1
102
RTVSPropertyOp59
 70
     1
102
RTVSPropertyOp60
 70
     1
102
RTVSPropertyOp61
 70
     1
102
RTVSPropertyOp62
 70
     1
  0
XRECORD
  5
72F5
102
{ACAD_REACTORS
330
72F4
102
}
330
72F4
100
AcDbXrecord
280
     1
102
RTVSPost2010Prop28
280
     0
102
RTVSPost2010PropOp28
 70
     1
102
RTVSPost2010Prop29
280
     1
102
RTVSPost2010PropOp29
 70
     1
102
RTVSPost2010Prop30
280
     1
102
RTVSPost2010PropOp30
 70
     1
102
RTVSPost2010Prop31
280
     0
102
RTVSPost2010PropOp31
 70
     1
102
RTVSPost2010Prop32
280
     0
102
RTVSPost2010PropOp32
 70
     1
102
RTVSPost2010Prop33
280
     0
102
RTVSPost2010PropOp33
 70
     1
102
RTVSPost2010Prop34
280
     0
102
RTVSPost2010PropOp34
 70
     1
102
RTVSPost2010Prop35
280
     0
102
RTVSPost2010PropOp35
 70
     1
102
RTVSPost2010Prop36
280
     0
102
RTVSPost2010PropOp36
 70
     1
102
RTVSPost2010Prop37
 90
       50
102
RTVSPost2010PropOp37
 70
     1
102
RTVSPost2010Prop38
140
0.0
102
RTVSPost2010PropOp38
 70
     1
102
RTVSPost2010Prop39
140
1.0
102
RTVSPost2010PropOp39
 70
     1
102
RTVSPost2010Prop40
 90
        0
102
RTVSPost2010PropOp40
 70
     1
102
RTVSPost2010Prop41ColorIndex
 90
       18
102
RTVSPost2010Prop41ColorRGB
 90
        0
102
RTVSPost2010PropOp41
 70
     1
102
RTVSPost2010Prop42
 90
       50
102
RTVSPost2010PropOp42
 70
     1
102
RTVSPost2010Prop43
 90
        3
102
RTVSPost2010PropOp43
 70
     1
102
RTVSPost2010Prop44ColorIndex
 90
        5
102
RTVSPost2010Prop44ColorRGB
 90
      255
102
RTVSPost2010PropOp44
 70
     1
102
RTVSPost2010Prop45
280
     0
102
RTVSPost2010PropOp45
 70
     1
102
RTVSPost2010Prop46
 90
       50
102
RTVSPost2010PropOp46
 70
     1
102
RTVSPost2010Prop47
 90
       50
102
RTVSPost2010PropOp47
 70
     1
102
RTVSPost2010Prop48
 90
       50
102
RTVSPost2010PropOp48
 70
     1
102
RTVSPost2010Prop49
280
     0
102
RTVSPost2010PropOp49
 70
     1
102
RTVSPost2010Prop50
 90
       50
102
RTVSPost2010PropOp50
 70
     1
102
RTVSPost2010Prop51ColorIndex
 90
      256
102
RTVSPost2010Prop51ColorRGB
 90
-16777216
102
RTVSPost2010PropOp51
 70
     0
102
RTVSPost2010Prop52
140
1.0
102
RTVSPost2010PropOp52
 70
     0
102
RTVSPost2010Prop53
 90
        2
102
RTVSPost2010PropOp53
 70
     1
102
RTVSPost2010Prop54
  1
strokes_ogs.tif
102
RTVSPost2010PropOp54
 70
     1
102
RTVSPost2010Prop55
280
     0
102
RTVSPost2010PropOp55
 70
     1
102
RTVSPost2010Prop56
140
1.0
102
RTVSPost2010PropOp56
 70
     1
102
RTVSPost2010Prop57
140
1.0
102
RTVSPost2010PropOp57
 70
     1
102
RTVSPropertyOp0
 70
     0
102
RTVSPropertyOp1
 70
     0
102
RTVSPropertyOp2
 70
     0
102
RTVSPropertyOp3
 70
     0
102
RTVSPropertyOp4
 70
     0
102
RTVSPropertyOp5
 70
     0
102
RTVSPropertyOp6
 70
     0
102
RTVSPropertyOp7
 70
     0
102
RTVSPropertyOp8
 70
     0
102
RTVSPropertyOp9
 70
     0
102
RTVSPropertyOp10
 70
     0
102
RTVSPropertyOp11
 70
     0
102
RTVSPropertyOp12
 70
     0
102
RTVSPropertyOp13
 70
     0
102
RTVSPropertyOp14
 70
     2
102
RTVSPropertyOp15
 70
     0
102
RTVSPropertyOp16
 70
     0
102
RTVSPropertyOp17
 70
     0
102
RTVSPropertyOp18
 70
     0
102
RTVSPropertyOp19
 70
     0
102
RTVSPropertyOp20
 70
     0
102
RTVSPropertyOp21
 70
     0
102
RTVSPropertyOp22
 70
     0
102
RTVSPropertyOp23
 70
     0
102
RTVSPropertyOp24
 70
     0
102
RTVSPropertyOp25
 70
     0
102
RTVSPropertyOp26
 70
     0
102
RTVSPropertyOp27
 70
     0
102
RTVSPropertyOp28
 70
     1
102
RTVSPropertyOp29
 70
     1
102
RTVSPropertyOp30
 70
     1
102
RTVSPropertyOp31
 70
     1
102
RTVSPropertyOp32
 70
     1
102
RTVSPropertyOp33
 70
     1
102
RTVSPropertyOp34
 70
     1
102
RTVSPropertyOp35
 70
     1
102
RTVSPropertyOp36
 70
     1
102
RTVSPropertyOp37
 70
     1
102
RTVSPropertyOp38
 70
     1
102
RTVSPropertyOp39
 70
     1
102
RTVSPropertyOp40
 70
     1
102
RTVSPropertyOp41
 70
     1
102
RTVSPropertyOp42
 70
     1
102
RTVSPropertyOp43
 70
     1
102
RTVSPropertyOp44
 70
     1
102
RTVSPropertyOp45
 70
     1
102
RTVSPropertyOp46
 70
     1
102
RTVSPropertyOp47
 70
     1
102
RTVSPropertyOp48
 70
     1
102
RTVSPropertyOp49
 70
     1
102
RTVSPropertyOp50
 70
     1
102
RTVSPropertyOp51
 70
     0
102
RTVSPropertyOp52
 70
     0
102
RTVSPropertyOp53
 70
     1
102
RTVSPropertyOp54
 70
     1
102
RTVSPropertyOp55
 70
     1
102
RTVSPropertyOp56
 70
     1
102
RTVSPropertyOp57
 70
     1
102
RTVSPropertyOp58
 70
     1
102
RTVSPropertyOp59
 70
     1
102
RTVSPropertyOp60
 70
     1
102
RTVSPropertyOp61
 70
     1
102
RTVSPropertyOp62
 70
     1
  0
XRECORD
  5
72EB
102
{ACAD_REACTORS
330
72EA
102
}
330
72EA
100
AcDbXrecord
280
     1
102
RTVSPost2010Prop28
280
     0
102
RTVSPost2010PropOp28
 70
     1
102
RTVSPost2010Prop29
280
     1
102
RTVSPost2010PropOp29
 70
     1
102
RTVSPost2010Prop30
280
     1
102
RTVSPost2010PropOp30
 70
     1
102
RTVSPost2010Prop31
280
     0
102
RTVSPost2010PropOp31
 70
     1
102
RTVSPost2010Prop32
280
     0
102
RTVSPost2010PropOp32
 70
     1
102
RTVSPost2010Prop33
280
     0
102
RTVSPost2010PropOp33
 70
     1
102
RTVSPost2010Prop34
280
     0
102
RTVSPost2010PropOp34
 70
     1
102
RTVSPost2010Prop35
280
     0
102
RTVSPost2010PropOp35
 70
     1
102
RTVSPost2010Prop36
280
     0
102
RTVSPost2010PropOp36
 70
     1
102
RTVSPost2010Prop37
 90
       50
102
RTVSPost2010PropOp37
 70
     1
102
RTVSPost2010Prop38
140
0.0
102
RTVSPost2010PropOp38
 70
     1
102
RTVSPost2010Prop39
140
1.0
102
RTVSPost2010PropOp39
 70
     1
102
RTVSPost2010Prop40
 90
        0
102
RTVSPost2010PropOp40
 70
     1
102
RTVSPost2010Prop41ColorIndex
 90
       18
102
RTVSPost2010Prop41ColorRGB
 90
        0
102
RTVSPost2010PropOp41
 70
     1
102
RTVSPost2010Prop42
 90
       50
102
RTVSPost2010PropOp42
 70
     1
102
RTVSPost2010Prop43
 90
        3
102
RTVSPost2010PropOp43
 70
     1
102
RTVSPost2010Prop44ColorIndex
 90
        5
102
RTVSPost2010Prop44ColorRGB
 90
      255
102
RTVSPost2010PropOp44
 70
     1
102
RTVSPost2010Prop45
280
     0
102
RTVSPost2010PropOp45
 70
     1
102
RTVSPost2010Prop46
 90
       50
102
RTVSPost2010PropOp46
 70
     1
102
RTVSPost2010Prop47
 90
       50
102
RTVSPost2010PropOp47
 70
     1
102
RTVSPost2010Prop48
 90
       50
102
RTVSPost2010PropOp48
 70
     1
102
RTVSPost2010Prop49
280
     0
102
RTVSPost2010PropOp49
 70
     1
102
RTVSPost2010Prop50
 90
       50
102
RTVSPost2010PropOp50
 70
     1
102
RTVSPost2010Prop51ColorIndex
 90
      256
102
RTVSPost2010Prop51ColorRGB
 90
-16777216
102
RTVSPost2010PropOp51
 70
     0
102
RTVSPost2010Prop52
140
1.0
102
RTVSPost2010PropOp52
 70
     0
102
RTVSPost2010Prop53
 90
        2
102
RTVSPost2010PropOp53
 70
     1
102
RTVSPost2010Prop54
  1
strokes_ogs.tif
102
RTVSPost2010PropOp54
 70
     1
102
RTVSPost2010Prop55
280
     0
102
RTVSPost2010PropOp55
 70
     1
102
RTVSPost2010Prop56
140
1.0
102
RTVSPost2010PropOp56
 70
     1
102
RTVSPost2010Prop57
140
1.0
102
RTVSPost2010PropOp57
 70
     1
102
RTVSPropertyOp0
 70
     1
102
RTVSPropertyOp1
 70
     1
102
RTVSPropertyOp2
 70
     1
102
RTVSPropertyOp3
 70
     1
102
RTVSPropertyOp4
 70
     1
102
RTVSPropertyOp5
 70
     1
102
RTVSPropertyOp6
 70
     1
102
RTVSPropertyOp7
 70
     1
102
RTVSPropertyOp8
 70
     1
102
RTVSPropertyOp9
 70
     1
102
RTVSPropertyOp10
 70
     1
102
RTVSPropertyOp11
 70
     1
102
RTVSPropertyOp12
 70
     1
102
RTVSPropertyOp13
 70
     1
102
RTVSPropertyOp14
 70
     1
102
RTVSPropertyOp15
 70
     1
102
RTVSPropertyOp16
 70
     1
102
RTVSPropertyOp17
 70
     1
102
RTVSPropertyOp18
 70
     1
102
RTVSPropertyOp19
 70
     1
102
RTVSPropertyOp20
 70
     1
102
RTVSPropertyOp21
 70
     1
102
RTVSPropertyOp22
 70
     1
102
RTVSPropertyOp23
 70
     1
102
RTVSPropertyOp24
 70
     1
102
RTVSPropertyOp25
 70
     1
102
RTVSPropertyOp26
 70
     1
102
RTVSPropertyOp27
 70
     1
102
RTVSPropertyOp28
 70
     1
102
RTVSPropertyOp29
 70
     1
102
RTVSPropertyOp30
 70
     1
102
RTVSPropertyOp31
 70
     1
102
RTVSPropertyOp32
 70
     1
102
RTVSPropertyOp33
 70
     1
102
RTVSPropertyOp34
 70
     1
102
RTVSPropertyOp35
 70
     1
102
RTVSPropertyOp36
 70
     1
102
RTVSPropertyOp37
 70
     1
102
RTVSPropertyOp38
 70
     1
102
RTVSPropertyOp39
 70
     1
102
RTVSPropertyOp40
 70
     1
102
RTVSPropertyOp41
 70
     1
102
RTVSPropertyOp42
 70
     1
102
RTVSPropertyOp43
 70
     1
102
RTVSPropertyOp44
 70
     1
102
RTVSPropertyOp45
 70
     1
102
RTVSPropertyOp46
 70
     1
102
RTVSPropertyOp47
 70
     1
102
RTVSPropertyOp48
 70
     1
102
RTVSPropertyOp49
 70
     1
102
RTVSPropertyOp50
 70
     1
102
RTVSPropertyOp51
 70
     0
102
RTVSPropertyOp52
 70
     0
102
RTVSPropertyOp53
 70
     1
102
RTVSPropertyOp54
 70
     1
102
RTVSPropertyOp55
 70
     1
102
RTVSPropertyOp56
 70
     1
102
RTVSPropertyOp57
 70
     1
102
RTVSPropertyOp58
 70
     1
102
RTVSPropertyOp59
 70
     1
102
RTVSPropertyOp60
 70
     1
102
RTVSPropertyOp61
 70
     1
102
RTVSPropertyOp62
 70
     1
  0
XRECORD
  5
72CF
102
{ACAD_REACTORS
330
72CE
102
}
330
72CE
100
AcDbXrecord
280
     1
102
RTVSPost2010Prop28
280
     0
102
RTVSPost2010PropOp28
 70
     1
102
RTVSPost2010Prop29
280
     1
102
RTVSPost2010PropOp29
 70
     1
102
RTVSPost2010Prop30
280
     1
102
RTVSPost2010PropOp30
 70
     1
102
RTVSPost2010Prop31
280
     0
102
RTVSPost2010PropOp31
 70
     1
102
RTVSPost2010Prop32
280
     0
102
RTVSPost2010PropOp32
 70
     1
102
RTVSPost2010Prop33
280
     0
102
RTVSPost2010PropOp33
 70
     1
102
RTVSPost2010Prop34
280
     0
102
RTVSPost2010PropOp34
 70
     1
102
RTVSPost2010Prop35
280
     0
102
RTVSPost2010PropOp35
 70
     1
102
RTVSPost2010Prop36
280
     0
102
RTVSPost2010PropOp36
 70
     1
102
RTVSPost2010Prop37
 90
       50
102
RTVSPost2010PropOp37
 70
     1
102
RTVSPost2010Prop38
140
0.0
102
RTVSPost2010PropOp38
 70
     1
102
RTVSPost2010Prop39
140
1.0
102
RTVSPost2010PropOp39
 70
     1
102
RTVSPost2010Prop40
 90
        0
102
RTVSPost2010PropOp40
 70
     1
102
RTVSPost2010Prop41ColorIndex
 90
       18
102
RTVSPost2010Prop41ColorRGB
 90
        0
102
RTVSPost2010PropOp41
 70
     1
102
RTVSPost2010Prop42
 90
       50
102
RTVSPost2010PropOp42
 70
     1
102
RTVSPost2010Prop43
 90
        3
102
RTVSPost2010PropOp43
 70
     1
102
RTVSPost2010Prop44ColorIndex
 90
        5
102
RTVSPost2010Prop44ColorRGB
 90
      255
102
RTVSPost2010PropOp44
 70
     1
102
RTVSPost2010Prop45
280
     0
102
RTVSPost2010PropOp45
 70
     1
102
RTVSPost2010Prop46
 90
       50
102
RTVSPost2010PropOp46
 70
     1
102
RTVSPost2010Prop47
 90
       50
102
RTVSPost2010PropOp47
 70
     1
102
RTVSPost2010Prop48
 90
       50
102
RTVSPost2010PropOp48
 70
     1
102
RTVSPost2010Prop49
280
     0
102
RTVSPost2010PropOp49
 70
     1
102
RTVSPost2010Prop50
 90
       50
102
RTVSPost2010PropOp50
 70
     1
102
RTVSPost2010Prop51ColorIndex
 90
      256
102
RTVSPost2010Prop51ColorRGB
 90
-16777216
102
RTVSPost2010PropOp51
 70
     0
102
RTVSPost2010Prop52
140
1.0
102
RTVSPost2010PropOp52
 70
     0
102
RTVSPost2010Prop53
 90
        2
102
RTVSPost2010PropOp53
 70
     1
102
RTVSPost2010Prop54
  1
strokes_ogs.tif
102
RTVSPost2010PropOp54
 70
     1
102
RTVSPost2010Prop55
280
     0
102
RTVSPost2010PropOp55
 70
     1
102
RTVSPost2010Prop56
140
1.0
102
RTVSPost2010PropOp56
 70
     1
102
RTVSPost2010Prop57
140
1.0
102
RTVSPost2010PropOp57
 70
     1
102
RTVSPropertyOp0
 70
     1
102
RTVSPropertyOp1
 70
     1
102
RTVSPropertyOp2
 70
     1
102
RTVSPropertyOp3
 70
     1
102
RTVSPropertyOp4
 70
     1
102
RTVSPropertyOp5
 70
     1
102
RTVSPropertyOp6
 70
     1
102
RTVSPropertyOp7
 70
     1
102
RTVSPropertyOp8
 70
     1
102
RTVSPropertyOp9
 70
     1
102
RTVSPropertyOp10
 70
     1
102
RTVSPropertyOp11
 70
     1
102
RTVSPropertyOp12
 70
     1
102
RTVSPropertyOp13
 70
     1
102
RTVSPropertyOp14
 70
     1
102
RTVSPropertyOp15
 70
     1
102
RTVSPropertyOp16
 70
     1
102
RTVSPropertyOp17
 70
     1
102
RTVSPropertyOp18
 70
     1
102
RTVSPropertyOp19
 70
     1
102
RTVSPropertyOp20
 70
     1
102
RTVSPropertyOp21
 70
     1
102
RTVSPropertyOp22
 70
     1
102
RTVSPropertyOp23
 70
     1
102
RTVSPropertyOp24
 70
     1
102
RTVSPropertyOp25
 70
     1
102
RTVSPropertyOp26
 70
     1
102
RTVSPropertyOp27
 70
     1
102
RTVSPropertyOp28
 70
     1
102
RTVSPropertyOp29
 70
     1
102
RTVSPropertyOp30
 70
     1
102
RTVSPropertyOp31
 70
     1
102
RTVSPropertyOp32
 70
     1
102
RTVSPropertyOp33
 70
     1
102
RTVSPropertyOp34
 70
     1
102
RTVSPropertyOp35
 70
     1
102
RTVSPropertyOp36
 70
     1
102
RTVSPropertyOp37
 70
     1
102
RTVSPropertyOp38
 70
     1
102
RTVSPropertyOp39
 70
     1
102
RTVSPropertyOp40
 70
     1
102
RTVSPropertyOp41
 70
     1
102
RTVSPropertyOp42
 70
     1
102
RTVSPropertyOp43
 70
     1
102
RTVSPropertyOp44
 70
     1
102
RTVSPropertyOp45
 70
     1
102
RTVSPropertyOp46
 70
     1
102
RTVSPropertyOp47
 70
     1
102
RTVSPropertyOp48
 70
     1
102
RTVSPropertyOp49
 70
     1
102
RTVSPropertyOp50
 70
     1
102
RTVSPropertyOp51
 70
     0
102
RTVSPropertyOp52
 70
     0
102
RTVSPropertyOp53
 70
     1
102
RTVSPropertyOp54
 70
     1
102
RTVSPropertyOp55
 70
     1
102
RTVSPropertyOp56
 70
     1
102
RTVSPropertyOp57
 70
     1
102
RTVSPropertyOp58
 70
     1
102
RTVSPropertyOp59
 70
     1
102
RTVSPropertyOp60
 70
     1
102
RTVSPropertyOp61
 70
     1
102
RTVSPropertyOp62
 70
     1
  0
XRECORD
  5
72D1
102
{ACAD_REACTORS
330
72D0
102
}
330
72D0
100
AcDbXrecord
280
     1
102
RTVSPost2010Prop28
280
     0
102
RTVSPost2010PropOp28
 70
     1
102
RTVSPost2010Prop29
280
     1
102
RTVSPost2010PropOp29
 70
     1
102
RTVSPost2010Prop30
280
     1
102
RTVSPost2010PropOp30
 70
     1
102
RTVSPost2010Prop31
280
     0
102
RTVSPost2010PropOp31
 70
     1
102
RTVSPost2010Prop32
280
     0
102
RTVSPost2010PropOp32
 70
     1
102
RTVSPost2010Prop33
280
     0
102
RTVSPost2010PropOp33
 70
     1
102
RTVSPost2010Prop34
280
     0
102
RTVSPost2010PropOp34
 70
     1
102
RTVSPost2010Prop35
280
     0
102
RTVSPost2010PropOp35
 70
     1
102
RTVSPost2010Prop36
280
     0
102
RTVSPost2010PropOp36
 70
     1
102
RTVSPost2010Prop37
 90
       50
102
RTVSPost2010PropOp37
 70
     1
102
RTVSPost2010Prop38
140
0.0
102
RTVSPost2010PropOp38
 70
     1
102
RTVSPost2010Prop39
140
1.0
102
RTVSPost2010PropOp39
 70
     1
102
RTVSPost2010Prop40
 90
        0
102
RTVSPost2010PropOp40
 70
     1
102
RTVSPost2010Prop41ColorIndex
 90
       18
102
RTVSPost2010Prop41ColorRGB
 90
        0
102
RTVSPost2010PropOp41
 70
     1
102
RTVSPost2010Prop42
 90
       50
102
RTVSPost2010PropOp42
 70
     1
102
RTVSPost2010Prop43
 90
        3
102
RTVSPost2010PropOp43
 70
     1
102
RTVSPost2010Prop44ColorIndex
 90
        5
102
RTVSPost2010Prop44ColorRGB
 90
      255
102
RTVSPost2010PropOp44
 70
     1
102
RTVSPost2010Prop45
280
     0
102
RTVSPost2010PropOp45
 70
     1
102
RTVSPost2010Prop46
 90
       50
102
RTVSPost2010PropOp46
 70
     1
102
RTVSPost2010Prop47
 90
       50
102
RTVSPost2010PropOp47
 70
     1
102
RTVSPost2010Prop48
 90
       50
102
RTVSPost2010PropOp48
 70
     1
102
RTVSPost2010Prop49
280
     0
102
RTVSPost2010PropOp49
 70
     1
102
RTVSPost2010Prop50
 90
       50
102
RTVSPost2010PropOp50
 70
     1
102
RTVSPost2010Prop51ColorIndex
 90
      256
102
RTVSPost2010Prop51ColorRGB
 90
-16777216
102
RTVSPost2010PropOp51
 70
     0
102
RTVSPost2010Prop52
140
1.0
102
RTVSPost2010PropOp52
 70
     0
102
RTVSPost2010Prop53
 90
        2
102
RTVSPost2010PropOp53
 70
     1
102
RTVSPost2010Prop54
  1
strokes_ogs.tif
102
RTVSPost2010PropOp54
 70
     1
102
RTVSPost2010Prop55
280
     0
102
RTVSPost2010PropOp55
 70
     1
102
RTVSPost2010Prop56
140
1.0
102
RTVSPost2010PropOp56
 70
     1
102
RTVSPost2010Prop57
140
1.0
102
RTVSPost2010PropOp57
 70
     1
102
RTVSPropertyOp0
 70
     1
102
RTVSPropertyOp1
 70
     1
102
RTVSPropertyOp2
 70
     1
102
RTVSPropertyOp3
 70
     1
102
RTVSPropertyOp4
 70
     1
102
RTVSPropertyOp5
 70
     1
102
RTVSPropertyOp6
 70
     1
102
RTVSPropertyOp7
 70
     1
102
RTVSPropertyOp8
 70
     1
102
RTVSPropertyOp9
 70
     1
102
RTVSPropertyOp10
 70
     1
102
RTVSPropertyOp11
 70
     1
102
RTVSPropertyOp12
 70
     1
102
RTVSPropertyOp13
 70
     1
102
RTVSPropertyOp14
 70
     1
102
RTVSPropertyOp15
 70
     1
102
RTVSPropertyOp16
 70
     1
102
RTVSPropertyOp17
 70
     1
102
RTVSPropertyOp18
 70
     1
102
RTVSPropertyOp19
 70
     1
102
RTVSPropertyOp20
 70
     1
102
RTVSPropertyOp21
 70
     1
102
RTVSPropertyOp22
 70
     1
102
RTVSPropertyOp23
 70
     1
102
RTVSPropertyOp24
 70
     1
102
RTVSPropertyOp25
 70
     1
102
RTVSPropertyOp26
 70
     1
102
RTVSPropertyOp27
 70
     1
102
RTVSPropertyOp28
 70
     1
102
RTVSPropertyOp29
 70
     1
102
RTVSPropertyOp30
 70
     1
102
RTVSPropertyOp31
 70
     1
102
RTVSPropertyOp32
 70
     1
102
RTVSPropertyOp33
 70
     1
102
RTVSPropertyOp34
 70
     1
102
RTVSPropertyOp35
 70
     1
102
RTVSPropertyOp36
 70
     1
102
RTVSPropertyOp37
 70
     1
102
RTVSPropertyOp38
 70
     1
102
RTVSPropertyOp39
 70
     1
102
RTVSPropertyOp40
 70
     1
102
RTVSPropertyOp41
 70
     1
102
RTVSPropertyOp42
 70
     1
102
RTVSPropertyOp43
 70
     1
102
RTVSPropertyOp44
 70
     1
102
RTVSPropertyOp45
 70
     1
102
RTVSPropertyOp46
 70
     1
102
RTVSPropertyOp47
 70
     1
102
RTVSPropertyOp48
 70
     1
102
RTVSPropertyOp49
 70
     1
102
RTVSPropertyOp50
 70
     1
102
RTVSPropertyOp51
 70
     0
102
RTVSPropertyOp52
 70
     0
102
RTVSPropertyOp53
 70
     1
102
RTVSPropertyOp54
 70
     1
102
RTVSPropertyOp55
 70
     1
102
RTVSPropertyOp56
 70
     1
102
RTVSPropertyOp57
 70
     1
102
RTVSPropertyOp58
 70
     1
102
RTVSPropertyOp59
 70
     1
102
RTVSPropertyOp60
 70
     1
102
RTVSPropertyOp61
 70
     1
102
RTVSPropertyOp62
 70
     1
  0
XRECORD
  5
72D3
102
{ACAD_REACTORS
330
72D2
102
}
330
72D2
100
AcDbXrecord
280
     1
102
RTVSPost2010Prop28
280
     0
102
RTVSPost2010PropOp28
 70
     1
102
RTVSPost2010Prop29
280
     1
102
RTVSPost2010PropOp29
 70
     1
102
RTVSPost2010Prop30
280
     1
102
RTVSPost2010PropOp30
 70
     1
102
RTVSPost2010Prop31
280
     0
102
RTVSPost2010PropOp31
 70
     1
102
RTVSPost2010Prop32
280
     0
102
RTVSPost2010PropOp32
 70
     1
102
RTVSPost2010Prop33
280
     0
102
RTVSPost2010PropOp33
 70
     1
102
RTVSPost2010Prop34
280
     0
102
RTVSPost2010PropOp34
 70
     1
102
RTVSPost2010Prop35
280
     0
102
RTVSPost2010PropOp35
 70
     1
102
RTVSPost2010Prop36
280
     0
102
RTVSPost2010PropOp36
 70
     1
102
RTVSPost2010Prop37
 90
       50
102
RTVSPost2010PropOp37
 70
     1
102
RTVSPost2010Prop38
140
0.0
102
RTVSPost2010PropOp38
 70
     1
102
RTVSPost2010Prop39
140
1.0
102
RTVSPost2010PropOp39
 70
     1
102
RTVSPost2010Prop40
 90
        0
102
RTVSPost2010PropOp40
 70
     1
102
RTVSPost2010Prop41ColorIndex
 90
       18
102
RTVSPost2010Prop41ColorRGB
 90
        0
102
RTVSPost2010PropOp41
 70
     1
102
RTVSPost2010Prop42
 90
       50
102
RTVSPost2010PropOp42
 70
     1
102
RTVSPost2010Prop43
 90
        3
102
RTVSPost2010PropOp43
 70
     1
102
RTVSPost2010Prop44ColorIndex
 90
        5
102
RTVSPost2010Prop44ColorRGB
 90
      255
102
RTVSPost2010PropOp44
 70
     1
102
RTVSPost2010Prop45
280
     0
102
RTVSPost2010PropOp45
 70
     1
102
RTVSPost2010Prop46
 90
       50
102
RTVSPost2010PropOp46
 70
     1
102
RTVSPost2010Prop47
 90
       50
102
RTVSPost2010PropOp47
 70
     1
102
RTVSPost2010Prop48
 90
       50
102
RTVSPost2010PropOp48
 70
     1
102
RTVSPost2010Prop49
280
     0
102
RTVSPost2010PropOp49
 70
     1
102
RTVSPost2010Prop50
 90
       50
102
RTVSPost2010PropOp50
 70
     1
102
RTVSPost2010Prop51ColorIndex
 90
      256
102
RTVSPost2010Prop51ColorRGB
 90
-16777216
102
RTVSPost2010PropOp51
 70
     0
102
RTVSPost2010Prop52
140
1.0
102
RTVSPost2010PropOp52
 70
     0
102
RTVSPost2010Prop53
 90
        2
102
RTVSPost2010PropOp53
 70
     1
102
RTVSPost2010Prop54
  1
strokes_ogs.tif
102
RTVSPost2010PropOp54
 70
     1
102
RTVSPost2010Prop55
280
     0
102
RTVSPost2010PropOp55
 70
     1
102
RTVSPost2010Prop56
140
1.0
102
RTVSPost2010PropOp56
 70
     1
102
RTVSPost2010Prop57
140
1.0
102
RTVSPost2010PropOp57
 70
     1
102
RTVSPropertyOp0
 70
     1
102
RTVSPropertyOp1
 70
     1
102
RTVSPropertyOp2
 70
     1
102
RTVSPropertyOp3
 70
     1
102
RTVSPropertyOp4
 70
     1
102
RTVSPropertyOp5
 70
     1
102
RTVSPropertyOp6
 70
     1
102
RTVSPropertyOp7
 70
     1
102
RTVSPropertyOp8
 70
     1
102
RTVSPropertyOp9
 70
     1
102
RTVSPropertyOp10
 70
     1
102
RTVSPropertyOp11
 70
     1
102
RTVSPropertyOp12
 70
     1
102
RTVSPropertyOp13
 70
     1
102
RTVSPropertyOp14
 70
     1
102
RTVSPropertyOp15
 70
     1
102
RTVSPropertyOp16
 70
     1
102
RTVSPropertyOp17
 70
     1
102
RTVSPropertyOp18
 70
     1
102
RTVSPropertyOp19
 70
     1
102
RTVSPropertyOp20
 70
     1
102
RTVSPropertyOp21
 70
     1
102
RTVSPropertyOp22
 70
     1
102
RTVSPropertyOp23
 70
     1
102
RTVSPropertyOp24
 70
     1
102
RTVSPropertyOp25
 70
     1
102
RTVSPropertyOp26
 70
     1
102
RTVSPropertyOp27
 70
     1
102
RTVSPropertyOp28
 70
     1
102
RTVSPropertyOp29
 70
     1
102
RTVSPropertyOp30
 70
     1
102
RTVSPropertyOp31
 70
     1
102
RTVSPropertyOp32
 70
     1
102
RTVSPropertyOp33
 70
     1
102
RTVSPropertyOp34
 70
     1
102
RTVSPropertyOp35
 70
     1
102
RTVSPropertyOp36
 70
     1
102
RTVSPropertyOp37
 70
     1
102
RTVSPropertyOp38
 70
     1
102
RTVSPropertyOp39
 70
     1
102
RTVSPropertyOp40
 70
     1
102
RTVSPropertyOp41
 70
     1
102
RTVSPropertyOp42
 70
     1
102
RTVSPropertyOp43
 70
     1
102
RTVSPropertyOp44
 70
     1
102
RTVSPropertyOp45
 70
     1
102
RTVSPropertyOp46
 70
     1
102
RTVSPropertyOp47
 70
     1
102
RTVSPropertyOp48
 70
     1
102
RTVSPropertyOp49
 70
     1
102
RTVSPropertyOp50
 70
     1
102
RTVSPropertyOp51
 70
     0
102
RTVSPropertyOp52
 70
     0
102
RTVSPropertyOp53
 70
     1
102
RTVSPropertyOp54
 70
     1
102
RTVSPropertyOp55
 70
     1
102
RTVSPropertyOp56
 70
     1
102
RTVSPropertyOp57
 70
     1
102
RTVSPropertyOp58
 70
     1
102
RTVSPropertyOp59
 70
     1
102
RTVSPropertyOp60
 70
     1
102
RTVSPropertyOp61
 70
     1
102
RTVSPropertyOp62
 70
     1
  0
XRECORD
  5
72D5
102
{ACAD_REACTORS
330
72D4
102
}
330
72D4
100
AcDbXrecord
280
     1
102
RTVSPost2010Prop28
280
     0
102
RTVSPost2010PropOp28
 70
     1
102
RTVSPost2010Prop29
280
     1
102
RTVSPost2010PropOp29
 70
     1
102
RTVSPost2010Prop30
280
     1
102
RTVSPost2010PropOp30
 70
     1
102
RTVSPost2010Prop31
280
     0
102
RTVSPost2010PropOp31
 70
     1
102
RTVSPost2010Prop32
280
     0
102
RTVSPost2010PropOp32
 70
     1
102
RTVSPost2010Prop33
280
     0
102
RTVSPost2010PropOp33
 70
     1
102
RTVSPost2010Prop34
280
     0
102
RTVSPost2010PropOp34
 70
     1
102
RTVSPost2010Prop35
280
     0
102
RTVSPost2010PropOp35
 70
     1
102
RTVSPost2010Prop36
280
     0
102
RTVSPost2010PropOp36
 70
     1
102
RTVSPost2010Prop37
 90
       50
102
RTVSPost2010PropOp37
 70
     1
102
RTVSPost2010Prop38
140
0.0
102
RTVSPost2010PropOp38
 70
     1
102
RTVSPost2010Prop39
140
1.0
102
RTVSPost2010PropOp39
 70
     1
102
RTVSPost2010Prop40
 90
        0
102
RTVSPost2010PropOp40
 70
     1
102
RTVSPost2010Prop41ColorIndex
 90
       18
102
RTVSPost2010Prop41ColorRGB
 90
        0
102
RTVSPost2010PropOp41
 70
     1
102
RTVSPost2010Prop42
 90
       50
102
RTVSPost2010PropOp42
 70
     1
102
RTVSPost2010Prop43
 90
        3
102
RTVSPost2010PropOp43
 70
     1
102
RTVSPost2010Prop44ColorIndex
 90
        5
102
RTVSPost2010Prop44ColorRGB
 90
      255
102
RTVSPost2010PropOp44
 70
     1
102
RTVSPost2010Prop45
280
     0
102
RTVSPost2010PropOp45
 70
     1
102
RTVSPost2010Prop46
 90
       50
102
RTVSPost2010PropOp46
 70
     1
102
RTVSPost2010Prop47
 90
       50
102
RTVSPost2010PropOp47
 70
     1
102
RTVSPost2010Prop48
 90
       50
102
RTVSPost2010PropOp48
 70
     1
102
RTVSPost2010Prop49
280
     0
102
RTVSPost2010PropOp49
 70
     1
102
RTVSPost2010Prop50
 90
       50
102
RTVSPost2010PropOp50
 70
     1
102
RTVSPost2010Prop51ColorIndex
 90
      256
102
RTVSPost2010Prop51ColorRGB
 90
-16777216
102
RTVSPost2010PropOp51
 70
     0
102
RTVSPost2010Prop52
140
1.0
102
RTVSPost2010PropOp52
 70
     0
102
RTVSPost2010Prop53
 90
        2
102
RTVSPost2010PropOp53
 70
     1
102
RTVSPost2010Prop54
  1
strokes_ogs.tif
102
RTVSPost2010PropOp54
 70
     1
102
RTVSPost2010Prop55
280
     0
102
RTVSPost2010PropOp55
 70
     1
102
RTVSPost2010Prop56
140
1.0
102
RTVSPost2010PropOp56
 70
     1
102
RTVSPost2010Prop57
140
1.0
102
RTVSPost2010PropOp57
 70
     1
102
RTVSPropertyOp0
 70
     1
102
RTVSPropertyOp1
 70
     1
102
RTVSPropertyOp2
 70
     1
102
RTVSPropertyOp3
 70
     1
102
RTVSPropertyOp4
 70
     1
102
RTVSPropertyOp5
 70
     1
102
RTVSPropertyOp6
 70
     1
102
RTVSPropertyOp7
 70
     1
102
RTVSPropertyOp8
 70
     1
102
RTVSPropertyOp9
 70
     1
102
RTVSPropertyOp10
 70
     1
102
RTVSPropertyOp11
 70
     1
102
RTVSPropertyOp12
 70
     1
102
RTVSPropertyOp13
 70
     1
102
RTVSPropertyOp14
 70
     1
102
RTVSPropertyOp15
 70
     1
102
RTVSPropertyOp16
 70
     1
102
RTVSPropertyOp17
 70
     1
102
RTVSPropertyOp18
 70
     1
102
RTVSPropertyOp19
 70
     1
102
RTVSPropertyOp20
 70
     1
102
RTVSPropertyOp21
 70
     1
102
RTVSPropertyOp22
 70
     1
102
RTVSPropertyOp23
 70
     1
102
RTVSPropertyOp24
 70
     1
102
RTVSPropertyOp25
 70
     1
102
RTVSPropertyOp26
 70
     1
102
RTVSPropertyOp27
 70
     1
102
RTVSPropertyOp28
 70
     1
102
RTVSPropertyOp29
 70
     1
102
RTVSPropertyOp30
 70
     1
102
RTVSPropertyOp31
 70
     1
102
RTVSPropertyOp32
 70
     1
102
RTVSPropertyOp33
 70
     1
102
RTVSPropertyOp34
 70
     1
102
RTVSPropertyOp35
 70
     1
102
RTVSPropertyOp36
 70
     1
102
RTVSPropertyOp37
 70
     1
102
RTVSPropertyOp38
 70
     1
102
RTVSPropertyOp39
 70
     1
102
RTVSPropertyOp40
 70
     1
102
RTVSPropertyOp41
 70
     1
102
RTVSPropertyOp42
 70
     1
102
RTVSPropertyOp43
 70
     1
102
RTVSPropertyOp44
 70
     1
102
RTVSPropertyOp45
 70
     1
102
RTVSPropertyOp46
 70
     1
102
RTVSPropertyOp47
 70
     1
102
RTVSPropertyOp48
 70
     1
102
RTVSPropertyOp49
 70
     1
102
RTVSPropertyOp50
 70
     1
102
RTVSPropertyOp51
 70
     0
102
RTVSPropertyOp52
 70
     0
102
RTVSPropertyOp53
 70
     1
102
RTVSPropertyOp54
 70
     1
102
RTVSPropertyOp55
 70
     1
102
RTVSPropertyOp56
 70
     1
102
RTVSPropertyOp57
 70
     1
102
RTVSPropertyOp58
 70
     1
102
RTVSPropertyOp59
 70
     1
102
RTVSPropertyOp60
 70
     1
102
RTVSPropertyOp61
 70
     1
102
RTVSPropertyOp62
 70
     1
  0
XRECORD
  5
72DD
102
{ACAD_REACTORS
330
72DC
102
}
330
72DC
100
AcDbXrecord
280
     1
102
RTVSPost2010Prop28
280
     0
102
RTVSPost2010PropOp28
 70
     1
102
RTVSPost2010Prop29
280
     1
102
RTVSPost2010PropOp29
 70
     1
102
RTVSPost2010Prop30
280
     1
102
RTVSPost2010PropOp30
 70
     1
102
RTVSPost2010Prop31
280
     0
102
RTVSPost2010PropOp31
 70
     1
102
RTVSPost2010Prop32
280
     0
102
RTVSPost2010PropOp32
 70
     1
102
RTVSPost2010Prop33
280
     0
102
RTVSPost2010PropOp33
 70
     1
102
RTVSPost2010Prop34
280
     0
102
RTVSPost2010PropOp34
 70
     1
102
RTVSPost2010Prop35
280
     0
102
RTVSPost2010PropOp35
 70
     1
102
RTVSPost2010Prop36
280
     0
102
RTVSPost2010PropOp36
 70
     1
102
RTVSPost2010Prop37
 90
       50
102
RTVSPost2010PropOp37
 70
     1
102
RTVSPost2010Prop38
140
0.0
102
RTVSPost2010PropOp38
 70
     1
102
RTVSPost2010Prop39
140
1.0
102
RTVSPost2010PropOp39
 70
     1
102
RTVSPost2010Prop40
 90
        0
102
RTVSPost2010PropOp40
 70
     1
102
RTVSPost2010Prop41ColorIndex
 90
       18
102
RTVSPost2010Prop41ColorRGB
 90
        0
102
RTVSPost2010PropOp41
 70
     1
102
RTVSPost2010Prop42
 90
       50
102
RTVSPost2010PropOp42
 70
     1
102
RTVSPost2010Prop43
 90
        3
102
RTVSPost2010PropOp43
 70
     1
102
RTVSPost2010Prop44ColorIndex
 90
        5
102
RTVSPost2010Prop44ColorRGB
 90
      255
102
RTVSPost2010PropOp44
 70
     1
102
RTVSPost2010Prop45
280
     0
102
RTVSPost2010PropOp45
 70
     1
102
RTVSPost2010Prop46
 90
       50
102
RTVSPost2010PropOp46
 70
     1
102
RTVSPost2010Prop47
 90
       50
102
RTVSPost2010PropOp47
 70
     1
102
RTVSPost2010Prop48
 90
       50
102
RTVSPost2010PropOp48
 70
     1
102
RTVSPost2010Prop49
280
     0
102
RTVSPost2010PropOp49
 70
     1
102
RTVSPost2010Prop50
 90
       50
102
RTVSPost2010PropOp50
 70
     1
102
RTVSPost2010Prop51ColorIndex
 90
      256
102
RTVSPost2010Prop51ColorRGB
 90
-16777216
102
RTVSPost2010PropOp51
 70
     0
102
RTVSPost2010Prop52
140
1.0
102
RTVSPost2010PropOp52
 70
     0
102
RTVSPost2010Prop53
 90
        2
102
RTVSPost2010PropOp53
 70
     1
102
RTVSPost2010Prop54
  1
strokes_ogs.tif
102
RTVSPost2010PropOp54
 70
     1
102
RTVSPost2010Prop55
280
     0
102
RTVSPost2010PropOp55
 70
     1
102
RTVSPost2010Prop56
140
1.0
102
RTVSPost2010PropOp56
 70
     1
102
RTVSPost2010Prop57
140
1.0
102
RTVSPost2010PropOp57
 70
     1
102
RTVSPropertyOp0
 70
     1
102
RTVSPropertyOp1
 70
     1
102
RTVSPropertyOp2
 70
     1
102
RTVSPropertyOp3
 70
     1
102
RTVSPropertyOp4
 70
     1
102
RTVSPropertyOp5
 70
     1
102
RTVSPropertyOp6
 70
     1
102
RTVSPropertyOp7
 70
     1
102
RTVSPropertyOp8
 70
     1
102
RTVSPropertyOp9
 70
     1
102
RTVSPropertyOp10
 70
     1
102
RTVSPropertyOp11
 70
     1
102
RTVSPropertyOp12
 70
     1
102
RTVSPropertyOp13
 70
     1
102
RTVSPropertyOp14
 70
     1
102
RTVSPropertyOp15
 70
     1
102
RTVSPropertyOp16
 70
     1
102
RTVSPropertyOp17
 70
     1
102
RTVSPropertyOp18
 70
     1
102
RTVSPropertyOp19
 70
     1
102
RTVSPropertyOp20
 70
     1
102
RTVSPropertyOp21
 70
     1
102
RTVSPropertyOp22
 70
     1
102
RTVSPropertyOp23
 70
     1
102
RTVSPropertyOp24
 70
     1
102
RTVSPropertyOp25
 70
     1
102
RTVSPropertyOp26
 70
     1
102
RTVSPropertyOp27
 70
     1
102
RTVSPropertyOp28
 70
     1
102
RTVSPropertyOp29
 70
     1
102
RTVSPropertyOp30
 70
     1
102
RTVSPropertyOp31
 70
     1
102
RTVSPropertyOp32
 70
     1
102
RTVSPropertyOp33
 70
     1
102
RTVSPropertyOp34
 70
     1
102
RTVSPropertyOp35
 70
     1
102
RTVSPropertyOp36
 70
     1
102
RTVSPropertyOp37
 70
     1
102
RTVSPropertyOp38
 70
     1
102
RTVSPropertyOp39
 70
     1
102
RTVSPropertyOp40
 70
     1
102
RTVSPropertyOp41
 70
     1
102
RTVSPropertyOp42
 70
     1
102
RTVSPropertyOp43
 70
     1
102
RTVSPropertyOp44
 70
     1
102
RTVSPropertyOp45
 70
     1
102
RTVSPropertyOp46
 70
     1
102
RTVSPropertyOp47
 70
     1
102
RTVSPropertyOp48
 70
     1
102
RTVSPropertyOp49
 70
     1
102
RTVSPropertyOp50
 70
     1
102
RTVSPropertyOp51
 70
     0
102
RTVSPropertyOp52
 70
     0
102
RTVSPropertyOp53
 70
     1
102
RTVSPropertyOp54
 70
     1
102
RTVSPropertyOp55
 70
     1
102
RTVSPropertyOp56
 70
     1
102
RTVSPropertyOp57
 70
     1
102
RTVSPropertyOp58
 70
     1
102
RTVSPropertyOp59
 70
     1
102
RTVSPropertyOp60
 70
     1
102
RTVSPropertyOp61
 70
     1
102
RTVSPropertyOp62
 70
     1
  0
XRECORD
  5
72F1
102
{ACAD_REACTORS
330
72F0
102
}
330
72F0
100
AcDbXrecord
280
     1
102
RTVSPost2010Prop28
280
     0
102
RTVSPost2010PropOp28
 70
     1
102
RTVSPost2010Prop29
280
     1
102
RTVSPost2010PropOp29
 70
     1
102
RTVSPost2010Prop30
280
     1
102
RTVSPost2010PropOp30
 70
     1
102
RTVSPost2010Prop31
280
     0
102
RTVSPost2010PropOp31
 70
     1
102
RTVSPost2010Prop32
280
     0
102
RTVSPost2010PropOp32
 70
     1
102
RTVSPost2010Prop33
280
     0
102
RTVSPost2010PropOp33
 70
     1
102
RTVSPost2010Prop34
280
     0
102
RTVSPost2010PropOp34
 70
     1
102
RTVSPost2010Prop35
280
     0
102
RTVSPost2010PropOp35
 70
     1
102
RTVSPost2010Prop36
280
     0
102
RTVSPost2010PropOp36
 70
     1
102
RTVSPost2010Prop37
 90
       50
102
RTVSPost2010PropOp37
 70
     1
102
RTVSPost2010Prop38
140
0.0
102
RTVSPost2010PropOp38
 70
     1
102
RTVSPost2010Prop39
140
1.0
102
RTVSPost2010PropOp39
 70
     1
102
RTVSPost2010Prop40
 90
        0
102
RTVSPost2010PropOp40
 70
     1
102
RTVSPost2010Prop41ColorIndex
 90
       18
102
RTVSPost2010Prop41ColorRGB
 90
        0
102
RTVSPost2010PropOp41
 70
     1
102
RTVSPost2010Prop42
 90
       50
102
RTVSPost2010PropOp42
 70
     1
102
RTVSPost2010Prop43
 90
        3
102
RTVSPost2010PropOp43
 70
     1
102
RTVSPost2010Prop44ColorIndex
 90
        5
102
RTVSPost2010Prop44ColorRGB
 90
      255
102
RTVSPost2010PropOp44
 70
     1
102
RTVSPost2010Prop45
280
     0
102
RTVSPost2010PropOp45
 70
     1
102
RTVSPost2010Prop46
 90
       50
102
RTVSPost2010PropOp46
 70
     1
102
RTVSPost2010Prop47
 90
       50
102
RTVSPost2010PropOp47
 70
     1
102
RTVSPost2010Prop48
 90
       50
102
RTVSPost2010PropOp48
 70
     1
102
RTVSPost2010Prop49
280
     0
102
RTVSPost2010PropOp49
 70
     1
102
RTVSPost2010Prop50
 90
       50
102
RTVSPost2010PropOp50
 70
     1
102
RTVSPost2010Prop51ColorIndex
 90
      256
102
RTVSPost2010Prop51ColorRGB
 90
-16777216
102
RTVSPost2010PropOp51
 70
     0
102
RTVSPost2010Prop52
140
1.0
102
RTVSPost2010PropOp52
 70
     0
102
RTVSPost2010Prop53
 90
        2
102
RTVSPost2010PropOp53
 70
     1
102
RTVSPost2010Prop54
  1
strokes_ogs.tif
102
RTVSPost2010PropOp54
 70
     1
102
RTVSPost2010Prop55
280
     0
102
RTVSPost2010PropOp55
 70
     1
102
RTVSPost2010Prop56
140
1.0
102
RTVSPost2010PropOp56
 70
     1
102
RTVSPost2010Prop57
140
1.0
102
RTVSPost2010PropOp57
 70
     1
102
RTVSPropertyOp0
 70
     0
102
RTVSPropertyOp1
 70
     0
102
RTVSPropertyOp2
 70
     0
102
RTVSPropertyOp3
 70
     0
102
RTVSPropertyOp4
 70
     0
102
RTVSPropertyOp5
 70
     0
102
RTVSPropertyOp6
 70
     0
102
RTVSPropertyOp7
 70
     0
102
RTVSPropertyOp8
 70
     0
102
RTVSPropertyOp9
 70
     0
102
RTVSPropertyOp10
 70
     0
102
RTVSPropertyOp11
 70
     0
102
RTVSPropertyOp12
 70
     0
102
RTVSPropertyOp13
 70
     0
102
RTVSPropertyOp14
 70
     2
102
RTVSPropertyOp15
 70
     0
102
RTVSPropertyOp16
 70
     0
102
RTVSPropertyOp17
 70
     0
102
RTVSPropertyOp18
 70
     0
102
RTVSPropertyOp19
 70
     0
102
RTVSPropertyOp20
 70
     0
102
RTVSPropertyOp21
 70
     0
102
RTVSPropertyOp22
 70
     0
102
RTVSPropertyOp23
 70
     0
102
RTVSPropertyOp24
 70
     0
102
RTVSPropertyOp25
 70
     0
102
RTVSPropertyOp26
 70
     0
102
RTVSPropertyOp27
 70
     0
102
RTVSPropertyOp28
 70
     1
102
RTVSPropertyOp29
 70
     1
102
RTVSPropertyOp30
 70
     1
102
RTVSPropertyOp31
 70
     1
102
RTVSPropertyOp32
 70
     1
102
RTVSPropertyOp33
 70
     1
102
RTVSPropertyOp34
 70
     1
102
RTVSPropertyOp35
 70
     1
102
RTVSPropertyOp36
 70
     1
102
RTVSPropertyOp37
 70
     1
102
RTVSPropertyOp38
 70
     1
102
RTVSPropertyOp39
 70
     1
102
RTVSPropertyOp40
 70
     1
102
RTVSPropertyOp41
 70
     1
102
RTVSPropertyOp42
 70
     1
102
RTVSPropertyOp43
 70
     1
102
RTVSPropertyOp44
 70
     1
102
RTVSPropertyOp45
 70
     1
102
RTVSPropertyOp46
 70
     1
102
RTVSPropertyOp47
 70
     1
102
RTVSPropertyOp48
 70
     1
102
RTVSPropertyOp49
 70
     1
102
RTVSPropertyOp50
 70
     1
102
RTVSPropertyOp51
 70
     0
102
RTVSPropertyOp52
 70
     0
102
RTVSPropertyOp53
 70
     1
102
RTVSPropertyOp54
 70
     1
102
RTVSPropertyOp55
 70
     1
102
RTVSPropertyOp56
 70
     1
102
RTVSPropertyOp57
 70
     1
102
RTVSPropertyOp58
 70
     1
102
RTVSPropertyOp59
 70
     1
102
RTVSPropertyOp60
 70
     1
102
RTVSPropertyOp61
 70
     1
102
RTVSPropertyOp62
 70
     1
  0
XRECORD
  5
72E9
102
{ACAD_REACTORS
330
72E8
102
}
330
72E8
100
AcDbXrecord
280
     1
102
RTVSPost2010Prop28
280
     0
102
RTVSPost2010PropOp28
 70
     1
102
RTVSPost2010Prop29
280
     1
102
RTVSPost2010PropOp29
 70
     1
102
RTVSPost2010Prop30
280
     1
102
RTVSPost2010PropOp30
 70
     1
102
RTVSPost2010Prop31
280
     0
102
RTVSPost2010PropOp31
 70
     1
102
RTVSPost2010Prop32
280
     0
102
RTVSPost2010PropOp32
 70
     1
102
RTVSPost2010Prop33
280
     0
102
RTVSPost2010PropOp33
 70
     1
102
RTVSPost2010Prop34
280
     0
102
RTVSPost2010PropOp34
 70
     1
102
RTVSPost2010Prop35
280
     0
102
RTVSPost2010PropOp35
 70
     1
102
RTVSPost2010Prop36
280
     0
102
RTVSPost2010PropOp36
 70
     1
102
RTVSPost2010Prop37
 90
       50
102
RTVSPost2010PropOp37
 70
     1
102
RTVSPost2010Prop38
140
0.0
102
RTVSPost2010PropOp38
 70
     1
102
RTVSPost2010Prop39
140
1.0
102
RTVSPost2010PropOp39
 70
     1
102
RTVSPost2010Prop40
 90
        0
102
RTVSPost2010PropOp40
 70
     1
102
RTVSPost2010Prop41ColorIndex
 90
       18
102
RTVSPost2010Prop41ColorRGB
 90
        0
102
RTVSPost2010PropOp41
 70
     1
102
RTVSPost2010Prop42
 90
       50
102
RTVSPost2010PropOp42
 70
     1
102
RTVSPost2010Prop43
 90
        3
102
RTVSPost2010PropOp43
 70
     1
102
RTVSPost2010Prop44ColorIndex
 90
        5
102
RTVSPost2010Prop44ColorRGB
 90
      255
102
RTVSPost2010PropOp44
 70
     1
102
RTVSPost2010Prop45
280
     0
102
RTVSPost2010PropOp45
 70
     1
102
RTVSPost2010Prop46
 90
       50
102
RTVSPost2010PropOp46
 70
     1
102
RTVSPost2010Prop47
 90
       50
102
RTVSPost2010PropOp47
 70
     1
102
RTVSPost2010Prop48
 90
       50
102
RTVSPost2010PropOp48
 70
     1
102
RTVSPost2010Prop49
280
     0
102
RTVSPost2010PropOp49
 70
     1
102
RTVSPost2010Prop50
 90
       50
102
RTVSPost2010PropOp50
 70
     1
102
RTVSPost2010Prop51ColorIndex
 90
      256
102
RTVSPost2010Prop51ColorRGB
 90
-16777216
102
RTVSPost2010PropOp51
 70
     0
102
RTVSPost2010Prop52
140
1.0
102
RTVSPost2010PropOp52
 70
     0
102
RTVSPost2010Prop53
 90
        2
102
RTVSPost2010PropOp53
 70
     1
102
RTVSPost2010Prop54
  1
strokes_ogs.tif
102
RTVSPost2010PropOp54
 70
     1
102
RTVSPost2010Prop55
280
     0
102
RTVSPost2010PropOp55
 70
     1
102
RTVSPost2010Prop56
140
1.0
102
RTVSPost2010PropOp56
 70
     1
102
RTVSPost2010Prop57
140
1.0
102
RTVSPost2010PropOp57
 70
     1
102
RTVSPropertyOp0
 70
     1
102
RTVSPropertyOp1
 70
     1
102
RTVSPropertyOp2
 70
     1
102
RTVSPropertyOp3
 70
     1
102
RTVSPropertyOp4
 70
     1
102
RTVSPropertyOp5
 70
     1
102
RTVSPropertyOp6
 70
     1
102
RTVSPropertyOp7
 70
     1
102
RTVSPropertyOp8
 70
     1
102
RTVSPropertyOp9
 70
     1
102
RTVSPropertyOp10
 70
     1
102
RTVSPropertyOp11
 70
     1
102
RTVSPropertyOp12
 70
     1
102
RTVSPropertyOp13
 70
     1
102
RTVSPropertyOp14
 70
     1
102
RTVSPropertyOp15
 70
     1
102
RTVSPropertyOp16
 70
     1
102
RTVSPropertyOp17
 70
     1
102
RTVSPropertyOp18
 70
     1
102
RTVSPropertyOp19
 70
     1
102
RTVSPropertyOp20
 70
     1
102
RTVSPropertyOp21
 70
     1
102
RTVSPropertyOp22
 70
     1
102
RTVSPropertyOp23
 70
     1
102
RTVSPropertyOp24
 70
     1
102
RTVSPropertyOp25
 70
     1
102
RTVSPropertyOp26
 70
     1
102
RTVSPropertyOp27
 70
     1
102
RTVSPropertyOp28
 70
     1
102
RTVSPropertyOp29
 70
     1
102
RTVSPropertyOp30
 70
     1
102
RTVSPropertyOp31
 70
     1
102
RTVSPropertyOp32
 70
     1
102
RTVSPropertyOp33
 70
     1
102
RTVSPropertyOp34
 70
     1
102
RTVSPropertyOp35
 70
     1
102
RTVSPropertyOp36
 70
     1
102
RTVSPropertyOp37
 70
     1
102
RTVSPropertyOp38
 70
     1
102
RTVSPropertyOp39
 70
     1
102
RTVSPropertyOp40
 70
     1
102
RTVSPropertyOp41
 70
     1
102
RTVSPropertyOp42
 70
     1
102
RTVSPropertyOp43
 70
     1
102
RTVSPropertyOp44
 70
     1
102
RTVSPropertyOp45
 70
     1
102
RTVSPropertyOp46
 70
     1
102
RTVSPropertyOp47
 70
     1
102
RTVSPropertyOp48
 70
     1
102
RTVSPropertyOp49
 70
     1
102
RTVSPropertyOp50
 70
     1
102
RTVSPropertyOp51
 70
     0
102
RTVSPropertyOp52
 70
     0
102
RTVSPropertyOp53
 70
     1
102
RTVSPropertyOp54
 70
     1
102
RTVSPropertyOp55
 70
     1
102
RTVSPropertyOp56
 70
     1
102
RTVSPropertyOp57
 70
     1
102
RTVSPropertyOp58
 70
     1
102
RTVSPropertyOp59
 70
     1
102
RTVSPropertyOp60
 70
     1
102
RTVSPropertyOp61
 70
     1
102
RTVSPropertyOp62
 70
     1
  0
XRECORD
  5
72F3
102
{ACAD_REACTORS
330
72F2
102
}
330
72F2
100
AcDbXrecord
280
     1
102
RTVSPost2010Prop28
280
     0
102
RTVSPost2010PropOp28
 70
     1
102
RTVSPost2010Prop29
280
     1
102
RTVSPost2010PropOp29
 70
     1
102
RTVSPost2010Prop30
280
     1
102
RTVSPost2010PropOp30
 70
     1
102
RTVSPost2010Prop31
280
     0
102
RTVSPost2010PropOp31
 70
     1
102
RTVSPost2010Prop32
280
     0
102
RTVSPost2010PropOp32
 70
     1
102
RTVSPost2010Prop33
280
     0
102
RTVSPost2010PropOp33
 70
     1
102
RTVSPost2010Prop34
280
     0
102
RTVSPost2010PropOp34
 70
     1
102
RTVSPost2010Prop35
280
     0
102
RTVSPost2010PropOp35
 70
     1
102
RTVSPost2010Prop36
280
     0
102
RTVSPost2010PropOp36
 70
     1
102
RTVSPost2010Prop37
 90
       50
102
RTVSPost2010PropOp37
 70
     1
102
RTVSPost2010Prop38
140
0.0
102
RTVSPost2010PropOp38
 70
     1
102
RTVSPost2010Prop39
140
1.0
102
RTVSPost2010PropOp39
 70
     1
102
RTVSPost2010Prop40
 90
        0
102
RTVSPost2010PropOp40
 70
     1
102
RTVSPost2010Prop41ColorIndex
 90
       18
102
RTVSPost2010Prop41ColorRGB
 90
        0
102
RTVSPost2010PropOp41
 70
     1
102
RTVSPost2010Prop42
 90
       50
102
RTVSPost2010PropOp42
 70
     1
102
RTVSPost2010Prop43
 90
        3
102
RTVSPost2010PropOp43
 70
     1
102
RTVSPost2010Prop44ColorIndex
 90
        5
102
RTVSPost2010Prop44ColorRGB
 90
      255
102
RTVSPost2010PropOp44
 70
     1
102
RTVSPost2010Prop45
280
     0
102
RTVSPost2010PropOp45
 70
     1
102
RTVSPost2010Prop46
 90
       50
102
RTVSPost2010PropOp46
 70
     1
102
RTVSPost2010Prop47
 90
       50
102
RTVSPost2010PropOp47
 70
     1
102
RTVSPost2010Prop48
 90
       50
102
RTVSPost2010PropOp48
 70
     1
102
RTVSPost2010Prop49
280
     0
102
RTVSPost2010PropOp49
 70
     1
102
RTVSPost2010Prop50
 90
       50
102
RTVSPost2010PropOp50
 70
     1
102
RTVSPost2010Prop51ColorIndex
 90
      256
102
RTVSPost2010Prop51ColorRGB
 90
-16777216
102
RTVSPost2010PropOp51
 70
     0
102
RTVSPost2010Prop52
140
1.0
102
RTVSPost2010PropOp52
 70
     0
102
RTVSPost2010Prop53
 90
        2
102
RTVSPost2010PropOp53
 70
     1
102
RTVSPost2010Prop54
  1
strokes_ogs.tif
102
RTVSPost2010PropOp54
 70
     1
102
RTVSPost2010Prop55
280
     0
102
RTVSPost2010PropOp55
 70
     1
102
RTVSPost2010Prop56
140
1.0
102
RTVSPost2010PropOp56
 70
     1
102
RTVSPost2010Prop57
140
1.0
102
RTVSPost2010PropOp57
 70
     1
102
RTVSPropertyOp0
 70
     0
102
RTVSPropertyOp1
 70
     0
102
RTVSPropertyOp2
 70
     0
102
RTVSPropertyOp3
 70
     0
102
RTVSPropertyOp4
 70
     0
102
RTVSPropertyOp5
 70
     0
102
RTVSPropertyOp6
 70
     0
102
RTVSPropertyOp7
 70
     0
102
RTVSPropertyOp8
 70
     0
102
RTVSPropertyOp9
 70
     0
102
RTVSPropertyOp10
 70
     0
102
RTVSPropertyOp11
 70
     0
102
RTVSPropertyOp12
 70
     0
102
RTVSPropertyOp13
 70
     0
102
RTVSPropertyOp14
 70
     2
102
RTVSPropertyOp15
 70
     0
102
RTVSPropertyOp16
 70
     0
102
RTVSPropertyOp17
 70
     0
102
RTVSPropertyOp18
 70
     0
102
RTVSPropertyOp19
 70
     0
102
RTVSPropertyOp20
 70
     0
102
RTVSPropertyOp21
 70
     0
102
RTVSPropertyOp22
 70
     0
102
RTVSPropertyOp23
 70
     0
102
RTVSPropertyOp24
 70
     0
102
RTVSPropertyOp25
 70
     0
102
RTVSPropertyOp26
 70
     0
102
RTVSPropertyOp27
 70
     0
102
RTVSPropertyOp28
 70
     1
102
RTVSPropertyOp29
 70
     1
102
RTVSPropertyOp30
 70
     1
102
RTVSPropertyOp31
 70
     1
102
RTVSPropertyOp32
 70
     1
102
RTVSPropertyOp33
 70
     1
102
RTVSPropertyOp34
 70
     1
102
RTVSPropertyOp35
 70
     1
102
RTVSPropertyOp36
 70
     1
102
RTVSPropertyOp37
 70
     1
102
RTVSPropertyOp38
 70
     1
102
RTVSPropertyOp39
 70
     1
102
RTVSPropertyOp40
 70
     1
102
RTVSPropertyOp41
 70
     1
102
RTVSPropertyOp42
 70
     1
102
RTVSPropertyOp43
 70
     1
102
RTVSPropertyOp44
 70
     1
102
RTVSPropertyOp45
 70
     1
102
RTVSPropertyOp46
 70
     1
102
RTVSPropertyOp47
 70
     1
102
RTVSPropertyOp48
 70
     1
102
RTVSPropertyOp49
 70
     1
102
RTVSPropertyOp50
 70
     1
102
RTVSPropertyOp51
 70
     0
102
RTVSPropertyOp52
 70
     0
102
RTVSPropertyOp53
 70
     1
102
RTVSPropertyOp54
 70
     1
102
RTVSPropertyOp55
 70
     1
102
RTVSPropertyOp56
 70
     1
102
RTVSPropertyOp57
 70
     1
102
RTVSPropertyOp58
 70
     1
102
RTVSPropertyOp59
 70
     1
102
RTVSPropertyOp60
 70
     1
102
RTVSPropertyOp61
 70
     1
102
RTVSPropertyOp62
 70
     1
  0
XRECORD
  5
72E1
102
{ACAD_REACTORS
330
72E0
102
}
330
72E0
100
AcDbXrecord
280
     1
102
RTVSPost2010Prop28
280
     0
102
RTVSPost2010PropOp28
 70
     1
102
RTVSPost2010Prop29
280
     1
102
RTVSPost2010PropOp29
 70
     1
102
RTVSPost2010Prop30
280
     1
102
RTVSPost2010PropOp30
 70
     1
102
RTVSPost2010Prop31
280
     0
102
RTVSPost2010PropOp31
 70
     1
102
RTVSPost2010Prop32
280
     0
102
RTVSPost2010PropOp32
 70
     1
102
RTVSPost2010Prop33
280
     0
102
RTVSPost2010PropOp33
 70
     1
102
RTVSPost2010Prop34
280
     0
102
RTVSPost2010PropOp34
 70
     1
102
RTVSPost2010Prop35
280
     0
102
RTVSPost2010PropOp35
 70
     1
102
RTVSPost2010Prop36
280
     0
102
RTVSPost2010PropOp36
 70
     1
102
RTVSPost2010Prop37
 90
       50
102
RTVSPost2010PropOp37
 70
     1
102
RTVSPost2010Prop38
140
0.0
102
RTVSPost2010PropOp38
 70
     1
102
RTVSPost2010Prop39
140
1.0
102
RTVSPost2010PropOp39
 70
     1
102
RTVSPost2010Prop40
 90
        0
102
RTVSPost2010PropOp40
 70
     1
102
RTVSPost2010Prop41ColorIndex
 90
       18
102
RTVSPost2010Prop41ColorRGB
 90
        0
102
RTVSPost2010PropOp41
 70
     1
102
RTVSPost2010Prop42
 90
       50
102
RTVSPost2010PropOp42
 70
     1
102
RTVSPost2010Prop43
 90
        3
102
RTVSPost2010PropOp43
 70
     1
102
RTVSPost2010Prop44ColorIndex
 90
        5
102
RTVSPost2010Prop44ColorRGB
 90
      255
102
RTVSPost2010PropOp44
 70
     1
102
RTVSPost2010Prop45
280
     0
102
RTVSPost2010PropOp45
 70
     1
102
RTVSPost2010Prop46
 90
       50
102
RTVSPost2010PropOp46
 70
     1
102
RTVSPost2010Prop47
 90
       50
102
RTVSPost2010PropOp47
 70
     1
102
RTVSPost2010Prop48
 90
       50
102
RTVSPost2010PropOp48
 70
     1
102
RTVSPost2010Prop49
280
     0
102
RTVSPost2010PropOp49
 70
     1
102
RTVSPost2010Prop50
 90
       50
102
RTVSPost2010PropOp50
 70
     1
102
RTVSPost2010Prop51ColorIndex
 90
      256
102
RTVSPost2010Prop51ColorRGB
 90
-16777216
102
RTVSPost2010PropOp51
 70
     0
102
RTVSPost2010Prop52
140
1.0
102
RTVSPost2010PropOp52
 70
     0
102
RTVSPost2010Prop53
 90
        2
102
RTVSPost2010PropOp53
 70
     1
102
RTVSPost2010Prop54
  1
strokes_ogs.tif
102
RTVSPost2010PropOp54
 70
     1
102
RTVSPost2010Prop55
280
     0
102
RTVSPost2010PropOp55
 70
     1
102
RTVSPost2010Prop56
140
1.0
102
RTVSPost2010PropOp56
 70
     1
102
RTVSPost2010Prop57
140
1.0
102
RTVSPost2010PropOp57
 70
     1
102
RTVSPropertyOp0
 70
     1
102
RTVSPropertyOp1
 70
     1
102
RTVSPropertyOp2
 70
     1
102
RTVSPropertyOp3
 70
     1
102
RTVSPropertyOp4
 70
     1
102
RTVSPropertyOp5
 70
     1
102
RTVSPropertyOp6
 70
     1
102
RTVSPropertyOp7
 70
     1
102
RTVSPropertyOp8
 70
     1
102
RTVSPropertyOp9
 70
     1
102
RTVSPropertyOp10
 70
     1
102
RTVSPropertyOp11
 70
     1
102
RTVSPropertyOp12
 70
     1
102
RTVSPropertyOp13
 70
     1
102
RTVSPropertyOp14
 70
     1
102
RTVSPropertyOp15
 70
     1
102
RTVSPropertyOp16
 70
     1
102
RTVSPropertyOp17
 70
     1
102
RTVSPropertyOp18
 70
     1
102
RTVSPropertyOp19
 70
     1
102
RTVSPropertyOp20
 70
     1
102
RTVSPropertyOp21
 70
     1
102
RTVSPropertyOp22
 70
     1
102
RTVSPropertyOp23
 70
     1
102
RTVSPropertyOp24
 70
     1
102
RTVSPropertyOp25
 70
     1
102
RTVSPropertyOp26
 70
     1
102
RTVSPropertyOp27
 70
     1
102
RTVSPropertyOp28
 70
     1
102
RTVSPropertyOp29
 70
     1
102
RTVSPropertyOp30
 70
     1
102
RTVSPropertyOp31
 70
     1
102
RTVSPropertyOp32
 70
     1
102
RTVSPropertyOp33
 70
     1
102
RTVSPropertyOp34
 70
     1
102
RTVSPropertyOp35
 70
     1
102
RTVSPropertyOp36
 70
     1
102
RTVSPropertyOp37
 70
     1
102
RTVSPropertyOp38
 70
     1
102
RTVSPropertyOp39
 70
     1
102
RTVSPropertyOp40
 70
     1
102
RTVSPropertyOp41
 70
     1
102
RTVSPropertyOp42
 70
     1
102
RTVSPropertyOp43
 70
     1
102
RTVSPropertyOp44
 70
     1
102
RTVSPropertyOp45
 70
     1
102
RTVSPropertyOp46
 70
     1
102
RTVSPropertyOp47
 70
     1
102
RTVSPropertyOp48
 70
     1
102
RTVSPropertyOp49
 70
     1
102
RTVSPropertyOp50
 70
     1
102
RTVSPropertyOp51
 70
     0
102
RTVSPropertyOp52
 70
     0
102
RTVSPropertyOp53
 70
     1
102
RTVSPropertyOp54
 70
     1
102
RTVSPropertyOp55
 70
     1
102
RTVSPropertyOp56
 70
     1
102
RTVSPropertyOp57
 70
     1
102
RTVSPropertyOp58
 70
     1
102
RTVSPropertyOp59
 70
     1
102
RTVSPropertyOp60
 70
     1
102
RTVSPropertyOp61
 70
     1
102
RTVSPropertyOp62
 70
     1
  0
XRECORD
  5
72FF
102
{ACAD_REACTORS
330
72FE
102
}
330
72FE
100
AcDbXrecord
280
     1
102
RTVSPost2010Prop28
280
     0
102
RTVSPost2010PropOp28
 70
     1
102
RTVSPost2010Prop29
280
     1
102
RTVSPost2010PropOp29
 70
     1
102
RTVSPost2010Prop30
280
     1
102
RTVSPost2010PropOp30
 70
     1
102
RTVSPost2010Prop31
280
     0
102
RTVSPost2010PropOp31
 70
     1
102
RTVSPost2010Prop32
280
     0
102
RTVSPost2010PropOp32
 70
     1
102
RTVSPost2010Prop33
280
     0
102
RTVSPost2010PropOp33
 70
     1
102
RTVSPost2010Prop34
280
     0
102
RTVSPost2010PropOp34
 70
     1
102
RTVSPost2010Prop35
280
     0
102
RTVSPost2010PropOp35
 70
     1
102
RTVSPost2010Prop36
280
     0
102
RTVSPost2010PropOp36
 70
     1
102
RTVSPost2010Prop37
 90
       50
102
RTVSPost2010PropOp37
 70
     1
102
RTVSPost2010Prop38
140
0.0
102
RTVSPost2010PropOp38
 70
     1
102
RTVSPost2010Prop39
140
1.0
102
RTVSPost2010PropOp39
 70
     1
102
RTVSPost2010Prop40
 90
        0
102
RTVSPost2010PropOp40
 70
     1
102
RTVSPost2010Prop41ColorIndex
 90
       18
102
RTVSPost2010Prop41ColorRGB
 90
        0
102
RTVSPost2010PropOp41
 70
     1
102
RTVSPost2010Prop42
 90
       50
102
RTVSPost2010PropOp42
 70
     1
102
RTVSPost2010Prop43
 90
        3
102
RTVSPost2010PropOp43
 70
     1
102
RTVSPost2010Prop44ColorIndex
 90
        5
102
RTVSPost2010Prop44ColorRGB
 90
      255
102
RTVSPost2010PropOp44
 70
     1
102
RTVSPost2010Prop45
280
     0
102
RTVSPost2010PropOp45
 70
     1
102
RTVSPost2010Prop46
 90
       50
102
RTVSPost2010PropOp46
 70
     1
102
RTVSPost2010Prop47
 90
       50
102
RTVSPost2010PropOp47
 70
     1
102
RTVSPost2010Prop48
 90
       50
102
RTVSPost2010PropOp48
 70
     1
102
RTVSPost2010Prop49
280
     0
102
RTVSPost2010PropOp49
 70
     1
102
RTVSPost2010Prop50
 90
       50
102
RTVSPost2010PropOp50
 70
     1
102
RTVSPost2010Prop51ColorIndex
 90
      256
102
RTVSPost2010Prop51ColorRGB
 90
-16777216
102
RTVSPost2010PropOp51
 70
     0
102
RTVSPost2010Prop52
140
1.0
102
RTVSPost2010PropOp52
 70
     0
102
RTVSPost2010Prop53
 90
        2
102
RTVSPost2010PropOp53
 70
     1
102
RTVSPost2010Prop54
  1
strokes_ogs.tif
102
RTVSPost2010PropOp54
 70
     1
102
RTVSPost2010Prop55
280
     0
102
RTVSPost2010PropOp55
 70
     1
102
RTVSPost2010Prop56
140
1.0
102
RTVSPost2010PropOp56
 70
     1
102
RTVSPost2010Prop57
140
1.0
102
RTVSPost2010PropOp57
 70
     1
102
RTVSPropertyOp0
 70
     1
102
RTVSPropertyOp1
 70
     1
102
RTVSPropertyOp2
 70
     1
102
RTVSPropertyOp3
 70
     1
102
RTVSPropertyOp4
 70
     1
102
RTVSPropertyOp5
 70
     1
102
RTVSPropertyOp6
 70
     1
102
RTVSPropertyOp7
 70
     1
102
RTVSPropertyOp8
 70
     1
102
RTVSPropertyOp9
 70
     1
102
RTVSPropertyOp10
 70
     1
102
RTVSPropertyOp11
 70
     1
102
RTVSPropertyOp12
 70
     1
102
RTVSPropertyOp13
 70
     1
102
RTVSPropertyOp14
 70
     1
102
RTVSPropertyOp15
 70
     1
102
RTVSPropertyOp16
 70
     1
102
RTVSPropertyOp17
 70
     1
102
RTVSPropertyOp18
 70
     1
102
RTVSPropertyOp19
 70
     1
102
RTVSPropertyOp20
 70
     1
102
RTVSPropertyOp21
 70
     1
102
RTVSPropertyOp22
 70
     1
102
RTVSPropertyOp23
 70
     1
102
RTVSPropertyOp24
 70
     1
102
RTVSPropertyOp25
 70
     1
102
RTVSPropertyOp26
 70
     1
102
RTVSPropertyOp27
 70
     1
102
RTVSPropertyOp28
 70
     1
102
RTVSPropertyOp29
 70
     1
102
RTVSPropertyOp30
 70
     1
102
RTVSPropertyOp31
 70
     1
102
RTVSPropertyOp32
 70
     1
102
RTVSPropertyOp33
 70
     1
102
RTVSPropertyOp34
 70
     1
102
RTVSPropertyOp35
 70
     1
102
RTVSPropertyOp36
 70
     1
102
RTVSPropertyOp37
 70
     1
102
RTVSPropertyOp38
 70
     1
102
RTVSPropertyOp39
 70
     1
102
RTVSPropertyOp40
 70
     1
102
RTVSPropertyOp41
 70
     1
102
RTVSPropertyOp42
 70
     1
102
RTVSPropertyOp43
 70
     1
102
RTVSPropertyOp44
 70
     1
102
RTVSPropertyOp45
 70
     1
102
RTVSPropertyOp46
 70
     1
102
RTVSPropertyOp47
 70
     1
102
RTVSPropertyOp48
 70
     1
102
RTVSPropertyOp49
 70
     1
102
RTVSPropertyOp50
 70
     1
102
RTVSPropertyOp51
 70
     0
102
RTVSPropertyOp52
 70
     0
102
RTVSPropertyOp53
 70
     1
102
RTVSPropertyOp54
 70
     1
102
RTVSPropertyOp55
 70
     1
102
RTVSPropertyOp56
 70
     1
102
RTVSPropertyOp57
 70
     1
102
RTVSPropertyOp58
 70
     1
102
RTVSPropertyOp59
 70
     1
102
RTVSPropertyOp60
 70
     1
102
RTVSPropertyOp61
 70
     1
102
RTVSPropertyOp62
 70
     1
  0
XRECORD
  5
72FD
102
{ACAD_REACTORS
330
72FC
102
}
330
72FC
100
AcDbXrecord
280
     1
102
RTVSPost2010Prop28
280
     0
102
RTVSPost2010PropOp28
 70
     1
102
RTVSPost2010Prop29
280
     1
102
RTVSPost2010PropOp29
 70
     1
102
RTVSPost2010Prop30
280
     1
102
RTVSPost2010PropOp30
 70
     1
102
RTVSPost2010Prop31
280
     0
102
RTVSPost2010PropOp31
 70
     1
102
RTVSPost2010Prop32
280
     0
102
RTVSPost2010PropOp32
 70
     1
102
RTVSPost2010Prop33
280
     0
102
RTVSPost2010PropOp33
 70
     1
102
RTVSPost2010Prop34
280
     0
102
RTVSPost2010PropOp34
 70
     1
102
RTVSPost2010Prop35
280
     0
102
RTVSPost2010PropOp35
 70
     1
102
RTVSPost2010Prop36
280
     0
102
RTVSPost2010PropOp36
 70
     1
102
RTVSPost2010Prop37
 90
       50
102
RTVSPost2010PropOp37
 70
     1
102
RTVSPost2010Prop38
140
0.0
102
RTVSPost2010PropOp38
 70
     1
102
RTVSPost2010Prop39
140
1.0
102
RTVSPost2010PropOp39
 70
     1
102
RTVSPost2010Prop40
 90
        0
102
RTVSPost2010PropOp40
 70
     1
102
RTVSPost2010Prop41ColorIndex
 90
       18
102
RTVSPost2010Prop41ColorRGB
 90
        0
102
RTVSPost2010PropOp41
 70
     1
102
RTVSPost2010Prop42
 90
       50
102
RTVSPost2010PropOp42
 70
     1
102
RTVSPost2010Prop43
 90
        3
102
RTVSPost2010PropOp43
 70
     1
102
RTVSPost2010Prop44ColorIndex
 90
        5
102
RTVSPost2010Prop44ColorRGB
 90
      255
102
RTVSPost2010PropOp44
 70
     1
102
RTVSPost2010Prop45
280
     0
102
RTVSPost2010PropOp45
 70
     1
102
RTVSPost2010Prop46
 90
       50
102
RTVSPost2010PropOp46
 70
     1
102
RTVSPost2010Prop47
 90
       50
102
RTVSPost2010PropOp47
 70
     1
102
RTVSPost2010Prop48
 90
       50
102
RTVSPost2010PropOp48
 70
     1
102
RTVSPost2010Prop49
280
     0
102
RTVSPost2010PropOp49
 70
     1
102
RTVSPost2010Prop50
 90
       50
102
RTVSPost2010PropOp50
 70
     1
102
RTVSPost2010Prop51ColorIndex
 90
      256
102
RTVSPost2010Prop51ColorRGB
 90
-16777216
102
RTVSPost2010PropOp51
 70
     0
102
RTVSPost2010Prop52
140
1.0
102
RTVSPost2010PropOp52
 70
     0
102
RTVSPost2010Prop53
 90
        2
102
RTVSPost2010PropOp53
 70
     1
102
RTVSPost2010Prop54
  1
strokes_ogs.tif
102
RTVSPost2010PropOp54
 70
     1
102
RTVSPost2010Prop55
280
     0
102
RTVSPost2010PropOp55
 70
     1
102
RTVSPost2010Prop56
140
1.0
102
RTVSPost2010PropOp56
 70
     1
102
RTVSPost2010Prop57
140
1.0
102
RTVSPost2010PropOp57
 70
     1
102
RTVSPropertyOp0
 70
     1
102
RTVSPropertyOp1
 70
     1
102
RTVSPropertyOp2
 70
     1
102
RTVSPropertyOp3
 70
     1
102
RTVSPropertyOp4
 70
     1
102
RTVSPropertyOp5
 70
     1
102
RTVSPropertyOp6
 70
     1
102
RTVSPropertyOp7
 70
     1
102
RTVSPropertyOp8
 70
     1
102
RTVSPropertyOp9
 70
     1
102
RTVSPropertyOp10
 70
     1
102
RTVSPropertyOp11
 70
     1
102
RTVSPropertyOp12
 70
     1
102
RTVSPropertyOp13
 70
     1
102
RTVSPropertyOp14
 70
     1
102
RTVSPropertyOp15
 70
     1
102
RTVSPropertyOp16
 70
     1
102
RTVSPropertyOp17
 70
     1
102
RTVSPropertyOp18
 70
     1
102
RTVSPropertyOp19
 70
     1
102
RTVSPropertyOp20
 70
     1
102
RTVSPropertyOp21
 70
     1
102
RTVSPropertyOp22
 70
     1
102
RTVSPropertyOp23
 70
     1
102
RTVSPropertyOp24
 70
     1
102
RTVSPropertyOp25
 70
     1
102
RTVSPropertyOp26
 70
     1
102
RTVSPropertyOp27
 70
     1
102
RTVSPropertyOp28
 70
     1
102
RTVSPropertyOp29
 70
     1
102
RTVSPropertyOp30
 70
     1
102
RTVSPropertyOp31
 70
     1
102
RTVSPropertyOp32
 70
     1
102
RTVSPropertyOp33
 70
     1
102
RTVSPropertyOp34
 70
     1
102
RTVSPropertyOp35
 70
     1
102
RTVSPropertyOp36
 70
     1
102
RTVSPropertyOp37
 70
     1
102
RTVSPropertyOp38
 70
     1
102
RTVSPropertyOp39
 70
     1
102
RTVSPropertyOp40
 70
     1
102
RTVSPropertyOp41
 70
     1
102
RTVSPropertyOp42
 70
     1
102
RTVSPropertyOp43
 70
     1
102
RTVSPropertyOp44
 70
     1
102
RTVSPropertyOp45
 70
     1
102
RTVSPropertyOp46
 70
     1
102
RTVSPropertyOp47
 70
     1
102
RTVSPropertyOp48
 70
     1
102
RTVSPropertyOp49
 70
     1
102
RTVSPropertyOp50
 70
     1
102
RTVSPropertyOp51
 70
     0
102
RTVSPropertyOp52
 70
     0
102
RTVSPropertyOp53
 70
     1
102
RTVSPropertyOp54
 70
     1
102
RTVSPropertyOp55
 70
     1
102
RTVSPropertyOp56
 70
     1
102
RTVSPropertyOp57
 70
     1
102
RTVSPropertyOp58
 70
     1
102
RTVSPropertyOp59
 70
     1
102
RTVSPropertyOp60
 70
     1
102
RTVSPropertyOp61
 70
     1
102
RTVSPropertyOp62
 70
     1
  0
XRECORD
  5
72F7
102
{ACAD_REACTORS
330
72F6
102
}
330
72F6
100
AcDbXrecord
280
     1
102
RTVSPost2010Prop28
280
     0
102
RTVSPost2010PropOp28
 70
     1
102
RTVSPost2010Prop29
280
     1
102
RTVSPost2010PropOp29
 70
     1
102
RTVSPost2010Prop30
280
     1
102
RTVSPost2010PropOp30
 70
     1
102
RTVSPost2010Prop31
280
     0
102
RTVSPost2010PropOp31
 70
     1
102
RTVSPost2010Prop32
280
     0
102
RTVSPost2010PropOp32
 70
     1
102
RTVSPost2010Prop33
280
     0
102
RTVSPost2010PropOp33
 70
     1
102
RTVSPost2010Prop34
280
     0
102
RTVSPost2010PropOp34
 70
     1
102
RTVSPost2010Prop35
280
     0
102
RTVSPost2010PropOp35
 70
     1
102
RTVSPost2010Prop36
280
     0
102
RTVSPost2010PropOp36
 70
     1
102
RTVSPost2010Prop37
 90
       50
102
RTVSPost2010PropOp37
 70
     1
102
RTVSPost2010Prop38
140
0.0
102
RTVSPost2010PropOp38
 70
     1
102
RTVSPost2010Prop39
140
1.0
102
RTVSPost2010PropOp39
 70
     1
102
RTVSPost2010Prop40
 90
        0
102
RTVSPost2010PropOp40
 70
     1
102
RTVSPost2010Prop41ColorIndex
 90
       18
102
RTVSPost2010Prop41ColorRGB
 90
        0
102
RTVSPost2010PropOp41
 70
     1
102
RTVSPost2010Prop42
 90
       50
102
RTVSPost2010PropOp42
 70
     1
102
RTVSPost2010Prop43
 90
        3
102
RTVSPost2010PropOp43
 70
     1
102
RTVSPost2010Prop44ColorIndex
 90
        5
102
RTVSPost2010Prop44ColorRGB
 90
      255
102
RTVSPost2010PropOp44
 70
     1
102
RTVSPost2010Prop45
280
     0
102
RTVSPost2010PropOp45
 70
     1
102
RTVSPost2010Prop46
 90
       50
102
RTVSPost2010PropOp46
 70
     1
102
RTVSPost2010Prop47
 90
       50
102
RTVSPost2010PropOp47
 70
     1
102
RTVSPost2010Prop48
 90
       50
102
RTVSPost2010PropOp48
 70
     1
102
RTVSPost2010Prop49
280
     0
102
RTVSPost2010PropOp49
 70
     1
102
RTVSPost2010Prop50
 90
       50
102
RTVSPost2010PropOp50
 70
     1
102
RTVSPost2010Prop51ColorIndex
 90
      256
102
RTVSPost2010Prop51ColorRGB
 90
-16777216
102
RTVSPost2010PropOp51
 70
     0
102
RTVSPost2010Prop52
140
1.0
102
RTVSPost2010PropOp52
 70
     0
102
RTVSPost2010Prop53
 90
        2
102
RTVSPost2010PropOp53
 70
     1
102
RTVSPost2010Prop54
  1
strokes_ogs.tif
102
RTVSPost2010PropOp54
 70
     1
102
RTVSPost2010Prop55
280
     0
102
RTVSPost2010PropOp55
 70
     1
102
RTVSPost2010Prop56
140
1.0
102
RTVSPost2010PropOp56
 70
     1
102
RTVSPost2010Prop57
140
1.0
102
RTVSPost2010PropOp57
 70
     1
102
RTVSPropertyOp0
 70
     1
102
RTVSPropertyOp1
 70
     1
102
RTVSPropertyOp2
 70
     1
102
RTVSPropertyOp3
 70
     1
102
RTVSPropertyOp4
 70
     1
102
RTVSPropertyOp5
 70
     1
102
RTVSPropertyOp6
 70
     1
102
RTVSPropertyOp7
 70
     1
102
RTVSPropertyOp8
 70
     1
102
RTVSPropertyOp9
 70
     1
102
RTVSPropertyOp10
 70
     1
102
RTVSPropertyOp11
 70
     1
102
RTVSPropertyOp12
 70
     1
102
RTVSPropertyOp13
 70
     1
102
RTVSPropertyOp14
 70
     1
102
RTVSPropertyOp15
 70
     1
102
RTVSPropertyOp16
 70
     1
102
RTVSPropertyOp17
 70
     1
102
RTVSPropertyOp18
 70
     1
102
RTVSPropertyOp19
 70
     1
102
RTVSPropertyOp20
 70
     1
102
RTVSPropertyOp21
 70
     1
102
RTVSPropertyOp22
 70
     1
102
RTVSPropertyOp23
 70
     1
102
RTVSPropertyOp24
 70
     1
102
RTVSPropertyOp25
 70
     1
102
RTVSPropertyOp26
 70
     1
102
RTVSPropertyOp27
 70
     1
102
RTVSPropertyOp28
 70
     1
102
RTVSPropertyOp29
 70
     1
102
RTVSPropertyOp30
 70
     1
102
RTVSPropertyOp31
 70
     1
102
RTVSPropertyOp32
 70
     1
102
RTVSPropertyOp33
 70
     1
102
RTVSPropertyOp34
 70
     1
102
RTVSPropertyOp35
 70
     1
102
RTVSPropertyOp36
 70
     1
102
RTVSPropertyOp37
 70
     1
102
RTVSPropertyOp38
 70
     1
102
RTVSPropertyOp39
 70
     1
102
RTVSPropertyOp40
 70
     1
102
RTVSPropertyOp41
 70
     1
102
RTVSPropertyOp42
 70
     1
102
RTVSPropertyOp43
 70
     1
102
RTVSPropertyOp44
 70
     1
102
RTVSPropertyOp45
 70
     1
102
RTVSPropertyOp46
 70
     1
102
RTVSPropertyOp47
 70
     1
102
RTVSPropertyOp48
 70
     1
102
RTVSPropertyOp49
 70
     1
102
RTVSPropertyOp50
 70
     1
102
RTVSPropertyOp51
 70
     0
102
RTVSPropertyOp52
 70
     0
102
RTVSPropertyOp53
 70
     1
102
RTVSPropertyOp54
 70
     1
102
RTVSPropertyOp55
 70
     1
102
RTVSPropertyOp56
 70
     1
102
RTVSPropertyOp57
 70
     1
102
RTVSPropertyOp58
 70
     1
102
RTVSPropertyOp59
 70
     1
102
RTVSPropertyOp60
 70
     1
102
RTVSPropertyOp61
 70
     1
102
RTVSPropertyOp62
 70
     1
  0
XRECORD
  5
72F9
102
{ACAD_REACTORS
330
72F8
102
}
330
72F8
100
AcDbXrecord
280
     1
102
RTVSPost2010Prop28
280
     0
102
RTVSPost2010PropOp28
 70
     1
102
RTVSPost2010Prop29
280
     1
102
RTVSPost2010PropOp29
 70
     1
102
RTVSPost2010Prop30
280
     1
102
RTVSPost2010PropOp30
 70
     1
102
RTVSPost2010Prop31
280
     0
102
RTVSPost2010PropOp31
 70
     1
102
RTVSPost2010Prop32
280
     0
102
RTVSPost2010PropOp32
 70
     1
102
RTVSPost2010Prop33
280
     0
102
RTVSPost2010PropOp33
 70
     1
102
RTVSPost2010Prop34
280
     0
102
RTVSPost2010PropOp34
 70
     1
102
RTVSPost2010Prop35
280
     0
102
RTVSPost2010PropOp35
 70
     1
102
RTVSPost2010Prop36
280
     0
102
RTVSPost2010PropOp36
 70
     1
102
RTVSPost2010Prop37
 90
       50
102
RTVSPost2010PropOp37
 70
     1
102
RTVSPost2010Prop38
140
0.0
102
RTVSPost2010PropOp38
 70
     1
102
RTVSPost2010Prop39
140
1.0
102
RTVSPost2010PropOp39
 70
     1
102
RTVSPost2010Prop40
 90
        0
102
RTVSPost2010PropOp40
 70
     1
102
RTVSPost2010Prop41ColorIndex
 90
       18
102
RTVSPost2010Prop41ColorRGB
 90
        0
102
RTVSPost2010PropOp41
 70
     1
102
RTVSPost2010Prop42
 90
       50
102
RTVSPost2010PropOp42
 70
     1
102
RTVSPost2010Prop43
 90
        3
102
RTVSPost2010PropOp43
 70
     1
102
RTVSPost2010Prop44ColorIndex
 90
        5
102
RTVSPost2010Prop44ColorRGB
 90
      255
102
RTVSPost2010PropOp44
 70
     1
102
RTVSPost2010Prop45
280
     0
102
RTVSPost2010PropOp45
 70
     1
102
RTVSPost2010Prop46
 90
       50
102
RTVSPost2010PropOp46
 70
     1
102
RTVSPost2010Prop47
 90
       50
102
RTVSPost2010PropOp47
 70
     1
102
RTVSPost2010Prop48
 90
       50
102
RTVSPost2010PropOp48
 70
     1
102
RTVSPost2010Prop49
280
     0
102
RTVSPost2010PropOp49
 70
     1
102
RTVSPost2010Prop50
 90
       50
102
RTVSPost2010PropOp50
 70
     1
102
RTVSPost2010Prop51ColorIndex
 90
      256
102
RTVSPost2010Prop51ColorRGB
 90
-16777216
102
RTVSPost2010PropOp51
 70
     0
102
RTVSPost2010Prop52
140
1.0
102
RTVSPost2010PropOp52
 70
     0
102
RTVSPost2010Prop53
 90
        2
102
RTVSPost2010PropOp53
 70
     1
102
RTVSPost2010Prop54
  1
strokes_ogs.tif
102
RTVSPost2010PropOp54
 70
     1
102
RTVSPost2010Prop55
280
     0
102
RTVSPost2010PropOp55
 70
     1
102
RTVSPost2010Prop56
140
1.0
102
RTVSPost2010PropOp56
 70
     1
102
RTVSPost2010Prop57
140
1.0
102
RTVSPost2010PropOp57
 70
     1
102
RTVSPropertyOp0
 70
     1
102
RTVSPropertyOp1
 70
     1
102
RTVSPropertyOp2
 70
     1
102
RTVSPropertyOp3
 70
     1
102
RTVSPropertyOp4
 70
     1
102
RTVSPropertyOp5
 70
     1
102
RTVSPropertyOp6
 70
     1
102
RTVSPropertyOp7
 70
     1
102
RTVSPropertyOp8
 70
     1
102
RTVSPropertyOp9
 70
     1
102
RTVSPropertyOp10
 70
     1
102
RTVSPropertyOp11
 70
     1
102
RTVSPropertyOp12
 70
     1
102
RTVSPropertyOp13
 70
     1
102
RTVSPropertyOp14
 70
     1
102
RTVSPropertyOp15
 70
     1
102
RTVSPropertyOp16
 70
     1
102
RTVSPropertyOp17
 70
     1
102
RTVSPropertyOp18
 70
     1
102
RTVSPropertyOp19
 70
     1
102
RTVSPropertyOp20
 70
     1
102
RTVSPropertyOp21
 70
     1
102
RTVSPropertyOp22
 70
     1
102
RTVSPropertyOp23
 70
     1
102
RTVSPropertyOp24
 70
     1
102
RTVSPropertyOp25
 70
     1
102
RTVSPropertyOp26
 70
     1
102
RTVSPropertyOp27
 70
     1
102
RTVSPropertyOp28
 70
     1
102
RTVSPropertyOp29
 70
     1
102
RTVSPropertyOp30
 70
     1
102
RTVSPropertyOp31
 70
     1
102
RTVSPropertyOp32
 70
     1
102
RTVSPropertyOp33
 70
     1
102
RTVSPropertyOp34
 70
     1
102
RTVSPropertyOp35
 70
     1
102
RTVSPropertyOp36
 70
     1
102
RTVSPropertyOp37
 70
     1
102
RTVSPropertyOp38
 70
     1
102
RTVSPropertyOp39
 70
     1
102
RTVSPropertyOp40
 70
     1
102
RTVSPropertyOp41
 70
     1
102
RTVSPropertyOp42
 70
     1
102
RTVSPropertyOp43
 70
     1
102
RTVSPropertyOp44
 70
     1
102
RTVSPropertyOp45
 70
     1
102
RTVSPropertyOp46
 70
     1
102
RTVSPropertyOp47
 70
     1
102
RTVSPropertyOp48
 70
     1
102
RTVSPropertyOp49
 70
     1
102
RTVSPropertyOp50
 70
     1
102
RTVSPropertyOp51
 70
     0
102
RTVSPropertyOp52
 70
     0
102
RTVSPropertyOp53
 70
     1
102
RTVSPropertyOp54
 70
     1
102
RTVSPropertyOp55
 70
     1
102
RTVSPropertyOp56
 70
     1
102
RTVSPropertyOp57
 70
     1
102
RTVSPropertyOp58
 70
     1
102
RTVSPropertyOp59
 70
     1
102
RTVSPropertyOp60
 70
     1
102
RTVSPropertyOp61
 70
     1
102
RTVSPropertyOp62
 70
     1
  0
XRECORD
  5
72E7
102
{ACAD_REACTORS
330
72E6
102
}
330
72E6
100
AcDbXrecord
280
     1
102
RTVSPost2010Prop28
280
     0
102
RTVSPost2010PropOp28
 70
     1
102
RTVSPost2010Prop29
280
     1
102
RTVSPost2010PropOp29
 70
     1
102
RTVSPost2010Prop30
280
     1
102
RTVSPost2010PropOp30
 70
     1
102
RTVSPost2010Prop31
280
     0
102
RTVSPost2010PropOp31
 70
     1
102
RTVSPost2010Prop32
280
     0
102
RTVSPost2010PropOp32
 70
     1
102
RTVSPost2010Prop33
280
     0
102
RTVSPost2010PropOp33
 70
     1
102
RTVSPost2010Prop34
280
     0
102
RTVSPost2010PropOp34
 70
     1
102
RTVSPost2010Prop35
280
     0
102
RTVSPost2010PropOp35
 70
     1
102
RTVSPost2010Prop36
280
     0
102
RTVSPost2010PropOp36
 70
     1
102
RTVSPost2010Prop37
 90
       50
102
RTVSPost2010PropOp37
 70
     1
102
RTVSPost2010Prop38
140
0.0
102
RTVSPost2010PropOp38
 70
     1
102
RTVSPost2010Prop39
140
1.0
102
RTVSPost2010PropOp39
 70
     1
102
RTVSPost2010Prop40
 90
        0
102
RTVSPost2010PropOp40
 70
     1
102
RTVSPost2010Prop41ColorIndex
 90
       18
102
RTVSPost2010Prop41ColorRGB
 90
        0
102
RTVSPost2010PropOp41
 70
     1
102
RTVSPost2010Prop42
 90
       50
102
RTVSPost2010PropOp42
 70
     1
102
RTVSPost2010Prop43
 90
        3
102
RTVSPost2010PropOp43
 70
     1
102
RTVSPost2010Prop44ColorIndex
 90
        5
102
RTVSPost2010Prop44ColorRGB
 90
      255
102
RTVSPost2010PropOp44
 70
     1
102
RTVSPost2010Prop45
280
     0
102
RTVSPost2010PropOp45
 70
     1
102
RTVSPost2010Prop46
 90
       50
102
RTVSPost2010PropOp46
 70
     1
102
RTVSPost2010Prop47
 90
       50
102
RTVSPost2010PropOp47
 70
     1
102
RTVSPost2010Prop48
 90
       50
102
RTVSPost2010PropOp48
 70
     1
102
RTVSPost2010Prop49
280
     0
102
RTVSPost2010PropOp49
 70
     1
102
RTVSPost2010Prop50
 90
       50
102
RTVSPost2010PropOp50
 70
     1
102
RTVSPost2010Prop51ColorIndex
 90
      256
102
RTVSPost2010Prop51ColorRGB
 90
-16777216
102
RTVSPost2010PropOp51
 70
     0
102
RTVSPost2010Prop52
140
1.0
102
RTVSPost2010PropOp52
 70
     0
102
RTVSPost2010Prop53
 90
        2
102
RTVSPost2010PropOp53
 70
     1
102
RTVSPost2010Prop54
  1
strokes_ogs.tif
102
RTVSPost2010PropOp54
 70
     1
102
RTVSPost2010Prop55
280
     0
102
RTVSPost2010PropOp55
 70
     1
102
RTVSPost2010Prop56
140
1.0
102
RTVSPost2010PropOp56
 70
     1
102
RTVSPost2010Prop57
140
1.0
102
RTVSPost2010PropOp57
 70
     1
102
RTVSPropertyOp0
 70
     1
102
RTVSPropertyOp1
 70
     1
102
RTVSPropertyOp2
 70
     1
102
RTVSPropertyOp3
 70
     1
102
RTVSPropertyOp4
 70
     1
102
RTVSPropertyOp5
 70
     1
102
RTVSPropertyOp6
 70
     1
102
RTVSPropertyOp7
 70
     1
102
RTVSPropertyOp8
 70
     1
102
RTVSPropertyOp9
 70
     1
102
RTVSPropertyOp10
 70
     1
102
RTVSPropertyOp11
 70
     1
102
RTVSPropertyOp12
 70
     1
102
RTVSPropertyOp13
 70
     1
102
RTVSPropertyOp14
 70
     1
102
RTVSPropertyOp15
 70
     1
102
RTVSPropertyOp16
 70
     1
102
RTVSPropertyOp17
 70
     1
102
RTVSPropertyOp18
 70
     1
102
RTVSPropertyOp19
 70
     1
102
RTVSPropertyOp20
 70
     1
102
RTVSPropertyOp21
 70
     1
102
RTVSPropertyOp22
 70
     1
102
RTVSPropertyOp23
 70
     1
102
RTVSPropertyOp24
 70
     1
102
RTVSPropertyOp25
 70
     1
102
RTVSPropertyOp26
 70
     1
102
RTVSPropertyOp27
 70
     1
102
RTVSPropertyOp28
 70
     1
102
RTVSPropertyOp29
 70
     1
102
RTVSPropertyOp30
 70
     1
102
RTVSPropertyOp31
 70
     1
102
RTVSPropertyOp32
 70
     1
102
RTVSPropertyOp33
 70
     1
102
RTVSPropertyOp34
 70
     1
102
RTVSPropertyOp35
 70
     1
102
RTVSPropertyOp36
 70
     1
102
RTVSPropertyOp37
 70
     1
102
RTVSPropertyOp38
 70
     1
102
RTVSPropertyOp39
 70
     1
102
RTVSPropertyOp40
 70
     1
102
RTVSPropertyOp41
 70
     1
102
RTVSPropertyOp42
 70
     1
102
RTVSPropertyOp43
 70
     1
102
RTVSPropertyOp44
 70
     1
102
RTVSPropertyOp45
 70
     1
102
RTVSPropertyOp46
 70
     1
102
RTVSPropertyOp47
 70
     1
102
RTVSPropertyOp48
 70
     1
102
RTVSPropertyOp49
 70
     1
102
RTVSPropertyOp50
 70
     1
102
RTVSPropertyOp51
 70
     0
102
RTVSPropertyOp52
 70
     0
102
RTVSPropertyOp53
 70
     1
102
RTVSPropertyOp54
 70
     1
102
RTVSPropertyOp55
 70
     1
102
RTVSPropertyOp56
 70
     1
102
RTVSPropertyOp57
 70
     1
102
RTVSPropertyOp58
 70
     1
102
RTVSPropertyOp59
 70
     1
102
RTVSPropertyOp60
 70
     1
102
RTVSPropertyOp61
 70
     1
102
RTVSPropertyOp62
 70
     1
  0
XRECORD
  5
72DB
102
{ACAD_REACTORS
330
72DA
102
}
330
72DA
100
AcDbXrecord
280
     1
102
RTVSPost2010Prop28
280
     0
102
RTVSPost2010PropOp28
 70
     1
102
RTVSPost2010Prop29
280
     1
102
RTVSPost2010PropOp29
 70
     1
102
RTVSPost2010Prop30
280
     1
102
RTVSPost2010PropOp30
 70
     1
102
RTVSPost2010Prop31
280
     0
102
RTVSPost2010PropOp31
 70
     1
102
RTVSPost2010Prop32
280
     0
102
RTVSPost2010PropOp32
 70
     1
102
RTVSPost2010Prop33
280
     0
102
RTVSPost2010PropOp33
 70
     1
102
RTVSPost2010Prop34
280
     0
102
RTVSPost2010PropOp34
 70
     1
102
RTVSPost2010Prop35
280
     0
102
RTVSPost2010PropOp35
 70
     1
102
RTVSPost2010Prop36
280
     0
102
RTVSPost2010PropOp36
 70
     1
102
RTVSPost2010Prop37
 90
       50
102
RTVSPost2010PropOp37
 70
     1
102
RTVSPost2010Prop38
140
0.0
102
RTVSPost2010PropOp38
 70
     1
102
RTVSPost2010Prop39
140
1.0
102
RTVSPost2010PropOp39
 70
     1
102
RTVSPost2010Prop40
 90
        0
102
RTVSPost2010PropOp40
 70
     1
102
RTVSPost2010Prop41ColorIndex
 90
       18
102
RTVSPost2010Prop41ColorRGB
 90
        0
102
RTVSPost2010PropOp41
 70
     1
102
RTVSPost2010Prop42
 90
       50
102
RTVSPost2010PropOp42
 70
     1
102
RTVSPost2010Prop43
 90
        3
102
RTVSPost2010PropOp43
 70
     1
102
RTVSPost2010Prop44ColorIndex
 90
        5
102
RTVSPost2010Prop44ColorRGB
 90
      255
102
RTVSPost2010PropOp44
 70
     1
102
RTVSPost2010Prop45
280
     0
102
RTVSPost2010PropOp45
 70
     1
102
RTVSPost2010Prop46
 90
       50
102
RTVSPost2010PropOp46
 70
     1
102
RTVSPost2010Prop47
 90
       50
102
RTVSPost2010PropOp47
 70
     1
102
RTVSPost2010Prop48
 90
       50
102
RTVSPost2010PropOp48
 70
     1
102
RTVSPost2010Prop49
280
     0
102
RTVSPost2010PropOp49
 70
     1
102
RTVSPost2010Prop50
 90
       50
102
RTVSPost2010PropOp50
 70
     1
102
RTVSPost2010Prop51ColorIndex
 90
      256
102
RTVSPost2010Prop51ColorRGB
 90
-16777216
102
RTVSPost2010PropOp51
 70
     0
102
RTVSPost2010Prop52
140
1.0
102
RTVSPost2010PropOp52
 70
     0
102
RTVSPost2010Prop53
 90
        2
102
RTVSPost2010PropOp53
 70
     1
102
RTVSPost2010Prop54
  1
strokes_ogs.tif
102
RTVSPost2010PropOp54
 70
     1
102
RTVSPost2010Prop55
280
     0
102
RTVSPost2010PropOp55
 70
     1
102
RTVSPost2010Prop56
140
1.0
102
RTVSPost2010PropOp56
 70
     1
102
RTVSPost2010Prop57
140
1.0
102
RTVSPost2010PropOp57
 70
     1
102
RTVSPropertyOp0
 70
     1
102
RTVSPropertyOp1
 70
     1
102
RTVSPropertyOp2
 70
     1
102
RTVSPropertyOp3
 70
     1
102
RTVSPropertyOp4
 70
     1
102
RTVSPropertyOp5
 70
     1
102
RTVSPropertyOp6
 70
     1
102
RTVSPropertyOp7
 70
     1
102
RTVSPropertyOp8
 70
     1
102
RTVSPropertyOp9
 70
     1
102
RTVSPropertyOp10
 70
     1
102
RTVSPropertyOp11
 70
     1
102
RTVSPropertyOp12
 70
     1
102
RTVSPropertyOp13
 70
     1
102
RTVSPropertyOp14
 70
     1
102
RTVSPropertyOp15
 70
     1
102
RTVSPropertyOp16
 70
     1
102
RTVSPropertyOp17
 70
     1
102
RTVSPropertyOp18
 70
     1
102
RTVSPropertyOp19
 70
     1
102
RTVSPropertyOp20
 70
     1
102
RTVSPropertyOp21
 70
     1
102
RTVSPropertyOp22
 70
     1
102
RTVSPropertyOp23
 70
     1
102
RTVSPropertyOp24
 70
     1
102
RTVSPropertyOp25
 70
     1
102
RTVSPropertyOp26
 70
     1
102
RTVSPropertyOp27
 70
     1
102
RTVSPropertyOp28
 70
     1
102
RTVSPropertyOp29
 70
     1
102
RTVSPropertyOp30
 70
     1
102
RTVSPropertyOp31
 70
     1
102
RTVSPropertyOp32
 70
     1
102
RTVSPropertyOp33
 70
     1
102
RTVSPropertyOp34
 70
     1
102
RTVSPropertyOp35
 70
     1
102
RTVSPropertyOp36
 70
     1
102
RTVSPropertyOp37
 70
     1
102
RTVSPropertyOp38
 70
     1
102
RTVSPropertyOp39
 70
     1
102
RTVSPropertyOp40
 70
     1
102
RTVSPropertyOp41
 70
     1
102
RTVSPropertyOp42
 70
     1
102
RTVSPropertyOp43
 70
     1
102
RTVSPropertyOp44
 70
     1
102
RTVSPropertyOp45
 70
     1
102
RTVSPropertyOp46
 70
     1
102
RTVSPropertyOp47
 70
     1
102
RTVSPropertyOp48
 70
     1
102
RTVSPropertyOp49
 70
     1
102
RTVSPropertyOp50
 70
     1
102
RTVSPropertyOp51
 70
     0
102
RTVSPropertyOp52
 70
     0
102
RTVSPropertyOp53
 70
     1
102
RTVSPropertyOp54
 70
     1
102
RTVSPropertyOp55
 70
     1
102
RTVSPropertyOp56
 70
     1
102
RTVSPropertyOp57
 70
     1
102
RTVSPropertyOp58
 70
     1
102
RTVSPropertyOp59
 70
     1
102
RTVSPropertyOp60
 70
     1
102
RTVSPropertyOp61
 70
     1
102
RTVSPropertyOp62
 70
     1
  0
XRECORD
  5
72FB
102
{ACAD_REACTORS
330
72FA
102
}
330
72FA
100
AcDbXrecord
280
     1
102
RTVSPost2010Prop28
280
     0
102
RTVSPost2010PropOp28
 70
     1
102
RTVSPost2010Prop29
280
     1
102
RTVSPost2010PropOp29
 70
     1
102
RTVSPost2010Prop30
280
     1
102
RTVSPost2010PropOp30
 70
     1
102
RTVSPost2010Prop31
280
     0
102
RTVSPost2010PropOp31
 70
     1
102
RTVSPost2010Prop32
280
     0
102
RTVSPost2010PropOp32
 70
     1
102
RTVSPost2010Prop33
280
     0
102
RTVSPost2010PropOp33
 70
     1
102
RTVSPost2010Prop34
280
     0
102
RTVSPost2010PropOp34
 70
     1
102
RTVSPost2010Prop35
280
     0
102
RTVSPost2010PropOp35
 70
     1
102
RTVSPost2010Prop36
280
     0
102
RTVSPost2010PropOp36
 70
     1
102
RTVSPost2010Prop37
 90
       50
102
RTVSPost2010PropOp37
 70
     1
102
RTVSPost2010Prop38
140
0.0
102
RTVSPost2010PropOp38
 70
     1
102
RTVSPost2010Prop39
140
1.0
102
RTVSPost2010PropOp39
 70
     1
102
RTVSPost2010Prop40
 90
        0
102
RTVSPost2010PropOp40
 70
     1
102
RTVSPost2010Prop41ColorIndex
 90
       18
102
RTVSPost2010Prop41ColorRGB
 90
        0
102
RTVSPost2010PropOp41
 70
     1
102
RTVSPost2010Prop42
 90
       50
102
RTVSPost2010PropOp42
 70
     1
102
RTVSPost2010Prop43
 90
        3
102
RTVSPost2010PropOp43
 70
     1
102
RTVSPost2010Prop44ColorIndex
 90
        5
102
RTVSPost2010Prop44ColorRGB
 90
      255
102
RTVSPost2010PropOp44
 70
     1
102
RTVSPost2010Prop45
280
     0
102
RTVSPost2010PropOp45
 70
     1
102
RTVSPost2010Prop46
 90
       50
102
RTVSPost2010PropOp46
 70
     1
102
RTVSPost2010Prop47
 90
       50
102
RTVSPost2010PropOp47
 70
     1
102
RTVSPost2010Prop48
 90
       50
102
RTVSPost2010PropOp48
 70
     1
102
RTVSPost2010Prop49
280
     0
102
RTVSPost2010PropOp49
 70
     1
102
RTVSPost2010Prop50
 90
       50
102
RTVSPost2010PropOp50
 70
     1
102
RTVSPost2010Prop51ColorIndex
 90
      256
102
RTVSPost2010Prop51ColorRGB
 90
-16777216
102
RTVSPost2010PropOp51
 70
     0
102
RTVSPost2010Prop52
140
1.0
102
RTVSPost2010PropOp52
 70
     0
102
RTVSPost2010Prop53
 90
        2
102
RTVSPost2010PropOp53
 70
     1
102
RTVSPost2010Prop54
  1
strokes_ogs.tif
102
RTVSPost2010PropOp54
 70
     1
102
RTVSPost2010Prop55
280
     0
102
RTVSPost2010PropOp55
 70
     1
102
RTVSPost2010Prop56
140
1.0
102
RTVSPost2010PropOp56
 70
     1
102
RTVSPost2010Prop57
140
1.0
102
RTVSPost2010PropOp57
 70
     1
102
RTVSPropertyOp0
 70
     1
102
RTVSPropertyOp1
 70
     1
102
RTVSPropertyOp2
 70
     1
102
RTVSPropertyOp3
 70
     1
102
RTVSPropertyOp4
 70
     1
102
RTVSPropertyOp5
 70
     1
102
RTVSPropertyOp6
 70
     1
102
RTVSPropertyOp7
 70
     1
102
RTVSPropertyOp8
 70
     1
102
RTVSPropertyOp9
 70
     1
102
RTVSPropertyOp10
 70
     1
102
RTVSPropertyOp11
 70
     1
102
RTVSPropertyOp12
 70
     1
102
RTVSPropertyOp13
 70
     1
102
RTVSPropertyOp14
 70
     1
102
RTVSPropertyOp15
 70
     1
102
RTVSPropertyOp16
 70
     1
102
RTVSPropertyOp17
 70
     1
102
RTVSPropertyOp18
 70
     1
102
RTVSPropertyOp19
 70
     1
102
RTVSPropertyOp20
 70
     1
102
RTVSPropertyOp21
 70
     1
102
RTVSPropertyOp22
 70
     1
102
RTVSPropertyOp23
 70
     1
102
RTVSPropertyOp24
 70
     1
102
RTVSPropertyOp25
 70
     1
102
RTVSPropertyOp26
 70
     1
102
RTVSPropertyOp27
 70
     1
102
RTVSPropertyOp28
 70
     1
102
RTVSPropertyOp29
 70
     1
102
RTVSPropertyOp30
 70
     1
102
RTVSPropertyOp31
 70
     1
102
RTVSPropertyOp32
 70
     1
102
RTVSPropertyOp33
 70
     1
102
RTVSPropertyOp34
 70
     1
102
RTVSPropertyOp35
 70
     1
102
RTVSPropertyOp36
 70
     1
102
RTVSPropertyOp37
 70
     1
102
RTVSPropertyOp38
 70
     1
102
RTVSPropertyOp39
 70
     1
102
RTVSPropertyOp40
 70
     1
102
RTVSPropertyOp41
 70
     1
102
RTVSPropertyOp42
 70
     1
102
RTVSPropertyOp43
 70
     1
102
RTVSPropertyOp44
 70
     1
102
RTVSPropertyOp45
 70
     1
102
RTVSPropertyOp46
 70
     1
102
RTVSPropertyOp47
 70
     1
102
RTVSPropertyOp48
 70
     1
102
RTVSPropertyOp49
 70
     1
102
RTVSPropertyOp50
 70
     1
102
RTVSPropertyOp51
 70
     0
102
RTVSPropertyOp52
 70
     0
102
RTVSPropertyOp53
 70
     1
102
RTVSPropertyOp54
 70
     1
102
RTVSPropertyOp55
 70
     1
102
RTVSPropertyOp56
 70
     1
102
RTVSPropertyOp57
 70
     1
102
RTVSPropertyOp58
 70
     1
102
RTVSPropertyOp59
 70
     1
102
RTVSPropertyOp60
 70
     1
102
RTVSPropertyOp61
 70
     1
102
RTVSPropertyOp62
 70
     1
  0
ENDSEC
  0
EOF
