  0
SECTION
  2
HEADER
  9
$ACADVER
  1
AC1015
  9
$ACADMAINTVER
 70
    18
  9
$DWGCODEPAGE
  3
ANSI_1252
  9
$INSBASE
 10
0.0
 20
0.0
 30
0.0
  9
$EXTMIN
 10
-444.0069575468158
 20
-387.641738651369
 30
-0.0015258207003583
  9
$EXTMAX
 10
591.7016613340258
 20
295.5135504944641
 30
0.0000000349246037
  9
$LIMMIN
 10
0.0
 20
0.0
  9
$LIMMAX
 10
420.0
 20
297.0
  9
$ORTHOMODE
 70
     0
  9
$REGENMODE
 70
     1
  9
$FILLMODE
 70
     1
  9
$QTEXTMODE
 70
     0
  9
$MIRRTEXT
 70
     0
  9
$LTSCALE
 40
1.0
  9
$ATTMODE
 70
     1
  9
$TEXTSIZE
 40
2.5
  9
$TRACEWID
 40
1.0
  9
$TEXTSTYLE
  7
Standard
  9
$CLAYER
  8
0
  9
$CELTYPE
  6
ByLayer
  9
$CECOLOR
 62
   256
  9
$CELTSCALE
 40
1.0
  9
$DISPSILH
 70
     0
  9
$DIMSCALE
 40
1.0
  9
$DIMASZ
 40
2.5
  9
$DIMEXO
 40
0.625
  9
$DIMDLI
 40
3.75
  9
$DIMRND
 40
0.0
  9
$DIMDLE
 40
0.0
  9
$DIMEXE
 40
1.25
  9
$DIMTP
 40
0.0
  9
$DIMTM
 40
0.0
  9
$DIMTXT
 40
2.5
  9
$DIMCEN
 40
2.5
  9
$DIMTSZ
 40
0.0
  9
$DIMTOL
 70
     0
  9
$DIMLIM
 70
     0
  9
$DIMTIH
 70
     0
  9
$DIMTOH
 70
     0
  9
$DIMSE1
 70
     0
  9
$DIMSE2
 70
     0
  9
$DIMTAD
 70
     1
  9
$DIMZIN
 70
     8
  9
$DIMBLK
  1

  9
$DIMASO
 70
     1
  9
$DIMSHO
 70
     1
  9
$DIMPOST
  1

  9
$DIMAPOST
  1

  9
$DIMALT
 70
     0
  9
$DIMALTD
 70
     3
  9
$DIMALTF
 40
0.03937007874016
  9
$DIMLFAC
 40
1.0
  9
$DIMTOFL
 70
     1
  9
$DIMTVP
 40
0.0
  9
$DIMTIX
 70
     0
  9
$DIMSOXD
 70
     0
  9
$DIMSAH
 70
     0
  9
$DIMBLK1
  1

  9
$DIMBLK2
  1

  9
$DIMSTYLE
  2
ISO-25
  9
$DIMCLRD
 70
     0
  9
$DIMCLRE
 70
     0
  9
$DIMCLRT
 70
     0
  9
$DIMTFAC
 40
1.0
  9
$DIMGAP
 40
0.625
  9
$DIMJUST
 70
     0
  9
$DIMSD1
 70
     0
  9
$DIMSD2
 70
     0
  9
$DIMTOLJ
 70
     0
  9
$DIMTZIN
 70
     8
  9
$DIMALTZ
 70
     0
  9
$DIMALTTZ
 70
     0
  9
$DIMUPT
 70
     0
  9
$DIMDEC
 70
     2
  9
$DIMTDEC
 70
     2
  9
$DIMALTU
 70
     2
  9
$DIMALTTD
 70
     3
  9
$DIMTXSTY
  7
Standard
  9
$DIMAUNIT
 70
     0
  9
$DIMADEC
 70
     0
  9
$DIMALTRND
 40
0.0
  9
$DIMAZIN
 70
     0
  9
$DIMDSEP
 70
    44
  9
$DIMATFIT
 70
     3
  9
$DIMFRAC
 70
     0
  9
$DIMLDRBLK
  1

  9
$DIMLUNIT
 70
     2
  9
$DIMLWD
 70
    -2
  9
$DIMLWE
 70
    -2
  9
$DIMTMOVE
 70
     0
  9
$LUNITS
 70
     2
  9
$LUPREC
 70
     4
  9
$SKETCHINC
 40
1.0
  9
$FILLETRAD
 40
0.0
  9
$AUNITS
 70
     0
  9
$AUPREC
 70
     0
  9
$MENU
  1
.
  9
$ELEVATION
 40
0.0
  9
$PELEVATION
 40
0.0
  9
$THICKNESS
 40
0.0
  9
$LIMCHECK
 70
     0
  9
$CHAMFERA
 40
0.0
  9
$CHAMFERB
 40
0.0
  9
$CHAMFERC
 40
0.0
  9
$CHAMFERD
 40
0.0
  9
$SKPOLY
 70
     0
  9
$TDCREATE
 40
2460823.717523148
  9
$TDUCREATE
 40
2460823.425856482
  9
$TDUPDATE
 40
2460823.731030093
  9
$TDUUPDATE
 40
2460823.439363426
  9
$TDINDWG
 40
0.0038194444
  9
$TDUSRTIMER
 40
0.0038194444
  9
$USRTIMER
 70
     1
  9
$ANGBASE
 50
0.0
  9
$ANGDIR
 70
     0
  9
$PDMODE
 70
     0
  9
$PDSIZE
 40
0.0
  9
$PLINEWID
 40
0.0
  9
$SPLFRAME
 70
     0
  9
$SPLINETYPE
 70
     6
  9
$SPLINESEGS
 70
     8
  9
$HANDSEED
  5
6A4C
  9
$SURFTAB1
 70
     6
  9
$SURFTAB2
 70
     6
  9
$SURFTYPE
 70
     6
  9
$SURFU
 70
     6
  9
$SURFV
 70
     6
  9
$UCSBASE
  2

  9
$UCSNAME
  2

  9
$UCSORG
 10
0.0
 20
0.0
 30
0.0
  9
$UCSXDIR
 10
1.0
 20
0.0
 30
0.0
  9
$UCSYDIR
 10
0.0
 20
1.0
 30
0.0
  9
$UCSORTHOREF
  2

  9
$UCSORTHOVIEW
 70
     0
  9
$UCSORGTOP
 10
0.0
 20
0.0
 30
0.0
  9
$UCSORGBOTTOM
 10
0.0
 20
0.0
 30
0.0
  9
$UCSORGLEFT
 10
0.0
 20
0.0
 30
0.0
  9
$UCSORGRIGHT
 10
0.0
 20
0.0
 30
0.0
  9
$UCSORGFRONT
 10
0.0
 20
0.0
 30
0.0
  9
$UCSORGBACK
 10
0.0
 20
0.0
 30
0.0
  9
$PUCSBASE
  2

  9
$PUCSNAME
  2

  9
$PUCSORG
 10
0.0
 20
0.0
 30
0.0
  9
$PUCSXDIR
 10
1.0
 20
0.0
 30
0.0
  9
$PUCSYDIR
 10
0.0
 20
1.0
 30
0.0
  9
$PUCSORTHOREF
  2

  9
$PUCSORTHOVIEW
 70
     0
  9
$PUCSORGTOP
 10
0.0
 20
0.0
 30
0.0
  9
$PUCSORGBOTTOM
 10
0.0
 20
0.0
 30
0.0
  9
$PUCSORGLEFT
 10
0.0
 20
0.0
 30
0.0
  9
$PUCSORGRIGHT
 10
0.0
 20
0.0
 30
0.0
  9
$PUCSORGFRONT
 10
0.0
 20
0.0
 30
0.0
  9
$PUCSORGBACK
 10
0.0
 20
0.0
 30
0.0
  9
$USERI1
 70
     0
  9
$USERI2
 70
     0
  9
$USERI3
 70
     0
  9
$USERI4
 70
     0
  9
$USERI5
 70
     0
  9
$USERR1
 40
0.0
  9
$USERR2
 40
0.0
  9
$USERR3
 40
0.0
  9
$USERR4
 40
0.0
  9
$USERR5
 40
0.0
  9
$WORLDVIEW
 70
     1
  9
$SHADEDGE
 70
     3
  9
$SHADEDIF
 70
    70
  9
$TILEMODE
 70
     1
  9
$MAXACTVP
 70
    48
  9
$PINSBASE
 10
0.0
 20
0.0
 30
0.0
  9
$PLIMCHECK
 70
     0
  9
$PEXTMIN
 10
0.0
 20
0.0
 30
0.0
  9
$PEXTMAX
 10
0.0
 20
0.0
 30
0.0
  9
$PLIMMIN
 10
0.0
 20
0.0
  9
$PLIMMAX
 10
12.0
 20
9.0
  9
$UNITMODE
 70
     0
  9
$VISRETAIN
 70
     1
  9
$PLINEGEN
 70
     0
  9
$PSLTSCALE
 70
     1
  9
$TREEDEPTH
 70
  3020
  9
$CMLSTYLE
  2
Standard
  9
$CMLJUST
 70
     0
  9
$CMLSCALE
 40
20.0
  9
$PROXYGRAPHICS
 70
     1
  9
$MEASUREMENT
 70
     1
  9
$CELWEIGHT
370
    -1
  9
$ENDCAPS
280
     0
  9
$JOINSTYLE
280
     0
  9
$LWDISPLAY
290
     0
  9
$INSUNITS
 70
     4
  9
$HYPERLINKBASE
  1

  9
$STYLESHEET
  1

  9
$XEDIT
290
     1
  9
$CEPSNTYPE
380
     0
  9
$PSTYLEMODE
290
     1
  9
$FINGERPRINTGUID
  2
{9A7B8933-4687-FD4F-A20B-7940C0D43D44}
  9
$VERSIONGUID
  2
{F14D6F01-2135-764A-A2FB-9C85B1F4DB03}
  9
$EXTNAMES
290
     1
  9
$PSVPSCALE
 40
0.0
  9
$OLESTARTUP
290
     0
  0
ENDSEC
  0
SECTION
  2
CLASSES
  0
CLASS
  1
ACDBDICTIONARYWDFLT
  2
AcDbDictionaryWithDefault
  3
ObjectDBX Classes
 90
        0
280
     0
281
     0
  0
CLASS
  1
ACDBPLACEHOLDER
  2
AcDbPlaceHolder
  3
ObjectDBX Classes
 90
        0
280
     0
281
     0
  0
CLASS
  1
LAYOUT
  2
AcDbLayout
  3
ObjectDBX Classes
 90
        0
280
     0
281
     0
  0
CLASS
  1
DICTIONARYVAR
  2
AcDbDictionaryVar
  3
ObjectDBX Classes
 90
        0
280
     0
281
     0
  0
CLASS
  1
TABLESTYLE
  2
AcDbTableStyle
  3
ObjectDBX Classes
 90
     4095
280
     0
281
     0
  0
CLASS
  1
MATERIAL
  2
AcDbMaterial
  3
ObjectDBX Classes
 90
     1153
280
     0
281
     0
  0
CLASS
  1
VISUALSTYLE
  2
AcDbVisualStyle
  3
ObjectDBX Classes
 90
     4095
280
     0
281
     0
  0
CLASS
  1
SCALE
  2
AcDbScale
  3
ObjectDBX Classes
 90
     1153
280
     0
281
     0
  0
CLASS
  1
MLEADERSTYLE
  2
AcDbMLeaderStyle
  3
ACDB_MLEADERSTYLE_CLASS
 90
     4095
280
     0
281
     0
  0
CLASS
  1
CELLSTYLEMAP
  2
AcDbCellStyleMap
  3
ObjectDBX Classes
 90
     1152
280
     0
281
     0
  0
CLASS
  1
EXACXREFPANELOBJECT
  2
ExAcXREFPanelObject
  3
EXAC_ESW
 90
    33793
280
     0
281
     0
  0
CLASS
  1
NPOCOLLECTION
  2
AcDbImpNonPersistentObjectsCollection
  3
ObjectDBX Classes
 90
    33921
280
     0
281
     0
  0
CLASS
  1
LAYER_INDEX
  2
AcDbLayerIndex
  3
ObjectDBX Classes
 90
    32768
280
     0
281
     0
  0
CLASS
  1
SPATIAL_INDEX
  2
AcDbSpatialIndex
  3
ObjectDBX Classes
 90
    32768
280
     0
281
     0
  0
CLASS
  1
IDBUFFER
  2
AcDbIdBuffer
  3
ObjectDBX Classes
 90
    32768
280
     0
281
     0
  0
CLASS
  1
ACDBSECTIONVIEWSTYLE
  2
AcDbSectionViewStyle
  3
ObjectDBX Classes
 90
     1025
280
     0
281
     0
  0
CLASS
  1
ACDBDETAILVIEWSTYLE
  2
AcDbDetailViewStyle
  3
ObjectDBX Classes
 90
     1025
280
     0
281
     0
  0
CLASS
  1
RAPIDRTRENDERSETTINGS
  2
AcDbRapidRTRenderSettings
  3
ObjectDBX Classes
 90
     1024
280
     0
281
     0
  0
CLASS
  1
MENTALRAYRENDERSETTINGS
  2
AcDbMentalRayRenderSettings
  3
SCENEOE
 90
     1024
280
     0
281
     0
  0
CLASS
  1
XRECORD
  2
AcDbXrecord
  3
ObjectDBX Classes
 90
        0
280
     0
281
     0
  0
ENDSEC
  0
SECTION
  2
TABLES
  0
TABLE
  2
VPORT
  5
8
102
{ACAD_XDICTIONARY
360
6955
102
}
330
0
100
AcDbSymbolTable
 70
     1
  0
VPORT
  5
EA
330
8
100
AcDbSymbolTableRecord
100
AcDbViewportTableRecord
  2
*Active
 70
     0
 10
0.0
 20
0.0
 11
1.0
 21
1.0
 12
73.84735189360504
 22
-46.06409407845245
 13
0.0
 23
0.0
 14
10.0
 24
10.0
 15
10.0
 25
10.0
 16
0.0
 26
0.0
 36
1.0
 17
0.0
 27
0.0
 37
0.0
 40
1118.768496383013
 41
0.9846153846153846
 42
50.0
 43
0.0
 44
0.0
 50
0.0
 51
0.0
 71
     0
 72
  1000
 73
     1
 74
     3
 75
     0
 76
     1
 77
     0
 78
     0
281
     0
 65
     1
110
0.0
120
0.0
130
0.0
111
1.0
121
0.0
131
0.0
112
0.0
122
1.0
132
0.0
 79
     0
146
0.0
1001
ACAD_NAV_VCDISPLAY
1070
     3
  0
ENDTAB
  0
TABLE
  2
LTYPE
  5
5
330
0
100
AcDbSymbolTable
 70
     1
  0
LTYPE
  5
14
330
5
100
AcDbSymbolTableRecord
100
AcDbLinetypeTableRecord
  2
ByBlock
 70
     0
  3

 72
    65
 73
     0
 40
0.0
  0
LTYPE
  5
15
330
5
100
AcDbSymbolTableRecord
100
AcDbLinetypeTableRecord
  2
ByLayer
 70
     0
  3

 72
    65
 73
     0
 40
0.0
  0
LTYPE
  5
16
330
5
100
AcDbSymbolTableRecord
100
AcDbLinetypeTableRecord
  2
Continuous
 70
     0
  3
Solid line
 72
    65
 73
     0
 40
0.0
  0
ENDTAB
  0
TABLE
  2
LAYER
  5
2
102
{ACAD_XDICTIONARY
360
1FF
102
}
330
0
100
AcDbSymbolTable
 70
     1
  0
LAYER
  5
10
102
{ACAD_XDICTIONARY
360
13C
102
}
330
2
100
AcDbSymbolTableRecord
100
AcDbLayerTableRecord
  2
0
 70
     0
 62
     7
  6
Continuous
370
    -3
390
F
  0
ENDTAB
  0
TABLE
  2
STYLE
  5
3
330
0
100
AcDbSymbolTable
 70
     1
  0
STYLE
  5
11
330
3
100
AcDbSymbolTableRecord
100
AcDbTextStyleTableRecord
  2
Standard
 70
     0
 40
0.0
 41
1.0
 50
0.0
 71
     0
 42
2.5
  3
arial.ttf
  4

1001
ACAD
1000
Arial
1071
       34
  0
ENDTAB
  0
TABLE
  2
VIEW
  5
6
330
0
100
AcDbSymbolTable
 70
     0
  0
ENDTAB
  0
TABLE
  2
UCS
  5
7
330
0
100
AcDbSymbolTable
 70
     0
  0
ENDTAB
  0
TABLE
  2
APPID
  5
9
330
0
100
AcDbSymbolTable
 70
     9
  0
APPID
  5
12
330
9
100
AcDbSymbolTableRecord
100
AcDbRegAppTableRecord
  2
ACAD
 70
     0
  0
APPID
  5
9E
330
9
100
AcDbSymbolTableRecord
100
AcDbRegAppTableRecord
  2
ACAD_PSEXT
 70
     0
  0
APPID
  5
133
330
9
100
AcDbSymbolTableRecord
100
AcDbRegAppTableRecord
  2
AcadAnnoPO
 70
     0
  0
APPID
  5
134
330
9
100
AcDbSymbolTableRecord
100
AcDbRegAppTableRecord
  2
AcadAnnotative
 70
     0
  0
APPID
  5
135
330
9
100
AcDbSymbolTableRecord
100
AcDbRegAppTableRecord
  2
ACAD_DSTYLE_DIMJAG
 70
     0
  0
APPID
  5
136
330
9
100
AcDbSymbolTableRecord
100
AcDbRegAppTableRecord
  2
ACAD_DSTYLE_DIMTALN
 70
     0
  0
APPID
  5
165
330
9
100
AcDbSymbolTableRecord
100
AcDbRegAppTableRecord
  2
ACAD_MLEADERVER
 70
     0
  0
APPID
  5
217
330
9
100
AcDbSymbolTableRecord
100
AcDbRegAppTableRecord
  2
ACAD_NAV_VCDISPLAY
 70
     0
  0
APPID
  5
2AB
330
9
100
AcDbSymbolTableRecord
100
AcDbRegAppTableRecord
  2
ACAD_EXEMPT_FROM_CAD_STANDARDS
 70
     0
  0
ENDTAB
  0
TABLE
  2
DIMSTYLE
  5
A
330
0
100
AcDbSymbolTable
 70
     1
100
AcDbDimStyleTable
 71
     0
  0
DIMSTYLE
105
27
330
A
100
AcDbSymbolTableRecord
100
AcDbDimStyleTableRecord
  2
ISO-25
 70
     0
 41
2.5
 42
0.625
 43
3.75
 44
1.25
 73
     0
 74
     0
 77
     1
 78
     8
140
2.5
141
2.5
143
0.03937007874016
147
0.625
171
     3
172
     1
271
     2
272
     2
274
     3
278
    44
283
     0
284
     8
340
11
  0
ENDTAB
  0
TABLE
  2
BLOCK_RECORD
  5
1
330
0
100
AcDbSymbolTable
 70
     7
  0
BLOCK_RECORD
  5
1F
102
{ACAD_XDICTIONARY
360
1CE
102
}
330
1
100
AcDbSymbolTableRecord
100
AcDbBlockTableRecord
  2
*Model_Space
340
22
  0
BLOCK_RECORD
  5
D2
102
{ACAD_XDICTIONARY
360
6908
102
}
330
1
100
AcDbSymbolTableRecord
100
AcDbBlockTableRecord
  2
*Paper_Space
340
D3
  0
BLOCK_RECORD
  5
D6
102
{ACAD_XDICTIONARY
360
690A
102
}
330
1
100
AcDbSymbolTableRecord
100
AcDbBlockTableRecord
  2
*Paper_Space0
340
D7
  0
BLOCK_RECORD
  5
6657
330
1
100
AcDbSymbolTableRecord
100
AcDbBlockTableRecord
  2
NP15_220_300-Front
340
0
102
{BLKREFS
331
68FE
102
}
  0
BLOCK_RECORD
  5
665E
330
1
100
AcDbSymbolTableRecord
100
AcDbBlockTableRecord
  2
NP15_220_300-Left
340
0
102
{BLKREFS
331
68FF
102
}
  0
BLOCK_RECORD
  5
6665
330
1
100
AcDbSymbolTableRecord
100
AcDbBlockTableRecord
  2
NP15_220_300-Right
340
0
102
{BLKREFS
331
6900
102
}
  0
BLOCK_RECORD
  5
666C
330
1
100
AcDbSymbolTableRecord
100
AcDbBlockTableRecord
  2
NP15_220_300-Top
340
0
102
{BLKREFS
331
6901
102
}
  0
BLOCK_RECORD
  5
6711
330
1
100
AcDbSymbolTableRecord
100
AcDbBlockTableRecord
  2
NP15_220_300-Bottom
340
0
102
{BLKREFS
331
6902
102
}
  0
BLOCK_RECORD
  5
67B6
330
1
100
AcDbSymbolTableRecord
100
AcDbBlockTableRecord
  2
NP15_220_300-ISO
340
0
102
{BLKREFS
331
6903
102
}
  0
ENDTAB
  0
ENDSEC
  0
SECTION
  2
BLOCKS
  0
BLOCK
  5
20
330
1F
100
AcDbEntity
  8
0
100
AcDbBlockBegin
  2
*Model_Space
 70
     0
 10
0.0
 20
0.0
 30
0.0
  3
*Model_Space
  1

  0
ENDBLK
  5
21
330
1F
100
AcDbEntity
  8
0
100
AcDbBlockEnd
  0
BLOCK
  5
D4
330
D2
100
AcDbEntity
 67
     1
  8
0
100
AcDbBlockBegin
  2
*Paper_Space
 70
     0
 10
0.0
 20
0.0
 30
0.0
  3
*Paper_Space
  1

  0
ENDBLK
  5
D5
330
D2
100
AcDbEntity
 67
     1
  8
0
100
AcDbBlockEnd
  0
BLOCK
  5
D8
330
D6
100
AcDbEntity
 67
     1
  8
0
100
AcDbBlockBegin
  2
*Paper_Space0
 70
     0
 10
0.0
 20
0.0
 30
0.0
  3
*Paper_Space0
  1

  0
ENDBLK
  5
D9
330
D6
100
AcDbEntity
 67
     1
  8
0
100
AcDbBlockEnd
  0
BLOCK
  5
6658
330
6657
100
AcDbEntity
  8
0
100
AcDbBlockBegin
  2
NP15_220_300-Front
 70
     0
 10
0.0
 20
0.0
 30
0.0
  3
NP15_220_300-Front
  1

  0
LINE
  5
665A
330
6657
100
AcDbEntity
  8
0
100
AcDbLine
 10
150.0
 20
0.0
 30
0.0
 11
150.0
 21
1.5
 31
0.0
  0
LINE
  5
665B
330
6657
100
AcDbEntity
  8
0
100
AcDbLine
 10
150.0
 20
0.0
 30
0.0
 11
-149.9999999999999
 21
0.0
 31
0.0
  0
LINE
  5
665C
330
6657
100
AcDbEntity
  8
0
100
AcDbLine
 10
-149.9999999999999
 20
1.5
 30
0.0
 11
150.0
 21
1.5
 31
0.0
  0
LINE
  5
665D
330
6657
100
AcDbEntity
  8
0
100
AcDbLine
 10
-149.9999999999999
 20
0.0
 30
0.0
 11
-149.9999999999999
 21
1.5
 31
0.0
  0
ENDBLK
  5
6659
330
6657
100
AcDbEntity
  8
0
100
AcDbBlockEnd
  0
BLOCK
  5
665F
330
665E
100
AcDbEntity
  8
0
100
AcDbBlockBegin
  2
NP15_220_300-Left
 70
     0
 10
0.0
 20
0.0
 30
0.0
  3
NP15_220_300-Left
  1

  0
LINE
  5
6661
330
665E
100
AcDbEntity
  8
0
100
AcDbLine
 10
110.0
 20
0.0
 30
0.0
 11
110.0
 21
1.5
 31
0.0
  0
LINE
  5
6662
330
665E
100
AcDbEntity
  8
0
100
AcDbLine
 10
110.0
 20
0.0
 30
0.0
 11
-109.9999999999999
 21
0.0
 31
0.0
  0
LINE
  5
6663
330
665E
100
AcDbEntity
  8
0
100
AcDbLine
 10
-109.9999999999999
 20
1.5
 30
0.0
 11
110.0
 21
1.5
 31
0.0
  0
LINE
  5
6664
330
665E
100
AcDbEntity
  8
0
100
AcDbLine
 10
-109.9999999999999
 20
0.0
 30
0.0
 11
-109.9999999999999
 21
1.5
 31
0.0
  0
ENDBLK
  5
6660
330
665E
100
AcDbEntity
  8
0
100
AcDbBlockEnd
  0
BLOCK
  5
6666
330
6665
100
AcDbEntity
  8
0
100
AcDbBlockBegin
  2
NP15_220_300-Right
 70
     0
 10
0.0
 20
0.0
 30
0.0
  3
NP15_220_300-Right
  1

  0
LINE
  5
6668
330
6665
100
AcDbEntity
  8
0
100
AcDbLine
 10
110.0
 20
0.0
 30
0.0
 11
-109.9999999999999
 21
0.0
 31
0.0
  0
LINE
  5
6669
330
6665
100
AcDbEntity
  8
0
100
AcDbLine
 10
110.0
 20
0.0
 30
0.0
 11
110.0
 21
1.5
 31
0.0
  0
LINE
  5
666A
330
6665
100
AcDbEntity
  8
0
100
AcDbLine
 10
-109.9999999999999
 20
1.5
 30
0.0
 11
110.0
 21
1.5
 31
0.0
  0
LINE
  5
666B
330
6665
100
AcDbEntity
  8
0
100
AcDbLine
 10
-109.9999999999999
 20
0.0
 30
0.0
 11
-109.9999999999999
 21
1.5
 31
0.0
  0
ENDBLK
  5
6667
330
6665
100
AcDbEntity
  8
0
100
AcDbBlockEnd
  0
BLOCK
  5
666D
330
666C
100
AcDbEntity
  8
0
100
AcDbBlockBegin
  2
NP15_220_300-Top
 70
     0
 10
0.0
 20
0.0
 30
0.0
  3
NP15_220_300-Top
  1

  0
CIRCLE
  5
666F
330
666C
100
AcDbEntity
  8
0
100
AcDbCircle
 10
120.0
 20
90.00000000000001
 30
0.0
 40
2.5
  0
CIRCLE
  5
6670
330
666C
100
AcDbEntity
  8
0
100
AcDbCircle
 10
80.0
 20
90.00000000000001
 30
0.0
 40
2.5
  0
CIRCLE
  5
6671
330
666C
100
AcDbEntity
  8
0
100
AcDbCircle
 10
40.0
 20
90.0
 30
0.0
 40
2.5
  0
CIRCLE
  5
6672
330
666C
100
AcDbEntity
  8
0
100
AcDbCircle
 10
-0.0000000000000022
 20
90.0
 30
0.0
 40
2.5
  0
CIRCLE
  5
6673
330
666C
100
AcDbEntity
  8
0
100
AcDbCircle
 10
-40.0
 20
90.0
 30
0.0
 40
2.5
  0
CIRCLE
  5
6674
330
666C
100
AcDbEntity
  8
0
100
AcDbCircle
 10
-80.0
 20
89.99999999999998
 30
0.0
 40
2.5
  0
CIRCLE
  5
6675
330
666C
100
AcDbEntity
  8
0
100
AcDbCircle
 10
120.0
 20
70.00000000000003
 30
0.0
 40
2.5
  0
CIRCLE
  5
6676
330
666C
100
AcDbEntity
  8
0
100
AcDbCircle
 10
80.0
 20
70.00000000000001
 30
0.0
 40
2.5
  0
CIRCLE
  5
6677
330
666C
100
AcDbEntity
  8
0
100
AcDbCircle
 10
40.0
 20
70.00000000000001
 30
0.0
 40
2.5
  0
CIRCLE
  5
6678
330
666C
100
AcDbEntity
  8
0
100
AcDbCircle
 10
0.0000000000000022
 20
70.0
 30
0.0
 40
2.5
  0
CIRCLE
  5
6679
330
666C
100
AcDbEntity
  8
0
100
AcDbCircle
 10
-40.0
 20
69.99999999999999
 30
0.0
 40
2.5
  0
CIRCLE
  5
667A
330
666C
100
AcDbEntity
  8
0
100
AcDbCircle
 10
-80.0
 20
69.99999999999999
 30
0.0
 40
2.5
  0
CIRCLE
  5
667B
330
666C
100
AcDbEntity
  8
0
100
AcDbCircle
 10
120.0
 20
50.00000000000003
 30
0.0
 40
2.5
  0
CIRCLE
  5
667C
330
666C
100
AcDbEntity
  8
0
100
AcDbCircle
 10
80.0
 20
50.00000000000001
 30
0.0
 40
2.5
  0
CIRCLE
  5
667D
330
666C
100
AcDbEntity
  8
0
100
AcDbCircle
 10
40.0
 20
50.0
 30
0.0
 40
2.5
  0
CIRCLE
  5
667E
330
666C
100
AcDbEntity
  8
0
100
AcDbCircle
 10
0.0000000000000067
 20
50.0
 30
0.0
 40
2.5
  0
CIRCLE
  5
667F
330
666C
100
AcDbEntity
  8
0
100
AcDbCircle
 10
-40.0
 20
50.0
 30
0.0
 40
2.5
  0
CIRCLE
  5
6680
330
666C
100
AcDbEntity
  8
0
100
AcDbCircle
 10
-79.99999999999999
 20
49.99999999999999
 30
0.0
 40
2.5
  0
CIRCLE
  5
6681
330
666C
100
AcDbEntity
  8
0
100
AcDbCircle
 10
120.0
 20
30.00000000000003
 30
0.0
 40
2.5
  0
CIRCLE
  5
6682
330
666C
100
AcDbEntity
  8
0
100
AcDbCircle
 10
80.00000000000001
 20
30.00000000000002
 30
0.0
 40
2.5
  0
CIRCLE
  5
6683
330
666C
100
AcDbEntity
  8
0
100
AcDbCircle
 10
40.0
 20
30.00000000000001
 30
0.0
 40
2.5
  0
CIRCLE
  5
6684
330
666C
100
AcDbEntity
  8
0
100
AcDbCircle
 10
0.0000000000000111
 20
30.0
 30
0.0
 40
2.5
  0
CIRCLE
  5
6685
330
666C
100
AcDbEntity
  8
0
100
AcDbCircle
 10
-39.99999999999999
 20
30.0
 30
0.0
 40
2.5
  0
CIRCLE
  5
6686
330
666C
100
AcDbEntity
  8
0
100
AcDbCircle
 10
-79.99999999999999
 20
29.99999999999998
 30
0.0
 40
2.5
  0
CIRCLE
  5
6687
330
666C
100
AcDbEntity
  8
0
100
AcDbCircle
 10
120.0
 20
10.00000000000002
 30
0.0
 40
2.5
  0
CIRCLE
  5
6688
330
666C
100
AcDbEntity
  8
0
100
AcDbCircle
 10
80.00000000000001
 20
10.00000000000001
 30
0.0
 40
2.5
  0
CIRCLE
  5
6689
330
666C
100
AcDbEntity
  8
0
100
AcDbCircle
 10
40.00000000000001
 20
10.00000000000001
 30
0.0
 40
2.5
  0
CIRCLE
  5
668A
330
666C
100
AcDbEntity
  8
0
100
AcDbCircle
 10
0.0000000000000155
 20
10.0
 30
0.0
 40
2.5
  0
CIRCLE
  5
668B
330
666C
100
AcDbEntity
  8
0
100
AcDbCircle
 10
-39.99999999999999
 20
9.999999999999991
 30
0.0
 40
2.5
  0
CIRCLE
  5
668C
330
666C
100
AcDbEntity
  8
0
100
AcDbCircle
 10
-79.99999999999999
 20
9.999999999999982
 30
0.0
 40
2.5
  0
CIRCLE
  5
668D
330
666C
100
AcDbEntity
  8
0
100
AcDbCircle
 10
120.0
 20
-9.999999999999973
 30
0.0
 40
2.5
  0
CIRCLE
  5
668E
330
666C
100
AcDbEntity
  8
0
100
AcDbCircle
 10
80.00000000000001
 20
-9.999999999999982
 30
0.0
 40
2.5
  0
CIRCLE
  5
668F
330
666C
100
AcDbEntity
  8
0
100
AcDbCircle
 10
40.00000000000001
 20
-9.999999999999991
 30
0.0
 40
2.5
  0
CIRCLE
  5
6690
330
666C
100
AcDbEntity
  8
0
100
AcDbCircle
 10
0.00000000000002
 20
-10.0
 30
0.0
 40
2.5
  0
CIRCLE
  5
6691
330
666C
100
AcDbEntity
  8
0
100
AcDbCircle
 10
-39.99999999999999
 20
-10.00000000000001
 30
0.0
 40
2.5
  0
CIRCLE
  5
6692
330
666C
100
AcDbEntity
  8
0
100
AcDbCircle
 10
-79.99999999999999
 20
-10.00000000000001
 30
0.0
 40
2.5
  0
CIRCLE
  5
6693
330
666C
100
AcDbEntity
  8
0
100
AcDbCircle
 10
120.0
 20
-29.99999999999997
 30
0.0
 40
2.5
  0
CIRCLE
  5
6694
330
666C
100
AcDbEntity
  8
0
100
AcDbCircle
 10
80.00000000000001
 20
-29.99999999999998
 30
0.0
 40
2.5
  0
CIRCLE
  5
6695
330
666C
100
AcDbEntity
  8
0
100
AcDbCircle
 10
40.00000000000002
 20
-30.0
 30
0.0
 40
2.5
  0
CIRCLE
  5
6696
330
666C
100
AcDbEntity
  8
0
100
AcDbCircle
 10
0.0000000000000244
 20
-30.0
 30
0.0
 40
2.5
  0
CIRCLE
  5
6697
330
666C
100
AcDbEntity
  8
0
100
AcDbCircle
 10
-39.99999999999998
 20
-30.00000000000001
 30
0.0
 40
2.5
  0
CIRCLE
  5
6698
330
666C
100
AcDbEntity
  8
0
100
AcDbCircle
 10
-79.99999999999997
 20
-30.00000000000002
 30
0.0
 40
2.5
  0
CIRCLE
  5
6699
330
666C
100
AcDbEntity
  8
0
100
AcDbCircle
 10
120.0
 20
-49.99999999999997
 30
0.0
 40
2.5
  0
CIRCLE
  5
669A
330
666C
100
AcDbEntity
  8
0
100
AcDbCircle
 10
80.00000000000003
 20
-49.99999999999999
 30
0.0
 40
2.5
  0
CIRCLE
  5
669B
330
666C
100
AcDbEntity
  8
0
100
AcDbCircle
 10
40.00000000000002
 20
-50.0
 30
0.0
 40
2.5
  0
CIRCLE
  5
669C
330
666C
100
AcDbEntity
  8
0
100
AcDbCircle
 10
0.0000000000000289
 20
-50.0
 30
0.0
 40
2.5
  0
CIRCLE
  5
669D
330
666C
100
AcDbEntity
  8
0
100
AcDbCircle
 10
-39.99999999999997
 20
-50.0
 30
0.0
 40
2.5
  0
CIRCLE
  5
669E
330
666C
100
AcDbEntity
  8
0
100
AcDbCircle
 10
-79.99999999999997
 20
-50.00000000000001
 30
0.0
 40
2.5
  0
CIRCLE
  5
669F
330
666C
100
AcDbEntity
  8
0
100
AcDbCircle
 10
120.0
 20
-69.99999999999997
 30
0.0
 40
2.5
  0
CIRCLE
  5
66A0
330
666C
100
AcDbEntity
  8
0
100
AcDbCircle
 10
80.00000000000003
 20
-69.99999999999999
 30
0.0
 40
2.5
  0
CIRCLE
  5
66A1
330
666C
100
AcDbEntity
  8
0
100
AcDbCircle
 10
40.00000000000003
 20
-69.99999999999999
 30
0.0
 40
2.5
  0
CIRCLE
  5
66A2
330
666C
100
AcDbEntity
  8
0
100
AcDbCircle
 10
0.0000000000000333
 20
-70.0
 30
0.0
 40
2.5
  0
CIRCLE
  5
66A3
330
666C
100
AcDbEntity
  8
0
100
AcDbCircle
 10
-39.99999999999997
 20
-70.00000000000001
 30
0.0
 40
2.5
  0
CIRCLE
  5
66A4
330
666C
100
AcDbEntity
  8
0
100
AcDbCircle
 10
-79.99999999999997
 20
-70.00000000000001
 30
0.0
 40
2.5
  0
CIRCLE
  5
66A5
330
666C
100
AcDbEntity
  8
0
100
AcDbCircle
 10
-120.0
 20
89.99999999999998
 30
0.0
 40
2.5
  0
CIRCLE
  5
66A6
330
666C
100
AcDbEntity
  8
0
100
AcDbCircle
 10
-120.0
 20
69.99999999999997
 30
0.0
 40
2.5
  0
CIRCLE
  5
66A7
330
666C
100
AcDbEntity
  8
0
100
AcDbCircle
 10
-120.0
 20
49.99999999999997
 30
0.0
 40
2.5
  0
CIRCLE
  5
66A8
330
666C
100
AcDbEntity
  8
0
100
AcDbCircle
 10
-120.0
 20
29.99999999999997
 30
0.0
 40
2.5
  0
CIRCLE
  5
66A9
330
666C
100
AcDbEntity
  8
0
100
AcDbCircle
 10
-120.0
 20
9.999999999999973
 30
0.0
 40
2.5
  0
CIRCLE
  5
66AA
330
666C
100
AcDbEntity
  8
0
100
AcDbCircle
 10
-120.0
 20
-10.00000000000002
 30
0.0
 40
2.5
  0
CIRCLE
  5
66AB
330
666C
100
AcDbEntity
  8
0
100
AcDbCircle
 10
-120.0
 20
-30.00000000000003
 30
0.0
 40
2.5
  0
CIRCLE
  5
66AC
330
666C
100
AcDbEntity
  8
0
100
AcDbCircle
 10
-119.9999999999999
 20
-50.00000000000003
 30
0.0
 40
2.5
  0
CIRCLE
  5
66AD
330
666C
100
AcDbEntity
  8
0
100
AcDbCircle
 10
-119.9999999999999
 20
-70.00000000000003
 30
0.0
 40
2.5
  0
CIRCLE
  5
66AE
330
666C
100
AcDbEntity
  8
0
100
AcDbCircle
 10
120.0
 20
-89.99999999999998
 30
0.0
 40
2.5
  0
CIRCLE
  5
66AF
330
666C
100
AcDbEntity
  8
0
100
AcDbCircle
 10
80.00000000000003
 20
-89.99999999999998
 30
0.0
 40
2.5
  0
CIRCLE
  5
66B0
330
666C
100
AcDbEntity
  8
0
100
AcDbCircle
 10
40.00000000000003
 20
-90.0
 30
0.0
 40
2.5
  0
CIRCLE
  5
66B1
330
666C
100
AcDbEntity
  8
0
100
AcDbCircle
 10
0.0000000000000377
 20
-90.0
 30
0.0
 40
2.5
  0
CIRCLE
  5
66B2
330
666C
100
AcDbEntity
  8
0
100
AcDbCircle
 10
-39.99999999999996
 20
-90.0
 30
0.0
 40
2.5
  0
CIRCLE
  5
66B3
330
666C
100
AcDbEntity
  8
0
100
AcDbCircle
 10
-79.99999999999997
 20
-90.00000000000001
 30
0.0
 40
2.5
  0
CIRCLE
  5
66B4
330
666C
100
AcDbEntity
  8
0
100
AcDbCircle
 10
-119.9999999999999
 20
-90.00000000000001
 30
0.0
 40
2.5
  0
CIRCLE
  5
66B5
330
666C
100
AcDbEntity
  8
0
100
AcDbCircle
 10
140.0
 20
100.0
 30
0.0
 40
2.5
  0
CIRCLE
  5
66B6
330
666C
100
AcDbEntity
  8
0
100
AcDbCircle
 10
100.0
 20
100.0
 30
0.0
 40
2.5
  0
CIRCLE
  5
66B7
330
666C
100
AcDbEntity
  8
0
100
AcDbCircle
 10
60.0
 20
100.0
 30
0.0
 40
2.5
  0
CIRCLE
  5
66B8
330
666C
100
AcDbEntity
  8
0
100
AcDbCircle
 10
20.0
 20
100.0
 30
0.0
 40
2.5
  0
CIRCLE
  5
66B9
330
666C
100
AcDbEntity
  8
0
100
AcDbCircle
 10
-20.0
 20
100.0
 30
0.0
 40
2.5
  0
CIRCLE
  5
66BA
330
666C
100
AcDbEntity
  8
0
100
AcDbCircle
 10
-60.0
 20
100.0
 30
0.0
 40
2.5
  0
CIRCLE
  5
66BB
330
666C
100
AcDbEntity
  8
0
100
AcDbCircle
 10
-100.0
 20
100.0
 30
0.0
 40
2.5
  0
CIRCLE
  5
66BC
330
666C
100
AcDbEntity
  8
0
100
AcDbCircle
 10
140.0
 20
80.00000000000003
 30
0.0
 40
2.5
  0
CIRCLE
  5
66BD
330
666C
100
AcDbEntity
  8
0
100
AcDbCircle
 10
100.0
 20
80.00000000000001
 30
0.0
 40
2.5
  0
CIRCLE
  5
66BE
330
666C
100
AcDbEntity
  8
0
100
AcDbCircle
 10
60.0
 20
80.00000000000001
 30
0.0
 40
2.5
  0
CIRCLE
  5
66BF
330
666C
100
AcDbEntity
  8
0
100
AcDbCircle
 10
20.0
 20
80.0
 30
0.0
 40
2.5
  0
CIRCLE
  5
66C0
330
666C
100
AcDbEntity
  8
0
100
AcDbCircle
 10
-20.0
 20
80.0
 30
0.0
 40
2.5
  0
CIRCLE
  5
66C1
330
666C
100
AcDbEntity
  8
0
100
AcDbCircle
 10
-60.0
 20
79.99999999999999
 30
0.0
 40
2.5
  0
CIRCLE
  5
66C2
330
666C
100
AcDbEntity
  8
0
100
AcDbCircle
 10
-100.0
 20
79.99999999999999
 30
0.0
 40
2.5
  0
CIRCLE
  5
66C3
330
666C
100
AcDbEntity
  8
0
100
AcDbCircle
 10
140.0
 20
60.00000000000003
 30
0.0
 40
2.5
  0
CIRCLE
  5
66C4
330
666C
100
AcDbEntity
  8
0
100
AcDbCircle
 10
100.0
 20
60.00000000000001
 30
0.0
 40
2.5
  0
CIRCLE
  5
66C5
330
666C
100
AcDbEntity
  8
0
100
AcDbCircle
 10
60.0
 20
60.0
 30
0.0
 40
2.5
  0
CIRCLE
  5
66C6
330
666C
100
AcDbEntity
  8
0
100
AcDbCircle
 10
20.0
 20
60.0
 30
0.0
 40
2.5
  0
CIRCLE
  5
66C7
330
666C
100
AcDbEntity
  8
0
100
AcDbCircle
 10
-20.0
 20
60.0
 30
0.0
 40
2.5
  0
CIRCLE
  5
66C8
330
666C
100
AcDbEntity
  8
0
100
AcDbCircle
 10
-60.0
 20
60.0
 30
0.0
 40
2.5
  0
CIRCLE
  5
66C9
330
666C
100
AcDbEntity
  8
0
100
AcDbCircle
 10
-100.0
 20
59.99999999999999
 30
0.0
 40
2.5
  0
CIRCLE
  5
66CA
330
666C
100
AcDbEntity
  8
0
100
AcDbCircle
 10
140.0
 20
40.00000000000002
 30
0.0
 40
2.5
  0
CIRCLE
  5
66CB
330
666C
100
AcDbEntity
  8
0
100
AcDbCircle
 10
100.0
 20
40.00000000000001
 30
0.0
 40
2.5
  0
CIRCLE
  5
66CC
330
666C
100
AcDbEntity
  8
0
100
AcDbCircle
 10
60.0
 20
40.0
 30
0.0
 40
2.5
  0
CIRCLE
  5
66CD
330
666C
100
AcDbEntity
  8
0
100
AcDbCircle
 10
20.00000000000001
 20
40.0
 30
0.0
 40
2.5
  0
CIRCLE
  5
66CE
330
666C
100
AcDbEntity
  8
0
100
AcDbCircle
 10
-19.99999999999999
 20
40.0
 30
0.0
 40
2.5
  0
CIRCLE
  5
66CF
330
666C
100
AcDbEntity
  8
0
100
AcDbCircle
 10
-60.0
 20
39.99999999999999
 30
0.0
 40
2.5
  0
CIRCLE
  5
66D0
330
666C
100
AcDbEntity
  8
0
100
AcDbCircle
 10
-100.0
 20
39.99999999999998
 30
0.0
 40
2.5
  0
CIRCLE
  5
66D1
330
666C
100
AcDbEntity
  8
0
100
AcDbCircle
 10
140.0
 20
20.00000000000003
 30
0.0
 40
2.5
  0
CIRCLE
  5
66D2
330
666C
100
AcDbEntity
  8
0
100
AcDbCircle
 10
100.0
 20
20.00000000000002
 30
0.0
 40
2.5
  0
CIRCLE
  5
66D3
330
666C
100
AcDbEntity
  8
0
100
AcDbCircle
 10
60.00000000000001
 20
20.00000000000001
 30
0.0
 40
2.5
  0
CIRCLE
  5
66D4
330
666C
100
AcDbEntity
  8
0
100
AcDbCircle
 10
20.00000000000001
 20
20.0
 30
0.0
 40
2.5
  0
CIRCLE
  5
66D5
330
666C
100
AcDbEntity
  8
0
100
AcDbCircle
 10
-19.99999999999998
 20
20.0
 30
0.0
 40
2.5
  0
CIRCLE
  5
66D6
330
666C
100
AcDbEntity
  8
0
100
AcDbCircle
 10
-59.99999999999999
 20
19.99999999999998
 30
0.0
 40
2.5
  0
CIRCLE
  5
66D7
330
666C
100
AcDbEntity
  8
0
100
AcDbCircle
 10
-100.0
 20
19.99999999999998
 30
0.0
 40
2.5
  0
CIRCLE
  5
66D8
330
666C
100
AcDbEntity
  8
0
100
AcDbCircle
 10
140.0
 20
0.0000000000000311
 30
0.0
 40
2.5
  0
CIRCLE
  5
66D9
330
666C
100
AcDbEntity
  8
0
100
AcDbCircle
 10
100.0
 20
0.0000000000000222
 30
0.0
 40
2.5
  0
CIRCLE
  5
66DA
330
666C
100
AcDbEntity
  8
0
100
AcDbCircle
 10
60.00000000000001
 20
0.0000000000000133
 30
0.0
 40
2.5
  0
CIRCLE
  5
66DB
330
666C
100
AcDbEntity
  8
0
100
AcDbCircle
 10
20.00000000000002
 20
0.0000000000000044
 30
0.0
 40
2.5
  0
CIRCLE
  5
66DC
330
666C
100
AcDbEntity
  8
0
100
AcDbCircle
 10
-19.99999999999998
 20
-0.0000000000000044
 30
0.0
 40
2.5
  0
CIRCLE
  5
66DD
330
666C
100
AcDbEntity
  8
0
100
AcDbCircle
 10
-59.99999999999999
 20
-0.0000000000000133
 30
0.0
 40
2.5
  0
CIRCLE
  5
66DE
330
666C
100
AcDbEntity
  8
0
100
AcDbCircle
 10
-100.0
 20
-0.0000000000000222
 30
0.0
 40
2.5
  0
CIRCLE
  5
66DF
330
666C
100
AcDbEntity
  8
0
100
AcDbCircle
 10
140.0
 20
-19.99999999999997
 30
0.0
 40
2.5
  0
CIRCLE
  5
66E0
330
666C
100
AcDbEntity
  8
0
100
AcDbCircle
 10
100.0
 20
-19.99999999999998
 30
0.0
 40
2.5
  0
CIRCLE
  5
66E1
330
666C
100
AcDbEntity
  8
0
100
AcDbCircle
 10
60.00000000000001
 20
-19.99999999999998
 30
0.0
 40
2.5
  0
CIRCLE
  5
66E2
330
666C
100
AcDbEntity
  8
0
100
AcDbCircle
 10
20.00000000000002
 20
-20.0
 30
0.0
 40
2.5
  0
CIRCLE
  5
66E3
330
666C
100
AcDbEntity
  8
0
100
AcDbCircle
 10
-19.99999999999998
 20
-20.0
 30
0.0
 40
2.5
  0
CIRCLE
  5
66E4
330
666C
100
AcDbEntity
  8
0
100
AcDbCircle
 10
-59.99999999999999
 20
-20.00000000000001
 30
0.0
 40
2.5
  0
CIRCLE
  5
66E5
330
666C
100
AcDbEntity
  8
0
100
AcDbCircle
 10
-100.0
 20
-20.00000000000002
 30
0.0
 40
2.5
  0
CIRCLE
  5
66E6
330
666C
100
AcDbEntity
  8
0
100
AcDbCircle
 10
140.0
 20
-39.99999999999997
 30
0.0
 40
2.5
  0
CIRCLE
  5
66E7
330
666C
100
AcDbEntity
  8
0
100
AcDbCircle
 10
100.0
 20
-39.99999999999998
 30
0.0
 40
2.5
  0
CIRCLE
  5
66E8
330
666C
100
AcDbEntity
  8
0
100
AcDbCircle
 10
60.00000000000003
 20
-39.99999999999999
 30
0.0
 40
2.5
  0
CIRCLE
  5
66E9
330
666C
100
AcDbEntity
  8
0
100
AcDbCircle
 10
20.00000000000003
 20
-40.0
 30
0.0
 40
2.5
  0
CIRCLE
  5
66EA
330
666C
100
AcDbEntity
  8
0
100
AcDbCircle
 10
-19.99999999999997
 20
-40.0
 30
0.0
 40
2.5
  0
CIRCLE
  5
66EB
330
666C
100
AcDbEntity
  8
0
100
AcDbCircle
 10
-59.99999999999997
 20
-40.0
 30
0.0
 40
2.5
  0
CIRCLE
  5
66EC
330
666C
100
AcDbEntity
  8
0
100
AcDbCircle
 10
-100.0
 20
-40.00000000000001
 30
0.0
 40
2.5
  0
CIRCLE
  5
66ED
330
666C
100
AcDbEntity
  8
0
100
AcDbCircle
 10
140.0
 20
-59.99999999999997
 30
0.0
 40
2.5
  0
CIRCLE
  5
66EE
330
666C
100
AcDbEntity
  8
0
100
AcDbCircle
 10
100.0
 20
-59.99999999999999
 30
0.0
 40
2.5
  0
CIRCLE
  5
66EF
330
666C
100
AcDbEntity
  8
0
100
AcDbCircle
 10
60.00000000000003
 20
-60.0
 30
0.0
 40
2.5
  0
CIRCLE
  5
66F0
330
666C
100
AcDbEntity
  8
0
100
AcDbCircle
 10
20.00000000000003
 20
-60.0
 30
0.0
 40
2.5
  0
CIRCLE
  5
66F1
330
666C
100
AcDbEntity
  8
0
100
AcDbCircle
 10
-19.99999999999997
 20
-60.0
 30
0.0
 40
2.5
  0
CIRCLE
  5
66F2
330
666C
100
AcDbEntity
  8
0
100
AcDbCircle
 10
-59.99999999999997
 20
-60.0
 30
0.0
 40
2.5
  0
CIRCLE
  5
66F3
330
666C
100
AcDbEntity
  8
0
100
AcDbCircle
 10
-99.99999999999998
 20
-60.00000000000001
 30
0.0
 40
2.5
  0
CIRCLE
  5
66F4
330
666C
100
AcDbEntity
  8
0
100
AcDbCircle
 10
140.0
 20
-79.99999999999997
 30
0.0
 40
2.5
  0
CIRCLE
  5
66F5
330
666C
100
AcDbEntity
  8
0
100
AcDbCircle
 10
100.0
 20
-79.99999999999999
 30
0.0
 40
2.5
  0
CIRCLE
  5
66F6
330
666C
100
AcDbEntity
  8
0
100
AcDbCircle
 10
60.00000000000003
 20
-79.99999999999999
 30
0.0
 40
2.5
  0
CIRCLE
  5
66F7
330
666C
100
AcDbEntity
  8
0
100
AcDbCircle
 10
20.00000000000003
 20
-80.0
 30
0.0
 40
2.5
  0
CIRCLE
  5
66F8
330
666C
100
AcDbEntity
  8
0
100
AcDbCircle
 10
-19.99999999999996
 20
-80.0
 30
0.0
 40
2.5
  0
CIRCLE
  5
66F9
330
666C
100
AcDbEntity
  8
0
100
AcDbCircle
 10
-59.99999999999996
 20
-80.00000000000001
 30
0.0
 40
2.5
  0
CIRCLE
  5
66FA
330
666C
100
AcDbEntity
  8
0
100
AcDbCircle
 10
-99.99999999999998
 20
-80.00000000000001
 30
0.0
 40
2.5
  0
CIRCLE
  5
66FB
330
666C
100
AcDbEntity
  8
0
100
AcDbCircle
 10
-140.0
 20
99.99999999999998
 30
0.0
 40
2.5
  0
CIRCLE
  5
66FC
330
666C
100
AcDbEntity
  8
0
100
AcDbCircle
 10
-140.0
 20
79.99999999999997
 30
0.0
 40
2.5
  0
CIRCLE
  5
66FD
330
666C
100
AcDbEntity
  8
0
100
AcDbCircle
 10
-140.0
 20
59.99999999999997
 30
0.0
 40
2.5
  0
CIRCLE
  5
66FE
330
666C
100
AcDbEntity
  8
0
100
AcDbCircle
 10
-139.9999999999999
 20
39.99999999999997
 30
0.0
 40
2.5
  0
CIRCLE
  5
66FF
330
666C
100
AcDbEntity
  8
0
100
AcDbCircle
 10
-139.9999999999999
 20
19.99999999999997
 30
0.0
 40
2.5
  0
CIRCLE
  5
6700
330
666C
100
AcDbEntity
  8
0
100
AcDbCircle
 10
-139.9999999999999
 20
-0.0000000000000311
 30
0.0
 40
2.5
  0
CIRCLE
  5
6701
330
666C
100
AcDbEntity
  8
0
100
AcDbCircle
 10
-139.9999999999999
 20
-20.00000000000003
 30
0.0
 40
2.5
  0
CIRCLE
  5
6702
330
666C
100
AcDbEntity
  8
0
100
AcDbCircle
 10
-139.9999999999999
 20
-40.00000000000002
 30
0.0
 40
2.5
  0
CIRCLE
  5
6703
330
666C
100
AcDbEntity
  8
0
100
AcDbCircle
 10
-139.9999999999999
 20
-60.00000000000003
 30
0.0
 40
2.5
  0
CIRCLE
  5
6704
330
666C
100
AcDbEntity
  8
0
100
AcDbCircle
 10
-139.9999999999999
 20
-80.00000000000003
 30
0.0
 40
2.5
  0
CIRCLE
  5
6705
330
666C
100
AcDbEntity
  8
0
100
AcDbCircle
 10
140.0
 20
-99.99999999999998
 30
0.0
 40
2.5
  0
CIRCLE
  5
6706
330
666C
100
AcDbEntity
  8
0
100
AcDbCircle
 10
100.0
 20
-100.0
 30
0.0
 40
2.5
  0
CIRCLE
  5
6707
330
666C
100
AcDbEntity
  8
0
100
AcDbCircle
 10
60.00000000000003
 20
-100.0
 30
0.0
 40
2.5
  0
CIRCLE
  5
6708
330
666C
100
AcDbEntity
  8
0
100
AcDbCircle
 10
20.00000000000004
 20
-100.0
 30
0.0
 40
2.5
  0
CIRCLE
  5
6709
330
666C
100
AcDbEntity
  8
0
100
AcDbCircle
 10
-19.99999999999996
 20
-100.0
 30
0.0
 40
2.5
  0
CIRCLE
  5
670A
330
666C
100
AcDbEntity
  8
0
100
AcDbCircle
 10
-59.99999999999996
 20
-100.0
 30
0.0
 40
2.5
  0
CIRCLE
  5
670B
330
666C
100
AcDbEntity
  8
0
100
AcDbCircle
 10
-99.99999999999998
 20
-100.0
 30
0.0
 40
2.5
  0
CIRCLE
  5
670C
330
666C
100
AcDbEntity
  8
0
100
AcDbCircle
 10
-139.9999999999999
 20
-100.0
 30
0.0
 40
2.5
  0
LINE
  5
670D
330
666C
100
AcDbEntity
  8
0
100
AcDbLine
 10
150.0
 20
-109.9999999999999
 30
0.0
 11
150.0
 21
110.0
 31
0.0
  0
LINE
  5
670E
330
666C
100
AcDbEntity
  8
0
100
AcDbLine
 10
-149.9999999999999
 20
-110.0
 30
0.0
 11
150.0
 21
-109.9999999999999
 31
0.0
  0
LINE
  5
670F
330
666C
100
AcDbEntity
  8
0
100
AcDbLine
 10
-150.0
 20
109.9999999999999
 30
0.0
 11
-149.9999999999999
 21
-110.0
 31
0.0
  0
LINE
  5
6710
330
666C
100
AcDbEntity
  8
0
100
AcDbLine
 10
150.0
 20
110.0
 30
0.0
 11
-150.0
 21
109.9999999999999
 31
0.0
  0
ENDBLK
  5
666E
330
666C
100
AcDbEntity
  8
0
100
AcDbBlockEnd
  0
BLOCK
  5
6712
330
6711
100
AcDbEntity
  8
0
100
AcDbBlockBegin
  2
NP15_220_300-Bottom
 70
     0
 10
0.0
 20
0.0
 30
0.0
  3
NP15_220_300-Bottom
  1

  0
CIRCLE
  5
6714
330
6711
100
AcDbEntity
  8
0
100
AcDbCircle
 10
120.0
 20
-90.00000000000001
 30
0.0
 40
2.5
  0
CIRCLE
  5
6715
330
6711
100
AcDbEntity
  8
0
100
AcDbCircle
 10
80.0
 20
-90.00000000000001
 30
0.0
 40
2.5
  0
CIRCLE
  5
6716
330
6711
100
AcDbEntity
  8
0
100
AcDbCircle
 10
40.0
 20
-90.0
 30
0.0
 40
2.5
  0
CIRCLE
  5
6717
330
6711
100
AcDbEntity
  8
0
100
AcDbCircle
 10
-0.0000000000000022
 20
-90.0
 30
0.0
 40
2.5
  0
CIRCLE
  5
6718
330
6711
100
AcDbEntity
  8
0
100
AcDbCircle
 10
-40.0
 20
-90.0
 30
0.0
 40
2.5
  0
CIRCLE
  5
6719
330
6711
100
AcDbEntity
  8
0
100
AcDbCircle
 10
-80.0
 20
-89.99999999999998
 30
0.0
 40
2.5
  0
CIRCLE
  5
671A
330
6711
100
AcDbEntity
  8
0
100
AcDbCircle
 10
120.0
 20
-70.00000000000003
 30
0.0
 40
2.5
  0
CIRCLE
  5
671B
330
6711
100
AcDbEntity
  8
0
100
AcDbCircle
 10
80.0
 20
-70.00000000000001
 30
0.0
 40
2.5
  0
CIRCLE
  5
671C
330
6711
100
AcDbEntity
  8
0
100
AcDbCircle
 10
40.0
 20
-70.00000000000001
 30
0.0
 40
2.5
  0
CIRCLE
  5
671D
330
6711
100
AcDbEntity
  8
0
100
AcDbCircle
 10
0.0000000000000022
 20
-70.0
 30
0.0
 40
2.5
  0
CIRCLE
  5
671E
330
6711
100
AcDbEntity
  8
0
100
AcDbCircle
 10
-40.0
 20
-69.99999999999999
 30
0.0
 40
2.5
  0
CIRCLE
  5
671F
330
6711
100
AcDbEntity
  8
0
100
AcDbCircle
 10
-80.0
 20
-69.99999999999999
 30
0.0
 40
2.5
  0
CIRCLE
  5
6720
330
6711
100
AcDbEntity
  8
0
100
AcDbCircle
 10
120.0
 20
-50.00000000000003
 30
0.0
 40
2.5
  0
CIRCLE
  5
6721
330
6711
100
AcDbEntity
  8
0
100
AcDbCircle
 10
80.0
 20
-50.00000000000001
 30
0.0
 40
2.5
  0
CIRCLE
  5
6722
330
6711
100
AcDbEntity
  8
0
100
AcDbCircle
 10
40.0
 20
-50.0
 30
0.0
 40
2.5
  0
CIRCLE
  5
6723
330
6711
100
AcDbEntity
  8
0
100
AcDbCircle
 10
0.0000000000000067
 20
-50.0
 30
0.0
 40
2.5
  0
CIRCLE
  5
6724
330
6711
100
AcDbEntity
  8
0
100
AcDbCircle
 10
-40.0
 20
-50.0
 30
0.0
 40
2.5
  0
CIRCLE
  5
6725
330
6711
100
AcDbEntity
  8
0
100
AcDbCircle
 10
-79.99999999999999
 20
-49.99999999999999
 30
0.0
 40
2.5
  0
CIRCLE
  5
6726
330
6711
100
AcDbEntity
  8
0
100
AcDbCircle
 10
120.0
 20
-30.00000000000003
 30
0.0
 40
2.5
  0
CIRCLE
  5
6727
330
6711
100
AcDbEntity
  8
0
100
AcDbCircle
 10
80.00000000000001
 20
-30.00000000000002
 30
0.0
 40
2.5
  0
CIRCLE
  5
6728
330
6711
100
AcDbEntity
  8
0
100
AcDbCircle
 10
40.0
 20
-30.00000000000001
 30
0.0
 40
2.5
  0
CIRCLE
  5
6729
330
6711
100
AcDbEntity
  8
0
100
AcDbCircle
 10
0.0000000000000111
 20
-30.0
 30
0.0
 40
2.5
  0
CIRCLE
  5
672A
330
6711
100
AcDbEntity
  8
0
100
AcDbCircle
 10
-39.99999999999999
 20
-30.0
 30
0.0
 40
2.5
  0
CIRCLE
  5
672B
330
6711
100
AcDbEntity
  8
0
100
AcDbCircle
 10
-79.99999999999999
 20
-29.99999999999998
 30
0.0
 40
2.5
  0
CIRCLE
  5
672C
330
6711
100
AcDbEntity
  8
0
100
AcDbCircle
 10
120.0
 20
-10.00000000000002
 30
0.0
 40
2.5
  0
CIRCLE
  5
672D
330
6711
100
AcDbEntity
  8
0
100
AcDbCircle
 10
80.00000000000001
 20
-10.00000000000001
 30
0.0
 40
2.5
  0
CIRCLE
  5
672E
330
6711
100
AcDbEntity
  8
0
100
AcDbCircle
 10
40.00000000000001
 20
-10.00000000000001
 30
0.0
 40
2.5
  0
CIRCLE
  5
672F
330
6711
100
AcDbEntity
  8
0
100
AcDbCircle
 10
0.0000000000000155
 20
-10.0
 30
0.0
 40
2.5
  0
CIRCLE
  5
6730
330
6711
100
AcDbEntity
  8
0
100
AcDbCircle
 10
-39.99999999999999
 20
-9.999999999999991
 30
0.0
 40
2.5
  0
CIRCLE
  5
6731
330
6711
100
AcDbEntity
  8
0
100
AcDbCircle
 10
-79.99999999999999
 20
-9.999999999999982
 30
0.0
 40
2.5
  0
CIRCLE
  5
6732
330
6711
100
AcDbEntity
  8
0
100
AcDbCircle
 10
120.0
 20
9.999999999999973
 30
0.0
 40
2.5
  0
CIRCLE
  5
6733
330
6711
100
AcDbEntity
  8
0
100
AcDbCircle
 10
80.00000000000001
 20
9.999999999999982
 30
0.0
 40
2.5
  0
CIRCLE
  5
6734
330
6711
100
AcDbEntity
  8
0
100
AcDbCircle
 10
40.00000000000001
 20
9.999999999999991
 30
0.0
 40
2.5
  0
CIRCLE
  5
6735
330
6711
100
AcDbEntity
  8
0
100
AcDbCircle
 10
0.00000000000002
 20
10.0
 30
0.0
 40
2.5
  0
CIRCLE
  5
6736
330
6711
100
AcDbEntity
  8
0
100
AcDbCircle
 10
-39.99999999999999
 20
10.00000000000001
 30
0.0
 40
2.5
  0
CIRCLE
  5
6737
330
6711
100
AcDbEntity
  8
0
100
AcDbCircle
 10
-79.99999999999999
 20
10.00000000000001
 30
0.0
 40
2.5
  0
CIRCLE
  5
6738
330
6711
100
AcDbEntity
  8
0
100
AcDbCircle
 10
120.0
 20
29.99999999999997
 30
0.0
 40
2.5
  0
CIRCLE
  5
6739
330
6711
100
AcDbEntity
  8
0
100
AcDbCircle
 10
80.00000000000001
 20
29.99999999999998
 30
0.0
 40
2.5
  0
CIRCLE
  5
673A
330
6711
100
AcDbEntity
  8
0
100
AcDbCircle
 10
40.00000000000002
 20
30.0
 30
0.0
 40
2.5
  0
CIRCLE
  5
673B
330
6711
100
AcDbEntity
  8
0
100
AcDbCircle
 10
0.0000000000000244
 20
30.0
 30
0.0
 40
2.5
  0
CIRCLE
  5
673C
330
6711
100
AcDbEntity
  8
0
100
AcDbCircle
 10
-39.99999999999998
 20
30.00000000000001
 30
0.0
 40
2.5
  0
CIRCLE
  5
673D
330
6711
100
AcDbEntity
  8
0
100
AcDbCircle
 10
-79.99999999999997
 20
30.00000000000002
 30
0.0
 40
2.5
  0
CIRCLE
  5
673E
330
6711
100
AcDbEntity
  8
0
100
AcDbCircle
 10
120.0
 20
49.99999999999997
 30
0.0
 40
2.5
  0
CIRCLE
  5
673F
330
6711
100
AcDbEntity
  8
0
100
AcDbCircle
 10
80.00000000000003
 20
49.99999999999999
 30
0.0
 40
2.5
  0
CIRCLE
  5
6740
330
6711
100
AcDbEntity
  8
0
100
AcDbCircle
 10
40.00000000000002
 20
50.0
 30
0.0
 40
2.5
  0
CIRCLE
  5
6741
330
6711
100
AcDbEntity
  8
0
100
AcDbCircle
 10
0.0000000000000289
 20
50.0
 30
0.0
 40
2.5
  0
CIRCLE
  5
6742
330
6711
100
AcDbEntity
  8
0
100
AcDbCircle
 10
-39.99999999999997
 20
50.0
 30
0.0
 40
2.5
  0
CIRCLE
  5
6743
330
6711
100
AcDbEntity
  8
0
100
AcDbCircle
 10
-79.99999999999997
 20
50.00000000000001
 30
0.0
 40
2.5
  0
CIRCLE
  5
6744
330
6711
100
AcDbEntity
  8
0
100
AcDbCircle
 10
120.0
 20
69.99999999999997
 30
0.0
 40
2.5
  0
CIRCLE
  5
6745
330
6711
100
AcDbEntity
  8
0
100
AcDbCircle
 10
80.00000000000003
 20
69.99999999999999
 30
0.0
 40
2.5
  0
CIRCLE
  5
6746
330
6711
100
AcDbEntity
  8
0
100
AcDbCircle
 10
40.00000000000003
 20
69.99999999999999
 30
0.0
 40
2.5
  0
CIRCLE
  5
6747
330
6711
100
AcDbEntity
  8
0
100
AcDbCircle
 10
0.0000000000000333
 20
70.0
 30
0.0
 40
2.5
  0
CIRCLE
  5
6748
330
6711
100
AcDbEntity
  8
0
100
AcDbCircle
 10
-39.99999999999997
 20
70.00000000000001
 30
0.0
 40
2.5
  0
CIRCLE
  5
6749
330
6711
100
AcDbEntity
  8
0
100
AcDbCircle
 10
-79.99999999999997
 20
70.00000000000001
 30
0.0
 40
2.5
  0
CIRCLE
  5
674A
330
6711
100
AcDbEntity
  8
0
100
AcDbCircle
 10
-120.0
 20
-89.99999999999998
 30
0.0
 40
2.5
  0
CIRCLE
  5
674B
330
6711
100
AcDbEntity
  8
0
100
AcDbCircle
 10
-120.0
 20
-69.99999999999997
 30
0.0
 40
2.5
  0
CIRCLE
  5
674C
330
6711
100
AcDbEntity
  8
0
100
AcDbCircle
 10
-120.0
 20
-49.99999999999997
 30
0.0
 40
2.5
  0
CIRCLE
  5
674D
330
6711
100
AcDbEntity
  8
0
100
AcDbCircle
 10
-120.0
 20
-29.99999999999997
 30
0.0
 40
2.5
  0
CIRCLE
  5
674E
330
6711
100
AcDbEntity
  8
0
100
AcDbCircle
 10
-120.0
 20
-9.999999999999973
 30
0.0
 40
2.5
  0
CIRCLE
  5
674F
330
6711
100
AcDbEntity
  8
0
100
AcDbCircle
 10
-120.0
 20
10.00000000000002
 30
0.0
 40
2.5
  0
CIRCLE
  5
6750
330
6711
100
AcDbEntity
  8
0
100
AcDbCircle
 10
-120.0
 20
30.00000000000003
 30
0.0
 40
2.5
  0
CIRCLE
  5
6751
330
6711
100
AcDbEntity
  8
0
100
AcDbCircle
 10
-119.9999999999999
 20
50.00000000000003
 30
0.0
 40
2.5
  0
CIRCLE
  5
6752
330
6711
100
AcDbEntity
  8
0
100
AcDbCircle
 10
-119.9999999999999
 20
70.00000000000003
 30
0.0
 40
2.5
  0
CIRCLE
  5
6753
330
6711
100
AcDbEntity
  8
0
100
AcDbCircle
 10
120.0
 20
89.99999999999998
 30
0.0
 40
2.5
  0
CIRCLE
  5
6754
330
6711
100
AcDbEntity
  8
0
100
AcDbCircle
 10
80.00000000000003
 20
89.99999999999998
 30
0.0
 40
2.5
  0
CIRCLE
  5
6755
330
6711
100
AcDbEntity
  8
0
100
AcDbCircle
 10
40.00000000000003
 20
90.0
 30
0.0
 40
2.5
  0
CIRCLE
  5
6756
330
6711
100
AcDbEntity
  8
0
100
AcDbCircle
 10
0.0000000000000377
 20
90.0
 30
0.0
 40
2.5
  0
CIRCLE
  5
6757
330
6711
100
AcDbEntity
  8
0
100
AcDbCircle
 10
-39.99999999999996
 20
90.0
 30
0.0
 40
2.5
  0
CIRCLE
  5
6758
330
6711
100
AcDbEntity
  8
0
100
AcDbCircle
 10
-79.99999999999997
 20
90.00000000000001
 30
0.0
 40
2.5
  0
CIRCLE
  5
6759
330
6711
100
AcDbEntity
  8
0
100
AcDbCircle
 10
-119.9999999999999
 20
90.00000000000001
 30
0.0
 40
2.5
  0
CIRCLE
  5
675A
330
6711
100
AcDbEntity
  8
0
100
AcDbCircle
 10
140.0
 20
-100.0
 30
0.0
 40
2.5
  0
CIRCLE
  5
675B
330
6711
100
AcDbEntity
  8
0
100
AcDbCircle
 10
100.0
 20
-100.0
 30
0.0
 40
2.5
  0
CIRCLE
  5
675C
330
6711
100
AcDbEntity
  8
0
100
AcDbCircle
 10
60.0
 20
-100.0
 30
0.0
 40
2.5
  0
CIRCLE
  5
675D
330
6711
100
AcDbEntity
  8
0
100
AcDbCircle
 10
20.0
 20
-100.0
 30
0.0
 40
2.5
  0
CIRCLE
  5
675E
330
6711
100
AcDbEntity
  8
0
100
AcDbCircle
 10
-20.0
 20
-100.0
 30
0.0
 40
2.5
  0
CIRCLE
  5
675F
330
6711
100
AcDbEntity
  8
0
100
AcDbCircle
 10
-60.0
 20
-100.0
 30
0.0
 40
2.5
  0
CIRCLE
  5
6760
330
6711
100
AcDbEntity
  8
0
100
AcDbCircle
 10
-100.0
 20
-100.0
 30
0.0
 40
2.5
  0
CIRCLE
  5
6761
330
6711
100
AcDbEntity
  8
0
100
AcDbCircle
 10
140.0
 20
-80.00000000000003
 30
0.0
 40
2.5
  0
CIRCLE
  5
6762
330
6711
100
AcDbEntity
  8
0
100
AcDbCircle
 10
100.0
 20
-80.00000000000001
 30
0.0
 40
2.5
  0
CIRCLE
  5
6763
330
6711
100
AcDbEntity
  8
0
100
AcDbCircle
 10
60.0
 20
-80.00000000000001
 30
0.0
 40
2.5
  0
CIRCLE
  5
6764
330
6711
100
AcDbEntity
  8
0
100
AcDbCircle
 10
20.0
 20
-80.0
 30
0.0
 40
2.5
  0
CIRCLE
  5
6765
330
6711
100
AcDbEntity
  8
0
100
AcDbCircle
 10
-20.0
 20
-80.0
 30
0.0
 40
2.5
  0
CIRCLE
  5
6766
330
6711
100
AcDbEntity
  8
0
100
AcDbCircle
 10
-60.0
 20
-79.99999999999999
 30
0.0
 40
2.5
  0
CIRCLE
  5
6767
330
6711
100
AcDbEntity
  8
0
100
AcDbCircle
 10
-100.0
 20
-79.99999999999999
 30
0.0
 40
2.5
  0
CIRCLE
  5
6768
330
6711
100
AcDbEntity
  8
0
100
AcDbCircle
 10
140.0
 20
-60.00000000000003
 30
0.0
 40
2.5
  0
CIRCLE
  5
6769
330
6711
100
AcDbEntity
  8
0
100
AcDbCircle
 10
100.0
 20
-60.00000000000001
 30
0.0
 40
2.5
  0
CIRCLE
  5
676A
330
6711
100
AcDbEntity
  8
0
100
AcDbCircle
 10
60.0
 20
-60.0
 30
0.0
 40
2.5
  0
CIRCLE
  5
676B
330
6711
100
AcDbEntity
  8
0
100
AcDbCircle
 10
20.0
 20
-60.0
 30
0.0
 40
2.5
  0
CIRCLE
  5
676C
330
6711
100
AcDbEntity
  8
0
100
AcDbCircle
 10
-20.0
 20
-60.0
 30
0.0
 40
2.5
  0
CIRCLE
  5
676D
330
6711
100
AcDbEntity
  8
0
100
AcDbCircle
 10
-60.0
 20
-60.0
 30
0.0
 40
2.5
  0
CIRCLE
  5
676E
330
6711
100
AcDbEntity
  8
0
100
AcDbCircle
 10
-100.0
 20
-59.99999999999999
 30
0.0
 40
2.5
  0
CIRCLE
  5
676F
330
6711
100
AcDbEntity
  8
0
100
AcDbCircle
 10
140.0
 20
-40.00000000000002
 30
0.0
 40
2.5
  0
CIRCLE
  5
6770
330
6711
100
AcDbEntity
  8
0
100
AcDbCircle
 10
100.0
 20
-40.00000000000001
 30
0.0
 40
2.5
  0
CIRCLE
  5
6771
330
6711
100
AcDbEntity
  8
0
100
AcDbCircle
 10
60.0
 20
-40.0
 30
0.0
 40
2.5
  0
CIRCLE
  5
6772
330
6711
100
AcDbEntity
  8
0
100
AcDbCircle
 10
20.00000000000001
 20
-40.0
 30
0.0
 40
2.5
  0
CIRCLE
  5
6773
330
6711
100
AcDbEntity
  8
0
100
AcDbCircle
 10
-19.99999999999999
 20
-40.0
 30
0.0
 40
2.5
  0
CIRCLE
  5
6774
330
6711
100
AcDbEntity
  8
0
100
AcDbCircle
 10
-60.0
 20
-39.99999999999999
 30
0.0
 40
2.5
  0
CIRCLE
  5
6775
330
6711
100
AcDbEntity
  8
0
100
AcDbCircle
 10
-100.0
 20
-39.99999999999998
 30
0.0
 40
2.5
  0
CIRCLE
  5
6776
330
6711
100
AcDbEntity
  8
0
100
AcDbCircle
 10
140.0
 20
-20.00000000000003
 30
0.0
 40
2.5
  0
CIRCLE
  5
6777
330
6711
100
AcDbEntity
  8
0
100
AcDbCircle
 10
100.0
 20
-20.00000000000002
 30
0.0
 40
2.5
  0
CIRCLE
  5
6778
330
6711
100
AcDbEntity
  8
0
100
AcDbCircle
 10
60.00000000000001
 20
-20.00000000000001
 30
0.0
 40
2.5
  0
CIRCLE
  5
6779
330
6711
100
AcDbEntity
  8
0
100
AcDbCircle
 10
20.00000000000001
 20
-20.0
 30
0.0
 40
2.5
  0
CIRCLE
  5
677A
330
6711
100
AcDbEntity
  8
0
100
AcDbCircle
 10
-19.99999999999998
 20
-20.0
 30
0.0
 40
2.5
  0
CIRCLE
  5
677B
330
6711
100
AcDbEntity
  8
0
100
AcDbCircle
 10
-59.99999999999999
 20
-19.99999999999998
 30
0.0
 40
2.5
  0
CIRCLE
  5
677C
330
6711
100
AcDbEntity
  8
0
100
AcDbCircle
 10
-100.0
 20
-19.99999999999998
 30
0.0
 40
2.5
  0
CIRCLE
  5
677D
330
6711
100
AcDbEntity
  8
0
100
AcDbCircle
 10
140.0
 20
-0.0000000000000311
 30
0.0
 40
2.5
  0
CIRCLE
  5
677E
330
6711
100
AcDbEntity
  8
0
100
AcDbCircle
 10
100.0
 20
-0.0000000000000222
 30
0.0
 40
2.5
  0
CIRCLE
  5
677F
330
6711
100
AcDbEntity
  8
0
100
AcDbCircle
 10
60.00000000000001
 20
-0.0000000000000133
 30
0.0
 40
2.5
  0
CIRCLE
  5
6780
330
6711
100
AcDbEntity
  8
0
100
AcDbCircle
 10
20.00000000000002
 20
-0.0000000000000044
 30
0.0
 40
2.5
  0
CIRCLE
  5
6781
330
6711
100
AcDbEntity
  8
0
100
AcDbCircle
 10
-19.99999999999998
 20
0.0000000000000044
 30
0.0
 40
2.5
  0
CIRCLE
  5
6782
330
6711
100
AcDbEntity
  8
0
100
AcDbCircle
 10
-59.99999999999999
 20
0.0000000000000133
 30
0.0
 40
2.5
  0
CIRCLE
  5
6783
330
6711
100
AcDbEntity
  8
0
100
AcDbCircle
 10
-100.0
 20
0.0000000000000222
 30
0.0
 40
2.5
  0
CIRCLE
  5
6784
330
6711
100
AcDbEntity
  8
0
100
AcDbCircle
 10
140.0
 20
19.99999999999997
 30
0.0
 40
2.5
  0
CIRCLE
  5
6785
330
6711
100
AcDbEntity
  8
0
100
AcDbCircle
 10
100.0
 20
19.99999999999998
 30
0.0
 40
2.5
  0
CIRCLE
  5
6786
330
6711
100
AcDbEntity
  8
0
100
AcDbCircle
 10
60.00000000000001
 20
19.99999999999998
 30
0.0
 40
2.5
  0
CIRCLE
  5
6787
330
6711
100
AcDbEntity
  8
0
100
AcDbCircle
 10
20.00000000000002
 20
20.0
 30
0.0
 40
2.5
  0
CIRCLE
  5
6788
330
6711
100
AcDbEntity
  8
0
100
AcDbCircle
 10
-19.99999999999998
 20
20.0
 30
0.0
 40
2.5
  0
CIRCLE
  5
6789
330
6711
100
AcDbEntity
  8
0
100
AcDbCircle
 10
-59.99999999999999
 20
20.00000000000001
 30
0.0
 40
2.5
  0
CIRCLE
  5
678A
330
6711
100
AcDbEntity
  8
0
100
AcDbCircle
 10
-100.0
 20
20.00000000000002
 30
0.0
 40
2.5
  0
CIRCLE
  5
678B
330
6711
100
AcDbEntity
  8
0
100
AcDbCircle
 10
140.0
 20
39.99999999999997
 30
0.0
 40
2.5
  0
CIRCLE
  5
678C
330
6711
100
AcDbEntity
  8
0
100
AcDbCircle
 10
100.0
 20
39.99999999999998
 30
0.0
 40
2.5
  0
CIRCLE
  5
678D
330
6711
100
AcDbEntity
  8
0
100
AcDbCircle
 10
60.00000000000003
 20
39.99999999999999
 30
0.0
 40
2.5
  0
CIRCLE
  5
678E
330
6711
100
AcDbEntity
  8
0
100
AcDbCircle
 10
20.00000000000003
 20
40.0
 30
0.0
 40
2.5
  0
CIRCLE
  5
678F
330
6711
100
AcDbEntity
  8
0
100
AcDbCircle
 10
-19.99999999999997
 20
40.0
 30
0.0
 40
2.5
  0
CIRCLE
  5
6790
330
6711
100
AcDbEntity
  8
0
100
AcDbCircle
 10
-59.99999999999997
 20
40.0
 30
0.0
 40
2.5
  0
CIRCLE
  5
6791
330
6711
100
AcDbEntity
  8
0
100
AcDbCircle
 10
-100.0
 20
40.00000000000001
 30
0.0
 40
2.5
  0
CIRCLE
  5
6792
330
6711
100
AcDbEntity
  8
0
100
AcDbCircle
 10
140.0
 20
59.99999999999997
 30
0.0
 40
2.5
  0
CIRCLE
  5
6793
330
6711
100
AcDbEntity
  8
0
100
AcDbCircle
 10
100.0
 20
59.99999999999999
 30
0.0
 40
2.5
  0
CIRCLE
  5
6794
330
6711
100
AcDbEntity
  8
0
100
AcDbCircle
 10
60.00000000000003
 20
60.0
 30
0.0
 40
2.5
  0
CIRCLE
  5
6795
330
6711
100
AcDbEntity
  8
0
100
AcDbCircle
 10
20.00000000000003
 20
60.0
 30
0.0
 40
2.5
  0
CIRCLE
  5
6796
330
6711
100
AcDbEntity
  8
0
100
AcDbCircle
 10
-19.99999999999997
 20
60.0
 30
0.0
 40
2.5
  0
CIRCLE
  5
6797
330
6711
100
AcDbEntity
  8
0
100
AcDbCircle
 10
-59.99999999999997
 20
60.0
 30
0.0
 40
2.5
  0
CIRCLE
  5
6798
330
6711
100
AcDbEntity
  8
0
100
AcDbCircle
 10
-99.99999999999998
 20
60.00000000000001
 30
0.0
 40
2.5
  0
CIRCLE
  5
6799
330
6711
100
AcDbEntity
  8
0
100
AcDbCircle
 10
140.0
 20
79.99999999999997
 30
0.0
 40
2.5
  0
CIRCLE
  5
679A
330
6711
100
AcDbEntity
  8
0
100
AcDbCircle
 10
100.0
 20
79.99999999999999
 30
0.0
 40
2.5
  0
CIRCLE
  5
679B
330
6711
100
AcDbEntity
  8
0
100
AcDbCircle
 10
60.00000000000003
 20
79.99999999999999
 30
0.0
 40
2.5
  0
CIRCLE
  5
679C
330
6711
100
AcDbEntity
  8
0
100
AcDbCircle
 10
20.00000000000003
 20
80.0
 30
0.0
 40
2.5
  0
CIRCLE
  5
679D
330
6711
100
AcDbEntity
  8
0
100
AcDbCircle
 10
-19.99999999999996
 20
80.0
 30
0.0
 40
2.5
  0
CIRCLE
  5
679E
330
6711
100
AcDbEntity
  8
0
100
AcDbCircle
 10
-59.99999999999996
 20
80.00000000000001
 30
0.0
 40
2.5
  0
CIRCLE
  5
679F
330
6711
100
AcDbEntity
  8
0
100
AcDbCircle
 10
-99.99999999999998
 20
80.00000000000001
 30
0.0
 40
2.5
  0
CIRCLE
  5
67A0
330
6711
100
AcDbEntity
  8
0
100
AcDbCircle
 10
-140.0
 20
-99.99999999999998
 30
0.0
 40
2.5
  0
CIRCLE
  5
67A1
330
6711
100
AcDbEntity
  8
0
100
AcDbCircle
 10
-140.0
 20
-79.99999999999997
 30
0.0
 40
2.5
  0
CIRCLE
  5
67A2
330
6711
100
AcDbEntity
  8
0
100
AcDbCircle
 10
-140.0
 20
-59.99999999999997
 30
0.0
 40
2.5
  0
CIRCLE
  5
67A3
330
6711
100
AcDbEntity
  8
0
100
AcDbCircle
 10
-139.9999999999999
 20
-39.99999999999997
 30
0.0
 40
2.5
  0
CIRCLE
  5
67A4
330
6711
100
AcDbEntity
  8
0
100
AcDbCircle
 10
-139.9999999999999
 20
-19.99999999999997
 30
0.0
 40
2.5
  0
CIRCLE
  5
67A5
330
6711
100
AcDbEntity
  8
0
100
AcDbCircle
 10
-139.9999999999999
 20
0.0000000000000311
 30
0.0
 40
2.5
  0
CIRCLE
  5
67A6
330
6711
100
AcDbEntity
  8
0
100
AcDbCircle
 10
-139.9999999999999
 20
20.00000000000003
 30
0.0
 40
2.5
  0
CIRCLE
  5
67A7
330
6711
100
AcDbEntity
  8
0
100
AcDbCircle
 10
-139.9999999999999
 20
40.00000000000002
 30
0.0
 40
2.5
  0
CIRCLE
  5
67A8
330
6711
100
AcDbEntity
  8
0
100
AcDbCircle
 10
-139.9999999999999
 20
60.00000000000003
 30
0.0
 40
2.5
  0
CIRCLE
  5
67A9
330
6711
100
AcDbEntity
  8
0
100
AcDbCircle
 10
-139.9999999999999
 20
80.00000000000003
 30
0.0
 40
2.5
  0
CIRCLE
  5
67AA
330
6711
100
AcDbEntity
  8
0
100
AcDbCircle
 10
140.0
 20
99.99999999999998
 30
0.0
 40
2.5
  0
CIRCLE
  5
67AB
330
6711
100
AcDbEntity
  8
0
100
AcDbCircle
 10
100.0
 20
100.0
 30
0.0
 40
2.5
  0
CIRCLE
  5
67AC
330
6711
100
AcDbEntity
  8
0
100
AcDbCircle
 10
60.00000000000003
 20
100.0
 30
0.0
 40
2.5
  0
CIRCLE
  5
67AD
330
6711
100
AcDbEntity
  8
0
100
AcDbCircle
 10
20.00000000000004
 20
100.0
 30
0.0
 40
2.5
  0
CIRCLE
  5
67AE
330
6711
100
AcDbEntity
  8
0
100
AcDbCircle
 10
-19.99999999999996
 20
100.0
 30
0.0
 40
2.5
  0
CIRCLE
  5
67AF
330
6711
100
AcDbEntity
  8
0
100
AcDbCircle
 10
-59.99999999999996
 20
100.0
 30
0.0
 40
2.5
  0
CIRCLE
  5
67B0
330
6711
100
AcDbEntity
  8
0
100
AcDbCircle
 10
-99.99999999999998
 20
100.0
 30
0.0
 40
2.5
  0
CIRCLE
  5
67B1
330
6711
100
AcDbEntity
  8
0
100
AcDbCircle
 10
-139.9999999999999
 20
100.0
 30
0.0
 40
2.5
  0
LINE
  5
67B2
330
6711
100
AcDbEntity
  8
0
100
AcDbLine
 10
150.0
 20
-110.0
 30
0.0
 11
150.0
 21
109.9999999999999
 31
0.0
  0
LINE
  5
67B3
330
6711
100
AcDbEntity
  8
0
100
AcDbLine
 10
150.0
 20
109.9999999999999
 30
0.0
 11
-149.9999999999999
 21
110.0
 31
0.0
  0
LINE
  5
67B4
330
6711
100
AcDbEntity
  8
0
100
AcDbLine
 10
-149.9999999999999
 20
110.0
 30
0.0
 11
-150.0
 21
-109.9999999999999
 31
0.0
  0
LINE
  5
67B5
330
6711
100
AcDbEntity
  8
0
100
AcDbLine
 10
-150.0
 20
-109.9999999999999
 30
0.0
 11
150.0
 21
-110.0
 31
0.0
  0
ENDBLK
  5
6713
330
6711
100
AcDbEntity
  8
0
100
AcDbBlockEnd
  0
BLOCK
  5
67B7
330
67B6
100
AcDbEntity
  8
0
100
AcDbBlockBegin
  2
NP15_220_300-ISO
 70
     0
 10
0.0
 20
0.0
 30
0.0
  3
NP15_220_300-ISO
  1

  0
ELLIPSE
  5
67B9
330
67B6
100
AcDbEntity
  8
0
100
AcDbEllipse
 10
148.492424049175
 20
-11.63507627822008
 30
0.0
 11
-2.5
 21
0.0000000000001489
 31
0.0
210
0.0
220
0.0
230
1.0
 40
0.577350269189626
 41
0.0
 42
6.283185307179586
  0
ELLIPSE
  5
67BA
330
67B6
100
AcDbEntity
  8
0
100
AcDbEllipse
 10
148.492424049175
 20
-12.85982114961167
 30
0.0
 11
-2.5
 21
-0.0000000000001493
 31
0.0
210
0.0
220
0.0
230
1.0
 40
0.577350269189626
 41
3.579741684173546
 42
5.845036276594997
  0
ELLIPSE
  5
67BB
330
67B6
100
AcDbEntity
  8
0
100
AcDbEllipse
 10
120.208152801713
 20
4.694855340334436
 30
0.0
 11
-2.5
 21
0.0000000000001489
 31
0.0
210
0.0
220
0.0
230
1.0
 40
0.577350269189626
 41
0.0
 42
6.283185307179586
  0
ELLIPSE
  5
67BC
330
67B6
100
AcDbEntity
  8
0
100
AcDbEllipse
 10
120.208152801713
 20
3.470110468942846
 30
0.0
 11
-2.5
 21
-0.0000000000001493
 31
0.0
210
0.0
220
0.0
230
1.0
 40
0.577350269189626
 41
3.579741684173546
 42
5.845036276594997
  0
ELLIPSE
  5
67BD
330
67B6
100
AcDbEntity
  8
0
100
AcDbEllipse
 10
91.92388155425119
 20
21.02478695888895
 30
0.0
 11
-2.5
 21
0.0000000000001489
 31
0.0
210
0.0
220
0.0
230
1.0
 40
0.577350269189626
 41
0.0
 42
6.283185307179586
  0
ELLIPSE
  5
67BE
330
67B6
100
AcDbEntity
  8
0
100
AcDbEllipse
 10
91.92388155425119
 20
19.80004208749736
 30
0.0
 11
-2.5
 21
-0.0000000000001489
 31
0.0
210
0.0
220
0.0
230
1.0
 40
0.577350269189626
 41
3.579741684173542
 42
5.845036276594997
  0
ELLIPSE
  5
67BF
330
67B6
100
AcDbEntity
  8
0
100
AcDbEllipse
 10
63.63961030678928
 20
37.35471857744348
 30
0.0
 11
-2.5
 21
0.0000000000001489
 31
0.0
210
0.0
220
0.0
230
1.0
 40
0.577350269189626
 41
0.0
 42
6.283185307179586
  0
ELLIPSE
  5
67C0
330
67B6
100
AcDbEntity
  8
0
100
AcDbEllipse
 10
63.63961030678928
 20
36.12997370605189
 30
0.0
 11
-2.5
 21
-0.0000000000001492
 31
0.0
210
0.0
220
0.0
230
1.0
 40
0.5773502691896259
 41
3.579741684173542
 42
5.845036276594996
  0
ELLIPSE
  5
67C1
330
67B6
100
AcDbEntity
  8
0
100
AcDbEllipse
 10
35.35533905932737
 20
53.68465019599799
 30
0.0
 11
-2.5
 21
0.0000000000001489
 31
0.0
210
0.0
220
0.0
230
1.0
 40
0.577350269189626
 41
0.0
 42
6.283185307179586
  0
ELLIPSE
  5
67C2
330
67B6
100
AcDbEntity
  8
0
100
AcDbEllipse
 10
35.35533905932737
 20
52.45990532460641
 30
0.0
 11
-2.5
 21
-0.0000000000001497
 31
0.0
210
0.0
220
0.0
230
1.0
 40
0.5773502691896257
 41
3.579741684173542
 42
5.845036276594996
  0
ELLIPSE
  5
67C3
330
67B6
100
AcDbEntity
  8
0
100
AcDbEllipse
 10
7.071067811865457
 20
70.01458181455252
 30
0.0
 11
-2.5
 21
0.0000000000001489
 31
0.0
210
0.0
220
0.0
230
1.0
 40
0.577350269189626
 41
0.0
 42
6.283185307179586
  0
ELLIPSE
  5
67C4
330
67B6
100
AcDbEntity
  8
0
100
AcDbEllipse
 10
7.071067811865457
 20
68.78983694316092
 30
0.0
 11
-2.5
 21
-0.0000000000001489
 31
0.0
210
0.0
220
0.0
230
1.0
 40
0.577350269189626
 41
3.579741684173542
 42
5.845036276594997
  0
ELLIPSE
  5
67C5
330
67B6
100
AcDbEntity
  8
0
100
AcDbEllipse
 10
134.350288425444
 20
-19.80004208749734
 30
0.0
 11
-2.5
 21
0.0000000000001489
 31
0.0
210
0.0
220
0.0
230
1.0
 40
0.577350269189626
 41
0.0
 42
6.283185307179586
  0
ELLIPSE
  5
67C6
330
67B6
100
AcDbEntity
  8
0
100
AcDbEllipse
 10
134.350288425444
 20
-21.02478695888893
 30
0.0
 11
-2.5
 21
-0.0000000000001493
 31
0.0
210
0.0
220
0.0
230
1.0
 40
0.577350269189626
 41
3.579741684173544
 42
5.845036276594996
  0
ELLIPSE
  5
67C7
330
67B6
100
AcDbEntity
  8
0
100
AcDbEllipse
 10
106.0660171779821
 20
-3.470110468942826
 30
0.0
 11
-2.5
 21
0.0000000000001489
 31
0.0
210
0.0
220
0.0
230
1.0
 40
0.577350269189626
 41
0.0
 42
6.283185307179586
  0
ELLIPSE
  5
67C8
330
67B6
100
AcDbEntity
  8
0
100
AcDbEllipse
 10
106.0660171779821
 20
-4.694855340334416
 30
0.0
 11
-2.5
 21
-0.0000000000001493
 31
0.0
210
0.0
220
0.0
230
1.0
 40
0.577350269189626
 41
3.579741684173546
 42
5.845036276594997
  0
ELLIPSE
  5
67C9
330
67B6
100
AcDbEntity
  8
0
100
AcDbEllipse
 10
77.78174593052023
 20
12.8598211496117
 30
0.0
 11
-2.5
 21
0.0000000000001489
 31
0.0
210
0.0
220
0.0
230
1.0
 40
0.577350269189626
 41
0.0
 42
6.283185307179586
  0
ELLIPSE
  5
67CA
330
67B6
100
AcDbEntity
  8
0
100
AcDbEllipse
 10
77.78174593052023
 20
11.6350762782201
 30
0.0
 11
-2.5
 21
-0.0000000000001493
 31
0.0
210
0.0
220
0.0
230
1.0
 40
0.577350269189626
 41
3.579741684173544
 42
5.845036276594997
  0
ELLIPSE
  5
67CB
330
67B6
100
AcDbEntity
  8
0
100
AcDbEllipse
 10
49.49747468305831
 20
29.18975276816621
 30
0.0
 11
-2.5
 21
0.0000000000001489
 31
0.0
210
0.0
220
0.0
230
1.0
 40
0.577350269189626
 41
0.0
 42
6.283185307179586
  0
ELLIPSE
  5
67CC
330
67B6
100
AcDbEntity
  8
0
100
AcDbEllipse
 10
49.49747468305831
 20
27.96500789677463
 30
0.0
 11
-2.5
 21
-0.0000000000001493
 31
0.0
210
0.0
220
0.0
230
1.0
 40
0.5773502691896259
 41
3.579741684173544
 42
5.845036276594996
  0
ELLIPSE
  5
67CD
330
67B6
100
AcDbEntity
  8
0
100
AcDbEllipse
 10
21.21320343559641
 20
45.51968438672073
 30
0.0
 11
-2.5
 21
0.0000000000001489
 31
0.0
210
0.0
220
0.0
230
1.0
 40
0.577350269189626
 41
0.0
 42
6.283185307179586
  0
ELLIPSE
  5
67CE
330
67B6
100
AcDbEntity
  8
0
100
AcDbEllipse
 10
21.21320343559641
 20
44.29493951532914
 30
0.0
 11
-2.5
 21
-0.0000000000001493
 31
0.0
210
0.0
220
0.0
230
1.0
 40
0.577350269189626
 41
3.579741684173548
 42
5.845036276594997
  0
ELLIPSE
  5
67CF
330
67B6
100
AcDbEntity
  8
0
100
AcDbEllipse
 10
-7.0710678118655
 20
61.84961600527525
 30
0.0
 11
-2.5
 21
0.0000000000001489
 31
0.0
210
0.0
220
0.0
230
1.0
 40
0.577350269189626
 41
0.0
 42
6.283185307179586
  0
ELLIPSE
  5
67D0
330
67B6
100
AcDbEntity
  8
0
100
AcDbEllipse
 10
-7.0710678118655
 20
60.62487113388366
 30
0.0
 11
-2.5
 21
-0.0000000000001492
 31
0.0
210
0.0
220
0.0
230
1.0
 40
0.5773502691896259
 41
3.579741684173541
 42
5.845036276594996
  0
ELLIPSE
  5
67D1
330
67B6
100
AcDbEntity
  8
0
100
AcDbEllipse
 10
120.2081528017131
 20
-27.96500789677461
 30
0.0
 11
-2.5
 21
0.0000000000001489
 31
0.0
210
0.0
220
0.0
230
1.0
 40
0.577350269189626
 41
0.0
 42
6.283185307179586
  0
ELLIPSE
  5
67D2
330
67B6
100
AcDbEntity
  8
0
100
AcDbEllipse
 10
120.2081528017131
 20
-29.18975276816619
 30
0.0
 11
-2.5
 21
-0.0000000000001493
 31
0.0
210
0.0
220
0.0
230
1.0
 40
0.577350269189626
 41
3.579741684173544
 42
5.845036276594996
  0
ELLIPSE
  5
67D3
330
67B6
100
AcDbEntity
  8
0
100
AcDbEllipse
 10
91.92388155425119
 20
-11.63507627822009
 30
0.0
 11
-2.5
 21
0.0000000000001489
 31
0.0
210
0.0
220
0.0
230
1.0
 40
0.577350269189626
 41
0.0
 42
6.283185307179586
  0
ELLIPSE
  5
67D4
330
67B6
100
AcDbEntity
  8
0
100
AcDbEllipse
 10
91.92388155425119
 20
-12.85982114961168
 30
0.0
 11
-2.5
 21
-0.0000000000001493
 31
0.0
210
0.0
220
0.0
230
1.0
 40
0.577350269189626
 41
3.579741684173546
 42
5.845036276594997
  0
ELLIPSE
  5
67D5
330
67B6
100
AcDbEntity
  8
0
100
AcDbEllipse
 10
63.63961030678929
 20
4.694855340334433
 30
0.0
 11
-2.5
 21
0.0000000000001489
 31
0.0
210
0.0
220
0.0
230
1.0
 40
0.577350269189626
 41
0.0
 42
6.283185307179586
  0
ELLIPSE
  5
67D6
330
67B6
100
AcDbEntity
  8
0
100
AcDbEllipse
 10
63.63961030678929
 20
3.470110468942844
 30
0.0
 11
-2.5
 21
-0.0000000000001493
 31
0.0
210
0.0
220
0.0
230
1.0
 40
0.577350269189626
 41
3.579741684173544
 42
5.845036276594997
  0
ELLIPSE
  5
67D7
330
67B6
100
AcDbEntity
  8
0
100
AcDbEllipse
 10
35.35533905932737
 20
21.02478695888895
 30
0.0
 11
-2.5
 21
0.0000000000001489
 31
0.0
210
0.0
220
0.0
230
1.0
 40
0.577350269189626
 41
0.0
 42
6.283185307179586
  0
ELLIPSE
  5
67D8
330
67B6
100
AcDbEntity
  8
0
100
AcDbEllipse
 10
35.35533905932737
 20
19.80004208749736
 30
0.0
 11
-2.5
 21
-0.0000000000001493
 31
0.0
210
0.0
220
0.0
230
1.0
 40
0.5773502691896259
 41
3.579741684173548
 42
5.845036276594999
  0
ELLIPSE
  5
67D9
330
67B6
100
AcDbEntity
  8
0
100
AcDbEllipse
 10
7.071067811865466
 20
37.35471857744347
 30
0.0
 11
-2.5
 21
0.0000000000001489
 31
0.0
210
0.0
220
0.0
230
1.0
 40
0.577350269189626
 41
0.0
 42
6.283185307179586
  0
ELLIPSE
  5
67DA
330
67B6
100
AcDbEntity
  8
0
100
AcDbEllipse
 10
7.071067811865466
 20
36.12997370605189
 30
0.0
 11
-2.5
 21
-0.0000000000001493
 31
0.0
210
0.0
220
0.0
230
1.0
 40
0.577350269189626
 41
3.579741684173542
 42
5.845036276594996
  0
ELLIPSE
  5
67DB
330
67B6
100
AcDbEntity
  8
0
100
AcDbEllipse
 10
-21.21320343559645
 20
53.68465019599799
 30
0.0
 11
-2.5
 21
0.0000000000001489
 31
0.0
210
0.0
220
0.0
230
1.0
 40
0.577350269189626
 41
0.0
 42
6.283185307179586
  0
ELLIPSE
  5
67DC
330
67B6
100
AcDbEntity
  8
0
100
AcDbEllipse
 10
-21.21320343559645
 20
52.45990532460639
 30
0.0
 11
-2.5
 21
-0.0000000000001492
 31
0.0
210
0.0
220
0.0
230
1.0
 40
0.5773502691896259
 41
3.579741684173541
 42
5.845036276594997
  0
ELLIPSE
  5
67DD
330
67B6
100
AcDbEntity
  8
0
100
AcDbEllipse
 10
106.0660171779821
 20
-36.12997370605187
 30
0.0
 11
-2.5
 21
0.0000000000001489
 31
0.0
210
0.0
220
0.0
230
1.0
 40
0.577350269189626
 41
0.0
 42
6.283185307179586
  0
ELLIPSE
  5
67DE
330
67B6
100
AcDbEntity
  8
0
100
AcDbEllipse
 10
106.0660171779821
 20
-37.35471857744347
 30
0.0
 11
-2.5
 21
-0.0000000000001491
 31
0.0
210
0.0
220
0.0
230
1.0
 40
0.577350269189626
 41
3.579741684173544
 42
5.845036276594997
  0
ELLIPSE
  5
67DF
330
67B6
100
AcDbEntity
  8
0
100
AcDbEllipse
 10
77.78174593052025
 20
-19.80004208749735
 30
0.0
 11
-2.5
 21
0.0000000000001489
 31
0.0
210
0.0
220
0.0
230
1.0
 40
0.577350269189626
 41
0.0
 42
6.283185307179586
  0
ELLIPSE
  5
67E0
330
67B6
100
AcDbEntity
  8
0
100
AcDbEllipse
 10
77.78174593052025
 20
-21.02478695888895
 30
0.0
 11
-2.5
 21
-0.0000000000001491
 31
0.0
210
0.0
220
0.0
230
1.0
 40
0.577350269189626
 41
3.579741684173541
 42
5.845036276594992
  0
ELLIPSE
  5
67E1
330
67B6
100
AcDbEntity
  8
0
100
AcDbEllipse
 10
49.49747468305833
 20
-3.47011046894283
 30
0.0
 11
-2.5
 21
0.0000000000001489
 31
0.0
210
0.0
220
0.0
230
1.0
 40
0.577350269189626
 41
0.0
 42
6.283185307179586
  0
ELLIPSE
  5
67E2
330
67B6
100
AcDbEntity
  8
0
100
AcDbEllipse
 10
49.49747468305833
 20
-4.69485534033442
 30
0.0
 11
-2.5
 21
-0.0000000000001491
 31
0.0
210
0.0
220
0.0
230
1.0
 40
0.577350269189626
 41
3.579741684173544
 42
5.845036276594997
  0
ELLIPSE
  5
67E3
330
67B6
100
AcDbEntity
  8
0
100
AcDbEllipse
 10
21.21320343559642
 20
12.85982114961169
 30
0.0
 11
-2.5
 21
0.0000000000001489
 31
0.0
210
0.0
220
0.0
230
1.0
 40
0.577350269189626
 41
0.0
 42
6.283185307179586
  0
ELLIPSE
  5
67E4
330
67B6
100
AcDbEntity
  8
0
100
AcDbEllipse
 10
21.21320343559642
 20
11.6350762782201
 30
0.0
 11
-2.5
 21
-0.0000000000001487
 31
0.0
210
0.0
220
0.0
230
1.0
 40
0.5773502691896259
 41
3.579741684173546
 42
5.845036276594997
  0
ELLIPSE
  5
67E5
330
67B6
100
AcDbEntity
  8
0
100
AcDbEllipse
 10
-7.071067811865482
 20
29.18975276816621
 30
0.0
 11
-2.5
 21
0.0000000000001489
 31
0.0
210
0.0
220
0.0
230
1.0
 40
0.577350269189626
 41
0.0
 42
6.283185307179586
  0
ELLIPSE
  5
67E6
330
67B6
100
AcDbEntity
  8
0
100
AcDbEllipse
 10
-7.071067811865482
 20
27.96500789677462
 30
0.0
 11
-2.5
 21
-0.0000000000001491
 31
0.0
210
0.0
220
0.0
230
1.0
 40
0.577350269189626
 41
3.579741684173542
 42
5.845036276594993
  0
ELLIPSE
  5
67E7
330
67B6
100
AcDbEntity
  8
0
100
AcDbEllipse
 10
-35.35533905932739
 20
45.51968438672072
 30
0.0
 11
-2.5
 21
0.0000000000001489
 31
0.0
210
0.0
220
0.0
230
1.0
 40
0.577350269189626
 41
0.0
 42
6.283185307179586
  0
ELLIPSE
  5
67E8
330
67B6
100
AcDbEntity
  8
0
100
AcDbEllipse
 10
-35.35533905932739
 20
44.29493951532913
 30
0.0
 11
-2.5
 21
-0.0000000000001493
 31
0.0
210
0.0
220
0.0
230
1.0
 40
0.5773502691896259
 41
3.579741684173542
 42
5.845036276594996
  0
ELLIPSE
  5
67E9
330
67B6
100
AcDbEntity
  8
0
100
AcDbEllipse
 10
91.92388155425119
 20
-44.29493951532913
 30
0.0
 11
-2.5
 21
0.0000000000001489
 31
0.0
210
0.0
220
0.0
230
1.0
 40
0.577350269189626
 41
0.0
 42
6.283185307179586
  0
ELLIPSE
  5
67EA
330
67B6
100
AcDbEntity
  8
0
100
AcDbEllipse
 10
91.92388155425119
 20
-45.51968438672072
 30
0.0
 11
-2.5
 21
-0.0000000000001491
 31
0.0
210
0.0
220
0.0
230
1.0
 40
0.577350269189626
 41
3.579741684173542
 42
5.845036276594997
  0
ELLIPSE
  5
67EB
330
67B6
100
AcDbEntity
  8
0
100
AcDbEllipse
 10
63.63961030678929
 20
-27.96500789677462
 30
0.0
 11
-2.5
 21
0.0000000000001489
 31
0.0
210
0.0
220
0.0
230
1.0
 40
0.577350269189626
 41
0.0
 42
6.283185307179586
  0
ELLIPSE
  5
67EC
330
67B6
100
AcDbEntity
  8
0
100
AcDbEllipse
 10
63.63961030678929
 20
-29.18975276816621
 30
0.0
 11
-2.5
 21
-0.0000000000001491
 31
0.0
210
0.0
220
0.0
230
1.0
 40
0.577350269189626
 41
3.579741684173542
 42
5.845036276594997
  0
ELLIPSE
  5
67ED
330
67B6
100
AcDbEntity
  8
0
100
AcDbEllipse
 10
35.35533905932739
 20
-11.63507627822009
 30
0.0
 11
-2.5
 21
0.0000000000001489
 31
0.0
210
0.0
220
0.0
230
1.0
 40
0.577350269189626
 41
0.0
 42
6.283185307179586
  0
ELLIPSE
  5
67EE
330
67B6
100
AcDbEntity
  8
0
100
AcDbEllipse
 10
35.35533905932739
 20
-12.85982114961168
 30
0.0
 11
-2.5
 21
-0.0000000000001491
 31
0.0
210
0.0
220
0.0
230
1.0
 40
0.577350269189626
 41
3.579741684173546
 42
5.845036276594997
  0
ELLIPSE
  5
67EF
330
67B6
100
AcDbEntity
  8
0
100
AcDbEllipse
 10
7.071067811865474
 20
4.694855340334425
 30
0.0
 11
-2.5
 21
0.0000000000001489
 31
0.0
210
0.0
220
0.0
230
1.0
 40
0.577350269189626
 41
0.0
 42
6.283185307179586
  0
ELLIPSE
  5
67F0
330
67B6
100
AcDbEntity
  8
0
100
AcDbEllipse
 10
7.071067811865474
 20
3.470110468942835
 30
0.0
 11
-2.5
 21
-0.0000000000001487
 31
0.0
210
0.0
220
0.0
230
1.0
 40
0.5773502691896259
 41
3.579741684173546
 42
5.845036276594999
  0
ELLIPSE
  5
67F1
330
67B6
100
AcDbEntity
  8
0
100
AcDbEllipse
 10
-21.21320343559643
 20
21.02478695888895
 30
0.0
 11
-2.5
 21
0.0000000000001489
 31
0.0
210
0.0
220
0.0
230
1.0
 40
0.577350269189626
 41
0.0
 42
6.283185307179586
  0
ELLIPSE
  5
67F2
330
67B6
100
AcDbEntity
  8
0
100
AcDbEllipse
 10
-21.21320343559643
 20
19.80004208749736
 30
0.0
 11
-2.5
 21
-0.0000000000001491
 31
0.0
210
0.0
220
0.0
230
1.0
 40
0.577350269189626
 41
3.579741684173544
 42
5.845036276594997
  0
ELLIPSE
  5
67F3
330
67B6
100
AcDbEntity
  8
0
100
AcDbEllipse
 10
-49.49747468305834
 20
37.35471857744347
 30
0.0
 11
-2.5
 21
0.0000000000001489
 31
0.0
210
0.0
220
0.0
230
1.0
 40
0.577350269189626
 41
0.0
 42
6.283185307179586
  0
ELLIPSE
  5
67F4
330
67B6
100
AcDbEntity
  8
0
100
AcDbEllipse
 10
-49.49747468305834
 20
36.12997370605187
 30
0.0
 11
-2.5
 21
-0.000000000000149
 31
0.0
210
0.0
220
0.0
230
1.0
 40
0.5773502691896259
 41
3.579741684173541
 42
5.845036276594997
  0
ELLIPSE
  5
67F5
330
67B6
100
AcDbEntity
  8
0
100
AcDbEllipse
 10
77.78174593052025
 20
-52.45990532460639
 30
0.0
 11
-2.5
 21
0.0000000000001489
 31
0.0
210
0.0
220
0.0
230
1.0
 40
0.577350269189626
 41
0.0
 42
6.283185307179586
  0
ELLIPSE
  5
67F6
330
67B6
100
AcDbEntity
  8
0
100
AcDbEllipse
 10
77.78174593052025
 20
-53.68465019599799
 30
0.0
 11
-2.5
 21
-0.0000000000001495
 31
0.0
210
0.0
220
0.0
230
1.0
 40
0.577350269189626
 41
3.57974168417355
 42
5.845036276594996
  0
ELLIPSE
  5
67F7
330
67B6
100
AcDbEntity
  8
0
100
AcDbEllipse
 10
49.49747468305834
 20
-36.12997370605189
 30
0.0
 11
-2.5
 21
0.0000000000001489
 31
0.0
210
0.0
220
0.0
230
1.0
 40
0.577350269189626
 41
0.0
 42
6.283185307179586
  0
ELLIPSE
  5
67F8
330
67B6
100
AcDbEntity
  8
0
100
AcDbEllipse
 10
49.49747468305834
 20
-37.35471857744347
 30
0.0
 11
-2.5
 21
-0.0000000000001495
 31
0.0
210
0.0
220
0.0
230
1.0
 40
0.577350269189626
 41
3.579741684173542
 42
5.845036276594991
  0
ELLIPSE
  5
67F9
330
67B6
100
AcDbEntity
  8
0
100
AcDbEllipse
 10
21.21320343559643
 20
-19.80004208749736
 30
0.0
 11
-2.5
 21
0.0000000000001489
 31
0.0
210
0.0
220
0.0
230
1.0
 40
0.577350269189626
 41
0.0
 42
6.283185307179586
  0
ELLIPSE
  5
67FA
330
67B6
100
AcDbEntity
  8
0
100
AcDbEllipse
 10
21.21320343559643
 20
-21.02478695888895
 30
0.0
 11
-2.5
 21
-0.0000000000001495
 31
0.0
210
0.0
220
0.0
230
1.0
 40
0.577350269189626
 41
3.579741684173542
 42
5.845036276594993
  0
ELLIPSE
  5
67FB
330
67B6
100
AcDbEntity
  8
0
100
AcDbEllipse
 10
-7.071067811865474
 20
-3.470110468942838
 30
0.0
 11
-2.5
 21
0.0000000000001489
 31
0.0
210
0.0
220
0.0
230
1.0
 40
0.577350269189626
 41
0.0
 42
6.283185307179586
  0
ELLIPSE
  5
67FC
330
67B6
100
AcDbEntity
  8
0
100
AcDbEllipse
 10
-7.071067811865474
 20
-4.694855340334428
 30
0.0
 11
-2.5
 21
-0.0000000000001495
 31
0.0
210
0.0
220
0.0
230
1.0
 40
0.577350269189626
 41
3.579741684173544
 42
5.845036276594997
  0
ELLIPSE
  5
67FD
330
67B6
100
AcDbEntity
  8
0
100
AcDbEllipse
 10
-35.35533905932739
 20
12.85982114961168
 30
0.0
 11
-2.5
 21
0.0000000000001489
 31
0.0
210
0.0
220
0.0
230
1.0
 40
0.577350269189626
 41
0.0
 42
6.283185307179586
  0
ELLIPSE
  5
67FE
330
67B6
100
AcDbEntity
  8
0
100
AcDbEllipse
 10
-35.35533905932739
 20
11.63507627822009
 30
0.0
 11
-2.5
 21
-0.0000000000001495
 31
0.0
210
0.0
220
0.0
230
1.0
 40
0.577350269189626
 41
3.579741684173546
 42
5.845036276594996
  0
ELLIPSE
  5
67FF
330
67B6
100
AcDbEntity
  8
0
100
AcDbEllipse
 10
-63.63961030678929
 20
29.1897527681662
 30
0.0
 11
-2.5
 21
0.0000000000001489
 31
0.0
210
0.0
220
0.0
230
1.0
 40
0.577350269189626
 41
0.0
 42
6.283185307179586
  0
ELLIPSE
  5
6800
330
67B6
100
AcDbEntity
  8
0
100
AcDbEllipse
 10
-63.63961030678929
 20
27.96500789677461
 30
0.0
 11
-2.5
 21
-0.000000000000149
 31
0.0
210
0.0
220
0.0
230
1.0
 40
0.5773502691896259
 41
3.579741684173541
 42
5.845036276594997
  0
ELLIPSE
  5
6801
330
67B6
100
AcDbEntity
  8
0
100
AcDbEllipse
 10
63.6396103067893
 20
-60.62487113388366
 30
0.0
 11
-2.5
 21
0.0000000000001489
 31
0.0
210
0.0
220
0.0
230
1.0
 40
0.577350269189626
 41
0.0
 42
6.283185307179586
  0
ELLIPSE
  5
6802
330
67B6
100
AcDbEntity
  8
0
100
AcDbEllipse
 10
63.6396103067893
 20
-61.84961600527525
 30
0.0
 11
-2.5
 21
-0.0000000000001491
 31
0.0
210
0.0
220
0.0
230
1.0
 40
0.577350269189626
 41
3.579741684173548
 42
5.845036276594997
  0
ELLIPSE
  5
6803
330
67B6
100
AcDbEntity
  8
0
100
AcDbEllipse
 10
35.35533905932739
 20
-44.29493951532914
 30
0.0
 11
-2.5
 21
0.0000000000001489
 31
0.0
210
0.0
220
0.0
230
1.0
 40
0.577350269189626
 41
0.0
 42
6.283185307179586
  0
ELLIPSE
  5
6804
330
67B6
100
AcDbEntity
  8
0
100
AcDbEllipse
 10
35.35533905932739
 20
-45.51968438672073
 30
0.0
 11
-2.5
 21
-0.0000000000001491
 31
0.0
210
0.0
220
0.0
230
1.0
 40
0.577350269189626
 41
3.579741684173548
 42
5.845036276594997
  0
ELLIPSE
  5
6805
330
67B6
100
AcDbEntity
  8
0
100
AcDbEllipse
 10
7.071067811865484
 20
-27.96500789677463
 30
0.0
 11
-2.5
 21
0.0000000000001489
 31
0.0
210
0.0
220
0.0
230
1.0
 40
0.577350269189626
 41
0.0
 42
6.283185307179586
  0
ELLIPSE
  5
6806
330
67B6
100
AcDbEntity
  8
0
100
AcDbEllipse
 10
7.071067811865484
 20
-29.18975276816621
 30
0.0
 11
-2.5
 21
-0.0000000000001491
 31
0.0
210
0.0
220
0.0
230
1.0
 40
0.577350269189626
 41
3.579741684173542
 42
5.845036276594993
  0
ELLIPSE
  5
6807
330
67B6
100
AcDbEntity
  8
0
100
AcDbEllipse
 10
-21.21320343559642
 20
-11.6350762782201
 30
0.0
 11
-2.5
 21
0.0000000000001489
 31
0.0
210
0.0
220
0.0
230
1.0
 40
0.577350269189626
 41
0.0
 42
6.283185307179586
  0
ELLIPSE
  5
6808
330
67B6
100
AcDbEntity
  8
0
100
AcDbEllipse
 10
-21.21320343559642
 20
-12.85982114961169
 30
0.0
 11
-2.5
 21
-0.0000000000001487
 31
0.0
210
0.0
220
0.0
230
1.0
 40
0.5773502691896259
 41
3.579741684173546
 42
5.845036276594997
  0
ELLIPSE
  5
6809
330
67B6
100
AcDbEntity
  8
0
100
AcDbEllipse
 10
-49.49747468305833
 20
4.694855340334418
 30
0.0
 11
-2.5
 21
0.0000000000001489
 31
0.0
210
0.0
220
0.0
230
1.0
 40
0.577350269189626
 41
0.0
 42
6.283185307179586
  0
ELLIPSE
  5
680A
330
67B6
100
AcDbEntity
  8
0
100
AcDbEllipse
 10
-49.49747468305833
 20
3.470110468942828
 30
0.0
 11
-2.5
 21
-0.0000000000001491
 31
0.0
210
0.0
220
0.0
230
1.0
 40
0.577350269189626
 41
3.579741684173544
 42
5.845036276594997
  0
ELLIPSE
  5
680B
330
67B6
100
AcDbEntity
  8
0
100
AcDbEllipse
 10
-77.78174593052025
 20
21.02478695888894
 30
0.0
 11
-2.5
 21
0.0000000000001489
 31
0.0
210
0.0
220
0.0
230
1.0
 40
0.577350269189626
 41
0.0
 42
6.283185307179586
  0
ELLIPSE
  5
680C
330
67B6
100
AcDbEntity
  8
0
100
AcDbEllipse
 10
-77.78174593052025
 20
19.80004208749735
 30
0.0
 11
-2.5
 21
-0.0000000000001493
 31
0.0
210
0.0
220
0.0
230
1.0
 40
0.5773502691896259
 41
3.579741684173541
 42
5.845036276594994
  0
ELLIPSE
  5
680D
330
67B6
100
AcDbEntity
  8
0
100
AcDbEllipse
 10
49.49747468305834
 20
-68.78983694316094
 30
0.0
 11
-2.5
 21
0.0000000000001489
 31
0.0
210
0.0
220
0.0
230
1.0
 40
0.577350269189626
 41
0.0
 42
6.283185307179586
  0
ELLIPSE
  5
680E
330
67B6
100
AcDbEntity
  8
0
100
AcDbEllipse
 10
49.49747468305834
 20
-70.01458181455252
 30
0.0
 11
-2.5
 21
-0.0000000000001493
 31
0.0
210
0.0
220
0.0
230
1.0
 40
0.577350269189626
 41
3.579741684173548
 42
5.845036276594996
  0
ELLIPSE
  5
680F
330
67B6
100
AcDbEntity
  8
0
100
AcDbEllipse
 10
21.21320343559644
 20
-52.45990532460641
 30
0.0
 11
-2.5
 21
0.0000000000001489
 31
0.0
210
0.0
220
0.0
230
1.0
 40
0.577350269189626
 41
0.0
 42
6.283185307179586
  0
ELLIPSE
  5
6810
330
67B6
100
AcDbEntity
  8
0
100
AcDbEllipse
 10
21.21320343559644
 20
-53.68465019599799
 30
0.0
 11
-2.5
 21
-0.0000000000001493
 31
0.0
210
0.0
220
0.0
230
1.0
 40
0.577350269189626
 41
3.579741684173548
 42
5.845036276594997
  0
ELLIPSE
  5
6811
330
67B6
100
AcDbEntity
  8
0
100
AcDbEllipse
 10
-7.071067811865464
 20
-36.12997370605189
 30
0.0
 11
-2.5
 21
0.0000000000001489
 31
0.0
210
0.0
220
0.0
230
1.0
 40
0.577350269189626
 41
0.0
 42
6.283185307179586
  0
ELLIPSE
  5
6812
330
67B6
100
AcDbEntity
  8
0
100
AcDbEllipse
 10
-7.071067811865464
 20
-37.35471857744348
 30
0.0
 11
-2.5
 21
-0.0000000000001493
 31
0.0
210
0.0
220
0.0
230
1.0
 40
0.577350269189626
 41
3.579741684173542
 42
5.845036276594996
  0
ELLIPSE
  5
6813
330
67B6
100
AcDbEntity
  8
0
100
AcDbEllipse
 10
-35.35533905932737
 20
-19.80004208749737
 30
0.0
 11
-2.5
 21
0.0000000000001489
 31
0.0
210
0.0
220
0.0
230
1.0
 40
0.577350269189626
 41
0.0
 42
6.283185307179586
  0
ELLIPSE
  5
6814
330
67B6
100
AcDbEntity
  8
0
100
AcDbEllipse
 10
-35.35533905932737
 20
-21.02478695888896
 30
0.0
 11
-2.5
 21
-0.0000000000001493
 31
0.0
210
0.0
220
0.0
230
1.0
 40
0.5773502691896259
 41
3.579741684173546
 42
5.845036276594997
  0
ELLIPSE
  5
6815
330
67B6
100
AcDbEntity
  8
0
100
AcDbEllipse
 10
-63.63961030678928
 20
-3.470110468942846
 30
0.0
 11
-2.5
 21
0.0000000000001489
 31
0.0
210
0.0
220
0.0
230
1.0
 40
0.577350269189626
 41
0.0
 42
6.283185307179586
  0
ELLIPSE
  5
6816
330
67B6
100
AcDbEntity
  8
0
100
AcDbEllipse
 10
-63.63961030678928
 20
-4.694855340334436
 30
0.0
 11
-2.5
 21
-0.0000000000001493
 31
0.0
210
0.0
220
0.0
230
1.0
 40
0.577350269189626
 41
3.579741684173544
 42
5.845036276594997
  0
ELLIPSE
  5
6817
330
67B6
100
AcDbEntity
  8
0
100
AcDbEllipse
 10
-91.92388155425119
 20
12.85982114961167
 30
0.0
 11
-2.5
 21
0.0000000000001489
 31
0.0
210
0.0
220
0.0
230
1.0
 40
0.577350269189626
 41
0.0
 42
6.283185307179586
  0
ELLIPSE
  5
6818
330
67B6
100
AcDbEntity
  8
0
100
AcDbEllipse
 10
-91.92388155425119
 20
11.63507627822008
 30
0.0
 11
-2.5
 21
-0.0000000000001492
 31
0.0
210
0.0
220
0.0
230
1.0
 40
0.5773502691896259
 41
3.579741684173541
 42
5.845036276594996
  0
ELLIPSE
  5
6819
330
67B6
100
AcDbEntity
  8
0
100
AcDbEllipse
 10
35.3553390593274
 20
-76.9548027524382
 30
0.0
 11
-2.5
 21
0.0000000000001489
 31
0.0
210
0.0
220
0.0
230
1.0
 40
0.577350269189626
 41
0.0
 42
6.283185307179586
  0
ELLIPSE
  5
681A
330
67B6
100
AcDbEntity
  8
0
100
AcDbEllipse
 10
35.3553390593274
 20
-78.17954762382979
 30
0.0
 11
-2.5
 21
-0.0000000000001493
 31
0.0
210
0.0
220
0.0
230
1.0
 40
0.577350269189626
 41
3.579741684173548
 42
5.845036276594997
  0
ELLIPSE
  5
681B
330
67B6
100
AcDbEntity
  8
0
100
AcDbEllipse
 10
7.071067811865493
 20
-60.62487113388367
 30
0.0
 11
-2.5
 21
0.0000000000001489
 31
0.0
210
0.0
220
0.0
230
1.0
 40
0.577350269189626
 41
0.0
 42
6.283185307179586
  0
ELLIPSE
  5
681C
330
67B6
100
AcDbEntity
  8
0
100
AcDbEllipse
 10
7.071067811865493
 20
-61.84961600527525
 30
0.0
 11
-2.5
 21
-0.0000000000001493
 31
0.0
210
0.0
220
0.0
230
1.0
 40
0.577350269189626
 41
3.579741684173548
 42
5.845036276594997
  0
ELLIPSE
  5
681D
330
67B6
100
AcDbEntity
  8
0
100
AcDbEllipse
 10
-21.21320343559641
 20
-44.29493951532915
 30
0.0
 11
-2.5
 21
0.0000000000001489
 31
0.0
210
0.0
220
0.0
230
1.0
 40
0.577350269189626
 41
0.0
 42
6.283185307179586
  0
ELLIPSE
  5
681E
330
67B6
100
AcDbEntity
  8
0
100
AcDbEllipse
 10
-21.21320343559641
 20
-45.51968438672074
 30
0.0
 11
-2.5
 21
-0.0000000000001493
 31
0.0
210
0.0
220
0.0
230
1.0
 40
0.577350269189626
 41
3.579741684173548
 42
5.845036276594997
  0
ELLIPSE
  5
681F
330
67B6
100
AcDbEntity
  8
0
100
AcDbEllipse
 10
-49.49747468305831
 20
-27.96500789677463
 30
0.0
 11
-2.5
 21
0.0000000000001489
 31
0.0
210
0.0
220
0.0
230
1.0
 40
0.577350269189626
 41
0.0
 42
6.283185307179586
  0
ELLIPSE
  5
6820
330
67B6
100
AcDbEntity
  8
0
100
AcDbEllipse
 10
-49.49747468305831
 20
-29.18975276816622
 30
0.0
 11
-2.5
 21
-0.0000000000001493
 31
0.0
210
0.0
220
0.0
230
1.0
 40
0.5773502691896259
 41
3.579741684173544
 42
5.845036276594996
  0
ELLIPSE
  5
6821
330
67B6
100
AcDbEntity
  8
0
100
AcDbEllipse
 10
-77.78174593052023
 20
-11.63507627822011
 30
0.0
 11
-2.5
 21
0.0000000000001489
 31
0.0
210
0.0
220
0.0
230
1.0
 40
0.577350269189626
 41
0.0
 42
6.283185307179586
  0
ELLIPSE
  5
6822
330
67B6
100
AcDbEntity
  8
0
100
AcDbEllipse
 10
-77.78174593052023
 20
-12.8598211496117
 30
0.0
 11
-2.5
 21
-0.0000000000001493
 31
0.0
210
0.0
220
0.0
230
1.0
 40
0.577350269189626
 41
3.579741684173544
 42
5.845036276594994
  0
ELLIPSE
  5
6823
330
67B6
100
AcDbEntity
  8
0
100
AcDbEllipse
 10
-106.0660171779821
 20
4.694855340334409
 30
0.0
 11
-2.5
 21
0.0000000000001489
 31
0.0
210
0.0
220
0.0
230
1.0
 40
0.577350269189626
 41
0.0
 42
6.283185307179586
  0
ELLIPSE
  5
6824
330
67B6
100
AcDbEntity
  8
0
100
AcDbEllipse
 10
-106.0660171779821
 20
3.470110468942819
 30
0.0
 11
-2.5
 21
-0.0000000000001492
 31
0.0
210
0.0
220
0.0
230
1.0
 40
0.5773502691896259
 41
3.579741684173541
 42
5.845036276594997
  0
ELLIPSE
  5
6825
330
67B6
100
AcDbEntity
  8
0
100
AcDbEllipse
 10
-21.21320343559645
 20
86.34451343310704
 30
0.0
 11
-2.5
 21
0.0000000000001489
 31
0.0
210
0.0
220
0.0
230
1.0
 40
0.577350269189626
 41
0.0
 42
6.283185307179586
  0
ELLIPSE
  5
6826
330
67B6
100
AcDbEntity
  8
0
100
AcDbEllipse
 10
-21.21320343559645
 20
85.11976856171544
 30
0.0
 11
-2.5
 21
-0.0000000000001493
 31
0.0
210
0.0
220
0.0
230
1.0
 40
0.577350269189626
 41
3.579741684173548
 42
5.845036276594996
  0
ELLIPSE
  5
6827
330
67B6
100
AcDbEntity
  8
0
100
AcDbEllipse
 10
-35.35533905932741
 20
78.17954762382978
 30
0.0
 11
-2.5
 21
0.0000000000001489
 31
0.0
210
0.0
220
0.0
230
1.0
 40
0.577350269189626
 41
0.0
 42
6.283185307179586
  0
ELLIPSE
  5
6828
330
67B6
100
AcDbEntity
  8
0
100
AcDbEllipse
 10
-35.35533905932741
 20
76.95480275243818
 30
0.0
 11
-2.5
 21
-0.0000000000001493
 31
0.0
210
0.0
220
0.0
230
1.0
 40
0.577350269189626
 41
3.579741684173548
 42
5.845036276594997
  0
ELLIPSE
  5
6829
330
67B6
100
AcDbEntity
  8
0
100
AcDbEllipse
 10
-49.49747468305834
 20
70.01458181455252
 30
0.0
 11
-2.5
 21
0.0000000000001489
 31
0.0
210
0.0
220
0.0
230
1.0
 40
0.577350269189626
 41
0.0
 42
6.283185307179586
  0
ELLIPSE
  5
682A
330
67B6
100
AcDbEntity
  8
0
100
AcDbEllipse
 10
-49.49747468305834
 20
68.78983694316092
 30
0.0
 11
-2.5
 21
-0.0000000000001493
 31
0.0
210
0.0
220
0.0
230
1.0
 40
0.577350269189626
 41
3.579741684173548
 42
5.845036276594996
  0
ELLIPSE
  5
682B
330
67B6
100
AcDbEntity
  8
0
100
AcDbEllipse
 10
-63.6396103067893
 20
61.84961600527525
 30
0.0
 11
-2.5
 21
0.0000000000001489
 31
0.0
210
0.0
220
0.0
230
1.0
 40
0.577350269189626
 41
0.0
 42
6.283185307179586
  0
ELLIPSE
  5
682C
330
67B6
100
AcDbEntity
  8
0
100
AcDbEllipse
 10
-63.6396103067893
 20
60.62487113388366
 30
0.0
 11
-2.5
 21
-0.0000000000001491
 31
0.0
210
0.0
220
0.0
230
1.0
 40
0.577350269189626
 41
3.579741684173548
 42
5.845036276594997
  0
ELLIPSE
  5
682D
330
67B6
100
AcDbEntity
  8
0
100
AcDbEllipse
 10
-77.78174593052025
 20
53.68465019599799
 30
0.0
 11
-2.5
 21
0.0000000000001489
 31
0.0
210
0.0
220
0.0
230
1.0
 40
0.577350269189626
 41
0.0
 42
6.283185307179586
  0
ELLIPSE
  5
682E
330
67B6
100
AcDbEntity
  8
0
100
AcDbEllipse
 10
-77.78174593052025
 20
52.45990532460639
 30
0.0
 11
-2.5
 21
-0.0000000000001491
 31
0.0
210
0.0
220
0.0
230
1.0
 40
0.577350269189626
 41
3.579741684173548
 42
5.845036276594997
  0
ELLIPSE
  5
682F
330
67B6
100
AcDbEntity
  8
0
100
AcDbEllipse
 10
-91.9238815542512
 20
45.51968438672072
 30
0.0
 11
-2.5
 21
0.0000000000001489
 31
0.0
210
0.0
220
0.0
230
1.0
 40
0.577350269189626
 41
0.0
 42
6.283185307179586
  0
ELLIPSE
  5
6830
330
67B6
100
AcDbEntity
  8
0
100
AcDbEllipse
 10
-91.9238815542512
 20
44.29493951532913
 30
0.0
 11
-2.5
 21
-0.0000000000001495
 31
0.0
210
0.0
220
0.0
230
1.0
 40
0.577350269189626
 41
3.579741684173548
 42
5.845036276595001
  0
ELLIPSE
  5
6831
330
67B6
100
AcDbEntity
  8
0
100
AcDbEllipse
 10
-106.0660171779821
 20
37.35471857744347
 30
0.0
 11
-2.5
 21
0.0000000000001489
 31
0.0
210
0.0
220
0.0
230
1.0
 40
0.577350269189626
 41
0.0
 42
6.283185307179586
  0
ELLIPSE
  5
6832
330
67B6
100
AcDbEntity
  8
0
100
AcDbEllipse
 10
-106.0660171779821
 20
36.12997370605187
 30
0.0
 11
-2.5
 21
-0.0000000000001491
 31
0.0
210
0.0
220
0.0
230
1.0
 40
0.577350269189626
 41
3.579741684173542
 42
5.845036276594993
  0
ELLIPSE
  5
6833
330
67B6
100
AcDbEntity
  8
0
100
AcDbEllipse
 10
-120.2081528017131
 20
29.18975276816619
 30
0.0
 11
-2.5
 21
0.0000000000001489
 31
0.0
210
0.0
220
0.0
230
1.0
 40
0.577350269189626
 41
0.0
 42
6.283185307179586
  0
ELLIPSE
  5
6834
330
67B6
100
AcDbEntity
  8
0
100
AcDbEllipse
 10
-120.2081528017131
 20
27.96500789677461
 30
0.0
 11
-2.5
 21
-0.0000000000001493
 31
0.0
210
0.0
220
0.0
230
1.0
 40
0.577350269189626
 41
3.579741684173544
 42
5.845036276594996
  0
ELLIPSE
  5
6835
330
67B6
100
AcDbEntity
  8
0
100
AcDbEllipse
 10
-134.350288425444
 20
21.02478695888893
 30
0.0
 11
-2.5
 21
0.0000000000001489
 31
0.0
210
0.0
220
0.0
230
1.0
 40
0.577350269189626
 41
0.0
 42
6.283185307179586
  0
ELLIPSE
  5
6836
330
67B6
100
AcDbEntity
  8
0
100
AcDbEllipse
 10
-134.350288425444
 20
19.80004208749734
 30
0.0
 11
-2.5
 21
-0.0000000000001493
 31
0.0
210
0.0
220
0.0
230
1.0
 40
0.577350269189626
 41
3.579741684173544
 42
5.845036276594996
  0
ELLIPSE
  5
6837
330
67B6
100
AcDbEntity
  8
0
100
AcDbEllipse
 10
21.21320343559644
 20
-85.11976856171544
 30
0.0
 11
-2.5
 21
0.0000000000001489
 31
0.0
210
0.0
220
0.0
230
1.0
 40
0.577350269189626
 41
0.0
 42
6.283185307179586
  0
ELLIPSE
  5
6838
330
67B6
100
AcDbEntity
  8
0
100
AcDbEllipse
 10
21.21320343559644
 20
-86.34451343310704
 30
0.0
 11
-2.5
 21
-0.0000000000001493
 31
0.0
210
0.0
220
0.0
230
1.0
 40
0.577350269189626
 41
3.579741684173548
 42
5.845036276594995
  0
ELLIPSE
  5
6839
330
67B6
100
AcDbEntity
  8
0
100
AcDbEllipse
 10
-7.071067811865464
 20
-68.78983694316094
 30
0.0
 11
-2.5
 21
0.0000000000001489
 31
0.0
210
0.0
220
0.0
230
1.0
 40
0.577350269189626
 41
0.0
 42
6.283185307179586
  0
ELLIPSE
  5
683A
330
67B6
100
AcDbEntity
  8
0
100
AcDbEllipse
 10
-7.071067811865464
 20
-70.01458181455252
 30
0.0
 11
-2.5
 21
-0.0000000000001493
 31
0.0
210
0.0
220
0.0
230
1.0
 40
0.577350269189626
 41
3.579741684173548
 42
5.845036276594997
  0
ELLIPSE
  5
683B
330
67B6
100
AcDbEntity
  8
0
100
AcDbEllipse
 10
-35.35533905932737
 20
-52.45990532460641
 30
0.0
 11
-2.5
 21
0.0000000000001489
 31
0.0
210
0.0
220
0.0
230
1.0
 40
0.577350269189626
 41
0.0
 42
6.283185307179586
  0
ELLIPSE
  5
683C
330
67B6
100
AcDbEntity
  8
0
100
AcDbEllipse
 10
-35.35533905932737
 20
-53.684650195998
 30
0.0
 11
-2.5
 21
-0.0000000000001489
 31
0.0
210
0.0
220
0.0
230
1.0
 40
0.577350269189626
 41
3.579741684173542
 42
5.845036276594997
  0
ELLIPSE
  5
683D
330
67B6
100
AcDbEntity
  8
0
100
AcDbEllipse
 10
-63.63961030678928
 20
-36.1299737060519
 30
0.0
 11
-2.5
 21
0.0000000000001489
 31
0.0
210
0.0
220
0.0
230
1.0
 40
0.577350269189626
 41
0.0
 42
6.283185307179586
  0
ELLIPSE
  5
683E
330
67B6
100
AcDbEntity
  8
0
100
AcDbEllipse
 10
-63.63961030678928
 20
-37.35471857744349
 30
0.0
 11
-2.5
 21
-0.0000000000001492
 31
0.0
210
0.0
220
0.0
230
1.0
 40
0.5773502691896259
 41
3.579741684173542
 42
5.845036276594996
  0
ELLIPSE
  5
683F
330
67B6
100
AcDbEntity
  8
0
100
AcDbEllipse
 10
-91.92388155425119
 20
-19.80004208749737
 30
0.0
 11
-2.5
 21
0.0000000000001489
 31
0.0
210
0.0
220
0.0
230
1.0
 40
0.577350269189626
 41
0.0
 42
6.283185307179586
  0
ELLIPSE
  5
6840
330
67B6
100
AcDbEntity
  8
0
100
AcDbEllipse
 10
-91.92388155425119
 20
-21.02478695888896
 30
0.0
 11
-2.5
 21
-0.0000000000001497
 31
0.0
210
0.0
220
0.0
230
1.0
 40
0.5773502691896257
 41
3.579741684173544
 42
5.845036276594996
  0
ELLIPSE
  5
6841
330
67B6
100
AcDbEntity
  8
0
100
AcDbEllipse
 10
-120.2081528017131
 20
-3.470110468942853
 30
0.0
 11
-2.5
 21
0.0000000000001489
 31
0.0
210
0.0
220
0.0
230
1.0
 40
0.577350269189626
 41
0.0
 42
6.283185307179586
  0
ELLIPSE
  5
6842
330
67B6
100
AcDbEntity
  8
0
100
AcDbEllipse
 10
-120.2081528017131
 20
-4.694855340334442
 30
0.0
 11
-2.5
 21
-0.0000000000001489
 31
0.0
210
0.0
220
0.0
230
1.0
 40
0.577350269189626
 41
3.579741684173542
 42
5.845036276594997
  0
ELLIPSE
  5
6843
330
67B6
100
AcDbEntity
  8
0
100
AcDbEllipse
 10
-148.492424049175
 20
12.85982114961167
 30
0.0
 11
-2.5
 21
0.0000000000001489
 31
0.0
210
0.0
220
0.0
230
1.0
 40
0.577350269189626
 41
0.0
 42
6.283185307179586
  0
ELLIPSE
  5
6844
330
67B6
100
AcDbEntity
  8
0
100
AcDbEllipse
 10
-148.492424049175
 20
11.63507627822008
 30
0.0
 11
-2.5
 21
-0.0000000000001493
 31
0.0
210
0.0
220
0.0
230
1.0
 40
0.577350269189626
 41
3.579741684173546
 42
5.845036276594997
  0
ELLIPSE
  5
6845
330
67B6
100
AcDbEntity
  8
0
100
AcDbEllipse
 10
169.7056274847714
 20
-15.71755918285871
 30
0.0
 11
-2.5
 21
0.0000000000001489
 31
0.0
210
0.0
220
0.0
230
1.0
 40
0.577350269189626
 41
0.0
 42
6.283185307179586
  0
ELLIPSE
  5
6846
330
67B6
100
AcDbEntity
  8
0
100
AcDbEllipse
 10
169.7056274847714
 20
-16.94230405425029
 30
0.0
 11
-2.5
 21
-0.0000000000001493
 31
0.0
210
0.0
220
0.0
230
1.0
 40
0.577350269189626
 41
3.579741684173546
 42
5.845036276594994
  0
ELLIPSE
  5
6847
330
67B6
100
AcDbEntity
  8
0
100
AcDbEllipse
 10
141.4213562373095
 20
0.6123724356958091
 30
0.0
 11
-2.5
 21
0.0000000000001489
 31
0.0
210
0.0
220
0.0
230
1.0
 40
0.577350269189626
 41
0.0
 42
6.283185307179586
  0
ELLIPSE
  5
6848
330
67B6
100
AcDbEntity
  8
0
100
AcDbEllipse
 10
141.4213562373095
 20
-0.6123724356957805
 30
0.0
 11
-2.5
 21
-0.0000000000001493
 31
0.0
210
0.0
220
0.0
230
1.0
 40
0.577350269189626
 41
3.579741684173546
 42
5.845036276594997
  0
ELLIPSE
  5
6849
330
67B6
100
AcDbEntity
  8
0
100
AcDbEllipse
 10
113.1370849898476
 20
16.94230405425033
 30
0.0
 11
-2.5
 21
0.0000000000001489
 31
0.0
210
0.0
220
0.0
230
1.0
 40
0.577350269189626
 41
0.0
 42
6.283185307179586
  0
ELLIPSE
  5
684A
330
67B6
100
AcDbEntity
  8
0
100
AcDbEllipse
 10
113.1370849898476
 20
15.71755918285874
 30
0.0
 11
-2.5
 21
-0.0000000000001489
 31
0.0
210
0.0
220
0.0
230
1.0
 40
0.577350269189626
 41
3.579741684173542
 42
5.845036276594997
  0
ELLIPSE
  5
684B
330
67B6
100
AcDbEntity
  8
0
100
AcDbEllipse
 10
84.85281374238569
 20
33.27223567280486
 30
0.0
 11
-2.5
 21
0.0000000000001489
 31
0.0
210
0.0
220
0.0
230
1.0
 40
0.577350269189626
 41
0.0
 42
6.283185307179586
  0
ELLIPSE
  5
684C
330
67B6
100
AcDbEntity
  8
0
100
AcDbEllipse
 10
84.85281374238569
 20
32.04749080141327
 30
0.0
 11
-2.5
 21
-0.0000000000001497
 31
0.0
210
0.0
220
0.0
230
1.0
 40
0.5773502691896257
 41
3.579741684173544
 42
5.845036276594998
  0
ELLIPSE
  5
684D
330
67B6
100
AcDbEntity
  8
0
100
AcDbEllipse
 10
56.56854249492379
 20
49.60216729135937
 30
0.0
 11
-2.5
 21
0.0000000000001489
 31
0.0
210
0.0
220
0.0
230
1.0
 40
0.577350269189626
 41
0.0
 42
6.283185307179586
  0
ELLIPSE
  5
684E
330
67B6
100
AcDbEntity
  8
0
100
AcDbEllipse
 10
56.56854249492379
 20
48.37742241996778
 30
0.0
 11
-2.5
 21
-0.0000000000001493
 31
0.0
210
0.0
220
0.0
230
1.0
 40
0.577350269189626
 41
3.579741684173548
 42
5.845036276594996
  0
ELLIPSE
  5
684F
330
67B6
100
AcDbEntity
  8
0
100
AcDbEllipse
 10
28.28427124746188
 20
65.9320989099139
 30
0.0
 11
-2.5
 21
0.0000000000001489
 31
0.0
210
0.0
220
0.0
230
1.0
 40
0.577350269189626
 41
0.0
 42
6.283185307179586
  0
ELLIPSE
  5
6850
330
67B6
100
AcDbEntity
  8
0
100
AcDbEllipse
 10
28.28427124746188
 20
64.70735403852231
 30
0.0
 11
-2.5
 21
-0.0000000000001489
 31
0.0
210
0.0
220
0.0
230
1.0
 40
0.577350269189626
 41
3.579741684173542
 42
5.845036276594997
  0
ELLIPSE
  5
6851
330
67B6
100
AcDbEntity
  8
0
100
AcDbEllipse
 10
-0.000000000000021
 20
82.26203052846843
 30
0.0
 11
-2.5
 21
0.0000000000001489
 31
0.0
210
0.0
220
0.0
230
1.0
 40
0.577350269189626
 41
0.0
 42
6.283185307179586
  0
ELLIPSE
  5
6852
330
67B6
100
AcDbEntity
  8
0
100
AcDbEllipse
 10
-0.0000000000000211
 20
81.03728565707683
 30
0.0
 11
-2.5
 21
-0.0000000000001493
 31
0.0
210
0.0
220
0.0
230
1.0
 40
0.577350269189626
 41
3.579741684173548
 42
5.845036276594996
  0
ELLIPSE
  5
6853
330
67B6
100
AcDbEntity
  8
0
100
AcDbEllipse
 10
155.5634918610404
 20
-23.88252499213598
 30
0.0
 11
-2.5
 21
0.0000000000001489
 31
0.0
210
0.0
220
0.0
230
1.0
 40
0.577350269189626
 41
0.0
 42
6.283185307179586
  0
ELLIPSE
  5
6854
330
67B6
100
AcDbEntity
  8
0
100
AcDbEllipse
 10
155.5634918610404
 20
-25.10726986352756
 30
0.0
 11
-2.5
 21
-0.0000000000001493
 31
0.0
210
0.0
220
0.0
230
1.0
 40
0.577350269189626
 41
3.579741684173544
 42
5.845036276594998
  0
ELLIPSE
  5
6855
330
67B6
100
AcDbEntity
  8
0
100
AcDbEllipse
 10
127.2792206135785
 20
-7.552593373581457
 30
0.0
 11
-2.5
 21
0.0000000000001489
 31
0.0
210
0.0
220
0.0
230
1.0
 40
0.577350269189626
 41
0.0
 42
6.283185307179586
  0
ELLIPSE
  5
6856
330
67B6
100
AcDbEntity
  8
0
100
AcDbEllipse
 10
127.2792206135785
 20
-8.777338244973048
 30
0.0
 11
-2.5
 21
-0.0000000000001493
 31
0.0
210
0.0
220
0.0
230
1.0
 40
0.577350269189626
 41
3.579741684173548
 42
5.845036276595001
  0
ELLIPSE
  5
6857
330
67B6
100
AcDbEntity
  8
0
100
AcDbEllipse
 10
98.99494936611667
 20
8.777338244973067
 30
0.0
 11
-2.5
 21
0.0000000000001489
 31
0.0
210
0.0
220
0.0
230
1.0
 40
0.577350269189626
 41
0.0
 42
6.283185307179586
  0
ELLIPSE
  5
6858
330
67B6
100
AcDbEntity
  8
0
100
AcDbEllipse
 10
98.99494936611667
 20
7.552593373581477
 30
0.0
 11
-2.5
 21
-0.0000000000001489
 31
0.0
210
0.0
220
0.0
230
1.0
 40
0.577350269189626
 41
3.579741684173542
 42
5.845036276595001
  0
ELLIPSE
  5
6859
330
67B6
100
AcDbEntity
  8
0
100
AcDbEllipse
 10
70.71067811865475
 20
25.10726986352759
 30
0.0
 11
-2.5
 21
0.0000000000001489
 31
0.0
210
0.0
220
0.0
230
1.0
 40
0.577350269189626
 41
0.0
 42
6.283185307179586
  0
ELLIPSE
  5
685A
330
67B6
100
AcDbEntity
  8
0
100
AcDbEllipse
 10
70.71067811865475
 20
23.882524992136
 30
0.0
 11
-2.5
 21
-0.0000000000001497
 31
0.0
210
0.0
220
0.0
230
1.0
 40
0.5773502691896257
 41
3.579741684173544
 42
5.845036276595001
  0
ELLIPSE
  5
685B
330
67B6
100
AcDbEntity
  8
0
100
AcDbEllipse
 10
42.42640687119284
 20
41.4372014820821
 30
0.0
 11
-2.5
 21
0.0000000000001489
 31
0.0
210
0.0
220
0.0
230
1.0
 40
0.577350269189626
 41
0.0
 42
6.283185307179586
  0
ELLIPSE
  5
685C
330
67B6
100
AcDbEntity
  8
0
100
AcDbEllipse
 10
42.42640687119284
 20
40.21245661069051
 30
0.0
 11
-2.5
 21
-0.0000000000001493
 31
0.0
210
0.0
220
0.0
230
1.0
 40
0.577350269189626
 41
3.579741684173548
 42
5.845036276595003
  0
ELLIPSE
  5
685D
330
67B6
100
AcDbEntity
  8
0
100
AcDbEllipse
 10
14.14213562373094
 20
57.76713310063662
 30
0.0
 11
-2.5
 21
0.0000000000001489
 31
0.0
210
0.0
220
0.0
230
1.0
 40
0.577350269189626
 41
0.0
 42
6.283185307179586
  0
ELLIPSE
  5
685E
330
67B6
100
AcDbEntity
  8
0
100
AcDbEllipse
 10
14.14213562373094
 20
56.54238822924504
 30
0.0
 11
-2.5
 21
-0.0000000000001489
 31
0.0
210
0.0
220
0.0
230
1.0
 40
0.577350269189626
 41
3.579741684173542
 42
5.845036276595003
  0
ELLIPSE
  5
685F
330
67B6
100
AcDbEntity
  8
0
100
AcDbEllipse
 10
-14.14213562373097
 20
74.09706471919114
 30
0.0
 11
-2.5
 21
0.0000000000001489
 31
0.0
210
0.0
220
0.0
230
1.0
 40
0.577350269189626
 41
0.0
 42
6.283185307179586
  0
ELLIPSE
  5
6860
330
67B6
100
AcDbEntity
  8
0
100
AcDbEllipse
 10
-14.14213562373097
 20
72.87231984779956
 30
0.0
 11
-2.5
 21
-0.0000000000001493
 31
0.0
210
0.0
220
0.0
230
1.0
 40
0.577350269189626
 41
3.579741684173548
 42
5.845036276595002
  0
ELLIPSE
  5
6861
330
67B6
100
AcDbEntity
  8
0
100
AcDbEllipse
 10
141.4213562373095
 20
-32.04749080141324
 30
0.0
 11
-2.5
 21
0.0000000000001489
 31
0.0
210
0.0
220
0.0
230
1.0
 40
0.577350269189626
 41
0.0
 42
6.283185307179586
  0
ELLIPSE
  5
6862
330
67B6
100
AcDbEntity
  8
0
100
AcDbEllipse
 10
141.4213562373095
 20
-33.27223567280483
 30
0.0
 11
-2.5
 21
-0.0000000000001493
 31
0.0
210
0.0
220
0.0
230
1.0
 40
0.577350269189626
 41
3.579741684173544
 42
5.845036276594996
  0
ELLIPSE
  5
6863
330
67B6
100
AcDbEntity
  8
0
100
AcDbEllipse
 10
113.1370849898476
 20
-15.71755918285872
 30
0.0
 11
-2.5
 21
0.0000000000001489
 31
0.0
210
0.0
220
0.0
230
1.0
 40
0.577350269189626
 41
0.0
 42
6.283185307179586
  0
ELLIPSE
  5
6864
330
67B6
100
AcDbEntity
  8
0
100
AcDbEllipse
 10
113.1370849898476
 20
-16.94230405425031
 30
0.0
 11
-2.5
 21
-0.0000000000001493
 31
0.0
210
0.0
220
0.0
230
1.0
 40
0.577350269189626
 41
3.579741684173546
 42
5.845036276594997
  0
ELLIPSE
  5
6865
330
67B6
100
AcDbEntity
  8
0
100
AcDbEllipse
 10
84.85281374238569
 20
0.6123724356958047
 30
0.0
 11
-2.5
 21
0.0000000000001489
 31
0.0
210
0.0
220
0.0
230
1.0
 40
0.577350269189626
 41
0.0
 42
6.283185307179586
  0
ELLIPSE
  5
6866
330
67B6
100
AcDbEntity
  8
0
100
AcDbEllipse
 10
84.85281374238569
 20
-0.612372435695785
 30
0.0
 11
-2.5
 21
-0.0000000000001493
 31
0.0
210
0.0
220
0.0
230
1.0
 40
0.577350269189626
 41
3.579741684173546
 42
5.845036276594997
  0
ELLIPSE
  5
6867
330
67B6
100
AcDbEntity
  8
0
100
AcDbEllipse
 10
56.5685424949238
 20
16.94230405425032
 30
0.0
 11
-2.5
 21
0.0000000000001489
 31
0.0
210
0.0
220
0.0
230
1.0
 40
0.577350269189626
 41
0.0
 42
6.283185307179586
  0
ELLIPSE
  5
6868
330
67B6
100
AcDbEntity
  8
0
100
AcDbEllipse
 10
56.5685424949238
 20
15.71755918285873
 30
0.0
 11
-2.5
 21
-0.0000000000001493
 31
0.0
210
0.0
220
0.0
230
1.0
 40
0.577350269189626
 41
3.579741684173544
 42
5.845036276594997
  0
ELLIPSE
  5
6869
330
67B6
100
AcDbEntity
  8
0
100
AcDbEllipse
 10
28.2842712474619
 20
33.27223567280485
 30
0.0
 11
-2.5
 21
0.0000000000001489
 31
0.0
210
0.0
220
0.0
230
1.0
 40
0.577350269189626
 41
0.0
 42
6.283185307179586
  0
ELLIPSE
  5
686A
330
67B6
100
AcDbEntity
  8
0
100
AcDbEllipse
 10
28.2842712474619
 20
32.04749080141326
 30
0.0
 11
-2.5
 21
-0.0000000000001491
 31
0.0
210
0.0
220
0.0
230
1.0
 40
0.5773502691896259
 41
3.579741684173546
 42
5.845036276594999
  0
ELLIPSE
  5
686B
330
67B6
100
AcDbEntity
  8
0
100
AcDbEllipse
 10
-0.0000000000000121
 20
49.60216729135936
 30
0.0
 11
-2.5
 21
0.0000000000001489
 31
0.0
210
0.0
220
0.0
230
1.0
 40
0.577350269189626
 41
0.0
 42
6.283185307179586
  0
ELLIPSE
  5
686C
330
67B6
100
AcDbEntity
  8
0
100
AcDbEllipse
 10
-0.0000000000000122
 20
48.37742241996778
 30
0.0
 11
-2.5
 21
-0.0000000000001493
 31
0.0
210
0.0
220
0.0
230
1.0
 40
0.577350269189626
 41
3.579741684173548
 42
5.845036276594997
  0
ELLIPSE
  5
686D
330
67B6
100
AcDbEntity
  8
0
100
AcDbEllipse
 10
-28.28427124746192
 20
65.93209890991388
 30
0.0
 11
-2.5
 21
0.0000000000001489
 31
0.0
210
0.0
220
0.0
230
1.0
 40
0.577350269189626
 41
0.0
 42
6.283185307179586
  0
ELLIPSE
  5
686E
330
67B6
100
AcDbEntity
  8
0
100
AcDbEllipse
 10
-28.28427124746192
 20
64.7073540385223
 30
0.0
 11
-2.5
 21
-0.0000000000001493
 31
0.0
210
0.0
220
0.0
230
1.0
 40
0.577350269189626
 41
3.579741684173548
 42
5.845036276594997
  0
ELLIPSE
  5
686F
330
67B6
100
AcDbEntity
  8
0
100
AcDbEllipse
 10
127.2792206135785
 20
-40.21245661069051
 30
0.0
 11
-2.5
 21
0.0000000000001489
 31
0.0
210
0.0
220
0.0
230
1.0
 40
0.577350269189626
 41
0.0
 42
6.283185307179586
  0
ELLIPSE
  5
6870
330
67B6
100
AcDbEntity
  8
0
100
AcDbEllipse
 10
127.2792206135785
 20
-41.43720148208209
 30
0.0
 11
-2.5
 21
-0.0000000000001493
 31
0.0
210
0.0
220
0.0
230
1.0
 40
0.577350269189626
 41
3.579741684173548
 42
5.845036276594996
  0
ELLIPSE
  5
6871
330
67B6
100
AcDbEntity
  8
0
100
AcDbEllipse
 10
98.99494936611667
 20
-23.88252499213599
 30
0.0
 11
-2.5
 21
0.0000000000001489
 31
0.0
210
0.0
220
0.0
230
1.0
 40
0.577350269189626
 41
0.0
 42
6.283185307179586
  0
ELLIPSE
  5
6872
330
67B6
100
AcDbEntity
  8
0
100
AcDbEllipse
 10
98.99494936611667
 20
-25.10726986352758
 30
0.0
 11
-2.5
 21
-0.0000000000001493
 31
0.0
210
0.0
220
0.0
230
1.0
 40
0.577350269189626
 41
3.579741684173544
 42
5.845036276594996
  0
ELLIPSE
  5
6873
330
67B6
100
AcDbEntity
  8
0
100
AcDbEllipse
 10
70.71067811865477
 20
-7.552593373581459
 30
0.0
 11
-2.5
 21
0.0000000000001489
 31
0.0
210
0.0
220
0.0
230
1.0
 40
0.577350269189626
 41
0.0
 42
6.283185307179586
  0
ELLIPSE
  5
6874
330
67B6
100
AcDbEntity
  8
0
100
AcDbEllipse
 10
70.71067811865477
 20
-8.77733824497305
 30
0.0
 11
-2.5
 21
-0.0000000000001493
 31
0.0
210
0.0
220
0.0
230
1.0
 40
0.577350269189626
 41
3.579741684173544
 42
5.845036276594994
  0
ELLIPSE
  5
6875
330
67B6
100
AcDbEntity
  8
0
100
AcDbEllipse
 10
42.42640687119285
 20
8.777338244973059
 30
0.0
 11
-2.5
 21
0.0000000000001489
 31
0.0
210
0.0
220
0.0
230
1.0
 40
0.577350269189626
 41
0.0
 42
6.283185307179586
  0
ELLIPSE
  5
6876
330
67B6
100
AcDbEntity
  8
0
100
AcDbEllipse
 10
42.42640687119285
 20
7.552593373581469
 30
0.0
 11
-2.5
 21
-0.0000000000001493
 31
0.0
210
0.0
220
0.0
230
1.0
 40
0.577350269189626
 41
3.579741684173544
 42
5.845036276594996
  0
ELLIPSE
  5
6877
330
67B6
100
AcDbEntity
  8
0
100
AcDbEllipse
 10
14.14213562373094
 20
25.10726986352758
 30
0.0
 11
-2.5
 21
0.0000000000001489
 31
0.0
210
0.0
220
0.0
230
1.0
 40
0.577350269189626
 41
0.0
 42
6.283185307179586
  0
ELLIPSE
  5
6878
330
67B6
100
AcDbEntity
  8
0
100
AcDbEllipse
 10
14.14213562373094
 20
23.88252499213599
 30
0.0
 11
-2.5
 21
-0.0000000000001491
 31
0.0
210
0.0
220
0.0
230
1.0
 40
0.5773502691896259
 41
3.579741684173546
 42
5.845036276594996
  0
ELLIPSE
  5
6879
330
67B6
100
AcDbEntity
  8
0
100
AcDbEllipse
 10
-14.14213562373096
 20
41.4372014820821
 30
0.0
 11
-2.5
 21
0.0000000000001489
 31
0.0
210
0.0
220
0.0
230
1.0
 40
0.577350269189626
 41
0.0
 42
6.283185307179586
  0
ELLIPSE
  5
687A
330
67B6
100
AcDbEntity
  8
0
100
AcDbEllipse
 10
-14.14213562373096
 20
40.21245661069051
 30
0.0
 11
-2.5
 21
-0.0000000000001493
 31
0.0
210
0.0
220
0.0
230
1.0
 40
0.577350269189626
 41
3.579741684173548
 42
5.845036276594996
  0
ELLIPSE
  5
687B
330
67B6
100
AcDbEntity
  8
0
100
AcDbEllipse
 10
-42.42640687119286
 20
57.76713310063662
 30
0.0
 11
-2.5
 21
0.0000000000001489
 31
0.0
210
0.0
220
0.0
230
1.0
 40
0.577350269189626
 41
0.0
 42
6.283185307179586
  0
ELLIPSE
  5
687C
330
67B6
100
AcDbEntity
  8
0
100
AcDbEllipse
 10
-42.42640687119286
 20
56.54238822924503
 30
0.0
 11
-2.5
 21
-0.0000000000001493
 31
0.0
210
0.0
220
0.0
230
1.0
 40
0.577350269189626
 41
3.579741684173548
 42
5.845036276594996
  0
ELLIPSE
  5
687D
330
67B6
100
AcDbEntity
  8
0
100
AcDbEllipse
 10
113.1370849898476
 20
-48.37742241996777
 30
0.0
 11
-2.5
 21
0.0000000000001489
 31
0.0
210
0.0
220
0.0
230
1.0
 40
0.577350269189626
 41
0.0
 42
6.283185307179586
  0
ELLIPSE
  5
687E
330
67B6
100
AcDbEntity
  8
0
100
AcDbEllipse
 10
113.1370849898476
 20
-49.60216729135936
 30
0.0
 11
-2.5
 21
-0.0000000000001491
 31
0.0
210
0.0
220
0.0
230
1.0
 40
0.577350269189626
 41
3.579741684173542
 42
5.845036276594997
  0
ELLIPSE
  5
687F
330
67B6
100
AcDbEntity
  8
0
100
AcDbEllipse
 10
84.85281374238571
 20
-32.04749080141326
 30
0.0
 11
-2.5
 21
0.0000000000001489
 31
0.0
210
0.0
220
0.0
230
1.0
 40
0.577350269189626
 41
0.0
 42
6.283185307179586
  0
ELLIPSE
  5
6880
330
67B6
100
AcDbEntity
  8
0
100
AcDbEllipse
 10
84.85281374238571
 20
-33.27223567280484
 30
0.0
 11
-2.5
 21
-0.0000000000001491
 31
0.0
210
0.0
220
0.0
230
1.0
 40
0.577350269189626
 41
3.579741684173544
 42
5.845036276594999
  0
ELLIPSE
  5
6881
330
67B6
100
AcDbEntity
  8
0
100
AcDbEllipse
 10
56.56854249492382
 20
-15.71755918285872
 30
0.0
 11
-2.5
 21
0.0000000000001489
 31
0.0
210
0.0
220
0.0
230
1.0
 40
0.577350269189626
 41
0.0
 42
6.283185307179586
  0
ELLIPSE
  5
6882
330
67B6
100
AcDbEntity
  8
0
100
AcDbEllipse
 10
56.56854249492382
 20
-16.94230405425031
 30
0.0
 11
-2.5
 21
-0.0000000000001491
 31
0.0
210
0.0
220
0.0
230
1.0
 40
0.577350269189626
 41
3.579741684173544
 42
5.845036276594995
  0
ELLIPSE
  5
6883
330
67B6
100
AcDbEntity
  8
0
100
AcDbEllipse
 10
28.2842712474619
 20
0.6123724356957958
 30
0.0
 11
-2.5
 21
0.0000000000001489
 31
0.0
210
0.0
220
0.0
230
1.0
 40
0.577350269189626
 41
0.0
 42
6.283185307179586
  0
ELLIPSE
  5
6884
330
67B6
100
AcDbEntity
  8
0
100
AcDbEllipse
 10
28.2842712474619
 20
-0.6123724356957938
 30
0.0
 11
-2.5
 21
-0.0000000000001491
 31
0.0
210
0.0
220
0.0
230
1.0
 40
0.577350269189626
 41
3.579741684173546
 42
5.845036276594997
  0
ELLIPSE
  5
6885
330
67B6
100
AcDbEntity
  8
0
100
AcDbEllipse
 10
-0.0000000000000032
 20
16.94230405425032
 30
0.0
 11
-2.5
 21
0.0000000000001489
 31
0.0
210
0.0
220
0.0
230
1.0
 40
0.577350269189626
 41
0.0
 42
6.283185307179586
  0
ELLIPSE
  5
6886
330
67B6
100
AcDbEntity
  8
0
100
AcDbEllipse
 10
-0.0000000000000034
 20
15.71755918285872
 30
0.0
 11
-2.5
 21
-0.000000000000149
 31
0.0
210
0.0
220
0.0
230
1.0
 40
0.577350269189626
 41
3.579741684173548
 42
5.845036276594997
  0
ELLIPSE
  5
6887
330
67B6
100
AcDbEntity
  8
0
100
AcDbEllipse
 10
-28.28427124746191
 20
33.27223567280483
 30
0.0
 11
-2.5
 21
0.0000000000001489
 31
0.0
210
0.0
220
0.0
230
1.0
 40
0.577350269189626
 41
0.0
 42
6.283185307179586
  0
ELLIPSE
  5
6888
330
67B6
100
AcDbEntity
  8
0
100
AcDbEllipse
 10
-28.28427124746191
 20
32.04749080141325
 30
0.0
 11
-2.5
 21
-0.0000000000001491
 31
0.0
210
0.0
220
0.0
230
1.0
 40
0.577350269189626
 41
3.579741684173542
 42
5.845036276594993
  0
ELLIPSE
  5
6889
330
67B6
100
AcDbEntity
  8
0
100
AcDbEllipse
 10
-56.56854249492382
 20
49.60216729135936
 30
0.0
 11
-2.5
 21
0.0000000000001489
 31
0.0
210
0.0
220
0.0
230
1.0
 40
0.577350269189626
 41
0.0
 42
6.283185307179586
  0
ELLIPSE
  5
688A
330
67B6
100
AcDbEntity
  8
0
100
AcDbEllipse
 10
-56.56854249492382
 20
48.37742241996777
 30
0.0
 11
-2.5
 21
-0.0000000000001491
 31
0.0
210
0.0
220
0.0
230
1.0
 40
0.577350269189626
 41
3.579741684173548
 42
5.845036276594997
  0
ELLIPSE
  5
688B
330
67B6
100
AcDbEntity
  8
0
100
AcDbEllipse
 10
98.99494936611667
 20
-56.54238822924503
 30
0.0
 11
-2.5
 21
0.0000000000001489
 31
0.0
210
0.0
220
0.0
230
1.0
 40
0.577350269189626
 41
0.0
 42
6.283185307179586
  0
ELLIPSE
  5
688C
330
67B6
100
AcDbEntity
  8
0
100
AcDbEllipse
 10
98.99494936611667
 20
-57.76713310063662
 30
0.0
 11
-2.5
 21
-0.0000000000001495
 31
0.0
210
0.0
220
0.0
230
1.0
 40
0.577350269189626
 41
3.579741684173548
 42
5.845036276595001
  0
ELLIPSE
  5
688D
330
67B6
100
AcDbEntity
  8
0
100
AcDbEllipse
 10
70.71067811865477
 20
-40.21245661069051
 30
0.0
 11
-2.5
 21
0.0000000000001489
 31
0.0
210
0.0
220
0.0
230
1.0
 40
0.577350269189626
 41
0.0
 42
6.283185307179586
  0
ELLIPSE
  5
688E
330
67B6
100
AcDbEntity
  8
0
100
AcDbEllipse
 10
70.71067811865477
 20
-41.4372014820821
 30
0.0
 11
-2.5
 21
-0.0000000000001495
 31
0.0
210
0.0
220
0.0
230
1.0
 40
0.577350269189626
 41
3.579741684173548
 42
5.845036276594996
  0
ELLIPSE
  5
688F
330
67B6
100
AcDbEntity
  8
0
100
AcDbEllipse
 10
42.42640687119286
 20
-23.88252499213599
 30
0.0
 11
-2.5
 21
0.0000000000001489
 31
0.0
210
0.0
220
0.0
230
1.0
 40
0.577350269189626
 41
0.0
 42
6.283185307179586
  0
ELLIPSE
  5
6890
330
67B6
100
AcDbEntity
  8
0
100
AcDbEllipse
 10
42.42640687119286
 20
-25.10726986352758
 30
0.0
 11
-2.5
 21
-0.0000000000001495
 31
0.0
210
0.0
220
0.0
230
1.0
 40
0.577350269189626
 41
3.579741684173542
 42
5.845036276594991
  0
ELLIPSE
  5
6891
330
67B6
100
AcDbEntity
  8
0
100
AcDbEllipse
 10
14.14213562373095
 20
-7.552593373581467
 30
0.0
 11
-2.5
 21
0.0000000000001489
 31
0.0
210
0.0
220
0.0
230
1.0
 40
0.577350269189626
 41
0.0
 42
6.283185307179586
  0
ELLIPSE
  5
6892
330
67B6
100
AcDbEntity
  8
0
100
AcDbEllipse
 10
14.14213562373095
 20
-8.777338244973057
 30
0.0
 11
-2.5
 21
-0.0000000000001495
 31
0.0
210
0.0
220
0.0
230
1.0
 40
0.577350269189626
 41
3.579741684173544
 42
5.845036276594997
  0
ELLIPSE
  5
6893
330
67B6
100
AcDbEntity
  8
0
100
AcDbEllipse
 10
-14.14213562373095
 20
8.777338244973053
 30
0.0
 11
-2.5
 21
0.0000000000001489
 31
0.0
210
0.0
220
0.0
230
1.0
 40
0.577350269189626
 41
0.0
 42
6.283185307179586
  0
ELLIPSE
  5
6894
330
67B6
100
AcDbEntity
  8
0
100
AcDbEllipse
 10
-14.14213562373095
 20
7.552593373581463
 30
0.0
 11
-2.5
 21
-0.0000000000001495
 31
0.0
210
0.0
220
0.0
230
1.0
 40
0.5773502691896258
 41
3.579741684173546
 42
5.845036276594997
  0
ELLIPSE
  5
6895
330
67B6
100
AcDbEntity
  8
0
100
AcDbEllipse
 10
-42.42640687119285
 20
25.10726986352758
 30
0.0
 11
-2.5
 21
0.0000000000001489
 31
0.0
210
0.0
220
0.0
230
1.0
 40
0.577350269189626
 41
0.0
 42
6.283185307179586
  0
ELLIPSE
  5
6896
330
67B6
100
AcDbEntity
  8
0
100
AcDbEllipse
 10
-42.42640687119285
 20
23.88252499213598
 30
0.0
 11
-2.5
 21
-0.0000000000001495
 31
0.0
210
0.0
220
0.0
230
1.0
 40
0.577350269189626
 41
3.579741684173542
 42
5.845036276594993
  0
ELLIPSE
  5
6897
330
67B6
100
AcDbEntity
  8
0
100
AcDbEllipse
 10
-70.71067811865477
 20
41.43720148208209
 30
0.0
 11
-2.5
 21
0.0000000000001489
 31
0.0
210
0.0
220
0.0
230
1.0
 40
0.577350269189626
 41
0.0
 42
6.283185307179586
  0
ELLIPSE
  5
6898
330
67B6
100
AcDbEntity
  8
0
100
AcDbEllipse
 10
-70.71067811865477
 20
40.21245661069051
 30
0.0
 11
-2.5
 21
-0.0000000000001495
 31
0.0
210
0.0
220
0.0
230
1.0
 40
0.577350269189626
 41
3.579741684173548
 42
5.845036276594996
  0
ELLIPSE
  5
6899
330
67B6
100
AcDbEntity
  8
0
100
AcDbEllipse
 10
84.85281374238573
 20
-64.7073540385223
 30
0.0
 11
-2.5
 21
0.0000000000001489
 31
0.0
210
0.0
220
0.0
230
1.0
 40
0.577350269189626
 41
0.0
 42
6.283185307179586
  0
ELLIPSE
  5
689A
330
67B6
100
AcDbEntity
  8
0
100
AcDbEllipse
 10
84.85281374238573
 20
-65.93209890991388
 30
0.0
 11
-2.5
 21
-0.0000000000001491
 31
0.0
210
0.0
220
0.0
230
1.0
 40
0.577350269189626
 41
3.579741684173542
 42
5.845036276594997
  0
ELLIPSE
  5
689B
330
67B6
100
AcDbEntity
  8
0
100
AcDbEllipse
 10
56.56854249492383
 20
-48.37742241996778
 30
0.0
 11
-2.5
 21
0.0000000000001489
 31
0.0
210
0.0
220
0.0
230
1.0
 40
0.577350269189626
 41
0.0
 42
6.283185307179586
  0
ELLIPSE
  5
689C
330
67B6
100
AcDbEntity
  8
0
100
AcDbEllipse
 10
56.56854249492383
 20
-49.60216729135936
 30
0.0
 11
-2.5
 21
-0.0000000000001491
 31
0.0
210
0.0
220
0.0
230
1.0
 40
0.577350269189626
 41
3.579741684173548
 42
5.845036276595002
  0
ELLIPSE
  5
689D
330
67B6
100
AcDbEntity
  8
0
100
AcDbEllipse
 10
28.28427124746191
 20
-32.04749080141326
 30
0.0
 11
-2.5
 21
0.0000000000001489
 31
0.0
210
0.0
220
0.0
230
1.0
 40
0.577350269189626
 41
0.0
 42
6.283185307179586
  0
ELLIPSE
  5
689E
330
67B6
100
AcDbEntity
  8
0
100
AcDbEllipse
 10
28.28427124746191
 20
-33.27223567280484
 30
0.0
 11
-2.5
 21
-0.0000000000001491
 31
0.0
210
0.0
220
0.0
230
1.0
 40
0.577350269189626
 41
3.579741684173542
 42
5.845036276594997
  0
ELLIPSE
  5
689F
330
67B6
100
AcDbEntity
  8
0
100
AcDbEllipse
 10
0.0000000000000057
 20
-15.71755918285873
 30
0.0
 11
-2.5
 21
0.0000000000001489
 31
0.0
210
0.0
220
0.0
230
1.0
 40
0.577350269189626
 41
0.0
 42
6.283185307179586
  0
ELLIPSE
  5
68A0
330
67B6
100
AcDbEntity
  8
0
100
AcDbEllipse
 10
0.0000000000000055
 20
-16.94230405425032
 30
0.0
 11
-2.5
 21
-0.0000000000001491
 31
0.0
210
0.0
220
0.0
230
1.0
 40
0.577350269189626
 41
3.579741684173546
 42
5.845036276594997
  0
ELLIPSE
  5
68A1
330
67B6
100
AcDbEntity
  8
0
100
AcDbEllipse
 10
-28.2842712474619
 20
0.6123724356957892
 30
0.0
 11
-2.5
 21
0.0000000000001489
 31
0.0
210
0.0
220
0.0
230
1.0
 40
0.577350269189626
 41
0.0
 42
6.283185307179586
  0
ELLIPSE
  5
68A2
330
67B6
100
AcDbEntity
  8
0
100
AcDbEllipse
 10
-28.2842712474619
 20
-0.6123724356958005
 30
0.0
 11
-2.5
 21
-0.0000000000001493
 31
0.0
210
0.0
220
0.0
230
1.0
 40
0.5773502691896259
 41
3.579741684173546
 42
5.845036276594997
  0
ELLIPSE
  5
68A3
330
67B6
100
AcDbEntity
  8
0
100
AcDbEllipse
 10
-56.5685424949238
 20
16.94230405425031
 30
0.0
 11
-2.5
 21
0.0000000000001489
 31
0.0
210
0.0
220
0.0
230
1.0
 40
0.577350269189626
 41
0.0
 42
6.283185307179586
  0
ELLIPSE
  5
68A4
330
67B6
100
AcDbEntity
  8
0
100
AcDbEllipse
 10
-56.5685424949238
 20
15.71755918285872
 30
0.0
 11
-2.5
 21
-0.0000000000001491
 31
0.0
210
0.0
220
0.0
230
1.0
 40
0.577350269189626
 41
3.579741684173544
 42
5.845036276594997
  0
ELLIPSE
  5
68A5
330
67B6
100
AcDbEntity
  8
0
100
AcDbEllipse
 10
-84.85281374238573
 20
33.27223567280483
 30
0.0
 11
-2.5
 21
0.0000000000001489
 31
0.0
210
0.0
220
0.0
230
1.0
 40
0.577350269189626
 41
0.0
 42
6.283185307179586
  0
ELLIPSE
  5
68A6
330
67B6
100
AcDbEntity
  8
0
100
AcDbEllipse
 10
-84.85281374238573
 20
32.04749080141325
 30
0.0
 11
-2.5
 21
-0.0000000000001491
 31
0.0
210
0.0
220
0.0
230
1.0
 40
0.577350269189626
 41
3.579741684173542
 42
5.845036276594997
  0
ELLIPSE
  5
68A7
330
67B6
100
AcDbEntity
  8
0
100
AcDbEllipse
 10
70.71067811865479
 20
-72.87231984779956
 30
0.0
 11
-2.5
 21
0.0000000000001489
 31
0.0
210
0.0
220
0.0
230
1.0
 40
0.577350269189626
 41
0.0
 42
6.283185307179586
  0
ELLIPSE
  5
68A8
330
67B6
100
AcDbEntity
  8
0
100
AcDbEllipse
 10
70.71067811865479
 20
-74.09706471919114
 30
0.0
 11
-2.5
 21
-0.0000000000001491
 31
0.0
210
0.0
220
0.0
230
1.0
 40
0.577350269189626
 41
3.579741684173548
 42
5.845036276594997
  0
ELLIPSE
  5
68A9
330
67B6
100
AcDbEntity
  8
0
100
AcDbEllipse
 10
42.42640687119287
 20
-56.54238822924504
 30
0.0
 11
-2.5
 21
0.0000000000001489
 31
0.0
210
0.0
220
0.0
230
1.0
 40
0.577350269189626
 41
0.0
 42
6.283185307179586
  0
ELLIPSE
  5
68AA
330
67B6
100
AcDbEntity
  8
0
100
AcDbEllipse
 10
42.42640687119287
 20
-57.76713310063662
 30
0.0
 11
-2.5
 21
-0.0000000000001491
 31
0.0
210
0.0
220
0.0
230
1.0
 40
0.577350269189626
 41
3.579741684173548
 42
5.845036276594997
  0
ELLIPSE
  5
68AB
330
67B6
100
AcDbEntity
  8
0
100
AcDbEllipse
 10
14.14213562373096
 20
-40.21245661069051
 30
0.0
 11
-2.5
 21
0.0000000000001489
 31
0.0
210
0.0
220
0.0
230
1.0
 40
0.577350269189626
 41
0.0
 42
6.283185307179586
  0
ELLIPSE
  5
68AC
330
67B6
100
AcDbEntity
  8
0
100
AcDbEllipse
 10
14.14213562373096
 20
-41.4372014820821
 30
0.0
 11
-2.5
 21
-0.0000000000001491
 31
0.0
210
0.0
220
0.0
230
1.0
 40
0.577350269189626
 41
3.579741684173548
 42
5.845036276594997
  0
ELLIPSE
  5
68AD
330
67B6
100
AcDbEntity
  8
0
100
AcDbEllipse
 10
-14.14213562373094
 20
-23.882524992136
 30
0.0
 11
-2.5
 21
0.0000000000001489
 31
0.0
210
0.0
220
0.0
230
1.0
 40
0.577350269189626
 41
0.0
 42
6.283185307179586
  0
ELLIPSE
  5
68AE
330
67B6
100
AcDbEntity
  8
0
100
AcDbEllipse
 10
-14.14213562373094
 20
-25.10726986352759
 30
0.0
 11
-2.5
 21
-0.0000000000001491
 31
0.0
210
0.0
220
0.0
230
1.0
 40
0.577350269189626
 41
3.579741684173542
 42
5.845036276594997
  0
ELLIPSE
  5
68AF
330
67B6
100
AcDbEntity
  8
0
100
AcDbEllipse
 10
-42.42640687119284
 20
-7.552593373581474
 30
0.0
 11
-2.5
 21
0.0000000000001489
 31
0.0
210
0.0
220
0.0
230
1.0
 40
0.577350269189626
 41
0.0
 42
6.283185307179586
  0
ELLIPSE
  5
68B0
330
67B6
100
AcDbEntity
  8
0
100
AcDbEllipse
 10
-42.42640687119284
 20
-8.777338244973064
 30
0.0
 11
-2.5
 21
-0.000000000000149
 31
0.0
210
0.0
220
0.0
230
1.0
 40
0.577350269189626
 41
3.579741684173546
 42
5.845036276594998
  0
ELLIPSE
  5
68B1
330
67B6
100
AcDbEntity
  8
0
100
AcDbEllipse
 10
-70.71067811865475
 20
8.777338244973048
 30
0.0
 11
-2.5
 21
0.0000000000001489
 31
0.0
210
0.0
220
0.0
230
1.0
 40
0.577350269189626
 41
0.0
 42
6.283185307179586
  0
ELLIPSE
  5
68B2
330
67B6
100
AcDbEntity
  8
0
100
AcDbEllipse
 10
-70.71067811865475
 20
7.552593373581457
 30
0.0
 11
-2.5
 21
-0.0000000000001491
 31
0.0
210
0.0
220
0.0
230
1.0
 40
0.577350269189626
 41
3.579741684173544
 42
5.845036276594998
  0
ELLIPSE
  5
68B3
330
67B6
100
AcDbEntity
  8
0
100
AcDbEllipse
 10
-98.99494936611667
 20
25.10726986352757
 30
0.0
 11
-2.5
 21
0.0000000000001489
 31
0.0
210
0.0
220
0.0
230
1.0
 40
0.577350269189626
 41
0.0
 42
6.283185307179586
  0
ELLIPSE
  5
68B4
330
67B6
100
AcDbEntity
  8
0
100
AcDbEllipse
 10
-98.99494936611667
 20
23.88252499213598
 30
0.0
 11
-2.5
 21
-0.0000000000001491
 31
0.0
210
0.0
220
0.0
230
1.0
 40
0.577350269189626
 41
3.579741684173544
 42
5.845036276594997
  0
ELLIPSE
  5
68B5
330
67B6
100
AcDbEntity
  8
0
100
AcDbEllipse
 10
56.56854249492383
 20
-81.03728565707681
 30
0.0
 11
-2.5
 21
0.0000000000001489
 31
0.0
210
0.0
220
0.0
230
1.0
 40
0.577350269189626
 41
0.0
 42
6.283185307179586
  0
ELLIPSE
  5
68B6
330
67B6
100
AcDbEntity
  8
0
100
AcDbEllipse
 10
56.56854249492383
 20
-82.26203052846841
 30
0.0
 11
-2.5
 21
-0.0000000000001493
 31
0.0
210
0.0
220
0.0
230
1.0
 40
0.577350269189626
 41
3.579741684173546
 42
5.845036276594994
  0
ELLIPSE
  5
68B7
330
67B6
100
AcDbEntity
  8
0
100
AcDbEllipse
 10
28.28427124746192
 20
-64.7073540385223
 30
0.0
 11
-2.5
 21
0.0000000000001489
 31
0.0
210
0.0
220
0.0
230
1.0
 40
0.577350269189626
 41
0.0
 42
6.283185307179586
  0
ELLIPSE
  5
68B8
330
67B6
100
AcDbEntity
  8
0
100
AcDbEllipse
 10
28.28427124746192
 20
-65.93209890991388
 30
0.0
 11
-2.5
 21
-0.0000000000001493
 31
0.0
210
0.0
220
0.0
230
1.0
 40
0.577350269189626
 41
3.579741684173548
 42
5.845036276594997
  0
ELLIPSE
  5
68B9
330
67B6
100
AcDbEntity
  8
0
100
AcDbEllipse
 10
0.0000000000000146
 20
-48.37742241996778
 30
0.0
 11
-2.5
 21
0.0000000000001489
 31
0.0
210
0.0
220
0.0
230
1.0
 40
0.577350269189626
 41
0.0
 42
6.283185307179586
  0
ELLIPSE
  5
68BA
330
67B6
100
AcDbEntity
  8
0
100
AcDbEllipse
 10
0.0000000000000144
 20
-49.60216729135936
 30
0.0
 11
-2.5
 21
-0.0000000000001493
 31
0.0
210
0.0
220
0.0
230
1.0
 40
0.577350269189626
 41
3.579741684173548
 42
5.845036276594997
  0
ELLIPSE
  5
68BB
330
67B6
100
AcDbEntity
  8
0
100
AcDbEllipse
 10
-28.2842712474619
 20
-32.04749080141326
 30
0.0
 11
-2.5
 21
0.0000000000001489
 31
0.0
210
0.0
220
0.0
230
1.0
 40
0.577350269189626
 41
0.0
 42
6.283185307179586
  0
ELLIPSE
  5
68BC
330
67B6
100
AcDbEntity
  8
0
100
AcDbEllipse
 10
-28.2842712474619
 20
-33.27223567280485
 30
0.0
 11
-2.5
 21
-0.0000000000001493
 31
0.0
210
0.0
220
0.0
230
1.0
 40
0.577350269189626
 41
3.579741684173542
 42
5.845036276594996
  0
ELLIPSE
  5
68BD
330
67B6
100
AcDbEntity
  8
0
100
AcDbEllipse
 10
-56.56854249492379
 20
-15.71755918285874
 30
0.0
 11
-2.5
 21
0.0000000000001489
 31
0.0
210
0.0
220
0.0
230
1.0
 40
0.577350269189626
 41
0.0
 42
6.283185307179586
  0
ELLIPSE
  5
68BE
330
67B6
100
AcDbEntity
  8
0
100
AcDbEllipse
 10
-56.56854249492379
 20
-16.94230405425033
 30
0.0
 11
-2.5
 21
-0.0000000000001491
 31
0.0
210
0.0
220
0.0
230
1.0
 40
0.5773502691896259
 41
3.579741684173546
 42
5.845036276594997
  0
ELLIPSE
  5
68BF
330
67B6
100
AcDbEntity
  8
0
100
AcDbEllipse
 10
-84.85281374238571
 20
0.6123724356957825
 30
0.0
 11
-2.5
 21
0.0000000000001489
 31
0.0
210
0.0
220
0.0
230
1.0
 40
0.577350269189626
 41
0.0
 42
6.283185307179586
  0
ELLIPSE
  5
68C0
330
67B6
100
AcDbEntity
  8
0
100
AcDbEllipse
 10
-84.85281374238571
 20
-0.6123724356958072
 30
0.0
 11
-2.5
 21
-0.0000000000001493
 31
0.0
210
0.0
220
0.0
230
1.0
 40
0.577350269189626
 41
3.579741684173546
 42
5.845036276594997
  0
ELLIPSE
  5
68C1
330
67B6
100
AcDbEntity
  8
0
100
AcDbEllipse
 10
-113.1370849898476
 20
16.9423040542503
 30
0.0
 11
-2.5
 21
0.0000000000001489
 31
0.0
210
0.0
220
0.0
230
1.0
 40
0.577350269189626
 41
0.0
 42
6.283185307179586
  0
ELLIPSE
  5
68C2
330
67B6
100
AcDbEntity
  8
0
100
AcDbEllipse
 10
-113.1370849898476
 20
15.71755918285871
 30
0.0
 11
-2.5
 21
-0.0000000000001493
 31
0.0
210
0.0
220
0.0
230
1.0
 40
0.577350269189626
 41
3.579741684173546
 42
5.845036276594997
  0
ELLIPSE
  5
68C3
330
67B6
100
AcDbEntity
  8
0
100
AcDbEllipse
 10
42.42640687119288
 20
-89.20225146635408
 30
0.0
 11
-2.5
 21
0.0000000000001489
 31
0.0
210
0.0
220
0.0
230
1.0
 40
0.577350269189626
 41
0.0
 42
6.283185307179586
  0
ELLIPSE
  5
68C4
330
67B6
100
AcDbEntity
  8
0
100
AcDbEllipse
 10
42.42640687119288
 20
-90.42699633774567
 30
0.0
 11
-2.5
 21
-0.0000000000001493
 31
0.0
210
0.0
220
0.0
230
1.0
 40
0.577350269189626
 41
3.579741684173546
 42
5.845036276594994
  0
ELLIPSE
  5
68C5
330
67B6
100
AcDbEntity
  8
0
100
AcDbEllipse
 10
14.14213562373097
 20
-72.87231984779956
 30
0.0
 11
-2.5
 21
0.0000000000001489
 31
0.0
210
0.0
220
0.0
230
1.0
 40
0.577350269189626
 41
0.0
 42
6.283185307179586
  0
ELLIPSE
  5
68C6
330
67B6
100
AcDbEntity
  8
0
100
AcDbEllipse
 10
14.14213562373097
 20
-74.09706471919115
 30
0.0
 11
-2.5
 21
-0.0000000000001493
 31
0.0
210
0.0
220
0.0
230
1.0
 40
0.577350269189626
 41
3.579741684173548
 42
5.845036276594997
  0
ELLIPSE
  5
68C7
330
67B6
100
AcDbEntity
  8
0
100
AcDbEllipse
 10
-14.14213562373094
 20
-56.54238822924504
 30
0.0
 11
-2.5
 21
0.0000000000001489
 31
0.0
210
0.0
220
0.0
230
1.0
 40
0.577350269189626
 41
0.0
 42
6.283185307179586
  0
ELLIPSE
  5
68C8
330
67B6
100
AcDbEntity
  8
0
100
AcDbEllipse
 10
-14.14213562373094
 20
-57.76713310063662
 30
0.0
 11
-2.5
 21
-0.0000000000001493
 31
0.0
210
0.0
220
0.0
230
1.0
 40
0.577350269189626
 41
3.579741684173548
 42
5.845036276594997
  0
ELLIPSE
  5
68C9
330
67B6
100
AcDbEntity
  8
0
100
AcDbEllipse
 10
-42.42640687119283
 20
-40.21245661069052
 30
0.0
 11
-2.5
 21
0.0000000000001489
 31
0.0
210
0.0
220
0.0
230
1.0
 40
0.577350269189626
 41
0.0
 42
6.283185307179586
  0
ELLIPSE
  5
68CA
330
67B6
100
AcDbEntity
  8
0
100
AcDbEllipse
 10
-42.42640687119283
 20
-41.43720148208211
 30
0.0
 11
-2.5
 21
-0.0000000000001493
 31
0.0
210
0.0
220
0.0
230
1.0
 40
0.577350269189626
 41
3.579741684173548
 42
5.845036276594996
  0
ELLIPSE
  5
68CB
330
67B6
100
AcDbEntity
  8
0
100
AcDbEllipse
 10
-70.71067811865474
 20
-23.882524992136
 30
0.0
 11
-2.5
 21
0.0000000000001489
 31
0.0
210
0.0
220
0.0
230
1.0
 40
0.577350269189626
 41
0.0
 42
6.283185307179586
  0
ELLIPSE
  5
68CC
330
67B6
100
AcDbEntity
  8
0
100
AcDbEllipse
 10
-70.71067811865474
 20
-25.10726986352759
 30
0.0
 11
-2.5
 21
-0.0000000000001491
 31
0.0
210
0.0
220
0.0
230
1.0
 40
0.5773502691896259
 41
3.579741684173544
 42
5.845036276594996
  0
ELLIPSE
  5
68CD
330
67B6
100
AcDbEntity
  8
0
100
AcDbEllipse
 10
-98.99494936611667
 20
-7.55259337358148
 30
0.0
 11
-2.5
 21
0.0000000000001489
 31
0.0
210
0.0
220
0.0
230
1.0
 40
0.577350269189626
 41
0.0
 42
6.283185307179586
  0
ELLIPSE
  5
68CE
330
67B6
100
AcDbEntity
  8
0
100
AcDbEllipse
 10
-98.99494936611667
 20
-8.777338244973069
 30
0.0
 11
-2.5
 21
-0.0000000000001493
 31
0.0
210
0.0
220
0.0
230
1.0
 40
0.577350269189626
 41
3.579741684173548
 42
5.845036276594997
  0
ELLIPSE
  5
68CF
330
67B6
100
AcDbEntity
  8
0
100
AcDbEllipse
 10
-127.2792206135785
 20
8.777338244973041
 30
0.0
 11
-2.5
 21
0.0000000000001489
 31
0.0
210
0.0
220
0.0
230
1.0
 40
0.577350269189626
 41
0.0
 42
6.283185307179586
  0
ELLIPSE
  5
68D0
330
67B6
100
AcDbEntity
  8
0
100
AcDbEllipse
 10
-127.2792206135785
 20
7.55259337358145
 30
0.0
 11
-2.5
 21
-0.0000000000001493
 31
0.0
210
0.0
220
0.0
230
1.0
 40
0.577350269189626
 41
3.579741684173548
 42
5.845036276594997
  0
ELLIPSE
  5
68D1
330
67B6
100
AcDbEntity
  8
0
100
AcDbEllipse
 10
-28.28427124746194
 20
98.59196214702294
 30
0.0
 11
-2.5
 21
0.0000000000001489
 31
0.0
210
0.0
220
0.0
230
1.0
 40
0.577350269189626
 41
0.0
 42
6.283185307179586
  0
ELLIPSE
  5
68D2
330
67B6
100
AcDbEntity
  8
0
100
AcDbEllipse
 10
-28.28427124746194
 20
97.36721727563136
 30
0.0
 11
-2.5
 21
-0.0000000000001493
 31
0.0
210
0.0
220
0.0
230
1.0
 40
0.577350269189626
 41
3.579741684173548
 42
5.845036276594996
  0
ELLIPSE
  5
68D3
330
67B6
100
AcDbEntity
  8
0
100
AcDbEllipse
 10
-42.42640687119288
 20
90.42699633774567
 30
0.0
 11
-2.5
 21
0.0000000000001489
 31
0.0
210
0.0
220
0.0
230
1.0
 40
0.577350269189626
 41
0.0
 42
6.283185307179586
  0
ELLIPSE
  5
68D4
330
67B6
100
AcDbEntity
  8
0
100
AcDbEllipse
 10
-42.42640687119288
 20
89.20225146635408
 30
0.0
 11
-2.5
 21
-0.0000000000001493
 31
0.0
210
0.0
220
0.0
230
1.0
 40
0.577350269189626
 41
3.579741684173546
 42
5.845036276594996
  0
ELLIPSE
  5
68D5
330
67B6
100
AcDbEntity
  8
0
100
AcDbEllipse
 10
-56.56854249492383
 20
82.26203052846841
 30
0.0
 11
-2.5
 21
0.0000000000001489
 31
0.0
210
0.0
220
0.0
230
1.0
 40
0.577350269189626
 41
0.0
 42
6.283185307179586
  0
ELLIPSE
  5
68D6
330
67B6
100
AcDbEntity
  8
0
100
AcDbEllipse
 10
-56.56854249492383
 20
81.03728565707681
 30
0.0
 11
-2.5
 21
-0.0000000000001493
 31
0.0
210
0.0
220
0.0
230
1.0
 40
0.577350269189626
 41
3.579741684173546
 42
5.845036276594994
  0
ELLIPSE
  5
68D7
330
67B6
100
AcDbEntity
  8
0
100
AcDbEllipse
 10
-70.71067811865479
 20
74.09706471919114
 30
0.0
 11
-2.5
 21
0.0000000000001489
 31
0.0
210
0.0
220
0.0
230
1.0
 40
0.577350269189626
 41
0.0
 42
6.283185307179586
  0
ELLIPSE
  5
68D8
330
67B6
100
AcDbEntity
  8
0
100
AcDbEllipse
 10
-70.71067811865479
 20
72.87231984779954
 30
0.0
 11
-2.5
 21
-0.0000000000001493
 31
0.0
210
0.0
220
0.0
230
1.0
 40
0.577350269189626
 41
3.579741684173548
 42
5.845036276594996
  0
ELLIPSE
  5
68D9
330
67B6
100
AcDbEntity
  8
0
100
AcDbEllipse
 10
-84.85281374238573
 20
65.93209890991388
 30
0.0
 11
-2.5
 21
0.0000000000001489
 31
0.0
210
0.0
220
0.0
230
1.0
 40
0.577350269189626
 41
0.0
 42
6.283185307179586
  0
ELLIPSE
  5
68DA
330
67B6
100
AcDbEntity
  8
0
100
AcDbEllipse
 10
-84.85281374238573
 20
64.70735403852228
 30
0.0
 11
-2.5
 21
-0.0000000000001491
 31
0.0
210
0.0
220
0.0
230
1.0
 40
0.577350269189626
 41
3.579741684173542
 42
5.845036276594997
  0
ELLIPSE
  5
68DB
330
67B6
100
AcDbEntity
  8
0
100
AcDbEllipse
 10
-98.99494936611668
 20
57.76713310063661
 30
0.0
 11
-2.5
 21
0.0000000000001489
 31
0.0
210
0.0
220
0.0
230
1.0
 40
0.577350269189626
 41
0.0
 42
6.283185307179586
  0
ELLIPSE
  5
68DC
330
67B6
100
AcDbEntity
  8
0
100
AcDbEllipse
 10
-98.99494936611668
 20
56.54238822924502
 30
0.0
 11
-2.5
 21
-0.0000000000001495
 31
0.0
210
0.0
220
0.0
230
1.0
 40
0.577350269189626
 41
3.579741684173548
 42
5.845036276595001
  0
ELLIPSE
  5
68DD
330
67B6
100
AcDbEntity
  8
0
100
AcDbEllipse
 10
-113.1370849898476
 20
49.60216729135935
 30
0.0
 11
-2.5
 21
0.0000000000001489
 31
0.0
210
0.0
220
0.0
230
1.0
 40
0.577350269189626
 41
0.0
 42
6.283185307179586
  0
ELLIPSE
  5
68DE
330
67B6
100
AcDbEntity
  8
0
100
AcDbEllipse
 10
-113.1370849898476
 20
48.37742241996775
 30
0.0
 11
-2.5
 21
-0.0000000000001491
 31
0.0
210
0.0
220
0.0
230
1.0
 40
0.577350269189626
 41
3.579741684173542
 42
5.845036276594997
  0
ELLIPSE
  5
68DF
330
67B6
100
AcDbEntity
  8
0
100
AcDbEllipse
 10
-127.2792206135786
 20
41.43720148208209
 30
0.0
 11
-2.5
 21
0.0000000000001489
 31
0.0
210
0.0
220
0.0
230
1.0
 40
0.577350269189626
 41
0.0
 42
6.283185307179586
  0
ELLIPSE
  5
68E0
330
67B6
100
AcDbEntity
  8
0
100
AcDbEllipse
 10
-127.2792206135786
 20
40.21245661069049
 30
0.0
 11
-2.5
 21
-0.0000000000001491
 31
0.0
210
0.0
220
0.0
230
1.0
 40
0.577350269189626
 41
3.579741684173548
 42
5.845036276595002
  0
ELLIPSE
  5
68E1
330
67B6
100
AcDbEntity
  8
0
100
AcDbEllipse
 10
-141.4213562373095
 20
33.27223567280482
 30
0.0
 11
-2.5
 21
0.0000000000001489
 31
0.0
210
0.0
220
0.0
230
1.0
 40
0.577350269189626
 41
0.0
 42
6.283185307179586
  0
ELLIPSE
  5
68E2
330
67B6
100
AcDbEntity
  8
0
100
AcDbEllipse
 10
-141.4213562373095
 20
32.04749080141323
 30
0.0
 11
-2.5
 21
-0.0000000000001493
 31
0.0
210
0.0
220
0.0
230
1.0
 40
0.577350269189626
 41
3.579741684173544
 42
5.845036276594996
  0
ELLIPSE
  5
68E3
330
67B6
100
AcDbEntity
  8
0
100
AcDbEllipse
 10
-155.5634918610405
 20
25.10726986352756
 30
0.0
 11
-2.5
 21
0.0000000000001489
 31
0.0
210
0.0
220
0.0
230
1.0
 40
0.577350269189626
 41
0.0
 42
6.283185307179586
  0
ELLIPSE
  5
68E4
330
67B6
100
AcDbEntity
  8
0
100
AcDbEllipse
 10
-155.5634918610405
 20
23.88252499213597
 30
0.0
 11
-2.5
 21
-0.0000000000001493
 31
0.0
210
0.0
220
0.0
230
1.0
 40
0.577350269189626
 41
3.579741684173544
 42
5.845036276594996
  0
ELLIPSE
  5
68E5
330
67B6
100
AcDbEntity
  8
0
100
AcDbEllipse
 10
28.28427124746193
 20
-97.36721727563136
 30
0.0
 11
-2.5
 21
0.0000000000001489
 31
0.0
210
0.0
220
0.0
230
1.0
 40
0.577350269189626
 41
0.0
 42
6.283185307179586
  0
ELLIPSE
  5
68E6
330
67B6
100
AcDbEntity
  8
0
100
AcDbEllipse
 10
28.28427124746193
 20
-98.59196214702294
 30
0.0
 11
-2.5
 21
-0.0000000000001493
 31
0.0
210
0.0
220
0.0
230
1.0
 40
0.577350269189626
 41
3.579741684173548
 42
5.845036276594996
  0
ELLIPSE
  5
68E7
330
67B6
100
AcDbEntity
  8
0
100
AcDbEllipse
 10
0.0000000000000234
 20
-81.03728565707681
 30
0.0
 11
-2.5
 21
0.0000000000001489
 31
0.0
210
0.0
220
0.0
230
1.0
 40
0.577350269189626
 41
0.0
 42
6.283185307179586
  0
ELLIPSE
  5
68E8
330
67B6
100
AcDbEntity
  8
0
100
AcDbEllipse
 10
0.0000000000000233
 20
-82.26203052846841
 30
0.0
 11
-2.5
 21
-0.0000000000001493
 31
0.0
210
0.0
220
0.0
230
1.0
 40
0.577350269189626
 41
3.579741684173548
 42
5.845036276594996
  0
ELLIPSE
  5
68E9
330
67B6
100
AcDbEntity
  8
0
100
AcDbEllipse
 10
-28.28427124746188
 20
-64.70735403852231
 30
0.0
 11
-2.5
 21
0.0000000000001489
 31
0.0
210
0.0
220
0.0
230
1.0
 40
0.577350269189626
 41
0.0
 42
6.283185307179586
  0
ELLIPSE
  5
68EA
330
67B6
100
AcDbEntity
  8
0
100
AcDbEllipse
 10
-28.28427124746188
 20
-65.9320989099139
 30
0.0
 11
-2.5
 21
-0.0000000000001489
 31
0.0
210
0.0
220
0.0
230
1.0
 40
0.577350269189626
 41
3.579741684173542
 42
5.845036276594997
  0
ELLIPSE
  5
68EB
330
67B6
100
AcDbEntity
  8
0
100
AcDbEllipse
 10
-56.56854249492379
 20
-48.37742241996779
 30
0.0
 11
-2.5
 21
0.0000000000001489
 31
0.0
210
0.0
220
0.0
230
1.0
 40
0.577350269189626
 41
0.0
 42
6.283185307179586
  0
ELLIPSE
  5
68EC
330
67B6
100
AcDbEntity
  8
0
100
AcDbEllipse
 10
-56.56854249492379
 20
-49.60216729135938
 30
0.0
 11
-2.5
 21
-0.0000000000001497
 31
0.0
210
0.0
220
0.0
230
1.0
 40
0.5773502691896257
 41
3.579741684173541
 42
5.845036276594996
  0
ELLIPSE
  5
68ED
330
67B6
100
AcDbEntity
  8
0
100
AcDbEllipse
 10
-84.85281374238569
 20
-32.04749080141327
 30
0.0
 11
-2.5
 21
0.0000000000001489
 31
0.0
210
0.0
220
0.0
230
1.0
 40
0.577350269189626
 41
0.0
 42
6.283185307179586
  0
ELLIPSE
  5
68EE
330
67B6
100
AcDbEntity
  8
0
100
AcDbEllipse
 10
-84.85281374238569
 20
-33.27223567280486
 30
0.0
 11
-2.5
 21
-0.0000000000001493
 31
0.0
210
0.0
220
0.0
230
1.0
 40
0.577350269189626
 41
3.579741684173544
 42
5.845036276594996
  0
ELLIPSE
  5
68EF
330
67B6
100
AcDbEntity
  8
0
100
AcDbEllipse
 10
-113.1370849898476
 20
-15.71755918285874
 30
0.0
 11
-2.5
 21
0.0000000000001489
 31
0.0
210
0.0
220
0.0
230
1.0
 40
0.577350269189626
 41
0.0
 42
6.283185307179586
  0
ELLIPSE
  5
68F0
330
67B6
100
AcDbEntity
  8
0
100
AcDbEllipse
 10
-113.1370849898476
 20
-16.94230405425033
 30
0.0
 11
-2.5
 21
-0.0000000000001489
 31
0.0
210
0.0
220
0.0
230
1.0
 40
0.577350269189626
 41
3.579741684173542
 42
5.845036276594997
  0
ELLIPSE
  5
68F1
330
67B6
100
AcDbEntity
  8
0
100
AcDbEllipse
 10
-141.4213562373095
 20
0.6123724356957736
 30
0.0
 11
-2.5
 21
0.0000000000001489
 31
0.0
210
0.0
220
0.0
230
1.0
 40
0.577350269189626
 41
0.0
 42
6.283185307179586
  0
ELLIPSE
  5
68F2
330
67B6
100
AcDbEntity
  8
0
100
AcDbEllipse
 10
-141.4213562373095
 20
-0.612372435695816
 30
0.0
 11
-2.5
 21
-0.0000000000001493
 31
0.0
210
0.0
220
0.0
230
1.0
 40
0.577350269189626
 41
3.579741684173546
 42
5.845036276594997
  0
ELLIPSE
  5
68F3
330
67B6
100
AcDbEntity
  8
0
100
AcDbEllipse
 10
-169.7056274847714
 20
16.94230405425029
 30
0.0
 11
-2.5
 21
0.0000000000001489
 31
0.0
210
0.0
220
0.0
230
1.0
 40
0.577350269189626
 41
0.0
 42
6.283185307179586
  0
ELLIPSE
  5
68F4
330
67B6
100
AcDbEntity
  8
0
100
AcDbEllipse
 10
-169.7056274847714
 20
15.7175591828587
 30
0.0
 11
-2.5
 21
-0.0000000000001493
 31
0.0
210
0.0
220
0.0
230
1.0
 40
0.577350269189626
 41
3.579741684173546
 42
5.845036276594994
  0
LINE
  5
68F5
330
67B6
100
AcDbEntity
  8
0
100
AcDbLine
 10
183.8477631085023
 20
-16.94230405425028
 30
0.0
 11
28.2842712474619
 21
-106.7569279563001
 31
0.0
  0
LINE
  5
68F6
330
67B6
100
AcDbEntity
  8
0
100
AcDbLine
 10
183.8477631085023
 20
-16.94230405425028
 30
0.0
 11
183.8477631085023
 21
-15.7175591828587
 31
0.0
  0
LINE
  5
68F7
330
67B6
100
AcDbEntity
  8
0
100
AcDbLine
 10
28.2842712474619
 20
-105.5321830849085
 30
0.0
 11
183.8477631085023
 21
-15.7175591828587
 31
0.0
  0
LINE
  5
68F8
330
67B6
100
AcDbEntity
  8
0
100
AcDbLine
 10
28.2842712474619
 20
-106.7569279563001
 30
0.0
 11
28.2842712474619
 21
-105.5321830849085
 31
0.0
  0
LINE
  5
68F9
330
67B6
100
AcDbEntity
  8
0
100
AcDbLine
 10
28.2842712474619
 20
-106.7569279563001
 30
0.0
 11
-183.8477631085023
 21
15.7175591828587
 31
0.0
  0
LINE
  5
68FA
330
67B6
100
AcDbEntity
  8
0
100
AcDbLine
 10
-183.8477631085023
 20
16.94230405425028
 30
0.0
 11
28.28427124746191
 21
-105.5321830849085
 31
0.0
  0
LINE
  5
68FB
330
67B6
100
AcDbEntity
  8
0
100
AcDbLine
 10
-183.8477631085023
 20
15.71755918285869
 30
0.0
 11
-183.8477631085023
 21
16.94230405425028
 31
0.0
  0
LINE
  5
68FC
330
67B6
100
AcDbEntity
  8
0
100
AcDbLine
 10
-28.28427124746195
 20
106.7569279563002
 30
0.0
 11
-183.8477631085023
 21
16.94230405425028
 31
0.0
  0
LINE
  5
68FD
330
67B6
100
AcDbEntity
  8
0
100
AcDbLine
 10
183.8477631085023
 20
-15.7175591828587
 30
0.0
 11
-28.28427124746195
 21
106.7569279563002
 31
0.0
  0
ENDBLK
  5
67B8
330
67B6
100
AcDbEntity
  8
0
100
AcDbBlockEnd
  0
ENDSEC
  0
SECTION
  2
ENTITIES
  0
INSERT
  5
68FE
330
1F
100
AcDbEntity
  8
0
100
AcDbBlockReference
  2
NP15_220_300-Front
 10
0.0
 20
0.0
 30
0.0
  0
INSERT
  5
68FF
330
1F
100
AcDbEntity
  8
0
100
AcDbBlockReference
  2
NP15_220_300-Left
 10
333.9999999999999
 20
0.0
 30
0.0
  0
INSERT
  5
6900
330
1F
100
AcDbEntity
  8
0
100
AcDbBlockReference
  2
NP15_220_300-Right
 10
-334.0
 20
0.0
 30
0.0
  0
INSERT
  5
6901
330
1F
100
AcDbEntity
  8
0
100
AcDbBlockReference
  2
NP15_220_300-Top
 10
0.0
 20
-184.0
 30
0.0
  0
INSERT
  5
6902
330
1F
100
AcDbEntity
  8
0
100
AcDbBlockReference
  2
NP15_220_300-Bottom
 10
0.0
 20
185.5
 30
0.0
  0
INSERT
  5
6903
330
1F
100
AcDbEntity
  8
0
100
AcDbBlockReference
  2
NP15_220_300-ISO
 10
407.8477631085023
 20
-180.7569279563002
 30
0.0
  0
MTEXT
  5
6904
330
1F
100
AcDbEntity
  8
0
100
AcDbMText
 10
0.0
 20
-368.0
 30
0.0
 40
24.66666666666666
 41
0.0
 71
     5
 72
     5
  1
NP15/220/300
 73
     1
 44
1.0
1001
ACAD
1000
MTEXTBEGIN
1070
    73
1070
     1
1070
    44
1040
1.0
1070
    74
1070
     0
1000
MTEXTEND
  0
ENDSEC
  0
SECTION
  2
OBJECTS
  0
DICTIONARY
  5
C
330
0
100
AcDbDictionary
281
     1
  3
ACAD_CIP_PREVIOUS_PRODUCT_INFO
350
216
  3
ACAD_COLOR
350
6B
  3
ACAD_DETAILVIEWSTYLE
350
21B
  3
ACAD_GROUP
350
D
  3
ACAD_LAYOUT
350
1A
  3
ACAD_MATERIAL
350
6A
  3
ACAD_MLEADERSTYLE
350
12D
  3
ACAD_MLINESTYLE
350
17
  3
ACAD_PLOTSETTINGS
350
19
  3
ACAD_PLOTSTYLENAME
350
E
  3
ACAD_RENDER_ACTIVE_RAPIDRT_SETTINGS
350
2B4
  3
ACAD_RENDER_ACTIVE_SETTINGS
350
69AF
  3
ACAD_SCALELIST
350
10C
  3
ACAD_SECTIONVIEWSTYLE
350
219
  3
ACAD_TABLESTYLE
350
7E
  3
ACAD_VISUALSTYLE
350
EF
  3
ACDB_RECOMPOSE_DATA
350
6A0A
  3
AcDbVariableDictionary
350
5E
  3
DWGPROPS
350
6A0B
  0
DICTIONARY
  5
6955
330
8
100
AcDbDictionary
280
     1
281
     1
  0
DICTIONARY
  5
1FF
330
2
100
AcDbDictionary
280
     1
281
     1
  3
ACAD_LAYERSTATES
360
200
  0
DICTIONARY
  5
13C
330
10
100
AcDbDictionary
280
     1
281
     1
  0
DICTIONARY
  5
1CE
330
1F
100
AcDbDictionary
280
     1
281
     1
  3
ACAD_LAYOUTSELFREF
360
695D
  0
DICTIONARY
  5
6908
330
D2
100
AcDbDictionary
280
     1
281
     1
  3
ACAD_LAYOUTSELFREF
360
6966
  0
DICTIONARY
  5
690A
330
D6
100
AcDbDictionary
280
     1
281
     1
  3
ACAD_LAYOUTSELFREF
360
6969
  0
XRECORD
  5
216
102
{ACAD_REACTORS
330
C
102
}
330
C
100
AcDbXrecord
280
     1
300
ACD
300
2021
300
87393ACD_2021_0F
  0
DICTIONARY
  5
6B
102
{ACAD_REACTORS
330
C
102
}
330
C
100
AcDbDictionary
281
     1
  0
DICTIONARY
  5
21B
102
{ACAD_REACTORS
330
C
102
}
330
C
100
AcDbDictionary
281
     1
  3
Metric50
350
21C
  0
DICTIONARY
  5
D
102
{ACAD_REACTORS
330
C
102
}
330
C
100
AcDbDictionary
281
     1
  0
DICTIONARY
  5
1A
102
{ACAD_REACTORS
330
C
102
}
330
C
100
AcDbDictionary
281
     1
  3
Layout1
350
D3
  3
Layout2
350
D7
  3
Model
350
22
  0
DICTIONARY
  5
6A
102
{ACAD_REACTORS
330
C
102
}
330
C
100
AcDbDictionary
281
     1
  3
ByBlock
350
ED
  3
ByLayer
350
EC
  3
Global
350
EE
  0
DICTIONARY
  5
12D
102
{ACAD_REACTORS
330
C
102
}
330
C
100
AcDbDictionary
281
     1
  3
Standard
350
12E
  0
DICTIONARY
  5
17
102
{ACAD_REACTORS
330
C
102
}
330
C
100
AcDbDictionary
281
     1
  3
Standard
350
18
  0
DICTIONARY
  5
19
102
{ACAD_REACTORS
330
C
102
}
330
C
100
AcDbDictionary
281
     1
  0
ACDBDICTIONARYWDFLT
  5
E
102
{ACAD_REACTORS
330
C
102
}
330
C
100
AcDbDictionary
281
     1
  3
Normal
350
F
100
AcDbDictionaryWithDefault
340
F
  0
RAPIDRTRENDERSETTINGS
  5
2B4
102
{ACAD_REACTORS
330
C
102
}
330
C
100
AcDbRenderSettings
 90
        2
  1
Medium
290
     1
290
     0
290
     1
290
     1
  1

  1
Applies 5 rendering levels
 90
        0
100
AcDbRapidRTRenderSettings
 90
        3
 70
     0
 90
        5
 90
        1
 70
     1
 70
     2
 40
3.0
 40
3.0
290
     1
  0
MENTALRAYRENDERSETTINGS
  5
69AF
102
{ACAD_XDICTIONARY
360
69B0
102
}
102
{ACAD_REACTORS
330
C
102
}
330
C
100
AcDbRenderSettings
 90
        2
  1
Medium
290
     1
290
     1
290
     1
290
     1
  1

  1

 90
        0
100
AcDbMentalRayRenderSettings
 90
        2
 90
        0
 90
        1
 70
     2
 40
3.0
 40
3.0
 40
0.0500000007450581
 40
0.0500000007450581
 40
0.0500000007450581
 40
0.0500000007450581
 70
     0
290
     0
290
     1
 90
        5
 90
        5
 90
        5
290
     0
 90
      500
290
     0
 40
1.0
 90
    10000
 90
        5
 90
        5
 90
        5
290
     0
 90
      200
290
     0
290
     0
290
     0
 40
1.0
 40
1.0
 40
1500.0
 70
     0
 70
     0
 40
10.0
 70
     0
 70
     0
290
     0
  1

 90
       32
 70
     0
 90
     1048
290
     0
 40
1.0
  0
DICTIONARY
  5
10C
102
{ACAD_REACTORS
330
C
102
}
330
C
100
AcDbDictionary
281
     1
  3
A0
350
10D
  3
A1
350
1BE
  3
A2
350
1BF
  3
A3
350
1C0
  3
A4
350
1C1
  3
A5
350
1C2
  3
A6
350
1C3
  3
A7
350
1C4
  3
A8
350
1C5
  3
A9
350
1C6
  3
B0
350
1C7
  3
B1
350
1C8
  3
B2
350
1C9
  3
B3
350
1CA
  3
B4
350
1CB
  3
B5
350
1CC
  3
B6
350
1CD
  0
DICTIONARY
  5
219
102
{ACAD_REACTORS
330
C
102
}
330
C
100
AcDbDictionary
281
     1
  3
Metric50
350
21A
  0
DICTIONARY
  5
7E
102
{ACAD_REACTORS
330
C
102
}
330
C
100
AcDbDictionary
281
     1
  3
Standard
350
7F
  0
DICTIONARY
  5
EF
102
{ACAD_REACTORS
330
C
102
}
330
C
100
AcDbDictionary
281
     1
  3
2dWireframe
350
F5
  3
Basic
350
F4
  3
Brighten
350
FB
  3
ColorChange
350
FF
  3
Conceptual
350
F8
  3
Dim
350
FA
  3
EdgeColorOff
350
1E6
  3
Facepattern
350
FE
  3
Flat
350
F0
  3
FlatWithEdges
350
F1
  3
Gouraud
350
F2
  3
GouraudWithEdges
350
F3
  3
Hidden
350
F7
  3
JitterOff
350
1E4
  3
Linepattern
350
FD
  3
OverhangOff
350
1E5
  3
Realistic
350
F9
  3
Shaded
350
1F3
  3
Shaded with edges
350
1F2
  3
Shades of Gray
350
1EF
  3
Sketchy
350
1F0
  3
Thicken
350
FC
  3
Wireframe
350
F6
  3
X-Ray
350
1F1
  0
XRECORD
  5
6A0A
102
{ACAD_REACTORS
330
C
102
}
330
C
100
AcDbXrecord
280
     1
 90
        1
330
7F
  0
DICTIONARY
  5
5E
102
{ACAD_REACTORS
330
C
102
}
330
C
100
AcDbDictionary
281
     1
  3
CANNOSCALE
350
146
  3
CENTEREXE
350
259
  3
CENTERLTYPEFILE
350
25A
  3
CMLEADERSTYLE
350
145
  3
CTABLESTYLE
350
84
  3
CVIEWDETAILSTYLE
350
227
  3
CVIEWSECTIONSTYLE
350
228
  3
DIMASSOC
350
5F
  3
HIDETEXT
350
63
  3
INDEXCTL
350
69B7
  3
LAYEREVAL
350
1AE
  3
LAYERNOTIFY
350
1AF
  3
LIGHTINGUNITS
350
69B5
  3
MSLTSCALE
350
69B4
  3
PSOLHEIGHT
350
6A07
  3
PSOLWIDTH
350
6A06
  3
SORTENTS
350
69B6
  3
XCLIPFRAME
350
6A08
  0
XRECORD
  5
6A0B
102
{ACAD_REACTORS
330
C
102
}
330
C
100
AcDbXrecord
280
     1
  1
DWGPROPS COOKIE
  2

  3

  4

  6

  7

  8
tronnguyen
  9

300
=
301
=
302
=
303
=
304
=
305
=
306
=
307
=
308
=
309
=
 40
0.0038194444444444
 41
2460823.717523148
 42
2460823.731030093
  1

 90
        0
  0
DICTIONARY
  5
200
102
{ACAD_REACTORS
330
1FF
102
}
330
1FF
100
AcDbDictionary
281
     1
  0
XRECORD
  5
695D
102
{ACAD_REACTORS
330
1CE
102
}
330
1CE
100
AcDbXrecord
280
     1
340
1F
  0
XRECORD
  5
6966
102
{ACAD_REACTORS
330
6908
102
}
330
6908
100
AcDbXrecord
280
     1
340
D2
  0
XRECORD
  5
6969
102
{ACAD_REACTORS
330
690A
102
}
330
690A
100
AcDbXrecord
280
     1
340
D6
  0
ACDBDETAILVIEWSTYLE
  5
21C
102
{ACAD_XDICTIONARY
360
6A4A
102
}
102
{ACAD_REACTORS
330
21B
102
}
330
21B
100
AcDbModelDocViewStyle
 70
     0
  3
Metric50
290
     0
100
AcDbDetailViewStyle
 70
     0
 71
     0
 90
        3
 71
     1
340
11
 40
5.0
340
0
 40
5.0
300

 40
0.0
280
     1
 71
     2
340
16
 90
       25
 71
     3
340
11
 40
5.0
 90
        0
 40
15.0
 90
        1
300
%<\AcVar ViewDetailId>% (%<\AcVar ViewScale \f "%sn">%)
 71
     4
340
16
 90
       25
340
16
 90
       25
280
     0
  0
LAYOUT
  5
D3
102
{ACAD_XDICTIONARY
360
6A0F
102
}
102
{ACAD_REACTORS
330
1A
102
}
330
1A
100
AcDbPlotSettings
  1

  2
C:\Documents and Settings\basas\Application Data\Autodesk\AutoCAD 2005\R16.1\enu\plotters\Default Windows System Printer.pc3
  4

  6

 40
0.0
 41
0.0
 42
0.0
 43
0.0
 44
0.0
 45
0.0
 46
0.0
 47
0.0
 48
0.0
 49
0.0
140
0.0
141
0.0
142
1.0
143
1.0
 70
   688
 72
     0
 73
     0
 74
     5
  7

 75
    16
147
1.0
148
0.0
149
0.0
100
AcDbLayout
  1
Layout1
 70
     1
 71
     1
 10
0.0
 20
0.0
 11
12.0
 21
9.0
 12
0.0
 22
0.0
 32
0.0
 14
0.0
 24
0.0
 34
0.0
 15
0.0
 25
0.0
 35
0.0
146
0.0
 13
0.0
 23
0.0
 33
0.0
 16
1.0
 26
0.0
 36
0.0
 17
0.0
 27
1.0
 37
0.0
 76
     0
330
D2
  0
LAYOUT
  5
D7
102
{ACAD_XDICTIONARY
360
6A11
102
}
102
{ACAD_REACTORS
330
1A
102
}
330
1A
100
AcDbPlotSettings
  1

  2
C:\Documents and Settings\basas\Application Data\Autodesk\AutoCAD 2005\R16.1\enu\plotters\Default Windows System Printer.pc3
  4

  6

 40
0.0
 41
0.0
 42
0.0
 43
0.0
 44
0.0
 45
0.0
 46
0.0
 47
0.0
 48
0.0
 49
0.0
140
0.0
141
0.0
142
1.0
143
1.0
 70
   688
 72
     0
 73
     0
 74
     5
  7

 75
    16
147
1.0
148
0.0
149
0.0
100
AcDbLayout
  1
Layout2
 70
     1
 71
     2
 10
0.0
 20
0.0
 11
12.0
 21
9.0
 12
0.0
 22
0.0
 32
0.0
 14
0.0
 24
0.0
 34
0.0
 15
0.0
 25
0.0
 35
0.0
146
0.0
 13
0.0
 23
0.0
 33
0.0
 16
1.0
 26
0.0
 36
0.0
 17
0.0
 27
1.0
 37
0.0
 76
     0
330
D6
  0
LAYOUT
  5
22
102
{ACAD_XDICTIONARY
360
6A0C
102
}
102
{ACAD_REACTORS
330
1A
102
}
330
1A
100
AcDbPlotSettings
  1

  2
none_device
  4
ISO_A4_(210.00_x_297.00_MM)
  6

 40
7.5
 41
20.0
 42
7.5
 43
20.0
 44
210.0
 45
297.0
 46
11.54999923706054
 47
-13.65000009536743
 48
0.0
 49
0.0
140
0.0
141
0.0
142
1.0
143
8.704084754739808
 70
 11952
 72
     1
 73
     0
 74
     0
  7

 75
     0
147
0.1148885871608098
148
0.0
149
0.0
100
AcDbLayout
  1
Model
 70
     1
 71
     0
 10
0.0
 20
0.0
 11
12.0
 21
9.0
 12
0.0
 22
0.0
 32
0.0
 14
0.0
 24
0.0
 34
0.0
 15
0.0
 25
0.0
 35
0.0
146
0.0
 13
0.0
 23
0.0
 33
0.0
 16
1.0
 26
0.0
 36
0.0
 17
0.0
 27
1.0
 37
0.0
 76
     0
330
1F
331
EA
1001
ACAD_PSEXT
1000
None
1000
None
1000
Not applicable
1000
The layout will not be plotted unless a new plotter configuration name is selected.
1070
     0
  0
MATERIAL
  5
ED
102
{ACAD_XDICTIONARY
360
1F9
102
}
102
{ACAD_REACTORS
330
6A
102
}
330
6A
100
AcDbMaterial
  1
ByBlock
  0
MATERIAL
  5
EC
102
{ACAD_XDICTIONARY
360
1F7
102
}
102
{ACAD_REACTORS
330
6A
102
}
330
6A
100
AcDbMaterial
  1
ByLayer
  0
MATERIAL
  5
EE
102
{ACAD_XDICTIONARY
360
173
102
}
102
{ACAD_REACTORS
330
6A
102
}
330
6A
100
AcDbMaterial
  1
Global
 43
0.0007999999797903
 43
0.0
 43
0.0
 43
0.0
 43
0.0
 43
0.0007999999797903
 43
0.0
 43
0.0
 43
0.0
 43
0.0
 43
1.0
 43
0.0
 43
0.0
 43
0.0
 43
0.0
 43
1.0
 49
0.0007999999797903
 49
0.0
 49
0.0
 49
0.0
 49
0.0
 49
0.0007999999797903
 49
0.0
 49
0.0
 49
0.0
 49
0.0
 49
1.0
 49
0.0
 49
0.0
 49
0.0
 49
0.0
 49
1.0
142
0.0007999999797903
142
0.0
142
0.0
142
0.0
142
0.0
142
0.0007999999797903
142
0.0
142
0.0
142
0.0
142
0.0
142
1.0
142
0.0
142
0.0
142
0.0
142
0.0
142
1.0
144
0.0007999999797903
144
0.0
144
0.0
144
0.0
144
0.0
144
0.0007999999797903
144
0.0
144
0.0
144
0.0
144
0.0
144
1.0
144
0.0
144
0.0
144
0.0
144
0.0
144
1.0
1001
ACAD
1070
    -1
1070
     3
1070
     0
1000

1071
        0
1070
     0
  0
MLEADERSTYLE
  5
12E
102
{ACAD_XDICTIONARY
360
6A36
102
}
102
{ACAD_REACTORS
330
12D
102
}
330
12D
100
AcDbMLeaderStyle
170
     2
171
     1
172
     0
 90
        2
 40
0.0
 41
0.0
173
     1
 91
-1056964608
340
14
 92
       -2
290
     1
 42
2.0
291
     1
 43
8.0
  3
Standard
 44
4.0
300

342
11
174
     1
178
     1
175
     1
176
     0
 93
-1056964608
 45
4.0
292
     0
297
     0
 46
4.0
 94
-1056964608
 47
1.0
 49
1.0
140
1.0
293
     1
141
0.0
294
     1
177
     0
142
1.0
295
     0
296
     0
143
3.75
1001
ACAD_MLEADERVER
1070
     2
  0
MLINESTYLE
  5
18
102
{ACAD_REACTORS
330
17
102
}
330
17
100
AcDbMlineStyle
  2
STANDARD
 70
     0
  3

 62
   256
 51
90.0
 52
90.0
 71
     2
 49
0.5
 62
   256
  6
BYLAYER
 49
-0.5
 62
   256
  6
BYLAYER
  0
ACDBPLACEHOLDER
  5
F
102
{ACAD_REACTORS
330
E
102
}
330
E
  0
DICTIONARY
  5
69B0
330
69AF
100
AcDbDictionary
280
     1
281
     1
  3
ADSK_XREC_MENTALRAYSETTINGSINFO
360
69B1
  0
SCALE
  5
10D
102
{ACAD_REACTORS
330
10C
102
}
330
10C
100
AcDbScale
 70
     0
300
1:1
140
1.0
141
1.0
290
     1
  0
SCALE
  5
1BE
102
{ACAD_REACTORS
330
10C
102
}
330
10C
100
AcDbScale
 70
     0
300
1:2
140
1.0
141
2.0
290
     0
  0
SCALE
  5
1BF
102
{ACAD_REACTORS
330
10C
102
}
330
10C
100
AcDbScale
 70
     0
300
1:4
140
1.0
141
4.0
290
     0
  0
SCALE
  5
1C0
102
{ACAD_REACTORS
330
10C
102
}
330
10C
100
AcDbScale
 70
     0
300
1:5
140
1.0
141
5.0
290
     0
  0
SCALE
  5
1C1
102
{ACAD_REACTORS
330
10C
102
}
330
10C
100
AcDbScale
 70
     0
300
1:8
140
1.0
141
8.0
290
     0
  0
SCALE
  5
1C2
102
{ACAD_REACTORS
330
10C
102
}
330
10C
100
AcDbScale
 70
     0
300
1:10
140
1.0
141
10.0
290
     0
  0
SCALE
  5
1C3
102
{ACAD_REACTORS
330
10C
102
}
330
10C
100
AcDbScale
 70
     0
300
1:16
140
1.0
141
16.0
290
     0
  0
SCALE
  5
1C4
102
{ACAD_REACTORS
330
10C
102
}
330
10C
100
AcDbScale
 70
     0
300
1:20
140
1.0
141
20.0
290
     0
  0
SCALE
  5
1C5
102
{ACAD_REACTORS
330
10C
102
}
330
10C
100
AcDbScale
 70
     0
300
1:30
140
1.0
141
30.0
290
     0
  0
SCALE
  5
1C6
102
{ACAD_REACTORS
330
10C
102
}
330
10C
100
AcDbScale
 70
     0
300
1:40
140
1.0
141
40.0
290
     0
  0
SCALE
  5
1C7
102
{ACAD_REACTORS
330
10C
102
}
330
10C
100
AcDbScale
 70
     0
300
1:50
140
1.0
141
50.0
290
     0
  0
SCALE
  5
1C8
102
{ACAD_REACTORS
330
10C
102
}
330
10C
100
AcDbScale
 70
     0
300
1:100
140
1.0
141
100.0
290
     0
  0
SCALE
  5
1C9
102
{ACAD_REACTORS
330
10C
102
}
330
10C
100
AcDbScale
 70
     0
300
2:1
140
2.0
141
1.0
290
     0
  0
SCALE
  5
1CA
102
{ACAD_REACTORS
330
10C
102
}
330
10C
100
AcDbScale
 70
     0
300
4:1
140
4.0
141
1.0
290
     0
  0
SCALE
  5
1CB
102
{ACAD_REACTORS
330
10C
102
}
330
10C
100
AcDbScale
 70
     0
300
8:1
140
8.0
141
1.0
290
     0
  0
SCALE
  5
1CC
102
{ACAD_REACTORS
330
10C
102
}
330
10C
100
AcDbScale
 70
     0
300
10:1
140
10.0
141
1.0
290
     0
  0
SCALE
  5
1CD
102
{ACAD_REACTORS
330
10C
102
}
330
10C
100
AcDbScale
 70
     0
300
100:1
140
100.0
141
1.0
290
     0
  0
ACDBSECTIONVIEWSTYLE
  5
21A
102
{ACAD_XDICTIONARY
360
6A48
102
}
102
{ACAD_REACTORS
330
219
102
}
330
219
100
AcDbModelDocViewStyle
 70
     0
  3
Metric50
290
     0
100
AcDbSectionViewStyle
 70
     0
 71
     0
 90
      102
 71
     1
340
11
 40
5.0
340
0
340
0
 40
5.0
300
I, O, Q, S, X, Z
 40
10.0
 90
        0
 40
2.5
 90
        0
 71
     2
340
16
 90
       25
340
16
 90
       50
 40
5.0
 40
2.5
 40
5.0
 71
     3
340
11
 40
5.0
 90
        0
 40
15.0
 90
        1
300
%<\AcVar ViewSectionStartId>%-%<\AcVar ViewSectionEndId>% (%<\AcVar ViewScale \f "%sn">%)
 71
     4
300
ANSI31
 40
1.0
 90
        0
290
     0
290
     0
 90
        6
 40
0.0
 40
1.570796326794896
 40
0.2617993877991494
 40
1.308996938995747
 40
-0.2617993877991494
 40
1.832595714594046
  0
TABLESTYLE
  5
7F
102
{ACAD_XDICTIONARY
360
162
102
}
102
{ACAD_REACTORS
330
7E
102
}
330
7E
100
AcDbTableStyle
  3
Standard
 70
     0
 71
     0
 40
1.5
 41
1.5
280
     0
281
     0
  7
Standard
140
4.5
170
     2
 62
     0
 63
     7
283
     0
274
    -2
284
     1
 64
     0
275
    -2
285
     1
 65
     0
276
    -2
286
     1
 66
     0
277
    -2
287
     1
 67
     0
278
    -2
288
     1
 68
     0
279
    -2
289
     1
 69
     0
  7
Standard
140
6.0
170
     5
 62
     0
 63
     7
283
     0
274
    -2
284
     1
 64
     0
275
    -2
285
     1
 65
     0
276
    -2
286
     1
 66
     0
277
    -2
287
     1
 67
     0
278
    -2
288
     1
 68
     0
279
    -2
289
     1
 69
     0
  7
Standard
140
4.5
170
     5
 62
     0
 63
     7
283
     0
274
    -2
284
     1
 64
     0
275
    -2
285
     1
 65
     0
276
    -2
286
     1
 66
     0
277
    -2
287
     1
 67
     0
278
    -2
288
     1
 68
     0
279
    -2
289
     1
 69
     0
  0
VISUALSTYLE
  5
F5
102
{ACAD_XDICTIONARY
360
6A20
102
}
102
{ACAD_REACTORS
330
EF
102
}
330
EF
100
AcDbVisualStyle
  2
2dWireframe
 70
     4
 71
     0
 72
     2
 73
     1
 90
        0
 40
-0.6
 41
-30.0
 62
     5
 63
     7
 74
     1
 91
        4
 64
     7
 65
   257
 75
     1
175
     1
 42
1.0
 92
        0
 66
   257
 43
1.0
 76
     1
 77
     6
 78
     2
 67
     7
 79
     5
170
     0
171
     0
290
     0
174
     0
 93
        1
 44
0.0
173
     0
291
     0
 45
0.0
1001
ACAD
1000
AcDbSavedByObjectVersion
1070
     0
  0
VISUALSTYLE
  5
F4
102
{ACAD_XDICTIONARY
360
6A1E
102
}
102
{ACAD_REACTORS
330
EF
102
}
330
EF
100
AcDbVisualStyle
  2
Basic
 70
     7
 71
     1
 72
     0
 73
     1
 90
        0
 40
-0.6
 41
-30.0
 62
     5
 63
     7
 74
     0
 91
        4
 64
     7
 65
   257
 75
     1
175
     1
 42
1.0
 92
        8
 66
     7
 43
1.0
 76
     1
 77
     6
 78
     2
 67
     7
 79
     5
170
     0
171
     0
290
     0
174
     0
 93
        1
 44
0.0
173
     0
291
     1
 45
0.0
1001
ACAD
1000
AcDbSavedByObjectVersion
1070
     0
  0
VISUALSTYLE
  5
FB
102
{ACAD_XDICTIONARY
360
6A2C
102
}
102
{ACAD_REACTORS
330
EF
102
}
330
EF
100
AcDbVisualStyle
  2
Brighten
 70
    12
 71
     2
 72
     2
 73
     1
 90
        0
 40
-0.6
 41
-30.0
 62
     5
 63
     7
 74
     1
 91
        4
 64
     7
 65
   257
 75
     1
175
     1
 42
1.0
 92
        8
 66
     7
 43
1.0
 76
     1
 77
     6
 78
     2
 67
     7
 79
     5
170
     0
171
     0
290
     0
174
     0
 93
        1
 44
50.0
173
     0
291
     1
 45
0.0
1001
ACAD
1000
AcDbSavedByObjectVersion
1070
     0
  0
VISUALSTYLE
  5
FF
102
{ACAD_XDICTIONARY
360
6A34
102
}
102
{ACAD_REACTORS
330
EF
102
}
330
EF
100
AcDbVisualStyle
  2
ColorChange
 70
    16
 71
     2
 72
     2
 73
     3
 90
        0
 40
-0.6
 41
-30.0
 62
     5
 63
     8
 74
     1
 91
        4
 64
     7
 65
   257
 75
     1
175
     1
 42
1.0
 92
        8
 66
     8
 43
1.0
 76
     1
 77
     6
 78
     2
 67
     7
 79
     5
170
     0
171
     0
290
     0
174
     0
 93
        1
 44
0.0
173
     0
291
     1
 45
0.0
1001
ACAD
1000
AcDbSavedByObjectVersion
1070
     0
  0
VISUALSTYLE
  5
F8
102
{ACAD_XDICTIONARY
360
6A26
102
}
102
{ACAD_REACTORS
330
EF
102
}
330
EF
100
AcDbVisualStyle
  2
Conceptual
 70
     9
 71
     3
 72
     2
 73
     1
 90
        0
 40
-0.6
 41
-30.0
 62
     5
 63
     7
 74
     2
 91
        2
 64
     7
 65
   257
 75
     1
175
     1
 42
40.0
 92
        8
 66
     7
 43
1.0
 76
     1
 77
     6
 78
     2
 67
     7
 79
     3
170
     0
171
     0
290
     0
174
     0
 93
        1
 44
0.0
173
     0
291
     0
 45
0.0
1001
ACAD
1000
AcDbSavedByObjectVersion
1070
     0
  0
VISUALSTYLE
  5
FA
102
{ACAD_XDICTIONARY
360
6A2A
102
}
102
{ACAD_REACTORS
330
EF
102
}
330
EF
100
AcDbVisualStyle
  2
Dim
 70
    11
 71
     2
 72
     2
 73
     1
 90
        0
 40
-0.6
 41
-30.0
 62
     5
 63
     7
 74
     1
 91
        4
 64
     7
 65
   257
 75
     1
175
     1
 42
1.0
 92
        8
 66
     7
 43
1.0
 76
     1
 77
     6
 78
     2
 67
     7
 79
     5
170
     0
171
     0
290
     0
174
     0
 93
        1
 44
-50.0
173
     0
291
     1
 45
0.0
1001
ACAD
1000
AcDbSavedByObjectVersion
1070
     0
  0
VISUALSTYLE
  5
1E6
102
{ACAD_XDICTIONARY
360
6A3C
102
}
102
{ACAD_REACTORS
330
EF
102
}
330
EF
100
AcDbVisualStyle
  2
EdgeColorOff
 70
    22
 71
     2
 72
     2
 73
     0
 90
        0
 40
-0.6
 41
-30.0
 62
     5
 63
     7
 74
     1
 91
        4
 64
     7
 65
   257
 75
     1
175
     1
 42
1.0
 92
        8
 66
     7
 43
1.0
 76
     1
 77
     6
 78
     2
 67
     7
 79
     5
170
     0
171
     0
290
     0
174
     0
 93
        1
 44
0.0
173
     0
291
     1
 45
0.0
1001
ACAD
1000
AcDbSavedByObjectVersion
1070
     0
  0
VISUALSTYLE
  5
FE
102
{ACAD_XDICTIONARY
360
6A32
102
}
102
{ACAD_REACTORS
330
EF
102
}
330
EF
100
AcDbVisualStyle
  2
Facepattern
 70
    15
 71
     2
 72
     2
 73
     1
 90
        0
 40
-0.6
 41
-30.0
 62
     5
 63
     7
 74
     1
 91
        4
 64
     7
 65
   257
 75
     1
175
     1
 42
1.0
 92
        8
 66
     7
 43
1.0
 76
     1
 77
     6
 78
     2
 67
     7
 79
     5
170
     0
171
     0
290
     0
174
     0
 93
        1
 44
0.0
173
     0
291
     1
 45
0.0
1001
ACAD
1000
AcDbSavedByObjectVersion
1070
     0
  0
VISUALSTYLE
  5
F0
102
{ACAD_XDICTIONARY
360
6A16
102
}
102
{ACAD_REACTORS
330
EF
102
}
330
EF
100
AcDbVisualStyle
  2
Flat
 70
     0
 71
     2
 72
     1
 73
     1
 90
        2
 40
-0.6
 41
30.0
 62
     5
 63
     7
 74
     0
 91
        0
 64
     7
 65
   257
 75
     1
175
     1
 42
1.0
 92
        8
 66
     7
 43
1.0
 76
     1
 77
     6
 78
     2
 67
     7
 79
     5
170
     0
171
     0
290
     0
174
     0
 93
       13
 44
0.0
173
     0
291
     1
 45
0.0
1001
ACAD
1000
AcDbSavedByObjectVersion
1070
     0
  0
VISUALSTYLE
  5
F1
102
{ACAD_XDICTIONARY
360
6A18
102
}
102
{ACAD_REACTORS
330
EF
102
}
330
EF
100
AcDbVisualStyle
  2
FlatWithEdges
 70
     1
 71
     2
 72
     1
 73
     1
 90
        2
 40
-0.6
 41
30.0
 62
     5
 63
     7
 74
     1
 91
        0
 64
     7
 65
   257
 75
     1
175
     1
 42
1.0
 92
        0
 66
   257
 43
1.0
 76
     1
 77
     6
 78
     2
 67
     7
 79
     5
170
     0
171
     0
290
     0
174
     0
 93
       13
 44
0.0
173
     0
291
     1
 45
0.0
1001
ACAD
1000
AcDbSavedByObjectVersion
1070
     0
  0
VISUALSTYLE
  5
F2
102
{ACAD_XDICTIONARY
360
6A1A
102
}
102
{ACAD_REACTORS
330
EF
102
}
330
EF
100
AcDbVisualStyle
  2
Gouraud
 70
     2
 71
     2
 72
     2
 73
     1
 90
        2
 40
-0.6
 41
30.0
 62
     5
 63
     7
 74
     0
 91
        0
 64
     7
 65
   257
 75
     1
175
     1
 42
1.0
 92
        0
 66
     7
 43
1.0
 76
     1
 77
     6
 78
     2
 67
     7
 79
     5
170
     0
171
     0
290
     0
174
     0
 93
       13
 44
0.0
173
     0
291
     1
 45
0.0
1001
ACAD
1000
AcDbSavedByObjectVersion
1070
     0
  0
VISUALSTYLE
  5
F3
102
{ACAD_XDICTIONARY
360
6A1C
102
}
102
{ACAD_REACTORS
330
EF
102
}
330
EF
100
AcDbVisualStyle
  2
GouraudWithEdges
 70
     3
 71
     2
 72
     2
 73
     1
 90
        2
 40
-0.6
 41
30.0
 62
     5
 63
     7
 74
     1
 91
        0
 64
     7
 65
   257
 75
     1
175
     1
 42
1.0
 92
        0
 66
   257
 43
1.0
 76
     1
 77
     6
 78
     2
 67
     7
 79
     5
170
     0
171
     0
290
     0
174
     0
 93
       13
 44
0.0
173
     0
291
     1
 45
0.0
1001
ACAD
1000
AcDbSavedByObjectVersion
1070
     0
  0
VISUALSTYLE
  5
F7
102
{ACAD_XDICTIONARY
360
6A24
102
}
102
{ACAD_REACTORS
330
EF
102
}
330
EF
100
AcDbVisualStyle
  2
Hidden
 70
     6
 71
     1
 72
     2
 73
     2
 90
        0
 40
-0.6
 41
-30.0
 62
     5
 63
     7
 74
     2
 91
        2
 64
     7
 65
   257
 75
     2
175
     1
 42
40.0
 92
        0
 66
   257
 43
1.0
 76
     1
 77
     6
 78
     2
 67
     7
 79
     3
170
     0
171
     0
290
     0
174
     0
 93
        1
 44
0.0
173
     0
291
     0
 45
0.0
1001
ACAD
1000
AcDbSavedByObjectVersion
1070
     0
  0
VISUALSTYLE
  5
1E4
102
{ACAD_XDICTIONARY
360
6A38
102
}
102
{ACAD_REACTORS
330
EF
102
}
330
EF
100
AcDbVisualStyle
  2
JitterOff
 70
    20
 71
     2
 72
     2
 73
     0
 90
        0
 40
-0.6
 41
-30.0
 62
     5
 63
     7
 74
     1
 91
        4
 64
     7
 65
   257
 75
     1
175
     1
 42
1.0
 92
       10
 66
     7
 43
1.0
 76
     1
 77
     6
 78
     2
 67
     7
 79
     5
170
     0
171
     0
290
     0
174
     0
 93
        1
 44
0.0
173
     0
291
     1
 45
0.0
1001
ACAD
1000
AcDbSavedByObjectVersion
1070
     0
  0
VISUALSTYLE
  5
FD
102
{ACAD_XDICTIONARY
360
6A30
102
}
102
{ACAD_REACTORS
330
EF
102
}
330
EF
100
AcDbVisualStyle
  2
Linepattern
 70
    14
 71
     2
 72
     2
 73
     1
 90
        0
 40
-0.6
 41
-30.0
 62
     5
 63
     7
 74
     1
 91
        4
 64
     7
 65
   257
 75
     7
175
     7
 42
1.0
 92
        8
 66
     7
 43
1.0
 76
     1
 77
     6
 78
     2
 67
     7
 79
     5
170
     0
171
     0
290
     0
174
     0
 93
        1
 44
0.0
173
     0
291
     1
 45
0.0
1001
ACAD
1000
AcDbSavedByObjectVersion
1070
     0
  0
VISUALSTYLE
  5
1E5
102
{ACAD_XDICTIONARY
360
6A3A
102
}
102
{ACAD_REACTORS
330
EF
102
}
330
EF
100
AcDbVisualStyle
  2
OverhangOff
 70
    21
 71
     2
 72
     2
 73
     0
 90
        0
 40
-0.6
 41
-30.0
 62
     5
 63
     7
 74
     1
 91
        4
 64
     7
 65
   257
 75
     1
175
     1
 42
1.0
 92
        9
 66
     7
 43
1.0
 76
     1
 77
     6
 78
     2
 67
     7
 79
     5
170
     0
171
     0
290
     0
174
     0
 93
        1
 44
0.0
173
     0
291
     1
 45
0.0
1001
ACAD
1000
AcDbSavedByObjectVersion
1070
     0
  0
VISUALSTYLE
  5
F9
102
{ACAD_XDICTIONARY
360
6A28
102
}
102
{ACAD_REACTORS
330
EF
102
}
330
EF
100
AcDbVisualStyle
  2
Realistic
 70
     8
 71
     2
 72
     2
 73
     0
 90
        2
 40
-0.6
 41
30.0
 62
     5
 63
     7
 74
     0
 91
        0
 64
     7
 65
   257
 75
     1
175
     1
 42
1.0
 92
        8
 66
   257
 43
1.0
 76
     1
 77
     6
 78
     2
 67
     7
 79
     3
170
     0
171
     0
290
     0
174
     0
 93
       13
 44
0.0
173
     0
291
     0
 45
0.0
1001
ACAD
1000
AcDbSavedByObjectVersion
1070
     0
  0
VISUALSTYLE
  5
1F3
102
{ACAD_XDICTIONARY
360
6A46
102
}
102
{ACAD_REACTORS
330
EF
102
}
330
EF
100
AcDbVisualStyle
  2
Shaded
 70
    27
 71
     2
 72
     2
 73
     1
 90
        2
 40
-0.6
 41
30.0
 62
     5
 63
     7
 74
     0
 91
        4
 64
     7
 65
   257
 75
     1
175
     1
 42
1.0
 92
        8
 66
   257
 43
1.0
 76
     1
 77
     6
 78
     2
 67
     8
 79
     3
170
     0
171
     0
290
     0
174
     0
 93
        5
 44
0.0
173
     0
291
     0
 45
0.0
1001
ACAD
1000
AcDbSavedByObjectVersion
1070
     0
  0
VISUALSTYLE
  5
1F2
102
{ACAD_XDICTIONARY
360
6A44
102
}
102
{ACAD_REACTORS
330
EF
102
}
330
EF
100
AcDbVisualStyle
  2
Shaded with edges
 70
    26
 71
     2
 72
     2
 73
     1
 90
        2
 40
-0.6
 41
30.0
 62
     5
 63
     7
 74
     1
 91
        2
 64
     7
 65
   257
 75
     2
175
     1
 42
1.0
 92
        8
 66
   257
 43
1.0
 76
     1
 77
     6
 78
     2
 67
     7
 79
     3
170
     0
171
     0
290
     0
174
     0
 93
        5
 44
0.0
173
     0
291
     0
 45
0.0
1001
ACAD
1000
AcDbSavedByObjectVersion
1070
     0
  0
VISUALSTYLE
  5
1EF
102
{ACAD_XDICTIONARY
360
6A3E
102
}
102
{ACAD_REACTORS
330
EF
102
}
330
EF
100
AcDbVisualStyle
  2
Shades of Gray
 70
    23
 71
     2
 72
     2
 73
     3
 90
        0
 40
-0.6
 41
-30.0
 62
     5
 63
     7
 74
     2
 91
        2
 64
     7
 65
     7
 75
     1
175
     1
 42
40.0
 92
        8
 66
     7
 43
1.0
 76
     1
 77
     6
 78
     2
 67
     7
 79
     3
170
     0
171
     0
290
     0
174
     0
 93
        1
 44
0.0
173
     0
291
     0
 45
0.0
1001
ACAD
1000
AcDbSavedByObjectVersion
1070
     0
  0
VISUALSTYLE
  5
1F0
102
{ACAD_XDICTIONARY
360
6A40
102
}
102
{ACAD_REACTORS
330
EF
102
}
330
EF
100
AcDbVisualStyle
  2
Sketchy
 70
    24
 71
     1
 72
     2
 73
     2
 90
        0
 40
-0.6
 41
-30.0
 62
     5
 63
     7
 74
     2
 91
        2
 64
     7
 65
     7
 75
     1
175
     1
 42
40.0
 92
       11
 66
     7
 43
1.0
 76
     1
 77
     6
 78
     2
 67
     7
 79
     6
170
     0
171
     0
290
     0
174
     0
 93
        1
 44
0.0
173
     0
291
     0
 45
0.0
1001
ACAD
1000
AcDbSavedByObjectVersion
1070
     0
  0
VISUALSTYLE
  5
FC
102
{ACAD_XDICTIONARY
360
6A2E
102
}
102
{ACAD_REACTORS
330
EF
102
}
330
EF
100
AcDbVisualStyle
  2
Thicken
 70
    13
 71
     2
 72
     2
 73
     1
 90
        0
 40
-0.6
 41
-30.0
 62
     5
 63
     7
 74
     1
 91
        4
 64
     7
 65
   257
 75
     1
175
     1
 42
1.0
 92
       12
 66
     7
 43
1.0
 76
     1
 77
     6
 78
     2
 67
     7
 79
     5
170
     0
171
     0
290
     0
174
     0
 93
        1
 44
0.0
173
     0
291
     1
 45
0.0
1001
ACAD
1000
AcDbSavedByObjectVersion
1070
     0
  0
VISUALSTYLE
  5
F6
102
{ACAD_XDICTIONARY
360
6A22
102
}
102
{ACAD_REACTORS
330
EF
102
}
330
EF
100
AcDbVisualStyle
  2
Wireframe
 70
     5
 71
     0
 72
     2
 73
     0
 90
        0
 40
-0.6
 41
-30.0
 62
     5
 63
     7
 74
     1
 91
        4
 64
     7
 65
   257
 75
     1
175
     1
 42
1.0
 92
        0
 66
   257
 43
1.0
 76
     1
 77
     6
 78
     2
 67
     7
 79
     3
170
     0
171
     0
290
     0
174
     0
 93
        1
 44
0.0
173
     0
291
     0
 45
0.0
1001
ACAD
1000
AcDbSavedByObjectVersion
1070
     0
  0
VISUALSTYLE
  5
1F1
102
{ACAD_XDICTIONARY
360
6A42
102
}
102
{ACAD_REACTORS
330
EF
102
}
330
EF
100
AcDbVisualStyle
  2
X-Ray
 70
    25
 71
     2
 72
     2
 73
     1
 90
        1
 40
0.5
 41
-30.0
 62
     5
 63
     7
 74
     1
 91
        0
 64
     7
 65
   257
 75
     1
175
     1
 42
1.0
 92
        8
 66
     7
 43
1.0
 76
     1
 77
     6
 78
     2
 67
     7
 79
     3
170
     0
171
     0
290
     0
174
     0
 93
       13
 44
0.0
173
     0
291
     0
 45
0.0
1001
ACAD
1000
AcDbSavedByObjectVersion
1070
     0
  0
DICTIONARYVAR
  5
146
102
{ACAD_REACTORS
330
5E
102
}
330
5E
100
DictionaryVariables
280
     0
  1
1:1
  0
DICTIONARYVAR
  5
259
102
{ACAD_REACTORS
330
5E
102
}
330
5E
100
DictionaryVariables
280
     0
  1
3.500000
  0
DICTIONARYVAR
  5
25A
102
{ACAD_REACTORS
330
5E
102
}
330
5E
100
DictionaryVariables
280
     0
  1
acadiso.lin
  0
DICTIONARYVAR
  5
145
102
{ACAD_REACTORS
330
5E
102
}
330
5E
100
DictionaryVariables
280
     0
  1
STANDARD
  0
DICTIONARYVAR
  5
84
102
{ACAD_REACTORS
330
5E
102
}
330
5E
100
DictionaryVariables
280
     0
  1
STANDARD
  0
DICTIONARYVAR
  5
227
102
{ACAD_REACTORS
330
5E
102
}
330
5E
100
DictionaryVariables
280
     0
  1
Metric50
  0
DICTIONARYVAR
  5
228
102
{ACAD_REACTORS
330
5E
102
}
330
5E
100
DictionaryVariables
280
     0
  1
Metric50
  0
DICTIONARYVAR
  5
5F
102
{ACAD_REACTORS
330
5E
102
}
330
5E
100
DictionaryVariables
280
     0
  1
2
  0
DICTIONARYVAR
  5
63
102
{ACAD_REACTORS
330
5E
102
}
330
5E
100
DictionaryVariables
280
     0
  1
1
  0
DICTIONARYVAR
  5
69B7
102
{ACAD_REACTORS
330
5E
102
}
330
5E
100
DictionaryVariables
280
     0
  1
0
  0
DICTIONARYVAR
  5
1AE
102
{ACAD_REACTORS
330
5E
102
}
330
5E
100
DictionaryVariables
280
     0
  1
0
  0
DICTIONARYVAR
  5
1AF
102
{ACAD_REACTORS
330
5E
102
}
330
5E
100
DictionaryVariables
280
     0
  1
0
  0
DICTIONARYVAR
  5
69B5
102
{ACAD_REACTORS
330
5E
102
}
330
5E
100
DictionaryVariables
280
     0
  1
2
  0
DICTIONARYVAR
  5
69B4
102
{ACAD_REACTORS
330
5E
102
}
330
5E
100
DictionaryVariables
280
     0
  1
1
  0
DICTIONARYVAR
  5
6A07
102
{ACAD_REACTORS
330
5E
102
}
330
5E
100
DictionaryVariables
280
     0
  1
80.000000
  0
DICTIONARYVAR
  5
6A06
102
{ACAD_REACTORS
330
5E
102
}
330
5E
100
DictionaryVariables
280
     0
  1
5.000000
  0
DICTIONARYVAR
  5
69B6
102
{ACAD_REACTORS
330
5E
102
}
330
5E
100
DictionaryVariables
280
     0
  1
127
  0
DICTIONARYVAR
  5
6A08
102
{ACAD_REACTORS
330
5E
102
}
330
5E
100
DictionaryVariables
280
     0
  1
2
  0
DICTIONARY
  5
6A4A
330
21C
100
AcDbDictionary
280
     1
281
     1
  3
ACAD_XREC_ROUNDTRIP
360
6A4B
  0
DICTIONARY
  5
6A0F
330
D3
100
AcDbDictionary
280
     1
281
     1
  3
ACAD_XREC_ROUNDTRIP
360
6A10
  0
DICTIONARY
  5
6A11
330
D7
100
AcDbDictionary
280
     1
281
     1
  3
ACAD_XREC_ROUNDTRIP
360
6A12
  0
DICTIONARY
  5
6A0C
330
22
100
AcDbDictionary
280
     1
281
     1
  3
ACAD_XREC_ROUNDTRIP
360
6A0D
  0
DICTIONARY
  5
1F9
330
ED
100
AcDbDictionary
280
     1
281
     1
  3
ACAD_XREC_ROUNDTRIP
360
6A14
  3
FBXASSET
360
1FA
  0
DICTIONARY
  5
1F7
330
EC
100
AcDbDictionary
280
     1
281
     1
  3
ACAD_XREC_ROUNDTRIP
360
6A13
  3
FBXASSET
360
1F8
  0
DICTIONARY
  5
173
330
EE
100
AcDbDictionary
280
     1
281
     1
  3
ACAD_XREC_ROUNDTRIP
360
6A15
  3
BUMPTILE
360
175
  3
DIFFUSETILE
360
174
  3
FBXASSET
360
1FB
  3
OPACITYTILE
360
176
  3
REFLECTIONTILE
360
177
  0
DICTIONARY
  5
6A36
330
12E
100
AcDbDictionary
280
     1
281
     1
  3
ACAD_XREC_ROUNDTRIP
360
6A37
  0
XRECORD
  5
69B1
102
{ACAD_REACTORS
330
69B0
102
}
330
69B0
100
AcDbXrecord
280
     1
 70
     2
 71
     3
 72
     0
  0
DICTIONARY
  5
6A48
330
21A
100
AcDbDictionary
280
     1
281
     1
  3
ACAD_XREC_ROUNDTRIP
360
6A49
  0
DICTIONARY
  5
162
330
7F
100
AcDbDictionary
280
     1
281
     1
  3
ACAD_ROUNDTRIP_2008_TABLESTYLE_CELLSTYLEMAP
360
6A09
  3
ACAD_XREC_ROUNDTRIP
360
6A0E
  0
DICTIONARY
  5
6A20
330
F5
100
AcDbDictionary
280
     1
281
     1
  3
ACAD_XREC_ROUNDTRIP
360
6A21
  0
DICTIONARY
  5
6A1E
330
F4
100
AcDbDictionary
280
     1
281
     1
  3
ACAD_XREC_ROUNDTRIP
360
6A1F
  0
DICTIONARY
  5
6A2C
330
FB
100
AcDbDictionary
280
     1
281
     1
  3
ACAD_XREC_ROUNDTRIP
360
6A2D
  0
DICTIONARY
  5
6A34
330
FF
100
AcDbDictionary
280
     1
281
     1
  3
ACAD_XREC_ROUNDTRIP
360
6A35
  0
DICTIONARY
  5
6A26
330
F8
100
AcDbDictionary
280
     1
281
     1
  3
ACAD_XREC_ROUNDTRIP
360
6A27
  0
DICTIONARY
  5
6A2A
330
FA
100
AcDbDictionary
280
     1
281
     1
  3
ACAD_XREC_ROUNDTRIP
360
6A2B
  0
DICTIONARY
  5
6A3C
330
1E6
100
AcDbDictionary
280
     1
281
     1
  3
ACAD_XREC_ROUNDTRIP
360
6A3D
  0
DICTIONARY
  5
6A32
330
FE
100
AcDbDictionary
280
     1
281
     1
  3
ACAD_XREC_ROUNDTRIP
360
6A33
  0
DICTIONARY
  5
6A16
330
F0
100
AcDbDictionary
280
     1
281
     1
  3
ACAD_XREC_ROUNDTRIP
360
6A17
  0
DICTIONARY
  5
6A18
330
F1
100
AcDbDictionary
280
     1
281
     1
  3
ACAD_XREC_ROUNDTRIP
360
6A19
  0
DICTIONARY
  5
6A1A
330
F2
100
AcDbDictionary
280
     1
281
     1
  3
ACAD_XREC_ROUNDTRIP
360
6A1B
  0
DICTIONARY
  5
6A1C
330
F3
100
AcDbDictionary
280
     1
281
     1
  3
ACAD_XREC_ROUNDTRIP
360
6A1D
  0
DICTIONARY
  5
6A24
330
F7
100
AcDbDictionary
280
     1
281
     1
  3
ACAD_XREC_ROUNDTRIP
360
6A25
  0
DICTIONARY
  5
6A38
330
1E4
100
AcDbDictionary
280
     1
281
     1
  3
ACAD_XREC_ROUNDTRIP
360
6A39
  0
DICTIONARY
  5
6A30
330
FD
100
AcDbDictionary
280
     1
281
     1
  3
ACAD_XREC_ROUNDTRIP
360
6A31
  0
DICTIONARY
  5
6A3A
330
1E5
100
AcDbDictionary
280
     1
281
     1
  3
ACAD_XREC_ROUNDTRIP
360
6A3B
  0
DICTIONARY
  5
6A28
330
F9
100
AcDbDictionary
280
     1
281
     1
  3
ACAD_XREC_ROUNDTRIP
360
6A29
  0
DICTIONARY
  5
6A46
330
1F3
100
AcDbDictionary
280
     1
281
     1
  3
ACAD_XREC_ROUNDTRIP
360
6A47
  0
DICTIONARY
  5
6A44
330
1F2
100
AcDbDictionary
280
     1
281
     1
  3
ACAD_XREC_ROUNDTRIP
360
6A45
  0
DICTIONARY
  5
6A3E
330
1EF
100
AcDbDictionary
280
     1
281
     1
  3
ACAD_XREC_ROUNDTRIP
360
6A3F
  0
DICTIONARY
  5
6A40
330
1F0
100
AcDbDictionary
280
     1
281
     1
  3
ACAD_XREC_ROUNDTRIP
360
6A41
  0
DICTIONARY
  5
6A2E
330
FC
100
AcDbDictionary
280
     1
281
     1
  3
ACAD_XREC_ROUNDTRIP
360
6A2F
  0
DICTIONARY
  5
6A22
330
F6
100
AcDbDictionary
280
     1
281
     1
  3
ACAD_XREC_ROUNDTRIP
360
6A23
  0
DICTIONARY
  5
6A42
330
1F1
100
AcDbDictionary
280
     1
281
     1
  3
ACAD_XREC_ROUNDTRIP
360
6A43
  0
XRECORD
  5
6A4B
102
{ACAD_REACTORS
330
6A4A
102
}
330
6A4A
100
AcDbXrecord
280
     1
102
DISPLAYNAME
  1
Metric50
102
FLAGS
 90
        0
  0
XRECORD
  5
6A10
102
{ACAD_REACTORS
330
6A0F
102
}
330
6A0F
100
AcDbXrecord
280
     1
102
SHADEPLOT
 70
     0
102
SHADEPLOTRESLEVEL
 70
     2
102
SHADEPLOTCUSTOMDPI
 70
   300
  0
XRECORD
  5
6A12
102
{ACAD_REACTORS
330
6A11
102
}
330
6A11
100
AcDbXrecord
280
     1
102
SHADEPLOT
 70
     0
102
SHADEPLOTRESLEVEL
 70
     2
102
SHADEPLOTCUSTOMDPI
 70
   300
  0
XRECORD
  5
6A0D
102
{ACAD_REACTORS
330
6A0C
102
}
330
6A0C
100
AcDbXrecord
280
     1
102
SHADEPLOT
 70
     0
102
SHADEPLOTRESLEVEL
 70
     2
102
SHADEPLOTCUSTOMDPI
 70
   300
  0
XRECORD
  5
6A14
102
{ACAD_REACTORS
330
1F9
102
}
330
1F9
100
AcDbXrecord
280
     1
102
MATERIAL
148
0.0
149
0.0
149
0.0
 93
        0
 94
       63
282
     0
 72
     1
 77
     1
171
     1
175
     1
179
     1
273
     0
  0
XRECORD
  5
1FA
102
{ACAD_REACTORS
330
1F9
102
}
330
1F9
100
AcDbXrecord
280
     1
 70
     1
 90
429727718
  1
D62C5603-E3A1-4AEA-B7FB-FE5D8D0755AF
310
504B03040A0000080000CC70623B3DEE336E79000000790000001B0000006175746F6465736B2D64657369676E2D7061636B6167652E786D6C3C3F786D6C2076657273696F6E3D22312E302220656E636F64696E673D227574662D3822203F3E3C666F726D6174733E3C666F726D61743E687474703A2F2F736368656D612E
310
6175746F6465736B2E636F6D2F64657369676E2D7061636B6167652F323030393C2F666F726D61743E3C2F666F726D6174733E504B0304140006080800CC70623BD486FD9CA0000000F4000000130000005B436F6E74656E745F54797065735D2E786D6C7D8EC10E82300C865F65E91D8A1E8C310C0EEA1BF002731658846E
310
D98AC1B77784ABF1D8FE5FBFBF75BBCE937A534CCEB38643598122B6FEE978D0B0485F9C41B54DDD7D022595594E1A469170414C76A4D9A4D207E29CF43ECE46F218070CC6BECC4078ACAA135ACF422C856C0E68EA1BF5669944DDD7BCDE7B1F8E415D77AECB980613C2E4AC91FC167A2B244592486606FC29C8FD7F045B9A
310
EF7053A7E60B504B0304140006080800CC70623B853B8169EB0000007C01000008000000636F72652E786D6C8D90416EC3201045AF62CDB6C206821CC7C244919D9CA01740401C94182C03558F5F9C3852BBEB6A467FFE9B197D7EFC9E1EC5975982F5AE035262288C535E5B377690E21535501C055FBC8FBF6C503839990E
310
5619041F179FE64D52DE45E362569DD7661365082642A11EB9E920A89B99642953CC8E702F67A9EE7234257977194EC9EAE275C4EABCCF5EAD5940D4AC6F0E35A568B8F43562CD7046CD199FD07E60174276A7BE677B5EADB0E0D14EEFFB6A31321A0D82627C4084204C3F096B71DD52F6819B16635EADF63F509AF53FA164
310
5DDCD1EDDD17164090FCC8732078B56691CB33A85CD7DCC40F504B0304140006080800CC70623B55019EA25F0000007C00000007000000636E782E786D6C4DCB3B0E80201045D1AD90E915ED2CF8AC45050C11660C8261F98AB1B07AC9C97D42D718D865D3E909258CFD00CCE24AC6E326A164D74DC0B4128928FF32603847
310
2BA13128B1252AC747C6BAB984FC68F0B87FE8960A5C09FE86CFB69FBA01504B0304140006080800CC70623BDBABAAF470010000D40300000C0000006662782F636F72652E786D6CC553D16E823014FD95A6AF4B694182CC941A83FA05FB810A9511A125A5257EFE2E82712ECEB8A7F100CD39F7F69E734AF9FADC366850B6
310
AF8DCE7018308C942E4C59EB2AC3DE1D498AD15A706B8CFB56869196ADCAF00863C12B6B7C374385D14E6907A836A59A41D9F7CA615434B0C8705F7CAA5606D23BA8E84F41278B93AC54100640439DE0BDB320004D43C63716C7C399D30917DCFBBA9CD9BA8469F5B156168B24CED3F7248AC8769F27244EB73B92EED8862C
310
B7F13E0C179B3C8F979C8ECD82BBBABDAA2BAC924E9558448CBD9330242CFA08E3154B5651FCC6D215639C8EE5774DBE2B5F6CF2B5768B68963BB5F5588420E442FC700B1139D4CB01F450C1E918227C2E09DF070D8140C84E1E9AAB8F1340832A9CB13130A5F1376A908D57309505ECF2A0DF179C4E9D30F5B239B87E3823
310
7A79C6F31DE1A8A5AEC08474B03C7837EAE4938639B44E5932B833D2C6B6B279CDC613877FA26EE21F4A2A4C63EC7F29A2F301D1F9F7A0E37D145F504B0304140006080800CC70623B9C113CC27E0000009D0000000B0000006662782F636E782E786D6C4DCCDF0A83201C86E15B91DFB94BFB330DD428C8FB886521330DA7
310
6397BF1A1DECE883878F57749FCDA1B7892F1BBC047A23808C7F84D9FA55424E0BE6803A256208E9EF06C84F9B91703228B1C690F78B66B34CD9A5439DF5CF0BFBF65E35BCA1B8D6A5C6F540381E886698B5741C695F9503EBA150A2F8958E3DC3EA0B504B0304140006080800CC70623B7DF2F77C2A010000120200003100
310
00006662782F41393633353835312D344632462D344230382D423046372D3739314545314133324237412F636F72652E786D6C8D51DB8EC22014FC15C2939B0D2DB4B45643319AE817EC0F6041255A68B86CFCFC856D4D76DF7CE190393373060EDB3DC707F856CE6B6B7A480A0C81328395DA5C7B18C3057510EC3873D686
310
3F34088C18550F330C39BB3A1BA7051AAC09CA84841A2BD5020AEF55806078A44B0FFD7053A328440C89E1EFC52486BBB8AA8214A99D789CF9E05200300FC927E4FB4D5B375D43103D5527440FB843077C5AA3F5861C8F645F5787F59E95B390B318B55CE45AA638FAA2957BD7248B390B7A7CC51F9C124149C82B8C378810
310
84AB2F42B7B8DD56F413775B8C5999E9FF4471926F8AA236A1AE96B8B3CC434E5839373893369E1FAF30EA395917409EB7F26AF8801C171837A4A6AC9C89E9F9C9B1A58BA30FD6A5EF5DDDCF894B9AD9B6A59C957943A9FCAE2FD5BC4DFE03504B0304140006080800CC70623BAD7543B64E01000033030000300000006662
310
782F41393633353835312D344632462D344230382D423046372D3739314545314133324237412F636E782E786D6CD593CD6EC32010845F0571AD6CE3D48AD20813A9873E410FBD12D82434182C7EAAE6EDBB2424CD25871E7B41D6EC30B3FA84F9E67BB2E40B4234DE8DB46F1925E094D7C6ED479AD3AE5951B2113C789FEE
310
6C943839C1488B4C05DF079FE72A69D8C96C13AAD6B8631503449F83828872B949AC57D26200B826A308D316B4064D6E46FCDA41C05550DC9E483A00797BFD207EFB092A45DE9514C1BBD22178396BD39D891265658C238DEA00936C654E5E433CB65A26D9F6EDB5EBC14EBF49A45CB856E66048291F6939A9A81BB5C89177
310
38143CA680F4AA299D66A042CEB3354A2684DC9D8D178FE0D9B8B41CAAD720F880EE7EF93C0C18769E099ECC04D5A102C8049A8A05632F4DDF376CF1DE0F6BB65C2F8627B65A33C6BB62177CEBBDAD973006829F89F22E814B54F4BC2BE347F8AA8F681390B50FA73F804400B5F542E796F19FF974E7F78DB802FE05E20750
310
4B0304140006080800CC70623BE75B7789680500003C100000340000006662782F41393633353835312D344632462D344230382D423046372D3739314545314133324237412F6F626A656374732E786D6CAD575B8F9B3818FD2B887D06C22499CB8AA1CA655245D5B455A356FB305264C061D8018C6C3393D95FBFC7600890
310
A4CD5EF210B0B1BFEBF98E3F7B1FF6596ABC522E1296DF9BAE3D320D9A872C4AF2F8DE2CE5CEBA358D0FBEC719939D65A691938CDE9B6ADAF4BD98B3B2D05311DD91329583D9D5FC0F438434A7A611A644887B5384CF34233629258BA878B12322891DEFF6B66BD70BFB62634E8AE781D082709A4B588AF91C528CDA28B73F
310
1C998EEF39EABBEFA97FBD6A7C7E9553F9D3D79FE442923C3C523610337627CB87ABE99D359D4CC6D6E4FACAB5E6ABF9D2726FC6A3C5F56271377BB88362213924694B38DD99FE47C48627A1E7D49F5A8BB5E1A74C0A599ED3B0F21F1E56366B89112D681E218F0915D0D6F17AD41FBA2A369DCF6335D62ABBD39779D5DDD1
310
11D4D8DE3CBB96B2E04FB8202E41051754A1AA8E8F76B4C6DFE810B580B1547F4B84911149794252234D024EF8BBE963A95AE27B3D310A9D5C215C7960FAEE415ED75694C6AFB17BCACA5D99A60A9AA65F217B0BFC53292ACB92BF283FAD0D3621576592CB5BED907C2FA8E9DF794E35E97BEA31BED21FEB401ABB94C44839
310
DCACBF0E1C5DA8DA5B2F4DFFD32AD86F543D9E565E7056502E157C00AD2671CD534549AB752FCA9CDA00677A313F04E51B22FF19E57B300579E3C97EB29F682D92935CEC18CF901B7B54FD8C51F362B56FC72FE0B3C1EAE335EDCCBF5AEC39ADB17DC238973F804BA5E6F6BFE7AF1FB32E523BE9F3BD571418E3631DCA4D48
310
5250CF639223210A9446CA30052EDF057BD35F8329C1ECD84552BF0DC8D18BE7BCE23BFE6BD960AB4A7DE79923A103BEBD80F911CBAA2C60DB19B01CF164A5583B772EE6D3FFA56666CBCDA74DC97724A48F9A58967497E489C4D979006FD7A05E227A1EBDD0F737C623387A9C844D3709995625106D157315F8B8392CD4E0
310
A0B9A720C4BE9829CEF37EA1E13111214D53925356365ADA634861B52519DD27A00AEB808EAF0628E6F435519D446F45CF2C9CF5214F0A15B2F6D06B79DA3EE3CBF7F56780D2F4E7EF73A0F5E5B02A38D07DC852C6B7C1FBB6664213E0C39E3EBA7FF4E1AD23EA2829407C85E586727488B751B2DB9502BC7B228A3FD68B6E
310
A65A22397E690AA8D158D7E404EC8CDA235CC3B7D1898680131CEC2CDF2638C65196279577750F15884AEE19F94199155B92B13297978469D4F8D358DF0AEF7631E28DC8F0D9F437D5D39A83B2231A1D52D543813A824EF8D44BCFF2FA6A31BD1E8DAD87F1CCB526B3879935BF59CDADD5C37479BB1CDD4CA7B3556B516589
310
EF352754B706114D9C885EC9131DE6EFEB43D99AFE2391C2F958179413D7CFEF6B1B6DB1E7600F00DE6E5C67454A339A4BA2E0FBA85ED26F045D454F463DBFCE484C2F90F2E5E3666003662ED8F755951A7D1BECD5B30B550B2785C8E7320B7292A4838DDA71BBC863ED7613CAF659337A3354231D4FF4A182A54904C2898C
310
98B28C4AD0CE056CCF332A80986E571EE9DBC305BB5FEB7E509220A58D25CF042D712A806AC0AD0C657FDEF80D2D9CEAA2EE4D1C76F60BFE74219A06527D6F82DF6412526107381E55E353090704D085B52408A8913C4ED159D79BDA71BB4BC506F4831350EB6F975CD22D69BF7AC49B91A2C0A9DDA3D5CA36AD20FC478E37
310
E61844E2352865EBCB61A275A65283CAAA9DD27703B4102F5AF51EF5F573B75CBB5AD38BC845F7A49F82A0966A49C2E3EA5EA0ECD326CD965F1DB402C6FA8B51A4658C5C5E2EC9E214602E55810345408596591009A82E7E7FFACA19EEA299B14A0081A705CB3296EBC14CDF658DCD336EA6D1136881AAEB87B81AB9EE53D5
310
F5EB8BC8362082DA24122F98680A4E7930C01A0079749CEA14382A0783E5EBA5A10F8C098456A03D6A4AEB6BB881E2513747552A5DB22C7EDAF83BD5528081A365F7FF06504B0304140006080000CC70623B000000000000000000000000350000006662782F41393633353835312D344632462D344230382D423046372D37
310
39314545314133324237412F76657274696365732E62696E504B0304140006080800CC70623BF270F1330600000004000000360000006662782F41393633353835312D344632462D344230382D423046372D3739314545314133324237412F747269616E676C65732E62696E636660600000504B0304140006080000CC7062
310
3B000000000000000000000000370000006662782F41393633353835312D344632462D344230382D423046372D3739314545314133324237412F617474726962757465732E62696E504B0304140006080800CC70623B08DA0BD19000000041010000360000006662782F41393633353835312D344632462D344230382D4230
310
46372D3739314545314133324237412F6469726563746F72792E786D6C858F410AC3201045AF22B36F53E9A60B35CBEEBAE80D244E44489C6234F4F835464A48035D0DF398FF9F8AF63D0E6CC63039F212F8F9020C7D47C6792B21C5FE7403D62A1188E2E60C98D7234A5830286103A55745067B9D86B8A3CF9C7F90C11DE6
310
07FB144396D7B6A82D282E9A152AD114D5EF2CB866EEE831B8EEA07A7BB5A8D7D61A2BAAEB7FD5F70921FF497D00504B0304140006080800CC70623BEDD1DC58FD000000A00100003B0000006662782F41393633353835312D344632462D344230382D423046372D3739314545314133324237412F7265736F75726365732F
310
636F72652E786D6C8D504B6E833010BD0A9A6D65B00922041947112427E8052C33A156828DFCA97AFC9A40A576D7CDCCE87D344F8F9FBFE667F689CE6B6B3A6039850C8DB2A336530731DC4903D95970676DF82583CCC8193B5861107C72362E3BA4AC096842428D1D7107A5F7182053CF7474E0D507CE32973124857FE48B
310
540F3961CEF244279DE03EB81420DB9EAC1384436FA353E879B1B182C7A8C75DA3C7F453DF353A1075D537A7BA6464B8F535A99AE14A9A2BBD90E350DD183B5CFABE3AF262350B1EF4FC9351399401471025A527C218A1E53BAB5A5AB765F5469B96525EACF23FA6B88CFF34456DC2A1DCE36E360F82A5202F42F062ED2BAD
310
579969AFDD8A6F504B010214000A0000080000CC70623B3DEE336E79000000790000001B00000000000000000000000000000000006175746F6465736B2D64657369676E2D7061636B6167652E786D6C504B01021400140006080800CC70623BD486FD9CA0000000F40000001300000000000000000000000000B20000005B
310
436F6E74656E745F54797065735D2E786D6C504B01021400140006080800CC70623B853B8169EB0000007C010000080000000000000000000000000083010000636F72652E786D6C504B01021400140006080800CC70623B55019EA25F0000007C000000070000000000000000000000000094020000636E782E786D6C504B
310
01021400140006080800CC70623BDBABAAF470010000D40300000C00000000000000000000000000180300006662782F636F72652E786D6C504B01021400140006080800CC70623B9C113CC27E0000009D0000000B00000000000000000000000000B20400006662782F636E782E786D6C504B01021400140006080800CC70
310
623B7DF2F77C2A010000120200003100000000000000000000000000590500006662782F41393633353835312D344632462D344230382D423046372D3739314545314133324237412F636F72652E786D6C504B01021400140006080800CC70623BAD7543B64E010000330300003000000000000000000000000000D2060000
310
6662782F41393633353835312D344632462D344230382D423046372D3739314545314133324237412F636E782E786D6C504B01021400140006080800CC70623BE75B7789680500003C10000034000000000000000000000000006E0800006662782F41393633353835312D344632462D344230382D423046372D3739314545
310
314133324237412F6F626A656374732E786D6C504B01021400140006080000CC70623B0000000000000000000000003500000000000000000000000000280E00006662782F41393633353835312D344632462D344230382D423046372D3739314545314133324237412F76657274696365732E62696E504B01021400140006
310
080800CC70623BF270F133060000000400000036000000000000000000000000007B0E00006662782F41393633353835312D344632462D344230382D423046372D3739314545314133324237412F747269616E676C65732E62696E504B01021400140006080000CC70623B0000000000000000000000003700000000000000
310
000000000000D50E00006662782F41393633353835312D344632462D344230382D423046372D3739314545314133324237412F617474726962757465732E62696E504B01021400140006080800CC70623B08DA0BD1900000004101000036000000000000000000000000002A0F00006662782F41393633353835312D344632
310
462D344230382D423046372D3739314545314133324237412F6469726563746F72792E786D6C504B01021400140006080800CC70623BEDD1DC58FD000000A00100003B000000000000000000000000000E1000006662782F41393633353835312D344632462D344230382D423046372D3739314545314133324237412F7265
310
736F75726365732F636F72652E786D6C504B0506000000000E000E0080040000641100000000
  0
XRECORD
  5
6A13
102
{ACAD_REACTORS
330
1F7
102
}
330
1F7
100
AcDbXrecord
280
     1
102
MATERIAL
148
0.0
149
0.0
149
0.0
 93
        0
 94
       63
282
     0
 72
     1
 77
     1
171
     1
175
     1
179
     1
273
     0
  0
XRECORD
  5
1F8
102
{ACAD_REACTORS
330
1F7
102
}
330
1F7
100
AcDbXrecord
280
     1
 70
     1
 90
429727718
  1
30362254-06B7-45E0-A893-8CFA70E3D6BC
310
504B03040A0000080000CC70623B3DEE336E79000000790000001B0000006175746F6465736B2D64657369676E2D7061636B6167652E786D6C3C3F786D6C2076657273696F6E3D22312E302220656E636F64696E673D227574662D3822203F3E3C666F726D6174733E3C666F726D61743E687474703A2F2F736368656D612E
310
6175746F6465736B2E636F6D2F64657369676E2D7061636B6167652F323030393C2F666F726D61743E3C2F666F726D6174733E504B0304140006080800CC70623BD486FD9CA0000000F4000000130000005B436F6E74656E745F54797065735D2E786D6C7D8EC10E82300C865F65E91D8A1E8C310C0EEA1BF002731658846E
310
D98AC1B77784ABF1D8FE5FBFBF75BBCE937A534CCEB38643598122B6FEE978D0B0485F9C41B54DDD7D022595594E1A469170414C76A4D9A4D207E29CF43ECE46F218070CC6BECC4078ACAA135ACF422C856C0E68EA1BF5669944DDD7BCDE7B1F8E415D77AECB980613C2E4AC91FC167A2B244592486606FC29C8FD7F045B9A
310
EF7053A7E60B504B0304140006080800CC70623B1EC5D7A3EB0000007C01000008000000636F72652E786D6C8D90416EC3201045AF82665B6103C6756C6122AB4D4ED00B204C5C94182C03558F5F9C3852BBEB6A467FFE9B197D71FC9E6FE8CBACC17AD7032D0820E3B41FAD9B7A48F1820F808E52ACDEC75F36404ECDA687
310
4D0629A6D5A76597B477D1B89855E747B38B2A041301E95B6E7A08FAD3CCAA50296647B8168BD2573599823EBB0CA76447F43862C7BCCF5EAC59410E4DDD9C7973C2755553CCCFA4C603E3040F1565ED3B1FDE4E432BCA0D9622DAF9795FAF464533826484B498524CD807E51D79ED187F21878E10516EF63F505AC67F42C9
310
BA58B1FDDD071640D2FCC87D2045B96591CB3DA85CB7DCE40F504B0304140006080800CC70623B55019EA25F0000007C00000007000000636E782E786D6C4DCB3B0E80201045D1AD90E915ED2CF8AC45050C11660C8261F98AB1B07AC9C97D42D718D865D3E909258CFD00CCE24AC6E326A164D74DC0B4128928FF32603847
310
2BA13128B1252AC747C6BAB984FC68F0B87FE8960A5C09FE86CFB69FBA01504B0304140006080800CC70623B8C9102E971010000D40300000C0000006662782F636F72652E786D6CC5535B6E833010BC8AE5DF0A6C08340F1947A84D4ED00B38C6A128602363A31CBFCB234A53A551FA553EC09AD9F5CE8C31DB9E9B1AF5CA
310
7695D1198E428A91D2D214952E33ECDD315861B4E5CC1AE3BE9561A445A3323CC098B3D21ADFCE9034DA29ED00D5A6503328BA4E398C640D8B0C77F253352214DE4145770A5B214FA2546114020D759C75CE8200340D19DE981F0F6746269C33EFAB6266AB02A655C74A59CCF365BADC27CB5D902ED22848F6340DF238A141
310
BE88E2F57B92BFEDF23523433367AE6A2EEAA455C2A902F398D2751045018D3FA264435F3771F242571B4A1919CA6F9A7C5B3CD9E42BED16F12C776AEB308F40C848FC700B1139D4891EF410CEC810227CC6846F8386402064270EF5C5C709A05E49676C024C61FC95EA45ED154CA5211D1FF4FB8291A913A68E9B83EBBB33
310
E2A7673CDE118E5AE8124C0807CB8377834E366998436B950D7A7746DAD846D4CFD978E0F04FD455FC5D49D2D4C6FE9722321F10997F0F32DC47FE05504B0304140006080800CC70623BFFEA85907E0000009D0000000B0000006662782F636E782E786D6C4DCCD10A83201886E15B91FFDC95D95A811AB6F23E625948A6C3
310
E9D8E5AF46073BFAE0E1E365ED67B3E8ADC3CB78C7815C7240DA3DFC64DCC221C519D7805AC182F7F1EF06C88D9BE6703008B6049F9E274D7A1E938DBB5AE3D6131B2589BA0D3D965551E0B2EA732C9B9A624AAEB41E3A557677029960D9AFB4EF11165F504B0304140006080800CC70623B4FEEA4082C0100001202000031
310
0000006662782F39464131463745442D413632322D343644302D413938332D3331353338454246344243312F636F72652E786D6C8D515B6EC32010BC0AE2AB55850DD871ED0813254D72825EC00192A2C460F1A872FC42ED48ED5F7E00CDCECCCEB26C731F6FE05B39AFADE921293004CA082BB5B9F43086336A21D870E6AC
310
0D7F68109861543DCC30E4ECE26C9C164858139409093556AA051CBC570102714B8F1E7AF1A5C6A11862480C7F2DA6415C878B2A4891CA89C7990F2E050073937C42DE1DB7E4F87ED8A36D4329AA9B3D46DBAEAD504556557BD81DEBDD0761E52CE42C462D17B996298E3E6BE59E35C962CE821E1FF18553435012728A7187
310
0841987E927A8D9B35ADDF70BBC6989599FE4F1427F9A4286A132ABAC49D651EF234CD5CE04CDA78BA3DC2A8FB645D00B9DF8B57E215725C60BCA2A463E54C4CE327C7A65E1C7DB02E7DEFCBF594B864C5CA6CDBD49C957943E9FA5D5FBAF336F90F504B0304140006080800CC70623BAD7543B64E01000033030000300000
310
006662782F39464131463745442D413632322D343644302D413938332D3331353338454246344243312F636E782E786D6CD593CD6EC32010845F0571AD6CE3D48AD20813A9873E410FBD12D82434182C7EAAE6EDBB2424CD25871E7B41D6EC30B3FA84F9E67BB2E40B4234DE8DB46F1925E094D7C6ED479AD3AE5951B2113C
310
789FEE6C943839C1488B4C05DF079FE72A69D8C96C13AAD6B8631503449F83828872B949AC57D26200B826A308D316B4064D6E46FCDA41C05550DC9E483A00797BFD207EFB092A45DE9514C1BBD22178396BD39D891265658C238DEA00936C654E5E433CB65A26D9F6EDB5EBC14EBF49A45CB856E66048291F6939A9A81BB5
310
C8917738143CA680F4AA299D66A042CEB3354A2684DC9D8D178FE0D9B8B41CAAD720F880EE7EF93C0C18769E099ECC04D5A102C8049A8A05632F4DDF376CF1DE0F6BB65C2F8627B65A33C6BB62177CEBBDAD973006829F89F22E814B54F4BC2BE347F8AA8F681390B50FA73F804400B5F542E796F19FF974E7F78DB802FE05
310
E207504B0304140006080800CC70623B16AB87BA640500003C100000340000006662782F39464131463745442D413632322D343644302D413938332D3331353338454246344243312F6F626A656374732E786D6CAD575B6FA33818FD2B887DE6924B3BED8A326A92B68A663B534DD4D13E548A0C38942D60649B369D5FBFC7
310
600890A493BDE42160637FD7F31D7FF63E6FB3D478A55C242CBF3247B66B1A340F5994E4F19559CA8D75611A9F7D8F33263BCB4C232719BD32D5B4E97B316765A1A722BA21652A07B3B7B33F0D11D29C9A46981221AE4C113ED38CD8A4942CA2E2C58E882476BCD9DA23BB5ED8171B73523C0F841684D35CC252CCE79062D4
310
468DFA43D7747CCF51DF7D4FFDEB5593E3AB9CCA9FBEFE241792E4E19EB28198C968BAB8199F5D5A67D3E9C49A9E8F47D6EC76B6B0469F26EEFC7C3EBFBCBEB98462213924694B38DD98FE1D62C393D073EA4FADC5DAF04326852CCF6958F90F0F2B9BB5C48816348F90C7840A68EB78EDF68723159BCEE7891A6B95DDE9D3
310
BCEAEEE8086A6C6F9E5D4B59F0175C10A7A0820BAA5055C7473B5AE3CFDD452D602CD5DF12616444529E90D448938013FE6EFA58AA96F85E4F8C42275708571E98FE6827AF6B2B4AE3D7D83D64E5A64C53054DD3AF90BD06FEA9149565C94FCA0F6B834DC85599E4F2423B24DF0B6AFA979E534DFA9E7A4CC6FA631D486393
310
921829879BF5D781A373557BCB85E97FB90DB62B558F8795179C15944B051F40AB495CF35451D26A4727654E6D8033BD98EF82F21D91FF8AF2DD9982BCF1643BDD4EB516C9492E368C67C88DED563FC36D5EACF66DFF057C3658BDBFA69DF9578B3DA735B64F18C7F20770A9D45CFCF7FCF563D6456A277DBEF78A02637CA2
310
43B90A490AEAB94F72244481D24819A6C0E59B606BFA4B3025981DBB48EAB701D97BF19C577CC77F2D1B6C55A9EF3C732474C0B727303F625995056C3B02963D9EAC146BE78EC5FCEC7FA999EBC5EACBAAE41B12D27B4D2C0BBA49F244E2ECDC81B76B502F113D8F5EE8FB1BE3111CDD4FC2AA9B844CAB1288B68AB90A7CDC
310
1C166AB0D3DC5310625FCC14E779BFD0709F8890A629C9292B1B2DED31A4B0DA928CEE135085754027E3018A397D4D5427D15BD1330B677DC8934285AC3DF45A9EB68FF8F2B8FC0A509AFEECFD0FF2DE25CC6047F7214B195F07EFEB9A094D800F7BFAE8FED187B78EA8A3A400F115961BCAD1215E47C966530AF0EE8128FE
310
58CEBB996A8964FFA529A046635D9353B0336A8F700DDF46271A024E70B0B37C9DE01847591E54DED53D54202AB947E4076556AC49C6CA5C9E1226B7F1A7B1BE15DEED62C41B91E1B3E9AFAAA735036547343A925075041DF0A9979E893B391F8FCFA6967B3EFB644DCF6E5CEBFAE272625DCC6FAF3FB93793C5F90CE1EF57
310
407342756B10D1C489E8953CD1617E5CEECAD6F4EF8914CE5D5D504E5C3F1F9736DA62CFC11E00BCDDB8CC8A9466349744C1F75EBDA4DF09BA8A9E8C7A7E9991989E20E5DBDD6A6003664ED8F7A04A8DBE0DF6EAD9B9AA858342E47399053949D2C146EDB85DE4B176BB0965FBAC19BD19AA918E27FA50C1D22402E144464C
310
59462568E704B6E71915404CB72B8FF4EDE184DDAF753F284990D2C6926782963815403548A70C657FDEF80D2D9CEAA2AE4C1C76F60BFE74219A06527D6582DF6412526107381E55E353090704D085B52408D0933C4ED159D79BDA71BB4BC506F4831350EB6F979CD22D69BF7AC49B91A2C0A9DDA3D5CA36AD20FC478E37E6
310
1844E2352865EBCB6EA275A652E3836BE04EFB400BF1A2556F515F1FBB35B2AB35BD889C744FFA1004B5544B121E57F70215746DD2F5E2C1412B602CBF19455AC6C8E5E9922C4E01E65215385004546899059180EAFCF7A707CE7017CD8CDB0410789AB32C63B91E5CEBBBACB17AC6CD347A022D5075FD106377347AAABA7E
310
7D11590744509B44E205134DC1290F06580320F78E537D3D73540E06CB970B431F185308AD40BBD794D6D77003C5A36E8EAA54BA64597CD8F83BD552A080A365F7FF06504B0304140006080000CC70623B000000000000000000000000350000006662782F39464131463745442D413632322D343644302D413938332D3331
310
353338454246344243312F76657274696365732E62696E504B0304140006080800CC70623BF270F1330600000004000000360000006662782F39464131463745442D413632322D343644302D413938332D3331353338454246344243312F747269616E676C65732E62696E636660600000504B0304140006080000CC70623B
310
000000000000000000000000370000006662782F39464131463745442D413632322D343644302D413938332D3331353338454246344243312F617474726962757465732E62696E504B0304140006080800CC70623B08DA0BD19000000041010000360000006662782F39464131463745442D413632322D343644302D413938
310
332D3331353338454246344243312F6469726563746F72792E786D6C858F410AC3201045AF22B36F53E9A60B35CBEEBAE80D244E44489C6234F4F835464A48035D0DF398FF9F8AF63D0E6CC63039F212F8F9020C7D47C6792B21C5FE7403D62A1188E2E60C98D7234A5830286103A55745067B9D86B8A3CF9C7F90C11DE607
310
FB144396D7B6A82D282E9A152AD114D5EF2CB866EEE831B8EEA07A7BB5A8D7D61A2BAAEB7FD5F70921FF497D00504B0304140006080800CC70623B0D6EF93BFE000000A00100003B0000006662782F39464131463745442D413632322D343644302D413938332D3331353338454246344243312F7265736F75726365732F63
310
6F72652E786D6C8D50596E833010BD0A9ADFCA60B334011947A8694ED00B586642AC041B79A97AFC9A40A5F6AF3F33A3B7689E1E3F7DCD8FEC139DD7D6F4C0720A191A65476DA61E62B892236427C19DB5E1970C322367EC618541F0C9D9B8EC90B226A009093576C41D94DE63804C3DD2D18357379C652E63480A7FCF17A9
310
EE72C29CE5894E3AC17D702940B63D59270887DE46A7D0F36263058F518FBB468FE9A7BE6A7420864373B8D4873369AA8691FA421B3294352543C5CAF65C0F6FEF43CB8BD52C78D0F34F46E550061C419494B6843142CB0F5677F4B52BEB177AEC28E5C52AFF638ACBF84F53D42654E51E77B379102C05791282176B5F693D
310
CB4C7BED567C03504B010214000A0000080000CC70623B3DEE336E79000000790000001B00000000000000000000000000000000006175746F6465736B2D64657369676E2D7061636B6167652E786D6C504B01021400140006080800CC70623BD486FD9CA0000000F40000001300000000000000000000000000B20000005B
310
436F6E74656E745F54797065735D2E786D6C504B01021400140006080800CC70623B1EC5D7A3EB0000007C010000080000000000000000000000000083010000636F72652E786D6C504B01021400140006080800CC70623B55019EA25F0000007C000000070000000000000000000000000094020000636E782E786D6C504B
310
01021400140006080800CC70623B8C9102E971010000D40300000C00000000000000000000000000180300006662782F636F72652E786D6C504B01021400140006080800CC70623BFFEA85907E0000009D0000000B00000000000000000000000000B30400006662782F636E782E786D6C504B01021400140006080800CC70
310
623B4FEEA4082C0100001202000031000000000000000000000000005A0500006662782F39464131463745442D413632322D343644302D413938332D3331353338454246344243312F636F72652E786D6C504B01021400140006080800CC70623BAD7543B64E010000330300003000000000000000000000000000D5060000
310
6662782F39464131463745442D413632322D343644302D413938332D3331353338454246344243312F636E782E786D6C504B01021400140006080800CC70623B16AB87BA640500003C1000003400000000000000000000000000710800006662782F39464131463745442D413632322D343644302D413938332D3331353338
310
454246344243312F6F626A656374732E786D6C504B01021400140006080000CC70623B0000000000000000000000003500000000000000000000000000270E00006662782F39464131463745442D413632322D343644302D413938332D3331353338454246344243312F76657274696365732E62696E504B01021400140006
310
080800CC70623BF270F133060000000400000036000000000000000000000000007A0E00006662782F39464131463745442D413632322D343644302D413938332D3331353338454246344243312F747269616E676C65732E62696E504B01021400140006080000CC70623B0000000000000000000000003700000000000000
310
000000000000D40E00006662782F39464131463745442D413632322D343644302D413938332D3331353338454246344243312F617474726962757465732E62696E504B01021400140006080800CC70623B08DA0BD190000000410100003600000000000000000000000000290F00006662782F39464131463745442D413632
310
322D343644302D413938332D3331353338454246344243312F6469726563746F72792E786D6C504B01021400140006080800CC70623B0D6EF93BFE000000A00100003B000000000000000000000000000D1000006662782F39464131463745442D413632322D343644302D413938332D3331353338454246344243312F7265
310
736F75726365732F636F72652E786D6C504B0506000000000E000E0080040000641100000000
  0
XRECORD
  5
6A15
102
{ACAD_REACTORS
330
173
102
}
330
173
100
AcDbXrecord
280
     1
102
MATERIAL
148
0.0
149
0.0
149
0.0
 93
        0
 94
       63
282
     0
 72
     1
 77
     1
171
     1
175
     1
179
     1
273
     0
  0
XRECORD
  5
175
102
{ACAD_REACTORS
330
173
102
}
330
173
100
AcDbXrecord
280
     1
270
     1
271
     1
  0
XRECORD
  5
174
102
{ACAD_REACTORS
330
173
102
}
330
173
100
AcDbXrecord
280
     1
270
     1
271
     1
  0
XRECORD
  5
1FB
102
{ACAD_REACTORS
330
173
102
}
330
173
100
AcDbXrecord
280
     1
 70
     0
 90
1673772943
  1
ECE7A1D2-D628-4531-984C-D00F80459256
310
504B03040A0000080000CC70623B3DEE336E79000000790000001B0000006175746F6465736B2D64657369676E2D7061636B6167652E786D6C3C3F786D6C2076657273696F6E3D22312E302220656E636F64696E673D227574662D3822203F3E3C666F726D6174733E3C666F726D61743E687474703A2F2F736368656D612E
310
6175746F6465736B2E636F6D2F64657369676E2D7061636B6167652F323030393C2F666F726D61743E3C2F666F726D6174733E504B0304140006080800CC70623BD486FD9CA0000000F4000000130000005B436F6E74656E745F54797065735D2E786D6C7D8EC10E82300C865F65E91D8A1E8C310C0EEA1BF002731658846E
310
D98AC1B77784ABF1D8FE5FBFBF75BBCE937A534CCEB38643598122B6FEE978D0B0485F9C41B54DDD7D022595594E1A469170414C76A4D9A4D207E29CF43ECE46F218070CC6BECC4078ACAA135ACF422C856C0E68EA1BF5669944DDD7BCDE7B1F8E415D77AECB980613C2E4AC91FC167A2B244592486606FC29C8FD7F045B9A
310
EF7053A7E60B504B0304140006080800CC70623BD9DDAED0EC0000007C01000008000000636F72652E786D6C8D90416EC3201045AF82665B61836D9CD8C2444DD39CA01740405C94182C03558F5F9C3852BBEB6A467FFE9B197D7EF89E6EE8CB2CC17A37002D0820E394D7D68D03A478C17B4007C117EFE32F1B20272733C0
310
2A83E0E3E2D3BC49CABB685CCCAAF3DA6CA20CC14440EA969B0182FA34932C648AD911AEC52CD5558EA6A0CF2EC329598D1E47ACCEFBECC59A050463A7EA5833865FEBDD0E37353BE3EE8DBDE3F6786A48D375FBF6CC78B9C282473B3DEFABC5C86834888A900E538A49F5419B9EB47DD5BC907D4F082F57FB1F28CDFA9F50
310
B22ED6D5F6EE030B20687EE43E10BC5CB3C8E51E54AE6B6EE207504B0304140006080800CC70623B55019EA25F0000007C00000007000000636E782E786D6C4DCB3B0E80201045D1AD90E915ED2CF8AC45050C11660C8261F98AB1B07AC9C97D42D718D865D3E909258CFD00CCE24AC6E326A164D74DC0B4128928FF326038
310
472BA13128B1252AC747C6BAB984FC68F0B87FE8960A5C09FE86CFB69FBA01504B0304140006080800CC70623BA24EB22D72010000D40300000C0000006662782F636F72652E786D6CC5535B6E833010BC8AE5DF0A6C5E49888CA3A6694ED00B38E05014B091B1518EDFE511A5A9D228FD2A1F60CDEC7A67C6986DCE4D8D7A
310
69BA4AAB0C073EC548AA5C17952A33ECECD15B61B4E1CC686DBF9561A44423333CC098B3D268D7CE50AE9595CA02AA74216750749DB418E5352C32DCE59FB211BE70162ABA93DF8AFC244AE9073ED050C759670D0840D390E18DF9F1706664C23973AE2A66B62A605A75ACA4C13C4976E1364A12EF355A2EBD384AF65EFA96
310
BC7B8BED2EA6719AAE16FB8491A199335B351775B991C2CA02F390D2D40B028F861F41BCA68B7518BFD0D59A524686F29B26D7164F36B94AD9289CE54E6D1DE6010819891F6E21228B3AD1831EC219194284CF98F06DD01008846CC5A1BEF83801D4CBDC6A1303536877A57A513B0953A94FC707FDBE6064EA84A9E3E6E0FA
310
EE8CF0E9198F7784A316AA0413C2C2F2E0ECA0934D1AE6D05A69BCDE9E91D2A611F573361E38FC1375157F5752AE6B6DFE4B11990F88CCBF0719EE23FF02504B0304140006080800CC70623B408A7D3B7C0000009D0000000B0000006662782F636E782E786D6C4DCCD10A83201886E15B91FFDC552A92A0064DBC8F581632
310
D3703A76F9ABD1C18E3E78F878E5F0D9027ABBFCF2292AE86E2D20171F69F6715550CB827B40839639A5F2770314A7CD293819B45C73AAFB45B35BA61ACAA1C1C7E7855C58C15BC331339661262CC762340413D68D77DA5B42298546CBE6573AF60CEB2F504B0304140006080800CC70623B449FB9BD290100001202000031
310
0000006662782F36394639363044362D344446342D343946362D394244322D3234314243333846323333332F636F72652E786D6C8D515B6EC32010BC0AE22B55850D98B871848994463E412FE002495162B07854397EA176A4F62F3F2C9A9D991D587EB84F37F0AD7D30CEF6905418026DA553C65E7A98E219ED203808EE9D
310
8B7F6810D871D23D2C3014FCE25D9A57483A1BB58D19B54EE9151C43D0110279CB971E06F9A5A7B11A53CC8C70ADE6515EC78BAE4895DB992778883E0700CB907242D17643D7E2538BD869608875438BBAE38922CAC8F1BDD90DB4691A5E2F42C153326A951B95E398B3D1FE599322163C9AE9115F7A3D46ADA0A018778810
310
84E907617BDCEE297BC5BB3DC6BC2EF47FA234AB2745C9D8D8D035EE220B50105E2F0DC1954B9FB747187D9F9D8FA0CCDB042D5FA0C015C65B42DF78BD10F3F3B363CB56C7109DCFDFBBB97E662ED92EB62D13BC2E1BCAE5777DB9966D8A1F504B0304140006080800CC70623BAD7543B64E01000033030000300000006662
310
782F36394639363044362D344446342D343946362D394244322D3234314243333846323333332F636E782E786D6CD593CD6EC32010845F0571AD6CE3D48AD20813A9873E410FBD12D82434182C7EAAE6EDBB2424CD25871E7B41D6EC30B3FA84F9E67BB2E40B4234DE8DB46F1925E094D7C6ED479AD3AE5951B2113C789FEE
310
6C943839C1488B4C05DF079FE72A69D8C96C13AAD6B8631503449F83828872B949AC57D26200B826A308D316B4064D6E46FCDA41C05550DC9E483A00797BFD207EFB092A45DE9514C1BBD22178396BD39D891265658C238DEA00936C654E5E433CB65A26D9F6EDB5EBC14EBF49A45CB856E66048291F6939A9A81BB5C89177
310
38143CA680F4AA299D66A042CEB3354A2684DC9D8D178FE0D9B8B41CAAD720F880EE7EF93C0C18769E099ECC04D5A102C8049A8A05632F4DDF376CF1DE0F6BB65C2F8627B65A33C6BB62177CEBBDAD973006829F89F22E814B54F4BC2BE347F8AA8F681390B50FA73F804400B5F542E796F19FF974E7F78DB802FE05E20750
310
4B0304140006080800CC70623B8D05915C650500003B100000340000006662782F36394639363044362D344446342D343946362D394244322D3234314243333846323333332F6F626A656374732E786D6CAD575B6FA33814FE2B887D06429276DA1565D4266D158D3A339A6846FB502932E050B66023DB74D2FDF5FB190C01
310
9276B2973C046C8ECFF53B17071F77456EBD502133CEAE6CDF9DD81665314F32965ED995DA3A17B6F5310C04E7AA47665B8C14F4CAD6DB7618A48257A5D94AE89654B91AEDDEDDFC61C998326A5B714EA4BCB265FC440BE2924AF184CA6737218AB8E976E7FA6E4338649B0A523E8D98964450A6A029F619B8588D52FE7039
310
B1BD30F0F4F730D0FF866AF6369557DB33949F31A9088B0F848DD8CCFCF9F2767A76E99CCDE733677E3EF59D9BBB9BA5E37F984D16E78BC5E5F5ED25044B25C0C96822E8D60EEFE11B91C581D77CEA34368A1F5329E68CD1B8B61F16D63A1B8E092D294B10C78C4A48EB593D192E7DED9BDEE7995E1B91FDEDD3ACEA9FE831
310
6A756F9F7D4D79F4274C90A7A04248AA51D5F8C718DAE06FB2F75AC4796EBE65D22A88A22223B995679120E2D50E41AA49C260C046A35368846B0BECD0DFF3EBEB8AD4F835768F69B9ADF25C43D30E6B646F807FAA64AD59F61715C7A54127C4AACA98BA3006A9D792DAE165E0D59B61A01FB3A9F9D838D2DAE62445C86166
310
F37564E842E7DE6A69879FEEA2DD5AE7E371E1A5E025154AC307D06A03D73EB5978C58FFA4C8E9033066E0F3BD53BEC1F39F91BE7B55103791EDE6BBB991A2046172CB4581D8B893FA674DDA17A77B3B7C413D1B511FD2743BFF8A38F03A658705E3ADF8015C3A3417FF3D7E439FF591DA0B5F18BC20C1B8981957AE6392A3
310
F43C640C01D1A0B4728E2DD4F26DB4B3C3152A252A3B4E913CEC1C72F012782FF88EFF8637AA552DBEF76408E8A8DE9E50F9E1CB3A2DA0DB1B6039A893B56063DC5B3E3FFB5F72E67AB9FEB4AEC496C4F4C1149625DD662C53E89D7BF0F6151A046260D1337DFDC94502430F83B0EE07A130A224BCAD7DAE1D9FB6CD422FF6
310
920702629C4BB9AE79C12F243C6432A6794E18E5552BA56B431AAB5D91317302B2B071E86C3A42B1A02F999E24061403B5D0EB639195DA655DD3EBEAB4FB862DDF579F014AD0E73C22F99E28DA57FB98E75C6CA2D74D53086D600F4786E0FE3144B771A8A7B900F03594DB8A633CBC49B2EDB69228BB479CF863B5E807AAAB
310
23872F6DFEB4129B949CA33823F58830E86D65621E10047D9DB34D862E8EAC3C2ABC2F7B2C40D67CDFE01F5545B92105AF983AC54D93D69E56FB8E797F88913F898A9FEC705D3F9D1B54EC8426FB500D40A03BD0119B06E1B95DDC7EB8F6975367793EBD70E66733DFB9BC982F9CE564727731999F5D4ECFCE3B8D6A4DC2A0
310
6D50FD148437D110834A64C6CDDF57FBACB5C307A2A477DFE4939736CFEF2B175371E0E10CF0DD1D5C15654E0BCA14D1E87DD02FF93782A162C0A3D95F1524A52770F972BF1EE9809D13CE7DD599467F8ECE9ADD85CE85A34CD45355448C64F9E8A031DC2D596ACC6E5DD93D9B82DE2EF5CAF81363A8E47996A0DE24564A79
310
4115AACE09C55E14540231FDA13C319787134EBF34E3A022514E5B4D9E0826E25C02D5805B15ABE1BEF51B26383D445DD9E875EE33FE4C22DA16427D65A3BCA92CA6D28DD01DF5DC53330704308475351050232CCD31583787BA75774AFB06E5070DD0C8EF484E19968C5D83BA5B90B244D31E54D55A372320FE4786B7EA58
310
44E135AA5467CB7EA333A61683CC6A8C3257034C10CF46F40EF9F5BE59BE5BD30C3C72D235E95D10345C1D45445A5F0BB47E46A5EBE5570F9380B5FA629579952296A773720405982B9DE04011506178964401AA8BDF1FBF0A8EAB6861DD6580C0E38217056766716DAEB2D6FA0917D3E4116581EADB879C4E7CFFB11EFACD
310
3D641311495D92C8676CB409A72D18610D803CE8A626049E8EC1887CB5B44CC39883690DDA8399B4B9855B481E7D71D4A9D22F96E5BB73BF5793020C02137BF837504B0304140006080000CC70623B000000000000000000000000350000006662782F36394639363044362D344446342D343946362D394244322D32343142
310
43333846323333332F76657274696365732E62696E504B0304140006080800CC70623BF270F1330600000004000000360000006662782F36394639363044362D344446342D343946362D394244322D3234314243333846323333332F747269616E676C65732E62696E636660600000504B0304140006080000CC70623B0000
310
00000000000000000000370000006662782F36394639363044362D344446342D343946362D394244322D3234314243333846323333332F617474726962757465732E62696E504B0304140006080800CC70623B08DA0BD19000000041010000360000006662782F36394639363044362D344446342D343946362D394244322D
310
3234314243333846323333332F6469726563746F72792E786D6C858F410AC3201045AF22B36F53E9A60B35CBEEBAE80D244E44489C6234F4F835464A48035D0DF398FF9F8AF63D0E6CC63039F212F8F9020C7D47C6792B21C5FE7403D62A1188E2E60C98D7234A5830286103A55745067B9D86B8A3CF9C7F90C11DE607FB14
310
4396D7B6A82D282E9A152AD114D5EF2CB866EEE831B8EEA07A7BB5A8D7D61A2BAAEB7FD5F70921FF497D00504B0304140006080800CC70623BCA768048FE000000A00100003B0000006662782F36394639363044362D344446342D343946362D394244322D3234314243333846323333332F7265736F75726365732F636F72
310
652E786D6C8D50596E833010BD0A9ADFCA60D600328E9AA639412F609909B1126CE4A5EAF16B0295DABFFECC8CDEA2797AECF8353F924FB44E193D409E5248504B332A3D0D10FC95B4901C39B3C6F85F3248B49871801506CE266BC2B243D2688FDA47549B11775038871E12F988C7004EDE7016A9083E2ADC3D5D84BC8B09
310
D33C8D74D471E6BC8D0192EDC93A815B742658898E651BCB59086ADC356A8C3FD555A1055ED7E7E254D615792D0F075295F585746FF53B694EE78A565DD736979A65AB9933AFE69F8CD2A2F038022F28ED489E135A7CE4554F9BBEA85E68DB53CAB255FEC71496F19FA6A0B42F8B3DEE6673C0F318E4497096AD7DC5F52C33
310
EEB55BFE0D504B010214000A0000080000CC70623B3DEE336E79000000790000001B00000000000000000000000000000000006175746F6465736B2D64657369676E2D7061636B6167652E786D6C504B01021400140006080800CC70623BD486FD9CA0000000F40000001300000000000000000000000000B20000005B436F
310
6E74656E745F54797065735D2E786D6C504B01021400140006080800CC70623BD9DDAED0EC0000007C010000080000000000000000000000000083010000636F72652E786D6C504B01021400140006080800CC70623B55019EA25F0000007C000000070000000000000000000000000095020000636E782E786D6C504B0102
310
1400140006080800CC70623BA24EB22D72010000D40300000C00000000000000000000000000190300006662782F636F72652E786D6C504B01021400140006080800CC70623B408A7D3B7C0000009D0000000B00000000000000000000000000B50400006662782F636E782E786D6C504B01021400140006080800CC70623B
310
449FB9BD290100001202000031000000000000000000000000005A0500006662782F36394639363044362D344446342D343946362D394244322D3234314243333846323333332F636F72652E786D6C504B01021400140006080800CC70623BAD7543B64E010000330300003000000000000000000000000000D20600006662
310
782F36394639363044362D344446342D343946362D394244322D3234314243333846323333332F636E782E786D6C504B01021400140006080800CC70623B8D05915C650500003B10000034000000000000000000000000006E0800006662782F36394639363044362D344446342D343946362D394244322D32343142433338
310
46323333332F6F626A656374732E786D6C504B01021400140006080000CC70623B0000000000000000000000003500000000000000000000000000250E00006662782F36394639363044362D344446342D343946362D394244322D3234314243333846323333332F76657274696365732E62696E504B010214001400060808
310
00CC70623BF270F13306000000040000003600000000000000000000000000780E00006662782F36394639363044362D344446342D343946362D394244322D3234314243333846323333332F747269616E676C65732E62696E504B01021400140006080000CC70623B00000000000000000000000037000000000000000000
310
00000000D20E00006662782F36394639363044362D344446342D343946362D394244322D3234314243333846323333332F617474726962757465732E62696E504B01021400140006080800CC70623B08DA0BD190000000410100003600000000000000000000000000270F00006662782F36394639363044362D344446342D
310
343946362D394244322D3234314243333846323333332F6469726563746F72792E786D6C504B01021400140006080800CC70623BCA768048FE000000A00100003B000000000000000000000000000B1000006662782F36394639363044362D344446342D343946362D394244322D3234314243333846323333332F7265736F
310
75726365732F636F72652E786D6C504B0506000000000E000E0080040000621100000000
  0
XRECORD
  5
176
102
{ACAD_REACTORS
330
173
102
}
330
173
100
AcDbXrecord
280
     1
270
     1
271
     1
  0
XRECORD
  5
177
102
{ACAD_REACTORS
330
173
102
}
330
173
100
AcDbXrecord
280
     1
270
     1
271
     1
  0
XRECORD
  5
6A37
102
{ACAD_REACTORS
330
6A36
102
}
330
6A36
100
AcDbXrecord
280
     1
102
ACAD_ROUNDTRIP_2012_MLEADER_STYLE
298
     1
  0
XRECORD
  5
6A49
102
{ACAD_REACTORS
330
6A48
102
}
330
6A48
100
AcDbXrecord
280
     1
102
DISPLAYNAME
  1
Metric50
102
FLAGS
 90
        0
  0
CELLSTYLEMAP
  5
6A09
102
{ACAD_REACTORS
330
162
102
}
330
162
100
AcDbCellStyleMap
 90
        3
300
CELLSTYLE
  1
TABLEFORMAT_BEGIN
 90
        5
170
     1
 91
        0
 92
    32768
 62
   257
 93
        1
300
CONTENTFORMAT
  1
CONTENTFORMAT_BEGIN
 90
        0
 91
        0
 92
      512
 93
        0
300

 40
0.0
140
1.0
 94
        5
 62
     0
340
11
144
6.0
309
CONTENTFORMAT_END
171
     1
301
MARGIN
  1
CELLMARGIN_BEGIN
 40
1.5
 40
1.5
 40
1.5
 40
1.5
 40
4.5
 40
4.5
309
CELLMARGIN_END
 94
        6
 95
        1
302
GRIDFORMAT
  1
GRIDFORMAT_BEGIN
 90
        0
 91
        1
 62
     0
 92
       -2
340
14
 93
        0
 40
1.125
309
GRIDFORMAT_END
 95
        2
302
GRIDFORMAT
  1
GRIDFORMAT_BEGIN
 90
        0
 91
        1
 62
     0
 92
       -2
340
14
 93
        0
 40
1.125
309
GRIDFORMAT_END
 95
        4
302
GRIDFORMAT
  1
GRIDFORMAT_BEGIN
 90
        0
 91
        1
 62
     0
 92
       -2
340
14
 93
        0
 40
1.125
309
GRIDFORMAT_END
 95
        8
302
GRIDFORMAT
  1
GRIDFORMAT_BEGIN
 90
        0
 91
        1
 62
     0
 92
       -2
340
14
 93
        0
 40
1.125
309
GRIDFORMAT_END
 95
       16
302
GRIDFORMAT
  1
GRIDFORMAT_BEGIN
 90
        0
 91
        1
 62
     0
 92
       -2
340
14
 93
        0
 40
1.125
309
GRIDFORMAT_END
 95
       32
302
GRIDFORMAT
  1
GRIDFORMAT_BEGIN
 90
        0
 91
        1
 62
     0
 92
       -2
340
14
 93
        0
 40
1.125
309
GRIDFORMAT_END
309
TABLEFORMAT_END
  1
CELLSTYLE_BEGIN
 90
        1
 91
        1
300
_TITLE
309
CELLSTYLE_END
300
CELLSTYLE
  1
TABLEFORMAT_BEGIN
 90
        5
170
     1
 91
        0
 92
        0
 62
   257
 93
        1
300
CONTENTFORMAT
  1
CONTENTFORMAT_BEGIN
 90
        0
 91
        0
 92
      512
 93
        0
300

 40
0.0
140
1.0
 94
        5
 62
     0
340
11
144
4.5
309
CONTENTFORMAT_END
171
     1
301
MARGIN
  1
CELLMARGIN_BEGIN
 40
1.5
 40
1.5
 40
1.5
 40
1.5
 40
4.5
 40
4.5
309
CELLMARGIN_END
 94
        6
 95
        1
302
GRIDFORMAT
  1
GRIDFORMAT_BEGIN
 90
        0
 91
        1
 62
     0
 92
       -2
340
14
 93
        0
 40
1.125
309
GRIDFORMAT_END
 95
        2
302
GRIDFORMAT
  1
GRIDFORMAT_BEGIN
 90
        0
 91
        1
 62
     0
 92
       -2
340
14
 93
        0
 40
1.125
309
GRIDFORMAT_END
 95
        4
302
GRIDFORMAT
  1
GRIDFORMAT_BEGIN
 90
        0
 91
        1
 62
     0
 92
       -2
340
14
 93
        0
 40
1.125
309
GRIDFORMAT_END
 95
        8
302
GRIDFORMAT
  1
GRIDFORMAT_BEGIN
 90
        0
 91
        1
 62
     0
 92
       -2
340
14
 93
        0
 40
1.125
309
GRIDFORMAT_END
 95
       16
302
GRIDFORMAT
  1
GRIDFORMAT_BEGIN
 90
        0
 91
        1
 62
     0
 92
       -2
340
14
 93
        0
 40
1.125
309
GRIDFORMAT_END
 95
       32
302
GRIDFORMAT
  1
GRIDFORMAT_BEGIN
 90
        0
 91
        1
 62
     0
 92
       -2
340
14
 93
        0
 40
1.125
309
GRIDFORMAT_END
309
TABLEFORMAT_END
  1
CELLSTYLE_BEGIN
 90
        2
 91
        1
300
_HEADER
309
CELLSTYLE_END
300
CELLSTYLE
  1
TABLEFORMAT_BEGIN
 90
        5
170
     1
 91
        0
 92
        0
 62
   257
 93
        1
300
CONTENTFORMAT
  1
CONTENTFORMAT_BEGIN
 90
        0
 91
        0
 92
      512
 93
        0
300

 40
0.0
140
1.0
 94
        2
 62
     0
340
11
144
4.5
309
CONTENTFORMAT_END
171
     1
301
MARGIN
  1
CELLMARGIN_BEGIN
 40
1.5
 40
1.5
 40
1.5
 40
1.5
 40
4.5
 40
4.5
309
CELLMARGIN_END
 94
        6
 95
        1
302
GRIDFORMAT
  1
GRIDFORMAT_BEGIN
 90
        0
 91
        1
 62
     0
 92
       -2
340
14
 93
        0
 40
1.125
309
GRIDFORMAT_END
 95
        2
302
GRIDFORMAT
  1
GRIDFORMAT_BEGIN
 90
        0
 91
        1
 62
     0
 92
       -2
340
14
 93
        0
 40
1.125
309
GRIDFORMAT_END
 95
        4
302
GRIDFORMAT
  1
GRIDFORMAT_BEGIN
 90
        0
 91
        1
 62
     0
 92
       -2
340
14
 93
        0
 40
1.125
309
GRIDFORMAT_END
 95
        8
302
GRIDFORMAT
  1
GRIDFORMAT_BEGIN
 90
        0
 91
        1
 62
     0
 92
       -2
340
14
 93
        0
 40
1.125
309
GRIDFORMAT_END
 95
       16
302
GRIDFORMAT
  1
GRIDFORMAT_BEGIN
 90
        0
 91
        1
 62
     0
 92
       -2
340
14
 93
        0
 40
1.125
309
GRIDFORMAT_END
 95
       32
302
GRIDFORMAT
  1
GRIDFORMAT_BEGIN
 90
        0
 91
        1
 62
     0
 92
       -2
340
14
 93
        0
 40
1.125
309
GRIDFORMAT_END
309
TABLEFORMAT_END
  1
CELLSTYLE_BEGIN
 90
        3
 91
        2
300
_DATA
309
CELLSTYLE_END
  0
XRECORD
  5
6A0E
102
{ACAD_REACTORS
330
162
102
}
330
162
100
AcDbXrecord
280
     1
102
ACAD_ROUNDTRIP_PRE2007_TABLESTYLE
 90
      512
 91
        0
  1

 92
      512
 93
        0
  2

 94
      512
 95
        0
  3

  0
XRECORD
  5
6A21
102
{ACAD_REACTORS
330
6A20
102
}
330
6A20
100
AcDbXrecord
280
     1
102
RTVSPost2010Prop28
280
     1
102
RTVSPost2010PropOp28
 70
     1
102
RTVSPost2010Prop29
280
     1
102
RTVSPost2010PropOp29
 70
     1
102
RTVSPost2010Prop30
280
     0
102
RTVSPost2010PropOp30
 70
     1
102
RTVSPost2010Prop31
280
     0
102
RTVSPost2010PropOp31
 70
     1
102
RTVSPost2010Prop32
280
     0
102
RTVSPost2010PropOp32
 70
     1
102
RTVSPost2010Prop33
280
     0
102
RTVSPost2010PropOp33
 70
     1
102
RTVSPost2010Prop34
280
     0
102
RTVSPost2010PropOp34
 70
     1
102
RTVSPost2010Prop35
280
     0
102
RTVSPost2010PropOp35
 70
     1
102
RTVSPost2010Prop36
280
     0
102
RTVSPost2010PropOp36
 70
     1
102
RTVSPost2010Prop37
 90
       50
102
RTVSPost2010PropOp37
 70
     1
102
RTVSPost2010Prop38
140
0.0
102
RTVSPost2010PropOp38
 70
     1
102
RTVSPost2010Prop39
140
1.0
102
RTVSPost2010PropOp39
 70
     1
102
RTVSPost2010Prop40
 90
        0
102
RTVSPost2010PropOp40
 70
     1
102
RTVSPost2010Prop41ColorIndex
 90
       18
102
RTVSPost2010Prop41ColorRGB
 90
        0
102
RTVSPost2010PropOp41
 70
     1
102
RTVSPost2010Prop42
 90
       50
102
RTVSPost2010PropOp42
 70
     1
102
RTVSPost2010Prop43
 90
        3
102
RTVSPost2010PropOp43
 70
     1
102
RTVSPost2010Prop44ColorIndex
 90
        5
102
RTVSPost2010Prop44ColorRGB
 90
      255
102
RTVSPost2010PropOp44
 70
     1
102
RTVSPost2010Prop45
280
     0
102
RTVSPost2010PropOp45
 70
     1
102
RTVSPost2010Prop46
 90
       50
102
RTVSPost2010PropOp46
 70
     1
102
RTVSPost2010Prop47
 90
       50
102
RTVSPost2010PropOp47
 70
     1
102
RTVSPost2010Prop48
 90
       50
102
RTVSPost2010PropOp48
 70
     1
102
RTVSPost2010Prop49
280
     0
102
RTVSPost2010PropOp49
 70
     1
102
RTVSPost2010Prop50
 90
       50
102
RTVSPost2010PropOp50
 70
     1
102
RTVSPost2010Prop51ColorIndex
 90
      256
102
RTVSPost2010Prop51ColorRGB
 90
-16777216
102
RTVSPost2010PropOp51
 70
     0
102
RTVSPost2010Prop52
140
1.0
102
RTVSPost2010PropOp52
 70
     0
102
RTVSPost2010Prop53
 90
        2
102
RTVSPost2010PropOp53
 70
     1
102
RTVSPost2010Prop54
  1
strokes_ogs.tif
102
RTVSPost2010PropOp54
 70
     1
102
RTVSPost2010Prop55
280
     0
102
RTVSPost2010PropOp55
 70
     1
102
RTVSPost2010Prop56
140
1.0
102
RTVSPost2010PropOp56
 70
     1
102
RTVSPost2010Prop57
140
1.0
102
RTVSPost2010PropOp57
 70
     1
102
RTVSPropertyOp0
 70
     1
102
RTVSPropertyOp1
 70
     1
102
RTVSPropertyOp2
 70
     1
102
RTVSPropertyOp3
 70
     1
102
RTVSPropertyOp4
 70
     1
102
RTVSPropertyOp5
 70
     1
102
RTVSPropertyOp6
 70
     1
102
RTVSPropertyOp7
 70
     1
102
RTVSPropertyOp8
 70
     1
102
RTVSPropertyOp9
 70
     1
102
RTVSPropertyOp10
 70
     1
102
RTVSPropertyOp11
 70
     1
102
RTVSPropertyOp12
 70
     1
102
RTVSPropertyOp13
 70
     1
102
RTVSPropertyOp14
 70
     1
102
RTVSPropertyOp15
 70
     1
102
RTVSPropertyOp16
 70
     1
102
RTVSPropertyOp17
 70
     1
102
RTVSPropertyOp18
 70
     1
102
RTVSPropertyOp19
 70
     1
102
RTVSPropertyOp20
 70
     1
102
RTVSPropertyOp21
 70
     1
102
RTVSPropertyOp22
 70
     1
102
RTVSPropertyOp23
 70
     1
102
RTVSPropertyOp24
 70
     1
102
RTVSPropertyOp25
 70
     1
102
RTVSPropertyOp26
 70
     1
102
RTVSPropertyOp27
 70
     1
102
RTVSPropertyOp28
 70
     1
102
RTVSPropertyOp29
 70
     1
102
RTVSPropertyOp30
 70
     1
102
RTVSPropertyOp31
 70
     1
102
RTVSPropertyOp32
 70
     1
102
RTVSPropertyOp33
 70
     1
102
RTVSPropertyOp34
 70
     1
102
RTVSPropertyOp35
 70
     1
102
RTVSPropertyOp36
 70
     1
102
RTVSPropertyOp37
 70
     1
102
RTVSPropertyOp38
 70
     1
102
RTVSPropertyOp39
 70
     1
102
RTVSPropertyOp40
 70
     1
102
RTVSPropertyOp41
 70
     1
102
RTVSPropertyOp42
 70
     1
102
RTVSPropertyOp43
 70
     1
102
RTVSPropertyOp44
 70
     1
102
RTVSPropertyOp45
 70
     1
102
RTVSPropertyOp46
 70
     1
102
RTVSPropertyOp47
 70
     1
102
RTVSPropertyOp48
 70
     1
102
RTVSPropertyOp49
 70
     1
102
RTVSPropertyOp50
 70
     1
102
RTVSPropertyOp51
 70
     0
102
RTVSPropertyOp52
 70
     0
102
RTVSPropertyOp53
 70
     1
102
RTVSPropertyOp54
 70
     1
102
RTVSPropertyOp55
 70
     1
102
RTVSPropertyOp56
 70
     1
102
RTVSPropertyOp57
 70
     1
102
RTVSPropertyOp58
 70
     1
102
RTVSPropertyOp59
 70
     1
102
RTVSPropertyOp60
 70
     1
102
RTVSPropertyOp61
 70
     1
102
RTVSPropertyOp62
 70
     1
  0
XRECORD
  5
6A1F
102
{ACAD_REACTORS
330
6A1E
102
}
330
6A1E
100
AcDbXrecord
280
     1
102
RTVSPost2010Prop28
280
     0
102
RTVSPost2010PropOp28
 70
     1
102
RTVSPost2010Prop29
280
     1
102
RTVSPost2010PropOp29
 70
     1
102
RTVSPost2010Prop30
280
     1
102
RTVSPost2010PropOp30
 70
     1
102
RTVSPost2010Prop31
280
     0
102
RTVSPost2010PropOp31
 70
     1
102
RTVSPost2010Prop32
280
     0
102
RTVSPost2010PropOp32
 70
     1
102
RTVSPost2010Prop33
280
     0
102
RTVSPost2010PropOp33
 70
     1
102
RTVSPost2010Prop34
280
     0
102
RTVSPost2010PropOp34
 70
     1
102
RTVSPost2010Prop35
280
     0
102
RTVSPost2010PropOp35
 70
     1
102
RTVSPost2010Prop36
280
     0
102
RTVSPost2010PropOp36
 70
     1
102
RTVSPost2010Prop37
 90
       50
102
RTVSPost2010PropOp37
 70
     1
102
RTVSPost2010Prop38
140
0.0
102
RTVSPost2010PropOp38
 70
     1
102
RTVSPost2010Prop39
140
1.0
102
RTVSPost2010PropOp39
 70
     1
102
RTVSPost2010Prop40
 90
        0
102
RTVSPost2010PropOp40
 70
     1
102
RTVSPost2010Prop41ColorIndex
 90
       18
102
RTVSPost2010Prop41ColorRGB
 90
        0
102
RTVSPost2010PropOp41
 70
     1
102
RTVSPost2010Prop42
 90
       50
102
RTVSPost2010PropOp42
 70
     1
102
RTVSPost2010Prop43
 90
        3
102
RTVSPost2010PropOp43
 70
     1
102
RTVSPost2010Prop44ColorIndex
 90
        5
102
RTVSPost2010Prop44ColorRGB
 90
      255
102
RTVSPost2010PropOp44
 70
     1
102
RTVSPost2010Prop45
280
     0
102
RTVSPost2010PropOp45
 70
     1
102
RTVSPost2010Prop46
 90
       50
102
RTVSPost2010PropOp46
 70
     1
102
RTVSPost2010Prop47
 90
       50
102
RTVSPost2010PropOp47
 70
     1
102
RTVSPost2010Prop48
 90
       50
102
RTVSPost2010PropOp48
 70
     1
102
RTVSPost2010Prop49
280
     0
102
RTVSPost2010PropOp49
 70
     1
102
RTVSPost2010Prop50
 90
       50
102
RTVSPost2010PropOp50
 70
     1
102
RTVSPost2010Prop51ColorIndex
 90
      256
102
RTVSPost2010Prop51ColorRGB
 90
-16777216
102
RTVSPost2010PropOp51
 70
     0
102
RTVSPost2010Prop52
140
1.0
102
RTVSPost2010PropOp52
 70
     0
102
RTVSPost2010Prop53
 90
        2
102
RTVSPost2010PropOp53
 70
     1
102
RTVSPost2010Prop54
  1
strokes_ogs.tif
102
RTVSPost2010PropOp54
 70
     1
102
RTVSPost2010Prop55
280
     0
102
RTVSPost2010PropOp55
 70
     1
102
RTVSPost2010Prop56
140
1.0
102
RTVSPost2010PropOp56
 70
     1
102
RTVSPost2010Prop57
140
1.0
102
RTVSPost2010PropOp57
 70
     1
102
RTVSPropertyOp0
 70
     1
102
RTVSPropertyOp1
 70
     1
102
RTVSPropertyOp2
 70
     1
102
RTVSPropertyOp3
 70
     1
102
RTVSPropertyOp4
 70
     1
102
RTVSPropertyOp5
 70
     1
102
RTVSPropertyOp6
 70
     1
102
RTVSPropertyOp7
 70
     1
102
RTVSPropertyOp8
 70
     1
102
RTVSPropertyOp9
 70
     1
102
RTVSPropertyOp10
 70
     1
102
RTVSPropertyOp11
 70
     1
102
RTVSPropertyOp12
 70
     1
102
RTVSPropertyOp13
 70
     1
102
RTVSPropertyOp14
 70
     1
102
RTVSPropertyOp15
 70
     1
102
RTVSPropertyOp16
 70
     1
102
RTVSPropertyOp17
 70
     1
102
RTVSPropertyOp18
 70
     1
102
RTVSPropertyOp19
 70
     1
102
RTVSPropertyOp20
 70
     1
102
RTVSPropertyOp21
 70
     1
102
RTVSPropertyOp22
 70
     1
102
RTVSPropertyOp23
 70
     1
102
RTVSPropertyOp24
 70
     1
102
RTVSPropertyOp25
 70
     1
102
RTVSPropertyOp26
 70
     1
102
RTVSPropertyOp27
 70
     1
102
RTVSPropertyOp28
 70
     1
102
RTVSPropertyOp29
 70
     1
102
RTVSPropertyOp30
 70
     1
102
RTVSPropertyOp31
 70
     1
102
RTVSPropertyOp32
 70
     1
102
RTVSPropertyOp33
 70
     1
102
RTVSPropertyOp34
 70
     1
102
RTVSPropertyOp35
 70
     1
102
RTVSPropertyOp36
 70
     1
102
RTVSPropertyOp37
 70
     1
102
RTVSPropertyOp38
 70
     1
102
RTVSPropertyOp39
 70
     1
102
RTVSPropertyOp40
 70
     1
102
RTVSPropertyOp41
 70
     1
102
RTVSPropertyOp42
 70
     1
102
RTVSPropertyOp43
 70
     1
102
RTVSPropertyOp44
 70
     1
102
RTVSPropertyOp45
 70
     1
102
RTVSPropertyOp46
 70
     1
102
RTVSPropertyOp47
 70
     1
102
RTVSPropertyOp48
 70
     1
102
RTVSPropertyOp49
 70
     1
102
RTVSPropertyOp50
 70
     1
102
RTVSPropertyOp51
 70
     0
102
RTVSPropertyOp52
 70
     0
102
RTVSPropertyOp53
 70
     1
102
RTVSPropertyOp54
 70
     1
102
RTVSPropertyOp55
 70
     1
102
RTVSPropertyOp56
 70
     1
102
RTVSPropertyOp57
 70
     1
102
RTVSPropertyOp58
 70
     1
102
RTVSPropertyOp59
 70
     1
102
RTVSPropertyOp60
 70
     1
102
RTVSPropertyOp61
 70
     1
102
RTVSPropertyOp62
 70
     1
  0
XRECORD
  5
6A2D
102
{ACAD_REACTORS
330
6A2C
102
}
330
6A2C
100
AcDbXrecord
280
     1
102
RTVSPost2010Prop28
280
     0
102
RTVSPost2010PropOp28
 70
     1
102
RTVSPost2010Prop29
280
     1
102
RTVSPost2010PropOp29
 70
     1
102
RTVSPost2010Prop30
280
     1
102
RTVSPost2010PropOp30
 70
     1
102
RTVSPost2010Prop31
280
     0
102
RTVSPost2010PropOp31
 70
     1
102
RTVSPost2010Prop32
280
     0
102
RTVSPost2010PropOp32
 70
     1
102
RTVSPost2010Prop33
280
     0
102
RTVSPost2010PropOp33
 70
     1
102
RTVSPost2010Prop34
280
     0
102
RTVSPost2010PropOp34
 70
     1
102
RTVSPost2010Prop35
280
     0
102
RTVSPost2010PropOp35
 70
     1
102
RTVSPost2010Prop36
280
     0
102
RTVSPost2010PropOp36
 70
     1
102
RTVSPost2010Prop37
 90
       50
102
RTVSPost2010PropOp37
 70
     1
102
RTVSPost2010Prop38
140
0.0
102
RTVSPost2010PropOp38
 70
     1
102
RTVSPost2010Prop39
140
1.0
102
RTVSPost2010PropOp39
 70
     1
102
RTVSPost2010Prop40
 90
        0
102
RTVSPost2010PropOp40
 70
     1
102
RTVSPost2010Prop41ColorIndex
 90
       18
102
RTVSPost2010Prop41ColorRGB
 90
        0
102
RTVSPost2010PropOp41
 70
     1
102
RTVSPost2010Prop42
 90
       50
102
RTVSPost2010PropOp42
 70
     1
102
RTVSPost2010Prop43
 90
        3
102
RTVSPost2010PropOp43
 70
     1
102
RTVSPost2010Prop44ColorIndex
 90
        5
102
RTVSPost2010Prop44ColorRGB
 90
      255
102
RTVSPost2010PropOp44
 70
     1
102
RTVSPost2010Prop45
280
     0
102
RTVSPost2010PropOp45
 70
     1
102
RTVSPost2010Prop46
 90
       50
102
RTVSPost2010PropOp46
 70
     1
102
RTVSPost2010Prop47
 90
       50
102
RTVSPost2010PropOp47
 70
     1
102
RTVSPost2010Prop48
 90
       50
102
RTVSPost2010PropOp48
 70
     1
102
RTVSPost2010Prop49
280
     0
102
RTVSPost2010PropOp49
 70
     1
102
RTVSPost2010Prop50
 90
       50
102
RTVSPost2010PropOp50
 70
     1
102
RTVSPost2010Prop51ColorIndex
 90
      256
102
RTVSPost2010Prop51ColorRGB
 90
-16777216
102
RTVSPost2010PropOp51
 70
     0
102
RTVSPost2010Prop52
140
1.0
102
RTVSPost2010PropOp52
 70
     0
102
RTVSPost2010Prop53
 90
        2
102
RTVSPost2010PropOp53
 70
     1
102
RTVSPost2010Prop54
  1
strokes_ogs.tif
102
RTVSPost2010PropOp54
 70
     1
102
RTVSPost2010Prop55
280
     0
102
RTVSPost2010PropOp55
 70
     1
102
RTVSPost2010Prop56
140
1.0
102
RTVSPost2010PropOp56
 70
     1
102
RTVSPost2010Prop57
140
1.0
102
RTVSPost2010PropOp57
 70
     1
102
RTVSPropertyOp0
 70
     1
102
RTVSPropertyOp1
 70
     1
102
RTVSPropertyOp2
 70
     1
102
RTVSPropertyOp3
 70
     1
102
RTVSPropertyOp4
 70
     1
102
RTVSPropertyOp5
 70
     1
102
RTVSPropertyOp6
 70
     1
102
RTVSPropertyOp7
 70
     1
102
RTVSPropertyOp8
 70
     1
102
RTVSPropertyOp9
 70
     1
102
RTVSPropertyOp10
 70
     1
102
RTVSPropertyOp11
 70
     1
102
RTVSPropertyOp12
 70
     1
102
RTVSPropertyOp13
 70
     1
102
RTVSPropertyOp14
 70
     1
102
RTVSPropertyOp15
 70
     1
102
RTVSPropertyOp16
 70
     1
102
RTVSPropertyOp17
 70
     1
102
RTVSPropertyOp18
 70
     1
102
RTVSPropertyOp19
 70
     1
102
RTVSPropertyOp20
 70
     1
102
RTVSPropertyOp21
 70
     1
102
RTVSPropertyOp22
 70
     1
102
RTVSPropertyOp23
 70
     1
102
RTVSPropertyOp24
 70
     1
102
RTVSPropertyOp25
 70
     1
102
RTVSPropertyOp26
 70
     1
102
RTVSPropertyOp27
 70
     1
102
RTVSPropertyOp28
 70
     1
102
RTVSPropertyOp29
 70
     1
102
RTVSPropertyOp30
 70
     1
102
RTVSPropertyOp31
 70
     1
102
RTVSPropertyOp32
 70
     1
102
RTVSPropertyOp33
 70
     1
102
RTVSPropertyOp34
 70
     1
102
RTVSPropertyOp35
 70
     1
102
RTVSPropertyOp36
 70
     1
102
RTVSPropertyOp37
 70
     1
102
RTVSPropertyOp38
 70
     1
102
RTVSPropertyOp39
 70
     1
102
RTVSPropertyOp40
 70
     1
102
RTVSPropertyOp41
 70
     1
102
RTVSPropertyOp42
 70
     1
102
RTVSPropertyOp43
 70
     1
102
RTVSPropertyOp44
 70
     1
102
RTVSPropertyOp45
 70
     1
102
RTVSPropertyOp46
 70
     1
102
RTVSPropertyOp47
 70
     1
102
RTVSPropertyOp48
 70
     1
102
RTVSPropertyOp49
 70
     1
102
RTVSPropertyOp50
 70
     1
102
RTVSPropertyOp51
 70
     0
102
RTVSPropertyOp52
 70
     0
102
RTVSPropertyOp53
 70
     1
102
RTVSPropertyOp54
 70
     1
102
RTVSPropertyOp55
 70
     1
102
RTVSPropertyOp56
 70
     1
102
RTVSPropertyOp57
 70
     1
102
RTVSPropertyOp58
 70
     1
102
RTVSPropertyOp59
 70
     1
102
RTVSPropertyOp60
 70
     1
102
RTVSPropertyOp61
 70
     1
102
RTVSPropertyOp62
 70
     1
  0
XRECORD
  5
6A35
102
{ACAD_REACTORS
330
6A34
102
}
330
6A34
100
AcDbXrecord
280
     1
102
RTVSPost2010Prop28
280
     0
102
RTVSPost2010PropOp28
 70
     1
102
RTVSPost2010Prop29
280
     1
102
RTVSPost2010PropOp29
 70
     1
102
RTVSPost2010Prop30
280
     1
102
RTVSPost2010PropOp30
 70
     1
102
RTVSPost2010Prop31
280
     0
102
RTVSPost2010PropOp31
 70
     1
102
RTVSPost2010Prop32
280
     0
102
RTVSPost2010PropOp32
 70
     1
102
RTVSPost2010Prop33
280
     0
102
RTVSPost2010PropOp33
 70
     1
102
RTVSPost2010Prop34
280
     0
102
RTVSPost2010PropOp34
 70
     1
102
RTVSPost2010Prop35
280
     0
102
RTVSPost2010PropOp35
 70
     1
102
RTVSPost2010Prop36
280
     0
102
RTVSPost2010PropOp36
 70
     1
102
RTVSPost2010Prop37
 90
       50
102
RTVSPost2010PropOp37
 70
     1
102
RTVSPost2010Prop38
140
0.0
102
RTVSPost2010PropOp38
 70
     1
102
RTVSPost2010Prop39
140
1.0
102
RTVSPost2010PropOp39
 70
     1
102
RTVSPost2010Prop40
 90
        0
102
RTVSPost2010PropOp40
 70
     1
102
RTVSPost2010Prop41ColorIndex
 90
       18
102
RTVSPost2010Prop41ColorRGB
 90
        0
102
RTVSPost2010PropOp41
 70
     1
102
RTVSPost2010Prop42
 90
       50
102
RTVSPost2010PropOp42
 70
     1
102
RTVSPost2010Prop43
 90
        3
102
RTVSPost2010PropOp43
 70
     1
102
RTVSPost2010Prop44ColorIndex
 90
        5
102
RTVSPost2010Prop44ColorRGB
 90
      255
102
RTVSPost2010PropOp44
 70
     1
102
RTVSPost2010Prop45
280
     0
102
RTVSPost2010PropOp45
 70
     1
102
RTVSPost2010Prop46
 90
       50
102
RTVSPost2010PropOp46
 70
     1
102
RTVSPost2010Prop47
 90
       50
102
RTVSPost2010PropOp47
 70
     1
102
RTVSPost2010Prop48
 90
       50
102
RTVSPost2010PropOp48
 70
     1
102
RTVSPost2010Prop49
280
     0
102
RTVSPost2010PropOp49
 70
     1
102
RTVSPost2010Prop50
 90
       50
102
RTVSPost2010PropOp50
 70
     1
102
RTVSPost2010Prop51ColorIndex
 90
      256
102
RTVSPost2010Prop51ColorRGB
 90
-16777216
102
RTVSPost2010PropOp51
 70
     0
102
RTVSPost2010Prop52
140
1.0
102
RTVSPost2010PropOp52
 70
     0
102
RTVSPost2010Prop53
 90
        2
102
RTVSPost2010PropOp53
 70
     1
102
RTVSPost2010Prop54
  1
strokes_ogs.tif
102
RTVSPost2010PropOp54
 70
     1
102
RTVSPost2010Prop55
280
     0
102
RTVSPost2010PropOp55
 70
     1
102
RTVSPost2010Prop56
140
1.0
102
RTVSPost2010PropOp56
 70
     1
102
RTVSPost2010Prop57
140
1.0
102
RTVSPost2010PropOp57
 70
     1
102
RTVSPropertyOp0
 70
     1
102
RTVSPropertyOp1
 70
     1
102
RTVSPropertyOp2
 70
     1
102
RTVSPropertyOp3
 70
     1
102
RTVSPropertyOp4
 70
     1
102
RTVSPropertyOp5
 70
     1
102
RTVSPropertyOp6
 70
     1
102
RTVSPropertyOp7
 70
     1
102
RTVSPropertyOp8
 70
     1
102
RTVSPropertyOp9
 70
     1
102
RTVSPropertyOp10
 70
     1
102
RTVSPropertyOp11
 70
     1
102
RTVSPropertyOp12
 70
     1
102
RTVSPropertyOp13
 70
     1
102
RTVSPropertyOp14
 70
     1
102
RTVSPropertyOp15
 70
     1
102
RTVSPropertyOp16
 70
     1
102
RTVSPropertyOp17
 70
     1
102
RTVSPropertyOp18
 70
     1
102
RTVSPropertyOp19
 70
     1
102
RTVSPropertyOp20
 70
     1
102
RTVSPropertyOp21
 70
     1
102
RTVSPropertyOp22
 70
     1
102
RTVSPropertyOp23
 70
     1
102
RTVSPropertyOp24
 70
     1
102
RTVSPropertyOp25
 70
     1
102
RTVSPropertyOp26
 70
     1
102
RTVSPropertyOp27
 70
     1
102
RTVSPropertyOp28
 70
     1
102
RTVSPropertyOp29
 70
     1
102
RTVSPropertyOp30
 70
     1
102
RTVSPropertyOp31
 70
     1
102
RTVSPropertyOp32
 70
     1
102
RTVSPropertyOp33
 70
     1
102
RTVSPropertyOp34
 70
     1
102
RTVSPropertyOp35
 70
     1
102
RTVSPropertyOp36
 70
     1
102
RTVSPropertyOp37
 70
     1
102
RTVSPropertyOp38
 70
     1
102
RTVSPropertyOp39
 70
     1
102
RTVSPropertyOp40
 70
     1
102
RTVSPropertyOp41
 70
     1
102
RTVSPropertyOp42
 70
     1
102
RTVSPropertyOp43
 70
     1
102
RTVSPropertyOp44
 70
     1
102
RTVSPropertyOp45
 70
     1
102
RTVSPropertyOp46
 70
     1
102
RTVSPropertyOp47
 70
     1
102
RTVSPropertyOp48
 70
     1
102
RTVSPropertyOp49
 70
     1
102
RTVSPropertyOp50
 70
     1
102
RTVSPropertyOp51
 70
     0
102
RTVSPropertyOp52
 70
     0
102
RTVSPropertyOp53
 70
     1
102
RTVSPropertyOp54
 70
     1
102
RTVSPropertyOp55
 70
     1
102
RTVSPropertyOp56
 70
     1
102
RTVSPropertyOp57
 70
     1
102
RTVSPropertyOp58
 70
     1
102
RTVSPropertyOp59
 70
     1
102
RTVSPropertyOp60
 70
     1
102
RTVSPropertyOp61
 70
     1
102
RTVSPropertyOp62
 70
     1
  0
XRECORD
  5
6A27
102
{ACAD_REACTORS
330
6A26
102
}
330
6A26
100
AcDbXrecord
280
     1
102
RTVSPost2010Prop28
280
     0
102
RTVSPost2010PropOp28
 70
     1
102
RTVSPost2010Prop29
280
     1
102
RTVSPost2010PropOp29
 70
     1
102
RTVSPost2010Prop30
280
     1
102
RTVSPost2010PropOp30
 70
     1
102
RTVSPost2010Prop31
280
     0
102
RTVSPost2010PropOp31
 70
     1
102
RTVSPost2010Prop32
280
     0
102
RTVSPost2010PropOp32
 70
     1
102
RTVSPost2010Prop33
280
     0
102
RTVSPost2010PropOp33
 70
     1
102
RTVSPost2010Prop34
280
     0
102
RTVSPost2010PropOp34
 70
     1
102
RTVSPost2010Prop35
280
     0
102
RTVSPost2010PropOp35
 70
     1
102
RTVSPost2010Prop36
280
     0
102
RTVSPost2010PropOp36
 70
     1
102
RTVSPost2010Prop37
 90
       50
102
RTVSPost2010PropOp37
 70
     1
102
RTVSPost2010Prop38
140
0.0
102
RTVSPost2010PropOp38
 70
     1
102
RTVSPost2010Prop39
140
1.0
102
RTVSPost2010PropOp39
 70
     1
102
RTVSPost2010Prop40
 90
        0
102
RTVSPost2010PropOp40
 70
     1
102
RTVSPost2010Prop41ColorIndex
 90
       18
102
RTVSPost2010Prop41ColorRGB
 90
        0
102
RTVSPost2010PropOp41
 70
     1
102
RTVSPost2010Prop42
 90
       50
102
RTVSPost2010PropOp42
 70
     1
102
RTVSPost2010Prop43
 90
        3
102
RTVSPost2010PropOp43
 70
     1
102
RTVSPost2010Prop44ColorIndex
 90
        5
102
RTVSPost2010Prop44ColorRGB
 90
      255
102
RTVSPost2010PropOp44
 70
     1
102
RTVSPost2010Prop45
280
     0
102
RTVSPost2010PropOp45
 70
     1
102
RTVSPost2010Prop46
 90
       50
102
RTVSPost2010PropOp46
 70
     1
102
RTVSPost2010Prop47
 90
       50
102
RTVSPost2010PropOp47
 70
     1
102
RTVSPost2010Prop48
 90
       50
102
RTVSPost2010PropOp48
 70
     1
102
RTVSPost2010Prop49
280
     0
102
RTVSPost2010PropOp49
 70
     1
102
RTVSPost2010Prop50
 90
       50
102
RTVSPost2010PropOp50
 70
     1
102
RTVSPost2010Prop51ColorIndex
 90
      256
102
RTVSPost2010Prop51ColorRGB
 90
-16777216
102
RTVSPost2010PropOp51
 70
     0
102
RTVSPost2010Prop52
140
1.0
102
RTVSPost2010PropOp52
 70
     0
102
RTVSPost2010Prop53
 90
        2
102
RTVSPost2010PropOp53
 70
     1
102
RTVSPost2010Prop54
  1
strokes_ogs.tif
102
RTVSPost2010PropOp54
 70
     1
102
RTVSPost2010Prop55
280
     0
102
RTVSPost2010PropOp55
 70
     1
102
RTVSPost2010Prop56
140
1.0
102
RTVSPost2010PropOp56
 70
     1
102
RTVSPost2010Prop57
140
1.0
102
RTVSPost2010PropOp57
 70
     1
102
RTVSPropertyOp0
 70
     1
102
RTVSPropertyOp1
 70
     1
102
RTVSPropertyOp2
 70
     1
102
RTVSPropertyOp3
 70
     1
102
RTVSPropertyOp4
 70
     1
102
RTVSPropertyOp5
 70
     1
102
RTVSPropertyOp6
 70
     1
102
RTVSPropertyOp7
 70
     1
102
RTVSPropertyOp8
 70
     1
102
RTVSPropertyOp9
 70
     1
102
RTVSPropertyOp10
 70
     1
102
RTVSPropertyOp11
 70
     1
102
RTVSPropertyOp12
 70
     1
102
RTVSPropertyOp13
 70
     1
102
RTVSPropertyOp14
 70
     1
102
RTVSPropertyOp15
 70
     1
102
RTVSPropertyOp16
 70
     1
102
RTVSPropertyOp17
 70
     1
102
RTVSPropertyOp18
 70
     1
102
RTVSPropertyOp19
 70
     1
102
RTVSPropertyOp20
 70
     1
102
RTVSPropertyOp21
 70
     1
102
RTVSPropertyOp22
 70
     1
102
RTVSPropertyOp23
 70
     1
102
RTVSPropertyOp24
 70
     1
102
RTVSPropertyOp25
 70
     1
102
RTVSPropertyOp26
 70
     1
102
RTVSPropertyOp27
 70
     1
102
RTVSPropertyOp28
 70
     1
102
RTVSPropertyOp29
 70
     1
102
RTVSPropertyOp30
 70
     1
102
RTVSPropertyOp31
 70
     1
102
RTVSPropertyOp32
 70
     1
102
RTVSPropertyOp33
 70
     1
102
RTVSPropertyOp34
 70
     1
102
RTVSPropertyOp35
 70
     1
102
RTVSPropertyOp36
 70
     1
102
RTVSPropertyOp37
 70
     1
102
RTVSPropertyOp38
 70
     1
102
RTVSPropertyOp39
 70
     1
102
RTVSPropertyOp40
 70
     1
102
RTVSPropertyOp41
 70
     1
102
RTVSPropertyOp42
 70
     1
102
RTVSPropertyOp43
 70
     1
102
RTVSPropertyOp44
 70
     1
102
RTVSPropertyOp45
 70
     1
102
RTVSPropertyOp46
 70
     1
102
RTVSPropertyOp47
 70
     1
102
RTVSPropertyOp48
 70
     1
102
RTVSPropertyOp49
 70
     1
102
RTVSPropertyOp50
 70
     1
102
RTVSPropertyOp51
 70
     0
102
RTVSPropertyOp52
 70
     0
102
RTVSPropertyOp53
 70
     1
102
RTVSPropertyOp54
 70
     1
102
RTVSPropertyOp55
 70
     1
102
RTVSPropertyOp56
 70
     1
102
RTVSPropertyOp57
 70
     1
102
RTVSPropertyOp58
 70
     1
102
RTVSPropertyOp59
 70
     1
102
RTVSPropertyOp60
 70
     1
102
RTVSPropertyOp61
 70
     1
102
RTVSPropertyOp62
 70
     1
  0
XRECORD
  5
6A2B
102
{ACAD_REACTORS
330
6A2A
102
}
330
6A2A
100
AcDbXrecord
280
     1
102
RTVSPost2010Prop28
280
     0
102
RTVSPost2010PropOp28
 70
     1
102
RTVSPost2010Prop29
280
     1
102
RTVSPost2010PropOp29
 70
     1
102
RTVSPost2010Prop30
280
     1
102
RTVSPost2010PropOp30
 70
     1
102
RTVSPost2010Prop31
280
     0
102
RTVSPost2010PropOp31
 70
     1
102
RTVSPost2010Prop32
280
     0
102
RTVSPost2010PropOp32
 70
     1
102
RTVSPost2010Prop33
280
     0
102
RTVSPost2010PropOp33
 70
     1
102
RTVSPost2010Prop34
280
     0
102
RTVSPost2010PropOp34
 70
     1
102
RTVSPost2010Prop35
280
     0
102
RTVSPost2010PropOp35
 70
     1
102
RTVSPost2010Prop36
280
     0
102
RTVSPost2010PropOp36
 70
     1
102
RTVSPost2010Prop37
 90
       50
102
RTVSPost2010PropOp37
 70
     1
102
RTVSPost2010Prop38
140
0.0
102
RTVSPost2010PropOp38
 70
     1
102
RTVSPost2010Prop39
140
1.0
102
RTVSPost2010PropOp39
 70
     1
102
RTVSPost2010Prop40
 90
        0
102
RTVSPost2010PropOp40
 70
     1
102
RTVSPost2010Prop41ColorIndex
 90
       18
102
RTVSPost2010Prop41ColorRGB
 90
        0
102
RTVSPost2010PropOp41
 70
     1
102
RTVSPost2010Prop42
 90
       50
102
RTVSPost2010PropOp42
 70
     1
102
RTVSPost2010Prop43
 90
        3
102
RTVSPost2010PropOp43
 70
     1
102
RTVSPost2010Prop44ColorIndex
 90
        5
102
RTVSPost2010Prop44ColorRGB
 90
      255
102
RTVSPost2010PropOp44
 70
     1
102
RTVSPost2010Prop45
280
     0
102
RTVSPost2010PropOp45
 70
     1
102
RTVSPost2010Prop46
 90
       50
102
RTVSPost2010PropOp46
 70
     1
102
RTVSPost2010Prop47
 90
       50
102
RTVSPost2010PropOp47
 70
     1
102
RTVSPost2010Prop48
 90
       50
102
RTVSPost2010PropOp48
 70
     1
102
RTVSPost2010Prop49
280
     0
102
RTVSPost2010PropOp49
 70
     1
102
RTVSPost2010Prop50
 90
       50
102
RTVSPost2010PropOp50
 70
     1
102
RTVSPost2010Prop51ColorIndex
 90
      256
102
RTVSPost2010Prop51ColorRGB
 90
-16777216
102
RTVSPost2010PropOp51
 70
     0
102
RTVSPost2010Prop52
140
1.0
102
RTVSPost2010PropOp52
 70
     0
102
RTVSPost2010Prop53
 90
        2
102
RTVSPost2010PropOp53
 70
     1
102
RTVSPost2010Prop54
  1
strokes_ogs.tif
102
RTVSPost2010PropOp54
 70
     1
102
RTVSPost2010Prop55
280
     0
102
RTVSPost2010PropOp55
 70
     1
102
RTVSPost2010Prop56
140
1.0
102
RTVSPost2010PropOp56
 70
     1
102
RTVSPost2010Prop57
140
1.0
102
RTVSPost2010PropOp57
 70
     1
102
RTVSPropertyOp0
 70
     1
102
RTVSPropertyOp1
 70
     1
102
RTVSPropertyOp2
 70
     1
102
RTVSPropertyOp3
 70
     1
102
RTVSPropertyOp4
 70
     1
102
RTVSPropertyOp5
 70
     1
102
RTVSPropertyOp6
 70
     1
102
RTVSPropertyOp7
 70
     1
102
RTVSPropertyOp8
 70
     1
102
RTVSPropertyOp9
 70
     1
102
RTVSPropertyOp10
 70
     1
102
RTVSPropertyOp11
 70
     1
102
RTVSPropertyOp12
 70
     1
102
RTVSPropertyOp13
 70
     1
102
RTVSPropertyOp14
 70
     1
102
RTVSPropertyOp15
 70
     1
102
RTVSPropertyOp16
 70
     1
102
RTVSPropertyOp17
 70
     1
102
RTVSPropertyOp18
 70
     1
102
RTVSPropertyOp19
 70
     1
102
RTVSPropertyOp20
 70
     1
102
RTVSPropertyOp21
 70
     1
102
RTVSPropertyOp22
 70
     1
102
RTVSPropertyOp23
 70
     1
102
RTVSPropertyOp24
 70
     1
102
RTVSPropertyOp25
 70
     1
102
RTVSPropertyOp26
 70
     1
102
RTVSPropertyOp27
 70
     1
102
RTVSPropertyOp28
 70
     1
102
RTVSPropertyOp29
 70
     1
102
RTVSPropertyOp30
 70
     1
102
RTVSPropertyOp31
 70
     1
102
RTVSPropertyOp32
 70
     1
102
RTVSPropertyOp33
 70
     1
102
RTVSPropertyOp34
 70
     1
102
RTVSPropertyOp35
 70
     1
102
RTVSPropertyOp36
 70
     1
102
RTVSPropertyOp37
 70
     1
102
RTVSPropertyOp38
 70
     1
102
RTVSPropertyOp39
 70
     1
102
RTVSPropertyOp40
 70
     1
102
RTVSPropertyOp41
 70
     1
102
RTVSPropertyOp42
 70
     1
102
RTVSPropertyOp43
 70
     1
102
RTVSPropertyOp44
 70
     1
102
RTVSPropertyOp45
 70
     1
102
RTVSPropertyOp46
 70
     1
102
RTVSPropertyOp47
 70
     1
102
RTVSPropertyOp48
 70
     1
102
RTVSPropertyOp49
 70
     1
102
RTVSPropertyOp50
 70
     1
102
RTVSPropertyOp51
 70
     0
102
RTVSPropertyOp52
 70
     0
102
RTVSPropertyOp53
 70
     1
102
RTVSPropertyOp54
 70
     1
102
RTVSPropertyOp55
 70
     1
102
RTVSPropertyOp56
 70
     1
102
RTVSPropertyOp57
 70
     1
102
RTVSPropertyOp58
 70
     1
102
RTVSPropertyOp59
 70
     1
102
RTVSPropertyOp60
 70
     1
102
RTVSPropertyOp61
 70
     1
102
RTVSPropertyOp62
 70
     1
  0
XRECORD
  5
6A3D
102
{ACAD_REACTORS
330
6A3C
102
}
330
6A3C
100
AcDbXrecord
280
     1
102
RTVSPost2010Prop28
280
     0
102
RTVSPost2010PropOp28
 70
     1
102
RTVSPost2010Prop29
280
     1
102
RTVSPost2010PropOp29
 70
     1
102
RTVSPost2010Prop30
280
     1
102
RTVSPost2010PropOp30
 70
     1
102
RTVSPost2010Prop31
280
     0
102
RTVSPost2010PropOp31
 70
     1
102
RTVSPost2010Prop32
280
     0
102
RTVSPost2010PropOp32
 70
     1
102
RTVSPost2010Prop33
280
     0
102
RTVSPost2010PropOp33
 70
     1
102
RTVSPost2010Prop34
280
     0
102
RTVSPost2010PropOp34
 70
     1
102
RTVSPost2010Prop35
280
     0
102
RTVSPost2010PropOp35
 70
     1
102
RTVSPost2010Prop36
280
     0
102
RTVSPost2010PropOp36
 70
     1
102
RTVSPost2010Prop37
 90
       50
102
RTVSPost2010PropOp37
 70
     1
102
RTVSPost2010Prop38
140
0.0
102
RTVSPost2010PropOp38
 70
     1
102
RTVSPost2010Prop39
140
1.0
102
RTVSPost2010PropOp39
 70
     1
102
RTVSPost2010Prop40
 90
        0
102
RTVSPost2010PropOp40
 70
     1
102
RTVSPost2010Prop41ColorIndex
 90
       18
102
RTVSPost2010Prop41ColorRGB
 90
        0
102
RTVSPost2010PropOp41
 70
     1
102
RTVSPost2010Prop42
 90
       50
102
RTVSPost2010PropOp42
 70
     1
102
RTVSPost2010Prop43
 90
        3
102
RTVSPost2010PropOp43
 70
     1
102
RTVSPost2010Prop44ColorIndex
 90
        5
102
RTVSPost2010Prop44ColorRGB
 90
      255
102
RTVSPost2010PropOp44
 70
     1
102
RTVSPost2010Prop45
280
     0
102
RTVSPost2010PropOp45
 70
     1
102
RTVSPost2010Prop46
 90
       50
102
RTVSPost2010PropOp46
 70
     1
102
RTVSPost2010Prop47
 90
       50
102
RTVSPost2010PropOp47
 70
     1
102
RTVSPost2010Prop48
 90
       50
102
RTVSPost2010PropOp48
 70
     1
102
RTVSPost2010Prop49
280
     0
102
RTVSPost2010PropOp49
 70
     1
102
RTVSPost2010Prop50
 90
       50
102
RTVSPost2010PropOp50
 70
     1
102
RTVSPost2010Prop51ColorIndex
 90
      256
102
RTVSPost2010Prop51ColorRGB
 90
-16777216
102
RTVSPost2010PropOp51
 70
     0
102
RTVSPost2010Prop52
140
1.0
102
RTVSPost2010PropOp52
 70
     0
102
RTVSPost2010Prop53
 90
        2
102
RTVSPost2010PropOp53
 70
     1
102
RTVSPost2010Prop54
  1
strokes_ogs.tif
102
RTVSPost2010PropOp54
 70
     1
102
RTVSPost2010Prop55
280
     0
102
RTVSPost2010PropOp55
 70
     1
102
RTVSPost2010Prop56
140
1.0
102
RTVSPost2010PropOp56
 70
     1
102
RTVSPost2010Prop57
140
1.0
102
RTVSPost2010PropOp57
 70
     1
102
RTVSPropertyOp0
 70
     0
102
RTVSPropertyOp1
 70
     0
102
RTVSPropertyOp2
 70
     0
102
RTVSPropertyOp3
 70
     0
102
RTVSPropertyOp4
 70
     0
102
RTVSPropertyOp5
 70
     0
102
RTVSPropertyOp6
 70
     0
102
RTVSPropertyOp7
 70
     0
102
RTVSPropertyOp8
 70
     0
102
RTVSPropertyOp9
 70
     0
102
RTVSPropertyOp10
 70
     0
102
RTVSPropertyOp11
 70
     0
102
RTVSPropertyOp12
 70
     0
102
RTVSPropertyOp13
 70
     0
102
RTVSPropertyOp14
 70
     2
102
RTVSPropertyOp15
 70
     0
102
RTVSPropertyOp16
 70
     0
102
RTVSPropertyOp17
 70
     0
102
RTVSPropertyOp18
 70
     0
102
RTVSPropertyOp19
 70
     0
102
RTVSPropertyOp20
 70
     0
102
RTVSPropertyOp21
 70
     0
102
RTVSPropertyOp22
 70
     0
102
RTVSPropertyOp23
 70
     0
102
RTVSPropertyOp24
 70
     0
102
RTVSPropertyOp25
 70
     0
102
RTVSPropertyOp26
 70
     0
102
RTVSPropertyOp27
 70
     0
102
RTVSPropertyOp28
 70
     1
102
RTVSPropertyOp29
 70
     1
102
RTVSPropertyOp30
 70
     1
102
RTVSPropertyOp31
 70
     1
102
RTVSPropertyOp32
 70
     1
102
RTVSPropertyOp33
 70
     1
102
RTVSPropertyOp34
 70
     1
102
RTVSPropertyOp35
 70
     1
102
RTVSPropertyOp36
 70
     1
102
RTVSPropertyOp37
 70
     1
102
RTVSPropertyOp38
 70
     1
102
RTVSPropertyOp39
 70
     1
102
RTVSPropertyOp40
 70
     1
102
RTVSPropertyOp41
 70
     1
102
RTVSPropertyOp42
 70
     1
102
RTVSPropertyOp43
 70
     1
102
RTVSPropertyOp44
 70
     1
102
RTVSPropertyOp45
 70
     1
102
RTVSPropertyOp46
 70
     1
102
RTVSPropertyOp47
 70
     1
102
RTVSPropertyOp48
 70
     1
102
RTVSPropertyOp49
 70
     1
102
RTVSPropertyOp50
 70
     1
102
RTVSPropertyOp51
 70
     0
102
RTVSPropertyOp52
 70
     0
102
RTVSPropertyOp53
 70
     1
102
RTVSPropertyOp54
 70
     1
102
RTVSPropertyOp55
 70
     1
102
RTVSPropertyOp56
 70
     1
102
RTVSPropertyOp57
 70
     1
102
RTVSPropertyOp58
 70
     1
102
RTVSPropertyOp59
 70
     1
102
RTVSPropertyOp60
 70
     1
102
RTVSPropertyOp61
 70
     1
102
RTVSPropertyOp62
 70
     1
  0
XRECORD
  5
6A33
102
{ACAD_REACTORS
330
6A32
102
}
330
6A32
100
AcDbXrecord
280
     1
102
RTVSPost2010Prop28
280
     0
102
RTVSPost2010PropOp28
 70
     1
102
RTVSPost2010Prop29
280
     1
102
RTVSPost2010PropOp29
 70
     1
102
RTVSPost2010Prop30
280
     1
102
RTVSPost2010PropOp30
 70
     1
102
RTVSPost2010Prop31
280
     0
102
RTVSPost2010PropOp31
 70
     1
102
RTVSPost2010Prop32
280
     0
102
RTVSPost2010PropOp32
 70
     1
102
RTVSPost2010Prop33
280
     0
102
RTVSPost2010PropOp33
 70
     1
102
RTVSPost2010Prop34
280
     0
102
RTVSPost2010PropOp34
 70
     1
102
RTVSPost2010Prop35
280
     0
102
RTVSPost2010PropOp35
 70
     1
102
RTVSPost2010Prop36
280
     0
102
RTVSPost2010PropOp36
 70
     1
102
RTVSPost2010Prop37
 90
       50
102
RTVSPost2010PropOp37
 70
     1
102
RTVSPost2010Prop38
140
0.0
102
RTVSPost2010PropOp38
 70
     1
102
RTVSPost2010Prop39
140
1.0
102
RTVSPost2010PropOp39
 70
     1
102
RTVSPost2010Prop40
 90
        0
102
RTVSPost2010PropOp40
 70
     1
102
RTVSPost2010Prop41ColorIndex
 90
       18
102
RTVSPost2010Prop41ColorRGB
 90
        0
102
RTVSPost2010PropOp41
 70
     1
102
RTVSPost2010Prop42
 90
       50
102
RTVSPost2010PropOp42
 70
     1
102
RTVSPost2010Prop43
 90
        3
102
RTVSPost2010PropOp43
 70
     1
102
RTVSPost2010Prop44ColorIndex
 90
        5
102
RTVSPost2010Prop44ColorRGB
 90
      255
102
RTVSPost2010PropOp44
 70
     1
102
RTVSPost2010Prop45
280
     0
102
RTVSPost2010PropOp45
 70
     1
102
RTVSPost2010Prop46
 90
       50
102
RTVSPost2010PropOp46
 70
     1
102
RTVSPost2010Prop47
 90
       50
102
RTVSPost2010PropOp47
 70
     1
102
RTVSPost2010Prop48
 90
       50
102
RTVSPost2010PropOp48
 70
     1
102
RTVSPost2010Prop49
280
     0
102
RTVSPost2010PropOp49
 70
     1
102
RTVSPost2010Prop50
 90
       50
102
RTVSPost2010PropOp50
 70
     1
102
RTVSPost2010Prop51ColorIndex
 90
      256
102
RTVSPost2010Prop51ColorRGB
 90
-16777216
102
RTVSPost2010PropOp51
 70
     0
102
RTVSPost2010Prop52
140
1.0
102
RTVSPost2010PropOp52
 70
     0
102
RTVSPost2010Prop53
 90
        2
102
RTVSPost2010PropOp53
 70
     1
102
RTVSPost2010Prop54
  1
strokes_ogs.tif
102
RTVSPost2010PropOp54
 70
     1
102
RTVSPost2010Prop55
280
     0
102
RTVSPost2010PropOp55
 70
     1
102
RTVSPost2010Prop56
140
1.0
102
RTVSPost2010PropOp56
 70
     1
102
RTVSPost2010Prop57
140
1.0
102
RTVSPost2010PropOp57
 70
     1
102
RTVSPropertyOp0
 70
     1
102
RTVSPropertyOp1
 70
     1
102
RTVSPropertyOp2
 70
     1
102
RTVSPropertyOp3
 70
     1
102
RTVSPropertyOp4
 70
     1
102
RTVSPropertyOp5
 70
     1
102
RTVSPropertyOp6
 70
     1
102
RTVSPropertyOp7
 70
     1
102
RTVSPropertyOp8
 70
     1
102
RTVSPropertyOp9
 70
     1
102
RTVSPropertyOp10
 70
     1
102
RTVSPropertyOp11
 70
     1
102
RTVSPropertyOp12
 70
     1
102
RTVSPropertyOp13
 70
     1
102
RTVSPropertyOp14
 70
     1
102
RTVSPropertyOp15
 70
     1
102
RTVSPropertyOp16
 70
     1
102
RTVSPropertyOp17
 70
     1
102
RTVSPropertyOp18
 70
     1
102
RTVSPropertyOp19
 70
     1
102
RTVSPropertyOp20
 70
     1
102
RTVSPropertyOp21
 70
     1
102
RTVSPropertyOp22
 70
     1
102
RTVSPropertyOp23
 70
     1
102
RTVSPropertyOp24
 70
     1
102
RTVSPropertyOp25
 70
     1
102
RTVSPropertyOp26
 70
     1
102
RTVSPropertyOp27
 70
     1
102
RTVSPropertyOp28
 70
     1
102
RTVSPropertyOp29
 70
     1
102
RTVSPropertyOp30
 70
     1
102
RTVSPropertyOp31
 70
     1
102
RTVSPropertyOp32
 70
     1
102
RTVSPropertyOp33
 70
     1
102
RTVSPropertyOp34
 70
     1
102
RTVSPropertyOp35
 70
     1
102
RTVSPropertyOp36
 70
     1
102
RTVSPropertyOp37
 70
     1
102
RTVSPropertyOp38
 70
     1
102
RTVSPropertyOp39
 70
     1
102
RTVSPropertyOp40
 70
     1
102
RTVSPropertyOp41
 70
     1
102
RTVSPropertyOp42
 70
     1
102
RTVSPropertyOp43
 70
     1
102
RTVSPropertyOp44
 70
     1
102
RTVSPropertyOp45
 70
     1
102
RTVSPropertyOp46
 70
     1
102
RTVSPropertyOp47
 70
     1
102
RTVSPropertyOp48
 70
     1
102
RTVSPropertyOp49
 70
     1
102
RTVSPropertyOp50
 70
     1
102
RTVSPropertyOp51
 70
     0
102
RTVSPropertyOp52
 70
     0
102
RTVSPropertyOp53
 70
     1
102
RTVSPropertyOp54
 70
     1
102
RTVSPropertyOp55
 70
     1
102
RTVSPropertyOp56
 70
     1
102
RTVSPropertyOp57
 70
     1
102
RTVSPropertyOp58
 70
     1
102
RTVSPropertyOp59
 70
     1
102
RTVSPropertyOp60
 70
     1
102
RTVSPropertyOp61
 70
     1
102
RTVSPropertyOp62
 70
     1
  0
XRECORD
  5
6A17
102
{ACAD_REACTORS
330
6A16
102
}
330
6A16
100
AcDbXrecord
280
     1
102
RTVSPost2010Prop28
280
     0
102
RTVSPost2010PropOp28
 70
     1
102
RTVSPost2010Prop29
280
     1
102
RTVSPost2010PropOp29
 70
     1
102
RTVSPost2010Prop30
280
     1
102
RTVSPost2010PropOp30
 70
     1
102
RTVSPost2010Prop31
280
     0
102
RTVSPost2010PropOp31
 70
     1
102
RTVSPost2010Prop32
280
     0
102
RTVSPost2010PropOp32
 70
     1
102
RTVSPost2010Prop33
280
     0
102
RTVSPost2010PropOp33
 70
     1
102
RTVSPost2010Prop34
280
     0
102
RTVSPost2010PropOp34
 70
     1
102
RTVSPost2010Prop35
280
     0
102
RTVSPost2010PropOp35
 70
     1
102
RTVSPost2010Prop36
280
     0
102
RTVSPost2010PropOp36
 70
     1
102
RTVSPost2010Prop37
 90
       50
102
RTVSPost2010PropOp37
 70
     1
102
RTVSPost2010Prop38
140
0.0
102
RTVSPost2010PropOp38
 70
     1
102
RTVSPost2010Prop39
140
1.0
102
RTVSPost2010PropOp39
 70
     1
102
RTVSPost2010Prop40
 90
        0
102
RTVSPost2010PropOp40
 70
     1
102
RTVSPost2010Prop41ColorIndex
 90
       18
102
RTVSPost2010Prop41ColorRGB
 90
        0
102
RTVSPost2010PropOp41
 70
     1
102
RTVSPost2010Prop42
 90
       50
102
RTVSPost2010PropOp42
 70
     1
102
RTVSPost2010Prop43
 90
        3
102
RTVSPost2010PropOp43
 70
     1
102
RTVSPost2010Prop44ColorIndex
 90
        5
102
RTVSPost2010Prop44ColorRGB
 90
      255
102
RTVSPost2010PropOp44
 70
     1
102
RTVSPost2010Prop45
280
     0
102
RTVSPost2010PropOp45
 70
     1
102
RTVSPost2010Prop46
 90
       50
102
RTVSPost2010PropOp46
 70
     1
102
RTVSPost2010Prop47
 90
       50
102
RTVSPost2010PropOp47
 70
     1
102
RTVSPost2010Prop48
 90
       50
102
RTVSPost2010PropOp48
 70
     1
102
RTVSPost2010Prop49
280
     0
102
RTVSPost2010PropOp49
 70
     1
102
RTVSPost2010Prop50
 90
       50
102
RTVSPost2010PropOp50
 70
     1
102
RTVSPost2010Prop51ColorIndex
 90
      256
102
RTVSPost2010Prop51ColorRGB
 90
-16777216
102
RTVSPost2010PropOp51
 70
     0
102
RTVSPost2010Prop52
140
1.0
102
RTVSPost2010PropOp52
 70
     0
102
RTVSPost2010Prop53
 90
        2
102
RTVSPost2010PropOp53
 70
     1
102
RTVSPost2010Prop54
  1
strokes_ogs.tif
102
RTVSPost2010PropOp54
 70
     1
102
RTVSPost2010Prop55
280
     0
102
RTVSPost2010PropOp55
 70
     1
102
RTVSPost2010Prop56
140
1.0
102
RTVSPost2010PropOp56
 70
     1
102
RTVSPost2010Prop57
140
1.0
102
RTVSPost2010PropOp57
 70
     1
102
RTVSPropertyOp0
 70
     1
102
RTVSPropertyOp1
 70
     1
102
RTVSPropertyOp2
 70
     1
102
RTVSPropertyOp3
 70
     1
102
RTVSPropertyOp4
 70
     1
102
RTVSPropertyOp5
 70
     1
102
RTVSPropertyOp6
 70
     1
102
RTVSPropertyOp7
 70
     1
102
RTVSPropertyOp8
 70
     1
102
RTVSPropertyOp9
 70
     1
102
RTVSPropertyOp10
 70
     1
102
RTVSPropertyOp11
 70
     1
102
RTVSPropertyOp12
 70
     1
102
RTVSPropertyOp13
 70
     1
102
RTVSPropertyOp14
 70
     1
102
RTVSPropertyOp15
 70
     1
102
RTVSPropertyOp16
 70
     1
102
RTVSPropertyOp17
 70
     1
102
RTVSPropertyOp18
 70
     1
102
RTVSPropertyOp19
 70
     1
102
RTVSPropertyOp20
 70
     1
102
RTVSPropertyOp21
 70
     1
102
RTVSPropertyOp22
 70
     1
102
RTVSPropertyOp23
 70
     1
102
RTVSPropertyOp24
 70
     1
102
RTVSPropertyOp25
 70
     1
102
RTVSPropertyOp26
 70
     1
102
RTVSPropertyOp27
 70
     1
102
RTVSPropertyOp28
 70
     1
102
RTVSPropertyOp29
 70
     1
102
RTVSPropertyOp30
 70
     1
102
RTVSPropertyOp31
 70
     1
102
RTVSPropertyOp32
 70
     1
102
RTVSPropertyOp33
 70
     1
102
RTVSPropertyOp34
 70
     1
102
RTVSPropertyOp35
 70
     1
102
RTVSPropertyOp36
 70
     1
102
RTVSPropertyOp37
 70
     1
102
RTVSPropertyOp38
 70
     1
102
RTVSPropertyOp39
 70
     1
102
RTVSPropertyOp40
 70
     1
102
RTVSPropertyOp41
 70
     1
102
RTVSPropertyOp42
 70
     1
102
RTVSPropertyOp43
 70
     1
102
RTVSPropertyOp44
 70
     1
102
RTVSPropertyOp45
 70
     1
102
RTVSPropertyOp46
 70
     1
102
RTVSPropertyOp47
 70
     1
102
RTVSPropertyOp48
 70
     1
102
RTVSPropertyOp49
 70
     1
102
RTVSPropertyOp50
 70
     1
102
RTVSPropertyOp51
 70
     0
102
RTVSPropertyOp52
 70
     0
102
RTVSPropertyOp53
 70
     1
102
RTVSPropertyOp54
 70
     1
102
RTVSPropertyOp55
 70
     1
102
RTVSPropertyOp56
 70
     1
102
RTVSPropertyOp57
 70
     1
102
RTVSPropertyOp58
 70
     1
102
RTVSPropertyOp59
 70
     1
102
RTVSPropertyOp60
 70
     1
102
RTVSPropertyOp61
 70
     1
102
RTVSPropertyOp62
 70
     1
  0
XRECORD
  5
6A19
102
{ACAD_REACTORS
330
6A18
102
}
330
6A18
100
AcDbXrecord
280
     1
102
RTVSPost2010Prop28
280
     0
102
RTVSPost2010PropOp28
 70
     1
102
RTVSPost2010Prop29
280
     1
102
RTVSPost2010PropOp29
 70
     1
102
RTVSPost2010Prop30
280
     1
102
RTVSPost2010PropOp30
 70
     1
102
RTVSPost2010Prop31
280
     0
102
RTVSPost2010PropOp31
 70
     1
102
RTVSPost2010Prop32
280
     0
102
RTVSPost2010PropOp32
 70
     1
102
RTVSPost2010Prop33
280
     0
102
RTVSPost2010PropOp33
 70
     1
102
RTVSPost2010Prop34
280
     0
102
RTVSPost2010PropOp34
 70
     1
102
RTVSPost2010Prop35
280
     0
102
RTVSPost2010PropOp35
 70
     1
102
RTVSPost2010Prop36
280
     0
102
RTVSPost2010PropOp36
 70
     1
102
RTVSPost2010Prop37
 90
       50
102
RTVSPost2010PropOp37
 70
     1
102
RTVSPost2010Prop38
140
0.0
102
RTVSPost2010PropOp38
 70
     1
102
RTVSPost2010Prop39
140
1.0
102
RTVSPost2010PropOp39
 70
     1
102
RTVSPost2010Prop40
 90
        0
102
RTVSPost2010PropOp40
 70
     1
102
RTVSPost2010Prop41ColorIndex
 90
       18
102
RTVSPost2010Prop41ColorRGB
 90
        0
102
RTVSPost2010PropOp41
 70
     1
102
RTVSPost2010Prop42
 90
       50
102
RTVSPost2010PropOp42
 70
     1
102
RTVSPost2010Prop43
 90
        3
102
RTVSPost2010PropOp43
 70
     1
102
RTVSPost2010Prop44ColorIndex
 90
        5
102
RTVSPost2010Prop44ColorRGB
 90
      255
102
RTVSPost2010PropOp44
 70
     1
102
RTVSPost2010Prop45
280
     0
102
RTVSPost2010PropOp45
 70
     1
102
RTVSPost2010Prop46
 90
       50
102
RTVSPost2010PropOp46
 70
     1
102
RTVSPost2010Prop47
 90
       50
102
RTVSPost2010PropOp47
 70
     1
102
RTVSPost2010Prop48
 90
       50
102
RTVSPost2010PropOp48
 70
     1
102
RTVSPost2010Prop49
280
     0
102
RTVSPost2010PropOp49
 70
     1
102
RTVSPost2010Prop50
 90
       50
102
RTVSPost2010PropOp50
 70
     1
102
RTVSPost2010Prop51ColorIndex
 90
      256
102
RTVSPost2010Prop51ColorRGB
 90
-16777216
102
RTVSPost2010PropOp51
 70
     0
102
RTVSPost2010Prop52
140
1.0
102
RTVSPost2010PropOp52
 70
     0
102
RTVSPost2010Prop53
 90
        2
102
RTVSPost2010PropOp53
 70
     1
102
RTVSPost2010Prop54
  1
strokes_ogs.tif
102
RTVSPost2010PropOp54
 70
     1
102
RTVSPost2010Prop55
280
     0
102
RTVSPost2010PropOp55
 70
     1
102
RTVSPost2010Prop56
140
1.0
102
RTVSPost2010PropOp56
 70
     1
102
RTVSPost2010Prop57
140
1.0
102
RTVSPost2010PropOp57
 70
     1
102
RTVSPropertyOp0
 70
     1
102
RTVSPropertyOp1
 70
     1
102
RTVSPropertyOp2
 70
     1
102
RTVSPropertyOp3
 70
     1
102
RTVSPropertyOp4
 70
     1
102
RTVSPropertyOp5
 70
     1
102
RTVSPropertyOp6
 70
     1
102
RTVSPropertyOp7
 70
     1
102
RTVSPropertyOp8
 70
     1
102
RTVSPropertyOp9
 70
     1
102
RTVSPropertyOp10
 70
     1
102
RTVSPropertyOp11
 70
     1
102
RTVSPropertyOp12
 70
     1
102
RTVSPropertyOp13
 70
     1
102
RTVSPropertyOp14
 70
     1
102
RTVSPropertyOp15
 70
     1
102
RTVSPropertyOp16
 70
     1
102
RTVSPropertyOp17
 70
     1
102
RTVSPropertyOp18
 70
     1
102
RTVSPropertyOp19
 70
     1
102
RTVSPropertyOp20
 70
     1
102
RTVSPropertyOp21
 70
     1
102
RTVSPropertyOp22
 70
     1
102
RTVSPropertyOp23
 70
     1
102
RTVSPropertyOp24
 70
     1
102
RTVSPropertyOp25
 70
     1
102
RTVSPropertyOp26
 70
     1
102
RTVSPropertyOp27
 70
     1
102
RTVSPropertyOp28
 70
     1
102
RTVSPropertyOp29
 70
     1
102
RTVSPropertyOp30
 70
     1
102
RTVSPropertyOp31
 70
     1
102
RTVSPropertyOp32
 70
     1
102
RTVSPropertyOp33
 70
     1
102
RTVSPropertyOp34
 70
     1
102
RTVSPropertyOp35
 70
     1
102
RTVSPropertyOp36
 70
     1
102
RTVSPropertyOp37
 70
     1
102
RTVSPropertyOp38
 70
     1
102
RTVSPropertyOp39
 70
     1
102
RTVSPropertyOp40
 70
     1
102
RTVSPropertyOp41
 70
     1
102
RTVSPropertyOp42
 70
     1
102
RTVSPropertyOp43
 70
     1
102
RTVSPropertyOp44
 70
     1
102
RTVSPropertyOp45
 70
     1
102
RTVSPropertyOp46
 70
     1
102
RTVSPropertyOp47
 70
     1
102
RTVSPropertyOp48
 70
     1
102
RTVSPropertyOp49
 70
     1
102
RTVSPropertyOp50
 70
     1
102
RTVSPropertyOp51
 70
     0
102
RTVSPropertyOp52
 70
     0
102
RTVSPropertyOp53
 70
     1
102
RTVSPropertyOp54
 70
     1
102
RTVSPropertyOp55
 70
     1
102
RTVSPropertyOp56
 70
     1
102
RTVSPropertyOp57
 70
     1
102
RTVSPropertyOp58
 70
     1
102
RTVSPropertyOp59
 70
     1
102
RTVSPropertyOp60
 70
     1
102
RTVSPropertyOp61
 70
     1
102
RTVSPropertyOp62
 70
     1
  0
XRECORD
  5
6A1B
102
{ACAD_REACTORS
330
6A1A
102
}
330
6A1A
100
AcDbXrecord
280
     1
102
RTVSPost2010Prop28
280
     0
102
RTVSPost2010PropOp28
 70
     1
102
RTVSPost2010Prop29
280
     1
102
RTVSPost2010PropOp29
 70
     1
102
RTVSPost2010Prop30
280
     1
102
RTVSPost2010PropOp30
 70
     1
102
RTVSPost2010Prop31
280
     0
102
RTVSPost2010PropOp31
 70
     1
102
RTVSPost2010Prop32
280
     0
102
RTVSPost2010PropOp32
 70
     1
102
RTVSPost2010Prop33
280
     0
102
RTVSPost2010PropOp33
 70
     1
102
RTVSPost2010Prop34
280
     0
102
RTVSPost2010PropOp34
 70
     1
102
RTVSPost2010Prop35
280
     0
102
RTVSPost2010PropOp35
 70
     1
102
RTVSPost2010Prop36
280
     0
102
RTVSPost2010PropOp36
 70
     1
102
RTVSPost2010Prop37
 90
       50
102
RTVSPost2010PropOp37
 70
     1
102
RTVSPost2010Prop38
140
0.0
102
RTVSPost2010PropOp38
 70
     1
102
RTVSPost2010Prop39
140
1.0
102
RTVSPost2010PropOp39
 70
     1
102
RTVSPost2010Prop40
 90
        0
102
RTVSPost2010PropOp40
 70
     1
102
RTVSPost2010Prop41ColorIndex
 90
       18
102
RTVSPost2010Prop41ColorRGB
 90
        0
102
RTVSPost2010PropOp41
 70
     1
102
RTVSPost2010Prop42
 90
       50
102
RTVSPost2010PropOp42
 70
     1
102
RTVSPost2010Prop43
 90
        3
102
RTVSPost2010PropOp43
 70
     1
102
RTVSPost2010Prop44ColorIndex
 90
        5
102
RTVSPost2010Prop44ColorRGB
 90
      255
102
RTVSPost2010PropOp44
 70
     1
102
RTVSPost2010Prop45
280
     0
102
RTVSPost2010PropOp45
 70
     1
102
RTVSPost2010Prop46
 90
       50
102
RTVSPost2010PropOp46
 70
     1
102
RTVSPost2010Prop47
 90
       50
102
RTVSPost2010PropOp47
 70
     1
102
RTVSPost2010Prop48
 90
       50
102
RTVSPost2010PropOp48
 70
     1
102
RTVSPost2010Prop49
280
     0
102
RTVSPost2010PropOp49
 70
     1
102
RTVSPost2010Prop50
 90
       50
102
RTVSPost2010PropOp50
 70
     1
102
RTVSPost2010Prop51ColorIndex
 90
      256
102
RTVSPost2010Prop51ColorRGB
 90
-16777216
102
RTVSPost2010PropOp51
 70
     0
102
RTVSPost2010Prop52
140
1.0
102
RTVSPost2010PropOp52
 70
     0
102
RTVSPost2010Prop53
 90
        2
102
RTVSPost2010PropOp53
 70
     1
102
RTVSPost2010Prop54
  1
strokes_ogs.tif
102
RTVSPost2010PropOp54
 70
     1
102
RTVSPost2010Prop55
280
     0
102
RTVSPost2010PropOp55
 70
     1
102
RTVSPost2010Prop56
140
1.0
102
RTVSPost2010PropOp56
 70
     1
102
RTVSPost2010Prop57
140
1.0
102
RTVSPost2010PropOp57
 70
     1
102
RTVSPropertyOp0
 70
     1
102
RTVSPropertyOp1
 70
     1
102
RTVSPropertyOp2
 70
     1
102
RTVSPropertyOp3
 70
     1
102
RTVSPropertyOp4
 70
     1
102
RTVSPropertyOp5
 70
     1
102
RTVSPropertyOp6
 70
     1
102
RTVSPropertyOp7
 70
     1
102
RTVSPropertyOp8
 70
     1
102
RTVSPropertyOp9
 70
     1
102
RTVSPropertyOp10
 70
     1
102
RTVSPropertyOp11
 70
     1
102
RTVSPropertyOp12
 70
     1
102
RTVSPropertyOp13
 70
     1
102
RTVSPropertyOp14
 70
     1
102
RTVSPropertyOp15
 70
     1
102
RTVSPropertyOp16
 70
     1
102
RTVSPropertyOp17
 70
     1
102
RTVSPropertyOp18
 70
     1
102
RTVSPropertyOp19
 70
     1
102
RTVSPropertyOp20
 70
     1
102
RTVSPropertyOp21
 70
     1
102
RTVSPropertyOp22
 70
     1
102
RTVSPropertyOp23
 70
     1
102
RTVSPropertyOp24
 70
     1
102
RTVSPropertyOp25
 70
     1
102
RTVSPropertyOp26
 70
     1
102
RTVSPropertyOp27
 70
     1
102
RTVSPropertyOp28
 70
     1
102
RTVSPropertyOp29
 70
     1
102
RTVSPropertyOp30
 70
     1
102
RTVSPropertyOp31
 70
     1
102
RTVSPropertyOp32
 70
     1
102
RTVSPropertyOp33
 70
     1
102
RTVSPropertyOp34
 70
     1
102
RTVSPropertyOp35
 70
     1
102
RTVSPropertyOp36
 70
     1
102
RTVSPropertyOp37
 70
     1
102
RTVSPropertyOp38
 70
     1
102
RTVSPropertyOp39
 70
     1
102
RTVSPropertyOp40
 70
     1
102
RTVSPropertyOp41
 70
     1
102
RTVSPropertyOp42
 70
     1
102
RTVSPropertyOp43
 70
     1
102
RTVSPropertyOp44
 70
     1
102
RTVSPropertyOp45
 70
     1
102
RTVSPropertyOp46
 70
     1
102
RTVSPropertyOp47
 70
     1
102
RTVSPropertyOp48
 70
     1
102
RTVSPropertyOp49
 70
     1
102
RTVSPropertyOp50
 70
     1
102
RTVSPropertyOp51
 70
     0
102
RTVSPropertyOp52
 70
     0
102
RTVSPropertyOp53
 70
     1
102
RTVSPropertyOp54
 70
     1
102
RTVSPropertyOp55
 70
     1
102
RTVSPropertyOp56
 70
     1
102
RTVSPropertyOp57
 70
     1
102
RTVSPropertyOp58
 70
     1
102
RTVSPropertyOp59
 70
     1
102
RTVSPropertyOp60
 70
     1
102
RTVSPropertyOp61
 70
     1
102
RTVSPropertyOp62
 70
     1
  0
XRECORD
  5
6A1D
102
{ACAD_REACTORS
330
6A1C
102
}
330
6A1C
100
AcDbXrecord
280
     1
102
RTVSPost2010Prop28
280
     0
102
RTVSPost2010PropOp28
 70
     1
102
RTVSPost2010Prop29
280
     1
102
RTVSPost2010PropOp29
 70
     1
102
RTVSPost2010Prop30
280
     1
102
RTVSPost2010PropOp30
 70
     1
102
RTVSPost2010Prop31
280
     0
102
RTVSPost2010PropOp31
 70
     1
102
RTVSPost2010Prop32
280
     0
102
RTVSPost2010PropOp32
 70
     1
102
RTVSPost2010Prop33
280
     0
102
RTVSPost2010PropOp33
 70
     1
102
RTVSPost2010Prop34
280
     0
102
RTVSPost2010PropOp34
 70
     1
102
RTVSPost2010Prop35
280
     0
102
RTVSPost2010PropOp35
 70
     1
102
RTVSPost2010Prop36
280
     0
102
RTVSPost2010PropOp36
 70
     1
102
RTVSPost2010Prop37
 90
       50
102
RTVSPost2010PropOp37
 70
     1
102
RTVSPost2010Prop38
140
0.0
102
RTVSPost2010PropOp38
 70
     1
102
RTVSPost2010Prop39
140
1.0
102
RTVSPost2010PropOp39
 70
     1
102
RTVSPost2010Prop40
 90
        0
102
RTVSPost2010PropOp40
 70
     1
102
RTVSPost2010Prop41ColorIndex
 90
       18
102
RTVSPost2010Prop41ColorRGB
 90
        0
102
RTVSPost2010PropOp41
 70
     1
102
RTVSPost2010Prop42
 90
       50
102
RTVSPost2010PropOp42
 70
     1
102
RTVSPost2010Prop43
 90
        3
102
RTVSPost2010PropOp43
 70
     1
102
RTVSPost2010Prop44ColorIndex
 90
        5
102
RTVSPost2010Prop44ColorRGB
 90
      255
102
RTVSPost2010PropOp44
 70
     1
102
RTVSPost2010Prop45
280
     0
102
RTVSPost2010PropOp45
 70
     1
102
RTVSPost2010Prop46
 90
       50
102
RTVSPost2010PropOp46
 70
     1
102
RTVSPost2010Prop47
 90
       50
102
RTVSPost2010PropOp47
 70
     1
102
RTVSPost2010Prop48
 90
       50
102
RTVSPost2010PropOp48
 70
     1
102
RTVSPost2010Prop49
280
     0
102
RTVSPost2010PropOp49
 70
     1
102
RTVSPost2010Prop50
 90
       50
102
RTVSPost2010PropOp50
 70
     1
102
RTVSPost2010Prop51ColorIndex
 90
      256
102
RTVSPost2010Prop51ColorRGB
 90
-16777216
102
RTVSPost2010PropOp51
 70
     0
102
RTVSPost2010Prop52
140
1.0
102
RTVSPost2010PropOp52
 70
     0
102
RTVSPost2010Prop53
 90
        2
102
RTVSPost2010PropOp53
 70
     1
102
RTVSPost2010Prop54
  1
strokes_ogs.tif
102
RTVSPost2010PropOp54
 70
     1
102
RTVSPost2010Prop55
280
     0
102
RTVSPost2010PropOp55
 70
     1
102
RTVSPost2010Prop56
140
1.0
102
RTVSPost2010PropOp56
 70
     1
102
RTVSPost2010Prop57
140
1.0
102
RTVSPost2010PropOp57
 70
     1
102
RTVSPropertyOp0
 70
     1
102
RTVSPropertyOp1
 70
     1
102
RTVSPropertyOp2
 70
     1
102
RTVSPropertyOp3
 70
     1
102
RTVSPropertyOp4
 70
     1
102
RTVSPropertyOp5
 70
     1
102
RTVSPropertyOp6
 70
     1
102
RTVSPropertyOp7
 70
     1
102
RTVSPropertyOp8
 70
     1
102
RTVSPropertyOp9
 70
     1
102
RTVSPropertyOp10
 70
     1
102
RTVSPropertyOp11
 70
     1
102
RTVSPropertyOp12
 70
     1
102
RTVSPropertyOp13
 70
     1
102
RTVSPropertyOp14
 70
     1
102
RTVSPropertyOp15
 70
     1
102
RTVSPropertyOp16
 70
     1
102
RTVSPropertyOp17
 70
     1
102
RTVSPropertyOp18
 70
     1
102
RTVSPropertyOp19
 70
     1
102
RTVSPropertyOp20
 70
     1
102
RTVSPropertyOp21
 70
     1
102
RTVSPropertyOp22
 70
     1
102
RTVSPropertyOp23
 70
     1
102
RTVSPropertyOp24
 70
     1
102
RTVSPropertyOp25
 70
     1
102
RTVSPropertyOp26
 70
     1
102
RTVSPropertyOp27
 70
     1
102
RTVSPropertyOp28
 70
     1
102
RTVSPropertyOp29
 70
     1
102
RTVSPropertyOp30
 70
     1
102
RTVSPropertyOp31
 70
     1
102
RTVSPropertyOp32
 70
     1
102
RTVSPropertyOp33
 70
     1
102
RTVSPropertyOp34
 70
     1
102
RTVSPropertyOp35
 70
     1
102
RTVSPropertyOp36
 70
     1
102
RTVSPropertyOp37
 70
     1
102
RTVSPropertyOp38
 70
     1
102
RTVSPropertyOp39
 70
     1
102
RTVSPropertyOp40
 70
     1
102
RTVSPropertyOp41
 70
     1
102
RTVSPropertyOp42
 70
     1
102
RTVSPropertyOp43
 70
     1
102
RTVSPropertyOp44
 70
     1
102
RTVSPropertyOp45
 70
     1
102
RTVSPropertyOp46
 70
     1
102
RTVSPropertyOp47
 70
     1
102
RTVSPropertyOp48
 70
     1
102
RTVSPropertyOp49
 70
     1
102
RTVSPropertyOp50
 70
     1
102
RTVSPropertyOp51
 70
     0
102
RTVSPropertyOp52
 70
     0
102
RTVSPropertyOp53
 70
     1
102
RTVSPropertyOp54
 70
     1
102
RTVSPropertyOp55
 70
     1
102
RTVSPropertyOp56
 70
     1
102
RTVSPropertyOp57
 70
     1
102
RTVSPropertyOp58
 70
     1
102
RTVSPropertyOp59
 70
     1
102
RTVSPropertyOp60
 70
     1
102
RTVSPropertyOp61
 70
     1
102
RTVSPropertyOp62
 70
     1
  0
XRECORD
  5
6A25
102
{ACAD_REACTORS
330
6A24
102
}
330
6A24
100
AcDbXrecord
280
     1
102
RTVSPost2010Prop28
280
     0
102
RTVSPost2010PropOp28
 70
     1
102
RTVSPost2010Prop29
280
     1
102
RTVSPost2010PropOp29
 70
     1
102
RTVSPost2010Prop30
280
     1
102
RTVSPost2010PropOp30
 70
     1
102
RTVSPost2010Prop31
280
     0
102
RTVSPost2010PropOp31
 70
     1
102
RTVSPost2010Prop32
280
     0
102
RTVSPost2010PropOp32
 70
     1
102
RTVSPost2010Prop33
280
     0
102
RTVSPost2010PropOp33
 70
     1
102
RTVSPost2010Prop34
280
     0
102
RTVSPost2010PropOp34
 70
     1
102
RTVSPost2010Prop35
280
     0
102
RTVSPost2010PropOp35
 70
     1
102
RTVSPost2010Prop36
280
     0
102
RTVSPost2010PropOp36
 70
     1
102
RTVSPost2010Prop37
 90
       50
102
RTVSPost2010PropOp37
 70
     1
102
RTVSPost2010Prop38
140
0.0
102
RTVSPost2010PropOp38
 70
     1
102
RTVSPost2010Prop39
140
1.0
102
RTVSPost2010PropOp39
 70
     1
102
RTVSPost2010Prop40
 90
        0
102
RTVSPost2010PropOp40
 70
     1
102
RTVSPost2010Prop41ColorIndex
 90
       18
102
RTVSPost2010Prop41ColorRGB
 90
        0
102
RTVSPost2010PropOp41
 70
     1
102
RTVSPost2010Prop42
 90
       50
102
RTVSPost2010PropOp42
 70
     1
102
RTVSPost2010Prop43
 90
        3
102
RTVSPost2010PropOp43
 70
     1
102
RTVSPost2010Prop44ColorIndex
 90
        5
102
RTVSPost2010Prop44ColorRGB
 90
      255
102
RTVSPost2010PropOp44
 70
     1
102
RTVSPost2010Prop45
280
     0
102
RTVSPost2010PropOp45
 70
     1
102
RTVSPost2010Prop46
 90
       50
102
RTVSPost2010PropOp46
 70
     1
102
RTVSPost2010Prop47
 90
       50
102
RTVSPost2010PropOp47
 70
     1
102
RTVSPost2010Prop48
 90
       50
102
RTVSPost2010PropOp48
 70
     1
102
RTVSPost2010Prop49
280
     0
102
RTVSPost2010PropOp49
 70
     1
102
RTVSPost2010Prop50
 90
       50
102
RTVSPost2010PropOp50
 70
     1
102
RTVSPost2010Prop51ColorIndex
 90
      256
102
RTVSPost2010Prop51ColorRGB
 90
-16777216
102
RTVSPost2010PropOp51
 70
     0
102
RTVSPost2010Prop52
140
1.0
102
RTVSPost2010PropOp52
 70
     0
102
RTVSPost2010Prop53
 90
        2
102
RTVSPost2010PropOp53
 70
     1
102
RTVSPost2010Prop54
  1
strokes_ogs.tif
102
RTVSPost2010PropOp54
 70
     1
102
RTVSPost2010Prop55
280
     0
102
RTVSPost2010PropOp55
 70
     1
102
RTVSPost2010Prop56
140
1.0
102
RTVSPost2010PropOp56
 70
     1
102
RTVSPost2010Prop57
140
1.0
102
RTVSPost2010PropOp57
 70
     1
102
RTVSPropertyOp0
 70
     1
102
RTVSPropertyOp1
 70
     1
102
RTVSPropertyOp2
 70
     1
102
RTVSPropertyOp3
 70
     1
102
RTVSPropertyOp4
 70
     1
102
RTVSPropertyOp5
 70
     1
102
RTVSPropertyOp6
 70
     1
102
RTVSPropertyOp7
 70
     1
102
RTVSPropertyOp8
 70
     1
102
RTVSPropertyOp9
 70
     1
102
RTVSPropertyOp10
 70
     1
102
RTVSPropertyOp11
 70
     1
102
RTVSPropertyOp12
 70
     1
102
RTVSPropertyOp13
 70
     1
102
RTVSPropertyOp14
 70
     1
102
RTVSPropertyOp15
 70
     1
102
RTVSPropertyOp16
 70
     1
102
RTVSPropertyOp17
 70
     1
102
RTVSPropertyOp18
 70
     1
102
RTVSPropertyOp19
 70
     1
102
RTVSPropertyOp20
 70
     1
102
RTVSPropertyOp21
 70
     1
102
RTVSPropertyOp22
 70
     1
102
RTVSPropertyOp23
 70
     1
102
RTVSPropertyOp24
 70
     1
102
RTVSPropertyOp25
 70
     1
102
RTVSPropertyOp26
 70
     1
102
RTVSPropertyOp27
 70
     1
102
RTVSPropertyOp28
 70
     1
102
RTVSPropertyOp29
 70
     1
102
RTVSPropertyOp30
 70
     1
102
RTVSPropertyOp31
 70
     1
102
RTVSPropertyOp32
 70
     1
102
RTVSPropertyOp33
 70
     1
102
RTVSPropertyOp34
 70
     1
102
RTVSPropertyOp35
 70
     1
102
RTVSPropertyOp36
 70
     1
102
RTVSPropertyOp37
 70
     1
102
RTVSPropertyOp38
 70
     1
102
RTVSPropertyOp39
 70
     1
102
RTVSPropertyOp40
 70
     1
102
RTVSPropertyOp41
 70
     1
102
RTVSPropertyOp42
 70
     1
102
RTVSPropertyOp43
 70
     1
102
RTVSPropertyOp44
 70
     1
102
RTVSPropertyOp45
 70
     1
102
RTVSPropertyOp46
 70
     1
102
RTVSPropertyOp47
 70
     1
102
RTVSPropertyOp48
 70
     1
102
RTVSPropertyOp49
 70
     1
102
RTVSPropertyOp50
 70
     1
102
RTVSPropertyOp51
 70
     0
102
RTVSPropertyOp52
 70
     0
102
RTVSPropertyOp53
 70
     1
102
RTVSPropertyOp54
 70
     1
102
RTVSPropertyOp55
 70
     1
102
RTVSPropertyOp56
 70
     1
102
RTVSPropertyOp57
 70
     1
102
RTVSPropertyOp58
 70
     1
102
RTVSPropertyOp59
 70
     1
102
RTVSPropertyOp60
 70
     1
102
RTVSPropertyOp61
 70
     1
102
RTVSPropertyOp62
 70
     1
  0
XRECORD
  5
6A39
102
{ACAD_REACTORS
330
6A38
102
}
330
6A38
100
AcDbXrecord
280
     1
102
RTVSPost2010Prop28
280
     0
102
RTVSPost2010PropOp28
 70
     1
102
RTVSPost2010Prop29
280
     1
102
RTVSPost2010PropOp29
 70
     1
102
RTVSPost2010Prop30
280
     1
102
RTVSPost2010PropOp30
 70
     1
102
RTVSPost2010Prop31
280
     0
102
RTVSPost2010PropOp31
 70
     1
102
RTVSPost2010Prop32
280
     0
102
RTVSPost2010PropOp32
 70
     1
102
RTVSPost2010Prop33
280
     0
102
RTVSPost2010PropOp33
 70
     1
102
RTVSPost2010Prop34
280
     0
102
RTVSPost2010PropOp34
 70
     1
102
RTVSPost2010Prop35
280
     0
102
RTVSPost2010PropOp35
 70
     1
102
RTVSPost2010Prop36
280
     0
102
RTVSPost2010PropOp36
 70
     1
102
RTVSPost2010Prop37
 90
       50
102
RTVSPost2010PropOp37
 70
     1
102
RTVSPost2010Prop38
140
0.0
102
RTVSPost2010PropOp38
 70
     1
102
RTVSPost2010Prop39
140
1.0
102
RTVSPost2010PropOp39
 70
     1
102
RTVSPost2010Prop40
 90
        0
102
RTVSPost2010PropOp40
 70
     1
102
RTVSPost2010Prop41ColorIndex
 90
       18
102
RTVSPost2010Prop41ColorRGB
 90
        0
102
RTVSPost2010PropOp41
 70
     1
102
RTVSPost2010Prop42
 90
       50
102
RTVSPost2010PropOp42
 70
     1
102
RTVSPost2010Prop43
 90
        3
102
RTVSPost2010PropOp43
 70
     1
102
RTVSPost2010Prop44ColorIndex
 90
        5
102
RTVSPost2010Prop44ColorRGB
 90
      255
102
RTVSPost2010PropOp44
 70
     1
102
RTVSPost2010Prop45
280
     0
102
RTVSPost2010PropOp45
 70
     1
102
RTVSPost2010Prop46
 90
       50
102
RTVSPost2010PropOp46
 70
     1
102
RTVSPost2010Prop47
 90
       50
102
RTVSPost2010PropOp47
 70
     1
102
RTVSPost2010Prop48
 90
       50
102
RTVSPost2010PropOp48
 70
     1
102
RTVSPost2010Prop49
280
     0
102
RTVSPost2010PropOp49
 70
     1
102
RTVSPost2010Prop50
 90
       50
102
RTVSPost2010PropOp50
 70
     1
102
RTVSPost2010Prop51ColorIndex
 90
      256
102
RTVSPost2010Prop51ColorRGB
 90
-16777216
102
RTVSPost2010PropOp51
 70
     0
102
RTVSPost2010Prop52
140
1.0
102
RTVSPost2010PropOp52
 70
     0
102
RTVSPost2010Prop53
 90
        2
102
RTVSPost2010PropOp53
 70
     1
102
RTVSPost2010Prop54
  1
strokes_ogs.tif
102
RTVSPost2010PropOp54
 70
     1
102
RTVSPost2010Prop55
280
     0
102
RTVSPost2010PropOp55
 70
     1
102
RTVSPost2010Prop56
140
1.0
102
RTVSPost2010PropOp56
 70
     1
102
RTVSPost2010Prop57
140
1.0
102
RTVSPost2010PropOp57
 70
     1
102
RTVSPropertyOp0
 70
     0
102
RTVSPropertyOp1
 70
     0
102
RTVSPropertyOp2
 70
     0
102
RTVSPropertyOp3
 70
     0
102
RTVSPropertyOp4
 70
     0
102
RTVSPropertyOp5
 70
     0
102
RTVSPropertyOp6
 70
     0
102
RTVSPropertyOp7
 70
     0
102
RTVSPropertyOp8
 70
     0
102
RTVSPropertyOp9
 70
     0
102
RTVSPropertyOp10
 70
     0
102
RTVSPropertyOp11
 70
     0
102
RTVSPropertyOp12
 70
     0
102
RTVSPropertyOp13
 70
     0
102
RTVSPropertyOp14
 70
     2
102
RTVSPropertyOp15
 70
     0
102
RTVSPropertyOp16
 70
     0
102
RTVSPropertyOp17
 70
     0
102
RTVSPropertyOp18
 70
     0
102
RTVSPropertyOp19
 70
     0
102
RTVSPropertyOp20
 70
     0
102
RTVSPropertyOp21
 70
     0
102
RTVSPropertyOp22
 70
     0
102
RTVSPropertyOp23
 70
     0
102
RTVSPropertyOp24
 70
     0
102
RTVSPropertyOp25
 70
     0
102
RTVSPropertyOp26
 70
     0
102
RTVSPropertyOp27
 70
     0
102
RTVSPropertyOp28
 70
     1
102
RTVSPropertyOp29
 70
     1
102
RTVSPropertyOp30
 70
     1
102
RTVSPropertyOp31
 70
     1
102
RTVSPropertyOp32
 70
     1
102
RTVSPropertyOp33
 70
     1
102
RTVSPropertyOp34
 70
     1
102
RTVSPropertyOp35
 70
     1
102
RTVSPropertyOp36
 70
     1
102
RTVSPropertyOp37
 70
     1
102
RTVSPropertyOp38
 70
     1
102
RTVSPropertyOp39
 70
     1
102
RTVSPropertyOp40
 70
     1
102
RTVSPropertyOp41
 70
     1
102
RTVSPropertyOp42
 70
     1
102
RTVSPropertyOp43
 70
     1
102
RTVSPropertyOp44
 70
     1
102
RTVSPropertyOp45
 70
     1
102
RTVSPropertyOp46
 70
     1
102
RTVSPropertyOp47
 70
     1
102
RTVSPropertyOp48
 70
     1
102
RTVSPropertyOp49
 70
     1
102
RTVSPropertyOp50
 70
     1
102
RTVSPropertyOp51
 70
     0
102
RTVSPropertyOp52
 70
     0
102
RTVSPropertyOp53
 70
     1
102
RTVSPropertyOp54
 70
     1
102
RTVSPropertyOp55
 70
     1
102
RTVSPropertyOp56
 70
     1
102
RTVSPropertyOp57
 70
     1
102
RTVSPropertyOp58
 70
     1
102
RTVSPropertyOp59
 70
     1
102
RTVSPropertyOp60
 70
     1
102
RTVSPropertyOp61
 70
     1
102
RTVSPropertyOp62
 70
     1
  0
XRECORD
  5
6A31
102
{ACAD_REACTORS
330
6A30
102
}
330
6A30
100
AcDbXrecord
280
     1
102
RTVSPost2010Prop28
280
     0
102
RTVSPost2010PropOp28
 70
     1
102
RTVSPost2010Prop29
280
     1
102
RTVSPost2010PropOp29
 70
     1
102
RTVSPost2010Prop30
280
     1
102
RTVSPost2010PropOp30
 70
     1
102
RTVSPost2010Prop31
280
     0
102
RTVSPost2010PropOp31
 70
     1
102
RTVSPost2010Prop32
280
     0
102
RTVSPost2010PropOp32
 70
     1
102
RTVSPost2010Prop33
280
     0
102
RTVSPost2010PropOp33
 70
     1
102
RTVSPost2010Prop34
280
     0
102
RTVSPost2010PropOp34
 70
     1
102
RTVSPost2010Prop35
280
     0
102
RTVSPost2010PropOp35
 70
     1
102
RTVSPost2010Prop36
280
     0
102
RTVSPost2010PropOp36
 70
     1
102
RTVSPost2010Prop37
 90
       50
102
RTVSPost2010PropOp37
 70
     1
102
RTVSPost2010Prop38
140
0.0
102
RTVSPost2010PropOp38
 70
     1
102
RTVSPost2010Prop39
140
1.0
102
RTVSPost2010PropOp39
 70
     1
102
RTVSPost2010Prop40
 90
        0
102
RTVSPost2010PropOp40
 70
     1
102
RTVSPost2010Prop41ColorIndex
 90
       18
102
RTVSPost2010Prop41ColorRGB
 90
        0
102
RTVSPost2010PropOp41
 70
     1
102
RTVSPost2010Prop42
 90
       50
102
RTVSPost2010PropOp42
 70
     1
102
RTVSPost2010Prop43
 90
        3
102
RTVSPost2010PropOp43
 70
     1
102
RTVSPost2010Prop44ColorIndex
 90
        5
102
RTVSPost2010Prop44ColorRGB
 90
      255
102
RTVSPost2010PropOp44
 70
     1
102
RTVSPost2010Prop45
280
     0
102
RTVSPost2010PropOp45
 70
     1
102
RTVSPost2010Prop46
 90
       50
102
RTVSPost2010PropOp46
 70
     1
102
RTVSPost2010Prop47
 90
       50
102
RTVSPost2010PropOp47
 70
     1
102
RTVSPost2010Prop48
 90
       50
102
RTVSPost2010PropOp48
 70
     1
102
RTVSPost2010Prop49
280
     0
102
RTVSPost2010PropOp49
 70
     1
102
RTVSPost2010Prop50
 90
       50
102
RTVSPost2010PropOp50
 70
     1
102
RTVSPost2010Prop51ColorIndex
 90
      256
102
RTVSPost2010Prop51ColorRGB
 90
-16777216
102
RTVSPost2010PropOp51
 70
     0
102
RTVSPost2010Prop52
140
1.0
102
RTVSPost2010PropOp52
 70
     0
102
RTVSPost2010Prop53
 90
        2
102
RTVSPost2010PropOp53
 70
     1
102
RTVSPost2010Prop54
  1
strokes_ogs.tif
102
RTVSPost2010PropOp54
 70
     1
102
RTVSPost2010Prop55
280
     0
102
RTVSPost2010PropOp55
 70
     1
102
RTVSPost2010Prop56
140
1.0
102
RTVSPost2010PropOp56
 70
     1
102
RTVSPost2010Prop57
140
1.0
102
RTVSPost2010PropOp57
 70
     1
102
RTVSPropertyOp0
 70
     1
102
RTVSPropertyOp1
 70
     1
102
RTVSPropertyOp2
 70
     1
102
RTVSPropertyOp3
 70
     1
102
RTVSPropertyOp4
 70
     1
102
RTVSPropertyOp5
 70
     1
102
RTVSPropertyOp6
 70
     1
102
RTVSPropertyOp7
 70
     1
102
RTVSPropertyOp8
 70
     1
102
RTVSPropertyOp9
 70
     1
102
RTVSPropertyOp10
 70
     1
102
RTVSPropertyOp11
 70
     1
102
RTVSPropertyOp12
 70
     1
102
RTVSPropertyOp13
 70
     1
102
RTVSPropertyOp14
 70
     1
102
RTVSPropertyOp15
 70
     1
102
RTVSPropertyOp16
 70
     1
102
RTVSPropertyOp17
 70
     1
102
RTVSPropertyOp18
 70
     1
102
RTVSPropertyOp19
 70
     1
102
RTVSPropertyOp20
 70
     1
102
RTVSPropertyOp21
 70
     1
102
RTVSPropertyOp22
 70
     1
102
RTVSPropertyOp23
 70
     1
102
RTVSPropertyOp24
 70
     1
102
RTVSPropertyOp25
 70
     1
102
RTVSPropertyOp26
 70
     1
102
RTVSPropertyOp27
 70
     1
102
RTVSPropertyOp28
 70
     1
102
RTVSPropertyOp29
 70
     1
102
RTVSPropertyOp30
 70
     1
102
RTVSPropertyOp31
 70
     1
102
RTVSPropertyOp32
 70
     1
102
RTVSPropertyOp33
 70
     1
102
RTVSPropertyOp34
 70
     1
102
RTVSPropertyOp35
 70
     1
102
RTVSPropertyOp36
 70
     1
102
RTVSPropertyOp37
 70
     1
102
RTVSPropertyOp38
 70
     1
102
RTVSPropertyOp39
 70
     1
102
RTVSPropertyOp40
 70
     1
102
RTVSPropertyOp41
 70
     1
102
RTVSPropertyOp42
 70
     1
102
RTVSPropertyOp43
 70
     1
102
RTVSPropertyOp44
 70
     1
102
RTVSPropertyOp45
 70
     1
102
RTVSPropertyOp46
 70
     1
102
RTVSPropertyOp47
 70
     1
102
RTVSPropertyOp48
 70
     1
102
RTVSPropertyOp49
 70
     1
102
RTVSPropertyOp50
 70
     1
102
RTVSPropertyOp51
 70
     0
102
RTVSPropertyOp52
 70
     0
102
RTVSPropertyOp53
 70
     1
102
RTVSPropertyOp54
 70
     1
102
RTVSPropertyOp55
 70
     1
102
RTVSPropertyOp56
 70
     1
102
RTVSPropertyOp57
 70
     1
102
RTVSPropertyOp58
 70
     1
102
RTVSPropertyOp59
 70
     1
102
RTVSPropertyOp60
 70
     1
102
RTVSPropertyOp61
 70
     1
102
RTVSPropertyOp62
 70
     1
  0
XRECORD
  5
6A3B
102
{ACAD_REACTORS
330
6A3A
102
}
330
6A3A
100
AcDbXrecord
280
     1
102
RTVSPost2010Prop28
280
     0
102
RTVSPost2010PropOp28
 70
     1
102
RTVSPost2010Prop29
280
     1
102
RTVSPost2010PropOp29
 70
     1
102
RTVSPost2010Prop30
280
     1
102
RTVSPost2010PropOp30
 70
     1
102
RTVSPost2010Prop31
280
     0
102
RTVSPost2010PropOp31
 70
     1
102
RTVSPost2010Prop32
280
     0
102
RTVSPost2010PropOp32
 70
     1
102
RTVSPost2010Prop33
280
     0
102
RTVSPost2010PropOp33
 70
     1
102
RTVSPost2010Prop34
280
     0
102
RTVSPost2010PropOp34
 70
     1
102
RTVSPost2010Prop35
280
     0
102
RTVSPost2010PropOp35
 70
     1
102
RTVSPost2010Prop36
280
     0
102
RTVSPost2010PropOp36
 70
     1
102
RTVSPost2010Prop37
 90
       50
102
RTVSPost2010PropOp37
 70
     1
102
RTVSPost2010Prop38
140
0.0
102
RTVSPost2010PropOp38
 70
     1
102
RTVSPost2010Prop39
140
1.0
102
RTVSPost2010PropOp39
 70
     1
102
RTVSPost2010Prop40
 90
        0
102
RTVSPost2010PropOp40
 70
     1
102
RTVSPost2010Prop41ColorIndex
 90
       18
102
RTVSPost2010Prop41ColorRGB
 90
        0
102
RTVSPost2010PropOp41
 70
     1
102
RTVSPost2010Prop42
 90
       50
102
RTVSPost2010PropOp42
 70
     1
102
RTVSPost2010Prop43
 90
        3
102
RTVSPost2010PropOp43
 70
     1
102
RTVSPost2010Prop44ColorIndex
 90
        5
102
RTVSPost2010Prop44ColorRGB
 90
      255
102
RTVSPost2010PropOp44
 70
     1
102
RTVSPost2010Prop45
280
     0
102
RTVSPost2010PropOp45
 70
     1
102
RTVSPost2010Prop46
 90
       50
102
RTVSPost2010PropOp46
 70
     1
102
RTVSPost2010Prop47
 90
       50
102
RTVSPost2010PropOp47
 70
     1
102
RTVSPost2010Prop48
 90
       50
102
RTVSPost2010PropOp48
 70
     1
102
RTVSPost2010Prop49
280
     0
102
RTVSPost2010PropOp49
 70
     1
102
RTVSPost2010Prop50
 90
       50
102
RTVSPost2010PropOp50
 70
     1
102
RTVSPost2010Prop51ColorIndex
 90
      256
102
RTVSPost2010Prop51ColorRGB
 90
-16777216
102
RTVSPost2010PropOp51
 70
     0
102
RTVSPost2010Prop52
140
1.0
102
RTVSPost2010PropOp52
 70
     0
102
RTVSPost2010Prop53
 90
        2
102
RTVSPost2010PropOp53
 70
     1
102
RTVSPost2010Prop54
  1
strokes_ogs.tif
102
RTVSPost2010PropOp54
 70
     1
102
RTVSPost2010Prop55
280
     0
102
RTVSPost2010PropOp55
 70
     1
102
RTVSPost2010Prop56
140
1.0
102
RTVSPost2010PropOp56
 70
     1
102
RTVSPost2010Prop57
140
1.0
102
RTVSPost2010PropOp57
 70
     1
102
RTVSPropertyOp0
 70
     0
102
RTVSPropertyOp1
 70
     0
102
RTVSPropertyOp2
 70
     0
102
RTVSPropertyOp3
 70
     0
102
RTVSPropertyOp4
 70
     0
102
RTVSPropertyOp5
 70
     0
102
RTVSPropertyOp6
 70
     0
102
RTVSPropertyOp7
 70
     0
102
RTVSPropertyOp8
 70
     0
102
RTVSPropertyOp9
 70
     0
102
RTVSPropertyOp10
 70
     0
102
RTVSPropertyOp11
 70
     0
102
RTVSPropertyOp12
 70
     0
102
RTVSPropertyOp13
 70
     0
102
RTVSPropertyOp14
 70
     2
102
RTVSPropertyOp15
 70
     0
102
RTVSPropertyOp16
 70
     0
102
RTVSPropertyOp17
 70
     0
102
RTVSPropertyOp18
 70
     0
102
RTVSPropertyOp19
 70
     0
102
RTVSPropertyOp20
 70
     0
102
RTVSPropertyOp21
 70
     0
102
RTVSPropertyOp22
 70
     0
102
RTVSPropertyOp23
 70
     0
102
RTVSPropertyOp24
 70
     0
102
RTVSPropertyOp25
 70
     0
102
RTVSPropertyOp26
 70
     0
102
RTVSPropertyOp27
 70
     0
102
RTVSPropertyOp28
 70
     1
102
RTVSPropertyOp29
 70
     1
102
RTVSPropertyOp30
 70
     1
102
RTVSPropertyOp31
 70
     1
102
RTVSPropertyOp32
 70
     1
102
RTVSPropertyOp33
 70
     1
102
RTVSPropertyOp34
 70
     1
102
RTVSPropertyOp35
 70
     1
102
RTVSPropertyOp36
 70
     1
102
RTVSPropertyOp37
 70
     1
102
RTVSPropertyOp38
 70
     1
102
RTVSPropertyOp39
 70
     1
102
RTVSPropertyOp40
 70
     1
102
RTVSPropertyOp41
 70
     1
102
RTVSPropertyOp42
 70
     1
102
RTVSPropertyOp43
 70
     1
102
RTVSPropertyOp44
 70
     1
102
RTVSPropertyOp45
 70
     1
102
RTVSPropertyOp46
 70
     1
102
RTVSPropertyOp47
 70
     1
102
RTVSPropertyOp48
 70
     1
102
RTVSPropertyOp49
 70
     1
102
RTVSPropertyOp50
 70
     1
102
RTVSPropertyOp51
 70
     0
102
RTVSPropertyOp52
 70
     0
102
RTVSPropertyOp53
 70
     1
102
RTVSPropertyOp54
 70
     1
102
RTVSPropertyOp55
 70
     1
102
RTVSPropertyOp56
 70
     1
102
RTVSPropertyOp57
 70
     1
102
RTVSPropertyOp58
 70
     1
102
RTVSPropertyOp59
 70
     1
102
RTVSPropertyOp60
 70
     1
102
RTVSPropertyOp61
 70
     1
102
RTVSPropertyOp62
 70
     1
  0
XRECORD
  5
6A29
102
{ACAD_REACTORS
330
6A28
102
}
330
6A28
100
AcDbXrecord
280
     1
102
RTVSPost2010Prop28
280
     0
102
RTVSPost2010PropOp28
 70
     1
102
RTVSPost2010Prop29
280
     1
102
RTVSPost2010PropOp29
 70
     1
102
RTVSPost2010Prop30
280
     1
102
RTVSPost2010PropOp30
 70
     1
102
RTVSPost2010Prop31
280
     0
102
RTVSPost2010PropOp31
 70
     1
102
RTVSPost2010Prop32
280
     0
102
RTVSPost2010PropOp32
 70
     1
102
RTVSPost2010Prop33
280
     0
102
RTVSPost2010PropOp33
 70
     1
102
RTVSPost2010Prop34
280
     0
102
RTVSPost2010PropOp34
 70
     1
102
RTVSPost2010Prop35
280
     0
102
RTVSPost2010PropOp35
 70
     1
102
RTVSPost2010Prop36
280
     0
102
RTVSPost2010PropOp36
 70
     1
102
RTVSPost2010Prop37
 90
       50
102
RTVSPost2010PropOp37
 70
     1
102
RTVSPost2010Prop38
140
0.0
102
RTVSPost2010PropOp38
 70
     1
102
RTVSPost2010Prop39
140
1.0
102
RTVSPost2010PropOp39
 70
     1
102
RTVSPost2010Prop40
 90
        0
102
RTVSPost2010PropOp40
 70
     1
102
RTVSPost2010Prop41ColorIndex
 90
       18
102
RTVSPost2010Prop41ColorRGB
 90
        0
102
RTVSPost2010PropOp41
 70
     1
102
RTVSPost2010Prop42
 90
       50
102
RTVSPost2010PropOp42
 70
     1
102
RTVSPost2010Prop43
 90
        3
102
RTVSPost2010PropOp43
 70
     1
102
RTVSPost2010Prop44ColorIndex
 90
        5
102
RTVSPost2010Prop44ColorRGB
 90
      255
102
RTVSPost2010PropOp44
 70
     1
102
RTVSPost2010Prop45
280
     0
102
RTVSPost2010PropOp45
 70
     1
102
RTVSPost2010Prop46
 90
       50
102
RTVSPost2010PropOp46
 70
     1
102
RTVSPost2010Prop47
 90
       50
102
RTVSPost2010PropOp47
 70
     1
102
RTVSPost2010Prop48
 90
       50
102
RTVSPost2010PropOp48
 70
     1
102
RTVSPost2010Prop49
280
     0
102
RTVSPost2010PropOp49
 70
     1
102
RTVSPost2010Prop50
 90
       50
102
RTVSPost2010PropOp50
 70
     1
102
RTVSPost2010Prop51ColorIndex
 90
      256
102
RTVSPost2010Prop51ColorRGB
 90
-16777216
102
RTVSPost2010PropOp51
 70
     0
102
RTVSPost2010Prop52
140
1.0
102
RTVSPost2010PropOp52
 70
     0
102
RTVSPost2010Prop53
 90
        2
102
RTVSPost2010PropOp53
 70
     1
102
RTVSPost2010Prop54
  1
strokes_ogs.tif
102
RTVSPost2010PropOp54
 70
     1
102
RTVSPost2010Prop55
280
     0
102
RTVSPost2010PropOp55
 70
     1
102
RTVSPost2010Prop56
140
1.0
102
RTVSPost2010PropOp56
 70
     1
102
RTVSPost2010Prop57
140
1.0
102
RTVSPost2010PropOp57
 70
     1
102
RTVSPropertyOp0
 70
     1
102
RTVSPropertyOp1
 70
     1
102
RTVSPropertyOp2
 70
     1
102
RTVSPropertyOp3
 70
     1
102
RTVSPropertyOp4
 70
     1
102
RTVSPropertyOp5
 70
     1
102
RTVSPropertyOp6
 70
     1
102
RTVSPropertyOp7
 70
     1
102
RTVSPropertyOp8
 70
     1
102
RTVSPropertyOp9
 70
     1
102
RTVSPropertyOp10
 70
     1
102
RTVSPropertyOp11
 70
     1
102
RTVSPropertyOp12
 70
     1
102
RTVSPropertyOp13
 70
     1
102
RTVSPropertyOp14
 70
     1
102
RTVSPropertyOp15
 70
     1
102
RTVSPropertyOp16
 70
     1
102
RTVSPropertyOp17
 70
     1
102
RTVSPropertyOp18
 70
     1
102
RTVSPropertyOp19
 70
     1
102
RTVSPropertyOp20
 70
     1
102
RTVSPropertyOp21
 70
     1
102
RTVSPropertyOp22
 70
     1
102
RTVSPropertyOp23
 70
     1
102
RTVSPropertyOp24
 70
     1
102
RTVSPropertyOp25
 70
     1
102
RTVSPropertyOp26
 70
     1
102
RTVSPropertyOp27
 70
     1
102
RTVSPropertyOp28
 70
     1
102
RTVSPropertyOp29
 70
     1
102
RTVSPropertyOp30
 70
     1
102
RTVSPropertyOp31
 70
     1
102
RTVSPropertyOp32
 70
     1
102
RTVSPropertyOp33
 70
     1
102
RTVSPropertyOp34
 70
     1
102
RTVSPropertyOp35
 70
     1
102
RTVSPropertyOp36
 70
     1
102
RTVSPropertyOp37
 70
     1
102
RTVSPropertyOp38
 70
     1
102
RTVSPropertyOp39
 70
     1
102
RTVSPropertyOp40
 70
     1
102
RTVSPropertyOp41
 70
     1
102
RTVSPropertyOp42
 70
     1
102
RTVSPropertyOp43
 70
     1
102
RTVSPropertyOp44
 70
     1
102
RTVSPropertyOp45
 70
     1
102
RTVSPropertyOp46
 70
     1
102
RTVSPropertyOp47
 70
     1
102
RTVSPropertyOp48
 70
     1
102
RTVSPropertyOp49
 70
     1
102
RTVSPropertyOp50
 70
     1
102
RTVSPropertyOp51
 70
     0
102
RTVSPropertyOp52
 70
     0
102
RTVSPropertyOp53
 70
     1
102
RTVSPropertyOp54
 70
     1
102
RTVSPropertyOp55
 70
     1
102
RTVSPropertyOp56
 70
     1
102
RTVSPropertyOp57
 70
     1
102
RTVSPropertyOp58
 70
     1
102
RTVSPropertyOp59
 70
     1
102
RTVSPropertyOp60
 70
     1
102
RTVSPropertyOp61
 70
     1
102
RTVSPropertyOp62
 70
     1
  0
XRECORD
  5
6A47
102
{ACAD_REACTORS
330
6A46
102
}
330
6A46
100
AcDbXrecord
280
     1
102
RTVSPost2010Prop28
280
     0
102
RTVSPost2010PropOp28
 70
     1
102
RTVSPost2010Prop29
280
     1
102
RTVSPost2010PropOp29
 70
     1
102
RTVSPost2010Prop30
280
     1
102
RTVSPost2010PropOp30
 70
     1
102
RTVSPost2010Prop31
280
     0
102
RTVSPost2010PropOp31
 70
     1
102
RTVSPost2010Prop32
280
     0
102
RTVSPost2010PropOp32
 70
     1
102
RTVSPost2010Prop33
280
     0
102
RTVSPost2010PropOp33
 70
     1
102
RTVSPost2010Prop34
280
     0
102
RTVSPost2010PropOp34
 70
     1
102
RTVSPost2010Prop35
280
     0
102
RTVSPost2010PropOp35
 70
     1
102
RTVSPost2010Prop36
280
     0
102
RTVSPost2010PropOp36
 70
     1
102
RTVSPost2010Prop37
 90
       50
102
RTVSPost2010PropOp37
 70
     1
102
RTVSPost2010Prop38
140
0.0
102
RTVSPost2010PropOp38
 70
     1
102
RTVSPost2010Prop39
140
1.0
102
RTVSPost2010PropOp39
 70
     1
102
RTVSPost2010Prop40
 90
        0
102
RTVSPost2010PropOp40
 70
     1
102
RTVSPost2010Prop41ColorIndex
 90
       18
102
RTVSPost2010Prop41ColorRGB
 90
        0
102
RTVSPost2010PropOp41
 70
     1
102
RTVSPost2010Prop42
 90
       50
102
RTVSPost2010PropOp42
 70
     1
102
RTVSPost2010Prop43
 90
        3
102
RTVSPost2010PropOp43
 70
     1
102
RTVSPost2010Prop44ColorIndex
 90
        5
102
RTVSPost2010Prop44ColorRGB
 90
      255
102
RTVSPost2010PropOp44
 70
     1
102
RTVSPost2010Prop45
280
     0
102
RTVSPost2010PropOp45
 70
     1
102
RTVSPost2010Prop46
 90
       50
102
RTVSPost2010PropOp46
 70
     1
102
RTVSPost2010Prop47
 90
       50
102
RTVSPost2010PropOp47
 70
     1
102
RTVSPost2010Prop48
 90
       50
102
RTVSPost2010PropOp48
 70
     1
102
RTVSPost2010Prop49
280
     0
102
RTVSPost2010PropOp49
 70
     1
102
RTVSPost2010Prop50
 90
       50
102
RTVSPost2010PropOp50
 70
     1
102
RTVSPost2010Prop51ColorIndex
 90
      256
102
RTVSPost2010Prop51ColorRGB
 90
-16777216
102
RTVSPost2010PropOp51
 70
     0
102
RTVSPost2010Prop52
140
1.0
102
RTVSPost2010PropOp52
 70
     0
102
RTVSPost2010Prop53
 90
        2
102
RTVSPost2010PropOp53
 70
     1
102
RTVSPost2010Prop54
  1
strokes_ogs.tif
102
RTVSPost2010PropOp54
 70
     1
102
RTVSPost2010Prop55
280
     0
102
RTVSPost2010PropOp55
 70
     1
102
RTVSPost2010Prop56
140
1.0
102
RTVSPost2010PropOp56
 70
     1
102
RTVSPost2010Prop57
140
1.0
102
RTVSPost2010PropOp57
 70
     1
102
RTVSPropertyOp0
 70
     1
102
RTVSPropertyOp1
 70
     1
102
RTVSPropertyOp2
 70
     1
102
RTVSPropertyOp3
 70
     1
102
RTVSPropertyOp4
 70
     1
102
RTVSPropertyOp5
 70
     1
102
RTVSPropertyOp6
 70
     1
102
RTVSPropertyOp7
 70
     1
102
RTVSPropertyOp8
 70
     1
102
RTVSPropertyOp9
 70
     1
102
RTVSPropertyOp10
 70
     1
102
RTVSPropertyOp11
 70
     1
102
RTVSPropertyOp12
 70
     1
102
RTVSPropertyOp13
 70
     1
102
RTVSPropertyOp14
 70
     1
102
RTVSPropertyOp15
 70
     1
102
RTVSPropertyOp16
 70
     1
102
RTVSPropertyOp17
 70
     1
102
RTVSPropertyOp18
 70
     1
102
RTVSPropertyOp19
 70
     1
102
RTVSPropertyOp20
 70
     1
102
RTVSPropertyOp21
 70
     1
102
RTVSPropertyOp22
 70
     1
102
RTVSPropertyOp23
 70
     1
102
RTVSPropertyOp24
 70
     1
102
RTVSPropertyOp25
 70
     1
102
RTVSPropertyOp26
 70
     1
102
RTVSPropertyOp27
 70
     1
102
RTVSPropertyOp28
 70
     1
102
RTVSPropertyOp29
 70
     1
102
RTVSPropertyOp30
 70
     1
102
RTVSPropertyOp31
 70
     1
102
RTVSPropertyOp32
 70
     1
102
RTVSPropertyOp33
 70
     1
102
RTVSPropertyOp34
 70
     1
102
RTVSPropertyOp35
 70
     1
102
RTVSPropertyOp36
 70
     1
102
RTVSPropertyOp37
 70
     1
102
RTVSPropertyOp38
 70
     1
102
RTVSPropertyOp39
 70
     1
102
RTVSPropertyOp40
 70
     1
102
RTVSPropertyOp41
 70
     1
102
RTVSPropertyOp42
 70
     1
102
RTVSPropertyOp43
 70
     1
102
RTVSPropertyOp44
 70
     1
102
RTVSPropertyOp45
 70
     1
102
RTVSPropertyOp46
 70
     1
102
RTVSPropertyOp47
 70
     1
102
RTVSPropertyOp48
 70
     1
102
RTVSPropertyOp49
 70
     1
102
RTVSPropertyOp50
 70
     1
102
RTVSPropertyOp51
 70
     0
102
RTVSPropertyOp52
 70
     0
102
RTVSPropertyOp53
 70
     1
102
RTVSPropertyOp54
 70
     1
102
RTVSPropertyOp55
 70
     1
102
RTVSPropertyOp56
 70
     1
102
RTVSPropertyOp57
 70
     1
102
RTVSPropertyOp58
 70
     1
102
RTVSPropertyOp59
 70
     1
102
RTVSPropertyOp60
 70
     1
102
RTVSPropertyOp61
 70
     1
102
RTVSPropertyOp62
 70
     1
  0
XRECORD
  5
6A45
102
{ACAD_REACTORS
330
6A44
102
}
330
6A44
100
AcDbXrecord
280
     1
102
RTVSPost2010Prop28
280
     0
102
RTVSPost2010PropOp28
 70
     1
102
RTVSPost2010Prop29
280
     1
102
RTVSPost2010PropOp29
 70
     1
102
RTVSPost2010Prop30
280
     1
102
RTVSPost2010PropOp30
 70
     1
102
RTVSPost2010Prop31
280
     0
102
RTVSPost2010PropOp31
 70
     1
102
RTVSPost2010Prop32
280
     0
102
RTVSPost2010PropOp32
 70
     1
102
RTVSPost2010Prop33
280
     0
102
RTVSPost2010PropOp33
 70
     1
102
RTVSPost2010Prop34
280
     0
102
RTVSPost2010PropOp34
 70
     1
102
RTVSPost2010Prop35
280
     0
102
RTVSPost2010PropOp35
 70
     1
102
RTVSPost2010Prop36
280
     0
102
RTVSPost2010PropOp36
 70
     1
102
RTVSPost2010Prop37
 90
       50
102
RTVSPost2010PropOp37
 70
     1
102
RTVSPost2010Prop38
140
0.0
102
RTVSPost2010PropOp38
 70
     1
102
RTVSPost2010Prop39
140
1.0
102
RTVSPost2010PropOp39
 70
     1
102
RTVSPost2010Prop40
 90
        0
102
RTVSPost2010PropOp40
 70
     1
102
RTVSPost2010Prop41ColorIndex
 90
       18
102
RTVSPost2010Prop41ColorRGB
 90
        0
102
RTVSPost2010PropOp41
 70
     1
102
RTVSPost2010Prop42
 90
       50
102
RTVSPost2010PropOp42
 70
     1
102
RTVSPost2010Prop43
 90
        3
102
RTVSPost2010PropOp43
 70
     1
102
RTVSPost2010Prop44ColorIndex
 90
        5
102
RTVSPost2010Prop44ColorRGB
 90
      255
102
RTVSPost2010PropOp44
 70
     1
102
RTVSPost2010Prop45
280
     0
102
RTVSPost2010PropOp45
 70
     1
102
RTVSPost2010Prop46
 90
       50
102
RTVSPost2010PropOp46
 70
     1
102
RTVSPost2010Prop47
 90
       50
102
RTVSPost2010PropOp47
 70
     1
102
RTVSPost2010Prop48
 90
       50
102
RTVSPost2010PropOp48
 70
     1
102
RTVSPost2010Prop49
280
     0
102
RTVSPost2010PropOp49
 70
     1
102
RTVSPost2010Prop50
 90
       50
102
RTVSPost2010PropOp50
 70
     1
102
RTVSPost2010Prop51ColorIndex
 90
      256
102
RTVSPost2010Prop51ColorRGB
 90
-16777216
102
RTVSPost2010PropOp51
 70
     0
102
RTVSPost2010Prop52
140
1.0
102
RTVSPost2010PropOp52
 70
     0
102
RTVSPost2010Prop53
 90
        2
102
RTVSPost2010PropOp53
 70
     1
102
RTVSPost2010Prop54
  1
strokes_ogs.tif
102
RTVSPost2010PropOp54
 70
     1
102
RTVSPost2010Prop55
280
     0
102
RTVSPost2010PropOp55
 70
     1
102
RTVSPost2010Prop56
140
1.0
102
RTVSPost2010PropOp56
 70
     1
102
RTVSPost2010Prop57
140
1.0
102
RTVSPost2010PropOp57
 70
     1
102
RTVSPropertyOp0
 70
     1
102
RTVSPropertyOp1
 70
     1
102
RTVSPropertyOp2
 70
     1
102
RTVSPropertyOp3
 70
     1
102
RTVSPropertyOp4
 70
     1
102
RTVSPropertyOp5
 70
     1
102
RTVSPropertyOp6
 70
     1
102
RTVSPropertyOp7
 70
     1
102
RTVSPropertyOp8
 70
     1
102
RTVSPropertyOp9
 70
     1
102
RTVSPropertyOp10
 70
     1
102
RTVSPropertyOp11
 70
     1
102
RTVSPropertyOp12
 70
     1
102
RTVSPropertyOp13
 70
     1
102
RTVSPropertyOp14
 70
     1
102
RTVSPropertyOp15
 70
     1
102
RTVSPropertyOp16
 70
     1
102
RTVSPropertyOp17
 70
     1
102
RTVSPropertyOp18
 70
     1
102
RTVSPropertyOp19
 70
     1
102
RTVSPropertyOp20
 70
     1
102
RTVSPropertyOp21
 70
     1
102
RTVSPropertyOp22
 70
     1
102
RTVSPropertyOp23
 70
     1
102
RTVSPropertyOp24
 70
     1
102
RTVSPropertyOp25
 70
     1
102
RTVSPropertyOp26
 70
     1
102
RTVSPropertyOp27
 70
     1
102
RTVSPropertyOp28
 70
     1
102
RTVSPropertyOp29
 70
     1
102
RTVSPropertyOp30
 70
     1
102
RTVSPropertyOp31
 70
     1
102
RTVSPropertyOp32
 70
     1
102
RTVSPropertyOp33
 70
     1
102
RTVSPropertyOp34
 70
     1
102
RTVSPropertyOp35
 70
     1
102
RTVSPropertyOp36
 70
     1
102
RTVSPropertyOp37
 70
     1
102
RTVSPropertyOp38
 70
     1
102
RTVSPropertyOp39
 70
     1
102
RTVSPropertyOp40
 70
     1
102
RTVSPropertyOp41
 70
     1
102
RTVSPropertyOp42
 70
     1
102
RTVSPropertyOp43
 70
     1
102
RTVSPropertyOp44
 70
     1
102
RTVSPropertyOp45
 70
     1
102
RTVSPropertyOp46
 70
     1
102
RTVSPropertyOp47
 70
     1
102
RTVSPropertyOp48
 70
     1
102
RTVSPropertyOp49
 70
     1
102
RTVSPropertyOp50
 70
     1
102
RTVSPropertyOp51
 70
     0
102
RTVSPropertyOp52
 70
     0
102
RTVSPropertyOp53
 70
     1
102
RTVSPropertyOp54
 70
     1
102
RTVSPropertyOp55
 70
     1
102
RTVSPropertyOp56
 70
     1
102
RTVSPropertyOp57
 70
     1
102
RTVSPropertyOp58
 70
     1
102
RTVSPropertyOp59
 70
     1
102
RTVSPropertyOp60
 70
     1
102
RTVSPropertyOp61
 70
     1
102
RTVSPropertyOp62
 70
     1
  0
XRECORD
  5
6A3F
102
{ACAD_REACTORS
330
6A3E
102
}
330
6A3E
100
AcDbXrecord
280
     1
102
RTVSPost2010Prop28
280
     0
102
RTVSPost2010PropOp28
 70
     1
102
RTVSPost2010Prop29
280
     1
102
RTVSPost2010PropOp29
 70
     1
102
RTVSPost2010Prop30
280
     1
102
RTVSPost2010PropOp30
 70
     1
102
RTVSPost2010Prop31
280
     0
102
RTVSPost2010PropOp31
 70
     1
102
RTVSPost2010Prop32
280
     0
102
RTVSPost2010PropOp32
 70
     1
102
RTVSPost2010Prop33
280
     0
102
RTVSPost2010PropOp33
 70
     1
102
RTVSPost2010Prop34
280
     0
102
RTVSPost2010PropOp34
 70
     1
102
RTVSPost2010Prop35
280
     0
102
RTVSPost2010PropOp35
 70
     1
102
RTVSPost2010Prop36
280
     0
102
RTVSPost2010PropOp36
 70
     1
102
RTVSPost2010Prop37
 90
       50
102
RTVSPost2010PropOp37
 70
     1
102
RTVSPost2010Prop38
140
0.0
102
RTVSPost2010PropOp38
 70
     1
102
RTVSPost2010Prop39
140
1.0
102
RTVSPost2010PropOp39
 70
     1
102
RTVSPost2010Prop40
 90
        0
102
RTVSPost2010PropOp40
 70
     1
102
RTVSPost2010Prop41ColorIndex
 90
       18
102
RTVSPost2010Prop41ColorRGB
 90
        0
102
RTVSPost2010PropOp41
 70
     1
102
RTVSPost2010Prop42
 90
       50
102
RTVSPost2010PropOp42
 70
     1
102
RTVSPost2010Prop43
 90
        3
102
RTVSPost2010PropOp43
 70
     1
102
RTVSPost2010Prop44ColorIndex
 90
        5
102
RTVSPost2010Prop44ColorRGB
 90
      255
102
RTVSPost2010PropOp44
 70
     1
102
RTVSPost2010Prop45
280
     0
102
RTVSPost2010PropOp45
 70
     1
102
RTVSPost2010Prop46
 90
       50
102
RTVSPost2010PropOp46
 70
     1
102
RTVSPost2010Prop47
 90
       50
102
RTVSPost2010PropOp47
 70
     1
102
RTVSPost2010Prop48
 90
       50
102
RTVSPost2010PropOp48
 70
     1
102
RTVSPost2010Prop49
280
     0
102
RTVSPost2010PropOp49
 70
     1
102
RTVSPost2010Prop50
 90
       50
102
RTVSPost2010PropOp50
 70
     1
102
RTVSPost2010Prop51ColorIndex
 90
      256
102
RTVSPost2010Prop51ColorRGB
 90
-16777216
102
RTVSPost2010PropOp51
 70
     0
102
RTVSPost2010Prop52
140
1.0
102
RTVSPost2010PropOp52
 70
     0
102
RTVSPost2010Prop53
 90
        2
102
RTVSPost2010PropOp53
 70
     1
102
RTVSPost2010Prop54
  1
strokes_ogs.tif
102
RTVSPost2010PropOp54
 70
     1
102
RTVSPost2010Prop55
280
     0
102
RTVSPost2010PropOp55
 70
     1
102
RTVSPost2010Prop56
140
1.0
102
RTVSPost2010PropOp56
 70
     1
102
RTVSPost2010Prop57
140
1.0
102
RTVSPost2010PropOp57
 70
     1
102
RTVSPropertyOp0
 70
     1
102
RTVSPropertyOp1
 70
     1
102
RTVSPropertyOp2
 70
     1
102
RTVSPropertyOp3
 70
     1
102
RTVSPropertyOp4
 70
     1
102
RTVSPropertyOp5
 70
     1
102
RTVSPropertyOp6
 70
     1
102
RTVSPropertyOp7
 70
     1
102
RTVSPropertyOp8
 70
     1
102
RTVSPropertyOp9
 70
     1
102
RTVSPropertyOp10
 70
     1
102
RTVSPropertyOp11
 70
     1
102
RTVSPropertyOp12
 70
     1
102
RTVSPropertyOp13
 70
     1
102
RTVSPropertyOp14
 70
     1
102
RTVSPropertyOp15
 70
     1
102
RTVSPropertyOp16
 70
     1
102
RTVSPropertyOp17
 70
     1
102
RTVSPropertyOp18
 70
     1
102
RTVSPropertyOp19
 70
     1
102
RTVSPropertyOp20
 70
     1
102
RTVSPropertyOp21
 70
     1
102
RTVSPropertyOp22
 70
     1
102
RTVSPropertyOp23
 70
     1
102
RTVSPropertyOp24
 70
     1
102
RTVSPropertyOp25
 70
     1
102
RTVSPropertyOp26
 70
     1
102
RTVSPropertyOp27
 70
     1
102
RTVSPropertyOp28
 70
     1
102
RTVSPropertyOp29
 70
     1
102
RTVSPropertyOp30
 70
     1
102
RTVSPropertyOp31
 70
     1
102
RTVSPropertyOp32
 70
     1
102
RTVSPropertyOp33
 70
     1
102
RTVSPropertyOp34
 70
     1
102
RTVSPropertyOp35
 70
     1
102
RTVSPropertyOp36
 70
     1
102
RTVSPropertyOp37
 70
     1
102
RTVSPropertyOp38
 70
     1
102
RTVSPropertyOp39
 70
     1
102
RTVSPropertyOp40
 70
     1
102
RTVSPropertyOp41
 70
     1
102
RTVSPropertyOp42
 70
     1
102
RTVSPropertyOp43
 70
     1
102
RTVSPropertyOp44
 70
     1
102
RTVSPropertyOp45
 70
     1
102
RTVSPropertyOp46
 70
     1
102
RTVSPropertyOp47
 70
     1
102
RTVSPropertyOp48
 70
     1
102
RTVSPropertyOp49
 70
     1
102
RTVSPropertyOp50
 70
     1
102
RTVSPropertyOp51
 70
     0
102
RTVSPropertyOp52
 70
     0
102
RTVSPropertyOp53
 70
     1
102
RTVSPropertyOp54
 70
     1
102
RTVSPropertyOp55
 70
     1
102
RTVSPropertyOp56
 70
     1
102
RTVSPropertyOp57
 70
     1
102
RTVSPropertyOp58
 70
     1
102
RTVSPropertyOp59
 70
     1
102
RTVSPropertyOp60
 70
     1
102
RTVSPropertyOp61
 70
     1
102
RTVSPropertyOp62
 70
     1
  0
XRECORD
  5
6A41
102
{ACAD_REACTORS
330
6A40
102
}
330
6A40
100
AcDbXrecord
280
     1
102
RTVSPost2010Prop28
280
     0
102
RTVSPost2010PropOp28
 70
     1
102
RTVSPost2010Prop29
280
     1
102
RTVSPost2010PropOp29
 70
     1
102
RTVSPost2010Prop30
280
     1
102
RTVSPost2010PropOp30
 70
     1
102
RTVSPost2010Prop31
280
     0
102
RTVSPost2010PropOp31
 70
     1
102
RTVSPost2010Prop32
280
     0
102
RTVSPost2010PropOp32
 70
     1
102
RTVSPost2010Prop33
280
     0
102
RTVSPost2010PropOp33
 70
     1
102
RTVSPost2010Prop34
280
     0
102
RTVSPost2010PropOp34
 70
     1
102
RTVSPost2010Prop35
280
     0
102
RTVSPost2010PropOp35
 70
     1
102
RTVSPost2010Prop36
280
     0
102
RTVSPost2010PropOp36
 70
     1
102
RTVSPost2010Prop37
 90
       50
102
RTVSPost2010PropOp37
 70
     1
102
RTVSPost2010Prop38
140
0.0
102
RTVSPost2010PropOp38
 70
     1
102
RTVSPost2010Prop39
140
1.0
102
RTVSPost2010PropOp39
 70
     1
102
RTVSPost2010Prop40
 90
        0
102
RTVSPost2010PropOp40
 70
     1
102
RTVSPost2010Prop41ColorIndex
 90
       18
102
RTVSPost2010Prop41ColorRGB
 90
        0
102
RTVSPost2010PropOp41
 70
     1
102
RTVSPost2010Prop42
 90
       50
102
RTVSPost2010PropOp42
 70
     1
102
RTVSPost2010Prop43
 90
        3
102
RTVSPost2010PropOp43
 70
     1
102
RTVSPost2010Prop44ColorIndex
 90
        5
102
RTVSPost2010Prop44ColorRGB
 90
      255
102
RTVSPost2010PropOp44
 70
     1
102
RTVSPost2010Prop45
280
     0
102
RTVSPost2010PropOp45
 70
     1
102
RTVSPost2010Prop46
 90
       50
102
RTVSPost2010PropOp46
 70
     1
102
RTVSPost2010Prop47
 90
       50
102
RTVSPost2010PropOp47
 70
     1
102
RTVSPost2010Prop48
 90
       50
102
RTVSPost2010PropOp48
 70
     1
102
RTVSPost2010Prop49
280
     0
102
RTVSPost2010PropOp49
 70
     1
102
RTVSPost2010Prop50
 90
       50
102
RTVSPost2010PropOp50
 70
     1
102
RTVSPost2010Prop51ColorIndex
 90
      256
102
RTVSPost2010Prop51ColorRGB
 90
-16777216
102
RTVSPost2010PropOp51
 70
     0
102
RTVSPost2010Prop52
140
1.0
102
RTVSPost2010PropOp52
 70
     0
102
RTVSPost2010Prop53
 90
        2
102
RTVSPost2010PropOp53
 70
     1
102
RTVSPost2010Prop54
  1
strokes_ogs.tif
102
RTVSPost2010PropOp54
 70
     1
102
RTVSPost2010Prop55
280
     0
102
RTVSPost2010PropOp55
 70
     1
102
RTVSPost2010Prop56
140
1.0
102
RTVSPost2010PropOp56
 70
     1
102
RTVSPost2010Prop57
140
1.0
102
RTVSPost2010PropOp57
 70
     1
102
RTVSPropertyOp0
 70
     1
102
RTVSPropertyOp1
 70
     1
102
RTVSPropertyOp2
 70
     1
102
RTVSPropertyOp3
 70
     1
102
RTVSPropertyOp4
 70
     1
102
RTVSPropertyOp5
 70
     1
102
RTVSPropertyOp6
 70
     1
102
RTVSPropertyOp7
 70
     1
102
RTVSPropertyOp8
 70
     1
102
RTVSPropertyOp9
 70
     1
102
RTVSPropertyOp10
 70
     1
102
RTVSPropertyOp11
 70
     1
102
RTVSPropertyOp12
 70
     1
102
RTVSPropertyOp13
 70
     1
102
RTVSPropertyOp14
 70
     1
102
RTVSPropertyOp15
 70
     1
102
RTVSPropertyOp16
 70
     1
102
RTVSPropertyOp17
 70
     1
102
RTVSPropertyOp18
 70
     1
102
RTVSPropertyOp19
 70
     1
102
RTVSPropertyOp20
 70
     1
102
RTVSPropertyOp21
 70
     1
102
RTVSPropertyOp22
 70
     1
102
RTVSPropertyOp23
 70
     1
102
RTVSPropertyOp24
 70
     1
102
RTVSPropertyOp25
 70
     1
102
RTVSPropertyOp26
 70
     1
102
RTVSPropertyOp27
 70
     1
102
RTVSPropertyOp28
 70
     1
102
RTVSPropertyOp29
 70
     1
102
RTVSPropertyOp30
 70
     1
102
RTVSPropertyOp31
 70
     1
102
RTVSPropertyOp32
 70
     1
102
RTVSPropertyOp33
 70
     1
102
RTVSPropertyOp34
 70
     1
102
RTVSPropertyOp35
 70
     1
102
RTVSPropertyOp36
 70
     1
102
RTVSPropertyOp37
 70
     1
102
RTVSPropertyOp38
 70
     1
102
RTVSPropertyOp39
 70
     1
102
RTVSPropertyOp40
 70
     1
102
RTVSPropertyOp41
 70
     1
102
RTVSPropertyOp42
 70
     1
102
RTVSPropertyOp43
 70
     1
102
RTVSPropertyOp44
 70
     1
102
RTVSPropertyOp45
 70
     1
102
RTVSPropertyOp46
 70
     1
102
RTVSPropertyOp47
 70
     1
102
RTVSPropertyOp48
 70
     1
102
RTVSPropertyOp49
 70
     1
102
RTVSPropertyOp50
 70
     1
102
RTVSPropertyOp51
 70
     0
102
RTVSPropertyOp52
 70
     0
102
RTVSPropertyOp53
 70
     1
102
RTVSPropertyOp54
 70
     1
102
RTVSPropertyOp55
 70
     1
102
RTVSPropertyOp56
 70
     1
102
RTVSPropertyOp57
 70
     1
102
RTVSPropertyOp58
 70
     1
102
RTVSPropertyOp59
 70
     1
102
RTVSPropertyOp60
 70
     1
102
RTVSPropertyOp61
 70
     1
102
RTVSPropertyOp62
 70
     1
  0
XRECORD
  5
6A2F
102
{ACAD_REACTORS
330
6A2E
102
}
330
6A2E
100
AcDbXrecord
280
     1
102
RTVSPost2010Prop28
280
     0
102
RTVSPost2010PropOp28
 70
     1
102
RTVSPost2010Prop29
280
     1
102
RTVSPost2010PropOp29
 70
     1
102
RTVSPost2010Prop30
280
     1
102
RTVSPost2010PropOp30
 70
     1
102
RTVSPost2010Prop31
280
     0
102
RTVSPost2010PropOp31
 70
     1
102
RTVSPost2010Prop32
280
     0
102
RTVSPost2010PropOp32
 70
     1
102
RTVSPost2010Prop33
280
     0
102
RTVSPost2010PropOp33
 70
     1
102
RTVSPost2010Prop34
280
     0
102
RTVSPost2010PropOp34
 70
     1
102
RTVSPost2010Prop35
280
     0
102
RTVSPost2010PropOp35
 70
     1
102
RTVSPost2010Prop36
280
     0
102
RTVSPost2010PropOp36
 70
     1
102
RTVSPost2010Prop37
 90
       50
102
RTVSPost2010PropOp37
 70
     1
102
RTVSPost2010Prop38
140
0.0
102
RTVSPost2010PropOp38
 70
     1
102
RTVSPost2010Prop39
140
1.0
102
RTVSPost2010PropOp39
 70
     1
102
RTVSPost2010Prop40
 90
        0
102
RTVSPost2010PropOp40
 70
     1
102
RTVSPost2010Prop41ColorIndex
 90
       18
102
RTVSPost2010Prop41ColorRGB
 90
        0
102
RTVSPost2010PropOp41
 70
     1
102
RTVSPost2010Prop42
 90
       50
102
RTVSPost2010PropOp42
 70
     1
102
RTVSPost2010Prop43
 90
        3
102
RTVSPost2010PropOp43
 70
     1
102
RTVSPost2010Prop44ColorIndex
 90
        5
102
RTVSPost2010Prop44ColorRGB
 90
      255
102
RTVSPost2010PropOp44
 70
     1
102
RTVSPost2010Prop45
280
     0
102
RTVSPost2010PropOp45
 70
     1
102
RTVSPost2010Prop46
 90
       50
102
RTVSPost2010PropOp46
 70
     1
102
RTVSPost2010Prop47
 90
       50
102
RTVSPost2010PropOp47
 70
     1
102
RTVSPost2010Prop48
 90
       50
102
RTVSPost2010PropOp48
 70
     1
102
RTVSPost2010Prop49
280
     0
102
RTVSPost2010PropOp49
 70
     1
102
RTVSPost2010Prop50
 90
       50
102
RTVSPost2010PropOp50
 70
     1
102
RTVSPost2010Prop51ColorIndex
 90
      256
102
RTVSPost2010Prop51ColorRGB
 90
-16777216
102
RTVSPost2010PropOp51
 70
     0
102
RTVSPost2010Prop52
140
1.0
102
RTVSPost2010PropOp52
 70
     0
102
RTVSPost2010Prop53
 90
        2
102
RTVSPost2010PropOp53
 70
     1
102
RTVSPost2010Prop54
  1
strokes_ogs.tif
102
RTVSPost2010PropOp54
 70
     1
102
RTVSPost2010Prop55
280
     0
102
RTVSPost2010PropOp55
 70
     1
102
RTVSPost2010Prop56
140
1.0
102
RTVSPost2010PropOp56
 70
     1
102
RTVSPost2010Prop57
140
1.0
102
RTVSPost2010PropOp57
 70
     1
102
RTVSPropertyOp0
 70
     1
102
RTVSPropertyOp1
 70
     1
102
RTVSPropertyOp2
 70
     1
102
RTVSPropertyOp3
 70
     1
102
RTVSPropertyOp4
 70
     1
102
RTVSPropertyOp5
 70
     1
102
RTVSPropertyOp6
 70
     1
102
RTVSPropertyOp7
 70
     1
102
RTVSPropertyOp8
 70
     1
102
RTVSPropertyOp9
 70
     1
102
RTVSPropertyOp10
 70
     1
102
RTVSPropertyOp11
 70
     1
102
RTVSPropertyOp12
 70
     1
102
RTVSPropertyOp13
 70
     1
102
RTVSPropertyOp14
 70
     1
102
RTVSPropertyOp15
 70
     1
102
RTVSPropertyOp16
 70
     1
102
RTVSPropertyOp17
 70
     1
102
RTVSPropertyOp18
 70
     1
102
RTVSPropertyOp19
 70
     1
102
RTVSPropertyOp20
 70
     1
102
RTVSPropertyOp21
 70
     1
102
RTVSPropertyOp22
 70
     1
102
RTVSPropertyOp23
 70
     1
102
RTVSPropertyOp24
 70
     1
102
RTVSPropertyOp25
 70
     1
102
RTVSPropertyOp26
 70
     1
102
RTVSPropertyOp27
 70
     1
102
RTVSPropertyOp28
 70
     1
102
RTVSPropertyOp29
 70
     1
102
RTVSPropertyOp30
 70
     1
102
RTVSPropertyOp31
 70
     1
102
RTVSPropertyOp32
 70
     1
102
RTVSPropertyOp33
 70
     1
102
RTVSPropertyOp34
 70
     1
102
RTVSPropertyOp35
 70
     1
102
RTVSPropertyOp36
 70
     1
102
RTVSPropertyOp37
 70
     1
102
RTVSPropertyOp38
 70
     1
102
RTVSPropertyOp39
 70
     1
102
RTVSPropertyOp40
 70
     1
102
RTVSPropertyOp41
 70
     1
102
RTVSPropertyOp42
 70
     1
102
RTVSPropertyOp43
 70
     1
102
RTVSPropertyOp44
 70
     1
102
RTVSPropertyOp45
 70
     1
102
RTVSPropertyOp46
 70
     1
102
RTVSPropertyOp47
 70
     1
102
RTVSPropertyOp48
 70
     1
102
RTVSPropertyOp49
 70
     1
102
RTVSPropertyOp50
 70
     1
102
RTVSPropertyOp51
 70
     0
102
RTVSPropertyOp52
 70
     0
102
RTVSPropertyOp53
 70
     1
102
RTVSPropertyOp54
 70
     1
102
RTVSPropertyOp55
 70
     1
102
RTVSPropertyOp56
 70
     1
102
RTVSPropertyOp57
 70
     1
102
RTVSPropertyOp58
 70
     1
102
RTVSPropertyOp59
 70
     1
102
RTVSPropertyOp60
 70
     1
102
RTVSPropertyOp61
 70
     1
102
RTVSPropertyOp62
 70
     1
  0
XRECORD
  5
6A23
102
{ACAD_REACTORS
330
6A22
102
}
330
6A22
100
AcDbXrecord
280
     1
102
RTVSPost2010Prop28
280
     0
102
RTVSPost2010PropOp28
 70
     1
102
RTVSPost2010Prop29
280
     1
102
RTVSPost2010PropOp29
 70
     1
102
RTVSPost2010Prop30
280
     1
102
RTVSPost2010PropOp30
 70
     1
102
RTVSPost2010Prop31
280
     0
102
RTVSPost2010PropOp31
 70
     1
102
RTVSPost2010Prop32
280
     0
102
RTVSPost2010PropOp32
 70
     1
102
RTVSPost2010Prop33
280
     0
102
RTVSPost2010PropOp33
 70
     1
102
RTVSPost2010Prop34
280
     0
102
RTVSPost2010PropOp34
 70
     1
102
RTVSPost2010Prop35
280
     0
102
RTVSPost2010PropOp35
 70
     1
102
RTVSPost2010Prop36
280
     0
102
RTVSPost2010PropOp36
 70
     1
102
RTVSPost2010Prop37
 90
       50
102
RTVSPost2010PropOp37
 70
     1
102
RTVSPost2010Prop38
140
0.0
102
RTVSPost2010PropOp38
 70
     1
102
RTVSPost2010Prop39
140
1.0
102
RTVSPost2010PropOp39
 70
     1
102
RTVSPost2010Prop40
 90
        0
102
RTVSPost2010PropOp40
 70
     1
102
RTVSPost2010Prop41ColorIndex
 90
       18
102
RTVSPost2010Prop41ColorRGB
 90
        0
102
RTVSPost2010PropOp41
 70
     1
102
RTVSPost2010Prop42
 90
       50
102
RTVSPost2010PropOp42
 70
     1
102
RTVSPost2010Prop43
 90
        3
102
RTVSPost2010PropOp43
 70
     1
102
RTVSPost2010Prop44ColorIndex
 90
        5
102
RTVSPost2010Prop44ColorRGB
 90
      255
102
RTVSPost2010PropOp44
 70
     1
102
RTVSPost2010Prop45
280
     0
102
RTVSPost2010PropOp45
 70
     1
102
RTVSPost2010Prop46
 90
       50
102
RTVSPost2010PropOp46
 70
     1
102
RTVSPost2010Prop47
 90
       50
102
RTVSPost2010PropOp47
 70
     1
102
RTVSPost2010Prop48
 90
       50
102
RTVSPost2010PropOp48
 70
     1
102
RTVSPost2010Prop49
280
     0
102
RTVSPost2010PropOp49
 70
     1
102
RTVSPost2010Prop50
 90
       50
102
RTVSPost2010PropOp50
 70
     1
102
RTVSPost2010Prop51ColorIndex
 90
      256
102
RTVSPost2010Prop51ColorRGB
 90
-16777216
102
RTVSPost2010PropOp51
 70
     0
102
RTVSPost2010Prop52
140
1.0
102
RTVSPost2010PropOp52
 70
     0
102
RTVSPost2010Prop53
 90
        2
102
RTVSPost2010PropOp53
 70
     1
102
RTVSPost2010Prop54
  1
strokes_ogs.tif
102
RTVSPost2010PropOp54
 70
     1
102
RTVSPost2010Prop55
280
     0
102
RTVSPost2010PropOp55
 70
     1
102
RTVSPost2010Prop56
140
1.0
102
RTVSPost2010PropOp56
 70
     1
102
RTVSPost2010Prop57
140
1.0
102
RTVSPost2010PropOp57
 70
     1
102
RTVSPropertyOp0
 70
     1
102
RTVSPropertyOp1
 70
     1
102
RTVSPropertyOp2
 70
     1
102
RTVSPropertyOp3
 70
     1
102
RTVSPropertyOp4
 70
     1
102
RTVSPropertyOp5
 70
     1
102
RTVSPropertyOp6
 70
     1
102
RTVSPropertyOp7
 70
     1
102
RTVSPropertyOp8
 70
     1
102
RTVSPropertyOp9
 70
     1
102
RTVSPropertyOp10
 70
     1
102
RTVSPropertyOp11
 70
     1
102
RTVSPropertyOp12
 70
     1
102
RTVSPropertyOp13
 70
     1
102
RTVSPropertyOp14
 70
     1
102
RTVSPropertyOp15
 70
     1
102
RTVSPropertyOp16
 70
     1
102
RTVSPropertyOp17
 70
     1
102
RTVSPropertyOp18
 70
     1
102
RTVSPropertyOp19
 70
     1
102
RTVSPropertyOp20
 70
     1
102
RTVSPropertyOp21
 70
     1
102
RTVSPropertyOp22
 70
     1
102
RTVSPropertyOp23
 70
     1
102
RTVSPropertyOp24
 70
     1
102
RTVSPropertyOp25
 70
     1
102
RTVSPropertyOp26
 70
     1
102
RTVSPropertyOp27
 70
     1
102
RTVSPropertyOp28
 70
     1
102
RTVSPropertyOp29
 70
     1
102
RTVSPropertyOp30
 70
     1
102
RTVSPropertyOp31
 70
     1
102
RTVSPropertyOp32
 70
     1
102
RTVSPropertyOp33
 70
     1
102
RTVSPropertyOp34
 70
     1
102
RTVSPropertyOp35
 70
     1
102
RTVSPropertyOp36
 70
     1
102
RTVSPropertyOp37
 70
     1
102
RTVSPropertyOp38
 70
     1
102
RTVSPropertyOp39
 70
     1
102
RTVSPropertyOp40
 70
     1
102
RTVSPropertyOp41
 70
     1
102
RTVSPropertyOp42
 70
     1
102
RTVSPropertyOp43
 70
     1
102
RTVSPropertyOp44
 70
     1
102
RTVSPropertyOp45
 70
     1
102
RTVSPropertyOp46
 70
     1
102
RTVSPropertyOp47
 70
     1
102
RTVSPropertyOp48
 70
     1
102
RTVSPropertyOp49
 70
     1
102
RTVSPropertyOp50
 70
     1
102
RTVSPropertyOp51
 70
     0
102
RTVSPropertyOp52
 70
     0
102
RTVSPropertyOp53
 70
     1
102
RTVSPropertyOp54
 70
     1
102
RTVSPropertyOp55
 70
     1
102
RTVSPropertyOp56
 70
     1
102
RTVSPropertyOp57
 70
     1
102
RTVSPropertyOp58
 70
     1
102
RTVSPropertyOp59
 70
     1
102
RTVSPropertyOp60
 70
     1
102
RTVSPropertyOp61
 70
     1
102
RTVSPropertyOp62
 70
     1
  0
XRECORD
  5
6A43
102
{ACAD_REACTORS
330
6A42
102
}
330
6A42
100
AcDbXrecord
280
     1
102
RTVSPost2010Prop28
280
     0
102
RTVSPost2010PropOp28
 70
     1
102
RTVSPost2010Prop29
280
     1
102
RTVSPost2010PropOp29
 70
     1
102
RTVSPost2010Prop30
280
     1
102
RTVSPost2010PropOp30
 70
     1
102
RTVSPost2010Prop31
280
     0
102
RTVSPost2010PropOp31
 70
     1
102
RTVSPost2010Prop32
280
     0
102
RTVSPost2010PropOp32
 70
     1
102
RTVSPost2010Prop33
280
     0
102
RTVSPost2010PropOp33
 70
     1
102
RTVSPost2010Prop34
280
     0
102
RTVSPost2010PropOp34
 70
     1
102
RTVSPost2010Prop35
280
     0
102
RTVSPost2010PropOp35
 70
     1
102
RTVSPost2010Prop36
280
     0
102
RTVSPost2010PropOp36
 70
     1
102
RTVSPost2010Prop37
 90
       50
102
RTVSPost2010PropOp37
 70
     1
102
RTVSPost2010Prop38
140
0.0
102
RTVSPost2010PropOp38
 70
     1
102
RTVSPost2010Prop39
140
1.0
102
RTVSPost2010PropOp39
 70
     1
102
RTVSPost2010Prop40
 90
        0
102
RTVSPost2010PropOp40
 70
     1
102
RTVSPost2010Prop41ColorIndex
 90
       18
102
RTVSPost2010Prop41ColorRGB
 90
        0
102
RTVSPost2010PropOp41
 70
     1
102
RTVSPost2010Prop42
 90
       50
102
RTVSPost2010PropOp42
 70
     1
102
RTVSPost2010Prop43
 90
        3
102
RTVSPost2010PropOp43
 70
     1
102
RTVSPost2010Prop44ColorIndex
 90
        5
102
RTVSPost2010Prop44ColorRGB
 90
      255
102
RTVSPost2010PropOp44
 70
     1
102
RTVSPost2010Prop45
280
     0
102
RTVSPost2010PropOp45
 70
     1
102
RTVSPost2010Prop46
 90
       50
102
RTVSPost2010PropOp46
 70
     1
102
RTVSPost2010Prop47
 90
       50
102
RTVSPost2010PropOp47
 70
     1
102
RTVSPost2010Prop48
 90
       50
102
RTVSPost2010PropOp48
 70
     1
102
RTVSPost2010Prop49
280
     0
102
RTVSPost2010PropOp49
 70
     1
102
RTVSPost2010Prop50
 90
       50
102
RTVSPost2010PropOp50
 70
     1
102
RTVSPost2010Prop51ColorIndex
 90
      256
102
RTVSPost2010Prop51ColorRGB
 90
-16777216
102
RTVSPost2010PropOp51
 70
     0
102
RTVSPost2010Prop52
140
1.0
102
RTVSPost2010PropOp52
 70
     0
102
RTVSPost2010Prop53
 90
        2
102
RTVSPost2010PropOp53
 70
     1
102
RTVSPost2010Prop54
  1
strokes_ogs.tif
102
RTVSPost2010PropOp54
 70
     1
102
RTVSPost2010Prop55
280
     0
102
RTVSPost2010PropOp55
 70
     1
102
RTVSPost2010Prop56
140
1.0
102
RTVSPost2010PropOp56
 70
     1
102
RTVSPost2010Prop57
140
1.0
102
RTVSPost2010PropOp57
 70
     1
102
RTVSPropertyOp0
 70
     1
102
RTVSPropertyOp1
 70
     1
102
RTVSPropertyOp2
 70
     1
102
RTVSPropertyOp3
 70
     1
102
RTVSPropertyOp4
 70
     1
102
RTVSPropertyOp5
 70
     1
102
RTVSPropertyOp6
 70
     1
102
RTVSPropertyOp7
 70
     1
102
RTVSPropertyOp8
 70
     1
102
RTVSPropertyOp9
 70
     1
102
RTVSPropertyOp10
 70
     1
102
RTVSPropertyOp11
 70
     1
102
RTVSPropertyOp12
 70
     1
102
RTVSPropertyOp13
 70
     1
102
RTVSPropertyOp14
 70
     1
102
RTVSPropertyOp15
 70
     1
102
RTVSPropertyOp16
 70
     1
102
RTVSPropertyOp17
 70
     1
102
RTVSPropertyOp18
 70
     1
102
RTVSPropertyOp19
 70
     1
102
RTVSPropertyOp20
 70
     1
102
RTVSPropertyOp21
 70
     1
102
RTVSPropertyOp22
 70
     1
102
RTVSPropertyOp23
 70
     1
102
RTVSPropertyOp24
 70
     1
102
RTVSPropertyOp25
 70
     1
102
RTVSPropertyOp26
 70
     1
102
RTVSPropertyOp27
 70
     1
102
RTVSPropertyOp28
 70
     1
102
RTVSPropertyOp29
 70
     1
102
RTVSPropertyOp30
 70
     1
102
RTVSPropertyOp31
 70
     1
102
RTVSPropertyOp32
 70
     1
102
RTVSPropertyOp33
 70
     1
102
RTVSPropertyOp34
 70
     1
102
RTVSPropertyOp35
 70
     1
102
RTVSPropertyOp36
 70
     1
102
RTVSPropertyOp37
 70
     1
102
RTVSPropertyOp38
 70
     1
102
RTVSPropertyOp39
 70
     1
102
RTVSPropertyOp40
 70
     1
102
RTVSPropertyOp41
 70
     1
102
RTVSPropertyOp42
 70
     1
102
RTVSPropertyOp43
 70
     1
102
RTVSPropertyOp44
 70
     1
102
RTVSPropertyOp45
 70
     1
102
RTVSPropertyOp46
 70
     1
102
RTVSPropertyOp47
 70
     1
102
RTVSPropertyOp48
 70
     1
102
RTVSPropertyOp49
 70
     1
102
RTVSPropertyOp50
 70
     1
102
RTVSPropertyOp51
 70
     0
102
RTVSPropertyOp52
 70
     0
102
RTVSPropertyOp53
 70
     1
102
RTVSPropertyOp54
 70
     1
102
RTVSPropertyOp55
 70
     1
102
RTVSPropertyOp56
 70
     1
102
RTVSPropertyOp57
 70
     1
102
RTVSPropertyOp58
 70
     1
102
RTVSPropertyOp59
 70
     1
102
RTVSPropertyOp60
 70
     1
102
RTVSPropertyOp61
 70
     1
102
RTVSPropertyOp62
 70
     1
  0
ENDSEC
  0
EOF
