  0
SECTION
  2
HEADER
  9
$ACADVER
  1
AC1015
  9
$ACADMAINTVER
 70
    18
  9
$DWGCODEPAGE
  3
ANSI_1252
  9
$INSBASE
 10
0.0
 20
0.0
 30
0.0
  9
$EXTMIN
 10
-212.6050753544353
 20
-296.8862171491617
 30
0.0
  9
$EXTMAX
 10
287.8253736621186
 20
320.6000000000007
 30
0.0
  9
$LIMMIN
 10
0.0
 20
0.0
  9
$LIMMAX
 10
12.0
 20
9.0
  9
$ORTHOMODE
 70
     0
  9
$REGENMODE
 70
     1
  9
$FILLMODE
 70
     1
  9
$QTEXTMODE
 70
     0
  9
$MIRRTEXT
 70
     0
  9
$LTSCALE
 40
1.0
  9
$ATTMODE
 70
     1
  9
$TEXTSIZE
 40
0.2
  9
$TRACEWID
 40
0.05
  9
$TEXTSTYLE
  7
Standard
  9
$CLAYER
  8
0
  9
$CELTYPE
  6
ByLayer
  9
$CECOLOR
 62
   256
  9
$CELTSCALE
 40
1.0
  9
$DISPSILH
 70
     0
  9
$DIMSCALE
 40
1.0
  9
$DIMASZ
 40
0.18
  9
$DIMEXO
 40
0.0625
  9
$DIMDLI
 40
0.38
  9
$DIMRND
 40
0.0
  9
$DIMDLE
 40
0.0
  9
$DIMEXE
 40
0.18
  9
$DIMTP
 40
0.0
  9
$DIMTM
 40
0.0
  9
$DIMTXT
 40
0.18
  9
$DIMCEN
 40
0.09
  9
$DIMTSZ
 40
0.0
  9
$DIMTOL
 70
     0
  9
$DIMLIM
 70
     0
  9
$DIMTIH
 70
     1
  9
$DIMTOH
 70
     1
  9
$DIMSE1
 70
     0
  9
$DIMSE2
 70
     0
  9
$DIMTAD
 70
     0
  9
$DIMZIN
 70
     0
  9
$DIMBLK
  1

  9
$DIMASO
 70
     1
  9
$DIMSHO
 70
     1
  9
$DIMPOST
  1

  9
$DIMAPOST
  1

  9
$DIMALT
 70
     0
  9
$DIMALTD
 70
     2
  9
$DIMALTF
 40
25.4
  9
$DIMLFAC
 40
1.0
  9
$DIMTOFL
 70
     0
  9
$DIMTVP
 40
0.0
  9
$DIMTIX
 70
     0
  9
$DIMSOXD
 70
     0
  9
$DIMSAH
 70
     0
  9
$DIMBLK1
  1

  9
$DIMBLK2
  1

  9
$DIMSTYLE
  2
Standard
  9
$DIMCLRD
 70
     0
  9
$DIMCLRE
 70
     0
  9
$DIMCLRT
 70
     0
  9
$DIMTFAC
 40
1.0
  9
$DIMGAP
 40
0.09
  9
$DIMJUST
 70
     0
  9
$DIMSD1
 70
     0
  9
$DIMSD2
 70
     0
  9
$DIMTOLJ
 70
     1
  9
$DIMTZIN
 70
     0
  9
$DIMALTZ
 70
     0
  9
$DIMALTTZ
 70
     0
  9
$DIMUPT
 70
     0
  9
$DIMDEC
 70
     4
  9
$DIMTDEC
 70
     4
  9
$DIMALTU
 70
     2
  9
$DIMALTTD
 70
     2
  9
$DIMTXSTY
  7
Standard
  9
$DIMAUNIT
 70
     0
  9
$DIMADEC
 70
     0
  9
$DIMALTRND
 40
0.0
  9
$DIMAZIN
 70
     0
  9
$DIMDSEP
 70
    46
  9
$DIMATFIT
 70
     3
  9
$DIMFRAC
 70
     0
  9
$DIMLDRBLK
  1

  9
$DIMLUNIT
 70
     2
  9
$DIMLWD
 70
    -2
  9
$DIMLWE
 70
    -2
  9
$DIMTMOVE
 70
     0
  9
$LUNITS
 70
     2
  9
$LUPREC
 70
     4
  9
$SKETCHINC
 40
0.1
  9
$FILLETRAD
 40
0.0
  9
$AUNITS
 70
     0
  9
$AUPREC
 70
     0
  9
$MENU
  1
.
  9
$ELEVATION
 40
0.0
  9
$PELEVATION
 40
0.0
  9
$THICKNESS
 40
0.0
  9
$LIMCHECK
 70
     0
  9
$CHAMFERA
 40
0.0
  9
$CHAMFERB
 40
0.0
  9
$CHAMFERC
 40
0.0
  9
$CHAMFERD
 40
0.0
  9
$SKPOLY
 70
     0
  9
$TDCREATE
 40
2460783.438622685
  9
$TDUCREATE
 40
2460783.146956019
  9
$TDUPDATE
 40
2460783.442685185
  9
$TDUUPDATE
 40
2460783.151018519
  9
$TDINDWG
 40
0.0021643519
  9
$TDUSRTIMER
 40
0.0021643519
  9
$USRTIMER
 70
     1
  9
$ANGBASE
 50
0.0
  9
$ANGDIR
 70
     0
  9
$PDMODE
 70
     0
  9
$PDSIZE
 40
0.0
  9
$PLINEWID
 40
0.0
  9
$SPLFRAME
 70
     0
  9
$SPLINETYPE
 70
     6
  9
$SPLINESEGS
 70
     8
  9
$HANDSEED
  5
1875
  9
$SURFTAB1
 70
     6
  9
$SURFTAB2
 70
     6
  9
$SURFTYPE
 70
     6
  9
$SURFU
 70
     6
  9
$SURFV
 70
     6
  9
$UCSBASE
  2

  9
$UCSNAME
  2

  9
$UCSORG
 10
0.0
 20
0.0
 30
0.0
  9
$UCSXDIR
 10
1.0
 20
0.0
 30
0.0
  9
$UCSYDIR
 10
0.0
 20
1.0
 30
0.0
  9
$UCSORTHOREF
  2

  9
$UCSORTHOVIEW
 70
     0
  9
$UCSORGTOP
 10
0.0
 20
0.0
 30
0.0
  9
$UCSORGBOTTOM
 10
0.0
 20
0.0
 30
0.0
  9
$UCSORGLEFT
 10
0.0
 20
0.0
 30
0.0
  9
$UCSORGRIGHT
 10
0.0
 20
0.0
 30
0.0
  9
$UCSORGFRONT
 10
0.0
 20
0.0
 30
0.0
  9
$UCSORGBACK
 10
0.0
 20
0.0
 30
0.0
  9
$PUCSBASE
  2

  9
$PUCSNAME
  2

  9
$PUCSORG
 10
0.0
 20
0.0
 30
0.0
  9
$PUCSXDIR
 10
1.0
 20
0.0
 30
0.0
  9
$PUCSYDIR
 10
0.0
 20
1.0
 30
0.0
  9
$PUCSORTHOREF
  2

  9
$PUCSORTHOVIEW
 70
     0
  9
$PUCSORGTOP
 10
0.0
 20
0.0
 30
0.0
  9
$PUCSORGBOTTOM
 10
0.0
 20
0.0
 30
0.0
  9
$PUCSORGLEFT
 10
0.0
 20
0.0
 30
0.0
  9
$PUCSORGRIGHT
 10
0.0
 20
0.0
 30
0.0
  9
$PUCSORGFRONT
 10
0.0
 20
0.0
 30
0.0
  9
$PUCSORGBACK
 10
0.0
 20
0.0
 30
0.0
  9
$USERI1
 70
     0
  9
$USERI2
 70
     0
  9
$USERI3
 70
     0
  9
$USERI4
 70
     0
  9
$USERI5
 70
     0
  9
$USERR1
 40
0.0
  9
$USERR2
 40
0.0
  9
$USERR3
 40
0.0
  9
$USERR4
 40
0.0
  9
$USERR5
 40
0.0
  9
$WORLDVIEW
 70
     1
  9
$SHADEDGE
 70
     3
  9
$SHADEDIF
 70
    70
  9
$TILEMODE
 70
     1
  9
$MAXACTVP
 70
    48
  9
$PINSBASE
 10
0.0
 20
0.0
 30
0.0
  9
$PLIMCHECK
 70
     0
  9
$PEXTMIN
 10
0.0
 20
0.0
 30
0.0
  9
$PEXTMAX
 10
0.0
 20
0.0
 30
0.0
  9
$PLIMMIN
 10
0.0
 20
0.0
  9
$PLIMMAX
 10
12.0
 20
9.0
  9
$UNITMODE
 70
     0
  9
$VISRETAIN
 70
     1
  9
$PLINEGEN
 70
     0
  9
$PSLTSCALE
 70
     1
  9
$TREEDEPTH
 70
  3020
  9
$CMLSTYLE
  2
Standard
  9
$CMLJUST
 70
     0
  9
$CMLSCALE
 40
1.0
  9
$PROXYGRAPHICS
 70
     1
  9
$MEASUREMENT
 70
     0
  9
$CELWEIGHT
370
    -1
  9
$ENDCAPS
280
     0
  9
$JOINSTYLE
280
     0
  9
$LWDISPLAY
290
     0
  9
$INSUNITS
 70
     1
  9
$HYPERLINKBASE
  1

  9
$STYLESHEET
  1

  9
$XEDIT
290
     1
  9
$CEPSNTYPE
380
     0
  9
$PSTYLEMODE
290
     1
  9
$FINGERPRINTGUID
  2
{D8507640-F181-614D-B966-96B7288C8C74}
  9
$VERSIONGUID
  2
{0B986294-B800-2240-AB5A-0B2D3E608A5B}
  9
$EXTNAMES
290
     1
  9
$PSVPSCALE
 40
0.0
  9
$OLESTARTUP
290
     0
  0
ENDSEC
  0
SECTION
  2
CLASSES
  0
CLASS
  1
ACDBDICTIONARYWDFLT
  2
AcDbDictionaryWithDefault
  3
ObjectDBX Classes
 90
        0
280
     0
281
     0
  0
CLASS
  1
ACDBPLACEHOLDER
  2
AcDbPlaceHolder
  3
ObjectDBX Classes
 90
        0
280
     0
281
     0
  0
CLASS
  1
LAYOUT
  2
AcDbLayout
  3
ObjectDBX Classes
 90
        0
280
     0
281
     0
  0
CLASS
  1
DICTIONARYVAR
  2
AcDbDictionaryVar
  3
ObjectDBX Classes
 90
        0
280
     0
281
     0
  0
CLASS
  1
TABLESTYLE
  2
AcDbTableStyle
  3
ObjectDBX Classes
 90
     4095
280
     0
281
     0
  0
CLASS
  1
MATERIAL
  2
AcDbMaterial
  3
ObjectDBX Classes
 90
     1153
280
     0
281
     0
  0
CLASS
  1
VISUALSTYLE
  2
AcDbVisualStyle
  3
ObjectDBX Classes
 90
     4095
280
     0
281
     0
  0
CLASS
  1
SCALE
  2
AcDbScale
  3
ObjectDBX Classes
 90
     1153
280
     0
281
     0
  0
CLASS
  1
MLEADERSTYLE
  2
AcDbMLeaderStyle
  3
ACDB_MLEADERSTYLE_CLASS
 90
     4095
280
     0
281
     0
  0
CLASS
  1
CELLSTYLEMAP
  2
AcDbCellStyleMap
  3
ObjectDBX Classes
 90
     1152
280
     0
281
     0
  0
CLASS
  1
EXACXREFPANELOBJECT
  2
ExAcXREFPanelObject
  3
EXAC_ESW
 90
    33793
280
     0
281
     0
  0
CLASS
  1
NPOCOLLECTION
  2
AcDbImpNonPersistentObjectsCollection
  3
ObjectDBX Classes
 90
    33921
280
     0
281
     0
  0
CLASS
  1
LAYER_INDEX
  2
AcDbLayerIndex
  3
ObjectDBX Classes
 90
    32768
280
     0
281
     0
  0
CLASS
  1
SPATIAL_INDEX
  2
AcDbSpatialIndex
  3
ObjectDBX Classes
 90
    32768
280
     0
281
     0
  0
CLASS
  1
IDBUFFER
  2
AcDbIdBuffer
  3
ObjectDBX Classes
 90
    32768
280
     0
281
     0
  0
CLASS
  1
ACDBSECTIONVIEWSTYLE
  2
AcDbSectionViewStyle
  3
ObjectDBX Classes
 90
     1025
280
     0
281
     0
  0
CLASS
  1
ACDBDETAILVIEWSTYLE
  2
AcDbDetailViewStyle
  3
ObjectDBX Classes
 90
     1025
280
     0
281
     0
  0
CLASS
  1
XRECORD
  2
AcDbXrecord
  3
ObjectDBX Classes
 90
        0
280
     0
281
     0
  0
ENDSEC
  0
SECTION
  2
TABLES
  0
TABLE
  2
VPORT
  5
8
102
{ACAD_XDICTIONARY
360
178B
102
}
330
0
100
AcDbSymbolTable
 70
     1
  0
VPORT
  5
94
330
8
100
AcDbSymbolTableRecord
100
AcDbViewportTableRecord
  2
*Active
 70
     0
 10
0.0
 20
0.0
 11
1.0
 21
1.0
 12
37.61014915384159
 22
11.85689142541952
 13
0.0
 23
0.0
 14
0.5
 24
0.5
 15
0.5
 25
0.5
 16
0.0
 26
0.0
 36
1.0
 17
0.0
 27
0.0
 37
0.0
 40
656.6406332895709
 41
0.9846153846153846
 42
50.0
 43
0.0
 44
0.0
 50
0.0
 51
0.0
 71
     0
 72
  1000
 73
     1
 74
     3
 75
     0
 76
     1
 77
     0
 78
     0
281
     0
 65
     1
110
0.0
120
0.0
130
0.0
111
1.0
121
0.0
131
0.0
112
0.0
122
1.0
132
0.0
 79
     0
146
0.0
1001
ACAD_NAV_VCDISPLAY
1070
     3
  0
ENDTAB
  0
TABLE
  2
LTYPE
  5
5
330
0
100
AcDbSymbolTable
 70
     1
  0
LTYPE
  5
14
330
5
100
AcDbSymbolTableRecord
100
AcDbLinetypeTableRecord
  2
ByBlock
 70
     0
  3

 72
    65
 73
     0
 40
0.0
  0
LTYPE
  5
15
330
5
100
AcDbSymbolTableRecord
100
AcDbLinetypeTableRecord
  2
ByLayer
 70
     0
  3

 72
    65
 73
     0
 40
0.0
  0
LTYPE
  5
16
330
5
100
AcDbSymbolTableRecord
100
AcDbLinetypeTableRecord
  2
Continuous
 70
     0
  3
Solid line
 72
    65
 73
     0
 40
0.0
  0
ENDTAB
  0
TABLE
  2
LAYER
  5
2
102
{ACAD_XDICTIONARY
360
18E
102
}
330
0
100
AcDbSymbolTable
 70
     1
  0
LAYER
  5
10
102
{ACAD_XDICTIONARY
360
E6
102
}
330
2
100
AcDbSymbolTableRecord
100
AcDbLayerTableRecord
  2
0
 70
     0
 62
     7
  6
Continuous
370
    -3
390
F
  0
ENDTAB
  0
TABLE
  2
STYLE
  5
3
330
0
100
AcDbSymbolTable
 70
     1
  0
STYLE
  5
11
330
3
100
AcDbSymbolTableRecord
100
AcDbTextStyleTableRecord
  2
Standard
 70
     0
 40
0.0
 41
1.0
 50
0.0
 71
     0
 42
0.2
  3
arial.ttf
  4

1001
ACAD
1000
Arial
1071
       34
  0
ENDTAB
  0
TABLE
  2
VIEW
  5
6
330
0
100
AcDbSymbolTable
 70
     0
  0
ENDTAB
  0
TABLE
  2
UCS
  5
7
330
0
100
AcDbSymbolTable
 70
     0
  0
ENDTAB
  0
TABLE
  2
APPID
  5
9
330
0
100
AcDbSymbolTable
 70
     7
  0
APPID
  5
12
330
9
100
AcDbSymbolTableRecord
100
AcDbRegAppTableRecord
  2
ACAD
 70
     0
  0
APPID
  5
DD
330
9
100
AcDbSymbolTableRecord
100
AcDbRegAppTableRecord
  2
AcadAnnoPO
 70
     0
  0
APPID
  5
DE
330
9
100
AcDbSymbolTableRecord
100
AcDbRegAppTableRecord
  2
AcadAnnotative
 70
     0
  0
APPID
  5
DF
330
9
100
AcDbSymbolTableRecord
100
AcDbRegAppTableRecord
  2
ACAD_DSTYLE_DIMJAG
 70
     0
  0
APPID
  5
E0
330
9
100
AcDbSymbolTableRecord
100
AcDbRegAppTableRecord
  2
ACAD_DSTYLE_DIMTALN
 70
     0
  0
APPID
  5
107
330
9
100
AcDbSymbolTableRecord
100
AcDbRegAppTableRecord
  2
ACAD_MLEADERVER
 70
     0
  0
APPID
  5
1A6
330
9
100
AcDbSymbolTableRecord
100
AcDbRegAppTableRecord
  2
ACAD_NAV_VCDISPLAY
 70
     0
  0
ENDTAB
  0
TABLE
  2
DIMSTYLE
  5
A
330
0
100
AcDbSymbolTable
 70
     1
100
AcDbDimStyleTable
 71
     0
  0
DIMSTYLE
105
27
330
A
100
AcDbSymbolTableRecord
100
AcDbDimStyleTableRecord
  2
Standard
 70
     0
340
11
  0
ENDTAB
  0
TABLE
  2
BLOCK_RECORD
  5
1
330
0
100
AcDbSymbolTable
 70
     7
  0
BLOCK_RECORD
  5
1F
102
{ACAD_XDICTIONARY
360
15D
102
}
330
1
100
AcDbSymbolTableRecord
100
AcDbBlockTableRecord
  2
*Model_Space
340
22
  0
BLOCK_RECORD
  5
58
102
{ACAD_XDICTIONARY
360
173F
102
}
330
1
100
AcDbSymbolTableRecord
100
AcDbBlockTableRecord
  2
*Paper_Space
340
59
  0
BLOCK_RECORD
  5
5D
102
{ACAD_XDICTIONARY
360
1741
102
}
330
1
100
AcDbSymbolTableRecord
100
AcDbBlockTableRecord
  2
*Paper_Space0
340
5E
  0
BLOCK_RECORD
  5
1588
330
1
100
AcDbSymbolTableRecord
100
AcDbBlockTableRecord
  2
BSIN140_180-Front
340
0
102
{BLKREFS
331
1735
102
}
  0
BLOCK_RECORD
  5
15EE
330
1
100
AcDbSymbolTableRecord
100
AcDbBlockTableRecord
  2
BSIN140_180-Left
340
0
102
{BLKREFS
331
1736
102
}
  0
BLOCK_RECORD
  5
160E
330
1
100
AcDbSymbolTableRecord
100
AcDbBlockTableRecord
  2
BSIN140_180-Right
340
0
102
{BLKREFS
331
1737
102
}
  0
BLOCK_RECORD
  5
162D
330
1
100
AcDbSymbolTableRecord
100
AcDbBlockTableRecord
  2
BSIN140_180-Top
340
0
102
{BLKREFS
331
1738
102
}
  0
BLOCK_RECORD
  5
165E
330
1
100
AcDbSymbolTableRecord
100
AcDbBlockTableRecord
  2
BSIN140_180-Bottom
340
0
102
{BLKREFS
331
1739
102
}
  0
BLOCK_RECORD
  5
1685
330
1
100
AcDbSymbolTableRecord
100
AcDbBlockTableRecord
  2
BSIN140_180-ISO
340
0
102
{BLKREFS
331
173A
102
}
  0
ENDTAB
  0
ENDSEC
  0
SECTION
  2
BLOCKS
  0
BLOCK
  5
20
330
1F
100
AcDbEntity
  8
0
100
AcDbBlockBegin
  2
*Model_Space
 70
     0
 10
0.0
 20
0.0
 30
0.0
  3
*Model_Space
  1

  0
ENDBLK
  5
21
330
1F
100
AcDbEntity
  8
0
100
AcDbBlockEnd
  0
BLOCK
  5
5A
330
58
100
AcDbEntity
 67
     1
  8
0
100
AcDbBlockBegin
  2
*Paper_Space
 70
     0
 10
0.0
 20
0.0
 30
0.0
  3
*Paper_Space
  1

  0
ENDBLK
  5
5B
330
58
100
AcDbEntity
 67
     1
  8
0
100
AcDbBlockEnd
  0
BLOCK
  5
5F
330
5D
100
AcDbEntity
 67
     1
  8
0
100
AcDbBlockBegin
  2
*Paper_Space0
 70
     0
 10
0.0
 20
0.0
 30
0.0
  3
*Paper_Space0
  1

  0
ENDBLK
  5
60
330
5D
100
AcDbEntity
 67
     1
  8
0
100
AcDbBlockEnd
  0
BLOCK
  5
1589
330
1588
100
AcDbEntity
  8
0
100
AcDbBlockBegin
  2
BSIN140_180-Front
 70
     0
 10
0.0
 20
0.0
 30
0.0
  3
BSIN140_180-Front
  1

  0
LINE
  5
158B
330
1588
100
AcDbEntity
  8
0
100
AcDbLine
 10
68.0
 20
8.70854060900001
 30
0.0
 11
70.00000000000001
 21
8.70854060900001
 31
0.0
  0
SPLINE
  5
158C
330
1588
100
AcDbEntity
  8
0
100
AcDbSpline
210
0.0
220
0.0
230
1.0
 70
     8
 71
     3
 72
    11
 73
     7
 74
     0
 42
0.000000001
 43
0.0000000001
 40
-0.9982511035125584
 40
-0.9982511035125584
 40
-0.9982511035125584
 40
-0.9982511035125584
 40
-0.3432331292066835
 40
-0.3432331292066835
 40
-0.3432331292066835
 40
0.0
 40
0.0
 40
0.0
 40
0.0
 10
69.99999144603319
 20
6.256370862520156
 30
0.0
 10
69.99784122607571
 20
7.051531446062594
 30
0.0
 10
69.59050880666383
 20
7.770231464979674
 30
0.0
 10
68.9768484680541
 20
8.227898704200571
 30
0.0
 10
68.6552869742428
 20
8.467718930232745
 30
0.0
 10
68.27256854679247
 20
8.632806248833079
 30
0.0
 10
67.86824088801376
 20
8.708540609248252
 30
0.0
  0
SPLINE
  5
158D
330
1588
100
AcDbEntity
  8
0
100
AcDbSpline
210
0.0
220
0.0
230
1.0
 70
     8
 71
     3
 72
    14
 73
    10
 74
     0
 42
0.000000001
 43
0.0000000001
 40
0.0
 40
0.0
 40
0.0
 40
0.0
 40
0.0022274811427749
 40
0.0022274811427749
 40
0.0040169027008002
 40
0.0040169027008002
 40
0.0058242306637909
 40
0.0058242306637909
 40
0.0070478114180475
 40
0.0070478114180475
 40
0.0070478114180475
 40
0.0070478114180475
 10
69.99994261555137
 20
6.249999012747556
 30
0.0
 10
69.9999511458448
 20
6.255611186297175
 30
0.0
 10
69.9999545248011
 20
6.261311079405452
 30
0.0
 10
69.99994941397156
 20
6.270967930668474
 30
0.0
 10
69.99994295241953
 20
6.275064705946215
 30
0.0
 10
69.99992640680007
 20
6.281727027742745
 30
0.0
 10
69.99991638225894
 20
6.284322062401034
 30
0.0
 10
69.99990582549068
 20
6.286746403419625
 30
0.0
 10
69.99990323289333
 20
6.287232689922585
 30
0.0
 10
69.99990323290136
 20
6.287232688385775
 30
0.0
  0
SPLINE
  5
158E
330
1588
100
AcDbEntity
  8
0
100
AcDbSpline
210
0.0
220
0.0
230
1.0
 70
     8
 71
     3
 72
     8
 73
     4
 74
     0
 42
0.000000001
 43
0.0000000001
 40
0.0
 40
0.0
 40
0.0
 40
0.0
 40
0.001778881201531
 40
0.001778881201531
 40
0.001778881201531
 40
0.001778881201531
 10
69.99998141226754
 20
6.250000079812945
 30
0.0
 10
69.9999875105979
 20
6.251477668857143
 30
0.0
 10
69.99999371039478
 20
6.253114051100045
 30
0.0
 10
69.99999988917458
 20
6.254777083283942
 30
0.0
  0
SPLINE
  5
158F
330
1588
100
AcDbEntity
  8
0
100
AcDbSpline
210
0.0
220
0.0
230
1.0
 70
     8
 71
     3
 72
    10
 73
     6
 74
     0
 42
0.000000001
 43
0.0000000001
 40
0.0197062214622033
 40
0.0197062214622033
 40
0.0197062214622033
 40
0.0197062214622033
 40
0.0210573328813917
 40
0.0210573328813917
 40
0.0232112771817897
 40
0.0232112771817897
 40
0.0232112771817897
 40
0.0232112771817897
 10
67.90071190129828
 20
8.702701479206158
 30
0.0
 10
67.8966023916482
 20
8.703429114108322
 30
0.0
 10
67.89243867503067
 20
8.704164345504283
 30
0.0
 10
67.88160907666444
 20
8.706072862659175
 30
0.0
 10
67.87490415232324
 20
8.707250827261903
 30
0.0
 10
67.86822026179809
 20
8.70842341314138
 30
0.0
  0
SPLINE
  5
1590
330
1588
100
AcDbEntity
  8
0
100
AcDbSpline
210
0.0
220
0.0
230
1.0
 70
     8
 71
     3
 72
    30
 73
    26
 74
     0
 42
0.000000001
 43
0.0000000001
 40
0.0
 40
0.0
 40
0.0
 40
0.0
 40
0.0554139669036474
 40
0.0554139669036474
 40
0.1562299732187283
 40
0.1562299732187283
 40
0.1725285327016332
 40
0.1725285327016332
 40
0.2214815174721823
 40
0.2214815174721823
 40
0.2372148739024549
 40
0.2372148739024549
 40
0.2396340520501275
 40
0.2396340520501275
 40
0.2408479619165514
 40
0.2408479619165514
 40
0.2420703943490985
 40
0.2420703943490985
 40
0.2432865219347676
 40
0.2432865219347676
 40
0.2482520359307994
 40
0.2482520359307994
 40
0.2579239193404277
 40
0.2579239193404277
 40
0.2661053152292032
 40
0.2661053152292032
 40
0.2661053152292032
 40
0.2661053152292032
 10
71.99999978814758
 20
8.462934257478512
 30
0.0
 10
72.00000110030896
 20
8.278888811042262
 30
0.0
 10
72.00000850557905
 20
8.094237588043641
 30
0.0
 10
72.00089528232142
 20
7.591507276098941
 30
0.0
 10
72.00342482143861
 20
7.282595131831297
 30
0.0
 10
72.00466654549787
 20
6.970183784759241
 30
0.0
 10
72.00478807476425
 20
6.927767304979408
 30
0.0
 10
72.00502755158557
 20
6.763018891921683
 30
0.0
 10
72.00471969038277
 20
6.655179512907057
 30
0.0
 10
72.00322859085287
 20
6.496781222257749
 30
0.0
 10
72.00279158175359
 20
6.458158805397023
 30
0.0
 10
72.00209546206842
 20
6.404847745052818
 30
0.0
 10
72.00199672297685
 20
6.397411850091117
 30
0.0
 10
72.00183913052092
 20
6.385730716011417
 30
0.0
 10
72.00178376925414
 20
6.381657310871482
 30
0.0
 10
72.00167264606408
 20
6.373537950266752
 30
0.0
 10
72.00161590616395
 20
6.369421286816788
 30
0.0
 10
72.00151056118345
 20
6.361815675100938
 30
0.0
 10
72.00146071116482
 20
6.358235308407773
 30
0.0
 10
72.0012275496364
 20
6.341532499546516
 30
0.0
 10
72.00109065071306
 20
6.331831929133154
 30
0.0
 10
72.00072652662033
 20
6.305791513090543
 30
0.0
 10
72.00053037696967
 20
6.291471563476015
 30
0.0
 10
72.00022785010394
 20
6.268555324385226
 30
0.0
 10
72.00011593469736
 20
6.259659001061587
 30
0.0
 10
72.00005767572921
 20
6.254906716228215
 30
0.0
  0
SPLINE
  5
1591
330
1588
100
AcDbEntity
  8
0
100
AcDbSpline
210
0.0
220
0.0
230
1.0
 70
     8
 71
     3
 72
    10
 73
     6
 74
     0
 42
0.000000001
 43
0.0000000001
 40
0.291104319640206
 40
0.291104319640206
 40
0.291104319640206
 40
0.291104319640206
 40
0.2966064816237473
 40
0.2966064816237473
 40
0.3004075596668794
 40
0.3004075596668794
 40
0.3004075596668794
 40
0.3004075596668794
 10
72.00007814309806
 20
6.257114848626635
 30
0.0
 10
72.0000781431027
 20
6.257114849104815
 30
0.0
 10
72.00007579580506
 20
6.256873644101838
 30
0.0
 10
72.00006763551686
 20
6.255963273127134
 30
0.0
 10
72.00006305713827
 20
6.255440740765834
 30
0.0
 10
72.0000575102062
 20
6.254782390836045
 30
0.0
  0
SPLINE
  5
1592
330
1588
100
AcDbEntity
  8
0
100
AcDbSpline
210
0.0
220
0.0
230
1.0
 70
     8
 71
     3
 72
    10
 73
     6
 74
     0
 42
0.000000001
 43
0.0000000001
 40
0.0196292839796504
 40
0.0196292839796504
 40
0.0196292839796504
 40
0.0196292839796504
 40
0.0204673890484952
 40
0.0204673890484952
 40
0.0229093948247399
 40
0.0229093948247399
 40
0.0229093948247399
 40
0.0229093948247399
 10
72.00038517952868
 20
6.276712364383385
 30
0.0
 10
72.0003875620441
 20
6.274618810875423
 30
0.0
 10
72.00038992939504
 20
6.2724706752167
 30
0.0
 10
72.00039885901833
 20
6.263889382302759
 30
0.0
 10
72.00040477668281
 20
6.257068096320738
 30
0.0
 10
72.00040938787592
 20
6.250001905053984
 30
0.0
  0
SPLINE
  5
1593
330
1588
100
AcDbEntity
  8
0
100
AcDbSpline
210
0.0
220
0.0
230
1.0
 70
     8
 71
     3
 72
    12
 73
     8
 74
     0
 42
0.000000001
 43
0.0000000001
 40
0.0304300888665822
 40
0.0304300888665822
 40
0.0304300888665822
 40
0.0304300888665822
 40
0.0313660344144551
 40
0.0313660344144551
 40
0.0377187847382988
 40
0.0377187847382988
 40
0.0393869781067153
 40
0.0393869781067153
 40
0.0393869781067153
 40
0.0393869781067153
 10
72.00075846660222
 20
6.307990538358695
 30
0.0
 10
72.00074147109167
 20
6.306582142327861
 30
0.0
 10
72.00072365756141
 20
6.305103095785842
 30
0.0
 10
72.00057840328779
 20
6.293019411042476
 30
0.0
 10
72.00040604295461
 20
6.278611394803787
 30
0.0
 10
72.00017263077899
 20
6.258563644205722
 30
0.0
 10
72.00012333635605
 20
6.254297043749955
 30
0.0
 10
72.00007426289838
 20
6.249999081012662
 30
0.0
  0
SPLINE
  5
1594
330
1588
100
AcDbEntity
  8
0
100
AcDbSpline
210
0.0
220
0.0
230
1.0
 70
     8
 71
     3
 72
    14
 73
    10
 74
     0
 42
0.000000001
 43
0.0000000001
 40
0.0106693451476124
 40
0.0106693451476124
 40
0.0106693451476124
 40
0.0106693451476124
 40
0.0118058344266285
 40
0.0118058344266285
 40
0.0145496325868157
 40
0.0145496325868157
 40
0.0170452816936087
 40
0.0170452816936087
 40
0.0189087491992472
 40
0.0189087491992472
 40
0.0189087491992472
 40
0.0189087491992472
 10
72.00011172786694
 20
6.28848162045983
 30
0.0
 10
72.00011172786735
 20
6.288481620634409
 30
0.0
 10
72.00011111623695
 20
6.288228262137457
 30
0.0
 10
72.00010721137966
 20
6.286457742599069
 30
0.0
 10
72.00010122233631
 20
6.283566859693666
 30
0.0
 10
72.00008705307732
 20
6.27538141917848
 30
0.0
 10
72.00007902998397
 20
6.270261455334413
 30
0.0
 10
72.00006443379016
 20
6.259994258125591
 30
0.0
 10
72.00005791141304
 20
6.255136463120831
 30
0.0
 10
72.00005121265693
 20
6.250000016489131
 30
0.0
  0
ARC
  5
1595
330
1588
100
AcDbEntity
  8
0
100
AcDbCircle
 10
67.99999999999998
 20
2.0
 30
0.0
 40
4.000000000000003
100
AcDbArc
 50
270.0
 51
0.0
  0
LINE
  5
1596
330
1588
100
AcDbEntity
  8
0
100
AcDbLine
 10
72.00000000000001
 20
3.784501844113563
 30
0.0
 11
72.0
 21
2.0
 31
0.0
  0
LINE
  5
1597
330
1588
100
AcDbEntity
  8
0
100
AcDbLine
 10
69.99999999999999
 20
2.0
 30
0.0
 11
70.00000000000001
 21
3.784501844113563
 31
0.0
  0
ARC
  5
1598
330
1588
100
AcDbEntity
  8
0
100
AcDbCircle
 10
67.99999999999998
 20
2.0
 30
0.0
 40
2.000000000000001
100
AcDbArc
 50
270.0
 51
0.0
  0
CIRCLE
  5
1599
330
1588
100
AcDbEntity
  8
0
100
AcDbCircle
 10
39.0
 20
165.0
 30
0.0
 40
2.5
  0
CIRCLE
  5
159A
330
1588
100
AcDbEntity
  8
0
100
AcDbCircle
 10
50.0
 20
160.0
 30
0.0
 40
6.5
  0
LINE
  5
159B
330
1588
100
AcDbEntity
  8
0
100
AcDbLine
 10
68.0
 20
180.0
 30
0.0
 11
30.50000000000001
 21
180.0
 31
0.0
  0
LINE
  5
159C
330
1588
100
AcDbEntity
  8
0
100
AcDbLine
 10
30.50000000000001
 20
180.0
 30
0.0
 11
30.49999999999993
 21
21.5415395314384
 31
0.0
  0
LINE
  5
159D
330
1588
100
AcDbEntity
  8
0
100
AcDbLine
 10
39.92098293829774
 20
13.63639622258524
 30
0.0
 11
30.49999999999993
 21
21.5415395314384
 31
0.0
  0
LINE
  5
159E
330
1588
100
AcDbEntity
  8
0
100
AcDbLine
 10
67.86824088833457
 20
8.708540609174587
 30
0.0
 11
39.92098293829774
 21
13.63639622258524
 31
0.0
  0
LINE
  5
159F
330
1588
100
AcDbEntity
  8
0
100
AcDbLine
 10
70.0
 20
180.0
 30
0.0
 11
68.0
 21
180.0
 31
0.0
  0
LINE
  5
15A0
330
1588
100
AcDbEntity
  8
0
100
AcDbLine
 10
72.00000000000001
 20
21.5415395314384
 30
0.0
 11
72.00000000000001
 21
180.0
 31
0.0
  0
LINE
  5
15A1
330
1588
100
AcDbEntity
  8
0
100
AcDbLine
 10
72.00000000000001
 20
13.30153953143838
 30
0.0
 11
72.00000000000001
 21
21.5415395314384
 31
0.0
  0
LINE
  5
15A2
330
1588
100
AcDbEntity
  8
0
100
AcDbLine
 10
72.00000000000001
 20
8.70854060917459
 30
0.0
 11
72.00000000000001
 21
13.30153953143838
 31
0.0
  0
LINE
  5
15A3
330
1588
100
AcDbEntity
  8
0
100
AcDbLine
 10
72.00000000000001
 20
8.708540609174605
 30
0.0
 11
72.00000000000001
 21
3.784501844113564
 31
0.0
  0
LINE
  5
15A4
330
1588
100
AcDbEntity
  8
0
100
AcDbLine
 10
70.00000000000001
 20
3.784501844113566
 30
0.0
 11
70.00000000000001
 21
8.708540609174605
 31
0.0
  0
LINE
  5
15A5
330
1588
100
AcDbEntity
  8
0
100
AcDbLine
 10
70.00000000000001
 20
13.30153953143838
 30
0.0
 11
70.00000000000001
 21
8.70854060917459
 31
0.0
  0
LINE
  5
15A6
330
1588
100
AcDbEntity
  8
0
100
AcDbLine
 10
70.00000000000001
 20
21.5415395314384
 30
0.0
 11
70.00000000000001
 21
13.30153953143838
 31
0.0
  0
LINE
  5
15A7
330
1588
100
AcDbEntity
  8
0
100
AcDbLine
 10
70.00000000000001
 20
180.0
 30
0.0
 11
70.00000000000001
 21
21.5415395314384
 31
0.0
  0
LINE
  5
15A8
330
1588
100
AcDbEntity
  8
0
100
AcDbLine
 10
-72.00000000000001
 20
8.708540609174605
 30
0.0
 11
-72.00000000000001
 21
3.784501844113564
 31
0.0
  0
LINE
  5
15A9
330
1588
100
AcDbEntity
  8
0
100
AcDbLine
 10
-72.00000000000001
 20
8.70854060917459
 30
0.0
 11
-72.00000000000001
 21
13.30153953143838
 31
0.0
  0
LINE
  5
15AA
330
1588
100
AcDbEntity
  8
0
100
AcDbLine
 10
-72.00000000000001
 20
13.30153953143838
 30
0.0
 11
-72.00000000000001
 21
21.5415395314384
 31
0.0
  0
LINE
  5
15AB
330
1588
100
AcDbEntity
  8
0
100
AcDbLine
 10
-72.00000000000001
 20
21.5415395314384
 30
0.0
 11
-72.00000000000001
 21
180.0
 31
0.0
  0
LINE
  5
15AC
330
1588
100
AcDbEntity
  8
0
100
AcDbLine
 10
72.00000000000001
 20
13.30153953143838
 30
0.0
 11
70.00000000000001
 21
13.30153953143838
 31
0.0
  0
LINE
  5
15AD
330
1588
100
AcDbEntity
  8
0
100
AcDbLine
 10
72.00000000000001
 20
21.5415395314384
 30
0.0
 11
70.00000000000001
 21
21.5415395314384
 31
0.0
  0
LINE
  5
15AE
330
1588
100
AcDbEntity
  8
0
100
AcDbLine
 10
72.00000000000001
 20
180.0
 30
0.0
 11
70.00000000000001
 21
180.0
 31
0.0
  0
LINE
  5
15AF
330
1588
100
AcDbEntity
  8
0
100
AcDbLine
 10
-70.00000000000001
 20
21.5415395314384
 30
0.0
 11
-70.00000000000001
 21
13.30153953143838
 31
0.0
  0
LINE
  5
15B0
330
1588
100
AcDbEntity
  8
0
100
AcDbLine
 10
-72.00000000000001
 20
21.5415395314384
 30
0.0
 11
-70.00000000000001
 21
21.5415395314384
 31
0.0
  0
LINE
  5
15B1
330
1588
100
AcDbEntity
  8
0
100
AcDbLine
 10
-72.00000000000001
 20
13.30153953143838
 30
0.0
 11
-70.00000000000001
 21
13.30153953143838
 31
0.0
  0
LINE
  5
15B2
330
1588
100
AcDbEntity
  8
0
100
AcDbLine
 10
-70.00000000000001
 20
13.30153953143838
 30
0.0
 11
-70.00000000000001
 21
8.70854060917459
 31
0.0
  0
LINE
  5
15B3
330
1588
100
AcDbEntity
  8
0
100
AcDbLine
 10
-70.00000000000001
 20
3.784501844113566
 30
0.0
 11
-70.00000000000001
 21
8.708540609174605
 31
0.0
  0
LINE
  5
15B4
330
1588
100
AcDbEntity
  8
0
100
AcDbLine
 10
-70.00000000000001
 20
180.0
 30
0.0
 11
-70.00000000000001
 21
21.5415395314384
 31
0.0
  0
LINE
  5
15B5
330
1588
100
AcDbEntity
  8
0
100
AcDbLine
 10
-72.00000000000001
 20
180.0
 30
0.0
 11
-70.00000000000001
 21
180.0
 31
0.0
  0
LINE
  5
15B6
330
1588
100
AcDbEntity
  8
0
100
AcDbLine
 10
-67.99999999999998
 20
0.0
 30
0.0
 11
67.99999999999998
 21
0.0
 31
0.0
  0
LINE
  5
15B7
330
1588
100
AcDbEntity
  8
0
100
AcDbLine
 10
67.99999999999998
 20
-2.000000000000003
 30
0.0
 11
-67.99999999999998
 21
-2.000000000000003
 31
0.0
  0
SPLINE
  5
15B8
330
1588
100
AcDbEntity
  8
0
100
AcDbSpline
210
0.0
220
0.0
230
1.0
 70
     8
 71
     3
 72
    11
 73
     7
 74
     0
 42
0.000000001
 43
0.0000000001
 40
-0.9982511035142358
 40
-0.9982511035142358
 40
-0.9982511035142358
 40
-0.9982511035142358
 40
-0.3432331292066835
 40
-0.3432331292066835
 40
-0.3432331292066835
 40
0.0
 40
0.0
 40
0.0
 40
0.0
 10
-69.99999144603321
 20
6.256370862514049
 30
0.0
 10
-69.99784122607779
 20
7.051531446058914
 30
0.0
 10
-69.5905088066654
 20
7.770231464978501
 30
0.0
 10
-68.9768484680541
 20
8.227898704200571
 30
0.0
 10
-68.6552869742428
 20
8.467718930232745
 30
0.0
 10
-68.27256854679247
 20
8.632806248833079
 30
0.0
 10
-67.86824088801376
 20
8.708540609248252
 30
0.0
  0
LINE
  5
15B9
330
1588
100
AcDbEntity
  8
0
100
AcDbLine
 10
-70.00000000000001
 20
8.70854060900001
 30
0.0
 11
-68.0
 21
8.70854060900001
 31
0.0
  0
SPLINE
  5
15BA
330
1588
100
AcDbEntity
  8
0
100
AcDbSpline
210
0.0
220
0.0
230
1.0
 70
     8
 71
     3
 72
    10
 73
     6
 74
     0
 42
0.000000001
 43
0.0000000001
 40
0.0
 40
0.0
 40
0.0
 40
0.0
 40
0.0028749250975787
 40
0.0028749250975787
 40
0.0032797466777581
 40
0.0032797466777581
 40
0.0032797466777581
 40
0.0032797466777581
 10
-72.00040938757928
 20
6.250002359591796
 30
0.0
 10
-72.00040395885439
 20
6.258321233315805
 30
0.0
 10
-72.00039664809516
 20
6.266308080486712
 30
0.0
 10
-72.00038747848281
 20
6.274681556564976
 30
0.0
 10
-72.00038633446253
 20
6.275703579822823
 30
0.0
 10
-72.00038518634449
 20
6.276712941545557
 30
0.0
  0
SPLINE
  5
15BB
330
1588
100
AcDbEntity
  8
0
100
AcDbSpline
210
0.0
220
0.0
230
1.0
 70
     8
 71
     3
 72
    10
 73
     6
 74
     0
 42
0.000000001
 43
0.0000000001
 40
0.0
 40
0.0
 40
0.0
 40
0.0
 40
0.0046526460271617
 40
0.0046526460271617
 40
0.0089815841071815
 40
0.0089815841071815
 40
0.0089815841071815
 40
0.0089815841071815
 10
-72.00007426239896
 20
6.249999037269505
 30
0.0
 10
-72.00021112987801
 20
6.261986196925832
 30
0.0
 10
-72.00034955249264
 20
6.273729373574234
 30
0.0
 10
-72.00058268607037
 20
6.293368073397925
 30
0.0
 10
-72.00068058891922
 20
6.301537251881232
 30
0.0
 10
-72.00075913325389
 20
6.308046008432508
 30
0.0
  0
SPLINE
  5
15BC
330
1588
100
AcDbEntity
  8
0
100
AcDbSpline
210
0.0
220
0.0
230
1.0
 70
     8
 71
     3
 72
    34
 73
    30
 74
     0
 42
0.000000001
 43
0.0000000001
 40
0.041113473911688
 40
0.041113473911688
 40
0.041113473911688
 40
0.041113473911688
 40
0.0471154920342267
 40
0.0471154920342267
 40
0.0564236762310556
 40
0.0564236762310556
 40
0.0613090666921645
 40
0.0613090666921645
 40
0.0637722603129058
 40
0.0637722603129058
 40
0.064708361463259
 40
0.064708361463259
 40
0.065647559384992
 40
0.065647559384992
 40
0.0665887356744295
 40
0.0665887356744295
 40
0.0684916536770381
 40
0.0684916536770381
 40
0.0722533462849271
 40
0.0722533462849271
 40
0.077820218512623
 40
0.077820218512623
 40
0.0945179888568584
 40
0.0945179888568584
 40
0.1445490377398756
 40
0.1445490377398756
 40
0.2319686108012569
 40
0.2319686108012569
 40
0.3073065118318319
 40
0.3073065118318319
 40
0.3073065118318319
 40
0.3073065118318319
 10
-72.00005768857836
 20
6.254907764353698
 30
0.0
 10
-72.00010061995579
 20
6.258409732138824
 30
0.0
 10
-72.00017280199401
 20
6.264184871117539
 30
0.0
 10
-72.00040120776103
 20
6.281814328621805
 30
0.0
 10
-72.00058004159714
 20
6.295117560188749
 30
0.0
 10
-72.0008970223943
 20
6.318004552247372
 30
0.0
 10
-72.00101420630909
 20
6.326369836434787
 30
0.0
 10
-72.00122609714634
 20
6.341468503327195
 30
0.0
 10
-72.00130436930547
 20
6.347041241916757
 30
0.0
 10
-72.00142994354314
 20
6.356029842295416
 30
0.0
 10
-72.00146665482137
 20
6.358662512260164
 30
0.0
 10
-72.00154401039586
 20
6.364228358030024
 30
0.0
 10
-72.00158516774234
 20
6.367198765487549
 30
0.0
 10
-72.001669374118
 20
6.373304294977727
 30
0.0
 10
-72.00171303006079
 20
6.376483841885809
 30
0.0
 10
-72.00184237584526
 20
6.385956028710618
 30
0.0
 10
-72.00192672613986
 20
6.392203802538627
 30
0.0
 10
-72.0021611764896
 20
6.409781528663471
 30
0.0
 10
-72.00230227695098
 20
6.420649730020797
 30
0.0
 10
-72.00262856736194
 20
6.446512695904487
 30
0.0
 10
-72.00280463476409
 20
6.461159917584511
 30
0.0
 10
-72.00345748655479
 20
6.518494467498532
 30
0.0
 10
-72.00383105329781
 20
6.558840506193828
 30
0.0
 10
-72.00496478447568
 20
6.717003295061591
 30
0.0
 10
-72.0050753544346
 20
6.831786373379364
 30
0.0
 10
-72.00397370177499
 20
7.191005656710732
 30
0.0
 10
-72.00170247564698
 20
7.450720804565506
 30
0.0
 10
-72.00002511235895
 20
7.960389486019728
 30
0.0
 10
-72.00000157209285
 20
8.212715794472213
 30
0.0
 10
-71.9999997881476
 20
8.462934257497131
 30
0.0
  0
SPLINE
  5
15BD
330
1588
100
AcDbEntity
  8
0
100
AcDbSpline
210
0.0
220
0.0
230
1.0
 70
     8
 71
     3
 72
    12
 73
     8
 74
     0
 42
0.000000001
 43
0.0000000001
 40
0.0
 40
0.0
 40
0.0
 40
0.0
 40
0.0034295111182636
 40
0.0034295111182636
 40
0.0063846283169185
 40
0.0063846283169185
 40
0.008222713563771
 40
0.008222713563771
 40
0.008222713563771
 40
0.008222713563771
 10
-72.00005121265499
 20
6.250000015026438
 30
0.0
 10
-72.00006354099375
 20
6.259453091602999
 30
0.0
 10
-72.00007552272326
 20
6.26803376014751
 30
0.0
 10
-72.00009478179362
 20
6.280079601058763
 30
0.0
 10
-72.00010265387686
 20
6.284223040301165
 30
0.0
 10
-72.0001101011711
 20
6.287807661325418
 30
0.0
 10
-72.00011172786897
 20
6.288481621300833
 30
0.0
 10
-72.00011172786694
 20
6.288481620461412
 30
0.0
  0
SPLINE
  5
15BE
330
1588
100
AcDbEntity
  8
0
100
AcDbSpline
210
0.0
220
0.0
230
1.0
 70
     8
 71
     3
 72
    16
 73
    12
 74
     0
 42
0.000000001
 43
0.0000000001
 40
0.0077405988017166
 40
0.0077405988017166
 40
0.0077405988017166
 40
0.0077405988017166
 40
0.008062101900002
 40
0.008062101900002
 40
0.0098231304083767
 40
0.0098231304083767
 40
0.0114094775368474
 40
0.0114094775368474
 40
0.013263989835262
 40
0.013263989835262
 40
0.014792134333304
 40
0.014792134333304
 40
0.014792134333304
 40
0.014792134333304
 10
-69.99990323290139
 20
6.287232688385261
 30
0.0
 10
-69.9999032329015
 20
6.287232688362569
 30
0.0
 10
-69.99990340314282
 20
6.287200174489592
 30
0.0
 10
-69.99990555057866
 20
6.286774142571733
 30
0.0
 10
-69.99991264329276
 20
6.28535188365965
 30
0.0
 10
-69.9999284889893
 20
6.280855465779443
 30
0.0
 10
-69.99993683040385
 20
6.277935191171435
 30
0.0
 10
-69.99994970367696
 20
6.270662036313392
 30
0.0
 10
-69.99995336206968
 20
6.266133311985349
 30
0.0
 10
-69.99995195683078
 20
6.257734481819685
 30
0.0
 10
-69.99994846647613
 20
6.253848107745022
 30
0.0
 10
-69.9999426139058
 20
6.249997930160135
 30
0.0
  0
SPLINE
  5
15BF
330
1588
100
AcDbEntity
  8
0
100
AcDbSpline
210
0.0
220
0.0
230
1.0
 70
     8
 71
     3
 72
     8
 73
     4
 74
     0
 42
0.000000001
 43
0.0000000001
 40
0.004239900641569
 40
0.004239900641569
 40
0.004239900641569
 40
0.004239900641569
 40
0.004566155334151
 40
0.004566155334151
 40
0.004566155334151
 40
0.004566155334151
 10
-70.00000000010229
 20
6.251128882742453
 30
0.0
 10
-69.99999838325336
 20
6.250743583241421
 30
0.0
 10
-69.9999967753698
 20
6.250367042955899
 30
0.0
 10
-69.99999518314027
 20
6.250000017088977
 30
0.0
  0
SPLINE
  5
15C0
330
1588
100
AcDbEntity
  8
0
100
AcDbSpline
210
0.0
220
0.0
230
1.0
 70
     8
 71
     3
 72
     8
 73
     4
 74
     0
 42
0.000000001
 43
0.0000000001
 40
0.0
 40
0.0
 40
0.0
 40
0.0
 40
0.0034982652077137
 40
0.0034982652077137
 40
0.0034982652077137
 40
0.0034982652077137
 10
-67.86822026179807
 20
8.70842341314138
 30
0.0
 10
-67.87907570577214
 20
8.706518992314684
 30
0.0
 10
-67.89008016113678
 20
8.704583948374244
 30
0.0
 10
-67.90071190130436
 20
8.702701479205076
 30
0.0
  0
LINE
  5
15C1
330
1588
100
AcDbEntity
  8
0
100
AcDbLine
 10
-72.00000000000001
 20
3.784501844113563
 30
0.0
 11
-72.0
 21
2.0
 31
0.0
  0
LINE
  5
15C2
330
1588
100
AcDbEntity
  8
0
100
AcDbLine
 10
-30.50000000000001
 20
180.0
 30
0.0
 11
-30.49999999999993
 21
21.5415395314384
 31
0.0
  0
LINE
  5
15C3
330
1588
100
AcDbEntity
  8
0
100
AcDbLine
 10
-68.0
 20
180.0
 30
0.0
 11
-30.50000000000001
 21
180.0
 31
0.0
  0
LINE
  5
15C4
330
1588
100
AcDbEntity
  8
0
100
AcDbLine
 10
-69.99999999999999
 20
2.0
 30
0.0
 11
-70.00000000000001
 21
3.784501844113563
 31
0.0
  0
ARC
  5
15C5
330
1588
100
AcDbEntity
  8
0
100
AcDbCircle
 10
-67.99999999999998
 20
2.0
 30
0.0
 40
4.000000000000003
100
AcDbArc
 50
180.0
 51
270.0
  0
ARC
  5
15C6
330
1588
100
AcDbEntity
  8
0
100
AcDbCircle
 10
-67.99999999999998
 20
2.0
 30
0.0
 40
2.000000000000001
100
AcDbArc
 50
180.0
 51
270.0
  0
CIRCLE
  5
15C7
330
1588
100
AcDbEntity
  8
0
100
AcDbCircle
 10
39.0
 20
145.0
 30
0.0
 40
2.5
  0
CIRCLE
  5
15C8
330
1588
100
AcDbEntity
  8
0
100
AcDbCircle
 10
39.0
 20
125.0
 30
0.0
 40
2.5
  0
CIRCLE
  5
15C9
330
1588
100
AcDbEntity
  8
0
100
AcDbCircle
 10
39.0
 20
105.0
 30
0.0
 40
2.5
  0
CIRCLE
  5
15CA
330
1588
100
AcDbEntity
  8
0
100
AcDbCircle
 10
39.0
 20
85.0
 30
0.0
 40
2.5
  0
CIRCLE
  5
15CB
330
1588
100
AcDbEntity
  8
0
100
AcDbCircle
 10
39.0
 20
65.0
 30
0.0
 40
2.5
  0
CIRCLE
  5
15CC
330
1588
100
AcDbEntity
  8
0
100
AcDbCircle
 10
39.0
 20
45.0
 30
0.0
 40
2.5
  0
CIRCLE
  5
15CD
330
1588
100
AcDbEntity
  8
0
100
AcDbCircle
 10
39.0
 20
25.0
 30
0.0
 40
2.5
  0
CIRCLE
  5
15CE
330
1588
100
AcDbEntity
  8
0
100
AcDbCircle
 10
-39.0
 20
145.0
 30
0.0
 40
2.5
  0
CIRCLE
  5
15CF
330
1588
100
AcDbEntity
  8
0
100
AcDbCircle
 10
-39.0
 20
125.0
 30
0.0
 40
2.5
  0
CIRCLE
  5
15D0
330
1588
100
AcDbEntity
  8
0
100
AcDbCircle
 10
-39.0
 20
105.0
 30
0.0
 40
2.5
  0
CIRCLE
  5
15D1
330
1588
100
AcDbEntity
  8
0
100
AcDbCircle
 10
-39.0
 20
85.0
 30
0.0
 40
2.5
  0
CIRCLE
  5
15D2
330
1588
100
AcDbEntity
  8
0
100
AcDbCircle
 10
-39.0
 20
65.0
 30
0.0
 40
2.5
  0
CIRCLE
  5
15D3
330
1588
100
AcDbEntity
  8
0
100
AcDbCircle
 10
-39.0
 20
45.0
 30
0.0
 40
2.5
  0
CIRCLE
  5
15D4
330
1588
100
AcDbEntity
  8
0
100
AcDbCircle
 10
-39.0
 20
25.0
 30
0.0
 40
2.5
  0
CIRCLE
  5
15D5
330
1588
100
AcDbEntity
  8
0
100
AcDbCircle
 10
61.00000000000001
 20
175.0
 30
0.0
 40
2.5
  0
CIRCLE
  5
15D6
330
1588
100
AcDbEntity
  8
0
100
AcDbCircle
 10
-61.00000000000001
 20
175.0
 30
0.0
 40
2.5
  0
CIRCLE
  5
15D7
330
1588
100
AcDbEntity
  8
0
100
AcDbCircle
 10
61.00000000000001
 20
155.0
 30
0.0
 40
2.5
  0
CIRCLE
  5
15D8
330
1588
100
AcDbEntity
  8
0
100
AcDbCircle
 10
61.00000000000001
 20
135.0
 30
0.0
 40
2.5
  0
CIRCLE
  5
15D9
330
1588
100
AcDbEntity
  8
0
100
AcDbCircle
 10
61.00000000000001
 20
115.0
 30
0.0
 40
2.5
  0
CIRCLE
  5
15DA
330
1588
100
AcDbEntity
  8
0
100
AcDbCircle
 10
61.00000000000001
 20
95.0
 30
0.0
 40
2.5
  0
CIRCLE
  5
15DB
330
1588
100
AcDbEntity
  8
0
100
AcDbCircle
 10
61.00000000000001
 20
75.0
 30
0.0
 40
2.5
  0
CIRCLE
  5
15DC
330
1588
100
AcDbEntity
  8
0
100
AcDbCircle
 10
61.00000000000001
 20
55.0
 30
0.0
 40
2.5
  0
CIRCLE
  5
15DD
330
1588
100
AcDbEntity
  8
0
100
AcDbCircle
 10
61.00000000000001
 20
35.0
 30
0.0
 40
2.5
  0
CIRCLE
  5
15DE
330
1588
100
AcDbEntity
  8
0
100
AcDbCircle
 10
-61.00000000000001
 20
155.0
 30
0.0
 40
2.5
  0
CIRCLE
  5
15DF
330
1588
100
AcDbEntity
  8
0
100
AcDbCircle
 10
-61.00000000000001
 20
135.0
 30
0.0
 40
2.5
  0
CIRCLE
  5
15E0
330
1588
100
AcDbEntity
  8
0
100
AcDbCircle
 10
-61.00000000000001
 20
115.0
 30
0.0
 40
2.5
  0
CIRCLE
  5
15E1
330
1588
100
AcDbEntity
  8
0
100
AcDbCircle
 10
-61.00000000000001
 20
95.0
 30
0.0
 40
2.5
  0
CIRCLE
  5
15E2
330
1588
100
AcDbEntity
  8
0
100
AcDbCircle
 10
-61.00000000000001
 20
75.0
 30
0.0
 40
2.5
  0
CIRCLE
  5
15E3
330
1588
100
AcDbEntity
  8
0
100
AcDbCircle
 10
-61.00000000000001
 20
55.0
 30
0.0
 40
2.5
  0
CIRCLE
  5
15E4
330
1588
100
AcDbEntity
  8
0
100
AcDbCircle
 10
-61.00000000000001
 20
35.0
 30
0.0
 40
2.5
  0
CIRCLE
  5
15E5
330
1588
100
AcDbEntity
  8
0
100
AcDbCircle
 10
50.0
 20
100.0
 30
0.0
 40
6.5
  0
CIRCLE
  5
15E6
330
1588
100
AcDbEntity
  8
0
100
AcDbCircle
 10
-50.0
 20
100.0
 30
0.0
 40
6.5
  0
CIRCLE
  5
15E7
330
1588
100
AcDbEntity
  8
0
100
AcDbCircle
 10
50.0
 20
30.0
 30
0.0
 40
6.5
  0
CIRCLE
  5
15E8
330
1588
100
AcDbEntity
  8
0
100
AcDbCircle
 10
-50.0
 20
30.0
 30
0.0
 40
6.5
  0
LINE
  5
15E9
330
1588
100
AcDbEntity
  8
0
100
AcDbLine
 10
-70.0
 20
180.0
 30
0.0
 11
-68.0
 21
180.0
 31
0.0
  0
CIRCLE
  5
15EA
330
1588
100
AcDbEntity
  8
0
100
AcDbCircle
 10
-39.0
 20
165.0
 30
0.0
 40
2.5
  0
CIRCLE
  5
15EB
330
1588
100
AcDbEntity
  8
0
100
AcDbCircle
 10
-50.0
 20
160.0
 30
0.0
 40
6.5
  0
LINE
  5
15EC
330
1588
100
AcDbEntity
  8
0
100
AcDbLine
 10
-67.86824088833457
 20
8.708540609174587
 30
0.0
 11
-39.92098293829774
 21
13.63639622258524
 31
0.0
  0
LINE
  5
15ED
330
1588
100
AcDbEntity
  8
0
100
AcDbLine
 10
-39.92098293829774
 20
13.63639622258524
 30
0.0
 11
-30.49999999999993
 21
21.5415395314384
 31
0.0
  0
ENDBLK
  5
158A
330
1588
100
AcDbEntity
  8
0
100
AcDbBlockEnd
  0
BLOCK
  5
15EF
330
15EE
100
AcDbEntity
  8
0
100
AcDbBlockBegin
  2
BSIN140_180-Left
 70
     0
 10
0.0
 20
0.0
 30
0.0
  3
BSIN140_180-Left
  1

  0
LINE
  5
15F1
330
15EE
100
AcDbEntity
  8
0
100
AcDbLine
 10
1.274245907847662
 20
8.70854060900001
 30
0.0
 11
0.0
 21
8.70854060900001
 31
0.0
  0
SPLINE
  5
15F2
330
15EE
100
AcDbEntity
  8
0
100
AcDbSpline
210
0.0
220
0.0
230
1.0
 70
     8
 71
     3
 72
    17
 73
    13
 74
     0
 42
0.000000001
 43
0.0000000001
 40
0.0
 40
0.0
 40
0.0
 40
0.0
 40
0.3890554103313035
 40
0.3890554103313035
 40
0.3890554103313035
 40
0.7592105936287867
 40
0.7592105936287867
 40
0.7592105936287867
 40
0.9879274055524811
 40
0.9879274055524811
 40
0.9879274055524811
 40
1.0
 40
1.0
 40
1.0
 40
1.0
 10
-0.0000000000000005
 20
8.708540609174589
 30
0.0
 10
0.0000030769472113
 20
8.584326987289303
 30
0.0
 10
0.3043447791347243
 20
8.51542185204169
 30
0.0
 10
0.6732972958225615
 20
8.349985391293412
 30
0.0
 10
1.02432617966807
 20
8.192585797749094
 30
0.0
 10
1.433516149756754
 20
7.953146272187736
 30
0.0
 10
1.707499047078686
 20
7.480744300576436
 30
0.0
 10
1.87679154283371
 20
7.188849771555156
 30
0.0
 10
1.988375059880237
 20
6.825073548258071
 30
0.0
 10
1.999032141863432
 20
6.329853670552547
 30
0.0
 10
1.99959466556991
 20
6.303713971001806
 30
0.0
 10
1.999894470639713
 20
6.277137095762355
 30
0.0
 10
1.999999999999928
 20
6.250000000037204
 30
0.0
  0
LINE
  5
15F3
330
15EE
100
AcDbEntity
  8
0
100
AcDbLine
 10
4.0
 20
8.70854060900001
 30
0.0
 11
1.27424590784769
 21
8.70854060900001
 31
0.0
  0
SPLINE
  5
15F4
330
15EE
100
AcDbEntity
  8
0
100
AcDbSpline
210
0.0
220
0.0
230
1.0
 70
     8
 71
     3
 72
     8
 73
     4
 74
     0
 42
0.000000001
 43
0.0000000001
 40
0.0
 40
0.0
 40
0.0
 40
0.0
 40
0.0192137226535986
 40
0.0192137226535986
 40
0.0192137226535986
 40
0.0192137226535986
 10
1.999962374454586
 20
6.249999741533994
 30
0.0
 10
1.999937857865052
 20
6.25340581206502
 30
0.0
 10
1.999918987017728
 20
6.254762460493838
 30
0.0
 10
1.999918987001511
 20
6.254762461769272
 30
0.0
  0
SPLINE
  5
15F5
330
15EE
100
AcDbEntity
  8
0
100
AcDbSpline
210
0.0
220
0.0
230
1.0
 70
     8
 71
     3
 72
    28
 73
    24
 74
     0
 42
0.000000001
 43
0.0000000001
 40
0.0008045312234606
 40
0.0008045312234606
 40
0.0008045312234606
 40
0.0008045312234606
 40
0.00134068781429
 40
0.00134068781429
 40
0.0025664465557014
 40
0.0025664465557014
 40
0.0044529875273209
 40
0.0044529875273209
 40
0.0060858042291474
 40
0.0060858042291474
 40
0.0086627034742179
 40
0.0086627034742179
 40
0.0131598021712453
 40
0.0131598021712453
 40
0.022285247585204
 40
0.022285247585204
 40
0.0404846117499779
 40
0.0404846117499779
 40
0.0852585237382354
 40
0.0852585237382354
 40
0.1277419904045157
 40
0.1277419904045157
 40
0.1330985099512171
 40
0.1330985099512171
 40
0.1330985099512171
 40
0.1330985099512171
 10
1.999938452458262
 20
6.252908850254048
 30
0.0
 10
1.999923187780396
 20
6.253641689265111
 30
0.0
 10
1.999906569361391
 20
6.254429896833492
 30
0.0
 10
1.999846859221028
 20
6.257221065692678
 30
0.0
 10
1.999796780307025
 20
6.259502194149293
 30
0.0
 10
1.999641895758592
 20
6.266230913286826
 30
0.0
 10
1.99951801007642
 20
6.271336637070346
 30
0.0
 10
1.999245089103499
 20
6.281631671076226
 30
0.0
 10
1.999100569900033
 20
6.28676324565953
 30
0.0
 10
1.998696327710619
 20
6.300175714268453
 30
0.0
 10
1.998414428121762
 20
6.308698130517267
 30
0.0
 10
1.997564292598781
 20
6.332110063774795
 30
0.0
 10
1.996933730569297
 20
6.347183766840794
 30
0.0
 10
1.994776060210249
 20
6.392498135269041
 30
0.0
 10
1.992980001396849
 20
6.422718411043658
 30
0.0
 10
1.98660545132425
 20
6.511727744135735
 30
0.0
 10
1.981011827199541
 20
6.56970474474416
 30
0.0
 10
1.956544822152282
 20
6.767756282344945
 30
0.0
 10
1.930107012188455
 20
6.9054979929553
 30
0.0
 10
1.854153354135089
 20
7.168565294292651
 30
0.0
 10
1.805146974858089
 20
7.295091578839193
 30
0.0
 10
1.735784695844029
 20
7.428623598744433
 30
0.0
 10
1.727799700286256
 20
7.443476699303539
 30
0.0
 10
1.719650268089901
 20
7.458163228334255
 30
0.0
  0
SPLINE
  5
15F6
330
15EE
100
AcDbEntity
  8
0
100
AcDbSpline
210
0.0
220
0.0
230
1.0
 70
     8
 71
     3
 72
     8
 73
     4
 74
     0
 42
0.000000001
 43
0.0000000001
 40
0.0008031780731782
 40
0.0008031780731782
 40
0.0008031780731782
 40
0.0008031780731782
 40
0.0020587592809143
 40
0.0020587592809143
 40
0.0020587592809143
 40
0.0020587592809143
 10
1.999944570966341
 20
6.252260317445182
 30
0.0
 10
1.999927776584135
 20
6.253247659113486
 30
0.0
 10
1.99991585903459
 20
6.253924123314281
 30
0.0
 10
1.999909004416806
 20
6.254312041656744
 30
0.0
  0
SPLINE
  5
15F7
330
15EE
100
AcDbEntity
  8
0
100
AcDbSpline
210
0.0
220
0.0
230
1.0
 70
     8
 71
     3
 72
     8
 73
     4
 74
     0
 42
0.000000001
 43
0.0000000001
 40
0.0
 40
0.0
 40
0.0
 40
0.0
 40
0.0019044594648918
 40
0.0019044594648918
 40
0.0019044594648918
 40
0.0019044594648918
 10
1.999652084029222
 20
6.249999438356629
 30
0.0
 10
1.999640928425984
 20
6.256086537289412
 30
0.0
 10
1.99962226051492
 20
6.262117367789658
 30
0.0
 10
1.999597698488605
 20
6.267944044202584
 30
0.0
  0
LINE
  5
15F8
330
15EE
100
AcDbEntity
  8
0
100
AcDbLine
 10
86.00000000000001
 20
3.784501844113563
 30
0.0
 11
85.99999999999997
 21
2.0
 31
0.0
  0
LINE
  5
15F9
330
15EE
100
AcDbEntity
  8
0
100
AcDbLine
 10
4.000000000000003
 20
180.0
 30
0.0
 11
45.99999999999997
 21
180.0
 31
0.0
  0
ARC
  5
15FA
330
15EE
100
AcDbEntity
  8
0
100
AcDbCircle
 10
81.00000000000001
 20
3.784501844113563
 30
0.0
 40
5.0
100
AcDbArc
 50
0.0
 51
80.00000000000005
  0
LINE
  5
15FB
330
15EE
100
AcDbEntity
  8
0
100
AcDbLine
 10
81.86824088833466
 20
8.70854060917459
 30
0.0
 11
55.82004960297631
 21
13.30153953143838
 31
0.0
  0
LINE
  5
15FC
330
15EE
100
AcDbEntity
  8
0
100
AcDbLine
 10
55.82004960297631
 20
13.30153953143838
 30
0.0
 11
46.0
 21
21.5415395314384
 31
0.0
  0
LINE
  5
15FD
330
15EE
100
AcDbEntity
  8
0
100
AcDbLine
 10
46.0
 20
21.5415395314384
 30
0.0
 11
45.99999999999997
 21
180.0
 31
0.0
  0
LINE
  5
15FE
330
15EE
100
AcDbEntity
  8
0
100
AcDbLine
 10
2.000000000000073
 20
2.0
 30
0.0
 11
2.000000000000073
 21
6.250000000000012
 31
0.0
  0
LINE
  5
15FF
330
15EE
100
AcDbEntity
  8
0
100
AcDbLine
 10
2.000000000000073
 20
2.0
 30
0.0
 11
2.000000000000069
 21
-1.99999999999999
 31
0.0
  0
CIRCLE
  5
1600
330
15EE
100
AcDbEntity
  8
0
100
AcDbCircle
 10
38.49999999999998
 20
175.0
 30
0.0
 40
2.5
  0
CIRCLE
  5
1601
330
15EE
100
AcDbEntity
  8
0
100
AcDbCircle
 10
38.49999999999998
 20
155.0
 30
0.0
 40
2.5
  0
CIRCLE
  5
1602
330
15EE
100
AcDbEntity
  8
0
100
AcDbCircle
 10
38.49999999999998
 20
135.0
 30
0.0
 40
2.5
  0
CIRCLE
  5
1603
330
15EE
100
AcDbEntity
  8
0
100
AcDbCircle
 10
38.49999999999998
 20
115.0
 30
0.0
 40
2.5
  0
CIRCLE
  5
1604
330
15EE
100
AcDbEntity
  8
0
100
AcDbCircle
 10
38.49999999999998
 20
95.0
 30
0.0
 40
2.5
  0
CIRCLE
  5
1605
330
15EE
100
AcDbEntity
  8
0
100
AcDbCircle
 10
38.49999999999998
 20
75.0
 30
0.0
 40
2.5
  0
CIRCLE
  5
1606
330
15EE
100
AcDbEntity
  8
0
100
AcDbCircle
 10
38.49999999999998
 20
55.0
 30
0.0
 40
2.5
  0
CIRCLE
  5
1607
330
15EE
100
AcDbEntity
  8
0
100
AcDbCircle
 10
38.49999999999998
 20
35.0
 30
0.0
 40
2.5
  0
LINE
  5
1608
330
15EE
100
AcDbEntity
  8
0
100
AcDbLine
 10
2.000000000000004
 20
-2.0
 30
0.0
 11
85.99999999999997
 21
-2.000000000000003
 31
0.0
  0
LINE
  5
1609
330
15EE
100
AcDbEntity
  8
0
100
AcDbLine
 10
85.99999999999997
 20
-2.000000000000003
 30
0.0
 11
85.99999999999997
 21
2.0
 31
0.0
  0
LINE
  5
160A
330
15EE
100
AcDbEntity
  8
0
100
AcDbLine
 10
0.0
 20
180.0
 30
0.0
 11
0.0
 21
8.70854060900001
 31
0.0
  0
LINE
  5
160B
330
15EE
100
AcDbEntity
  8
0
100
AcDbLine
 10
4.000000000000004
 20
180.0
 30
0.0
 11
0.0
 21
180.0
 31
0.0
  0
SPLINE
  5
160C
330
15EE
100
AcDbEntity
  8
0
100
AcDbSpline
210
0.0
220
0.0
230
1.0
 70
     8
 71
     3
 72
     8
 73
     4
 74
     0
 42
0.000000001
 43
0.0000000001
 40
0.0
 40
0.0
 40
0.0
 40
0.0
 40
0.0019044594649
 40
0.0019044594649
 40
0.0019044594649
 40
0.0019044594649
 10
1.999652084029222
 20
6.249999438356628
 30
0.0
 10
1.999640928425984
 20
6.256086537289439
 30
0.0
 10
1.99962226051492
 20
6.262117367789693
 30
0.0
 10
1.999597698488605
 20
6.267944044202643
 30
0.0
  0
SPLINE
  5
160D
330
15EE
100
AcDbEntity
  8
0
100
AcDbSpline
210
0.0
220
0.0
230
1.0
 70
     8
 71
     3
 72
    24
 73
    20
 74
     0
 42
0.000000001
 43
0.0000000001
 40
0.0033813182798863
 40
0.0033813182798863
 40
0.0033813182798863
 40
0.0033813182798863
 40
0.004452987527227
 40
0.004452987527227
 40
0.0060858042290503
 40
0.0060858042290503
 40
0.008662703473983
 40
0.008662703473983
 40
0.0131598021708952
 40
0.0131598021708952
 40
0.0222852475850623
 40
0.0222852475850623
 40
0.0404846117479736
 40
0.0404846117479736
 40
0.0852585237385866
 40
0.0852585237385866
 40
0.1277419904027744
 40
0.1277419904027744
 40
0.1330985099511188
 40
0.1330985099511188
 40
0.1330985099511188
 40
0.1330985099511188
 10
1.99959794233259
 20
6.267962827065094
 30
0.0
 10
1.99953079159547
 20
6.270715909864393
 30
0.0
 10
1.999454817981587
 20
6.273720348216656
 30
0.0
 10
1.999245089103484
 20
6.28163167107679
 30
0.0
 10
1.999100569900025
 20
6.286763245659803
 30
0.0
 10
1.998696327710624
 20
6.300175714268275
 30
0.0
 10
1.998414428121783
 20
6.30869813051663
 30
0.0
 10
1.997564292598838
 20
6.332110063773308
 30
0.0
 10
1.996933730569378
 20
6.347183766838925
 30
0.0
 10
1.99477606021034
 20
6.392498135267511
 30
0.0
 10
1.992980001396901
 20
6.422718411042906
 30
0.0
 10
1.9866054513247
 20
6.511727744129466
 30
0.0
 10
1.981011827200703
 20
6.569704744732115
 30
0.0
 10
1.956544822154288
 20
6.767756282335197
 30
0.0
 10
1.930107012189498
 20
6.905497992952699
 30
0.0
 10
1.854153354135393
 20
7.168565294290631
 30
0.0
 10
1.805146974861181
 20
7.295091578830852
 30
0.0
 10
1.735784695848785
 20
7.42862359873558
 30
0.0
 10
1.727799700288614
 20
7.443476699299291
 30
0.0
 10
1.71965026808976
 20
7.458163228334509
 30
0.0
  0
ENDBLK
  5
15F0
330
15EE
100
AcDbEntity
  8
0
100
AcDbBlockEnd
  0
BLOCK
  5
160F
330
160E
100
AcDbEntity
  8
0
100
AcDbBlockBegin
  2
BSIN140_180-Right
 70
     0
 10
0.0
 20
0.0
 30
0.0
  3
BSIN140_180-Right
  1

  0
SPLINE
  5
1611
330
160E
100
AcDbEntity
  8
0
100
AcDbSpline
210
0.0
220
0.0
230
1.0
 70
     8
 71
     3
 72
    17
 73
    13
 74
     0
 42
0.000000001
 43
0.0000000001
 40
-1.0
 40
-1.0
 40
-1.0
 40
-1.0
 40
-0.7335831184570432
 40
-0.7335831184570432
 40
-0.7335831184570432
 40
-0.3481558271113165
 40
-0.3481558271113165
 40
-0.3481558271113165
 40
-0.0800996407927531
 40
-0.0800996407927531
 40
-0.0800996407927531
 40
0.0
 40
0.0
 40
0.0
 40
0.0
 10
-2.000000000000055
 20
6.250000000000018
 30
0.0
 10
-2.000063353443429
 20
6.832726918252653
 30
0.0
 10
-1.857734632822416
 20
7.260601763062453
 30
0.0
 10
-1.648834672847962
 20
7.572666497665085
 30
0.0
 10
-1.346617541302555
 20
8.024132878796127
 30
0.0
 10
-0.9079860819973367
 20
8.25238868052544
 30
0.0
 10
-0.558418612679264
 20
8.400230492177442
 30
0.0
 10
-0.3153021422309318
 20
8.50305121374984
 30
0.0
 10
-0.1134268209714205
 20
8.56674476181697
 30
0.0
 10
-0.0353220758933025
 20
8.639510698088653
 30
0.0
 10
-0.0119830807710938
 20
8.661254368463726
 30
0.0
 10
-0.0055451126679754
 20
8.685007430493872
 30
0.0
 10
0.0000000000007155
 20
8.708540609177635
 30
0.0
  0
LINE
  5
1612
330
160E
100
AcDbEntity
  8
0
100
AcDbLine
 10
-1.227581508975565
 20
8.70854060900001
 30
0.0
 11
-3.999999999999999
 21
8.70854060900001
 31
0.0
  0
LINE
  5
1613
330
160E
100
AcDbEntity
  8
0
100
AcDbLine
 10
0.0
 20
8.70854060900001
 30
0.0
 11
-1.227581508975567
 21
8.70854060900001
 31
0.0
  0
SPLINE
  5
1614
330
160E
100
AcDbEntity
  8
0
100
AcDbSpline
210
0.0
220
0.0
230
1.0
 70
     8
 71
     3
 72
     8
 73
     4
 74
     0
 42
0.000000001
 43
0.0000000001
 40
0.0224148607595162
 40
0.0224148607595162
 40
0.0224148607595162
 40
0.0224148607595162
 40
0.0243268551446406
 40
0.0243268551446406
 40
0.0243268551446406
 40
0.0243268551446406
 10
-1.999598281974998
 20
6.267947901660111
 30
0.0
 10
-1.999622776687928
 20
6.262137193527084
 30
0.0
 10
-1.999640884289271
 20
6.256110620660974
 30
0.0
 10
-1.999652084029222
 20
6.249999438356633
 30
0.0
  0
SPLINE
  5
1615
330
160E
100
AcDbEntity
  8
0
100
AcDbSpline
210
0.0
220
0.0
230
1.0
 70
     8
 71
     3
 72
    10
 73
     6
 74
     0
 42
0.000000001
 43
0.0000000001
 40
0.0398856818889974
 40
0.0398856818889974
 40
0.0398856818889974
 40
0.0398856818889974
 40
0.0483857101768578
 40
0.0483857101768578
 40
0.0591026715144543
 40
0.0591026715144543
 40
0.0591026715144543
 40
0.0591026715144543
 10
-1.999918987001511
 20
6.254762461769263
 30
0.0
 10
-1.999918987014382
 20
6.254762460757035
 30
0.0
 10
-1.999922238316813
 20
6.254512736396145
 30
0.0
 10
-1.999936286734433
 20
6.253175024644096
 30
0.0
 10
-1.999948699679172
 20
6.251899567343565
 30
0.0
 10
-1.999962374454586
 20
6.249999741533997
 30
0.0
  0
SPLINE
  5
1616
330
160E
100
AcDbEntity
  8
0
100
AcDbSpline
210
0.0
220
0.0
230
1.0
 70
     8
 71
     3
 72
    24
 73
    20
 74
     0
 42
0.000000001
 43
0.0000000001
 40
0.1910835803003836
 40
0.1910835803003836
 40
0.1910835803003836
 40
0.1910835803003836
 40
0.2118346378401287
 40
0.2118346378401287
 40
0.2697196097935171
 40
0.2697196097935171
 40
0.3019463419188404
 40
0.3019463419188404
 40
0.3115028901233228
 40
0.3115028901233228
 40
0.3167957386985734
 40
0.3167957386985734
 40
0.3198984099287068
 40
0.3198984099287068
 40
0.3213320768807916
 40
0.3213320768807916
 40
0.3229642075202826
 40
0.3229642075202826
 40
0.3233088737040645
 40
0.3233088737040645
 40
0.3233088737040645
 40
0.3233088737040645
 10
-1.719637720583533
 20
7.458169342953382
 30
0.0
 10
-1.751202132686562
 20
7.401285422267978
 30
0.0
 10
-1.780027539682858
 20
7.342091519248832
 30
0.0
 10
-1.877215078076225
 20
7.113832904746439
 30
0.0
 10
-1.924788484838891
 20
6.936720216889206
 30
0.0
 10
-1.971754340058942
 20
6.65766114430072
 30
0.0
 10
-1.983433862584107
 20
6.556425372166064
 30
0.0
 10
-1.993145650373462
 20
6.420280622892797
 30
0.0
 10
-1.995002636701074
 20
6.388579645395186
 30
0.0
 10
-1.997288088448648
 20
6.339156057653688
 30
0.0
 10
-1.997991713639684
 20
6.321294507052997
 30
0.0
 10
-1.99889900954618
 20
6.29385212129045
 30
0.0
 10
-1.999196055643126
 20
6.283628532058187
 30
0.0
 10
-1.999533238077292
 20
6.270665358576614
 30
0.0
 10
-1.999626234179125
 20
6.26685216942329
 30
0.0
 10
-1.999788741497051
 20
6.259895745902811
 30
0.0
 10
-1.999855303634178
 20
6.256846125998084
 30
0.0
 10
-1.99991829839398
 20
6.25387214292873
 30
0.0
 10
-1.999928653341922
 20
6.253379015002941
 30
0.0
 10
-1.999938459314814
 20
6.252908241918831
 30
0.0
  0
LINE
  5
1617
330
160E
100
AcDbEntity
  8
0
100
AcDbLine
 10
-85.99999999999997
 20
-2.000000000000003
 30
0.0
 11
-85.99999999999997
 21
2.0
 31
0.0
  0
LINE
  5
1618
330
160E
100
AcDbEntity
  8
0
100
AcDbLine
 10
-2.000000000000004
 20
-2.0
 30
0.0
 11
-85.99999999999997
 21
-2.000000000000003
 31
0.0
  0
CIRCLE
  5
1619
330
160E
100
AcDbEntity
  8
0
100
AcDbCircle
 10
-38.5
 20
165.0
 30
0.0
 40
2.5
  0
LINE
  5
161A
330
160E
100
AcDbEntity
  8
0
100
AcDbLine
 10
-4.000000000000003
 20
180.0
 30
0.0
 11
-45.99999999999997
 21
180.0
 31
0.0
  0
LINE
  5
161B
330
160E
100
AcDbEntity
  8
0
100
AcDbLine
 10
-86.00000000000001
 20
3.784501844113563
 30
0.0
 11
-85.99999999999997
 21
2.0
 31
0.0
  0
LINE
  5
161C
330
160E
100
AcDbEntity
  8
0
100
AcDbLine
 10
0.0
 20
180.0
 30
0.0
 11
0.0
 21
8.70854060900001
 31
0.0
  0
LINE
  5
161D
330
160E
100
AcDbEntity
  8
0
100
AcDbLine
 10
-4.000000000000004
 20
180.0
 30
0.0
 11
0.0
 21
180.0
 31
0.0
  0
LINE
  5
161E
330
160E
100
AcDbEntity
  8
0
100
AcDbLine
 10
-1.99999999999993
 20
-1.999999999999999
 30
0.0
 11
-1.999999999999926
 21
2.0
 31
0.0
  0
LINE
  5
161F
330
160E
100
AcDbEntity
  8
0
100
AcDbLine
 10
-1.999999999999927
 20
6.250000000000012
 30
0.0
 11
-1.999999999999927
 21
2.0
 31
0.0
  0
CIRCLE
  5
1620
330
160E
100
AcDbEntity
  8
0
100
AcDbCircle
 10
-38.5
 20
25.0
 30
0.0
 40
2.5
  0
CIRCLE
  5
1621
330
160E
100
AcDbEntity
  8
0
100
AcDbCircle
 10
-38.5
 20
45.0
 30
0.0
 40
2.5
  0
CIRCLE
  5
1622
330
160E
100
AcDbEntity
  8
0
100
AcDbCircle
 10
-38.5
 20
65.0
 30
0.0
 40
2.5
  0
CIRCLE
  5
1623
330
160E
100
AcDbEntity
  8
0
100
AcDbCircle
 10
-38.5
 20
85.0
 30
0.0
 40
2.5
  0
CIRCLE
  5
1624
330
160E
100
AcDbEntity
  8
0
100
AcDbCircle
 10
-38.5
 20
105.0
 30
0.0
 40
2.5
  0
CIRCLE
  5
1625
330
160E
100
AcDbEntity
  8
0
100
AcDbCircle
 10
-38.5
 20
125.0
 30
0.0
 40
2.5
  0
CIRCLE
  5
1626
330
160E
100
AcDbEntity
  8
0
100
AcDbCircle
 10
-38.5
 20
145.0
 30
0.0
 40
2.5
  0
LINE
  5
1627
330
160E
100
AcDbEntity
  8
0
100
AcDbLine
 10
-46.0
 20
21.5415395314384
 30
0.0
 11
-45.99999999999997
 21
180.0
 31
0.0
  0
LINE
  5
1628
330
160E
100
AcDbEntity
  8
0
100
AcDbLine
 10
-55.82004960297631
 20
13.30153953143838
 30
0.0
 11
-46.0
 21
21.5415395314384
 31
0.0
  0
LINE
  5
1629
330
160E
100
AcDbEntity
  8
0
100
AcDbLine
 10
-81.86824088833466
 20
8.70854060917459
 30
0.0
 11
-55.82004960297631
 21
13.30153953143838
 31
0.0
  0
ARC
  5
162A
330
160E
100
AcDbEntity
  8
0
100
AcDbCircle
 10
-81.00000000000001
 20
3.784501844113563
 30
0.0
 40
5.0
100
AcDbArc
 50
100.0
 51
180.0
  0
SPLINE
  5
162B
330
160E
100
AcDbEntity
  8
0
100
AcDbSpline
210
0.0
220
0.0
230
1.0
 70
     8
 71
     3
 72
     8
 73
     4
 74
     0
 42
0.000000001
 43
0.0000000001
 40
0.0
 40
0.0
 40
0.0
 40
0.0
 40
0.3861707044331457
 40
0.3861707044331457
 40
0.3861707044331457
 40
0.3861707044331457
 10
0.0000000000000005
 20
8.708540609174589
 30
0.0
 10
-0.0000030541327547
 20
8.585247986607573
 30
0.0
 10
-0.2998483422667774
 20
8.516446706306345
 30
0.0
 10
-0.6651010993261448
 20
8.35364948772575
 30
0.0
  0
SPLINE
  5
162C
330
160E
100
AcDbEntity
  8
0
100
AcDbSpline
210
0.0
220
0.0
230
1.0
 70
     8
 71
     3
 72
    20
 73
    16
 74
     0
 42
0.000000001
 43
0.0000000001
 40
0.1910835803003785
 40
0.1910835803003785
 40
0.1910835803003785
 40
0.1910835803003785
 40
0.2118346378231811
 40
0.2118346378231811
 40
0.2697196097683614
 40
0.2697196097683614
 40
0.3019463419065116
 40
0.3019463419065116
 40
0.3115028901166259
 40
0.3115028901166259
 40
0.316795738694814
 40
0.316795738694814
 40
0.3198984099264294
 40
0.3198984099264294
 40
0.3207326050400454
 40
0.3207326050400454
 40
0.3207326050400454
 40
0.3207326050400454
 10
-1.719637720583508
 20
7.458169342953398
 30
0.0
 10
-1.751202132660794
 20
7.401285422314386
 30
0.0
 10
-1.780027539635919
 20
7.342091519345422
 30
0.0
 10
-1.877215078016997
 20
7.113832904923605
 30
0.0
 10
-1.924788484789151
 20
6.936720217093583
 30
0.0
 10
-1.971754340034383
 20
6.657661144497377
 30
0.0
 10
-1.983433862569229
 20
6.556425372325604
 30
0.0
 10
-1.993145650367113
 20
6.420280622996358
 30
0.0
 10
-1.995002636696556
 20
6.388579645481076
 30
0.0
 10
-1.997288088446285
 20
6.339156057711337
 30
0.0
 10
-1.997991713637942
 20
6.321294507100866
 30
0.0
 10
-1.998899009545216
 20
6.293852121322332
 30
0.0
 10
-1.999196055642393
 20
6.283628532084728
 30
0.0
 10
-1.999488679808522
 20
6.27237842696255
 30
0.0
 10
-1.999546132242851
 20
6.27008945567878
 30
0.0
 10
-1.999598233162193
 20
6.267953393573995
 30
0.0
  0
ENDBLK
  5
1610
330
160E
100
AcDbEntity
  8
0
100
AcDbBlockEnd
  0
BLOCK
  5
162E
330
162D
100
AcDbEntity
  8
0
100
AcDbBlockBegin
  2
BSIN140_180-Top
 70
     0
 10
0.0
 20
0.0
 30
0.0
  3
BSIN140_180-Top
  1

  0
SPLINE
  5
1630
330
162D
100
AcDbEntity
  8
0
100
AcDbSpline
210
0.0
220
0.0
230
1.0
 70
     8
 71
     3
 72
    11
 73
     7
 74
     0
 42
0.000000001
 43
0.0000000001
 40
-1.0
 40
-1.0
 40
-1.0
 40
-1.0
 40
-0.7335831184570432
 40
-0.7335831184570432
 40
-0.7335831184570432
 40
-0.5185251082787738
 40
-0.5185251082787738
 40
-0.5185251082787738
 40
-0.5185251082787738
 10
72.00000000000014
 20
-2.000000000000055
 30
0.0
 10
71.99581407899154
 20
-2.000063353443429
 30
0.0
 10
71.83571729082799
 20
-1.857734632822416
 30
0.0
 10
71.56163712427484
 20
-1.648834672847962
 30
0.0
 10
71.34039312912378
 20
-1.480205682604404
 30
0.0
 10
71.04550276241349
 20
-1.269106296631958
 30
0.0
 10
70.70659467307937
 20
-1.054705675712737
 30
0.0
  0
LINE
  5
1631
330
162D
100
AcDbEntity
  8
0
100
AcDbLine
 10
72.0
 20
-1.999999999999927
 30
0.0
 11
72.0
 21
-2.071326711284057
 31
0.0
  0
SPLINE
  5
1632
330
162D
100
AcDbEntity
  8
0
100
AcDbSpline
210
0.0
220
0.0
230
1.0
 70
     8
 71
     3
 72
    12
 73
     8
 74
     0
 42
0.000000001
 43
0.0000000001
 40
0.0088155123592553
 40
0.0088155123592553
 40
0.0088155123592553
 40
0.0088155123592553
 40
0.0105439647049718
 40
0.0105439647049718
 40
0.0137664183455731
 40
0.0137664183455731
 40
0.0192189678357097
 40
0.0192189678357097
 40
0.0192189678357097
 40
0.0192189678357097
 10
71.9999409534784
 20
-3.96888714438418
 30
0.0
 10
71.99994095351359
 20
-3.968887152715941
 30
0.0
 10
71.99994312290328
 20
-3.969392150421511
 30
0.0
 10
71.99995385954181
 20
-3.971883372190297
 30
0.0
 10
71.99996624233856
 20
-3.974771170939369
 30
0.0
 10
72.00000292454119
 20
-3.98415830708475
 30
0.0
 10
72.00002889288414
 20
-3.99176061202112
 30
0.0
 10
72.00005303218858
 20
-3.999998969207556
 30
0.0
  0
SPLINE
  5
1633
330
162D
100
AcDbEntity
  8
0
100
AcDbSpline
210
0.0
220
0.0
230
1.0
 70
     8
 71
     3
 72
    32
 73
    28
 74
     0
 42
0.000000001
 43
0.0000000001
 40
0.0
 40
0.0
 40
0.0
 40
0.0
 40
0.0061445194549882
 40
0.0061445194549882
 40
0.0166040323270414
 40
0.0166040323270414
 40
0.026561609026175
 40
0.026561609026175
 40
0.0446161465402695
 40
0.0446161465402695
 40
0.0987811342298004
 40
0.0987811342298004
 40
0.1399962975053603
 40
0.1399962975053603
 40
0.1837475699149813
 40
0.1837475699149813
 40
0.2054404169648398
 40
0.2054404169648398
 40
0.2106917875807944
 40
0.2106917875807944
 40
0.2126621022738951
 40
0.2126621022738951
 40
0.21340212405573
 40
0.21340212405573
 40
0.2141763796077355
 40
0.2141763796077355
 40
0.2148277912315491
 40
0.2148277912315491
 40
0.2148277912315491
 40
0.2148277912315491
 10
72.00040483388559
 20
-2.071326711284057
 30
0.0
 10
72.00039167197482
 20
-2.083481979135084
 30
0.0
 10
72.00037018823509
 20
-2.098070461521047
 30
0.0
 10
72.00034274120105
 20
-2.138654312291324
 30
0.0
 10
72.00037055068498
 20
-2.166618923133064
 30
0.0
 10
72.00059064970182
 20
-2.224988490845543
 30
0.0
 10
72.00076915881263
 20
-2.255526210145625
 30
0.0
 10
72.00130629838766
 20
-2.342765211438956
 30
0.0
 10
72.00163285637152
 20
-2.398961113384067
 30
0.0
 10
72.00278341775748
 20
-2.621417122361859
 30
0.0
 10
72.00358908594093
 20
-2.790847703998233
 30
0.0
 10
72.00464856001399
 20
-3.084476840058256
 30
0.0
 10
72.0049313419444
 20
-3.209202215100353
 30
0.0
 10
72.00484012629551
 20
-3.462121176331045
 30
0.0
 10
72.00442034517132
 20
-3.590823404300185
 30
0.0
 10
72.00276957090479
 20
-3.787041528305791
 30
0.0
 10
72.00205209308079
 20
-3.852689629224622
 30
0.0
 10
72.00095707574198
 20
-3.934466183634486
 30
0.0
 10
72.00073367695511
 20
-3.950449890032963
 30
0.0
 10
72.00041851151282
 20
-3.972135804083191
 30
0.0
 10
72.00033105645097
 20
-3.97806510995385
 30
0.0
 10
72.0002157262092
 20
-3.985783378199741
 30
0.0
 10
72.00018467547042
 20
-3.987850577169353
 30
0.0
 10
72.00012650434991
 20
-3.991707242066077
 30
0.0
 10
72.00009955428942
 20
-3.993484448266431
 30
0.0
 10
72.00006406881866
 20
-3.995819228313911
 30
0.0
 10
72.00005273805455
 20
-3.996562562820912
 30
0.0
 10
72.00004441103232
 20
-3.997108529606594
 30
0.0
  0
LINE
  5
1634
330
162D
100
AcDbEntity
  8
0
100
AcDbLine
 10
72.0
 20
-4.000000000000003
 30
0.0
 11
72.00000000000001
 21
-45.99999999999997
 31
0.0
  0
LINE
  5
1635
330
162D
100
AcDbEntity
  8
0
100
AcDbLine
 10
70.00000000000001
 20
-45.99999999999997
 30
0.0
 11
70.0
 21
-4.000000000000003
 31
0.0
  0
LINE
  5
1636
330
162D
100
AcDbEntity
  8
0
100
AcDbLine
 10
69.99999999999999
 20
-85.99999999999997
 30
0.0
 11
67.99999999999998
 21
-85.99999999999997
 31
0.0
  0
LINE
  5
1637
330
162D
100
AcDbEntity
  8
0
100
AcDbLine
 10
68.0
 20
-2.000000000000001
 30
0.0
 11
30.50000000000001
 21
-2.000000000000001
 31
0.0
  0
ARC
  5
1638
330
162D
100
AcDbEntity
  8
0
100
AcDbCircle
 10
68.0
 20
-4.000000000000004
 30
0.0
 40
2.000000000000001
100
AcDbArc
 50
0.0
 51
90.0
  0
LINE
  5
1639
330
162D
100
AcDbEntity
  8
0
100
AcDbLine
 10
30.50000000000001
 20
0.0
 30
0.0
 11
68.0
 21
0.0
 31
0.0
  0
ARC
  5
163A
330
162D
100
AcDbEntity
  8
0
100
AcDbCircle
 10
68.0
 20
-4.000000000000004
 30
0.0
 40
4.000000000000003
100
AcDbArc
 50
0.0
 51
90.0
  0
LINE
  5
163B
330
162D
100
AcDbEntity
  8
0
100
AcDbLine
 10
30.50000000000001
 20
-2.000000000000001
 30
0.0
 11
30.50000000000001
 21
0.0
 31
0.0
  0
LINE
  5
163C
330
162D
100
AcDbEntity
  8
0
100
AcDbLine
 10
72.00000000000001
 20
-55.82004960297631
 30
0.0
 11
72.00000000000001
 21
-46.0
 31
0.0
  0
LINE
  5
163D
330
162D
100
AcDbEntity
  8
0
100
AcDbLine
 10
72.00000000000001
 20
-81.86824088833466
 30
0.0
 11
72.00000000000001
 21
-55.82004960297631
 31
0.0
  0
LINE
  5
163E
330
162D
100
AcDbEntity
  8
0
100
AcDbLine
 10
72.00000000000001
 20
-81.86824088833466
 30
0.0
 11
72.00000000000001
 21
-86.00000000000001
 31
0.0
  0
LINE
  5
163F
330
162D
100
AcDbEntity
  8
0
100
AcDbLine
 10
70.00000000000001
 20
-86.00000000000001
 30
0.0
 11
70.00000000000001
 21
-81.86824088833466
 31
0.0
  0
LINE
  5
1640
330
162D
100
AcDbEntity
  8
0
100
AcDbLine
 10
70.00000000000001
 20
-55.82004960297631
 30
0.0
 11
70.00000000000001
 21
-81.86824088833466
 31
0.0
  0
LINE
  5
1641
330
162D
100
AcDbEntity
  8
0
100
AcDbLine
 10
70.00000000000001
 20
-46.0
 30
0.0
 11
70.00000000000001
 21
-55.82004960297631
 31
0.0
  0
LINE
  5
1642
330
162D
100
AcDbEntity
  8
0
100
AcDbLine
 10
-72.00000000000001
 20
-81.86824088833466
 30
0.0
 11
-72.00000000000001
 21
-86.00000000000001
 31
0.0
  0
LINE
  5
1643
330
162D
100
AcDbEntity
  8
0
100
AcDbLine
 10
-72.00000000000001
 20
-81.86824088833466
 30
0.0
 11
-72.00000000000001
 21
-55.82004960297631
 31
0.0
  0
LINE
  5
1644
330
162D
100
AcDbEntity
  8
0
100
AcDbLine
 10
-72.00000000000001
 20
-55.82004960297631
 30
0.0
 11
-72.00000000000001
 21
-46.0
 31
0.0
  0
LINE
  5
1645
330
162D
100
AcDbEntity
  8
0
100
AcDbLine
 10
72.00000000000001
 20
-55.82004960297631
 30
0.0
 11
70.00000000000001
 21
-55.82004960297631
 31
0.0
  0
LINE
  5
1646
330
162D
100
AcDbEntity
  8
0
100
AcDbLine
 10
70.00000000000001
 20
-86.00000000000001
 30
0.0
 11
72.00000000000001
 21
-86.00000000000001
 31
0.0
  0
LINE
  5
1647
330
162D
100
AcDbEntity
  8
0
100
AcDbLine
 10
72.00000000000001
 20
-45.99999999999997
 30
0.0
 11
70.00000000000001
 21
-45.99999999999997
 31
0.0
  0
LINE
  5
1648
330
162D
100
AcDbEntity
  8
0
100
AcDbLine
 10
-70.00000000000001
 20
-46.0
 30
0.0
 11
-70.00000000000001
 21
-55.82004960297631
 31
0.0
  0
LINE
  5
1649
330
162D
100
AcDbEntity
  8
0
100
AcDbLine
 10
-72.00000000000001
 20
-55.82004960297631
 30
0.0
 11
-70.00000000000001
 21
-55.82004960297631
 31
0.0
  0
LINE
  5
164A
330
162D
100
AcDbEntity
  8
0
100
AcDbLine
 10
-70.00000000000001
 20
-55.82004960297631
 30
0.0
 11
-70.00000000000001
 21
-81.86824088833466
 31
0.0
  0
LINE
  5
164B
330
162D
100
AcDbEntity
  8
0
100
AcDbLine
 10
-70.00000000000001
 20
-86.00000000000001
 30
0.0
 11
-70.00000000000001
 21
-81.86824088833466
 31
0.0
  0
LINE
  5
164C
330
162D
100
AcDbEntity
  8
0
100
AcDbLine
 10
-70.00000000000001
 20
-86.00000000000001
 30
0.0
 11
-72.00000000000001
 21
-86.00000000000001
 31
0.0
  0
LINE
  5
164D
330
162D
100
AcDbEntity
  8
0
100
AcDbLine
 10
-72.00000000000001
 20
-45.99999999999997
 30
0.0
 11
-70.00000000000001
 21
-45.99999999999997
 31
0.0
  0
CIRCLE
  5
164E
330
162D
100
AcDbEntity
  8
0
100
AcDbCircle
 10
0.0
 20
-67.99999999999996
 30
0.0
 40
2.5
  0
CIRCLE
  5
164F
330
162D
100
AcDbEntity
  8
0
100
AcDbCircle
 10
0.0
 20
-47.99999999999996
 30
0.0
 40
2.5
  0
LINE
  5
1650
330
162D
100
AcDbEntity
  8
0
100
AcDbLine
 10
-67.99999999999998
 20
-85.99999999999997
 30
0.0
 11
67.99999999999998
 21
-85.99999999999997
 31
0.0
  0
LINE
  5
1651
330
162D
100
AcDbEntity
  8
0
100
AcDbLine
 10
30.49999999999993
 20
-2.000000000000009
 30
0.0
 11
-30.49999999999993
 21
-2.000000000000016
 31
0.0
  0
SPLINE
  5
1652
330
162D
100
AcDbEntity
  8
0
100
AcDbSpline
210
0.0
220
0.0
230
1.0
 70
     8
 71
     3
 72
    14
 73
    10
 74
     0
 42
0.000000001
 43
0.0000000001
 40
0.5177293434098573
 40
0.5177293434098573
 40
0.5177293434098573
 40
0.5177293434098573
 40
0.7592105936287867
 40
0.7592105936287867
 40
0.7592105936287867
 40
0.9879274055524811
 40
0.9879274055524811
 40
0.9879274055524811
 40
1.0
 40
1.0
 40
1.0
 40
1.0
 10
-70.70290145919662
 20
-1.052334853202425
 30
0.0
 10
-71.08336095396371
 20
-1.292474188376673
 30
0.0
 10
-71.40700699564741
 20
-1.528758519944874
 30
0.0
 10
-71.63745771472793
 20
-1.707499047078686
 30
0.0
 10
-71.85572705748573
 20
-1.87679154283371
 30
0.0
 10
-71.98428061927817
 20
-1.988375059880237
 30
0.0
 10
-71.99879100252295
 20
-1.999032141863432
 30
0.0
 10
-71.99955691898847
 20
-1.99959466556991
 30
0.0
 10
-71.9999999792126
 20
-1.999894470639713
 30
0.0
 10
-72.00000000000423
 20
-1.999999999999928
 30
0.0
  0
LINE
  5
1653
330
162D
100
AcDbEntity
  8
0
100
AcDbLine
 10
-72.0
 20
-2.000000000000073
 30
0.0
 11
-72.0
 21
-2.071327087318113
 31
0.0
  0
SPLINE
  5
1654
330
162D
100
AcDbEntity
  8
0
100
AcDbSpline
210
0.0
220
0.0
230
1.0
 70
     8
 71
     3
 72
    28
 73
    24
 74
     0
 42
0.000000001
 43
0.0000000001
 40
0.0036066519747702
 40
0.0036066519747702
 40
0.0036066519747702
 40
0.0036066519747702
 40
0.0038887058698762
 40
0.0038887058698762
 40
0.0045324199102501
 40
0.0045324199102501
 40
0.0058418266601859
 40
0.0058418266601859
 40
0.0071165426126407
 40
0.0071165426126407
 40
0.0109377662438717
 40
0.0109377662438717
 40
0.0223980612197389
 40
0.0223980612197389
 40
0.0567883901407507
 40
0.0567883901407507
 40
0.1600905755892057
 40
0.1600905755892057
 40
0.1887241346777043
 40
0.1887241346777043
 40
0.2029998947892701
 40
0.2029998947892701
 40
0.2182988348843855
 40
0.2182988348843855
 40
0.2182988348843855
 40
0.2182988348843855
 10
-72.00004442957633
 20
-3.997107351685763
 30
0.0
 10
-72.00004804101592
 20
-3.996870542147207
 30
0.0
 10
-72.00005219263454
 20
-3.996598177923218
 30
0.0
 10
-72.00006812966629
 20
-3.995551954391869
 30
0.0
 10
-72.00008356550783
 20
-3.994537692561757
 30
0.0
 10
-72.00014380894689
 20
-3.990564855065923
 30
0.0
 10
-72.00020074046929
 20
-3.986789668766182
 30
0.0
 10
-72.00031117017494
 20
-3.979392035985411
 30
0.0
 10
-72.00036719379368
 20
-3.975607179909407
 30
0.0
 10
-72.00059010528955
 20
-3.96040662799577
 30
0.0
 10
-72.00075576827943
 20
-3.948793227033692
 30
0.0
 10
-72.00139720543649
 20
-3.902453886880978
 30
0.0
 10
-72.00183543964353
 20
-3.867627599512053
 30
0.0
 10
-72.00339589455804
 20
-3.728994750508005
 30
0.0
 10
-72.00412048934947
 20
-3.626390505078829
 30
0.0
 10
-72.00566513474374
 20
-3.218292333712201
 30
0.0
 10
-72.00408434313638
 20
-2.901339192348188
 30
0.0
 10
-72.00212417836322
 20
-2.492466781475444
 30
0.0
 10
-72.00169319405181
 20
-2.405074945169062
 30
0.0
 10
-72.00086218158951
 20
-2.270653642386219
 30
0.0
 10
-72.00057499241555
 20
-2.225914231019858
 30
0.0
 10
-72.00030720641933
 20
-2.142780641139691
 30
0.0
 10
-72.00037206192606
 20
-2.101592049934363
 30
0.0
 10
-72.0004048334784
 20
-2.071327087318113
 30
0.0
  0
SPLINE
  5
1655
330
162D
100
AcDbEntity
  8
0
100
AcDbSpline
210
0.0
220
0.0
230
1.0
 70
     8
 71
     3
 72
    10
 73
     6
 74
     0
 42
0.000000001
 43
0.0000000001
 40
0.0
 40
0.0
 40
0.0
 40
0.0
 40
0.0080675159915914
 40
0.0080675159915914
 40
0.0103949448819993
 40
0.0103949448819993
 40
0.0103949448819993
 40
0.0103949448819993
 10
-72.00005303218856
 20
-3.999998969207558
 30
0.0
 10
-72.00001731601121
 20
-3.987809611095227
 30
0.0
 10
-71.99997338283814
 20
-3.976454246707186
 30
0.0
 10
-71.99994486036451
 20
-3.9697877900304
 30
0.0
 10
-71.99994095348555
 20
-3.968887146078762
 30
0.0
 10
-71.99994095347837
 20
-3.968887144378594
 30
0.0
  0
LINE
  5
1656
330
162D
100
AcDbEntity
  8
0
100
AcDbLine
 10
-72.0
 20
-4.000000000000003
 30
0.0
 11
-72.00000000000001
 21
-45.99999999999997
 31
0.0
  0
LINE
  5
1657
330
162D
100
AcDbEntity
  8
0
100
AcDbLine
 10
-68.0
 20
-2.000000000000001
 30
0.0
 11
-30.50000000000001
 21
-2.000000000000001
 31
0.0
  0
LINE
  5
1658
330
162D
100
AcDbEntity
  8
0
100
AcDbLine
 10
-70.00000000000001
 20
-45.99999999999997
 30
0.0
 11
-70.0
 21
-4.000000000000003
 31
0.0
  0
LINE
  5
1659
330
162D
100
AcDbEntity
  8
0
100
AcDbLine
 10
-30.50000000000001
 20
0.0
 30
0.0
 11
-68.0
 21
0.0
 31
0.0
  0
LINE
  5
165A
330
162D
100
AcDbEntity
  8
0
100
AcDbLine
 10
-30.50000000000001
 20
-2.000000000000001
 30
0.0
 11
-30.50000000000001
 21
0.0
 31
0.0
  0
LINE
  5
165B
330
162D
100
AcDbEntity
  8
0
100
AcDbLine
 10
-69.99999999999999
 20
-85.99999999999997
 30
0.0
 11
-67.99999999999998
 21
-85.99999999999997
 31
0.0
  0
ARC
  5
165C
330
162D
100
AcDbEntity
  8
0
100
AcDbCircle
 10
-68.0
 20
-4.000000000000004
 30
0.0
 40
2.000000000000001
100
AcDbArc
 50
90.0
 51
180.0
  0
ARC
  5
165D
330
162D
100
AcDbEntity
  8
0
100
AcDbCircle
 10
-68.0
 20
-4.000000000000004
 30
0.0
 40
4.000000000000003
100
AcDbArc
 50
90.0
 51
180.0
  0
ENDBLK
  5
162F
330
162D
100
AcDbEntity
  8
0
100
AcDbBlockEnd
  0
BLOCK
  5
165F
330
165E
100
AcDbEntity
  8
0
100
AcDbBlockBegin
  2
BSIN140_180-Bottom
 70
     0
 10
0.0
 20
0.0
 30
0.0
  3
BSIN140_180-Bottom
  1

  0
SPLINE
  5
1661
330
165E
100
AcDbEntity
  8
0
100
AcDbSpline
210
0.0
220
0.0
230
1.0
 70
     8
 71
     3
 72
    11
 73
     7
 74
     0
 42
0.000000001
 43
0.0000000001
 40
-0.6033823812745818
 40
-0.6033823812745818
 40
-0.6033823812745818
 40
-0.6033823812745818
 40
-0.3432331292066835
 40
-0.3432331292066835
 40
-0.3432331292066835
 40
-0.2416676314493439
 40
-0.2416676314493439
 40
-0.2416676314493439
 40
-0.2416676314493439
 10
69.59792334296771
 20
2.00050018802156
 30
0.0
 10
69.43174954984154
 20
2.000395756550311
 30
0.0
 10
69.22057197546201
 20
2.000205964930594
 30
0.0
 10
68.9768484680541
 20
2.000038785137176
 30
0.0
 10
68.88169578493744
 20
1.99997351607029
 30
0.0
 10
68.7811880989849
 20
1.999937948602914
 30
0.0
 10
68.67635009963746
 20
1.999921856143472
 30
0.0
  0
SPLINE
  5
1662
330
165E
100
AcDbEntity
  8
0
100
AcDbSpline
210
0.0
220
0.0
230
1.0
 70
     8
 71
     3
 72
    17
 73
    13
 74
     0
 42
0.000000001
 43
0.0000000001
 40
-1.0
 40
-1.0
 40
-1.0
 40
-1.0
 40
-0.7335831184570432
 40
-0.7335831184570432
 40
-0.7335831184570432
 40
-0.3481558271113165
 40
-0.3481558271113165
 40
-0.3481558271113165
 40
-0.0800996407927531
 40
-0.0800996407927531
 40
-0.0800996407927531
 40
0.0
 40
0.0
 40
0.0
 40
0.0
 10
72.00000000000014
 20
2.000000000000055
 30
0.0
 10
71.99581407899154
 20
2.000063353443429
 30
0.0
 10
71.83571729082799
 20
1.857734632822416
 30
0.0
 10
71.56163712427484
 20
1.648834672847962
 30
0.0
 10
71.165123301298
 20
1.346617541302555
 30
0.0
 10
70.53205834438931
 20
0.9079860819973367
 30
0.0
 10
69.83300036063292
 20
0.558418612679264
 30
0.0
 10
69.34682094015904
 20
0.3153021422309318
 30
0.0
 10
68.81925547514724
 20
0.1134268209714205
 30
0.0
 10
68.31178376748262
 20
0.0353220758933025
 30
0.0
 10
68.16014279230246
 20
0.0119830807710938
 30
0.0
 10
68.00908631698655
 20
0.0055451126679754
 30
0.0
 10
67.86824088834851
 20
-0.0000000000007155
 30
0.0
  0
LINE
  5
1663
330
165E
100
AcDbEntity
  8
0
100
AcDbLine
 10
68.0
 20
0.0
 30
0.0
 11
67.86824088833457
 21
0.0
 31
0.0
  0
ARC
  5
1664
330
165E
100
AcDbEntity
  8
0
100
AcDbCircle
 10
68.0
 20
4.000000000000004
 30
0.0
 40
4.000000000000019
100
AcDbArc
 50
270.0
 51
312.5602162678324
  0
SPLINE
  5
1665
330
165E
100
AcDbEntity
  8
0
100
AcDbSpline
210
0.0
220
0.0
230
1.0
 70
     8
 71
     3
 72
    10
 73
     6
 74
     0
 42
0.000000001
 43
0.0000000001
 40
0.0
 40
0.0
 40
0.0
 40
0.0
 40
0.003267893506967
 40
0.003267893506967
 40
0.0055520278123844
 40
0.0055520278123844
 40
0.0055520278123844
 40
0.0055520278123844
 10
72.00001389850908
 20
4.000000162913734
 30
0.0
 10
72.00002534126983
 20
3.99562817064764
 30
0.0
 10
72.00003257479915
 20
3.992944200100117
 30
0.0
 10
72.00003955944237
 20
3.990524419804114
 30
0.0
 10
72.00004090845223
 20
3.99011661159533
 30
0.0
 10
72.00004090845476
 20
3.990116610827108
 30
0.0
  0
LINE
  5
1666
330
165E
100
AcDbEntity
  8
0
100
AcDbLine
 10
72.0000183703563
 20
3.998277449923154
 30
0.0
 11
72.00001926771178
 21
3.998186851836841
 31
0.0
  0
SPLINE
  5
1667
330
165E
100
AcDbEntity
  8
0
100
AcDbSpline
210
0.0
220
0.0
230
1.0
 70
     8
 71
     3
 72
    30
 73
    26
 74
     0
 42
0.000000001
 43
0.0000000001
 40
0.0030424115936671
 40
0.0030424115936671
 40
0.0030424115936671
 40
0.0030424115936671
 40
0.0031860374319948
 40
0.0031860374319948
 40
0.0038887058538514
 40
0.0038887058538514
 40
0.0045324198745624
 40
0.0045324198745624
 40
0.0058418265820234
 40
0.0058418265820234
 40
0.007116542493945
 40
0.007116542493945
 40
0.0109377660047059
 40
0.0109377660047059
 40
0.0223980606190704
 40
0.0223980606190704
 40
0.0567883884548666
 40
0.0567883884548666
 40
0.1600905706239436
 40
0.1600905706239436
 40
0.188724159035531
 40
0.188724159035531
 40
0.2029999340516146
 40
0.2029999340516146
 40
0.2182988970262324
 40
0.2182988970262324
 40
0.2182988970262324
 40
0.2182988970262324
 10
72.00002795157542
 20
3.998186984456247
 30
0.0
 10
72.00002900679895
 20
3.998117891891739
 30
0.0
 10
72.00003012961218
 20
3.998044365322332
 30
0.0
 10
72.00003722417377
 20
3.997579709894182
 30
0.0
 10
72.00004495178553
 20
3.997073520306193
 30
0.0
 10
72.00006812966785
 20
3.995551954288607
 30
0.0
 10
72.00008356551006
 20
3.994537692414832
 30
0.0
 10
72.00014380894709
 20
3.990564855051408
 30
0.0
 10
72.00020074046733
 20
3.986789668893808
 30
0.0
 10
72.00031117016902
 20
3.979392036383408
 30
0.0
 10
72.00036719378511
 20
3.975607180487736
 30
0.0
 10
72.0005901052741
 20
3.960406629061472
 30
0.0
 10
72.00075576825913
 20
3.948793228461581
 30
0.0
 10
72.0013972053978
 20
3.902453889780614
 30
0.0
 10
72.00183543959422
 20
3.867627603497778
 30
0.0
 10
72.00339589447785
 20
3.728994758823985
 30
0.0
 10
72.00412048927517
 20
3.626390516520899
 30
0.0
 10
72.0056651347451
 20
3.218292357936066
 30
0.0
 10
72.0040843432761
 20
2.901339228305175
 30
0.0
 10
72.0021241781557
 20
2.492466736304635
 30
0.0
 10
72.00169319326827
 20
2.405074806799218
 30
0.0
 10
72.00086217984938
 20
2.270653366697992
 30
0.0
 10
72.00057499069065
 20
2.225913917303072
 30
0.0
 10
72.00030720597768
 20
2.142780266349283
 30
0.0
 10
72.00037206263523
 20
2.101591566680137
 30
0.0
 10
72.00040483388561
 20
2.071326711280645
 30
0.0
  0
SPLINE
  5
1668
330
165E
100
AcDbEntity
  8
0
100
AcDbSpline
210
0.0
220
0.0
230
1.0
 70
     8
 71
     3
 72
     8
 73
     4
 74
     0
 42
0.000000001
 43
0.0000000001
 40
0.0
 40
0.0
 40
0.0
 40
0.0
 40
0.0006442289713473
 40
0.0006442289713473
 40
0.0006442289713473
 40
0.0006442289713473
 10
72.00005303218858
 20
3.999998969207556
 30
0.0
 10
72.00005018008439
 20
3.999025591820313
 30
0.0
 10
72.00004731247334
 20
3.998061400636658
 30
0.0
 10
72.00004442957632
 20
3.997107351686319
 30
0.0
  0
SPLINE
  5
1669
330
165E
100
AcDbEntity
  8
0
100
AcDbSpline
210
0.0
220
0.0
230
1.0
 70
     8
 71
     3
 72
     8
 73
     4
 74
     0
 42
0.000000001
 43
0.0000000001
 40
0.0025659937940281
 40
0.0025659937940281
 40
0.0025659937940281
 40
0.0025659937940281
 40
0.0039085484124403
 40
0.0039085484124403
 40
0.0039085484124403
 40
0.0039085484124403
 10
72.00001832284866
 20
3.988887585074121
 30
0.0
 10
72.00001219747424
 20
3.987058009356256
 30
0.0
 10
72.00000606449667
 20
3.985296167272706
 30
0.0
 10
72.00000000000004
 20
3.983616363494959
 30
0.0
  0
LINE
  5
166A
330
165E
100
AcDbEntity
  8
0
100
AcDbLine
 10
72.0
 20
1.999999999999927
 30
0.0
 11
72.0
 21
85.99999999999997
 31
0.0
  0
LINE
  5
166B
330
165E
100
AcDbEntity
  8
0
100
AcDbLine
 10
67.99999999999998
 20
85.99999999999997
 30
0.0
 11
72.0
 21
85.99999999999997
 31
0.0
  0
LINE
  5
166C
330
165E
100
AcDbEntity
  8
0
100
AcDbLine
 10
39.92098293829774
 20
0.0
 30
0.0
 11
39.92098293829774
 21
1.999999999999997
 31
0.0
  0
LINE
  5
166D
330
165E
100
AcDbEntity
  8
0
100
AcDbLine
 10
39.92098293829774
 20
0.0
 30
0.0
 11
67.86824088833457
 21
0.0
 31
0.0
  0
LINE
  5
166E
330
165E
100
AcDbEntity
  8
0
100
AcDbLine
 10
30.49999999999993
 20
1.999999999999999
 30
0.0
 11
30.49999999999993
 21
0.0
 31
0.0
  0
LINE
  5
166F
330
165E
100
AcDbEntity
  8
0
100
AcDbLine
 10
30.49999999999993
 20
0.0
 30
0.0
 11
39.92098293829774
 21
0.0
 31
0.0
  0
LINE
  5
1670
330
165E
100
AcDbEntity
  8
0
100
AcDbLine
 10
68.0
 20
1.99999999999993
 30
0.0
 11
72.0
 21
1.999999999999926
 31
0.0
  0
LINE
  5
1671
330
165E
100
AcDbEntity
  8
0
100
AcDbLine
 10
-72.0
 20
2.000000000000073
 30
0.0
 11
-68.0
 21
2.000000000000069
 31
0.0
  0
LINE
  5
1672
330
165E
100
AcDbEntity
  8
0
100
AcDbLine
 10
68.0
 20
2.000000000000004
 30
0.0
 11
-68.0
 21
2.000000000000004
 31
0.0
  0
ARC
  5
1673
330
165E
100
AcDbEntity
  8
0
100
AcDbCircle
 10
-68.0
 20
4.000000000000004
 30
0.0
 40
4.000000000000019
100
AcDbArc
 50
227.4397837321687
 51
270.0
  0
LINE
  5
1674
330
165E
100
AcDbEntity
  8
0
100
AcDbLine
 10
-67.86824088833457
 20
0.0
 30
0.0
 11
-68.0
 21
0.0
 31
0.0
  0
SPLINE
  5
1675
330
165E
100
AcDbEntity
  8
0
100
AcDbSpline
210
0.0
220
0.0
230
1.0
 70
     8
 71
     3
 72
    17
 73
    13
 74
     0
 42
0.000000001
 43
0.0000000001
 40
0.0
 40
0.0
 40
0.0
 40
0.0
 40
0.3890554103313035
 40
0.3890554103313035
 40
0.3890554103313035
 40
0.7592105936287867
 40
0.7592105936287867
 40
0.7592105936287867
 40
0.9879274055524811
 40
0.9879274055524811
 40
0.9879274055524811
 40
1.0
 40
1.0
 40
1.0
 40
1.0
 10
-67.86824088833457
 20
-0.0000000000000005
 30
0.0
 10
-68.58594010424915
 20
0.0000030769472113
 30
0.0
 10
-69.35795491662344
 20
0.3043447791347243
 30
0.0
 10
-70.05182575275672
 20
0.6732972958225615
 30
0.0
 10
-70.71198849490949
 20
1.02432617966807
 30
0.0
 10
-71.28421071072678
 20
1.433516149756754
 30
0.0
 10
-71.63745771472793
 20
1.707499047078686
 30
0.0
 10
-71.85572705748573
 20
1.87679154283371
 30
0.0
 10
-71.98428061927817
 20
1.988375059880237
 30
0.0
 10
-71.99879100252295
 20
1.999032141863432
 30
0.0
 10
-71.99955691898847
 20
1.99959466556991
 30
0.0
 10
-71.9999999792126
 20
1.999894470639713
 30
0.0
 10
-72.00000000000423
 20
1.999999999999928
 30
0.0
  0
SPLINE
  5
1676
330
165E
100
AcDbEntity
  8
0
100
AcDbSpline
210
0.0
220
0.0
230
1.0
 70
     8
 71
     3
 72
    11
 73
     7
 74
     0
 42
0.000000001
 43
0.0000000001
 40
-0.6033823812543995
 40
-0.6033823812543995
 40
-0.6033823812543995
 40
-0.6033823812543995
 40
-0.3432331292066835
 40
-0.3432331292066835
 40
-0.3432331292066835
 40
-0.2416676313836804
 40
-0.2416676313836804
 40
-0.2416676313836804
 40
-0.2416676313836804
 10
-69.59792334292905
 20
2.000500188021536
 30
0.0
 10
-69.43174954980877
 20
2.000395756550282
 30
0.0
 10
-69.22057197544311
 20
2.000205964930581
 30
0.0
 10
-68.9768484680541
 20
2.000038785137176
 30
0.0
 10
-68.88169578487595
 20
1.999973516070248
 30
0.0
 10
-68.78118809885496
 20
1.999937948602869
 30
0.0
 10
-68.67635009943413
 20
1.999921856143441
 30
0.0
  0
SPLINE
  5
1677
330
165E
100
AcDbEntity
  8
0
100
AcDbSpline
210
0.0
220
0.0
230
1.0
 70
     8
 71
     3
 72
    36
 73
    32
 74
     0
 42
0.000000001
 43
0.0000000001
 40
0.0
 40
0.0
 40
0.0
 40
0.0
 40
0.0061446417500091
 40
0.0061446417500091
 40
0.0166043747862116
 40
0.0166043747862116
 40
0.0265522960239895
 40
0.0265522960239895
 40
0.0445990614561728
 40
0.0445990614561728
 40
0.0987408091921718
 40
0.0987408091921718
 40
0.1399783693499488
 40
0.1399783693499488
 40
0.183738320104067
 40
0.183738320104067
 40
0.2054359402045783
 40
0.2054359402045783
 40
0.210688410038563
 40
0.210688410038563
 40
0.2126591310620082
 40
0.2126591310620082
 40
0.2133992966238578
 40
0.2133992966238578
 40
0.2141765020465722
 40
0.2141765020465722
 40
0.2148714795679752
 40
0.2148714795679752
 40
0.215683064244378
 40
0.215683064244378
 40
0.216053815284181
 40
0.216053815284181
 40
0.216053815284181
 40
0.216053815284181
 10
-72.00040483347841
 20
2.071327087318398
 30
0.0
 10
-72.00039167116472
 20
2.083482658338989
 30
0.0
 10
-72.00037018680728
 20
2.098071475525251
 30
0.0
 10
-72.00034274112212
 20
2.138656296952819
 30
0.0
 10
-72.00037055577732
 20
2.166621628934109
 30
0.0
 10
-72.00059056421903
 20
2.224964531916688
 30
0.0
 10
-72.00076883193045
 20
2.255470601555443
 30
0.0
 10
-72.00130557639823
 20
2.342652508921403
 30
0.0
 10
-72.00163213601418
 20
2.398828025323923
 30
0.0
 10
-72.00278231991221
 20
2.621186323670852
 30
0.0
 10
-72.00358756864232
 20
2.790542917981659
 30
0.0
 10
-72.00464779474166
 20
3.084176830303141
 30
0.0
 10
-72.00493113267935
 20
3.208974591917593
 30
0.0
 10
-72.0048404828531
 20
3.461988725368054
 30
0.0
 10
-72.00442097756414
 20
3.590715460636278
 30
0.0
 10
-72.00277028692062
 20
3.786972654920045
 30
0.0
 10
-72.00205276272439
 20
3.852634793489304
 30
0.0
 10
-72.00095758641994
 20
3.934429212401673
 30
0.0
 10
-72.00073415573905
 20
3.950416177337451
 30
0.0
 10
-72.00041893151143
 20
3.972107192148896
 30
0.0
 10
-72.00033146252322
 20
3.978037714935773
 30
0.0
 10
-72.00021608808544
 20
3.985759242002933
 30
0.0
 10
-72.00018502323721
 20
3.987827458655587
 30
0.0
 10
-72.00012669062409
 20
3.991694956790214
 30
0.0
 10
-72.00009960902102
 20
3.993480849075766
 30
0.0
 10
-72.0000629724141
 20
3.995891364971308
 30
0.0
 10
-72.00005123532791
 20
3.996661133223197
 30
0.0
 10
-72.00003288972599
 20
3.997863870800165
 30
0.0
 10
-72.00002691240273
 20
3.998255073998777
 30
0.0
 10
-72.00002013519
 20
3.998698636950632
 30
0.0
 10
-72.00001832419181
 20
3.998817136818789
 30
0.0
 10
-72.00001672098288
 20
3.998922030402044
 30
0.0
  0
SPLINE
  5
1678
330
165E
100
AcDbEntity
  8
0
100
AcDbSpline
210
0.0
220
0.0
230
1.0
 70
     8
 71
     3
 72
    10
 73
     6
 74
     0
 42
0.000000001
 43
0.0000000001
 40
0.0095591438745915
 40
0.0095591438745915
 40
0.0095591438745915
 40
0.0095591438745915
 40
0.0111734656964448
 40
0.0111734656964448
 40
0.0151065277432283
 40
0.0151065277432283
 40
0.0151065277432283
 40
0.0151065277432283
 10
-72.00004090845476
 20
3.990116610823449
 30
0.0
 10
-72.00004090845486
 20
3.990116610793067
 30
0.0
 10
-72.00004023539879
 20
3.990320120987074
 30
0.0
 10
-72.00003540214177
 20
3.991934478839135
 30
0.0
 10
-72.00002767040462
 20
3.994738266586175
 30
0.0
 10
-72.0000138985091
 20
4.000000162913732
 30
0.0
  0
SPLINE
  5
1679
330
165E
100
AcDbEntity
  8
0
100
AcDbSpline
210
0.0
220
0.0
230
1.0
 70
     8
 71
     3
 72
     8
 73
     4
 74
     0
 42
0.000000001
 43
0.0000000001
 40
0.0080249892643894
 40
0.0080249892643894
 40
0.0080249892643894
 40
0.0080249892643894
 40
0.0145084392486731
 40
0.0145084392486731
 40
0.0145084392486731
 40
0.0145084392486731
 10
-72.00001926771179
 20
3.998186851838187
 30
0.0
 10
-72.00001926771175
 20
3.998186851842742
 30
0.0
 10
-72.00001206428594
 20
3.998905223675667
 30
0.0
 10
-72.00000230913635
 20
4.000000301658813
 30
0.0
  0
SPLINE
  5
167A
330
165E
100
AcDbEntity
  8
0
100
AcDbSpline
210
0.0
220
0.0
230
1.0
 70
     8
 71
     3
 72
     8
 73
     4
 74
     0
 42
0.000000001
 43
0.0000000001
 40
0.0153068497193453
 40
0.0153068497193453
 40
0.0153068497193453
 40
0.0153068497193453
 40
0.0166566517213338
 40
0.0166566517213338
 40
0.0166566517213338
 40
0.0166566517213338
 10
-72.00000000000001
 20
3.983642347449957
 30
0.0
 10
-72.00000602130512
 20
3.985319980874815
 30
0.0
 10
-72.0000121389947
 20
3.987083469733065
 30
0.0
 10
-72.0000182811389
 20
3.988916640295446
 30
0.0
  0
SPLINE
  5
167B
330
165E
100
AcDbEntity
  8
0
100
AcDbSpline
210
0.0
220
0.0
230
1.0
 70
     8
 71
     3
 72
     8
 73
     4
 74
     0
 42
0.000000001
 43
0.0000000001
 40
0.0185750307769117
 40
0.0185750307769117
 40
0.0185750307769117
 40
0.0185750307769117
 40
0.0192189678340475
 40
0.0192189678340475
 40
0.0192189678340475
 40
0.0192189678340475
 10
-72.00004441103266
 20
3.99710852972362
 30
0.0
 10
-72.00004730505489
 20
3.998061967709747
 30
0.0
 10
-72.00005018137672
 20
3.999026032878755
 30
0.0
 10
-72.00005303218858
 20
3.999998969207558
 30
0.0
  0
LINE
  5
167C
330
165E
100
AcDbEntity
  8
0
100
AcDbLine
 10
-72.0
 20
2.000000000000073
 30
0.0
 11
-72.0
 21
85.99999999999997
 31
0.0
  0
LINE
  5
167D
330
165E
100
AcDbEntity
  8
0
100
AcDbLine
 10
-67.99999999999998
 20
85.99999999999997
 30
0.0
 11
-72.0
 21
85.99999999999997
 31
0.0
  0
LINE
  5
167E
330
165E
100
AcDbEntity
  8
0
100
AcDbLine
 10
67.99999999999998
 20
85.99999999999997
 30
0.0
 11
-67.99999999999998
 21
85.99999999999997
 31
0.0
  0
CIRCLE
  5
167F
330
165E
100
AcDbEntity
  8
0
100
AcDbCircle
 10
0.0
 20
67.99999999999996
 30
0.0
 40
2.5
  0
CIRCLE
  5
1680
330
165E
100
AcDbEntity
  8
0
100
AcDbCircle
 10
0.0
 20
47.99999999999996
 30
0.0
 40
2.5
  0
LINE
  5
1681
330
165E
100
AcDbEntity
  8
0
100
AcDbLine
 10
-39.92098293829774
 20
0.0
 30
0.0
 11
-67.86824088833457
 21
0.0
 31
0.0
  0
LINE
  5
1682
330
165E
100
AcDbEntity
  8
0
100
AcDbLine
 10
-39.92098293829774
 20
0.0
 30
0.0
 11
-39.92098293829774
 21
1.999999999999997
 31
0.0
  0
LINE
  5
1683
330
165E
100
AcDbEntity
  8
0
100
AcDbLine
 10
-30.49999999999993
 20
0.0
 30
0.0
 11
-39.92098293829774
 21
0.0
 31
0.0
  0
LINE
  5
1684
330
165E
100
AcDbEntity
  8
0
100
AcDbLine
 10
-30.49999999999993
 20
1.999999999999999
 30
0.0
 11
-30.49999999999993
 21
0.0
 31
0.0
  0
ENDBLK
  5
1660
330
165E
100
AcDbEntity
  8
0
100
AcDbBlockEnd
  0
BLOCK
  5
1686
330
1685
100
AcDbEntity
  8
0
100
AcDbBlockBegin
  2
BSIN140_180-ISO
 70
     0
 10
0.0
 20
0.0
 30
0.0
  3
BSIN140_180-ISO
  1

  0
SPLINE
  5
1688
330
1685
100
AcDbEntity
  8
0
100
AcDbSpline
210
0.0
220
0.0
230
1.0
 70
     8
 71
     3
 72
    11
 73
     7
 74
     0
 42
0.000000001
 43
0.0000000001
 40
-1.0
 40
-1.0
 40
-1.0
 40
-1.0
 40
-0.7335831184570432
 40
-0.7335831184570432
 40
-0.7335831184570432
 40
-0.5499785659461781
 40
-0.5499785659461781
 40
-0.5499785659461781
 40
-0.5499785659461781
 10
79.68909447468563
 20
-80.34432575212845
 30
0.0
 10
79.68608978390552
 20
-79.86684818459977
 30
0.0
 10
79.6735258628576
 20
-79.39402513979363
 30
0.0
 10
79.62743649678667
 20
-78.94204953997955
 30
0.0
 10
79.59567342913136
 20
-78.6305648575184
 30
0.0
 10
79.54784240292598
 20
-78.32588523295267
 30
0.0
 10
79.47974544030839
 20
-78.03288467706128
 30
0.0
  0
ELLIPSE
  5
1689
330
1685
100
AcDbEntity
  8
0
100
AcDbEllipse
 10
75.44645378756628
 20
-77.52043916988016
 30
0.0
 11
4.000000000000018
 21
-0.0000000000000001
 31
0.0
210
0.0
220
0.0
230
1.0
 40
0.5773502691896259
 41
5.49778714378214
 42
6.263574297497836
  0
LINE
  5
168A
330
1685
100
AcDbEntity
  8
0
100
AcDbLine
 10
78.27488091231249
 20
-81.16082233305608
 30
0.0
 11
78.27488091231249
 21
-79.15343233173562
 31
0.0
  0
LINE
  5
168B
330
1685
100
AcDbEntity
  8
0
100
AcDbLine
 10
79.59811617389061
 20
-80.39685209858275
 30
0.0
 11
78.27488091231247
 21
-81.16082233305608
 31
0.0
  0
LINE
  5
168C
330
1685
100
AcDbEntity
  8
0
100
AcDbLine
 10
79.68909447468561
 20
-80.34432575212832
 30
0.0
 11
79.59811617389061
 21
-80.39685209858275
 31
0.0
  0
ELLIPSE
  5
168D
330
1685
100
AcDbEntity
  8
0
100
AcDbEllipse
 10
75.44645378756628
 20
-77.52043916988016
 30
0.0
 11
4.000000000000018
 21
0.0000000000000003
 31
0.0
210
0.0
220
0.0
230
1.0
 40
0.5773502691896259
 41
6.263574297497836
 42
6.283185307179586
  0
SPLINE
  5
168E
330
1685
100
AcDbEntity
  8
0
100
AcDbSpline
210
0.0
220
0.0
230
1.0
 70
     8
 71
     3
 72
    14
 73
    10
 74
     0
 42
0.000000001
 43
0.0000000001
 40
0.0
 40
0.0
 40
0.0
 40
0.0
 40
0.0118632110844896
 40
0.0118632110844896
 40
0.0323902848898685
 40
0.0323902848898685
 40
0.0491745614612202
 40
0.0491745614612202
 40
0.065146321200036
 40
0.065146321200036
 40
0.065146321200036
 40
0.065146321200036
 10
79.4461074431391
 20
-77.55082779509184
 30
0.0
 10
79.44522133527823
 20
-77.58970351583146
 30
0.0
 10
79.44470416353514
 20
-77.62823078532242
 30
0.0
 10
79.44491660152246
 20
-77.72893300147373
 30
0.0
 10
79.44701595409433
 20
-77.78881779855769
 30
0.0
 10
79.45397878342399
 20
-77.87950421593084
 30
0.0
 10
79.45818410160374
 20
-77.91481311098762
 30
0.0
 10
79.46782424752064
 20
-77.97684590123949
 30
0.0
 10
79.47319446956623
 20
-78.00424346245524
 30
0.0
 10
79.47966306522733
 20
-78.03215168243899
 30
0.0
  0
LINE
  5
168F
330
1685
100
AcDbEntity
  8
0
100
AcDbLine
 10
79.68909447468561
 20
-83.81443622107116
 30
0.0
 11
20.2921248550156
 21
-118.1072926200356
 31
0.0
  0
ELLIPSE
  5
1690
330
1685
100
AcDbEntity
  8
0
100
AcDbEllipse
 10
17.4636977302694
 20
-116.4742994581802
 30
0.0
 11
2.000000000000001
 21
-3.464101615137758
 31
0.0
210
0.0
220
0.0
230
0.9999999999999998
 40
0.5773502691896257
 41
5.497787143782137
 42
7.068583470577033
  0
ELLIPSE
  5
1691
330
1685
100
AcDbEntity
  8
0
100
AcDbEllipse
 10
53.87969696137659
 20
34.37344386821714
 30
0.0
 11
-1.25
 21
-2.165063509461096
 31
0.0
210
0.0
220
0.0
230
1.0
 40
0.5773502691896259
 41
0.0
 42
6.283185307179586
  0
LINE
  5
1692
330
1685
100
AcDbEntity
  8
0
100
AcDbLine
 10
78.27488091231249
 20
-79.15343233173562
 30
0.0
 11
78.27488091231247
 21
60.70545860313631
 31
0.0
  0
LINE
  5
1693
330
1685
100
AcDbEntity
  8
0
100
AcDbLine
 10
78.27488091231247
 20
60.70545860313631
 30
0.0
 11
48.57639610247751
 21
43.55903040365406
 31
0.0
  0
LINE
  5
1694
330
1685
100
AcDbEntity
  8
0
100
AcDbLine
 10
20.29212485501558
 20
-116.6502529656577
 30
0.0
 11
20.2921248550156
 21
-118.1072926200356
 31
0.0
  0
ELLIPSE
  5
1695
330
1685
100
AcDbEntity
  8
0
100
AcDbEllipse
 10
52.4654833990035
 20
35.18994044914486
 30
0.0
 11
1.24999999999987
 21
2.165063509461171
 31
0.0
210
0.0
220
0.0
230
1.0
 40
0.577350269189626
 41
3.742856870268584
 42
5.681921090500109
  0
LINE
  5
1696
330
1685
100
AcDbEntity
  8
0
100
AcDbLine
 10
18.8779112926425
 20
-117.2907960391079
 30
0.0
 11
18.87791129264248
 21
-115.83375638473
 31
0.0
  0
LINE
  5
1697
330
1685
100
AcDbEntity
  8
0
100
AcDbLine
 10
47.16218254010441
 20
44.3755269845818
 30
0.0
 11
76.86066734993937
 21
61.52195518406404
 31
0.0
  0
LINE
  5
1698
330
1685
100
AcDbEntity
  8
0
100
AcDbLine
 10
17.4636977302694
 20
-118.1072926200356
 30
0.0
 11
18.87791129264247
 21
-117.2907960391079
 31
0.0
  0
ELLIPSE
  5
1699
330
1685
100
AcDbEntity
  8
0
100
AcDbEllipse
 10
17.4636977302694
 20
-116.4742994581802
 30
0.0
 11
1.0
 21
-1.732050807568879
 31
0.0
210
0.0
220
0.0
230
0.9999999999999998
 40
0.5773502691896257
 41
5.497787143782142
 42
7.068583470577038
  0
ELLIPSE
  5
169A
330
1685
100
AcDbEntity
  8
0
100
AcDbEllipse
 10
56.3545706955295
 20
62.74670005545562
 30
0.0
 11
-1.250000000000129
 21
2.165063509461022
 31
0.0
210
0.0
220
0.0
230
1.0
 40
0.5773502691896258
 41
0.0
 42
6.283185307179586
  0
ELLIPSE
  5
169B
330
1685
100
AcDbEntity
  8
0
100
AcDbEllipse
 10
64.13274528858153
 20
54.1734859557145
 30
0.0
 11
-3.250000000000007
 21
5.629165124598848
 31
0.0
210
0.0
220
0.0
230
1.0
 40
0.5773502691896258
 41
4.71238898038469
 42
7.853981633974485
  0
LINE
  5
169C
330
1685
100
AcDbEntity
  8
0
100
AcDbLine
 10
76.86066734993937
 20
63.15494834591948
 30
0.0
 11
76.86066734993937
 21
61.52195518406401
 31
0.0
  0
LINE
  5
169D
330
1685
100
AcDbEntity
  8
0
100
AcDbLine
 10
76.86066734993937
 20
63.15494834591948
 30
0.0
 11
50.34416305544384
 21
78.46425923831436
 31
0.0
  0
LINE
  5
169E
330
1685
100
AcDbEntity
  8
0
100
AcDbLine
 10
50.34416305544384
 20
78.46425923831436
 30
0.0
 11
50.34416305544384
 21
46.21264429166919
 31
0.0
  0
ELLIPSE
  5
169F
330
1685
100
AcDbEntity
  8
0
100
AcDbEllipse
 10
75.44645378756628
 20
62.33845176499176
 30
0.0
 11
2.000000000000001
 21
0.0
 31
0.0
210
0.0
220
0.0
230
1.0
 40
0.5773502691896257
 41
5.497787143782138
 42
7.068583470577036
  0
LINE
  5
16A0
330
1685
100
AcDbEntity
  8
0
100
AcDbLine
 10
20.2921248550156
 20
-118.1072926200356
 30
0.0
 11
18.8779112926425
 21
-117.2907960391079
 31
0.0
  0
LINE
  5
16A1
330
1685
100
AcDbEntity
  8
0
100
AcDbLine
 10
17.4636977302694
 20
-119.7402857818911
 30
0.0
 11
17.4636977302694
 21
-118.1072926200356
 31
0.0
  0
LINE
  5
16A2
330
1685
100
AcDbEntity
  8
0
100
AcDbLine
 10
51.75837661781695
 20
79.28075581924208
 30
0.0
 11
78.27488091231247
 21
63.97144492684723
 31
0.0
  0
ELLIPSE
  5
16A3
330
1685
100
AcDbEntity
  8
0
100
AcDbEllipse
 10
57.76878425790259
 20
63.56319663638334
 30
0.0
 11
-1.24999999999987
 21
2.165063509461171
 31
0.0
210
0.0
220
0.0
230
0.9999999999999998
 40
0.5773502691896259
 41
0.6012642166794846
 42
2.540328436911007
  0
ELLIPSE
  5
16A4
330
1685
100
AcDbEntity
  8
0
100
AcDbEllipse
 10
65.54695885095462
 20
54.98998253664222
 30
0.0
 11
-3.250000000000007
 21
5.629165124598848
 31
0.0
210
0.0
220
0.0
230
1.0
 40
0.5773502691896258
 41
0.2193254863005904
 42
1.570796326794898
  0
ELLIPSE
  5
16A5
330
1685
100
AcDbEntity
  8
0
100
AcDbEllipse
 10
75.44645378756628
 20
62.33845176499176
 30
0.0
 11
4.000000000000003
 21
0.0
 31
0.0
210
0.0
220
0.0
230
1.0
 40
0.5773502691896259
 41
5.497787143782137
 42
7.068583470577035
  0
LINE
  5
16A6
330
1685
100
AcDbEntity
  8
0
100
AcDbLine
 10
78.27488091231247
 20
63.97144492684723
 30
0.0
 11
76.86066734993937
 21
63.15494834591948
 31
0.0
  0
LINE
  5
16A7
330
1685
100
AcDbEntity
  8
0
100
AcDbLine
 10
78.27488091231247
 20
60.70545860313631
 30
0.0
 11
76.86066734993937
 21
61.52195518406404
 31
0.0
  0
LINE
  5
16A8
330
1685
100
AcDbEntity
  8
0
100
AcDbLine
 10
50.34416305544384
 20
78.46425923831436
 30
0.0
 11
51.75837661781695
 21
79.28075581924208
 31
0.0
  0
LINE
  5
16A9
330
1685
100
AcDbEntity
  8
0
100
AcDbLine
 10
19.4636977302694
 20
-119.938401073318
 30
0.0
 11
78.86066734993943
 21
-85.64554467435346
 31
0.0
  0
LINE
  5
16AA
330
1685
100
AcDbEntity
  8
0
100
AcDbLine
 10
79.4464537875663
 20
-77.52043916988016
 30
0.0
 11
79.4464537875663
 21
62.33845176499176
 31
0.0
  0
ELLIPSE
  5
16AB
330
1685
100
AcDbEntity
  8
0
100
AcDbEllipse
 10
76.86066734993942
 20
-82.18144305921571
 30
0.0
 11
2.000000000000003
 21
-3.464101615137753
 31
0.0
210
0.0
220
0.0
230
1.0
 40
0.5773502691896263
 41
0.0
 42
0.7853981633974465
  0
LINE
  5
16AC
330
1685
100
AcDbEntity
  8
0
100
AcDbLine
 10
79.68909447468561
 20
-80.34432575212832
 30
0.0
 11
79.68909447468561
 21
-83.81443622107116
 31
0.0
  0
LINE
  5
16AD
330
1685
100
AcDbEntity
  8
0
100
AcDbLine
 10
47.16218254010439
 20
-66.66800802158896
 30
0.0
 11
-19.30585489143108
 21
-28.29266871798583
 31
0.0
  0
ELLIPSE
  5
16AE
330
1685
100
AcDbEntity
  8
0
100
AcDbEllipse
 10
-19.30585489143112
 20
-26.6596755561304
 30
0.0
 11
1.000000000000104
 21
-1.732050807568816
 31
0.0
210
0.0
220
0.0
230
1.0
 40
0.5773502691896263
 41
3.926990816987004
 42
5.497787143781891
  0
LINE
  5
16AF
330
1685
100
AcDbEntity
  8
0
100
AcDbLine
 10
-20.72006845380422
 20
-22.37306850625984
 30
0.0
 11
-20.72006845380422
 21
-25.84317897520268
 31
0.0
  0
ELLIPSE
  5
16B0
330
1685
100
AcDbEntity
  8
0
100
AcDbEllipse
 10
53.87969696137659
 20
-79.9360774616645
 30
0.0
 11
-1.25
 21
-2.165063509461096
 31
0.0
210
0.0
220
0.0
230
1.0
 40
0.5773502691896259
 41
0.0
 42
6.283185307179586
  0
ELLIPSE
  5
16B1
330
1685
100
AcDbEntity
  8
0
100
AcDbEllipse
 10
53.87969696137659
 20
-63.60614584310998
 30
0.0
 11
-1.25
 21
-2.165063509461096
 31
0.0
210
0.0
220
0.0
230
1.0
 40
0.5773502691896259
 41
0.0
 42
6.283185307179586
  0
ELLIPSE
  5
16B2
330
1685
100
AcDbEntity
  8
0
100
AcDbEllipse
 10
53.87969696137659
 20
-47.27621422455547
 30
0.0
 11
-1.25
 21
-2.165063509461096
 31
0.0
210
0.0
220
0.0
230
1.0
 40
0.5773502691896259
 41
0.0
 42
6.283185307179586
  0
ELLIPSE
  5
16B3
330
1685
100
AcDbEntity
  8
0
100
AcDbEllipse
 10
53.87969696137659
 20
-30.94628260600094
 30
0.0
 11
-1.25
 21
-2.165063509461096
 31
0.0
210
0.0
220
0.0
230
1.0
 40
0.5773502691896259
 41
0.0
 42
6.283185307179586
  0
ELLIPSE
  5
16B4
330
1685
100
AcDbEntity
  8
0
100
AcDbEllipse
 10
53.87969696137659
 20
-14.61635098744642
 30
0.0
 11
-1.25
 21
-2.165063509461096
 31
0.0
210
0.0
220
0.0
230
1.0
 40
0.5773502691896259
 41
0.0
 42
6.283185307179586
  0
ELLIPSE
  5
16B5
330
1685
100
AcDbEntity
  8
0
100
AcDbEllipse
 10
53.87969696137659
 20
1.713580631108087
 30
0.0
 11
-1.25
 21
-2.165063509461096
 31
0.0
210
0.0
220
0.0
230
1.0
 40
0.5773502691896259
 41
0.0
 42
6.283185307179586
  0
ELLIPSE
  5
16B6
330
1685
100
AcDbEntity
  8
0
100
AcDbEllipse
 10
53.87969696137659
 20
18.04351224966261
 30
0.0
 11
-1.25
 21
-2.165063509461096
 31
0.0
210
0.0
220
0.0
230
1.0
 40
0.5773502691896259
 41
0.0
 42
6.283185307179586
  0
ELLIPSE
  5
16B7
330
1685
100
AcDbEntity
  8
0
100
AcDbEllipse
 10
52.4654833990035
 20
-79.11958088073678
 30
0.0
 11
1.24999999999987
 21
2.165063509461171
 31
0.0
210
0.0
220
0.0
230
1.0
 40
0.577350269189626
 41
3.742856870268582
 42
5.681921090500117
  0
ELLIPSE
  5
16B8
330
1685
100
AcDbEntity
  8
0
100
AcDbEllipse
 10
52.4654833990035
 20
-62.78964926218225
 30
0.0
 11
1.24999999999987
 21
2.165063509461171
 31
0.0
210
0.0
220
0.0
230
1.0
 40
0.577350269189626
 41
3.742856870268582
 42
5.681921090500117
  0
ELLIPSE
  5
16B9
330
1685
100
AcDbEntity
  8
0
100
AcDbEllipse
 10
52.4654833990035
 20
-46.45971764362774
 30
0.0
 11
1.24999999999987
 21
2.165063509461171
 31
0.0
210
0.0
220
0.0
230
1.0
 40
0.577350269189626
 41
3.742856870268582
 42
5.681921090500117
  0
ELLIPSE
  5
16BA
330
1685
100
AcDbEntity
  8
0
100
AcDbEllipse
 10
52.4654833990035
 20
-30.12978602507322
 30
0.0
 11
1.24999999999987
 21
2.165063509461171
 31
0.0
210
0.0
220
0.0
230
1.0
 40
0.577350269189626
 41
3.742856870268584
 42
5.68192109050012
  0
ELLIPSE
  5
16BB
330
1685
100
AcDbEntity
  8
0
100
AcDbEllipse
 10
52.4654833990035
 20
-13.79985440651869
 30
0.0
 11
1.24999999999987
 21
2.165063509461171
 31
0.0
210
0.0
220
0.0
230
1.0
 40
0.577350269189626
 41
3.742856870268582
 42
5.68192109050012
  0
ELLIPSE
  5
16BC
330
1685
100
AcDbEntity
  8
0
100
AcDbEllipse
 10
52.4654833990035
 20
2.530077212035815
 30
0.0
 11
1.24999999999987
 21
2.165063509461171
 31
0.0
210
0.0
220
0.0
230
1.0
 40
0.577350269189626
 41
3.742856870268584
 42
5.68192109050012
  0
ELLIPSE
  5
16BD
330
1685
100
AcDbEntity
  8
0
100
AcDbEllipse
 10
52.4654833990035
 20
18.86000883059034
 30
0.0
 11
1.24999999999987
 21
2.165063509461171
 31
0.0
210
0.0
220
0.0
230
1.0
 40
0.577350269189626
 41
3.742856870268582
 42
5.68192109050012
  0
LINE
  5
16BE
330
1685
100
AcDbEntity
  8
0
100
AcDbLine
 10
48.5763961024775
 20
-85.82176078799774
 30
0.0
 11
48.57639610247751
 21
43.55903040365406
 31
0.0
  0
LINE
  5
16BF
330
1685
100
AcDbEntity
  8
0
100
AcDbLine
 10
41.63257243662467
 20
-96.55871107752762
 30
0.0
 11
48.5763961024775
 21
-85.82176078799774
 31
0.0
  0
LINE
  5
16C0
330
1685
100
AcDbEntity
  8
0
100
AcDbLine
 10
23.21371974110345
 20
-110.9430085556839
 30
0.0
 11
41.63257243662467
 21
-96.55871107752762
 31
0.0
  0
ELLIPSE
  5
16C1
330
1685
100
AcDbEntity
  8
0
100
AcDbEllipse
 10
23.82765876094833
 20
-114.6090115133384
 30
0.0
 11
2.500000000000258
 21
4.330127018922044
 31
0.0
210
0.0
220
0.0
230
1.0
 40
0.5773502691896258
 41
0.9599310885970773
 42
2.356194490192587
  0
ELLIPSE
  5
16C2
330
1685
100
AcDbEntity
  8
0
100
AcDbEllipse
 10
22.41344519857523
 20
-113.7925149324107
 30
0.0
 11
-2.499999999999741
 21
-4.330127018922341
 31
0.0
210
0.0
220
0.0
230
1.0
 40
0.5773502691896259
 41
4.101523742186527
 42
5.497787143781943
  0
LINE
  5
16C3
330
1685
100
AcDbEntity
  8
0
100
AcDbLine
 10
40.21835887425157
 20
-95.74221449659987
 30
0.0
 11
21.79950617873036
 21
-110.1265119747562
 31
0.0
  0
LINE
  5
16C4
330
1685
100
AcDbEntity
  8
0
100
AcDbLine
 10
47.16218254010441
 20
-85.00526420707002
 30
0.0
 11
40.21835887425157
 21
-95.74221449659987
 31
0.0
  0
LINE
  5
16C5
330
1685
100
AcDbEntity
  8
0
100
AcDbLine
 10
47.16218254010441
 20
44.3755269845818
 30
0.0
 11
47.16218254010441
 21
-85.00526420707002
 31
0.0
  0
ELLIPSE
  5
16C6
330
1685
100
AcDbEntity
  8
0
100
AcDbEllipse
 10
-77.99571772991453
 20
-55.82125768654215
 30
0.0
 11
2.500000000000258
 21
4.330127018922044
 31
0.0
210
0.0
220
0.0
230
1.0
 40
0.5773502691896258
 41
0.9599310885970773
 42
2.356194490192589
  0
LINE
  5
16C7
330
1685
100
AcDbEntity
  8
0
100
AcDbLine
 10
-78.60965674975941
 20
-52.1552547288877
 30
0.0
 11
-60.19080405423817
 21
-37.77095725073133
 31
0.0
  0
LINE
  5
16C8
330
1685
100
AcDbEntity
  8
0
100
AcDbLine
 10
-60.19080405423817
 20
-37.77095725073133
 30
0.0
 11
-53.24698038838535
 21
-27.03400696120143
 31
0.0
  0
LINE
  5
16C9
330
1685
100
AcDbEntity
  8
0
100
AcDbLine
 10
-53.24698038838535
 20
-27.03400696120143
 30
0.0
 11
-53.24698038838533
 21
102.3467842304503
 31
0.0
  0
LINE
  5
16CA
330
1685
100
AcDbEntity
  8
0
100
AcDbLine
 10
41.63257243662467
 20
-96.55871107752762
 30
0.0
 11
40.21835887425157
 21
-95.74221449659987
 31
0.0
  0
LINE
  5
16CB
330
1685
100
AcDbEntity
  8
0
100
AcDbLine
 10
48.5763961024775
 20
-85.82176078799774
 30
0.0
 11
47.16218254010441
 21
-85.00526420707002
 31
0.0
  0
LINE
  5
16CC
330
1685
100
AcDbEntity
  8
0
100
AcDbLine
 10
23.21371974110345
 20
-110.9430085556839
 30
0.0
 11
21.79950617873036
 21
-110.1265119747562
 31
0.0
  0
LINE
  5
16CD
330
1685
100
AcDbEntity
  8
0
100
AcDbLine
 10
18.87791129264248
 20
-115.83375638473
 30
0.0
 11
20.29212485501558
 21
-116.6502529656577
 31
0.0
  0
LINE
  5
16CE
330
1685
100
AcDbEntity
  8
0
100
AcDbLine
 10
48.57639610247751
 20
43.55903040365406
 30
0.0
 11
47.16218254010441
 21
44.3755269845818
 31
0.0
  0
LINE
  5
16CF
330
1685
100
AcDbEntity
  8
0
100
AcDbLine
 10
-51.83276682601226
 20
-27.85050354212916
 30
0.0
 11
-58.77659049186508
 21
-38.58745383165906
 31
0.0
  0
LINE
  5
16D0
330
1685
100
AcDbEntity
  8
0
100
AcDbLine
 10
-53.24698038838535
 20
-27.03400696120143
 30
0.0
 11
-51.83276682601226
 21
-27.85050354212916
 31
0.0
  0
LINE
  5
16D1
330
1685
100
AcDbEntity
  8
0
100
AcDbLine
 10
-60.19080405423817
 20
-37.77095725073133
 30
0.0
 11
-58.77659049186508
 21
-38.58745383165906
 31
0.0
  0
LINE
  5
16D2
330
1685
100
AcDbEntity
  8
0
100
AcDbLine
 10
-58.77659049186508
 20
-38.58745383165906
 30
0.0
 11
-77.19544318738631
 21
-52.97175130981542
 31
0.0
  0
LINE
  5
16D3
330
1685
100
AcDbEntity
  8
0
100
AcDbLine
 10
-78.60965674975941
 20
-52.1552547288877
 30
0.0
 11
-77.19544318738631
 21
-52.97175130981542
 31
0.0
  0
ELLIPSE
  5
16D4
330
1685
100
AcDbEntity
  8
0
100
AcDbEllipse
 10
-76.58150416754143
 20
-56.63775426746988
 30
0.0
 11
-2.499999999999739
 21
-4.330127018922343
 31
0.0
210
0.0
220
0.0
230
1.0
 40
0.5773502691896258
 41
4.101523742186525
 42
5.497787143781941
  0
LINE
  5
16D5
330
1685
100
AcDbEntity
  8
0
100
AcDbLine
 10
-80.11703807347416
 20
-58.6789957197892
 30
0.0
 11
-81.53125163584727
 21
-57.86249913886146
 31
0.0
  0
LINE
  5
16D6
330
1685
100
AcDbEntity
  8
0
100
AcDbLine
 10
-51.83276682601224
 20
101.5302876495226
 30
0.0
 11
-51.83276682601226
 21
-27.85050354212915
 31
0.0
  0
LINE
  5
16D7
330
1685
100
AcDbEntity
  8
0
100
AcDbLine
 10
-53.24698038838533
 20
102.3467842304503
 30
0.0
 11
-51.83276682601224
 21
101.5302876495226
 31
0.0
  0
ELLIPSE
  5
16D8
330
1685
100
AcDbEntity
  8
0
100
AcDbEllipse
 10
-17.89164132905795
 20
-82.99793964014344
 30
0.0
 11
-2.499999999999999
 21
0.0000000000001492
 31
0.0
210
0.0
220
0.0
230
1.0
 40
0.5773502691896259
 41
0.0
 42
6.283185307179586
  0
ELLIPSE
  5
16D9
330
1685
100
AcDbEntity
  8
0
100
AcDbEllipse
 10
-3.749505705327003
 20
-74.83297383086619
 30
0.0
 11
-2.499999999999999
 21
0.0000000000001492
 31
0.0
210
0.0
220
0.0
230
1.0
 40
0.5773502691896259
 41
0.0
 42
6.283185307179586
  0
LINE
  5
16DA
330
1685
100
AcDbEntity
  8
0
100
AcDbLine
 10
-78.70282451110103
 20
-62.58552511695032
 30
0.0
 11
17.4636977302694
 21
-118.1072926200356
 31
0.0
  0
LINE
  5
16DB
330
1685
100
AcDbEntity
  8
0
100
AcDbLine
 10
17.4636977302694
 20
-119.7402857818911
 30
0.0
 11
-78.70282451110103
 21
-64.21851827880576
 31
0.0
  0
ELLIPSE
  5
16DC
330
1685
100
AcDbEntity
  8
0
100
AcDbEllipse
 10
-17.89164132905795
 20
-84.6309328019989
 30
0.0
 11
-2.5
 21
-0.000000000000149
 31
0.0
210
0.0
220
0.0
230
1.0
 40
0.5773502691896259
 41
3.742856870268575
 42
5.68192109050012
  0
ELLIPSE
  5
16DD
330
1685
100
AcDbEntity
  8
0
100
AcDbEllipse
 10
-3.749505705327003
 20
-76.46596699272165
 30
0.0
 11
-2.5
 21
-0.000000000000149
 31
0.0
210
0.0
220
0.0
230
1.0
 40
0.5773502691896259
 41
3.742856870268582
 42
5.681921090500122
  0
LINE
  5
16DE
330
1685
100
AcDbEntity
  8
0
100
AcDbLine
 10
-19.30585489143108
 20
-28.29266871798583
 30
0.0
 11
-78.70282451110103
 21
-62.58552511695032
 31
0.0
  0
ELLIPSE
  5
16DF
330
1685
100
AcDbEntity
  8
0
100
AcDbEllipse
 10
-78.70282451110103
 20
-60.95253195509486
 30
0.0
 11
2.000000000000207
 21
-3.464101615137639
 31
0.0
210
0.0
220
0.0
230
1.0
 40
0.5773502691896257
 41
3.926990816986997
 42
5.497787143781893
  0
LINE
  5
16E0
330
1685
100
AcDbEntity
  8
0
100
AcDbLine
 10
-80.11703807347414
 20
-60.13603537416713
 30
0.0
 11
-20.72006845380421
 21
-25.84317897520268
 31
0.0
  0
ELLIPSE
  5
16E1
330
1685
100
AcDbEntity
  8
0
100
AcDbEllipse
 10
-78.70282451110103
 20
-60.95253195509486
 30
0.0
 11
1.000000000000103
 21
-1.732050807568819
 31
0.0
210
0.0
220
0.0
230
1.0
 40
0.5773502691896257
 41
3.926990816986997
 42
5.497787143781897
  0
LINE
  5
16E2
330
1685
100
AcDbEntity
  8
0
100
AcDbLine
 10
-81.53125163584721
 20
-59.31953879323941
 30
0.0
 11
-80.11703807347414
 21
-60.13603537416713
 31
0.0
  0
LINE
  5
16E3
330
1685
100
AcDbEntity
  8
0
100
AcDbLine
 10
-78.70282451110103
 20
-64.21851827880576
 30
0.0
 11
-78.70282451110103
 21
-62.58552511695032
 31
0.0
  0
LINE
  5
16E4
330
1685
100
AcDbEntity
  8
0
100
AcDbLine
 10
-20.72006845380422
 20
-22.37306850625984
 30
0.0
 11
-22.09995992456606
 21
-23.16974921835666
 31
0.0
  0
SPLINE
  5
16E5
330
1685
100
AcDbEntity
  8
0
100
AcDbSpline
210
0.0
220
0.0
230
1.0
 70
     8
 71
     3
 72
    11
 73
     7
 74
     0
 42
0.000000001
 43
0.0000000001
 40
-1.0
 40
-1.0
 40
-1.0
 40
-1.0
 40
-0.3432331292066835
 40
-0.3432331292066835
 40
-0.3432331292066835
 40
0.0
 40
0.0
 40
0.0
 40
0.0
 10
-20.72006845380421
 20
-22.37306850625986
 30
0.0
 10
-20.72080520703659
 20
-21.72216912775305
 30
0.0
 10
-20.43199889412236
 20
-21.29949576251673
 30
0.0
 10
-19.99661849261732
 20
-21.17583667462701
 30
0.0
 10
-19.76908421181031
 20
-21.11121116201557
 30
0.0
 10
-19.4985453046487
 20
-21.13271050741909
 30
0.0
 10
-19.21268712920956
 20
-21.23596551750883
 30
0.0
  0
LINE
  5
16E6
330
1685
100
AcDbEntity
  8
0
100
AcDbLine
 10
-19.30585489143106
 20
-21.18217508586705
 30
0.0
 11
-19.21268713008931
 21
-21.2359655179575
 31
0.0
  0
ELLIPSE
  5
16E7
330
1685
100
AcDbEntity
  8
0
100
AcDbEllipse
 10
-20.72006845380418
 20
-21.99867166679478
 30
0.0
 11
2.000000000000017
 21
-0.0000000000001193
 31
0.0
210
0.0
220
0.0
230
1.0
 40
0.5773502691896258
 41
0.785398163397689
 42
2.356194490192581
  0
LINE
  5
16E8
330
1685
100
AcDbEntity
  8
0
100
AcDbLine
 10
-22.13428201617728
 20
-21.18217508586705
 30
0.0
 11
-22.13428201617728
 21
-21.48565269705482
 31
0.0
  0
LINE
  5
16E9
330
1685
100
AcDbEntity
  8
0
100
AcDbLine
 10
-22.13428201617728
 20
-21.48565269705482
 30
0.0
 11
-22.13428201617728
 21
-23.18956508718752
 31
0.0
  0
LINE
  5
16EA
330
1685
100
AcDbEntity
  8
0
100
AcDbLine
 10
-22.09995992456606
 20
-23.16974921835666
 30
0.0
 11
-22.13428201617727
 21
-23.18956508718753
 31
0.0
  0
LINE
  5
16EB
330
1685
100
AcDbEntity
  8
0
100
AcDbLine
 10
-81.53125163584727
 20
-57.86249913886146
 30
0.0
 11
-81.53125163584721
 21
-59.31953879323941
 31
0.0
  0
LINE
  5
16EC
330
1685
100
AcDbEntity
  8
0
100
AcDbLine
 10
-23.54849557855037
 20
119.4932124299326
 30
0.0
 11
-53.24698038838533
 21
102.3467842304503
 31
0.0
  0
LINE
  5
16ED
330
1685
100
AcDbEntity
  8
0
100
AcDbLine
 10
7.210649403064448
 20
103.36740495661
 30
0.0
 11
7.210649403064506
 21
-26.01338623504182
 31
0.0
  0
LINE
  5
16EE
330
1685
100
AcDbEntity
  8
0
100
AcDbLine
 10
-19.30585489143107
 20
118.6767158490048
 30
0.0
 11
7.210649403064448
 21
103.36740495661
 31
0.0
  0
LINE
  5
16EF
330
1685
100
AcDbEntity
  8
0
100
AcDbLine
 10
-80.11703807347414
 20
-60.13603537416713
 30
0.0
 11
-80.11703807347416
 21
-58.6789957197892
 31
0.0
  0
LINE
  5
16F0
330
1685
100
AcDbEntity
  8
0
100
AcDbLine
 10
-51.83276682601224
 20
101.5302876495226
 30
0.0
 11
-22.13428201617727
 21
118.6767158490048
 31
0.0
  0
LINE
  5
16F1
330
1685
100
AcDbEntity
  8
0
100
AcDbLine
 10
8.624862965437557
 20
104.1839015375377
 30
0.0
 11
-17.89164132905798
 21
119.4932124299326
 31
0.0
  0
LINE
  5
16F2
330
1685
100
AcDbEntity
  8
0
100
AcDbLine
 10
8.624862965437557
 20
104.1839015375377
 30
0.0
 11
8.624862965437598
 21
-25.19688965411408
 31
0.0
  0
LINE
  5
16F3
330
1685
100
AcDbEntity
  8
0
100
AcDbLine
 10
7.210649403064448
 20
103.36740495661
 30
0.0
 11
8.624862965437557
 21
104.1839015375377
 31
0.0
  0
ELLIPSE
  5
16F4
330
1685
100
AcDbEntity
  8
0
100
AcDbEllipse
 10
-47.94367952948625
 20
101.3261635042907
 30
0.0
 11
1.24999999999987
 21
2.165063509461171
 31
0.0
210
0.0
220
0.0
230
0.9999999999999998
 40
0.5773502691896258
 41
3.742856870268584
 42
5.681921090500105
  0
ELLIPSE
  5
16F5
330
1685
100
AcDbEntity
  8
0
100
AcDbEllipse
 10
-46.52946596711314
 20
100.509666923363
 30
0.0
 11
1.249999999999999
 21
2.165063509461097
 31
0.0
210
0.0
220
0.0
230
0.9999999999999998
 40
0.5773502691896258
 41
0.0
 42
6.283185307179586
  0
ELLIPSE
  5
16F6
330
1685
100
AcDbEntity
  8
0
100
AcDbEllipse
 10
-47.94367952948625
 20
84.99623188573616
 30
0.0
 11
1.24999999999987
 21
2.165063509461171
 31
0.0
210
0.0
220
0.0
230
0.9999999999999998
 40
0.5773502691896258
 41
3.742856870268584
 42
5.681921090500122
  0
ELLIPSE
  5
16F7
330
1685
100
AcDbEntity
  8
0
100
AcDbEllipse
 10
-47.94367952948625
 20
68.66630026718164
 30
0.0
 11
1.24999999999987
 21
2.165063509461171
 31
0.0
210
0.0
220
0.0
230
0.9999999999999998
 40
0.5773502691896258
 41
3.742856870268584
 42
5.681921090500117
  0
ELLIPSE
  5
16F8
330
1685
100
AcDbEntity
  8
0
100
AcDbEllipse
 10
-47.94367952948625
 20
52.33636864862713
 30
0.0
 11
1.24999999999987
 21
2.165063509461171
 31
0.0
210
0.0
220
0.0
230
0.9999999999999998
 40
0.5773502691896258
 41
3.742856870268584
 42
5.681921090500117
  0
ELLIPSE
  5
16F9
330
1685
100
AcDbEntity
  8
0
100
AcDbEllipse
 10
-47.94367952948625
 20
36.00643703007261
 30
0.0
 11
1.24999999999987
 21
2.165063509461171
 31
0.0
210
0.0
220
0.0
230
0.9999999999999998
 40
0.5773502691896258
 41
3.742856870268584
 42
5.68192109050012
  0
ELLIPSE
  5
16FA
330
1685
100
AcDbEntity
  8
0
100
AcDbEllipse
 10
-47.94367952948625
 20
19.67650541151808
 30
0.0
 11
1.24999999999987
 21
2.165063509461171
 31
0.0
210
0.0
220
0.0
230
0.9999999999999998
 40
0.5773502691896258
 41
3.742856870268584
 42
5.681921090500117
  0
ELLIPSE
  5
16FB
330
1685
100
AcDbEntity
  8
0
100
AcDbEllipse
 10
-47.94367952948625
 20
3.346573792963578
 30
0.0
 11
1.24999999999987
 21
2.165063509461171
 31
0.0
210
0.0
220
0.0
230
0.9999999999999998
 40
0.5773502691896258
 41
3.742856870268584
 42
5.681921090500117
  0
ELLIPSE
  5
16FC
330
1685
100
AcDbEntity
  8
0
100
AcDbEllipse
 10
-47.94367952948625
 20
-12.98335782559094
 30
0.0
 11
1.24999999999987
 21
2.165063509461171
 31
0.0
210
0.0
220
0.0
230
0.9999999999999998
 40
0.5773502691896258
 41
3.742856870268584
 42
5.681921090500116
  0
ELLIPSE
  5
16FD
330
1685
100
AcDbEntity
  8
0
100
AcDbEllipse
 10
-46.52946596711314
 20
-13.79985440651868
 30
0.0
 11
1.249999999999999
 21
2.165063509461097
 31
0.0
210
0.0
220
0.0
230
0.9999999999999998
 40
0.5773502691896258
 41
0.0
 42
6.283185307179586
  0
ELLIPSE
  5
16FE
330
1685
100
AcDbEntity
  8
0
100
AcDbEllipse
 10
-46.52946596711314
 20
2.530077212035841
 30
0.0
 11
1.249999999999999
 21
2.165063509461097
 31
0.0
210
0.0
220
0.0
230
0.9999999999999998
 40
0.5773502691896258
 41
0.0
 42
6.283185307179586
  0
ELLIPSE
  5
16FF
330
1685
100
AcDbEntity
  8
0
100
AcDbEllipse
 10
-46.52946596711314
 20
18.86000883059036
 30
0.0
 11
1.249999999999999
 21
2.165063509461097
 31
0.0
210
0.0
220
0.0
230
0.9999999999999998
 40
0.5773502691896258
 41
0.0
 42
6.283185307179586
  0
ELLIPSE
  5
1700
330
1685
100
AcDbEntity
  8
0
100
AcDbEllipse
 10
-46.52946596711314
 20
35.18994044914489
 30
0.0
 11
1.249999999999999
 21
2.165063509461097
 31
0.0
210
0.0
220
0.0
230
0.9999999999999998
 40
0.5773502691896258
 41
0.0
 42
6.283185307179586
  0
ELLIPSE
  5
1701
330
1685
100
AcDbEntity
  8
0
100
AcDbEllipse
 10
-46.52946596711314
 20
51.51987206769941
 30
0.0
 11
1.249999999999999
 21
2.165063509461097
 31
0.0
210
0.0
220
0.0
230
0.9999999999999998
 40
0.5773502691896258
 41
0.0
 42
6.283185307179586
  0
ELLIPSE
  5
1702
330
1685
100
AcDbEntity
  8
0
100
AcDbEllipse
 10
-46.52946596711314
 20
67.84980368625392
 30
0.0
 11
1.249999999999999
 21
2.165063509461097
 31
0.0
210
0.0
220
0.0
230
0.9999999999999998
 40
0.5773502691896258
 41
0.0
 42
6.283185307179586
  0
ELLIPSE
  5
1703
330
1685
100
AcDbEntity
  8
0
100
AcDbEllipse
 10
-46.52946596711314
 20
84.17973530480844
 30
0.0
 11
1.249999999999999
 21
2.165063509461097
 31
0.0
210
0.0
220
0.0
230
0.9999999999999998
 40
0.5773502691896258
 41
0.0
 42
6.283185307179586
  0
ELLIPSE
  5
1704
330
1685
100
AcDbEntity
  8
0
100
AcDbEllipse
 10
71.91091988163356
 20
61.9302034745279
 30
0.0
 11
-1.250000000000129
 21
2.165063509461022
 31
0.0
210
0.0
220
0.0
230
1.0
 40
0.5773502691896258
 41
0.0
 42
6.283185307179586
  0
ELLIPSE
  5
1705
330
1685
100
AcDbEntity
  8
0
100
AcDbEllipse
 10
-14.35610742312525
 20
111.7364949111192
 30
0.0
 11
-1.249999999999999
 21
2.165063509461097
 31
0.0
210
0.0
220
0.0
230
0.9999999999999998
 40
0.5773502691896258
 41
0.0
 42
6.283185307179586
  0
ELLIPSE
  5
1706
330
1685
100
AcDbEntity
  8
0
100
AcDbEllipse
 10
73.32513344400665
 20
62.74670005545562
 30
0.0
 11
-1.24999999999987
 21
2.165063509461171
 31
0.0
210
0.0
220
0.0
230
0.9999999999999998
 40
0.5773502691896259
 41
0.6012642166794846
 42
2.540328436911007
  0
ELLIPSE
  5
1707
330
1685
100
AcDbEntity
  8
0
100
AcDbEllipse
 10
-12.94189386075215
 20
112.5529914920469
 30
0.0
 11
1.250000000000129
 21
-2.165063509461022
 31
0.0
210
0.0
220
0.0
230
1.0
 40
0.5773502691896259
 41
3.742856870268589
 42
5.681921090500122
  0
LINE
  5
1708
330
1685
100
AcDbEntity
  8
0
100
AcDbLine
 10
-19.30585489143107
 20
118.6767158490048
 30
0.0
 11
-19.30585489143106
 21
-21.18217508586705
 31
0.0
  0
ELLIPSE
  5
1709
330
1685
100
AcDbEntity
  8
0
100
AcDbEllipse
 10
-20.72006845380418
 20
117.8602192680771
 30
0.0
 11
2.000000000000001
 21
-0.0000000000001191
 31
0.0
210
0.0
220
0.0
230
1.0
 40
0.5773502691896257
 41
0.7853981633976961
 42
2.35619449019259
  0
LINE
  5
170A
330
1685
100
AcDbEntity
  8
0
100
AcDbLine
 10
-22.13428201617727
 20
118.6767158490048
 30
0.0
 11
-22.13428201617728
 21
-21.18217508586705
 31
0.0
  0
ELLIPSE
  5
170B
330
1685
100
AcDbEntity
  8
0
100
AcDbEllipse
 10
-20.72006845380418
 20
117.8602192680771
 30
0.0
 11
-4.000000000000002
 21
-0.0000000000002387
 31
0.0
210
0.0
220
0.0
230
1.0
 40
0.577350269189626
 41
3.926990816987002
 42
5.497787143781898
  0
LINE
  5
170C
330
1685
100
AcDbEntity
  8
0
100
AcDbLine
 10
-17.89164132905798
 20
119.4932124299326
 30
0.0
 11
-19.30585489143107
 21
118.6767158490048
 31
0.0
  0
LINE
  5
170D
330
1685
100
AcDbEntity
  8
0
100
AcDbLine
 10
-23.54849557855037
 20
119.4932124299326
 30
0.0
 11
-22.13428201617727
 21
118.6767158490048
 31
0.0
  0
ELLIPSE
  5
170E
330
1685
100
AcDbEntity
  8
0
100
AcDbEllipse
 10
1.200241762978806
 20
94.59006671163693
 30
0.0
 11
-1.249999999999999
 21
2.165063509461097
 31
0.0
210
0.0
220
0.0
230
0.9999999999999998
 40
0.5773502691896258
 41
0.0
 42
6.283185307179586
  0
ELLIPSE
  5
170F
330
1685
100
AcDbEntity
  8
0
100
AcDbEllipse
 10
2.614455325351894
 20
95.40656329256467
 30
0.0
 11
1.250000000000129
 21
-2.165063509461022
 31
0.0
210
0.0
220
0.0
230
1.0
 40
0.5773502691896259
 41
3.742856870268589
 42
5.681921090500122
  0
ELLIPSE
  5
1710
330
1685
100
AcDbEntity
  8
0
100
AcDbEllipse
 10
1.200241762978806
 20
78.26013509308241
 30
0.0
 11
-1.249999999999999
 21
2.165063509461097
 31
0.0
210
0.0
220
0.0
230
0.9999999999999998
 40
0.5773502691896258
 41
0.0
 42
6.283185307179586
  0
ELLIPSE
  5
1711
330
1685
100
AcDbEntity
  8
0
100
AcDbEllipse
 10
1.200241762978806
 20
61.93020347452788
 30
0.0
 11
-1.249999999999999
 21
2.165063509461097
 31
0.0
210
0.0
220
0.0
230
0.9999999999999998
 40
0.5773502691896258
 41
0.0
 42
6.283185307179586
  0
ELLIPSE
  5
1712
330
1685
100
AcDbEntity
  8
0
100
AcDbEllipse
 10
1.200241762978806
 20
45.60027185597338
 30
0.0
 11
-1.249999999999999
 21
2.165063509461097
 31
0.0
210
0.0
220
0.0
230
0.9999999999999998
 40
0.5773502691896258
 41
0.0
 42
6.283185307179586
  0
ELLIPSE
  5
1713
330
1685
100
AcDbEntity
  8
0
100
AcDbEllipse
 10
1.200241762978806
 20
29.27034023741886
 30
0.0
 11
-1.249999999999999
 21
2.165063509461097
 31
0.0
210
0.0
220
0.0
230
0.9999999999999998
 40
0.5773502691896258
 41
0.0
 42
6.283185307179586
  0
ELLIPSE
  5
1714
330
1685
100
AcDbEntity
  8
0
100
AcDbEllipse
 10
1.200241762978806
 20
12.94040861886434
 30
0.0
 11
-1.249999999999999
 21
2.165063509461097
 31
0.0
210
0.0
220
0.0
230
0.9999999999999998
 40
0.5773502691896258
 41
0.0
 42
6.283185307179586
  0
ELLIPSE
  5
1715
330
1685
100
AcDbEntity
  8
0
100
AcDbEllipse
 10
1.200241762978806
 20
-3.389522999690175
 30
0.0
 11
-1.249999999999999
 21
2.165063509461097
 31
0.0
210
0.0
220
0.0
230
0.9999999999999998
 40
0.5773502691896258
 41
0.0
 42
6.283185307179586
  0
ELLIPSE
  5
1716
330
1685
100
AcDbEntity
  8
0
100
AcDbEllipse
 10
1.200241762978806
 20
-19.7194546182447
 30
0.0
 11
-1.249999999999999
 21
2.165063509461097
 31
0.0
210
0.0
220
0.0
230
0.9999999999999998
 40
0.5773502691896258
 41
0.0
 42
6.283185307179586
  0
ELLIPSE
  5
1717
330
1685
100
AcDbEntity
  8
0
100
AcDbEllipse
 10
2.614455325351894
 20
79.07663167401015
 30
0.0
 11
1.250000000000128
 21
-2.165063509461021
 31
0.0
210
0.0
220
0.0
230
0.9999999999999998
 40
0.5773502691896259
 41
3.742856870268578
 42
5.681921090500118
  0
ELLIPSE
  5
1718
330
1685
100
AcDbEntity
  8
0
100
AcDbEllipse
 10
2.614455325351894
 20
62.74670005545562
 30
0.0
 11
1.250000000000128
 21
-2.165063509461021
 31
0.0
210
0.0
220
0.0
230
0.9999999999999998
 40
0.5773502691896259
 41
3.742856870268573
 42
5.681921090500118
  0
ELLIPSE
  5
1719
330
1685
100
AcDbEntity
  8
0
100
AcDbEllipse
 10
2.614455325351894
 20
46.41676843690112
 30
0.0
 11
1.250000000000128
 21
-2.165063509461021
 31
0.0
210
0.0
220
0.0
230
0.9999999999999998
 40
0.5773502691896259
 41
3.742856870268573
 42
5.681921090500118
  0
ELLIPSE
  5
171A
330
1685
100
AcDbEntity
  8
0
100
AcDbEllipse
 10
2.614455325351894
 20
30.08683681834659
 30
0.0
 11
1.250000000000128
 21
-2.165063509461021
 31
0.0
210
0.0
220
0.0
230
0.9999999999999998
 40
0.5773502691896259
 41
3.742856870268578
 42
5.68192109050012
  0
ELLIPSE
  5
171B
330
1685
100
AcDbEntity
  8
0
100
AcDbEllipse
 10
2.614455325351894
 20
13.75690519979206
 30
0.0
 11
1.250000000000128
 21
-2.165063509461021
 31
0.0
210
0.0
220
0.0
230
0.9999999999999998
 40
0.5773502691896259
 41
3.742856870268578
 42
5.681921090500119
  0
ELLIPSE
  5
171C
330
1685
100
AcDbEntity
  8
0
100
AcDbEllipse
 10
2.614455325351894
 20
-2.573026418762456
 30
0.0
 11
1.250000000000128
 21
-2.165063509461021
 31
0.0
210
0.0
220
0.0
230
0.9999999999999998
 40
0.5773502691896259
 41
3.742856870268578
 42
5.681921090500119
  0
ELLIPSE
  5
171D
330
1685
100
AcDbEntity
  8
0
100
AcDbEllipse
 10
2.614455325351894
 20
-18.90295803731697
 30
0.0
 11
1.250000000000128
 21
-2.165063509461021
 31
0.0
210
0.0
220
0.0
230
0.9999999999999998
 40
0.5773502691896259
 41
3.742856870268578
 42
5.681921090500119
  0
ELLIPSE
  5
171E
330
1685
100
AcDbEntity
  8
0
100
AcDbEllipse
 10
-14.35610742312525
 20
95.40656329256467
 30
0.0
 11
-1.249999999999999
 21
2.165063509461097
 31
0.0
210
0.0
220
0.0
230
0.9999999999999998
 40
0.5773502691896258
 41
0.0
 42
6.283185307179586
  0
ELLIPSE
  5
171F
330
1685
100
AcDbEntity
  8
0
100
AcDbEllipse
 10
-14.35610742312525
 20
79.07663167401015
 30
0.0
 11
-1.249999999999999
 21
2.165063509461097
 31
0.0
210
0.0
220
0.0
230
0.9999999999999998
 40
0.5773502691896258
 41
0.0
 42
6.283185307179586
  0
ELLIPSE
  5
1720
330
1685
100
AcDbEntity
  8
0
100
AcDbEllipse
 10
-14.35610742312525
 20
62.74670005545565
 30
0.0
 11
-1.249999999999999
 21
2.165063509461097
 31
0.0
210
0.0
220
0.0
230
0.9999999999999998
 40
0.5773502691896258
 41
0.0
 42
6.283185307179586
  0
ELLIPSE
  5
1721
330
1685
100
AcDbEntity
  8
0
100
AcDbEllipse
 10
-14.35610742312525
 20
46.41676843690112
 30
0.0
 11
-1.249999999999999
 21
2.165063509461097
 31
0.0
210
0.0
220
0.0
230
0.9999999999999998
 40
0.5773502691896258
 41
0.0
 42
6.283185307179586
  0
ELLIPSE
  5
1722
330
1685
100
AcDbEntity
  8
0
100
AcDbEllipse
 10
-14.35610742312525
 20
30.08683681834659
 30
0.0
 11
-1.249999999999999
 21
2.165063509461097
 31
0.0
210
0.0
220
0.0
230
0.9999999999999998
 40
0.5773502691896258
 41
0.0
 42
6.283185307179586
  0
ELLIPSE
  5
1723
330
1685
100
AcDbEntity
  8
0
100
AcDbEllipse
 10
-14.35610742312525
 20
13.75690519979207
 30
0.0
 11
-1.249999999999999
 21
2.165063509461097
 31
0.0
210
0.0
220
0.0
230
0.9999999999999998
 40
0.5773502691896258
 41
0.0
 42
6.283185307179586
  0
ELLIPSE
  5
1724
330
1685
100
AcDbEntity
  8
0
100
AcDbEllipse
 10
-14.35610742312525
 20
-2.573026418762456
 30
0.0
 11
-1.249999999999999
 21
2.165063509461097
 31
0.0
210
0.0
220
0.0
230
0.9999999999999998
 40
0.5773502691896258
 41
0.0
 42
6.283185307179586
  0
ELLIPSE
  5
1725
330
1685
100
AcDbEntity
  8
0
100
AcDbEllipse
 10
-12.94189386075215
 20
96.22305987349239
 30
0.0
 11
1.250000000000128
 21
-2.165063509461021
 31
0.0
210
0.0
220
0.0
230
0.9999999999999998
 40
0.5773502691896259
 41
3.742856870268578
 42
5.681921090500117
  0
ELLIPSE
  5
1726
330
1685
100
AcDbEntity
  8
0
100
AcDbEllipse
 10
-12.94189386075215
 20
79.89312825493787
 30
0.0
 11
1.250000000000128
 21
-2.165063509461021
 31
0.0
210
0.0
220
0.0
230
0.9999999999999998
 40
0.5773502691896259
 41
3.742856870268578
 42
5.681921090500118
  0
ELLIPSE
  5
1727
330
1685
100
AcDbEntity
  8
0
100
AcDbEllipse
 10
-12.94189386075215
 20
63.56319663638337
 30
0.0
 11
1.250000000000128
 21
-2.165063509461021
 31
0.0
210
0.0
220
0.0
230
0.9999999999999998
 40
0.5773502691896259
 41
3.742856870268573
 42
5.681921090500118
  0
ELLIPSE
  5
1728
330
1685
100
AcDbEntity
  8
0
100
AcDbEllipse
 10
-12.94189386075215
 20
47.23326501782884
 30
0.0
 11
1.250000000000128
 21
-2.165063509461021
 31
0.0
210
0.0
220
0.0
230
0.9999999999999998
 40
0.5773502691896259
 41
3.742856870268573
 42
5.681921090500118
  0
ELLIPSE
  5
1729
330
1685
100
AcDbEntity
  8
0
100
AcDbEllipse
 10
-12.94189386075215
 20
30.90333339927431
 30
0.0
 11
1.250000000000128
 21
-2.165063509461021
 31
0.0
210
0.0
220
0.0
230
0.9999999999999998
 40
0.5773502691896259
 41
3.742856870268578
 42
5.68192109050012
  0
ELLIPSE
  5
172A
330
1685
100
AcDbEntity
  8
0
100
AcDbEllipse
 10
-12.94189386075215
 20
14.57340178071979
 30
0.0
 11
1.250000000000128
 21
-2.165063509461021
 31
0.0
210
0.0
220
0.0
230
0.9999999999999998
 40
0.5773502691896259
 41
3.742856870268576
 42
5.681921090500119
  0
ELLIPSE
  5
172B
330
1685
100
AcDbEntity
  8
0
100
AcDbEllipse
 10
-12.94189386075215
 20
-1.756529837834728
 30
0.0
 11
1.250000000000128
 21
-2.165063509461021
 31
0.0
210
0.0
220
0.0
230
0.9999999999999998
 40
0.5773502691896259
 41
3.742856870268578
 42
5.681921090500119
  0
ELLIPSE
  5
172C
330
1685
100
AcDbEntity
  8
0
100
AcDbEllipse
 10
-6.577932830073214
 20
94.99831500210081
 30
0.0
 11
-3.25
 21
5.629165124598853
 31
0.0
210
0.0
220
0.0
230
1.0
 40
0.5773502691896258
 41
0.0
 42
6.283185307179586
  0
ELLIPSE
  5
172D
330
1685
100
AcDbEntity
  8
0
100
AcDbEllipse
 10
-5.163719267700126
 20
95.81481158302853
 30
0.0
 11
-3.25
 21
5.629165124598853
 31
0.0
210
0.0
220
0.0
230
1.0
 40
0.5773502691896259
 41
0.2193254863005932
 42
2.9222671672892
  0
ELLIPSE
  5
172E
330
1685
100
AcDbEntity
  8
0
100
AcDbEllipse
 10
-6.577932830073214
 20
46.00852014643724
 30
0.0
 11
-3.25
 21
5.629165124598853
 31
0.0
210
0.0
220
0.0
230
1.0
 40
0.5773502691896258
 41
0.0
 42
6.283185307179586
  0
ELLIPSE
  5
172F
330
1685
100
AcDbEntity
  8
0
100
AcDbEllipse
 10
-5.163719267700126
 20
46.82501672736498
 30
0.0
 11
-3.25
 21
5.62916512459885
 31
0.0
210
0.0
220
0.0
230
1.0
 40
0.5773502691896258
 41
0.2193254863005924
 42
2.922267167289201
  0
ELLIPSE
  5
1730
330
1685
100
AcDbEntity
  8
0
100
AcDbEllipse
 10
-6.577932830073209
 20
-11.14624051850358
 30
0.0
 11
-3.25
 21
5.629165124598853
 31
0.0
210
0.0
220
0.0
230
1.0
 40
0.5773502691896258
 41
0.0
 42
6.283185307179586
  0
ELLIPSE
  5
1731
330
1685
100
AcDbEntity
  8
0
100
AcDbEllipse
 10
-5.163719267700113
 20
-10.32974393757585
 30
0.0
 11
-3.25
 21
5.629165124598853
 31
0.0
210
0.0
220
0.0
230
1.0
 40
0.5773502691896258
 41
0.219325486300592
 42
2.922267167289199
  0
LINE
  5
1732
330
1685
100
AcDbEntity
  8
0
100
AcDbLine
 10
-19.21268713008931
 20
-21.23596551781496
 30
0.0
 11
0.5490084819513586
 21
-28.6218085394148
 31
0.0
  0
LINE
  5
1733
330
1685
100
AcDbEntity
  8
0
100
AcDbLine
 10
0.5490084819513586
 20
-28.6218085394148
 30
0.0
 11
7.210649403064506
 21
-26.01338623504182
 31
0.0
  0
LINE
  5
1734
330
1685
100
AcDbEntity
  8
0
100
AcDbLine
 10
7.210649403064506
 20
-26.01338623504182
 30
0.0
 11
8.624862965437598
 21
-25.19688965411409
 31
0.0
  0
ENDBLK
  5
1687
330
1685
100
AcDbEntity
  8
0
100
AcDbBlockEnd
  0
ENDSEC
  0
SECTION
  2
ENTITIES
  0
INSERT
  5
1735
330
1F
100
AcDbEntity
  8
0
100
AcDbBlockReference
  2
BSIN140_180-Front
 10
0.0
 20
0.0
 30
0.0
  0
INSERT
  5
1736
330
1F
100
AcDbEntity
  8
0
100
AcDbBlockReference
  2
BSIN140_180-Left
 10
126.6050275515856
 20
0.0
 30
0.0
  0
INSERT
  5
1737
330
1F
100
AcDbEntity
  8
0
100
AcDbBlockReference
  2
BSIN140_180-Right
 10
-126.6050753544353
 20
0.0
 30
0.0
  0
INSERT
  5
1738
330
1F
100
AcDbEntity
  8
0
100
AcDbBlockReference
  2
BSIN140_180-Top
 10
0.0
 20
-56.60000000000001
 30
0.0
  0
INSERT
  5
1739
330
1F
100
AcDbEntity
  8
0
100
AcDbBlockReference
  2
BSIN140_180-Bottom
 10
0.0
 20
234.6000000000007
 30
0.0
  0
INSERT
  5
173A
330
1F
100
AcDbEntity
  8
0
100
AcDbBlockReference
  2
BSIN140_180-ISO
 10
208.136279187433
 20
-176.7696203448356
 30
0.0
  0
MTEXT
  5
173B
330
1F
100
AcDbEntity
  8
0
100
AcDbMText
 10
0.0
 20
-197.2
 30
0.0
 40
15.82563143162626
 41
0.0
 71
     5
 72
     5
  1
BSIN140/180
 73
     1
 44
1.0
1001
ACAD
1000
MTEXTBEGIN
1070
    73
1070
     1
1070
    44
1040
1.0
1070
    74
1070
     0
1000
MTEXTEND
  0
ENDSEC
  0
SECTION
  2
OBJECTS
  0
DICTIONARY
  5
C
330
0
100
AcDbDictionary
281
     1
  3
ACAD_CIP_PREVIOUS_PRODUCT_INFO
350
1A5
  3
ACAD_COLOR
350
73
  3
ACAD_DETAILVIEWSTYLE
350
1AB
  3
ACAD_GROUP
350
D
  3
ACAD_LAYOUT
350
1A
  3
ACAD_MATERIAL
350
72
  3
ACAD_MLEADERSTYLE
350
D7
  3
ACAD_MLINESTYLE
350
17
  3
ACAD_PLOTSETTINGS
350
19
  3
ACAD_PLOTSTYLENAME
350
E
  3
ACAD_SCALELIST
350
B6
  3
ACAD_SECTIONVIEWSTYLE
350
1A8
  3
ACAD_TABLESTYLE
350
86
  3
ACAD_VISUALSTYLE
350
99
  3
ACDB_RECOMPOSE_DATA
350
1833
  3
AcDbVariableDictionary
350
66
  3
DWGPROPS
350
1834
  0
DICTIONARY
  5
178B
330
8
100
AcDbDictionary
280
     1
281
     1
  0
DICTIONARY
  5
18E
330
2
100
AcDbDictionary
280
     1
281
     1
  3
ACAD_LAYERSTATES
360
18F
  0
DICTIONARY
  5
E6
330
10
100
AcDbDictionary
280
     1
281
     1
  0
DICTIONARY
  5
15D
330
1F
100
AcDbDictionary
280
     1
281
     1
  3
ACAD_LAYOUTSELFREF
360
1793
  0
DICTIONARY
  5
173F
330
58
100
AcDbDictionary
280
     1
281
     1
  3
ACAD_LAYOUTSELFREF
360
1795
  0
DICTIONARY
  5
1741
330
5D
100
AcDbDictionary
280
     1
281
     1
  3
ACAD_LAYOUTSELFREF
360
1798
  0
XRECORD
  5
1A5
102
{ACAD_REACTORS
330
C
102
}
330
C
100
AcDbXrecord
280
     1
300
ACD
300
2021
300
87393ACD_2021_0F
  0
DICTIONARY
  5
73
102
{ACAD_REACTORS
330
C
102
}
330
C
100
AcDbDictionary
281
     1
  0
DICTIONARY
  5
1AB
102
{ACAD_REACTORS
330
C
102
}
330
C
100
AcDbDictionary
281
     1
  3
Imperial24
350
1AC
  0
DICTIONARY
  5
D
102
{ACAD_REACTORS
330
C
102
}
330
C
100
AcDbDictionary
281
     1
  0
DICTIONARY
  5
1A
102
{ACAD_REACTORS
330
C
102
}
330
C
100
AcDbDictionary
281
     1
  3
Layout1
350
59
  3
Layout2
350
5E
  3
Model
350
22
  0
DICTIONARY
  5
72
102
{ACAD_REACTORS
330
C
102
}
330
C
100
AcDbDictionary
281
     1
  3
ByBlock
350
97
  3
ByLayer
350
96
  3
Global
350
98
  0
DICTIONARY
  5
D7
102
{ACAD_REACTORS
330
C
102
}
330
C
100
AcDbDictionary
281
     1
  3
Standard
350
D8
  0
DICTIONARY
  5
17
102
{ACAD_REACTORS
330
C
102
}
330
C
100
AcDbDictionary
281
     1
  3
Standard
350
18
  0
DICTIONARY
  5
19
102
{ACAD_REACTORS
330
C
102
}
330
C
100
AcDbDictionary
281
     1
  0
ACDBDICTIONARYWDFLT
  5
E
102
{ACAD_REACTORS
330
C
102
}
330
C
100
AcDbDictionary
281
     1
  3
Normal
350
F
100
AcDbDictionaryWithDefault
340
F
  0
DICTIONARY
  5
B6
102
{ACAD_REACTORS
330
C
102
}
330
C
100
AcDbDictionary
281
     1
  3
A0
350
B7
  3
A1
350
124
  3
A2
350
125
  3
A3
350
126
  3
A4
350
127
  3
A5
350
128
  3
A6
350
129
  3
A7
350
12A
  3
A8
350
12B
  3
A9
350
12C
  3
B0
350
12D
  3
B1
350
12E
  3
B2
350
12F
  3
B3
350
130
  3
B4
350
131
  3
B5
350
132
  3
B6
350
133
  3
B7
350
134
  3
B8
350
135
  3
B9
350
136
  3
C0
350
137
  3
C1
350
138
  3
C2
350
139
  3
C3
350
13A
  3
C4
350
13B
  3
C5
350
13C
  3
C6
350
13D
  3
C7
350
13E
  3
C8
350
13F
  3
C9
350
140
  3
D0
350
141
  3
D1
350
142
  3
D2
350
143
  0
DICTIONARY
  5
1A8
102
{ACAD_REACTORS
330
C
102
}
330
C
100
AcDbDictionary
281
     1
  3
Imperial24
350
1AA
  0
DICTIONARY
  5
86
102
{ACAD_REACTORS
330
C
102
}
330
C
100
AcDbDictionary
281
     1
  3
Standard
350
87
  0
DICTIONARY
  5
99
102
{ACAD_REACTORS
330
C
102
}
330
C
100
AcDbDictionary
281
     1
  3
2dWireframe
350
9F
  3
Basic
350
9E
  3
Brighten
350
A5
  3
ColorChange
350
A9
  3
Conceptual
350
A2
  3
Dim
350
A4
  3
EdgeColorOff
350
175
  3
Facepattern
350
A8
  3
Flat
350
9A
  3
FlatWithEdges
350
9B
  3
Gouraud
350
9C
  3
GouraudWithEdges
350
9D
  3
Hidden
350
A1
  3
JitterOff
350
173
  3
Linepattern
350
A7
  3
OverhangOff
350
174
  3
Realistic
350
A3
  3
Shaded
350
182
  3
Shaded with edges
350
181
  3
Shades of Gray
350
17E
  3
Sketchy
350
17F
  3
Thicken
350
A6
  3
Wireframe
350
A0
  3
X-Ray
350
180
  0
XRECORD
  5
1833
102
{ACAD_REACTORS
330
C
102
}
330
C
100
AcDbXrecord
280
     1
 90
        1
330
87
  0
DICTIONARY
  5
66
102
{ACAD_REACTORS
330
C
102
}
330
C
100
AcDbDictionary
281
     1
  3
CANNOSCALE
350
F0
  3
CMLEADERSTYLE
350
EF
  3
CTABLESTYLE
350
89
  3
CVIEWDETAILSTYLE
350
1B7
  3
CVIEWSECTIONSTYLE
350
1B8
  3
DIMASSOC
350
67
  3
HIDETEXT
350
6B
  3
INDEXCTL
350
17E6
  3
LAYEREVAL
350
14D
  3
LAYERNOTIFY
350
14E
  3
LIGHTINGUNITS
350
17E4
  3
MSLTSCALE
350
17E3
  3
SORTENTS
350
17E5
  3
XCLIPFRAME
350
1831
  0
XRECORD
  5
1834
102
{ACAD_REACTORS
330
C
102
}
330
C
100
AcDbXrecord
280
     1
  1
DWGPROPS COOKIE
  2

  3

  4

  6

  7

  8
truole
  9

300
=
301
=
302
=
303
=
304
=
305
=
306
=
307
=
308
=
309
=
 40
0.0021643518518519
 41
2460783.438622685
 42
2460783.442685185
  1

 90
        0
  0
DICTIONARY
  5
18F
102
{ACAD_REACTORS
330
18E
102
}
330
18E
100
AcDbDictionary
281
     1
  0
XRECORD
  5
1793
102
{ACAD_REACTORS
330
15D
102
}
330
15D
100
AcDbXrecord
280
     1
340
1F
  0
XRECORD
  5
1795
102
{ACAD_REACTORS
330
173F
102
}
330
173F
100
AcDbXrecord
280
     1
340
58
  0
XRECORD
  5
1798
102
{ACAD_REACTORS
330
1741
102
}
330
1741
100
AcDbXrecord
280
     1
340
5D
  0
ACDBDETAILVIEWSTYLE
  5
1AC
102
{ACAD_XDICTIONARY
360
1873
102
}
102
{ACAD_REACTORS
330
1AB
102
}
330
1AB
100
AcDbModelDocViewStyle
 70
     0
  3
Imperial24
290
     0
100
AcDbDetailViewStyle
 70
     0
 71
     0
 90
        3
 71
     1
340
11
 40
0.24
340
0
 40
0.24
300

 40
0.36
280
     3
 71
     2
340
16
 90
       25
 71
     3
340
11
 40
0.24
 90
        1
 40
0.75
 90
        1
300
%<\AcVar ViewType \f "%tc1">% %<\AcVar ViewDetailId>%\PSCALE %<\AcVar ViewScale \f "%sn">%
 71
     4
340
16
 90
       25
340
16
 90
       25
280
     0
  0
LAYOUT
  5
59
102
{ACAD_XDICTIONARY
360
1837
102
}
102
{ACAD_REACTORS
330
1A
102
}
330
1A
100
AcDbPlotSettings
  1

  2
None
  4

  6

 40
0.0
 41
0.0
 42
0.0
 43
0.0
 44
0.0
 45
0.0
 46
0.0
 47
0.0
 48
0.0
 49
0.0
140
0.0
141
0.0
142
1.0
143
1.0
 70
   688
 72
     0
 73
     0
 74
     5
  7

 75
    16
147
1.0
148
0.0
149
0.0
100
AcDbLayout
  1
Layout1
 70
     1
 71
     1
 10
0.0
 20
0.0
 11
12.0
 21
9.0
 12
0.0
 22
0.0
 32
0.0
 14
0.0
 24
0.0
 34
0.0
 15
0.0
 25
0.0
 35
0.0
146
0.0
 13
0.0
 23
0.0
 33
0.0
 16
1.0
 26
0.0
 36
0.0
 17
0.0
 27
1.0
 37
0.0
 76
     0
330
58
  0
LAYOUT
  5
5E
102
{ACAD_XDICTIONARY
360
1839
102
}
102
{ACAD_REACTORS
330
1A
102
}
330
1A
100
AcDbPlotSettings
  1

  2
None
  4

  6

 40
0.0
 41
0.0
 42
0.0
 43
0.0
 44
0.0
 45
0.0
 46
0.0
 47
0.0
 48
0.0
 49
0.0
140
0.0
141
0.0
142
1.0
143
1.0
 70
   688
 72
     0
 73
     0
 74
     5
  7

 75
    16
147
1.0
148
0.0
149
0.0
100
AcDbLayout
  1
Layout2
 70
     1
 71
     2
 10
0.0
 20
0.0
 11
12.0
 21
9.0
 12
0.0
 22
0.0
 32
0.0
 14
0.0
 24
0.0
 34
0.0
 15
0.0
 25
0.0
 35
0.0
146
0.0
 13
0.0
 23
0.0
 33
0.0
 16
1.0
 26
0.0
 36
0.0
 17
0.0
 27
1.0
 37
0.0
 76
     0
330
5D
  0
LAYOUT
  5
22
102
{ACAD_XDICTIONARY
360
1835
102
}
102
{ACAD_REACTORS
330
1A
102
}
330
1A
100
AcDbPlotSettings
  1

  2
none_device
  4
ANSI_A_(8.50_x_11.00_Inches)
  6

 40
6.349999904632568
 41
19.04999923706055
 42
6.350006103515625
 43
19.04998779296875
 44
215.8999938964844
 45
279.3999938964844
 46
0.0
 47
0.0
 48
0.0
 49
0.0
140
0.0
141
0.0
142
1.0
143
2.584895464708373
 70
 11952
 72
     0
 73
     1
 74
     0
  7

 75
     0
147
0.3868628397755418
148
0.0
149
0.0
100
AcDbLayout
  1
Model
 70
     1
 71
     0
 10
0.0
 20
0.0
 11
12.0
 21
9.0
 12
0.0
 22
0.0
 32
0.0
 14
0.0
 24
0.0
 34
0.0
 15
0.0
 25
0.0
 35
0.0
146
0.0
 13
0.0
 23
0.0
 33
0.0
 16
1.0
 26
0.0
 36
0.0
 17
0.0
 27
1.0
 37
0.0
 76
     0
330
1F
331
94
  0
MATERIAL
  5
97
102
{ACAD_XDICTIONARY
360
188
102
}
102
{ACAD_REACTORS
330
72
102
}
330
72
100
AcDbMaterial
  1
ByBlock
  0
MATERIAL
  5
96
102
{ACAD_XDICTIONARY
360
186
102
}
102
{ACAD_REACTORS
330
72
102
}
330
72
100
AcDbMaterial
  1
ByLayer
  0
MATERIAL
  5
98
102
{ACAD_XDICTIONARY
360
110
102
}
102
{ACAD_REACTORS
330
72
102
}
330
72
100
AcDbMaterial
  1
Global
 43
0.0208000000566244
 43
0.0
 43
0.0
 43
0.0
 43
0.0
 43
0.0208000000566244
 43
0.0
 43
0.0
 43
0.0
 43
0.0
 43
1.0
 43
0.0
 43
0.0
 43
0.0
 43
0.0
 43
1.0
 49
0.0208000000566244
 49
0.0
 49
0.0
 49
0.0
 49
0.0
 49
0.0208000000566244
 49
0.0
 49
0.0
 49
0.0
 49
0.0
 49
1.0
 49
0.0
 49
0.0
 49
0.0
 49
0.0
 49
1.0
142
0.0208000000566244
142
0.0
142
0.0
142
0.0
142
0.0
142
0.0208000000566244
142
0.0
142
0.0
142
0.0
142
0.0
142
1.0
142
0.0
142
0.0
142
0.0
142
0.0
142
1.0
144
0.0208000000566244
144
0.0
144
0.0
144
0.0
144
0.0
144
0.0208000000566244
144
0.0
144
0.0
144
0.0
144
0.0
144
1.0
144
0.0
144
0.0
144
0.0
144
0.0
144
1.0
1001
ACAD
1070
    -1
1070
     3
1070
     0
1000

1071
        0
1070
     0
  0
MLEADERSTYLE
  5
D8
102
{ACAD_XDICTIONARY
360
185F
102
}
102
{ACAD_REACTORS
330
D7
102
}
330
D7
100
AcDbMLeaderStyle
170
     2
171
     1
172
     0
 90
        2
 40
0.0
 41
0.0
173
     1
 91
-1056964608
340
14
 92
       -2
290
     1
 42
0.09
291
     1
 43
0.36
  3
Standard
 44
0.18
300

342
11
174
     1
178
     1
175
     1
176
     0
 93
-1056964608
 45
0.18
292
     0
297
     0
 46
0.18
 94
-1056964608
 47
1.0
 49
1.0
140
1.0
293
     1
141
0.0
294
     1
177
     0
142
1.0
295
     0
296
     0
143
0.125
1001
ACAD_MLEADERVER
1070
     2
  0
MLINESTYLE
  5
18
102
{ACAD_REACTORS
330
17
102
}
330
17
100
AcDbMlineStyle
  2
STANDARD
 70
     0
  3

 62
   256
 51
90.0
 52
90.0
 71
     2
 49
0.5
 62
   256
  6
BYLAYER
 49
-0.5
 62
   256
  6
BYLAYER
  0
ACDBPLACEHOLDER
  5
F
102
{ACAD_REACTORS
330
E
102
}
330
E
  0
SCALE
  5
B7
102
{ACAD_REACTORS
330
B6
102
}
330
B6
100
AcDbScale
 70
     0
300
1:1
140
1.0
141
1.0
290
     1
  0
SCALE
  5
124
102
{ACAD_REACTORS
330
B6
102
}
330
B6
100
AcDbScale
 70
     0
300
1:2
140
1.0
141
2.0
290
     0
  0
SCALE
  5
125
102
{ACAD_REACTORS
330
B6
102
}
330
B6
100
AcDbScale
 70
     0
300
1:4
140
1.0
141
4.0
290
     0
  0
SCALE
  5
126
102
{ACAD_REACTORS
330
B6
102
}
330
B6
100
AcDbScale
 70
     0
300
1:5
140
1.0
141
5.0
290
     0
  0
SCALE
  5
127
102
{ACAD_REACTORS
330
B6
102
}
330
B6
100
AcDbScale
 70
     0
300
1:8
140
1.0
141
8.0
290
     0
  0
SCALE
  5
128
102
{ACAD_REACTORS
330
B6
102
}
330
B6
100
AcDbScale
 70
     0
300
1:10
140
1.0
141
10.0
290
     0
  0
SCALE
  5
129
102
{ACAD_REACTORS
330
B6
102
}
330
B6
100
AcDbScale
 70
     0
300
1:16
140
1.0
141
16.0
290
     0
  0
SCALE
  5
12A
102
{ACAD_REACTORS
330
B6
102
}
330
B6
100
AcDbScale
 70
     0
300
1:20
140
1.0
141
20.0
290
     0
  0
SCALE
  5
12B
102
{ACAD_REACTORS
330
B6
102
}
330
B6
100
AcDbScale
 70
     0
300
1:30
140
1.0
141
30.0
290
     0
  0
SCALE
  5
12C
102
{ACAD_REACTORS
330
B6
102
}
330
B6
100
AcDbScale
 70
     0
300
1:40
140
1.0
141
40.0
290
     0
  0
SCALE
  5
12D
102
{ACAD_REACTORS
330
B6
102
}
330
B6
100
AcDbScale
 70
     0
300
1:50
140
1.0
141
50.0
290
     0
  0
SCALE
  5
12E
102
{ACAD_REACTORS
330
B6
102
}
330
B6
100
AcDbScale
 70
     0
300
1:100
140
1.0
141
100.0
290
     0
  0
SCALE
  5
12F
102
{ACAD_REACTORS
330
B6
102
}
330
B6
100
AcDbScale
 70
     0
300
2:1
140
2.0
141
1.0
290
     0
  0
SCALE
  5
130
102
{ACAD_REACTORS
330
B6
102
}
330
B6
100
AcDbScale
 70
     0
300
4:1
140
4.0
141
1.0
290
     0
  0
SCALE
  5
131
102
{ACAD_REACTORS
330
B6
102
}
330
B6
100
AcDbScale
 70
     0
300
8:1
140
8.0
141
1.0
290
     0
  0
SCALE
  5
132
102
{ACAD_REACTORS
330
B6
102
}
330
B6
100
AcDbScale
 70
     0
300
10:1
140
10.0
141
1.0
290
     0
  0
SCALE
  5
133
102
{ACAD_REACTORS
330
B6
102
}
330
B6
100
AcDbScale
 70
     0
300
100:1
140
100.0
141
1.0
290
     0
  0
SCALE
  5
134
102
{ACAD_REACTORS
330
B6
102
}
330
B6
100
AcDbScale
 70
     0
300
1/128" = 1'-0"
140
0.0078125
141
12.0
290
     0
  0
SCALE
  5
135
102
{ACAD_REACTORS
330
B6
102
}
330
B6
100
AcDbScale
 70
     0
300
1/64" = 1'-0"
140
0.015625
141
12.0
290
     0
  0
SCALE
  5
136
102
{ACAD_REACTORS
330
B6
102
}
330
B6
100
AcDbScale
 70
     0
300
1/32" = 1'-0"
140
0.03125
141
12.0
290
     0
  0
SCALE
  5
137
102
{ACAD_REACTORS
330
B6
102
}
330
B6
100
AcDbScale
 70
     0
300
1/16" = 1'-0"
140
0.0625
141
12.0
290
     0
  0
SCALE
  5
138
102
{ACAD_REACTORS
330
B6
102
}
330
B6
100
AcDbScale
 70
     0
300
3/32" = 1'-0"
140
0.09375
141
12.0
290
     0
  0
SCALE
  5
139
102
{ACAD_REACTORS
330
B6
102
}
330
B6
100
AcDbScale
 70
     0
300
1/8" = 1'-0"
140
0.125
141
12.0
290
     0
  0
SCALE
  5
13A
102
{ACAD_REACTORS
330
B6
102
}
330
B6
100
AcDbScale
 70
     0
300
3/16" = 1'-0"
140
0.1875
141
12.0
290
     0
  0
SCALE
  5
13B
102
{ACAD_REACTORS
330
B6
102
}
330
B6
100
AcDbScale
 70
     0
300
1/4" = 1'-0"
140
0.25
141
12.0
290
     0
  0
SCALE
  5
13C
102
{ACAD_REACTORS
330
B6
102
}
330
B6
100
AcDbScale
 70
     0
300
3/8" = 1'-0"
140
0.375
141
12.0
290
     0
  0
SCALE
  5
13D
102
{ACAD_REACTORS
330
B6
102
}
330
B6
100
AcDbScale
 70
     0
300
1/2" = 1'-0"
140
0.5
141
12.0
290
     0
  0
SCALE
  5
13E
102
{ACAD_REACTORS
330
B6
102
}
330
B6
100
AcDbScale
 70
     0
300
3/4" = 1'-0"
140
0.75
141
12.0
290
     0
  0
SCALE
  5
13F
102
{ACAD_REACTORS
330
B6
102
}
330
B6
100
AcDbScale
 70
     0
300
1" = 1'-0"
140
1.0
141
12.0
290
     0
  0
SCALE
  5
140
102
{ACAD_REACTORS
330
B6
102
}
330
B6
100
AcDbScale
 70
     0
300
1-1/2" = 1'-0"
140
1.5
141
12.0
290
     0
  0
SCALE
  5
141
102
{ACAD_REACTORS
330
B6
102
}
330
B6
100
AcDbScale
 70
     0
300
3" = 1'-0"
140
3.0
141
12.0
290
     0
  0
SCALE
  5
142
102
{ACAD_REACTORS
330
B6
102
}
330
B6
100
AcDbScale
 70
     0
300
6" = 1'-0"
140
6.0
141
12.0
290
     0
  0
SCALE
  5
143
102
{ACAD_REACTORS
330
B6
102
}
330
B6
100
AcDbScale
 70
     0
300
1'-0" = 1'-0"
140
12.0
141
12.0
290
     0
  0
ACDBSECTIONVIEWSTYLE
  5
1AA
102
{ACAD_XDICTIONARY
360
1871
102
}
102
{ACAD_REACTORS
330
1A8
102
}
330
1A8
100
AcDbModelDocViewStyle
 70
     0
  3
Imperial24
290
     0
100
AcDbSectionViewStyle
 70
     0
 71
     0
 90
       78
 71
     1
340
11
 40
0.24
340
0
340
0
 40
0.24
300
I, O, Q, S, X, Z
 40
0.48
 90
        3
 40
0.18
 90
        1
 71
     2
340
16
 90
       25
340
16
 90
       50
 40
0.24
 40
0.0
 40
0.24
 71
     3
340
11
 40
0.24
 90
        1
 40
0.75
 90
        1
300
%<\AcVar ViewType \f "%tc1">% %<\AcVar ViewSectionStartId>%-%<\AcVar ViewSectionEndId>%\PSCALE %<\AcVar ViewScale \f "%sn">%
 71
     4
300
ANSI31
 40
1.0
 90
        0
290
     0
290
     0
 90
        6
 40
0.0
 40
1.570796326794896
 40
0.2617993877991494
 40
1.308996938995747
 40
-0.2617993877991494
 40
1.832595714594046
  0
TABLESTYLE
  5
87
102
{ACAD_XDICTIONARY
360
104
102
}
102
{ACAD_REACTORS
330
86
102
}
330
86
100
AcDbTableStyle
  3
Standard
 70
     0
 71
     0
 40
0.06
 41
0.06
280
     0
281
     0
  7
Standard
140
0.18
170
     2
 62
     0
 63
     7
283
     0
274
    -2
284
     1
 64
     0
275
    -2
285
     1
 65
     0
276
    -2
286
     1
 66
     0
277
    -2
287
     1
 67
     0
278
    -2
288
     1
 68
     0
279
    -2
289
     1
 69
     0
  7
Standard
140
0.25
170
     5
 62
     0
 63
     7
283
     0
274
    -2
284
     1
 64
     0
275
    -2
285
     1
 65
     0
276
    -2
286
     1
 66
     0
277
    -2
287
     1
 67
     0
278
    -2
288
     1
 68
     0
279
    -2
289
     1
 69
     0
  7
Standard
140
0.18
170
     5
 62
     0
 63
     7
283
     0
274
    -2
284
     1
 64
     0
275
    -2
285
     1
 65
     0
276
    -2
286
     1
 66
     0
277
    -2
287
     1
 67
     0
278
    -2
288
     1
 68
     0
279
    -2
289
     1
 69
     0
  0
VISUALSTYLE
  5
9F
102
{ACAD_XDICTIONARY
360
1849
102
}
102
{ACAD_REACTORS
330
99
102
}
330
99
100
AcDbVisualStyle
  2
2dWireframe
 70
     4
 71
     0
 72
     2
 73
     1
 90
        0
 40
-0.6
 41
-30.0
 62
     5
 63
     7
 74
     1
 91
        4
 64
     7
 65
   257
 75
     1
175
     1
 42
1.0
 92
        0
 66
   257
 43
1.0
 76
     1
 77
     6
 78
     2
 67
     7
 79
     5
170
     0
171
     0
290
     0
174
     0
 93
        1
 44
0.0
173
     0
291
     0
 45
0.0
1001
ACAD
1000
AcDbSavedByObjectVersion
1070
     0
  0
VISUALSTYLE
  5
9E
102
{ACAD_XDICTIONARY
360
1847
102
}
102
{ACAD_REACTORS
330
99
102
}
330
99
100
AcDbVisualStyle
  2
Basic
 70
     7
 71
     1
 72
     0
 73
     1
 90
        0
 40
-0.6
 41
-30.0
 62
     5
 63
     7
 74
     0
 91
        4
 64
     7
 65
   257
 75
     1
175
     1
 42
1.0
 92
        8
 66
     7
 43
1.0
 76
     1
 77
     6
 78
     2
 67
     7
 79
     5
170
     0
171
     0
290
     0
174
     0
 93
        1
 44
0.0
173
     0
291
     1
 45
0.0
1001
ACAD
1000
AcDbSavedByObjectVersion
1070
     0
  0
VISUALSTYLE
  5
A5
102
{ACAD_XDICTIONARY
360
1855
102
}
102
{ACAD_REACTORS
330
99
102
}
330
99
100
AcDbVisualStyle
  2
Brighten
 70
    12
 71
     2
 72
     2
 73
     1
 90
        0
 40
-0.6
 41
-30.0
 62
     5
 63
     7
 74
     1
 91
        4
 64
     7
 65
   257
 75
     1
175
     1
 42
1.0
 92
        8
 66
     7
 43
1.0
 76
     1
 77
     6
 78
     2
 67
     7
 79
     5
170
     0
171
     0
290
     0
174
     0
 93
        1
 44
50.0
173
     0
291
     1
 45
0.0
1001
ACAD
1000
AcDbSavedByObjectVersion
1070
     0
  0
VISUALSTYLE
  5
A9
102
{ACAD_XDICTIONARY
360
185D
102
}
102
{ACAD_REACTORS
330
99
102
}
330
99
100
AcDbVisualStyle
  2
ColorChange
 70
    16
 71
     2
 72
     2
 73
     3
 90
        0
 40
-0.6
 41
-30.0
 62
     5
 63
     8
 74
     1
 91
        4
 64
     7
 65
   257
 75
     1
175
     1
 42
1.0
 92
        8
 66
     8
 43
1.0
 76
     1
 77
     6
 78
     2
 67
     7
 79
     5
170
     0
171
     0
290
     0
174
     0
 93
        1
 44
0.0
173
     0
291
     1
 45
0.0
1001
ACAD
1000
AcDbSavedByObjectVersion
1070
     0
  0
VISUALSTYLE
  5
A2
102
{ACAD_XDICTIONARY
360
184F
102
}
102
{ACAD_REACTORS
330
99
102
}
330
99
100
AcDbVisualStyle
  2
Conceptual
 70
     9
 71
     3
 72
     2
 73
     1
 90
        0
 40
-0.6
 41
-30.0
 62
     5
 63
     7
 74
     2
 91
        2
 64
     7
 65
   257
 75
     1
175
     1
 42
40.0
 92
        8
 66
     7
 43
1.0
 76
     1
 77
     6
 78
     2
 67
     7
 79
     3
170
     0
171
     0
290
     0
174
     0
 93
        1
 44
0.0
173
     0
291
     0
 45
0.0
1001
ACAD
1000
AcDbSavedByObjectVersion
1070
     0
  0
VISUALSTYLE
  5
A4
102
{ACAD_XDICTIONARY
360
1853
102
}
102
{ACAD_REACTORS
330
99
102
}
330
99
100
AcDbVisualStyle
  2
Dim
 70
    11
 71
     2
 72
     2
 73
     1
 90
        0
 40
-0.6
 41
-30.0
 62
     5
 63
     7
 74
     1
 91
        4
 64
     7
 65
   257
 75
     1
175
     1
 42
1.0
 92
        8
 66
     7
 43
1.0
 76
     1
 77
     6
 78
     2
 67
     7
 79
     5
170
     0
171
     0
290
     0
174
     0
 93
        1
 44
-50.0
173
     0
291
     1
 45
0.0
1001
ACAD
1000
AcDbSavedByObjectVersion
1070
     0
  0
VISUALSTYLE
  5
175
102
{ACAD_XDICTIONARY
360
1865
102
}
102
{ACAD_REACTORS
330
99
102
}
330
99
100
AcDbVisualStyle
  2
EdgeColorOff
 70
    22
 71
     2
 72
     2
 73
     0
 90
        0
 40
-0.6
 41
-30.0
 62
     5
 63
     7
 74
     1
 91
        4
 64
     7
 65
   257
 75
     1
175
     1
 42
1.0
 92
        8
 66
     7
 43
1.0
 76
     1
 77
     6
 78
     2
 67
     7
 79
     5
170
     0
171
     0
290
     0
174
     0
 93
        1
 44
0.0
173
     0
291
     1
 45
0.0
1001
ACAD
1000
AcDbSavedByObjectVersion
1070
     0
  0
VISUALSTYLE
  5
A8
102
{ACAD_XDICTIONARY
360
185B
102
}
102
{ACAD_REACTORS
330
99
102
}
330
99
100
AcDbVisualStyle
  2
Facepattern
 70
    15
 71
     2
 72
     2
 73
     1
 90
        0
 40
-0.6
 41
-30.0
 62
     5
 63
     7
 74
     1
 91
        4
 64
     7
 65
   257
 75
     1
175
     1
 42
1.0
 92
        8
 66
     7
 43
1.0
 76
     1
 77
     6
 78
     2
 67
     7
 79
     5
170
     0
171
     0
290
     0
174
     0
 93
        1
 44
0.0
173
     0
291
     1
 45
0.0
1001
ACAD
1000
AcDbSavedByObjectVersion
1070
     0
  0
VISUALSTYLE
  5
9A
102
{ACAD_XDICTIONARY
360
183F
102
}
102
{ACAD_REACTORS
330
99
102
}
330
99
100
AcDbVisualStyle
  2
Flat
 70
     0
 71
     2
 72
     1
 73
     1
 90
        2
 40
-0.6
 41
30.0
 62
     5
 63
     7
 74
     0
 91
        0
 64
     7
 65
   257
 75
     1
175
     1
 42
1.0
 92
        8
 66
     7
 43
1.0
 76
     1
 77
     6
 78
     2
 67
     7
 79
     5
170
     0
171
     0
290
     0
174
     0
 93
       13
 44
0.0
173
     0
291
     1
 45
0.0
1001
ACAD
1000
AcDbSavedByObjectVersion
1070
     0
  0
VISUALSTYLE
  5
9B
102
{ACAD_XDICTIONARY
360
1841
102
}
102
{ACAD_REACTORS
330
99
102
}
330
99
100
AcDbVisualStyle
  2
FlatWithEdges
 70
     1
 71
     2
 72
     1
 73
     1
 90
        2
 40
-0.6
 41
30.0
 62
     5
 63
     7
 74
     1
 91
        0
 64
     7
 65
   257
 75
     1
175
     1
 42
1.0
 92
        0
 66
   257
 43
1.0
 76
     1
 77
     6
 78
     2
 67
     7
 79
     5
170
     0
171
     0
290
     0
174
     0
 93
       13
 44
0.0
173
     0
291
     1
 45
0.0
1001
ACAD
1000
AcDbSavedByObjectVersion
1070
     0
  0
VISUALSTYLE
  5
9C
102
{ACAD_XDICTIONARY
360
1843
102
}
102
{ACAD_REACTORS
330
99
102
}
330
99
100
AcDbVisualStyle
  2
Gouraud
 70
     2
 71
     2
 72
     2
 73
     1
 90
        2
 40
-0.6
 41
30.0
 62
     5
 63
     7
 74
     0
 91
        0
 64
     7
 65
   257
 75
     1
175
     1
 42
1.0
 92
        0
 66
     7
 43
1.0
 76
     1
 77
     6
 78
     2
 67
     7
 79
     5
170
     0
171
     0
290
     0
174
     0
 93
       13
 44
0.0
173
     0
291
     1
 45
0.0
1001
ACAD
1000
AcDbSavedByObjectVersion
1070
     0
  0
VISUALSTYLE
  5
9D
102
{ACAD_XDICTIONARY
360
1845
102
}
102
{ACAD_REACTORS
330
99
102
}
330
99
100
AcDbVisualStyle
  2
GouraudWithEdges
 70
     3
 71
     2
 72
     2
 73
     1
 90
        2
 40
-0.6
 41
30.0
 62
     5
 63
     7
 74
     1
 91
        0
 64
     7
 65
   257
 75
     1
175
     1
 42
1.0
 92
        0
 66
   257
 43
1.0
 76
     1
 77
     6
 78
     2
 67
     7
 79
     5
170
     0
171
     0
290
     0
174
     0
 93
       13
 44
0.0
173
     0
291
     1
 45
0.0
1001
ACAD
1000
AcDbSavedByObjectVersion
1070
     0
  0
VISUALSTYLE
  5
A1
102
{ACAD_XDICTIONARY
360
184D
102
}
102
{ACAD_REACTORS
330
99
102
}
330
99
100
AcDbVisualStyle
  2
Hidden
 70
     6
 71
     1
 72
     2
 73
     2
 90
        0
 40
-0.6
 41
-30.0
 62
     5
 63
     7
 74
     2
 91
        2
 64
     7
 65
   257
 75
     2
175
     1
 42
40.0
 92
        0
 66
   257
 43
1.0
 76
     1
 77
     6
 78
     2
 67
     7
 79
     3
170
     0
171
     0
290
     0
174
     0
 93
        1
 44
0.0
173
     0
291
     0
 45
0.0
1001
ACAD
1000
AcDbSavedByObjectVersion
1070
     0
  0
VISUALSTYLE
  5
173
102
{ACAD_XDICTIONARY
360
1861
102
}
102
{ACAD_REACTORS
330
99
102
}
330
99
100
AcDbVisualStyle
  2
JitterOff
 70
    20
 71
     2
 72
     2
 73
     0
 90
        0
 40
-0.6
 41
-30.0
 62
     5
 63
     7
 74
     1
 91
        4
 64
     7
 65
   257
 75
     1
175
     1
 42
1.0
 92
       10
 66
     7
 43
1.0
 76
     1
 77
     6
 78
     2
 67
     7
 79
     5
170
     0
171
     0
290
     0
174
     0
 93
        1
 44
0.0
173
     0
291
     1
 45
0.0
1001
ACAD
1000
AcDbSavedByObjectVersion
1070
     0
  0
VISUALSTYLE
  5
A7
102
{ACAD_XDICTIONARY
360
1859
102
}
102
{ACAD_REACTORS
330
99
102
}
330
99
100
AcDbVisualStyle
  2
Linepattern
 70
    14
 71
     2
 72
     2
 73
     1
 90
        0
 40
-0.6
 41
-30.0
 62
     5
 63
     7
 74
     1
 91
        4
 64
     7
 65
   257
 75
     7
175
     7
 42
1.0
 92
        8
 66
     7
 43
1.0
 76
     1
 77
     6
 78
     2
 67
     7
 79
     5
170
     0
171
     0
290
     0
174
     0
 93
        1
 44
0.0
173
     0
291
     1
 45
0.0
1001
ACAD
1000
AcDbSavedByObjectVersion
1070
     0
  0
VISUALSTYLE
  5
174
102
{ACAD_XDICTIONARY
360
1863
102
}
102
{ACAD_REACTORS
330
99
102
}
330
99
100
AcDbVisualStyle
  2
OverhangOff
 70
    21
 71
     2
 72
     2
 73
     0
 90
        0
 40
-0.6
 41
-30.0
 62
     5
 63
     7
 74
     1
 91
        4
 64
     7
 65
   257
 75
     1
175
     1
 42
1.0
 92
        9
 66
     7
 43
1.0
 76
     1
 77
     6
 78
     2
 67
     7
 79
     5
170
     0
171
     0
290
     0
174
     0
 93
        1
 44
0.0
173
     0
291
     1
 45
0.0
1001
ACAD
1000
AcDbSavedByObjectVersion
1070
     0
  0
VISUALSTYLE
  5
A3
102
{ACAD_XDICTIONARY
360
1851
102
}
102
{ACAD_REACTORS
330
99
102
}
330
99
100
AcDbVisualStyle
  2
Realistic
 70
     8
 71
     2
 72
     2
 73
     0
 90
        2
 40
-0.6
 41
30.0
 62
     5
 63
     7
 74
     0
 91
        0
 64
     7
 65
   257
 75
     1
175
     1
 42
1.0
 92
        8
 66
   257
 43
1.0
 76
     1
 77
     6
 78
     2
 67
     7
 79
     3
170
     0
171
     0
290
     0
174
     0
 93
       13
 44
0.0
173
     0
291
     0
 45
0.0
1001
ACAD
1000
AcDbSavedByObjectVersion
1070
     0
  0
VISUALSTYLE
  5
182
102
{ACAD_XDICTIONARY
360
186F
102
}
102
{ACAD_REACTORS
330
99
102
}
330
99
100
AcDbVisualStyle
  2
Shaded
 70
    27
 71
     2
 72
     2
 73
     1
 90
        2
 40
-0.6
 41
30.0
 62
     5
 63
     7
 74
     0
 91
        4
 64
     7
 65
   257
 75
     1
175
     1
 42
1.0
 92
        8
 66
   257
 43
1.0
 76
     1
 77
     6
 78
     2
 67
     8
 79
     3
170
     0
171
     0
290
     0
174
     0
 93
        5
 44
0.0
173
     0
291
     0
 45
0.0
1001
ACAD
1000
AcDbSavedByObjectVersion
1070
     0
  0
VISUALSTYLE
  5
181
102
{ACAD_XDICTIONARY
360
186D
102
}
102
{ACAD_REACTORS
330
99
102
}
330
99
100
AcDbVisualStyle
  2
Shaded with edges
 70
    26
 71
     2
 72
     2
 73
     1
 90
        2
 40
-0.6
 41
30.0
 62
     5
 63
     7
 74
     1
 91
        2
 64
     7
 65
   257
 75
     2
175
     1
 42
1.0
 92
        8
 66
   257
 43
1.0
 76
     1
 77
     6
 78
     2
 67
     7
 79
     3
170
     0
171
     0
290
     0
174
     0
 93
        5
 44
0.0
173
     0
291
     0
 45
0.0
1001
ACAD
1000
AcDbSavedByObjectVersion
1070
     0
  0
VISUALSTYLE
  5
17E
102
{ACAD_XDICTIONARY
360
1867
102
}
102
{ACAD_REACTORS
330
99
102
}
330
99
100
AcDbVisualStyle
  2
Shades of Gray
 70
    23
 71
     2
 72
     2
 73
     3
 90
        0
 40
-0.6
 41
-30.0
 62
     5
 63
     7
 74
     2
 91
        2
 64
     7
 65
     7
 75
     1
175
     1
 42
40.0
 92
        8
 66
     7
 43
1.0
 76
     1
 77
     6
 78
     2
 67
     7
 79
     3
170
     0
171
     0
290
     0
174
     0
 93
        1
 44
0.0
173
     0
291
     0
 45
0.0
1001
ACAD
1000
AcDbSavedByObjectVersion
1070
     0
  0
VISUALSTYLE
  5
17F
102
{ACAD_XDICTIONARY
360
1869
102
}
102
{ACAD_REACTORS
330
99
102
}
330
99
100
AcDbVisualStyle
  2
Sketchy
 70
    24
 71
     1
 72
     2
 73
     2
 90
        0
 40
-0.6
 41
-30.0
 62
     5
 63
     7
 74
     2
 91
        2
 64
     7
 65
     7
 75
     1
175
     1
 42
40.0
 92
       11
 66
     7
 43
1.0
 76
     1
 77
     6
 78
     2
 67
     7
 79
     6
170
     0
171
     0
290
     0
174
     0
 93
        1
 44
0.0
173
     0
291
     0
 45
0.0
1001
ACAD
1000
AcDbSavedByObjectVersion
1070
     0
  0
VISUALSTYLE
  5
A6
102
{ACAD_XDICTIONARY
360
1857
102
}
102
{ACAD_REACTORS
330
99
102
}
330
99
100
AcDbVisualStyle
  2
Thicken
 70
    13
 71
     2
 72
     2
 73
     1
 90
        0
 40
-0.6
 41
-30.0
 62
     5
 63
     7
 74
     1
 91
        4
 64
     7
 65
   257
 75
     1
175
     1
 42
1.0
 92
       12
 66
     7
 43
1.0
 76
     1
 77
     6
 78
     2
 67
     7
 79
     5
170
     0
171
     0
290
     0
174
     0
 93
        1
 44
0.0
173
     0
291
     1
 45
0.0
1001
ACAD
1000
AcDbSavedByObjectVersion
1070
     0
  0
VISUALSTYLE
  5
A0
102
{ACAD_XDICTIONARY
360
184B
102
}
102
{ACAD_REACTORS
330
99
102
}
330
99
100
AcDbVisualStyle
  2
Wireframe
 70
     5
 71
     0
 72
     2
 73
     0
 90
        0
 40
-0.6
 41
-30.0
 62
     5
 63
     7
 74
     1
 91
        4
 64
     7
 65
   257
 75
     1
175
     1
 42
1.0
 92
        0
 66
   257
 43
1.0
 76
     1
 77
     6
 78
     2
 67
     7
 79
     3
170
     0
171
     0
290
     0
174
     0
 93
        1
 44
0.0
173
     0
291
     0
 45
0.0
1001
ACAD
1000
AcDbSavedByObjectVersion
1070
     0
  0
VISUALSTYLE
  5
180
102
{ACAD_XDICTIONARY
360
186B
102
}
102
{ACAD_REACTORS
330
99
102
}
330
99
100
AcDbVisualStyle
  2
X-Ray
 70
    25
 71
     2
 72
     2
 73
     1
 90
        1
 40
0.5
 41
-30.0
 62
     5
 63
     7
 74
     1
 91
        0
 64
     7
 65
   257
 75
     1
175
     1
 42
1.0
 92
        8
 66
     7
 43
1.0
 76
     1
 77
     6
 78
     2
 67
     7
 79
     3
170
     0
171
     0
290
     0
174
     0
 93
       13
 44
0.0
173
     0
291
     0
 45
0.0
1001
ACAD
1000
AcDbSavedByObjectVersion
1070
     0
  0
DICTIONARYVAR
  5
F0
102
{ACAD_REACTORS
330
66
102
}
330
66
100
DictionaryVariables
280
     0
  1
1:1
  0
DICTIONARYVAR
  5
EF
102
{ACAD_REACTORS
330
66
102
}
330
66
100
DictionaryVariables
280
     0
  1
STANDARD
  0
DICTIONARYVAR
  5
89
102
{ACAD_REACTORS
330
66
102
}
330
66
100
DictionaryVariables
280
     0
  1
STANDARD
  0
DICTIONARYVAR
  5
1B7
102
{ACAD_REACTORS
330
66
102
}
330
66
100
DictionaryVariables
280
     0
  1
Imperial24
  0
DICTIONARYVAR
  5
1B8
102
{ACAD_REACTORS
330
66
102
}
330
66
100
DictionaryVariables
280
     0
  1
Imperial24
  0
DICTIONARYVAR
  5
67
102
{ACAD_REACTORS
330
66
102
}
330
66
100
DictionaryVariables
280
     0
  1
2
  0
DICTIONARYVAR
  5
6B
102
{ACAD_REACTORS
330
66
102
}
330
66
100
DictionaryVariables
280
     0
  1
1
  0
DICTIONARYVAR
  5
17E6
102
{ACAD_REACTORS
330
66
102
}
330
66
100
DictionaryVariables
280
     0
  1
0
  0
DICTIONARYVAR
  5
14D
102
{ACAD_REACTORS
330
66
102
}
330
66
100
DictionaryVariables
280
     0
  1
0
  0
DICTIONARYVAR
  5
14E
102
{ACAD_REACTORS
330
66
102
}
330
66
100
DictionaryVariables
280
     0
  1
0
  0
DICTIONARYVAR
  5
17E4
102
{ACAD_REACTORS
330
66
102
}
330
66
100
DictionaryVariables
280
     0
  1
2
  0
DICTIONARYVAR
  5
17E3
102
{ACAD_REACTORS
330
66
102
}
330
66
100
DictionaryVariables
280
     0
  1
1
  0
DICTIONARYVAR
  5
17E5
102
{ACAD_REACTORS
330
66
102
}
330
66
100
DictionaryVariables
280
     0
  1
127
  0
DICTIONARYVAR
  5
1831
102
{ACAD_REACTORS
330
66
102
}
330
66
100
DictionaryVariables
280
     0
  1
2
  0
DICTIONARY
  5
1873
330
1AC
100
AcDbDictionary
280
     1
281
     1
  3
ACAD_XREC_ROUNDTRIP
360
1874
  0
DICTIONARY
  5
1837
330
59
100
AcDbDictionary
280
     1
281
     1
  3
ACAD_XREC_ROUNDTRIP
360
1838
  0
DICTIONARY
  5
1839
330
5E
100
AcDbDictionary
280
     1
281
     1
  3
ACAD_XREC_ROUNDTRIP
360
183A
  0
DICTIONARY
  5
1835
330
22
100
AcDbDictionary
280
     1
281
     1
  3
ACAD_XREC_ROUNDTRIP
360
1836
  0
DICTIONARY
  5
188
330
97
100
AcDbDictionary
280
     1
281
     1
  3
ACAD_XREC_ROUNDTRIP
360
183D
  3
FBXASSET
360
189
  0
DICTIONARY
  5
186
330
96
100
AcDbDictionary
280
     1
281
     1
  3
ACAD_XREC_ROUNDTRIP
360
183C
  3
FBXASSET
360
187
  0
DICTIONARY
  5
110
330
98
100
AcDbDictionary
280
     1
281
     1
  3
ACAD_XREC_ROUNDTRIP
360
183E
  3
BUMPTILE
360
112
  3
DIFFUSETILE
360
111
  3
FBXASSET
360
18A
  3
OPACITYTILE
360
113
  3
REFLECTIONTILE
360
114
  0
DICTIONARY
  5
185F
330
D8
100
AcDbDictionary
280
     1
281
     1
  3
ACAD_XREC_ROUNDTRIP
360
1860
  0
DICTIONARY
  5
1871
330
1AA
100
AcDbDictionary
280
     1
281
     1
  3
ACAD_XREC_ROUNDTRIP
360
1872
  0
DICTIONARY
  5
104
330
87
100
AcDbDictionary
280
     1
281
     1
  3
ACAD_ROUNDTRIP_2008_TABLESTYLE_CELLSTYLEMAP
360
1832
  3
ACAD_XREC_ROUNDTRIP
360
183B
  0
DICTIONARY
  5
1849
330
9F
100
AcDbDictionary
280
     1
281
     1
  3
ACAD_XREC_ROUNDTRIP
360
184A
  0
DICTIONARY
  5
1847
330
9E
100
AcDbDictionary
280
     1
281
     1
  3
ACAD_XREC_ROUNDTRIP
360
1848
  0
DICTIONARY
  5
1855
330
A5
100
AcDbDictionary
280
     1
281
     1
  3
ACAD_XREC_ROUNDTRIP
360
1856
  0
DICTIONARY
  5
185D
330
A9
100
AcDbDictionary
280
     1
281
     1
  3
ACAD_XREC_ROUNDTRIP
360
185E
  0
DICTIONARY
  5
184F
330
A2
100
AcDbDictionary
280
     1
281
     1
  3
ACAD_XREC_ROUNDTRIP
360
1850
  0
DICTIONARY
  5
1853
330
A4
100
AcDbDictionary
280
     1
281
     1
  3
ACAD_XREC_ROUNDTRIP
360
1854
  0
DICTIONARY
  5
1865
330
175
100
AcDbDictionary
280
     1
281
     1
  3
ACAD_XREC_ROUNDTRIP
360
1866
  0
DICTIONARY
  5
185B
330
A8
100
AcDbDictionary
280
     1
281
     1
  3
ACAD_XREC_ROUNDTRIP
360
185C
  0
DICTIONARY
  5
183F
330
9A
100
AcDbDictionary
280
     1
281
     1
  3
ACAD_XREC_ROUNDTRIP
360
1840
  0
DICTIONARY
  5
1841
330
9B
100
AcDbDictionary
280
     1
281
     1
  3
ACAD_XREC_ROUNDTRIP
360
1842
  0
DICTIONARY
  5
1843
330
9C
100
AcDbDictionary
280
     1
281
     1
  3
ACAD_XREC_ROUNDTRIP
360
1844
  0
DICTIONARY
  5
1845
330
9D
100
AcDbDictionary
280
     1
281
     1
  3
ACAD_XREC_ROUNDTRIP
360
1846
  0
DICTIONARY
  5
184D
330
A1
100
AcDbDictionary
280
     1
281
     1
  3
ACAD_XREC_ROUNDTRIP
360
184E
  0
DICTIONARY
  5
1861
330
173
100
AcDbDictionary
280
     1
281
     1
  3
ACAD_XREC_ROUNDTRIP
360
1862
  0
DICTIONARY
  5
1859
330
A7
100
AcDbDictionary
280
     1
281
     1
  3
ACAD_XREC_ROUNDTRIP
360
185A
  0
DICTIONARY
  5
1863
330
174
100
AcDbDictionary
280
     1
281
     1
  3
ACAD_XREC_ROUNDTRIP
360
1864
  0
DICTIONARY
  5
1851
330
A3
100
AcDbDictionary
280
     1
281
     1
  3
ACAD_XREC_ROUNDTRIP
360
1852
  0
DICTIONARY
  5
186F
330
182
100
AcDbDictionary
280
     1
281
     1
  3
ACAD_XREC_ROUNDTRIP
360
1870
  0
DICTIONARY
  5
186D
330
181
100
AcDbDictionary
280
     1
281
     1
  3
ACAD_XREC_ROUNDTRIP
360
186E
  0
DICTIONARY
  5
1867
330
17E
100
AcDbDictionary
280
     1
281
     1
  3
ACAD_XREC_ROUNDTRIP
360
1868
  0
DICTIONARY
  5
1869
330
17F
100
AcDbDictionary
280
     1
281
     1
  3
ACAD_XREC_ROUNDTRIP
360
186A
  0
DICTIONARY
  5
1857
330
A6
100
AcDbDictionary
280
     1
281
     1
  3
ACAD_XREC_ROUNDTRIP
360
1858
  0
DICTIONARY
  5
184B
330
A0
100
AcDbDictionary
280
     1
281
     1
  3
ACAD_XREC_ROUNDTRIP
360
184C
  0
DICTIONARY
  5
186B
330
180
100
AcDbDictionary
280
     1
281
     1
  3
ACAD_XREC_ROUNDTRIP
360
186C
  0
XRECORD
  5
1874
102
{ACAD_REACTORS
330
1873
102
}
330
1873
100
AcDbXrecord
280
     1
102
DISPLAYNAME
  1
Imperial24
102
FLAGS
 90
        0
  0
XRECORD
  5
1838
102
{ACAD_REACTORS
330
1837
102
}
330
1837
100
AcDbXrecord
280
     1
102
SHADEPLOT
 70
     0
102
SHADEPLOTRESLEVEL
 70
     2
102
SHADEPLOTCUSTOMDPI
 70
   300
  0
XRECORD
  5
183A
102
{ACAD_REACTORS
330
1839
102
}
330
1839
100
AcDbXrecord
280
     1
102
SHADEPLOT
 70
     0
102
SHADEPLOTRESLEVEL
 70
     2
102
SHADEPLOTCUSTOMDPI
 70
   300
  0
XRECORD
  5
1836
102
{ACAD_REACTORS
330
1835
102
}
330
1835
100
AcDbXrecord
280
     1
102
SHADEPLOT
 70
     0
102
SHADEPLOTRESLEVEL
 70
     2
102
SHADEPLOTCUSTOMDPI
 70
   300
  0
XRECORD
  5
183D
102
{ACAD_REACTORS
330
188
102
}
330
188
100
AcDbXrecord
280
     1
102
MATERIAL
148
0.0
149
0.0
149
0.0
 93
        0
 94
       63
282
     0
 72
     1
 77
     1
171
     1
175
     1
179
     1
273
     0
  0
XRECORD
  5
189
102
{ACAD_REACTORS
330
188
102
}
330
188
100
AcDbXrecord
280
     1
 70
     1
 90
429727718
  1
508B35C9-AEE7-456F-BE74-D52651303AC6
310
504B03040A0000080000B670623B3DEE336E79000000790000001B0000006175746F6465736B2D64657369676E2D7061636B6167652E786D6C3C3F786D6C2076657273696F6E3D22312E302220656E636F64696E673D227574662D3822203F3E3C666F726D6174733E3C666F726D61743E687474703A2F2F736368656D612E
310
6175746F6465736B2E636F6D2F64657369676E2D7061636B6167652F323030393C2F666F726D61743E3C2F666F726D6174733E504B0304140006080800B670623BD486FD9CA0000000F4000000130000005B436F6E74656E745F54797065735D2E786D6C7D8EC10E82300C865F65E91D8A1E8C310C0EEA1BF002731658846E
310
D98AC1B77784ABF1D8FE5FBFBF75BBCE937A534CCEB38643598122B6FEE978D0B0485F9C41B54DDD7D022595594E1A469170414C76A4D9A4D207E29CF43ECE46F218070CC6BECC4078ACAA135ACF422C856C0E68EA1BF5669944DDD7BCDE7B1F8E415D77AECB980613C2E4AC91FC167A2B244592486606FC29C8FD7F045B9A
310
EF7053A7E60B504B0304140006080800B670623B28ED286BEB0000007C01000008000000636F72652E786D6C8D90416EC3201045AF82665B6183218D6D61A254764FD00B204C5C94182C03558F5F9C3852BBEB6A467FFE9B197D71FA9E6FE8CBACC17AD7012D0820E3B41FAD9B3A48F1826B40272956EFE32F1B20A766D3C1
310
268314D3EAD3B24BDABB685CCCAAF3A3D94515828980F42D371D04FD696655A814B3235C8B45E9AB9A4C419F5D8653B2237A1CB163DE672FD6AC209BF3C08E0D1B30EB19C3FC9D72FCC6EB231EFA33EDE96BDD341517E5064B11EDFCBCAF57A3A2194156843498524CAA0FCA5B7268F9E185D42D21A2DCEC7FA0B48CFF8492
310
759155FBBB0F2C80A4F991FB408A72CB22977B50B96EB9C91F504B0304140006080800B670623B55019EA25F0000007C00000007000000636E782E786D6C4DCB3B0E80201045D1AD90E915ED2CF8AC45050C11660C8261F98AB1B07AC9C97D42D718D865D3E909258CFD00CCE24AC6E326A164D74DC0B4128928FF32603847
310
2BA13128B1252AC747C6BAB984FC68F0B87FE8960A5C09FE86CFB69FBA01504B0304140006080800B670623B7BC41AC871010000D40300000C0000006662782F636F72652E786D6CC553ED6E8320147D15C2DF4501B56B6D90A64BBB27D80B50A5CE54C120983EFEAE1F4DD7A56BBA5FF3879273EEE59E7310BE393735EA95
310
ED2AA333CC428A91D2B9292A5D66D8BB63B0C26823B835C67D2BC348CB46657880B1E0A535BE9DA1DC68A7B403549B42CDA0EC3AE530CA6B5864B8CB3F552343E91D5474A7B095F949962A6421D0502778E72C0840D390E18DC5F170E664C205F7BE2A66B62A605A75AC94C522DDEEE3651AEF837817C741F2CE92E02D592D
310
83FD6ECB76EC7595A651C2C9D02CB8AB9A8BBADC2AE954814544691A3016D0E883256BBA58278B17BA5A53CAC9507ED3E4DBE2C9265F691747B3DCA9ADC382819091F8E1162272A8933DE82182932144F88C09DF060D8140C84E1EEA8B8F1340BDCA9DB1093085F157AA97B557309586747CD0EF0B4EA64E983A6E0EAEEFCE
310
889E9EF17847386AA94B30211D2C0FDE0D3AF9A4610EAD5536E8DD1969631B593F67E381C33F5157F17725E5A636F6BF1491F980C8FC7B90E13E8A2F504B0304140006080800B670623B70102A487D0000009D0000000B0000006662782F636E782E786D6C4DCCD10A83201886E15B91FFDC95A5C30335ACCDFB886521330D
310
A76397BF1A1DECE883878F57749FD5A3B74D2F17830472A901D9F088930B8B849267CC01754AA418F3DF0D5018572BE160506249B16C274D761E8BCFBB7A179E27F65CB39A0F14D396184C9921B81F34C3ACA1B4B99ABB6E6F062A25AA5F69DF23ACBE504B0304140006080800B670623B3610CA3329010000120200003100
310
00006662782F42384135303843342D343331462D343546312D424341352D3532343432364645413344462F636F72652E786D6C8D515B6EC32010BC0AE22B55850D0E446E848992B43E412FE000495162B07854397EA176A4F62F3F2C9A9D991D58BEBB8F37F0AD7D30CE76905418026DA553C65E3A98E219B510EC04F7CEC5
310
3F3408EC30EA0E16180A7EF12E4D0B249D8DDAC68C5AA7F4020E21E80881BCE54B0783FCD2E3500D296646B856D320AFC34557A4CAEDCC133C449F0380794839A138B47B86DB2345744D7A44594FD0E1B867883594369BFE63BF7EEF793D0B054FC9A8456E548E63CE46FB674D8A58F068C6477CE9F510B582A2C1F80D1182
310
70F349E816B32D65AFB8DD62CCEB42FF274A937A52948C8DEB66893BCB021484D7734370E5D2E9F608A3EF93F3119479ABA0E50B14B8C298119A43CCC4FCFCECB8A18B6388CEE7EF5D5D4F994BD86CBBA182D76543B9FCAE2FD7B24DF103504B0304140006080800B670623B1B8617914E0100003303000030000000666278
310
2F42384135303843342D343331462D343546312D424341352D3532343432364645413344462F636E782E786D6CD593C16EC32010447F0571AD6CE3D489D20813A9877E410FBD62D82434182CC055F3F75D1292E692438FBD206B7698593D61BEFD1E2DF982108D773D6D6B460938E5B571FB9ECE6957AD29D90A1EBC4F7736
310
4A9C1CA1A759A682EF839FA72269D8C9D92654AD71C72206887E0E0A22CAF926B15E498B01E0AA19451807D01A34B919F16B070157417138917400F2F6FA41FCF0092A45DEE414C19BDC21783E4BD39D891265658C3D8DEA00A3ACE59CBC8678ACB54CB26EEB6BD7839D7E9348BE70AD9C8321B9BCA7F9A4A26C542347DEE0
310
50F09802D22BA6749A800A394DD62899107273365E3C82CFC6A55557BC06C10774B7ABE7AEC3B0F34CF06446280E154026D0542C187BA9DAB6628BF7B6DBB0E5A65B3EB1F58631DE64BBE083F7B65CC218087E22CABB042E51D1F2268F1FE12B3EA24D40D63E9CFE00120194D60B9D5BC67FE6D39CDF37E20AF817881F504B
310
0304140006080800B670623BBFEF2E3B690500003C100000340000006662782F42384135303843342D343331462D343546312D424341352D3532343432364645413344462F6F626A656374732E786D6CAD575D739B3814FD2B0CFB0C98D84E931D4227B6938EA793B6534F3BFB90198F0099B001899144EAECAFDF231018B0
310
D37A3FFC609090EEE7B94757C1FB7D915B2F54C88CB31BDB7727B64559CC938CA53776A576CE956DBD0F03C1B9EA2DB32D460A7A63EB693B0C52C1ABD24C257447AA5C8D66EF177F5832A68CDA569C13296F6C193FD182B8A4523CA1F2D94D88226EBADBBBBEDB2C1C8A4D05299F46424B222853B014F30C52ACC6287F389C
310
D85E1878FA7B18E87FB36AFAF62AAFF667A83F635211161F291B8999FAB3D5DDC5FCDA99CF6653677679E13B8BFBC5CAF1DF4D27CBCBE5F2FAF6EE1A8AA51290642C117467871F101B91C581D77CEA2C36869F3229E68CD1B8F61F1ED6361B89092D294B90C78C4A68EB793D190E7D1D9BDEE7A91E1B95FDE9F3BCEAEFE809
310
6A6D6F9F7D4B79F4275C90E7A04248AA51D5C4C738DAE06F72885AC4796EBE65D22A88A22223B995679120E2D50EB1542F098381188D4EA111AE3DB043FF20AF6F2B4AE3D7D83D65E5AECA730D4D3BAC91BD05FEA992B565D95F549CD6069B90AB2A63EACA38A45E4B6A87D781574F86817E4C2FCCC72690D62E2729520E37
310
9BAF234797BAF6D62B3BFC781FED37BA1E4F2B2F052FA9501A3E80569BB8F6A9A364D4FA67654E6F803383981F82F21591FF84F23D9882BC896C3FDBCF8C162508933B2E0AE4C69DD43F6BD2BE38DDDBF10BF86CB4FA784D37F3AF16075E67EC9030DECA1FC0A55373F5DFF3378C591FA9BDF485C10B0A8C8BA909E5262639
310
A8E72163488806A595734C81CB77D1DE0ED7604A303B76913CEC0272F412782FF88EFF4636D8AA56DF7B322474C4B767303F625997056C7B032C473C592B36CEBD15F3F9FF5233B7ABCDC74D257624A60F8658567497B14CE1EC3C80B76FD02011038F9EE9EB0F2E12387A9C844D3F09855125116D1D731DF8B43D2CF4E0A0
310
79A020C6BE946BCE0B7EA1E1219331CD73C228AF5A2DDD31A4B1DA918CE91350854D40A71723140BFA92E94E62B0626016CEFA5864A50E5977E8753CEDBEE1CBB7F52780D20E17AF0BA0F5F9B02A3AD07DCC732EB6D1EBB661421BE0C39E21BABF0FE16D22EA6929407C8DE596724C88B749B6DB5512BC7B228ADFD7CB7EA6
310
3A22397E690BA8D5D8D4E40CEC8CDA23C2C0B7D5898640101CEC9C6D331CE328CB93CAFBBAC70A642DF70DF95155945B52F08AA973C23469FD69ADEF84F7BB18F983A8F8C90E37F5D35980B2139A1C523540813E824EF83448CF7C72B598CE97D7CEEDDDDD3B6736BFBC771677EF66CE6A7E7139F7A793E9EDF2B2B3A8B624
310
0CDA13AA5F8388264EC4A0129909F3B7F5A16CEDF08128E97D680ACA4B9BE7B7B58BB638F0B00700EF36AE8B32A705658A68F83EE897FC2B41573190D1CCAF0B92D233A47CFEB019D9809933F67DD1A5467F8CF69AD9A5AE859342D45355448C64F968A371DC2D596ADC6E43D93D1B466F877A64E2893E54F23C4B40388995
310
525E5005DA3983ED45412510D3EFCA13737B3863F74BD30F2A12E5B4B5E489A025CE25500DB855B11ACE5BBFA185D35DD48D8DC3CE7DC69F2944DB42AA6F6CF09BCA622ADD08C7A36E7C6AE18000BAB08E040135C2D21C9D75B3A91B77BB746C403F38018DFE6EC939DD92F16B40BC05294B9CDA035AAD6D330AE27FE4786B
310
8E45145EA34A75BE1C263A676A35A8ACC6297337400BF16C54EF515F3F77CB77EB3583889C754FFA29081AA98E2222ADEF05DA3E63D2EDEA8B8756C05A7FB6CABC4A91CBF325398202CC952E70A008A830324BA200D5E5EF8F5F04C75DB4B0EE3340E071C98B823333B83577596BF3849B69F2085AA0FAFA212F26BEFF5877
310
FDE622B28D88A42E49E43326DA82D31E8CB006401E1DA726059ECEC168F97A6599036306A135688F9AD2E61A6EA178F4CD51974A9F2CCB9F36FE5EBD14601068D9C3BF01504B0304140006080000B670623B000000000000000000000000350000006662782F42384135303843342D343331462D343546312D424341352D35
310
32343432364645413344462F76657274696365732E62696E504B0304140006080800B670623BF270F1330600000004000000360000006662782F42384135303843342D343331462D343546312D424341352D3532343432364645413344462F747269616E676C65732E62696E636660600000504B0304140006080000B67062
310
3B000000000000000000000000370000006662782F42384135303843342D343331462D343546312D424341352D3532343432364645413344462F617474726962757465732E62696E504B0304140006080800B670623B08DA0BD19000000041010000360000006662782F42384135303843342D343331462D343546312D4243
310
41352D3532343432364645413344462F6469726563746F72792E786D6C858F410AC3201045AF22B36F53E9A60B35CBEEBAE80D244E44489C6234F4F835464A48035D0DF398FF9F8AF63D0E6CC63039F212F8F9020C7D47C6792B21C5FE7403D62A1188E2E60C98D7234A5830286103A55745067B9D86B8A3CF9C7F90C11DE6
310
07FB144396D7B6A82D282E9A152AD114D5EF2CB866EEE831B8EEA07A7BB5A8D7D61A2BAAEB7FD5F70921FF497D00504B0304140006080800B670623B3B4606F3FE000000A00100003B0000006662782F42384135303843342D343331462D343546312D424341352D3532343432364645413344462F7265736F75726365732F
310
636F72652E786D6C8D504B6E833010BD0A9A6D65B08134808CA354A427E8052C332156828DFCA97AFC9A40A576D7CDCCE87D344F8F9FBEE647F689CE6B6B7A6039850C8DB2A336530F315C4903D94970676DF82583CCC8197B5861107C72362E3BA4AC096842428D1D7107A5F71820538F74F4E0D50D6799CB1892C2DFF345
310
AABB9C306779A2934E701F5C0A906D4FD609C2A1B7D129F4BCD858C163D4E3AED163FAA9AF1A1D88F67CA98E6D35906AA82A52BFB39ABCD5CD915C86331BD86BD3B665CD8BD52C78D0F34F46E550061C419494B6843142CB0F5677F4D0D58717DA7494F26295FF31C565FCA7296A13AA728FBBD93C0896823C09C18BB5AFB4
310
9E65A6BD762BBE01504B010214000A0000080000B670623B3DEE336E79000000790000001B00000000000000000000000000000000006175746F6465736B2D64657369676E2D7061636B6167652E786D6C504B01021400140006080800B670623BD486FD9CA0000000F40000001300000000000000000000000000B2000000
310
5B436F6E74656E745F54797065735D2E786D6C504B01021400140006080800B670623B28ED286BEB0000007C010000080000000000000000000000000083010000636F72652E786D6C504B01021400140006080800B670623B55019EA25F0000007C000000070000000000000000000000000094020000636E782E786D6C50
310
4B01021400140006080800B670623B7BC41AC871010000D40300000C00000000000000000000000000180300006662782F636F72652E786D6C504B01021400140006080800B670623B70102A487D0000009D0000000B00000000000000000000000000B30400006662782F636E782E786D6C504B01021400140006080800B6
310
70623B3610CA3329010000120200003100000000000000000000000000590500006662782F42384135303843342D343331462D343546312D424341352D3532343432364645413344462F636F72652E786D6C504B01021400140006080800B670623B1B8617914E010000330300003000000000000000000000000000D10600
310
006662782F42384135303843342D343331462D343546312D424341352D3532343432364645413344462F636E782E786D6C504B01021400140006080800B670623BBFEF2E3B690500003C10000034000000000000000000000000006D0800006662782F42384135303843342D343331462D343546312D424341352D35323434
310
32364645413344462F6F626A656374732E786D6C504B01021400140006080000B670623B0000000000000000000000003500000000000000000000000000280E00006662782F42384135303843342D343331462D343546312D424341352D3532343432364645413344462F76657274696365732E62696E504B010214001400
310
06080800B670623BF270F133060000000400000036000000000000000000000000007B0E00006662782F42384135303843342D343331462D343546312D424341352D3532343432364645413344462F747269616E676C65732E62696E504B01021400140006080000B670623B00000000000000000000000037000000000000
310
00000000000000D50E00006662782F42384135303843342D343331462D343546312D424341352D3532343432364645413344462F617474726962757465732E62696E504B01021400140006080800B670623B08DA0BD1900000004101000036000000000000000000000000002A0F00006662782F42384135303843342D3433
310
31462D343546312D424341352D3532343432364645413344462F6469726563746F72792E786D6C504B01021400140006080800B670623B3B4606F3FE000000A00100003B000000000000000000000000000E1000006662782F42384135303843342D343331462D343546312D424341352D3532343432364645413344462F72
310
65736F75726365732F636F72652E786D6C504B0506000000000E000E0080040000651100000000
  0
XRECORD
  5
183C
102
{ACAD_REACTORS
330
186
102
}
330
186
100
AcDbXrecord
280
     1
102
MATERIAL
148
0.0
149
0.0
149
0.0
 93
        0
 94
       63
282
     0
 72
     1
 77
     1
171
     1
175
     1
179
     1
273
     0
  0
XRECORD
  5
187
102
{ACAD_REACTORS
330
186
102
}
330
186
100
AcDbXrecord
280
     1
 70
     1
 90
429727718
  1
887D55A9-D0DD-414E-B741-A7DCD4DA2B4C
310
504B03040A0000080000B670623B3DEE336E79000000790000001B0000006175746F6465736B2D64657369676E2D7061636B6167652E786D6C3C3F786D6C2076657273696F6E3D22312E302220656E636F64696E673D227574662D3822203F3E3C666F726D6174733E3C666F726D61743E687474703A2F2F736368656D612E
310
6175746F6465736B2E636F6D2F64657369676E2D7061636B6167652F323030393C2F666F726D61743E3C2F666F726D6174733E504B0304140006080800B670623BD486FD9CA0000000F4000000130000005B436F6E74656E745F54797065735D2E786D6C7D8EC10E82300C865F65E91D8A1E8C310C0EEA1BF002731658846E
310
D98AC1B77784ABF1D8FE5FBFBF75BBCE937A534CCEB38643598122B6FEE978D0B0485F9C41B54DDD7D022595594E1A469170414C76A4D9A4D207E29CF43ECE46F218070CC6BECC4078ACAA135ACF422C856C0E68EA1BF5669944DDD7BCDE7B1F8E415D77AECB980613C2E4AC91FC167A2B244592486606FC29C8FD7F045B9A
310
EF7053A7E60B504B0304140006080800B670623BBC1638F5EC0000007C01000008000000636F72652E786D6C8D90416EC3201045AF82665B61836BE2D8C24471DB9CA01740401C94182C03558F5F9C3852BBEB6A467FFE9B197D7EF89E6EE8CB2CC17AD7032D0820E394D7D68D3DA478C67B4007C117EFE32F1B202727D3C3
310
2A83E0E3E2D3BC49CABB685CCCAAF3DA6CA20CC14440EA969B1E82BA98491632C5EC08D76296EA2A4753D06797E194AC468F2356E77DF66CCD02825543D50CACC62D39ED70FDC68EB8FD68F6F8787A6784342D1DDA1D2F5758F068A7E77DB518198D065111D2624A31A93E69DD11D6D5EC85EC3B4278B9DAFF4069D6FF8492
310
75F1B5DADE7D600104CD8FDC0782976B16B9DC83CA75CD4DFC00504B0304140006080800B670623B55019EA25F0000007C00000007000000636E782E786D6C4DCB3B0E80201045D1AD90E915ED2CF8AC45050C11660C8261F98AB1B07AC9C97D42D718D865D3E909258CFD00CCE24AC6E326A164D74DC0B4128928FF326038
310
472BA13128B1252AC747C6BAB984FC68F0B87FE8960A5C09FE86CFB69FBA01504B0304140006080800B670623B3586FFB671010000D40300000C0000006662782F636F72652E786D6CC553ED6E8320147D15C2DF4541A76D6D90A6DDD627D80B50A4CE54C120983EFEAE1F4DD7A55BBA5FF3879273EEE59E7310B6393735EA
310
95ED2AA3731C851423A5A5292A5DE6D8BB63B0C268C39935C67D29C3488B46E578803167A535BE9D2169B453DA01AA4DA16650749D7218C91A1639EEE4876A4428BC838AEE14B6429E44A9C228041AEA38EB9C0501681A32BC313F1ECE8C4C3867DE57C5CC56054CAB8E95B298A7F12E5EEED224C8E87E11242FE936C8DE96
310
AB60BB7F4D295D66D12E5B30323473E6AAE6A24E5A259C2A308F29CD82280A68FC1E256B9AAE93F489AED694323294DF34F9B678B0C957DA3DC7B3DCA9ADC33C022123F1CD2D44E450277AD04338234388F01913BE0D1A0281909D38D4171F27807A259DB1093085F157AA17B557309586747CD0CF0B46A64E983A6E0EAEEF
310
CE881F9EF1FB8E70D44297604238581EBC1B74B249C31C5AAB6CD0BB33D2C636A27ECCC62F0EFF445DC5DF95244D6DEC7F2922F30191F9F720C37DE49F504B0304140006080800B670623B4220A0FF7D0000009D0000000B0000006662782F636E782E786D6C4DCCD10A83201886E15B91FFDCE542CB0335D0EC3E6259C84A
310
C3E9D8E5AF46073BFAE0E1E315DD675BD1DBA5978F41C2FD4600B9F088930F8B849267CC01754AA418F3DF0D50183727E164506249B1EC174D6E1ECB9A0F5D7D785E68DB8151CD286E5A5363CA6B8A39E90D36D40E96B086F55A43A544F52B1D7B86D517504B0304140006080800B670623B2FA3FEDE290100001202000031
310
0000006662782F45374635344235342D363743322D343832342D383044432D4334454645303536354442422F636F72652E786D6C8D515B6EC32010BC0AE22B55850D2E386E848994D7097A0117488A1283C5A3CAF10BB523B57FF961D1ECCCECC0F2ED7DBC816FED8371B687A4C210682B9D32F6D2C314CFA883602BB8772E
310
FEA141608751F7B0C050F08B77695A20E96CD43666D43AA5177008414708E42D5F7A18E4971E876A483133C2B59A06791D2EBA22556E679EE021FA1C00CC43CA09C5717D6274C7286AD7FB06D1AEA1A8C3873DDAD3E3E98859CB0EBB1DAF67A1E02919B5C88DCA71CCD968FFAC49110B1ECDF8882FBD1EA256503418BF2342
310
106E3E08DD60B6A1EC15771B8C795DE8FF4469524F8A92B1F1AD59E2CEB20005E1F5DC105CB9F4797B84D1F7C9F908CABC55D0F2050A5C61CC1AD2F27A26E6E767C7962E8E213A9FBF7775FDCC5CC266DB960A5E970DE5F2BBBE5CCB36C50F504B0304140006080800B670623B1B8617914E01000033030000300000006662
310
782F45374635344235342D363743322D343832342D383044432D4334454645303536354442422F636E782E786D6CD593C16EC32010447F0571AD6CE3D489D20813A9877E410FBD62D82434182CC055F3F75D1292E692438FBD206B7698593D61BEFD1E2DF982108D773D6D6B460938E5B571FB9ECE6957AD29D90A1EBC4F77
310
364A9C1CA1A759A682EF839FA72269D8C9D92654AD71C72206887E0E0A22CAF926B15E498B01E0AA19451807D01A34B919F16B070157417138917400F2F6FA41FCF0092A45DEE414C19BDC21783E4BD39D891265658C3D8DEA00A3ACE59CBC8678ACB54CB26EEB6BD7839D7E9348BE70AD9C8321B9BCA7F9A4A26C542347DE
310
E050F09802D22BA6749A800A394DD62899107273365E3C82CFC6A55557BC06C10774B7ABE7AEC3B0F34CF06446280E154026D0542C187BA9DAB6628BF7B6DBB0E5A65B3EB1F58631DE64BBE083F7B65CC218087E22CABB042E51D1F2268F1FE12B3EA24D40D63E9CFE00120194D60B9D5BC67FE6D39CDF37E20AF817881F50
310
4B0304140006080800B670623B29652116630500003C100000340000006662782F45374635344235342D363743322D343832342D383044432D4334454645303536354442422F6F626A656374732E786D6CAD575D739B3814FD2B0CFB0C989834C90EA1639B24E3E9A6EDD4D3CE3E64C623834CD8006224913AFDF57B040203
310
B65BEF871F0C12D2FD3CF7E8CA7FBFCB33E3957291B2E2D674ED8969D02262715A24B76625B7D6B569BC0F7CCE98EC2D338D82E4F4D654D366E0279C55A59E8AE99654991CCDDECFFF3444440B6A1A514684B83545F44C7362934AB2988A173B2692D8C97667BB76B3702836E1A47C1E092D09A78584A5982F20C5688C7287
310
C389E904BEA3BE07BEFAD7ABA6A75739B53F43FD69212429A20365233153D70BEF2E2E6FAC4BCF9B5ADEBB0BD79ADFCF43CBBD9A4E16EF168B9BD9DD0D140BC921495BC2E9D60C1E101B9E46BED37CEA2CD6861F3329624541A3DA7F7858DBAC25C6B4A4458C3CA654405BCFEBC970E8AAD8F43E4FD558ABEC4F9FE7557F47
310
4F506B7BFBEC5BCA367FC105710E2AB8A00A554D7CB4A30DFE26FBA86D18CBF4B75418399194A72433B274C3097F33032C554B027F2046A1932B842B0FCCC0DDCBEBDB8AD2F835768F59B9ADB24C41D30C6A64AF817F2A456D59FA83F2E3DA60137255A585BCD60EC9B7929AC18DEFD49381AF1ED30BFDB109A4B1CD488294
310
C3CDE6EBC8D185AABD6568061FEE37BB95AAC7E3CA4BCE4ACAA5820FA0D526AE7DAA2869B5EE5999531BE0CC20E6FBA07C41E43FA27CF7A6206F3CDD793B4F6B919C1462CB788EDCD893FA674CDA17AB7B3B7C019F8D561FAEE966FED562DFE98C1D12C6A9FC015C2A35D7FF3D7FC398F591DA4B5FE0BFA2C0189FEA50AE22
310
92817A1ED3020951A03432862970F976B33383259812CC8E5D240BBA801CBCF8CE2BBEE3BF910DB6AAD5F79E05123AE2DB33981FB1ACCB02B69D00CB014FD68AB573A7627EF9BFD4CC2C5C7D58557C4B22FAA88925A4DBB44825CECE3D78FB060D1231F0E885BE7D673C86A3874958F593906B5502D1563157814FDAC3420D
310
F69A070A22EC4B98E23CFF171A1E5311D12C23056555ABA53B8614563B92D17D02AAB009E8F46284624E5F53D5490C560CCCC2591FF1B45421EB0EBD8EA7ED13BE7C5D7E0428CD60FEF60779EB13E6664FF711CB185F6FDED60D139A001FF60CD1FD6D086F1D51474901E26B2CB794A343BC8ED3EDB612E0DD2351FCB65CF4
310
33D511C9E14B5B40ADC6A6263DB0336A8F700DDF56271A024E70B0B3629DE21847591E55DED73D56206AB927E46FAABC5C939C55853C274C93D69FD6FA4E78BF8B11DF898C9ECD60553FAD39283BA6F18984AA23E8884F83F45C5F5F859797B31B2B9C84A1E5B9DE9D35BFF25C6B76152E422F9C5DCC3D847F5801ED09D5AF
310
41441327A25FF15487F9EB725FB666F048A4701E9A827292E6F97569A32DF61DEC01C0BB8DCBBCCC684E0B49147C1FD54BF685A0AB18C868E6973949E819523E3DAC463660E68C7D9F55A9D1EFA3BD7A76A16AE1A810F95CE59B82A4D968A376DC2E8B44BBDD86B27B368CDE0ED548C7137DA860591A83706223A12CA712B4
310
7306DBF39C0A20A6DF95C7FAF670C6EED7A61F946493D1D6926782963813403548A78AE470DEF80D2D9CEAA26E4D1C76F60BFE74219A06527D6B82DF641A51616F703CAAC6A7160E08A00BEB4810A0274592A1B36E3675E36E978A0DE80727A0D6DF2D39A75BD27E0D8837276589537B40ABB56D5A41F48F1C6FCD3188C4EB
310
A6929D2FFB89CE995A4D00AE813BDD032DC48B56BD437DFDDC2DD7AED70C2272D63DE9A72068A45A92F0A4BE17A8A06B9366E16707AD80B1FC649459952097E74BB23805982B55E0401150A165964402AA8BDF9F3E7386BB686EDCA780C0D382E5392BF460A6EFB2C6EA1937D3F809B440D5F5435C4C5CF7A9EEFAF54564BD
310
2182DA24162F98680B4E7930C21A0079709CEAEB99A372305ABE0C0D7D6078105A83F6A0296DAEE1068A47DD1C55A9F4C9B2FC69E3EFD44B81028E963DF81B504B0304140006080000B670623B000000000000000000000000350000006662782F45374635344235342D363743322D343832342D383044432D433445464530
310
3536354442422F76657274696365732E62696E504B0304140006080800B670623BF270F1330600000004000000360000006662782F45374635344235342D363743322D343832342D383044432D4334454645303536354442422F747269616E676C65732E62696E636660600000504B0304140006080000B670623B00000000
310
0000000000000000370000006662782F45374635344235342D363743322D343832342D383044432D4334454645303536354442422F617474726962757465732E62696E504B0304140006080800B670623B08DA0BD19000000041010000360000006662782F45374635344235342D363743322D343832342D383044432D4334
310
454645303536354442422F6469726563746F72792E786D6C858F410AC3201045AF22B36F53E9A60B35CBEEBAE80D244E44489C6234F4F835464A48035D0DF398FF9F8AF63D0E6CC63039F212F8F9020C7D47C6792B21C5FE7403D62A1188E2E60C98D7234A5830286103A55745067B9D86B8A3CF9C7F90C11DE607FB144396
310
D7B6A82D282E9A152AD114D5EF2CB866EEE831B8EEA07A7BB5A8D7D61A2BAAEB7FD5F70921FF497D00504B0304140006080800B670623B6378F24DFF000000A00100003B0000006662782F45374635344235342D363743322D343832342D383044432D4334454645303536354442422F7265736F75726365732F636F72652E
310
786D6C8D504B6E833010BD0A9A6D65B0094E42641C85B639412F6099496225D8C89FAAC7AF09546A77DDCC8CDE47F3F4C4F16B7C149FE88371B603565228D06A37187BED20C50BD9437194C23B177FC9A0B06AC40E6618A4B87A97A615D2CE46B431A3D60DB8822A048C50E8473E3A08FA86A32A558A5911EEE5A4F45D5DB1
310
6465A6B34E8A107D0E502C4FE609D26370C96B0CA25A58295232C3AA3143FE692E063D485EF7F5AEE71BD2D2F39634AFFC44DAF7DD9E9CCE6F9CD25DCBFA762BAAD92C4534E34F46ED51451C40D694B6843142EB0FD61C283F34FC85EE0F948A6A96FF31A569F8A729191B37F51A77B105902C0779125254735F793DCBCC7B
310
EE567E03504B010214000A0000080000B670623B3DEE336E79000000790000001B00000000000000000000000000000000006175746F6465736B2D64657369676E2D7061636B6167652E786D6C504B01021400140006080800B670623BD486FD9CA0000000F40000001300000000000000000000000000B20000005B436F6E
310
74656E745F54797065735D2E786D6C504B01021400140006080800B670623BBC1638F5EC0000007C010000080000000000000000000000000083010000636F72652E786D6C504B01021400140006080800B670623B55019EA25F0000007C000000070000000000000000000000000095020000636E782E786D6C504B010214
310
00140006080800B670623B3586FFB671010000D40300000C00000000000000000000000000190300006662782F636F72652E786D6C504B01021400140006080800B670623B4220A0FF7D0000009D0000000B00000000000000000000000000B40400006662782F636E782E786D6C504B01021400140006080800B670623B2F
310
A3FEDE290100001202000031000000000000000000000000005A0500006662782F45374635344235342D363743322D343832342D383044432D4334454645303536354442422F636F72652E786D6C504B01021400140006080800B670623B1B8617914E010000330300003000000000000000000000000000D2060000666278
310
2F45374635344235342D363743322D343832342D383044432D4334454645303536354442422F636E782E786D6C504B01021400140006080800B670623B29652116630500003C10000034000000000000000000000000006E0800006662782F45374635344235342D363743322D343832342D383044432D4334454645303536
310
354442422F6F626A656374732E786D6C504B01021400140006080000B670623B0000000000000000000000003500000000000000000000000000230E00006662782F45374635344235342D363743322D343832342D383044432D4334454645303536354442422F76657274696365732E62696E504B01021400140006080800
310
B670623BF270F13306000000040000003600000000000000000000000000760E00006662782F45374635344235342D363743322D343832342D383044432D4334454645303536354442422F747269616E676C65732E62696E504B01021400140006080000B670623B0000000000000000000000003700000000000000000000
310
000000D00E00006662782F45374635344235342D363743322D343832342D383044432D4334454645303536354442422F617474726962757465732E62696E504B01021400140006080800B670623B08DA0BD190000000410100003600000000000000000000000000250F00006662782F45374635344235342D363743322D34
310
3832342D383044432D4334454645303536354442422F6469726563746F72792E786D6C504B01021400140006080800B670623B6378F24DFF000000A00100003B00000000000000000000000000091000006662782F45374635344235342D363743322D343832342D383044432D4334454645303536354442422F7265736F75
310
726365732F636F72652E786D6C504B0506000000000E000E0080040000611100000000
  0
XRECORD
  5
183E
102
{ACAD_REACTORS
330
110
102
}
330
110
100
AcDbXrecord
280
     1
102
MATERIAL
148
0.0
149
0.0
149
0.0
 93
        0
 94
       63
282
     0
 72
     1
 77
     1
171
     1
175
     1
179
     1
273
     0
  0
XRECORD
  5
112
102
{ACAD_REACTORS
330
110
102
}
330
110
100
AcDbXrecord
280
     1
270
     1
271
     1
  0
XRECORD
  5
111
102
{ACAD_REACTORS
330
110
102
}
330
110
100
AcDbXrecord
280
     1
270
     1
271
     1
  0
XRECORD
  5
18A
102
{ACAD_REACTORS
330
110
102
}
330
110
100
AcDbXrecord
280
     1
 70
     0
 90
1778669749
  1
9BF507EE-FAF7-4A99-A33D-4EE51894BC40
310
504B03040A0000080000B670623B3DEE336E79000000790000001B0000006175746F6465736B2D64657369676E2D7061636B6167652E786D6C3C3F786D6C2076657273696F6E3D22312E302220656E636F64696E673D227574662D3822203F3E3C666F726D6174733E3C666F726D61743E687474703A2F2F736368656D612E
310
6175746F6465736B2E636F6D2F64657369676E2D7061636B6167652F323030393C2F666F726D61743E3C2F666F726D6174733E504B0304140006080800B670623BD486FD9CA0000000F4000000130000005B436F6E74656E745F54797065735D2E786D6C7D8EC10E82300C865F65E91D8A1E8C310C0EEA1BF002731658846E
310
D98AC1B77784ABF1D8FE5FBFBF75BBCE937A534CCEB38643598122B6FEE978D0B0485F9C41B54DDD7D022595594E1A469170414C76A4D9A4D207E29CF43ECE46F218070CC6BECC4078ACAA135ACF422C856C0E68EA1BF5669944DDD7BCDE7B1F8E415D77AECB980613C2E4AC91FC167A2B244592486606FC29C8FD7F045B9A
310
EF7053A7E60B504B0304140006080800B670623BCA089DFFEC0000007C01000008000000636F72652E786D6C8D90416E83301045AF62CDB632D8402020E32882F604BD80653BC44AB011B6AB1EBF262152BBEB6A467FFE9B197D76FA9EEFE84BAFDE38DB03CD08206DA553C64E3DC470C1474027CE56E7C22F1B202B66DDC3
310
260367D3EAE2B24BD2D9A06D48AA754AEFA2F05E0740F29E9A1EBCBCEA59642286E4F0B76C11F226269DD15797E0188D42CF2346A57DE662F40ABCAEC77628C6120F654571D50C04B7F5B9C1E3997CD4F550BE3745C3F20DE62C98F9755FAE5A04AD801784B498524C8A4F5A75E4D055873772EC0861F966FF03C545FD138A
310
C686B2D8DF7D621E384D8F3C069CE55B16A93C824A75CB8DFF00504B0304140006080800B670623B55019EA25F0000007C00000007000000636E782E786D6C4DCB3B0E80201045D1AD90E915ED2CF8AC45050C11660C8261F98AB1B07AC9C97D42D718D865D3E909258CFD00CCE24AC6E326A164D74DC0B4128928FF326038
310
472BA13128B1252AC747C6BAB984FC68F0B87FE8960A5C09FE86CFB69FBA01504B0304140006080800B670623B68FC0B7272010000D40300000C0000006662782F636F72652E786D6CC5535B6E833010BC8AE5DF0A6C1E8124328E22D29EA01770C0A128602363A31CBFCB234A53A555FA553EC09AD9F5CE8C31DB5DDA060D
310
D2F4B556190E7C8A9154852E6B5565D8D993B7C668C799D1DA7E29C3488956667884316795D1AE5BA0422B2B950554E9522EA0E87B69312A1A5864B82F3E642B7CE12C54F467BF13C55954D20F7CA0A18EB3DE1A1080E621E31BF3D3F1C2C88C73E65C5D2E6C5DC2B4FA544B8379921C36797888BC3C8A032F4E73EA6D927D
310
EA1DF6F42D49F2E8350D5346C666CE6CDD5ED515460A2B4BCC434A375E1078347C0FE22D5D6DE3D50B5D6F2965642CBF6B725DF96493AB958DC245EEDCD6631E809089F8E61622B2A81703E8219C913144F84C09DF070D8140C8561C9BAB8F3340832CAC363130A576376A108D933095FA747AD0CF0B46E64E983A6D0EAE1F
310
CE089F9EF1FB8E70D44255604258581E9D1D75B259C3125A278D37D80B52DAB4A279CEC62F0EFF44DDC43F9454E8469BFF5244960322CBEF41C6FBC83F01504B0304140006080800B670623B0F71DDB67E0000009D0000000B0000006662782F636E782E786D6C4DCCD10A83201886E15B91FFDCA54DB73F502386BB8F5816
310
32D3703976F9ABD1C18E3E78F87855FB990379BBFCF2296AE02706C4C5471A7C9C349475A408A4352AA7B4FEDD80C47E761A7606A3A69CCA72D0E0C6BE8475D3E0E3F3409428EA6B27A84079A782899AA2EC1A7AE3ECCC2FD858CB2D544655BFD2B67BD87C01504B0304140006080800B670623BE134B4FB28010000120200
310
00310000006662782F38353834323741342D343835462D343034322D383541392D4331303331363839454531452F636F72652E786D6C8D515B6EC32010BC0AE22B55850D0EA424C24451959EA0172086A42831583CAA1CBF503B52FB971F16CDCECC0EACD8DFC71BF836215AEF7A481A0C817183D7D65D7A98D3197108F652
310
04EFD31F1A044E8DA6871586525C82CFD3020DDE25E352419DD76601558C264130DCCAA58771F832A36A544E8511AFCDA486ABBA988634A55D7852C4144A00300FA927949C71DABD1D28A29C7D208A6987383B6CD13BC16BB2E1DBE3911C453B0BA5C8D9EA456E758963CFD684674DAA588A64C747FC2118958C86B2C3788B
310
0841B8FB247487D98EB257CC77188BB6D2FF89F2A49F1465EBD2BA5BE2CEB2082511EDDC9042FB7CBA3DC298FBE4430275DE2A9AE1054ADC60CC08E3A29D89E5F9C5714317C7987C28DFBBBA9E0A97B0D97643A568EB864AF95D5FA9759BF207504B0304140006080800B670623B1B8617914E010000330300003000000066
310
62782F38353834323741342D343835462D343034322D383541392D4331303331363839454531452F636E782E786D6CD593C16EC32010447F0571AD6CE3D489D20813A9877E410FBD62D82434182CC055F3F75D1292E692438FBD206B7698593D61BEFD1E2DF982108D773D6D6B460938E5B571FB9ECE6957AD29D90A1EBC4F
310
77364A9C1CA1A759A682EF839FA72269D8C9D92654AD71C72206887E0E0A22CAF926B15E498B01E0AA19451807D01A34B919F16B070157417138917400F2F6FA41FCF0092A45DEE414C19BDC21783E4BD39D891265658C3D8DEA00A3ACE59CBC8678ACB54CB26EEB6BD7839D7E9348BE70AD9C8321B9BCA7F9A4A26C542347
310
DEE050F09802D22BA6749A800A394DD62899107273365E3C82CFC6A55557BC06C10774B7ABE7AEC3B0F34CF06446280E154026D0542C187BA9DAB6628BF7B6DBB0E5A65B3EB1F58631DE64BBE083F7B65CC218087E22CABB042E51D1F2268F1FE12B3EA24D40D63E9CFE00120194D60B9D5BC67FE6D39CDF37E20AF817881F
310
504B0304140006080800B670623B5933D422630500003B100000340000006662782F38353834323741342D343835462D343034322D383541392D4331303331363839454531452F6F626A656374732E786D6CAD575B6FA33814FE2B887D0642934E9B156594264D158D3A534DD4D13E548A0C38942D60649B4EBABF7E3F8321
310
40924EF6928780CDF1B97EE762EFF32E4B8D37CA45C2F21BD3B547A641F39045491EDF98A5DC5AD7A6F1D9F73863B243661A39C9E88DA9B64DDF8B392B0BBD15D12D295339D85DDEFE618890E6D434C2940871638AF08566C426A5641115AF764424B1E3EDCE76ED9AB0CF36E6A47819302D08A7B984A6D8CFC1C5A89572FB
310
CB91E9F89EA3BEFB9EFAD754E3D3544E654F5F7E920B49F2F040D880CDD89D2CEE2E2EA7D6E56432B6269F2E5CEB7679BBB0DCABF168FE693E9FCEEEA6102C240727AD09A75BD3BF876F78127A4EFDA9D5582B7E4CA590E5390D2BFB6161A5B3E618D182E611E2985001691DAB47FDA5AB7CD3F93C566B2DB2BB7D9E55DD13
310
1D468DEECDB3AB290BFE8409E21C54704115AA6AFF68436BFC8DF65E0B184BF5B74418199194272435D224E084BF9B3E481589EFF5D828747285706581E9BB7B7E5D5D911ABFC6EE312DB7659A2A689A7E85EC0DF04FA5A8344BFEA2FCB834E8845895492EAFB541F2BDA0A63FF59C6AD3F7D4637CA13FD68E34B629891172
310
98597F1D183A57B9B75A98FE9765B05BAB7C3C2EBCE0ACA05C2AF8005A4DE09AA7F29216EB9E15397500C6F47CBE77CA7778FE2BD277AF0AE2C693DD6437D1522427B9D8329E2136F6A8FA19A3E6C56ADF0E5F50CF06D48734EDCEBF22F69C56D97EC138153F804B85E6FABFC7AFEFB32E523BE1F3BD372418E363EDCA7548
310
52949E8724474014288D94610BB57C1BEC4C7F854A89CA8E5324F55B871CBC78CE1BBEE3BFE68D6A5589EF3C730474506FCFA8FCF0659516D0ED04580EEA6425581B77CAE797FF4BCECC16EB2FEB926F49481F746159D06D922712BD730FDEAE42BD40F42C7AA5EF3F198F60E86110D6DD20645A9480B795CF95E3E3A659A8
310
C55E724F408873315335CFFB8584874484344D494E59D94869DB90C26A5B64F49C802CAC1D3ABE18A098D3B7444D123D8A9E5AE8F5214F0AE5B2B6E9B575DA3E61CBD3EA2B4009FA940524DD1305FB6A1FB294F14DF0BEA90BA109ECE1481FDC3FFAE8D60E75141700BE82725371B4873751B2DD960265F788137FACE6DD40
310
B575E4F0A5C99F46629D92131467A41EE11ABD8D4CCC039CA0AFB37C93A08B232B8F0AEFCA1E0A1015DF13FC83322B362463652ECF71D3A8B1A7D1BE65DE1D62C44F22C317D35F574FEB16153BA2D13E543D10A80E74C4A65E78A6B7CBCBD1D5DD9DB59C2DAFACC96C3AB566E3F1C29ADCDD5DBAD7D3C9ED7C822ED74F80A6
310
41755310DE4443F44A9E68373FADF6596BFA0F440AE7BECE2727AE9F4F2B1B53B1E7E00CF0DD1E5C65454A339A4BA2D0FBA05ED2EF0443458F47BDBFCA484CCFE0F2ED7E3DD0013B679C7B5499467F0ECEEADDB9CA85A34CE44B99053949D2C1416DB85DE4B136BB7165FBAC0B7AB3542BED4F8CA182A549847A1319316519
310
95A83A67147B9E5101C47487F2485F1ECE38FD568F839204296D3479219888530154036E6528FBFBC66F98E0D4107563A2D7D9AFF8D389681A08F58D89F22693900A3B407754734FC51C10C010D6D640809EE4718AC1BA3ED4AEDB53CA37283F68805A7E4B72CEB0A4EDEAD5DD8C14059A76AFAA56BA6901E13F32BC51C720
310
12AF41295B5BF61BAD3195181FB506E6B40F4C10AF5AF40EF9F5B159AE5DD1F43C72D635E94310D45C2D49785C5D0B94D3B54AB3C5A38349C0587D338AB48C11CBF339599C02CCA54A70A008A8D03C0B2201D5F9EFCF8F9CE12A9A19CB0410789EB32C63B95ECCF455D658BFE0621A3DA32C5075FB101723D77DAE867E7D0F
310
D90444509B44E2151B4DC2290B065803200FBAA9BE9D392A0603F2D5C2D00D6302A615680F66D2FA166E2079D4C551A54AB758161FCEFD4E450A14704CECFEDF504B0304140006080000B670623B000000000000000000000000350000006662782F38353834323741342D343835462D343034322D383541392D4331303331
310
363839454531452F76657274696365732E62696E504B0304140006080800B670623BF270F1330600000004000000360000006662782F38353834323741342D343835462D343034322D383541392D4331303331363839454531452F747269616E676C65732E62696E636660600000504B0304140006080000B670623B000000
310
000000000000000000370000006662782F38353834323741342D343835462D343034322D383541392D4331303331363839454531452F617474726962757465732E62696E504B0304140006080800B670623B08DA0BD19000000041010000360000006662782F38353834323741342D343835462D343034322D383541392D43
310
31303331363839454531452F6469726563746F72792E786D6C858F410AC3201045AF22B36F53E9A60B35CBEEBAE80D244E44489C6234F4F835464A48035D0DF398FF9F8AF63D0E6CC63039F212F8F9020C7D47C6792B21C5FE7403D62A1188E2E60C98D7234A5830286103A55745067B9D86B8A3CF9C7F90C11DE607FB1443
310
96D7B6A82D282E9A152AD114D5EF2CB866EEE831B8EEA07A7BB5A8D7D61A2BAAEB7FD5F70921FF497D00504B0304140006080800B670623BD9A3B367FE000000A00100003B0000006662782F38353834323741342D343835462D343034322D383541392D4331303331363839454531452F7265736F75726365732F636F7265
310
2E786D6C8D504B6E833010BD0A9A6D65B01D0201194711694FD00B586642AD043BF2A7EAF16B122AB5BB6E6646EFA3797AE2F8B5DC8A4FF4C1383B002B291468B59B8C9D0748F1420E501CA5F0CEC55F3228AC5A708015062966EFD27D83B4B3116DCCA875136EA00A012314FA968F0182FEC045952AC5AC08D7F2AEF455CD
310
58B232D3592745883E07289E4FD609D26370C96B0CA27AB252A464A64D63A6FCD35C0C7A904D73EE467EE664DCD58CD4ED4849D79C5A723ED1B7A61977AF2D6F45B59AA58866F9C9A83DAA8813484E6947182394BFB3BAA7FBBEDEBFD0434FA9A856F91F53BA4FFF342563E38E6F719FB60092E5200F428A6AED2BAF479979
310
AFDDCA6F504B010214000A0000080000B670623B3DEE336E79000000790000001B00000000000000000000000000000000006175746F6465736B2D64657369676E2D7061636B6167652E786D6C504B01021400140006080800B670623BD486FD9CA0000000F40000001300000000000000000000000000B20000005B436F6E
310
74656E745F54797065735D2E786D6C504B01021400140006080800B670623BCA089DFFEC0000007C010000080000000000000000000000000083010000636F72652E786D6C504B01021400140006080800B670623B55019EA25F0000007C000000070000000000000000000000000095020000636E782E786D6C504B010214
310
00140006080800B670623B68FC0B7272010000D40300000C00000000000000000000000000190300006662782F636F72652E786D6C504B01021400140006080800B670623B0F71DDB67E0000009D0000000B00000000000000000000000000B50400006662782F636E782E786D6C504B01021400140006080800B670623BE1
310
34B4FB280100001202000031000000000000000000000000005C0500006662782F38353834323741342D343835462D343034322D383541392D4331303331363839454531452F636F72652E786D6C504B01021400140006080800B670623B1B8617914E010000330300003000000000000000000000000000D3060000666278
310
2F38353834323741342D343835462D343034322D383541392D4331303331363839454531452F636E782E786D6C504B01021400140006080800B670623B5933D422630500003B10000034000000000000000000000000006F0800006662782F38353834323741342D343835462D343034322D383541392D4331303331363839
310
454531452F6F626A656374732E786D6C504B01021400140006080000B670623B0000000000000000000000003500000000000000000000000000240E00006662782F38353834323741342D343835462D343034322D383541392D4331303331363839454531452F76657274696365732E62696E504B01021400140006080800
310
B670623BF270F13306000000040000003600000000000000000000000000770E00006662782F38353834323741342D343835462D343034322D383541392D4331303331363839454531452F747269616E676C65732E62696E504B01021400140006080000B670623B0000000000000000000000003700000000000000000000
310
000000D10E00006662782F38353834323741342D343835462D343034322D383541392D4331303331363839454531452F617474726962757465732E62696E504B01021400140006080800B670623B08DA0BD190000000410100003600000000000000000000000000260F00006662782F38353834323741342D343835462D34
310
3034322D383541392D4331303331363839454531452F6469726563746F72792E786D6C504B01021400140006080800B670623BD9A3B367FE000000A00100003B000000000000000000000000000A1000006662782F38353834323741342D343835462D343034322D383541392D4331303331363839454531452F7265736F75
310
726365732F636F72652E786D6C504B0506000000000E000E0080040000611100000000
  0
XRECORD
  5
113
102
{ACAD_REACTORS
330
110
102
}
330
110
100
AcDbXrecord
280
     1
270
     1
271
     1
  0
XRECORD
  5
114
102
{ACAD_REACTORS
330
110
102
}
330
110
100
AcDbXrecord
280
     1
270
     1
271
     1
  0
XRECORD
  5
1860
102
{ACAD_REACTORS
330
185F
102
}
330
185F
100
AcDbXrecord
280
     1
102
ACAD_ROUNDTRIP_2012_MLEADER_STYLE
298
     1
  0
XRECORD
  5
1872
102
{ACAD_REACTORS
330
1871
102
}
330
1871
100
AcDbXrecord
280
     1
102
DISPLAYNAME
  1
Imperial24
102
FLAGS
 90
        0
  0
CELLSTYLEMAP
  5
1832
102
{ACAD_REACTORS
330
104
102
}
330
104
100
AcDbCellStyleMap
 90
        3
300
CELLSTYLE
  1
TABLEFORMAT_BEGIN
 90
        5
170
     1
 91
        0
 92
    32768
 62
   257
 93
        1
300
CONTENTFORMAT
  1
CONTENTFORMAT_BEGIN
 90
        0
 91
        0
 92
      512
 93
        0
300

 40
0.0
140
1.0
 94
        5
 62
     0
340
11
144
0.25
309
CONTENTFORMAT_END
171
     1
301
MARGIN
  1
CELLMARGIN_BEGIN
 40
0.06
 40
0.06
 40
0.06
 40
0.06
 40
0.18
 40
0.18
309
CELLMARGIN_END
 94
        6
 95
        1
302
GRIDFORMAT
  1
GRIDFORMAT_BEGIN
 90
        0
 91
        1
 62
     0
 92
       -2
340
0
 93
        0
 40
0.045
309
GRIDFORMAT_END
 95
        2
302
GRIDFORMAT
  1
GRIDFORMAT_BEGIN
 90
        0
 91
        1
 62
     0
 92
       -2
340
0
 93
        0
 40
0.045
309
GRIDFORMAT_END
 95
        4
302
GRIDFORMAT
  1
GRIDFORMAT_BEGIN
 90
        0
 91
        1
 62
     0
 92
       -2
340
0
 93
        0
 40
0.045
309
GRIDFORMAT_END
 95
        8
302
GRIDFORMAT
  1
GRIDFORMAT_BEGIN
 90
        0
 91
        1
 62
     0
 92
       -2
340
0
 93
        0
 40
0.045
309
GRIDFORMAT_END
 95
       16
302
GRIDFORMAT
  1
GRIDFORMAT_BEGIN
 90
        0
 91
        1
 62
     0
 92
       -2
340
0
 93
        0
 40
0.045
309
GRIDFORMAT_END
 95
       32
302
GRIDFORMAT
  1
GRIDFORMAT_BEGIN
 90
        0
 91
        1
 62
     0
 92
       -2
340
0
 93
        0
 40
0.045
309
GRIDFORMAT_END
309
TABLEFORMAT_END
  1
CELLSTYLE_BEGIN
 90
        1
 91
        1
300
_TITLE
309
CELLSTYLE_END
300
CELLSTYLE
  1
TABLEFORMAT_BEGIN
 90
        5
170
     1
 91
        0
 92
        0
 62
   257
 93
        1
300
CONTENTFORMAT
  1
CONTENTFORMAT_BEGIN
 90
        0
 91
        0
 92
      512
 93
        0
300

 40
0.0
140
1.0
 94
        5
 62
     0
340
11
144
0.18
309
CONTENTFORMAT_END
171
     1
301
MARGIN
  1
CELLMARGIN_BEGIN
 40
0.06
 40
0.06
 40
0.06
 40
0.06
 40
0.18
 40
0.18
309
CELLMARGIN_END
 94
        6
 95
        1
302
GRIDFORMAT
  1
GRIDFORMAT_BEGIN
 90
        0
 91
        1
 62
     0
 92
       -2
340
0
 93
        0
 40
0.045
309
GRIDFORMAT_END
 95
        2
302
GRIDFORMAT
  1
GRIDFORMAT_BEGIN
 90
        0
 91
        1
 62
     0
 92
       -2
340
0
 93
        0
 40
0.045
309
GRIDFORMAT_END
 95
        4
302
GRIDFORMAT
  1
GRIDFORMAT_BEGIN
 90
        0
 91
        1
 62
     0
 92
       -2
340
0
 93
        0
 40
0.045
309
GRIDFORMAT_END
 95
        8
302
GRIDFORMAT
  1
GRIDFORMAT_BEGIN
 90
        0
 91
        1
 62
     0
 92
       -2
340
0
 93
        0
 40
0.045
309
GRIDFORMAT_END
 95
       16
302
GRIDFORMAT
  1
GRIDFORMAT_BEGIN
 90
        0
 91
        1
 62
     0
 92
       -2
340
0
 93
        0
 40
0.045
309
GRIDFORMAT_END
 95
       32
302
GRIDFORMAT
  1
GRIDFORMAT_BEGIN
 90
        0
 91
        1
 62
     0
 92
       -2
340
0
 93
        0
 40
0.045
309
GRIDFORMAT_END
309
TABLEFORMAT_END
  1
CELLSTYLE_BEGIN
 90
        2
 91
        1
300
_HEADER
309
CELLSTYLE_END
300
CELLSTYLE
  1
TABLEFORMAT_BEGIN
 90
        5
170
     1
 91
        0
 92
        0
 62
   257
 93
        1
300
CONTENTFORMAT
  1
CONTENTFORMAT_BEGIN
 90
        0
 91
        0
 92
      512
 93
        0
300

 40
0.0
140
1.0
 94
        2
 62
     0
340
11
144
0.18
309
CONTENTFORMAT_END
171
     1
301
MARGIN
  1
CELLMARGIN_BEGIN
 40
0.06
 40
0.06
 40
0.06
 40
0.06
 40
0.18
 40
0.18
309
CELLMARGIN_END
 94
        6
 95
        1
302
GRIDFORMAT
  1
GRIDFORMAT_BEGIN
 90
        0
 91
        1
 62
     0
 92
       -2
340
0
 93
        0
 40
0.045
309
GRIDFORMAT_END
 95
        2
302
GRIDFORMAT
  1
GRIDFORMAT_BEGIN
 90
        0
 91
        1
 62
     0
 92
       -2
340
0
 93
        0
 40
0.045
309
GRIDFORMAT_END
 95
        4
302
GRIDFORMAT
  1
GRIDFORMAT_BEGIN
 90
        0
 91
        1
 62
     0
 92
       -2
340
0
 93
        0
 40
0.045
309
GRIDFORMAT_END
 95
        8
302
GRIDFORMAT
  1
GRIDFORMAT_BEGIN
 90
        0
 91
        1
 62
     0
 92
       -2
340
0
 93
        0
 40
0.045
309
GRIDFORMAT_END
 95
       16
302
GRIDFORMAT
  1
GRIDFORMAT_BEGIN
 90
        0
 91
        1
 62
     0
 92
       -2
340
0
 93
        0
 40
0.045
309
GRIDFORMAT_END
 95
       32
302
GRIDFORMAT
  1
GRIDFORMAT_BEGIN
 90
        0
 91
        1
 62
     0
 92
       -2
340
0
 93
        0
 40
0.045
309
GRIDFORMAT_END
309
TABLEFORMAT_END
  1
CELLSTYLE_BEGIN
 90
        3
 91
        2
300
_DATA
309
CELLSTYLE_END
  0
XRECORD
  5
183B
102
{ACAD_REACTORS
330
104
102
}
330
104
100
AcDbXrecord
280
     1
102
ACAD_ROUNDTRIP_PRE2007_TABLESTYLE
 90
      512
 91
        0
  1

 92
      512
 93
        0
  2

 94
      512
 95
        0
  3

  0
XRECORD
  5
184A
102
{ACAD_REACTORS
330
1849
102
}
330
1849
100
AcDbXrecord
280
     1
102
RTVSPost2010Prop28
280
     1
102
RTVSPost2010PropOp28
 70
     1
102
RTVSPost2010Prop29
280
     1
102
RTVSPost2010PropOp29
 70
     1
102
RTVSPost2010Prop30
280
     0
102
RTVSPost2010PropOp30
 70
     1
102
RTVSPost2010Prop31
280
     0
102
RTVSPost2010PropOp31
 70
     1
102
RTVSPost2010Prop32
280
     0
102
RTVSPost2010PropOp32
 70
     1
102
RTVSPost2010Prop33
280
     0
102
RTVSPost2010PropOp33
 70
     1
102
RTVSPost2010Prop34
280
     0
102
RTVSPost2010PropOp34
 70
     1
102
RTVSPost2010Prop35
280
     0
102
RTVSPost2010PropOp35
 70
     1
102
RTVSPost2010Prop36
280
     0
102
RTVSPost2010PropOp36
 70
     1
102
RTVSPost2010Prop37
 90
       50
102
RTVSPost2010PropOp37
 70
     1
102
RTVSPost2010Prop38
140
0.0
102
RTVSPost2010PropOp38
 70
     1
102
RTVSPost2010Prop39
140
1.0
102
RTVSPost2010PropOp39
 70
     1
102
RTVSPost2010Prop40
 90
        0
102
RTVSPost2010PropOp40
 70
     1
102
RTVSPost2010Prop41ColorIndex
 90
       18
102
RTVSPost2010Prop41ColorRGB
 90
        0
102
RTVSPost2010PropOp41
 70
     1
102
RTVSPost2010Prop42
 90
       50
102
RTVSPost2010PropOp42
 70
     1
102
RTVSPost2010Prop43
 90
        3
102
RTVSPost2010PropOp43
 70
     1
102
RTVSPost2010Prop44ColorIndex
 90
        5
102
RTVSPost2010Prop44ColorRGB
 90
      255
102
RTVSPost2010PropOp44
 70
     1
102
RTVSPost2010Prop45
280
     0
102
RTVSPost2010PropOp45
 70
     1
102
RTVSPost2010Prop46
 90
       50
102
RTVSPost2010PropOp46
 70
     1
102
RTVSPost2010Prop47
 90
       50
102
RTVSPost2010PropOp47
 70
     1
102
RTVSPost2010Prop48
 90
       50
102
RTVSPost2010PropOp48
 70
     1
102
RTVSPost2010Prop49
280
     0
102
RTVSPost2010PropOp49
 70
     1
102
RTVSPost2010Prop50
 90
       50
102
RTVSPost2010PropOp50
 70
     1
102
RTVSPost2010Prop51ColorIndex
 90
      256
102
RTVSPost2010Prop51ColorRGB
 90
-16777216
102
RTVSPost2010PropOp51
 70
     0
102
RTVSPost2010Prop52
140
1.0
102
RTVSPost2010PropOp52
 70
     0
102
RTVSPost2010Prop53
 90
        2
102
RTVSPost2010PropOp53
 70
     1
102
RTVSPost2010Prop54
  1
strokes_ogs.tif
102
RTVSPost2010PropOp54
 70
     1
102
RTVSPost2010Prop55
280
     0
102
RTVSPost2010PropOp55
 70
     1
102
RTVSPost2010Prop56
140
1.0
102
RTVSPost2010PropOp56
 70
     1
102
RTVSPost2010Prop57
140
1.0
102
RTVSPost2010PropOp57
 70
     1
102
RTVSPropertyOp0
 70
     1
102
RTVSPropertyOp1
 70
     1
102
RTVSPropertyOp2
 70
     1
102
RTVSPropertyOp3
 70
     1
102
RTVSPropertyOp4
 70
     1
102
RTVSPropertyOp5
 70
     1
102
RTVSPropertyOp6
 70
     1
102
RTVSPropertyOp7
 70
     1
102
RTVSPropertyOp8
 70
     1
102
RTVSPropertyOp9
 70
     1
102
RTVSPropertyOp10
 70
     1
102
RTVSPropertyOp11
 70
     1
102
RTVSPropertyOp12
 70
     1
102
RTVSPropertyOp13
 70
     1
102
RTVSPropertyOp14
 70
     1
102
RTVSPropertyOp15
 70
     1
102
RTVSPropertyOp16
 70
     1
102
RTVSPropertyOp17
 70
     1
102
RTVSPropertyOp18
 70
     1
102
RTVSPropertyOp19
 70
     1
102
RTVSPropertyOp20
 70
     1
102
RTVSPropertyOp21
 70
     1
102
RTVSPropertyOp22
 70
     1
102
RTVSPropertyOp23
 70
     1
102
RTVSPropertyOp24
 70
     1
102
RTVSPropertyOp25
 70
     1
102
RTVSPropertyOp26
 70
     1
102
RTVSPropertyOp27
 70
     1
102
RTVSPropertyOp28
 70
     1
102
RTVSPropertyOp29
 70
     1
102
RTVSPropertyOp30
 70
     1
102
RTVSPropertyOp31
 70
     1
102
RTVSPropertyOp32
 70
     1
102
RTVSPropertyOp33
 70
     1
102
RTVSPropertyOp34
 70
     1
102
RTVSPropertyOp35
 70
     1
102
RTVSPropertyOp36
 70
     1
102
RTVSPropertyOp37
 70
     1
102
RTVSPropertyOp38
 70
     1
102
RTVSPropertyOp39
 70
     1
102
RTVSPropertyOp40
 70
     1
102
RTVSPropertyOp41
 70
     1
102
RTVSPropertyOp42
 70
     1
102
RTVSPropertyOp43
 70
     1
102
RTVSPropertyOp44
 70
     1
102
RTVSPropertyOp45
 70
     1
102
RTVSPropertyOp46
 70
     1
102
RTVSPropertyOp47
 70
     1
102
RTVSPropertyOp48
 70
     1
102
RTVSPropertyOp49
 70
     1
102
RTVSPropertyOp50
 70
     1
102
RTVSPropertyOp51
 70
     0
102
RTVSPropertyOp52
 70
     0
102
RTVSPropertyOp53
 70
     1
102
RTVSPropertyOp54
 70
     1
102
RTVSPropertyOp55
 70
     1
102
RTVSPropertyOp56
 70
     1
102
RTVSPropertyOp57
 70
     1
102
RTVSPropertyOp58
 70
     1
102
RTVSPropertyOp59
 70
     1
102
RTVSPropertyOp60
 70
     1
102
RTVSPropertyOp61
 70
     1
102
RTVSPropertyOp62
 70
     1
  0
XRECORD
  5
1848
102
{ACAD_REACTORS
330
1847
102
}
330
1847
100
AcDbXrecord
280
     1
102
RTVSPost2010Prop28
280
     0
102
RTVSPost2010PropOp28
 70
     1
102
RTVSPost2010Prop29
280
     1
102
RTVSPost2010PropOp29
 70
     1
102
RTVSPost2010Prop30
280
     1
102
RTVSPost2010PropOp30
 70
     1
102
RTVSPost2010Prop31
280
     0
102
RTVSPost2010PropOp31
 70
     1
102
RTVSPost2010Prop32
280
     0
102
RTVSPost2010PropOp32
 70
     1
102
RTVSPost2010Prop33
280
     0
102
RTVSPost2010PropOp33
 70
     1
102
RTVSPost2010Prop34
280
     0
102
RTVSPost2010PropOp34
 70
     1
102
RTVSPost2010Prop35
280
     0
102
RTVSPost2010PropOp35
 70
     1
102
RTVSPost2010Prop36
280
     0
102
RTVSPost2010PropOp36
 70
     1
102
RTVSPost2010Prop37
 90
       50
102
RTVSPost2010PropOp37
 70
     1
102
RTVSPost2010Prop38
140
0.0
102
RTVSPost2010PropOp38
 70
     1
102
RTVSPost2010Prop39
140
1.0
102
RTVSPost2010PropOp39
 70
     1
102
RTVSPost2010Prop40
 90
        0
102
RTVSPost2010PropOp40
 70
     1
102
RTVSPost2010Prop41ColorIndex
 90
       18
102
RTVSPost2010Prop41ColorRGB
 90
        0
102
RTVSPost2010PropOp41
 70
     1
102
RTVSPost2010Prop42
 90
       50
102
RTVSPost2010PropOp42
 70
     1
102
RTVSPost2010Prop43
 90
        3
102
RTVSPost2010PropOp43
 70
     1
102
RTVSPost2010Prop44ColorIndex
 90
        5
102
RTVSPost2010Prop44ColorRGB
 90
      255
102
RTVSPost2010PropOp44
 70
     1
102
RTVSPost2010Prop45
280
     0
102
RTVSPost2010PropOp45
 70
     1
102
RTVSPost2010Prop46
 90
       50
102
RTVSPost2010PropOp46
 70
     1
102
RTVSPost2010Prop47
 90
       50
102
RTVSPost2010PropOp47
 70
     1
102
RTVSPost2010Prop48
 90
       50
102
RTVSPost2010PropOp48
 70
     1
102
RTVSPost2010Prop49
280
     0
102
RTVSPost2010PropOp49
 70
     1
102
RTVSPost2010Prop50
 90
       50
102
RTVSPost2010PropOp50
 70
     1
102
RTVSPost2010Prop51ColorIndex
 90
      256
102
RTVSPost2010Prop51ColorRGB
 90
-16777216
102
RTVSPost2010PropOp51
 70
     0
102
RTVSPost2010Prop52
140
1.0
102
RTVSPost2010PropOp52
 70
     0
102
RTVSPost2010Prop53
 90
        2
102
RTVSPost2010PropOp53
 70
     1
102
RTVSPost2010Prop54
  1
strokes_ogs.tif
102
RTVSPost2010PropOp54
 70
     1
102
RTVSPost2010Prop55
280
     0
102
RTVSPost2010PropOp55
 70
     1
102
RTVSPost2010Prop56
140
1.0
102
RTVSPost2010PropOp56
 70
     1
102
RTVSPost2010Prop57
140
1.0
102
RTVSPost2010PropOp57
 70
     1
102
RTVSPropertyOp0
 70
     1
102
RTVSPropertyOp1
 70
     1
102
RTVSPropertyOp2
 70
     1
102
RTVSPropertyOp3
 70
     1
102
RTVSPropertyOp4
 70
     1
102
RTVSPropertyOp5
 70
     1
102
RTVSPropertyOp6
 70
     1
102
RTVSPropertyOp7
 70
     1
102
RTVSPropertyOp8
 70
     1
102
RTVSPropertyOp9
 70
     1
102
RTVSPropertyOp10
 70
     1
102
RTVSPropertyOp11
 70
     1
102
RTVSPropertyOp12
 70
     1
102
RTVSPropertyOp13
 70
     1
102
RTVSPropertyOp14
 70
     1
102
RTVSPropertyOp15
 70
     1
102
RTVSPropertyOp16
 70
     1
102
RTVSPropertyOp17
 70
     1
102
RTVSPropertyOp18
 70
     1
102
RTVSPropertyOp19
 70
     1
102
RTVSPropertyOp20
 70
     1
102
RTVSPropertyOp21
 70
     1
102
RTVSPropertyOp22
 70
     1
102
RTVSPropertyOp23
 70
     1
102
RTVSPropertyOp24
 70
     1
102
RTVSPropertyOp25
 70
     1
102
RTVSPropertyOp26
 70
     1
102
RTVSPropertyOp27
 70
     1
102
RTVSPropertyOp28
 70
     1
102
RTVSPropertyOp29
 70
     1
102
RTVSPropertyOp30
 70
     1
102
RTVSPropertyOp31
 70
     1
102
RTVSPropertyOp32
 70
     1
102
RTVSPropertyOp33
 70
     1
102
RTVSPropertyOp34
 70
     1
102
RTVSPropertyOp35
 70
     1
102
RTVSPropertyOp36
 70
     1
102
RTVSPropertyOp37
 70
     1
102
RTVSPropertyOp38
 70
     1
102
RTVSPropertyOp39
 70
     1
102
RTVSPropertyOp40
 70
     1
102
RTVSPropertyOp41
 70
     1
102
RTVSPropertyOp42
 70
     1
102
RTVSPropertyOp43
 70
     1
102
RTVSPropertyOp44
 70
     1
102
RTVSPropertyOp45
 70
     1
102
RTVSPropertyOp46
 70
     1
102
RTVSPropertyOp47
 70
     1
102
RTVSPropertyOp48
 70
     1
102
RTVSPropertyOp49
 70
     1
102
RTVSPropertyOp50
 70
     1
102
RTVSPropertyOp51
 70
     0
102
RTVSPropertyOp52
 70
     0
102
RTVSPropertyOp53
 70
     1
102
RTVSPropertyOp54
 70
     1
102
RTVSPropertyOp55
 70
     1
102
RTVSPropertyOp56
 70
     1
102
RTVSPropertyOp57
 70
     1
102
RTVSPropertyOp58
 70
     1
102
RTVSPropertyOp59
 70
     1
102
RTVSPropertyOp60
 70
     1
102
RTVSPropertyOp61
 70
     1
102
RTVSPropertyOp62
 70
     1
  0
XRECORD
  5
1856
102
{ACAD_REACTORS
330
1855
102
}
330
1855
100
AcDbXrecord
280
     1
102
RTVSPost2010Prop28
280
     0
102
RTVSPost2010PropOp28
 70
     1
102
RTVSPost2010Prop29
280
     1
102
RTVSPost2010PropOp29
 70
     1
102
RTVSPost2010Prop30
280
     1
102
RTVSPost2010PropOp30
 70
     1
102
RTVSPost2010Prop31
280
     0
102
RTVSPost2010PropOp31
 70
     1
102
RTVSPost2010Prop32
280
     0
102
RTVSPost2010PropOp32
 70
     1
102
RTVSPost2010Prop33
280
     0
102
RTVSPost2010PropOp33
 70
     1
102
RTVSPost2010Prop34
280
     0
102
RTVSPost2010PropOp34
 70
     1
102
RTVSPost2010Prop35
280
     0
102
RTVSPost2010PropOp35
 70
     1
102
RTVSPost2010Prop36
280
     0
102
RTVSPost2010PropOp36
 70
     1
102
RTVSPost2010Prop37
 90
       50
102
RTVSPost2010PropOp37
 70
     1
102
RTVSPost2010Prop38
140
0.0
102
RTVSPost2010PropOp38
 70
     1
102
RTVSPost2010Prop39
140
1.0
102
RTVSPost2010PropOp39
 70
     1
102
RTVSPost2010Prop40
 90
        0
102
RTVSPost2010PropOp40
 70
     1
102
RTVSPost2010Prop41ColorIndex
 90
       18
102
RTVSPost2010Prop41ColorRGB
 90
        0
102
RTVSPost2010PropOp41
 70
     1
102
RTVSPost2010Prop42
 90
       50
102
RTVSPost2010PropOp42
 70
     1
102
RTVSPost2010Prop43
 90
        3
102
RTVSPost2010PropOp43
 70
     1
102
RTVSPost2010Prop44ColorIndex
 90
        5
102
RTVSPost2010Prop44ColorRGB
 90
      255
102
RTVSPost2010PropOp44
 70
     1
102
RTVSPost2010Prop45
280
     0
102
RTVSPost2010PropOp45
 70
     1
102
RTVSPost2010Prop46
 90
       50
102
RTVSPost2010PropOp46
 70
     1
102
RTVSPost2010Prop47
 90
       50
102
RTVSPost2010PropOp47
 70
     1
102
RTVSPost2010Prop48
 90
       50
102
RTVSPost2010PropOp48
 70
     1
102
RTVSPost2010Prop49
280
     0
102
RTVSPost2010PropOp49
 70
     1
102
RTVSPost2010Prop50
 90
       50
102
RTVSPost2010PropOp50
 70
     1
102
RTVSPost2010Prop51ColorIndex
 90
      256
102
RTVSPost2010Prop51ColorRGB
 90
-16777216
102
RTVSPost2010PropOp51
 70
     0
102
RTVSPost2010Prop52
140
1.0
102
RTVSPost2010PropOp52
 70
     0
102
RTVSPost2010Prop53
 90
        2
102
RTVSPost2010PropOp53
 70
     1
102
RTVSPost2010Prop54
  1
strokes_ogs.tif
102
RTVSPost2010PropOp54
 70
     1
102
RTVSPost2010Prop55
280
     0
102
RTVSPost2010PropOp55
 70
     1
102
RTVSPost2010Prop56
140
1.0
102
RTVSPost2010PropOp56
 70
     1
102
RTVSPost2010Prop57
140
1.0
102
RTVSPost2010PropOp57
 70
     1
102
RTVSPropertyOp0
 70
     1
102
RTVSPropertyOp1
 70
     1
102
RTVSPropertyOp2
 70
     1
102
RTVSPropertyOp3
 70
     1
102
RTVSPropertyOp4
 70
     1
102
RTVSPropertyOp5
 70
     1
102
RTVSPropertyOp6
 70
     1
102
RTVSPropertyOp7
 70
     1
102
RTVSPropertyOp8
 70
     1
102
RTVSPropertyOp9
 70
     1
102
RTVSPropertyOp10
 70
     1
102
RTVSPropertyOp11
 70
     1
102
RTVSPropertyOp12
 70
     1
102
RTVSPropertyOp13
 70
     1
102
RTVSPropertyOp14
 70
     1
102
RTVSPropertyOp15
 70
     1
102
RTVSPropertyOp16
 70
     1
102
RTVSPropertyOp17
 70
     1
102
RTVSPropertyOp18
 70
     1
102
RTVSPropertyOp19
 70
     1
102
RTVSPropertyOp20
 70
     1
102
RTVSPropertyOp21
 70
     1
102
RTVSPropertyOp22
 70
     1
102
RTVSPropertyOp23
 70
     1
102
RTVSPropertyOp24
 70
     1
102
RTVSPropertyOp25
 70
     1
102
RTVSPropertyOp26
 70
     1
102
RTVSPropertyOp27
 70
     1
102
RTVSPropertyOp28
 70
     1
102
RTVSPropertyOp29
 70
     1
102
RTVSPropertyOp30
 70
     1
102
RTVSPropertyOp31
 70
     1
102
RTVSPropertyOp32
 70
     1
102
RTVSPropertyOp33
 70
     1
102
RTVSPropertyOp34
 70
     1
102
RTVSPropertyOp35
 70
     1
102
RTVSPropertyOp36
 70
     1
102
RTVSPropertyOp37
 70
     1
102
RTVSPropertyOp38
 70
     1
102
RTVSPropertyOp39
 70
     1
102
RTVSPropertyOp40
 70
     1
102
RTVSPropertyOp41
 70
     1
102
RTVSPropertyOp42
 70
     1
102
RTVSPropertyOp43
 70
     1
102
RTVSPropertyOp44
 70
     1
102
RTVSPropertyOp45
 70
     1
102
RTVSPropertyOp46
 70
     1
102
RTVSPropertyOp47
 70
     1
102
RTVSPropertyOp48
 70
     1
102
RTVSPropertyOp49
 70
     1
102
RTVSPropertyOp50
 70
     1
102
RTVSPropertyOp51
 70
     0
102
RTVSPropertyOp52
 70
     0
102
RTVSPropertyOp53
 70
     1
102
RTVSPropertyOp54
 70
     1
102
RTVSPropertyOp55
 70
     1
102
RTVSPropertyOp56
 70
     1
102
RTVSPropertyOp57
 70
     1
102
RTVSPropertyOp58
 70
     1
102
RTVSPropertyOp59
 70
     1
102
RTVSPropertyOp60
 70
     1
102
RTVSPropertyOp61
 70
     1
102
RTVSPropertyOp62
 70
     1
  0
XRECORD
  5
185E
102
{ACAD_REACTORS
330
185D
102
}
330
185D
100
AcDbXrecord
280
     1
102
RTVSPost2010Prop28
280
     0
102
RTVSPost2010PropOp28
 70
     1
102
RTVSPost2010Prop29
280
     1
102
RTVSPost2010PropOp29
 70
     1
102
RTVSPost2010Prop30
280
     1
102
RTVSPost2010PropOp30
 70
     1
102
RTVSPost2010Prop31
280
     0
102
RTVSPost2010PropOp31
 70
     1
102
RTVSPost2010Prop32
280
     0
102
RTVSPost2010PropOp32
 70
     1
102
RTVSPost2010Prop33
280
     0
102
RTVSPost2010PropOp33
 70
     1
102
RTVSPost2010Prop34
280
     0
102
RTVSPost2010PropOp34
 70
     1
102
RTVSPost2010Prop35
280
     0
102
RTVSPost2010PropOp35
 70
     1
102
RTVSPost2010Prop36
280
     0
102
RTVSPost2010PropOp36
 70
     1
102
RTVSPost2010Prop37
 90
       50
102
RTVSPost2010PropOp37
 70
     1
102
RTVSPost2010Prop38
140
0.0
102
RTVSPost2010PropOp38
 70
     1
102
RTVSPost2010Prop39
140
1.0
102
RTVSPost2010PropOp39
 70
     1
102
RTVSPost2010Prop40
 90
        0
102
RTVSPost2010PropOp40
 70
     1
102
RTVSPost2010Prop41ColorIndex
 90
       18
102
RTVSPost2010Prop41ColorRGB
 90
        0
102
RTVSPost2010PropOp41
 70
     1
102
RTVSPost2010Prop42
 90
       50
102
RTVSPost2010PropOp42
 70
     1
102
RTVSPost2010Prop43
 90
        3
102
RTVSPost2010PropOp43
 70
     1
102
RTVSPost2010Prop44ColorIndex
 90
        5
102
RTVSPost2010Prop44ColorRGB
 90
      255
102
RTVSPost2010PropOp44
 70
     1
102
RTVSPost2010Prop45
280
     0
102
RTVSPost2010PropOp45
 70
     1
102
RTVSPost2010Prop46
 90
       50
102
RTVSPost2010PropOp46
 70
     1
102
RTVSPost2010Prop47
 90
       50
102
RTVSPost2010PropOp47
 70
     1
102
RTVSPost2010Prop48
 90
       50
102
RTVSPost2010PropOp48
 70
     1
102
RTVSPost2010Prop49
280
     0
102
RTVSPost2010PropOp49
 70
     1
102
RTVSPost2010Prop50
 90
       50
102
RTVSPost2010PropOp50
 70
     1
102
RTVSPost2010Prop51ColorIndex
 90
      256
102
RTVSPost2010Prop51ColorRGB
 90
-16777216
102
RTVSPost2010PropOp51
 70
     0
102
RTVSPost2010Prop52
140
1.0
102
RTVSPost2010PropOp52
 70
     0
102
RTVSPost2010Prop53
 90
        2
102
RTVSPost2010PropOp53
 70
     1
102
RTVSPost2010Prop54
  1
strokes_ogs.tif
102
RTVSPost2010PropOp54
 70
     1
102
RTVSPost2010Prop55
280
     0
102
RTVSPost2010PropOp55
 70
     1
102
RTVSPost2010Prop56
140
1.0
102
RTVSPost2010PropOp56
 70
     1
102
RTVSPost2010Prop57
140
1.0
102
RTVSPost2010PropOp57
 70
     1
102
RTVSPropertyOp0
 70
     1
102
RTVSPropertyOp1
 70
     1
102
RTVSPropertyOp2
 70
     1
102
RTVSPropertyOp3
 70
     1
102
RTVSPropertyOp4
 70
     1
102
RTVSPropertyOp5
 70
     1
102
RTVSPropertyOp6
 70
     1
102
RTVSPropertyOp7
 70
     1
102
RTVSPropertyOp8
 70
     1
102
RTVSPropertyOp9
 70
     1
102
RTVSPropertyOp10
 70
     1
102
RTVSPropertyOp11
 70
     1
102
RTVSPropertyOp12
 70
     1
102
RTVSPropertyOp13
 70
     1
102
RTVSPropertyOp14
 70
     1
102
RTVSPropertyOp15
 70
     1
102
RTVSPropertyOp16
 70
     1
102
RTVSPropertyOp17
 70
     1
102
RTVSPropertyOp18
 70
     1
102
RTVSPropertyOp19
 70
     1
102
RTVSPropertyOp20
 70
     1
102
RTVSPropertyOp21
 70
     1
102
RTVSPropertyOp22
 70
     1
102
RTVSPropertyOp23
 70
     1
102
RTVSPropertyOp24
 70
     1
102
RTVSPropertyOp25
 70
     1
102
RTVSPropertyOp26
 70
     1
102
RTVSPropertyOp27
 70
     1
102
RTVSPropertyOp28
 70
     1
102
RTVSPropertyOp29
 70
     1
102
RTVSPropertyOp30
 70
     1
102
RTVSPropertyOp31
 70
     1
102
RTVSPropertyOp32
 70
     1
102
RTVSPropertyOp33
 70
     1
102
RTVSPropertyOp34
 70
     1
102
RTVSPropertyOp35
 70
     1
102
RTVSPropertyOp36
 70
     1
102
RTVSPropertyOp37
 70
     1
102
RTVSPropertyOp38
 70
     1
102
RTVSPropertyOp39
 70
     1
102
RTVSPropertyOp40
 70
     1
102
RTVSPropertyOp41
 70
     1
102
RTVSPropertyOp42
 70
     1
102
RTVSPropertyOp43
 70
     1
102
RTVSPropertyOp44
 70
     1
102
RTVSPropertyOp45
 70
     1
102
RTVSPropertyOp46
 70
     1
102
RTVSPropertyOp47
 70
     1
102
RTVSPropertyOp48
 70
     1
102
RTVSPropertyOp49
 70
     1
102
RTVSPropertyOp50
 70
     1
102
RTVSPropertyOp51
 70
     0
102
RTVSPropertyOp52
 70
     0
102
RTVSPropertyOp53
 70
     1
102
RTVSPropertyOp54
 70
     1
102
RTVSPropertyOp55
 70
     1
102
RTVSPropertyOp56
 70
     1
102
RTVSPropertyOp57
 70
     1
102
RTVSPropertyOp58
 70
     1
102
RTVSPropertyOp59
 70
     1
102
RTVSPropertyOp60
 70
     1
102
RTVSPropertyOp61
 70
     1
102
RTVSPropertyOp62
 70
     1
  0
XRECORD
  5
1850
102
{ACAD_REACTORS
330
184F
102
}
330
184F
100
AcDbXrecord
280
     1
102
RTVSPost2010Prop28
280
     0
102
RTVSPost2010PropOp28
 70
     1
102
RTVSPost2010Prop29
280
     1
102
RTVSPost2010PropOp29
 70
     1
102
RTVSPost2010Prop30
280
     1
102
RTVSPost2010PropOp30
 70
     1
102
RTVSPost2010Prop31
280
     0
102
RTVSPost2010PropOp31
 70
     1
102
RTVSPost2010Prop32
280
     0
102
RTVSPost2010PropOp32
 70
     1
102
RTVSPost2010Prop33
280
     0
102
RTVSPost2010PropOp33
 70
     1
102
RTVSPost2010Prop34
280
     0
102
RTVSPost2010PropOp34
 70
     1
102
RTVSPost2010Prop35
280
     0
102
RTVSPost2010PropOp35
 70
     1
102
RTVSPost2010Prop36
280
     0
102
RTVSPost2010PropOp36
 70
     1
102
RTVSPost2010Prop37
 90
       50
102
RTVSPost2010PropOp37
 70
     1
102
RTVSPost2010Prop38
140
0.0
102
RTVSPost2010PropOp38
 70
     1
102
RTVSPost2010Prop39
140
1.0
102
RTVSPost2010PropOp39
 70
     1
102
RTVSPost2010Prop40
 90
        0
102
RTVSPost2010PropOp40
 70
     1
102
RTVSPost2010Prop41ColorIndex
 90
       18
102
RTVSPost2010Prop41ColorRGB
 90
        0
102
RTVSPost2010PropOp41
 70
     1
102
RTVSPost2010Prop42
 90
       50
102
RTVSPost2010PropOp42
 70
     1
102
RTVSPost2010Prop43
 90
        3
102
RTVSPost2010PropOp43
 70
     1
102
RTVSPost2010Prop44ColorIndex
 90
        5
102
RTVSPost2010Prop44ColorRGB
 90
      255
102
RTVSPost2010PropOp44
 70
     1
102
RTVSPost2010Prop45
280
     0
102
RTVSPost2010PropOp45
 70
     1
102
RTVSPost2010Prop46
 90
       50
102
RTVSPost2010PropOp46
 70
     1
102
RTVSPost2010Prop47
 90
       50
102
RTVSPost2010PropOp47
 70
     1
102
RTVSPost2010Prop48
 90
       50
102
RTVSPost2010PropOp48
 70
     1
102
RTVSPost2010Prop49
280
     0
102
RTVSPost2010PropOp49
 70
     1
102
RTVSPost2010Prop50
 90
       50
102
RTVSPost2010PropOp50
 70
     1
102
RTVSPost2010Prop51ColorIndex
 90
      256
102
RTVSPost2010Prop51ColorRGB
 90
-16777216
102
RTVSPost2010PropOp51
 70
     0
102
RTVSPost2010Prop52
140
1.0
102
RTVSPost2010PropOp52
 70
     0
102
RTVSPost2010Prop53
 90
        2
102
RTVSPost2010PropOp53
 70
     1
102
RTVSPost2010Prop54
  1
strokes_ogs.tif
102
RTVSPost2010PropOp54
 70
     1
102
RTVSPost2010Prop55
280
     0
102
RTVSPost2010PropOp55
 70
     1
102
RTVSPost2010Prop56
140
1.0
102
RTVSPost2010PropOp56
 70
     1
102
RTVSPost2010Prop57
140
1.0
102
RTVSPost2010PropOp57
 70
     1
102
RTVSPropertyOp0
 70
     1
102
RTVSPropertyOp1
 70
     1
102
RTVSPropertyOp2
 70
     1
102
RTVSPropertyOp3
 70
     1
102
RTVSPropertyOp4
 70
     1
102
RTVSPropertyOp5
 70
     1
102
RTVSPropertyOp6
 70
     1
102
RTVSPropertyOp7
 70
     1
102
RTVSPropertyOp8
 70
     1
102
RTVSPropertyOp9
 70
     1
102
RTVSPropertyOp10
 70
     1
102
RTVSPropertyOp11
 70
     1
102
RTVSPropertyOp12
 70
     1
102
RTVSPropertyOp13
 70
     1
102
RTVSPropertyOp14
 70
     1
102
RTVSPropertyOp15
 70
     1
102
RTVSPropertyOp16
 70
     1
102
RTVSPropertyOp17
 70
     1
102
RTVSPropertyOp18
 70
     1
102
RTVSPropertyOp19
 70
     1
102
RTVSPropertyOp20
 70
     1
102
RTVSPropertyOp21
 70
     1
102
RTVSPropertyOp22
 70
     1
102
RTVSPropertyOp23
 70
     1
102
RTVSPropertyOp24
 70
     1
102
RTVSPropertyOp25
 70
     1
102
RTVSPropertyOp26
 70
     1
102
RTVSPropertyOp27
 70
     1
102
RTVSPropertyOp28
 70
     1
102
RTVSPropertyOp29
 70
     1
102
RTVSPropertyOp30
 70
     1
102
RTVSPropertyOp31
 70
     1
102
RTVSPropertyOp32
 70
     1
102
RTVSPropertyOp33
 70
     1
102
RTVSPropertyOp34
 70
     1
102
RTVSPropertyOp35
 70
     1
102
RTVSPropertyOp36
 70
     1
102
RTVSPropertyOp37
 70
     1
102
RTVSPropertyOp38
 70
     1
102
RTVSPropertyOp39
 70
     1
102
RTVSPropertyOp40
 70
     1
102
RTVSPropertyOp41
 70
     1
102
RTVSPropertyOp42
 70
     1
102
RTVSPropertyOp43
 70
     1
102
RTVSPropertyOp44
 70
     1
102
RTVSPropertyOp45
 70
     1
102
RTVSPropertyOp46
 70
     1
102
RTVSPropertyOp47
 70
     1
102
RTVSPropertyOp48
 70
     1
102
RTVSPropertyOp49
 70
     1
102
RTVSPropertyOp50
 70
     1
102
RTVSPropertyOp51
 70
     0
102
RTVSPropertyOp52
 70
     0
102
RTVSPropertyOp53
 70
     1
102
RTVSPropertyOp54
 70
     1
102
RTVSPropertyOp55
 70
     1
102
RTVSPropertyOp56
 70
     1
102
RTVSPropertyOp57
 70
     1
102
RTVSPropertyOp58
 70
     1
102
RTVSPropertyOp59
 70
     1
102
RTVSPropertyOp60
 70
     1
102
RTVSPropertyOp61
 70
     1
102
RTVSPropertyOp62
 70
     1
  0
XRECORD
  5
1854
102
{ACAD_REACTORS
330
1853
102
}
330
1853
100
AcDbXrecord
280
     1
102
RTVSPost2010Prop28
280
     0
102
RTVSPost2010PropOp28
 70
     1
102
RTVSPost2010Prop29
280
     1
102
RTVSPost2010PropOp29
 70
     1
102
RTVSPost2010Prop30
280
     1
102
RTVSPost2010PropOp30
 70
     1
102
RTVSPost2010Prop31
280
     0
102
RTVSPost2010PropOp31
 70
     1
102
RTVSPost2010Prop32
280
     0
102
RTVSPost2010PropOp32
 70
     1
102
RTVSPost2010Prop33
280
     0
102
RTVSPost2010PropOp33
 70
     1
102
RTVSPost2010Prop34
280
     0
102
RTVSPost2010PropOp34
 70
     1
102
RTVSPost2010Prop35
280
     0
102
RTVSPost2010PropOp35
 70
     1
102
RTVSPost2010Prop36
280
     0
102
RTVSPost2010PropOp36
 70
     1
102
RTVSPost2010Prop37
 90
       50
102
RTVSPost2010PropOp37
 70
     1
102
RTVSPost2010Prop38
140
0.0
102
RTVSPost2010PropOp38
 70
     1
102
RTVSPost2010Prop39
140
1.0
102
RTVSPost2010PropOp39
 70
     1
102
RTVSPost2010Prop40
 90
        0
102
RTVSPost2010PropOp40
 70
     1
102
RTVSPost2010Prop41ColorIndex
 90
       18
102
RTVSPost2010Prop41ColorRGB
 90
        0
102
RTVSPost2010PropOp41
 70
     1
102
RTVSPost2010Prop42
 90
       50
102
RTVSPost2010PropOp42
 70
     1
102
RTVSPost2010Prop43
 90
        3
102
RTVSPost2010PropOp43
 70
     1
102
RTVSPost2010Prop44ColorIndex
 90
        5
102
RTVSPost2010Prop44ColorRGB
 90
      255
102
RTVSPost2010PropOp44
 70
     1
102
RTVSPost2010Prop45
280
     0
102
RTVSPost2010PropOp45
 70
     1
102
RTVSPost2010Prop46
 90
       50
102
RTVSPost2010PropOp46
 70
     1
102
RTVSPost2010Prop47
 90
       50
102
RTVSPost2010PropOp47
 70
     1
102
RTVSPost2010Prop48
 90
       50
102
RTVSPost2010PropOp48
 70
     1
102
RTVSPost2010Prop49
280
     0
102
RTVSPost2010PropOp49
 70
     1
102
RTVSPost2010Prop50
 90
       50
102
RTVSPost2010PropOp50
 70
     1
102
RTVSPost2010Prop51ColorIndex
 90
      256
102
RTVSPost2010Prop51ColorRGB
 90
-16777216
102
RTVSPost2010PropOp51
 70
     0
102
RTVSPost2010Prop52
140
1.0
102
RTVSPost2010PropOp52
 70
     0
102
RTVSPost2010Prop53
 90
        2
102
RTVSPost2010PropOp53
 70
     1
102
RTVSPost2010Prop54
  1
strokes_ogs.tif
102
RTVSPost2010PropOp54
 70
     1
102
RTVSPost2010Prop55
280
     0
102
RTVSPost2010PropOp55
 70
     1
102
RTVSPost2010Prop56
140
1.0
102
RTVSPost2010PropOp56
 70
     1
102
RTVSPost2010Prop57
140
1.0
102
RTVSPost2010PropOp57
 70
     1
102
RTVSPropertyOp0
 70
     1
102
RTVSPropertyOp1
 70
     1
102
RTVSPropertyOp2
 70
     1
102
RTVSPropertyOp3
 70
     1
102
RTVSPropertyOp4
 70
     1
102
RTVSPropertyOp5
 70
     1
102
RTVSPropertyOp6
 70
     1
102
RTVSPropertyOp7
 70
     1
102
RTVSPropertyOp8
 70
     1
102
RTVSPropertyOp9
 70
     1
102
RTVSPropertyOp10
 70
     1
102
RTVSPropertyOp11
 70
     1
102
RTVSPropertyOp12
 70
     1
102
RTVSPropertyOp13
 70
     1
102
RTVSPropertyOp14
 70
     1
102
RTVSPropertyOp15
 70
     1
102
RTVSPropertyOp16
 70
     1
102
RTVSPropertyOp17
 70
     1
102
RTVSPropertyOp18
 70
     1
102
RTVSPropertyOp19
 70
     1
102
RTVSPropertyOp20
 70
     1
102
RTVSPropertyOp21
 70
     1
102
RTVSPropertyOp22
 70
     1
102
RTVSPropertyOp23
 70
     1
102
RTVSPropertyOp24
 70
     1
102
RTVSPropertyOp25
 70
     1
102
RTVSPropertyOp26
 70
     1
102
RTVSPropertyOp27
 70
     1
102
RTVSPropertyOp28
 70
     1
102
RTVSPropertyOp29
 70
     1
102
RTVSPropertyOp30
 70
     1
102
RTVSPropertyOp31
 70
     1
102
RTVSPropertyOp32
 70
     1
102
RTVSPropertyOp33
 70
     1
102
RTVSPropertyOp34
 70
     1
102
RTVSPropertyOp35
 70
     1
102
RTVSPropertyOp36
 70
     1
102
RTVSPropertyOp37
 70
     1
102
RTVSPropertyOp38
 70
     1
102
RTVSPropertyOp39
 70
     1
102
RTVSPropertyOp40
 70
     1
102
RTVSPropertyOp41
 70
     1
102
RTVSPropertyOp42
 70
     1
102
RTVSPropertyOp43
 70
     1
102
RTVSPropertyOp44
 70
     1
102
RTVSPropertyOp45
 70
     1
102
RTVSPropertyOp46
 70
     1
102
RTVSPropertyOp47
 70
     1
102
RTVSPropertyOp48
 70
     1
102
RTVSPropertyOp49
 70
     1
102
RTVSPropertyOp50
 70
     1
102
RTVSPropertyOp51
 70
     0
102
RTVSPropertyOp52
 70
     0
102
RTVSPropertyOp53
 70
     1
102
RTVSPropertyOp54
 70
     1
102
RTVSPropertyOp55
 70
     1
102
RTVSPropertyOp56
 70
     1
102
RTVSPropertyOp57
 70
     1
102
RTVSPropertyOp58
 70
     1
102
RTVSPropertyOp59
 70
     1
102
RTVSPropertyOp60
 70
     1
102
RTVSPropertyOp61
 70
     1
102
RTVSPropertyOp62
 70
     1
  0
XRECORD
  5
1866
102
{ACAD_REACTORS
330
1865
102
}
330
1865
100
AcDbXrecord
280
     1
102
RTVSPost2010Prop28
280
     0
102
RTVSPost2010PropOp28
 70
     1
102
RTVSPost2010Prop29
280
     1
102
RTVSPost2010PropOp29
 70
     1
102
RTVSPost2010Prop30
280
     1
102
RTVSPost2010PropOp30
 70
     1
102
RTVSPost2010Prop31
280
     0
102
RTVSPost2010PropOp31
 70
     1
102
RTVSPost2010Prop32
280
     0
102
RTVSPost2010PropOp32
 70
     1
102
RTVSPost2010Prop33
280
     0
102
RTVSPost2010PropOp33
 70
     1
102
RTVSPost2010Prop34
280
     0
102
RTVSPost2010PropOp34
 70
     1
102
RTVSPost2010Prop35
280
     0
102
RTVSPost2010PropOp35
 70
     1
102
RTVSPost2010Prop36
280
     0
102
RTVSPost2010PropOp36
 70
     1
102
RTVSPost2010Prop37
 90
       50
102
RTVSPost2010PropOp37
 70
     1
102
RTVSPost2010Prop38
140
0.0
102
RTVSPost2010PropOp38
 70
     1
102
RTVSPost2010Prop39
140
1.0
102
RTVSPost2010PropOp39
 70
     1
102
RTVSPost2010Prop40
 90
        0
102
RTVSPost2010PropOp40
 70
     1
102
RTVSPost2010Prop41ColorIndex
 90
       18
102
RTVSPost2010Prop41ColorRGB
 90
        0
102
RTVSPost2010PropOp41
 70
     1
102
RTVSPost2010Prop42
 90
       50
102
RTVSPost2010PropOp42
 70
     1
102
RTVSPost2010Prop43
 90
        3
102
RTVSPost2010PropOp43
 70
     1
102
RTVSPost2010Prop44ColorIndex
 90
        5
102
RTVSPost2010Prop44ColorRGB
 90
      255
102
RTVSPost2010PropOp44
 70
     1
102
RTVSPost2010Prop45
280
     0
102
RTVSPost2010PropOp45
 70
     1
102
RTVSPost2010Prop46
 90
       50
102
RTVSPost2010PropOp46
 70
     1
102
RTVSPost2010Prop47
 90
       50
102
RTVSPost2010PropOp47
 70
     1
102
RTVSPost2010Prop48
 90
       50
102
RTVSPost2010PropOp48
 70
     1
102
RTVSPost2010Prop49
280
     0
102
RTVSPost2010PropOp49
 70
     1
102
RTVSPost2010Prop50
 90
       50
102
RTVSPost2010PropOp50
 70
     1
102
RTVSPost2010Prop51ColorIndex
 90
      256
102
RTVSPost2010Prop51ColorRGB
 90
-16777216
102
RTVSPost2010PropOp51
 70
     0
102
RTVSPost2010Prop52
140
1.0
102
RTVSPost2010PropOp52
 70
     0
102
RTVSPost2010Prop53
 90
        2
102
RTVSPost2010PropOp53
 70
     1
102
RTVSPost2010Prop54
  1
strokes_ogs.tif
102
RTVSPost2010PropOp54
 70
     1
102
RTVSPost2010Prop55
280
     0
102
RTVSPost2010PropOp55
 70
     1
102
RTVSPost2010Prop56
140
1.0
102
RTVSPost2010PropOp56
 70
     1
102
RTVSPost2010Prop57
140
1.0
102
RTVSPost2010PropOp57
 70
     1
102
RTVSPropertyOp0
 70
     0
102
RTVSPropertyOp1
 70
     0
102
RTVSPropertyOp2
 70
     0
102
RTVSPropertyOp3
 70
     0
102
RTVSPropertyOp4
 70
     0
102
RTVSPropertyOp5
 70
     0
102
RTVSPropertyOp6
 70
     0
102
RTVSPropertyOp7
 70
     0
102
RTVSPropertyOp8
 70
     0
102
RTVSPropertyOp9
 70
     0
102
RTVSPropertyOp10
 70
     0
102
RTVSPropertyOp11
 70
     0
102
RTVSPropertyOp12
 70
     0
102
RTVSPropertyOp13
 70
     0
102
RTVSPropertyOp14
 70
     2
102
RTVSPropertyOp15
 70
     0
102
RTVSPropertyOp16
 70
     0
102
RTVSPropertyOp17
 70
     0
102
RTVSPropertyOp18
 70
     0
102
RTVSPropertyOp19
 70
     0
102
RTVSPropertyOp20
 70
     0
102
RTVSPropertyOp21
 70
     0
102
RTVSPropertyOp22
 70
     0
102
RTVSPropertyOp23
 70
     0
102
RTVSPropertyOp24
 70
     0
102
RTVSPropertyOp25
 70
     0
102
RTVSPropertyOp26
 70
     0
102
RTVSPropertyOp27
 70
     0
102
RTVSPropertyOp28
 70
     1
102
RTVSPropertyOp29
 70
     1
102
RTVSPropertyOp30
 70
     1
102
RTVSPropertyOp31
 70
     1
102
RTVSPropertyOp32
 70
     1
102
RTVSPropertyOp33
 70
     1
102
RTVSPropertyOp34
 70
     1
102
RTVSPropertyOp35
 70
     1
102
RTVSPropertyOp36
 70
     1
102
RTVSPropertyOp37
 70
     1
102
RTVSPropertyOp38
 70
     1
102
RTVSPropertyOp39
 70
     1
102
RTVSPropertyOp40
 70
     1
102
RTVSPropertyOp41
 70
     1
102
RTVSPropertyOp42
 70
     1
102
RTVSPropertyOp43
 70
     1
102
RTVSPropertyOp44
 70
     1
102
RTVSPropertyOp45
 70
     1
102
RTVSPropertyOp46
 70
     1
102
RTVSPropertyOp47
 70
     1
102
RTVSPropertyOp48
 70
     1
102
RTVSPropertyOp49
 70
     1
102
RTVSPropertyOp50
 70
     1
102
RTVSPropertyOp51
 70
     0
102
RTVSPropertyOp52
 70
     0
102
RTVSPropertyOp53
 70
     1
102
RTVSPropertyOp54
 70
     1
102
RTVSPropertyOp55
 70
     1
102
RTVSPropertyOp56
 70
     1
102
RTVSPropertyOp57
 70
     1
102
RTVSPropertyOp58
 70
     1
102
RTVSPropertyOp59
 70
     1
102
RTVSPropertyOp60
 70
     1
102
RTVSPropertyOp61
 70
     1
102
RTVSPropertyOp62
 70
     1
  0
XRECORD
  5
185C
102
{ACAD_REACTORS
330
185B
102
}
330
185B
100
AcDbXrecord
280
     1
102
RTVSPost2010Prop28
280
     0
102
RTVSPost2010PropOp28
 70
     1
102
RTVSPost2010Prop29
280
     1
102
RTVSPost2010PropOp29
 70
     1
102
RTVSPost2010Prop30
280
     1
102
RTVSPost2010PropOp30
 70
     1
102
RTVSPost2010Prop31
280
     0
102
RTVSPost2010PropOp31
 70
     1
102
RTVSPost2010Prop32
280
     0
102
RTVSPost2010PropOp32
 70
     1
102
RTVSPost2010Prop33
280
     0
102
RTVSPost2010PropOp33
 70
     1
102
RTVSPost2010Prop34
280
     0
102
RTVSPost2010PropOp34
 70
     1
102
RTVSPost2010Prop35
280
     0
102
RTVSPost2010PropOp35
 70
     1
102
RTVSPost2010Prop36
280
     0
102
RTVSPost2010PropOp36
 70
     1
102
RTVSPost2010Prop37
 90
       50
102
RTVSPost2010PropOp37
 70
     1
102
RTVSPost2010Prop38
140
0.0
102
RTVSPost2010PropOp38
 70
     1
102
RTVSPost2010Prop39
140
1.0
102
RTVSPost2010PropOp39
 70
     1
102
RTVSPost2010Prop40
 90
        0
102
RTVSPost2010PropOp40
 70
     1
102
RTVSPost2010Prop41ColorIndex
 90
       18
102
RTVSPost2010Prop41ColorRGB
 90
        0
102
RTVSPost2010PropOp41
 70
     1
102
RTVSPost2010Prop42
 90
       50
102
RTVSPost2010PropOp42
 70
     1
102
RTVSPost2010Prop43
 90
        3
102
RTVSPost2010PropOp43
 70
     1
102
RTVSPost2010Prop44ColorIndex
 90
        5
102
RTVSPost2010Prop44ColorRGB
 90
      255
102
RTVSPost2010PropOp44
 70
     1
102
RTVSPost2010Prop45
280
     0
102
RTVSPost2010PropOp45
 70
     1
102
RTVSPost2010Prop46
 90
       50
102
RTVSPost2010PropOp46
 70
     1
102
RTVSPost2010Prop47
 90
       50
102
RTVSPost2010PropOp47
 70
     1
102
RTVSPost2010Prop48
 90
       50
102
RTVSPost2010PropOp48
 70
     1
102
RTVSPost2010Prop49
280
     0
102
RTVSPost2010PropOp49
 70
     1
102
RTVSPost2010Prop50
 90
       50
102
RTVSPost2010PropOp50
 70
     1
102
RTVSPost2010Prop51ColorIndex
 90
      256
102
RTVSPost2010Prop51ColorRGB
 90
-16777216
102
RTVSPost2010PropOp51
 70
     0
102
RTVSPost2010Prop52
140
1.0
102
RTVSPost2010PropOp52
 70
     0
102
RTVSPost2010Prop53
 90
        2
102
RTVSPost2010PropOp53
 70
     1
102
RTVSPost2010Prop54
  1
strokes_ogs.tif
102
RTVSPost2010PropOp54
 70
     1
102
RTVSPost2010Prop55
280
     0
102
RTVSPost2010PropOp55
 70
     1
102
RTVSPost2010Prop56
140
1.0
102
RTVSPost2010PropOp56
 70
     1
102
RTVSPost2010Prop57
140
1.0
102
RTVSPost2010PropOp57
 70
     1
102
RTVSPropertyOp0
 70
     1
102
RTVSPropertyOp1
 70
     1
102
RTVSPropertyOp2
 70
     1
102
RTVSPropertyOp3
 70
     1
102
RTVSPropertyOp4
 70
     1
102
RTVSPropertyOp5
 70
     1
102
RTVSPropertyOp6
 70
     1
102
RTVSPropertyOp7
 70
     1
102
RTVSPropertyOp8
 70
     1
102
RTVSPropertyOp9
 70
     1
102
RTVSPropertyOp10
 70
     1
102
RTVSPropertyOp11
 70
     1
102
RTVSPropertyOp12
 70
     1
102
RTVSPropertyOp13
 70
     1
102
RTVSPropertyOp14
 70
     1
102
RTVSPropertyOp15
 70
     1
102
RTVSPropertyOp16
 70
     1
102
RTVSPropertyOp17
 70
     1
102
RTVSPropertyOp18
 70
     1
102
RTVSPropertyOp19
 70
     1
102
RTVSPropertyOp20
 70
     1
102
RTVSPropertyOp21
 70
     1
102
RTVSPropertyOp22
 70
     1
102
RTVSPropertyOp23
 70
     1
102
RTVSPropertyOp24
 70
     1
102
RTVSPropertyOp25
 70
     1
102
RTVSPropertyOp26
 70
     1
102
RTVSPropertyOp27
 70
     1
102
RTVSPropertyOp28
 70
     1
102
RTVSPropertyOp29
 70
     1
102
RTVSPropertyOp30
 70
     1
102
RTVSPropertyOp31
 70
     1
102
RTVSPropertyOp32
 70
     1
102
RTVSPropertyOp33
 70
     1
102
RTVSPropertyOp34
 70
     1
102
RTVSPropertyOp35
 70
     1
102
RTVSPropertyOp36
 70
     1
102
RTVSPropertyOp37
 70
     1
102
RTVSPropertyOp38
 70
     1
102
RTVSPropertyOp39
 70
     1
102
RTVSPropertyOp40
 70
     1
102
RTVSPropertyOp41
 70
     1
102
RTVSPropertyOp42
 70
     1
102
RTVSPropertyOp43
 70
     1
102
RTVSPropertyOp44
 70
     1
102
RTVSPropertyOp45
 70
     1
102
RTVSPropertyOp46
 70
     1
102
RTVSPropertyOp47
 70
     1
102
RTVSPropertyOp48
 70
     1
102
RTVSPropertyOp49
 70
     1
102
RTVSPropertyOp50
 70
     1
102
RTVSPropertyOp51
 70
     0
102
RTVSPropertyOp52
 70
     0
102
RTVSPropertyOp53
 70
     1
102
RTVSPropertyOp54
 70
     1
102
RTVSPropertyOp55
 70
     1
102
RTVSPropertyOp56
 70
     1
102
RTVSPropertyOp57
 70
     1
102
RTVSPropertyOp58
 70
     1
102
RTVSPropertyOp59
 70
     1
102
RTVSPropertyOp60
 70
     1
102
RTVSPropertyOp61
 70
     1
102
RTVSPropertyOp62
 70
     1
  0
XRECORD
  5
1840
102
{ACAD_REACTORS
330
183F
102
}
330
183F
100
AcDbXrecord
280
     1
102
RTVSPost2010Prop28
280
     0
102
RTVSPost2010PropOp28
 70
     1
102
RTVSPost2010Prop29
280
     1
102
RTVSPost2010PropOp29
 70
     1
102
RTVSPost2010Prop30
280
     1
102
RTVSPost2010PropOp30
 70
     1
102
RTVSPost2010Prop31
280
     0
102
RTVSPost2010PropOp31
 70
     1
102
RTVSPost2010Prop32
280
     0
102
RTVSPost2010PropOp32
 70
     1
102
RTVSPost2010Prop33
280
     0
102
RTVSPost2010PropOp33
 70
     1
102
RTVSPost2010Prop34
280
     0
102
RTVSPost2010PropOp34
 70
     1
102
RTVSPost2010Prop35
280
     0
102
RTVSPost2010PropOp35
 70
     1
102
RTVSPost2010Prop36
280
     0
102
RTVSPost2010PropOp36
 70
     1
102
RTVSPost2010Prop37
 90
       50
102
RTVSPost2010PropOp37
 70
     1
102
RTVSPost2010Prop38
140
0.0
102
RTVSPost2010PropOp38
 70
     1
102
RTVSPost2010Prop39
140
1.0
102
RTVSPost2010PropOp39
 70
     1
102
RTVSPost2010Prop40
 90
        0
102
RTVSPost2010PropOp40
 70
     1
102
RTVSPost2010Prop41ColorIndex
 90
       18
102
RTVSPost2010Prop41ColorRGB
 90
        0
102
RTVSPost2010PropOp41
 70
     1
102
RTVSPost2010Prop42
 90
       50
102
RTVSPost2010PropOp42
 70
     1
102
RTVSPost2010Prop43
 90
        3
102
RTVSPost2010PropOp43
 70
     1
102
RTVSPost2010Prop44ColorIndex
 90
        5
102
RTVSPost2010Prop44ColorRGB
 90
      255
102
RTVSPost2010PropOp44
 70
     1
102
RTVSPost2010Prop45
280
     0
102
RTVSPost2010PropOp45
 70
     1
102
RTVSPost2010Prop46
 90
       50
102
RTVSPost2010PropOp46
 70
     1
102
RTVSPost2010Prop47
 90
       50
102
RTVSPost2010PropOp47
 70
     1
102
RTVSPost2010Prop48
 90
       50
102
RTVSPost2010PropOp48
 70
     1
102
RTVSPost2010Prop49
280
     0
102
RTVSPost2010PropOp49
 70
     1
102
RTVSPost2010Prop50
 90
       50
102
RTVSPost2010PropOp50
 70
     1
102
RTVSPost2010Prop51ColorIndex
 90
      256
102
RTVSPost2010Prop51ColorRGB
 90
-16777216
102
RTVSPost2010PropOp51
 70
     0
102
RTVSPost2010Prop52
140
1.0
102
RTVSPost2010PropOp52
 70
     0
102
RTVSPost2010Prop53
 90
        2
102
RTVSPost2010PropOp53
 70
     1
102
RTVSPost2010Prop54
  1
strokes_ogs.tif
102
RTVSPost2010PropOp54
 70
     1
102
RTVSPost2010Prop55
280
     0
102
RTVSPost2010PropOp55
 70
     1
102
RTVSPost2010Prop56
140
1.0
102
RTVSPost2010PropOp56
 70
     1
102
RTVSPost2010Prop57
140
1.0
102
RTVSPost2010PropOp57
 70
     1
102
RTVSPropertyOp0
 70
     1
102
RTVSPropertyOp1
 70
     1
102
RTVSPropertyOp2
 70
     1
102
RTVSPropertyOp3
 70
     1
102
RTVSPropertyOp4
 70
     1
102
RTVSPropertyOp5
 70
     1
102
RTVSPropertyOp6
 70
     1
102
RTVSPropertyOp7
 70
     1
102
RTVSPropertyOp8
 70
     1
102
RTVSPropertyOp9
 70
     1
102
RTVSPropertyOp10
 70
     1
102
RTVSPropertyOp11
 70
     1
102
RTVSPropertyOp12
 70
     1
102
RTVSPropertyOp13
 70
     1
102
RTVSPropertyOp14
 70
     1
102
RTVSPropertyOp15
 70
     1
102
RTVSPropertyOp16
 70
     1
102
RTVSPropertyOp17
 70
     1
102
RTVSPropertyOp18
 70
     1
102
RTVSPropertyOp19
 70
     1
102
RTVSPropertyOp20
 70
     1
102
RTVSPropertyOp21
 70
     1
102
RTVSPropertyOp22
 70
     1
102
RTVSPropertyOp23
 70
     1
102
RTVSPropertyOp24
 70
     1
102
RTVSPropertyOp25
 70
     1
102
RTVSPropertyOp26
 70
     1
102
RTVSPropertyOp27
 70
     1
102
RTVSPropertyOp28
 70
     1
102
RTVSPropertyOp29
 70
     1
102
RTVSPropertyOp30
 70
     1
102
RTVSPropertyOp31
 70
     1
102
RTVSPropertyOp32
 70
     1
102
RTVSPropertyOp33
 70
     1
102
RTVSPropertyOp34
 70
     1
102
RTVSPropertyOp35
 70
     1
102
RTVSPropertyOp36
 70
     1
102
RTVSPropertyOp37
 70
     1
102
RTVSPropertyOp38
 70
     1
102
RTVSPropertyOp39
 70
     1
102
RTVSPropertyOp40
 70
     1
102
RTVSPropertyOp41
 70
     1
102
RTVSPropertyOp42
 70
     1
102
RTVSPropertyOp43
 70
     1
102
RTVSPropertyOp44
 70
     1
102
RTVSPropertyOp45
 70
     1
102
RTVSPropertyOp46
 70
     1
102
RTVSPropertyOp47
 70
     1
102
RTVSPropertyOp48
 70
     1
102
RTVSPropertyOp49
 70
     1
102
RTVSPropertyOp50
 70
     1
102
RTVSPropertyOp51
 70
     0
102
RTVSPropertyOp52
 70
     0
102
RTVSPropertyOp53
 70
     1
102
RTVSPropertyOp54
 70
     1
102
RTVSPropertyOp55
 70
     1
102
RTVSPropertyOp56
 70
     1
102
RTVSPropertyOp57
 70
     1
102
RTVSPropertyOp58
 70
     1
102
RTVSPropertyOp59
 70
     1
102
RTVSPropertyOp60
 70
     1
102
RTVSPropertyOp61
 70
     1
102
RTVSPropertyOp62
 70
     1
  0
XRECORD
  5
1842
102
{ACAD_REACTORS
330
1841
102
}
330
1841
100
AcDbXrecord
280
     1
102
RTVSPost2010Prop28
280
     0
102
RTVSPost2010PropOp28
 70
     1
102
RTVSPost2010Prop29
280
     1
102
RTVSPost2010PropOp29
 70
     1
102
RTVSPost2010Prop30
280
     1
102
RTVSPost2010PropOp30
 70
     1
102
RTVSPost2010Prop31
280
     0
102
RTVSPost2010PropOp31
 70
     1
102
RTVSPost2010Prop32
280
     0
102
RTVSPost2010PropOp32
 70
     1
102
RTVSPost2010Prop33
280
     0
102
RTVSPost2010PropOp33
 70
     1
102
RTVSPost2010Prop34
280
     0
102
RTVSPost2010PropOp34
 70
     1
102
RTVSPost2010Prop35
280
     0
102
RTVSPost2010PropOp35
 70
     1
102
RTVSPost2010Prop36
280
     0
102
RTVSPost2010PropOp36
 70
     1
102
RTVSPost2010Prop37
 90
       50
102
RTVSPost2010PropOp37
 70
     1
102
RTVSPost2010Prop38
140
0.0
102
RTVSPost2010PropOp38
 70
     1
102
RTVSPost2010Prop39
140
1.0
102
RTVSPost2010PropOp39
 70
     1
102
RTVSPost2010Prop40
 90
        0
102
RTVSPost2010PropOp40
 70
     1
102
RTVSPost2010Prop41ColorIndex
 90
       18
102
RTVSPost2010Prop41ColorRGB
 90
        0
102
RTVSPost2010PropOp41
 70
     1
102
RTVSPost2010Prop42
 90
       50
102
RTVSPost2010PropOp42
 70
     1
102
RTVSPost2010Prop43
 90
        3
102
RTVSPost2010PropOp43
 70
     1
102
RTVSPost2010Prop44ColorIndex
 90
        5
102
RTVSPost2010Prop44ColorRGB
 90
      255
102
RTVSPost2010PropOp44
 70
     1
102
RTVSPost2010Prop45
280
     0
102
RTVSPost2010PropOp45
 70
     1
102
RTVSPost2010Prop46
 90
       50
102
RTVSPost2010PropOp46
 70
     1
102
RTVSPost2010Prop47
 90
       50
102
RTVSPost2010PropOp47
 70
     1
102
RTVSPost2010Prop48
 90
       50
102
RTVSPost2010PropOp48
 70
     1
102
RTVSPost2010Prop49
280
     0
102
RTVSPost2010PropOp49
 70
     1
102
RTVSPost2010Prop50
 90
       50
102
RTVSPost2010PropOp50
 70
     1
102
RTVSPost2010Prop51ColorIndex
 90
      256
102
RTVSPost2010Prop51ColorRGB
 90
-16777216
102
RTVSPost2010PropOp51
 70
     0
102
RTVSPost2010Prop52
140
1.0
102
RTVSPost2010PropOp52
 70
     0
102
RTVSPost2010Prop53
 90
        2
102
RTVSPost2010PropOp53
 70
     1
102
RTVSPost2010Prop54
  1
strokes_ogs.tif
102
RTVSPost2010PropOp54
 70
     1
102
RTVSPost2010Prop55
280
     0
102
RTVSPost2010PropOp55
 70
     1
102
RTVSPost2010Prop56
140
1.0
102
RTVSPost2010PropOp56
 70
     1
102
RTVSPost2010Prop57
140
1.0
102
RTVSPost2010PropOp57
 70
     1
102
RTVSPropertyOp0
 70
     1
102
RTVSPropertyOp1
 70
     1
102
RTVSPropertyOp2
 70
     1
102
RTVSPropertyOp3
 70
     1
102
RTVSPropertyOp4
 70
     1
102
RTVSPropertyOp5
 70
     1
102
RTVSPropertyOp6
 70
     1
102
RTVSPropertyOp7
 70
     1
102
RTVSPropertyOp8
 70
     1
102
RTVSPropertyOp9
 70
     1
102
RTVSPropertyOp10
 70
     1
102
RTVSPropertyOp11
 70
     1
102
RTVSPropertyOp12
 70
     1
102
RTVSPropertyOp13
 70
     1
102
RTVSPropertyOp14
 70
     1
102
RTVSPropertyOp15
 70
     1
102
RTVSPropertyOp16
 70
     1
102
RTVSPropertyOp17
 70
     1
102
RTVSPropertyOp18
 70
     1
102
RTVSPropertyOp19
 70
     1
102
RTVSPropertyOp20
 70
     1
102
RTVSPropertyOp21
 70
     1
102
RTVSPropertyOp22
 70
     1
102
RTVSPropertyOp23
 70
     1
102
RTVSPropertyOp24
 70
     1
102
RTVSPropertyOp25
 70
     1
102
RTVSPropertyOp26
 70
     1
102
RTVSPropertyOp27
 70
     1
102
RTVSPropertyOp28
 70
     1
102
RTVSPropertyOp29
 70
     1
102
RTVSPropertyOp30
 70
     1
102
RTVSPropertyOp31
 70
     1
102
RTVSPropertyOp32
 70
     1
102
RTVSPropertyOp33
 70
     1
102
RTVSPropertyOp34
 70
     1
102
RTVSPropertyOp35
 70
     1
102
RTVSPropertyOp36
 70
     1
102
RTVSPropertyOp37
 70
     1
102
RTVSPropertyOp38
 70
     1
102
RTVSPropertyOp39
 70
     1
102
RTVSPropertyOp40
 70
     1
102
RTVSPropertyOp41
 70
     1
102
RTVSPropertyOp42
 70
     1
102
RTVSPropertyOp43
 70
     1
102
RTVSPropertyOp44
 70
     1
102
RTVSPropertyOp45
 70
     1
102
RTVSPropertyOp46
 70
     1
102
RTVSPropertyOp47
 70
     1
102
RTVSPropertyOp48
 70
     1
102
RTVSPropertyOp49
 70
     1
102
RTVSPropertyOp50
 70
     1
102
RTVSPropertyOp51
 70
     0
102
RTVSPropertyOp52
 70
     0
102
RTVSPropertyOp53
 70
     1
102
RTVSPropertyOp54
 70
     1
102
RTVSPropertyOp55
 70
     1
102
RTVSPropertyOp56
 70
     1
102
RTVSPropertyOp57
 70
     1
102
RTVSPropertyOp58
 70
     1
102
RTVSPropertyOp59
 70
     1
102
RTVSPropertyOp60
 70
     1
102
RTVSPropertyOp61
 70
     1
102
RTVSPropertyOp62
 70
     1
  0
XRECORD
  5
1844
102
{ACAD_REACTORS
330
1843
102
}
330
1843
100
AcDbXrecord
280
     1
102
RTVSPost2010Prop28
280
     0
102
RTVSPost2010PropOp28
 70
     1
102
RTVSPost2010Prop29
280
     1
102
RTVSPost2010PropOp29
 70
     1
102
RTVSPost2010Prop30
280
     1
102
RTVSPost2010PropOp30
 70
     1
102
RTVSPost2010Prop31
280
     0
102
RTVSPost2010PropOp31
 70
     1
102
RTVSPost2010Prop32
280
     0
102
RTVSPost2010PropOp32
 70
     1
102
RTVSPost2010Prop33
280
     0
102
RTVSPost2010PropOp33
 70
     1
102
RTVSPost2010Prop34
280
     0
102
RTVSPost2010PropOp34
 70
     1
102
RTVSPost2010Prop35
280
     0
102
RTVSPost2010PropOp35
 70
     1
102
RTVSPost2010Prop36
280
     0
102
RTVSPost2010PropOp36
 70
     1
102
RTVSPost2010Prop37
 90
       50
102
RTVSPost2010PropOp37
 70
     1
102
RTVSPost2010Prop38
140
0.0
102
RTVSPost2010PropOp38
 70
     1
102
RTVSPost2010Prop39
140
1.0
102
RTVSPost2010PropOp39
 70
     1
102
RTVSPost2010Prop40
 90
        0
102
RTVSPost2010PropOp40
 70
     1
102
RTVSPost2010Prop41ColorIndex
 90
       18
102
RTVSPost2010Prop41ColorRGB
 90
        0
102
RTVSPost2010PropOp41
 70
     1
102
RTVSPost2010Prop42
 90
       50
102
RTVSPost2010PropOp42
 70
     1
102
RTVSPost2010Prop43
 90
        3
102
RTVSPost2010PropOp43
 70
     1
102
RTVSPost2010Prop44ColorIndex
 90
        5
102
RTVSPost2010Prop44ColorRGB
 90
      255
102
RTVSPost2010PropOp44
 70
     1
102
RTVSPost2010Prop45
280
     0
102
RTVSPost2010PropOp45
 70
     1
102
RTVSPost2010Prop46
 90
       50
102
RTVSPost2010PropOp46
 70
     1
102
RTVSPost2010Prop47
 90
       50
102
RTVSPost2010PropOp47
 70
     1
102
RTVSPost2010Prop48
 90
       50
102
RTVSPost2010PropOp48
 70
     1
102
RTVSPost2010Prop49
280
     0
102
RTVSPost2010PropOp49
 70
     1
102
RTVSPost2010Prop50
 90
       50
102
RTVSPost2010PropOp50
 70
     1
102
RTVSPost2010Prop51ColorIndex
 90
      256
102
RTVSPost2010Prop51ColorRGB
 90
-16777216
102
RTVSPost2010PropOp51
 70
     0
102
RTVSPost2010Prop52
140
1.0
102
RTVSPost2010PropOp52
 70
     0
102
RTVSPost2010Prop53
 90
        2
102
RTVSPost2010PropOp53
 70
     1
102
RTVSPost2010Prop54
  1
strokes_ogs.tif
102
RTVSPost2010PropOp54
 70
     1
102
RTVSPost2010Prop55
280
     0
102
RTVSPost2010PropOp55
 70
     1
102
RTVSPost2010Prop56
140
1.0
102
RTVSPost2010PropOp56
 70
     1
102
RTVSPost2010Prop57
140
1.0
102
RTVSPost2010PropOp57
 70
     1
102
RTVSPropertyOp0
 70
     1
102
RTVSPropertyOp1
 70
     1
102
RTVSPropertyOp2
 70
     1
102
RTVSPropertyOp3
 70
     1
102
RTVSPropertyOp4
 70
     1
102
RTVSPropertyOp5
 70
     1
102
RTVSPropertyOp6
 70
     1
102
RTVSPropertyOp7
 70
     1
102
RTVSPropertyOp8
 70
     1
102
RTVSPropertyOp9
 70
     1
102
RTVSPropertyOp10
 70
     1
102
RTVSPropertyOp11
 70
     1
102
RTVSPropertyOp12
 70
     1
102
RTVSPropertyOp13
 70
     1
102
RTVSPropertyOp14
 70
     1
102
RTVSPropertyOp15
 70
     1
102
RTVSPropertyOp16
 70
     1
102
RTVSPropertyOp17
 70
     1
102
RTVSPropertyOp18
 70
     1
102
RTVSPropertyOp19
 70
     1
102
RTVSPropertyOp20
 70
     1
102
RTVSPropertyOp21
 70
     1
102
RTVSPropertyOp22
 70
     1
102
RTVSPropertyOp23
 70
     1
102
RTVSPropertyOp24
 70
     1
102
RTVSPropertyOp25
 70
     1
102
RTVSPropertyOp26
 70
     1
102
RTVSPropertyOp27
 70
     1
102
RTVSPropertyOp28
 70
     1
102
RTVSPropertyOp29
 70
     1
102
RTVSPropertyOp30
 70
     1
102
RTVSPropertyOp31
 70
     1
102
RTVSPropertyOp32
 70
     1
102
RTVSPropertyOp33
 70
     1
102
RTVSPropertyOp34
 70
     1
102
RTVSPropertyOp35
 70
     1
102
RTVSPropertyOp36
 70
     1
102
RTVSPropertyOp37
 70
     1
102
RTVSPropertyOp38
 70
     1
102
RTVSPropertyOp39
 70
     1
102
RTVSPropertyOp40
 70
     1
102
RTVSPropertyOp41
 70
     1
102
RTVSPropertyOp42
 70
     1
102
RTVSPropertyOp43
 70
     1
102
RTVSPropertyOp44
 70
     1
102
RTVSPropertyOp45
 70
     1
102
RTVSPropertyOp46
 70
     1
102
RTVSPropertyOp47
 70
     1
102
RTVSPropertyOp48
 70
     1
102
RTVSPropertyOp49
 70
     1
102
RTVSPropertyOp50
 70
     1
102
RTVSPropertyOp51
 70
     0
102
RTVSPropertyOp52
 70
     0
102
RTVSPropertyOp53
 70
     1
102
RTVSPropertyOp54
 70
     1
102
RTVSPropertyOp55
 70
     1
102
RTVSPropertyOp56
 70
     1
102
RTVSPropertyOp57
 70
     1
102
RTVSPropertyOp58
 70
     1
102
RTVSPropertyOp59
 70
     1
102
RTVSPropertyOp60
 70
     1
102
RTVSPropertyOp61
 70
     1
102
RTVSPropertyOp62
 70
     1
  0
XRECORD
  5
1846
102
{ACAD_REACTORS
330
1845
102
}
330
1845
100
AcDbXrecord
280
     1
102
RTVSPost2010Prop28
280
     0
102
RTVSPost2010PropOp28
 70
     1
102
RTVSPost2010Prop29
280
     1
102
RTVSPost2010PropOp29
 70
     1
102
RTVSPost2010Prop30
280
     1
102
RTVSPost2010PropOp30
 70
     1
102
RTVSPost2010Prop31
280
     0
102
RTVSPost2010PropOp31
 70
     1
102
RTVSPost2010Prop32
280
     0
102
RTVSPost2010PropOp32
 70
     1
102
RTVSPost2010Prop33
280
     0
102
RTVSPost2010PropOp33
 70
     1
102
RTVSPost2010Prop34
280
     0
102
RTVSPost2010PropOp34
 70
     1
102
RTVSPost2010Prop35
280
     0
102
RTVSPost2010PropOp35
 70
     1
102
RTVSPost2010Prop36
280
     0
102
RTVSPost2010PropOp36
 70
     1
102
RTVSPost2010Prop37
 90
       50
102
RTVSPost2010PropOp37
 70
     1
102
RTVSPost2010Prop38
140
0.0
102
RTVSPost2010PropOp38
 70
     1
102
RTVSPost2010Prop39
140
1.0
102
RTVSPost2010PropOp39
 70
     1
102
RTVSPost2010Prop40
 90
        0
102
RTVSPost2010PropOp40
 70
     1
102
RTVSPost2010Prop41ColorIndex
 90
       18
102
RTVSPost2010Prop41ColorRGB
 90
        0
102
RTVSPost2010PropOp41
 70
     1
102
RTVSPost2010Prop42
 90
       50
102
RTVSPost2010PropOp42
 70
     1
102
RTVSPost2010Prop43
 90
        3
102
RTVSPost2010PropOp43
 70
     1
102
RTVSPost2010Prop44ColorIndex
 90
        5
102
RTVSPost2010Prop44ColorRGB
 90
      255
102
RTVSPost2010PropOp44
 70
     1
102
RTVSPost2010Prop45
280
     0
102
RTVSPost2010PropOp45
 70
     1
102
RTVSPost2010Prop46
 90
       50
102
RTVSPost2010PropOp46
 70
     1
102
RTVSPost2010Prop47
 90
       50
102
RTVSPost2010PropOp47
 70
     1
102
RTVSPost2010Prop48
 90
       50
102
RTVSPost2010PropOp48
 70
     1
102
RTVSPost2010Prop49
280
     0
102
RTVSPost2010PropOp49
 70
     1
102
RTVSPost2010Prop50
 90
       50
102
RTVSPost2010PropOp50
 70
     1
102
RTVSPost2010Prop51ColorIndex
 90
      256
102
RTVSPost2010Prop51ColorRGB
 90
-16777216
102
RTVSPost2010PropOp51
 70
     0
102
RTVSPost2010Prop52
140
1.0
102
RTVSPost2010PropOp52
 70
     0
102
RTVSPost2010Prop53
 90
        2
102
RTVSPost2010PropOp53
 70
     1
102
RTVSPost2010Prop54
  1
strokes_ogs.tif
102
RTVSPost2010PropOp54
 70
     1
102
RTVSPost2010Prop55
280
     0
102
RTVSPost2010PropOp55
 70
     1
102
RTVSPost2010Prop56
140
1.0
102
RTVSPost2010PropOp56
 70
     1
102
RTVSPost2010Prop57
140
1.0
102
RTVSPost2010PropOp57
 70
     1
102
RTVSPropertyOp0
 70
     1
102
RTVSPropertyOp1
 70
     1
102
RTVSPropertyOp2
 70
     1
102
RTVSPropertyOp3
 70
     1
102
RTVSPropertyOp4
 70
     1
102
RTVSPropertyOp5
 70
     1
102
RTVSPropertyOp6
 70
     1
102
RTVSPropertyOp7
 70
     1
102
RTVSPropertyOp8
 70
     1
102
RTVSPropertyOp9
 70
     1
102
RTVSPropertyOp10
 70
     1
102
RTVSPropertyOp11
 70
     1
102
RTVSPropertyOp12
 70
     1
102
RTVSPropertyOp13
 70
     1
102
RTVSPropertyOp14
 70
     1
102
RTVSPropertyOp15
 70
     1
102
RTVSPropertyOp16
 70
     1
102
RTVSPropertyOp17
 70
     1
102
RTVSPropertyOp18
 70
     1
102
RTVSPropertyOp19
 70
     1
102
RTVSPropertyOp20
 70
     1
102
RTVSPropertyOp21
 70
     1
102
RTVSPropertyOp22
 70
     1
102
RTVSPropertyOp23
 70
     1
102
RTVSPropertyOp24
 70
     1
102
RTVSPropertyOp25
 70
     1
102
RTVSPropertyOp26
 70
     1
102
RTVSPropertyOp27
 70
     1
102
RTVSPropertyOp28
 70
     1
102
RTVSPropertyOp29
 70
     1
102
RTVSPropertyOp30
 70
     1
102
RTVSPropertyOp31
 70
     1
102
RTVSPropertyOp32
 70
     1
102
RTVSPropertyOp33
 70
     1
102
RTVSPropertyOp34
 70
     1
102
RTVSPropertyOp35
 70
     1
102
RTVSPropertyOp36
 70
     1
102
RTVSPropertyOp37
 70
     1
102
RTVSPropertyOp38
 70
     1
102
RTVSPropertyOp39
 70
     1
102
RTVSPropertyOp40
 70
     1
102
RTVSPropertyOp41
 70
     1
102
RTVSPropertyOp42
 70
     1
102
RTVSPropertyOp43
 70
     1
102
RTVSPropertyOp44
 70
     1
102
RTVSPropertyOp45
 70
     1
102
RTVSPropertyOp46
 70
     1
102
RTVSPropertyOp47
 70
     1
102
RTVSPropertyOp48
 70
     1
102
RTVSPropertyOp49
 70
     1
102
RTVSPropertyOp50
 70
     1
102
RTVSPropertyOp51
 70
     0
102
RTVSPropertyOp52
 70
     0
102
RTVSPropertyOp53
 70
     1
102
RTVSPropertyOp54
 70
     1
102
RTVSPropertyOp55
 70
     1
102
RTVSPropertyOp56
 70
     1
102
RTVSPropertyOp57
 70
     1
102
RTVSPropertyOp58
 70
     1
102
RTVSPropertyOp59
 70
     1
102
RTVSPropertyOp60
 70
     1
102
RTVSPropertyOp61
 70
     1
102
RTVSPropertyOp62
 70
     1
  0
XRECORD
  5
184E
102
{ACAD_REACTORS
330
184D
102
}
330
184D
100
AcDbXrecord
280
     1
102
RTVSPost2010Prop28
280
     0
102
RTVSPost2010PropOp28
 70
     1
102
RTVSPost2010Prop29
280
     1
102
RTVSPost2010PropOp29
 70
     1
102
RTVSPost2010Prop30
280
     1
102
RTVSPost2010PropOp30
 70
     1
102
RTVSPost2010Prop31
280
     0
102
RTVSPost2010PropOp31
 70
     1
102
RTVSPost2010Prop32
280
     0
102
RTVSPost2010PropOp32
 70
     1
102
RTVSPost2010Prop33
280
     0
102
RTVSPost2010PropOp33
 70
     1
102
RTVSPost2010Prop34
280
     0
102
RTVSPost2010PropOp34
 70
     1
102
RTVSPost2010Prop35
280
     0
102
RTVSPost2010PropOp35
 70
     1
102
RTVSPost2010Prop36
280
     0
102
RTVSPost2010PropOp36
 70
     1
102
RTVSPost2010Prop37
 90
       50
102
RTVSPost2010PropOp37
 70
     1
102
RTVSPost2010Prop38
140
0.0
102
RTVSPost2010PropOp38
 70
     1
102
RTVSPost2010Prop39
140
1.0
102
RTVSPost2010PropOp39
 70
     1
102
RTVSPost2010Prop40
 90
        0
102
RTVSPost2010PropOp40
 70
     1
102
RTVSPost2010Prop41ColorIndex
 90
       18
102
RTVSPost2010Prop41ColorRGB
 90
        0
102
RTVSPost2010PropOp41
 70
     1
102
RTVSPost2010Prop42
 90
       50
102
RTVSPost2010PropOp42
 70
     1
102
RTVSPost2010Prop43
 90
        3
102
RTVSPost2010PropOp43
 70
     1
102
RTVSPost2010Prop44ColorIndex
 90
        5
102
RTVSPost2010Prop44ColorRGB
 90
      255
102
RTVSPost2010PropOp44
 70
     1
102
RTVSPost2010Prop45
280
     0
102
RTVSPost2010PropOp45
 70
     1
102
RTVSPost2010Prop46
 90
       50
102
RTVSPost2010PropOp46
 70
     1
102
RTVSPost2010Prop47
 90
       50
102
RTVSPost2010PropOp47
 70
     1
102
RTVSPost2010Prop48
 90
       50
102
RTVSPost2010PropOp48
 70
     1
102
RTVSPost2010Prop49
280
     0
102
RTVSPost2010PropOp49
 70
     1
102
RTVSPost2010Prop50
 90
       50
102
RTVSPost2010PropOp50
 70
     1
102
RTVSPost2010Prop51ColorIndex
 90
      256
102
RTVSPost2010Prop51ColorRGB
 90
-16777216
102
RTVSPost2010PropOp51
 70
     0
102
RTVSPost2010Prop52
140
1.0
102
RTVSPost2010PropOp52
 70
     0
102
RTVSPost2010Prop53
 90
        2
102
RTVSPost2010PropOp53
 70
     1
102
RTVSPost2010Prop54
  1
strokes_ogs.tif
102
RTVSPost2010PropOp54
 70
     1
102
RTVSPost2010Prop55
280
     0
102
RTVSPost2010PropOp55
 70
     1
102
RTVSPost2010Prop56
140
1.0
102
RTVSPost2010PropOp56
 70
     1
102
RTVSPost2010Prop57
140
1.0
102
RTVSPost2010PropOp57
 70
     1
102
RTVSPropertyOp0
 70
     1
102
RTVSPropertyOp1
 70
     1
102
RTVSPropertyOp2
 70
     1
102
RTVSPropertyOp3
 70
     1
102
RTVSPropertyOp4
 70
     1
102
RTVSPropertyOp5
 70
     1
102
RTVSPropertyOp6
 70
     1
102
RTVSPropertyOp7
 70
     1
102
RTVSPropertyOp8
 70
     1
102
RTVSPropertyOp9
 70
     1
102
RTVSPropertyOp10
 70
     1
102
RTVSPropertyOp11
 70
     1
102
RTVSPropertyOp12
 70
     1
102
RTVSPropertyOp13
 70
     1
102
RTVSPropertyOp14
 70
     1
102
RTVSPropertyOp15
 70
     1
102
RTVSPropertyOp16
 70
     1
102
RTVSPropertyOp17
 70
     1
102
RTVSPropertyOp18
 70
     1
102
RTVSPropertyOp19
 70
     1
102
RTVSPropertyOp20
 70
     1
102
RTVSPropertyOp21
 70
     1
102
RTVSPropertyOp22
 70
     1
102
RTVSPropertyOp23
 70
     1
102
RTVSPropertyOp24
 70
     1
102
RTVSPropertyOp25
 70
     1
102
RTVSPropertyOp26
 70
     1
102
RTVSPropertyOp27
 70
     1
102
RTVSPropertyOp28
 70
     1
102
RTVSPropertyOp29
 70
     1
102
RTVSPropertyOp30
 70
     1
102
RTVSPropertyOp31
 70
     1
102
RTVSPropertyOp32
 70
     1
102
RTVSPropertyOp33
 70
     1
102
RTVSPropertyOp34
 70
     1
102
RTVSPropertyOp35
 70
     1
102
RTVSPropertyOp36
 70
     1
102
RTVSPropertyOp37
 70
     1
102
RTVSPropertyOp38
 70
     1
102
RTVSPropertyOp39
 70
     1
102
RTVSPropertyOp40
 70
     1
102
RTVSPropertyOp41
 70
     1
102
RTVSPropertyOp42
 70
     1
102
RTVSPropertyOp43
 70
     1
102
RTVSPropertyOp44
 70
     1
102
RTVSPropertyOp45
 70
     1
102
RTVSPropertyOp46
 70
     1
102
RTVSPropertyOp47
 70
     1
102
RTVSPropertyOp48
 70
     1
102
RTVSPropertyOp49
 70
     1
102
RTVSPropertyOp50
 70
     1
102
RTVSPropertyOp51
 70
     0
102
RTVSPropertyOp52
 70
     0
102
RTVSPropertyOp53
 70
     1
102
RTVSPropertyOp54
 70
     1
102
RTVSPropertyOp55
 70
     1
102
RTVSPropertyOp56
 70
     1
102
RTVSPropertyOp57
 70
     1
102
RTVSPropertyOp58
 70
     1
102
RTVSPropertyOp59
 70
     1
102
RTVSPropertyOp60
 70
     1
102
RTVSPropertyOp61
 70
     1
102
RTVSPropertyOp62
 70
     1
  0
XRECORD
  5
1862
102
{ACAD_REACTORS
330
1861
102
}
330
1861
100
AcDbXrecord
280
     1
102
RTVSPost2010Prop28
280
     0
102
RTVSPost2010PropOp28
 70
     1
102
RTVSPost2010Prop29
280
     1
102
RTVSPost2010PropOp29
 70
     1
102
RTVSPost2010Prop30
280
     1
102
RTVSPost2010PropOp30
 70
     1
102
RTVSPost2010Prop31
280
     0
102
RTVSPost2010PropOp31
 70
     1
102
RTVSPost2010Prop32
280
     0
102
RTVSPost2010PropOp32
 70
     1
102
RTVSPost2010Prop33
280
     0
102
RTVSPost2010PropOp33
 70
     1
102
RTVSPost2010Prop34
280
     0
102
RTVSPost2010PropOp34
 70
     1
102
RTVSPost2010Prop35
280
     0
102
RTVSPost2010PropOp35
 70
     1
102
RTVSPost2010Prop36
280
     0
102
RTVSPost2010PropOp36
 70
     1
102
RTVSPost2010Prop37
 90
       50
102
RTVSPost2010PropOp37
 70
     1
102
RTVSPost2010Prop38
140
0.0
102
RTVSPost2010PropOp38
 70
     1
102
RTVSPost2010Prop39
140
1.0
102
RTVSPost2010PropOp39
 70
     1
102
RTVSPost2010Prop40
 90
        0
102
RTVSPost2010PropOp40
 70
     1
102
RTVSPost2010Prop41ColorIndex
 90
       18
102
RTVSPost2010Prop41ColorRGB
 90
        0
102
RTVSPost2010PropOp41
 70
     1
102
RTVSPost2010Prop42
 90
       50
102
RTVSPost2010PropOp42
 70
     1
102
RTVSPost2010Prop43
 90
        3
102
RTVSPost2010PropOp43
 70
     1
102
RTVSPost2010Prop44ColorIndex
 90
        5
102
RTVSPost2010Prop44ColorRGB
 90
      255
102
RTVSPost2010PropOp44
 70
     1
102
RTVSPost2010Prop45
280
     0
102
RTVSPost2010PropOp45
 70
     1
102
RTVSPost2010Prop46
 90
       50
102
RTVSPost2010PropOp46
 70
     1
102
RTVSPost2010Prop47
 90
       50
102
RTVSPost2010PropOp47
 70
     1
102
RTVSPost2010Prop48
 90
       50
102
RTVSPost2010PropOp48
 70
     1
102
RTVSPost2010Prop49
280
     0
102
RTVSPost2010PropOp49
 70
     1
102
RTVSPost2010Prop50
 90
       50
102
RTVSPost2010PropOp50
 70
     1
102
RTVSPost2010Prop51ColorIndex
 90
      256
102
RTVSPost2010Prop51ColorRGB
 90
-16777216
102
RTVSPost2010PropOp51
 70
     0
102
RTVSPost2010Prop52
140
1.0
102
RTVSPost2010PropOp52
 70
     0
102
RTVSPost2010Prop53
 90
        2
102
RTVSPost2010PropOp53
 70
     1
102
RTVSPost2010Prop54
  1
strokes_ogs.tif
102
RTVSPost2010PropOp54
 70
     1
102
RTVSPost2010Prop55
280
     0
102
RTVSPost2010PropOp55
 70
     1
102
RTVSPost2010Prop56
140
1.0
102
RTVSPost2010PropOp56
 70
     1
102
RTVSPost2010Prop57
140
1.0
102
RTVSPost2010PropOp57
 70
     1
102
RTVSPropertyOp0
 70
     0
102
RTVSPropertyOp1
 70
     0
102
RTVSPropertyOp2
 70
     0
102
RTVSPropertyOp3
 70
     0
102
RTVSPropertyOp4
 70
     0
102
RTVSPropertyOp5
 70
     0
102
RTVSPropertyOp6
 70
     0
102
RTVSPropertyOp7
 70
     0
102
RTVSPropertyOp8
 70
     0
102
RTVSPropertyOp9
 70
     0
102
RTVSPropertyOp10
 70
     0
102
RTVSPropertyOp11
 70
     0
102
RTVSPropertyOp12
 70
     0
102
RTVSPropertyOp13
 70
     0
102
RTVSPropertyOp14
 70
     2
102
RTVSPropertyOp15
 70
     0
102
RTVSPropertyOp16
 70
     0
102
RTVSPropertyOp17
 70
     0
102
RTVSPropertyOp18
 70
     0
102
RTVSPropertyOp19
 70
     0
102
RTVSPropertyOp20
 70
     0
102
RTVSPropertyOp21
 70
     0
102
RTVSPropertyOp22
 70
     0
102
RTVSPropertyOp23
 70
     0
102
RTVSPropertyOp24
 70
     0
102
RTVSPropertyOp25
 70
     0
102
RTVSPropertyOp26
 70
     0
102
RTVSPropertyOp27
 70
     0
102
RTVSPropertyOp28
 70
     1
102
RTVSPropertyOp29
 70
     1
102
RTVSPropertyOp30
 70
     1
102
RTVSPropertyOp31
 70
     1
102
RTVSPropertyOp32
 70
     1
102
RTVSPropertyOp33
 70
     1
102
RTVSPropertyOp34
 70
     1
102
RTVSPropertyOp35
 70
     1
102
RTVSPropertyOp36
 70
     1
102
RTVSPropertyOp37
 70
     1
102
RTVSPropertyOp38
 70
     1
102
RTVSPropertyOp39
 70
     1
102
RTVSPropertyOp40
 70
     1
102
RTVSPropertyOp41
 70
     1
102
RTVSPropertyOp42
 70
     1
102
RTVSPropertyOp43
 70
     1
102
RTVSPropertyOp44
 70
     1
102
RTVSPropertyOp45
 70
     1
102
RTVSPropertyOp46
 70
     1
102
RTVSPropertyOp47
 70
     1
102
RTVSPropertyOp48
 70
     1
102
RTVSPropertyOp49
 70
     1
102
RTVSPropertyOp50
 70
     1
102
RTVSPropertyOp51
 70
     0
102
RTVSPropertyOp52
 70
     0
102
RTVSPropertyOp53
 70
     1
102
RTVSPropertyOp54
 70
     1
102
RTVSPropertyOp55
 70
     1
102
RTVSPropertyOp56
 70
     1
102
RTVSPropertyOp57
 70
     1
102
RTVSPropertyOp58
 70
     1
102
RTVSPropertyOp59
 70
     1
102
RTVSPropertyOp60
 70
     1
102
RTVSPropertyOp61
 70
     1
102
RTVSPropertyOp62
 70
     1
  0
XRECORD
  5
185A
102
{ACAD_REACTORS
330
1859
102
}
330
1859
100
AcDbXrecord
280
     1
102
RTVSPost2010Prop28
280
     0
102
RTVSPost2010PropOp28
 70
     1
102
RTVSPost2010Prop29
280
     1
102
RTVSPost2010PropOp29
 70
     1
102
RTVSPost2010Prop30
280
     1
102
RTVSPost2010PropOp30
 70
     1
102
RTVSPost2010Prop31
280
     0
102
RTVSPost2010PropOp31
 70
     1
102
RTVSPost2010Prop32
280
     0
102
RTVSPost2010PropOp32
 70
     1
102
RTVSPost2010Prop33
280
     0
102
RTVSPost2010PropOp33
 70
     1
102
RTVSPost2010Prop34
280
     0
102
RTVSPost2010PropOp34
 70
     1
102
RTVSPost2010Prop35
280
     0
102
RTVSPost2010PropOp35
 70
     1
102
RTVSPost2010Prop36
280
     0
102
RTVSPost2010PropOp36
 70
     1
102
RTVSPost2010Prop37
 90
       50
102
RTVSPost2010PropOp37
 70
     1
102
RTVSPost2010Prop38
140
0.0
102
RTVSPost2010PropOp38
 70
     1
102
RTVSPost2010Prop39
140
1.0
102
RTVSPost2010PropOp39
 70
     1
102
RTVSPost2010Prop40
 90
        0
102
RTVSPost2010PropOp40
 70
     1
102
RTVSPost2010Prop41ColorIndex
 90
       18
102
RTVSPost2010Prop41ColorRGB
 90
        0
102
RTVSPost2010PropOp41
 70
     1
102
RTVSPost2010Prop42
 90
       50
102
RTVSPost2010PropOp42
 70
     1
102
RTVSPost2010Prop43
 90
        3
102
RTVSPost2010PropOp43
 70
     1
102
RTVSPost2010Prop44ColorIndex
 90
        5
102
RTVSPost2010Prop44ColorRGB
 90
      255
102
RTVSPost2010PropOp44
 70
     1
102
RTVSPost2010Prop45
280
     0
102
RTVSPost2010PropOp45
 70
     1
102
RTVSPost2010Prop46
 90
       50
102
RTVSPost2010PropOp46
 70
     1
102
RTVSPost2010Prop47
 90
       50
102
RTVSPost2010PropOp47
 70
     1
102
RTVSPost2010Prop48
 90
       50
102
RTVSPost2010PropOp48
 70
     1
102
RTVSPost2010Prop49
280
     0
102
RTVSPost2010PropOp49
 70
     1
102
RTVSPost2010Prop50
 90
       50
102
RTVSPost2010PropOp50
 70
     1
102
RTVSPost2010Prop51ColorIndex
 90
      256
102
RTVSPost2010Prop51ColorRGB
 90
-16777216
102
RTVSPost2010PropOp51
 70
     0
102
RTVSPost2010Prop52
140
1.0
102
RTVSPost2010PropOp52
 70
     0
102
RTVSPost2010Prop53
 90
        2
102
RTVSPost2010PropOp53
 70
     1
102
RTVSPost2010Prop54
  1
strokes_ogs.tif
102
RTVSPost2010PropOp54
 70
     1
102
RTVSPost2010Prop55
280
     0
102
RTVSPost2010PropOp55
 70
     1
102
RTVSPost2010Prop56
140
1.0
102
RTVSPost2010PropOp56
 70
     1
102
RTVSPost2010Prop57
140
1.0
102
RTVSPost2010PropOp57
 70
     1
102
RTVSPropertyOp0
 70
     1
102
RTVSPropertyOp1
 70
     1
102
RTVSPropertyOp2
 70
     1
102
RTVSPropertyOp3
 70
     1
102
RTVSPropertyOp4
 70
     1
102
RTVSPropertyOp5
 70
     1
102
RTVSPropertyOp6
 70
     1
102
RTVSPropertyOp7
 70
     1
102
RTVSPropertyOp8
 70
     1
102
RTVSPropertyOp9
 70
     1
102
RTVSPropertyOp10
 70
     1
102
RTVSPropertyOp11
 70
     1
102
RTVSPropertyOp12
 70
     1
102
RTVSPropertyOp13
 70
     1
102
RTVSPropertyOp14
 70
     1
102
RTVSPropertyOp15
 70
     1
102
RTVSPropertyOp16
 70
     1
102
RTVSPropertyOp17
 70
     1
102
RTVSPropertyOp18
 70
     1
102
RTVSPropertyOp19
 70
     1
102
RTVSPropertyOp20
 70
     1
102
RTVSPropertyOp21
 70
     1
102
RTVSPropertyOp22
 70
     1
102
RTVSPropertyOp23
 70
     1
102
RTVSPropertyOp24
 70
     1
102
RTVSPropertyOp25
 70
     1
102
RTVSPropertyOp26
 70
     1
102
RTVSPropertyOp27
 70
     1
102
RTVSPropertyOp28
 70
     1
102
RTVSPropertyOp29
 70
     1
102
RTVSPropertyOp30
 70
     1
102
RTVSPropertyOp31
 70
     1
102
RTVSPropertyOp32
 70
     1
102
RTVSPropertyOp33
 70
     1
102
RTVSPropertyOp34
 70
     1
102
RTVSPropertyOp35
 70
     1
102
RTVSPropertyOp36
 70
     1
102
RTVSPropertyOp37
 70
     1
102
RTVSPropertyOp38
 70
     1
102
RTVSPropertyOp39
 70
     1
102
RTVSPropertyOp40
 70
     1
102
RTVSPropertyOp41
 70
     1
102
RTVSPropertyOp42
 70
     1
102
RTVSPropertyOp43
 70
     1
102
RTVSPropertyOp44
 70
     1
102
RTVSPropertyOp45
 70
     1
102
RTVSPropertyOp46
 70
     1
102
RTVSPropertyOp47
 70
     1
102
RTVSPropertyOp48
 70
     1
102
RTVSPropertyOp49
 70
     1
102
RTVSPropertyOp50
 70
     1
102
RTVSPropertyOp51
 70
     0
102
RTVSPropertyOp52
 70
     0
102
RTVSPropertyOp53
 70
     1
102
RTVSPropertyOp54
 70
     1
102
RTVSPropertyOp55
 70
     1
102
RTVSPropertyOp56
 70
     1
102
RTVSPropertyOp57
 70
     1
102
RTVSPropertyOp58
 70
     1
102
RTVSPropertyOp59
 70
     1
102
RTVSPropertyOp60
 70
     1
102
RTVSPropertyOp61
 70
     1
102
RTVSPropertyOp62
 70
     1
  0
XRECORD
  5
1864
102
{ACAD_REACTORS
330
1863
102
}
330
1863
100
AcDbXrecord
280
     1
102
RTVSPost2010Prop28
280
     0
102
RTVSPost2010PropOp28
 70
     1
102
RTVSPost2010Prop29
280
     1
102
RTVSPost2010PropOp29
 70
     1
102
RTVSPost2010Prop30
280
     1
102
RTVSPost2010PropOp30
 70
     1
102
RTVSPost2010Prop31
280
     0
102
RTVSPost2010PropOp31
 70
     1
102
RTVSPost2010Prop32
280
     0
102
RTVSPost2010PropOp32
 70
     1
102
RTVSPost2010Prop33
280
     0
102
RTVSPost2010PropOp33
 70
     1
102
RTVSPost2010Prop34
280
     0
102
RTVSPost2010PropOp34
 70
     1
102
RTVSPost2010Prop35
280
     0
102
RTVSPost2010PropOp35
 70
     1
102
RTVSPost2010Prop36
280
     0
102
RTVSPost2010PropOp36
 70
     1
102
RTVSPost2010Prop37
 90
       50
102
RTVSPost2010PropOp37
 70
     1
102
RTVSPost2010Prop38
140
0.0
102
RTVSPost2010PropOp38
 70
     1
102
RTVSPost2010Prop39
140
1.0
102
RTVSPost2010PropOp39
 70
     1
102
RTVSPost2010Prop40
 90
        0
102
RTVSPost2010PropOp40
 70
     1
102
RTVSPost2010Prop41ColorIndex
 90
       18
102
RTVSPost2010Prop41ColorRGB
 90
        0
102
RTVSPost2010PropOp41
 70
     1
102
RTVSPost2010Prop42
 90
       50
102
RTVSPost2010PropOp42
 70
     1
102
RTVSPost2010Prop43
 90
        3
102
RTVSPost2010PropOp43
 70
     1
102
RTVSPost2010Prop44ColorIndex
 90
        5
102
RTVSPost2010Prop44ColorRGB
 90
      255
102
RTVSPost2010PropOp44
 70
     1
102
RTVSPost2010Prop45
280
     0
102
RTVSPost2010PropOp45
 70
     1
102
RTVSPost2010Prop46
 90
       50
102
RTVSPost2010PropOp46
 70
     1
102
RTVSPost2010Prop47
 90
       50
102
RTVSPost2010PropOp47
 70
     1
102
RTVSPost2010Prop48
 90
       50
102
RTVSPost2010PropOp48
 70
     1
102
RTVSPost2010Prop49
280
     0
102
RTVSPost2010PropOp49
 70
     1
102
RTVSPost2010Prop50
 90
       50
102
RTVSPost2010PropOp50
 70
     1
102
RTVSPost2010Prop51ColorIndex
 90
      256
102
RTVSPost2010Prop51ColorRGB
 90
-16777216
102
RTVSPost2010PropOp51
 70
     0
102
RTVSPost2010Prop52
140
1.0
102
RTVSPost2010PropOp52
 70
     0
102
RTVSPost2010Prop53
 90
        2
102
RTVSPost2010PropOp53
 70
     1
102
RTVSPost2010Prop54
  1
strokes_ogs.tif
102
RTVSPost2010PropOp54
 70
     1
102
RTVSPost2010Prop55
280
     0
102
RTVSPost2010PropOp55
 70
     1
102
RTVSPost2010Prop56
140
1.0
102
RTVSPost2010PropOp56
 70
     1
102
RTVSPost2010Prop57
140
1.0
102
RTVSPost2010PropOp57
 70
     1
102
RTVSPropertyOp0
 70
     0
102
RTVSPropertyOp1
 70
     0
102
RTVSPropertyOp2
 70
     0
102
RTVSPropertyOp3
 70
     0
102
RTVSPropertyOp4
 70
     0
102
RTVSPropertyOp5
 70
     0
102
RTVSPropertyOp6
 70
     0
102
RTVSPropertyOp7
 70
     0
102
RTVSPropertyOp8
 70
     0
102
RTVSPropertyOp9
 70
     0
102
RTVSPropertyOp10
 70
     0
102
RTVSPropertyOp11
 70
     0
102
RTVSPropertyOp12
 70
     0
102
RTVSPropertyOp13
 70
     0
102
RTVSPropertyOp14
 70
     2
102
RTVSPropertyOp15
 70
     0
102
RTVSPropertyOp16
 70
     0
102
RTVSPropertyOp17
 70
     0
102
RTVSPropertyOp18
 70
     0
102
RTVSPropertyOp19
 70
     0
102
RTVSPropertyOp20
 70
     0
102
RTVSPropertyOp21
 70
     0
102
RTVSPropertyOp22
 70
     0
102
RTVSPropertyOp23
 70
     0
102
RTVSPropertyOp24
 70
     0
102
RTVSPropertyOp25
 70
     0
102
RTVSPropertyOp26
 70
     0
102
RTVSPropertyOp27
 70
     0
102
RTVSPropertyOp28
 70
     1
102
RTVSPropertyOp29
 70
     1
102
RTVSPropertyOp30
 70
     1
102
RTVSPropertyOp31
 70
     1
102
RTVSPropertyOp32
 70
     1
102
RTVSPropertyOp33
 70
     1
102
RTVSPropertyOp34
 70
     1
102
RTVSPropertyOp35
 70
     1
102
RTVSPropertyOp36
 70
     1
102
RTVSPropertyOp37
 70
     1
102
RTVSPropertyOp38
 70
     1
102
RTVSPropertyOp39
 70
     1
102
RTVSPropertyOp40
 70
     1
102
RTVSPropertyOp41
 70
     1
102
RTVSPropertyOp42
 70
     1
102
RTVSPropertyOp43
 70
     1
102
RTVSPropertyOp44
 70
     1
102
RTVSPropertyOp45
 70
     1
102
RTVSPropertyOp46
 70
     1
102
RTVSPropertyOp47
 70
     1
102
RTVSPropertyOp48
 70
     1
102
RTVSPropertyOp49
 70
     1
102
RTVSPropertyOp50
 70
     1
102
RTVSPropertyOp51
 70
     0
102
RTVSPropertyOp52
 70
     0
102
RTVSPropertyOp53
 70
     1
102
RTVSPropertyOp54
 70
     1
102
RTVSPropertyOp55
 70
     1
102
RTVSPropertyOp56
 70
     1
102
RTVSPropertyOp57
 70
     1
102
RTVSPropertyOp58
 70
     1
102
RTVSPropertyOp59
 70
     1
102
RTVSPropertyOp60
 70
     1
102
RTVSPropertyOp61
 70
     1
102
RTVSPropertyOp62
 70
     1
  0
XRECORD
  5
1852
102
{ACAD_REACTORS
330
1851
102
}
330
1851
100
AcDbXrecord
280
     1
102
RTVSPost2010Prop28
280
     0
102
RTVSPost2010PropOp28
 70
     1
102
RTVSPost2010Prop29
280
     1
102
RTVSPost2010PropOp29
 70
     1
102
RTVSPost2010Prop30
280
     1
102
RTVSPost2010PropOp30
 70
     1
102
RTVSPost2010Prop31
280
     0
102
RTVSPost2010PropOp31
 70
     1
102
RTVSPost2010Prop32
280
     0
102
RTVSPost2010PropOp32
 70
     1
102
RTVSPost2010Prop33
280
     0
102
RTVSPost2010PropOp33
 70
     1
102
RTVSPost2010Prop34
280
     0
102
RTVSPost2010PropOp34
 70
     1
102
RTVSPost2010Prop35
280
     0
102
RTVSPost2010PropOp35
 70
     1
102
RTVSPost2010Prop36
280
     0
102
RTVSPost2010PropOp36
 70
     1
102
RTVSPost2010Prop37
 90
       50
102
RTVSPost2010PropOp37
 70
     1
102
RTVSPost2010Prop38
140
0.0
102
RTVSPost2010PropOp38
 70
     1
102
RTVSPost2010Prop39
140
1.0
102
RTVSPost2010PropOp39
 70
     1
102
RTVSPost2010Prop40
 90
        0
102
RTVSPost2010PropOp40
 70
     1
102
RTVSPost2010Prop41ColorIndex
 90
       18
102
RTVSPost2010Prop41ColorRGB
 90
        0
102
RTVSPost2010PropOp41
 70
     1
102
RTVSPost2010Prop42
 90
       50
102
RTVSPost2010PropOp42
 70
     1
102
RTVSPost2010Prop43
 90
        3
102
RTVSPost2010PropOp43
 70
     1
102
RTVSPost2010Prop44ColorIndex
 90
        5
102
RTVSPost2010Prop44ColorRGB
 90
      255
102
RTVSPost2010PropOp44
 70
     1
102
RTVSPost2010Prop45
280
     0
102
RTVSPost2010PropOp45
 70
     1
102
RTVSPost2010Prop46
 90
       50
102
RTVSPost2010PropOp46
 70
     1
102
RTVSPost2010Prop47
 90
       50
102
RTVSPost2010PropOp47
 70
     1
102
RTVSPost2010Prop48
 90
       50
102
RTVSPost2010PropOp48
 70
     1
102
RTVSPost2010Prop49
280
     0
102
RTVSPost2010PropOp49
 70
     1
102
RTVSPost2010Prop50
 90
       50
102
RTVSPost2010PropOp50
 70
     1
102
RTVSPost2010Prop51ColorIndex
 90
      256
102
RTVSPost2010Prop51ColorRGB
 90
-16777216
102
RTVSPost2010PropOp51
 70
     0
102
RTVSPost2010Prop52
140
1.0
102
RTVSPost2010PropOp52
 70
     0
102
RTVSPost2010Prop53
 90
        2
102
RTVSPost2010PropOp53
 70
     1
102
RTVSPost2010Prop54
  1
strokes_ogs.tif
102
RTVSPost2010PropOp54
 70
     1
102
RTVSPost2010Prop55
280
     0
102
RTVSPost2010PropOp55
 70
     1
102
RTVSPost2010Prop56
140
1.0
102
RTVSPost2010PropOp56
 70
     1
102
RTVSPost2010Prop57
140
1.0
102
RTVSPost2010PropOp57
 70
     1
102
RTVSPropertyOp0
 70
     1
102
RTVSPropertyOp1
 70
     1
102
RTVSPropertyOp2
 70
     1
102
RTVSPropertyOp3
 70
     1
102
RTVSPropertyOp4
 70
     1
102
RTVSPropertyOp5
 70
     1
102
RTVSPropertyOp6
 70
     1
102
RTVSPropertyOp7
 70
     1
102
RTVSPropertyOp8
 70
     1
102
RTVSPropertyOp9
 70
     1
102
RTVSPropertyOp10
 70
     1
102
RTVSPropertyOp11
 70
     1
102
RTVSPropertyOp12
 70
     1
102
RTVSPropertyOp13
 70
     1
102
RTVSPropertyOp14
 70
     1
102
RTVSPropertyOp15
 70
     1
102
RTVSPropertyOp16
 70
     1
102
RTVSPropertyOp17
 70
     1
102
RTVSPropertyOp18
 70
     1
102
RTVSPropertyOp19
 70
     1
102
RTVSPropertyOp20
 70
     1
102
RTVSPropertyOp21
 70
     1
102
RTVSPropertyOp22
 70
     1
102
RTVSPropertyOp23
 70
     1
102
RTVSPropertyOp24
 70
     1
102
RTVSPropertyOp25
 70
     1
102
RTVSPropertyOp26
 70
     1
102
RTVSPropertyOp27
 70
     1
102
RTVSPropertyOp28
 70
     1
102
RTVSPropertyOp29
 70
     1
102
RTVSPropertyOp30
 70
     1
102
RTVSPropertyOp31
 70
     1
102
RTVSPropertyOp32
 70
     1
102
RTVSPropertyOp33
 70
     1
102
RTVSPropertyOp34
 70
     1
102
RTVSPropertyOp35
 70
     1
102
RTVSPropertyOp36
 70
     1
102
RTVSPropertyOp37
 70
     1
102
RTVSPropertyOp38
 70
     1
102
RTVSPropertyOp39
 70
     1
102
RTVSPropertyOp40
 70
     1
102
RTVSPropertyOp41
 70
     1
102
RTVSPropertyOp42
 70
     1
102
RTVSPropertyOp43
 70
     1
102
RTVSPropertyOp44
 70
     1
102
RTVSPropertyOp45
 70
     1
102
RTVSPropertyOp46
 70
     1
102
RTVSPropertyOp47
 70
     1
102
RTVSPropertyOp48
 70
     1
102
RTVSPropertyOp49
 70
     1
102
RTVSPropertyOp50
 70
     1
102
RTVSPropertyOp51
 70
     0
102
RTVSPropertyOp52
 70
     0
102
RTVSPropertyOp53
 70
     1
102
RTVSPropertyOp54
 70
     1
102
RTVSPropertyOp55
 70
     1
102
RTVSPropertyOp56
 70
     1
102
RTVSPropertyOp57
 70
     1
102
RTVSPropertyOp58
 70
     1
102
RTVSPropertyOp59
 70
     1
102
RTVSPropertyOp60
 70
     1
102
RTVSPropertyOp61
 70
     1
102
RTVSPropertyOp62
 70
     1
  0
XRECORD
  5
1870
102
{ACAD_REACTORS
330
186F
102
}
330
186F
100
AcDbXrecord
280
     1
102
RTVSPost2010Prop28
280
     0
102
RTVSPost2010PropOp28
 70
     1
102
RTVSPost2010Prop29
280
     1
102
RTVSPost2010PropOp29
 70
     1
102
RTVSPost2010Prop30
280
     1
102
RTVSPost2010PropOp30
 70
     1
102
RTVSPost2010Prop31
280
     0
102
RTVSPost2010PropOp31
 70
     1
102
RTVSPost2010Prop32
280
     0
102
RTVSPost2010PropOp32
 70
     1
102
RTVSPost2010Prop33
280
     0
102
RTVSPost2010PropOp33
 70
     1
102
RTVSPost2010Prop34
280
     0
102
RTVSPost2010PropOp34
 70
     1
102
RTVSPost2010Prop35
280
     0
102
RTVSPost2010PropOp35
 70
     1
102
RTVSPost2010Prop36
280
     0
102
RTVSPost2010PropOp36
 70
     1
102
RTVSPost2010Prop37
 90
       50
102
RTVSPost2010PropOp37
 70
     1
102
RTVSPost2010Prop38
140
0.0
102
RTVSPost2010PropOp38
 70
     1
102
RTVSPost2010Prop39
140
1.0
102
RTVSPost2010PropOp39
 70
     1
102
RTVSPost2010Prop40
 90
        0
102
RTVSPost2010PropOp40
 70
     1
102
RTVSPost2010Prop41ColorIndex
 90
       18
102
RTVSPost2010Prop41ColorRGB
 90
        0
102
RTVSPost2010PropOp41
 70
     1
102
RTVSPost2010Prop42
 90
       50
102
RTVSPost2010PropOp42
 70
     1
102
RTVSPost2010Prop43
 90
        3
102
RTVSPost2010PropOp43
 70
     1
102
RTVSPost2010Prop44ColorIndex
 90
        5
102
RTVSPost2010Prop44ColorRGB
 90
      255
102
RTVSPost2010PropOp44
 70
     1
102
RTVSPost2010Prop45
280
     0
102
RTVSPost2010PropOp45
 70
     1
102
RTVSPost2010Prop46
 90
       50
102
RTVSPost2010PropOp46
 70
     1
102
RTVSPost2010Prop47
 90
       50
102
RTVSPost2010PropOp47
 70
     1
102
RTVSPost2010Prop48
 90
       50
102
RTVSPost2010PropOp48
 70
     1
102
RTVSPost2010Prop49
280
     0
102
RTVSPost2010PropOp49
 70
     1
102
RTVSPost2010Prop50
 90
       50
102
RTVSPost2010PropOp50
 70
     1
102
RTVSPost2010Prop51ColorIndex
 90
      256
102
RTVSPost2010Prop51ColorRGB
 90
-16777216
102
RTVSPost2010PropOp51
 70
     0
102
RTVSPost2010Prop52
140
1.0
102
RTVSPost2010PropOp52
 70
     0
102
RTVSPost2010Prop53
 90
        2
102
RTVSPost2010PropOp53
 70
     1
102
RTVSPost2010Prop54
  1
strokes_ogs.tif
102
RTVSPost2010PropOp54
 70
     1
102
RTVSPost2010Prop55
280
     0
102
RTVSPost2010PropOp55
 70
     1
102
RTVSPost2010Prop56
140
1.0
102
RTVSPost2010PropOp56
 70
     1
102
RTVSPost2010Prop57
140
1.0
102
RTVSPost2010PropOp57
 70
     1
102
RTVSPropertyOp0
 70
     1
102
RTVSPropertyOp1
 70
     1
102
RTVSPropertyOp2
 70
     1
102
RTVSPropertyOp3
 70
     1
102
RTVSPropertyOp4
 70
     1
102
RTVSPropertyOp5
 70
     1
102
RTVSPropertyOp6
 70
     1
102
RTVSPropertyOp7
 70
     1
102
RTVSPropertyOp8
 70
     1
102
RTVSPropertyOp9
 70
     1
102
RTVSPropertyOp10
 70
     1
102
RTVSPropertyOp11
 70
     1
102
RTVSPropertyOp12
 70
     1
102
RTVSPropertyOp13
 70
     1
102
RTVSPropertyOp14
 70
     1
102
RTVSPropertyOp15
 70
     1
102
RTVSPropertyOp16
 70
     1
102
RTVSPropertyOp17
 70
     1
102
RTVSPropertyOp18
 70
     1
102
RTVSPropertyOp19
 70
     1
102
RTVSPropertyOp20
 70
     1
102
RTVSPropertyOp21
 70
     1
102
RTVSPropertyOp22
 70
     1
102
RTVSPropertyOp23
 70
     1
102
RTVSPropertyOp24
 70
     1
102
RTVSPropertyOp25
 70
     1
102
RTVSPropertyOp26
 70
     1
102
RTVSPropertyOp27
 70
     1
102
RTVSPropertyOp28
 70
     1
102
RTVSPropertyOp29
 70
     1
102
RTVSPropertyOp30
 70
     1
102
RTVSPropertyOp31
 70
     1
102
RTVSPropertyOp32
 70
     1
102
RTVSPropertyOp33
 70
     1
102
RTVSPropertyOp34
 70
     1
102
RTVSPropertyOp35
 70
     1
102
RTVSPropertyOp36
 70
     1
102
RTVSPropertyOp37
 70
     1
102
RTVSPropertyOp38
 70
     1
102
RTVSPropertyOp39
 70
     1
102
RTVSPropertyOp40
 70
     1
102
RTVSPropertyOp41
 70
     1
102
RTVSPropertyOp42
 70
     1
102
RTVSPropertyOp43
 70
     1
102
RTVSPropertyOp44
 70
     1
102
RTVSPropertyOp45
 70
     1
102
RTVSPropertyOp46
 70
     1
102
RTVSPropertyOp47
 70
     1
102
RTVSPropertyOp48
 70
     1
102
RTVSPropertyOp49
 70
     1
102
RTVSPropertyOp50
 70
     1
102
RTVSPropertyOp51
 70
     0
102
RTVSPropertyOp52
 70
     0
102
RTVSPropertyOp53
 70
     1
102
RTVSPropertyOp54
 70
     1
102
RTVSPropertyOp55
 70
     1
102
RTVSPropertyOp56
 70
     1
102
RTVSPropertyOp57
 70
     1
102
RTVSPropertyOp58
 70
     1
102
RTVSPropertyOp59
 70
     1
102
RTVSPropertyOp60
 70
     1
102
RTVSPropertyOp61
 70
     1
102
RTVSPropertyOp62
 70
     1
  0
XRECORD
  5
186E
102
{ACAD_REACTORS
330
186D
102
}
330
186D
100
AcDbXrecord
280
     1
102
RTVSPost2010Prop28
280
     0
102
RTVSPost2010PropOp28
 70
     1
102
RTVSPost2010Prop29
280
     1
102
RTVSPost2010PropOp29
 70
     1
102
RTVSPost2010Prop30
280
     1
102
RTVSPost2010PropOp30
 70
     1
102
RTVSPost2010Prop31
280
     0
102
RTVSPost2010PropOp31
 70
     1
102
RTVSPost2010Prop32
280
     0
102
RTVSPost2010PropOp32
 70
     1
102
RTVSPost2010Prop33
280
     0
102
RTVSPost2010PropOp33
 70
     1
102
RTVSPost2010Prop34
280
     0
102
RTVSPost2010PropOp34
 70
     1
102
RTVSPost2010Prop35
280
     0
102
RTVSPost2010PropOp35
 70
     1
102
RTVSPost2010Prop36
280
     0
102
RTVSPost2010PropOp36
 70
     1
102
RTVSPost2010Prop37
 90
       50
102
RTVSPost2010PropOp37
 70
     1
102
RTVSPost2010Prop38
140
0.0
102
RTVSPost2010PropOp38
 70
     1
102
RTVSPost2010Prop39
140
1.0
102
RTVSPost2010PropOp39
 70
     1
102
RTVSPost2010Prop40
 90
        0
102
RTVSPost2010PropOp40
 70
     1
102
RTVSPost2010Prop41ColorIndex
 90
       18
102
RTVSPost2010Prop41ColorRGB
 90
        0
102
RTVSPost2010PropOp41
 70
     1
102
RTVSPost2010Prop42
 90
       50
102
RTVSPost2010PropOp42
 70
     1
102
RTVSPost2010Prop43
 90
        3
102
RTVSPost2010PropOp43
 70
     1
102
RTVSPost2010Prop44ColorIndex
 90
        5
102
RTVSPost2010Prop44ColorRGB
 90
      255
102
RTVSPost2010PropOp44
 70
     1
102
RTVSPost2010Prop45
280
     0
102
RTVSPost2010PropOp45
 70
     1
102
RTVSPost2010Prop46
 90
       50
102
RTVSPost2010PropOp46
 70
     1
102
RTVSPost2010Prop47
 90
       50
102
RTVSPost2010PropOp47
 70
     1
102
RTVSPost2010Prop48
 90
       50
102
RTVSPost2010PropOp48
 70
     1
102
RTVSPost2010Prop49
280
     0
102
RTVSPost2010PropOp49
 70
     1
102
RTVSPost2010Prop50
 90
       50
102
RTVSPost2010PropOp50
 70
     1
102
RTVSPost2010Prop51ColorIndex
 90
      256
102
RTVSPost2010Prop51ColorRGB
 90
-16777216
102
RTVSPost2010PropOp51
 70
     0
102
RTVSPost2010Prop52
140
1.0
102
RTVSPost2010PropOp52
 70
     0
102
RTVSPost2010Prop53
 90
        2
102
RTVSPost2010PropOp53
 70
     1
102
RTVSPost2010Prop54
  1
strokes_ogs.tif
102
RTVSPost2010PropOp54
 70
     1
102
RTVSPost2010Prop55
280
     0
102
RTVSPost2010PropOp55
 70
     1
102
RTVSPost2010Prop56
140
1.0
102
RTVSPost2010PropOp56
 70
     1
102
RTVSPost2010Prop57
140
1.0
102
RTVSPost2010PropOp57
 70
     1
102
RTVSPropertyOp0
 70
     1
102
RTVSPropertyOp1
 70
     1
102
RTVSPropertyOp2
 70
     1
102
RTVSPropertyOp3
 70
     1
102
RTVSPropertyOp4
 70
     1
102
RTVSPropertyOp5
 70
     1
102
RTVSPropertyOp6
 70
     1
102
RTVSPropertyOp7
 70
     1
102
RTVSPropertyOp8
 70
     1
102
RTVSPropertyOp9
 70
     1
102
RTVSPropertyOp10
 70
     1
102
RTVSPropertyOp11
 70
     1
102
RTVSPropertyOp12
 70
     1
102
RTVSPropertyOp13
 70
     1
102
RTVSPropertyOp14
 70
     1
102
RTVSPropertyOp15
 70
     1
102
RTVSPropertyOp16
 70
     1
102
RTVSPropertyOp17
 70
     1
102
RTVSPropertyOp18
 70
     1
102
RTVSPropertyOp19
 70
     1
102
RTVSPropertyOp20
 70
     1
102
RTVSPropertyOp21
 70
     1
102
RTVSPropertyOp22
 70
     1
102
RTVSPropertyOp23
 70
     1
102
RTVSPropertyOp24
 70
     1
102
RTVSPropertyOp25
 70
     1
102
RTVSPropertyOp26
 70
     1
102
RTVSPropertyOp27
 70
     1
102
RTVSPropertyOp28
 70
     1
102
RTVSPropertyOp29
 70
     1
102
RTVSPropertyOp30
 70
     1
102
RTVSPropertyOp31
 70
     1
102
RTVSPropertyOp32
 70
     1
102
RTVSPropertyOp33
 70
     1
102
RTVSPropertyOp34
 70
     1
102
RTVSPropertyOp35
 70
     1
102
RTVSPropertyOp36
 70
     1
102
RTVSPropertyOp37
 70
     1
102
RTVSPropertyOp38
 70
     1
102
RTVSPropertyOp39
 70
     1
102
RTVSPropertyOp40
 70
     1
102
RTVSPropertyOp41
 70
     1
102
RTVSPropertyOp42
 70
     1
102
RTVSPropertyOp43
 70
     1
102
RTVSPropertyOp44
 70
     1
102
RTVSPropertyOp45
 70
     1
102
RTVSPropertyOp46
 70
     1
102
RTVSPropertyOp47
 70
     1
102
RTVSPropertyOp48
 70
     1
102
RTVSPropertyOp49
 70
     1
102
RTVSPropertyOp50
 70
     1
102
RTVSPropertyOp51
 70
     0
102
RTVSPropertyOp52
 70
     0
102
RTVSPropertyOp53
 70
     1
102
RTVSPropertyOp54
 70
     1
102
RTVSPropertyOp55
 70
     1
102
RTVSPropertyOp56
 70
     1
102
RTVSPropertyOp57
 70
     1
102
RTVSPropertyOp58
 70
     1
102
RTVSPropertyOp59
 70
     1
102
RTVSPropertyOp60
 70
     1
102
RTVSPropertyOp61
 70
     1
102
RTVSPropertyOp62
 70
     1
  0
XRECORD
  5
1868
102
{ACAD_REACTORS
330
1867
102
}
330
1867
100
AcDbXrecord
280
     1
102
RTVSPost2010Prop28
280
     0
102
RTVSPost2010PropOp28
 70
     1
102
RTVSPost2010Prop29
280
     1
102
RTVSPost2010PropOp29
 70
     1
102
RTVSPost2010Prop30
280
     1
102
RTVSPost2010PropOp30
 70
     1
102
RTVSPost2010Prop31
280
     0
102
RTVSPost2010PropOp31
 70
     1
102
RTVSPost2010Prop32
280
     0
102
RTVSPost2010PropOp32
 70
     1
102
RTVSPost2010Prop33
280
     0
102
RTVSPost2010PropOp33
 70
     1
102
RTVSPost2010Prop34
280
     0
102
RTVSPost2010PropOp34
 70
     1
102
RTVSPost2010Prop35
280
     0
102
RTVSPost2010PropOp35
 70
     1
102
RTVSPost2010Prop36
280
     0
102
RTVSPost2010PropOp36
 70
     1
102
RTVSPost2010Prop37
 90
       50
102
RTVSPost2010PropOp37
 70
     1
102
RTVSPost2010Prop38
140
0.0
102
RTVSPost2010PropOp38
 70
     1
102
RTVSPost2010Prop39
140
1.0
102
RTVSPost2010PropOp39
 70
     1
102
RTVSPost2010Prop40
 90
        0
102
RTVSPost2010PropOp40
 70
     1
102
RTVSPost2010Prop41ColorIndex
 90
       18
102
RTVSPost2010Prop41ColorRGB
 90
        0
102
RTVSPost2010PropOp41
 70
     1
102
RTVSPost2010Prop42
 90
       50
102
RTVSPost2010PropOp42
 70
     1
102
RTVSPost2010Prop43
 90
        3
102
RTVSPost2010PropOp43
 70
     1
102
RTVSPost2010Prop44ColorIndex
 90
        5
102
RTVSPost2010Prop44ColorRGB
 90
      255
102
RTVSPost2010PropOp44
 70
     1
102
RTVSPost2010Prop45
280
     0
102
RTVSPost2010PropOp45
 70
     1
102
RTVSPost2010Prop46
 90
       50
102
RTVSPost2010PropOp46
 70
     1
102
RTVSPost2010Prop47
 90
       50
102
RTVSPost2010PropOp47
 70
     1
102
RTVSPost2010Prop48
 90
       50
102
RTVSPost2010PropOp48
 70
     1
102
RTVSPost2010Prop49
280
     0
102
RTVSPost2010PropOp49
 70
     1
102
RTVSPost2010Prop50
 90
       50
102
RTVSPost2010PropOp50
 70
     1
102
RTVSPost2010Prop51ColorIndex
 90
      256
102
RTVSPost2010Prop51ColorRGB
 90
-16777216
102
RTVSPost2010PropOp51
 70
     0
102
RTVSPost2010Prop52
140
1.0
102
RTVSPost2010PropOp52
 70
     0
102
RTVSPost2010Prop53
 90
        2
102
RTVSPost2010PropOp53
 70
     1
102
RTVSPost2010Prop54
  1
strokes_ogs.tif
102
RTVSPost2010PropOp54
 70
     1
102
RTVSPost2010Prop55
280
     0
102
RTVSPost2010PropOp55
 70
     1
102
RTVSPost2010Prop56
140
1.0
102
RTVSPost2010PropOp56
 70
     1
102
RTVSPost2010Prop57
140
1.0
102
RTVSPost2010PropOp57
 70
     1
102
RTVSPropertyOp0
 70
     1
102
RTVSPropertyOp1
 70
     1
102
RTVSPropertyOp2
 70
     1
102
RTVSPropertyOp3
 70
     1
102
RTVSPropertyOp4
 70
     1
102
RTVSPropertyOp5
 70
     1
102
RTVSPropertyOp6
 70
     1
102
RTVSPropertyOp7
 70
     1
102
RTVSPropertyOp8
 70
     1
102
RTVSPropertyOp9
 70
     1
102
RTVSPropertyOp10
 70
     1
102
RTVSPropertyOp11
 70
     1
102
RTVSPropertyOp12
 70
     1
102
RTVSPropertyOp13
 70
     1
102
RTVSPropertyOp14
 70
     1
102
RTVSPropertyOp15
 70
     1
102
RTVSPropertyOp16
 70
     1
102
RTVSPropertyOp17
 70
     1
102
RTVSPropertyOp18
 70
     1
102
RTVSPropertyOp19
 70
     1
102
RTVSPropertyOp20
 70
     1
102
RTVSPropertyOp21
 70
     1
102
RTVSPropertyOp22
 70
     1
102
RTVSPropertyOp23
 70
     1
102
RTVSPropertyOp24
 70
     1
102
RTVSPropertyOp25
 70
     1
102
RTVSPropertyOp26
 70
     1
102
RTVSPropertyOp27
 70
     1
102
RTVSPropertyOp28
 70
     1
102
RTVSPropertyOp29
 70
     1
102
RTVSPropertyOp30
 70
     1
102
RTVSPropertyOp31
 70
     1
102
RTVSPropertyOp32
 70
     1
102
RTVSPropertyOp33
 70
     1
102
RTVSPropertyOp34
 70
     1
102
RTVSPropertyOp35
 70
     1
102
RTVSPropertyOp36
 70
     1
102
RTVSPropertyOp37
 70
     1
102
RTVSPropertyOp38
 70
     1
102
RTVSPropertyOp39
 70
     1
102
RTVSPropertyOp40
 70
     1
102
RTVSPropertyOp41
 70
     1
102
RTVSPropertyOp42
 70
     1
102
RTVSPropertyOp43
 70
     1
102
RTVSPropertyOp44
 70
     1
102
RTVSPropertyOp45
 70
     1
102
RTVSPropertyOp46
 70
     1
102
RTVSPropertyOp47
 70
     1
102
RTVSPropertyOp48
 70
     1
102
RTVSPropertyOp49
 70
     1
102
RTVSPropertyOp50
 70
     1
102
RTVSPropertyOp51
 70
     0
102
RTVSPropertyOp52
 70
     0
102
RTVSPropertyOp53
 70
     1
102
RTVSPropertyOp54
 70
     1
102
RTVSPropertyOp55
 70
     1
102
RTVSPropertyOp56
 70
     1
102
RTVSPropertyOp57
 70
     1
102
RTVSPropertyOp58
 70
     1
102
RTVSPropertyOp59
 70
     1
102
RTVSPropertyOp60
 70
     1
102
RTVSPropertyOp61
 70
     1
102
RTVSPropertyOp62
 70
     1
  0
XRECORD
  5
186A
102
{ACAD_REACTORS
330
1869
102
}
330
1869
100
AcDbXrecord
280
     1
102
RTVSPost2010Prop28
280
     0
102
RTVSPost2010PropOp28
 70
     1
102
RTVSPost2010Prop29
280
     1
102
RTVSPost2010PropOp29
 70
     1
102
RTVSPost2010Prop30
280
     1
102
RTVSPost2010PropOp30
 70
     1
102
RTVSPost2010Prop31
280
     0
102
RTVSPost2010PropOp31
 70
     1
102
RTVSPost2010Prop32
280
     0
102
RTVSPost2010PropOp32
 70
     1
102
RTVSPost2010Prop33
280
     0
102
RTVSPost2010PropOp33
 70
     1
102
RTVSPost2010Prop34
280
     0
102
RTVSPost2010PropOp34
 70
     1
102
RTVSPost2010Prop35
280
     0
102
RTVSPost2010PropOp35
 70
     1
102
RTVSPost2010Prop36
280
     0
102
RTVSPost2010PropOp36
 70
     1
102
RTVSPost2010Prop37
 90
       50
102
RTVSPost2010PropOp37
 70
     1
102
RTVSPost2010Prop38
140
0.0
102
RTVSPost2010PropOp38
 70
     1
102
RTVSPost2010Prop39
140
1.0
102
RTVSPost2010PropOp39
 70
     1
102
RTVSPost2010Prop40
 90
        0
102
RTVSPost2010PropOp40
 70
     1
102
RTVSPost2010Prop41ColorIndex
 90
       18
102
RTVSPost2010Prop41ColorRGB
 90
        0
102
RTVSPost2010PropOp41
 70
     1
102
RTVSPost2010Prop42
 90
       50
102
RTVSPost2010PropOp42
 70
     1
102
RTVSPost2010Prop43
 90
        3
102
RTVSPost2010PropOp43
 70
     1
102
RTVSPost2010Prop44ColorIndex
 90
        5
102
RTVSPost2010Prop44ColorRGB
 90
      255
102
RTVSPost2010PropOp44
 70
     1
102
RTVSPost2010Prop45
280
     0
102
RTVSPost2010PropOp45
 70
     1
102
RTVSPost2010Prop46
 90
       50
102
RTVSPost2010PropOp46
 70
     1
102
RTVSPost2010Prop47
 90
       50
102
RTVSPost2010PropOp47
 70
     1
102
RTVSPost2010Prop48
 90
       50
102
RTVSPost2010PropOp48
 70
     1
102
RTVSPost2010Prop49
280
     0
102
RTVSPost2010PropOp49
 70
     1
102
RTVSPost2010Prop50
 90
       50
102
RTVSPost2010PropOp50
 70
     1
102
RTVSPost2010Prop51ColorIndex
 90
      256
102
RTVSPost2010Prop51ColorRGB
 90
-16777216
102
RTVSPost2010PropOp51
 70
     0
102
RTVSPost2010Prop52
140
1.0
102
RTVSPost2010PropOp52
 70
     0
102
RTVSPost2010Prop53
 90
        2
102
RTVSPost2010PropOp53
 70
     1
102
RTVSPost2010Prop54
  1
strokes_ogs.tif
102
RTVSPost2010PropOp54
 70
     1
102
RTVSPost2010Prop55
280
     0
102
RTVSPost2010PropOp55
 70
     1
102
RTVSPost2010Prop56
140
1.0
102
RTVSPost2010PropOp56
 70
     1
102
RTVSPost2010Prop57
140
1.0
102
RTVSPost2010PropOp57
 70
     1
102
RTVSPropertyOp0
 70
     1
102
RTVSPropertyOp1
 70
     1
102
RTVSPropertyOp2
 70
     1
102
RTVSPropertyOp3
 70
     1
102
RTVSPropertyOp4
 70
     1
102
RTVSPropertyOp5
 70
     1
102
RTVSPropertyOp6
 70
     1
102
RTVSPropertyOp7
 70
     1
102
RTVSPropertyOp8
 70
     1
102
RTVSPropertyOp9
 70
     1
102
RTVSPropertyOp10
 70
     1
102
RTVSPropertyOp11
 70
     1
102
RTVSPropertyOp12
 70
     1
102
RTVSPropertyOp13
 70
     1
102
RTVSPropertyOp14
 70
     1
102
RTVSPropertyOp15
 70
     1
102
RTVSPropertyOp16
 70
     1
102
RTVSPropertyOp17
 70
     1
102
RTVSPropertyOp18
 70
     1
102
RTVSPropertyOp19
 70
     1
102
RTVSPropertyOp20
 70
     1
102
RTVSPropertyOp21
 70
     1
102
RTVSPropertyOp22
 70
     1
102
RTVSPropertyOp23
 70
     1
102
RTVSPropertyOp24
 70
     1
102
RTVSPropertyOp25
 70
     1
102
RTVSPropertyOp26
 70
     1
102
RTVSPropertyOp27
 70
     1
102
RTVSPropertyOp28
 70
     1
102
RTVSPropertyOp29
 70
     1
102
RTVSPropertyOp30
 70
     1
102
RTVSPropertyOp31
 70
     1
102
RTVSPropertyOp32
 70
     1
102
RTVSPropertyOp33
 70
     1
102
RTVSPropertyOp34
 70
     1
102
RTVSPropertyOp35
 70
     1
102
RTVSPropertyOp36
 70
     1
102
RTVSPropertyOp37
 70
     1
102
RTVSPropertyOp38
 70
     1
102
RTVSPropertyOp39
 70
     1
102
RTVSPropertyOp40
 70
     1
102
RTVSPropertyOp41
 70
     1
102
RTVSPropertyOp42
 70
     1
102
RTVSPropertyOp43
 70
     1
102
RTVSPropertyOp44
 70
     1
102
RTVSPropertyOp45
 70
     1
102
RTVSPropertyOp46
 70
     1
102
RTVSPropertyOp47
 70
     1
102
RTVSPropertyOp48
 70
     1
102
RTVSPropertyOp49
 70
     1
102
RTVSPropertyOp50
 70
     1
102
RTVSPropertyOp51
 70
     0
102
RTVSPropertyOp52
 70
     0
102
RTVSPropertyOp53
 70
     1
102
RTVSPropertyOp54
 70
     1
102
RTVSPropertyOp55
 70
     1
102
RTVSPropertyOp56
 70
     1
102
RTVSPropertyOp57
 70
     1
102
RTVSPropertyOp58
 70
     1
102
RTVSPropertyOp59
 70
     1
102
RTVSPropertyOp60
 70
     1
102
RTVSPropertyOp61
 70
     1
102
RTVSPropertyOp62
 70
     1
  0
XRECORD
  5
1858
102
{ACAD_REACTORS
330
1857
102
}
330
1857
100
AcDbXrecord
280
     1
102
RTVSPost2010Prop28
280
     0
102
RTVSPost2010PropOp28
 70
     1
102
RTVSPost2010Prop29
280
     1
102
RTVSPost2010PropOp29
 70
     1
102
RTVSPost2010Prop30
280
     1
102
RTVSPost2010PropOp30
 70
     1
102
RTVSPost2010Prop31
280
     0
102
RTVSPost2010PropOp31
 70
     1
102
RTVSPost2010Prop32
280
     0
102
RTVSPost2010PropOp32
 70
     1
102
RTVSPost2010Prop33
280
     0
102
RTVSPost2010PropOp33
 70
     1
102
RTVSPost2010Prop34
280
     0
102
RTVSPost2010PropOp34
 70
     1
102
RTVSPost2010Prop35
280
     0
102
RTVSPost2010PropOp35
 70
     1
102
RTVSPost2010Prop36
280
     0
102
RTVSPost2010PropOp36
 70
     1
102
RTVSPost2010Prop37
 90
       50
102
RTVSPost2010PropOp37
 70
     1
102
RTVSPost2010Prop38
140
0.0
102
RTVSPost2010PropOp38
 70
     1
102
RTVSPost2010Prop39
140
1.0
102
RTVSPost2010PropOp39
 70
     1
102
RTVSPost2010Prop40
 90
        0
102
RTVSPost2010PropOp40
 70
     1
102
RTVSPost2010Prop41ColorIndex
 90
       18
102
RTVSPost2010Prop41ColorRGB
 90
        0
102
RTVSPost2010PropOp41
 70
     1
102
RTVSPost2010Prop42
 90
       50
102
RTVSPost2010PropOp42
 70
     1
102
RTVSPost2010Prop43
 90
        3
102
RTVSPost2010PropOp43
 70
     1
102
RTVSPost2010Prop44ColorIndex
 90
        5
102
RTVSPost2010Prop44ColorRGB
 90
      255
102
RTVSPost2010PropOp44
 70
     1
102
RTVSPost2010Prop45
280
     0
102
RTVSPost2010PropOp45
 70
     1
102
RTVSPost2010Prop46
 90
       50
102
RTVSPost2010PropOp46
 70
     1
102
RTVSPost2010Prop47
 90
       50
102
RTVSPost2010PropOp47
 70
     1
102
RTVSPost2010Prop48
 90
       50
102
RTVSPost2010PropOp48
 70
     1
102
RTVSPost2010Prop49
280
     0
102
RTVSPost2010PropOp49
 70
     1
102
RTVSPost2010Prop50
 90
       50
102
RTVSPost2010PropOp50
 70
     1
102
RTVSPost2010Prop51ColorIndex
 90
      256
102
RTVSPost2010Prop51ColorRGB
 90
-16777216
102
RTVSPost2010PropOp51
 70
     0
102
RTVSPost2010Prop52
140
1.0
102
RTVSPost2010PropOp52
 70
     0
102
RTVSPost2010Prop53
 90
        2
102
RTVSPost2010PropOp53
 70
     1
102
RTVSPost2010Prop54
  1
strokes_ogs.tif
102
RTVSPost2010PropOp54
 70
     1
102
RTVSPost2010Prop55
280
     0
102
RTVSPost2010PropOp55
 70
     1
102
RTVSPost2010Prop56
140
1.0
102
RTVSPost2010PropOp56
 70
     1
102
RTVSPost2010Prop57
140
1.0
102
RTVSPost2010PropOp57
 70
     1
102
RTVSPropertyOp0
 70
     1
102
RTVSPropertyOp1
 70
     1
102
RTVSPropertyOp2
 70
     1
102
RTVSPropertyOp3
 70
     1
102
RTVSPropertyOp4
 70
     1
102
RTVSPropertyOp5
 70
     1
102
RTVSPropertyOp6
 70
     1
102
RTVSPropertyOp7
 70
     1
102
RTVSPropertyOp8
 70
     1
102
RTVSPropertyOp9
 70
     1
102
RTVSPropertyOp10
 70
     1
102
RTVSPropertyOp11
 70
     1
102
RTVSPropertyOp12
 70
     1
102
RTVSPropertyOp13
 70
     1
102
RTVSPropertyOp14
 70
     1
102
RTVSPropertyOp15
 70
     1
102
RTVSPropertyOp16
 70
     1
102
RTVSPropertyOp17
 70
     1
102
RTVSPropertyOp18
 70
     1
102
RTVSPropertyOp19
 70
     1
102
RTVSPropertyOp20
 70
     1
102
RTVSPropertyOp21
 70
     1
102
RTVSPropertyOp22
 70
     1
102
RTVSPropertyOp23
 70
     1
102
RTVSPropertyOp24
 70
     1
102
RTVSPropertyOp25
 70
     1
102
RTVSPropertyOp26
 70
     1
102
RTVSPropertyOp27
 70
     1
102
RTVSPropertyOp28
 70
     1
102
RTVSPropertyOp29
 70
     1
102
RTVSPropertyOp30
 70
     1
102
RTVSPropertyOp31
 70
     1
102
RTVSPropertyOp32
 70
     1
102
RTVSPropertyOp33
 70
     1
102
RTVSPropertyOp34
 70
     1
102
RTVSPropertyOp35
 70
     1
102
RTVSPropertyOp36
 70
     1
102
RTVSPropertyOp37
 70
     1
102
RTVSPropertyOp38
 70
     1
102
RTVSPropertyOp39
 70
     1
102
RTVSPropertyOp40
 70
     1
102
RTVSPropertyOp41
 70
     1
102
RTVSPropertyOp42
 70
     1
102
RTVSPropertyOp43
 70
     1
102
RTVSPropertyOp44
 70
     1
102
RTVSPropertyOp45
 70
     1
102
RTVSPropertyOp46
 70
     1
102
RTVSPropertyOp47
 70
     1
102
RTVSPropertyOp48
 70
     1
102
RTVSPropertyOp49
 70
     1
102
RTVSPropertyOp50
 70
     1
102
RTVSPropertyOp51
 70
     0
102
RTVSPropertyOp52
 70
     0
102
RTVSPropertyOp53
 70
     1
102
RTVSPropertyOp54
 70
     1
102
RTVSPropertyOp55
 70
     1
102
RTVSPropertyOp56
 70
     1
102
RTVSPropertyOp57
 70
     1
102
RTVSPropertyOp58
 70
     1
102
RTVSPropertyOp59
 70
     1
102
RTVSPropertyOp60
 70
     1
102
RTVSPropertyOp61
 70
     1
102
RTVSPropertyOp62
 70
     1
  0
XRECORD
  5
184C
102
{ACAD_REACTORS
330
184B
102
}
330
184B
100
AcDbXrecord
280
     1
102
RTVSPost2010Prop28
280
     0
102
RTVSPost2010PropOp28
 70
     1
102
RTVSPost2010Prop29
280
     1
102
RTVSPost2010PropOp29
 70
     1
102
RTVSPost2010Prop30
280
     1
102
RTVSPost2010PropOp30
 70
     1
102
RTVSPost2010Prop31
280
     0
102
RTVSPost2010PropOp31
 70
     1
102
RTVSPost2010Prop32
280
     0
102
RTVSPost2010PropOp32
 70
     1
102
RTVSPost2010Prop33
280
     0
102
RTVSPost2010PropOp33
 70
     1
102
RTVSPost2010Prop34
280
     0
102
RTVSPost2010PropOp34
 70
     1
102
RTVSPost2010Prop35
280
     0
102
RTVSPost2010PropOp35
 70
     1
102
RTVSPost2010Prop36
280
     0
102
RTVSPost2010PropOp36
 70
     1
102
RTVSPost2010Prop37
 90
       50
102
RTVSPost2010PropOp37
 70
     1
102
RTVSPost2010Prop38
140
0.0
102
RTVSPost2010PropOp38
 70
     1
102
RTVSPost2010Prop39
140
1.0
102
RTVSPost2010PropOp39
 70
     1
102
RTVSPost2010Prop40
 90
        0
102
RTVSPost2010PropOp40
 70
     1
102
RTVSPost2010Prop41ColorIndex
 90
       18
102
RTVSPost2010Prop41ColorRGB
 90
        0
102
RTVSPost2010PropOp41
 70
     1
102
RTVSPost2010Prop42
 90
       50
102
RTVSPost2010PropOp42
 70
     1
102
RTVSPost2010Prop43
 90
        3
102
RTVSPost2010PropOp43
 70
     1
102
RTVSPost2010Prop44ColorIndex
 90
        5
102
RTVSPost2010Prop44ColorRGB
 90
      255
102
RTVSPost2010PropOp44
 70
     1
102
RTVSPost2010Prop45
280
     0
102
RTVSPost2010PropOp45
 70
     1
102
RTVSPost2010Prop46
 90
       50
102
RTVSPost2010PropOp46
 70
     1
102
RTVSPost2010Prop47
 90
       50
102
RTVSPost2010PropOp47
 70
     1
102
RTVSPost2010Prop48
 90
       50
102
RTVSPost2010PropOp48
 70
     1
102
RTVSPost2010Prop49
280
     0
102
RTVSPost2010PropOp49
 70
     1
102
RTVSPost2010Prop50
 90
       50
102
RTVSPost2010PropOp50
 70
     1
102
RTVSPost2010Prop51ColorIndex
 90
      256
102
RTVSPost2010Prop51ColorRGB
 90
-16777216
102
RTVSPost2010PropOp51
 70
     0
102
RTVSPost2010Prop52
140
1.0
102
RTVSPost2010PropOp52
 70
     0
102
RTVSPost2010Prop53
 90
        2
102
RTVSPost2010PropOp53
 70
     1
102
RTVSPost2010Prop54
  1
strokes_ogs.tif
102
RTVSPost2010PropOp54
 70
     1
102
RTVSPost2010Prop55
280
     0
102
RTVSPost2010PropOp55
 70
     1
102
RTVSPost2010Prop56
140
1.0
102
RTVSPost2010PropOp56
 70
     1
102
RTVSPost2010Prop57
140
1.0
102
RTVSPost2010PropOp57
 70
     1
102
RTVSPropertyOp0
 70
     1
102
RTVSPropertyOp1
 70
     1
102
RTVSPropertyOp2
 70
     1
102
RTVSPropertyOp3
 70
     1
102
RTVSPropertyOp4
 70
     1
102
RTVSPropertyOp5
 70
     1
102
RTVSPropertyOp6
 70
     1
102
RTVSPropertyOp7
 70
     1
102
RTVSPropertyOp8
 70
     1
102
RTVSPropertyOp9
 70
     1
102
RTVSPropertyOp10
 70
     1
102
RTVSPropertyOp11
 70
     1
102
RTVSPropertyOp12
 70
     1
102
RTVSPropertyOp13
 70
     1
102
RTVSPropertyOp14
 70
     1
102
RTVSPropertyOp15
 70
     1
102
RTVSPropertyOp16
 70
     1
102
RTVSPropertyOp17
 70
     1
102
RTVSPropertyOp18
 70
     1
102
RTVSPropertyOp19
 70
     1
102
RTVSPropertyOp20
 70
     1
102
RTVSPropertyOp21
 70
     1
102
RTVSPropertyOp22
 70
     1
102
RTVSPropertyOp23
 70
     1
102
RTVSPropertyOp24
 70
     1
102
RTVSPropertyOp25
 70
     1
102
RTVSPropertyOp26
 70
     1
102
RTVSPropertyOp27
 70
     1
102
RTVSPropertyOp28
 70
     1
102
RTVSPropertyOp29
 70
     1
102
RTVSPropertyOp30
 70
     1
102
RTVSPropertyOp31
 70
     1
102
RTVSPropertyOp32
 70
     1
102
RTVSPropertyOp33
 70
     1
102
RTVSPropertyOp34
 70
     1
102
RTVSPropertyOp35
 70
     1
102
RTVSPropertyOp36
 70
     1
102
RTVSPropertyOp37
 70
     1
102
RTVSPropertyOp38
 70
     1
102
RTVSPropertyOp39
 70
     1
102
RTVSPropertyOp40
 70
     1
102
RTVSPropertyOp41
 70
     1
102
RTVSPropertyOp42
 70
     1
102
RTVSPropertyOp43
 70
     1
102
RTVSPropertyOp44
 70
     1
102
RTVSPropertyOp45
 70
     1
102
RTVSPropertyOp46
 70
     1
102
RTVSPropertyOp47
 70
     1
102
RTVSPropertyOp48
 70
     1
102
RTVSPropertyOp49
 70
     1
102
RTVSPropertyOp50
 70
     1
102
RTVSPropertyOp51
 70
     0
102
RTVSPropertyOp52
 70
     0
102
RTVSPropertyOp53
 70
     1
102
RTVSPropertyOp54
 70
     1
102
RTVSPropertyOp55
 70
     1
102
RTVSPropertyOp56
 70
     1
102
RTVSPropertyOp57
 70
     1
102
RTVSPropertyOp58
 70
     1
102
RTVSPropertyOp59
 70
     1
102
RTVSPropertyOp60
 70
     1
102
RTVSPropertyOp61
 70
     1
102
RTVSPropertyOp62
 70
     1
  0
XRECORD
  5
186C
102
{ACAD_REACTORS
330
186B
102
}
330
186B
100
AcDbXrecord
280
     1
102
RTVSPost2010Prop28
280
     0
102
RTVSPost2010PropOp28
 70
     1
102
RTVSPost2010Prop29
280
     1
102
RTVSPost2010PropOp29
 70
     1
102
RTVSPost2010Prop30
280
     1
102
RTVSPost2010PropOp30
 70
     1
102
RTVSPost2010Prop31
280
     0
102
RTVSPost2010PropOp31
 70
     1
102
RTVSPost2010Prop32
280
     0
102
RTVSPost2010PropOp32
 70
     1
102
RTVSPost2010Prop33
280
     0
102
RTVSPost2010PropOp33
 70
     1
102
RTVSPost2010Prop34
280
     0
102
RTVSPost2010PropOp34
 70
     1
102
RTVSPost2010Prop35
280
     0
102
RTVSPost2010PropOp35
 70
     1
102
RTVSPost2010Prop36
280
     0
102
RTVSPost2010PropOp36
 70
     1
102
RTVSPost2010Prop37
 90
       50
102
RTVSPost2010PropOp37
 70
     1
102
RTVSPost2010Prop38
140
0.0
102
RTVSPost2010PropOp38
 70
     1
102
RTVSPost2010Prop39
140
1.0
102
RTVSPost2010PropOp39
 70
     1
102
RTVSPost2010Prop40
 90
        0
102
RTVSPost2010PropOp40
 70
     1
102
RTVSPost2010Prop41ColorIndex
 90
       18
102
RTVSPost2010Prop41ColorRGB
 90
        0
102
RTVSPost2010PropOp41
 70
     1
102
RTVSPost2010Prop42
 90
       50
102
RTVSPost2010PropOp42
 70
     1
102
RTVSPost2010Prop43
 90
        3
102
RTVSPost2010PropOp43
 70
     1
102
RTVSPost2010Prop44ColorIndex
 90
        5
102
RTVSPost2010Prop44ColorRGB
 90
      255
102
RTVSPost2010PropOp44
 70
     1
102
RTVSPost2010Prop45
280
     0
102
RTVSPost2010PropOp45
 70
     1
102
RTVSPost2010Prop46
 90
       50
102
RTVSPost2010PropOp46
 70
     1
102
RTVSPost2010Prop47
 90
       50
102
RTVSPost2010PropOp47
 70
     1
102
RTVSPost2010Prop48
 90
       50
102
RTVSPost2010PropOp48
 70
     1
102
RTVSPost2010Prop49
280
     0
102
RTVSPost2010PropOp49
 70
     1
102
RTVSPost2010Prop50
 90
       50
102
RTVSPost2010PropOp50
 70
     1
102
RTVSPost2010Prop51ColorIndex
 90
      256
102
RTVSPost2010Prop51ColorRGB
 90
-16777216
102
RTVSPost2010PropOp51
 70
     0
102
RTVSPost2010Prop52
140
1.0
102
RTVSPost2010PropOp52
 70
     0
102
RTVSPost2010Prop53
 90
        2
102
RTVSPost2010PropOp53
 70
     1
102
RTVSPost2010Prop54
  1
strokes_ogs.tif
102
RTVSPost2010PropOp54
 70
     1
102
RTVSPost2010Prop55
280
     0
102
RTVSPost2010PropOp55
 70
     1
102
RTVSPost2010Prop56
140
1.0
102
RTVSPost2010PropOp56
 70
     1
102
RTVSPost2010Prop57
140
1.0
102
RTVSPost2010PropOp57
 70
     1
102
RTVSPropertyOp0
 70
     1
102
RTVSPropertyOp1
 70
     1
102
RTVSPropertyOp2
 70
     1
102
RTVSPropertyOp3
 70
     1
102
RTVSPropertyOp4
 70
     1
102
RTVSPropertyOp5
 70
     1
102
RTVSPropertyOp6
 70
     1
102
RTVSPropertyOp7
 70
     1
102
RTVSPropertyOp8
 70
     1
102
RTVSPropertyOp9
 70
     1
102
RTVSPropertyOp10
 70
     1
102
RTVSPropertyOp11
 70
     1
102
RTVSPropertyOp12
 70
     1
102
RTVSPropertyOp13
 70
     1
102
RTVSPropertyOp14
 70
     1
102
RTVSPropertyOp15
 70
     1
102
RTVSPropertyOp16
 70
     1
102
RTVSPropertyOp17
 70
     1
102
RTVSPropertyOp18
 70
     1
102
RTVSPropertyOp19
 70
     1
102
RTVSPropertyOp20
 70
     1
102
RTVSPropertyOp21
 70
     1
102
RTVSPropertyOp22
 70
     1
102
RTVSPropertyOp23
 70
     1
102
RTVSPropertyOp24
 70
     1
102
RTVSPropertyOp25
 70
     1
102
RTVSPropertyOp26
 70
     1
102
RTVSPropertyOp27
 70
     1
102
RTVSPropertyOp28
 70
     1
102
RTVSPropertyOp29
 70
     1
102
RTVSPropertyOp30
 70
     1
102
RTVSPropertyOp31
 70
     1
102
RTVSPropertyOp32
 70
     1
102
RTVSPropertyOp33
 70
     1
102
RTVSPropertyOp34
 70
     1
102
RTVSPropertyOp35
 70
     1
102
RTVSPropertyOp36
 70
     1
102
RTVSPropertyOp37
 70
     1
102
RTVSPropertyOp38
 70
     1
102
RTVSPropertyOp39
 70
     1
102
RTVSPropertyOp40
 70
     1
102
RTVSPropertyOp41
 70
     1
102
RTVSPropertyOp42
 70
     1
102
RTVSPropertyOp43
 70
     1
102
RTVSPropertyOp44
 70
     1
102
RTVSPropertyOp45
 70
     1
102
RTVSPropertyOp46
 70
     1
102
RTVSPropertyOp47
 70
     1
102
RTVSPropertyOp48
 70
     1
102
RTVSPropertyOp49
 70
     1
102
RTVSPropertyOp50
 70
     1
102
RTVSPropertyOp51
 70
     0
102
RTVSPropertyOp52
 70
     0
102
RTVSPropertyOp53
 70
     1
102
RTVSPropertyOp54
 70
     1
102
RTVSPropertyOp55
 70
     1
102
RTVSPropertyOp56
 70
     1
102
RTVSPropertyOp57
 70
     1
102
RTVSPropertyOp58
 70
     1
102
RTVSPropertyOp59
 70
     1
102
RTVSPropertyOp60
 70
     1
102
RTVSPropertyOp61
 70
     1
102
RTVSPropertyOp62
 70
     1
  0
ENDSEC
  0
EOF
