  0
SECTION
  2
HEADER
  9
$ACADVER
  1
AC1015
  9
$ACADMAINTVER
 70
    18
  9
$DWGCODEPAGE
  3
ANSI_1252
  9
$INSBASE
 10
0.0
 20
0.0
 30
0.0
  9
$EXTMIN
 10
-146.0028068092683
 20
-161.5925440522755
 30
-0.0015258207003583
  9
$EXTMAX
 10
162.1270758729977
 20
208.5018316431691
 30
0.0000000349246037
  9
$LIMMIN
 10
0.0
 20
0.0
  9
$LIMMAX
 10
420.0
 20
297.0
  9
$ORTHOMODE
 70
     0
  9
$REGENMODE
 70
     1
  9
$FILLMODE
 70
     1
  9
$QTEXTMODE
 70
     0
  9
$MIRRTEXT
 70
     0
  9
$LTSCALE
 40
1.0
  9
$ATTMODE
 70
     1
  9
$TEXTSIZE
 40
2.5
  9
$TRACEWID
 40
1.0
  9
$TEXTSTYLE
  7
Standard
  9
$CLAYER
  8
0
  9
$CELTYPE
  6
ByLayer
  9
$CECOLOR
 62
   256
  9
$CELTSCALE
 40
1.0
  9
$DISPSILH
 70
     0
  9
$DIMSCALE
 40
1.0
  9
$DIMASZ
 40
2.5
  9
$DIMEXO
 40
0.625
  9
$DIMDLI
 40
3.75
  9
$DIMRND
 40
0.0
  9
$DIMDLE
 40
0.0
  9
$DIMEXE
 40
1.25
  9
$DIMTP
 40
0.0
  9
$DIMTM
 40
0.0
  9
$DIMTXT
 40
2.5
  9
$DIMCEN
 40
2.5
  9
$DIMTSZ
 40
0.0
  9
$DIMTOL
 70
     0
  9
$DIMLIM
 70
     0
  9
$DIMTIH
 70
     0
  9
$DIMTOH
 70
     0
  9
$DIMSE1
 70
     0
  9
$DIMSE2
 70
     0
  9
$DIMTAD
 70
     1
  9
$DIMZIN
 70
     8
  9
$DIMBLK
  1

  9
$DIMASO
 70
     1
  9
$DIMSHO
 70
     1
  9
$DIMPOST
  1

  9
$DIMAPOST
  1

  9
$DIMALT
 70
     0
  9
$DIMALTD
 70
     3
  9
$DIMALTF
 40
0.03937007874016
  9
$DIMLFAC
 40
1.0
  9
$DIMTOFL
 70
     1
  9
$DIMTVP
 40
0.0
  9
$DIMTIX
 70
     0
  9
$DIMSOXD
 70
     0
  9
$DIMSAH
 70
     0
  9
$DIMBLK1
  1

  9
$DIMBLK2
  1

  9
$DIMSTYLE
  2
ISO-25
  9
$DIMCLRD
 70
     0
  9
$DIMCLRE
 70
     0
  9
$DIMCLRT
 70
     0
  9
$DIMTFAC
 40
1.0
  9
$DIMGAP
 40
0.625
  9
$DIMJUST
 70
     0
  9
$DIMSD1
 70
     0
  9
$DIMSD2
 70
     0
  9
$DIMTOLJ
 70
     0
  9
$DIMTZIN
 70
     8
  9
$DIMALTZ
 70
     0
  9
$DIMALTTZ
 70
     0
  9
$DIMUPT
 70
     0
  9
$DIMDEC
 70
     2
  9
$DIMTDEC
 70
     2
  9
$DIMALTU
 70
     2
  9
$DIMALTTD
 70
     3
  9
$DIMTXSTY
  7
Standard
  9
$DIMAUNIT
 70
     0
  9
$DIMADEC
 70
     0
  9
$DIMALTRND
 40
0.0
  9
$DIMAZIN
 70
     0
  9
$DIMDSEP
 70
    44
  9
$DIMATFIT
 70
     3
  9
$DIMFRAC
 70
     0
  9
$DIMLDRBLK
  1

  9
$DIMLUNIT
 70
     2
  9
$DIMLWD
 70
    -2
  9
$DIMLWE
 70
    -2
  9
$DIMTMOVE
 70
     0
  9
$LUNITS
 70
     2
  9
$LUPREC
 70
     4
  9
$SKETCHINC
 40
1.0
  9
$FILLETRAD
 40
0.0
  9
$AUNITS
 70
     0
  9
$AUPREC
 70
     0
  9
$MENU
  1
.
  9
$ELEVATION
 40
0.0
  9
$PELEVATION
 40
0.0
  9
$THICKNESS
 40
0.0
  9
$LIMCHECK
 70
     0
  9
$CHAMFERA
 40
0.0
  9
$CHAMFERB
 40
0.0
  9
$CHAMFERC
 40
0.0
  9
$CHAMFERD
 40
0.0
  9
$SKPOLY
 70
     0
  9
$TDCREATE
 40
2460572.688854167
  9
$TDUCREATE
 40
2460572.397187500
  9
$TDUPDATE
 40
2460573.370451389
  9
$TDUUPDATE
 40
2460573.078784722
  9
$TDINDWG
 40
0.6790972222
  9
$TDUSRTIMER
 40
0.6790972222
  9
$USRTIMER
 70
     1
  9
$ANGBASE
 50
0.0
  9
$ANGDIR
 70
     0
  9
$PDMODE
 70
     0
  9
$PDSIZE
 40
0.0
  9
$PLINEWID
 40
0.0
  9
$SPLFRAME
 70
     0
  9
$SPLINETYPE
 70
     6
  9
$SPLINESEGS
 70
     8
  9
$HANDSEED
  5
45A2
  9
$SURFTAB1
 70
     6
  9
$SURFTAB2
 70
     6
  9
$SURFTYPE
 70
     6
  9
$SURFU
 70
     6
  9
$SURFV
 70
     6
  9
$UCSBASE
  2

  9
$UCSNAME
  2

  9
$UCSORG
 10
0.0
 20
0.0
 30
0.0
  9
$UCSXDIR
 10
1.0
 20
0.0
 30
0.0
  9
$UCSYDIR
 10
0.0
 20
1.0
 30
0.0
  9
$UCSORTHOREF
  2

  9
$UCSORTHOVIEW
 70
     0
  9
$UCSORGTOP
 10
0.0
 20
0.0
 30
0.0
  9
$UCSORGBOTTOM
 10
0.0
 20
0.0
 30
0.0
  9
$UCSORGLEFT
 10
0.0
 20
0.0
 30
0.0
  9
$UCSORGRIGHT
 10
0.0
 20
0.0
 30
0.0
  9
$UCSORGFRONT
 10
0.0
 20
0.0
 30
0.0
  9
$UCSORGBACK
 10
0.0
 20
0.0
 30
0.0
  9
$PUCSBASE
  2

  9
$PUCSNAME
  2

  9
$PUCSORG
 10
0.0
 20
0.0
 30
0.0
  9
$PUCSXDIR
 10
1.0
 20
0.0
 30
0.0
  9
$PUCSYDIR
 10
0.0
 20
1.0
 30
0.0
  9
$PUCSORTHOREF
  2

  9
$PUCSORTHOVIEW
 70
     0
  9
$PUCSORGTOP
 10
0.0
 20
0.0
 30
0.0
  9
$PUCSORGBOTTOM
 10
0.0
 20
0.0
 30
0.0
  9
$PUCSORGLEFT
 10
0.0
 20
0.0
 30
0.0
  9
$PUCSORGRIGHT
 10
0.0
 20
0.0
 30
0.0
  9
$PUCSORGFRONT
 10
0.0
 20
0.0
 30
0.0
  9
$PUCSORGBACK
 10
0.0
 20
0.0
 30
0.0
  9
$USERI1
 70
     0
  9
$USERI2
 70
     0
  9
$USERI3
 70
     0
  9
$USERI4
 70
     0
  9
$USERI5
 70
     0
  9
$USERR1
 40
0.0
  9
$USERR2
 40
0.0
  9
$USERR3
 40
0.0
  9
$USERR4
 40
0.0
  9
$USERR5
 40
0.0
  9
$WORLDVIEW
 70
     1
  9
$SHADEDGE
 70
     3
  9
$SHADEDIF
 70
    70
  9
$TILEMODE
 70
     1
  9
$MAXACTVP
 70
    48
  9
$PINSBASE
 10
0.0
 20
0.0
 30
0.0
  9
$PLIMCHECK
 70
     0
  9
$PEXTMIN
 10
0.0
 20
0.0
 30
0.0
  9
$PEXTMAX
 10
0.0
 20
0.0
 30
0.0
  9
$PLIMMIN
 10
0.0
 20
0.0
  9
$PLIMMAX
 10
12.0
 20
9.0
  9
$UNITMODE
 70
     0
  9
$VISRETAIN
 70
     1
  9
$PLINEGEN
 70
     0
  9
$PSLTSCALE
 70
     1
  9
$TREEDEPTH
 70
  3020
  9
$CMLSTYLE
  2
Standard
  9
$CMLJUST
 70
     0
  9
$CMLSCALE
 40
20.0
  9
$PROXYGRAPHICS
 70
     1
  9
$MEASUREMENT
 70
     1
  9
$CELWEIGHT
370
    -1
  9
$ENDCAPS
280
     0
  9
$JOINSTYLE
280
     0
  9
$LWDISPLAY
290
     0
  9
$INSUNITS
 70
     4
  9
$HYPERLINKBASE
  1

  9
$STYLESHEET
  1

  9
$XEDIT
290
     1
  9
$CEPSNTYPE
380
     0
  9
$PSTYLEMODE
290
     1
  9
$FINGERPRINTGUID
  2
{0174FB10-CBEE-A049-BD77-4D56BD155670}
  9
$VERSIONGUID
  2
{FDF2ADB1-A618-FC42-B467-D9ABB371007D}
  9
$EXTNAMES
290
     1
  9
$PSVPSCALE
 40
0.0
  9
$OLESTARTUP
290
     0
  0
ENDSEC
  0
SECTION
  2
CLASSES
  0
CLASS
  1
ACDBDICTIONARYWDFLT
  2
AcDbDictionaryWithDefault
  3
ObjectDBX Classes
 90
        0
280
     0
281
     0
  0
CLASS
  1
ACDBPLACEHOLDER
  2
AcDbPlaceHolder
  3
ObjectDBX Classes
 90
        0
280
     0
281
     0
  0
CLASS
  1
LAYOUT
  2
AcDbLayout
  3
ObjectDBX Classes
 90
        0
280
     0
281
     0
  0
CLASS
  1
DICTIONARYVAR
  2
AcDbDictionaryVar
  3
ObjectDBX Classes
 90
        0
280
     0
281
     0
  0
CLASS
  1
TABLESTYLE
  2
AcDbTableStyle
  3
ObjectDBX Classes
 90
     4095
280
     0
281
     0
  0
CLASS
  1
MATERIAL
  2
AcDbMaterial
  3
ObjectDBX Classes
 90
     1153
280
     0
281
     0
  0
CLASS
  1
VISUALSTYLE
  2
AcDbVisualStyle
  3
ObjectDBX Classes
 90
     4095
280
     0
281
     0
  0
CLASS
  1
SCALE
  2
AcDbScale
  3
ObjectDBX Classes
 90
     1153
280
     0
281
     0
  0
CLASS
  1
MLEADERSTYLE
  2
AcDbMLeaderStyle
  3
ACDB_MLEADERSTYLE_CLASS
 90
     4095
280
     0
281
     0
  0
CLASS
  1
CELLSTYLEMAP
  2
AcDbCellStyleMap
  3
ObjectDBX Classes
 90
     1152
280
     0
281
     0
  0
CLASS
  1
EXACXREFPANELOBJECT
  2
ExAcXREFPanelObject
  3
EXAC_ESW
 90
    33793
280
     0
281
     0
  0
CLASS
  1
NPOCOLLECTION
  2
AcDbImpNonPersistentObjectsCollection
  3
ObjectDBX Classes
 90
    33921
280
     0
281
     0
  0
CLASS
  1
LAYER_INDEX
  2
AcDbLayerIndex
  3
ObjectDBX Classes
 90
    32768
280
     0
281
     0
  0
CLASS
  1
SPATIAL_INDEX
  2
AcDbSpatialIndex
  3
ObjectDBX Classes
 90
    32768
280
     0
281
     0
  0
CLASS
  1
IDBUFFER
  2
AcDbIdBuffer
  3
ObjectDBX Classes
 90
    32768
280
     0
281
     0
  0
CLASS
  1
ACDBSECTIONVIEWSTYLE
  2
AcDbSectionViewStyle
  3
ObjectDBX Classes
 90
     1025
280
     0
281
     0
  0
CLASS
  1
ACDBDETAILVIEWSTYLE
  2
AcDbDetailViewStyle
  3
ObjectDBX Classes
 90
     1025
280
     0
281
     0
  0
CLASS
  1
XRECORD
  2
AcDbXrecord
  3
ObjectDBX Classes
 90
        0
280
     0
281
     0
  0
ENDSEC
  0
SECTION
  2
TABLES
  0
TABLE
  2
VPORT
  5
8
102
{ACAD_XDICTIONARY
360
44B0
102
}
330
0
100
AcDbSymbolTable
 70
     1
  0
VPORT
  5
EA
330
8
100
AcDbSymbolTableRecord
100
AcDbViewportTableRecord
  2
*Active
 70
     0
 10
0.0
 20
0.0
 11
1.0
 21
1.0
 12
8.062134531864696
 22
23.4546437954468
 13
0.0
 23
0.0
 14
10.0
 24
10.0
 15
10.0
 25
10.0
 16
0.0
 26
0.0
 36
1.0
 17
0.0
 27
0.0
 37
0.0
 40
393.5618293725584
 41
0.9846153846153848
 42
50.0
 43
0.0
 44
0.0
 50
0.0
 51
0.0
 71
     0
 72
  1000
 73
     1
 74
     3
 75
     0
 76
     1
 77
     0
 78
     0
281
     0
 65
     1
110
0.0
120
0.0
130
0.0
111
1.0
121
0.0
131
0.0
112
0.0
122
1.0
132
0.0
 79
     0
146
0.0
1001
ACAD_NAV_VCDISPLAY
1070
     3
  0
ENDTAB
  0
TABLE
  2
LTYPE
  5
5
330
0
100
AcDbSymbolTable
 70
     1
  0
LTYPE
  5
14
330
5
100
AcDbSymbolTableRecord
100
AcDbLinetypeTableRecord
  2
ByBlock
 70
     0
  3

 72
    65
 73
     0
 40
0.0
  0
LTYPE
  5
15
330
5
100
AcDbSymbolTableRecord
100
AcDbLinetypeTableRecord
  2
ByLayer
 70
     0
  3

 72
    65
 73
     0
 40
0.0
  0
LTYPE
  5
16
330
5
100
AcDbSymbolTableRecord
100
AcDbLinetypeTableRecord
  2
Continuous
 70
     0
  3
Solid line
 72
    65
 73
     0
 40
0.0
  0
ENDTAB
  0
TABLE
  2
LAYER
  5
2
102
{ACAD_XDICTIONARY
360
1FF
102
}
330
0
100
AcDbSymbolTable
 70
     1
  0
LAYER
  5
10
102
{ACAD_XDICTIONARY
360
13C
102
}
330
2
100
AcDbSymbolTableRecord
100
AcDbLayerTableRecord
  2
0
 70
     0
 62
     7
  6
Continuous
370
    -3
390
F
  0
ENDTAB
  0
TABLE
  2
STYLE
  5
3
330
0
100
AcDbSymbolTable
 70
     1
  0
STYLE
  5
11
330
3
100
AcDbSymbolTableRecord
100
AcDbTextStyleTableRecord
  2
Standard
 70
     0
 40
0.0
 41
1.0
 50
0.0
 71
     0
 42
2.5
  3
arial.ttf
  4

1001
ACAD
1000
Arial
1071
       34
  0
ENDTAB
  0
TABLE
  2
VIEW
  5
6
330
0
100
AcDbSymbolTable
 70
     0
  0
ENDTAB
  0
TABLE
  2
UCS
  5
7
330
0
100
AcDbSymbolTable
 70
     0
  0
ENDTAB
  0
TABLE
  2
APPID
  5
9
330
0
100
AcDbSymbolTable
 70
     8
  0
APPID
  5
12
330
9
100
AcDbSymbolTableRecord
100
AcDbRegAppTableRecord
  2
ACAD
 70
     0
  0
APPID
  5
9E
330
9
100
AcDbSymbolTableRecord
100
AcDbRegAppTableRecord
  2
ACAD_PSEXT
 70
     0
  0
APPID
  5
133
330
9
100
AcDbSymbolTableRecord
100
AcDbRegAppTableRecord
  2
AcadAnnoPO
 70
     0
  0
APPID
  5
134
330
9
100
AcDbSymbolTableRecord
100
AcDbRegAppTableRecord
  2
AcadAnnotative
 70
     0
  0
APPID
  5
135
330
9
100
AcDbSymbolTableRecord
100
AcDbRegAppTableRecord
  2
ACAD_DSTYLE_DIMJAG
 70
     0
  0
APPID
  5
136
330
9
100
AcDbSymbolTableRecord
100
AcDbRegAppTableRecord
  2
ACAD_DSTYLE_DIMTALN
 70
     0
  0
APPID
  5
165
330
9
100
AcDbSymbolTableRecord
100
AcDbRegAppTableRecord
  2
ACAD_MLEADERVER
 70
     0
  0
APPID
  5
217
330
9
100
AcDbSymbolTableRecord
100
AcDbRegAppTableRecord
  2
ACAD_NAV_VCDISPLAY
 70
     0
  0
ENDTAB
  0
TABLE
  2
DIMSTYLE
  5
A
330
0
100
AcDbSymbolTable
 70
     1
100
AcDbDimStyleTable
 71
     0
  0
DIMSTYLE
105
27
330
A
100
AcDbSymbolTableRecord
100
AcDbDimStyleTableRecord
  2
ISO-25
 70
     0
 41
2.5
 42
0.625
 43
3.75
 44
1.25
 73
     0
 74
     0
 77
     1
 78
     8
140
2.5
141
2.5
143
0.03937007874016
147
0.625
171
     3
172
     1
271
     2
272
     2
274
     3
278
    44
283
     0
284
     8
340
11
  0
ENDTAB
  0
TABLE
  2
BLOCK_RECORD
  5
1
330
0
100
AcDbSymbolTable
 70
     7
  0
BLOCK_RECORD
  5
1F
102
{ACAD_XDICTIONARY
360
1CE
102
}
330
1
100
AcDbSymbolTableRecord
100
AcDbBlockTableRecord
  2
*Model_Space
340
22
  0
BLOCK_RECORD
  5
D2
102
{ACAD_XDICTIONARY
360
4463
102
}
330
1
100
AcDbSymbolTableRecord
100
AcDbBlockTableRecord
  2
*Paper_Space
340
D3
  0
BLOCK_RECORD
  5
D6
102
{ACAD_XDICTIONARY
360
4465
102
}
330
1
100
AcDbSymbolTableRecord
100
AcDbBlockTableRecord
  2
*Paper_Space0
340
D7
  0
BLOCK_RECORD
  5
42C2
330
1
100
AcDbSymbolTableRecord
100
AcDbBlockTableRecord
  2
AKR95LZ-Front
340
0
102
{BLKREFS
331
4459
102
}
  0
BLOCK_RECORD
  5
430D
330
1
100
AcDbSymbolTableRecord
100
AcDbBlockTableRecord
  2
AKR95LZ-Left
340
0
102
{BLKREFS
331
445A
102
}
  0
BLOCK_RECORD
  5
4331
330
1
100
AcDbSymbolTableRecord
100
AcDbBlockTableRecord
  2
AKR95LZ-Right
340
0
102
{BLKREFS
331
445B
102
}
  0
BLOCK_RECORD
  5
4358
330
1
100
AcDbSymbolTableRecord
100
AcDbBlockTableRecord
  2
AKR95LZ-Top
340
0
102
{BLKREFS
331
445C
102
}
  0
BLOCK_RECORD
  5
439F
330
1
100
AcDbSymbolTableRecord
100
AcDbBlockTableRecord
  2
AKR95LZ-Bottom
340
0
102
{BLKREFS
331
445D
102
}
  0
BLOCK_RECORD
  5
43D1
330
1
100
AcDbSymbolTableRecord
100
AcDbBlockTableRecord
  2
AKR95LZ-ISO
340
0
102
{BLKREFS
331
445E
102
}
  0
ENDTAB
  0
ENDSEC
  0
SECTION
  2
BLOCKS
  0
BLOCK
  5
20
330
1F
100
AcDbEntity
  8
0
100
AcDbBlockBegin
  2
*Model_Space
 70
     0
 10
0.0
 20
0.0
 30
0.0
  3
*Model_Space
  1

  0
ENDBLK
  5
21
330
1F
100
AcDbEntity
  8
0
100
AcDbBlockEnd
  0
BLOCK
  5
D4
330
D2
100
AcDbEntity
 67
     1
  8
0
100
AcDbBlockBegin
  2
*Paper_Space
 70
     0
 10
0.0
 20
0.0
 30
0.0
  3
*Paper_Space
  1

  0
ENDBLK
  5
D5
330
D2
100
AcDbEntity
 67
     1
  8
0
100
AcDbBlockEnd
  0
BLOCK
  5
D8
330
D6
100
AcDbEntity
 67
     1
  8
0
100
AcDbBlockBegin
  2
*Paper_Space0
 70
     0
 10
0.0
 20
0.0
 30
0.0
  3
*Paper_Space0
  1

  0
ENDBLK
  5
D9
330
D6
100
AcDbEntity
 67
     1
  8
0
100
AcDbBlockEnd
  0
BLOCK
  5
42C3
330
42C2
100
AcDbEntity
  8
0
100
AcDbBlockBegin
  2
AKR95LZ-Front
 70
     0
 10
0.0
 20
0.0
 30
0.0
  3
AKR95LZ-Front
  1

  0
CIRCLE
  5
42C5
330
42C2
100
AcDbEntity
  8
0
100
AcDbCircle
 10
-22.49999999999999
 20
87.0
 30
0.0
 40
2.600000000000006
  0
CIRCLE
  5
42C6
330
42C2
100
AcDbEntity
  8
0
100
AcDbCircle
 10
22.50000000000001
 20
87.0
 30
0.0
 40
2.600000000000001
  0
CIRCLE
  5
42C7
330
42C2
100
AcDbEntity
  8
0
100
AcDbCircle
 10
0.0000000000000095
 20
40.0
 30
0.0
 40
2.6
  0
CIRCLE
  5
42C8
330
42C2
100
AcDbEntity
  8
0
100
AcDbCircle
 10
14.00000000000001
 20
50.0
 30
0.0
 40
2.6
  0
CIRCLE
  5
42C9
330
42C2
100
AcDbEntity
  8
0
100
AcDbCircle
 10
-13.99999999999999
 20
50.0
 30
0.0
 40
2.6
  0
CIRCLE
  5
42CA
330
42C2
100
AcDbEntity
  8
0
100
AcDbCircle
 10
0.0000000000000117
 20
60.0
 30
0.0
 40
2.6
  0
CIRCLE
  5
42CB
330
42C2
100
AcDbEntity
  8
0
100
AcDbCircle
 10
20.00000000000001
 20
69.0
 30
0.0
 40
2.6
  0
CIRCLE
  5
42CC
330
42C2
100
AcDbEntity
  8
0
100
AcDbCircle
 10
-19.99999999999998
 20
69.0
 30
0.0
 40
2.6
  0
CIRCLE
  5
42CD
330
42C2
100
AcDbEntity
  8
0
100
AcDbCircle
 10
0.0000000000000137
 20
78.0
 30
0.0
 40
2.6
  0
LINE
  5
42CE
330
42C2
100
AcDbEntity
  8
0
100
AcDbLine
 10
-25.50000000000002
 20
2.999999999999988
 30
0.0
 11
25.49999999999997
 21
2.999999999999983
 31
0.0
  0
LINE
  5
42CF
330
42C2
100
AcDbEntity
  8
0
100
AcDbLine
 10
-19.40049474616515
 20
26.95234078859373
 30
0.0
 11
-22.88089344101218
 21
57.01806215511449
 31
0.0
  0
ELLIPSE
  5
42D0
330
42C2
100
AcDbEntity
  8
0
100
AcDbEllipse
 10
-21.84265019811888
 20
29.55706345359769
 30
0.0
 11
-2.149316260459886
 21
14.99707715516454
 31
0.0
210
0.0
220
0.0
230
0.9999999999999998
 40
0.1377659927417807
 41
3.29638411729247
 42
4.518114593693596
  0
LINE
  5
42D1
330
42C2
100
AcDbEntity
  8
0
100
AcDbLine
 10
-22.88089344101225
 20
9.483549287033991
 30
0.0
 11
-19.40049474616516
 21
14.78494715841456
 31
0.0
  0
LINE
  5
42D2
330
42C2
100
AcDbEntity
  8
0
100
AcDbLine
 10
19.40049474616515
 20
14.78494715841456
 30
0.0
 11
22.8808934410122
 21
9.483549287033985
 31
0.0
  0
ELLIPSE
  5
42D3
330
42C2
100
AcDbEntity
  8
0
100
AcDbEllipse
 10
21.84265019811889
 20
29.55706345359768
 30
0.0
 11
-2.149316260459677
 21
-14.99707715516457
 31
0.0
210
0.0
220
0.0
230
1.0
 40
0.1377659927417798
 41
4.906663367072864
 42
6.1283938434689
  0
LINE
  5
42D4
330
42C2
100
AcDbEntity
  8
0
100
AcDbLine
 10
22.88089344101219
 20
57.01806215511449
 30
0.0
 11
19.40049474616515
 21
26.95234078859372
 31
0.0
  0
SPLINE
  5
42D5
330
42C2
100
AcDbEntity
  8
0
100
AcDbSpline
210
0.0
220
0.0
230
1.0
 70
     8
 71
     3
 72
    20
 73
    16
 74
     0
 42
0.000000001
 43
0.0000000001
 40
-1.0
 40
-1.0
 40
-1.0
 40
-1.0
 40
-0.8557507846685076
 40
-0.8557507846685076
 40
-0.8557507846685076
 40
-0.4725410755549741
 40
-0.4725410755549741
 40
-0.4725410755549741
 40
-0.2262668722288056
 40
-0.2262668722288056
 40
-0.2262668722288056
 40
-0.054508876045835
 40
-0.054508876045835
 40
-0.054508876045835
 40
0.0
 40
0.0
 40
0.0
 40
0.0
 10
-32.50000000000013
 20
71.49999999999991
 30
0.0
 10
-32.49596368058178
 20
70.51422263202256
 30
0.0
 10
-32.37910965910446
 20
69.60755482003745
 30
0.0
 10
-32.16692343470259
 20
68.79579103748923
 30
0.0
 10
-31.60323356544346
 20
66.6392748840784
 30
0.0
 10
-30.41855420422169
 20
65.09164757619789
 30
0.0
 10
-29.21981211984591
 20
63.52662748021657
 30
0.0
 10
-28.44942649338014
 20
62.52084900393832
 30
0.0
 10
-27.6722133332793
 20
61.51295505185758
 30
0.0
 10
-27.05454655899834
 20
60.3458991649537
 30
0.0
 10
-26.62376978243602
 20
59.53196421821196
 30
0.0
 10
-26.26601864944865
 20
58.62483513657611
 30
0.0
 10
-26.05086466152208
 20
57.6001514218013
 30
0.0
 10
-25.98258369458438
 20
57.27495923956751
 30
0.0
 10
-25.93039957561514
 20
56.93850065070015
 30
0.0
 10
-25.89060973843283
 20
56.59507411448335
 30
0.0
  0
LINE
  5
42D6
330
42C2
100
AcDbEntity
  8
0
100
AcDbLine
 10
-25.17482914748932
 20
56.69567051617258
 30
0.0
 11
-25.89060973854642
 21
56.59507411444164
 31
0.0
  0
LINE
  5
42D7
330
42C2
100
AcDbEntity
  8
0
100
AcDbLine
 10
-22.88089344101223
 20
57.01806215511449
 30
0.0
 11
-25.17482914748932
 21
56.69567051617258
 31
0.0
  0
SPLINE
  5
42D8
330
42C2
100
AcDbEntity
  8
0
100
AcDbSpline
210
0.0
220
0.0
230
1.0
 70
     8
 71
     3
 72
    20
 73
    16
 74
     0
 42
0.000000001
 43
0.0000000001
 40
-1.0
 40
-1.0
 40
-1.0
 40
-1.0
 40
-0.9033929680658552
 40
-0.9033929680658552
 40
-0.9033929680658552
 40
-0.5415825357496395
 40
-0.5415825357496395
 40
-0.5415825357496395
 40
-0.2707912678748197
 40
-0.2707912678748197
 40
-0.2707912678748197
 40
-0.0793860111516785
 40
-0.0793860111516785
 40
-0.0793860111516785
 40
0.0
 40
0.0
 40
0.0
 40
0.0
 10
-22.8808934410122
 20
57.01806215511452
 30
0.0
 10
-22.95529227250461
 20
57.61314329676951
 30
0.0
 10
-23.09147695674213
 20
58.20907241224201
 30
0.0
 10
-23.29922806440555
 20
58.74067065558574
 30
0.0
 10
-24.07729273084843
 20
60.73160016032253
 30
0.0
 10
-25.72291436054121
 20
62.18247812267808
 30
0.0
 10
-27.39546389577516
 20
63.60061051048891
 30
0.0
 10
-28.647257013873
 20
64.66198915800678
 30
0.0
 10
-29.91698039153798
 20
65.7027805737909
 30
0.0
 10
-30.88404344345722
 20
66.95169524673295
 30
0.0
 10
-31.56759928029327
 20
67.83447420587679
 30
0.0
 10
-32.09222344379321
 20
68.81804861429016
 30
0.0
 10
-32.34180618508881
 20
69.96578942997711
 30
0.0
 10
-32.44532151493378
 20
70.44181901638054
 30
0.0
 10
-32.49529449092631
 20
70.95583448578309
 30
0.0
 10
-32.50000000000156
 20
71.50000000006288
 30
0.0
  0
LINE
  5
42D9
330
42C2
100
AcDbEntity
  8
0
100
AcDbLine
 10
-22.34380262810205
 20
57.09354534627187
 30
0.0
 11
-22.88089344101218
 21
57.01806215511449
 31
0.0
  0
LINE
  5
42DA
330
42C2
100
AcDbEntity
  8
0
100
AcDbLine
 10
-19.40135808271011
 20
57.50707895874675
 30
0.0
 11
-22.34380262810204
 21
57.09354534627187
 31
0.0
  0
SPLINE
  5
42DB
330
42C2
100
AcDbEntity
  8
0
100
AcDbSpline
210
0.0
220
0.0
230
1.0
 70
     8
 71
     2
 72
     6
 73
     3
 74
     0
 42
0.000000001
 43
0.0000000001
 40
0.0
 40
0.0
 40
0.0
 40
1.0
 40
1.0
 40
1.0
 10
-19.40135808271011
 20
57.50707895874675
 30
0.0
 10
-20.8564637903276
 20
67.86069405359663
 30
0.0
 10
-32.49999999999999
 20
71.49999999999991
 30
0.0
  0
SPLINE
  5
42DC
330
42C2
100
AcDbEntity
  8
0
100
AcDbSpline
210
0.0
220
0.0
230
1.0
 70
     8
 71
     3
 72
    20
 73
    16
 74
     0
 42
0.000000001
 43
0.0000000001
 40
-1.0
 40
-1.0
 40
-1.0
 40
-1.0
 40
-0.856514084357323
 40
-0.856514084357323
 40
-0.856514084357323
 40
-0.5402558541811611
 40
-0.5402558541811611
 40
-0.5402558541811611
 40
-0.2701279270905805
 40
-0.2701279270905805
 40
-0.2701279270905805
 40
-0.0852549168069366
 40
-0.0852549168069366
 40
-0.0852549168069366
 40
0.0
 40
0.0
 40
0.0
 40
0.0
 10
22.88089344101224
 20
57.01806215511453
 30
0.0
 10
22.98563906630231
 20
57.92230508728144
 30
0.0
 10
23.25108945203065
 20
58.75125606595518
 30
0.0
 10
23.64500443042786
 20
59.49063806024835
 30
0.0
 10
24.51323496963997
 20
61.12031467270141
 30
0.0
 10
25.94709485156688
 20
62.37298809436582
 30
0.0
 10
27.41482735378446
 20
63.6172248398844
 30
0.0
 10
28.66847232019897
 20
64.67997376088368
 30
0.0
 10
29.92402793119222
 20
65.70892477048005
 30
0.0
 10
30.88879741846547
 20
66.95682341169521
 30
0.0
 10
31.54907657309801
 20
67.81087349387333
 30
0.0
 10
32.05964361545329
 20
68.76547766490812
 30
0.0
 10
32.31762450953973
 20
69.85892594191745
 30
0.0
 10
32.43659341489469
 20
70.36317392136071
 30
0.0
 10
32.494848717233
 20
70.902899999429
 30
0.0
 10
32.50000000000158
 20
71.50000000006288
 30
0.0
  0
SPLINE
  5
42DD
330
42C2
100
AcDbEntity
  8
0
100
AcDbSpline
210
0.0
220
0.0
230
1.0
 70
     8
 71
     2
 72
     6
 73
     3
 74
     0
 42
0.000000001
 43
0.0000000001
 40
0.0
 40
0.0
 40
0.0
 40
1.0
 40
1.0
 40
1.0
 10
19.40135808271014
 20
57.50707895874675
 30
0.0
 10
20.85646379032763
 20
67.86069405359663
 30
0.0
 10
32.50000000000001
 20
71.49999999999991
 30
0.0
  0
LINE
  5
42DE
330
42C2
100
AcDbEntity
  8
0
100
AcDbLine
 10
22.34380262810205
 20
57.09354534627187
 30
0.0
 11
19.40135808271013
 21
57.50707895874675
 31
0.0
  0
LINE
  5
42DF
330
42C2
100
AcDbEntity
  8
0
100
AcDbLine
 10
22.88089344101219
 20
57.01806215511449
 30
0.0
 11
22.34380262810205
 21
57.09354534627187
 31
0.0
  0
SPLINE
  5
42E0
330
42C2
100
AcDbEntity
  8
0
100
AcDbSpline
210
0.0
220
0.0
230
1.0
 70
     8
 71
     3
 72
    20
 73
    16
 74
     0
 42
0.000000001
 43
0.0000000001
 40
-1.0
 40
-1.0
 40
-1.0
 40
-1.0
 40
-0.8557507846685076
 40
-0.8557507846685076
 40
-0.8557507846685076
 40
-0.4725410755549741
 40
-0.4725410755549741
 40
-0.4725410755549741
 40
-0.2262668722288056
 40
-0.2262668722288056
 40
-0.2262668722288056
 40
-0.054508876045835
 40
-0.054508876045835
 40
-0.054508876045835
 40
0.0
 40
0.0
 40
0.0
 40
0.0
 10
32.50000000000016
 20
71.49999999999991
 30
0.0
 10
32.4959636805818
 20
70.51422263202256
 30
0.0
 10
32.37910965910449
 20
69.60755482003745
 30
0.0
 10
32.16692343470261
 20
68.79579103748923
 30
0.0
 10
31.6032335654435
 20
66.6392748840784
 30
0.0
 10
30.41855420422172
 20
65.09164757619789
 30
0.0
 10
29.21981211984594
 20
63.52662748021657
 30
0.0
 10
28.44942649338017
 20
62.52084900393832
 30
0.0
 10
27.67221333327932
 20
61.51295505185758
 30
0.0
 10
27.05454655899836
 20
60.3458991649537
 30
0.0
 10
26.62376978243604
 20
59.53196421821196
 30
0.0
 10
26.26601864944867
 20
58.62483513657611
 30
0.0
 10
26.0508646615221
 20
57.6001514218013
 30
0.0
 10
25.98258369458439
 20
57.27495923956751
 30
0.0
 10
25.93039957561515
 20
56.93850065070015
 30
0.0
 10
25.89060973843285
 20
56.59507411448335
 30
0.0
  0
LINE
  5
42E1
330
42C2
100
AcDbEntity
  8
0
100
AcDbLine
 10
25.89060973854643
 20
56.59507411444163
 30
0.0
 11
25.17482914748934
 21
56.69567051617257
 31
0.0
  0
LINE
  5
42E2
330
42C2
100
AcDbEntity
  8
0
100
AcDbLine
 10
24.95106001330004
 20
56.72711921707217
 30
0.0
 11
22.88089344101225
 21
57.01806215511449
 31
0.0
  0
LINE
  5
42E3
330
42C2
100
AcDbEntity
  8
0
100
AcDbLine
 10
25.17482914748934
 20
56.69567051617257
 30
0.0
 11
24.95106001330004
 21
56.72711921707217
 31
0.0
  0
SPLINE
  5
42E4
330
42C2
100
AcDbEntity
  8
0
100
AcDbSpline
210
0.0
220
0.0
230
1.0
 70
     8
 71
     3
 72
    14
 73
    10
 74
     0
 42
0.000000001
 43
0.0000000001
 40
-0.4328627886584295
 40
-0.4328627886584295
 40
-0.4328627886584295
 40
-0.4328627886584295
 40
-0.2262668722288056
 40
-0.2262668722288056
 40
-0.2262668722288056
 40
-0.054508876045835
 40
-0.054508876045835
 40
-0.054508876045835
 40
0.0
 40
0.0
 40
0.0
 40
0.0
 10
28.84761590240695
 20
5.2585395786231
 30
0.0
 10
28.203127715699
 20
6.188118147776837
 30
0.0
 10
27.57269840583103
 20
7.097112821722864
 30
0.0
 10
27.05454655899832
 20
7.846564790700912
 30
0.0
 10
26.62376978243601
 20
8.46963794070144
 30
0.0
 10
26.26601864944864
 20
8.98994188001393
 30
0.0
 10
26.05086466152207
 20
9.312718229934823
 30
0.0
 10
25.98258369458437
 20
9.415154078275895
 30
0.0
 10
25.93039957561512
 20
9.49446890698567
 30
0.0
 10
25.89060973843282
 20
9.558133491114951
 30
0.0
  0
SPLINE
  5
42E5
330
42C2
100
AcDbEntity
  8
0
100
AcDbSpline
210
0.0
220
0.0
230
1.0
 70
     8
 71
     3
 72
    20
 73
    16
 74
     0
 42
0.000000001
 43
0.0000000001
 40
-1.0
 40
-1.0
 40
-1.0
 40
-1.0
 40
-0.856514084357323
 40
-0.856514084357323
 40
-0.856514084357323
 40
-0.5402558541811611
 40
-0.5402558541811611
 40
-0.5402558541811611
 40
-0.2701279270905805
 40
-0.2701279270905805
 40
-0.2701279270905805
 40
-0.0852549168069366
 40
-0.0852549168069366
 40
-0.0852549168069366
 40
0.0
 40
0.0
 40
0.0
 40
0.0
 10
22.88089344101221
 20
9.483549287034051
 30
0.0
 10
22.98563906630228
 20
9.320092462342095
 30
0.0
 10
23.25108945203062
 20
9.072461725048388
 30
0.0
 10
23.64500443042783
 20
8.763930907745649
 30
0.0
 10
24.51323496963994
 20
8.083896147553851
 30
0.0
 10
25.94709485156684
 20
7.12303551693733
 30
0.0
 10
27.41482735378443
 20
6.173960274807908
 30
0.0
 10
28.66847232019894
 20
5.36331978122579
 30
0.0
 10
29.92402793119219
 20
4.579673909803553
 30
0.0
 10
30.88879741846543
 20
3.98475332402523
 30
0.0
 10
31.54907657309797
 20
3.577595275773274
 30
0.0
 10
32.05964361545325
 20
3.265340377922498
 30
0.0
 10
32.3176245095397
 20
3.108560584059376
 30
0.0
 10
32.43659341489465
 20
3.036260964648723
 30
0.0
 10
32.49484871723296
 20
2.999954352938678
 30
0.0
 10
32.50000000000154
 20
2.999999999892047
 30
0.0
  0
LINE
  5
42E6
330
42C2
100
AcDbEntity
  8
0
100
AcDbLine
 10
22.34380262810206
 20
5.586466387525101
 30
0.0
 11
22.8808934410122
 21
9.483549287033991
 31
0.0
  0
ELLIPSE
  5
42E7
330
42C2
100
AcDbEntity
  8
0
100
AcDbEllipse
 10
19.4013580827101
 20
5.999999999999985
 30
0.0
 11
0.0000000000000085
 21
-3.0
 31
0.0
210
0.0
220
0.0
230
1.0
 40
0.9902680687415703
 41
0.0000000000000001
 42
1.432511480600926
  0
LINE
  5
42E8
330
42C2
100
AcDbEntity
  8
0
100
AcDbLine
 10
25.17482914749809
 20
9.540395631334483
 30
0.0
 11
25.8906097385464
 21
9.558133491121617
 31
0.0
  0
LINE
  5
42E9
330
42C2
100
AcDbEntity
  8
0
100
AcDbLine
 10
24.95106001328296
 20
9.534850376857013
 30
0.0
 11
25.17482914749809
 21
9.540395631334483
 31
0.0
  0
LINE
  5
42EA
330
42C2
100
AcDbEntity
  8
0
100
AcDbLine
 10
22.88089344101221
 20
9.483549287033984
 30
0.0
 11
24.95106001328296
 21
9.534850376857013
 31
0.0
  0
SPLINE
  5
42EB
330
42C2
100
AcDbEntity
  8
0
100
AcDbSpline
210
0.0
220
0.0
230
1.0
 70
     8
 71
     3
 72
    14
 73
    10
 74
     0
 42
0.000000001
 43
0.0000000001
 40
-0.4328627886584295
 40
-0.4328627886584295
 40
-0.4328627886584295
 40
-0.4328627886584295
 40
-0.2262668722288056
 40
-0.2262668722288056
 40
-0.2262668722288056
 40
-0.054508876045835
 40
-0.054508876045835
 40
-0.054508876045835
 40
0.0
 40
0.0
 40
0.0
 40
0.0
 10
-28.847615902407
 20
5.258539578623107
 30
0.0
 10
-28.20312771569904
 20
6.188118147776844
 30
0.0
 10
-27.57269840583107
 20
7.097112821722869
 30
0.0
 10
-27.05454655899837
 20
7.846564790700918
 30
0.0
 10
-26.62376978243605
 20
8.469637940701446
 30
0.0
 10
-26.26601864944869
 20
8.989941880013937
 30
0.0
 10
-26.05086466152212
 20
9.31271822993483
 30
0.0
 10
-25.98258369458441
 20
9.4151540782759
 30
0.0
 10
-25.93039957561516
 20
9.494468906985675
 30
0.0
 10
-25.89060973843287
 20
9.558133491114958
 30
0.0
  0
SPLINE
  5
42EC
330
42C2
100
AcDbEntity
  8
0
100
AcDbSpline
210
0.0
220
0.0
230
1.0
 70
     8
 71
     3
 72
    20
 73
    16
 74
     0
 42
0.000000001
 43
0.0000000001
 40
-1.0
 40
-1.0
 40
-1.0
 40
-1.0
 40
-0.856514084357323
 40
-0.856514084357323
 40
-0.856514084357323
 40
-0.5402558541811611
 40
-0.5402558541811611
 40
-0.5402558541811611
 40
-0.2701279270905805
 40
-0.2701279270905805
 40
-0.2701279270905805
 40
-0.0852549168069366
 40
-0.0852549168069366
 40
-0.0852549168069366
 40
0.0
 40
0.0
 40
0.0
 40
0.0
 10
-22.88089344101225
 20
9.483549287034055
 30
0.0
 10
-22.98563906630232
 20
9.320092462342101
 30
0.0
 10
-23.25108945203066
 20
9.072461725048393
 30
0.0
 10
-23.64500443042787
 20
8.763930907745654
 30
0.0
 10
-24.51323496963998
 20
8.083896147553856
 30
0.0
 10
-25.94709485156688
 20
7.123035516937336
 30
0.0
 10
-27.41482735378447
 20
6.173960274807916
 30
0.0
 10
-28.66847232019898
 20
5.363319781225797
 30
0.0
 10
-29.92402793119224
 20
4.57967390980356
 30
0.0
 10
-30.88879741846547
 20
3.984753324025237
 30
0.0
 10
-31.54907657309802
 20
3.577595275773281
 30
0.0
 10
-32.05964361545329
 20
3.265340377922505
 30
0.0
 10
-32.31762450953974
 20
3.108560584059383
 30
0.0
 10
-32.4365934148947
 20
3.03626096464873
 30
0.0
 10
-32.49484871723303
 20
2.999954352938685
 30
0.0
 10
-32.50000000000161
 20
2.999999999892054
 30
0.0
  0
ELLIPSE
  5
42ED
330
42C2
100
AcDbEntity
  8
0
100
AcDbEllipse
 10
-19.40135808271014
 20
5.999999999999989
 30
0.0
 11
-0.0000000000000033
 21
-3.0
 31
0.0
210
0.0
220
0.0
230
1.0
 40
0.9902680687415703
 41
4.850673826578658
 42
6.283185307179587
  0
LINE
  5
42EE
330
42C2
100
AcDbEntity
  8
0
100
AcDbLine
 10
-22.88089344101225
 20
9.483549287033994
 30
0.0
 11
-22.34380262810212
 21
5.586466387525105
 31
0.0
  0
LINE
  5
42EF
330
42C2
100
AcDbEntity
  8
0
100
AcDbLine
 10
-25.89060973854645
 20
9.558133491121619
 30
0.0
 11
-25.17482914749813
 21
9.540395631334487
 31
0.0
  0
LINE
  5
42F0
330
42C2
100
AcDbEntity
  8
0
100
AcDbLine
 10
-24.95106001328301
 20
9.534850376857017
 30
0.0
 11
-22.88089344101225
 21
9.483549287033985
 31
0.0
  0
LINE
  5
42F1
330
42C2
100
AcDbEntity
  8
0
100
AcDbLine
 10
-25.17482914749813
 20
9.540395631334487
 30
0.0
 11
-24.95106001328301
 21
9.534850376857017
 31
0.0
  0
LINE
  5
42F2
330
42C2
100
AcDbEntity
  8
0
100
AcDbLine
 10
25.49999999999997
 20
0.0
 30
0.0
 11
32.49999999999996
 21
0.0
 31
0.0
  0
LINE
  5
42F3
330
42C2
100
AcDbEntity
  8
0
100
AcDbLine
 10
-32.50000000000003
 20
0.0
 30
0.0
 11
-25.50000000000002
 21
0.0
 31
0.0
  0
LINE
  5
42F4
330
42C2
100
AcDbEntity
  8
0
100
AcDbLine
 10
25.50000000000001
 20
95.0
 30
0.0
 11
32.50000000000002
 21
88.0
 31
0.0
  0
LINE
  5
42F5
330
42C2
100
AcDbEntity
  8
0
100
AcDbLine
 10
-32.5
 20
88.0
 30
0.0
 11
-25.49999999999998
 21
95.0
 31
0.0
  0
LINE
  5
42F6
330
42C2
100
AcDbEntity
  8
0
100
AcDbLine
 10
-25.50000000000002
 20
2.999999999999988
 30
0.0
 11
-32.50000000000003
 21
2.999999999999989
 31
0.0
  0
LINE
  5
42F7
330
42C2
100
AcDbEntity
  8
0
100
AcDbLine
 10
32.49999999999996
 20
2.999999999999982
 30
0.0
 11
25.49999999999997
 21
2.999999999999983
 31
0.0
  0
LINE
  5
42F8
330
42C2
100
AcDbEntity
  8
0
100
AcDbLine
 10
25.49999999999997
 20
2.999999999999983
 30
0.0
 11
25.49999999999997
 21
0.0
 31
0.0
  0
LINE
  5
42F9
330
42C2
100
AcDbEntity
  8
0
100
AcDbLine
 10
-25.50000000000002
 20
0.0
 30
0.0
 11
-25.50000000000002
 21
2.999999999999988
 31
0.0
  0
LINE
  5
42FA
330
42C2
100
AcDbEntity
  8
0
100
AcDbLine
 10
-25.50000000000002
 20
0.0
 30
0.0
 11
25.49999999999997
 21
0.0
 31
0.0
  0
LINE
  5
42FB
330
42C2
100
AcDbEntity
  8
0
100
AcDbLine
 10
-25.89060973854645
 20
9.558133491121624
 30
0.0
 11
-22.45917600970657
 21
14.78494715841456
 31
0.0
  0
ELLIPSE
  5
42FC
330
42C2
100
AcDbEntity
  8
0
100
AcDbEllipse
 10
-24.90133146166029
 20
29.55706345359769
 30
0.0
 11
-2.149316260459886
 21
14.99707715516454
 31
0.0
210
0.0
220
0.0
230
0.9999999999999998
 40
0.1377659927417807
 41
3.29638411729247
 42
4.518114593693597
  0
LINE
  5
42FD
330
42C2
100
AcDbEntity
  8
0
100
AcDbLine
 10
-22.45917600970655
 20
26.95234078859373
 30
0.0
 11
-25.89060973854638
 21
56.59507411444164
 31
0.0
  0
LINE
  5
42FE
330
42C2
100
AcDbEntity
  8
0
100
AcDbLine
 10
19.40049474616515
 20
14.78494715841456
 30
0.0
 11
22.45917600970656
 21
14.78494715841456
 31
0.0
  0
LINE
  5
42FF
330
42C2
100
AcDbEntity
  8
0
100
AcDbLine
 10
19.40049474616515
 20
26.95234078859372
 30
0.0
 11
22.45917600970655
 21
26.95234078859372
 31
0.0
  0
LINE
  5
4300
330
42C2
100
AcDbEntity
  8
0
100
AcDbLine
 10
32.50000000000002
 20
71.49999999999988
 30
0.0
 11
32.50000000000002
 21
88.0
 31
0.0
  0
LINE
  5
4301
330
42C2
100
AcDbEntity
  8
0
100
AcDbLine
 10
25.50000000000001
 20
95.0
 30
0.0
 11
-25.49999999999998
 21
95.0
 31
0.0
  0
LINE
  5
4302
330
42C2
100
AcDbEntity
  8
0
100
AcDbLine
 10
-32.5
 20
88.0
 30
0.0
 11
-32.5
 21
71.49999999999988
 31
0.0
  0
LINE
  5
4303
330
42C2
100
AcDbEntity
  8
0
100
AcDbLine
 10
-13.14629605568256
 20
12.99999999999998
 30
0.0
 11
-19.40135808271007
 21
57.50707895874676
 31
0.0
  0
LINE
  5
4304
330
42C2
100
AcDbEntity
  8
0
100
AcDbLine
 10
19.40135808271009
 20
57.50707895874676
 30
0.0
 11
13.14629605568258
 21
12.99999999999998
 31
0.0
  0
ELLIPSE
  5
4305
330
42C2
100
AcDbEntity
  8
0
100
AcDbEllipse
 10
14.13008189859931
 20
12.99999999999998
 30
0.0
 11
-0.9932598611245534
 21
-9.999531768717298
 31
0.0
210
0.0
220
0.0
230
1.0
 40
0.0974265314997313
 41
4.722066117737837
 42
6.292862444532736
  0
ELLIPSE
  5
4306
330
42C2
100
AcDbEntity
  8
0
100
AcDbEllipse
 10
-14.13008189859931
 20
12.99999999999998
 30
0.0
 11
-0.9932598611246522
 21
9.999531768717289
 31
0.0
210
0.0
220
0.0
230
0.9999999999999998
 40
0.0974265314997322
 41
3.131915516220317
 42
4.702711843026095
  0
LINE
  5
4307
330
42C2
100
AcDbEntity
  8
0
100
AcDbLine
 10
11.28169124609231
 20
12.99999999999998
 30
0.0
 11
-11.2816912460923
 21
12.99999999999998
 31
0.0
  0
LINE
  5
4308
330
42C2
100
AcDbEntity
  8
0
100
AcDbLine
 10
32.49999999999996
 20
0.0
 30
0.0
 11
32.49999999999996
 21
2.999999999999982
 31
0.0
  0
LINE
  5
4309
330
42C2
100
AcDbEntity
  8
0
100
AcDbLine
 10
-32.50000000000003
 20
2.999999999999989
 30
0.0
 11
-32.50000000000003
 21
0.0
 31
0.0
  0
LINE
  5
430A
330
42C2
100
AcDbEntity
  8
0
100
AcDbLine
 10
22.45917600970656
 20
14.78494715841456
 30
0.0
 11
25.8906097385464
 21
9.558133491121621
 31
0.0
  0
LINE
  5
430B
330
42C2
100
AcDbEntity
  8
0
100
AcDbLine
 10
25.89060973854639
 20
56.59507411444166
 30
0.0
 11
22.45917600970655
 21
26.95234078859372
 31
0.0
  0
ELLIPSE
  5
430C
330
42C2
100
AcDbEntity
  8
0
100
AcDbEllipse
 10
24.9013314616603
 20
29.55706345359768
 30
0.0
 11
-2.149316260459677
 21
-14.99707715516457
 31
0.0
210
0.0
220
0.0
230
1.0
 40
0.1377659927417798
 41
4.906663367072864
 42
6.1283938434689
  0
ENDBLK
  5
42C4
330
42C2
100
AcDbEntity
  8
0
100
AcDbBlockEnd
  0
BLOCK
  5
430E
330
430D
100
AcDbEntity
  8
0
100
AcDbBlockBegin
  2
AKR95LZ-Left
 70
     0
 10
0.0
 20
0.0
 30
0.0
  3
AKR95LZ-Left
  1

  0
ELLIPSE
  5
4310
330
430D
100
AcDbEntity
  8
0
100
AcDbEllipse
 10
6.000000000000004
 20
57.50707895874676
 30
0.0
 11
-6.000000000000001
 21
-0.0000000000000011
 31
0.0
210
0.0
220
0.0
230
1.0
 40
0.139173100960066
 41
0.0
 42
1.432511480600927
  0
LINE
  5
4311
330
430D
100
AcDbEntity
  8
0
100
AcDbLine
 10
9.558133491121635
 20
56.59507411444163
 30
0.0
 11
5.172932775050227
 21
56.68001173379697
 31
0.0
  0
SPLINE
  5
4312
330
430D
100
AcDbEntity
  8
0
100
AcDbSpline
210
0.0
220
0.0
230
1.0
 70
     8
 71
     3
 72
    20
 73
    16
 74
     0
 42
0.000000001
 43
0.0000000001
 40
-1.0
 40
-1.0
 40
-1.0
 40
-1.0
 40
-0.8557507846685076
 40
-0.8557507846685076
 40
-0.8557507846685076
 40
-0.4725410755549741
 40
-0.4725410755549741
 40
-0.4725410755549741
 40
-0.2262668722288056
 40
-0.2262668722288056
 40
-0.2262668722288056
 40
-0.054508876045835
 40
-0.054508876045835
 40
-0.054508876045835
 40
0.0
 40
0.0
 40
0.0
 40
0.0
 10
0.0000000000000732
 20
71.49999999999991
 30
0.0
 10
-0.0000078262249795
 20
70.51422263202256
 30
0.0
 10
0.1669297411115895
 20
69.60755482003745
 30
0.0
 10
0.4742787332298036
 20
68.79579103748923
 30
0.0
 10
1.290776192819416
 20
66.6392748840784
 30
0.0
 10
2.992237894643039
 20
65.09164757619789
 30
0.0
 10
4.721648724154577
 20
63.52662748021657
 30
0.0
 10
5.833074828798023
 20
62.52084900393832
 30
0.0
 10
6.95317498038407
 20
61.51295505185758
 30
0.0
 10
7.84656479070092
 20
60.3458991649537
 30
0.0
 10
8.469637940701449
 20
59.53196421821196
 30
0.0
 10
8.989941880013939
 20
58.62483513657611
 30
0.0
 10
9.312718229934832
 20
57.6001514218013
 30
0.0
 10
9.415154078275902
 20
57.27495923956751
 30
0.0
 10
9.494468906985677
 20
56.93850065070015
 30
0.0
 10
9.55813349111496
 20
56.59507411448335
 30
0.0
  0
LINE
  5
4313
330
430D
100
AcDbEntity
  8
0
100
AcDbLine
 10
0.0
 20
57.50707895874675
 30
0.0
 11
0.0
 21
71.49999999999991
 31
0.0
  0
LINE
  5
4314
330
430D
100
AcDbEntity
  8
0
100
AcDbLine
 10
9.540395631334256
 20
56.69567051617258
 30
0.0
 11
9.558133491121607
 21
56.59507411444164
 31
0.0
  0
LINE
  5
4315
330
430D
100
AcDbEntity
  8
0
100
AcDbLine
 10
9.483549287033975
 20
57.01806215511449
 30
0.0
 11
9.540395631334256
 21
56.69567051617258
 31
0.0
  0
SPLINE
  5
4316
330
430D
100
AcDbEntity
  8
0
100
AcDbSpline
210
0.0
220
0.0
230
1.0
 70
     8
 71
     3
 72
    20
 73
    16
 74
     0
 42
0.000000001
 43
0.0000000001
 40
-1.0
 40
-1.0
 40
-1.0
 40
-1.0
 40
-0.9033929680658552
 40
-0.9033929680658552
 40
-0.9033929680658552
 40
-0.5415825357496395
 40
-0.5415825357496395
 40
-0.5415825357496395
 40
-0.2707912678748197
 40
-0.2707912678748197
 40
-0.2707912678748197
 40
-0.0793860111516785
 40
-0.0793860111516785
 40
-0.0793860111516785
 40
0.0
 40
0.0
 40
0.0
 40
0.0
 10
9.483549287034055
 20
57.01806215511452
 30
0.0
 10
9.375050935141743
 20
57.61314329676951
 30
0.0
 10
9.225363034076451
 20
58.20907241224201
 30
0.0
 10
9.045108769707935
 20
58.74067065558574
 30
0.0
 10
8.370024647855682
 20
60.73160016032253
 30
0.0
 10
7.268539008866681
 20
62.18247812267808
 30
0.0
 10
6.186835126498584
 20
63.60061051048891
 30
0.0
 10
5.377251047077763
 20
64.66198915800678
 30
0.0
 10
4.58320452925087
 20
65.7027805737909
 30
0.0
 10
3.98708577539673
 20
66.95169524673295
 30
0.0
 10
3.565727051334487
 20
67.83447420587679
 30
0.0
 10
3.247193230996981
 20
68.81804861429016
 30
0.0
 10
3.092003397669845
 20
69.96578942997711
 30
0.0
 10
3.027637862208323
 20
70.44181901638054
 30
0.0
 10
3.002223693279841
 20
70.95583448578309
 30
0.0
 10
2.99999999989197
 20
71.50000000006288
 30
0.0
  0
ELLIPSE
  5
4317
330
430D
100
AcDbEntity
  8
0
100
AcDbEllipse
 10
57.50707895874676
 20
5.999999999999988
 30
0.0
 11
0.0000000000000006
 21
-6.000000000000001
 31
0.0
210
0.0
220
0.0
230
1.0
 40
0.1391731009600662
 41
4.850673826578662
 42
6.283185307179602
  0
LINE
  5
4318
330
430D
100
AcDbEntity
  8
0
100
AcDbLine
 10
57.50707895874676
 20
0.0
 30
0.0
 11
71.49999999999991
 21
0.0
 31
0.0
  0
SPLINE
  5
4319
330
430D
100
AcDbEntity
  8
0
100
AcDbSpline
210
0.0
220
0.0
230
1.0
 70
     8
 71
     3
 72
    20
 73
    16
 74
     0
 42
0.000000001
 43
0.0000000001
 40
-1.0
 40
-1.0
 40
-1.0
 40
-1.0
 40
-0.8557507846685076
 40
-0.8557507846685076
 40
-0.8557507846685076
 40
-0.4725410755549741
 40
-0.4725410755549741
 40
-0.4725410755549741
 40
-0.2262668722288056
 40
-0.2262668722288056
 40
-0.2262668722288056
 40
-0.054508876045835
 40
-0.054508876045835
 40
-0.054508876045835
 40
0.0
 40
0.0
 40
0.0
 40
0.0
 10
71.49999999999991
 20
0.000000000000074
 30
0.0
 10
70.51422263202256
 20
-0.0000078262249787
 30
0.0
 10
69.60755482003745
 20
0.1669297411115902
 30
0.0
 10
68.79579103748923
 20
0.4742787332298042
 30
0.0
 10
66.6392748840784
 20
1.290776192819417
 30
0.0
 10
65.09164757619789
 20
2.992237894643039
 30
0.0
 10
63.52662748021657
 20
4.721648724154576
 30
0.0
 10
62.52084900393832
 20
5.833074828798022
 30
0.0
 10
61.51295505185758
 20
6.953174980384069
 30
0.0
 10
60.3458991649537
 20
7.846564790700918
 30
0.0
 10
59.53196421821196
 20
8.469637940701446
 30
0.0
 10
58.62483513657611
 20
8.989941880013937
 30
0.0
 10
57.6001514218013
 20
9.312718229934828
 30
0.0
 10
57.27495923956751
 20
9.4151540782759
 30
0.0
 10
56.93850065070015
 20
9.494468906985675
 30
0.0
 10
56.59507411448335
 20
9.558133491114956
 30
0.0
  0
LINE
  5
431A
330
430D
100
AcDbEntity
  8
0
100
AcDbLine
 10
56.68001173379697
 20
5.172932775050218
 30
0.0
 11
56.59507411444163
 21
9.558133491121626
 31
0.0
  0
SPLINE
  5
431B
330
430D
100
AcDbEntity
  8
0
100
AcDbSpline
210
0.0
220
0.0
230
1.0
 70
     8
 71
     3
 72
    20
 73
    16
 74
     0
 42
0.000000001
 43
0.0000000001
 40
-1.0
 40
-1.0
 40
-1.0
 40
-1.0
 40
-0.856514084357323
 40
-0.856514084357323
 40
-0.856514084357323
 40
-0.5402558541811611
 40
-0.5402558541811611
 40
-0.5402558541811611
 40
-0.2701279270905805
 40
-0.2701279270905805
 40
-0.2701279270905805
 40
-0.0852549168069366
 40
-0.0852549168069366
 40
-0.0852549168069366
 40
0.0
 40
0.0
 40
0.0
 40
0.0
 10
57.01806215511453
 20
9.483549287034055
 30
0.0
 10
57.92230508728144
 20
9.320092462342099
 30
0.0
 10
58.75125606595518
 20
9.072461725048391
 30
0.0
 10
59.49063806024835
 20
8.763930907745653
 30
0.0
 10
61.12031467270141
 20
8.083896147553856
 30
0.0
 10
62.37298809436582
 20
7.123035516937336
 30
0.0
 10
63.6172248398844
 20
6.173960274807914
 30
0.0
 10
64.67997376088368
 20
5.363319781225795
 30
0.0
 10
65.70892477048005
 20
4.57967390980356
 30
0.0
 10
66.95682341169521
 20
3.984753324025236
 30
0.0
 10
67.81087349387333
 20
3.577595275773281
 30
0.0
 10
68.76547766490812
 20
3.265340377922504
 30
0.0
 10
69.85892594191745
 20
3.108560584059382
 30
0.0
 10
70.36317392136071
 20
3.036260964648729
 30
0.0
 10
70.902899999429
 20
2.999954352938685
 30
0.0
 10
71.50000000006288
 20
2.999999999892053
 30
0.0
  0
LINE
  5
431C
330
430D
100
AcDbEntity
  8
0
100
AcDbLine
 10
56.59507411444164
 20
9.558133491121619
 30
0.0
 11
56.69567051617135
 21
9.540395631334485
 31
0.0
  0
LINE
  5
431D
330
430D
100
AcDbEntity
  8
0
100
AcDbLine
 10
56.72711921707456
 20
9.534850376857015
 30
0.0
 11
57.01806215511449
 21
9.483549287033985
 31
0.0
  0
LINE
  5
431E
330
430D
100
AcDbEntity
  8
0
100
AcDbLine
 10
56.69567051617135
 20
9.540395631334485
 30
0.0
 11
56.72711921707456
 21
9.534850376857015
 31
0.0
  0
LINE
  5
431F
330
430D
100
AcDbEntity
  8
0
100
AcDbLine
 10
0.0
 20
57.50707895874676
 30
0.0
 11
0.0
 21
9.999999999999991
 31
0.0
  0
ARC
  5
4320
330
430D
100
AcDbEntity
  8
0
100
AcDbCircle
 10
10.0
 20
9.999999999999991
 30
0.0
 40
9.999999999999998
100
AcDbArc
 50
180.0
 51
270.0
  0
LINE
  5
4321
330
430D
100
AcDbEntity
  8
0
100
AcDbLine
 10
10.0
 20
0.0
 30
0.0
 11
57.50707895874676
 21
0.0
 31
0.0
  0
LINE
  5
4322
330
430D
100
AcDbEntity
  8
0
100
AcDbLine
 10
0.0
 20
88.0
 30
0.0
 11
0.0
 21
71.49999999999988
 31
0.0
  0
LINE
  5
4323
330
430D
100
AcDbEntity
  8
0
100
AcDbLine
 10
3.0
 20
88.0
 30
0.0
 11
2.999999999999999
 21
71.49999999999988
 31
0.0
  0
LINE
  5
4324
330
430D
100
AcDbEntity
  8
0
100
AcDbLine
 10
3.000000000000004
 20
95.0
 30
0.0
 11
0.0
 21
95.0
 31
0.0
  0
LINE
  5
4325
330
430D
100
AcDbEntity
  8
0
100
AcDbLine
 10
0.0
 20
88.0
 30
0.0
 11
3.0
 21
88.0
 31
0.0
  0
LINE
  5
4326
330
430D
100
AcDbEntity
  8
0
100
AcDbLine
 10
0.0
 20
95.0
 30
0.0
 11
0.0
 21
88.0
 31
0.0
  0
LINE
  5
4327
330
430D
100
AcDbEntity
  8
0
100
AcDbLine
 10
77.99999999999998
 20
0.0
 30
0.0
 11
85.0
 21
0.0
 31
0.0
  0
LINE
  5
4328
330
430D
100
AcDbEntity
  8
0
100
AcDbLine
 10
3.0
 20
88.0
 30
0.0
 11
3.000000000000004
 21
95.0
 31
0.0
  0
LINE
  5
4329
330
430D
100
AcDbEntity
  8
0
100
AcDbLine
 10
85.0
 20
2.999999999999988
 30
0.0
 11
77.99999999999998
 21
2.999999999999989
 31
0.0
  0
LINE
  5
432A
330
430D
100
AcDbEntity
  8
0
100
AcDbLine
 10
85.0
 20
0.0
 30
0.0
 11
85.0
 21
2.999999999999988
 31
0.0
  0
LINE
  5
432B
330
430D
100
AcDbEntity
  8
0
100
AcDbLine
 10
71.49999999999991
 20
0.0
 30
0.0
 11
77.99999999999998
 21
0.0
 31
0.0
  0
LINE
  5
432C
330
430D
100
AcDbEntity
  8
0
100
AcDbLine
 10
71.49999999999991
 20
2.999999999999989
 30
0.0
 11
77.99999999999998
 21
2.999999999999989
 31
0.0
  0
LINE
  5
432D
330
430D
100
AcDbEntity
  8
0
100
AcDbLine
 10
77.99999999999998
 20
2.999999999999989
 30
0.0
 11
77.99999999999998
 21
0.0
 31
0.0
  0
LINE
  5
432E
330
430D
100
AcDbEntity
  8
0
100
AcDbLine
 10
56.59507411444166
 20
9.558133491121624
 30
0.0
 11
26.95234078859373
 21
14.78494715841456
 31
0.0
  0
ARC
  5
432F
330
430D
100
AcDbEntity
  8
0
100
AcDbCircle
 10
29.55706345359767
 20
29.55706345359769
 30
0.0
 40
15.0
100
AcDbArc
 50
190.0
 51
260.0
  0
LINE
  5
4330
330
430D
100
AcDbEntity
  8
0
100
AcDbLine
 10
14.78494715841456
 20
26.95234078859373
 30
0.0
 11
9.55813349112161
 21
56.59507411444164
 31
0.0
  0
ENDBLK
  5
430F
330
430D
100
AcDbEntity
  8
0
100
AcDbBlockEnd
  0
BLOCK
  5
4332
330
4331
100
AcDbEntity
  8
0
100
AcDbBlockBegin
  2
AKR95LZ-Right
 70
     0
 10
0.0
 20
0.0
 30
0.0
  3
AKR95LZ-Right
  1

  0
SPLINE
  5
4334
330
4331
100
AcDbEntity
  8
0
100
AcDbSpline
210
0.0
220
0.0
230
1.0
 70
     8
 71
     3
 72
    14
 73
    10
 74
     0
 42
0.000000001
 43
0.0000000001
 40
-0.9977861568465103
 40
-0.9977861568465103
 40
-0.9977861568465103
 40
-0.9977861568465103
 40
-0.9033929680658552
 40
-0.9033929680658552
 40
-0.9033929680658552
 40
-0.5415825357496395
 40
-0.5415825357496395
 40
-0.5415825357496395
 40
-0.3924099953873161
 40
-0.3924099953873161
 40
-0.3924099953873161
 40
-0.3924099953873161
 10
-9.476025491268874
 20
57.05897327864237
 30
0.0
 10
-9.368174398724779
 20
57.6404220928943
 30
0.0
 10
-9.221232334053171
 20
58.22125449783012
 30
0.0
 10
-9.045108769707935
 20
58.74067065558574
 30
0.0
 10
-8.370024647855682
 20
60.73160016032253
 30
0.0
 10
-7.268539008866681
 20
62.18247812267808
 30
0.0
 10
-6.186835126498584
 20
63.60061051048891
 30
0.0
 10
-5.740854298860061
 20
64.18529904339151
 30
0.0
 10
-5.299588575731831
 20
64.76374007416096
 30
0.0
 10
-4.893528432475177
 20
65.3741675179718
 30
0.0
  0
SPLINE
  5
4335
330
4331
100
AcDbEntity
  8
0
100
AcDbSpline
210
0.0
220
0.0
230
1.0
 70
     8
 71
     3
 72
    11
 73
     7
 74
     0
 42
0.000000001
 43
0.0000000001
 40
-0.2225153248348671
 40
-0.2225153248348671
 40
-0.2225153248348671
 40
-0.2225153248348671
 40
-0.0793860111516785
 40
-0.0793860111516785
 40
-0.0793860111516785
 40
0.0
 40
0.0
 40
0.0
 40
0.0
 10
-3.68885677261661
 20
67.63990757026717
 30
0.0
 10
-3.415437809778148
 20
68.34106880010226
 30
0.0
 10
-3.208051487022221
 20
69.10753005900763
 30
0.0
 10
-3.092003397669845
 20
69.96578942997711
 30
0.0
 10
-3.027637862208323
 20
70.44181901638054
 30
0.0
 10
-3.002223693279841
 20
70.95583448578309
 30
0.0
 10
-2.99999999989197
 20
71.50000000006288
 30
0.0
  0
SPLINE
  5
4336
330
4331
100
AcDbEntity
  8
0
100
AcDbSpline
210
0.0
220
0.0
230
1.0
 70
     8
 71
     3
 72
    20
 73
    16
 74
     0
 42
0.000000001
 43
0.0000000001
 40
-1.0
 40
-1.0
 40
-1.0
 40
-1.0
 40
-0.856514084357323
 40
-0.856514084357323
 40
-0.856514084357323
 40
-0.5402558541811611
 40
-0.5402558541811611
 40
-0.5402558541811611
 40
-0.2701279270905805
 40
-0.2701279270905805
 40
-0.2701279270905805
 40
-0.0852549168069366
 40
-0.0852549168069366
 40
-0.0852549168069366
 40
0.0
 40
0.0
 40
0.0
 40
0.0
 10
-9.483549287034078
 20
57.01806215511453
 30
0.0
 10
-9.320092462342124
 20
57.92230508728144
 30
0.0
 10
-9.072461725048416
 20
58.75125606595518
 30
0.0
 10
-8.763930907745677
 20
59.49063806024835
 30
0.0
 10
-8.083896147553881
 20
61.12031467270141
 30
0.0
 10
-7.12303551693736
 20
62.37298809436582
 30
0.0
 10
-6.17396027480794
 20
63.6172248398844
 30
0.0
 10
-5.363319781225822
 20
64.67997376088368
 30
0.0
 10
-4.579673909803585
 20
65.70892477048005
 30
0.0
 10
-3.984753324025263
 20
66.95682341169521
 30
0.0
 10
-3.577595275773308
 20
67.81087349387333
 30
0.0
 10
-3.265340377922532
 20
68.76547766490812
 30
0.0
 10
-3.108560584059409
 20
69.85892594191745
 30
0.0
 10
-3.036260964648756
 20
70.36317392136071
 30
0.0
 10
-2.999954352938711
 20
70.902899999429
 30
0.0
 10
-2.99999999989208
 20
71.50000000006288
 30
0.0
  0
ELLIPSE
  5
4337
330
4331
100
AcDbEntity
  8
0
100
AcDbEllipse
 10
-6.000000000000022
 20
57.50707895874676
 30
0.0
 11
6.0
 21
-0.0000000000000006
 31
0.0
210
0.0
220
0.0
230
1.0
 40
0.1391731009600659
 41
4.850673826579074
 42
6.283185307180398
  0
LINE
  5
4338
330
4331
100
AcDbEntity
  8
0
100
AcDbLine
 10
0.0
 20
57.50707895874675
 30
0.0
 11
0.0
 21
71.49999999999991
 31
0.0
  0
SPLINE
  5
4339
330
4331
100
AcDbEntity
  8
0
100
AcDbSpline
210
0.0
220
0.0
230
1.0
 70
     8
 71
     3
 72
    20
 73
    16
 74
     0
 42
0.000000001
 43
0.0000000001
 40
-1.0
 40
-1.0
 40
-1.0
 40
-1.0
 40
-0.8557507846685076
 40
-0.8557507846685076
 40
-0.8557507846685076
 40
-0.4725410755549741
 40
-0.4725410755549741
 40
-0.4725410755549741
 40
-0.2262668722288056
 40
-0.2262668722288056
 40
-0.2262668722288056
 40
-0.054508876045835
 40
-0.054508876045835
 40
-0.054508876045835
 40
0.0
 40
0.0
 40
0.0
 40
0.0
 10
-0.0000000000001013
 20
71.49999999999991
 30
0.0
 10
0.0000078262249514
 20
70.51422263202256
 30
0.0
 10
-0.1669297411116175
 20
69.60755482003745
 30
0.0
 10
-0.4742787332298314
 20
68.79579103748923
 30
0.0
 10
-1.290776192819443
 20
66.6392748840784
 30
0.0
 10
-2.992237894643064
 20
65.09164757619789
 30
0.0
 10
-4.721648724154603
 20
63.52662748021657
 30
0.0
 10
-5.833074828798048
 20
62.52084900393832
 30
0.0
 10
-6.953174980384094
 20
61.51295505185758
 30
0.0
 10
-7.846564790700942
 20
60.3458991649537
 30
0.0
 10
-8.469637940701471
 20
59.53196421821196
 30
0.0
 10
-8.98994188001396
 20
58.62483513657611
 30
0.0
 10
-9.312718229934853
 20
57.6001514218013
 30
0.0
 10
-9.415154078275925
 20
57.27495923956751
 30
0.0
 10
-9.494468906985698
 20
56.93850065070015
 30
0.0
 10
-9.558133491114981
 20
56.59507411448335
 30
0.0
  0
LINE
  5
433A
330
4331
100
AcDbEntity
  8
0
100
AcDbLine
 10
-5.172932775050249
 20
56.68001173379697
 30
0.0
 11
-9.558133491121656
 21
56.59507411444163
 31
0.0
  0
LINE
  5
433B
330
4331
100
AcDbEntity
  8
0
100
AcDbLine
 10
-9.558133491121632
 20
56.59507411444163
 30
0.0
 11
-9.540395631334279
 21
56.69567051617257
 31
0.0
  0
LINE
  5
433C
330
4331
100
AcDbEntity
  8
0
100
AcDbLine
 10
-9.53485037685745
 20
56.72711921707217
 30
0.0
 11
-9.483549287033996
 21
57.01806215511449
 31
0.0
  0
LINE
  5
433D
330
4331
100
AcDbEntity
  8
0
100
AcDbLine
 10
-9.540395631334279
 20
56.69567051617257
 30
0.0
 11
-9.53485037685745
 21
56.72711921707217
 31
0.0
  0
ELLIPSE
  5
433E
330
4331
100
AcDbEntity
  8
0
100
AcDbEllipse
 10
-57.50707895874676
 20
5.999999999999983
 30
0.0
 11
0.000000000000001
 21
-6.000000000000001
 31
0.0
210
0.0
220
0.0
230
1.0
 40
0.1391731009600658
 41
0.0
 42
1.432511480600928
  0
LINE
  5
433F
330
4331
100
AcDbEntity
  8
0
100
AcDbLine
 10
-56.59507411444167
 20
9.558133491121621
 30
0.0
 11
-56.68001173379701
 21
5.172932775050212
 31
0.0
  0
SPLINE
  5
4340
330
4331
100
AcDbEntity
  8
0
100
AcDbSpline
210
0.0
220
0.0
230
1.0
 70
     8
 71
     3
 72
    20
 73
    16
 74
     0
 42
0.000000001
 43
0.0000000001
 40
-1.0
 40
-1.0
 40
-1.0
 40
-1.0
 40
-0.8557507846685076
 40
-0.8557507846685076
 40
-0.8557507846685076
 40
-0.4725410755549741
 40
-0.4725410755549741
 40
-0.4725410755549741
 40
-0.2262668722288056
 40
-0.2262668722288056
 40
-0.2262668722288056
 40
-0.054508876045835
 40
-0.054508876045835
 40
-0.054508876045835
 40
0.0
 40
0.0
 40
0.0
 40
0.0
 10
-71.49999999999995
 20
0.0000000000000662
 30
0.0
 10
-70.51422263202259
 20
-0.0000078262249865
 30
0.0
 10
-69.60755482003747
 20
0.1669297411115825
 30
0.0
 10
-68.79579103748927
 20
0.4742787332297965
 30
0.0
 10
-66.63927488407844
 20
1.290776192819409
 30
0.0
 10
-65.09164757619791
 20
2.992237894643031
 30
0.0
 10
-63.52662748021661
 20
4.721648724154569
 30
0.0
 10
-62.52084900393835
 20
5.833074828798014
 30
0.0
 10
-61.51295505185761
 20
6.953174980384062
 30
0.0
 10
-60.34589916495374
 20
7.846564790700911
 30
0.0
 10
-59.531964218212
 20
8.469637940701439
 30
0.0
 10
-58.62483513657615
 20
8.98994188001393
 30
0.0
 10
-57.60015142180134
 20
9.312718229934823
 30
0.0
 10
-57.27495923956753
 20
9.415154078275895
 30
0.0
 10
-56.93850065070018
 20
9.49446890698567
 30
0.0
 10
-56.59507411448339
 20
9.558133491114951
 30
0.0
  0
LINE
  5
4341
330
4331
100
AcDbEntity
  8
0
100
AcDbLine
 10
-57.50707895874676
 20
0.0
 30
0.0
 11
-71.49999999999995
 21
0.0
 31
0.0
  0
SPLINE
  5
4342
330
4331
100
AcDbEntity
  8
0
100
AcDbSpline
210
0.0
220
0.0
230
1.0
 70
     8
 71
     3
 72
    20
 73
    16
 74
     0
 42
0.000000001
 43
0.0000000001
 40
-1.0
 40
-1.0
 40
-1.0
 40
-1.0
 40
-0.856514084357323
 40
-0.856514084357323
 40
-0.856514084357323
 40
-0.5402558541811611
 40
-0.5402558541811611
 40
-0.5402558541811611
 40
-0.2701279270905805
 40
-0.2701279270905805
 40
-0.2701279270905805
 40
-0.0852549168069366
 40
-0.0852549168069366
 40
-0.0852549168069366
 40
0.0
 40
0.0
 40
0.0
 40
0.0
 10
-57.01806215511457
 20
9.483549287034049
 30
0.0
 10
-57.92230508728147
 20
9.320092462342094
 30
0.0
 10
-58.75125606595521
 20
9.072461725048386
 30
0.0
 10
-59.49063806024839
 20
8.763930907745647
 30
0.0
 10
-61.12031467270144
 20
8.083896147553849
 30
0.0
 10
-62.37298809436587
 20
7.123035516937329
 30
0.0
 10
-63.61722483988444
 20
6.173960274807908
 30
0.0
 10
-64.67997376088373
 20
5.363319781225789
 30
0.0
 10
-65.70892477048008
 20
4.579673909803553
 30
0.0
 10
-66.95682341169524
 20
3.984753324025229
 30
0.0
 10
-67.81087349387336
 20
3.577595275773273
 30
0.0
 10
-68.76547766490815
 20
3.265340377922496
 30
0.0
 10
-69.85892594191749
 20
3.108560584059374
 30
0.0
 10
-70.36317392136074
 20
3.036260964648722
 30
0.0
 10
-70.90289999942902
 20
2.999954352938677
 30
0.0
 10
-71.50000000006293
 20
2.999999999892046
 30
0.0
  0
LINE
  5
4343
330
4331
100
AcDbEntity
  8
0
100
AcDbLine
 10
-56.69567051617137
 20
9.540395631334481
 30
0.0
 11
-56.59507411444168
 21
9.558133491121616
 31
0.0
  0
LINE
  5
4344
330
4331
100
AcDbEntity
  8
0
100
AcDbLine
 10
-56.7271192170746
 20
9.534850376857011
 30
0.0
 11
-56.69567051617137
 21
9.540395631334481
 31
0.0
  0
LINE
  5
4345
330
4331
100
AcDbEntity
  8
0
100
AcDbLine
 10
-57.01806215511453
 20
9.483549287033984
 30
0.0
 11
-56.7271192170746
 21
9.534850376857011
 31
0.0
  0
LINE
  5
4346
330
4331
100
AcDbEntity
  8
0
100
AcDbLine
 10
0.0
 20
9.999999999999989
 30
0.0
 11
0.0
 21
57.50707895874676
 31
0.0
  0
ARC
  5
4347
330
4331
100
AcDbEntity
  8
0
100
AcDbCircle
 10
-10.00000000000001
 20
9.999999999999989
 30
0.0
 40
10.0
100
AcDbArc
 50
270.0
 51
0.0
  0
LINE
  5
4348
330
4331
100
AcDbEntity
  8
0
100
AcDbLine
 10
-57.50707895874676
 20
0.0
 30
0.0
 11
-10.00000000000001
 21
0.0
 31
0.0
  0
LINE
  5
4349
330
4331
100
AcDbEntity
  8
0
100
AcDbLine
 10
0.0
 20
88.0
 30
0.0
 11
0.0
 21
95.0
 31
0.0
  0
LINE
  5
434A
330
4331
100
AcDbEntity
  8
0
100
AcDbLine
 10
-85.0
 20
0.0
 30
0.0
 11
-78.00000000000003
 21
0.0
 31
0.0
  0
LINE
  5
434B
330
4331
100
AcDbEntity
  8
0
100
AcDbLine
 10
-3.000000000000027
 20
95.0
 30
0.0
 11
-3.000000000000029
 21
88.0
 31
0.0
  0
LINE
  5
434C
330
4331
100
AcDbEntity
  8
0
100
AcDbLine
 10
-78.00000000000003
 20
2.999999999999981
 30
0.0
 11
-85.0
 21
2.999999999999982
 31
0.0
  0
LINE
  5
434D
330
4331
100
AcDbEntity
  8
0
100
AcDbLine
 10
-85.0
 20
2.999999999999982
 30
0.0
 11
-85.0
 21
0.0
 31
0.0
  0
LINE
  5
434E
330
4331
100
AcDbEntity
  8
0
100
AcDbLine
 10
0.0
 20
71.49999999999988
 30
0.0
 11
0.0
 21
88.0
 31
0.0
  0
LINE
  5
434F
330
4331
100
AcDbEntity
  8
0
100
AcDbLine
 10
-3.000000000000027
 20
71.49999999999988
 30
0.0
 11
-3.000000000000029
 21
88.0
 31
0.0
  0
LINE
  5
4350
330
4331
100
AcDbEntity
  8
0
100
AcDbLine
 10
0.0
 20
95.0
 30
0.0
 11
-3.000000000000027
 21
95.0
 31
0.0
  0
LINE
  5
4351
330
4331
100
AcDbEntity
  8
0
100
AcDbLine
 10
-3.000000000000029
 20
88.0
 30
0.0
 11
0.0
 21
88.0
 31
0.0
  0
LINE
  5
4352
330
4331
100
AcDbEntity
  8
0
100
AcDbLine
 10
-78.00000000000003
 20
0.0
 30
0.0
 11
-71.49999999999995
 21
0.0
 31
0.0
  0
LINE
  5
4353
330
4331
100
AcDbEntity
  8
0
100
AcDbLine
 10
-78.00000000000003
 20
2.999999999999981
 30
0.0
 11
-71.49999999999995
 21
2.999999999999982
 31
0.0
  0
LINE
  5
4354
330
4331
100
AcDbEntity
  8
0
100
AcDbLine
 10
-78.00000000000003
 20
0.0
 30
0.0
 11
-78.00000000000003
 21
2.999999999999981
 31
0.0
  0
LINE
  5
4355
330
4331
100
AcDbEntity
  8
0
100
AcDbLine
 10
-26.95234078859375
 20
14.78494715841456
 30
0.0
 11
-56.59507411444167
 21
9.558133491121619
 31
0.0
  0
LINE
  5
4356
330
4331
100
AcDbEntity
  8
0
100
AcDbLine
 10
-9.55813349112163
 20
56.59507411444166
 30
0.0
 11
-14.78494715841457
 21
26.95234078859372
 31
0.0
  0
ARC
  5
4357
330
4331
100
AcDbEntity
  8
0
100
AcDbCircle
 10
-29.55706345359769
 20
29.55706345359768
 30
0.0
 40
15.0
100
AcDbArc
 50
279.9999999999999
 51
350.0
  0
ENDBLK
  5
4333
330
4331
100
AcDbEntity
  8
0
100
AcDbBlockEnd
  0
BLOCK
  5
4359
330
4358
100
AcDbEntity
  8
0
100
AcDbBlockBegin
  2
AKR95LZ-Top
 70
     0
 10
0.0
 20
0.0
 30
0.0
  3
AKR95LZ-Top
  1

  0
ARC
  5
435B
330
4358
100
AcDbEntity
  8
0
100
AcDbCircle
 10
-0.0000000000011228
 20
-24.95000000000028
 30
0.0
 40
6.749999999999998
100
AcDbArc
 50
0.0
 51
180.0
  0
LINE
  5
435C
330
4358
100
AcDbEntity
  8
0
100
AcDbLine
 10
6.750000000001113
 20
-24.95000000000028
 30
0.0
 11
6.750000000001109
 21
-36.45000000000027
 31
0.0
  0
ARC
  5
435D
330
4358
100
AcDbEntity
  8
0
100
AcDbCircle
 10
-0.0000000000011279
 20
-36.45000000000027
 30
0.0
 40
6.749999999999998
100
AcDbArc
 50
180.0
 51
0.0
  0
LINE
  5
435E
330
4358
100
AcDbEntity
  8
0
100
AcDbLine
 10
-6.750000000001127
 20
-36.45000000000027
 30
0.0
 11
-6.750000000001122
 21
-24.95000000000028
 31
0.0
  0
CIRCLE
  5
435F
330
4358
100
AcDbEntity
  8
0
100
AcDbCircle
 10
-0.0000000000000222
 20
-65.00000000000001
 30
0.0
 40
5.5
  0
CIRCLE
  5
4360
330
4358
100
AcDbEntity
  8
0
100
AcDbCircle
 10
-22.50000000000003
 20
-74.99999999999999
 30
0.0
 40
2.6
  0
CIRCLE
  5
4361
330
4358
100
AcDbEntity
  8
0
100
AcDbCircle
 10
22.49999999999997
 20
-75.00000000000003
 30
0.0
 40
2.6
  0
LINE
  5
4362
330
4358
100
AcDbEntity
  8
0
100
AcDbLine
 10
-25.50000000000002
 20
-85.0
 30
0.0
 11
25.49999999999997
 21
-85.0
 31
0.0
  0
LINE
  5
4363
330
4358
100
AcDbEntity
  8
0
100
AcDbLine
 10
-19.40049474616515
 20
-14.78494715841456
 30
0.0
 11
-22.88089344101218
 21
-9.483549287033977
 31
0.0
  0
ELLIPSE
  5
4364
330
4358
100
AcDbEntity
  8
0
100
AcDbEllipse
 10
-21.84265019811888
 20
-29.55706345359767
 30
0.0
 11
2.149316260459694
 21
14.99707715516456
 31
0.0
210
0.0
220
0.0
230
1.0
 40
0.1377659927417793
 41
4.90666336707286
 42
6.128393843468892
  0
LINE
  5
4365
330
4358
100
AcDbEntity
  8
0
100
AcDbLine
 10
-22.88089344101225
 20
-57.01806215511449
 30
0.0
 11
-19.40049474616516
 21
-26.95234078859373
 31
0.0
  0
LINE
  5
4366
330
4358
100
AcDbEntity
  8
0
100
AcDbLine
 10
19.40049474616515
 20
-26.95234078859375
 30
0.0
 11
22.8808934410122
 21
-57.01806215511452
 31
0.0
  0
ELLIPSE
  5
4367
330
4358
100
AcDbEntity
  8
0
100
AcDbEllipse
 10
21.84265019811889
 20
-29.55706345359769
 30
0.0
 11
2.149316260459893
 21
-14.99707715516453
 31
0.0
210
0.0
220
0.0
230
1.0
 40
0.1377659927417796
 41
3.296384117292459
 42
4.518114593693592
  0
LINE
  5
4368
330
4358
100
AcDbEntity
  8
0
100
AcDbLine
 10
22.88089344101219
 20
-9.483549287034003
 30
0.0
 11
19.40049474616515
 21
-14.78494715841457
 31
0.0
  0
SPLINE
  5
4369
330
4358
100
AcDbEntity
  8
0
100
AcDbSpline
210
0.0
220
0.0
230
1.0
 70
     8
 71
     3
 72
    14
 73
    10
 74
     0
 42
0.000000001
 43
0.0000000001
 40
-0.4328627886584292
 40
-0.4328627886584292
 40
-0.4328627886584292
 40
-0.4328627886584292
 40
-0.2262668722288056
 40
-0.2262668722288056
 40
-0.2262668722288056
 40
-0.054508876045835
 40
-0.054508876045835
 40
-0.054508876045835
 40
0.0
 40
0.0
 40
0.0
 40
0.0
 10
-28.84761590240695
 20
-5.258539578623109
 30
0.0
 10
-28.203127715699
 20
-6.188118147776846
 30
0.0
 10
-27.57269840583103
 20
-7.097112821722869
 30
0.0
 10
-27.05454655899834
 20
-7.846564790700919
 30
0.0
 10
-26.62376978243602
 20
-8.469637940701449
 30
0.0
 10
-26.26601864944865
 20
-8.989941880013939
 30
0.0
 10
-26.05086466152208
 20
-9.312718229934832
 30
0.0
 10
-25.98258369458438
 20
-9.415154078275902
 30
0.0
 10
-25.93039957561514
 20
-9.494468906985677
 30
0.0
 10
-25.89060973843283
 20
-9.558133491114958
 30
0.0
  0
LINE
  5
436A
330
4358
100
AcDbEntity
  8
0
100
AcDbLine
 10
-25.17482914748932
 20
-9.540395631334256
 30
0.0
 11
-25.89060973854642
 21
-9.558133491121607
 31
0.0
  0
LINE
  5
436B
330
4358
100
AcDbEntity
  8
0
100
AcDbLine
 10
-22.88089344101223
 20
-9.483549287033973
 30
0.0
 11
-25.17482914748932
 21
-9.540395631334256
 31
0.0
  0
SPLINE
  5
436C
330
4358
100
AcDbEntity
  8
0
100
AcDbSpline
210
0.0
220
0.0
230
1.0
 70
     8
 71
     3
 72
    20
 73
    16
 74
     0
 42
0.000000001
 43
0.0000000001
 40
-1.0
 40
-1.0
 40
-1.0
 40
-1.0
 40
-0.9033929680658552
 40
-0.9033929680658552
 40
-0.9033929680658552
 40
-0.5415825357496395
 40
-0.5415825357496395
 40
-0.5415825357496395
 40
-0.2707912678748197
 40
-0.2707912678748197
 40
-0.2707912678748197
 40
-0.0793860111516785
 40
-0.0793860111516785
 40
-0.0793860111516785
 40
0.0
 40
0.0
 40
0.0
 40
0.0
 10
-22.8808934410122
 20
-9.483549287034055
 30
0.0
 10
-22.95529227250461
 20
-9.375050935141743
 30
0.0
 10
-23.09147695674213
 20
-9.225363034076451
 30
0.0
 10
-23.29922806440555
 20
-9.045108769707933
 30
0.0
 10
-24.07729273084843
 20
-8.370024647855681
 30
0.0
 10
-25.72291436054121
 20
-7.26853900886668
 30
0.0
 10
-27.39546389577516
 20
-6.186835126498583
 30
0.0
 10
-28.647257013873
 20
-5.377251047077761
 30
0.0
 10
-29.91698039153798
 20
-4.583204529250869
 30
0.0
 10
-30.88404344345722
 20
-3.987085775396729
 30
0.0
 10
-31.56759928029327
 20
-3.565727051334485
 30
0.0
 10
-32.09222344379321
 20
-3.24719323099698
 30
0.0
 10
-32.34180618508881
 20
-3.092003397669844
 30
0.0
 10
-32.44532151493378
 20
-3.027637862208322
 30
0.0
 10
-32.49529449092631
 20
-3.00222369327984
 30
0.0
 10
-32.50000000000156
 20
-2.999999999891969
 30
0.0
  0
LINE
  5
436D
330
4358
100
AcDbEntity
  8
0
100
AcDbLine
 10
-22.34380262810205
 20
-5.586466387525113
 30
0.0
 11
-22.88089344101218
 21
-9.483549287034001
 31
0.0
  0
ELLIPSE
  5
436E
330
4358
100
AcDbEntity
  8
0
100
AcDbEllipse
 10
-19.40135808271007
 20
-6.000000000000001
 30
0.0
 11
-0.0000000000000415
 21
3.0
 31
0.0
210
0.0
220
0.0
230
1.0
 40
0.9902680687415703
 41
0.0
 42
1.432511480600913
  0
SPLINE
  5
436F
330
4358
100
AcDbEntity
  8
0
100
AcDbSpline
210
0.0
220
0.0
230
1.0
 70
     8
 71
     3
 72
    20
 73
    16
 74
     0
 42
0.000000001
 43
0.0000000001
 40
-1.0
 40
-1.0
 40
-1.0
 40
-1.0
 40
-0.856514084357323
 40
-0.856514084357323
 40
-0.856514084357323
 40
-0.5402558541811611
 40
-0.5402558541811611
 40
-0.5402558541811611
 40
-0.2701279270905805
 40
-0.2701279270905805
 40
-0.2701279270905805
 40
-0.0852549168069366
 40
-0.0852549168069366
 40
-0.0852549168069366
 40
0.0
 40
0.0
 40
0.0
 40
0.0
 10
22.88089344101224
 20
-9.48354928703408
 30
0.0
 10
22.98563906630231
 20
-9.320092462342126
 30
0.0
 10
23.25108945203065
 20
-9.072461725048416
 30
0.0
 10
23.64500443042786
 20
-8.763930907745679
 30
0.0
 10
24.51323496963997
 20
-8.083896147553879
 30
0.0
 10
25.94709485156688
 20
-7.123035516937359
 30
0.0
 10
27.41482735378446
 20
-6.173960274807939
 30
0.0
 10
28.66847232019897
 20
-5.363319781225822
 30
0.0
 10
29.92402793119222
 20
-4.579673909803585
 30
0.0
 10
30.88879741846547
 20
-3.984753324025263
 30
0.0
 10
31.54907657309801
 20
-3.577595275773307
 30
0.0
 10
32.05964361545329
 20
-3.265340377922532
 30
0.0
 10
32.31762450953973
 20
-3.108560584059409
 30
0.0
 10
32.43659341489469
 20
-3.036260964648756
 30
0.0
 10
32.494848717233
 20
-2.999954352938711
 30
0.0
 10
32.50000000000158
 20
-2.99999999989208
 30
0.0
  0
ELLIPSE
  5
4370
330
4358
100
AcDbEntity
  8
0
100
AcDbEllipse
 10
19.40135808271008
 20
-6.000000000000019
 30
0.0
 11
0.0000000000000028
 21
3.0
 31
0.0
210
0.0
220
0.0
230
1.0
 40
0.9902680687415703
 41
4.850673826578658
 42
6.283185307179571
  0
LINE
  5
4371
330
4358
100
AcDbEntity
  8
0
100
AcDbLine
 10
22.88089344101219
 20
-9.483549287034024
 30
0.0
 11
22.34380262810205
 21
-5.586466387525133
 31
0.0
  0
SPLINE
  5
4372
330
4358
100
AcDbEntity
  8
0
100
AcDbSpline
210
0.0
220
0.0
230
1.0
 70
     8
 71
     3
 72
    14
 73
    10
 74
     0
 42
0.000000001
 43
0.0000000001
 40
-0.4328627886584293
 40
-0.4328627886584293
 40
-0.4328627886584293
 40
-0.4328627886584293
 40
-0.2262668722288056
 40
-0.2262668722288056
 40
-0.2262668722288056
 40
-0.054508876045835
 40
-0.054508876045835
 40
-0.054508876045835
 40
0.0
 40
0.0
 40
0.0
 40
0.0
 10
28.84761590240698
 20
-5.258539578623132
 30
0.0
 10
28.20312771569903
 20
-6.18811814777687
 30
0.0
 10
27.57269840583106
 20
-7.097112821722895
 30
0.0
 10
27.05454655899836
 20
-7.846564790700941
 30
0.0
 10
26.62376978243604
 20
-8.469637940701471
 30
0.0
 10
26.26601864944867
 20
-8.98994188001396
 30
0.0
 10
26.0508646615221
 20
-9.312718229934853
 30
0.0
 10
25.98258369458439
 20
-9.415154078275925
 30
0.0
 10
25.93039957561515
 20
-9.494468906985698
 30
0.0
 10
25.89060973843285
 20
-9.558133491114981
 30
0.0
  0
LINE
  5
4373
330
4358
100
AcDbEntity
  8
0
100
AcDbLine
 10
25.89060973854643
 20
-9.55813349112163
 30
0.0
 11
25.17482914748934
 21
-9.540395631334279
 31
0.0
  0
LINE
  5
4374
330
4358
100
AcDbEntity
  8
0
100
AcDbLine
 10
24.95106001330004
 20
-9.53485037685745
 30
0.0
 11
22.88089344101225
 21
-9.483549287033998
 31
0.0
  0
LINE
  5
4375
330
4358
100
AcDbEntity
  8
0
100
AcDbLine
 10
25.17482914748934
 20
-9.540395631334279
 30
0.0
 11
24.95106001330004
 21
-9.53485037685745
 31
0.0
  0
SPLINE
  5
4376
330
4358
100
AcDbEntity
  8
0
100
AcDbSpline
210
0.0
220
0.0
230
1.0
 70
     8
 71
     3
 72
    20
 73
    16
 74
     0
 42
0.000000001
 43
0.0000000001
 40
-1.0
 40
-1.0
 40
-1.0
 40
-1.0
 40
-0.8557507846685076
 40
-0.8557507846685076
 40
-0.8557507846685076
 40
-0.4725410755549741
 40
-0.4725410755549741
 40
-0.4725410755549741
 40
-0.2262668722288056
 40
-0.2262668722288056
 40
-0.2262668722288056
 40
-0.054508876045835
 40
-0.054508876045835
 40
-0.054508876045835
 40
0.0
 40
0.0
 40
0.0
 40
0.0
 10
32.50000000000011
 20
-71.49999999999995
 30
0.0
 10
32.49596368058175
 20
-70.51422263202259
 30
0.0
 10
32.37910965910445
 20
-69.60755482003747
 30
0.0
 10
32.16692343470258
 20
-68.79579103748927
 30
0.0
 10
31.60323356544346
 20
-66.63927488407844
 30
0.0
 10
30.41855420422168
 20
-65.09164757619791
 30
0.0
 10
29.2198121198459
 20
-63.52662748021661
 30
0.0
 10
28.44942649338013
 20
-62.52084900393835
 30
0.0
 10
27.67221333327929
 20
-61.51295505185761
 30
0.0
 10
27.05454655899832
 20
-60.34589916495374
 30
0.0
 10
26.62376978243601
 20
-59.531964218212
 30
0.0
 10
26.26601864944864
 20
-58.62483513657615
 30
0.0
 10
26.05086466152207
 20
-57.60015142180134
 30
0.0
 10
25.98258369458437
 20
-57.27495923956753
 30
0.0
 10
25.93039957561512
 20
-56.93850065070018
 30
0.0
 10
25.89060973843282
 20
-56.59507411448339
 30
0.0
  0
SPLINE
  5
4377
330
4358
100
AcDbEntity
  8
0
100
AcDbSpline
210
0.0
220
0.0
230
1.0
 70
     8
 71
     3
 72
    20
 73
    16
 74
     0
 42
0.000000001
 43
0.0000000001
 40
-1.0
 40
-1.0
 40
-1.0
 40
-1.0
 40
-0.856514084357323
 40
-0.856514084357323
 40
-0.856514084357323
 40
-0.5402558541811611
 40
-0.5402558541811611
 40
-0.5402558541811611
 40
-0.2701279270905805
 40
-0.2701279270905805
 40
-0.2701279270905805
 40
-0.0852549168069366
 40
-0.0852549168069366
 40
-0.0852549168069366
 40
0.0
 40
0.0
 40
0.0
 40
0.0
 10
22.88089344101221
 20
-57.01806215511457
 30
0.0
 10
22.98563906630228
 20
-57.92230508728147
 30
0.0
 10
23.25108945203062
 20
-58.75125606595521
 30
0.0
 10
23.64500443042783
 20
-59.49063806024839
 30
0.0
 10
24.51323496963994
 20
-61.12031467270144
 30
0.0
 10
25.94709485156684
 20
-62.37298809436587
 30
0.0
 10
27.41482735378443
 20
-63.61722483988444
 30
0.0
 10
28.66847232019894
 20
-64.67997376088373
 30
0.0
 10
29.92402793119219
 20
-65.70892477048008
 30
0.0
 10
30.88879741846543
 20
-66.95682341169524
 30
0.0
 10
31.54907657309797
 20
-67.81087349387336
 30
0.0
 10
32.05964361545325
 20
-68.76547766490815
 30
0.0
 10
32.3176245095397
 20
-69.85892594191749
 30
0.0
 10
32.43659341489465
 20
-70.36317392136074
 30
0.0
 10
32.49484871723296
 20
-70.90289999942902
 30
0.0
 10
32.50000000000154
 20
-71.50000000006293
 30
0.0
  0
LINE
  5
4378
330
4358
100
AcDbEntity
  8
0
100
AcDbLine
 10
22.34380262810206
 20
-57.09354534627189
 30
0.0
 11
22.8808934410122
 21
-57.01806215511452
 31
0.0
  0
LINE
  5
4379
330
4358
100
AcDbEntity
  8
0
100
AcDbLine
 10
19.4013580827101
 20
-57.50707895874676
 30
0.0
 11
22.34380262810206
 21
-57.09354534627188
 31
0.0
  0
SPLINE
  5
437A
330
4358
100
AcDbEntity
  8
0
100
AcDbSpline
210
0.0
220
0.0
230
1.0
 70
     8
 71
     2
 72
     6
 73
     3
 74
     0
 42
0.000000001
 43
0.0000000001
 40
0.0
 40
0.0
 40
0.0
 40
1.0
 40
1.0
 40
1.0
 10
19.4013580827101
 20
-57.50707895874676
 30
0.0
 10
20.85646379032759
 20
-67.86069405359667
 30
0.0
 10
32.49999999999996
 20
-71.49999999999995
 30
0.0
  0
LINE
  5
437B
330
4358
100
AcDbEntity
  8
0
100
AcDbLine
 10
25.17482914749809
 20
-56.69567051617137
 30
0.0
 11
25.8906097385464
 21
-56.59507411444168
 31
0.0
  0
LINE
  5
437C
330
4358
100
AcDbEntity
  8
0
100
AcDbLine
 10
24.95106001328296
 20
-56.7271192170746
 30
0.0
 11
25.17482914749809
 21
-56.69567051617137
 31
0.0
  0
LINE
  5
437D
330
4358
100
AcDbEntity
  8
0
100
AcDbLine
 10
22.88089344101221
 20
-57.01806215511453
 30
0.0
 11
24.95106001328296
 21
-56.7271192170746
 31
0.0
  0
SPLINE
  5
437E
330
4358
100
AcDbEntity
  8
0
100
AcDbSpline
210
0.0
220
0.0
230
1.0
 70
     8
 71
     3
 72
    20
 73
    16
 74
     0
 42
0.000000001
 43
0.0000000001
 40
-1.0
 40
-1.0
 40
-1.0
 40
-1.0
 40
-0.8557507846685076
 40
-0.8557507846685076
 40
-0.8557507846685076
 40
-0.4725410755549741
 40
-0.4725410755549741
 40
-0.4725410755549741
 40
-0.2262668722288056
 40
-0.2262668722288056
 40
-0.2262668722288056
 40
-0.054508876045835
 40
-0.054508876045835
 40
-0.054508876045835
 40
0.0
 40
0.0
 40
0.0
 40
0.0
 10
-32.50000000000017
 20
-71.49999999999991
 30
0.0
 10
-32.49596368058182
 20
-70.51422263202256
 30
0.0
 10
-32.3791096591045
 20
-69.60755482003745
 30
0.0
 10
-32.16692343470263
 20
-68.79579103748923
 30
0.0
 10
-31.6032335654435
 20
-66.6392748840784
 30
0.0
 10
-30.41855420422172
 20
-65.09164757619789
 30
0.0
 10
-29.21981211984594
 20
-63.52662748021657
 30
0.0
 10
-28.44942649338018
 20
-62.52084900393832
 30
0.0
 10
-27.67221333327933
 20
-61.51295505185758
 30
0.0
 10
-27.05454655899837
 20
-60.3458991649537
 30
0.0
 10
-26.62376978243605
 20
-59.53196421821196
 30
0.0
 10
-26.26601864944869
 20
-58.62483513657611
 30
0.0
 10
-26.05086466152212
 20
-57.6001514218013
 30
0.0
 10
-25.98258369458441
 20
-57.27495923956751
 30
0.0
 10
-25.93039957561516
 20
-56.93850065070015
 30
0.0
 10
-25.89060973843287
 20
-56.59507411448335
 30
0.0
  0
SPLINE
  5
437F
330
4358
100
AcDbEntity
  8
0
100
AcDbSpline
210
0.0
220
0.0
230
1.0
 70
     8
 71
     3
 72
    20
 73
    16
 74
     0
 42
0.000000001
 43
0.0000000001
 40
-1.0
 40
-1.0
 40
-1.0
 40
-1.0
 40
-0.856514084357323
 40
-0.856514084357323
 40
-0.856514084357323
 40
-0.5402558541811611
 40
-0.5402558541811611
 40
-0.5402558541811611
 40
-0.2701279270905805
 40
-0.2701279270905805
 40
-0.2701279270905805
 40
-0.0852549168069366
 40
-0.0852549168069366
 40
-0.0852549168069366
 40
0.0
 40
0.0
 40
0.0
 40
0.0
 10
-22.88089344101225
 20
-57.01806215511453
 30
0.0
 10
-22.98563906630232
 20
-57.92230508728144
 30
0.0
 10
-23.25108945203066
 20
-58.75125606595518
 30
0.0
 10
-23.64500443042787
 20
-59.49063806024835
 30
0.0
 10
-24.51323496963998
 20
-61.12031467270141
 30
0.0
 10
-25.94709485156688
 20
-62.37298809436582
 30
0.0
 10
-27.41482735378447
 20
-63.6172248398844
 30
0.0
 10
-28.66847232019898
 20
-64.67997376088368
 30
0.0
 10
-29.92402793119224
 20
-65.70892477048005
 30
0.0
 10
-30.88879741846547
 20
-66.95682341169521
 30
0.0
 10
-31.54907657309802
 20
-67.81087349387333
 30
0.0
 10
-32.05964361545329
 20
-68.76547766490812
 30
0.0
 10
-32.31762450953974
 20
-69.85892594191745
 30
0.0
 10
-32.4365934148947
 20
-70.36317392136071
 30
0.0
 10
-32.49484871723303
 20
-70.902899999429
 30
0.0
 10
-32.50000000000161
 20
-71.50000000006288
 30
0.0
  0
SPLINE
  5
4380
330
4358
100
AcDbEntity
  8
0
100
AcDbSpline
210
0.0
220
0.0
230
1.0
 70
     8
 71
     2
 72
     6
 73
     3
 74
     0
 42
0.000000001
 43
0.0000000001
 40
0.0
 40
0.0
 40
0.0
 40
1.0
 40
1.0
 40
1.0
 10
-19.40135808271014
 20
-57.50707895874676
 30
0.0
 10
-20.85646379032763
 20
-67.86069405359663
 30
0.0
 10
-32.50000000000003
 20
-71.49999999999991
 30
0.0
  0
LINE
  5
4381
330
4358
100
AcDbEntity
  8
0
100
AcDbLine
 10
-22.34380262810211
 20
-57.09354534627188
 30
0.0
 11
-19.40135808271014
 21
-57.50707895874676
 31
0.0
  0
LINE
  5
4382
330
4358
100
AcDbEntity
  8
0
100
AcDbLine
 10
-22.88089344101225
 20
-57.01806215511448
 30
0.0
 11
-22.34380262810212
 21
-57.09354534627187
 31
0.0
  0
LINE
  5
4383
330
4358
100
AcDbEntity
  8
0
100
AcDbLine
 10
-25.89060973854645
 20
-56.59507411444164
 30
0.0
 11
-25.17482914749813
 21
-56.69567051617135
 31
0.0
  0
LINE
  5
4384
330
4358
100
AcDbEntity
  8
0
100
AcDbLine
 10
-24.95106001328301
 20
-56.72711921707456
 30
0.0
 11
-22.88089344101225
 21
-57.01806215511449
 31
0.0
  0
LINE
  5
4385
330
4358
100
AcDbEntity
  8
0
100
AcDbLine
 10
-25.17482914749813
 20
-56.69567051617135
 30
0.0
 11
-24.95106001328301
 21
-56.72711921707456
 31
0.0
  0
LINE
  5
4386
330
4358
100
AcDbEntity
  8
0
100
AcDbLine
 10
-25.49999999999998
 20
0.0
 30
0.0
 11
-32.5
 21
0.0
 31
0.0
  0
LINE
  5
4387
330
4358
100
AcDbEntity
  8
0
100
AcDbLine
 10
32.50000000000002
 20
0.0
 30
0.0
 11
25.50000000000001
 21
0.0
 31
0.0
  0
LINE
  5
4388
330
4358
100
AcDbEntity
  8
0
100
AcDbLine
 10
25.50000000000001
 20
-3.000000000000025
 30
0.0
 11
32.50000000000002
 21
-3.000000000000028
 31
0.0
  0
LINE
  5
4389
330
4358
100
AcDbEntity
  8
0
100
AcDbLine
 10
-32.5
 20
-2.999999999999999
 30
0.0
 11
-25.49999999999998
 21
-3.000000000000003
 31
0.0
  0
LINE
  5
438A
330
4358
100
AcDbEntity
  8
0
100
AcDbLine
 10
-25.50000000000002
 20
-85.0
 30
0.0
 11
-32.50000000000003
 21
-77.99999999999998
 31
0.0
  0
LINE
  5
438B
330
4358
100
AcDbEntity
  8
0
100
AcDbLine
 10
32.49999999999996
 20
-78.00000000000003
 30
0.0
 11
25.49999999999997
 21
-85.0
 31
0.0
  0
LINE
  5
438C
330
4358
100
AcDbEntity
  8
0
100
AcDbLine
 10
25.50000000000001
 20
0.0
 30
0.0
 11
-25.49999999999998
 21
0.0
 31
0.0
  0
LINE
  5
438D
330
4358
100
AcDbEntity
  8
0
100
AcDbLine
 10
25.50000000000001
 20
-3.000000000000025
 30
0.0
 11
-25.49999999999998
 21
-3.000000000000003
 31
0.0
  0
LINE
  5
438E
330
4358
100
AcDbEntity
  8
0
100
AcDbLine
 10
25.50000000000001
 20
0.0
 30
0.0
 11
25.50000000000001
 21
-3.000000000000025
 31
0.0
  0
LINE
  5
438F
330
4358
100
AcDbEntity
  8
0
100
AcDbLine
 10
32.50000000000002
 20
-3.000000000000028
 30
0.0
 11
32.50000000000002
 21
0.0
 31
0.0
  0
LINE
  5
4390
330
4358
100
AcDbEntity
  8
0
100
AcDbLine
 10
-25.49999999999998
 20
-3.000000000000003
 30
0.0
 11
-25.49999999999998
 21
0.0
 31
0.0
  0
LINE
  5
4391
330
4358
100
AcDbEntity
  8
0
100
AcDbLine
 10
-32.5
 20
0.0
 30
0.0
 11
-32.5
 21
-2.999999999999999
 31
0.0
  0
LINE
  5
4392
330
4358
100
AcDbEntity
  8
0
100
AcDbLine
 10
-25.89060973854645
 20
-56.59507411444166
 30
0.0
 11
-22.45917600970657
 21
-26.95234078859373
 31
0.0
  0
ELLIPSE
  5
4393
330
4358
100
AcDbEntity
  8
0
100
AcDbEllipse
 10
-24.90133146166029
 20
-29.55706345359767
 30
0.0
 11
2.149316260459694
 21
14.99707715516456
 31
0.0
210
0.0
220
0.0
230
1.0
 40
0.1377659927417793
 41
4.906663367072859
 42
6.12839384346889
  0
LINE
  5
4394
330
4358
100
AcDbEntity
  8
0
100
AcDbLine
 10
-22.45917600970655
 20
-14.78494715841456
 30
0.0
 11
-25.89060973854638
 21
-9.558133491121608
 31
0.0
  0
LINE
  5
4395
330
4358
100
AcDbEntity
  8
0
100
AcDbLine
 10
13.14629605568258
 20
-13.00000000000001
 30
0.0
 11
19.4013580827101
 21
-57.50707895874676
 31
0.0
  0
LINE
  5
4396
330
4358
100
AcDbEntity
  8
0
100
AcDbLine
 10
-19.40135808271014
 20
-57.50707895874676
 30
0.0
 11
-13.14629605568258
 21
-13.0
 31
0.0
  0
ELLIPSE
  5
4397
330
4358
100
AcDbEntity
  8
0
100
AcDbEllipse
 10
14.13008189859931
 20
-13.00000000000001
 30
0.0
 11
0.9932598611246556
 21
-9.999531768717286
 31
0.0
210
0.0
220
0.0
230
0.9999999999999998
 40
0.0974265314997312
 41
3.131915516220306
 42
4.702711843026092
  0
ELLIPSE
  5
4398
330
4358
100
AcDbEntity
  8
0
100
AcDbEllipse
 10
-14.13008189859931
 20
-13.0
 30
0.0
 11
0.9932598611245639
 21
9.999531768717297
 31
0.0
210
0.0
220
0.0
230
1.0
 40
0.0974265314997309
 41
4.722066117737837
 42
6.292862444532734
  0
LINE
  5
4399
330
4358
100
AcDbEntity
  8
0
100
AcDbLine
 10
-11.50743389850233
 20
-13.0
 30
0.0
 11
11.50743389850233
 21
-13.0
 31
0.0
  0
LINE
  5
439A
330
4358
100
AcDbEntity
  8
0
100
AcDbLine
 10
-32.50000000000003
 20
-71.49999999999991
 30
0.0
 11
-32.50000000000003
 21
-77.99999999999998
 31
0.0
  0
LINE
  5
439B
330
4358
100
AcDbEntity
  8
0
100
AcDbLine
 10
32.49999999999996
 20
-78.00000000000003
 30
0.0
 11
32.49999999999997
 21
-71.49999999999995
 31
0.0
  0
LINE
  5
439C
330
4358
100
AcDbEntity
  8
0
100
AcDbLine
 10
22.45917600970656
 20
-26.95234078859375
 30
0.0
 11
25.8906097385464
 21
-56.59507411444167
 31
0.0
  0
LINE
  5
439D
330
4358
100
AcDbEntity
  8
0
100
AcDbLine
 10
25.89060973854639
 20
-9.55813349112163
 30
0.0
 11
22.45917600970655
 21
-14.78494715841457
 31
0.0
  0
ELLIPSE
  5
439E
330
4358
100
AcDbEntity
  8
0
100
AcDbEllipse
 10
24.9013314616603
 20
-29.55706345359769
 30
0.0
 11
2.149316260459893
 21
-14.99707715516453
 31
0.0
210
0.0
220
0.0
230
1.0
 40
0.1377659927417796
 41
3.296384117292459
 42
4.518114593693592
  0
ENDBLK
  5
435A
330
4358
100
AcDbEntity
  8
0
100
AcDbBlockEnd
  0
BLOCK
  5
43A0
330
439F
100
AcDbEntity
  8
0
100
AcDbBlockBegin
  2
AKR95LZ-Bottom
 70
     0
 10
0.0
 20
0.0
 30
0.0
  3
AKR95LZ-Bottom
  1

  0
ARC
  5
43A2
330
439F
100
AcDbEntity
  8
0
100
AcDbCircle
 10
-0.0000000000011231
 20
24.95000000000028
 30
0.0
 40
6.749999999999998
100
AcDbArc
 50
180.0
 51
0.0
  0
LINE
  5
43A3
330
439F
100
AcDbEntity
  8
0
100
AcDbLine
 10
6.750000000001109
 20
36.45000000000027
 30
0.0
 11
6.750000000001113
 21
24.95000000000028
 31
0.0
  0
ARC
  5
43A4
330
439F
100
AcDbEntity
  8
0
100
AcDbCircle
 10
-0.0000000000011282
 20
36.45000000000027
 30
0.0
 40
6.749999999999998
100
AcDbArc
 50
0.0
 51
180.0
  0
LINE
  5
43A5
330
439F
100
AcDbEntity
  8
0
100
AcDbLine
 10
-6.750000000001122
 20
24.95000000000028
 30
0.0
 11
-6.750000000001127
 21
36.45000000000027
 31
0.0
  0
CIRCLE
  5
43A6
330
439F
100
AcDbEntity
  8
0
100
AcDbCircle
 10
-0.0000000000000225
 20
65.00000000000001
 30
0.0
 40
5.5
  0
CIRCLE
  5
43A7
330
439F
100
AcDbEntity
  8
0
100
AcDbCircle
 10
-22.50000000000003
 20
74.99999999999999
 30
0.0
 40
2.6
  0
CIRCLE
  5
43A8
330
439F
100
AcDbEntity
  8
0
100
AcDbCircle
 10
22.49999999999997
 20
75.00000000000003
 30
0.0
 40
2.6
  0
LINE
  5
43A9
330
439F
100
AcDbEntity
  8
0
100
AcDbLine
 10
-25.50000000000002
 20
85.0
 30
0.0
 11
25.49999999999997
 21
85.0
 31
0.0
  0
ELLIPSE
  5
43AA
330
439F
100
AcDbEntity
  8
0
100
AcDbEllipse
 10
-19.40135808271007
 20
6.000000000000004
 30
0.0
 11
0.0000000000000168
 21
-6.000000000000001
 31
0.0
210
0.0
220
0.0
230
1.0
 40
0.9902680687415699
 41
4.850673826578655
 42
6.283185307179576
  0
LINE
  5
43AB
330
439F
100
AcDbEntity
  8
0
100
AcDbLine
 10
-25.89060973854638
 20
9.558133491121633
 30
0.0
 11
-25.28624717349401
 21
5.172932775050226
 31
0.0
  0
SPLINE
  5
43AC
330
439F
100
AcDbEntity
  8
0
100
AcDbSpline
210
0.0
220
0.0
230
1.0
 70
     8
 71
     3
 72
    20
 73
    16
 74
     0
 42
0.000000001
 43
0.0000000001
 40
-1.0
 40
-1.0
 40
-1.0
 40
-1.0
 40
-0.8557507846685076
 40
-0.8557507846685076
 40
-0.8557507846685076
 40
-0.4725410755549741
 40
-0.4725410755549741
 40
-0.4725410755549741
 40
-0.2262668722288056
 40
-0.2262668722288056
 40
-0.2262668722288056
 40
-0.054508876045835
 40
-0.054508876045835
 40
-0.054508876045835
 40
0.0
 40
0.0
 40
0.0
 40
0.0
 10
-32.50000000000013
 20
0.0000000000000719
 30
0.0
 10
-32.49596368058178
 20
-0.0000078262249808
 30
0.0
 10
-32.37910965910446
 20
0.1669297411115883
 30
0.0
 10
-32.16692343470259
 20
0.4742787332298023
 30
0.0
 10
-31.60323356544346
 20
1.290776192819415
 30
0.0
 10
-30.41855420422169
 20
2.992237894643038
 30
0.0
 10
-29.21981211984591
 20
4.721648724154575
 30
0.0
 10
-28.44942649338014
 20
5.833074828798022
 30
0.0
 10
-27.6722133332793
 20
6.953174980384067
 30
0.0
 10
-27.05454655899834
 20
7.846564790700919
 30
0.0
 10
-26.62376978243602
 20
8.469637940701449
 30
0.0
 10
-26.26601864944865
 20
8.989941880013939
 30
0.0
 10
-26.05086466152208
 20
9.312718229934832
 30
0.0
 10
-25.98258369458438
 20
9.415154078275902
 30
0.0
 10
-25.93039957561514
 20
9.494468906985677
 30
0.0
 10
-25.89060973843283
 20
9.558133491114958
 30
0.0
  0
LINE
  5
43AD
330
439F
100
AcDbEntity
  8
0
100
AcDbLine
 10
-19.40135808271011
 20
0.0
 30
0.0
 11
-32.49999999999999
 21
0.0
 31
0.0
  0
SPLINE
  5
43AE
330
439F
100
AcDbEntity
  8
0
100
AcDbSpline
210
0.0
220
0.0
230
1.0
 70
     8
 71
     3
 72
    14
 73
    10
 74
     0
 42
0.000000001
 43
0.0000000001
 40
-0.4360735372451514
 40
-0.4360735372451514
 40
-0.4360735372451514
 40
-0.4360735372451514
 40
-0.2707912678748197
 40
-0.2707912678748197
 40
-0.2707912678748197
 40
-0.0793860111516785
 40
-0.0793860111516785
 40
-0.0793860111516785
 40
0.0
 40
0.0
 40
0.0
 40
0.0
 10
-28.84788342288701
 20
5.258380086070522
 30
0.0
 10
-29.59075940088231
 20
4.788526915536551
 30
0.0
 10
-30.29377929978735
 20
4.350937465388348
 30
0.0
 10
-30.88404344345722
 20
3.987085775396729
 30
0.0
 10
-31.56759928029327
 20
3.565727051334485
 30
0.0
 10
-32.09222344379321
 20
3.24719323099698
 30
0.0
 10
-32.34180618508881
 20
3.092003397669844
 30
0.0
 10
-32.44532151493378
 20
3.027637862208322
 30
0.0
 10
-32.49529449092631
 20
3.00222369327984
 30
0.0
 10
-32.50000000000156
 20
2.999999999891969
 30
0.0
  0
SPLINE
  5
43AF
330
439F
100
AcDbEntity
  8
0
100
AcDbSpline
210
0.0
220
0.0
230
1.0
 70
     8
 71
     3
 72
    22
 73
    18
 74
     0
 42
0.000000001
 43
0.0000000001
 40
0.0711169074390387
 40
0.0711169074390387
 40
0.0711169074390387
 40
0.0711169074390387
 40
0.0747581571207541
 40
0.0747581571207541
 40
0.0826155029515513
 40
0.0826155029515513
 40
0.0894174854926784
 40
0.0894174854926784
 40
0.0938771354697593
 40
0.0938771354697593
 40
0.0967845629094697
 40
0.0967845629094697
 40
0.101265461762931
 40
0.101265461762931
 40
0.1049529991486199
 40
0.1049529991486199
 40
0.1070465380798811
 40
0.1070465380798811
 40
0.1070465380798811
 40
0.1070465380798811
 10
-19.84585058915643
 20
0.0168132243520038
 30
0.0
 10
-19.85763439268801
 20
0.0176372481419441
 30
0.0
 10
-19.86951121251346
 20
0.0185004741549296
 30
0.0
 10
-19.9071672345169
 20
0.0213466556308832
 30
0.0
 10
-19.93337900603371
 20
0.0234907856251635
 30
0.0
 10
-19.98204932979102
 20
0.0277960293208847
 30
0.0
 10
-20.0048363297678
 20
0.0299449826061001
 30
0.0
 10
-20.04096521249231
 20
0.0335511832516748
 30
0.0
 10
-20.05502579686179
 20
0.0350085446018876
 30
0.0
 10
-20.0764347844555
 20
0.0372940555369592
 30
0.0
 10
-20.0844926439143
 20
0.0381724625007553
 30
0.0
 10
-20.10302399628221
 20
0.0402230286994432
 30
0.0
 10
-20.11265713865332
 20
0.0413201661769272
 30
0.0
 10
-20.12495541003691
 20
0.0427335473097858
 30
0.0
 10
-20.12872461271078
 20
0.0431725231079825
 30
0.0
 10
-20.13172790979279
 20
0.043521975961054
 30
0.0
 10
-20.13224919343905
 20
0.0435827000769015
 30
0.0
 10
-20.13224919310629
 20
0.0435827000381864
 30
0.0
  0
LINE
  5
43B0
330
439F
100
AcDbEntity
  8
0
100
AcDbLine
 10
-32.5
 20
2.999999999999998
 30
0.0
 11
-32.5
 21
0.0
 31
0.0
  0
LINE
  5
43B1
330
439F
100
AcDbEntity
  8
0
100
AcDbLine
 10
32.50000000000002
 20
3.000000000000027
 30
0.0
 11
32.50000000000002
 21
0.0
 31
0.0
  0
SPLINE
  5
43B2
330
439F
100
AcDbEntity
  8
0
100
AcDbSpline
210
0.0
220
0.0
230
1.0
 70
     8
 71
     3
 72
    14
 73
    10
 74
     0
 42
0.000000001
 43
0.0000000001
 40
-0.4363256065604038
 40
-0.4363256065604038
 40
-0.4363256065604038
 40
-0.4363256065604038
 40
-0.2701279270905805
 40
-0.2701279270905805
 40
-0.2701279270905805
 40
-0.0852549168069366
 40
-0.0852549168069366
 40
-0.0852549168069366
 40
0.0
 40
0.0
 40
0.0
 40
0.0
 10
28.84600505553017
 20
5.25949071378463
 30
0.0
 10
29.59156408064935
 20
4.788249521768161
 30
0.0
 10
30.2952177329621
 20
4.350781457029187
 30
0.0
 10
30.88879741846547
 20
3.984753324025263
 30
0.0
 10
31.54907657309801
 20
3.577595275773307
 30
0.0
 10
32.05964361545329
 20
3.265340377922532
 30
0.0
 10
32.31762450953973
 20
3.108560584059409
 30
0.0
 10
32.43659341489469
 20
3.036260964648756
 30
0.0
 10
32.494848717233
 20
2.999954352938711
 30
0.0
 10
32.50000000000158
 20
2.99999999989208
 30
0.0
  0
ELLIPSE
  5
43B3
330
439F
100
AcDbEntity
  8
0
100
AcDbEllipse
 10
19.40135808271009
 20
6.000000000000022
 30
0.0
 11
0.000000000000048
 21
-6.0
 31
0.0
210
0.0
220
0.0
230
1.0
 40
0.9902680687415703
 41
0.0000000000000001
 42
1.43251148060092
  0
LINE
  5
43B4
330
439F
100
AcDbEntity
  8
0
100
AcDbLine
 10
19.40135808271014
 20
0.0
 30
0.0
 11
32.50000000000001
 21
0.0
 31
0.0
  0
SPLINE
  5
43B5
330
439F
100
AcDbEntity
  8
0
100
AcDbSpline
210
0.0
220
0.0
230
1.0
 70
     8
 71
     3
 72
    20
 73
    16
 74
     0
 42
0.000000001
 43
0.0000000001
 40
-1.0
 40
-1.0
 40
-1.0
 40
-1.0
 40
-0.8557507846685076
 40
-0.8557507846685076
 40
-0.8557507846685076
 40
-0.4725410755549741
 40
-0.4725410755549741
 40
-0.4725410755549741
 40
-0.2262668722288056
 40
-0.2262668722288056
 40
-0.2262668722288056
 40
-0.054508876045835
 40
-0.054508876045835
 40
-0.054508876045835
 40
0.0
 40
0.0
 40
0.0
 40
0.0
 10
32.50000000000016
 20
0.0000000000001008
 30
0.0
 10
32.4959636805818
 20
-0.0000078262249519
 30
0.0
 10
32.37910965910449
 20
0.166929741111617
 30
0.0
 10
32.16692343470261
 20
0.4742787332298309
 30
0.0
 10
31.6032335654435
 20
1.290776192819443
 30
0.0
 10
30.41855420422172
 20
2.992237894643064
 30
0.0
 10
29.21981211984594
 20
4.721648724154602
 30
0.0
 10
28.44942649338017
 20
5.833074828798048
 30
0.0
 10
27.67221333327932
 20
6.953174980384094
 30
0.0
 10
27.05454655899836
 20
7.846564790700941
 30
0.0
 10
26.62376978243604
 20
8.469637940701471
 30
0.0
 10
26.26601864944867
 20
8.98994188001396
 30
0.0
 10
26.0508646615221
 20
9.312718229934853
 30
0.0
 10
25.98258369458439
 20
9.415154078275925
 30
0.0
 10
25.93039957561515
 20
9.494468906985698
 30
0.0
 10
25.89060973843285
 20
9.558133491114981
 30
0.0
  0
LINE
  5
43B6
330
439F
100
AcDbEntity
  8
0
100
AcDbLine
 10
25.28624717349402
 20
5.172932775050248
 30
0.0
 11
25.89060973854639
 21
9.558133491121656
 31
0.0
  0
SPLINE
  5
43B7
330
439F
100
AcDbEntity
  8
0
100
AcDbSpline
210
0.0
220
0.0
230
1.0
 70
     8
 71
     3
 72
    22
 73
    18
 74
     0
 42
0.000000001
 43
0.0000000001
 40
0.0237063425612562
 40
0.0237063425612562
 40
0.0237063425612562
 40
0.0237063425612562
 40
0.0252422452985206
 40
0.0252422452985206
 40
0.0297575274434646
 40
0.0297575274434646
 40
0.0335153663019503
 40
0.0335153663019503
 40
0.0371936767465535
 40
0.0371936767465535
 40
0.0415867293255978
 40
0.0415867293255978
 40
0.0475399049309337
 40
0.0475399049309337
 40
0.0563802292566176
 40
0.0563802292566176
 40
0.0596328460866366
 40
0.0596328460866366
 40
0.0596328460866366
 40
0.0596328460866366
 10
20.13224919310755
 20
0.0435827000383471
 30
0.0
 10
20.13224919313514
 20
0.0435827000415574
 30
0.0
 10
20.13197070785963
 20
0.0435502783538742
 30
0.0
 10
20.12969788976423
 20
0.0432857028299989
 30
0.0
 10
20.12523939134019
 20
0.0427649742736037
 30
0.0
 10
20.11218359026324
 20
0.0412669703101459
 30
0.0
 10
20.1042821453835
 20
0.0403681069686859
 30
0.0
 10
20.08623135898815
 20
0.0383609347190554
 30
0.0
 10
20.07598243010649
 20
0.037241371500637
 30
0.0
 10
20.05226541233434
 20
0.0347205478345714
 30
0.0
 10
20.03835358713497
 20
0.0332851731909431
 30
0.0
 10
20.00506278854572
 20
0.0299759965225502
 30
0.0
 10
19.98520705070689
 20
0.0280982458476291
 30
0.0
 10
19.93611386661825
 20
0.0237061896021847
 30
0.0
 10
19.90654834828006
 20
0.0212833635385847
 30
0.0
 10
19.86699918339036
 20
0.0183182712154649
 30
0.0
 10
19.85639125741602
 20
0.0175503175481592
 30
0.0
 10
19.8458505891566
 20
0.0168132243520311
 30
0.0
  0
LINE
  5
43B8
330
439F
100
AcDbEntity
  8
0
100
AcDbLine
 10
19.4013580827101
 20
57.50707895874676
 30
0.0
 11
25.28624717349404
 21
56.680011733797
 31
0.0
  0
LINE
  5
43B9
330
439F
100
AcDbEntity
  8
0
100
AcDbLine
 10
25.8906097385464
 20
56.59507411444167
 30
0.0
 11
25.28624717349404
 21
56.68001173379701
 31
0.0
  0
SPLINE
  5
43BA
330
439F
100
AcDbEntity
  8
0
100
AcDbSpline
210
0.0
220
0.0
230
1.0
 70
     8
 71
     3
 72
    20
 73
    16
 74
     0
 42
0.000000001
 43
0.0000000001
 40
-1.0
 40
-1.0
 40
-1.0
 40
-1.0
 40
-0.8557507846685076
 40
-0.8557507846685076
 40
-0.8557507846685076
 40
-0.4725410755549741
 40
-0.4725410755549741
 40
-0.4725410755549741
 40
-0.2262668722288056
 40
-0.2262668722288056
 40
-0.2262668722288056
 40
-0.054508876045835
 40
-0.054508876045835
 40
-0.054508876045835
 40
0.0
 40
0.0
 40
0.0
 40
0.0
 10
32.50000000000011
 20
71.49999999999995
 30
0.0
 10
32.49596368058175
 20
70.51422263202259
 30
0.0
 10
32.37910965910445
 20
69.60755482003747
 30
0.0
 10
32.16692343470258
 20
68.79579103748927
 30
0.0
 10
31.60323356544346
 20
66.63927488407844
 30
0.0
 10
30.41855420422168
 20
65.09164757619791
 30
0.0
 10
29.2198121198459
 20
63.52662748021661
 30
0.0
 10
28.44942649338013
 20
62.52084900393835
 30
0.0
 10
27.67221333327929
 20
61.51295505185761
 30
0.0
 10
27.05454655899832
 20
60.34589916495374
 30
0.0
 10
26.62376978243601
 20
59.531964218212
 30
0.0
 10
26.26601864944864
 20
58.62483513657615
 30
0.0
 10
26.05086466152207
 20
57.60015142180134
 30
0.0
 10
25.98258369458437
 20
57.27495923956753
 30
0.0
 10
25.93039957561512
 20
56.93850065070018
 30
0.0
 10
25.89060973843282
 20
56.59507411448339
 30
0.0
  0
SPLINE
  5
43BB
330
439F
100
AcDbEntity
  8
0
100
AcDbSpline
210
0.0
220
0.0
230
1.0
 70
     8
 71
     2
 72
     6
 73
     3
 74
     0
 42
0.000000001
 43
0.0000000001
 40
0.0
 40
0.0
 40
0.0
 40
1.0
 40
1.0
 40
1.0
 10
19.4013580827101
 20
57.50707895874676
 30
0.0
 10
20.85646379032759
 20
67.86069405359667
 30
0.0
 10
32.49999999999996
 20
71.49999999999995
 30
0.0
  0
LINE
  5
43BC
330
439F
100
AcDbEntity
  8
0
100
AcDbLine
 10
-25.28624717349408
 20
56.680011733797
 30
0.0
 11
-19.40135808271014
 21
57.50707895874676
 31
0.0
  0
SPLINE
  5
43BD
330
439F
100
AcDbEntity
  8
0
100
AcDbSpline
210
0.0
220
0.0
230
1.0
 70
     8
 71
     2
 72
     6
 73
     3
 74
     0
 42
0.000000001
 43
0.0000000001
 40
0.0
 40
0.0
 40
0.0
 40
1.0
 40
1.0
 40
1.0
 10
-19.40135808271014
 20
57.50707895874676
 30
0.0
 10
-20.85646379032763
 20
67.86069405359663
 30
0.0
 10
-32.50000000000003
 20
71.49999999999991
 30
0.0
  0
SPLINE
  5
43BE
330
439F
100
AcDbEntity
  8
0
100
AcDbSpline
210
0.0
220
0.0
230
1.0
 70
     8
 71
     3
 72
    20
 73
    16
 74
     0
 42
0.000000001
 43
0.0000000001
 40
-1.0
 40
-1.0
 40
-1.0
 40
-1.0
 40
-0.8557507846685076
 40
-0.8557507846685076
 40
-0.8557507846685076
 40
-0.4725410755549741
 40
-0.4725410755549741
 40
-0.4725410755549741
 40
-0.2262668722288056
 40
-0.2262668722288056
 40
-0.2262668722288056
 40
-0.054508876045835
 40
-0.054508876045835
 40
-0.054508876045835
 40
0.0
 40
0.0
 40
0.0
 40
0.0
 10
-32.50000000000017
 20
71.49999999999991
 30
0.0
 10
-32.49596368058182
 20
70.51422263202256
 30
0.0
 10
-32.3791096591045
 20
69.60755482003745
 30
0.0
 10
-32.16692343470263
 20
68.79579103748923
 30
0.0
 10
-31.6032335654435
 20
66.6392748840784
 30
0.0
 10
-30.41855420422172
 20
65.09164757619789
 30
0.0
 10
-29.21981211984594
 20
63.52662748021657
 30
0.0
 10
-28.44942649338018
 20
62.52084900393832
 30
0.0
 10
-27.67221333327933
 20
61.51295505185758
 30
0.0
 10
-27.05454655899837
 20
60.3458991649537
 30
0.0
 10
-26.62376978243605
 20
59.53196421821196
 30
0.0
 10
-26.26601864944869
 20
58.62483513657611
 30
0.0
 10
-26.05086466152212
 20
57.6001514218013
 30
0.0
 10
-25.98258369458441
 20
57.27495923956751
 30
0.0
 10
-25.93039957561516
 20
56.93850065070015
 30
0.0
 10
-25.89060973843287
 20
56.59507411448335
 30
0.0
  0
LINE
  5
43BF
330
439F
100
AcDbEntity
  8
0
100
AcDbLine
 10
-25.28624717349408
 20
56.68001173379697
 30
0.0
 11
-25.89060973854645
 21
56.59507411444163
 31
0.0
  0
LINE
  5
43C0
330
439F
100
AcDbEntity
  8
0
100
AcDbLine
 10
12.72467355157541
 20
0.0
 30
0.0
 11
19.4013580827101
 21
0.0
 31
0.0
  0
ELLIPSE
  5
43C1
330
439F
100
AcDbEntity
  8
0
100
AcDbEllipse
 10
13.28683689038497
 20
10.00000000000001
 30
0.0
 11
-0.5639370964297688
 21
-9.999950064643336
 31
0.0
210
0.0
220
0.0
230
0.9999999999999998
 40
0.0560386765135294
 41
4.715549214497016
 42
6.286345541291909
  0
LINE
  5
43C2
330
439F
100
AcDbEntity
  8
0
100
AcDbLine
 10
19.4013580827101
 20
57.50707895874676
 30
0.0
 11
12.7246735515754
 21
10.00000000000001
 31
0.0
  0
LINE
  5
43C3
330
439F
100
AcDbEntity
  8
0
100
AcDbLine
 10
-19.40135808271007
 20
0.0
 30
0.0
 11
-12.72467355157539
 21
0.0
 31
0.0
  0
ELLIPSE
  5
43C4
330
439F
100
AcDbEntity
  8
0
100
AcDbEllipse
 10
-13.28683689038496
 20
10.0
 30
0.0
 11
-0.5639370964298353
 21
9.99995006464333
 31
0.0
210
0.0
220
0.0
230
0.9999999999999998
 40
0.0560386765135291
 41
3.138432419428191
 42
4.709228746255934
  0
LINE
  5
43C5
330
439F
100
AcDbEntity
  8
0
100
AcDbLine
 10
-12.7246735515754
 20
10.0
 30
0.0
 11
-19.40135808271014
 21
57.50707895874676
 31
0.0
  0
LINE
  5
43C6
330
439F
100
AcDbEntity
  8
0
100
AcDbLine
 10
-12.72467355157539
 20
0.0
 30
0.0
 11
12.7246735515754
 21
0.0
 31
0.0
  0
LINE
  5
43C7
330
439F
100
AcDbEntity
  8
0
100
AcDbLine
 10
32.49999999999996
 20
78.00000000000003
 30
0.0
 11
32.49999999999997
 21
71.49999999999995
 31
0.0
  0
LINE
  5
43C8
330
439F
100
AcDbEntity
  8
0
100
AcDbLine
 10
-32.50000000000003
 20
71.49999999999991
 30
0.0
 11
-32.50000000000003
 21
77.99999999999998
 31
0.0
  0
LINE
  5
43C9
330
439F
100
AcDbEntity
  8
0
100
AcDbLine
 10
25.49999999999997
 20
85.0
 30
0.0
 11
32.49999999999996
 21
78.00000000000003
 31
0.0
  0
LINE
  5
43CA
330
439F
100
AcDbEntity
  8
0
100
AcDbLine
 10
-32.50000000000003
 20
77.99999999999998
 30
0.0
 11
-25.50000000000002
 21
85.0
 31
0.0
  0
LINE
  5
43CB
330
439F
100
AcDbEntity
  8
0
100
AcDbLine
 10
-25.89060973854645
 20
56.59507411444166
 30
0.0
 11
-22.45917600970657
 21
26.95234078859373
 31
0.0
  0
ELLIPSE
  5
43CC
330
439F
100
AcDbEntity
  8
0
100
AcDbEllipse
 10
-24.90133146166029
 20
29.55706345359767
 30
0.0
 11
2.149316260459694
 21
-14.99707715516456
 31
0.0
210
0.0
220
0.0
230
1.0
 40
0.1377659927417793
 41
0.154791463710696
 42
1.376521940106727
  0
LINE
  5
43CD
330
439F
100
AcDbEntity
  8
0
100
AcDbLine
 10
-22.45917600970655
 20
14.78494715841456
 30
0.0
 11
-25.89060973854638
 21
9.558133491121608
 31
0.0
  0
LINE
  5
43CE
330
439F
100
AcDbEntity
  8
0
100
AcDbLine
 10
22.45917600970656
 20
26.95234078859375
 30
0.0
 11
25.8906097385464
 21
56.59507411444167
 31
0.0
  0
LINE
  5
43CF
330
439F
100
AcDbEntity
  8
0
100
AcDbLine
 10
25.89060973854639
 20
9.55813349112163
 30
0.0
 11
22.45917600970655
 21
14.78494715841457
 31
0.0
  0
ELLIPSE
  5
43D0
330
439F
100
AcDbEntity
  8
0
100
AcDbEllipse
 10
24.9013314616603
 20
29.55706345359769
 30
0.0
 11
2.149316260459893
 21
14.99707715516453
 31
0.0
210
0.0
220
0.0
230
1.0
 40
0.1377659927417796
 41
1.765070713485993
 42
2.986801189887126
  0
ENDBLK
  5
43A1
330
439F
100
AcDbEntity
  8
0
100
AcDbBlockEnd
  0
BLOCK
  5
43D2
330
43D1
100
AcDbEntity
  8
0
100
AcDbBlockBegin
  2
AKR95LZ-ISO
 70
     0
 10
0.0
 20
0.0
 30
0.0
  3
AKR95LZ-ISO
  1

  0
ELLIPSE
  5
43D4
330
43D1
100
AcDbEntity
  8
0
100
AcDbEllipse
 10
11.91705930770392
 20
57.62291249403876
 30
0.0
 11
-1.300000000000003
 21
2.251666049839546
 31
0.0
210
0.0
220
0.0
230
1.0
 40
0.5773502691896257
 41
0.0
 42
6.283185307179586
  0
ELLIPSE
  5
43D5
330
43D1
100
AcDbEntity
  8
0
100
AcDbEllipse
 10
43.73686446109856
 20
39.25173942316492
 30
0.0
 11
-1.3
 21
2.251666049839541
 31
0.0
210
0.0
220
0.0
230
1.0
 40
0.5773502691896257
 41
0.0
 42
6.283185307179586
  0
ELLIPSE
  5
43D6
330
43D1
100
AcDbEntity
  8
0
100
AcDbEllipse
 10
27.82696188440124
 20
10.0619866549987
 30
0.0
 11
-1.299999999999999
 21
2.251666049839541
 31
0.0
210
0.0
220
0.0
230
1.0
 40
0.5773502691896255
 41
0.0
 42
6.283185307179586
  0
ELLIPSE
  5
43D7
330
43D1
100
AcDbEntity
  8
0
100
AcDbEllipse
 10
37.7264568210129
 20
12.51147639778188
 30
0.0
 11
1.299999999999998
 21
-2.251666049839541
 31
0.0
210
0.0
220
0.0
230
1.0
 40
0.5773502691896258
 41
1.102424509025434
 42
6.261604347111326
  0
ELLIPSE
  5
43D8
330
43D1
100
AcDbEntity
  8
0
100
AcDbEllipse
 10
37.7264568210129
 20
12.51147639778188
 30
0.0
 11
1.299999999999999
 21
-2.25166604983954
 31
0.0
210
0.0
220
0.0
230
1.0
 40
0.5773502691896257
 41
0.9823128046850051
 42
0.9823847703588937
  0
ELLIPSE
  5
43D9
330
43D1
100
AcDbEntity
  8
0
100
AcDbEllipse
 10
17.92746694778957
 20
23.94242853077006
 30
0.0
 11
-1.299999999999999
 21
2.251666049839541
 31
0.0
210
0.0
220
0.0
230
1.0
 40
0.5773502691896255
 41
0.0
 42
6.283185307179586
  0
ELLIPSE
  5
43DA
330
43D1
100
AcDbEntity
  8
0
100
AcDbEllipse
 10
27.82696188440124
 20
26.39191827355322
 30
0.0
 11
-1.299999999999999
 21
2.251666049839541
 31
0.0
210
0.0
220
0.0
230
1.0
 40
0.5773502691896255
 41
0.0
 42
6.283185307179586
  0
ELLIPSE
  5
43DB
330
43D1
100
AcDbEntity
  8
0
100
AcDbEllipse
 10
41.96909750813218
 20
25.5754216926255
 30
0.0
 11
-1.299999999999999
 21
2.251666049839541
 31
0.0
210
0.0
220
0.0
230
1.0
 40
0.5773502691896255
 41
0.0
 42
6.283185307179586
  0
ELLIPSE
  5
43DC
330
43D1
100
AcDbEntity
  8
0
100
AcDbEllipse
 10
13.68482626067029
 20
41.90535331118002
 30
0.0
 11
-1.299999999999999
 21
2.251666049839541
 31
0.0
210
0.0
220
0.0
230
1.0
 40
0.5773502691896255
 41
0.0
 42
6.283185307179586
  0
ELLIPSE
  5
43DD
330
43D1
100
AcDbEntity
  8
0
100
AcDbEllipse
 10
27.82696188440124
 20
41.0888567302523
 30
0.0
 11
-1.299999999999999
 21
2.251666049839541
 31
0.0
210
0.0
220
0.0
230
1.0
 40
0.5773502691896255
 41
0.0
 42
6.283185307179586
  0
ELLIPSE
  5
43DE
330
43D1
100
AcDbEntity
  8
0
100
AcDbEllipse
 10
12.30596803735553
 20
-29.10943681500859
 30
0.0
 11
6.749999999999998
 21
-0.0000000000004052
 31
0.0
210
0.0
220
0.0
230
1.0
 40
0.5773502691896258
 41
5.497787143782377
 42
8.639379797372171
  0
LINE
  5
43DF
330
43D1
100
AcDbEntity
  8
0
100
AcDbLine
 10
17.07893881036631
 20
-31.86511277564058
 30
0.0
 11
8.947210826721011
 21
-36.559968115975
 31
0.0
  0
ELLIPSE
  5
43E0
330
43D1
100
AcDbEntity
  8
0
100
AcDbEllipse
 10
4.174240053710236
 20
-33.80429215534301
 30
0.0
 11
-6.749999999999998
 21
0.0000000000004022
 31
0.0
210
0.0
220
0.0
230
1.0
 40
0.577350269189626
 41
5.497787143782377
 42
8.639379797372171
  0
LINE
  5
43E1
330
43D1
100
AcDbEntity
  8
0
100
AcDbLine
 10
-0.5987307192989589
 20
-31.04861619471193
 30
0.0
 11
7.532997264346339
 21
-26.35376085437751
 31
0.0
  0
ELLIPSE
  5
43E2
330
43D1
100
AcDbEntity
  8
0
100
AcDbEllipse
 10
-16.01365854916473
 20
-45.45978084808665
 30
0.0
 11
5.500000000000001
 21
-0.0000000000000017
 31
0.0
210
0.0
220
0.0
230
1.0
 40
0.5773502691896257
 41
0.0
 42
6.283185307179586
  0
ELLIPSE
  5
43E3
330
43D1
100
AcDbEntity
  8
0
100
AcDbEllipse
 10
-38.99462893772752
 20
-40.35667721728834
 30
0.0
 11
2.6
 21
-0.0000000000000008
 31
0.0
210
0.0
220
0.0
230
1.0
 40
0.5773502691896258
 41
0.0
 42
6.283185307179586
  0
ELLIPSE
  5
43E4
330
43D1
100
AcDbEntity
  8
0
100
AcDbEllipse
 10
-7.174823784332899
 20
-58.72785028816219
 30
0.0
 11
2.6
 21
-0.0000000000000008
 31
0.0
210
0.0
220
0.0
230
1.0
 40
0.5773502691896258
 41
0.0
 42
6.283185307179586
  0
LINE
  5
43E5
330
43D1
100
AcDbEntity
  8
0
100
AcDbLine
 10
-48.18701709315265
 20
-43.2144152505354
 30
0.0
 11
-12.12457125263873
 21
-64.03507806419241
 31
0.0
  0
LINE
  5
43E6
330
43D1
100
AcDbEntity
  8
0
100
AcDbLine
 10
5.775524439373809
 20
2.51765180342073
 30
0.0
 11
7.063165305635799
 21
30.65136393767446
 31
0.0
  0
ELLIPSE
  5
43E7
330
43D1
100
AcDbEntity
  8
0
100
AcDbEllipse
 10
-6.396803846214664
 20
-0.3892864820733433
 30
0.0
 11
7.499999999999993
 21
12.99038105676658
 31
0.0
210
0.0
220
0.0
230
1.0
 40
0.739632846684747
 41
4.101523742186673
 42
5.323254218582704
  0
LINE
  5
43E8
330
43D1
100
AcDbEntity
  8
0
100
AcDbLine
 10
-26.54881108378321
 20
-27.56628691160461
 30
0.0
 11
-2.828122105891903
 21
-12.38430114334388
 31
0.0
  0
LINE
  5
43E9
330
43D1
100
AcDbEntity
  8
0
100
AcDbLine
 10
24.60832068088283
 20
-28.22473877189406
 30
0.0
 11
5.809658739709884
 21
-46.24845817476273
 31
0.0
  0
ELLIPSE
  5
43EA
330
43D1
100
AcDbEntity
  8
0
100
AcDbEllipse
 10
24.49336830213643
 20
-18.22373568723774
 30
0.0
 11
-7.499999999999989
 21
-12.99038105676658
 31
0.0
210
0.0
220
0.0
230
1.0
 40
0.4150676916945049
 41
0.9599310885968783
 42
2.181661564992909
  0
LINE
  5
43EB
330
43D1
100
AcDbEntity
  8
0
100
AcDbLine
 10
39.42163512912882
 20
11.96919267451636
 30
0.0
 11
33.21196722614853
 21
-13.32278582512943
 31
0.0
  0
ELLIPSE
  5
43EC
330
43D1
100
AcDbEntity
  8
0
100
AcDbEllipse
 10
14.03837965126358
 20
58.84765736543037
 30
0.0
 11
1.300000000000137
 21
-2.251666049839469
 31
0.0
210
0.0
220
0.0
230
1.0
 40
0.5773502691896257
 41
4.095863641558278
 42
5.328914319210797
  0
ELLIPSE
  5
43ED
330
43D1
100
AcDbEntity
  8
0
100
AcDbEllipse
 10
45.85818480465821
 20
40.47648429455651
 30
0.0
 11
1.300000000000135
 21
-2.251666049839464
 31
0.0
210
0.0
220
0.0
230
1.0
 40
0.5773502691896255
 41
4.095863641558278
 42
5.328914319210796
  0
ELLIPSE
  5
43EE
330
43D1
100
AcDbEntity
  8
0
100
AcDbEllipse
 10
29.94828222796089
 20
11.2867315263903
 30
0.0
 11
1.300000000000133
 21
-2.251666049839463
 31
0.0
210
0.0
220
0.0
230
1.0
 40
0.5773502691896257
 41
4.095863641558285
 42
5.328914319210792
  0
ELLIPSE
  5
43EF
330
43D1
100
AcDbEntity
  8
0
100
AcDbEllipse
 10
39.84777716457255
 20
13.73622126917348
 30
0.0
 11
1.300000000000133
 21
-2.251666049839463
 31
0.0
210
0.0
220
0.0
230
1.0
 40
0.5773502691896257
 41
4.095863641558286
 42
5.257964389049495
  0
ELLIPSE
  5
43F0
330
43D1
100
AcDbEntity
  8
0
100
AcDbEllipse
 10
20.04878729134923
 20
25.16717340216165
 30
0.0
 11
1.300000000000133
 21
-2.251666049839463
 31
0.0
210
0.0
220
0.0
230
1.0
 40
0.5773502691896257
 41
4.095863641558286
 42
5.328914319210792
  0
ELLIPSE
  5
43F1
330
43D1
100
AcDbEntity
  8
0
100
AcDbEllipse
 10
29.94828222796089
 20
27.61666314494482
 30
0.0
 11
1.300000000000133
 21
-2.251666049839465
 31
0.0
210
0.0
220
0.0
230
0.9999999999999998
 40
0.5773502691896254
 41
4.095863641558286
 42
5.328914319210793
  0
ELLIPSE
  5
43F2
330
43D1
100
AcDbEntity
  8
0
100
AcDbEllipse
 10
44.09041785169184
 20
26.8001665640171
 30
0.0
 11
1.300000000000133
 21
-2.251666049839465
 31
0.0
210
0.0
220
0.0
230
0.9999999999999998
 40
0.5773502691896254
 41
4.095863641558286
 42
5.328914319210797
  0
ELLIPSE
  5
43F3
330
43D1
100
AcDbEntity
  8
0
100
AcDbEllipse
 10
15.80614660422995
 20
43.13009818257163
 30
0.0
 11
1.300000000000133
 21
-2.251666049839465
 31
0.0
210
0.0
220
0.0
230
0.9999999999999998
 40
0.5773502691896254
 41
4.095863641558286
 42
5.328914319210792
  0
ELLIPSE
  5
43F4
330
43D1
100
AcDbEntity
  8
0
100
AcDbEllipse
 10
29.9482822279609
 20
42.31360160164389
 30
0.0
 11
1.300000000000133
 21
-2.251666049839465
 31
0.0
210
0.0
220
0.0
230
0.9999999999999998
 40
0.5773502691896254
 41
4.095863641558285
 42
5.328914319210792
  0
ELLIPSE
  5
43F5
330
43D1
100
AcDbEntity
  8
0
100
AcDbEllipse
 10
12.30596803735553
 20
-31.55892655779178
 30
0.0
 11
6.749999999999998
 21
-0.0000000000000017
 31
0.0
210
0.0
220
0.0
230
1.0
 40
0.5773502691896261
 41
0.3196872591302837
 42
2.356194490192346
  0
ELLIPSE
  5
43F6
330
43D1
100
AcDbEntity
  8
0
100
AcDbEllipse
 10
4.174240053710236
 20
-36.25378189812621
 30
0.0
 11
-6.749999999999998
 21
-0.0000000000000003
 31
0.0
210
0.0
220
0.0
230
1.0
 40
0.577350269189626
 41
5.497787143782137
 42
5.963498048049305
  0
LINE
  5
43F7
330
43D1
100
AcDbEntity
  8
0
100
AcDbLine
 10
7.532997264346339
 20
-28.80325059716069
 30
0.0
 11
-0.5987307192989589
 21
-33.49810593749511
 31
0.0
  0
ELLIPSE
  5
43F8
330
43D1
100
AcDbEntity
  8
0
100
AcDbEllipse
 10
-16.01365854916473
 20
-47.90927059086983
 30
0.0
 11
-5.500000000000001
 21
-0.0000000000003281
 31
0.0
210
0.0
220
0.0
230
1.0
 40
0.5773502691896259
 41
3.537553217051971
 42
5.887224743716537
  0
ELLIPSE
  5
43F9
330
43D1
100
AcDbEntity
  8
0
100
AcDbEllipse
 10
-38.99462893772752
 20
-42.80616696007152
 30
0.0
 11
-2.6
 21
-0.0000000000001545
 31
0.0
210
0.0
220
0.0
230
1.0
 40
0.5773502691896259
 41
4.095863641558285
 42
5.328914319210798
  0
ELLIPSE
  5
43FA
330
43D1
100
AcDbEntity
  8
0
100
AcDbEllipse
 10
-7.174823784332899
 20
-61.17734003094539
 30
0.0
 11
-2.6
 21
-0.0000000000001545
 31
0.0
210
0.0
220
0.0
230
1.0
 40
0.5773502691896259
 41
4.095863641558285
 42
5.328914319210797
  0
LINE
  5
43FB
330
43D1
100
AcDbEntity
  8
0
100
AcDbLine
 10
-48.18701709315265
 20
-45.66390499331858
 30
0.0
 11
-12.12457125263873
 21
-66.48456780697559
 31
0.0
  0
LINE
  5
43FC
330
43D1
100
AcDbEntity
  8
0
100
AcDbLine
 10
7.532997264346339
 20
-28.80325059716069
 30
0.0
 11
7.532997264346339
 21
-26.35376085437751
 31
0.0
  0
LINE
  5
43FD
330
43D1
100
AcDbEntity
  8
0
100
AcDbLine
 10
-0.5987307192989589
 20
-33.49810593749511
 30
0.0
 11
-0.5987307192989589
 21
-31.04861619471193
 31
0.0
  0
SPLINE
  5
43FE
330
43D1
100
AcDbEntity
  8
0
100
AcDbSpline
210
0.0
220
0.0
230
1.0
 70
     8
 71
     3
 72
    17
 73
    13
 74
     0
 42
0.000000001
 43
0.0000000001
 40
-0.4749247045256199
 40
-0.4749247045256199
 40
-0.4749247045256199
 40
-0.4749247045256199
 40
-0.4725410755549741
 40
-0.4725410755549741
 40
-0.4725410755549741
 40
-0.2262668722288056
 40
-0.2262668722288056
 40
-0.2262668722288056
 40
-0.054508876045835
 40
-0.054508876045835
 40
-0.054508876045835
 40
0.0
 40
0.0
 40
0.0
 40
0.0
 10
5.955046077694201
 20
40.54362412967977
 30
0.0
 10
5.952712827340458
 20
40.52824256351998
 30
0.0
 10
5.950379154519755
 20
40.5128597635517
 30
0.0
 10
5.94804510179046
 20
40.49747575054279
 30
0.0
 10
5.706893067011917
 20
38.90801464129074
 30
0.0
 10
5.464435350152077
 20
37.31049775950858
 30
0.0
 10
5.269469721641759
 20
35.74071435064376
 30
0.0
 10
5.133495651986015
 20
34.64590681860678
 30
0.0
 10
5.018553460332624
 20
33.54677454279148
 30
0.0
 10
4.94245295835912
 20
32.49051465233065
 30
0.0
 10
4.918301810108181
 20
32.15530149940132
 30
0.0
 10
4.899117501272249
 20
31.82689999137961
 30
0.0
 10
4.882235505806926
 20
31.50425830811736
 30
0.0
  0
LINE
  5
43FF
330
43D1
100
AcDbEntity
  8
0
100
AcDbLine
 10
5.400911376439467
 20
31.30142017448231
 30
0.0
 11
4.88223550572191
 21
31.50425830812697
 31
0.0
  0
LINE
  5
4400
330
43D1
100
AcDbEntity
  8
0
100
AcDbLine
 10
7.063165305635767
 20
30.65136393767449
 30
0.0
 11
5.400911376439467
 21
31.30142017448231
 31
0.0
  0
SPLINE
  5
4401
330
43D1
100
AcDbEntity
  8
0
100
AcDbSpline
210
0.0
220
0.0
230
1.0
 70
     8
 71
     3
 72
    20
 73
    16
 74
     0
 42
0.000000001
 43
0.0000000001
 40
-1.0
 40
-1.0
 40
-1.0
 40
-1.0
 40
-0.9033929680658552
 40
-0.9033929680658552
 40
-0.9033929680658552
 40
-0.5415825357496395
 40
-0.5415825357496395
 40
-0.5415825357496395
 40
-0.2707912678748197
 40
-0.2707912678748197
 40
-0.2707912678748197
 40
-0.0793860111516785
 40
-0.0793860111516785
 40
-0.0793860111516785
 40
0.0
 40
0.0
 40
0.0
 40
0.0
 10
7.063165305635732
 20
30.65136393767446
 30
0.0
 10
7.087277307745711
 20
31.2119131176578
 30
0.0
 10
7.096825523932461
 20
31.81519419715673
 30
0.0
 10
7.077382319577405
 20
32.40764487509692
 30
0.0
 10
7.004564078167092
 20
34.62647751719374
 30
0.0
 10
6.619801829252796
 20
36.93261625896063
 30
0.0
 10
6.202010861476754
 20
39.21493575415133
 30
0.0
 10
5.889321851526245
 20
40.92310150780754
 30
0.0
 10
5.552967518281208
 20
42.61543467199955
 30
0.0
 10
5.290670289676899
 20
44.27333553221841
 30
0.0
 10
5.105268933227007
 20
45.44520101466964
 30
0.0
 10
4.959541054039782
 20
46.59250396171977
 30
0.0
 10
4.892795188719367
 20
47.69487812513574
 30
0.0
 10
4.86511210362877
 20
48.15209173111757
 30
0.0
 10
4.847746404615929
 20
48.60256027746565
 30
0.0
 10
4.845991495913737
 20
49.04969839439373
 30
0.0
  0
LINE
  5
4402
330
43D1
100
AcDbEntity
  8
0
100
AcDbLine
 10
10.1985996066464
 20
32.084706730498
 30
0.0
 11
7.063165305635781
 21
30.65136393767446
 31
0.0
  0
ELLIPSE
  5
4403
330
43D1
100
AcDbEntity
  8
0
100
AcDbEllipse
 10
11.98680967632887
 20
31.05228316539923
 30
0.0
 11
-2.980787541290216
 21
-0.3389773350668574
 31
0.0
210
0.0
220
0.0
230
0.9999999999999998
 40
0.491379908754587
 41
3.866279069693543
 42
5.298790550294558
  0
SPLINE
  5
4404
330
43D1
100
AcDbEntity
  8
0
100
AcDbSpline
210
0.0
220
0.0
230
1.0
 70
     8
 71
     2
 72
     6
 73
     3
 74
     0
 42
0.000000001
 43
0.0000000001
 40
0.0
 40
0.0
 40
0.0
 40
1.0
 40
1.0
 40
1.0
 10
14.10813001988849
 20
32.27702803679083
 30
0.0
 10
13.07921490668891
 20
41.32476377955652
 30
0.0
 10
4.845991495838468
 20
49.04969839429757
 30
0.0
  0
SPLINE
  5
4405
330
43D1
100
AcDbEntity
  8
0
100
AcDbSpline
210
0.0
220
0.0
230
1.0
 70
     8
 71
     3
 72
    20
 73
    16
 74
     0
 42
0.000000001
 43
0.0000000001
 40
-1.0
 40
-1.0
 40
-1.0
 40
-1.0
 40
-0.856514084357323
 40
-0.856514084357323
 40
-0.856514084357323
 40
-0.5402558541811611
 40
-0.5402558541811611
 40
-0.5402558541811611
 40
-0.2701279270905805
 40
-0.2701279270905805
 40
-0.2701279270905805
 40
-0.0852549168069366
 40
-0.0852549168069366
 40
-0.0852549168069366
 40
0.0
 40
0.0
 40
0.0
 40
0.0
 10
39.42163512912879
 20
11.96919267451634
 30
0.0
 10
39.61128290024193
 20
12.73147268374559
 30
0.0
 10
39.97408604162963
 20
13.40103348257928
 30
0.0
 10
40.47079022718505
 20
13.96987841511968
 30
0.0
 10
41.56557911946936
 20
15.22367319214792
 30
0.0
 10
43.25890223293534
 20
16.0533756222178
 30
0.0
 10
44.96784337778727
 20
16.85754973103069
 30
0.0
 10
46.42751362485569
 20
17.54442477270956
 30
0.0
 10
47.86944682127733
 20
18.19190340955401
 30
0.0
 10
48.97231424848143
 20
19.05981820168531
 30
0.0
 10
49.72710633313187
 20
19.65381091476459
 30
0.0
 10
50.30892930676063
 20
20.35228136258166
 30
0.0
 10
50.60220940177938
 20
21.20376296602186
 30
0.0
 10
50.73745667266869
 20
21.59642706097307
 30
0.0
 10
50.80432204333426
 20
22.02815104292643
 30
0.0
 10
50.80793227304147
 20
22.5135595142413
 30
0.0
  0
SPLINE
  5
4406
330
43D1
100
AcDbEntity
  8
0
100
AcDbSpline
210
0.0
220
0.0
230
1.0
 70
     8
 71
     2
 72
     6
 73
     3
 74
     0
 42
0.000000001
 43
0.0000000001
 40
0.0
 40
0.0
 40
0.0
 40
1.0
 40
1.0
 40
1.0
 10
41.545793748914
 20
16.4358854969035
 30
0.0
 10
42.57470886211358
 20
24.29553240451109
 30
0.0
 10
50.80793227296403
 20
22.51355951414647
 30
0.0
  0
ELLIPSE
  5
4407
330
43D1
100
AcDbEntity
  8
0
100
AcDbEllipse
 10
39.42447340535432
 20
15.21114062551194
 30
0.0
 11
-2.974619186296041
 21
0.3894107041665442
 31
0.0
210
0.0
220
0.0
230
0.9999999999999998
 40
0.6520831633610849
 41
3.544678162423139
 42
4.007259574309323
  0
ELLIPSE
  5
4408
330
43D1
100
AcDbEntity
  8
0
100
AcDbEllipse
 10
39.42447340535432
 20
15.21114062551194
 30
0.0
 11
5.949238372592033
 21
-0.7788214083334726
 31
0.0
210
0.0
220
0.0
230
0.9999999999999998
 40
0.652083163361085
 41
5.716340747298441
 42
6.217776105828725
  0
SPLINE
  5
4409
330
43D1
100
AcDbEntity
  8
0
100
AcDbSpline
210
0.0
220
0.0
230
1.0
 70
     8
 71
     3
 72
    20
 73
    16
 74
     0
 42
0.000000001
 43
0.0000000001
 40
-1.0
 40
-1.0
 40
-1.0
 40
-1.0
 40
-0.8557507846685076
 40
-0.8557507846685076
 40
-0.8557507846685076
 40
-0.4725410755549741
 40
-0.4725410755549741
 40
-0.4725410755549741
 40
-0.2262668722288056
 40
-0.2262668722288056
 40
-0.2262668722288056
 40
-0.054508876045835
 40
-0.054508876045835
 40
-0.054508876045835
 40
0.0
 40
0.0
 40
0.0
 40
0.0
 10
52.92925261652372
 20
23.73830438553796
 30
0.0
 10
52.92640404166878
 20
22.93507155057383
 30
0.0
 10
52.72573308477476
 20
22.17433386007336
 30
0.0
 10
52.35836621010819
 20
21.47268146986578
 30
0.0
 10
51.3824263905715
 20
19.60868513732171
 30
0.0
 10
49.34161647343116
 20
18.13407722479427
 30
0.0
 10
47.27109969167027
 20
16.63959905933805
 30
0.0
 10
45.94045785568656
 20
15.67915518009115
 30
0.0
 10
44.59885474695726
 20
14.71623018618337
 30
0.0
 10
43.53037638923155
 20
13.65076958667162
 30
0.0
 10
42.78519195980603
 20
12.90768981984084
 30
0.0
 10
42.16431326392754
 20
12.10066012093274
 30
0.0
 10
41.78393907422964
 20
11.22007272598692
 30
0.0
 10
41.66322405648344
 20
10.94061074910468
 30
0.0
 10
41.57024025886072
 20
10.65481739580007
 30
0.0
 10
41.49708693600756
 20
10.36466397855284
 30
0.0
  0
LINE
  5
440A
330
43D1
100
AcDbEntity
  8
0
100
AcDbLine
 10
44.1705432312375
 20
12.47099593394551
 30
0.0
 11
41.49708693608313
 21
10.3646639784697
 31
0.0
  0
LINE
  5
440B
330
43D1
100
AcDbEntity
  8
0
100
AcDbLine
 10
41.49708693608317
 20
10.36466397846969
 30
0.0
 11
41.00349618724436
 21
10.74625825011758
 31
0.0
  0
LINE
  5
440C
330
43D1
100
AcDbEntity
  8
0
100
AcDbLine
 10
40.84918860208284
 20
10.86555321402843
 30
0.0
 11
39.42163512912885
 21
11.96919267451634
 31
0.0
  0
LINE
  5
440D
330
43D1
100
AcDbEntity
  8
0
100
AcDbLine
 10
41.00349618724436
 20
10.74625825011758
 30
0.0
 11
40.84918860208284
 21
10.86555321402843
 31
0.0
  0
SPLINE
  5
440E
330
43D1
100
AcDbEntity
  8
0
100
AcDbSpline
210
0.0
220
0.0
230
1.0
 70
     8
 71
     3
 72
    16
 73
    12
 74
     0
 42
0.000000001
 43
0.0000000001
 40
0.0
 40
0.0
 40
0.0
 40
0.0
 40
0.1496326518396757
 40
0.1496326518396757
 40
0.2361966585332144
 40
0.2361966585332144
 40
0.2844289951919963
 40
0.2844289951919963
 40
0.3637040502256127
 40
0.3637040502256127
 40
0.3697867311203904
 40
0.3697867311203904
 40
0.3697867311203904
 40
0.3697867311203904
 10
41.27492814817379
 20
14.73942073203805
 30
0.0
 10
41.61867149784123
 20
15.01947725934795
 30
0.0
 10
41.94775805698789
 20
15.30155385972825
 30
0.0
 10
42.35877597292009
 20
15.7126532800333
 30
0.0
 10
42.48769159278682
 20
15.85754497176919
 30
0.0
 10
42.63446398475879
 20
16.04361811384862
 30
0.0
 10
42.67686786783955
 20
16.10275053545299
 30
0.0
 10
42.76049921303739
 20
16.2281620254629
 30
0.0
 10
42.78371529775603
 20
16.27469795622303
 30
0.0
 10
42.78680550982591
 20
16.28105481280543
 30
0.0
 10
42.78691298891305
 20
16.28128158970235
 30
0.0
 10
42.78691298891567
 20
16.28128158970789
 30
0.0
  0
SPLINE
  5
440F
330
43D1
100
AcDbEntity
  8
0
100
AcDbSpline
210
0.0
220
0.0
230
1.0
 70
     8
 71
     3
 72
    10
 73
     6
 74
     0
 42
0.000000001
 43
0.0000000001
 40
0.6267710595578873
 40
0.6267710595578873
 40
0.6267710595578873
 40
0.6267710595578873
 40
0.7266617872222279
 40
0.7266617872222279
 40
0.8486306995652123
 40
0.8486306995652123
 40
0.8486306995652123
 40
0.8486306995652123
 10
45.65913360169548
 20
15.45806842129544
 30
0.0
 10
45.61205382389481
 20
15.30584986588499
 30
0.0
 10
45.56172937450942
 20
15.12581703100691
 30
0.0
 10
45.45026339595622
 20
14.69672411205262
 30
0.0
 10
45.38937384405322
 20
14.44307289164071
 30
0.0
 10
45.32776611221644
 20
14.18042367402502
 30
0.0
  0
LINE
  5
4410
330
43D1
100
AcDbEntity
  8
0
100
AcDbLine
 10
50.80793227296403
 20
22.51355951414643
 30
0.0
 11
52.92925261652367
 21
23.73830438553803
 31
0.0
  0
LINE
  5
4411
330
43D1
100
AcDbEntity
  8
0
100
AcDbLine
 10
47.97950514821784
 20
45.78371207058672
 30
0.0
 11
11.91705930770394
 21
66.60437488424375
 31
0.0
  0
LINE
  5
4412
330
43D1
100
AcDbEntity
  8
0
100
AcDbLine
 10
52.92925261652367
 20
23.73830438553803
 30
0.0
 11
52.92925261652367
 21
37.21049797084559
 31
0.0
  0
LINE
  5
4413
330
43D1
100
AcDbEntity
  8
0
100
AcDbLine
 10
50.80793227296403
 20
22.51355951414643
 30
0.0
 11
50.80793227296403
 21
35.985753099454
 31
0.0
  0
LINE
  5
4414
330
43D1
100
AcDbEntity
  8
0
100
AcDbLine
 10
45.85818480465819
 20
44.55896719919514
 30
0.0
 11
9.795738964144295
 21
65.37963001285215
 31
0.0
  0
LINE
  5
4415
330
43D1
100
AcDbEntity
  8
0
100
AcDbLine
 10
4.845991495838455
 20
62.52189197960511
 30
0.0
 11
4.84599149583845
 21
49.04969839429755
 31
0.0
  0
LINE
  5
4416
330
43D1
100
AcDbEntity
  8
0
100
AcDbLine
 10
47.97950514821784
 20
45.78371207058672
 30
0.0
 11
45.85818480465819
 21
44.55896719919514
 31
0.0
  0
LINE
  5
4417
330
43D1
100
AcDbEntity
  8
0
100
AcDbLine
 10
50.80793227296403
 20
35.985753099454
 30
0.0
 11
52.92925261652367
 21
37.21049797084559
 31
0.0
  0
LINE
  5
4418
330
43D1
100
AcDbEntity
  8
0
100
AcDbLine
 10
9.795738964144295
 20
65.37963001285215
 30
0.0
 11
11.91705930770394
 21
66.60437488424375
 31
0.0
  0
ELLIPSE
  5
4419
330
43D1
100
AcDbEntity
  8
0
100
AcDbEllipse
 10
3.003468594513569
 20
-47.87189016957478
 30
0.0
 11
3.649098310923982
 21
-4.762780859667152
 31
0.0
210
0.0
220
0.0
230
1.0
 40
0.652083163361085
 41
0.0654092013508532
 42
0.5668445598811438
  0
LINE
  5
441A
330
43D1
100
AcDbEntity
  8
0
100
AcDbLine
 10
8.236947255064567
 20
-47.24358781589218
 30
0.0
 11
7.749538420396739
 21
-50.6120348611412
 31
0.0
  0
SPLINE
  5
441B
330
43D1
100
AcDbEntity
  8
0
100
AcDbSpline
210
0.0
220
0.0
230
1.0
 70
     8
 71
     3
 72
    20
 73
    16
 74
     0
 42
0.000000001
 43
0.0000000001
 40
-1.0
 40
-1.0
 40
-1.0
 40
-1.0
 40
-0.8557507846685076
 40
-0.8557507846685076
 40
-0.8557507846685076
 40
-0.4725410755549741
 40
-0.4725410755549741
 40
-0.4725410755549741
 40
-0.2262668722288056
 40
-0.2262668722288056
 40
-0.2262668722288056
 40
-0.054508876045835
 40
-0.054508876045835
 40
-0.054508876045835
 40
0.0
 40
0.0
 40
0.0
 40
0.0
 10
2.37111776168565
 20
-63.83095391896045
 30
0.0
 10
3.065313514490908
 20
-63.42687056328941
 30
0.0
 10
3.623796201633626
 20
-62.87271557156724
 30
0.0
 10
4.047761558846176
 20
-62.20374033049331
 30
0.0
 10
5.174059825622019
 20
-60.42655348793769
 30
0.0
 10
5.430702779922147
 20
-57.92185629913522
 30
0.0
 10
5.689700445727954
 20
-55.3814970844402
 30
0.0
 10
5.856148326073187
 20
-53.74890551151647
 30
0.0
 10
6.019264278371649
 20
-52.10558064060684
 30
0.0
 10
6.407741045417378
 20
-50.64752093966662
 30
0.0
 10
6.678674785818272
 20
-49.63063240986411
 30
0.0
 10
7.067143658741961
 20
-48.68942083711075
 30
0.0
 10
7.63956761816845
 20
-47.91971342841552
 30
0.0
 10
7.821231280667197
 20
-47.6754401679879
 30
0.0
 10
8.022243686050366
 20
-47.45201716045396
 30
0.0
 10
8.236947254954749
 20
-47.24358781586829
 30
0.0
  0
SPLINE
  5
441C
330
43D1
100
AcDbEntity
  8
0
100
AcDbSpline
210
0.0
220
0.0
230
1.0
 70
     8
 71
     3
 72
    20
 73
    16
 74
     0
 42
0.000000001
 43
0.0000000001
 40
-1.0
 40
-1.0
 40
-1.0
 40
-1.0
 40
-0.856514084357323
 40
-0.856514084357323
 40
-0.856514084357323
 40
-0.5402558541811611
 40
-0.5402558541811611
 40
-0.5402558541811611
 40
-0.2701279270905805
 40
-0.2701279270905805
 40
-0.2701279270905805
 40
-0.0852549168069366
 40
-0.0852549168069366
 40
-0.0852549168069366
 40
0.0
 40
0.0
 40
0.0
 40
0.0
 10
5.809658739709848
 20
-46.2484581747627
 30
0.0
 10
5.24432877247686
 20
-46.79383796693239
 30
0.0
 10
4.845873682002523
 20
-47.4428151033638
 30
0.0
 10
4.601591612386206
 20
-48.15739601249105
 30
0.0
 10
4.063167930489663
 20
-49.7324083935044
 30
0.0
 10
4.191286105200453
 20
-51.61372044161623
 30
0.0
 10
4.349321470328746
 20
-53.49579394103693
 30
0.0
 10
4.484305358543552
 20
-55.10334297698591
 30
0.0
 10
4.644539008839365
 20
-56.67583307406939
 30
0.0
 10
4.444336464135418
 20
-58.06490167910016
 30
0.0
 10
4.307319727271141
 20
-59.01556715552249
 30
0.0
 10
3.993338062483253
 20
-59.86867585509895
 30
0.0
 10
3.402573410558296
 20
-60.5484046695296
 30
0.0
 10
3.130139964621179
 20
-60.86186428938784
 30
0.0
 10
2.789688714159375
 20
-61.13563338999438
 30
0.0
 10
2.371117761642125
 20
-61.38146417629176
 30
0.0
  0
ELLIPSE
  5
441D
330
43D1
100
AcDbEntity
  8
0
100
AcDbEllipse
 10
3.00346859451356
 20
-47.87189016957478
 30
0.0
 11
1.824549155461987
 21
-2.381390429833577
 31
0.0
210
0.0
220
0.0
230
1.0
 40
0.6520831633610858
 41
5.417518386459805
 42
5.880099798345924
  0
SPLINE
  5
441E
330
43D1
100
AcDbEntity
  8
0
100
AcDbSpline
210
0.0
220
0.0
230
1.0
 70
     8
 71
     2
 72
     6
 73
     3
 74
     0
 42
0.000000001
 43
0.0000000001
 40
0.0
 40
0.0
 40
0.0
 40
1.0
 40
1.0
 40
1.0
 10
3.003468594513569
 20
-50.32137991235796
 30
0.0
 10
-3.288727735650618
 20
-55.14226999253033
 30
0.0
 10
2.371117761685543
 20
-61.38146417617729
 30
0.0
  0
LINE
  5
441F
330
43D1
100
AcDbEntity
  8
0
100
AcDbLine
 10
7.659681547466541
 20
-47.00692282415163
 30
0.0
 11
8.236947255064563
 21
-47.24358781589218
 31
0.0
  0
LINE
  5
4420
330
43D1
100
AcDbEntity
  8
0
100
AcDbLine
 10
7.479215285574611
 20
-46.932936017352
 30
0.0
 11
7.659681547466541
 21
-47.00692282415163
 31
0.0
  0
LINE
  5
4421
330
43D1
100
AcDbEntity
  8
0
100
AcDbLine
 10
5.809658739709884
 20
-46.24845817476273
 30
0.0
 11
7.479215285574611
 21
-46.932936017352
 31
0.0
  0
SPLINE
  5
4422
330
43D1
100
AcDbEntity
  8
0
100
AcDbSpline
210
0.0
220
0.0
230
1.0
 70
     8
 71
     3
 72
     8
 73
     4
 74
     0
 42
0.000000001
 43
0.0000000001
 40
0.0
 40
0.0
 40
0.0
 40
0.0
 40
0.2216069269797369
 40
0.2216069269797369
 40
0.2216069269797369
 40
0.2216069269797369
 10
6.847742012043496
 20
-52.46893314394933
 30
0.0
 10
6.490433260257542
 20
-52.80447789344197
 30
0.0
 10
6.146795316767295
 20
-53.13584572772923
 30
0.0
 10
5.906952948635124
 20
-53.39472818146162
 30
0.0
  0
SPLINE
  5
4423
330
43D1
100
AcDbEntity
  8
0
100
AcDbSpline
210
0.0
220
0.0
230
1.0
 70
     8
 71
     3
 72
    16
 73
    12
 74
     0
 42
0.000000001
 43
0.0000000001
 40
0.3459208038011434
 40
0.3459208038011434
 40
0.3459208038011434
 40
0.3459208038011434
 40
0.4292964191368313
 40
0.4292964191368313
 40
0.5035593057258572
 40
0.5035593057258572
 40
0.5838019182289685
 40
0.5838019182289685
 40
0.6895800146462735
 40
0.6895800146462735
 40
0.7158493995651336
 40
0.7158493995651336
 40
0.7158493995651336
 40
0.7158493995651336
 10
3.757919125670996
 20
-51.31891874972597
 30
0.0
 10
3.757919113701668
 20
-51.3189187670512
 30
0.0
 10
3.786227606879619
 20
-51.27782540465009
 30
0.0
 10
3.867588499045995
 20
-51.11456933344715
 30
0.0
 10
3.917446071488766
 20
-51.00069177927328
 30
0.0
 10
4.021133079610632
 20
-50.70987849804957
 30
0.0
 10
4.075701379735332
 20
-50.5267863200768
 30
0.0
 10
4.190188764426836
 20
-50.06492089127188
 30
0.0
 10
4.247513203187369
 20
-49.77114399496671
 30
0.0
 10
4.312219540129125
 20
-49.3916861302695
 30
0.0
 10
4.324811594721751
 20
-49.31541657902188
 30
0.0
 10
4.337217377142148
 20
-49.23857103867283
 30
0.0
  0
LINE
  5
4424
330
43D1
100
AcDbEntity
  8
0
100
AcDbLine
 10
2.371117761685543
 20
-61.38146417617729
 30
0.0
 11
2.371117761685543
 21
-63.83095391896046
 31
0.0
  0
LINE
  5
4425
330
43D1
100
AcDbEntity
  8
0
100
AcDbLine
 10
-2.225076316027068
 20
-66.48456780697559
 30
0.0
 11
2.371117761685557
 21
-63.83095391896046
 31
0.0
  0
LINE
  5
4426
330
43D1
100
AcDbEntity
  8
0
100
AcDbLine
 10
-43.59082301544003
 20
-34.84532529602617
 30
0.0
 11
-48.18701709315263
 21
-37.49893918404132
 31
0.0
  0
LINE
  5
4427
330
43D1
100
AcDbEntity
  8
0
100
AcDbLine
 10
-2.225076316027068
 20
-64.03507806419241
 30
0.0
 11
2.371117761685557
 21
-61.38146417617729
 31
0.0
  0
LINE
  5
4428
330
43D1
100
AcDbEntity
  8
0
100
AcDbLine
 10
-2.225076316027068
 20
-66.48456780697559
 30
0.0
 11
-2.225076316027068
 21
-64.03507806419241
 31
0.0
  0
SPLINE
  5
4429
330
43D1
100
AcDbEntity
  8
0
100
AcDbSpline
210
0.0
220
0.0
230
1.0
 70
     8
 71
     3
 72
    17
 73
    13
 74
     0
 42
0.000000001
 43
0.0000000001
 40
-0.4749247045256208
 40
-0.4749247045256208
 40
-0.4749247045256208
 40
-0.4749247045256208
 40
-0.4725410755549741
 40
-0.4725410755549741
 40
-0.4725410755549741
 40
-0.2262668722288056
 40
-0.2262668722288056
 40
-0.2262668722288056
 40
-0.054508876045835
 40
-0.054508876045835
 40
-0.054508876045835
 40
0.0
 40
0.0
 40
0.0
 40
0.0
 10
-35.6698193248761
 20
-31.55275760578787
 30
0.0
 10
-35.65766512300861
 20
-31.54304616862825
 30
0.0
 10
-35.6455100638651
 20
-31.53333374869725
 30
0.0
 10
-35.63335414415187
 20
-31.52362039323546
 30
0.0
 10
-34.37741646260146
 20
-30.5200460503169
 30
0.0
 10
-33.11515511843353
 20
-29.51131306728163
 30
0.0
 10
-31.85316562217242
 20
-28.55757617569448
 30
0.0
 10
-30.97302152200173
 20
-27.89241541109817
 30
0.0
 10
-30.07861614485295
 20
-27.24330641525201
 30
0.0
 10
-29.20191849770207
 20
-26.6492715020718
 30
0.0
 10
-28.92369096570807
 20
-26.46074941769126
 30
0.0
 10
-28.6488790715381
 20
-26.27993456487444
 30
0.0
 10
-28.37790417524589
 20
-26.10399348630377
 30
0.0
  0
SPLINE
  5
442A
330
43D1
100
AcDbEntity
  8
0
100
AcDbSpline
210
0.0
220
0.0
230
1.0
 70
     8
 71
     3
 72
    20
 73
    16
 74
     0
 42
0.000000001
 43
0.0000000001
 40
-1.0
 40
-1.0
 40
-1.0
 40
-1.0
 40
-0.856514084357323
 40
-0.856514084357323
 40
-0.856514084357323
 40
-0.5402558541811611
 40
-0.5402558541811611
 40
-0.5402558541811611
 40
-0.2701279270905805
 40
-0.2701279270905805
 40
-0.2701279270905805
 40
-0.0852549168069366
 40
-0.0852549168069366
 40
-0.0852549168069366
 40
0.0
 40
0.0
 40
0.0
 40
0.0
 10
-26.54881108378323
 20
-27.56628691160458
 30
0.0
 10
-27.26227373490069
 20
-28.02614225885779
 30
0.0
 10
-28.03613236100921
 20
-28.45838006293605
 30
0.0
 10
-28.83749433549678
 20
-28.85133073902575
 30
0.0
 10
-30.60378142121357
 20
-29.7174358533154
 30
0.0
 10
-32.50344733806649
 20
-30.42800621030448
 30
0.0
 10
-34.42109918351011
 20
-31.11168113994801
 30
0.0
 10
-36.05903700919948
 20
-31.6956333471223
 30
0.0
 10
-37.67442713228396
 20
-32.24296658066516
 30
0.0
 10
-39.23901977045345
 20
-32.84430419795395
 30
0.0
 10
-40.30981224275132
 20
-33.25585400216095
 30
0.0
 10
-41.34584474333876
 20
-33.69208645731994
 30
0.0
 10
-42.30144947451389
 20
-34.16117475378432
 30
0.0
 10
-42.74213035990467
 20
-34.37749666918354
 30
0.0
 10
-43.16496704901348
 20
-34.60370051460993
 30
0.0
 10
-43.59082301548567
 20
-34.84532529613936
 30
0.0
  0
SPLINE
  5
442B
330
43D1
100
AcDbEntity
  8
0
100
AcDbSpline
210
0.0
220
0.0
230
1.0
 70
     8
 71
     2
 72
     6
 73
     3
 74
     0
 42
0.000000001
 43
0.0000000001
 40
0.0
 40
0.0
 40
0.0
 40
1.0
 40
1.0
 40
1.0
 10
-24.43419513451195
 20
-34.48023737247064
 30
0.0
 10
-32.78422169107528
 20
-38.1130386174849
 30
0.0
 10
-43.59082301544003
 20
-34.84532529602617
 30
0.0
  0
ELLIPSE
  5
442C
330
43D1
100
AcDbEntity
  8
0
100
AcDbEllipse
 10
-24.43419513451195
 20
-32.03074762968746
 30
0.0
 11
1.196830787170335
 21
-2.750926401574792
 31
0.0
210
0.0
220
0.0
230
1.0
 40
0.4913799087545872
 41
4.125987410474325
 42
5.558498891075155
  0
LINE
  5
442D
330
43D1
100
AcDbEntity
  8
0
100
AcDbLine
 10
-26.54881108378319
 20
-27.56628691160461
 30
0.0
 11
-26.22240520419442
 21
-30.99832406458869
 31
0.0
  0
LINE
  5
442E
330
43D1
100
AcDbEntity
  8
0
100
AcDbLine
 10
-28.37790417529671
 20
-26.10399348623494
 30
0.0
 11
-27.94290326335076
 21
-26.45176089977976
 31
0.0
  0
LINE
  5
442F
330
43D1
100
AcDbEntity
  8
0
100
AcDbLine
 10
-27.8069121807952
 20
-26.56048082598394
 30
0.0
 11
-26.5488110837832
 21
-27.56628691160461
 31
0.0
  0
LINE
  5
4430
330
43D1
100
AcDbEntity
  8
0
100
AcDbLine
 10
-27.94290326335076
 20
-26.45176089977976
 30
0.0
 11
-27.8069121807952
 21
-26.56048082598394
 31
0.0
  0
LINE
  5
4431
330
43D1
100
AcDbEntity
  8
0
100
AcDbLine
 10
44.1705432312375
 20
12.47099593394552
 30
0.0
 11
39.44941432342885
 21
-23.59262655993246
 31
0.0
  0
ELLIPSE
  5
4432
330
43D1
100
AcDbEntity
  8
0
100
AcDbEllipse
 10
34.70334449754567
 20
-20.85248186836605
 30
0.0
 11
5.949238372592033
 21
-0.778821408333473
 31
0.0
210
0.0
220
0.0
230
0.9999999999999998
 40
0.652083163361085
 41
5.716340747298441
 42
6.283185307179587
  0
ELLIPSE
  5
4433
330
43D1
100
AcDbEntity
  8
0
100
AcDbEllipse
 10
31.87491737279948
 20
-25.7514613539324
 30
0.0
 11
3.649098310923981
 21
-4.762780859667154
 31
0.0
210
0.0
220
0.0
230
1.0
 40
0.6520831633610856
 41
0.0
 42
0.5668445598811465
  0
ELLIPSE
  5
4434
330
43D1
100
AcDbEntity
  8
0
100
AcDbEllipse
 10
37.01849670768937
 20
-25.45512194381839
 30
0.0
 11
-1.999999999999999
 21
-3.464101615137755
 31
0.0
210
0.0
220
0.0
230
1.0
 40
0.4150676916945049
 41
0.7853981633974474
 42
2.356194490192343
  0
LINE
  5
4435
330
43D1
100
AcDbEntity
  8
0
100
AcDbLine
 10
36.62098719868267
 20
-28.49160604549881
 30
0.0
 11
7.749538420396748
 21
-50.6120348611412
 31
0.0
  0
LINE
  5
4436
330
43D1
100
AcDbEntity
  8
0
100
AcDbLine
 10
45.35698021672394
 20
14.30451065286231
 30
0.0
 11
40.6525828701377
 21
-21.63130327669952
 31
0.0
  0
SPLINE
  5
4437
330
43D1
100
AcDbEntity
  8
0
100
AcDbSpline
210
0.0
220
0.0
230
1.0
 70
     8
 71
     3
 72
    16
 73
    12
 74
     0
 42
0.000000001
 43
0.0000000001
 40
-0.7853981633974485
 40
-0.7853981633974485
 40
-0.7853981633974485
 40
-0.7853981633974485
 40
-0.4712388980384692
 40
-0.4712388980384692
 40
-0.1570796326794899
 40
-0.1570796326794899
 40
0.1570796326794894
 40
0.1570796326794894
 40
0.4712388980384688
 40
0.4712388980384688
 40
0.785398163397448
 40
0.785398163397448
 40
0.785398163397448
 40
0.785398163397448
 10
40.65258287013769
 20
-21.63130327669952
 30
0.0
 10
40.55320156426347
 20
-22.39045431196754
 30
0.0
 10
40.38169610436812
 20
-23.08026705712044
 30
0.0
 10
39.95024200283629
 20
-24.40353848717692
 30
0.0
 10
39.68817782497883
 20
-25.03501371592078
 30
0.0
 10
39.08619553656485
 20
-26.25631630126929
 30
0.0
 10
38.74620078904835
 20
-26.84520447827441
 30
0.0
 10
37.98951286863592
 20
-27.97718772534346
 30
0.0
 10
37.57367136761188
 20
-28.51987957516185
 30
0.0
 10
36.64341174384673
 20
-29.55516550268363
 30
0.0
 10
36.13176911263771
 20
-30.04859996041719
 30
0.0
 10
35.52401568372346
 20
-30.51424221359955
 30
0.0
  0
LINE
  5
4438
330
43D1
100
AcDbEntity
  8
0
100
AcDbLine
 10
35.52401568372346
 20
-30.51424221359956
 30
0.0
 11
6.754886588344994
 21
-52.55627679002053
 31
0.0
  0
LINE
  5
4439
330
43D1
100
AcDbEntity
  8
0
100
AcDbLine
 10
52.92925261652367
 20
37.21049797084559
 30
0.0
 11
47.97950514821784
 21
45.78371207058672
 31
0.0
  0
LINE
  5
443A
330
43D1
100
AcDbEntity
  8
0
100
AcDbLine
 10
-12.12457125263873
 20
-66.48456780697559
 30
0.0
 11
-2.225076316027068
 21
-66.48456780697559
 31
0.0
  0
LINE
  5
443B
330
43D1
100
AcDbEntity
  8
0
100
AcDbLine
 10
45.85818480465819
 20
44.55896719919514
 30
0.0
 11
50.80793227296403
 21
35.985753099454
 31
0.0
  0
LINE
  5
443C
330
43D1
100
AcDbEntity
  8
0
100
AcDbLine
 10
4.845991495838455
 20
62.52189197960511
 30
0.0
 11
9.795738964144295
 21
65.37963001285215
 31
0.0
  0
LINE
  5
443D
330
43D1
100
AcDbEntity
  8
0
100
AcDbLine
 10
-48.18701709315265
 20
-43.2144152505354
 30
0.0
 11
-48.18701709315263
 21
-37.49893918404132
 31
0.0
  0
LINE
  5
443E
330
43D1
100
AcDbEntity
  8
0
100
AcDbLine
 10
-2.225076316027068
 20
-64.03507806419241
 30
0.0
 11
-12.12457125263873
 21
-64.03507806419241
 31
0.0
  0
LINE
  5
443F
330
43D1
100
AcDbEntity
  8
0
100
AcDbLine
 10
-12.12457125263873
 20
-64.03507806419241
 30
0.0
 11
-12.12457125263873
 21
-66.48456780697559
 31
0.0
  0
LINE
  5
4440
330
43D1
100
AcDbEntity
  8
0
100
AcDbLine
 10
-48.18701709315265
 20
-45.66390499331858
 30
0.0
 11
-48.18701709315265
 21
-43.2144152505354
 31
0.0
  0
LINE
  5
4441
330
43D1
100
AcDbEntity
  8
0
100
AcDbLine
 10
-28.37790417529671
 20
-26.10399348623494
 30
0.0
 11
-4.990936368830265
 21
-11.13559974642926
 31
0.0
  0
ELLIPSE
  5
4442
330
43D1
100
AcDbEntity
  8
0
100
AcDbEllipse
 10
-8.559618109153026
 20
0.8594149148412855
 30
0.0
 11
7.499999999999993
 21
12.99038105676658
 31
0.0
210
0.0
220
0.0
230
1.0
 40
0.739632846684747
 41
4.101523742186673
 42
5.323254218582704
  0
LINE
  5
4443
330
43D1
100
AcDbEntity
  8
0
100
AcDbLine
 10
3.612710176435447
 20
3.766353200335359
 30
0.0
 11
4.882235505721932
 21
31.50425830812694
 31
0.0
  0
LINE
  5
4444
330
43D1
100
AcDbEntity
  8
0
100
AcDbLine
 10
3.612710176435447
 20
3.766353200335359
 30
0.0
 11
5.775524439373809
 21
2.51765180342073
 31
0.0
  0
LINE
  5
4445
330
43D1
100
AcDbEntity
  8
0
100
AcDbLine
 10
-4.990936368830265
 20
-11.13559974642926
 30
0.0
 11
-2.828122105891903
 21
-12.38430114334388
 31
0.0
  0
LINE
  5
4446
330
43D1
100
AcDbEntity
  8
0
100
AcDbLine
 10
24.60832068088283
 20
-28.22473877189406
 30
0.0
 11
26.7711349438212
 21
-29.47344016880869
 31
0.0
  0
LINE
  5
4447
330
43D1
100
AcDbEntity
  8
0
100
AcDbLine
 10
33.21196722614853
 20
-13.32278582512943
 30
0.0
 11
35.37478148908689
 21
-14.57148722204406
 31
0.0
  0
LINE
  5
4448
330
43D1
100
AcDbEntity
  8
0
100
AcDbLine
 10
18.53112679594213
 20
-6.616468139385656
 30
0.0
 11
14.10813001988851
 21
32.27702803679083
 31
0.0
  0
LINE
  5
4449
330
43D1
100
AcDbEntity
  8
0
100
AcDbLine
 10
41.54579374891397
 20
16.43588549690353
 30
0.0
 11
41.32954643262244
 21
14.78402177270967
 31
0.0
  0
LINE
  5
444A
330
43D1
100
AcDbEntity
  8
0
100
AcDbLine
 10
40.81959445276802
 20
10.8886153877967
 30
0.0
 11
40.8195727000437
 21
10.88844922371743
 31
0.0
  0
LINE
  5
444B
330
43D1
100
AcDbEntity
  8
0
100
AcDbLine
 10
7.444578808532864
 20
-46.9187358986803
 30
0.0
 11
7.444445782581157
 21
-46.9188378191318
 31
0.0
  0
LINE
  5
444C
330
43D1
100
AcDbEntity
  8
0
100
AcDbLine
 10
4.325900823524602
 20
-49.30817242803695
 30
0.0
 11
3.003468594513569
 21
-50.32137991235796
 31
0.0
  0
LINE
  5
444D
330
43D1
100
AcDbEntity
  8
0
100
AcDbLine
 10
-24.43419513451195
 20
-34.48023737247064
 30
0.0
 11
11.46005898407664
 21
-18.86391685330153
 31
0.0
  0
LINE
  5
444E
330
43D1
100
AcDbEntity
  8
0
100
AcDbLine
 10
10.1985996066464
 20
32.08470673049801
 30
0.0
 11
14.62159638270002
 21
-6.808789445678464
 31
0.0
  0
ELLIPSE
  5
444F
330
43D1
100
AcDbEntity
  8
0
100
AcDbEllipse
 10
16.40980645238248
 20
-7.841213010777243
 30
0.0
 11
-2.980787541290217
 21
-0.338977335066859
 31
0.0
210
0.0
220
0.0
230
0.9999999999999998
 40
0.4913799087545879
 41
3.866279069693531
 42
5.298790550294561
  0
LINE
  5
4450
330
43D1
100
AcDbEntity
  8
0
100
AcDbLine
 10
9.671848914394178
 20
-15.38200354541958
 30
0.0
 11
-26.22240520419443
 21
-30.99832406458869
 31
0.0
  0
ELLIPSE
  5
4451
330
43D1
100
AcDbEntity
  8
0
100
AcDbEllipse
 10
8.976207273632436
 20
-9.264898590372197
 30
0.0
 11
-3.500000000000003
 21
-6.062177826491068
 31
0.0
210
0.0
220
0.0
230
1.0
 40
0.7396328466847467
 41
0.7853981633974492
 42
2.356194490192345
  0
ELLIPSE
  5
4452
330
43D1
100
AcDbEntity
  8
0
100
AcDbEllipse
 10
10.7644173433149
 20
-10.29732215547097
 30
0.0
 11
5.000000000000003
 21
8.660254037844381
 31
0.0
210
0.0
220
0.0
230
1.0
 40
0.690948073436211
 41
3.926990816987242
 42
5.497787143782137
  0
ELLIPSE
  5
4453
330
43D1
100
AcDbEntity
  8
0
100
AcDbEllipse
 10
11.46005898407664
 20
-16.41442711051835
 30
0.0
 11
-1.196830787170056
 21
2.750926401574911
 31
0.0
210
0.0
220
0.0
230
1.0
 40
0.4913799087545869
 41
0.984394756885023
 42
2.416906237486054
  0
LINE
  5
4454
330
43D1
100
AcDbEntity
  8
0
100
AcDbLine
 10
32.78409999737081
 20
-14.84542605398303
 30
0.0
 11
18.53112679594213
 21
-6.616468139385656
 31
0.0
  0
LINE
  5
4455
330
43D1
100
AcDbEntity
  8
0
100
AcDbLine
 10
11.46005898407665
 20
-18.86391685330153
 30
0.0
 11
25.71303218550534
 21
-27.09287476789892
 31
0.0
  0
LINE
  5
4456
330
43D1
100
AcDbEntity
  8
0
100
AcDbLine
 10
26.7711349438212
 20
-29.47344016880869
 30
0.0
 11
8.236947255064572
 21
-47.24358781589218
 31
0.0
  0
LINE
  5
4457
330
43D1
100
AcDbEntity
  8
0
100
AcDbLine
 10
41.49708693608316
 20
10.36466397846973
 30
0.0
 11
35.37478148908689
 21
-14.57148722204406
 31
0.0
  0
ELLIPSE
  5
4458
330
43D1
100
AcDbEntity
  8
0
100
AcDbEllipse
 10
26.6561825650748
 20
-19.47243708415237
 30
0.0
 11
-7.499999999999989
 21
-12.99038105676658
 31
0.0
210
0.0
220
0.0
230
1.0
 40
0.4150676916945049
 41
0.9599310885968783
 42
2.181661564992909
  0
ENDBLK
  5
43D3
330
43D1
100
AcDbEntity
  8
0
100
AcDbBlockEnd
  0
ENDSEC
  0
SECTION
  2
ENTITIES
  0
INSERT
  5
4459
330
1F
100
AcDbEntity
  8
0
100
AcDbBlockReference
  2
AKR95LZ-Front
 10
0.0
 20
0.0
 30
0.0
  0
INSERT
  5
445A
330
1F
100
AcDbEntity
  8
0
100
AcDbBlockReference
  2
AKR95LZ-Left
 10
61.00000939147157
 20
0.0
 30
0.0
  0
INSERT
  5
445B
330
1F
100
AcDbEntity
  8
0
100
AcDbBlockReference
  2
AKR95LZ-Right
 10
-61.00000939147156
 20
0.0
 30
0.0
  0
INSERT
  5
445C
330
1F
100
AcDbEntity
  8
0
100
AcDbBlockReference
  2
AKR95LZ-Top
 10
0.0
 20
-28.500001565245
 30
0.0
  0
INSERT
  5
445D
330
1F
100
AcDbEntity
  8
0
100
AcDbBlockReference
  2
AKR95LZ-Bottom
 10
0.0
 20
123.50000939147
 30
0.0
  0
INSERT
  5
445E
330
1F
100
AcDbEntity
  8
0
100
AcDbBlockReference
  2
AKR95LZ-ISO
 10
109.1870186583992
 20
-95.10437644948876
 30
0.0
  0
MTEXT
  5
445F
330
1F
100
AcDbEntity
  8
0
100
AcDbMText
 10
0.0
 20
-142.00000313049
 30
0.0
 40
9.500000521748333
 41
0.0
 71
     5
 72
     5
  1
AKR95LZ
 73
     1
 44
1.0
1001
ACAD
1000
MTEXTBEGIN
1070
    73
1070
     1
1070
    44
1040
1.0
1070
    74
1070
     0
1000
MTEXTEND
  0
ENDSEC
  0
SECTION
  2
OBJECTS
  0
DICTIONARY
  5
C
330
0
100
AcDbDictionary
281
     1
  3
ACAD_CIP_PREVIOUS_PRODUCT_INFO
350
216
  3
ACAD_COLOR
350
6B
  3
ACAD_DETAILVIEWSTYLE
350
21B
  3
ACAD_GROUP
350
D
  3
ACAD_LAYOUT
350
1A
  3
ACAD_MATERIAL
350
6A
  3
ACAD_MLEADERSTYLE
350
12D
  3
ACAD_MLINESTYLE
350
17
  3
ACAD_PLOTSETTINGS
350
19
  3
ACAD_PLOTSTYLENAME
350
E
  3
ACAD_SCALELIST
350
10C
  3
ACAD_SECTIONVIEWSTYLE
350
219
  3
ACAD_TABLESTYLE
350
7E
  3
ACAD_VISUALSTYLE
350
EF
  3
ACDB_RECOMPOSE_DATA
350
4560
  3
AcDbVariableDictionary
350
5E
  3
DWGPROPS
350
4561
  0
DICTIONARY
  5
44B0
330
8
100
AcDbDictionary
280
     1
281
     1
  0
DICTIONARY
  5
1FF
330
2
100
AcDbDictionary
280
     1
281
     1
  3
ACAD_LAYERSTATES
360
200
  0
DICTIONARY
  5
13C
330
10
100
AcDbDictionary
280
     1
281
     1
  0
DICTIONARY
  5
1CE
330
1F
100
AcDbDictionary
280
     1
281
     1
  3
ACAD_LAYOUTSELFREF
360
44B8
  0
DICTIONARY
  5
4463
330
D2
100
AcDbDictionary
280
     1
281
     1
  3
ACAD_LAYOUTSELFREF
360
44C1
  0
DICTIONARY
  5
4465
330
D6
100
AcDbDictionary
280
     1
281
     1
  3
ACAD_LAYOUTSELFREF
360
44C4
  0
XRECORD
  5
216
102
{ACAD_REACTORS
330
C
102
}
330
C
100
AcDbXrecord
280
     1
300
ACD
300
2021
300
87393ACD_2021_0F
  0
DICTIONARY
  5
6B
102
{ACAD_REACTORS
330
C
102
}
330
C
100
AcDbDictionary
281
     1
  0
DICTIONARY
  5
21B
102
{ACAD_REACTORS
330
C
102
}
330
C
100
AcDbDictionary
281
     1
  3
Metric50
350
21C
  0
DICTIONARY
  5
D
102
{ACAD_REACTORS
330
C
102
}
330
C
100
AcDbDictionary
281
     1
  0
DICTIONARY
  5
1A
102
{ACAD_REACTORS
330
C
102
}
330
C
100
AcDbDictionary
281
     1
  3
Layout1
350
D3
  3
Layout2
350
D7
  3
Model
350
22
  0
DICTIONARY
  5
6A
102
{ACAD_REACTORS
330
C
102
}
330
C
100
AcDbDictionary
281
     1
  3
ByBlock
350
ED
  3
ByLayer
350
EC
  3
Global
350
EE
  0
DICTIONARY
  5
12D
102
{ACAD_REACTORS
330
C
102
}
330
C
100
AcDbDictionary
281
     1
  3
Standard
350
12E
  0
DICTIONARY
  5
17
102
{ACAD_REACTORS
330
C
102
}
330
C
100
AcDbDictionary
281
     1
  3
Standard
350
18
  0
DICTIONARY
  5
19
102
{ACAD_REACTORS
330
C
102
}
330
C
100
AcDbDictionary
281
     1
  0
ACDBDICTIONARYWDFLT
  5
E
102
{ACAD_REACTORS
330
C
102
}
330
C
100
AcDbDictionary
281
     1
  3
Normal
350
F
100
AcDbDictionaryWithDefault
340
F
  0
DICTIONARY
  5
10C
102
{ACAD_REACTORS
330
C
102
}
330
C
100
AcDbDictionary
281
     1
  3
A0
350
10D
  3
A1
350
1BE
  3
A2
350
1BF
  3
A3
350
1C0
  3
A4
350
1C1
  3
A5
350
1C2
  3
A6
350
1C3
  3
A7
350
1C4
  3
A8
350
1C5
  3
A9
350
1C6
  3
B0
350
1C7
  3
B1
350
1C8
  3
B2
350
1C9
  3
B3
350
1CA
  3
B4
350
1CB
  3
B5
350
1CC
  3
B6
350
1CD
  0
DICTIONARY
  5
219
102
{ACAD_REACTORS
330
C
102
}
330
C
100
AcDbDictionary
281
     1
  3
Metric50
350
21A
  0
DICTIONARY
  5
7E
102
{ACAD_REACTORS
330
C
102
}
330
C
100
AcDbDictionary
281
     1
  3
Standard
350
7F
  0
DICTIONARY
  5
EF
102
{ACAD_REACTORS
330
C
102
}
330
C
100
AcDbDictionary
281
     1
  3
2dWireframe
350
F5
  3
Basic
350
F4
  3
Brighten
350
FB
  3
ColorChange
350
FF
  3
Conceptual
350
F8
  3
Dim
350
FA
  3
EdgeColorOff
350
1E6
  3
Facepattern
350
FE
  3
Flat
350
F0
  3
FlatWithEdges
350
F1
  3
Gouraud
350
F2
  3
GouraudWithEdges
350
F3
  3
Hidden
350
F7
  3
JitterOff
350
1E4
  3
Linepattern
350
FD
  3
OverhangOff
350
1E5
  3
Realistic
350
F9
  3
Shaded
350
1F3
  3
Shaded with edges
350
1F2
  3
Shades of Gray
350
1EF
  3
Sketchy
350
1F0
  3
Thicken
350
FC
  3
Wireframe
350
F6
  3
X-Ray
350
1F1
  0
XRECORD
  5
4560
102
{ACAD_REACTORS
330
C
102
}
330
C
100
AcDbXrecord
280
     1
 90
        1
330
7F
  0
DICTIONARY
  5
5E
102
{ACAD_REACTORS
330
C
102
}
330
C
100
AcDbDictionary
281
     1
  3
CANNOSCALE
350
146
  3
CENTEREXE
350
259
  3
CENTERLTYPEFILE
350
25A
  3
CMLEADERSTYLE
350
145
  3
CTABLESTYLE
350
84
  3
CVIEWDETAILSTYLE
350
227
  3
CVIEWSECTIONSTYLE
350
228
  3
DIMASSOC
350
5F
  3
HIDETEXT
350
63
  3
INDEXCTL
350
450D
  3
LAYEREVAL
350
1AE
  3
LAYERNOTIFY
350
1AF
  3
LIGHTINGUNITS
350
450B
  3
MSLTSCALE
350
450A
  3
PSOLHEIGHT
350
455D
  3
PSOLWIDTH
350
455C
  3
SORTENTS
350
450C
  3
XCLIPFRAME
350
455E
  0
XRECORD
  5
4561
102
{ACAD_REACTORS
330
C
102
}
330
C
100
AcDbXrecord
280
     1
  1
DWGPROPS COOKIE
  2

  3

  4

  6

  7

  8
tronnguyen
  9

300
=
301
=
302
=
303
=
304
=
305
=
306
=
307
=
308
=
309
=
 40
0.6790972222222223
 41
2460572.688854167
 42
2460573.370451389
  1

 90
        0
  0
DICTIONARY
  5
200
102
{ACAD_REACTORS
330
1FF
102
}
330
1FF
100
AcDbDictionary
281
     1
  0
XRECORD
  5
44B8
102
{ACAD_REACTORS
330
1CE
102
}
330
1CE
100
AcDbXrecord
280
     1
340
1F
  0
XRECORD
  5
44C1
102
{ACAD_REACTORS
330
4463
102
}
330
4463
100
AcDbXrecord
280
     1
340
D2
  0
XRECORD
  5
44C4
102
{ACAD_REACTORS
330
4465
102
}
330
4465
100
AcDbXrecord
280
     1
340
D6
  0
ACDBDETAILVIEWSTYLE
  5
21C
102
{ACAD_XDICTIONARY
360
45A0
102
}
102
{ACAD_REACTORS
330
21B
102
}
330
21B
100
AcDbModelDocViewStyle
 70
     0
  3
Metric50
290
     0
100
AcDbDetailViewStyle
 70
     0
 71
     0
 90
        3
 71
     1
340
11
 40
5.0
340
0
 40
5.0
300

 40
0.0
280
     1
 71
     2
340
16
 90
       25
 71
     3
340
11
 40
5.0
 90
        0
 40
15.0
 90
        1
300
%<\AcVar ViewDetailId>% (%<\AcVar ViewScale \f "%sn">%)
 71
     4
340
16
 90
       25
340
16
 90
       25
280
     0
  0
LAYOUT
  5
D3
102
{ACAD_XDICTIONARY
360
4565
102
}
102
{ACAD_REACTORS
330
1A
102
}
330
1A
100
AcDbPlotSettings
  1

  2
C:\Documents and Settings\basas\Application Data\Autodesk\AutoCAD 2005\R16.1\enu\plotters\Default Windows System Printer.pc3
  4

  6

 40
0.0
 41
0.0
 42
0.0
 43
0.0
 44
0.0
 45
0.0
 46
0.0
 47
0.0
 48
0.0
 49
0.0
140
0.0
141
0.0
142
1.0
143
1.0
 70
   688
 72
     0
 73
     0
 74
     5
  7

 75
    16
147
1.0
148
0.0
149
0.0
100
AcDbLayout
  1
Layout1
 70
     1
 71
     1
 10
0.0
 20
0.0
 11
12.0
 21
9.0
 12
0.0
 22
0.0
 32
0.0
 14
0.0
 24
0.0
 34
0.0
 15
0.0
 25
0.0
 35
0.0
146
0.0
 13
0.0
 23
0.0
 33
0.0
 16
1.0
 26
0.0
 36
0.0
 17
0.0
 27
1.0
 37
0.0
 76
     0
330
D2
  0
LAYOUT
  5
D7
102
{ACAD_XDICTIONARY
360
4567
102
}
102
{ACAD_REACTORS
330
1A
102
}
330
1A
100
AcDbPlotSettings
  1

  2
C:\Documents and Settings\basas\Application Data\Autodesk\AutoCAD 2005\R16.1\enu\plotters\Default Windows System Printer.pc3
  4

  6

 40
0.0
 41
0.0
 42
0.0
 43
0.0
 44
0.0
 45
0.0
 46
0.0
 47
0.0
 48
0.0
 49
0.0
140
0.0
141
0.0
142
1.0
143
1.0
 70
   688
 72
     0
 73
     0
 74
     5
  7

 75
    16
147
1.0
148
0.0
149
0.0
100
AcDbLayout
  1
Layout2
 70
     1
 71
     2
 10
0.0
 20
0.0
 11
12.0
 21
9.0
 12
0.0
 22
0.0
 32
0.0
 14
0.0
 24
0.0
 34
0.0
 15
0.0
 25
0.0
 35
0.0
146
0.0
 13
0.0
 23
0.0
 33
0.0
 16
1.0
 26
0.0
 36
0.0
 17
0.0
 27
1.0
 37
0.0
 76
     0
330
D6
  0
LAYOUT
  5
22
102
{ACAD_XDICTIONARY
360
4562
102
}
102
{ACAD_REACTORS
330
1A
102
}
330
1A
100
AcDbPlotSettings
  1

  2
none_device
  4
ISO_A4_(210.00_x_297.00_MM)
  6

 40
7.5
 41
20.0
 42
7.5
 43
20.0
 44
210.0
 45
297.0
 46
11.54999923706054
 47
-13.65000009536743
 48
0.0
 49
0.0
140
0.0
141
0.0
142
1.0
143
8.704084754739808
 70
 11952
 72
     1
 73
     0
 74
     0
  7

 75
     0
147
0.1148885871608098
148
0.0
149
0.0
100
AcDbLayout
  1
Model
 70
     1
 71
     0
 10
0.0
 20
0.0
 11
12.0
 21
9.0
 12
0.0
 22
0.0
 32
0.0
 14
0.0
 24
0.0
 34
0.0
 15
0.0
 25
0.0
 35
0.0
146
0.0
 13
0.0
 23
0.0
 33
0.0
 16
1.0
 26
0.0
 36
0.0
 17
0.0
 27
1.0
 37
0.0
 76
     0
330
1F
331
EA
1001
ACAD_PSEXT
1000
None
1000
None
1000
Not applicable
1000
The layout will not be plotted unless a new plotter configuration name is selected.
1070
     0
  0
MATERIAL
  5
ED
102
{ACAD_XDICTIONARY
360
1F9
102
}
102
{ACAD_REACTORS
330
6A
102
}
330
6A
100
AcDbMaterial
  1
ByBlock
  0
MATERIAL
  5
EC
102
{ACAD_XDICTIONARY
360
1F7
102
}
102
{ACAD_REACTORS
330
6A
102
}
330
6A
100
AcDbMaterial
  1
ByLayer
  0
MATERIAL
  5
EE
102
{ACAD_XDICTIONARY
360
173
102
}
102
{ACAD_REACTORS
330
6A
102
}
330
6A
100
AcDbMaterial
  1
Global
 43
0.0007999999797903
 43
0.0
 43
0.0
 43
0.0
 43
0.0
 43
0.0007999999797903
 43
0.0
 43
0.0
 43
0.0
 43
0.0
 43
1.0
 43
0.0
 43
0.0
 43
0.0
 43
0.0
 43
1.0
 49
0.0007999999797903
 49
0.0
 49
0.0
 49
0.0
 49
0.0
 49
0.0007999999797903
 49
0.0
 49
0.0
 49
0.0
 49
0.0
 49
1.0
 49
0.0
 49
0.0
 49
0.0
 49
0.0
 49
1.0
142
0.0007999999797903
142
0.0
142
0.0
142
0.0
142
0.0
142
0.0007999999797903
142
0.0
142
0.0
142
0.0
142
0.0
142
1.0
142
0.0
142
0.0
142
0.0
142
0.0
142
1.0
144
0.0007999999797903
144
0.0
144
0.0
144
0.0
144
0.0
144
0.0007999999797903
144
0.0
144
0.0
144
0.0
144
0.0
144
1.0
144
0.0
144
0.0
144
0.0
144
0.0
144
1.0
1001
ACAD
1070
    -1
1070
     3
1070
     0
1000

1071
        0
1070
     0
  0
MLEADERSTYLE
  5
12E
102
{ACAD_XDICTIONARY
360
458C
102
}
102
{ACAD_REACTORS
330
12D
102
}
330
12D
100
AcDbMLeaderStyle
170
     2
171
     1
172
     0
 90
        2
 40
0.0
 41
0.0
173
     1
 91
-1056964608
340
14
 92
       -2
290
     1
 42
2.0
291
     1
 43
8.0
  3
Standard
 44
4.0
300

342
11
174
     1
178
     1
175
     1
176
     0
 93
-1056964608
 45
4.0
292
     0
297
     0
 46
4.0
 94
-1056964608
 47
1.0
 49
1.0
140
1.0
293
     1
141
0.0
294
     1
177
     0
142
1.0
295
     0
296
     0
143
3.75
1001
ACAD_MLEADERVER
1070
     2
  0
MLINESTYLE
  5
18
102
{ACAD_REACTORS
330
17
102
}
330
17
100
AcDbMlineStyle
  2
STANDARD
 70
     0
  3

 62
   256
 51
90.0
 52
90.0
 71
     2
 49
0.5
 62
   256
  6
BYLAYER
 49
-0.5
 62
   256
  6
BYLAYER
  0
ACDBPLACEHOLDER
  5
F
102
{ACAD_REACTORS
330
E
102
}
330
E
  0
SCALE
  5
10D
102
{ACAD_REACTORS
330
10C
102
}
330
10C
100
AcDbScale
 70
     0
300
1:1
140
1.0
141
1.0
290
     1
  0
SCALE
  5
1BE
102
{ACAD_REACTORS
330
10C
102
}
330
10C
100
AcDbScale
 70
     0
300
1:2
140
1.0
141
2.0
290
     0
  0
SCALE
  5
1BF
102
{ACAD_REACTORS
330
10C
102
}
330
10C
100
AcDbScale
 70
     0
300
1:4
140
1.0
141
4.0
290
     0
  0
SCALE
  5
1C0
102
{ACAD_REACTORS
330
10C
102
}
330
10C
100
AcDbScale
 70
     0
300
1:5
140
1.0
141
5.0
290
     0
  0
SCALE
  5
1C1
102
{ACAD_REACTORS
330
10C
102
}
330
10C
100
AcDbScale
 70
     0
300
1:8
140
1.0
141
8.0
290
     0
  0
SCALE
  5
1C2
102
{ACAD_REACTORS
330
10C
102
}
330
10C
100
AcDbScale
 70
     0
300
1:10
140
1.0
141
10.0
290
     0
  0
SCALE
  5
1C3
102
{ACAD_REACTORS
330
10C
102
}
330
10C
100
AcDbScale
 70
     0
300
1:16
140
1.0
141
16.0
290
     0
  0
SCALE
  5
1C4
102
{ACAD_REACTORS
330
10C
102
}
330
10C
100
AcDbScale
 70
     0
300
1:20
140
1.0
141
20.0
290
     0
  0
SCALE
  5
1C5
102
{ACAD_REACTORS
330
10C
102
}
330
10C
100
AcDbScale
 70
     0
300
1:30
140
1.0
141
30.0
290
     0
  0
SCALE
  5
1C6
102
{ACAD_REACTORS
330
10C
102
}
330
10C
100
AcDbScale
 70
     0
300
1:40
140
1.0
141
40.0
290
     0
  0
SCALE
  5
1C7
102
{ACAD_REACTORS
330
10C
102
}
330
10C
100
AcDbScale
 70
     0
300
1:50
140
1.0
141
50.0
290
     0
  0
SCALE
  5
1C8
102
{ACAD_REACTORS
330
10C
102
}
330
10C
100
AcDbScale
 70
     0
300
1:100
140
1.0
141
100.0
290
     0
  0
SCALE
  5
1C9
102
{ACAD_REACTORS
330
10C
102
}
330
10C
100
AcDbScale
 70
     0
300
2:1
140
2.0
141
1.0
290
     0
  0
SCALE
  5
1CA
102
{ACAD_REACTORS
330
10C
102
}
330
10C
100
AcDbScale
 70
     0
300
4:1
140
4.0
141
1.0
290
     0
  0
SCALE
  5
1CB
102
{ACAD_REACTORS
330
10C
102
}
330
10C
100
AcDbScale
 70
     0
300
8:1
140
8.0
141
1.0
290
     0
  0
SCALE
  5
1CC
102
{ACAD_REACTORS
330
10C
102
}
330
10C
100
AcDbScale
 70
     0
300
10:1
140
10.0
141
1.0
290
     0
  0
SCALE
  5
1CD
102
{ACAD_REACTORS
330
10C
102
}
330
10C
100
AcDbScale
 70
     0
300
100:1
140
100.0
141
1.0
290
     0
  0
ACDBSECTIONVIEWSTYLE
  5
21A
102
{ACAD_XDICTIONARY
360
459E
102
}
102
{ACAD_REACTORS
330
219
102
}
330
219
100
AcDbModelDocViewStyle
 70
     0
  3
Metric50
290
     0
100
AcDbSectionViewStyle
 70
     0
 71
     0
 90
      102
 71
     1
340
11
 40
5.0
340
0
340
0
 40
5.0
300
I, O, Q, S, X, Z
 40
10.0
 90
        0
 40
2.5
 90
        0
 71
     2
340
16
 90
       25
340
16
 90
       50
 40
5.0
 40
2.5
 40
5.0
 71
     3
340
11
 40
5.0
 90
        0
 40
15.0
 90
        1
300
%<\AcVar ViewSectionStartId>%-%<\AcVar ViewSectionEndId>% (%<\AcVar ViewScale \f "%sn">%)
 71
     4
300
ANSI31
 40
1.0
 90
        0
290
     0
290
     0
 90
        6
 40
0.0
 40
1.570796326794896
 40
0.2617993877991494
 40
1.308996938995747
 40
-0.2617993877991494
 40
1.832595714594046
  0
TABLESTYLE
  5
7F
102
{ACAD_XDICTIONARY
360
162
102
}
102
{ACAD_REACTORS
330
7E
102
}
330
7E
100
AcDbTableStyle
  3
Standard
 70
     0
 71
     0
 40
1.5
 41
1.5
280
     0
281
     0
  7
Standard
140
4.5
170
     2
 62
     0
 63
     7
283
     0
274
    -2
284
     1
 64
     0
275
    -2
285
     1
 65
     0
276
    -2
286
     1
 66
     0
277
    -2
287
     1
 67
     0
278
    -2
288
     1
 68
     0
279
    -2
289
     1
 69
     0
  7
Standard
140
6.0
170
     5
 62
     0
 63
     7
283
     0
274
    -2
284
     1
 64
     0
275
    -2
285
     1
 65
     0
276
    -2
286
     1
 66
     0
277
    -2
287
     1
 67
     0
278
    -2
288
     1
 68
     0
279
    -2
289
     1
 69
     0
  7
Standard
140
4.5
170
     5
 62
     0
 63
     7
283
     0
274
    -2
284
     1
 64
     0
275
    -2
285
     1
 65
     0
276
    -2
286
     1
 66
     0
277
    -2
287
     1
 67
     0
278
    -2
288
     1
 68
     0
279
    -2
289
     1
 69
     0
  0
VISUALSTYLE
  5
F5
102
{ACAD_XDICTIONARY
360
4576
102
}
102
{ACAD_REACTORS
330
EF
102
}
330
EF
100
AcDbVisualStyle
  2
2dWireframe
 70
     4
 71
     0
 72
     2
 73
     1
 90
        0
 40
-0.6
 41
-30.0
 62
     5
 63
     7
 74
     1
 91
        4
 64
     7
 65
   257
 75
     1
175
     1
 42
1.0
 92
        0
 66
   257
 43
1.0
 76
     1
 77
     6
 78
     2
 67
     7
 79
     5
170
     0
171
     0
290
     0
174
     0
 93
        1
 44
0.0
173
     0
291
     0
 45
0.0
1001
ACAD
1000
AcDbSavedByObjectVersion
1070
     0
  0
VISUALSTYLE
  5
F4
102
{ACAD_XDICTIONARY
360
4574
102
}
102
{ACAD_REACTORS
330
EF
102
}
330
EF
100
AcDbVisualStyle
  2
Basic
 70
     7
 71
     1
 72
     0
 73
     1
 90
        0
 40
-0.6
 41
-30.0
 62
     5
 63
     7
 74
     0
 91
        4
 64
     7
 65
   257
 75
     1
175
     1
 42
1.0
 92
        8
 66
     7
 43
1.0
 76
     1
 77
     6
 78
     2
 67
     7
 79
     5
170
     0
171
     0
290
     0
174
     0
 93
        1
 44
0.0
173
     0
291
     1
 45
0.0
1001
ACAD
1000
AcDbSavedByObjectVersion
1070
     0
  0
VISUALSTYLE
  5
FB
102
{ACAD_XDICTIONARY
360
4582
102
}
102
{ACAD_REACTORS
330
EF
102
}
330
EF
100
AcDbVisualStyle
  2
Brighten
 70
    12
 71
     2
 72
     2
 73
     1
 90
        0
 40
-0.6
 41
-30.0
 62
     5
 63
     7
 74
     1
 91
        4
 64
     7
 65
   257
 75
     1
175
     1
 42
1.0
 92
        8
 66
     7
 43
1.0
 76
     1
 77
     6
 78
     2
 67
     7
 79
     5
170
     0
171
     0
290
     0
174
     0
 93
        1
 44
50.0
173
     0
291
     1
 45
0.0
1001
ACAD
1000
AcDbSavedByObjectVersion
1070
     0
  0
VISUALSTYLE
  5
FF
102
{ACAD_XDICTIONARY
360
458A
102
}
102
{ACAD_REACTORS
330
EF
102
}
330
EF
100
AcDbVisualStyle
  2
ColorChange
 70
    16
 71
     2
 72
     2
 73
     3
 90
        0
 40
-0.6
 41
-30.0
 62
     5
 63
     8
 74
     1
 91
        4
 64
     7
 65
   257
 75
     1
175
     1
 42
1.0
 92
        8
 66
     8
 43
1.0
 76
     1
 77
     6
 78
     2
 67
     7
 79
     5
170
     0
171
     0
290
     0
174
     0
 93
        1
 44
0.0
173
     0
291
     1
 45
0.0
1001
ACAD
1000
AcDbSavedByObjectVersion
1070
     0
  0
VISUALSTYLE
  5
F8
102
{ACAD_XDICTIONARY
360
457C
102
}
102
{ACAD_REACTORS
330
EF
102
}
330
EF
100
AcDbVisualStyle
  2
Conceptual
 70
     9
 71
     3
 72
     2
 73
     1
 90
        0
 40
-0.6
 41
-30.0
 62
     5
 63
     7
 74
     2
 91
        2
 64
     7
 65
   257
 75
     1
175
     1
 42
40.0
 92
        8
 66
     7
 43
1.0
 76
     1
 77
     6
 78
     2
 67
     7
 79
     3
170
     0
171
     0
290
     0
174
     0
 93
        1
 44
0.0
173
     0
291
     0
 45
0.0
1001
ACAD
1000
AcDbSavedByObjectVersion
1070
     0
  0
VISUALSTYLE
  5
FA
102
{ACAD_XDICTIONARY
360
4580
102
}
102
{ACAD_REACTORS
330
EF
102
}
330
EF
100
AcDbVisualStyle
  2
Dim
 70
    11
 71
     2
 72
     2
 73
     1
 90
        0
 40
-0.6
 41
-30.0
 62
     5
 63
     7
 74
     1
 91
        4
 64
     7
 65
   257
 75
     1
175
     1
 42
1.0
 92
        8
 66
     7
 43
1.0
 76
     1
 77
     6
 78
     2
 67
     7
 79
     5
170
     0
171
     0
290
     0
174
     0
 93
        1
 44
-50.0
173
     0
291
     1
 45
0.0
1001
ACAD
1000
AcDbSavedByObjectVersion
1070
     0
  0
VISUALSTYLE
  5
1E6
102
{ACAD_XDICTIONARY
360
4592
102
}
102
{ACAD_REACTORS
330
EF
102
}
330
EF
100
AcDbVisualStyle
  2
EdgeColorOff
 70
    22
 71
     2
 72
     2
 73
     0
 90
        0
 40
-0.6
 41
-30.0
 62
     5
 63
     7
 74
     1
 91
        4
 64
     7
 65
   257
 75
     1
175
     1
 42
1.0
 92
        8
 66
     7
 43
1.0
 76
     1
 77
     6
 78
     2
 67
     7
 79
     5
170
     0
171
     0
290
     0
174
     0
 93
        1
 44
0.0
173
     0
291
     1
 45
0.0
1001
ACAD
1000
AcDbSavedByObjectVersion
1070
     0
  0
VISUALSTYLE
  5
FE
102
{ACAD_XDICTIONARY
360
4588
102
}
102
{ACAD_REACTORS
330
EF
102
}
330
EF
100
AcDbVisualStyle
  2
Facepattern
 70
    15
 71
     2
 72
     2
 73
     1
 90
        0
 40
-0.6
 41
-30.0
 62
     5
 63
     7
 74
     1
 91
        4
 64
     7
 65
   257
 75
     1
175
     1
 42
1.0
 92
        8
 66
     7
 43
1.0
 76
     1
 77
     6
 78
     2
 67
     7
 79
     5
170
     0
171
     0
290
     0
174
     0
 93
        1
 44
0.0
173
     0
291
     1
 45
0.0
1001
ACAD
1000
AcDbSavedByObjectVersion
1070
     0
  0
VISUALSTYLE
  5
F0
102
{ACAD_XDICTIONARY
360
456C
102
}
102
{ACAD_REACTORS
330
EF
102
}
330
EF
100
AcDbVisualStyle
  2
Flat
 70
     0
 71
     2
 72
     1
 73
     1
 90
        2
 40
-0.6
 41
30.0
 62
     5
 63
     7
 74
     0
 91
        0
 64
     7
 65
   257
 75
     1
175
     1
 42
1.0
 92
        8
 66
     7
 43
1.0
 76
     1
 77
     6
 78
     2
 67
     7
 79
     5
170
     0
171
     0
290
     0
174
     0
 93
       13
 44
0.0
173
     0
291
     1
 45
0.0
1001
ACAD
1000
AcDbSavedByObjectVersion
1070
     0
  0
VISUALSTYLE
  5
F1
102
{ACAD_XDICTIONARY
360
456E
102
}
102
{ACAD_REACTORS
330
EF
102
}
330
EF
100
AcDbVisualStyle
  2
FlatWithEdges
 70
     1
 71
     2
 72
     1
 73
     1
 90
        2
 40
-0.6
 41
30.0
 62
     5
 63
     7
 74
     1
 91
        0
 64
     7
 65
   257
 75
     1
175
     1
 42
1.0
 92
        0
 66
   257
 43
1.0
 76
     1
 77
     6
 78
     2
 67
     7
 79
     5
170
     0
171
     0
290
     0
174
     0
 93
       13
 44
0.0
173
     0
291
     1
 45
0.0
1001
ACAD
1000
AcDbSavedByObjectVersion
1070
     0
  0
VISUALSTYLE
  5
F2
102
{ACAD_XDICTIONARY
360
4570
102
}
102
{ACAD_REACTORS
330
EF
102
}
330
EF
100
AcDbVisualStyle
  2
Gouraud
 70
     2
 71
     2
 72
     2
 73
     1
 90
        2
 40
-0.6
 41
30.0
 62
     5
 63
     7
 74
     0
 91
        0
 64
     7
 65
   257
 75
     1
175
     1
 42
1.0
 92
        0
 66
     7
 43
1.0
 76
     1
 77
     6
 78
     2
 67
     7
 79
     5
170
     0
171
     0
290
     0
174
     0
 93
       13
 44
0.0
173
     0
291
     1
 45
0.0
1001
ACAD
1000
AcDbSavedByObjectVersion
1070
     0
  0
VISUALSTYLE
  5
F3
102
{ACAD_XDICTIONARY
360
4572
102
}
102
{ACAD_REACTORS
330
EF
102
}
330
EF
100
AcDbVisualStyle
  2
GouraudWithEdges
 70
     3
 71
     2
 72
     2
 73
     1
 90
        2
 40
-0.6
 41
30.0
 62
     5
 63
     7
 74
     1
 91
        0
 64
     7
 65
   257
 75
     1
175
     1
 42
1.0
 92
        0
 66
   257
 43
1.0
 76
     1
 77
     6
 78
     2
 67
     7
 79
     5
170
     0
171
     0
290
     0
174
     0
 93
       13
 44
0.0
173
     0
291
     1
 45
0.0
1001
ACAD
1000
AcDbSavedByObjectVersion
1070
     0
  0
VISUALSTYLE
  5
F7
102
{ACAD_XDICTIONARY
360
457A
102
}
102
{ACAD_REACTORS
330
EF
102
}
330
EF
100
AcDbVisualStyle
  2
Hidden
 70
     6
 71
     1
 72
     2
 73
     2
 90
        0
 40
-0.6
 41
-30.0
 62
     5
 63
     7
 74
     2
 91
        2
 64
     7
 65
   257
 75
     2
175
     1
 42
40.0
 92
        0
 66
   257
 43
1.0
 76
     1
 77
     6
 78
     2
 67
     7
 79
     3
170
     0
171
     0
290
     0
174
     0
 93
        1
 44
0.0
173
     0
291
     0
 45
0.0
1001
ACAD
1000
AcDbSavedByObjectVersion
1070
     0
  0
VISUALSTYLE
  5
1E4
102
{ACAD_XDICTIONARY
360
458E
102
}
102
{ACAD_REACTORS
330
EF
102
}
330
EF
100
AcDbVisualStyle
  2
JitterOff
 70
    20
 71
     2
 72
     2
 73
     0
 90
        0
 40
-0.6
 41
-30.0
 62
     5
 63
     7
 74
     1
 91
        4
 64
     7
 65
   257
 75
     1
175
     1
 42
1.0
 92
       10
 66
     7
 43
1.0
 76
     1
 77
     6
 78
     2
 67
     7
 79
     5
170
     0
171
     0
290
     0
174
     0
 93
        1
 44
0.0
173
     0
291
     1
 45
0.0
1001
ACAD
1000
AcDbSavedByObjectVersion
1070
     0
  0
VISUALSTYLE
  5
FD
102
{ACAD_XDICTIONARY
360
4586
102
}
102
{ACAD_REACTORS
330
EF
102
}
330
EF
100
AcDbVisualStyle
  2
Linepattern
 70
    14
 71
     2
 72
     2
 73
     1
 90
        0
 40
-0.6
 41
-30.0
 62
     5
 63
     7
 74
     1
 91
        4
 64
     7
 65
   257
 75
     7
175
     7
 42
1.0
 92
        8
 66
     7
 43
1.0
 76
     1
 77
     6
 78
     2
 67
     7
 79
     5
170
     0
171
     0
290
     0
174
     0
 93
        1
 44
0.0
173
     0
291
     1
 45
0.0
1001
ACAD
1000
AcDbSavedByObjectVersion
1070
     0
  0
VISUALSTYLE
  5
1E5
102
{ACAD_XDICTIONARY
360
4590
102
}
102
{ACAD_REACTORS
330
EF
102
}
330
EF
100
AcDbVisualStyle
  2
OverhangOff
 70
    21
 71
     2
 72
     2
 73
     0
 90
        0
 40
-0.6
 41
-30.0
 62
     5
 63
     7
 74
     1
 91
        4
 64
     7
 65
   257
 75
     1
175
     1
 42
1.0
 92
        9
 66
     7
 43
1.0
 76
     1
 77
     6
 78
     2
 67
     7
 79
     5
170
     0
171
     0
290
     0
174
     0
 93
        1
 44
0.0
173
     0
291
     1
 45
0.0
1001
ACAD
1000
AcDbSavedByObjectVersion
1070
     0
  0
VISUALSTYLE
  5
F9
102
{ACAD_XDICTIONARY
360
457E
102
}
102
{ACAD_REACTORS
330
EF
102
}
330
EF
100
AcDbVisualStyle
  2
Realistic
 70
     8
 71
     2
 72
     2
 73
     0
 90
        2
 40
-0.6
 41
30.0
 62
     5
 63
     7
 74
     0
 91
        0
 64
     7
 65
   257
 75
     1
175
     1
 42
1.0
 92
        8
 66
   257
 43
1.0
 76
     1
 77
     6
 78
     2
 67
     7
 79
     3
170
     0
171
     0
290
     0
174
     0
 93
       13
 44
0.0
173
     0
291
     0
 45
0.0
1001
ACAD
1000
AcDbSavedByObjectVersion
1070
     0
  0
VISUALSTYLE
  5
1F3
102
{ACAD_XDICTIONARY
360
459C
102
}
102
{ACAD_REACTORS
330
EF
102
}
330
EF
100
AcDbVisualStyle
  2
Shaded
 70
    27
 71
     2
 72
     2
 73
     1
 90
        2
 40
-0.6
 41
30.0
 62
     5
 63
     7
 74
     0
 91
        4
 64
     7
 65
   257
 75
     1
175
     1
 42
1.0
 92
        8
 66
   257
 43
1.0
 76
     1
 77
     6
 78
     2
 67
     8
 79
     3
170
     0
171
     0
290
     0
174
     0
 93
        5
 44
0.0
173
     0
291
     0
 45
0.0
1001
ACAD
1000
AcDbSavedByObjectVersion
1070
     0
  0
VISUALSTYLE
  5
1F2
102
{ACAD_XDICTIONARY
360
459A
102
}
102
{ACAD_REACTORS
330
EF
102
}
330
EF
100
AcDbVisualStyle
  2
Shaded with edges
 70
    26
 71
     2
 72
     2
 73
     1
 90
        2
 40
-0.6
 41
30.0
 62
     5
 63
     7
 74
     1
 91
        2
 64
     7
 65
   257
 75
     2
175
     1
 42
1.0
 92
        8
 66
   257
 43
1.0
 76
     1
 77
     6
 78
     2
 67
     7
 79
     3
170
     0
171
     0
290
     0
174
     0
 93
        5
 44
0.0
173
     0
291
     0
 45
0.0
1001
ACAD
1000
AcDbSavedByObjectVersion
1070
     0
  0
VISUALSTYLE
  5
1EF
102
{ACAD_XDICTIONARY
360
4594
102
}
102
{ACAD_REACTORS
330
EF
102
}
330
EF
100
AcDbVisualStyle
  2
Shades of Gray
 70
    23
 71
     2
 72
     2
 73
     3
 90
        0
 40
-0.6
 41
-30.0
 62
     5
 63
     7
 74
     2
 91
        2
 64
     7
 65
     7
 75
     1
175
     1
 42
40.0
 92
        8
 66
     7
 43
1.0
 76
     1
 77
     6
 78
     2
 67
     7
 79
     3
170
     0
171
     0
290
     0
174
     0
 93
        1
 44
0.0
173
     0
291
     0
 45
0.0
1001
ACAD
1000
AcDbSavedByObjectVersion
1070
     0
  0
VISUALSTYLE
  5
1F0
102
{ACAD_XDICTIONARY
360
4596
102
}
102
{ACAD_REACTORS
330
EF
102
}
330
EF
100
AcDbVisualStyle
  2
Sketchy
 70
    24
 71
     1
 72
     2
 73
     2
 90
        0
 40
-0.6
 41
-30.0
 62
     5
 63
     7
 74
     2
 91
        2
 64
     7
 65
     7
 75
     1
175
     1
 42
40.0
 92
       11
 66
     7
 43
1.0
 76
     1
 77
     6
 78
     2
 67
     7
 79
     6
170
     0
171
     0
290
     0
174
     0
 93
        1
 44
0.0
173
     0
291
     0
 45
0.0
1001
ACAD
1000
AcDbSavedByObjectVersion
1070
     0
  0
VISUALSTYLE
  5
FC
102
{ACAD_XDICTIONARY
360
4584
102
}
102
{ACAD_REACTORS
330
EF
102
}
330
EF
100
AcDbVisualStyle
  2
Thicken
 70
    13
 71
     2
 72
     2
 73
     1
 90
        0
 40
-0.6
 41
-30.0
 62
     5
 63
     7
 74
     1
 91
        4
 64
     7
 65
   257
 75
     1
175
     1
 42
1.0
 92
       12
 66
     7
 43
1.0
 76
     1
 77
     6
 78
     2
 67
     7
 79
     5
170
     0
171
     0
290
     0
174
     0
 93
        1
 44
0.0
173
     0
291
     1
 45
0.0
1001
ACAD
1000
AcDbSavedByObjectVersion
1070
     0
  0
VISUALSTYLE
  5
F6
102
{ACAD_XDICTIONARY
360
4578
102
}
102
{ACAD_REACTORS
330
EF
102
}
330
EF
100
AcDbVisualStyle
  2
Wireframe
 70
     5
 71
     0
 72
     2
 73
     0
 90
        0
 40
-0.6
 41
-30.0
 62
     5
 63
     7
 74
     1
 91
        4
 64
     7
 65
   257
 75
     1
175
     1
 42
1.0
 92
        0
 66
   257
 43
1.0
 76
     1
 77
     6
 78
     2
 67
     7
 79
     3
170
     0
171
     0
290
     0
174
     0
 93
        1
 44
0.0
173
     0
291
     0
 45
0.0
1001
ACAD
1000
AcDbSavedByObjectVersion
1070
     0
  0
VISUALSTYLE
  5
1F1
102
{ACAD_XDICTIONARY
360
4598
102
}
102
{ACAD_REACTORS
330
EF
102
}
330
EF
100
AcDbVisualStyle
  2
X-Ray
 70
    25
 71
     2
 72
     2
 73
     1
 90
        1
 40
0.5
 41
-30.0
 62
     5
 63
     7
 74
     1
 91
        0
 64
     7
 65
   257
 75
     1
175
     1
 42
1.0
 92
        8
 66
     7
 43
1.0
 76
     1
 77
     6
 78
     2
 67
     7
 79
     3
170
     0
171
     0
290
     0
174
     0
 93
       13
 44
0.0
173
     0
291
     0
 45
0.0
1001
ACAD
1000
AcDbSavedByObjectVersion
1070
     0
  0
DICTIONARYVAR
  5
146
102
{ACAD_REACTORS
330
5E
102
}
330
5E
100
DictionaryVariables
280
     0
  1
1:1
  0
DICTIONARYVAR
  5
259
102
{ACAD_REACTORS
330
5E
102
}
330
5E
100
DictionaryVariables
280
     0
  1
3.500000
  0
DICTIONARYVAR
  5
25A
102
{ACAD_REACTORS
330
5E
102
}
330
5E
100
DictionaryVariables
280
     0
  1
acadiso.lin
  0
DICTIONARYVAR
  5
145
102
{ACAD_REACTORS
330
5E
102
}
330
5E
100
DictionaryVariables
280
     0
  1
STANDARD
  0
DICTIONARYVAR
  5
84
102
{ACAD_REACTORS
330
5E
102
}
330
5E
100
DictionaryVariables
280
     0
  1
STANDARD
  0
DICTIONARYVAR
  5
227
102
{ACAD_REACTORS
330
5E
102
}
330
5E
100
DictionaryVariables
280
     0
  1
Metric50
  0
DICTIONARYVAR
  5
228
102
{ACAD_REACTORS
330
5E
102
}
330
5E
100
DictionaryVariables
280
     0
  1
Metric50
  0
DICTIONARYVAR
  5
5F
102
{ACAD_REACTORS
330
5E
102
}
330
5E
100
DictionaryVariables
280
     0
  1
2
  0
DICTIONARYVAR
  5
63
102
{ACAD_REACTORS
330
5E
102
}
330
5E
100
DictionaryVariables
280
     0
  1
1
  0
DICTIONARYVAR
  5
450D
102
{ACAD_REACTORS
330
5E
102
}
330
5E
100
DictionaryVariables
280
     0
  1
0
  0
DICTIONARYVAR
  5
1AE
102
{ACAD_REACTORS
330
5E
102
}
330
5E
100
DictionaryVariables
280
     0
  1
0
  0
DICTIONARYVAR
  5
1AF
102
{ACAD_REACTORS
330
5E
102
}
330
5E
100
DictionaryVariables
280
     0
  1
0
  0
DICTIONARYVAR
  5
450B
102
{ACAD_REACTORS
330
5E
102
}
330
5E
100
DictionaryVariables
280
     0
  1
2
  0
DICTIONARYVAR
  5
450A
102
{ACAD_REACTORS
330
5E
102
}
330
5E
100
DictionaryVariables
280
     0
  1
1
  0
DICTIONARYVAR
  5
455D
102
{ACAD_REACTORS
330
5E
102
}
330
5E
100
DictionaryVariables
280
     0
  1
80.000000
  0
DICTIONARYVAR
  5
455C
102
{ACAD_REACTORS
330
5E
102
}
330
5E
100
DictionaryVariables
280
     0
  1
5.000000
  0
DICTIONARYVAR
  5
450C
102
{ACAD_REACTORS
330
5E
102
}
330
5E
100
DictionaryVariables
280
     0
  1
127
  0
DICTIONARYVAR
  5
455E
102
{ACAD_REACTORS
330
5E
102
}
330
5E
100
DictionaryVariables
280
     0
  1
2
  0
DICTIONARY
  5
45A0
330
21C
100
AcDbDictionary
280
     1
281
     1
  3
ACAD_XREC_ROUNDTRIP
360
45A1
  0
DICTIONARY
  5
4565
330
D3
100
AcDbDictionary
280
     1
281
     1
  3
ACAD_XREC_ROUNDTRIP
360
4566
  0
DICTIONARY
  5
4567
330
D7
100
AcDbDictionary
280
     1
281
     1
  3
ACAD_XREC_ROUNDTRIP
360
4568
  0
DICTIONARY
  5
4562
330
22
100
AcDbDictionary
280
     1
281
     1
  3
ACAD_XREC_ROUNDTRIP
360
4563
  0
DICTIONARY
  5
1F9
330
ED
100
AcDbDictionary
280
     1
281
     1
  3
ACAD_XREC_ROUNDTRIP
360
456A
  3
FBXASSET
360
1FA
  0
DICTIONARY
  5
1F7
330
EC
100
AcDbDictionary
280
     1
281
     1
  3
ACAD_XREC_ROUNDTRIP
360
4569
  3
FBXASSET
360
1F8
  0
DICTIONARY
  5
173
330
EE
100
AcDbDictionary
280
     1
281
     1
  3
ACAD_XREC_ROUNDTRIP
360
456B
  3
BUMPTILE
360
175
  3
DIFFUSETILE
360
174
  3
FBXASSET
360
1FB
  3
OPACITYTILE
360
176
  3
REFLECTIONTILE
360
177
  0
DICTIONARY
  5
458C
330
12E
100
AcDbDictionary
280
     1
281
     1
  3
ACAD_XREC_ROUNDTRIP
360
458D
  0
DICTIONARY
  5
459E
330
21A
100
AcDbDictionary
280
     1
281
     1
  3
ACAD_XREC_ROUNDTRIP
360
459F
  0
DICTIONARY
  5
162
330
7F
100
AcDbDictionary
280
     1
281
     1
  3
ACAD_ROUNDTRIP_2008_TABLESTYLE_CELLSTYLEMAP
360
455F
  3
ACAD_XREC_ROUNDTRIP
360
4564
  0
DICTIONARY
  5
4576
330
F5
100
AcDbDictionary
280
     1
281
     1
  3
ACAD_XREC_ROUNDTRIP
360
4577
  0
DICTIONARY
  5
4574
330
F4
100
AcDbDictionary
280
     1
281
     1
  3
ACAD_XREC_ROUNDTRIP
360
4575
  0
DICTIONARY
  5
4582
330
FB
100
AcDbDictionary
280
     1
281
     1
  3
ACAD_XREC_ROUNDTRIP
360
4583
  0
DICTIONARY
  5
458A
330
FF
100
AcDbDictionary
280
     1
281
     1
  3
ACAD_XREC_ROUNDTRIP
360
458B
  0
DICTIONARY
  5
457C
330
F8
100
AcDbDictionary
280
     1
281
     1
  3
ACAD_XREC_ROUNDTRIP
360
457D
  0
DICTIONARY
  5
4580
330
FA
100
AcDbDictionary
280
     1
281
     1
  3
ACAD_XREC_ROUNDTRIP
360
4581
  0
DICTIONARY
  5
4592
330
1E6
100
AcDbDictionary
280
     1
281
     1
  3
ACAD_XREC_ROUNDTRIP
360
4593
  0
DICTIONARY
  5
4588
330
FE
100
AcDbDictionary
280
     1
281
     1
  3
ACAD_XREC_ROUNDTRIP
360
4589
  0
DICTIONARY
  5
456C
330
F0
100
AcDbDictionary
280
     1
281
     1
  3
ACAD_XREC_ROUNDTRIP
360
456D
  0
DICTIONARY
  5
456E
330
F1
100
AcDbDictionary
280
     1
281
     1
  3
ACAD_XREC_ROUNDTRIP
360
456F
  0
DICTIONARY
  5
4570
330
F2
100
AcDbDictionary
280
     1
281
     1
  3
ACAD_XREC_ROUNDTRIP
360
4571
  0
DICTIONARY
  5
4572
330
F3
100
AcDbDictionary
280
     1
281
     1
  3
ACAD_XREC_ROUNDTRIP
360
4573
  0
DICTIONARY
  5
457A
330
F7
100
AcDbDictionary
280
     1
281
     1
  3
ACAD_XREC_ROUNDTRIP
360
457B
  0
DICTIONARY
  5
458E
330
1E4
100
AcDbDictionary
280
     1
281
     1
  3
ACAD_XREC_ROUNDTRIP
360
458F
  0
DICTIONARY
  5
4586
330
FD
100
AcDbDictionary
280
     1
281
     1
  3
ACAD_XREC_ROUNDTRIP
360
4587
  0
DICTIONARY
  5
4590
330
1E5
100
AcDbDictionary
280
     1
281
     1
  3
ACAD_XREC_ROUNDTRIP
360
4591
  0
DICTIONARY
  5
457E
330
F9
100
AcDbDictionary
280
     1
281
     1
  3
ACAD_XREC_ROUNDTRIP
360
457F
  0
DICTIONARY
  5
459C
330
1F3
100
AcDbDictionary
280
     1
281
     1
  3
ACAD_XREC_ROUNDTRIP
360
459D
  0
DICTIONARY
  5
459A
330
1F2
100
AcDbDictionary
280
     1
281
     1
  3
ACAD_XREC_ROUNDTRIP
360
459B
  0
DICTIONARY
  5
4594
330
1EF
100
AcDbDictionary
280
     1
281
     1
  3
ACAD_XREC_ROUNDTRIP
360
4595
  0
DICTIONARY
  5
4596
330
1F0
100
AcDbDictionary
280
     1
281
     1
  3
ACAD_XREC_ROUNDTRIP
360
4597
  0
DICTIONARY
  5
4584
330
FC
100
AcDbDictionary
280
     1
281
     1
  3
ACAD_XREC_ROUNDTRIP
360
4585
  0
DICTIONARY
  5
4578
330
F6
100
AcDbDictionary
280
     1
281
     1
  3
ACAD_XREC_ROUNDTRIP
360
4579
  0
DICTIONARY
  5
4598
330
1F1
100
AcDbDictionary
280
     1
281
     1
  3
ACAD_XREC_ROUNDTRIP
360
4599
  0
XRECORD
  5
45A1
102
{ACAD_REACTORS
330
45A0
102
}
330
45A0
100
AcDbXrecord
280
     1
102
DISPLAYNAME
  1
Metric50
102
FLAGS
 90
        0
  0
XRECORD
  5
4566
102
{ACAD_REACTORS
330
4565
102
}
330
4565
100
AcDbXrecord
280
     1
102
SHADEPLOT
 70
     0
102
SHADEPLOTRESLEVEL
 70
     2
102
SHADEPLOTCUSTOMDPI
 70
   300
  0
XRECORD
  5
4568
102
{ACAD_REACTORS
330
4567
102
}
330
4567
100
AcDbXrecord
280
     1
102
SHADEPLOT
 70
     0
102
SHADEPLOTRESLEVEL
 70
     2
102
SHADEPLOTCUSTOMDPI
 70
   300
  0
XRECORD
  5
4563
102
{ACAD_REACTORS
330
4562
102
}
330
4562
100
AcDbXrecord
280
     1
102
SHADEPLOT
 70
     0
102
SHADEPLOTRESLEVEL
 70
     2
102
SHADEPLOTCUSTOMDPI
 70
   300
  0
XRECORD
  5
456A
102
{ACAD_REACTORS
330
1F9
102
}
330
1F9
100
AcDbXrecord
280
     1
102
MATERIAL
148
0.0
149
0.0
149
0.0
 93
        0
 94
       63
282
     0
 72
     1
 77
     1
171
     1
175
     1
179
     1
273
     0
  0
XRECORD
  5
1FA
102
{ACAD_REACTORS
330
1F9
102
}
330
1F9
100
AcDbXrecord
280
     1
 70
     1
 90
429727718
  1
D62C5603-E3A1-4AEA-B7FB-FE5D8D0755AF
310
504B03040A0000080000CC70623B3DEE336E79000000790000001B0000006175746F6465736B2D64657369676E2D7061636B6167652E786D6C3C3F786D6C2076657273696F6E3D22312E302220656E636F64696E673D227574662D3822203F3E3C666F726D6174733E3C666F726D61743E687474703A2F2F736368656D612E
310
6175746F6465736B2E636F6D2F64657369676E2D7061636B6167652F323030393C2F666F726D61743E3C2F666F726D6174733E504B0304140006080800CC70623BD486FD9CA0000000F4000000130000005B436F6E74656E745F54797065735D2E786D6C7D8EC10E82300C865F65E91D8A1E8C310C0EEA1BF002731658846E
310
D98AC1B77784ABF1D8FE5FBFBF75BBCE937A534CCEB38643598122B6FEE978D0B0485F9C41B54DDD7D022595594E1A469170414C76A4D9A4D207E29CF43ECE46F218070CC6BECC4078ACAA135ACF422C856C0E68EA1BF5669944DDD7BCDE7B1F8E415D77AECB980613C2E4AC91FC167A2B244592486606FC29C8FD7F045B9A
310
EF7053A7E60B504B0304140006080800CC70623B853B8169EB0000007C01000008000000636F72652E786D6C8D90416EC3201045AF62CDB6C206821CC7C244919D9CA01740401C94182C03558F5F9C3852BBEB6A467FFE9B197D7EFC9E1EC5975982F5AE035262288C535E5B377690E21535501C055FBC8FBF6C503839990E
310
5619041F179FE64D52DE45E362569DD7661365082642A11EB9E920A89B99642953CC8E702F67A9EE7234257977194EC9EAE275C4EABCCF5EAD5940D4AC6F0E35A568B8F43562CD7046CD199FD07E60174276A7BE677B5EADB0E0D14EEFFB6A31321A0D82627C4084204C3F096B71DD52F6819B16635EADF63F509AF53FA164
310
5DDCD1EDDD17164090FCC8732078B56691CB33A85CD7DCC40F504B0304140006080800CC70623B55019EA25F0000007C00000007000000636E782E786D6C4DCB3B0E80201045D1AD90E915ED2CF8AC45050C11660C8261F98AB1B07AC9C97D42D718D865D3E909258CFD00CCE24AC6E326A164D74DC0B4128928FF32603847
310
2BA13128B1252AC747C6BAB984FC68F0B87FE8960A5C09FE86CFB69FBA01504B0304140006080800CC70623BDBABAAF470010000D40300000C0000006662782F636F72652E786D6CC553D16E823014FD95A6AF4B694182CC941A83FA05FB810A9511A125A5257EFE2E82712ECEB8A7F100CD39F7F69E734AF9FADC366850B6
310
AF8DCE7018308C942E4C59EB2AC3DE1D498AD15A706B8CFB56869196ADCAF00863C12B6B7C374385D14E6907A836A59A41D9F7CA615434B0C8705F7CAA5606D23BA8E84F41278B93AC54100640439DE0BDB320004D43C63716C7C399D30917DCFBBA9CD9BA8469F5B156168B24CED3F7248AC8769F27244EB73B92EED8862C
310
B7F13E0C179B3C8F979C8ECD82BBBABDAA2BAC924E9558448CBD9330242CFA08E3154B5651FCC6D215639C8EE5774DBE2B5F6CF2B5768B68963BB5F5588420E442FC700B1139D4CB01F450C1E918227C2E09DF070D8140C84E1E9AAB8F1340832A9CB13130A5F1376A908D57309505ECF2A0DF179C4E9D30F5B239B87E3823
310
7A79C6F31DE1A8A5AEC08474B03C7837EAE4938639B44E5932B833D2C6B6B279CDC613877FA26EE21F4A2A4C63EC7F29A2F301D1F9F7A0E37D145F504B0304140006080800CC70623B9C113CC27E0000009D0000000B0000006662782F636E782E786D6C4DCCDF0A83201C86E15B91DFB94BFB330DD428C8FB886521330DA7
310
6397BF1A1DECE883878F57749FCDA1B7892F1BBC047A23808C7F84D9FA55424E0BE6803A256208E9EF06C84F9B91703228B1C690F78B66B34CD9A5439DF5CF0BFBF65E35BCA1B8D6A5C6F540381E886698B5741C695F9503EBA150A2F8958E3DC3EA0B504B0304140006080800CC70623B7DF2F77C2A010000120200003100
310
00006662782F41393633353835312D344632462D344230382D423046372D3739314545314133324237412F636F72652E786D6C8D51DB8EC22014FC15C2939B0D2DB4B45643319AE817EC0F6041255A68B86CFCFC856D4D76DF7CE190393373060EDB3DC707F856CE6B6B7A480A0C81328395DA5C7B18C3057510EC3873D686
310
3F34088C18550F330C39BB3A1BA7051AAC09CA84841A2BD5020AEF55806078A44B0FFD7053A328440C89E1EFC52486BBB8AA8214A99D789CF9E05200300FC927E4FB4D5B375D43103D5527440FB843077C5AA3F5861C8F645F5787F59E95B390B318B55CE45AA638FAA2957BD7248B390B7A7CC51F9C124149C82B8C378810
310
84AB2F42B7B8DD56F413775B8C5999E9FF4471926F8AA236A1AE96B8B3CC434E5839373893369E1FAF30EA395917409EB7F26AF8801C171837A4A6AC9C89E9F9C9B1A58BA30FD6A5EF5DDDCF894B9AD9B6A59C957943A9FCAE2FD5BC4DFE03504B0304140006080800CC70623BAD7543B64E01000033030000300000006662
310
782F41393633353835312D344632462D344230382D423046372D3739314545314133324237412F636E782E786D6CD593CD6EC32010845F0571AD6CE3D48AD20813A9873E410FBD12D82434182C7EAAE6EDBB2424CD25871E7B41D6EC30B3FA84F9E67BB2E40B4234DE8DB46F1925E094D7C6ED479AD3AE5951B2113C789FEE
310
6C943839C1488B4C05DF079FE72A69D8C96C13AAD6B8631503449F83828872B949AC57D26200B826A308D316B4064D6E46FCDA41C05550DC9E483A00797BFD207EFB092A45DE9514C1BBD22178396BD39D891265658C238DEA00936C654E5E433CB65A26D9F6EDB5EBC14EBF49A45CB856E66048291F6939A9A81BB5C89177
310
38143CA680F4AA299D66A042CEB3354A2684DC9D8D178FE0D9B8B41CAAD720F880EE7EF93C0C18769E099ECC04D5A102C8049A8A05632F4DDF376CF1DE0F6BB65C2F8627B65A33C6BB62177CEBBDAD973006829F89F22E814B54F4BC2BE347F8AA8F681390B50FA73F804400B5F542E796F19FF974E7F78DB802FE05E20750
310
4B0304140006080800CC70623BE75B7789680500003C100000340000006662782F41393633353835312D344632462D344230382D423046372D3739314545314133324237412F6F626A656374732E786D6CAD575B8F9B3818FD2B887D06C22499CB8AA1CA655245D5B455A356FB305264C061D8018C6C3393D95FBFC7600890
310
A4CD5EF210B0B1BFEBF98E3F7B1FF6596ABC522E1296DF9BAE3D320D9A872C4AF2F8DE2CE5CEBA358D0FBEC719939D65A691938CDE9B6ADAF4BD98B3B2D05311DD91329583D9D5FC0F438434A7A611A644887B5384CF34233629258BA878B12322891DEFF6B66BD70BFB62634E8AE781D082709A4B588AF91C528CDA28B73F
310
1C998EEF39EABBEFA97FBD6A7C7E9553F9D3D79FE442923C3C523610337627CB87ABE99D359D4CC6D6E4FACAB5E6ABF9D2726FC6A3C5F56271377BB88362213924694B38DD99FE47C48627A1E7D49F5A8BB5E1A74C0A599ED3B0F21F1E56366B89112D681E218F0915D0D6F17AD41FBA2A369DCF6335D62ABBD39779D5DDD1
310
11D4D8DE3CBB96B2E04FB8202E41051754A1AA8E8F76B4C6DFE810B580B1547F4B84911149794252234D024EF8BBE963A95AE27B3D310A9D5C215C7960FAEE415ED75694C6AFB17BCACA5D99A60A9AA65F217B0BFC53292ACB92BF283FAD0D3621576592CB5BED907C2FA8E9DF794E35E97BEA31BED21FEB401ABB94C44839
310
DCACBF0E1C5DA8DA5B2F4DFFD32AD86F543D9E565E7056502E157C00AD2671CD534549AB752FCA9CDA00677A313F04E51B22FF19E57B300579E3C97EB29F682D92935CEC18CF901B7B54FD8C51F362B56FC72FE0B3C1EAE335EDCCBF5AEC39ADB17DC238973F804BA5E6F6BFE7AF1FB32E523BE9F3BD571418E3631DCA4D48
310
5250CF639223210A9446CA30052EDF057BD35F8329C1ECD84552BF0DC8D18BE7BCE23BFE6BD960AB4A7DE79923A103BEBD80F911CBAA2C60DB19B01CF164A5583B772EE6D3FFA56666CBCDA74DC97724A48F9A58967497E489C4D979006FD7A05E227A1EBDD0F737C623387A9C844D3709995625106D157315F8B8392CD4E0
310
A0B9A720C4BE9829CEF37EA1E13111214D53925356365ADA634861B52519DD27A00AEB808EAF0628E6F435519D446F45CF2C9CF5214F0A15B2F6D06B79DA3EE3CBF7F56780D2F4E7EF73A0F5E5B02A38D07DC852C6B7C1FBB6664213E0C39E3EBA7FF4E1AD23EA2829407C85E586727488B751B2DB9502BC7B228A3FD68B6E
310
A65A22397E690AA8D158D7E404EC8CDA235CC3B7D1898680131CEC2CDF2638C65196279577750F15884AEE19F94199155B92B13297978469D4F8D358DF0AEF7631E28DC8F0D9F437D5D39A83B2231A1D52D543813A824EF8D44BCFF2FA6A31BD1E8DAD87F1CCB526B3879935BF59CDADD5C37479BB1CDD4CA7B3556B516589
310
EF352754B706114D9C885EC9131DE6EFEB43D99AFE2391C2F958179413D7CFEF6B1B6DB1E7600F00DE6E5C67454A339A4BA2E0FBA85ED26F045D454F463DBFCE484C2F90F2E5E3666003662ED8F755951A7D1BECD5B30B550B2785C8E7320B7292A4838DDA71BBC863ED7613CAF659337A3354231D4FF4A182A54904C2898C
310
98B28C4AD0CE056CCF332A80986E571EE9DBC305BB5FEB7E509220A58D25CF042D712A806AC0AD0C657FDEF80D2D9CEAA2EE4D1C76F60BFE74219A06527D6F82DF6412526107381E55E353090704D085B52408A8913C4ED159D79BDA71BB4BC506F4831350EB6F975CD22D69BF7AC49B91A2C0A9DDA3D5CA36AD20FC478E37
310
E61844E2352865EBCB61A275A65283CAAA9DD27703B4102F5AF51EF5F573B75CBB5AD38BC845F7A49F82A0966A49C2E3EA5EA0ECD326CD965F1DB402C6FA8B51A4658C5C5E2EC9E214602E55810345408596591009A82E7E7FFACA19EEA299B14A0081A705CB3296EBC14CDF658DCD336EA6D1136881AAEB87B81AB9EE53D5
310
F5EB8BC8362082DA24122F98680A4E7930C01A0079749CEA14382A0783E5EBA5A10F8C098456A03D6A4AEB6BB881E2513747552A5DB22C7EDAF83BD5528081A365F7FF06504B0304140006080000CC70623B000000000000000000000000350000006662782F41393633353835312D344632462D344230382D423046372D37
310
39314545314133324237412F76657274696365732E62696E504B0304140006080800CC70623BF270F1330600000004000000360000006662782F41393633353835312D344632462D344230382D423046372D3739314545314133324237412F747269616E676C65732E62696E636660600000504B0304140006080000CC7062
310
3B000000000000000000000000370000006662782F41393633353835312D344632462D344230382D423046372D3739314545314133324237412F617474726962757465732E62696E504B0304140006080800CC70623B08DA0BD19000000041010000360000006662782F41393633353835312D344632462D344230382D4230
310
46372D3739314545314133324237412F6469726563746F72792E786D6C858F410AC3201045AF22B36F53E9A60B35CBEEBAE80D244E44489C6234F4F835464A48035D0DF398FF9F8AF63D0E6CC63039F212F8F9020C7D47C6792B21C5FE7403D62A1188E2E60C98D7234A5830286103A55745067B9D86B8A3CF9C7F90C11DE6
310
07FB144396D7B6A82D282E9A152AD114D5EF2CB866EEE831B8EEA07A7BB5A8D7D61A2BAAEB7FD5F70921FF497D00504B0304140006080800CC70623BEDD1DC58FD000000A00100003B0000006662782F41393633353835312D344632462D344230382D423046372D3739314545314133324237412F7265736F75726365732F
310
636F72652E786D6C8D504B6E833010BD0A9A6D65B00922041947112427E8052C33A156828DFCA97AFC9A40A576D7CDCCE87D344F8F9FBFE667F689CE6B6B3A6039850C8DB2A336530731DC4903D95970676DF82583CCC8193B5861107C72362E3BA4AC096842428D1D7107A5F7182053CF7474E0D507CE32973124857FE48B
310
540F3961CEF244279DE03EB81420DB9EAC1384436FA353E879B1B182C7A8C75DA3C7F453DF353A1075D537A7BA6464B8F535A99AE14A9A2BBD90E350DD183B5CFABE3AF262350B1EF4FC9351399401471025A527C218A1E53BAB5A5AB765F5469B96525EACF23FA6B88CFF34456DC2A1DCE36E360F82A5202F42F062ED2BAD
310
579969AFDD8A6F504B010214000A0000080000CC70623B3DEE336E79000000790000001B00000000000000000000000000000000006175746F6465736B2D64657369676E2D7061636B6167652E786D6C504B01021400140006080800CC70623BD486FD9CA0000000F40000001300000000000000000000000000B20000005B
310
436F6E74656E745F54797065735D2E786D6C504B01021400140006080800CC70623B853B8169EB0000007C010000080000000000000000000000000083010000636F72652E786D6C504B01021400140006080800CC70623B55019EA25F0000007C000000070000000000000000000000000094020000636E782E786D6C504B
310
01021400140006080800CC70623BDBABAAF470010000D40300000C00000000000000000000000000180300006662782F636F72652E786D6C504B01021400140006080800CC70623B9C113CC27E0000009D0000000B00000000000000000000000000B20400006662782F636E782E786D6C504B01021400140006080800CC70
310
623B7DF2F77C2A010000120200003100000000000000000000000000590500006662782F41393633353835312D344632462D344230382D423046372D3739314545314133324237412F636F72652E786D6C504B01021400140006080800CC70623BAD7543B64E010000330300003000000000000000000000000000D2060000
310
6662782F41393633353835312D344632462D344230382D423046372D3739314545314133324237412F636E782E786D6C504B01021400140006080800CC70623BE75B7789680500003C10000034000000000000000000000000006E0800006662782F41393633353835312D344632462D344230382D423046372D3739314545
310
314133324237412F6F626A656374732E786D6C504B01021400140006080000CC70623B0000000000000000000000003500000000000000000000000000280E00006662782F41393633353835312D344632462D344230382D423046372D3739314545314133324237412F76657274696365732E62696E504B01021400140006
310
080800CC70623BF270F133060000000400000036000000000000000000000000007B0E00006662782F41393633353835312D344632462D344230382D423046372D3739314545314133324237412F747269616E676C65732E62696E504B01021400140006080000CC70623B0000000000000000000000003700000000000000
310
000000000000D50E00006662782F41393633353835312D344632462D344230382D423046372D3739314545314133324237412F617474726962757465732E62696E504B01021400140006080800CC70623B08DA0BD1900000004101000036000000000000000000000000002A0F00006662782F41393633353835312D344632
310
462D344230382D423046372D3739314545314133324237412F6469726563746F72792E786D6C504B01021400140006080800CC70623BEDD1DC58FD000000A00100003B000000000000000000000000000E1000006662782F41393633353835312D344632462D344230382D423046372D3739314545314133324237412F7265
310
736F75726365732F636F72652E786D6C504B0506000000000E000E0080040000641100000000
  0
XRECORD
  5
4569
102
{ACAD_REACTORS
330
1F7
102
}
330
1F7
100
AcDbXrecord
280
     1
102
MATERIAL
148
0.0
149
0.0
149
0.0
 93
        0
 94
       63
282
     0
 72
     1
 77
     1
171
     1
175
     1
179
     1
273
     0
  0
XRECORD
  5
1F8
102
{ACAD_REACTORS
330
1F7
102
}
330
1F7
100
AcDbXrecord
280
     1
 70
     1
 90
429727718
  1
30362254-06B7-45E0-A893-8CFA70E3D6BC
310
504B03040A0000080000CC70623B3DEE336E79000000790000001B0000006175746F6465736B2D64657369676E2D7061636B6167652E786D6C3C3F786D6C2076657273696F6E3D22312E302220656E636F64696E673D227574662D3822203F3E3C666F726D6174733E3C666F726D61743E687474703A2F2F736368656D612E
310
6175746F6465736B2E636F6D2F64657369676E2D7061636B6167652F323030393C2F666F726D61743E3C2F666F726D6174733E504B0304140006080800CC70623BD486FD9CA0000000F4000000130000005B436F6E74656E745F54797065735D2E786D6C7D8EC10E82300C865F65E91D8A1E8C310C0EEA1BF002731658846E
310
D98AC1B77784ABF1D8FE5FBFBF75BBCE937A534CCEB38643598122B6FEE978D0B0485F9C41B54DDD7D022595594E1A469170414C76A4D9A4D207E29CF43ECE46F218070CC6BECC4078ACAA135ACF422C856C0E68EA1BF5669944DDD7BCDE7B1F8E415D77AECB980613C2E4AC91FC167A2B244592486606FC29C8FD7F045B9A
310
EF7053A7E60B504B0304140006080800CC70623B1EC5D7A3EB0000007C01000008000000636F72652E786D6C8D90416EC3201045AF82665B6103C6756C6122AB4D4ED00B204C5C94182C03558F5F9C3852BBEB6A467FFE9B197D71FC9E6FE8CBACC17AD7032D0820E3B41FAD9B7A48F1820F808E52ACDEC75F36404ECDA687
310
4D0629A6D5A76597B477D1B89855E747B38B2A041301E95B6E7A08FAD3CCAA50296647B8168BD2573599823EBB0CA76447F43862C7BCCF5EAC59410E4DDD9C7973C2755553CCCFA4C603E3040F1565ED3B1FDE4E432BCA0D9622DAF9795FAF464533826484B498524CD807E51D79ED187F21878E10516EF63F505AC67F42C9
310
BA58B1FDDD071640D2FCC87D2045B96591CB3DA85CB7DCE40F504B0304140006080800CC70623B55019EA25F0000007C00000007000000636E782E786D6C4DCB3B0E80201045D1AD90E915ED2CF8AC45050C11660C8261F98AB1B07AC9C97D42D718D865D3E909258CFD00CCE24AC6E326A164D74DC0B4128928FF32603847
310
2BA13128B1252AC747C6BAB984FC68F0B87FE8960A5C09FE86CFB69FBA01504B0304140006080800CC70623B8C9102E971010000D40300000C0000006662782F636F72652E786D6CC5535B6E833010BC8AE5DF0A6C08340F1947A84D4ED00B38C6A128602363A31CBFCB234A53A551FA553EC09AD9F5CE8C31DB9E9B1AF5CA
310
7695D1198E428A91D2D214952E33ECDD315861B4E5CC1AE3BE9561A445A3323CC098B3D21ADFCE9034DA29ED00D5A6503328BA4E398C640D8B0C77F253352214DE4145770A5B214FA2546114020D759C75CE8200340D19DE981F0F6746269C33EFAB6266AB02A655C74A59CCF365BADC27CB5D902ED22848F6340DF238A141
310
BE88E2F57B92BFEDF23523433367AE6A2EEAA455C2A902F398D2751045018D3FA264435F3771F242571B4A1919CA6F9A7C5B3CD9E42BED16F12C776AEB308F40C848FC700B1139D4891EF410CEC810227CC6846F8386402064270EF5C5C709A05E49676C024C61FC95EA45ED154CA5211D1FF4FB8291A913A68E9B83EBBB33
310
E2A7673CDE118E5AE8124C0807CB8377834E366998436B950D7A7746DAD846D4CFD978E0F04FD455FC5D49D2D4C6FE9722321F10997F0F32DC47FE05504B0304140006080800CC70623BFFEA85907E0000009D0000000B0000006662782F636E782E786D6C4DCCD10A83201886E15B91FFDC95D95A811AB6F23E625948A6C3
310
E9D8E5AF46073BFAE0E1E365ED67B3E8ADC3CB78C7815C7240DA3DFC64DCC221C519D7805AC182F7F1EF06C88D9BE6703008B6049F9E274D7A1E938DBB5AE3D6131B2589BA0D3D965551E0B2EA732C9B9A624AAEB41E3A557677029960D9AFB4EF11165F504B0304140006080800CC70623B4FEEA4082C0100001202000031
310
0000006662782F39464131463745442D413632322D343644302D413938332D3331353338454246344243312F636F72652E786D6C8D515B6EC32010BC0AE2AB55850DD871ED0813254D72825EC00192A2C460F1A872FC42ED48ED5F7E00CDCECCCEB26C731F6FE05B39AFADE921293004CA082BB5B9F43086336A21D870E6AC
310
0D7F68109861543DCC30E4ECE26C9C164858139409093556AA051CBC570102714B8F1E7AF1A5C6A11862480C7F2DA6415C878B2A4891CA89C7990F2E050073937C42DE1DB7E4F87ED8A36D4329AA9B3D46DBAEAD504556557BD81DEBDD0761E52CE42C462D17B996298E3E6BE59E35C962CE821E1FF18553435012728A7187
310
0841987E927A8D9B35ADDF70BBC6989599FE4F1427F9A4286A132ABAC49D651EF234CD5CE04CDA78BA3DC2A8FB645D00B9DF8B57E215725C60BCA2A463E54C4CE327C7A65E1C7DB02E7DEFCBF594B864C5CA6CDBD49C957943E9FA5D5FBAF336F90F504B0304140006080800CC70623BAD7543B64E01000033030000300000
310
006662782F39464131463745442D413632322D343644302D413938332D3331353338454246344243312F636E782E786D6CD593CD6EC32010845F0571AD6CE3D48AD20813A9873E410FBD12D82434182C7EAAE6EDBB2424CD25871E7B41D6EC30B3FA84F9E67BB2E40B4234DE8DB46F1925E094D7C6ED479AD3AE5951B2113C
310
789FEE6C943839C1488B4C05DF079FE72A69D8C96C13AAD6B8631503449F83828872B949AC57D26200B826A308D316B4064D6E46FCDA41C05550DC9E483A00797BFD207EFB092A45DE9514C1BBD22178396BD39D891265658C238DEA00936C654E5E433CB65A26D9F6EDB5EBC14EBF49A45CB856E66048291F6939A9A81BB5
310
C8917738143CA680F4AA299D66A042CEB3354A2684DC9D8D178FE0D9B8B41CAAD720F880EE7EF93C0C18769E099ECC04D5A102C8049A8A05632F4DDF376CF1DE0F6BB65C2F8627B65A33C6BB62177CEBBDAD973006829F89F22E814B54F4BC2BE347F8AA8F681390B50FA73F804400B5F542E796F19FF974E7F78DB802FE05
310
E207504B0304140006080800CC70623B16AB87BA640500003C100000340000006662782F39464131463745442D413632322D343644302D413938332D3331353338454246344243312F6F626A656374732E786D6CAD575B6FA33818FD2B887DE6924B3BED8A326A92B68A663B534DD4D13E548A0C38942D60649B369D5FBFC7
310
600890A493BDE42160637FD7F31D7FF63E6FB3D478A55C242CBF3247B66B1A340F5994E4F19559CA8D75611A9F7D8F33263BCB4C232719BD32D5B4E97B316765A1A722BA21652A07B3B7B33F0D11D29C9A46981221AE4C113ED38CD8A4942CA2E2C58E882476BCD9DA23BB5ED8171B73523C0F841684D35CC252CCE79062D4
310
468DFA43D7747CCF51DF7D4FFDEB5593E3AB9CCA9FBEFE241792E4E19EB28198C968BAB8199F5D5A67D3E9C49A9E8F47D6EC76B6B0469F26EEFC7C3EBFBCBEB98462213924694B38DD98FE1D62C393D073EA4FADC5DAF04326852CCF6958F90F0F2B9BB5C48816348F90C7840A68EB78EDF68723159BCEE7891A6B95DDE9D3
310
BCEAEEE8086A6C6F9E5D4B59F0175C10A7A0820BAA5055C7473B5AE3CFDD452D602CD5DF12616444529E90D448938013FE6EFA58AA96F85E4F8C42275708571E98FE6827AF6B2B4AE3D7D83D64E5A64C53054DD3AF90BD06FEA9149565C94FCA0F6B834DC85599E4F2423B24DF0B6AFA979E534DFA9E7A4CC6FA631D486393
310
921829879BF5D781A373557BCB85E97FB90DB62B558F8795179C15944B051F40AB495CF35451D26A4727654E6D8033BD98EF82F21D91FF8AF2DD9982BCF1643BDD4EB516C9492E368C67C88DED563FC36D5EACF66DFF057C3658BDBFA69DF9578B3DA735B64F18C7F20770A9D45CFCF7FCF563D6456A277DBEF78A02637CA2
310
43B90A490AEAB94F72244481D24819A6C0E59B606BFA4B3025981DBB48EAB701D97BF19C577CC77F2D1B6C55A9EF3C732474C0B727303F625995056C3B02963D9EAC146BE78EC5FCEC7FA999EBC5EACBAAE41B12D27B4D2C0BBA49F244E2ECDC81B76B502F113D8F5EE8FB1BE3111CDD4FC2AA9B844CAB1288B68AB90A7CDC
310
1C166AB0D3DC5310625FCC14E779BFD0709F8890A629C9292B1B2DED31A4B0DA928CEE135085754027E3018A397D4D5427D15BD1330B677DC8934285AC3DF45A9EB68FF8F2B8FC0A509AFEECFD0FF2DE25CC6047F7214B195F07EFEB9A094D800F7BFAE8FED187B78EA8A3A400F115961BCAD1215E47C966530AF0EE8128FE
310
58CEBB996A8964FFA529A046635D9353B0336A8F700DDF46271A024E70B0B37C9DE01847591E54DED53D54202AB947E4076556AC49C6CA5C9E1226B7F1A7B1BE15DEED62C41B91E1B3E9AFAAA735036547343A925075041DF0A9979E893B391F8FCFA6967B3EFB644DCF6E5CEBFAE272625DCC6FAF3FB93793C5F90CE1EF57
310
407342756B10D1C489E8953CD1617E5CEECAD6F4EF8914CE5D5D504E5C3F1F9736DA62CFC11E00BCDDB8CC8A9466349744C1F75EBDA4DF09BA8A9E8C7A7E9991989E20E5DBDD6A6003664ED8F7A04A8DBE0DF6EAD9B9AA858342E47399053949D2C146EDB85DE4B176BB0965FBAC19BD19AA918E27FA50C1D22402E144464C
310
59462568E704B6E71915404CB72B8FF4EDE184DDAF753F284990D2C6926782963815403548A70C657FDEF80D2D9CEAA2AE4C1C76F60BFE74219A06527D6582DF6412526107381E55E353090704D085B52408D0933C4ED159D79BDA71BB4BC506F4831350EB6F979CD22D69BF7AC49B91A2C0A9DDA3D5CA36AD20FC478E37E6
310
1844E2352865EBCB6EA275A652E3836BE04EFB400BF1A2556F515F1FBB35B2AB35BD889C744FFA1004B5544B121E57F70215746DD2F5E2C1412B602CBF19455AC6C8E5E9922C4E01E65215385004546899059180EAFCF7A707CE7017CD8CDB0410789AB32C63B91E5CEBBBACB17AC6CD347A022D5075FD106377347AAABA7E
310
7D11590744509B44E205134DC1290F06580320F78E537D3D73540E06CB970B431F185308AD40BBD794D6D77003C5A36E8EAA54BA64597CD8F83BD552A080A365F7FF06504B0304140006080000CC70623B000000000000000000000000350000006662782F39464131463745442D413632322D343644302D413938332D3331
310
353338454246344243312F76657274696365732E62696E504B0304140006080800CC70623BF270F1330600000004000000360000006662782F39464131463745442D413632322D343644302D413938332D3331353338454246344243312F747269616E676C65732E62696E636660600000504B0304140006080000CC70623B
310
000000000000000000000000370000006662782F39464131463745442D413632322D343644302D413938332D3331353338454246344243312F617474726962757465732E62696E504B0304140006080800CC70623B08DA0BD19000000041010000360000006662782F39464131463745442D413632322D343644302D413938
310
332D3331353338454246344243312F6469726563746F72792E786D6C858F410AC3201045AF22B36F53E9A60B35CBEEBAE80D244E44489C6234F4F835464A48035D0DF398FF9F8AF63D0E6CC63039F212F8F9020C7D47C6792B21C5FE7403D62A1188E2E60C98D7234A5830286103A55745067B9D86B8A3CF9C7F90C11DE607
310
FB144396D7B6A82D282E9A152AD114D5EF2CB866EEE831B8EEA07A7BB5A8D7D61A2BAAEB7FD5F70921FF497D00504B0304140006080800CC70623B0D6EF93BFE000000A00100003B0000006662782F39464131463745442D413632322D343644302D413938332D3331353338454246344243312F7265736F75726365732F63
310
6F72652E786D6C8D50596E833010BD0A9ADFCA60B334011947A8694ED00B586642AC041B79A97AFC9A40A5F6AF3F33A3B7689E1E3F7DCD8FEC139DD7D6F4C0720A191A65476DA61E62B892236427C19DB5E1970C322367EC618541F0C9D9B8EC90B226A009093576C41D94DE63804C3DD2D18357379C652E63480A7FCF17A9
310
EE72C29CE5894E3AC17D702940B63D59270887DE46A7D0F36263058F518FBB468FE9A7BE6A7420864373B8D4873369AA8691FA421B3294352543C5CAF65C0F6FEF43CB8BD52C78D0F34F46E550061C419494B6843142CB0F5677F4B52BEB177AEC28E5C52AFF638ACBF84F53D42654E51E77B379102C05791282176B5F693D
310
CB4C7BED567C03504B010214000A0000080000CC70623B3DEE336E79000000790000001B00000000000000000000000000000000006175746F6465736B2D64657369676E2D7061636B6167652E786D6C504B01021400140006080800CC70623BD486FD9CA0000000F40000001300000000000000000000000000B20000005B
310
436F6E74656E745F54797065735D2E786D6C504B01021400140006080800CC70623B1EC5D7A3EB0000007C010000080000000000000000000000000083010000636F72652E786D6C504B01021400140006080800CC70623B55019EA25F0000007C000000070000000000000000000000000094020000636E782E786D6C504B
310
01021400140006080800CC70623B8C9102E971010000D40300000C00000000000000000000000000180300006662782F636F72652E786D6C504B01021400140006080800CC70623BFFEA85907E0000009D0000000B00000000000000000000000000B30400006662782F636E782E786D6C504B01021400140006080800CC70
310
623B4FEEA4082C0100001202000031000000000000000000000000005A0500006662782F39464131463745442D413632322D343644302D413938332D3331353338454246344243312F636F72652E786D6C504B01021400140006080800CC70623BAD7543B64E010000330300003000000000000000000000000000D5060000
310
6662782F39464131463745442D413632322D343644302D413938332D3331353338454246344243312F636E782E786D6C504B01021400140006080800CC70623B16AB87BA640500003C1000003400000000000000000000000000710800006662782F39464131463745442D413632322D343644302D413938332D3331353338
310
454246344243312F6F626A656374732E786D6C504B01021400140006080000CC70623B0000000000000000000000003500000000000000000000000000270E00006662782F39464131463745442D413632322D343644302D413938332D3331353338454246344243312F76657274696365732E62696E504B01021400140006
310
080800CC70623BF270F133060000000400000036000000000000000000000000007A0E00006662782F39464131463745442D413632322D343644302D413938332D3331353338454246344243312F747269616E676C65732E62696E504B01021400140006080000CC70623B0000000000000000000000003700000000000000
310
000000000000D40E00006662782F39464131463745442D413632322D343644302D413938332D3331353338454246344243312F617474726962757465732E62696E504B01021400140006080800CC70623B08DA0BD190000000410100003600000000000000000000000000290F00006662782F39464131463745442D413632
310
322D343644302D413938332D3331353338454246344243312F6469726563746F72792E786D6C504B01021400140006080800CC70623B0D6EF93BFE000000A00100003B000000000000000000000000000D1000006662782F39464131463745442D413632322D343644302D413938332D3331353338454246344243312F7265
310
736F75726365732F636F72652E786D6C504B0506000000000E000E0080040000641100000000
  0
XRECORD
  5
456B
102
{ACAD_REACTORS
330
173
102
}
330
173
100
AcDbXrecord
280
     1
102
MATERIAL
148
0.0
149
0.0
149
0.0
 93
        0
 94
       63
282
     0
 72
     1
 77
     1
171
     1
175
     1
179
     1
273
     0
  0
XRECORD
  5
175
102
{ACAD_REACTORS
330
173
102
}
330
173
100
AcDbXrecord
280
     1
270
     1
271
     1
  0
XRECORD
  5
174
102
{ACAD_REACTORS
330
173
102
}
330
173
100
AcDbXrecord
280
     1
270
     1
271
     1
  0
XRECORD
  5
1FB
102
{ACAD_REACTORS
330
173
102
}
330
173
100
AcDbXrecord
280
     1
 70
     0
 90
1673772943
  1
ECE7A1D2-D628-4531-984C-D00F80459256
310
504B03040A0000080000CC70623B3DEE336E79000000790000001B0000006175746F6465736B2D64657369676E2D7061636B6167652E786D6C3C3F786D6C2076657273696F6E3D22312E302220656E636F64696E673D227574662D3822203F3E3C666F726D6174733E3C666F726D61743E687474703A2F2F736368656D612E
310
6175746F6465736B2E636F6D2F64657369676E2D7061636B6167652F323030393C2F666F726D61743E3C2F666F726D6174733E504B0304140006080800CC70623BD486FD9CA0000000F4000000130000005B436F6E74656E745F54797065735D2E786D6C7D8EC10E82300C865F65E91D8A1E8C310C0EEA1BF002731658846E
310
D98AC1B77784ABF1D8FE5FBFBF75BBCE937A534CCEB38643598122B6FEE978D0B0485F9C41B54DDD7D022595594E1A469170414C76A4D9A4D207E29CF43ECE46F218070CC6BECC4078ACAA135ACF422C856C0E68EA1BF5669944DDD7BCDE7B1F8E415D77AECB980613C2E4AC91FC167A2B244592486606FC29C8FD7F045B9A
310
EF7053A7E60B504B0304140006080800CC70623BD9DDAED0EC0000007C01000008000000636F72652E786D6C8D90416EC3201045AF82665B61836D9CD8C2444DD39CA01740405C94182C03558F5F9C3852BBEB6A467FFE9B197D7EF89E6EE8CB2CC17A37002D0820E394D7D68D03A478C17B4007C117EFE32F1B20272733C0
310
2A83E0E3E2D3BC49CABB685CCCAAF3DA6CA20CC14440EA969B0182FA34932C648AD911AEC52CD5558EA6A0CF2EC329598D1E47ACCEFBECC59A050463A7EA5833865FEBDD0E37353BE3EE8DBDE3F6786A48D375FBF6CC78B9C282473B3DEFABC5C86834888A900E538A49F5419B9EB47DD5BC907D4F082F57FB1F28CDFA9F50
310
B22ED6D5F6EE030B20687EE43E10BC5CB3C8E51E54AE6B6EE207504B0304140006080800CC70623B55019EA25F0000007C00000007000000636E782E786D6C4DCB3B0E80201045D1AD90E915ED2CF8AC45050C11660C8261F98AB1B07AC9C97D42D718D865D3E909258CFD00CCE24AC6E326A164D74DC0B4128928FF326038
310
472BA13128B1252AC747C6BAB984FC68F0B87FE8960A5C09FE86CFB69FBA01504B0304140006080800CC70623BA24EB22D72010000D40300000C0000006662782F636F72652E786D6CC5535B6E833010BC8AE5DF0A6C5E49888CA3A6694ED00B38E05014B091B1518EDFE511A5A9D228FD2A1F60CDEC7A67C6986DCE4D8D7A
310
69BA4AAB0C073EC548AA5C17952A33ECECD15B61B4E1CC686DBF9561A44423333CC098B3D268D7CE50AE9595CA02AA74216750749DB418E5352C32DCE59FB211BE70162ABA93DF8AFC244AE9073ED050C759670D0840D390E18DF9F1706664C23973AE2A66B62A605A75ACA4C13C4976E1364A12EF355A2EBD384AF65EFA96
310
BC7B8BED2EA6719AAE16FB8491A199335B351775B991C2CA02F390D2D40B028F861F41BCA68B7518BFD0D59A524686F29B26D7164F36B94AD9289CE54E6D1DE6010819891F6E21228B3AD1831EC219194284CF98F06DD01008846CC5A1BEF83801D4CBDC6A1303536877A57A513B0953A94FC707FDBE6064EA84A9E3E6E0FA
310
EE8CF0E9198F7784A316AA0413C2C2F2E0ECA0934D1AE6D05A69BCDE9E91D2A611F573361E38FC1375157F5752AE6B6DFE4B11990F88CCBF0719EE23FF02504B0304140006080800CC70623B408A7D3B7C0000009D0000000B0000006662782F636E782E786D6C4DCCD10A83201886E15B91FFDC552A92A0064DBC8F581632
310
D3703A76F9ABD1C18E3E78F878E5F0D9027ABBFCF2292AE86E2D20171F69F6715550CB827B40839639A5F2770314A7CD293819B45C73AAFB45B35BA61ACAA1C1C7E7855C58C15BC331339661262CC762340413D68D77DA5B42298546CBE6573AF60CEB2F504B0304140006080800CC70623B449FB9BD290100001202000031
310
0000006662782F36394639363044362D344446342D343946362D394244322D3234314243333846323333332F636F72652E786D6C8D515B6EC32010BC0AE22B55850D98B871848994463E412FE002495162B07854397EA176A4F62F3F2C9A9D991D587EB84F37F0AD7D30CEF6905418026DA553C65E7A98E219ED203808EE9D
310
8B7F6810D871D23D2C3014FCE25D9A57483A1BB58D19B54EE9151C43D0110279CB971E06F9A5A7B11A53CC8C70ADE6515EC78BAE4895DB992778883E0700CB907242D17643D7E2538BD869608875438BBAE38922CAC8F1BDD90DB4691A5E2F42C153326A951B95E398B3D1FE599322163C9AE9115F7A3D46ADA0A018778810
310
84E907617BDCEE297BC5BB3DC6BC2EF47FA234AB2745C9D8D8D035EE220B50105E2F0DC1954B9FB747187D9F9D8FA0CCDB042D5FA0C015C65B42DF78BD10F3F3B363CB56C7109DCFDFBBB97E662ED92EB62D13BC2E1BCAE5777DB9966D8A1F504B0304140006080800CC70623BAD7543B64E01000033030000300000006662
310
782F36394639363044362D344446342D343946362D394244322D3234314243333846323333332F636E782E786D6CD593CD6EC32010845F0571AD6CE3D48AD20813A9873E410FBD12D82434182C7EAAE6EDBB2424CD25871E7B41D6EC30B3FA84F9E67BB2E40B4234DE8DB46F1925E094D7C6ED479AD3AE5951B2113C789FEE
310
6C943839C1488B4C05DF079FE72A69D8C96C13AAD6B8631503449F83828872B949AC57D26200B826A308D316B4064D6E46FCDA41C05550DC9E483A00797BFD207EFB092A45DE9514C1BBD22178396BD39D891265658C238DEA00936C654E5E433CB65A26D9F6EDB5EBC14EBF49A45CB856E66048291F6939A9A81BB5C89177
310
38143CA680F4AA299D66A042CEB3354A2684DC9D8D178FE0D9B8B41CAAD720F880EE7EF93C0C18769E099ECC04D5A102C8049A8A05632F4DDF376CF1DE0F6BB65C2F8627B65A33C6BB62177CEBBDAD973006829F89F22E814B54F4BC2BE347F8AA8F681390B50FA73F804400B5F542E796F19FF974E7F78DB802FE05E20750
310
4B0304140006080800CC70623B8D05915C650500003B100000340000006662782F36394639363044362D344446342D343946362D394244322D3234314243333846323333332F6F626A656374732E786D6CAD575B6FA33814FE2B887D06429276DA1565D4266D158D3A339A6846FB502932E050B66023DB74D2FDF5FB190C01
310
9276B2973C046C8ECFF53B17071F77456EBD502133CEAE6CDF9DD81665314F32965ED995DA3A17B6F5310C04E7AA47665B8C14F4CAD6DB7618A48257A5D94AE89654B91AEDDEDDFC61C998326A5B714EA4BCB265FC440BE2924AF184CA6737218AB8E976E7FA6E4338649B0A523E8D98964450A6A029F619B8588D52FE7039
310
B1BD30F0F4F730D0FF866AF6369557DB33949F31A9088B0F848DD8CCFCF9F2767A76E99CCDE733677E3EF59D9BBB9BA5E37F984D16E78BC5E5F5ED25044B25C0C96822E8D60EEFE11B91C581D77CEA34368A1F5329E68CD1B8B61F16D63A1B8E092D294B10C78C4A48EB593D192E7DED9BDEE7995E1B91FDEDD3ACEA9FE831
310
6A756F9F7D4D79F4274C90A7A04248AA51D5F8C718DAE06FB2F75AC4796EBE65D22A88A22223B995679120E2D50E41AA49C260C046A35368846B0BECD0DFF3EBEB8AD4F835768F69B9ADF25C43D30E6B646F807FAA64AD59F61715C7A54127C4AACA98BA3006A9D792DAE165E0D59B61A01FB3A9F9D838D2DAE62445C86166
310
F37564E842E7DE6A69879FEEA2DD5AE7E371E1A5E025154AC307D06A03D73EB5978C58FFA4C8E9033066E0F3BD53BEC1F39F91BE7B55103791EDE6BBB991A2046172CB4581D8B893FA674DDA17A77B3B7C413D1B511FD2743BFF8A38F03A658705E3ADF8015C3A3417FF3D7E439FF591DA0B5F18BC20C1B8981957AE6392A3
310
F43C640C01D1A0B4728E2DD4F26DB4B3C3152A252A3B4E913CEC1C72F012782FF88EFF8637AA552DBEF76408E8A8DE9E50F9E1CB3A2DA0DB1B6039A893B56063DC5B3E3FFB5F72E67AB9FEB4AEC496C4F4C1149625DD662C53E89D7BF0F6151A046260D1337DFDC94502430F83B0EE07A130A224BCAD7DAE1D9FB6CD422FF6
310
920702629C4BB9AE79C12F243C6432A6794E18E5552BA56B431AAB5D91317302B2B071E86C3A42B1A02F999E24061403B5D0EB639195DA655DD3EBEAB4FB862DDF579F014AD0E73C22F99E28DA57FB98E75C6CA2D74D53086D600F4786E0FE3144B771A8A7B900F03594DB8A633CBC49B2EDB69228BB479CF863B5E807AAAB
310
23872F6DFEB4129B949CA33823F58830E86D65621E10047D9DB34D862E8EAC3C2ABC2F7B2C40D67CDFE01F5545B92105AF983AC54D93D69E56FB8E797F88913F898A9FEC705D3F9D1B54EC8426FB500D40A03BD0119B06E1B95DDC7EB8F6975367793EBD70E66733DFB9BC982F9CE564727731999F5D4ECFCE3B8D6A4DC2A0
310
6D50FD148437D110834A64C6CDDF57FBACB5C307A2A477DFE4939736CFEF2B175371E0E10CF0DD1D5C15654E0BCA14D1E87DD02FF93782A162C0A3D95F1524A52770F972BF1EE9809D13CE7DD599467F8ECE9ADD85CE85A34CD45355448C64F9E8A031DC2D596ACC6E5DD93D9B82DE2EF5CAF81363A8E47996A0DE24564A79
310
4115AACE09C55E14540231FDA13C319787134EBF34E3A022514E5B4D9E0826E25C02D5805B15ABE1BEF51B26383D445DD9E875EE33FE4C22DA16427D65A3BCA92CA6D28DD01DF5DC53330704308475351050232CCD31583787BA75774AFB06E5070DD0C8EF484E19968C5D83BA5B90B244D31E54D55A372320FE4786B7EA58
310
44E135AA5467CB7EA333A61683CC6A8C3257034C10CF46F40EF9F5BE59BE5BD30C3C72D235E95D10345C1D45445A5F0BB47E46A5EBE5570F9380B5FA629579952296A773720405982B9DE04011506178964401AA8BDF1FBF0A8EAB6861DD6580C0E38217056766716DAEB2D6FA0917D3E4116581EADB879C4E7CFFB11EFACD
310
3D641311495D92C8676CB409A72D18610D803CE8A626049E8EC1887CB5B44CC39883690DDA8399B4B9855B481E7D71D4A9D22F96E5BB73BF5793020C02137BF837504B0304140006080000CC70623B000000000000000000000000350000006662782F36394639363044362D344446342D343946362D394244322D32343142
310
43333846323333332F76657274696365732E62696E504B0304140006080800CC70623BF270F1330600000004000000360000006662782F36394639363044362D344446342D343946362D394244322D3234314243333846323333332F747269616E676C65732E62696E636660600000504B0304140006080000CC70623B0000
310
00000000000000000000370000006662782F36394639363044362D344446342D343946362D394244322D3234314243333846323333332F617474726962757465732E62696E504B0304140006080800CC70623B08DA0BD19000000041010000360000006662782F36394639363044362D344446342D343946362D394244322D
310
3234314243333846323333332F6469726563746F72792E786D6C858F410AC3201045AF22B36F53E9A60B35CBEEBAE80D244E44489C6234F4F835464A48035D0DF398FF9F8AF63D0E6CC63039F212F8F9020C7D47C6792B21C5FE7403D62A1188E2E60C98D7234A5830286103A55745067B9D86B8A3CF9C7F90C11DE607FB14
310
4396D7B6A82D282E9A152AD114D5EF2CB866EEE831B8EEA07A7BB5A8D7D61A2BAAEB7FD5F70921FF497D00504B0304140006080800CC70623BCA768048FE000000A00100003B0000006662782F36394639363044362D344446342D343946362D394244322D3234314243333846323333332F7265736F75726365732F636F72
310
652E786D6C8D50596E833010BD0A9ADFCA60D600328E9AA639412F609909B1126CE4A5EAF16B0295DABFFECC8CDEA2797AECF8353F924FB44E193D409E5248504B332A3D0D10FC95B4901C39B3C6F85F3248B49871801506CE266BC2B243D2688FDA47549B11775038871E12F988C7004EDE7016A9083E2ADC3D5D84BC8B09
310
D33C8D74D471E6BC8D0192EDC93A815B742658898E651BCB59086ADC356A8C3FD555A1055ED7E7E254D615792D0F075295F585746FF53B694EE78A565DD736979A65AB9933AFE69F8CD2A2F038022F28ED489E135A7CE4554F9BBEA85E68DB53CAB255FEC71496F19FA6A0B42F8B3DEE6673C0F318E4497096AD7DC5F52C33
310
EEB55BFE0D504B010214000A0000080000CC70623B3DEE336E79000000790000001B00000000000000000000000000000000006175746F6465736B2D64657369676E2D7061636B6167652E786D6C504B01021400140006080800CC70623BD486FD9CA0000000F40000001300000000000000000000000000B20000005B436F
310
6E74656E745F54797065735D2E786D6C504B01021400140006080800CC70623BD9DDAED0EC0000007C010000080000000000000000000000000083010000636F72652E786D6C504B01021400140006080800CC70623B55019EA25F0000007C000000070000000000000000000000000095020000636E782E786D6C504B0102
310
1400140006080800CC70623BA24EB22D72010000D40300000C00000000000000000000000000190300006662782F636F72652E786D6C504B01021400140006080800CC70623B408A7D3B7C0000009D0000000B00000000000000000000000000B50400006662782F636E782E786D6C504B01021400140006080800CC70623B
310
449FB9BD290100001202000031000000000000000000000000005A0500006662782F36394639363044362D344446342D343946362D394244322D3234314243333846323333332F636F72652E786D6C504B01021400140006080800CC70623BAD7543B64E010000330300003000000000000000000000000000D20600006662
310
782F36394639363044362D344446342D343946362D394244322D3234314243333846323333332F636E782E786D6C504B01021400140006080800CC70623B8D05915C650500003B10000034000000000000000000000000006E0800006662782F36394639363044362D344446342D343946362D394244322D32343142433338
310
46323333332F6F626A656374732E786D6C504B01021400140006080000CC70623B0000000000000000000000003500000000000000000000000000250E00006662782F36394639363044362D344446342D343946362D394244322D3234314243333846323333332F76657274696365732E62696E504B010214001400060808
310
00CC70623BF270F13306000000040000003600000000000000000000000000780E00006662782F36394639363044362D344446342D343946362D394244322D3234314243333846323333332F747269616E676C65732E62696E504B01021400140006080000CC70623B00000000000000000000000037000000000000000000
310
00000000D20E00006662782F36394639363044362D344446342D343946362D394244322D3234314243333846323333332F617474726962757465732E62696E504B01021400140006080800CC70623B08DA0BD190000000410100003600000000000000000000000000270F00006662782F36394639363044362D344446342D
310
343946362D394244322D3234314243333846323333332F6469726563746F72792E786D6C504B01021400140006080800CC70623BCA768048FE000000A00100003B000000000000000000000000000B1000006662782F36394639363044362D344446342D343946362D394244322D3234314243333846323333332F7265736F
310
75726365732F636F72652E786D6C504B0506000000000E000E0080040000621100000000
  0
XRECORD
  5
176
102
{ACAD_REACTORS
330
173
102
}
330
173
100
AcDbXrecord
280
     1
270
     1
271
     1
  0
XRECORD
  5
177
102
{ACAD_REACTORS
330
173
102
}
330
173
100
AcDbXrecord
280
     1
270
     1
271
     1
  0
XRECORD
  5
458D
102
{ACAD_REACTORS
330
458C
102
}
330
458C
100
AcDbXrecord
280
     1
102
ACAD_ROUNDTRIP_2012_MLEADER_STYLE
298
     1
  0
XRECORD
  5
459F
102
{ACAD_REACTORS
330
459E
102
}
330
459E
100
AcDbXrecord
280
     1
102
DISPLAYNAME
  1
Metric50
102
FLAGS
 90
        0
  0
CELLSTYLEMAP
  5
455F
102
{ACAD_REACTORS
330
162
102
}
330
162
100
AcDbCellStyleMap
 90
        3
300
CELLSTYLE
  1
TABLEFORMAT_BEGIN
 90
        5
170
     1
 91
        0
 92
    32768
 62
   257
 93
        1
300
CONTENTFORMAT
  1
CONTENTFORMAT_BEGIN
 90
        0
 91
        0
 92
      512
 93
        0
300

 40
0.0
140
1.0
 94
        5
 62
     0
340
11
144
6.0
309
CONTENTFORMAT_END
171
     1
301
MARGIN
  1
CELLMARGIN_BEGIN
 40
1.5
 40
1.5
 40
1.5
 40
1.5
 40
4.5
 40
4.5
309
CELLMARGIN_END
 94
        6
 95
        1
302
GRIDFORMAT
  1
GRIDFORMAT_BEGIN
 90
        0
 91
        1
 62
     0
 92
       -2
340
14
 93
        0
 40
1.125
309
GRIDFORMAT_END
 95
        2
302
GRIDFORMAT
  1
GRIDFORMAT_BEGIN
 90
        0
 91
        1
 62
     0
 92
       -2
340
14
 93
        0
 40
1.125
309
GRIDFORMAT_END
 95
        4
302
GRIDFORMAT
  1
GRIDFORMAT_BEGIN
 90
        0
 91
        1
 62
     0
 92
       -2
340
14
 93
        0
 40
1.125
309
GRIDFORMAT_END
 95
        8
302
GRIDFORMAT
  1
GRIDFORMAT_BEGIN
 90
        0
 91
        1
 62
     0
 92
       -2
340
14
 93
        0
 40
1.125
309
GRIDFORMAT_END
 95
       16
302
GRIDFORMAT
  1
GRIDFORMAT_BEGIN
 90
        0
 91
        1
 62
     0
 92
       -2
340
14
 93
        0
 40
1.125
309
GRIDFORMAT_END
 95
       32
302
GRIDFORMAT
  1
GRIDFORMAT_BEGIN
 90
        0
 91
        1
 62
     0
 92
       -2
340
14
 93
        0
 40
1.125
309
GRIDFORMAT_END
309
TABLEFORMAT_END
  1
CELLSTYLE_BEGIN
 90
        1
 91
        1
300
_TITLE
309
CELLSTYLE_END
300
CELLSTYLE
  1
TABLEFORMAT_BEGIN
 90
        5
170
     1
 91
        0
 92
        0
 62
   257
 93
        1
300
CONTENTFORMAT
  1
CONTENTFORMAT_BEGIN
 90
        0
 91
        0
 92
      512
 93
        0
300

 40
0.0
140
1.0
 94
        5
 62
     0
340
11
144
4.5
309
CONTENTFORMAT_END
171
     1
301
MARGIN
  1
CELLMARGIN_BEGIN
 40
1.5
 40
1.5
 40
1.5
 40
1.5
 40
4.5
 40
4.5
309
CELLMARGIN_END
 94
        6
 95
        1
302
GRIDFORMAT
  1
GRIDFORMAT_BEGIN
 90
        0
 91
        1
 62
     0
 92
       -2
340
14
 93
        0
 40
1.125
309
GRIDFORMAT_END
 95
        2
302
GRIDFORMAT
  1
GRIDFORMAT_BEGIN
 90
        0
 91
        1
 62
     0
 92
       -2
340
14
 93
        0
 40
1.125
309
GRIDFORMAT_END
 95
        4
302
GRIDFORMAT
  1
GRIDFORMAT_BEGIN
 90
        0
 91
        1
 62
     0
 92
       -2
340
14
 93
        0
 40
1.125
309
GRIDFORMAT_END
 95
        8
302
GRIDFORMAT
  1
GRIDFORMAT_BEGIN
 90
        0
 91
        1
 62
     0
 92
       -2
340
14
 93
        0
 40
1.125
309
GRIDFORMAT_END
 95
       16
302
GRIDFORMAT
  1
GRIDFORMAT_BEGIN
 90
        0
 91
        1
 62
     0
 92
       -2
340
14
 93
        0
 40
1.125
309
GRIDFORMAT_END
 95
       32
302
GRIDFORMAT
  1
GRIDFORMAT_BEGIN
 90
        0
 91
        1
 62
     0
 92
       -2
340
14
 93
        0
 40
1.125
309
GRIDFORMAT_END
309
TABLEFORMAT_END
  1
CELLSTYLE_BEGIN
 90
        2
 91
        1
300
_HEADER
309
CELLSTYLE_END
300
CELLSTYLE
  1
TABLEFORMAT_BEGIN
 90
        5
170
     1
 91
        0
 92
        0
 62
   257
 93
        1
300
CONTENTFORMAT
  1
CONTENTFORMAT_BEGIN
 90
        0
 91
        0
 92
      512
 93
        0
300

 40
0.0
140
1.0
 94
        2
 62
     0
340
11
144
4.5
309
CONTENTFORMAT_END
171
     1
301
MARGIN
  1
CELLMARGIN_BEGIN
 40
1.5
 40
1.5
 40
1.5
 40
1.5
 40
4.5
 40
4.5
309
CELLMARGIN_END
 94
        6
 95
        1
302
GRIDFORMAT
  1
GRIDFORMAT_BEGIN
 90
        0
 91
        1
 62
     0
 92
       -2
340
14
 93
        0
 40
1.125
309
GRIDFORMAT_END
 95
        2
302
GRIDFORMAT
  1
GRIDFORMAT_BEGIN
 90
        0
 91
        1
 62
     0
 92
       -2
340
14
 93
        0
 40
1.125
309
GRIDFORMAT_END
 95
        4
302
GRIDFORMAT
  1
GRIDFORMAT_BEGIN
 90
        0
 91
        1
 62
     0
 92
       -2
340
14
 93
        0
 40
1.125
309
GRIDFORMAT_END
 95
        8
302
GRIDFORMAT
  1
GRIDFORMAT_BEGIN
 90
        0
 91
        1
 62
     0
 92
       -2
340
14
 93
        0
 40
1.125
309
GRIDFORMAT_END
 95
       16
302
GRIDFORMAT
  1
GRIDFORMAT_BEGIN
 90
        0
 91
        1
 62
     0
 92
       -2
340
14
 93
        0
 40
1.125
309
GRIDFORMAT_END
 95
       32
302
GRIDFORMAT
  1
GRIDFORMAT_BEGIN
 90
        0
 91
        1
 62
     0
 92
       -2
340
14
 93
        0
 40
1.125
309
GRIDFORMAT_END
309
TABLEFORMAT_END
  1
CELLSTYLE_BEGIN
 90
        3
 91
        2
300
_DATA
309
CELLSTYLE_END
  0
XRECORD
  5
4564
102
{ACAD_REACTORS
330
162
102
}
330
162
100
AcDbXrecord
280
     1
102
ACAD_ROUNDTRIP_PRE2007_TABLESTYLE
 90
      512
 91
        0
  1

 92
      512
 93
        0
  2

 94
      512
 95
        0
  3

  0
XRECORD
  5
4577
102
{ACAD_REACTORS
330
4576
102
}
330
4576
100
AcDbXrecord
280
     1
102
RTVSPost2010Prop28
280
     1
102
RTVSPost2010PropOp28
 70
     1
102
RTVSPost2010Prop29
280
     1
102
RTVSPost2010PropOp29
 70
     1
102
RTVSPost2010Prop30
280
     0
102
RTVSPost2010PropOp30
 70
     1
102
RTVSPost2010Prop31
280
     0
102
RTVSPost2010PropOp31
 70
     1
102
RTVSPost2010Prop32
280
     0
102
RTVSPost2010PropOp32
 70
     1
102
RTVSPost2010Prop33
280
     0
102
RTVSPost2010PropOp33
 70
     1
102
RTVSPost2010Prop34
280
     0
102
RTVSPost2010PropOp34
 70
     1
102
RTVSPost2010Prop35
280
     0
102
RTVSPost2010PropOp35
 70
     1
102
RTVSPost2010Prop36
280
     0
102
RTVSPost2010PropOp36
 70
     1
102
RTVSPost2010Prop37
 90
       50
102
RTVSPost2010PropOp37
 70
     1
102
RTVSPost2010Prop38
140
0.0
102
RTVSPost2010PropOp38
 70
     1
102
RTVSPost2010Prop39
140
1.0
102
RTVSPost2010PropOp39
 70
     1
102
RTVSPost2010Prop40
 90
        0
102
RTVSPost2010PropOp40
 70
     1
102
RTVSPost2010Prop41ColorIndex
 90
       18
102
RTVSPost2010Prop41ColorRGB
 90
        0
102
RTVSPost2010PropOp41
 70
     1
102
RTVSPost2010Prop42
 90
       50
102
RTVSPost2010PropOp42
 70
     1
102
RTVSPost2010Prop43
 90
        3
102
RTVSPost2010PropOp43
 70
     1
102
RTVSPost2010Prop44ColorIndex
 90
        5
102
RTVSPost2010Prop44ColorRGB
 90
      255
102
RTVSPost2010PropOp44
 70
     1
102
RTVSPost2010Prop45
280
     0
102
RTVSPost2010PropOp45
 70
     1
102
RTVSPost2010Prop46
 90
       50
102
RTVSPost2010PropOp46
 70
     1
102
RTVSPost2010Prop47
 90
       50
102
RTVSPost2010PropOp47
 70
     1
102
RTVSPost2010Prop48
 90
       50
102
RTVSPost2010PropOp48
 70
     1
102
RTVSPost2010Prop49
280
     0
102
RTVSPost2010PropOp49
 70
     1
102
RTVSPost2010Prop50
 90
       50
102
RTVSPost2010PropOp50
 70
     1
102
RTVSPost2010Prop51ColorIndex
 90
      256
102
RTVSPost2010Prop51ColorRGB
 90
-16777216
102
RTVSPost2010PropOp51
 70
     0
102
RTVSPost2010Prop52
140
1.0
102
RTVSPost2010PropOp52
 70
     0
102
RTVSPost2010Prop53
 90
        2
102
RTVSPost2010PropOp53
 70
     1
102
RTVSPost2010Prop54
  1
strokes_ogs.tif
102
RTVSPost2010PropOp54
 70
     1
102
RTVSPost2010Prop55
280
     0
102
RTVSPost2010PropOp55
 70
     1
102
RTVSPost2010Prop56
140
1.0
102
RTVSPost2010PropOp56
 70
     1
102
RTVSPost2010Prop57
140
1.0
102
RTVSPost2010PropOp57
 70
     1
102
RTVSPropertyOp0
 70
     1
102
RTVSPropertyOp1
 70
     1
102
RTVSPropertyOp2
 70
     1
102
RTVSPropertyOp3
 70
     1
102
RTVSPropertyOp4
 70
     1
102
RTVSPropertyOp5
 70
     1
102
RTVSPropertyOp6
 70
     1
102
RTVSPropertyOp7
 70
     1
102
RTVSPropertyOp8
 70
     1
102
RTVSPropertyOp9
 70
     1
102
RTVSPropertyOp10
 70
     1
102
RTVSPropertyOp11
 70
     1
102
RTVSPropertyOp12
 70
     1
102
RTVSPropertyOp13
 70
     1
102
RTVSPropertyOp14
 70
     1
102
RTVSPropertyOp15
 70
     1
102
RTVSPropertyOp16
 70
     1
102
RTVSPropertyOp17
 70
     1
102
RTVSPropertyOp18
 70
     1
102
RTVSPropertyOp19
 70
     1
102
RTVSPropertyOp20
 70
     1
102
RTVSPropertyOp21
 70
     1
102
RTVSPropertyOp22
 70
     1
102
RTVSPropertyOp23
 70
     1
102
RTVSPropertyOp24
 70
     1
102
RTVSPropertyOp25
 70
     1
102
RTVSPropertyOp26
 70
     1
102
RTVSPropertyOp27
 70
     1
102
RTVSPropertyOp28
 70
     1
102
RTVSPropertyOp29
 70
     1
102
RTVSPropertyOp30
 70
     1
102
RTVSPropertyOp31
 70
     1
102
RTVSPropertyOp32
 70
     1
102
RTVSPropertyOp33
 70
     1
102
RTVSPropertyOp34
 70
     1
102
RTVSPropertyOp35
 70
     1
102
RTVSPropertyOp36
 70
     1
102
RTVSPropertyOp37
 70
     1
102
RTVSPropertyOp38
 70
     1
102
RTVSPropertyOp39
 70
     1
102
RTVSPropertyOp40
 70
     1
102
RTVSPropertyOp41
 70
     1
102
RTVSPropertyOp42
 70
     1
102
RTVSPropertyOp43
 70
     1
102
RTVSPropertyOp44
 70
     1
102
RTVSPropertyOp45
 70
     1
102
RTVSPropertyOp46
 70
     1
102
RTVSPropertyOp47
 70
     1
102
RTVSPropertyOp48
 70
     1
102
RTVSPropertyOp49
 70
     1
102
RTVSPropertyOp50
 70
     1
102
RTVSPropertyOp51
 70
     0
102
RTVSPropertyOp52
 70
     0
102
RTVSPropertyOp53
 70
     1
102
RTVSPropertyOp54
 70
     1
102
RTVSPropertyOp55
 70
     1
102
RTVSPropertyOp56
 70
     1
102
RTVSPropertyOp57
 70
     1
102
RTVSPropertyOp58
 70
     1
102
RTVSPropertyOp59
 70
     1
102
RTVSPropertyOp60
 70
     1
102
RTVSPropertyOp61
 70
     1
102
RTVSPropertyOp62
 70
     1
  0
XRECORD
  5
4575
102
{ACAD_REACTORS
330
4574
102
}
330
4574
100
AcDbXrecord
280
     1
102
RTVSPost2010Prop28
280
     0
102
RTVSPost2010PropOp28
 70
     1
102
RTVSPost2010Prop29
280
     1
102
RTVSPost2010PropOp29
 70
     1
102
RTVSPost2010Prop30
280
     1
102
RTVSPost2010PropOp30
 70
     1
102
RTVSPost2010Prop31
280
     0
102
RTVSPost2010PropOp31
 70
     1
102
RTVSPost2010Prop32
280
     0
102
RTVSPost2010PropOp32
 70
     1
102
RTVSPost2010Prop33
280
     0
102
RTVSPost2010PropOp33
 70
     1
102
RTVSPost2010Prop34
280
     0
102
RTVSPost2010PropOp34
 70
     1
102
RTVSPost2010Prop35
280
     0
102
RTVSPost2010PropOp35
 70
     1
102
RTVSPost2010Prop36
280
     0
102
RTVSPost2010PropOp36
 70
     1
102
RTVSPost2010Prop37
 90
       50
102
RTVSPost2010PropOp37
 70
     1
102
RTVSPost2010Prop38
140
0.0
102
RTVSPost2010PropOp38
 70
     1
102
RTVSPost2010Prop39
140
1.0
102
RTVSPost2010PropOp39
 70
     1
102
RTVSPost2010Prop40
 90
        0
102
RTVSPost2010PropOp40
 70
     1
102
RTVSPost2010Prop41ColorIndex
 90
       18
102
RTVSPost2010Prop41ColorRGB
 90
        0
102
RTVSPost2010PropOp41
 70
     1
102
RTVSPost2010Prop42
 90
       50
102
RTVSPost2010PropOp42
 70
     1
102
RTVSPost2010Prop43
 90
        3
102
RTVSPost2010PropOp43
 70
     1
102
RTVSPost2010Prop44ColorIndex
 90
        5
102
RTVSPost2010Prop44ColorRGB
 90
      255
102
RTVSPost2010PropOp44
 70
     1
102
RTVSPost2010Prop45
280
     0
102
RTVSPost2010PropOp45
 70
     1
102
RTVSPost2010Prop46
 90
       50
102
RTVSPost2010PropOp46
 70
     1
102
RTVSPost2010Prop47
 90
       50
102
RTVSPost2010PropOp47
 70
     1
102
RTVSPost2010Prop48
 90
       50
102
RTVSPost2010PropOp48
 70
     1
102
RTVSPost2010Prop49
280
     0
102
RTVSPost2010PropOp49
 70
     1
102
RTVSPost2010Prop50
 90
       50
102
RTVSPost2010PropOp50
 70
     1
102
RTVSPost2010Prop51ColorIndex
 90
      256
102
RTVSPost2010Prop51ColorRGB
 90
-16777216
102
RTVSPost2010PropOp51
 70
     0
102
RTVSPost2010Prop52
140
1.0
102
RTVSPost2010PropOp52
 70
     0
102
RTVSPost2010Prop53
 90
        2
102
RTVSPost2010PropOp53
 70
     1
102
RTVSPost2010Prop54
  1
strokes_ogs.tif
102
RTVSPost2010PropOp54
 70
     1
102
RTVSPost2010Prop55
280
     0
102
RTVSPost2010PropOp55
 70
     1
102
RTVSPost2010Prop56
140
1.0
102
RTVSPost2010PropOp56
 70
     1
102
RTVSPost2010Prop57
140
1.0
102
RTVSPost2010PropOp57
 70
     1
102
RTVSPropertyOp0
 70
     1
102
RTVSPropertyOp1
 70
     1
102
RTVSPropertyOp2
 70
     1
102
RTVSPropertyOp3
 70
     1
102
RTVSPropertyOp4
 70
     1
102
RTVSPropertyOp5
 70
     1
102
RTVSPropertyOp6
 70
     1
102
RTVSPropertyOp7
 70
     1
102
RTVSPropertyOp8
 70
     1
102
RTVSPropertyOp9
 70
     1
102
RTVSPropertyOp10
 70
     1
102
RTVSPropertyOp11
 70
     1
102
RTVSPropertyOp12
 70
     1
102
RTVSPropertyOp13
 70
     1
102
RTVSPropertyOp14
 70
     1
102
RTVSPropertyOp15
 70
     1
102
RTVSPropertyOp16
 70
     1
102
RTVSPropertyOp17
 70
     1
102
RTVSPropertyOp18
 70
     1
102
RTVSPropertyOp19
 70
     1
102
RTVSPropertyOp20
 70
     1
102
RTVSPropertyOp21
 70
     1
102
RTVSPropertyOp22
 70
     1
102
RTVSPropertyOp23
 70
     1
102
RTVSPropertyOp24
 70
     1
102
RTVSPropertyOp25
 70
     1
102
RTVSPropertyOp26
 70
     1
102
RTVSPropertyOp27
 70
     1
102
RTVSPropertyOp28
 70
     1
102
RTVSPropertyOp29
 70
     1
102
RTVSPropertyOp30
 70
     1
102
RTVSPropertyOp31
 70
     1
102
RTVSPropertyOp32
 70
     1
102
RTVSPropertyOp33
 70
     1
102
RTVSPropertyOp34
 70
     1
102
RTVSPropertyOp35
 70
     1
102
RTVSPropertyOp36
 70
     1
102
RTVSPropertyOp37
 70
     1
102
RTVSPropertyOp38
 70
     1
102
RTVSPropertyOp39
 70
     1
102
RTVSPropertyOp40
 70
     1
102
RTVSPropertyOp41
 70
     1
102
RTVSPropertyOp42
 70
     1
102
RTVSPropertyOp43
 70
     1
102
RTVSPropertyOp44
 70
     1
102
RTVSPropertyOp45
 70
     1
102
RTVSPropertyOp46
 70
     1
102
RTVSPropertyOp47
 70
     1
102
RTVSPropertyOp48
 70
     1
102
RTVSPropertyOp49
 70
     1
102
RTVSPropertyOp50
 70
     1
102
RTVSPropertyOp51
 70
     0
102
RTVSPropertyOp52
 70
     0
102
RTVSPropertyOp53
 70
     1
102
RTVSPropertyOp54
 70
     1
102
RTVSPropertyOp55
 70
     1
102
RTVSPropertyOp56
 70
     1
102
RTVSPropertyOp57
 70
     1
102
RTVSPropertyOp58
 70
     1
102
RTVSPropertyOp59
 70
     1
102
RTVSPropertyOp60
 70
     1
102
RTVSPropertyOp61
 70
     1
102
RTVSPropertyOp62
 70
     1
  0
XRECORD
  5
4583
102
{ACAD_REACTORS
330
4582
102
}
330
4582
100
AcDbXrecord
280
     1
102
RTVSPost2010Prop28
280
     0
102
RTVSPost2010PropOp28
 70
     1
102
RTVSPost2010Prop29
280
     1
102
RTVSPost2010PropOp29
 70
     1
102
RTVSPost2010Prop30
280
     1
102
RTVSPost2010PropOp30
 70
     1
102
RTVSPost2010Prop31
280
     0
102
RTVSPost2010PropOp31
 70
     1
102
RTVSPost2010Prop32
280
     0
102
RTVSPost2010PropOp32
 70
     1
102
RTVSPost2010Prop33
280
     0
102
RTVSPost2010PropOp33
 70
     1
102
RTVSPost2010Prop34
280
     0
102
RTVSPost2010PropOp34
 70
     1
102
RTVSPost2010Prop35
280
     0
102
RTVSPost2010PropOp35
 70
     1
102
RTVSPost2010Prop36
280
     0
102
RTVSPost2010PropOp36
 70
     1
102
RTVSPost2010Prop37
 90
       50
102
RTVSPost2010PropOp37
 70
     1
102
RTVSPost2010Prop38
140
0.0
102
RTVSPost2010PropOp38
 70
     1
102
RTVSPost2010Prop39
140
1.0
102
RTVSPost2010PropOp39
 70
     1
102
RTVSPost2010Prop40
 90
        0
102
RTVSPost2010PropOp40
 70
     1
102
RTVSPost2010Prop41ColorIndex
 90
       18
102
RTVSPost2010Prop41ColorRGB
 90
        0
102
RTVSPost2010PropOp41
 70
     1
102
RTVSPost2010Prop42
 90
       50
102
RTVSPost2010PropOp42
 70
     1
102
RTVSPost2010Prop43
 90
        3
102
RTVSPost2010PropOp43
 70
     1
102
RTVSPost2010Prop44ColorIndex
 90
        5
102
RTVSPost2010Prop44ColorRGB
 90
      255
102
RTVSPost2010PropOp44
 70
     1
102
RTVSPost2010Prop45
280
     0
102
RTVSPost2010PropOp45
 70
     1
102
RTVSPost2010Prop46
 90
       50
102
RTVSPost2010PropOp46
 70
     1
102
RTVSPost2010Prop47
 90
       50
102
RTVSPost2010PropOp47
 70
     1
102
RTVSPost2010Prop48
 90
       50
102
RTVSPost2010PropOp48
 70
     1
102
RTVSPost2010Prop49
280
     0
102
RTVSPost2010PropOp49
 70
     1
102
RTVSPost2010Prop50
 90
       50
102
RTVSPost2010PropOp50
 70
     1
102
RTVSPost2010Prop51ColorIndex
 90
      256
102
RTVSPost2010Prop51ColorRGB
 90
-16777216
102
RTVSPost2010PropOp51
 70
     0
102
RTVSPost2010Prop52
140
1.0
102
RTVSPost2010PropOp52
 70
     0
102
RTVSPost2010Prop53
 90
        2
102
RTVSPost2010PropOp53
 70
     1
102
RTVSPost2010Prop54
  1
strokes_ogs.tif
102
RTVSPost2010PropOp54
 70
     1
102
RTVSPost2010Prop55
280
     0
102
RTVSPost2010PropOp55
 70
     1
102
RTVSPost2010Prop56
140
1.0
102
RTVSPost2010PropOp56
 70
     1
102
RTVSPost2010Prop57
140
1.0
102
RTVSPost2010PropOp57
 70
     1
102
RTVSPropertyOp0
 70
     1
102
RTVSPropertyOp1
 70
     1
102
RTVSPropertyOp2
 70
     1
102
RTVSPropertyOp3
 70
     1
102
RTVSPropertyOp4
 70
     1
102
RTVSPropertyOp5
 70
     1
102
RTVSPropertyOp6
 70
     1
102
RTVSPropertyOp7
 70
     1
102
RTVSPropertyOp8
 70
     1
102
RTVSPropertyOp9
 70
     1
102
RTVSPropertyOp10
 70
     1
102
RTVSPropertyOp11
 70
     1
102
RTVSPropertyOp12
 70
     1
102
RTVSPropertyOp13
 70
     1
102
RTVSPropertyOp14
 70
     1
102
RTVSPropertyOp15
 70
     1
102
RTVSPropertyOp16
 70
     1
102
RTVSPropertyOp17
 70
     1
102
RTVSPropertyOp18
 70
     1
102
RTVSPropertyOp19
 70
     1
102
RTVSPropertyOp20
 70
     1
102
RTVSPropertyOp21
 70
     1
102
RTVSPropertyOp22
 70
     1
102
RTVSPropertyOp23
 70
     1
102
RTVSPropertyOp24
 70
     1
102
RTVSPropertyOp25
 70
     1
102
RTVSPropertyOp26
 70
     1
102
RTVSPropertyOp27
 70
     1
102
RTVSPropertyOp28
 70
     1
102
RTVSPropertyOp29
 70
     1
102
RTVSPropertyOp30
 70
     1
102
RTVSPropertyOp31
 70
     1
102
RTVSPropertyOp32
 70
     1
102
RTVSPropertyOp33
 70
     1
102
RTVSPropertyOp34
 70
     1
102
RTVSPropertyOp35
 70
     1
102
RTVSPropertyOp36
 70
     1
102
RTVSPropertyOp37
 70
     1
102
RTVSPropertyOp38
 70
     1
102
RTVSPropertyOp39
 70
     1
102
RTVSPropertyOp40
 70
     1
102
RTVSPropertyOp41
 70
     1
102
RTVSPropertyOp42
 70
     1
102
RTVSPropertyOp43
 70
     1
102
RTVSPropertyOp44
 70
     1
102
RTVSPropertyOp45
 70
     1
102
RTVSPropertyOp46
 70
     1
102
RTVSPropertyOp47
 70
     1
102
RTVSPropertyOp48
 70
     1
102
RTVSPropertyOp49
 70
     1
102
RTVSPropertyOp50
 70
     1
102
RTVSPropertyOp51
 70
     0
102
RTVSPropertyOp52
 70
     0
102
RTVSPropertyOp53
 70
     1
102
RTVSPropertyOp54
 70
     1
102
RTVSPropertyOp55
 70
     1
102
RTVSPropertyOp56
 70
     1
102
RTVSPropertyOp57
 70
     1
102
RTVSPropertyOp58
 70
     1
102
RTVSPropertyOp59
 70
     1
102
RTVSPropertyOp60
 70
     1
102
RTVSPropertyOp61
 70
     1
102
RTVSPropertyOp62
 70
     1
  0
XRECORD
  5
458B
102
{ACAD_REACTORS
330
458A
102
}
330
458A
100
AcDbXrecord
280
     1
102
RTVSPost2010Prop28
280
     0
102
RTVSPost2010PropOp28
 70
     1
102
RTVSPost2010Prop29
280
     1
102
RTVSPost2010PropOp29
 70
     1
102
RTVSPost2010Prop30
280
     1
102
RTVSPost2010PropOp30
 70
     1
102
RTVSPost2010Prop31
280
     0
102
RTVSPost2010PropOp31
 70
     1
102
RTVSPost2010Prop32
280
     0
102
RTVSPost2010PropOp32
 70
     1
102
RTVSPost2010Prop33
280
     0
102
RTVSPost2010PropOp33
 70
     1
102
RTVSPost2010Prop34
280
     0
102
RTVSPost2010PropOp34
 70
     1
102
RTVSPost2010Prop35
280
     0
102
RTVSPost2010PropOp35
 70
     1
102
RTVSPost2010Prop36
280
     0
102
RTVSPost2010PropOp36
 70
     1
102
RTVSPost2010Prop37
 90
       50
102
RTVSPost2010PropOp37
 70
     1
102
RTVSPost2010Prop38
140
0.0
102
RTVSPost2010PropOp38
 70
     1
102
RTVSPost2010Prop39
140
1.0
102
RTVSPost2010PropOp39
 70
     1
102
RTVSPost2010Prop40
 90
        0
102
RTVSPost2010PropOp40
 70
     1
102
RTVSPost2010Prop41ColorIndex
 90
       18
102
RTVSPost2010Prop41ColorRGB
 90
        0
102
RTVSPost2010PropOp41
 70
     1
102
RTVSPost2010Prop42
 90
       50
102
RTVSPost2010PropOp42
 70
     1
102
RTVSPost2010Prop43
 90
        3
102
RTVSPost2010PropOp43
 70
     1
102
RTVSPost2010Prop44ColorIndex
 90
        5
102
RTVSPost2010Prop44ColorRGB
 90
      255
102
RTVSPost2010PropOp44
 70
     1
102
RTVSPost2010Prop45
280
     0
102
RTVSPost2010PropOp45
 70
     1
102
RTVSPost2010Prop46
 90
       50
102
RTVSPost2010PropOp46
 70
     1
102
RTVSPost2010Prop47
 90
       50
102
RTVSPost2010PropOp47
 70
     1
102
RTVSPost2010Prop48
 90
       50
102
RTVSPost2010PropOp48
 70
     1
102
RTVSPost2010Prop49
280
     0
102
RTVSPost2010PropOp49
 70
     1
102
RTVSPost2010Prop50
 90
       50
102
RTVSPost2010PropOp50
 70
     1
102
RTVSPost2010Prop51ColorIndex
 90
      256
102
RTVSPost2010Prop51ColorRGB
 90
-16777216
102
RTVSPost2010PropOp51
 70
     0
102
RTVSPost2010Prop52
140
1.0
102
RTVSPost2010PropOp52
 70
     0
102
RTVSPost2010Prop53
 90
        2
102
RTVSPost2010PropOp53
 70
     1
102
RTVSPost2010Prop54
  1
strokes_ogs.tif
102
RTVSPost2010PropOp54
 70
     1
102
RTVSPost2010Prop55
280
     0
102
RTVSPost2010PropOp55
 70
     1
102
RTVSPost2010Prop56
140
1.0
102
RTVSPost2010PropOp56
 70
     1
102
RTVSPost2010Prop57
140
1.0
102
RTVSPost2010PropOp57
 70
     1
102
RTVSPropertyOp0
 70
     1
102
RTVSPropertyOp1
 70
     1
102
RTVSPropertyOp2
 70
     1
102
RTVSPropertyOp3
 70
     1
102
RTVSPropertyOp4
 70
     1
102
RTVSPropertyOp5
 70
     1
102
RTVSPropertyOp6
 70
     1
102
RTVSPropertyOp7
 70
     1
102
RTVSPropertyOp8
 70
     1
102
RTVSPropertyOp9
 70
     1
102
RTVSPropertyOp10
 70
     1
102
RTVSPropertyOp11
 70
     1
102
RTVSPropertyOp12
 70
     1
102
RTVSPropertyOp13
 70
     1
102
RTVSPropertyOp14
 70
     1
102
RTVSPropertyOp15
 70
     1
102
RTVSPropertyOp16
 70
     1
102
RTVSPropertyOp17
 70
     1
102
RTVSPropertyOp18
 70
     1
102
RTVSPropertyOp19
 70
     1
102
RTVSPropertyOp20
 70
     1
102
RTVSPropertyOp21
 70
     1
102
RTVSPropertyOp22
 70
     1
102
RTVSPropertyOp23
 70
     1
102
RTVSPropertyOp24
 70
     1
102
RTVSPropertyOp25
 70
     1
102
RTVSPropertyOp26
 70
     1
102
RTVSPropertyOp27
 70
     1
102
RTVSPropertyOp28
 70
     1
102
RTVSPropertyOp29
 70
     1
102
RTVSPropertyOp30
 70
     1
102
RTVSPropertyOp31
 70
     1
102
RTVSPropertyOp32
 70
     1
102
RTVSPropertyOp33
 70
     1
102
RTVSPropertyOp34
 70
     1
102
RTVSPropertyOp35
 70
     1
102
RTVSPropertyOp36
 70
     1
102
RTVSPropertyOp37
 70
     1
102
RTVSPropertyOp38
 70
     1
102
RTVSPropertyOp39
 70
     1
102
RTVSPropertyOp40
 70
     1
102
RTVSPropertyOp41
 70
     1
102
RTVSPropertyOp42
 70
     1
102
RTVSPropertyOp43
 70
     1
102
RTVSPropertyOp44
 70
     1
102
RTVSPropertyOp45
 70
     1
102
RTVSPropertyOp46
 70
     1
102
RTVSPropertyOp47
 70
     1
102
RTVSPropertyOp48
 70
     1
102
RTVSPropertyOp49
 70
     1
102
RTVSPropertyOp50
 70
     1
102
RTVSPropertyOp51
 70
     0
102
RTVSPropertyOp52
 70
     0
102
RTVSPropertyOp53
 70
     1
102
RTVSPropertyOp54
 70
     1
102
RTVSPropertyOp55
 70
     1
102
RTVSPropertyOp56
 70
     1
102
RTVSPropertyOp57
 70
     1
102
RTVSPropertyOp58
 70
     1
102
RTVSPropertyOp59
 70
     1
102
RTVSPropertyOp60
 70
     1
102
RTVSPropertyOp61
 70
     1
102
RTVSPropertyOp62
 70
     1
  0
XRECORD
  5
457D
102
{ACAD_REACTORS
330
457C
102
}
330
457C
100
AcDbXrecord
280
     1
102
RTVSPost2010Prop28
280
     0
102
RTVSPost2010PropOp28
 70
     1
102
RTVSPost2010Prop29
280
     1
102
RTVSPost2010PropOp29
 70
     1
102
RTVSPost2010Prop30
280
     1
102
RTVSPost2010PropOp30
 70
     1
102
RTVSPost2010Prop31
280
     0
102
RTVSPost2010PropOp31
 70
     1
102
RTVSPost2010Prop32
280
     0
102
RTVSPost2010PropOp32
 70
     1
102
RTVSPost2010Prop33
280
     0
102
RTVSPost2010PropOp33
 70
     1
102
RTVSPost2010Prop34
280
     0
102
RTVSPost2010PropOp34
 70
     1
102
RTVSPost2010Prop35
280
     0
102
RTVSPost2010PropOp35
 70
     1
102
RTVSPost2010Prop36
280
     0
102
RTVSPost2010PropOp36
 70
     1
102
RTVSPost2010Prop37
 90
       50
102
RTVSPost2010PropOp37
 70
     1
102
RTVSPost2010Prop38
140
0.0
102
RTVSPost2010PropOp38
 70
     1
102
RTVSPost2010Prop39
140
1.0
102
RTVSPost2010PropOp39
 70
     1
102
RTVSPost2010Prop40
 90
        0
102
RTVSPost2010PropOp40
 70
     1
102
RTVSPost2010Prop41ColorIndex
 90
       18
102
RTVSPost2010Prop41ColorRGB
 90
        0
102
RTVSPost2010PropOp41
 70
     1
102
RTVSPost2010Prop42
 90
       50
102
RTVSPost2010PropOp42
 70
     1
102
RTVSPost2010Prop43
 90
        3
102
RTVSPost2010PropOp43
 70
     1
102
RTVSPost2010Prop44ColorIndex
 90
        5
102
RTVSPost2010Prop44ColorRGB
 90
      255
102
RTVSPost2010PropOp44
 70
     1
102
RTVSPost2010Prop45
280
     0
102
RTVSPost2010PropOp45
 70
     1
102
RTVSPost2010Prop46
 90
       50
102
RTVSPost2010PropOp46
 70
     1
102
RTVSPost2010Prop47
 90
       50
102
RTVSPost2010PropOp47
 70
     1
102
RTVSPost2010Prop48
 90
       50
102
RTVSPost2010PropOp48
 70
     1
102
RTVSPost2010Prop49
280
     0
102
RTVSPost2010PropOp49
 70
     1
102
RTVSPost2010Prop50
 90
       50
102
RTVSPost2010PropOp50
 70
     1
102
RTVSPost2010Prop51ColorIndex
 90
      256
102
RTVSPost2010Prop51ColorRGB
 90
-16777216
102
RTVSPost2010PropOp51
 70
     0
102
RTVSPost2010Prop52
140
1.0
102
RTVSPost2010PropOp52
 70
     0
102
RTVSPost2010Prop53
 90
        2
102
RTVSPost2010PropOp53
 70
     1
102
RTVSPost2010Prop54
  1
strokes_ogs.tif
102
RTVSPost2010PropOp54
 70
     1
102
RTVSPost2010Prop55
280
     0
102
RTVSPost2010PropOp55
 70
     1
102
RTVSPost2010Prop56
140
1.0
102
RTVSPost2010PropOp56
 70
     1
102
RTVSPost2010Prop57
140
1.0
102
RTVSPost2010PropOp57
 70
     1
102
RTVSPropertyOp0
 70
     1
102
RTVSPropertyOp1
 70
     1
102
RTVSPropertyOp2
 70
     1
102
RTVSPropertyOp3
 70
     1
102
RTVSPropertyOp4
 70
     1
102
RTVSPropertyOp5
 70
     1
102
RTVSPropertyOp6
 70
     1
102
RTVSPropertyOp7
 70
     1
102
RTVSPropertyOp8
 70
     1
102
RTVSPropertyOp9
 70
     1
102
RTVSPropertyOp10
 70
     1
102
RTVSPropertyOp11
 70
     1
102
RTVSPropertyOp12
 70
     1
102
RTVSPropertyOp13
 70
     1
102
RTVSPropertyOp14
 70
     1
102
RTVSPropertyOp15
 70
     1
102
RTVSPropertyOp16
 70
     1
102
RTVSPropertyOp17
 70
     1
102
RTVSPropertyOp18
 70
     1
102
RTVSPropertyOp19
 70
     1
102
RTVSPropertyOp20
 70
     1
102
RTVSPropertyOp21
 70
     1
102
RTVSPropertyOp22
 70
     1
102
RTVSPropertyOp23
 70
     1
102
RTVSPropertyOp24
 70
     1
102
RTVSPropertyOp25
 70
     1
102
RTVSPropertyOp26
 70
     1
102
RTVSPropertyOp27
 70
     1
102
RTVSPropertyOp28
 70
     1
102
RTVSPropertyOp29
 70
     1
102
RTVSPropertyOp30
 70
     1
102
RTVSPropertyOp31
 70
     1
102
RTVSPropertyOp32
 70
     1
102
RTVSPropertyOp33
 70
     1
102
RTVSPropertyOp34
 70
     1
102
RTVSPropertyOp35
 70
     1
102
RTVSPropertyOp36
 70
     1
102
RTVSPropertyOp37
 70
     1
102
RTVSPropertyOp38
 70
     1
102
RTVSPropertyOp39
 70
     1
102
RTVSPropertyOp40
 70
     1
102
RTVSPropertyOp41
 70
     1
102
RTVSPropertyOp42
 70
     1
102
RTVSPropertyOp43
 70
     1
102
RTVSPropertyOp44
 70
     1
102
RTVSPropertyOp45
 70
     1
102
RTVSPropertyOp46
 70
     1
102
RTVSPropertyOp47
 70
     1
102
RTVSPropertyOp48
 70
     1
102
RTVSPropertyOp49
 70
     1
102
RTVSPropertyOp50
 70
     1
102
RTVSPropertyOp51
 70
     0
102
RTVSPropertyOp52
 70
     0
102
RTVSPropertyOp53
 70
     1
102
RTVSPropertyOp54
 70
     1
102
RTVSPropertyOp55
 70
     1
102
RTVSPropertyOp56
 70
     1
102
RTVSPropertyOp57
 70
     1
102
RTVSPropertyOp58
 70
     1
102
RTVSPropertyOp59
 70
     1
102
RTVSPropertyOp60
 70
     1
102
RTVSPropertyOp61
 70
     1
102
RTVSPropertyOp62
 70
     1
  0
XRECORD
  5
4581
102
{ACAD_REACTORS
330
4580
102
}
330
4580
100
AcDbXrecord
280
     1
102
RTVSPost2010Prop28
280
     0
102
RTVSPost2010PropOp28
 70
     1
102
RTVSPost2010Prop29
280
     1
102
RTVSPost2010PropOp29
 70
     1
102
RTVSPost2010Prop30
280
     1
102
RTVSPost2010PropOp30
 70
     1
102
RTVSPost2010Prop31
280
     0
102
RTVSPost2010PropOp31
 70
     1
102
RTVSPost2010Prop32
280
     0
102
RTVSPost2010PropOp32
 70
     1
102
RTVSPost2010Prop33
280
     0
102
RTVSPost2010PropOp33
 70
     1
102
RTVSPost2010Prop34
280
     0
102
RTVSPost2010PropOp34
 70
     1
102
RTVSPost2010Prop35
280
     0
102
RTVSPost2010PropOp35
 70
     1
102
RTVSPost2010Prop36
280
     0
102
RTVSPost2010PropOp36
 70
     1
102
RTVSPost2010Prop37
 90
       50
102
RTVSPost2010PropOp37
 70
     1
102
RTVSPost2010Prop38
140
0.0
102
RTVSPost2010PropOp38
 70
     1
102
RTVSPost2010Prop39
140
1.0
102
RTVSPost2010PropOp39
 70
     1
102
RTVSPost2010Prop40
 90
        0
102
RTVSPost2010PropOp40
 70
     1
102
RTVSPost2010Prop41ColorIndex
 90
       18
102
RTVSPost2010Prop41ColorRGB
 90
        0
102
RTVSPost2010PropOp41
 70
     1
102
RTVSPost2010Prop42
 90
       50
102
RTVSPost2010PropOp42
 70
     1
102
RTVSPost2010Prop43
 90
        3
102
RTVSPost2010PropOp43
 70
     1
102
RTVSPost2010Prop44ColorIndex
 90
        5
102
RTVSPost2010Prop44ColorRGB
 90
      255
102
RTVSPost2010PropOp44
 70
     1
102
RTVSPost2010Prop45
280
     0
102
RTVSPost2010PropOp45
 70
     1
102
RTVSPost2010Prop46
 90
       50
102
RTVSPost2010PropOp46
 70
     1
102
RTVSPost2010Prop47
 90
       50
102
RTVSPost2010PropOp47
 70
     1
102
RTVSPost2010Prop48
 90
       50
102
RTVSPost2010PropOp48
 70
     1
102
RTVSPost2010Prop49
280
     0
102
RTVSPost2010PropOp49
 70
     1
102
RTVSPost2010Prop50
 90
       50
102
RTVSPost2010PropOp50
 70
     1
102
RTVSPost2010Prop51ColorIndex
 90
      256
102
RTVSPost2010Prop51ColorRGB
 90
-16777216
102
RTVSPost2010PropOp51
 70
     0
102
RTVSPost2010Prop52
140
1.0
102
RTVSPost2010PropOp52
 70
     0
102
RTVSPost2010Prop53
 90
        2
102
RTVSPost2010PropOp53
 70
     1
102
RTVSPost2010Prop54
  1
strokes_ogs.tif
102
RTVSPost2010PropOp54
 70
     1
102
RTVSPost2010Prop55
280
     0
102
RTVSPost2010PropOp55
 70
     1
102
RTVSPost2010Prop56
140
1.0
102
RTVSPost2010PropOp56
 70
     1
102
RTVSPost2010Prop57
140
1.0
102
RTVSPost2010PropOp57
 70
     1
102
RTVSPropertyOp0
 70
     1
102
RTVSPropertyOp1
 70
     1
102
RTVSPropertyOp2
 70
     1
102
RTVSPropertyOp3
 70
     1
102
RTVSPropertyOp4
 70
     1
102
RTVSPropertyOp5
 70
     1
102
RTVSPropertyOp6
 70
     1
102
RTVSPropertyOp7
 70
     1
102
RTVSPropertyOp8
 70
     1
102
RTVSPropertyOp9
 70
     1
102
RTVSPropertyOp10
 70
     1
102
RTVSPropertyOp11
 70
     1
102
RTVSPropertyOp12
 70
     1
102
RTVSPropertyOp13
 70
     1
102
RTVSPropertyOp14
 70
     1
102
RTVSPropertyOp15
 70
     1
102
RTVSPropertyOp16
 70
     1
102
RTVSPropertyOp17
 70
     1
102
RTVSPropertyOp18
 70
     1
102
RTVSPropertyOp19
 70
     1
102
RTVSPropertyOp20
 70
     1
102
RTVSPropertyOp21
 70
     1
102
RTVSPropertyOp22
 70
     1
102
RTVSPropertyOp23
 70
     1
102
RTVSPropertyOp24
 70
     1
102
RTVSPropertyOp25
 70
     1
102
RTVSPropertyOp26
 70
     1
102
RTVSPropertyOp27
 70
     1
102
RTVSPropertyOp28
 70
     1
102
RTVSPropertyOp29
 70
     1
102
RTVSPropertyOp30
 70
     1
102
RTVSPropertyOp31
 70
     1
102
RTVSPropertyOp32
 70
     1
102
RTVSPropertyOp33
 70
     1
102
RTVSPropertyOp34
 70
     1
102
RTVSPropertyOp35
 70
     1
102
RTVSPropertyOp36
 70
     1
102
RTVSPropertyOp37
 70
     1
102
RTVSPropertyOp38
 70
     1
102
RTVSPropertyOp39
 70
     1
102
RTVSPropertyOp40
 70
     1
102
RTVSPropertyOp41
 70
     1
102
RTVSPropertyOp42
 70
     1
102
RTVSPropertyOp43
 70
     1
102
RTVSPropertyOp44
 70
     1
102
RTVSPropertyOp45
 70
     1
102
RTVSPropertyOp46
 70
     1
102
RTVSPropertyOp47
 70
     1
102
RTVSPropertyOp48
 70
     1
102
RTVSPropertyOp49
 70
     1
102
RTVSPropertyOp50
 70
     1
102
RTVSPropertyOp51
 70
     0
102
RTVSPropertyOp52
 70
     0
102
RTVSPropertyOp53
 70
     1
102
RTVSPropertyOp54
 70
     1
102
RTVSPropertyOp55
 70
     1
102
RTVSPropertyOp56
 70
     1
102
RTVSPropertyOp57
 70
     1
102
RTVSPropertyOp58
 70
     1
102
RTVSPropertyOp59
 70
     1
102
RTVSPropertyOp60
 70
     1
102
RTVSPropertyOp61
 70
     1
102
RTVSPropertyOp62
 70
     1
  0
XRECORD
  5
4593
102
{ACAD_REACTORS
330
4592
102
}
330
4592
100
AcDbXrecord
280
     1
102
RTVSPost2010Prop28
280
     0
102
RTVSPost2010PropOp28
 70
     1
102
RTVSPost2010Prop29
280
     1
102
RTVSPost2010PropOp29
 70
     1
102
RTVSPost2010Prop30
280
     1
102
RTVSPost2010PropOp30
 70
     1
102
RTVSPost2010Prop31
280
     0
102
RTVSPost2010PropOp31
 70
     1
102
RTVSPost2010Prop32
280
     0
102
RTVSPost2010PropOp32
 70
     1
102
RTVSPost2010Prop33
280
     0
102
RTVSPost2010PropOp33
 70
     1
102
RTVSPost2010Prop34
280
     0
102
RTVSPost2010PropOp34
 70
     1
102
RTVSPost2010Prop35
280
     0
102
RTVSPost2010PropOp35
 70
     1
102
RTVSPost2010Prop36
280
     0
102
RTVSPost2010PropOp36
 70
     1
102
RTVSPost2010Prop37
 90
       50
102
RTVSPost2010PropOp37
 70
     1
102
RTVSPost2010Prop38
140
0.0
102
RTVSPost2010PropOp38
 70
     1
102
RTVSPost2010Prop39
140
1.0
102
RTVSPost2010PropOp39
 70
     1
102
RTVSPost2010Prop40
 90
        0
102
RTVSPost2010PropOp40
 70
     1
102
RTVSPost2010Prop41ColorIndex
 90
       18
102
RTVSPost2010Prop41ColorRGB
 90
        0
102
RTVSPost2010PropOp41
 70
     1
102
RTVSPost2010Prop42
 90
       50
102
RTVSPost2010PropOp42
 70
     1
102
RTVSPost2010Prop43
 90
        3
102
RTVSPost2010PropOp43
 70
     1
102
RTVSPost2010Prop44ColorIndex
 90
        5
102
RTVSPost2010Prop44ColorRGB
 90
      255
102
RTVSPost2010PropOp44
 70
     1
102
RTVSPost2010Prop45
280
     0
102
RTVSPost2010PropOp45
 70
     1
102
RTVSPost2010Prop46
 90
       50
102
RTVSPost2010PropOp46
 70
     1
102
RTVSPost2010Prop47
 90
       50
102
RTVSPost2010PropOp47
 70
     1
102
RTVSPost2010Prop48
 90
       50
102
RTVSPost2010PropOp48
 70
     1
102
RTVSPost2010Prop49
280
     0
102
RTVSPost2010PropOp49
 70
     1
102
RTVSPost2010Prop50
 90
       50
102
RTVSPost2010PropOp50
 70
     1
102
RTVSPost2010Prop51ColorIndex
 90
      256
102
RTVSPost2010Prop51ColorRGB
 90
-16777216
102
RTVSPost2010PropOp51
 70
     0
102
RTVSPost2010Prop52
140
1.0
102
RTVSPost2010PropOp52
 70
     0
102
RTVSPost2010Prop53
 90
        2
102
RTVSPost2010PropOp53
 70
     1
102
RTVSPost2010Prop54
  1
strokes_ogs.tif
102
RTVSPost2010PropOp54
 70
     1
102
RTVSPost2010Prop55
280
     0
102
RTVSPost2010PropOp55
 70
     1
102
RTVSPost2010Prop56
140
1.0
102
RTVSPost2010PropOp56
 70
     1
102
RTVSPost2010Prop57
140
1.0
102
RTVSPost2010PropOp57
 70
     1
102
RTVSPropertyOp0
 70
     0
102
RTVSPropertyOp1
 70
     0
102
RTVSPropertyOp2
 70
     0
102
RTVSPropertyOp3
 70
     0
102
RTVSPropertyOp4
 70
     0
102
RTVSPropertyOp5
 70
     0
102
RTVSPropertyOp6
 70
     0
102
RTVSPropertyOp7
 70
     0
102
RTVSPropertyOp8
 70
     0
102
RTVSPropertyOp9
 70
     0
102
RTVSPropertyOp10
 70
     0
102
RTVSPropertyOp11
 70
     0
102
RTVSPropertyOp12
 70
     0
102
RTVSPropertyOp13
 70
     0
102
RTVSPropertyOp14
 70
     2
102
RTVSPropertyOp15
 70
     0
102
RTVSPropertyOp16
 70
     0
102
RTVSPropertyOp17
 70
     0
102
RTVSPropertyOp18
 70
     0
102
RTVSPropertyOp19
 70
     0
102
RTVSPropertyOp20
 70
     0
102
RTVSPropertyOp21
 70
     0
102
RTVSPropertyOp22
 70
     0
102
RTVSPropertyOp23
 70
     0
102
RTVSPropertyOp24
 70
     0
102
RTVSPropertyOp25
 70
     0
102
RTVSPropertyOp26
 70
     0
102
RTVSPropertyOp27
 70
     0
102
RTVSPropertyOp28
 70
     1
102
RTVSPropertyOp29
 70
     1
102
RTVSPropertyOp30
 70
     1
102
RTVSPropertyOp31
 70
     1
102
RTVSPropertyOp32
 70
     1
102
RTVSPropertyOp33
 70
     1
102
RTVSPropertyOp34
 70
     1
102
RTVSPropertyOp35
 70
     1
102
RTVSPropertyOp36
 70
     1
102
RTVSPropertyOp37
 70
     1
102
RTVSPropertyOp38
 70
     1
102
RTVSPropertyOp39
 70
     1
102
RTVSPropertyOp40
 70
     1
102
RTVSPropertyOp41
 70
     1
102
RTVSPropertyOp42
 70
     1
102
RTVSPropertyOp43
 70
     1
102
RTVSPropertyOp44
 70
     1
102
RTVSPropertyOp45
 70
     1
102
RTVSPropertyOp46
 70
     1
102
RTVSPropertyOp47
 70
     1
102
RTVSPropertyOp48
 70
     1
102
RTVSPropertyOp49
 70
     1
102
RTVSPropertyOp50
 70
     1
102
RTVSPropertyOp51
 70
     0
102
RTVSPropertyOp52
 70
     0
102
RTVSPropertyOp53
 70
     1
102
RTVSPropertyOp54
 70
     1
102
RTVSPropertyOp55
 70
     1
102
RTVSPropertyOp56
 70
     1
102
RTVSPropertyOp57
 70
     1
102
RTVSPropertyOp58
 70
     1
102
RTVSPropertyOp59
 70
     1
102
RTVSPropertyOp60
 70
     1
102
RTVSPropertyOp61
 70
     1
102
RTVSPropertyOp62
 70
     1
  0
XRECORD
  5
4589
102
{ACAD_REACTORS
330
4588
102
}
330
4588
100
AcDbXrecord
280
     1
102
RTVSPost2010Prop28
280
     0
102
RTVSPost2010PropOp28
 70
     1
102
RTVSPost2010Prop29
280
     1
102
RTVSPost2010PropOp29
 70
     1
102
RTVSPost2010Prop30
280
     1
102
RTVSPost2010PropOp30
 70
     1
102
RTVSPost2010Prop31
280
     0
102
RTVSPost2010PropOp31
 70
     1
102
RTVSPost2010Prop32
280
     0
102
RTVSPost2010PropOp32
 70
     1
102
RTVSPost2010Prop33
280
     0
102
RTVSPost2010PropOp33
 70
     1
102
RTVSPost2010Prop34
280
     0
102
RTVSPost2010PropOp34
 70
     1
102
RTVSPost2010Prop35
280
     0
102
RTVSPost2010PropOp35
 70
     1
102
RTVSPost2010Prop36
280
     0
102
RTVSPost2010PropOp36
 70
     1
102
RTVSPost2010Prop37
 90
       50
102
RTVSPost2010PropOp37
 70
     1
102
RTVSPost2010Prop38
140
0.0
102
RTVSPost2010PropOp38
 70
     1
102
RTVSPost2010Prop39
140
1.0
102
RTVSPost2010PropOp39
 70
     1
102
RTVSPost2010Prop40
 90
        0
102
RTVSPost2010PropOp40
 70
     1
102
RTVSPost2010Prop41ColorIndex
 90
       18
102
RTVSPost2010Prop41ColorRGB
 90
        0
102
RTVSPost2010PropOp41
 70
     1
102
RTVSPost2010Prop42
 90
       50
102
RTVSPost2010PropOp42
 70
     1
102
RTVSPost2010Prop43
 90
        3
102
RTVSPost2010PropOp43
 70
     1
102
RTVSPost2010Prop44ColorIndex
 90
        5
102
RTVSPost2010Prop44ColorRGB
 90
      255
102
RTVSPost2010PropOp44
 70
     1
102
RTVSPost2010Prop45
280
     0
102
RTVSPost2010PropOp45
 70
     1
102
RTVSPost2010Prop46
 90
       50
102
RTVSPost2010PropOp46
 70
     1
102
RTVSPost2010Prop47
 90
       50
102
RTVSPost2010PropOp47
 70
     1
102
RTVSPost2010Prop48
 90
       50
102
RTVSPost2010PropOp48
 70
     1
102
RTVSPost2010Prop49
280
     0
102
RTVSPost2010PropOp49
 70
     1
102
RTVSPost2010Prop50
 90
       50
102
RTVSPost2010PropOp50
 70
     1
102
RTVSPost2010Prop51ColorIndex
 90
      256
102
RTVSPost2010Prop51ColorRGB
 90
-16777216
102
RTVSPost2010PropOp51
 70
     0
102
RTVSPost2010Prop52
140
1.0
102
RTVSPost2010PropOp52
 70
     0
102
RTVSPost2010Prop53
 90
        2
102
RTVSPost2010PropOp53
 70
     1
102
RTVSPost2010Prop54
  1
strokes_ogs.tif
102
RTVSPost2010PropOp54
 70
     1
102
RTVSPost2010Prop55
280
     0
102
RTVSPost2010PropOp55
 70
     1
102
RTVSPost2010Prop56
140
1.0
102
RTVSPost2010PropOp56
 70
     1
102
RTVSPost2010Prop57
140
1.0
102
RTVSPost2010PropOp57
 70
     1
102
RTVSPropertyOp0
 70
     1
102
RTVSPropertyOp1
 70
     1
102
RTVSPropertyOp2
 70
     1
102
RTVSPropertyOp3
 70
     1
102
RTVSPropertyOp4
 70
     1
102
RTVSPropertyOp5
 70
     1
102
RTVSPropertyOp6
 70
     1
102
RTVSPropertyOp7
 70
     1
102
RTVSPropertyOp8
 70
     1
102
RTVSPropertyOp9
 70
     1
102
RTVSPropertyOp10
 70
     1
102
RTVSPropertyOp11
 70
     1
102
RTVSPropertyOp12
 70
     1
102
RTVSPropertyOp13
 70
     1
102
RTVSPropertyOp14
 70
     1
102
RTVSPropertyOp15
 70
     1
102
RTVSPropertyOp16
 70
     1
102
RTVSPropertyOp17
 70
     1
102
RTVSPropertyOp18
 70
     1
102
RTVSPropertyOp19
 70
     1
102
RTVSPropertyOp20
 70
     1
102
RTVSPropertyOp21
 70
     1
102
RTVSPropertyOp22
 70
     1
102
RTVSPropertyOp23
 70
     1
102
RTVSPropertyOp24
 70
     1
102
RTVSPropertyOp25
 70
     1
102
RTVSPropertyOp26
 70
     1
102
RTVSPropertyOp27
 70
     1
102
RTVSPropertyOp28
 70
     1
102
RTVSPropertyOp29
 70
     1
102
RTVSPropertyOp30
 70
     1
102
RTVSPropertyOp31
 70
     1
102
RTVSPropertyOp32
 70
     1
102
RTVSPropertyOp33
 70
     1
102
RTVSPropertyOp34
 70
     1
102
RTVSPropertyOp35
 70
     1
102
RTVSPropertyOp36
 70
     1
102
RTVSPropertyOp37
 70
     1
102
RTVSPropertyOp38
 70
     1
102
RTVSPropertyOp39
 70
     1
102
RTVSPropertyOp40
 70
     1
102
RTVSPropertyOp41
 70
     1
102
RTVSPropertyOp42
 70
     1
102
RTVSPropertyOp43
 70
     1
102
RTVSPropertyOp44
 70
     1
102
RTVSPropertyOp45
 70
     1
102
RTVSPropertyOp46
 70
     1
102
RTVSPropertyOp47
 70
     1
102
RTVSPropertyOp48
 70
     1
102
RTVSPropertyOp49
 70
     1
102
RTVSPropertyOp50
 70
     1
102
RTVSPropertyOp51
 70
     0
102
RTVSPropertyOp52
 70
     0
102
RTVSPropertyOp53
 70
     1
102
RTVSPropertyOp54
 70
     1
102
RTVSPropertyOp55
 70
     1
102
RTVSPropertyOp56
 70
     1
102
RTVSPropertyOp57
 70
     1
102
RTVSPropertyOp58
 70
     1
102
RTVSPropertyOp59
 70
     1
102
RTVSPropertyOp60
 70
     1
102
RTVSPropertyOp61
 70
     1
102
RTVSPropertyOp62
 70
     1
  0
XRECORD
  5
456D
102
{ACAD_REACTORS
330
456C
102
}
330
456C
100
AcDbXrecord
280
     1
102
RTVSPost2010Prop28
280
     0
102
RTVSPost2010PropOp28
 70
     1
102
RTVSPost2010Prop29
280
     1
102
RTVSPost2010PropOp29
 70
     1
102
RTVSPost2010Prop30
280
     1
102
RTVSPost2010PropOp30
 70
     1
102
RTVSPost2010Prop31
280
     0
102
RTVSPost2010PropOp31
 70
     1
102
RTVSPost2010Prop32
280
     0
102
RTVSPost2010PropOp32
 70
     1
102
RTVSPost2010Prop33
280
     0
102
RTVSPost2010PropOp33
 70
     1
102
RTVSPost2010Prop34
280
     0
102
RTVSPost2010PropOp34
 70
     1
102
RTVSPost2010Prop35
280
     0
102
RTVSPost2010PropOp35
 70
     1
102
RTVSPost2010Prop36
280
     0
102
RTVSPost2010PropOp36
 70
     1
102
RTVSPost2010Prop37
 90
       50
102
RTVSPost2010PropOp37
 70
     1
102
RTVSPost2010Prop38
140
0.0
102
RTVSPost2010PropOp38
 70
     1
102
RTVSPost2010Prop39
140
1.0
102
RTVSPost2010PropOp39
 70
     1
102
RTVSPost2010Prop40
 90
        0
102
RTVSPost2010PropOp40
 70
     1
102
RTVSPost2010Prop41ColorIndex
 90
       18
102
RTVSPost2010Prop41ColorRGB
 90
        0
102
RTVSPost2010PropOp41
 70
     1
102
RTVSPost2010Prop42
 90
       50
102
RTVSPost2010PropOp42
 70
     1
102
RTVSPost2010Prop43
 90
        3
102
RTVSPost2010PropOp43
 70
     1
102
RTVSPost2010Prop44ColorIndex
 90
        5
102
RTVSPost2010Prop44ColorRGB
 90
      255
102
RTVSPost2010PropOp44
 70
     1
102
RTVSPost2010Prop45
280
     0
102
RTVSPost2010PropOp45
 70
     1
102
RTVSPost2010Prop46
 90
       50
102
RTVSPost2010PropOp46
 70
     1
102
RTVSPost2010Prop47
 90
       50
102
RTVSPost2010PropOp47
 70
     1
102
RTVSPost2010Prop48
 90
       50
102
RTVSPost2010PropOp48
 70
     1
102
RTVSPost2010Prop49
280
     0
102
RTVSPost2010PropOp49
 70
     1
102
RTVSPost2010Prop50
 90
       50
102
RTVSPost2010PropOp50
 70
     1
102
RTVSPost2010Prop51ColorIndex
 90
      256
102
RTVSPost2010Prop51ColorRGB
 90
-16777216
102
RTVSPost2010PropOp51
 70
     0
102
RTVSPost2010Prop52
140
1.0
102
RTVSPost2010PropOp52
 70
     0
102
RTVSPost2010Prop53
 90
        2
102
RTVSPost2010PropOp53
 70
     1
102
RTVSPost2010Prop54
  1
strokes_ogs.tif
102
RTVSPost2010PropOp54
 70
     1
102
RTVSPost2010Prop55
280
     0
102
RTVSPost2010PropOp55
 70
     1
102
RTVSPost2010Prop56
140
1.0
102
RTVSPost2010PropOp56
 70
     1
102
RTVSPost2010Prop57
140
1.0
102
RTVSPost2010PropOp57
 70
     1
102
RTVSPropertyOp0
 70
     1
102
RTVSPropertyOp1
 70
     1
102
RTVSPropertyOp2
 70
     1
102
RTVSPropertyOp3
 70
     1
102
RTVSPropertyOp4
 70
     1
102
RTVSPropertyOp5
 70
     1
102
RTVSPropertyOp6
 70
     1
102
RTVSPropertyOp7
 70
     1
102
RTVSPropertyOp8
 70
     1
102
RTVSPropertyOp9
 70
     1
102
RTVSPropertyOp10
 70
     1
102
RTVSPropertyOp11
 70
     1
102
RTVSPropertyOp12
 70
     1
102
RTVSPropertyOp13
 70
     1
102
RTVSPropertyOp14
 70
     1
102
RTVSPropertyOp15
 70
     1
102
RTVSPropertyOp16
 70
     1
102
RTVSPropertyOp17
 70
     1
102
RTVSPropertyOp18
 70
     1
102
RTVSPropertyOp19
 70
     1
102
RTVSPropertyOp20
 70
     1
102
RTVSPropertyOp21
 70
     1
102
RTVSPropertyOp22
 70
     1
102
RTVSPropertyOp23
 70
     1
102
RTVSPropertyOp24
 70
     1
102
RTVSPropertyOp25
 70
     1
102
RTVSPropertyOp26
 70
     1
102
RTVSPropertyOp27
 70
     1
102
RTVSPropertyOp28
 70
     1
102
RTVSPropertyOp29
 70
     1
102
RTVSPropertyOp30
 70
     1
102
RTVSPropertyOp31
 70
     1
102
RTVSPropertyOp32
 70
     1
102
RTVSPropertyOp33
 70
     1
102
RTVSPropertyOp34
 70
     1
102
RTVSPropertyOp35
 70
     1
102
RTVSPropertyOp36
 70
     1
102
RTVSPropertyOp37
 70
     1
102
RTVSPropertyOp38
 70
     1
102
RTVSPropertyOp39
 70
     1
102
RTVSPropertyOp40
 70
     1
102
RTVSPropertyOp41
 70
     1
102
RTVSPropertyOp42
 70
     1
102
RTVSPropertyOp43
 70
     1
102
RTVSPropertyOp44
 70
     1
102
RTVSPropertyOp45
 70
     1
102
RTVSPropertyOp46
 70
     1
102
RTVSPropertyOp47
 70
     1
102
RTVSPropertyOp48
 70
     1
102
RTVSPropertyOp49
 70
     1
102
RTVSPropertyOp50
 70
     1
102
RTVSPropertyOp51
 70
     0
102
RTVSPropertyOp52
 70
     0
102
RTVSPropertyOp53
 70
     1
102
RTVSPropertyOp54
 70
     1
102
RTVSPropertyOp55
 70
     1
102
RTVSPropertyOp56
 70
     1
102
RTVSPropertyOp57
 70
     1
102
RTVSPropertyOp58
 70
     1
102
RTVSPropertyOp59
 70
     1
102
RTVSPropertyOp60
 70
     1
102
RTVSPropertyOp61
 70
     1
102
RTVSPropertyOp62
 70
     1
  0
XRECORD
  5
456F
102
{ACAD_REACTORS
330
456E
102
}
330
456E
100
AcDbXrecord
280
     1
102
RTVSPost2010Prop28
280
     0
102
RTVSPost2010PropOp28
 70
     1
102
RTVSPost2010Prop29
280
     1
102
RTVSPost2010PropOp29
 70
     1
102
RTVSPost2010Prop30
280
     1
102
RTVSPost2010PropOp30
 70
     1
102
RTVSPost2010Prop31
280
     0
102
RTVSPost2010PropOp31
 70
     1
102
RTVSPost2010Prop32
280
     0
102
RTVSPost2010PropOp32
 70
     1
102
RTVSPost2010Prop33
280
     0
102
RTVSPost2010PropOp33
 70
     1
102
RTVSPost2010Prop34
280
     0
102
RTVSPost2010PropOp34
 70
     1
102
RTVSPost2010Prop35
280
     0
102
RTVSPost2010PropOp35
 70
     1
102
RTVSPost2010Prop36
280
     0
102
RTVSPost2010PropOp36
 70
     1
102
RTVSPost2010Prop37
 90
       50
102
RTVSPost2010PropOp37
 70
     1
102
RTVSPost2010Prop38
140
0.0
102
RTVSPost2010PropOp38
 70
     1
102
RTVSPost2010Prop39
140
1.0
102
RTVSPost2010PropOp39
 70
     1
102
RTVSPost2010Prop40
 90
        0
102
RTVSPost2010PropOp40
 70
     1
102
RTVSPost2010Prop41ColorIndex
 90
       18
102
RTVSPost2010Prop41ColorRGB
 90
        0
102
RTVSPost2010PropOp41
 70
     1
102
RTVSPost2010Prop42
 90
       50
102
RTVSPost2010PropOp42
 70
     1
102
RTVSPost2010Prop43
 90
        3
102
RTVSPost2010PropOp43
 70
     1
102
RTVSPost2010Prop44ColorIndex
 90
        5
102
RTVSPost2010Prop44ColorRGB
 90
      255
102
RTVSPost2010PropOp44
 70
     1
102
RTVSPost2010Prop45
280
     0
102
RTVSPost2010PropOp45
 70
     1
102
RTVSPost2010Prop46
 90
       50
102
RTVSPost2010PropOp46
 70
     1
102
RTVSPost2010Prop47
 90
       50
102
RTVSPost2010PropOp47
 70
     1
102
RTVSPost2010Prop48
 90
       50
102
RTVSPost2010PropOp48
 70
     1
102
RTVSPost2010Prop49
280
     0
102
RTVSPost2010PropOp49
 70
     1
102
RTVSPost2010Prop50
 90
       50
102
RTVSPost2010PropOp50
 70
     1
102
RTVSPost2010Prop51ColorIndex
 90
      256
102
RTVSPost2010Prop51ColorRGB
 90
-16777216
102
RTVSPost2010PropOp51
 70
     0
102
RTVSPost2010Prop52
140
1.0
102
RTVSPost2010PropOp52
 70
     0
102
RTVSPost2010Prop53
 90
        2
102
RTVSPost2010PropOp53
 70
     1
102
RTVSPost2010Prop54
  1
strokes_ogs.tif
102
RTVSPost2010PropOp54
 70
     1
102
RTVSPost2010Prop55
280
     0
102
RTVSPost2010PropOp55
 70
     1
102
RTVSPost2010Prop56
140
1.0
102
RTVSPost2010PropOp56
 70
     1
102
RTVSPost2010Prop57
140
1.0
102
RTVSPost2010PropOp57
 70
     1
102
RTVSPropertyOp0
 70
     1
102
RTVSPropertyOp1
 70
     1
102
RTVSPropertyOp2
 70
     1
102
RTVSPropertyOp3
 70
     1
102
RTVSPropertyOp4
 70
     1
102
RTVSPropertyOp5
 70
     1
102
RTVSPropertyOp6
 70
     1
102
RTVSPropertyOp7
 70
     1
102
RTVSPropertyOp8
 70
     1
102
RTVSPropertyOp9
 70
     1
102
RTVSPropertyOp10
 70
     1
102
RTVSPropertyOp11
 70
     1
102
RTVSPropertyOp12
 70
     1
102
RTVSPropertyOp13
 70
     1
102
RTVSPropertyOp14
 70
     1
102
RTVSPropertyOp15
 70
     1
102
RTVSPropertyOp16
 70
     1
102
RTVSPropertyOp17
 70
     1
102
RTVSPropertyOp18
 70
     1
102
RTVSPropertyOp19
 70
     1
102
RTVSPropertyOp20
 70
     1
102
RTVSPropertyOp21
 70
     1
102
RTVSPropertyOp22
 70
     1
102
RTVSPropertyOp23
 70
     1
102
RTVSPropertyOp24
 70
     1
102
RTVSPropertyOp25
 70
     1
102
RTVSPropertyOp26
 70
     1
102
RTVSPropertyOp27
 70
     1
102
RTVSPropertyOp28
 70
     1
102
RTVSPropertyOp29
 70
     1
102
RTVSPropertyOp30
 70
     1
102
RTVSPropertyOp31
 70
     1
102
RTVSPropertyOp32
 70
     1
102
RTVSPropertyOp33
 70
     1
102
RTVSPropertyOp34
 70
     1
102
RTVSPropertyOp35
 70
     1
102
RTVSPropertyOp36
 70
     1
102
RTVSPropertyOp37
 70
     1
102
RTVSPropertyOp38
 70
     1
102
RTVSPropertyOp39
 70
     1
102
RTVSPropertyOp40
 70
     1
102
RTVSPropertyOp41
 70
     1
102
RTVSPropertyOp42
 70
     1
102
RTVSPropertyOp43
 70
     1
102
RTVSPropertyOp44
 70
     1
102
RTVSPropertyOp45
 70
     1
102
RTVSPropertyOp46
 70
     1
102
RTVSPropertyOp47
 70
     1
102
RTVSPropertyOp48
 70
     1
102
RTVSPropertyOp49
 70
     1
102
RTVSPropertyOp50
 70
     1
102
RTVSPropertyOp51
 70
     0
102
RTVSPropertyOp52
 70
     0
102
RTVSPropertyOp53
 70
     1
102
RTVSPropertyOp54
 70
     1
102
RTVSPropertyOp55
 70
     1
102
RTVSPropertyOp56
 70
     1
102
RTVSPropertyOp57
 70
     1
102
RTVSPropertyOp58
 70
     1
102
RTVSPropertyOp59
 70
     1
102
RTVSPropertyOp60
 70
     1
102
RTVSPropertyOp61
 70
     1
102
RTVSPropertyOp62
 70
     1
  0
XRECORD
  5
4571
102
{ACAD_REACTORS
330
4570
102
}
330
4570
100
AcDbXrecord
280
     1
102
RTVSPost2010Prop28
280
     0
102
RTVSPost2010PropOp28
 70
     1
102
RTVSPost2010Prop29
280
     1
102
RTVSPost2010PropOp29
 70
     1
102
RTVSPost2010Prop30
280
     1
102
RTVSPost2010PropOp30
 70
     1
102
RTVSPost2010Prop31
280
     0
102
RTVSPost2010PropOp31
 70
     1
102
RTVSPost2010Prop32
280
     0
102
RTVSPost2010PropOp32
 70
     1
102
RTVSPost2010Prop33
280
     0
102
RTVSPost2010PropOp33
 70
     1
102
RTVSPost2010Prop34
280
     0
102
RTVSPost2010PropOp34
 70
     1
102
RTVSPost2010Prop35
280
     0
102
RTVSPost2010PropOp35
 70
     1
102
RTVSPost2010Prop36
280
     0
102
RTVSPost2010PropOp36
 70
     1
102
RTVSPost2010Prop37
 90
       50
102
RTVSPost2010PropOp37
 70
     1
102
RTVSPost2010Prop38
140
0.0
102
RTVSPost2010PropOp38
 70
     1
102
RTVSPost2010Prop39
140
1.0
102
RTVSPost2010PropOp39
 70
     1
102
RTVSPost2010Prop40
 90
        0
102
RTVSPost2010PropOp40
 70
     1
102
RTVSPost2010Prop41ColorIndex
 90
       18
102
RTVSPost2010Prop41ColorRGB
 90
        0
102
RTVSPost2010PropOp41
 70
     1
102
RTVSPost2010Prop42
 90
       50
102
RTVSPost2010PropOp42
 70
     1
102
RTVSPost2010Prop43
 90
        3
102
RTVSPost2010PropOp43
 70
     1
102
RTVSPost2010Prop44ColorIndex
 90
        5
102
RTVSPost2010Prop44ColorRGB
 90
      255
102
RTVSPost2010PropOp44
 70
     1
102
RTVSPost2010Prop45
280
     0
102
RTVSPost2010PropOp45
 70
     1
102
RTVSPost2010Prop46
 90
       50
102
RTVSPost2010PropOp46
 70
     1
102
RTVSPost2010Prop47
 90
       50
102
RTVSPost2010PropOp47
 70
     1
102
RTVSPost2010Prop48
 90
       50
102
RTVSPost2010PropOp48
 70
     1
102
RTVSPost2010Prop49
280
     0
102
RTVSPost2010PropOp49
 70
     1
102
RTVSPost2010Prop50
 90
       50
102
RTVSPost2010PropOp50
 70
     1
102
RTVSPost2010Prop51ColorIndex
 90
      256
102
RTVSPost2010Prop51ColorRGB
 90
-16777216
102
RTVSPost2010PropOp51
 70
     0
102
RTVSPost2010Prop52
140
1.0
102
RTVSPost2010PropOp52
 70
     0
102
RTVSPost2010Prop53
 90
        2
102
RTVSPost2010PropOp53
 70
     1
102
RTVSPost2010Prop54
  1
strokes_ogs.tif
102
RTVSPost2010PropOp54
 70
     1
102
RTVSPost2010Prop55
280
     0
102
RTVSPost2010PropOp55
 70
     1
102
RTVSPost2010Prop56
140
1.0
102
RTVSPost2010PropOp56
 70
     1
102
RTVSPost2010Prop57
140
1.0
102
RTVSPost2010PropOp57
 70
     1
102
RTVSPropertyOp0
 70
     1
102
RTVSPropertyOp1
 70
     1
102
RTVSPropertyOp2
 70
     1
102
RTVSPropertyOp3
 70
     1
102
RTVSPropertyOp4
 70
     1
102
RTVSPropertyOp5
 70
     1
102
RTVSPropertyOp6
 70
     1
102
RTVSPropertyOp7
 70
     1
102
RTVSPropertyOp8
 70
     1
102
RTVSPropertyOp9
 70
     1
102
RTVSPropertyOp10
 70
     1
102
RTVSPropertyOp11
 70
     1
102
RTVSPropertyOp12
 70
     1
102
RTVSPropertyOp13
 70
     1
102
RTVSPropertyOp14
 70
     1
102
RTVSPropertyOp15
 70
     1
102
RTVSPropertyOp16
 70
     1
102
RTVSPropertyOp17
 70
     1
102
RTVSPropertyOp18
 70
     1
102
RTVSPropertyOp19
 70
     1
102
RTVSPropertyOp20
 70
     1
102
RTVSPropertyOp21
 70
     1
102
RTVSPropertyOp22
 70
     1
102
RTVSPropertyOp23
 70
     1
102
RTVSPropertyOp24
 70
     1
102
RTVSPropertyOp25
 70
     1
102
RTVSPropertyOp26
 70
     1
102
RTVSPropertyOp27
 70
     1
102
RTVSPropertyOp28
 70
     1
102
RTVSPropertyOp29
 70
     1
102
RTVSPropertyOp30
 70
     1
102
RTVSPropertyOp31
 70
     1
102
RTVSPropertyOp32
 70
     1
102
RTVSPropertyOp33
 70
     1
102
RTVSPropertyOp34
 70
     1
102
RTVSPropertyOp35
 70
     1
102
RTVSPropertyOp36
 70
     1
102
RTVSPropertyOp37
 70
     1
102
RTVSPropertyOp38
 70
     1
102
RTVSPropertyOp39
 70
     1
102
RTVSPropertyOp40
 70
     1
102
RTVSPropertyOp41
 70
     1
102
RTVSPropertyOp42
 70
     1
102
RTVSPropertyOp43
 70
     1
102
RTVSPropertyOp44
 70
     1
102
RTVSPropertyOp45
 70
     1
102
RTVSPropertyOp46
 70
     1
102
RTVSPropertyOp47
 70
     1
102
RTVSPropertyOp48
 70
     1
102
RTVSPropertyOp49
 70
     1
102
RTVSPropertyOp50
 70
     1
102
RTVSPropertyOp51
 70
     0
102
RTVSPropertyOp52
 70
     0
102
RTVSPropertyOp53
 70
     1
102
RTVSPropertyOp54
 70
     1
102
RTVSPropertyOp55
 70
     1
102
RTVSPropertyOp56
 70
     1
102
RTVSPropertyOp57
 70
     1
102
RTVSPropertyOp58
 70
     1
102
RTVSPropertyOp59
 70
     1
102
RTVSPropertyOp60
 70
     1
102
RTVSPropertyOp61
 70
     1
102
RTVSPropertyOp62
 70
     1
  0
XRECORD
  5
4573
102
{ACAD_REACTORS
330
4572
102
}
330
4572
100
AcDbXrecord
280
     1
102
RTVSPost2010Prop28
280
     0
102
RTVSPost2010PropOp28
 70
     1
102
RTVSPost2010Prop29
280
     1
102
RTVSPost2010PropOp29
 70
     1
102
RTVSPost2010Prop30
280
     1
102
RTVSPost2010PropOp30
 70
     1
102
RTVSPost2010Prop31
280
     0
102
RTVSPost2010PropOp31
 70
     1
102
RTVSPost2010Prop32
280
     0
102
RTVSPost2010PropOp32
 70
     1
102
RTVSPost2010Prop33
280
     0
102
RTVSPost2010PropOp33
 70
     1
102
RTVSPost2010Prop34
280
     0
102
RTVSPost2010PropOp34
 70
     1
102
RTVSPost2010Prop35
280
     0
102
RTVSPost2010PropOp35
 70
     1
102
RTVSPost2010Prop36
280
     0
102
RTVSPost2010PropOp36
 70
     1
102
RTVSPost2010Prop37
 90
       50
102
RTVSPost2010PropOp37
 70
     1
102
RTVSPost2010Prop38
140
0.0
102
RTVSPost2010PropOp38
 70
     1
102
RTVSPost2010Prop39
140
1.0
102
RTVSPost2010PropOp39
 70
     1
102
RTVSPost2010Prop40
 90
        0
102
RTVSPost2010PropOp40
 70
     1
102
RTVSPost2010Prop41ColorIndex
 90
       18
102
RTVSPost2010Prop41ColorRGB
 90
        0
102
RTVSPost2010PropOp41
 70
     1
102
RTVSPost2010Prop42
 90
       50
102
RTVSPost2010PropOp42
 70
     1
102
RTVSPost2010Prop43
 90
        3
102
RTVSPost2010PropOp43
 70
     1
102
RTVSPost2010Prop44ColorIndex
 90
        5
102
RTVSPost2010Prop44ColorRGB
 90
      255
102
RTVSPost2010PropOp44
 70
     1
102
RTVSPost2010Prop45
280
     0
102
RTVSPost2010PropOp45
 70
     1
102
RTVSPost2010Prop46
 90
       50
102
RTVSPost2010PropOp46
 70
     1
102
RTVSPost2010Prop47
 90
       50
102
RTVSPost2010PropOp47
 70
     1
102
RTVSPost2010Prop48
 90
       50
102
RTVSPost2010PropOp48
 70
     1
102
RTVSPost2010Prop49
280
     0
102
RTVSPost2010PropOp49
 70
     1
102
RTVSPost2010Prop50
 90
       50
102
RTVSPost2010PropOp50
 70
     1
102
RTVSPost2010Prop51ColorIndex
 90
      256
102
RTVSPost2010Prop51ColorRGB
 90
-16777216
102
RTVSPost2010PropOp51
 70
     0
102
RTVSPost2010Prop52
140
1.0
102
RTVSPost2010PropOp52
 70
     0
102
RTVSPost2010Prop53
 90
        2
102
RTVSPost2010PropOp53
 70
     1
102
RTVSPost2010Prop54
  1
strokes_ogs.tif
102
RTVSPost2010PropOp54
 70
     1
102
RTVSPost2010Prop55
280
     0
102
RTVSPost2010PropOp55
 70
     1
102
RTVSPost2010Prop56
140
1.0
102
RTVSPost2010PropOp56
 70
     1
102
RTVSPost2010Prop57
140
1.0
102
RTVSPost2010PropOp57
 70
     1
102
RTVSPropertyOp0
 70
     1
102
RTVSPropertyOp1
 70
     1
102
RTVSPropertyOp2
 70
     1
102
RTVSPropertyOp3
 70
     1
102
RTVSPropertyOp4
 70
     1
102
RTVSPropertyOp5
 70
     1
102
RTVSPropertyOp6
 70
     1
102
RTVSPropertyOp7
 70
     1
102
RTVSPropertyOp8
 70
     1
102
RTVSPropertyOp9
 70
     1
102
RTVSPropertyOp10
 70
     1
102
RTVSPropertyOp11
 70
     1
102
RTVSPropertyOp12
 70
     1
102
RTVSPropertyOp13
 70
     1
102
RTVSPropertyOp14
 70
     1
102
RTVSPropertyOp15
 70
     1
102
RTVSPropertyOp16
 70
     1
102
RTVSPropertyOp17
 70
     1
102
RTVSPropertyOp18
 70
     1
102
RTVSPropertyOp19
 70
     1
102
RTVSPropertyOp20
 70
     1
102
RTVSPropertyOp21
 70
     1
102
RTVSPropertyOp22
 70
     1
102
RTVSPropertyOp23
 70
     1
102
RTVSPropertyOp24
 70
     1
102
RTVSPropertyOp25
 70
     1
102
RTVSPropertyOp26
 70
     1
102
RTVSPropertyOp27
 70
     1
102
RTVSPropertyOp28
 70
     1
102
RTVSPropertyOp29
 70
     1
102
RTVSPropertyOp30
 70
     1
102
RTVSPropertyOp31
 70
     1
102
RTVSPropertyOp32
 70
     1
102
RTVSPropertyOp33
 70
     1
102
RTVSPropertyOp34
 70
     1
102
RTVSPropertyOp35
 70
     1
102
RTVSPropertyOp36
 70
     1
102
RTVSPropertyOp37
 70
     1
102
RTVSPropertyOp38
 70
     1
102
RTVSPropertyOp39
 70
     1
102
RTVSPropertyOp40
 70
     1
102
RTVSPropertyOp41
 70
     1
102
RTVSPropertyOp42
 70
     1
102
RTVSPropertyOp43
 70
     1
102
RTVSPropertyOp44
 70
     1
102
RTVSPropertyOp45
 70
     1
102
RTVSPropertyOp46
 70
     1
102
RTVSPropertyOp47
 70
     1
102
RTVSPropertyOp48
 70
     1
102
RTVSPropertyOp49
 70
     1
102
RTVSPropertyOp50
 70
     1
102
RTVSPropertyOp51
 70
     0
102
RTVSPropertyOp52
 70
     0
102
RTVSPropertyOp53
 70
     1
102
RTVSPropertyOp54
 70
     1
102
RTVSPropertyOp55
 70
     1
102
RTVSPropertyOp56
 70
     1
102
RTVSPropertyOp57
 70
     1
102
RTVSPropertyOp58
 70
     1
102
RTVSPropertyOp59
 70
     1
102
RTVSPropertyOp60
 70
     1
102
RTVSPropertyOp61
 70
     1
102
RTVSPropertyOp62
 70
     1
  0
XRECORD
  5
457B
102
{ACAD_REACTORS
330
457A
102
}
330
457A
100
AcDbXrecord
280
     1
102
RTVSPost2010Prop28
280
     0
102
RTVSPost2010PropOp28
 70
     1
102
RTVSPost2010Prop29
280
     1
102
RTVSPost2010PropOp29
 70
     1
102
RTVSPost2010Prop30
280
     1
102
RTVSPost2010PropOp30
 70
     1
102
RTVSPost2010Prop31
280
     0
102
RTVSPost2010PropOp31
 70
     1
102
RTVSPost2010Prop32
280
     0
102
RTVSPost2010PropOp32
 70
     1
102
RTVSPost2010Prop33
280
     0
102
RTVSPost2010PropOp33
 70
     1
102
RTVSPost2010Prop34
280
     0
102
RTVSPost2010PropOp34
 70
     1
102
RTVSPost2010Prop35
280
     0
102
RTVSPost2010PropOp35
 70
     1
102
RTVSPost2010Prop36
280
     0
102
RTVSPost2010PropOp36
 70
     1
102
RTVSPost2010Prop37
 90
       50
102
RTVSPost2010PropOp37
 70
     1
102
RTVSPost2010Prop38
140
0.0
102
RTVSPost2010PropOp38
 70
     1
102
RTVSPost2010Prop39
140
1.0
102
RTVSPost2010PropOp39
 70
     1
102
RTVSPost2010Prop40
 90
        0
102
RTVSPost2010PropOp40
 70
     1
102
RTVSPost2010Prop41ColorIndex
 90
       18
102
RTVSPost2010Prop41ColorRGB
 90
        0
102
RTVSPost2010PropOp41
 70
     1
102
RTVSPost2010Prop42
 90
       50
102
RTVSPost2010PropOp42
 70
     1
102
RTVSPost2010Prop43
 90
        3
102
RTVSPost2010PropOp43
 70
     1
102
RTVSPost2010Prop44ColorIndex
 90
        5
102
RTVSPost2010Prop44ColorRGB
 90
      255
102
RTVSPost2010PropOp44
 70
     1
102
RTVSPost2010Prop45
280
     0
102
RTVSPost2010PropOp45
 70
     1
102
RTVSPost2010Prop46
 90
       50
102
RTVSPost2010PropOp46
 70
     1
102
RTVSPost2010Prop47
 90
       50
102
RTVSPost2010PropOp47
 70
     1
102
RTVSPost2010Prop48
 90
       50
102
RTVSPost2010PropOp48
 70
     1
102
RTVSPost2010Prop49
280
     0
102
RTVSPost2010PropOp49
 70
     1
102
RTVSPost2010Prop50
 90
       50
102
RTVSPost2010PropOp50
 70
     1
102
RTVSPost2010Prop51ColorIndex
 90
      256
102
RTVSPost2010Prop51ColorRGB
 90
-16777216
102
RTVSPost2010PropOp51
 70
     0
102
RTVSPost2010Prop52
140
1.0
102
RTVSPost2010PropOp52
 70
     0
102
RTVSPost2010Prop53
 90
        2
102
RTVSPost2010PropOp53
 70
     1
102
RTVSPost2010Prop54
  1
strokes_ogs.tif
102
RTVSPost2010PropOp54
 70
     1
102
RTVSPost2010Prop55
280
     0
102
RTVSPost2010PropOp55
 70
     1
102
RTVSPost2010Prop56
140
1.0
102
RTVSPost2010PropOp56
 70
     1
102
RTVSPost2010Prop57
140
1.0
102
RTVSPost2010PropOp57
 70
     1
102
RTVSPropertyOp0
 70
     1
102
RTVSPropertyOp1
 70
     1
102
RTVSPropertyOp2
 70
     1
102
RTVSPropertyOp3
 70
     1
102
RTVSPropertyOp4
 70
     1
102
RTVSPropertyOp5
 70
     1
102
RTVSPropertyOp6
 70
     1
102
RTVSPropertyOp7
 70
     1
102
RTVSPropertyOp8
 70
     1
102
RTVSPropertyOp9
 70
     1
102
RTVSPropertyOp10
 70
     1
102
RTVSPropertyOp11
 70
     1
102
RTVSPropertyOp12
 70
     1
102
RTVSPropertyOp13
 70
     1
102
RTVSPropertyOp14
 70
     1
102
RTVSPropertyOp15
 70
     1
102
RTVSPropertyOp16
 70
     1
102
RTVSPropertyOp17
 70
     1
102
RTVSPropertyOp18
 70
     1
102
RTVSPropertyOp19
 70
     1
102
RTVSPropertyOp20
 70
     1
102
RTVSPropertyOp21
 70
     1
102
RTVSPropertyOp22
 70
     1
102
RTVSPropertyOp23
 70
     1
102
RTVSPropertyOp24
 70
     1
102
RTVSPropertyOp25
 70
     1
102
RTVSPropertyOp26
 70
     1
102
RTVSPropertyOp27
 70
     1
102
RTVSPropertyOp28
 70
     1
102
RTVSPropertyOp29
 70
     1
102
RTVSPropertyOp30
 70
     1
102
RTVSPropertyOp31
 70
     1
102
RTVSPropertyOp32
 70
     1
102
RTVSPropertyOp33
 70
     1
102
RTVSPropertyOp34
 70
     1
102
RTVSPropertyOp35
 70
     1
102
RTVSPropertyOp36
 70
     1
102
RTVSPropertyOp37
 70
     1
102
RTVSPropertyOp38
 70
     1
102
RTVSPropertyOp39
 70
     1
102
RTVSPropertyOp40
 70
     1
102
RTVSPropertyOp41
 70
     1
102
RTVSPropertyOp42
 70
     1
102
RTVSPropertyOp43
 70
     1
102
RTVSPropertyOp44
 70
     1
102
RTVSPropertyOp45
 70
     1
102
RTVSPropertyOp46
 70
     1
102
RTVSPropertyOp47
 70
     1
102
RTVSPropertyOp48
 70
     1
102
RTVSPropertyOp49
 70
     1
102
RTVSPropertyOp50
 70
     1
102
RTVSPropertyOp51
 70
     0
102
RTVSPropertyOp52
 70
     0
102
RTVSPropertyOp53
 70
     1
102
RTVSPropertyOp54
 70
     1
102
RTVSPropertyOp55
 70
     1
102
RTVSPropertyOp56
 70
     1
102
RTVSPropertyOp57
 70
     1
102
RTVSPropertyOp58
 70
     1
102
RTVSPropertyOp59
 70
     1
102
RTVSPropertyOp60
 70
     1
102
RTVSPropertyOp61
 70
     1
102
RTVSPropertyOp62
 70
     1
  0
XRECORD
  5
458F
102
{ACAD_REACTORS
330
458E
102
}
330
458E
100
AcDbXrecord
280
     1
102
RTVSPost2010Prop28
280
     0
102
RTVSPost2010PropOp28
 70
     1
102
RTVSPost2010Prop29
280
     1
102
RTVSPost2010PropOp29
 70
     1
102
RTVSPost2010Prop30
280
     1
102
RTVSPost2010PropOp30
 70
     1
102
RTVSPost2010Prop31
280
     0
102
RTVSPost2010PropOp31
 70
     1
102
RTVSPost2010Prop32
280
     0
102
RTVSPost2010PropOp32
 70
     1
102
RTVSPost2010Prop33
280
     0
102
RTVSPost2010PropOp33
 70
     1
102
RTVSPost2010Prop34
280
     0
102
RTVSPost2010PropOp34
 70
     1
102
RTVSPost2010Prop35
280
     0
102
RTVSPost2010PropOp35
 70
     1
102
RTVSPost2010Prop36
280
     0
102
RTVSPost2010PropOp36
 70
     1
102
RTVSPost2010Prop37
 90
       50
102
RTVSPost2010PropOp37
 70
     1
102
RTVSPost2010Prop38
140
0.0
102
RTVSPost2010PropOp38
 70
     1
102
RTVSPost2010Prop39
140
1.0
102
RTVSPost2010PropOp39
 70
     1
102
RTVSPost2010Prop40
 90
        0
102
RTVSPost2010PropOp40
 70
     1
102
RTVSPost2010Prop41ColorIndex
 90
       18
102
RTVSPost2010Prop41ColorRGB
 90
        0
102
RTVSPost2010PropOp41
 70
     1
102
RTVSPost2010Prop42
 90
       50
102
RTVSPost2010PropOp42
 70
     1
102
RTVSPost2010Prop43
 90
        3
102
RTVSPost2010PropOp43
 70
     1
102
RTVSPost2010Prop44ColorIndex
 90
        5
102
RTVSPost2010Prop44ColorRGB
 90
      255
102
RTVSPost2010PropOp44
 70
     1
102
RTVSPost2010Prop45
280
     0
102
RTVSPost2010PropOp45
 70
     1
102
RTVSPost2010Prop46
 90
       50
102
RTVSPost2010PropOp46
 70
     1
102
RTVSPost2010Prop47
 90
       50
102
RTVSPost2010PropOp47
 70
     1
102
RTVSPost2010Prop48
 90
       50
102
RTVSPost2010PropOp48
 70
     1
102
RTVSPost2010Prop49
280
     0
102
RTVSPost2010PropOp49
 70
     1
102
RTVSPost2010Prop50
 90
       50
102
RTVSPost2010PropOp50
 70
     1
102
RTVSPost2010Prop51ColorIndex
 90
      256
102
RTVSPost2010Prop51ColorRGB
 90
-16777216
102
RTVSPost2010PropOp51
 70
     0
102
RTVSPost2010Prop52
140
1.0
102
RTVSPost2010PropOp52
 70
     0
102
RTVSPost2010Prop53
 90
        2
102
RTVSPost2010PropOp53
 70
     1
102
RTVSPost2010Prop54
  1
strokes_ogs.tif
102
RTVSPost2010PropOp54
 70
     1
102
RTVSPost2010Prop55
280
     0
102
RTVSPost2010PropOp55
 70
     1
102
RTVSPost2010Prop56
140
1.0
102
RTVSPost2010PropOp56
 70
     1
102
RTVSPost2010Prop57
140
1.0
102
RTVSPost2010PropOp57
 70
     1
102
RTVSPropertyOp0
 70
     0
102
RTVSPropertyOp1
 70
     0
102
RTVSPropertyOp2
 70
     0
102
RTVSPropertyOp3
 70
     0
102
RTVSPropertyOp4
 70
     0
102
RTVSPropertyOp5
 70
     0
102
RTVSPropertyOp6
 70
     0
102
RTVSPropertyOp7
 70
     0
102
RTVSPropertyOp8
 70
     0
102
RTVSPropertyOp9
 70
     0
102
RTVSPropertyOp10
 70
     0
102
RTVSPropertyOp11
 70
     0
102
RTVSPropertyOp12
 70
     0
102
RTVSPropertyOp13
 70
     0
102
RTVSPropertyOp14
 70
     2
102
RTVSPropertyOp15
 70
     0
102
RTVSPropertyOp16
 70
     0
102
RTVSPropertyOp17
 70
     0
102
RTVSPropertyOp18
 70
     0
102
RTVSPropertyOp19
 70
     0
102
RTVSPropertyOp20
 70
     0
102
RTVSPropertyOp21
 70
     0
102
RTVSPropertyOp22
 70
     0
102
RTVSPropertyOp23
 70
     0
102
RTVSPropertyOp24
 70
     0
102
RTVSPropertyOp25
 70
     0
102
RTVSPropertyOp26
 70
     0
102
RTVSPropertyOp27
 70
     0
102
RTVSPropertyOp28
 70
     1
102
RTVSPropertyOp29
 70
     1
102
RTVSPropertyOp30
 70
     1
102
RTVSPropertyOp31
 70
     1
102
RTVSPropertyOp32
 70
     1
102
RTVSPropertyOp33
 70
     1
102
RTVSPropertyOp34
 70
     1
102
RTVSPropertyOp35
 70
     1
102
RTVSPropertyOp36
 70
     1
102
RTVSPropertyOp37
 70
     1
102
RTVSPropertyOp38
 70
     1
102
RTVSPropertyOp39
 70
     1
102
RTVSPropertyOp40
 70
     1
102
RTVSPropertyOp41
 70
     1
102
RTVSPropertyOp42
 70
     1
102
RTVSPropertyOp43
 70
     1
102
RTVSPropertyOp44
 70
     1
102
RTVSPropertyOp45
 70
     1
102
RTVSPropertyOp46
 70
     1
102
RTVSPropertyOp47
 70
     1
102
RTVSPropertyOp48
 70
     1
102
RTVSPropertyOp49
 70
     1
102
RTVSPropertyOp50
 70
     1
102
RTVSPropertyOp51
 70
     0
102
RTVSPropertyOp52
 70
     0
102
RTVSPropertyOp53
 70
     1
102
RTVSPropertyOp54
 70
     1
102
RTVSPropertyOp55
 70
     1
102
RTVSPropertyOp56
 70
     1
102
RTVSPropertyOp57
 70
     1
102
RTVSPropertyOp58
 70
     1
102
RTVSPropertyOp59
 70
     1
102
RTVSPropertyOp60
 70
     1
102
RTVSPropertyOp61
 70
     1
102
RTVSPropertyOp62
 70
     1
  0
XRECORD
  5
4587
102
{ACAD_REACTORS
330
4586
102
}
330
4586
100
AcDbXrecord
280
     1
102
RTVSPost2010Prop28
280
     0
102
RTVSPost2010PropOp28
 70
     1
102
RTVSPost2010Prop29
280
     1
102
RTVSPost2010PropOp29
 70
     1
102
RTVSPost2010Prop30
280
     1
102
RTVSPost2010PropOp30
 70
     1
102
RTVSPost2010Prop31
280
     0
102
RTVSPost2010PropOp31
 70
     1
102
RTVSPost2010Prop32
280
     0
102
RTVSPost2010PropOp32
 70
     1
102
RTVSPost2010Prop33
280
     0
102
RTVSPost2010PropOp33
 70
     1
102
RTVSPost2010Prop34
280
     0
102
RTVSPost2010PropOp34
 70
     1
102
RTVSPost2010Prop35
280
     0
102
RTVSPost2010PropOp35
 70
     1
102
RTVSPost2010Prop36
280
     0
102
RTVSPost2010PropOp36
 70
     1
102
RTVSPost2010Prop37
 90
       50
102
RTVSPost2010PropOp37
 70
     1
102
RTVSPost2010Prop38
140
0.0
102
RTVSPost2010PropOp38
 70
     1
102
RTVSPost2010Prop39
140
1.0
102
RTVSPost2010PropOp39
 70
     1
102
RTVSPost2010Prop40
 90
        0
102
RTVSPost2010PropOp40
 70
     1
102
RTVSPost2010Prop41ColorIndex
 90
       18
102
RTVSPost2010Prop41ColorRGB
 90
        0
102
RTVSPost2010PropOp41
 70
     1
102
RTVSPost2010Prop42
 90
       50
102
RTVSPost2010PropOp42
 70
     1
102
RTVSPost2010Prop43
 90
        3
102
RTVSPost2010PropOp43
 70
     1
102
RTVSPost2010Prop44ColorIndex
 90
        5
102
RTVSPost2010Prop44ColorRGB
 90
      255
102
RTVSPost2010PropOp44
 70
     1
102
RTVSPost2010Prop45
280
     0
102
RTVSPost2010PropOp45
 70
     1
102
RTVSPost2010Prop46
 90
       50
102
RTVSPost2010PropOp46
 70
     1
102
RTVSPost2010Prop47
 90
       50
102
RTVSPost2010PropOp47
 70
     1
102
RTVSPost2010Prop48
 90
       50
102
RTVSPost2010PropOp48
 70
     1
102
RTVSPost2010Prop49
280
     0
102
RTVSPost2010PropOp49
 70
     1
102
RTVSPost2010Prop50
 90
       50
102
RTVSPost2010PropOp50
 70
     1
102
RTVSPost2010Prop51ColorIndex
 90
      256
102
RTVSPost2010Prop51ColorRGB
 90
-16777216
102
RTVSPost2010PropOp51
 70
     0
102
RTVSPost2010Prop52
140
1.0
102
RTVSPost2010PropOp52
 70
     0
102
RTVSPost2010Prop53
 90
        2
102
RTVSPost2010PropOp53
 70
     1
102
RTVSPost2010Prop54
  1
strokes_ogs.tif
102
RTVSPost2010PropOp54
 70
     1
102
RTVSPost2010Prop55
280
     0
102
RTVSPost2010PropOp55
 70
     1
102
RTVSPost2010Prop56
140
1.0
102
RTVSPost2010PropOp56
 70
     1
102
RTVSPost2010Prop57
140
1.0
102
RTVSPost2010PropOp57
 70
     1
102
RTVSPropertyOp0
 70
     1
102
RTVSPropertyOp1
 70
     1
102
RTVSPropertyOp2
 70
     1
102
RTVSPropertyOp3
 70
     1
102
RTVSPropertyOp4
 70
     1
102
RTVSPropertyOp5
 70
     1
102
RTVSPropertyOp6
 70
     1
102
RTVSPropertyOp7
 70
     1
102
RTVSPropertyOp8
 70
     1
102
RTVSPropertyOp9
 70
     1
102
RTVSPropertyOp10
 70
     1
102
RTVSPropertyOp11
 70
     1
102
RTVSPropertyOp12
 70
     1
102
RTVSPropertyOp13
 70
     1
102
RTVSPropertyOp14
 70
     1
102
RTVSPropertyOp15
 70
     1
102
RTVSPropertyOp16
 70
     1
102
RTVSPropertyOp17
 70
     1
102
RTVSPropertyOp18
 70
     1
102
RTVSPropertyOp19
 70
     1
102
RTVSPropertyOp20
 70
     1
102
RTVSPropertyOp21
 70
     1
102
RTVSPropertyOp22
 70
     1
102
RTVSPropertyOp23
 70
     1
102
RTVSPropertyOp24
 70
     1
102
RTVSPropertyOp25
 70
     1
102
RTVSPropertyOp26
 70
     1
102
RTVSPropertyOp27
 70
     1
102
RTVSPropertyOp28
 70
     1
102
RTVSPropertyOp29
 70
     1
102
RTVSPropertyOp30
 70
     1
102
RTVSPropertyOp31
 70
     1
102
RTVSPropertyOp32
 70
     1
102
RTVSPropertyOp33
 70
     1
102
RTVSPropertyOp34
 70
     1
102
RTVSPropertyOp35
 70
     1
102
RTVSPropertyOp36
 70
     1
102
RTVSPropertyOp37
 70
     1
102
RTVSPropertyOp38
 70
     1
102
RTVSPropertyOp39
 70
     1
102
RTVSPropertyOp40
 70
     1
102
RTVSPropertyOp41
 70
     1
102
RTVSPropertyOp42
 70
     1
102
RTVSPropertyOp43
 70
     1
102
RTVSPropertyOp44
 70
     1
102
RTVSPropertyOp45
 70
     1
102
RTVSPropertyOp46
 70
     1
102
RTVSPropertyOp47
 70
     1
102
RTVSPropertyOp48
 70
     1
102
RTVSPropertyOp49
 70
     1
102
RTVSPropertyOp50
 70
     1
102
RTVSPropertyOp51
 70
     0
102
RTVSPropertyOp52
 70
     0
102
RTVSPropertyOp53
 70
     1
102
RTVSPropertyOp54
 70
     1
102
RTVSPropertyOp55
 70
     1
102
RTVSPropertyOp56
 70
     1
102
RTVSPropertyOp57
 70
     1
102
RTVSPropertyOp58
 70
     1
102
RTVSPropertyOp59
 70
     1
102
RTVSPropertyOp60
 70
     1
102
RTVSPropertyOp61
 70
     1
102
RTVSPropertyOp62
 70
     1
  0
XRECORD
  5
4591
102
{ACAD_REACTORS
330
4590
102
}
330
4590
100
AcDbXrecord
280
     1
102
RTVSPost2010Prop28
280
     0
102
RTVSPost2010PropOp28
 70
     1
102
RTVSPost2010Prop29
280
     1
102
RTVSPost2010PropOp29
 70
     1
102
RTVSPost2010Prop30
280
     1
102
RTVSPost2010PropOp30
 70
     1
102
RTVSPost2010Prop31
280
     0
102
RTVSPost2010PropOp31
 70
     1
102
RTVSPost2010Prop32
280
     0
102
RTVSPost2010PropOp32
 70
     1
102
RTVSPost2010Prop33
280
     0
102
RTVSPost2010PropOp33
 70
     1
102
RTVSPost2010Prop34
280
     0
102
RTVSPost2010PropOp34
 70
     1
102
RTVSPost2010Prop35
280
     0
102
RTVSPost2010PropOp35
 70
     1
102
RTVSPost2010Prop36
280
     0
102
RTVSPost2010PropOp36
 70
     1
102
RTVSPost2010Prop37
 90
       50
102
RTVSPost2010PropOp37
 70
     1
102
RTVSPost2010Prop38
140
0.0
102
RTVSPost2010PropOp38
 70
     1
102
RTVSPost2010Prop39
140
1.0
102
RTVSPost2010PropOp39
 70
     1
102
RTVSPost2010Prop40
 90
        0
102
RTVSPost2010PropOp40
 70
     1
102
RTVSPost2010Prop41ColorIndex
 90
       18
102
RTVSPost2010Prop41ColorRGB
 90
        0
102
RTVSPost2010PropOp41
 70
     1
102
RTVSPost2010Prop42
 90
       50
102
RTVSPost2010PropOp42
 70
     1
102
RTVSPost2010Prop43
 90
        3
102
RTVSPost2010PropOp43
 70
     1
102
RTVSPost2010Prop44ColorIndex
 90
        5
102
RTVSPost2010Prop44ColorRGB
 90
      255
102
RTVSPost2010PropOp44
 70
     1
102
RTVSPost2010Prop45
280
     0
102
RTVSPost2010PropOp45
 70
     1
102
RTVSPost2010Prop46
 90
       50
102
RTVSPost2010PropOp46
 70
     1
102
RTVSPost2010Prop47
 90
       50
102
RTVSPost2010PropOp47
 70
     1
102
RTVSPost2010Prop48
 90
       50
102
RTVSPost2010PropOp48
 70
     1
102
RTVSPost2010Prop49
280
     0
102
RTVSPost2010PropOp49
 70
     1
102
RTVSPost2010Prop50
 90
       50
102
RTVSPost2010PropOp50
 70
     1
102
RTVSPost2010Prop51ColorIndex
 90
      256
102
RTVSPost2010Prop51ColorRGB
 90
-16777216
102
RTVSPost2010PropOp51
 70
     0
102
RTVSPost2010Prop52
140
1.0
102
RTVSPost2010PropOp52
 70
     0
102
RTVSPost2010Prop53
 90
        2
102
RTVSPost2010PropOp53
 70
     1
102
RTVSPost2010Prop54
  1
strokes_ogs.tif
102
RTVSPost2010PropOp54
 70
     1
102
RTVSPost2010Prop55
280
     0
102
RTVSPost2010PropOp55
 70
     1
102
RTVSPost2010Prop56
140
1.0
102
RTVSPost2010PropOp56
 70
     1
102
RTVSPost2010Prop57
140
1.0
102
RTVSPost2010PropOp57
 70
     1
102
RTVSPropertyOp0
 70
     0
102
RTVSPropertyOp1
 70
     0
102
RTVSPropertyOp2
 70
     0
102
RTVSPropertyOp3
 70
     0
102
RTVSPropertyOp4
 70
     0
102
RTVSPropertyOp5
 70
     0
102
RTVSPropertyOp6
 70
     0
102
RTVSPropertyOp7
 70
     0
102
RTVSPropertyOp8
 70
     0
102
RTVSPropertyOp9
 70
     0
102
RTVSPropertyOp10
 70
     0
102
RTVSPropertyOp11
 70
     0
102
RTVSPropertyOp12
 70
     0
102
RTVSPropertyOp13
 70
     0
102
RTVSPropertyOp14
 70
     2
102
RTVSPropertyOp15
 70
     0
102
RTVSPropertyOp16
 70
     0
102
RTVSPropertyOp17
 70
     0
102
RTVSPropertyOp18
 70
     0
102
RTVSPropertyOp19
 70
     0
102
RTVSPropertyOp20
 70
     0
102
RTVSPropertyOp21
 70
     0
102
RTVSPropertyOp22
 70
     0
102
RTVSPropertyOp23
 70
     0
102
RTVSPropertyOp24
 70
     0
102
RTVSPropertyOp25
 70
     0
102
RTVSPropertyOp26
 70
     0
102
RTVSPropertyOp27
 70
     0
102
RTVSPropertyOp28
 70
     1
102
RTVSPropertyOp29
 70
     1
102
RTVSPropertyOp30
 70
     1
102
RTVSPropertyOp31
 70
     1
102
RTVSPropertyOp32
 70
     1
102
RTVSPropertyOp33
 70
     1
102
RTVSPropertyOp34
 70
     1
102
RTVSPropertyOp35
 70
     1
102
RTVSPropertyOp36
 70
     1
102
RTVSPropertyOp37
 70
     1
102
RTVSPropertyOp38
 70
     1
102
RTVSPropertyOp39
 70
     1
102
RTVSPropertyOp40
 70
     1
102
RTVSPropertyOp41
 70
     1
102
RTVSPropertyOp42
 70
     1
102
RTVSPropertyOp43
 70
     1
102
RTVSPropertyOp44
 70
     1
102
RTVSPropertyOp45
 70
     1
102
RTVSPropertyOp46
 70
     1
102
RTVSPropertyOp47
 70
     1
102
RTVSPropertyOp48
 70
     1
102
RTVSPropertyOp49
 70
     1
102
RTVSPropertyOp50
 70
     1
102
RTVSPropertyOp51
 70
     0
102
RTVSPropertyOp52
 70
     0
102
RTVSPropertyOp53
 70
     1
102
RTVSPropertyOp54
 70
     1
102
RTVSPropertyOp55
 70
     1
102
RTVSPropertyOp56
 70
     1
102
RTVSPropertyOp57
 70
     1
102
RTVSPropertyOp58
 70
     1
102
RTVSPropertyOp59
 70
     1
102
RTVSPropertyOp60
 70
     1
102
RTVSPropertyOp61
 70
     1
102
RTVSPropertyOp62
 70
     1
  0
XRECORD
  5
457F
102
{ACAD_REACTORS
330
457E
102
}
330
457E
100
AcDbXrecord
280
     1
102
RTVSPost2010Prop28
280
     0
102
RTVSPost2010PropOp28
 70
     1
102
RTVSPost2010Prop29
280
     1
102
RTVSPost2010PropOp29
 70
     1
102
RTVSPost2010Prop30
280
     1
102
RTVSPost2010PropOp30
 70
     1
102
RTVSPost2010Prop31
280
     0
102
RTVSPost2010PropOp31
 70
     1
102
RTVSPost2010Prop32
280
     0
102
RTVSPost2010PropOp32
 70
     1
102
RTVSPost2010Prop33
280
     0
102
RTVSPost2010PropOp33
 70
     1
102
RTVSPost2010Prop34
280
     0
102
RTVSPost2010PropOp34
 70
     1
102
RTVSPost2010Prop35
280
     0
102
RTVSPost2010PropOp35
 70
     1
102
RTVSPost2010Prop36
280
     0
102
RTVSPost2010PropOp36
 70
     1
102
RTVSPost2010Prop37
 90
       50
102
RTVSPost2010PropOp37
 70
     1
102
RTVSPost2010Prop38
140
0.0
102
RTVSPost2010PropOp38
 70
     1
102
RTVSPost2010Prop39
140
1.0
102
RTVSPost2010PropOp39
 70
     1
102
RTVSPost2010Prop40
 90
        0
102
RTVSPost2010PropOp40
 70
     1
102
RTVSPost2010Prop41ColorIndex
 90
       18
102
RTVSPost2010Prop41ColorRGB
 90
        0
102
RTVSPost2010PropOp41
 70
     1
102
RTVSPost2010Prop42
 90
       50
102
RTVSPost2010PropOp42
 70
     1
102
RTVSPost2010Prop43
 90
        3
102
RTVSPost2010PropOp43
 70
     1
102
RTVSPost2010Prop44ColorIndex
 90
        5
102
RTVSPost2010Prop44ColorRGB
 90
      255
102
RTVSPost2010PropOp44
 70
     1
102
RTVSPost2010Prop45
280
     0
102
RTVSPost2010PropOp45
 70
     1
102
RTVSPost2010Prop46
 90
       50
102
RTVSPost2010PropOp46
 70
     1
102
RTVSPost2010Prop47
 90
       50
102
RTVSPost2010PropOp47
 70
     1
102
RTVSPost2010Prop48
 90
       50
102
RTVSPost2010PropOp48
 70
     1
102
RTVSPost2010Prop49
280
     0
102
RTVSPost2010PropOp49
 70
     1
102
RTVSPost2010Prop50
 90
       50
102
RTVSPost2010PropOp50
 70
     1
102
RTVSPost2010Prop51ColorIndex
 90
      256
102
RTVSPost2010Prop51ColorRGB
 90
-16777216
102
RTVSPost2010PropOp51
 70
     0
102
RTVSPost2010Prop52
140
1.0
102
RTVSPost2010PropOp52
 70
     0
102
RTVSPost2010Prop53
 90
        2
102
RTVSPost2010PropOp53
 70
     1
102
RTVSPost2010Prop54
  1
strokes_ogs.tif
102
RTVSPost2010PropOp54
 70
     1
102
RTVSPost2010Prop55
280
     0
102
RTVSPost2010PropOp55
 70
     1
102
RTVSPost2010Prop56
140
1.0
102
RTVSPost2010PropOp56
 70
     1
102
RTVSPost2010Prop57
140
1.0
102
RTVSPost2010PropOp57
 70
     1
102
RTVSPropertyOp0
 70
     1
102
RTVSPropertyOp1
 70
     1
102
RTVSPropertyOp2
 70
     1
102
RTVSPropertyOp3
 70
     1
102
RTVSPropertyOp4
 70
     1
102
RTVSPropertyOp5
 70
     1
102
RTVSPropertyOp6
 70
     1
102
RTVSPropertyOp7
 70
     1
102
RTVSPropertyOp8
 70
     1
102
RTVSPropertyOp9
 70
     1
102
RTVSPropertyOp10
 70
     1
102
RTVSPropertyOp11
 70
     1
102
RTVSPropertyOp12
 70
     1
102
RTVSPropertyOp13
 70
     1
102
RTVSPropertyOp14
 70
     1
102
RTVSPropertyOp15
 70
     1
102
RTVSPropertyOp16
 70
     1
102
RTVSPropertyOp17
 70
     1
102
RTVSPropertyOp18
 70
     1
102
RTVSPropertyOp19
 70
     1
102
RTVSPropertyOp20
 70
     1
102
RTVSPropertyOp21
 70
     1
102
RTVSPropertyOp22
 70
     1
102
RTVSPropertyOp23
 70
     1
102
RTVSPropertyOp24
 70
     1
102
RTVSPropertyOp25
 70
     1
102
RTVSPropertyOp26
 70
     1
102
RTVSPropertyOp27
 70
     1
102
RTVSPropertyOp28
 70
     1
102
RTVSPropertyOp29
 70
     1
102
RTVSPropertyOp30
 70
     1
102
RTVSPropertyOp31
 70
     1
102
RTVSPropertyOp32
 70
     1
102
RTVSPropertyOp33
 70
     1
102
RTVSPropertyOp34
 70
     1
102
RTVSPropertyOp35
 70
     1
102
RTVSPropertyOp36
 70
     1
102
RTVSPropertyOp37
 70
     1
102
RTVSPropertyOp38
 70
     1
102
RTVSPropertyOp39
 70
     1
102
RTVSPropertyOp40
 70
     1
102
RTVSPropertyOp41
 70
     1
102
RTVSPropertyOp42
 70
     1
102
RTVSPropertyOp43
 70
     1
102
RTVSPropertyOp44
 70
     1
102
RTVSPropertyOp45
 70
     1
102
RTVSPropertyOp46
 70
     1
102
RTVSPropertyOp47
 70
     1
102
RTVSPropertyOp48
 70
     1
102
RTVSPropertyOp49
 70
     1
102
RTVSPropertyOp50
 70
     1
102
RTVSPropertyOp51
 70
     0
102
RTVSPropertyOp52
 70
     0
102
RTVSPropertyOp53
 70
     1
102
RTVSPropertyOp54
 70
     1
102
RTVSPropertyOp55
 70
     1
102
RTVSPropertyOp56
 70
     1
102
RTVSPropertyOp57
 70
     1
102
RTVSPropertyOp58
 70
     1
102
RTVSPropertyOp59
 70
     1
102
RTVSPropertyOp60
 70
     1
102
RTVSPropertyOp61
 70
     1
102
RTVSPropertyOp62
 70
     1
  0
XRECORD
  5
459D
102
{ACAD_REACTORS
330
459C
102
}
330
459C
100
AcDbXrecord
280
     1
102
RTVSPost2010Prop28
280
     0
102
RTVSPost2010PropOp28
 70
     1
102
RTVSPost2010Prop29
280
     1
102
RTVSPost2010PropOp29
 70
     1
102
RTVSPost2010Prop30
280
     1
102
RTVSPost2010PropOp30
 70
     1
102
RTVSPost2010Prop31
280
     0
102
RTVSPost2010PropOp31
 70
     1
102
RTVSPost2010Prop32
280
     0
102
RTVSPost2010PropOp32
 70
     1
102
RTVSPost2010Prop33
280
     0
102
RTVSPost2010PropOp33
 70
     1
102
RTVSPost2010Prop34
280
     0
102
RTVSPost2010PropOp34
 70
     1
102
RTVSPost2010Prop35
280
     0
102
RTVSPost2010PropOp35
 70
     1
102
RTVSPost2010Prop36
280
     0
102
RTVSPost2010PropOp36
 70
     1
102
RTVSPost2010Prop37
 90
       50
102
RTVSPost2010PropOp37
 70
     1
102
RTVSPost2010Prop38
140
0.0
102
RTVSPost2010PropOp38
 70
     1
102
RTVSPost2010Prop39
140
1.0
102
RTVSPost2010PropOp39
 70
     1
102
RTVSPost2010Prop40
 90
        0
102
RTVSPost2010PropOp40
 70
     1
102
RTVSPost2010Prop41ColorIndex
 90
       18
102
RTVSPost2010Prop41ColorRGB
 90
        0
102
RTVSPost2010PropOp41
 70
     1
102
RTVSPost2010Prop42
 90
       50
102
RTVSPost2010PropOp42
 70
     1
102
RTVSPost2010Prop43
 90
        3
102
RTVSPost2010PropOp43
 70
     1
102
RTVSPost2010Prop44ColorIndex
 90
        5
102
RTVSPost2010Prop44ColorRGB
 90
      255
102
RTVSPost2010PropOp44
 70
     1
102
RTVSPost2010Prop45
280
     0
102
RTVSPost2010PropOp45
 70
     1
102
RTVSPost2010Prop46
 90
       50
102
RTVSPost2010PropOp46
 70
     1
102
RTVSPost2010Prop47
 90
       50
102
RTVSPost2010PropOp47
 70
     1
102
RTVSPost2010Prop48
 90
       50
102
RTVSPost2010PropOp48
 70
     1
102
RTVSPost2010Prop49
280
     0
102
RTVSPost2010PropOp49
 70
     1
102
RTVSPost2010Prop50
 90
       50
102
RTVSPost2010PropOp50
 70
     1
102
RTVSPost2010Prop51ColorIndex
 90
      256
102
RTVSPost2010Prop51ColorRGB
 90
-16777216
102
RTVSPost2010PropOp51
 70
     0
102
RTVSPost2010Prop52
140
1.0
102
RTVSPost2010PropOp52
 70
     0
102
RTVSPost2010Prop53
 90
        2
102
RTVSPost2010PropOp53
 70
     1
102
RTVSPost2010Prop54
  1
strokes_ogs.tif
102
RTVSPost2010PropOp54
 70
     1
102
RTVSPost2010Prop55
280
     0
102
RTVSPost2010PropOp55
 70
     1
102
RTVSPost2010Prop56
140
1.0
102
RTVSPost2010PropOp56
 70
     1
102
RTVSPost2010Prop57
140
1.0
102
RTVSPost2010PropOp57
 70
     1
102
RTVSPropertyOp0
 70
     1
102
RTVSPropertyOp1
 70
     1
102
RTVSPropertyOp2
 70
     1
102
RTVSPropertyOp3
 70
     1
102
RTVSPropertyOp4
 70
     1
102
RTVSPropertyOp5
 70
     1
102
RTVSPropertyOp6
 70
     1
102
RTVSPropertyOp7
 70
     1
102
RTVSPropertyOp8
 70
     1
102
RTVSPropertyOp9
 70
     1
102
RTVSPropertyOp10
 70
     1
102
RTVSPropertyOp11
 70
     1
102
RTVSPropertyOp12
 70
     1
102
RTVSPropertyOp13
 70
     1
102
RTVSPropertyOp14
 70
     1
102
RTVSPropertyOp15
 70
     1
102
RTVSPropertyOp16
 70
     1
102
RTVSPropertyOp17
 70
     1
102
RTVSPropertyOp18
 70
     1
102
RTVSPropertyOp19
 70
     1
102
RTVSPropertyOp20
 70
     1
102
RTVSPropertyOp21
 70
     1
102
RTVSPropertyOp22
 70
     1
102
RTVSPropertyOp23
 70
     1
102
RTVSPropertyOp24
 70
     1
102
RTVSPropertyOp25
 70
     1
102
RTVSPropertyOp26
 70
     1
102
RTVSPropertyOp27
 70
     1
102
RTVSPropertyOp28
 70
     1
102
RTVSPropertyOp29
 70
     1
102
RTVSPropertyOp30
 70
     1
102
RTVSPropertyOp31
 70
     1
102
RTVSPropertyOp32
 70
     1
102
RTVSPropertyOp33
 70
     1
102
RTVSPropertyOp34
 70
     1
102
RTVSPropertyOp35
 70
     1
102
RTVSPropertyOp36
 70
     1
102
RTVSPropertyOp37
 70
     1
102
RTVSPropertyOp38
 70
     1
102
RTVSPropertyOp39
 70
     1
102
RTVSPropertyOp40
 70
     1
102
RTVSPropertyOp41
 70
     1
102
RTVSPropertyOp42
 70
     1
102
RTVSPropertyOp43
 70
     1
102
RTVSPropertyOp44
 70
     1
102
RTVSPropertyOp45
 70
     1
102
RTVSPropertyOp46
 70
     1
102
RTVSPropertyOp47
 70
     1
102
RTVSPropertyOp48
 70
     1
102
RTVSPropertyOp49
 70
     1
102
RTVSPropertyOp50
 70
     1
102
RTVSPropertyOp51
 70
     0
102
RTVSPropertyOp52
 70
     0
102
RTVSPropertyOp53
 70
     1
102
RTVSPropertyOp54
 70
     1
102
RTVSPropertyOp55
 70
     1
102
RTVSPropertyOp56
 70
     1
102
RTVSPropertyOp57
 70
     1
102
RTVSPropertyOp58
 70
     1
102
RTVSPropertyOp59
 70
     1
102
RTVSPropertyOp60
 70
     1
102
RTVSPropertyOp61
 70
     1
102
RTVSPropertyOp62
 70
     1
  0
XRECORD
  5
459B
102
{ACAD_REACTORS
330
459A
102
}
330
459A
100
AcDbXrecord
280
     1
102
RTVSPost2010Prop28
280
     0
102
RTVSPost2010PropOp28
 70
     1
102
RTVSPost2010Prop29
280
     1
102
RTVSPost2010PropOp29
 70
     1
102
RTVSPost2010Prop30
280
     1
102
RTVSPost2010PropOp30
 70
     1
102
RTVSPost2010Prop31
280
     0
102
RTVSPost2010PropOp31
 70
     1
102
RTVSPost2010Prop32
280
     0
102
RTVSPost2010PropOp32
 70
     1
102
RTVSPost2010Prop33
280
     0
102
RTVSPost2010PropOp33
 70
     1
102
RTVSPost2010Prop34
280
     0
102
RTVSPost2010PropOp34
 70
     1
102
RTVSPost2010Prop35
280
     0
102
RTVSPost2010PropOp35
 70
     1
102
RTVSPost2010Prop36
280
     0
102
RTVSPost2010PropOp36
 70
     1
102
RTVSPost2010Prop37
 90
       50
102
RTVSPost2010PropOp37
 70
     1
102
RTVSPost2010Prop38
140
0.0
102
RTVSPost2010PropOp38
 70
     1
102
RTVSPost2010Prop39
140
1.0
102
RTVSPost2010PropOp39
 70
     1
102
RTVSPost2010Prop40
 90
        0
102
RTVSPost2010PropOp40
 70
     1
102
RTVSPost2010Prop41ColorIndex
 90
       18
102
RTVSPost2010Prop41ColorRGB
 90
        0
102
RTVSPost2010PropOp41
 70
     1
102
RTVSPost2010Prop42
 90
       50
102
RTVSPost2010PropOp42
 70
     1
102
RTVSPost2010Prop43
 90
        3
102
RTVSPost2010PropOp43
 70
     1
102
RTVSPost2010Prop44ColorIndex
 90
        5
102
RTVSPost2010Prop44ColorRGB
 90
      255
102
RTVSPost2010PropOp44
 70
     1
102
RTVSPost2010Prop45
280
     0
102
RTVSPost2010PropOp45
 70
     1
102
RTVSPost2010Prop46
 90
       50
102
RTVSPost2010PropOp46
 70
     1
102
RTVSPost2010Prop47
 90
       50
102
RTVSPost2010PropOp47
 70
     1
102
RTVSPost2010Prop48
 90
       50
102
RTVSPost2010PropOp48
 70
     1
102
RTVSPost2010Prop49
280
     0
102
RTVSPost2010PropOp49
 70
     1
102
RTVSPost2010Prop50
 90
       50
102
RTVSPost2010PropOp50
 70
     1
102
RTVSPost2010Prop51ColorIndex
 90
      256
102
RTVSPost2010Prop51ColorRGB
 90
-16777216
102
RTVSPost2010PropOp51
 70
     0
102
RTVSPost2010Prop52
140
1.0
102
RTVSPost2010PropOp52
 70
     0
102
RTVSPost2010Prop53
 90
        2
102
RTVSPost2010PropOp53
 70
     1
102
RTVSPost2010Prop54
  1
strokes_ogs.tif
102
RTVSPost2010PropOp54
 70
     1
102
RTVSPost2010Prop55
280
     0
102
RTVSPost2010PropOp55
 70
     1
102
RTVSPost2010Prop56
140
1.0
102
RTVSPost2010PropOp56
 70
     1
102
RTVSPost2010Prop57
140
1.0
102
RTVSPost2010PropOp57
 70
     1
102
RTVSPropertyOp0
 70
     1
102
RTVSPropertyOp1
 70
     1
102
RTVSPropertyOp2
 70
     1
102
RTVSPropertyOp3
 70
     1
102
RTVSPropertyOp4
 70
     1
102
RTVSPropertyOp5
 70
     1
102
RTVSPropertyOp6
 70
     1
102
RTVSPropertyOp7
 70
     1
102
RTVSPropertyOp8
 70
     1
102
RTVSPropertyOp9
 70
     1
102
RTVSPropertyOp10
 70
     1
102
RTVSPropertyOp11
 70
     1
102
RTVSPropertyOp12
 70
     1
102
RTVSPropertyOp13
 70
     1
102
RTVSPropertyOp14
 70
     1
102
RTVSPropertyOp15
 70
     1
102
RTVSPropertyOp16
 70
     1
102
RTVSPropertyOp17
 70
     1
102
RTVSPropertyOp18
 70
     1
102
RTVSPropertyOp19
 70
     1
102
RTVSPropertyOp20
 70
     1
102
RTVSPropertyOp21
 70
     1
102
RTVSPropertyOp22
 70
     1
102
RTVSPropertyOp23
 70
     1
102
RTVSPropertyOp24
 70
     1
102
RTVSPropertyOp25
 70
     1
102
RTVSPropertyOp26
 70
     1
102
RTVSPropertyOp27
 70
     1
102
RTVSPropertyOp28
 70
     1
102
RTVSPropertyOp29
 70
     1
102
RTVSPropertyOp30
 70
     1
102
RTVSPropertyOp31
 70
     1
102
RTVSPropertyOp32
 70
     1
102
RTVSPropertyOp33
 70
     1
102
RTVSPropertyOp34
 70
     1
102
RTVSPropertyOp35
 70
     1
102
RTVSPropertyOp36
 70
     1
102
RTVSPropertyOp37
 70
     1
102
RTVSPropertyOp38
 70
     1
102
RTVSPropertyOp39
 70
     1
102
RTVSPropertyOp40
 70
     1
102
RTVSPropertyOp41
 70
     1
102
RTVSPropertyOp42
 70
     1
102
RTVSPropertyOp43
 70
     1
102
RTVSPropertyOp44
 70
     1
102
RTVSPropertyOp45
 70
     1
102
RTVSPropertyOp46
 70
     1
102
RTVSPropertyOp47
 70
     1
102
RTVSPropertyOp48
 70
     1
102
RTVSPropertyOp49
 70
     1
102
RTVSPropertyOp50
 70
     1
102
RTVSPropertyOp51
 70
     0
102
RTVSPropertyOp52
 70
     0
102
RTVSPropertyOp53
 70
     1
102
RTVSPropertyOp54
 70
     1
102
RTVSPropertyOp55
 70
     1
102
RTVSPropertyOp56
 70
     1
102
RTVSPropertyOp57
 70
     1
102
RTVSPropertyOp58
 70
     1
102
RTVSPropertyOp59
 70
     1
102
RTVSPropertyOp60
 70
     1
102
RTVSPropertyOp61
 70
     1
102
RTVSPropertyOp62
 70
     1
  0
XRECORD
  5
4595
102
{ACAD_REACTORS
330
4594
102
}
330
4594
100
AcDbXrecord
280
     1
102
RTVSPost2010Prop28
280
     0
102
RTVSPost2010PropOp28
 70
     1
102
RTVSPost2010Prop29
280
     1
102
RTVSPost2010PropOp29
 70
     1
102
RTVSPost2010Prop30
280
     1
102
RTVSPost2010PropOp30
 70
     1
102
RTVSPost2010Prop31
280
     0
102
RTVSPost2010PropOp31
 70
     1
102
RTVSPost2010Prop32
280
     0
102
RTVSPost2010PropOp32
 70
     1
102
RTVSPost2010Prop33
280
     0
102
RTVSPost2010PropOp33
 70
     1
102
RTVSPost2010Prop34
280
     0
102
RTVSPost2010PropOp34
 70
     1
102
RTVSPost2010Prop35
280
     0
102
RTVSPost2010PropOp35
 70
     1
102
RTVSPost2010Prop36
280
     0
102
RTVSPost2010PropOp36
 70
     1
102
RTVSPost2010Prop37
 90
       50
102
RTVSPost2010PropOp37
 70
     1
102
RTVSPost2010Prop38
140
0.0
102
RTVSPost2010PropOp38
 70
     1
102
RTVSPost2010Prop39
140
1.0
102
RTVSPost2010PropOp39
 70
     1
102
RTVSPost2010Prop40
 90
        0
102
RTVSPost2010PropOp40
 70
     1
102
RTVSPost2010Prop41ColorIndex
 90
       18
102
RTVSPost2010Prop41ColorRGB
 90
        0
102
RTVSPost2010PropOp41
 70
     1
102
RTVSPost2010Prop42
 90
       50
102
RTVSPost2010PropOp42
 70
     1
102
RTVSPost2010Prop43
 90
        3
102
RTVSPost2010PropOp43
 70
     1
102
RTVSPost2010Prop44ColorIndex
 90
        5
102
RTVSPost2010Prop44ColorRGB
 90
      255
102
RTVSPost2010PropOp44
 70
     1
102
RTVSPost2010Prop45
280
     0
102
RTVSPost2010PropOp45
 70
     1
102
RTVSPost2010Prop46
 90
       50
102
RTVSPost2010PropOp46
 70
     1
102
RTVSPost2010Prop47
 90
       50
102
RTVSPost2010PropOp47
 70
     1
102
RTVSPost2010Prop48
 90
       50
102
RTVSPost2010PropOp48
 70
     1
102
RTVSPost2010Prop49
280
     0
102
RTVSPost2010PropOp49
 70
     1
102
RTVSPost2010Prop50
 90
       50
102
RTVSPost2010PropOp50
 70
     1
102
RTVSPost2010Prop51ColorIndex
 90
      256
102
RTVSPost2010Prop51ColorRGB
 90
-16777216
102
RTVSPost2010PropOp51
 70
     0
102
RTVSPost2010Prop52
140
1.0
102
RTVSPost2010PropOp52
 70
     0
102
RTVSPost2010Prop53
 90
        2
102
RTVSPost2010PropOp53
 70
     1
102
RTVSPost2010Prop54
  1
strokes_ogs.tif
102
RTVSPost2010PropOp54
 70
     1
102
RTVSPost2010Prop55
280
     0
102
RTVSPost2010PropOp55
 70
     1
102
RTVSPost2010Prop56
140
1.0
102
RTVSPost2010PropOp56
 70
     1
102
RTVSPost2010Prop57
140
1.0
102
RTVSPost2010PropOp57
 70
     1
102
RTVSPropertyOp0
 70
     1
102
RTVSPropertyOp1
 70
     1
102
RTVSPropertyOp2
 70
     1
102
RTVSPropertyOp3
 70
     1
102
RTVSPropertyOp4
 70
     1
102
RTVSPropertyOp5
 70
     1
102
RTVSPropertyOp6
 70
     1
102
RTVSPropertyOp7
 70
     1
102
RTVSPropertyOp8
 70
     1
102
RTVSPropertyOp9
 70
     1
102
RTVSPropertyOp10
 70
     1
102
RTVSPropertyOp11
 70
     1
102
RTVSPropertyOp12
 70
     1
102
RTVSPropertyOp13
 70
     1
102
RTVSPropertyOp14
 70
     1
102
RTVSPropertyOp15
 70
     1
102
RTVSPropertyOp16
 70
     1
102
RTVSPropertyOp17
 70
     1
102
RTVSPropertyOp18
 70
     1
102
RTVSPropertyOp19
 70
     1
102
RTVSPropertyOp20
 70
     1
102
RTVSPropertyOp21
 70
     1
102
RTVSPropertyOp22
 70
     1
102
RTVSPropertyOp23
 70
     1
102
RTVSPropertyOp24
 70
     1
102
RTVSPropertyOp25
 70
     1
102
RTVSPropertyOp26
 70
     1
102
RTVSPropertyOp27
 70
     1
102
RTVSPropertyOp28
 70
     1
102
RTVSPropertyOp29
 70
     1
102
RTVSPropertyOp30
 70
     1
102
RTVSPropertyOp31
 70
     1
102
RTVSPropertyOp32
 70
     1
102
RTVSPropertyOp33
 70
     1
102
RTVSPropertyOp34
 70
     1
102
RTVSPropertyOp35
 70
     1
102
RTVSPropertyOp36
 70
     1
102
RTVSPropertyOp37
 70
     1
102
RTVSPropertyOp38
 70
     1
102
RTVSPropertyOp39
 70
     1
102
RTVSPropertyOp40
 70
     1
102
RTVSPropertyOp41
 70
     1
102
RTVSPropertyOp42
 70
     1
102
RTVSPropertyOp43
 70
     1
102
RTVSPropertyOp44
 70
     1
102
RTVSPropertyOp45
 70
     1
102
RTVSPropertyOp46
 70
     1
102
RTVSPropertyOp47
 70
     1
102
RTVSPropertyOp48
 70
     1
102
RTVSPropertyOp49
 70
     1
102
RTVSPropertyOp50
 70
     1
102
RTVSPropertyOp51
 70
     0
102
RTVSPropertyOp52
 70
     0
102
RTVSPropertyOp53
 70
     1
102
RTVSPropertyOp54
 70
     1
102
RTVSPropertyOp55
 70
     1
102
RTVSPropertyOp56
 70
     1
102
RTVSPropertyOp57
 70
     1
102
RTVSPropertyOp58
 70
     1
102
RTVSPropertyOp59
 70
     1
102
RTVSPropertyOp60
 70
     1
102
RTVSPropertyOp61
 70
     1
102
RTVSPropertyOp62
 70
     1
  0
XRECORD
  5
4597
102
{ACAD_REACTORS
330
4596
102
}
330
4596
100
AcDbXrecord
280
     1
102
RTVSPost2010Prop28
280
     0
102
RTVSPost2010PropOp28
 70
     1
102
RTVSPost2010Prop29
280
     1
102
RTVSPost2010PropOp29
 70
     1
102
RTVSPost2010Prop30
280
     1
102
RTVSPost2010PropOp30
 70
     1
102
RTVSPost2010Prop31
280
     0
102
RTVSPost2010PropOp31
 70
     1
102
RTVSPost2010Prop32
280
     0
102
RTVSPost2010PropOp32
 70
     1
102
RTVSPost2010Prop33
280
     0
102
RTVSPost2010PropOp33
 70
     1
102
RTVSPost2010Prop34
280
     0
102
RTVSPost2010PropOp34
 70
     1
102
RTVSPost2010Prop35
280
     0
102
RTVSPost2010PropOp35
 70
     1
102
RTVSPost2010Prop36
280
     0
102
RTVSPost2010PropOp36
 70
     1
102
RTVSPost2010Prop37
 90
       50
102
RTVSPost2010PropOp37
 70
     1
102
RTVSPost2010Prop38
140
0.0
102
RTVSPost2010PropOp38
 70
     1
102
RTVSPost2010Prop39
140
1.0
102
RTVSPost2010PropOp39
 70
     1
102
RTVSPost2010Prop40
 90
        0
102
RTVSPost2010PropOp40
 70
     1
102
RTVSPost2010Prop41ColorIndex
 90
       18
102
RTVSPost2010Prop41ColorRGB
 90
        0
102
RTVSPost2010PropOp41
 70
     1
102
RTVSPost2010Prop42
 90
       50
102
RTVSPost2010PropOp42
 70
     1
102
RTVSPost2010Prop43
 90
        3
102
RTVSPost2010PropOp43
 70
     1
102
RTVSPost2010Prop44ColorIndex
 90
        5
102
RTVSPost2010Prop44ColorRGB
 90
      255
102
RTVSPost2010PropOp44
 70
     1
102
RTVSPost2010Prop45
280
     0
102
RTVSPost2010PropOp45
 70
     1
102
RTVSPost2010Prop46
 90
       50
102
RTVSPost2010PropOp46
 70
     1
102
RTVSPost2010Prop47
 90
       50
102
RTVSPost2010PropOp47
 70
     1
102
RTVSPost2010Prop48
 90
       50
102
RTVSPost2010PropOp48
 70
     1
102
RTVSPost2010Prop49
280
     0
102
RTVSPost2010PropOp49
 70
     1
102
RTVSPost2010Prop50
 90
       50
102
RTVSPost2010PropOp50
 70
     1
102
RTVSPost2010Prop51ColorIndex
 90
      256
102
RTVSPost2010Prop51ColorRGB
 90
-16777216
102
RTVSPost2010PropOp51
 70
     0
102
RTVSPost2010Prop52
140
1.0
102
RTVSPost2010PropOp52
 70
     0
102
RTVSPost2010Prop53
 90
        2
102
RTVSPost2010PropOp53
 70
     1
102
RTVSPost2010Prop54
  1
strokes_ogs.tif
102
RTVSPost2010PropOp54
 70
     1
102
RTVSPost2010Prop55
280
     0
102
RTVSPost2010PropOp55
 70
     1
102
RTVSPost2010Prop56
140
1.0
102
RTVSPost2010PropOp56
 70
     1
102
RTVSPost2010Prop57
140
1.0
102
RTVSPost2010PropOp57
 70
     1
102
RTVSPropertyOp0
 70
     1
102
RTVSPropertyOp1
 70
     1
102
RTVSPropertyOp2
 70
     1
102
RTVSPropertyOp3
 70
     1
102
RTVSPropertyOp4
 70
     1
102
RTVSPropertyOp5
 70
     1
102
RTVSPropertyOp6
 70
     1
102
RTVSPropertyOp7
 70
     1
102
RTVSPropertyOp8
 70
     1
102
RTVSPropertyOp9
 70
     1
102
RTVSPropertyOp10
 70
     1
102
RTVSPropertyOp11
 70
     1
102
RTVSPropertyOp12
 70
     1
102
RTVSPropertyOp13
 70
     1
102
RTVSPropertyOp14
 70
     1
102
RTVSPropertyOp15
 70
     1
102
RTVSPropertyOp16
 70
     1
102
RTVSPropertyOp17
 70
     1
102
RTVSPropertyOp18
 70
     1
102
RTVSPropertyOp19
 70
     1
102
RTVSPropertyOp20
 70
     1
102
RTVSPropertyOp21
 70
     1
102
RTVSPropertyOp22
 70
     1
102
RTVSPropertyOp23
 70
     1
102
RTVSPropertyOp24
 70
     1
102
RTVSPropertyOp25
 70
     1
102
RTVSPropertyOp26
 70
     1
102
RTVSPropertyOp27
 70
     1
102
RTVSPropertyOp28
 70
     1
102
RTVSPropertyOp29
 70
     1
102
RTVSPropertyOp30
 70
     1
102
RTVSPropertyOp31
 70
     1
102
RTVSPropertyOp32
 70
     1
102
RTVSPropertyOp33
 70
     1
102
RTVSPropertyOp34
 70
     1
102
RTVSPropertyOp35
 70
     1
102
RTVSPropertyOp36
 70
     1
102
RTVSPropertyOp37
 70
     1
102
RTVSPropertyOp38
 70
     1
102
RTVSPropertyOp39
 70
     1
102
RTVSPropertyOp40
 70
     1
102
RTVSPropertyOp41
 70
     1
102
RTVSPropertyOp42
 70
     1
102
RTVSPropertyOp43
 70
     1
102
RTVSPropertyOp44
 70
     1
102
RTVSPropertyOp45
 70
     1
102
RTVSPropertyOp46
 70
     1
102
RTVSPropertyOp47
 70
     1
102
RTVSPropertyOp48
 70
     1
102
RTVSPropertyOp49
 70
     1
102
RTVSPropertyOp50
 70
     1
102
RTVSPropertyOp51
 70
     0
102
RTVSPropertyOp52
 70
     0
102
RTVSPropertyOp53
 70
     1
102
RTVSPropertyOp54
 70
     1
102
RTVSPropertyOp55
 70
     1
102
RTVSPropertyOp56
 70
     1
102
RTVSPropertyOp57
 70
     1
102
RTVSPropertyOp58
 70
     1
102
RTVSPropertyOp59
 70
     1
102
RTVSPropertyOp60
 70
     1
102
RTVSPropertyOp61
 70
     1
102
RTVSPropertyOp62
 70
     1
  0
XRECORD
  5
4585
102
{ACAD_REACTORS
330
4584
102
}
330
4584
100
AcDbXrecord
280
     1
102
RTVSPost2010Prop28
280
     0
102
RTVSPost2010PropOp28
 70
     1
102
RTVSPost2010Prop29
280
     1
102
RTVSPost2010PropOp29
 70
     1
102
RTVSPost2010Prop30
280
     1
102
RTVSPost2010PropOp30
 70
     1
102
RTVSPost2010Prop31
280
     0
102
RTVSPost2010PropOp31
 70
     1
102
RTVSPost2010Prop32
280
     0
102
RTVSPost2010PropOp32
 70
     1
102
RTVSPost2010Prop33
280
     0
102
RTVSPost2010PropOp33
 70
     1
102
RTVSPost2010Prop34
280
     0
102
RTVSPost2010PropOp34
 70
     1
102
RTVSPost2010Prop35
280
     0
102
RTVSPost2010PropOp35
 70
     1
102
RTVSPost2010Prop36
280
     0
102
RTVSPost2010PropOp36
 70
     1
102
RTVSPost2010Prop37
 90
       50
102
RTVSPost2010PropOp37
 70
     1
102
RTVSPost2010Prop38
140
0.0
102
RTVSPost2010PropOp38
 70
     1
102
RTVSPost2010Prop39
140
1.0
102
RTVSPost2010PropOp39
 70
     1
102
RTVSPost2010Prop40
 90
        0
102
RTVSPost2010PropOp40
 70
     1
102
RTVSPost2010Prop41ColorIndex
 90
       18
102
RTVSPost2010Prop41ColorRGB
 90
        0
102
RTVSPost2010PropOp41
 70
     1
102
RTVSPost2010Prop42
 90
       50
102
RTVSPost2010PropOp42
 70
     1
102
RTVSPost2010Prop43
 90
        3
102
RTVSPost2010PropOp43
 70
     1
102
RTVSPost2010Prop44ColorIndex
 90
        5
102
RTVSPost2010Prop44ColorRGB
 90
      255
102
RTVSPost2010PropOp44
 70
     1
102
RTVSPost2010Prop45
280
     0
102
RTVSPost2010PropOp45
 70
     1
102
RTVSPost2010Prop46
 90
       50
102
RTVSPost2010PropOp46
 70
     1
102
RTVSPost2010Prop47
 90
       50
102
RTVSPost2010PropOp47
 70
     1
102
RTVSPost2010Prop48
 90
       50
102
RTVSPost2010PropOp48
 70
     1
102
RTVSPost2010Prop49
280
     0
102
RTVSPost2010PropOp49
 70
     1
102
RTVSPost2010Prop50
 90
       50
102
RTVSPost2010PropOp50
 70
     1
102
RTVSPost2010Prop51ColorIndex
 90
      256
102
RTVSPost2010Prop51ColorRGB
 90
-16777216
102
RTVSPost2010PropOp51
 70
     0
102
RTVSPost2010Prop52
140
1.0
102
RTVSPost2010PropOp52
 70
     0
102
RTVSPost2010Prop53
 90
        2
102
RTVSPost2010PropOp53
 70
     1
102
RTVSPost2010Prop54
  1
strokes_ogs.tif
102
RTVSPost2010PropOp54
 70
     1
102
RTVSPost2010Prop55
280
     0
102
RTVSPost2010PropOp55
 70
     1
102
RTVSPost2010Prop56
140
1.0
102
RTVSPost2010PropOp56
 70
     1
102
RTVSPost2010Prop57
140
1.0
102
RTVSPost2010PropOp57
 70
     1
102
RTVSPropertyOp0
 70
     1
102
RTVSPropertyOp1
 70
     1
102
RTVSPropertyOp2
 70
     1
102
RTVSPropertyOp3
 70
     1
102
RTVSPropertyOp4
 70
     1
102
RTVSPropertyOp5
 70
     1
102
RTVSPropertyOp6
 70
     1
102
RTVSPropertyOp7
 70
     1
102
RTVSPropertyOp8
 70
     1
102
RTVSPropertyOp9
 70
     1
102
RTVSPropertyOp10
 70
     1
102
RTVSPropertyOp11
 70
     1
102
RTVSPropertyOp12
 70
     1
102
RTVSPropertyOp13
 70
     1
102
RTVSPropertyOp14
 70
     1
102
RTVSPropertyOp15
 70
     1
102
RTVSPropertyOp16
 70
     1
102
RTVSPropertyOp17
 70
     1
102
RTVSPropertyOp18
 70
     1
102
RTVSPropertyOp19
 70
     1
102
RTVSPropertyOp20
 70
     1
102
RTVSPropertyOp21
 70
     1
102
RTVSPropertyOp22
 70
     1
102
RTVSPropertyOp23
 70
     1
102
RTVSPropertyOp24
 70
     1
102
RTVSPropertyOp25
 70
     1
102
RTVSPropertyOp26
 70
     1
102
RTVSPropertyOp27
 70
     1
102
RTVSPropertyOp28
 70
     1
102
RTVSPropertyOp29
 70
     1
102
RTVSPropertyOp30
 70
     1
102
RTVSPropertyOp31
 70
     1
102
RTVSPropertyOp32
 70
     1
102
RTVSPropertyOp33
 70
     1
102
RTVSPropertyOp34
 70
     1
102
RTVSPropertyOp35
 70
     1
102
RTVSPropertyOp36
 70
     1
102
RTVSPropertyOp37
 70
     1
102
RTVSPropertyOp38
 70
     1
102
RTVSPropertyOp39
 70
     1
102
RTVSPropertyOp40
 70
     1
102
RTVSPropertyOp41
 70
     1
102
RTVSPropertyOp42
 70
     1
102
RTVSPropertyOp43
 70
     1
102
RTVSPropertyOp44
 70
     1
102
RTVSPropertyOp45
 70
     1
102
RTVSPropertyOp46
 70
     1
102
RTVSPropertyOp47
 70
     1
102
RTVSPropertyOp48
 70
     1
102
RTVSPropertyOp49
 70
     1
102
RTVSPropertyOp50
 70
     1
102
RTVSPropertyOp51
 70
     0
102
RTVSPropertyOp52
 70
     0
102
RTVSPropertyOp53
 70
     1
102
RTVSPropertyOp54
 70
     1
102
RTVSPropertyOp55
 70
     1
102
RTVSPropertyOp56
 70
     1
102
RTVSPropertyOp57
 70
     1
102
RTVSPropertyOp58
 70
     1
102
RTVSPropertyOp59
 70
     1
102
RTVSPropertyOp60
 70
     1
102
RTVSPropertyOp61
 70
     1
102
RTVSPropertyOp62
 70
     1
  0
XRECORD
  5
4579
102
{ACAD_REACTORS
330
4578
102
}
330
4578
100
AcDbXrecord
280
     1
102
RTVSPost2010Prop28
280
     0
102
RTVSPost2010PropOp28
 70
     1
102
RTVSPost2010Prop29
280
     1
102
RTVSPost2010PropOp29
 70
     1
102
RTVSPost2010Prop30
280
     1
102
RTVSPost2010PropOp30
 70
     1
102
RTVSPost2010Prop31
280
     0
102
RTVSPost2010PropOp31
 70
     1
102
RTVSPost2010Prop32
280
     0
102
RTVSPost2010PropOp32
 70
     1
102
RTVSPost2010Prop33
280
     0
102
RTVSPost2010PropOp33
 70
     1
102
RTVSPost2010Prop34
280
     0
102
RTVSPost2010PropOp34
 70
     1
102
RTVSPost2010Prop35
280
     0
102
RTVSPost2010PropOp35
 70
     1
102
RTVSPost2010Prop36
280
     0
102
RTVSPost2010PropOp36
 70
     1
102
RTVSPost2010Prop37
 90
       50
102
RTVSPost2010PropOp37
 70
     1
102
RTVSPost2010Prop38
140
0.0
102
RTVSPost2010PropOp38
 70
     1
102
RTVSPost2010Prop39
140
1.0
102
RTVSPost2010PropOp39
 70
     1
102
RTVSPost2010Prop40
 90
        0
102
RTVSPost2010PropOp40
 70
     1
102
RTVSPost2010Prop41ColorIndex
 90
       18
102
RTVSPost2010Prop41ColorRGB
 90
        0
102
RTVSPost2010PropOp41
 70
     1
102
RTVSPost2010Prop42
 90
       50
102
RTVSPost2010PropOp42
 70
     1
102
RTVSPost2010Prop43
 90
        3
102
RTVSPost2010PropOp43
 70
     1
102
RTVSPost2010Prop44ColorIndex
 90
        5
102
RTVSPost2010Prop44ColorRGB
 90
      255
102
RTVSPost2010PropOp44
 70
     1
102
RTVSPost2010Prop45
280
     0
102
RTVSPost2010PropOp45
 70
     1
102
RTVSPost2010Prop46
 90
       50
102
RTVSPost2010PropOp46
 70
     1
102
RTVSPost2010Prop47
 90
       50
102
RTVSPost2010PropOp47
 70
     1
102
RTVSPost2010Prop48
 90
       50
102
RTVSPost2010PropOp48
 70
     1
102
RTVSPost2010Prop49
280
     0
102
RTVSPost2010PropOp49
 70
     1
102
RTVSPost2010Prop50
 90
       50
102
RTVSPost2010PropOp50
 70
     1
102
RTVSPost2010Prop51ColorIndex
 90
      256
102
RTVSPost2010Prop51ColorRGB
 90
-16777216
102
RTVSPost2010PropOp51
 70
     0
102
RTVSPost2010Prop52
140
1.0
102
RTVSPost2010PropOp52
 70
     0
102
RTVSPost2010Prop53
 90
        2
102
RTVSPost2010PropOp53
 70
     1
102
RTVSPost2010Prop54
  1
strokes_ogs.tif
102
RTVSPost2010PropOp54
 70
     1
102
RTVSPost2010Prop55
280
     0
102
RTVSPost2010PropOp55
 70
     1
102
RTVSPost2010Prop56
140
1.0
102
RTVSPost2010PropOp56
 70
     1
102
RTVSPost2010Prop57
140
1.0
102
RTVSPost2010PropOp57
 70
     1
102
RTVSPropertyOp0
 70
     1
102
RTVSPropertyOp1
 70
     1
102
RTVSPropertyOp2
 70
     1
102
RTVSPropertyOp3
 70
     1
102
RTVSPropertyOp4
 70
     1
102
RTVSPropertyOp5
 70
     1
102
RTVSPropertyOp6
 70
     1
102
RTVSPropertyOp7
 70
     1
102
RTVSPropertyOp8
 70
     1
102
RTVSPropertyOp9
 70
     1
102
RTVSPropertyOp10
 70
     1
102
RTVSPropertyOp11
 70
     1
102
RTVSPropertyOp12
 70
     1
102
RTVSPropertyOp13
 70
     1
102
RTVSPropertyOp14
 70
     1
102
RTVSPropertyOp15
 70
     1
102
RTVSPropertyOp16
 70
     1
102
RTVSPropertyOp17
 70
     1
102
RTVSPropertyOp18
 70
     1
102
RTVSPropertyOp19
 70
     1
102
RTVSPropertyOp20
 70
     1
102
RTVSPropertyOp21
 70
     1
102
RTVSPropertyOp22
 70
     1
102
RTVSPropertyOp23
 70
     1
102
RTVSPropertyOp24
 70
     1
102
RTVSPropertyOp25
 70
     1
102
RTVSPropertyOp26
 70
     1
102
RTVSPropertyOp27
 70
     1
102
RTVSPropertyOp28
 70
     1
102
RTVSPropertyOp29
 70
     1
102
RTVSPropertyOp30
 70
     1
102
RTVSPropertyOp31
 70
     1
102
RTVSPropertyOp32
 70
     1
102
RTVSPropertyOp33
 70
     1
102
RTVSPropertyOp34
 70
     1
102
RTVSPropertyOp35
 70
     1
102
RTVSPropertyOp36
 70
     1
102
RTVSPropertyOp37
 70
     1
102
RTVSPropertyOp38
 70
     1
102
RTVSPropertyOp39
 70
     1
102
RTVSPropertyOp40
 70
     1
102
RTVSPropertyOp41
 70
     1
102
RTVSPropertyOp42
 70
     1
102
RTVSPropertyOp43
 70
     1
102
RTVSPropertyOp44
 70
     1
102
RTVSPropertyOp45
 70
     1
102
RTVSPropertyOp46
 70
     1
102
RTVSPropertyOp47
 70
     1
102
RTVSPropertyOp48
 70
     1
102
RTVSPropertyOp49
 70
     1
102
RTVSPropertyOp50
 70
     1
102
RTVSPropertyOp51
 70
     0
102
RTVSPropertyOp52
 70
     0
102
RTVSPropertyOp53
 70
     1
102
RTVSPropertyOp54
 70
     1
102
RTVSPropertyOp55
 70
     1
102
RTVSPropertyOp56
 70
     1
102
RTVSPropertyOp57
 70
     1
102
RTVSPropertyOp58
 70
     1
102
RTVSPropertyOp59
 70
     1
102
RTVSPropertyOp60
 70
     1
102
RTVSPropertyOp61
 70
     1
102
RTVSPropertyOp62
 70
     1
  0
XRECORD
  5
4599
102
{ACAD_REACTORS
330
4598
102
}
330
4598
100
AcDbXrecord
280
     1
102
RTVSPost2010Prop28
280
     0
102
RTVSPost2010PropOp28
 70
     1
102
RTVSPost2010Prop29
280
     1
102
RTVSPost2010PropOp29
 70
     1
102
RTVSPost2010Prop30
280
     1
102
RTVSPost2010PropOp30
 70
     1
102
RTVSPost2010Prop31
280
     0
102
RTVSPost2010PropOp31
 70
     1
102
RTVSPost2010Prop32
280
     0
102
RTVSPost2010PropOp32
 70
     1
102
RTVSPost2010Prop33
280
     0
102
RTVSPost2010PropOp33
 70
     1
102
RTVSPost2010Prop34
280
     0
102
RTVSPost2010PropOp34
 70
     1
102
RTVSPost2010Prop35
280
     0
102
RTVSPost2010PropOp35
 70
     1
102
RTVSPost2010Prop36
280
     0
102
RTVSPost2010PropOp36
 70
     1
102
RTVSPost2010Prop37
 90
       50
102
RTVSPost2010PropOp37
 70
     1
102
RTVSPost2010Prop38
140
0.0
102
RTVSPost2010PropOp38
 70
     1
102
RTVSPost2010Prop39
140
1.0
102
RTVSPost2010PropOp39
 70
     1
102
RTVSPost2010Prop40
 90
        0
102
RTVSPost2010PropOp40
 70
     1
102
RTVSPost2010Prop41ColorIndex
 90
       18
102
RTVSPost2010Prop41ColorRGB
 90
        0
102
RTVSPost2010PropOp41
 70
     1
102
RTVSPost2010Prop42
 90
       50
102
RTVSPost2010PropOp42
 70
     1
102
RTVSPost2010Prop43
 90
        3
102
RTVSPost2010PropOp43
 70
     1
102
RTVSPost2010Prop44ColorIndex
 90
        5
102
RTVSPost2010Prop44ColorRGB
 90
      255
102
RTVSPost2010PropOp44
 70
     1
102
RTVSPost2010Prop45
280
     0
102
RTVSPost2010PropOp45
 70
     1
102
RTVSPost2010Prop46
 90
       50
102
RTVSPost2010PropOp46
 70
     1
102
RTVSPost2010Prop47
 90
       50
102
RTVSPost2010PropOp47
 70
     1
102
RTVSPost2010Prop48
 90
       50
102
RTVSPost2010PropOp48
 70
     1
102
RTVSPost2010Prop49
280
     0
102
RTVSPost2010PropOp49
 70
     1
102
RTVSPost2010Prop50
 90
       50
102
RTVSPost2010PropOp50
 70
     1
102
RTVSPost2010Prop51ColorIndex
 90
      256
102
RTVSPost2010Prop51ColorRGB
 90
-16777216
102
RTVSPost2010PropOp51
 70
     0
102
RTVSPost2010Prop52
140
1.0
102
RTVSPost2010PropOp52
 70
     0
102
RTVSPost2010Prop53
 90
        2
102
RTVSPost2010PropOp53
 70
     1
102
RTVSPost2010Prop54
  1
strokes_ogs.tif
102
RTVSPost2010PropOp54
 70
     1
102
RTVSPost2010Prop55
280
     0
102
RTVSPost2010PropOp55
 70
     1
102
RTVSPost2010Prop56
140
1.0
102
RTVSPost2010PropOp56
 70
     1
102
RTVSPost2010Prop57
140
1.0
102
RTVSPost2010PropOp57
 70
     1
102
RTVSPropertyOp0
 70
     1
102
RTVSPropertyOp1
 70
     1
102
RTVSPropertyOp2
 70
     1
102
RTVSPropertyOp3
 70
     1
102
RTVSPropertyOp4
 70
     1
102
RTVSPropertyOp5
 70
     1
102
RTVSPropertyOp6
 70
     1
102
RTVSPropertyOp7
 70
     1
102
RTVSPropertyOp8
 70
     1
102
RTVSPropertyOp9
 70
     1
102
RTVSPropertyOp10
 70
     1
102
RTVSPropertyOp11
 70
     1
102
RTVSPropertyOp12
 70
     1
102
RTVSPropertyOp13
 70
     1
102
RTVSPropertyOp14
 70
     1
102
RTVSPropertyOp15
 70
     1
102
RTVSPropertyOp16
 70
     1
102
RTVSPropertyOp17
 70
     1
102
RTVSPropertyOp18
 70
     1
102
RTVSPropertyOp19
 70
     1
102
RTVSPropertyOp20
 70
     1
102
RTVSPropertyOp21
 70
     1
102
RTVSPropertyOp22
 70
     1
102
RTVSPropertyOp23
 70
     1
102
RTVSPropertyOp24
 70
     1
102
RTVSPropertyOp25
 70
     1
102
RTVSPropertyOp26
 70
     1
102
RTVSPropertyOp27
 70
     1
102
RTVSPropertyOp28
 70
     1
102
RTVSPropertyOp29
 70
     1
102
RTVSPropertyOp30
 70
     1
102
RTVSPropertyOp31
 70
     1
102
RTVSPropertyOp32
 70
     1
102
RTVSPropertyOp33
 70
     1
102
RTVSPropertyOp34
 70
     1
102
RTVSPropertyOp35
 70
     1
102
RTVSPropertyOp36
 70
     1
102
RTVSPropertyOp37
 70
     1
102
RTVSPropertyOp38
 70
     1
102
RTVSPropertyOp39
 70
     1
102
RTVSPropertyOp40
 70
     1
102
RTVSPropertyOp41
 70
     1
102
RTVSPropertyOp42
 70
     1
102
RTVSPropertyOp43
 70
     1
102
RTVSPropertyOp44
 70
     1
102
RTVSPropertyOp45
 70
     1
102
RTVSPropertyOp46
 70
     1
102
RTVSPropertyOp47
 70
     1
102
RTVSPropertyOp48
 70
     1
102
RTVSPropertyOp49
 70
     1
102
RTVSPropertyOp50
 70
     1
102
RTVSPropertyOp51
 70
     0
102
RTVSPropertyOp52
 70
     0
102
RTVSPropertyOp53
 70
     1
102
RTVSPropertyOp54
 70
     1
102
RTVSPropertyOp55
 70
     1
102
RTVSPropertyOp56
 70
     1
102
RTVSPropertyOp57
 70
     1
102
RTVSPropertyOp58
 70
     1
102
RTVSPropertyOp59
 70
     1
102
RTVSPropertyOp60
 70
     1
102
RTVSPropertyOp61
 70
     1
102
RTVSPropertyOp62
 70
     1
  0
ENDSEC
  0
EOF
