  0
SECTION
  2
HEADER
  9
$ACADVER
  1
AC1015
  9
$ACADMAINTVER
 70
    18
  9
$DWGCODEPAGE
  3
ANSI_1252
  9
$INSBASE
 10
0.0
 20
0.0
 30
0.0
  9
$EXTMIN
 10
-203.0081169342251
 20
-373.7289273558754
 30
-0.0015258207003583
  9
$EXTMAX
 10
219.1323859979543
 20
455.5108803926396
 30
0.0000000349246037
  9
$LIMMIN
 10
0.0
 20
0.0
  9
$LIMMAX
 10
420.0
 20
297.0
  9
$ORTHOMODE
 70
     0
  9
$REGENMODE
 70
     1
  9
$FILLMODE
 70
     1
  9
$QTEXTMODE
 70
     0
  9
$MIRRTEXT
 70
     0
  9
$LTSCALE
 40
1.0
  9
$ATTMODE
 70
     1
  9
$TEXTSIZE
 40
2.5
  9
$TRACEWID
 40
1.0
  9
$TEXTSTYLE
  7
Standard
  9
$CLAYER
  8
0
  9
$CELTYPE
  6
ByLayer
  9
$CECOLOR
 62
   256
  9
$CELTSCALE
 40
1.0
  9
$DISPSILH
 70
     0
  9
$DIMSCALE
 40
1.0
  9
$DIMASZ
 40
2.5
  9
$DIMEXO
 40
0.625
  9
$DIMDLI
 40
3.75
  9
$DIMRND
 40
0.0
  9
$DIMDLE
 40
0.0
  9
$DIMEXE
 40
1.25
  9
$DIMTP
 40
0.0
  9
$DIMTM
 40
0.0
  9
$DIMTXT
 40
2.5
  9
$DIMCEN
 40
2.5
  9
$DIMTSZ
 40
0.0
  9
$DIMTOL
 70
     0
  9
$DIMLIM
 70
     0
  9
$DIMTIH
 70
     0
  9
$DIMTOH
 70
     0
  9
$DIMSE1
 70
     0
  9
$DIMSE2
 70
     0
  9
$DIMTAD
 70
     1
  9
$DIMZIN
 70
     8
  9
$DIMBLK
  1

  9
$DIMASO
 70
     1
  9
$DIMSHO
 70
     1
  9
$DIMPOST
  1

  9
$DIMAPOST
  1

  9
$DIMALT
 70
     0
  9
$DIMALTD
 70
     3
  9
$DIMALTF
 40
0.03937007874016
  9
$DIMLFAC
 40
1.0
  9
$DIMTOFL
 70
     1
  9
$DIMTVP
 40
0.0
  9
$DIMTIX
 70
     0
  9
$DIMSOXD
 70
     0
  9
$DIMSAH
 70
     0
  9
$DIMBLK1
  1

  9
$DIMBLK2
  1

  9
$DIMSTYLE
  2
ISO-25
  9
$DIMCLRD
 70
     0
  9
$DIMCLRE
 70
     0
  9
$DIMCLRT
 70
     0
  9
$DIMTFAC
 40
1.0
  9
$DIMGAP
 40
0.625
  9
$DIMJUST
 70
     0
  9
$DIMSD1
 70
     0
  9
$DIMSD2
 70
     0
  9
$DIMTOLJ
 70
     0
  9
$DIMTZIN
 70
     8
  9
$DIMALTZ
 70
     0
  9
$DIMALTTZ
 70
     0
  9
$DIMUPT
 70
     0
  9
$DIMDEC
 70
     2
  9
$DIMTDEC
 70
     2
  9
$DIMALTU
 70
     2
  9
$DIMALTTD
 70
     3
  9
$DIMTXSTY
  7
Standard
  9
$DIMAUNIT
 70
     0
  9
$DIMADEC
 70
     0
  9
$DIMALTRND
 40
0.0
  9
$DIMAZIN
 70
     0
  9
$DIMDSEP
 70
    44
  9
$DIMATFIT
 70
     3
  9
$DIMFRAC
 70
     0
  9
$DIMLDRBLK
  1

  9
$DIMLUNIT
 70
     2
  9
$DIMLWD
 70
    -2
  9
$DIMLWE
 70
    -2
  9
$DIMTMOVE
 70
     0
  9
$LUNITS
 70
     2
  9
$LUPREC
 70
     4
  9
$SKETCHINC
 40
1.0
  9
$FILLETRAD
 40
0.0
  9
$AUNITS
 70
     0
  9
$AUPREC
 70
     0
  9
$MENU
  1
.
  9
$ELEVATION
 40
0.0
  9
$PELEVATION
 40
0.0
  9
$THICKNESS
 40
0.0
  9
$LIMCHECK
 70
     0
  9
$CHAMFERA
 40
0.0
  9
$CHAMFERB
 40
0.0
  9
$CHAMFERC
 40
0.0
  9
$CHAMFERD
 40
0.0
  9
$SKPOLY
 70
     0
  9
$TDCREATE
 40
2460572.688854167
  9
$TDUCREATE
 40
2460572.397187500
  9
$TDUPDATE
 40
2460573.370289352
  9
$TDUUPDATE
 40
2460573.078622685
  9
$TDINDWG
 40
0.6790509259
  9
$TDUSRTIMER
 40
0.6790509259
  9
$USRTIMER
 70
     1
  9
$ANGBASE
 50
0.0
  9
$ANGDIR
 70
     0
  9
$PDMODE
 70
     0
  9
$PDSIZE
 40
0.0
  9
$PLINEWID
 40
0.0
  9
$SPLFRAME
 70
     0
  9
$SPLINETYPE
 70
     6
  9
$SPLINESEGS
 70
     8
  9
$HANDSEED
  5
4115
  9
$SURFTAB1
 70
     6
  9
$SURFTAB2
 70
     6
  9
$SURFTYPE
 70
     6
  9
$SURFU
 70
     6
  9
$SURFV
 70
     6
  9
$UCSBASE
  2

  9
$UCSNAME
  2

  9
$UCSORG
 10
0.0
 20
0.0
 30
0.0
  9
$UCSXDIR
 10
1.0
 20
0.0
 30
0.0
  9
$UCSYDIR
 10
0.0
 20
1.0
 30
0.0
  9
$UCSORTHOREF
  2

  9
$UCSORTHOVIEW
 70
     0
  9
$UCSORGTOP
 10
0.0
 20
0.0
 30
0.0
  9
$UCSORGBOTTOM
 10
0.0
 20
0.0
 30
0.0
  9
$UCSORGLEFT
 10
0.0
 20
0.0
 30
0.0
  9
$UCSORGRIGHT
 10
0.0
 20
0.0
 30
0.0
  9
$UCSORGFRONT
 10
0.0
 20
0.0
 30
0.0
  9
$UCSORGBACK
 10
0.0
 20
0.0
 30
0.0
  9
$PUCSBASE
  2

  9
$PUCSNAME
  2

  9
$PUCSORG
 10
0.0
 20
0.0
 30
0.0
  9
$PUCSXDIR
 10
1.0
 20
0.0
 30
0.0
  9
$PUCSYDIR
 10
0.0
 20
1.0
 30
0.0
  9
$PUCSORTHOREF
  2

  9
$PUCSORTHOVIEW
 70
     0
  9
$PUCSORGTOP
 10
0.0
 20
0.0
 30
0.0
  9
$PUCSORGBOTTOM
 10
0.0
 20
0.0
 30
0.0
  9
$PUCSORGLEFT
 10
0.0
 20
0.0
 30
0.0
  9
$PUCSORGRIGHT
 10
0.0
 20
0.0
 30
0.0
  9
$PUCSORGFRONT
 10
0.0
 20
0.0
 30
0.0
  9
$PUCSORGBACK
 10
0.0
 20
0.0
 30
0.0
  9
$USERI1
 70
     0
  9
$USERI2
 70
     0
  9
$USERI3
 70
     0
  9
$USERI4
 70
     0
  9
$USERI5
 70
     0
  9
$USERR1
 40
0.0
  9
$USERR2
 40
0.0
  9
$USERR3
 40
0.0
  9
$USERR4
 40
0.0
  9
$USERR5
 40
0.0
  9
$WORLDVIEW
 70
     1
  9
$SHADEDGE
 70
     3
  9
$SHADEDIF
 70
    70
  9
$TILEMODE
 70
     1
  9
$MAXACTVP
 70
    48
  9
$PINSBASE
 10
0.0
 20
0.0
 30
0.0
  9
$PLIMCHECK
 70
     0
  9
$PEXTMIN
 10
0.0
 20
0.0
 30
0.0
  9
$PEXTMAX
 10
0.0
 20
0.0
 30
0.0
  9
$PLIMMIN
 10
0.0
 20
0.0
  9
$PLIMMAX
 10
12.0
 20
9.0
  9
$UNITMODE
 70
     0
  9
$VISRETAIN
 70
     1
  9
$PLINEGEN
 70
     0
  9
$PSLTSCALE
 70
     1
  9
$TREEDEPTH
 70
  3020
  9
$CMLSTYLE
  2
Standard
  9
$CMLJUST
 70
     0
  9
$CMLSCALE
 40
20.0
  9
$PROXYGRAPHICS
 70
     1
  9
$MEASUREMENT
 70
     1
  9
$CELWEIGHT
370
    -1
  9
$ENDCAPS
280
     0
  9
$JOINSTYLE
280
     0
  9
$LWDISPLAY
290
     0
  9
$INSUNITS
 70
     4
  9
$HYPERLINKBASE
  1

  9
$STYLESHEET
  1

  9
$XEDIT
290
     1
  9
$CEPSNTYPE
380
     0
  9
$PSTYLEMODE
290
     1
  9
$FINGERPRINTGUID
  2
{0174FB10-CBEE-A049-BD77-4D56BD155670}
  9
$VERSIONGUID
  2
{57A65D5A-F3F3-3F4A-8D48-0D7C50E9C31A}
  9
$EXTNAMES
290
     1
  9
$PSVPSCALE
 40
0.0
  9
$OLESTARTUP
290
     0
  0
ENDSEC
  0
SECTION
  2
CLASSES
  0
CLASS
  1
ACDBDICTIONARYWDFLT
  2
AcDbDictionaryWithDefault
  3
ObjectDBX Classes
 90
        0
280
     0
281
     0
  0
CLASS
  1
ACDBPLACEHOLDER
  2
AcDbPlaceHolder
  3
ObjectDBX Classes
 90
        0
280
     0
281
     0
  0
CLASS
  1
LAYOUT
  2
AcDbLayout
  3
ObjectDBX Classes
 90
        0
280
     0
281
     0
  0
CLASS
  1
DICTIONARYVAR
  2
AcDbDictionaryVar
  3
ObjectDBX Classes
 90
        0
280
     0
281
     0
  0
CLASS
  1
TABLESTYLE
  2
AcDbTableStyle
  3
ObjectDBX Classes
 90
     4095
280
     0
281
     0
  0
CLASS
  1
MATERIAL
  2
AcDbMaterial
  3
ObjectDBX Classes
 90
     1153
280
     0
281
     0
  0
CLASS
  1
VISUALSTYLE
  2
AcDbVisualStyle
  3
ObjectDBX Classes
 90
     4095
280
     0
281
     0
  0
CLASS
  1
SCALE
  2
AcDbScale
  3
ObjectDBX Classes
 90
     1153
280
     0
281
     0
  0
CLASS
  1
MLEADERSTYLE
  2
AcDbMLeaderStyle
  3
ACDB_MLEADERSTYLE_CLASS
 90
     4095
280
     0
281
     0
  0
CLASS
  1
CELLSTYLEMAP
  2
AcDbCellStyleMap
  3
ObjectDBX Classes
 90
     1152
280
     0
281
     0
  0
CLASS
  1
EXACXREFPANELOBJECT
  2
ExAcXREFPanelObject
  3
EXAC_ESW
 90
    33793
280
     0
281
     0
  0
CLASS
  1
NPOCOLLECTION
  2
AcDbImpNonPersistentObjectsCollection
  3
ObjectDBX Classes
 90
    33921
280
     0
281
     0
  0
CLASS
  1
LAYER_INDEX
  2
AcDbLayerIndex
  3
ObjectDBX Classes
 90
    32768
280
     0
281
     0
  0
CLASS
  1
SPATIAL_INDEX
  2
AcDbSpatialIndex
  3
ObjectDBX Classes
 90
    32768
280
     0
281
     0
  0
CLASS
  1
IDBUFFER
  2
AcDbIdBuffer
  3
ObjectDBX Classes
 90
    32768
280
     0
281
     0
  0
CLASS
  1
ACDBSECTIONVIEWSTYLE
  2
AcDbSectionViewStyle
  3
ObjectDBX Classes
 90
     1025
280
     0
281
     0
  0
CLASS
  1
ACDBDETAILVIEWSTYLE
  2
AcDbDetailViewStyle
  3
ObjectDBX Classes
 90
     1025
280
     0
281
     0
  0
CLASS
  1
XRECORD
  2
AcDbXrecord
  3
ObjectDBX Classes
 90
        0
280
     0
281
     0
  0
ENDSEC
  0
SECTION
  2
TABLES
  0
TABLE
  2
VPORT
  5
8
102
{ACAD_XDICTIONARY
360
4023
102
}
330
0
100
AcDbSymbolTable
 70
     1
  0
VPORT
  5
EA
330
8
100
AcDbSymbolTableRecord
100
AcDbViewportTableRecord
  2
*Active
 70
     0
 10
0.0
 20
0.0
 11
1.0
 21
1.0
 12
8.062134531864586
 22
40.8909765183821
 13
0.0
 23
0.0
 14
10.0
 24
10.0
 15
10.0
 25
10.0
 16
0.0
 26
0.0
 36
1.0
 17
0.0
 27
0.0
 37
0.0
 40
881.8213870794339
 41
0.9846153846153846
 42
50.0
 43
0.0
 44
0.0
 50
0.0
 51
0.0
 71
     0
 72
  1000
 73
     1
 74
     3
 75
     0
 76
     1
 77
     0
 78
     0
281
     0
 65
     1
110
0.0
120
0.0
130
0.0
111
1.0
121
0.0
131
0.0
112
0.0
122
1.0
132
0.0
 79
     0
146
0.0
1001
ACAD_NAV_VCDISPLAY
1070
     3
  0
ENDTAB
  0
TABLE
  2
LTYPE
  5
5
330
0
100
AcDbSymbolTable
 70
     1
  0
LTYPE
  5
14
330
5
100
AcDbSymbolTableRecord
100
AcDbLinetypeTableRecord
  2
ByBlock
 70
     0
  3

 72
    65
 73
     0
 40
0.0
  0
LTYPE
  5
15
330
5
100
AcDbSymbolTableRecord
100
AcDbLinetypeTableRecord
  2
ByLayer
 70
     0
  3

 72
    65
 73
     0
 40
0.0
  0
LTYPE
  5
16
330
5
100
AcDbSymbolTableRecord
100
AcDbLinetypeTableRecord
  2
Continuous
 70
     0
  3
Solid line
 72
    65
 73
     0
 40
0.0
  0
ENDTAB
  0
TABLE
  2
LAYER
  5
2
102
{ACAD_XDICTIONARY
360
1FF
102
}
330
0
100
AcDbSymbolTable
 70
     1
  0
LAYER
  5
10
102
{ACAD_XDICTIONARY
360
13C
102
}
330
2
100
AcDbSymbolTableRecord
100
AcDbLayerTableRecord
  2
0
 70
     0
 62
     7
  6
Continuous
370
    -3
390
F
  0
ENDTAB
  0
TABLE
  2
STYLE
  5
3
330
0
100
AcDbSymbolTable
 70
     1
  0
STYLE
  5
11
330
3
100
AcDbSymbolTableRecord
100
AcDbTextStyleTableRecord
  2
Standard
 70
     0
 40
0.0
 41
1.0
 50
0.0
 71
     0
 42
2.5
  3
arial.ttf
  4

1001
ACAD
1000
Arial
1071
       34
  0
ENDTAB
  0
TABLE
  2
VIEW
  5
6
330
0
100
AcDbSymbolTable
 70
     0
  0
ENDTAB
  0
TABLE
  2
UCS
  5
7
330
0
100
AcDbSymbolTable
 70
     0
  0
ENDTAB
  0
TABLE
  2
APPID
  5
9
330
0
100
AcDbSymbolTable
 70
     8
  0
APPID
  5
12
330
9
100
AcDbSymbolTableRecord
100
AcDbRegAppTableRecord
  2
ACAD
 70
     0
  0
APPID
  5
9E
330
9
100
AcDbSymbolTableRecord
100
AcDbRegAppTableRecord
  2
ACAD_PSEXT
 70
     0
  0
APPID
  5
133
330
9
100
AcDbSymbolTableRecord
100
AcDbRegAppTableRecord
  2
AcadAnnoPO
 70
     0
  0
APPID
  5
134
330
9
100
AcDbSymbolTableRecord
100
AcDbRegAppTableRecord
  2
AcadAnnotative
 70
     0
  0
APPID
  5
135
330
9
100
AcDbSymbolTableRecord
100
AcDbRegAppTableRecord
  2
ACAD_DSTYLE_DIMJAG
 70
     0
  0
APPID
  5
136
330
9
100
AcDbSymbolTableRecord
100
AcDbRegAppTableRecord
  2
ACAD_DSTYLE_DIMTALN
 70
     0
  0
APPID
  5
165
330
9
100
AcDbSymbolTableRecord
100
AcDbRegAppTableRecord
  2
ACAD_MLEADERVER
 70
     0
  0
APPID
  5
217
330
9
100
AcDbSymbolTableRecord
100
AcDbRegAppTableRecord
  2
ACAD_NAV_VCDISPLAY
 70
     0
  0
ENDTAB
  0
TABLE
  2
DIMSTYLE
  5
A
330
0
100
AcDbSymbolTable
 70
     1
100
AcDbDimStyleTable
 71
     0
  0
DIMSTYLE
105
27
330
A
100
AcDbSymbolTableRecord
100
AcDbDimStyleTableRecord
  2
ISO-25
 70
     0
 41
2.5
 42
0.625
 43
3.75
 44
1.25
 73
     0
 74
     0
 77
     1
 78
     8
140
2.5
141
2.5
143
0.03937007874016
147
0.625
171
     3
172
     1
271
     2
272
     2
274
     3
278
    44
283
     0
284
     8
340
11
  0
ENDTAB
  0
TABLE
  2
BLOCK_RECORD
  5
1
330
0
100
AcDbSymbolTable
 70
     7
  0
BLOCK_RECORD
  5
1F
102
{ACAD_XDICTIONARY
360
1CE
102
}
330
1
100
AcDbSymbolTableRecord
100
AcDbBlockTableRecord
  2
*Model_Space
340
22
  0
BLOCK_RECORD
  5
D2
102
{ACAD_XDICTIONARY
360
3FD6
102
}
330
1
100
AcDbSymbolTableRecord
100
AcDbBlockTableRecord
  2
*Paper_Space
340
D3
  0
BLOCK_RECORD
  5
D6
102
{ACAD_XDICTIONARY
360
3FD8
102
}
330
1
100
AcDbSymbolTableRecord
100
AcDbBlockTableRecord
  2
*Paper_Space0
340
D7
  0
BLOCK_RECORD
  5
3E08
330
1
100
AcDbSymbolTableRecord
100
AcDbBlockTableRecord
  2
AKR285Z-Front
340
0
102
{BLKREFS
331
3FCC
102
}
  0
BLOCK_RECORD
  5
3E65
330
1
100
AcDbSymbolTableRecord
100
AcDbBlockTableRecord
  2
AKR285Z-Left
340
0
102
{BLKREFS
331
3FCD
102
}
  0
BLOCK_RECORD
  5
3E89
330
1
100
AcDbSymbolTableRecord
100
AcDbBlockTableRecord
  2
AKR285Z-Right
340
0
102
{BLKREFS
331
3FCE
102
}
  0
BLOCK_RECORD
  5
3EB0
330
1
100
AcDbSymbolTableRecord
100
AcDbBlockTableRecord
  2
AKR285Z-Top
340
0
102
{BLKREFS
331
3FCF
102
}
  0
BLOCK_RECORD
  5
3EF4
330
1
100
AcDbSymbolTableRecord
100
AcDbBlockTableRecord
  2
AKR285Z-Bottom
340
0
102
{BLKREFS
331
3FD0
102
}
  0
BLOCK_RECORD
  5
3F23
330
1
100
AcDbSymbolTableRecord
100
AcDbBlockTableRecord
  2
AKR285Z-ISO
340
0
102
{BLKREFS
331
3FD1
102
}
  0
ENDTAB
  0
ENDSEC
  0
SECTION
  2
BLOCKS
  0
BLOCK
  5
20
330
1F
100
AcDbEntity
  8
0
100
AcDbBlockBegin
  2
*Model_Space
 70
     0
 10
0.0
 20
0.0
 30
0.0
  3
*Model_Space
  1

  0
ENDBLK
  5
21
330
1F
100
AcDbEntity
  8
0
100
AcDbBlockEnd
  0
BLOCK
  5
D4
330
D2
100
AcDbEntity
 67
     1
  8
0
100
AcDbBlockBegin
  2
*Paper_Space
 70
     0
 10
0.0
 20
0.0
 30
0.0
  3
*Paper_Space
  1

  0
ENDBLK
  5
D5
330
D2
100
AcDbEntity
 67
     1
  8
0
100
AcDbBlockEnd
  0
BLOCK
  5
D8
330
D6
100
AcDbEntity
 67
     1
  8
0
100
AcDbBlockBegin
  2
*Paper_Space0
 70
     0
 10
0.0
 20
0.0
 30
0.0
  3
*Paper_Space0
  1

  0
ENDBLK
  5
D9
330
D6
100
AcDbEntity
 67
     1
  8
0
100
AcDbBlockEnd
  0
BLOCK
  5
3E09
330
3E08
100
AcDbEntity
  8
0
100
AcDbBlockBegin
  2
AKR285Z-Front
 70
     0
 10
0.0
 20
0.0
 30
0.0
  3
AKR285Z-Front
  1

  0
CIRCLE
  5
3E0B
330
3E08
100
AcDbEntity
  8
0
100
AcDbCircle
 10
22.5
 20
156.0
 30
0.0
 40
2.600000000000004
  0
CIRCLE
  5
3E0C
330
3E08
100
AcDbEntity
  8
0
100
AcDbCircle
 10
-22.5
 20
156.0
 30
0.0
 40
2.6
  0
CIRCLE
  5
3E0D
330
3E08
100
AcDbEntity
  8
0
100
AcDbCircle
 10
-11.19999999999998
 20
176.0
 30
0.0
 40
2.599999999999999
  0
CIRCLE
  5
3E0E
330
3E08
100
AcDbEntity
  8
0
100
AcDbCircle
 10
0.0000000000000051
 20
196.0
 30
0.0
 40
2.600000000000001
  0
CIRCLE
  5
3E0F
330
3E08
100
AcDbEntity
  8
0
100
AcDbCircle
 10
11.2
 20
216.0
 30
0.0
 40
2.599999999999997
  0
CIRCLE
  5
3E10
330
3E08
100
AcDbEntity
  8
0
100
AcDbCircle
 10
0.0000000000000096
 20
236.0
 30
0.0
 40
2.599999999999998
  0
CIRCLE
  5
3E11
330
3E08
100
AcDbEntity
  8
0
100
AcDbCircle
 10
-22.49999999999999
 20
236.0
 30
0.0
 40
2.600000000000001
  0
CIRCLE
  5
3E12
330
3E08
100
AcDbEntity
  8
0
100
AcDbCircle
 10
-11.19999999999997
 20
256.0
 30
0.0
 40
2.599999999999999
  0
CIRCLE
  5
3E13
330
3E08
100
AcDbEntity
  8
0
100
AcDbCircle
 10
-22.49999999999998
 20
276.0
 30
0.0
 40
2.6
  0
CIRCLE
  5
3E14
330
3E08
100
AcDbEntity
  8
0
100
AcDbCircle
 10
22.50000000000002
 20
276.0
 30
0.0
 40
2.600000000000001
  0
CIRCLE
  5
3E15
330
3E08
100
AcDbEntity
  8
0
100
AcDbCircle
 10
11.20000000000001
 20
256.0
 30
0.0
 40
2.599999999999999
  0
CIRCLE
  5
3E16
330
3E08
100
AcDbEntity
  8
0
100
AcDbCircle
 10
22.50000000000001
 20
236.0
 30
0.0
 40
2.600000000000002
  0
CIRCLE
  5
3E17
330
3E08
100
AcDbEntity
  8
0
100
AcDbCircle
 10
-11.19999999999998
 20
216.0
 30
0.0
 40
2.600000000000001
  0
CIRCLE
  5
3E18
330
3E08
100
AcDbEntity
  8
0
100
AcDbCircle
 10
-22.5
 20
196.0
 30
0.0
 40
2.599999999999999
  0
CIRCLE
  5
3E19
330
3E08
100
AcDbEntity
  8
0
100
AcDbCircle
 10
22.50000000000001
 20
196.0
 30
0.0
 40
2.599999999999996
  0
CIRCLE
  5
3E1A
330
3E08
100
AcDbEntity
  8
0
100
AcDbCircle
 10
11.2
 20
176.0
 30
0.0
 40
2.599999999999996
  0
CIRCLE
  5
3E1B
330
3E08
100
AcDbEntity
  8
0
100
AcDbCircle
 10
0.0000000000000007
 20
156.0
 30
0.0
 40
2.6
  0
CIRCLE
  5
3E1C
330
3E08
100
AcDbEntity
  8
0
100
AcDbCircle
 10
0.0000000000000131
 20
268.0
 30
0.0
 40
6.749999999999999
  0
CIRCLE
  5
3E1D
330
3E08
100
AcDbEntity
  8
0
100
AcDbCircle
 10
0.0000000000000126
 20
183.0
 30
0.0
 40
6.749999999999999
  0
CIRCLE
  5
3E1E
330
3E08
100
AcDbEntity
  8
0
100
AcDbCircle
 10
0.0000000000000034
 20
100.0
 30
0.0
 40
6.750000000000003
  0
CIRCLE
  5
3E1F
330
3E08
100
AcDbEntity
  8
0
100
AcDbCircle
 10
-22.5
 20
87.00000000000001
 30
0.0
 40
2.600000000000006
  0
CIRCLE
  5
3E20
330
3E08
100
AcDbEntity
  8
0
100
AcDbCircle
 10
22.5
 20
87.00000000000001
 30
0.0
 40
2.600000000000001
  0
CIRCLE
  5
3E21
330
3E08
100
AcDbEntity
  8
0
100
AcDbCircle
 10
-0.0000000000000033
 20
40.0
 30
0.0
 40
2.6
  0
CIRCLE
  5
3E22
330
3E08
100
AcDbEntity
  8
0
100
AcDbCircle
 10
14.0
 20
50.0
 30
0.0
 40
2.6
  0
CIRCLE
  5
3E23
330
3E08
100
AcDbEntity
  8
0
100
AcDbCircle
 10
-14.0
 20
50.0
 30
0.0
 40
2.6
  0
CIRCLE
  5
3E24
330
3E08
100
AcDbEntity
  8
0
100
AcDbCircle
 10
-0.0000000000000011
 20
60.0
 30
0.0
 40
2.6
  0
CIRCLE
  5
3E25
330
3E08
100
AcDbEntity
  8
0
100
AcDbCircle
 10
20.0
 20
69.0
 30
0.0
 40
2.6
  0
CIRCLE
  5
3E26
330
3E08
100
AcDbEntity
  8
0
100
AcDbCircle
 10
-20.0
 20
69.0
 30
0.0
 40
2.6
  0
CIRCLE
  5
3E27
330
3E08
100
AcDbEntity
  8
0
100
AcDbCircle
 10
0.0000000000000009
 20
78.0
 30
0.0
 40
2.6
  0
LINE
  5
3E28
330
3E08
100
AcDbEntity
  8
0
100
AcDbLine
 10
32.50000000000005
 20
71.49999999999998
 30
0.0
 11
32.50000000000003
 21
278.0000000000001
 31
0.0
  0
LINE
  5
3E29
330
3E08
100
AcDbEntity
  8
0
100
AcDbLine
 10
-32.5
 20
71.49999999999998
 30
0.0
 11
-32.49999999999997
 21
278.0
 31
0.0
  0
LINE
  5
3E2A
330
3E08
100
AcDbEntity
  8
0
100
AcDbLine
 10
19.40049474616514
 20
14.78494715841456
 30
0.0
 11
22.88089344101219
 21
9.483549287033994
 31
0.0
  0
ELLIPSE
  5
3E2B
330
3E08
100
AcDbEntity
  8
0
100
AcDbEllipse
 10
21.84265019811887
 20
29.55706345359769
 30
0.0
 11
-2.149316260459678
 21
-14.99707715516456
 31
0.0
210
0.0
220
0.0
230
1.0
 40
0.13776599274178
 41
4.906663367072862
 42
6.128393843468897
  0
LINE
  5
3E2C
330
3E08
100
AcDbEntity
  8
0
100
AcDbLine
 10
22.88089344101218
 20
57.01806215511449
 30
0.0
 11
19.40049474616513
 21
26.95234078859373
 31
0.0
  0
LINE
  5
3E2D
330
3E08
100
AcDbEntity
  8
0
100
AcDbLine
 10
-19.40049474616515
 20
26.95234078859374
 30
0.0
 11
-22.88089344101219
 21
57.01806215511449
 31
0.0
  0
ELLIPSE
  5
3E2E
330
3E08
100
AcDbEntity
  8
0
100
AcDbEllipse
 10
-21.84265019811889
 20
29.5570634535977
 30
0.0
 11
-2.14931626045989
 21
14.99707715516453
 31
0.0
210
0.0
220
0.0
230
1.0
 40
0.1377659927417809
 41
3.296384117292435
 42
4.518114593693582
  0
LINE
  5
3E2F
330
3E08
100
AcDbEntity
  8
0
100
AcDbLine
 10
-22.88089344101226
 20
9.483549287033998
 30
0.0
 11
-19.40049474616517
 21
14.78494715841457
 31
0.0
  0
LINE
  5
3E30
330
3E08
100
AcDbEntity
  8
0
100
AcDbLine
 10
-25.50000000000004
 20
2.999999999999997
 30
0.0
 11
25.49999999999996
 21
2.999999999999992
 31
0.0
  0
SPLINE
  5
3E31
330
3E08
100
AcDbEntity
  8
0
100
AcDbSpline
210
0.0
220
0.0
230
1.0
 70
     8
 71
     3
 72
    20
 73
    16
 74
     0
 42
0.000000001
 43
0.0000000001
 40
-1.0
 40
-1.0
 40
-1.0
 40
-1.0
 40
-0.8557507846682515
 40
-0.8557507846682515
 40
-0.8557507846682515
 40
-0.4725410755528273
 40
-0.4725410755528273
 40
-0.4725410755528273
 40
-0.2262668722274741
 40
-0.2262668722274741
 40
-0.2262668722274741
 40
-0.0545088760438989
 40
-0.0545088760438989
 40
-0.0545088760438989
 40
0.0
 40
0.0
 40
0.0
 40
0.0
 10
-32.50000000000014
 20
71.4999999999999
 30
0.0
 10
-32.49596368058205
 20
70.51422263202086
 30
0.0
 10
-32.37910965910411
 20
69.60755482003422
 30
0.0
 10
-32.16692343470166
 20
68.79579103748489
 30
0.0
 10
-31.60323356543923
 20
66.63927488406426
 30
0.0
 10
-30.41855420420685
 20
65.09164757617901
 30
0.0
 10
-29.21981211982606
 20
63.52662748019029
 30
0.0
 10
-28.44942649336342
 20
62.52084900391558
 30
0.0
 10
-27.67221333326375
 20
61.5129550518369
 30
0.0
 10
-27.05454655898777
 20
60.34589916493485
 30
0.0
 10
-26.62376978242599
 20
59.53196421818882
 30
0.0
 10
-26.26601864943989
 20
58.62483513654741
 30
0.0
 10
-26.05086466151527
 20
57.60015142176666
 30
0.0
 10
-25.98258369458085
 20
57.27495923954366
 30
0.0
 10
-25.93039957561372
 20
56.93850065068783
 30
0.0
 10
-25.89060973843285
 20
56.59507411448339
 30
0.0
  0
LINE
  5
3E32
330
3E08
100
AcDbEntity
  8
0
100
AcDbLine
 10
-25.17482914759647
 20
56.69567051615754
 30
0.0
 11
-25.89060973854643
 21
56.59507411444166
 31
0.0
  0
LINE
  5
3E33
330
3E08
100
AcDbEntity
  8
0
100
AcDbLine
 10
-22.88089344101223
 20
57.0180621551145
 30
0.0
 11
-25.17482914759647
 21
56.69567051615754
 31
0.0
  0
SPLINE
  5
3E34
330
3E08
100
AcDbEntity
  8
0
100
AcDbSpline
210
0.0
220
0.0
230
1.0
 70
     8
 71
     3
 72
    20
 73
    16
 74
     0
 42
0.000000001
 43
0.0000000001
 40
-1.0
 40
-1.0
 40
-1.0
 40
-1.0
 40
-0.9088428636536493
 40
-0.9088428636536493
 40
-0.9088428636536493
 40
-0.5823465850605178
 40
-0.5823465850605178
 40
-0.5823465850605178
 40
-0.2911732925302589
 40
-0.2911732925302589
 40
-0.2911732925302589
 40
-0.0929955350075598
 40
-0.0929955350075598
 40
-0.0929955350075598
 40
0.0
 40
0.0
 40
0.0
 40
0.0
 10
-22.88089344101224
 20
57.0180621551146
 30
0.0
 10
-22.95109681622274
 20
57.57958582195755
 30
0.0
 10
-23.07530148929884
 20
58.14397189547775
 30
0.0
 10
-23.2646799734686
 20
58.65030181434605
 30
0.0
 10
-23.94297432106752
 20
60.463816815769
 30
0.0
 10
-25.33823159552397
 20
61.82580460134587
 30
0.0
 10
-26.83240929909568
 20
63.11911733767711
 30
0.0
 10
-28.16493487472847
 20
64.27250912925145
 30
0.0
 10
-29.57348340535966
 20
65.36243544940771
 30
0.0
 10
-30.66063198915091
 20
66.67310797569122
 30
0.0
 10
-31.40056478503856
 20
67.56517516993254
 30
0.0
 10
-31.98635644601459
 20
68.5609062417445
 30
0.0
 10
-32.28444102984719
 20
69.72364958286532
 30
0.0
 10
-32.4243181568141
 20
70.26927054677002
 30
0.0
 10
-32.49448780844131
 20
70.86254621829394
 30
0.0
 10
-32.5000000000015
 20
71.50000000006291
 30
0.0
  0
LINE
  5
3E35
330
3E08
100
AcDbEntity
  8
0
100
AcDbLine
 10
-22.34380262810205
 20
57.09354534627188
 30
0.0
 11
-22.88089344101219
 21
57.0180621551145
 31
0.0
  0
LINE
  5
3E36
330
3E08
100
AcDbEntity
  8
0
100
AcDbLine
 10
-19.40135808271013
 20
57.50707895874676
 30
0.0
 11
-22.34380262810205
 21
57.09354534627188
 31
0.0
  0
SPLINE
  5
3E37
330
3E08
100
AcDbEntity
  8
0
100
AcDbSpline
210
0.0
220
0.0
230
1.0
 70
     8
 71
     2
 72
     6
 73
     3
 74
     0
 42
0.000000001
 43
0.0000000001
 40
0.0
 40
0.0
 40
0.0
 40
1.0
 40
1.0
 40
1.0
 10
-19.40135808271012
 20
57.50707895874676
 30
0.0
 10
-20.85646379032761
 20
67.86069405359666
 30
0.0
 10
-32.5
 20
71.49999999999993
 30
0.0
  0
SPLINE
  5
3E38
330
3E08
100
AcDbEntity
  8
0
100
AcDbSpline
210
0.0
220
0.0
230
1.0
 70
     8
 71
     3
 72
    20
 73
    16
 74
     0
 42
0.000000001
 43
0.0000000001
 40
-1.0
 40
-1.0
 40
-1.0
 40
-1.0
 40
-0.8565140843567446
 40
-0.8565140843567446
 40
-0.8565140843567446
 40
-0.540255854180646
 40
-0.540255854180646
 40
-0.540255854180646
 40
-0.270127927090323
 40
-0.270127927090323
 40
-0.270127927090323
 40
-0.0852549168066061
 40
-0.0852549168066061
 40
-0.0852549168066061
 40
0.0
 40
0.0
 40
0.0
 40
0.0
 10
22.88089344101223
 20
57.01806215511453
 30
0.0
 10
22.98563906630276
 20
57.92230508728525
 30
0.0
 10
23.25108945203235
 20
58.75125606596187
 30
0.0
 10
23.64500443043215
 20
59.49063806025737
 30
0.0
 10
24.5132349696463
 20
61.12031467270861
 30
0.0
 10
25.94709485157349
 20
62.37298809437216
 30
0.0
 10
27.41482735379165
 20
63.61722483989048
 30
0.0
 10
28.66847232020571
 20
64.67997376088874
 30
0.0
 10
29.92402793119623
 20
65.7089247704843
 30
0.0
 10
30.8887974184683
 20
66.95682341169875
 30
0.0
 10
31.54907657310093
 20
67.81087349387752
 30
0.0
 10
32.05964361545561
 20
68.76547766491296
 30
0.0
 10
32.31762450954109
 20
69.8589259419233
 30
0.0
 10
32.43659341489509
 20
70.36317392136486
 30
0.0
 10
32.49484871723296
 20
70.90289999943127
 30
0.0
 10
32.50000000000151
 20
71.5000000000629
 30
0.0
  0
SPLINE
  5
3E39
330
3E08
100
AcDbEntity
  8
0
100
AcDbSpline
210
0.0
220
0.0
230
1.0
 70
     8
 71
     2
 72
     6
 73
     3
 74
     0
 42
0.000000001
 43
0.0000000001
 40
0.0
 40
0.0
 40
0.0
 40
1.0
 40
1.0
 40
1.0
 10
19.40135808271012
 20
57.50707895874676
 30
0.0
 10
20.85646379032763
 20
67.86069405359666
 30
0.0
 10
32.50000000000001
 20
71.49999999999993
 30
0.0
  0
LINE
  5
3E3A
330
3E08
100
AcDbEntity
  8
0
100
AcDbLine
 10
22.34380262810205
 20
57.09354534627188
 30
0.0
 11
19.40135808271012
 21
57.50707895874676
 31
0.0
  0
LINE
  5
3E3B
330
3E08
100
AcDbEntity
  8
0
100
AcDbLine
 10
22.88089344101219
 20
57.0180621551145
 30
0.0
 11
22.34380262810205
 21
57.09354534627188
 31
0.0
  0
SPLINE
  5
3E3C
330
3E08
100
AcDbEntity
  8
0
100
AcDbSpline
210
0.0
220
0.0
230
1.0
 70
     8
 71
     3
 72
    20
 73
    16
 74
     0
 42
0.000000001
 43
0.0000000001
 40
-1.0
 40
-1.0
 40
-1.0
 40
-1.0
 40
-0.8557507846682515
 40
-0.8557507846682515
 40
-0.8557507846682515
 40
-0.4725410755528273
 40
-0.4725410755528273
 40
-0.4725410755528273
 40
-0.2262668722274741
 40
-0.2262668722274741
 40
-0.2262668722274741
 40
-0.0545088760438989
 40
-0.0545088760438989
 40
-0.0545088760438989
 40
0.0
 40
0.0
 40
0.0
 40
0.0
 10
32.50000000000015
 20
71.4999999999999
 30
0.0
 10
32.49596368058205
 20
70.51422263202086
 30
0.0
 10
32.37910965910412
 20
69.60755482003422
 30
0.0
 10
32.16692343470167
 20
68.79579103748489
 30
0.0
 10
31.60323356543924
 20
66.63927488406426
 30
0.0
 10
30.41855420420687
 20
65.09164757617901
 30
0.0
 10
29.21981211982608
 20
63.52662748019029
 30
0.0
 10
28.44942649336343
 20
62.52084900391558
 30
0.0
 10
27.67221333326375
 20
61.5129550518369
 30
0.0
 10
27.05454655898777
 20
60.34589916493485
 30
0.0
 10
26.62376978242599
 20
59.53196421818882
 30
0.0
 10
26.26601864943989
 20
58.62483513654741
 30
0.0
 10
26.05086466151527
 20
57.60015142176666
 30
0.0
 10
25.98258369458085
 20
57.27495923954366
 30
0.0
 10
25.93039957561372
 20
56.93850065068783
 30
0.0
 10
25.89060973843285
 20
56.59507411448339
 30
0.0
  0
LINE
  5
3E3D
330
3E08
100
AcDbEntity
  8
0
100
AcDbLine
 10
25.89060973854642
 20
56.59507411444166
 30
0.0
 11
25.17482914759645
 21
56.69567051615754
 31
0.0
  0
LINE
  5
3E3E
330
3E08
100
AcDbEntity
  8
0
100
AcDbLine
 10
24.95106001320098
 20
56.72711921708611
 30
0.0
 11
22.88089344101223
 21
57.01806215511449
 31
0.0
  0
LINE
  5
3E3F
330
3E08
100
AcDbEntity
  8
0
100
AcDbLine
 10
25.17482914759645
 20
56.69567051615754
 30
0.0
 11
24.95106001320098
 21
56.72711921708611
 31
0.0
  0
SPLINE
  5
3E40
330
3E08
100
AcDbEntity
  8
0
100
AcDbSpline
210
0.0
220
0.0
230
1.0
 70
     8
 71
     3
 72
    14
 73
    10
 74
     0
 42
0.000000001
 43
0.0000000001
 40
-0.4328644303148699
 40
-0.4328644303148699
 40
-0.4328644303148699
 40
-0.4328644303148699
 40
-0.2262668722274741
 40
-0.2262668722274741
 40
-0.2262668722274741
 40
-0.0545088760438989
 40
-0.0545088760438989
 40
-0.0545088760438989
 40
0.0
 40
0.0
 40
0.0
 40
0.0
 10
28.84763126614323
 20
5.258517418713585
 30
0.0
 10
28.20313773476112
 20
6.18810370163036
 30
0.0
 10
27.57270252316947
 20
7.097106866425562
 30
0.0
 10
27.05454655898773
 20
7.846564790715598
 30
0.0
 10
26.62376978242595
 20
8.46963794071626
 30
0.0
 10
26.26601864943986
 20
8.989941880027446
 30
0.0
 10
26.05086466151524
 20
9.31271822994574
 30
0.0
 10
25.98258369458082
 20
9.415154078281988
 30
0.0
 10
25.93039957561368
 20
9.494468906988025
 30
0.0
 10
25.89060973843281
 20
9.55813349111499
 30
0.0
  0
SPLINE
  5
3E41
330
3E08
100
AcDbEntity
  8
0
100
AcDbSpline
210
0.0
220
0.0
230
1.0
 70
     8
 71
     3
 72
    20
 73
    16
 74
     0
 42
0.000000001
 43
0.0000000001
 40
-1.0
 40
-1.0
 40
-1.0
 40
-1.0
 40
-0.8565140843567446
 40
-0.8565140843567446
 40
-0.8565140843567446
 40
-0.540255854180646
 40
-0.540255854180646
 40
-0.540255854180646
 40
-0.270127927090323
 40
-0.270127927090323
 40
-0.270127927090323
 40
-0.0852549168066061
 40
-0.0852549168066061
 40
-0.0852549168066061
 40
0.0
 40
0.0
 40
0.0
 40
0.0
 10
22.8808934410122
 20
9.483549287034106
 30
0.0
 10
22.98563906630273
 20
9.320092462341545
 30
0.0
 10
23.25108945203233
 20
9.072461725046466
 30
0.0
 10
23.64500443043212
 20
8.763930907742023
 30
0.0
 10
24.51323496964626
 20
8.083896147549346
 30
0.0
 10
25.94709485157345
 20
7.123035516933052
 30
0.0
 10
27.41482735379162
 20
6.173960274803288
 30
0.0
 10
28.66847232020568
 20
5.363319781221487
 30
0.0
 10
29.9240279311962
 20
4.579673909800891
 30
0.0
 10
30.88879741846826
 20
3.98475332402326
 30
0.0
 10
31.54907657310089
 20
3.577595275771229
 30
0.0
 10
32.05964361545558
 20
3.265340377921208
 30
0.0
 10
32.31762450954106
 20
3.108560584058617
 30
0.0
 10
32.43659341489504
 20
3.036260964648518
 30
0.0
 10
32.49484871723292
 20
2.999954352938687
 30
0.0
 10
32.50000000000146
 20
2.999999999892055
 30
0.0
  0
LINE
  5
3E42
330
3E08
100
AcDbEntity
  8
0
100
AcDbLine
 10
22.34380262810206
 20
5.586466387525106
 30
0.0
 11
22.8808934410122
 21
9.483549287033994
 31
0.0
  0
ELLIPSE
  5
3E43
330
3E08
100
AcDbEntity
  8
0
100
AcDbEllipse
 10
19.40135808271008
 20
5.999999999999994
 30
0.0
 11
0.0000000000000019
 21
-3.0
 31
0.0
210
0.0
220
0.0
230
1.0
 40
0.9902680687415703
 41
0.0000000000000001
 42
1.432511480600927
  0
LINE
  5
3E44
330
3E08
100
AcDbEntity
  8
0
100
AcDbLine
 10
25.17482914760999
 20
9.540395631337263
 30
0.0
 11
25.89060973854639
 21
9.558133491121624
 31
0.0
  0
LINE
  5
3E45
330
3E08
100
AcDbEntity
  8
0
100
AcDbLine
 10
24.9510600131804
 20
9.53485037685448
 30
0.0
 11
25.17482914760999
 21
9.540395631337263
 31
0.0
  0
LINE
  5
3E46
330
3E08
100
AcDbEntity
  8
0
100
AcDbLine
 10
22.8808934410122
 20
9.483549287033993
 30
0.0
 11
24.9510600131804
 21
9.53485037685448
 31
0.0
  0
SPLINE
  5
3E47
330
3E08
100
AcDbEntity
  8
0
100
AcDbSpline
210
0.0
220
0.0
230
1.0
 70
     8
 71
     3
 72
    14
 73
    10
 74
     0
 42
0.000000001
 43
0.0000000001
 40
-0.4328644303148694
 40
-0.4328644303148694
 40
-0.4328644303148694
 40
-0.4328644303148694
 40
-0.2262668722274741
 40
-0.2262668722274741
 40
-0.2262668722274741
 40
-0.0545088760438989
 40
-0.0545088760438989
 40
-0.0545088760438989
 40
0.0
 40
0.0
 40
0.0
 40
0.0
 10
-28.84763126614328
 20
5.258517418713596
 30
0.0
 10
-28.20313773476117
 20
6.188103701630369
 30
0.0
 10
-27.57270252316953
 20
7.097106866425569
 30
0.0
 10
-27.0545465589878
 20
7.846564790715603
 30
0.0
 10
-26.62376978242602
 20
8.469637940716266
 30
0.0
 10
-26.26601864943991
 20
8.989941880027453
 30
0.0
 10
-26.0508646615153
 20
9.312718229945748
 30
0.0
 10
-25.98258369458088
 20
9.415154078281995
 30
0.0
 10
-25.93039957561375
 20
9.494468906988032
 30
0.0
 10
-25.89060973843288
 20
9.558133491114995
 30
0.0
  0
SPLINE
  5
3E48
330
3E08
100
AcDbEntity
  8
0
100
AcDbSpline
210
0.0
220
0.0
230
1.0
 70
     8
 71
     3
 72
    20
 73
    16
 74
     0
 42
0.000000001
 43
0.0000000001
 40
-1.0
 40
-1.0
 40
-1.0
 40
-1.0
 40
-0.8565140843567446
 40
-0.8565140843567446
 40
-0.8565140843567446
 40
-0.540255854180646
 40
-0.540255854180646
 40
-0.540255854180646
 40
-0.270127927090323
 40
-0.270127927090323
 40
-0.270127927090323
 40
-0.0852549168066061
 40
-0.0852549168066061
 40
-0.0852549168066061
 40
0.0
 40
0.0
 40
0.0
 40
0.0
 10
-22.88089344101226
 20
9.48354928703411
 30
0.0
 10
-22.98563906630279
 20
9.32009246234155
 30
0.0
 10
-23.25108945203238
 20
9.072461725046471
 30
0.0
 10
-23.64500443043219
 20
8.763930907742029
 30
0.0
 10
-24.51323496964632
 20
8.083896147549351
 30
0.0
 10
-25.94709485157352
 20
7.123035516933057
 30
0.0
 10
-27.41482735379169
 20
6.173960274803294
 30
0.0
 10
-28.66847232020575
 20
5.363319781221493
 30
0.0
 10
-29.92402793119627
 20
4.579673909800898
 30
0.0
 10
-30.88879741846832
 20
3.984753324023267
 30
0.0
 10
-31.54907657310096
 20
3.577595275771236
 30
0.0
 10
-32.05964361545564
 20
3.265340377921215
 30
0.0
 10
-32.31762450954112
 20
3.108560584058625
 30
0.0
 10
-32.43659341489512
 20
3.036260964648525
 30
0.0
 10
-32.494848717233
 20
2.999954352938694
 30
0.0
 10
-32.50000000000154
 20
2.999999999892062
 30
0.0
  0
ELLIPSE
  5
3E49
330
3E08
100
AcDbEntity
  8
0
100
AcDbEllipse
 10
-19.40135808271015
 20
5.999999999999998
 30
0.0
 11
0.0000000000000017
 21
-3.0
 31
0.0
210
0.0
220
0.0
230
1.0
 40
0.9902680687415701
 41
4.850673826578656
 42
6.283185307179584
  0
LINE
  5
3E4A
330
3E08
100
AcDbEntity
  8
0
100
AcDbLine
 10
-22.88089344101226
 20
9.483549287034
 30
0.0
 11
-22.34380262810212
 21
5.58646638752511
 31
0.0
  0
LINE
  5
3E4B
330
3E08
100
AcDbEntity
  8
0
100
AcDbLine
 10
-25.89060973854645
 20
9.558133491121626
 30
0.0
 11
-25.17482914761006
 21
9.540395631337267
 31
0.0
  0
LINE
  5
3E4C
330
3E08
100
AcDbEntity
  8
0
100
AcDbLine
 10
-24.95106001318046
 20
9.534850376854484
 30
0.0
 11
-22.88089344101226
 21
9.483549287033994
 31
0.0
  0
LINE
  5
3E4D
330
3E08
100
AcDbEntity
  8
0
100
AcDbLine
 10
-25.17482914761006
 20
9.540395631337267
 30
0.0
 11
-24.95106001318046
 21
9.534850376854484
 31
0.0
  0
LINE
  5
3E4E
330
3E08
100
AcDbEntity
  8
0
100
AcDbLine
 10
25.49999999999996
 20
0.0
 30
0.0
 11
32.49999999999996
 21
0.0
 31
0.0
  0
LINE
  5
3E4F
330
3E08
100
AcDbEntity
  8
0
100
AcDbLine
 10
-32.50000000000004
 20
0.0
 30
0.0
 11
-25.50000000000004
 21
0.0
 31
0.0
  0
LINE
  5
3E50
330
3E08
100
AcDbEntity
  8
0
100
AcDbLine
 10
25.50000000000004
 20
285.0
 30
0.0
 11
32.50000000000003
 21
278.0000000000001
 31
0.0
  0
LINE
  5
3E51
330
3E08
100
AcDbEntity
  8
0
100
AcDbLine
 10
-32.49999999999997
 20
278.0
 30
0.0
 11
-25.49999999999998
 21
285.0
 31
0.0
  0
LINE
  5
3E52
330
3E08
100
AcDbEntity
  8
0
100
AcDbLine
 10
-25.50000000000004
 20
2.999999999999997
 30
0.0
 11
-32.50000000000004
 21
2.999999999999998
 31
0.0
  0
LINE
  5
3E53
330
3E08
100
AcDbEntity
  8
0
100
AcDbLine
 10
32.49999999999996
 20
2.999999999999991
 30
0.0
 11
25.49999999999996
 21
2.999999999999992
 31
0.0
  0
LINE
  5
3E54
330
3E08
100
AcDbEntity
  8
0
100
AcDbLine
 10
25.49999999999996
 20
2.999999999999992
 30
0.0
 11
25.49999999999996
 21
0.0
 31
0.0
  0
LINE
  5
3E55
330
3E08
100
AcDbEntity
  8
0
100
AcDbLine
 10
-25.50000000000004
 20
0.0
 30
0.0
 11
-25.50000000000004
 21
2.999999999999997
 31
0.0
  0
LINE
  5
3E56
330
3E08
100
AcDbEntity
  8
0
100
AcDbLine
 10
-25.50000000000004
 20
0.0
 30
0.0
 11
25.49999999999996
 21
0.0
 31
0.0
  0
LINE
  5
3E57
330
3E08
100
AcDbEntity
  8
0
100
AcDbLine
 10
-25.89060973854646
 20
9.558133491121632
 30
0.0
 11
-22.45917600970657
 21
14.78494715841457
 31
0.0
  0
ELLIPSE
  5
3E58
330
3E08
100
AcDbEntity
  8
0
100
AcDbEllipse
 10
-24.90133146166029
 20
29.5570634535977
 30
0.0
 11
-2.14931626045989
 21
14.99707715516453
 31
0.0
210
0.0
220
0.0
230
1.0
 40
0.1377659927417809
 41
3.296384117292435
 42
4.518114593693583
  0
LINE
  5
3E59
330
3E08
100
AcDbEntity
  8
0
100
AcDbLine
 10
-22.45917600970655
 20
26.95234078859374
 30
0.0
 11
-25.89060973854639
 21
56.59507411444166
 31
0.0
  0
LINE
  5
3E5A
330
3E08
100
AcDbEntity
  8
0
100
AcDbLine
 10
25.50000000000004
 20
285.0
 30
0.0
 11
-25.49999999999998
 21
285.0
 31
0.0
  0
LINE
  5
3E5B
330
3E08
100
AcDbEntity
  8
0
100
AcDbLine
 10
-13.14629605568257
 20
13.00000000000001
 30
0.0
 11
-19.40135808271008
 21
57.50707895874676
 31
0.0
  0
LINE
  5
3E5C
330
3E08
100
AcDbEntity
  8
0
100
AcDbLine
 10
19.40135808271008
 20
57.50707895874676
 30
0.0
 11
13.14629605568256
 21
13.0
 31
0.0
  0
ELLIPSE
  5
3E5D
330
3E08
100
AcDbEntity
  8
0
100
AcDbEllipse
 10
14.13008189859931
 20
13.0
 30
0.0
 11
-0.9932598611245557
 21
-9.999531768717298
 31
0.0
210
0.0
220
0.0
230
1.0
 40
0.0974265314997314
 41
4.722066117737838
 42
6.292862444532738
  0
ELLIPSE
  5
3E5E
330
3E08
100
AcDbEntity
  8
0
100
AcDbEllipse
 10
-14.13008189859932
 20
13.00000000000001
 30
0.0
 11
-0.9932598611246545
 21
9.999531768717288
 31
0.0
210
0.0
220
0.0
230
1.0
 40
0.0974265314997323
 41
3.131915516220322
 42
4.702711843026097
  0
LINE
  5
3E5F
330
3E08
100
AcDbEntity
  8
0
100
AcDbLine
 10
9.918568762844415
 20
7.956249513346372
 30
0.0
 11
-9.471420256784538
 21
7.956249513346373
 31
0.0
  0
LINE
  5
3E60
330
3E08
100
AcDbEntity
  8
0
100
AcDbLine
 10
22.45917600970654
 20
14.78494715841456
 30
0.0
 11
25.89060973854639
 21
9.558133491121626
 31
0.0
  0
LINE
  5
3E61
330
3E08
100
AcDbEntity
  8
0
100
AcDbLine
 10
25.89060973854639
 20
56.59507411444167
 30
0.0
 11
22.45917600970653
 21
26.95234078859373
 31
0.0
  0
ELLIPSE
  5
3E62
330
3E08
100
AcDbEntity
  8
0
100
AcDbEllipse
 10
24.90133146166027
 20
29.55706345359769
 30
0.0
 11
-2.149316260459678
 21
-14.99707715516456
 31
0.0
210
0.0
220
0.0
230
1.0
 40
0.13776599274178
 41
4.906663367072862
 42
6.128393843468899
  0
LINE
  5
3E63
330
3E08
100
AcDbEntity
  8
0
100
AcDbLine
 10
32.49999999999996
 20
0.0
 30
0.0
 11
32.49999999999996
 21
2.999999999999991
 31
0.0
  0
LINE
  5
3E64
330
3E08
100
AcDbEntity
  8
0
100
AcDbLine
 10
-32.50000000000004
 20
2.999999999999998
 30
0.0
 11
-32.50000000000004
 21
0.0
 31
0.0
  0
ENDBLK
  5
3E0A
330
3E08
100
AcDbEntity
  8
0
100
AcDbBlockEnd
  0
BLOCK
  5
3E66
330
3E65
100
AcDbEntity
  8
0
100
AcDbBlockBegin
  2
AKR285Z-Left
 70
     0
 10
0.0
 20
0.0
 30
0.0
  3
AKR285Z-Left
  1

  0
ELLIPSE
  5
3E68
330
3E65
100
AcDbEntity
  8
0
100
AcDbEllipse
 10
6.00000000000001
 20
57.50707895874676
 30
0.0
 11
-6.000000000000001
 21
-0.000000000000001
 31
0.0
210
0.0
220
0.0
230
1.0
 40
0.1391731009600659
 41
0.0
 42
1.432511480600927
  0
LINE
  5
3E69
330
3E65
100
AcDbEntity
  8
0
100
AcDbLine
 10
9.558133491121639
 20
56.59507411444164
 30
0.0
 11
5.172932775050234
 21
56.68001173379699
 31
0.0
  0
SPLINE
  5
3E6A
330
3E65
100
AcDbEntity
  8
0
100
AcDbSpline
210
0.0
220
0.0
230
1.0
 70
     8
 71
     3
 72
    20
 73
    16
 74
     0
 42
0.000000001
 43
0.0000000001
 40
-1.0
 40
-1.0
 40
-1.0
 40
-1.0
 40
-0.8557507846682515
 40
-0.8557507846682515
 40
-0.8557507846682515
 40
-0.4725410755528273
 40
-0.4725410755528273
 40
-0.4725410755528273
 40
-0.2262668722274741
 40
-0.2262668722274741
 40
-0.2262668722274741
 40
-0.0545088760438989
 40
-0.0545088760438989
 40
-0.0545088760438989
 40
0.0
 40
0.0
 40
0.0
 40
0.0
 10
0.0000000000000106
 20
71.4999999999999
 30
0.0
 10
-0.0000078262250408
 20
70.51422263202086
 30
0.0
 10
0.1669297411124312
 20
69.60755482003422
 30
0.0
 10
0.4742787332316062
 20
68.79579103748489
 30
0.0
 10
1.29077619282635
 20
66.63927488406426
 30
0.0
 10
2.992237894664608
 20
65.09164757617901
 30
0.0
 10
4.72164872418353
 20
63.52662748019029
 30
0.0
 10
5.833074828822558
 20
62.52084900391558
 30
0.0
 10
6.953174980404667
 20
61.5129550518369
 30
0.0
 10
7.846564790715606
 20
60.34589916493485
 30
0.0
 10
8.469637940716268
 20
59.53196421818882
 30
0.0
 10
8.989941880027455
 20
58.62483513654741
 30
0.0
 10
9.312718229945749
 20
57.60015142176666
 30
0.0
 10
9.415154078281997
 20
57.27495923954366
 30
0.0
 10
9.494468906988032
 20
56.93850065068783
 30
0.0
 10
9.558133491114999
 20
56.59507411448339
 30
0.0
  0
LINE
  5
3E6B
330
3E65
100
AcDbEntity
  8
0
100
AcDbLine
 10
0.0
 20
57.50707895874676
 30
0.0
 11
0.0
 21
71.49999999999993
 31
0.0
  0
LINE
  5
3E6C
330
3E65
100
AcDbEntity
  8
0
100
AcDbLine
 10
9.54039563133692
 20
56.69567051615754
 30
0.0
 11
9.558133491121616
 21
56.59507411444166
 31
0.0
  0
LINE
  5
3E6D
330
3E65
100
AcDbEntity
  8
0
100
AcDbLine
 10
9.483549287033984
 20
57.0180621551145
 30
0.0
 11
9.54039563133692
 21
56.69567051615754
 31
0.0
  0
SPLINE
  5
3E6E
330
3E65
100
AcDbEntity
  8
0
100
AcDbSpline
210
0.0
220
0.0
230
1.0
 70
     8
 71
     3
 72
    20
 73
    16
 74
     0
 42
0.000000001
 43
0.0000000001
 40
-1.0
 40
-1.0
 40
-1.0
 40
-1.0
 40
-0.9088428636536493
 40
-0.9088428636536493
 40
-0.9088428636536493
 40
-0.5823465850605178
 40
-0.5823465850605178
 40
-0.5823465850605178
 40
-0.2911732925302589
 40
-0.2911732925302589
 40
-0.2911732925302589
 40
-0.0929955350075598
 40
-0.0929955350075598
 40
-0.0929955350075598
 40
0.0
 40
0.0
 40
0.0
 40
0.0
 10
9.483549287034152
 20
57.0180621551146
 30
0.0
 10
9.381169312042018
 20
57.57958582195755
 30
0.0
 10
9.242772184902634
 20
58.14397189547775
 30
0.0
 10
9.07544054586893
 20
58.65030181434605
 30
0.0
 10
8.47611108440126
 20
60.463816815769
 30
0.0
 10
7.529918640445743
 20
61.82580460134587
 30
0.0
 10
6.552924042740637
 20
63.11911733767711
 30
0.0
 10
5.681628556544375
 20
64.27250912925145
 30
0.0
 10
4.797106563975495
 20
65.36243544940771
 30
0.0
 10
4.125004767749544
 20
66.67310797569122
 30
0.0
 10
3.667560248557607
 20
67.56517516993254
 30
0.0
 10
3.313097342238462
 20
68.5609062417445
 30
0.0
 10
3.127698446643385
 20
69.72364958286532
 30
0.0
 10
3.040699432721754
 20
70.26927054677002
 30
0.0
 10
3.002604909104171
 20
70.86254621829394
 30
0.0
 10
2.99999999989198
 20
71.50000000006291
 30
0.0
  0
ELLIPSE
  5
3E6F
330
3E65
100
AcDbEntity
  8
0
100
AcDbEllipse
 10
57.50707895874677
 20
5.999999999999997
 30
0.0
 11
0.0000000000000006
 21
-6.0
 31
0.0
210
0.0
220
0.0
230
1.0
 40
0.1391731009600662
 41
4.850673826578699
 42
6.283185307179671
  0
LINE
  5
3E70
330
3E65
100
AcDbEntity
  8
0
100
AcDbLine
 10
57.50707895874677
 20
0.0
 30
0.0
 11
71.49999999999993
 21
0.0
 31
0.0
  0
SPLINE
  5
3E71
330
3E65
100
AcDbEntity
  8
0
100
AcDbSpline
210
0.0
220
0.0
230
1.0
 70
     8
 71
     3
 72
    20
 73
    16
 74
     0
 42
0.000000001
 43
0.0000000001
 40
-1.0
 40
-1.0
 40
-1.0
 40
-1.0
 40
-0.8557507846682515
 40
-0.8557507846682515
 40
-0.8557507846682515
 40
-0.4725410755528273
 40
-0.4725410755528273
 40
-0.4725410755528273
 40
-0.2262668722274741
 40
-0.2262668722274741
 40
-0.2262668722274741
 40
-0.0545088760438989
 40
-0.0545088760438989
 40
-0.0545088760438989
 40
0.0
 40
0.0
 40
0.0
 40
0.0
 10
71.4999999999999
 20
0.0000000000000115
 30
0.0
 10
70.51422263202086
 20
-0.0000078262250399
 30
0.0
 10
69.60755482003422
 20
0.1669297411124321
 30
0.0
 10
68.79579103748489
 20
0.474278733231607
 30
0.0
 10
66.63927488406426
 20
1.29077619282635
 30
0.0
 10
65.09164757617901
 20
2.992237894664608
 30
0.0
 10
63.52662748019029
 20
4.72164872418353
 30
0.0
 10
62.52084900391558
 20
5.833074828822557
 30
0.0
 10
61.5129550518369
 20
6.953174980404666
 30
0.0
 10
60.34589916493485
 20
7.846564790715603
 30
0.0
 10
59.53196421818882
 20
8.469637940716266
 30
0.0
 10
58.62483513654741
 20
8.989941880027451
 30
0.0
 10
57.60015142176666
 20
9.312718229945746
 30
0.0
 10
57.27495923954366
 20
9.415154078281993
 30
0.0
 10
56.93850065068783
 20
9.49446890698803
 30
0.0
 10
56.59507411448339
 20
9.558133491114995
 30
0.0
  0
LINE
  5
3E72
330
3E65
100
AcDbEntity
  8
0
100
AcDbLine
 10
56.68001173379699
 20
5.172932775050225
 30
0.0
 11
56.59507411444164
 21
9.558133491121633
 31
0.0
  0
SPLINE
  5
3E73
330
3E65
100
AcDbEntity
  8
0
100
AcDbSpline
210
0.0
220
0.0
230
1.0
 70
     8
 71
     3
 72
    20
 73
    16
 74
     0
 42
0.000000001
 43
0.0000000001
 40
-1.0
 40
-1.0
 40
-1.0
 40
-1.0
 40
-0.8565140843567446
 40
-0.8565140843567446
 40
-0.8565140843567446
 40
-0.540255854180646
 40
-0.540255854180646
 40
-0.540255854180646
 40
-0.270127927090323
 40
-0.270127927090323
 40
-0.270127927090323
 40
-0.0852549168066061
 40
-0.0852549168066061
 40
-0.0852549168066061
 40
0.0
 40
0.0
 40
0.0
 40
0.0
 10
57.01806215511453
 20
9.48354928703411
 30
0.0
 10
57.92230508728525
 20
9.32009246234155
 30
0.0
 10
58.75125606596187
 20
9.072461725046471
 30
0.0
 10
59.49063806025737
 20
8.763930907742029
 30
0.0
 10
61.12031467270861
 20
8.083896147549349
 30
0.0
 10
62.37298809437216
 20
7.123035516933057
 30
0.0
 10
63.61722483989048
 20
6.173960274803294
 30
0.0
 10
64.67997376088874
 20
5.363319781221492
 30
0.0
 10
65.7089247704843
 20
4.579673909800897
 30
0.0
 10
66.95682341169875
 20
3.984753324023266
 30
0.0
 10
67.81087349387752
 20
3.577595275771236
 30
0.0
 10
68.76547766491296
 20
3.265340377921214
 30
0.0
 10
69.8589259419233
 20
3.108560584058624
 30
0.0
 10
70.36317392136486
 20
3.036260964648525
 30
0.0
 10
70.90289999943127
 20
2.999954352938694
 30
0.0
 10
71.5000000000629
 20
2.999999999892062
 30
0.0
  0
LINE
  5
3E74
330
3E65
100
AcDbEntity
  8
0
100
AcDbLine
 10
56.59507411444166
 20
9.558133491121626
 30
0.0
 11
56.69567051615562
 21
9.540395631337267
 31
0.0
  0
LINE
  5
3E75
330
3E65
100
AcDbEntity
  8
0
100
AcDbLine
 10
56.72711921708899
 20
9.534850376854484
 30
0.0
 11
57.01806215511449
 21
9.483549287033994
 31
0.0
  0
LINE
  5
3E76
330
3E65
100
AcDbEntity
  8
0
100
AcDbLine
 10
56.69567051615562
 20
9.540395631337267
 30
0.0
 11
56.72711921708899
 21
9.534850376854484
 31
0.0
  0
LINE
  5
3E77
330
3E65
100
AcDbEntity
  8
0
100
AcDbLine
 10
0.0
 20
57.50707895874677
 30
0.0
 11
0.0
 21
10.0
 31
0.0
  0
ARC
  5
3E78
330
3E65
100
AcDbEntity
  8
0
100
AcDbCircle
 10
10.00000000000001
 20
10.0
 30
0.0
 40
9.999999999999998
100
AcDbArc
 50
180.0
 51
270.0
  0
LINE
  5
3E79
330
3E65
100
AcDbEntity
  8
0
100
AcDbLine
 10
10.00000000000001
 20
0.0
 30
0.0
 11
57.50707895874677
 21
0.0
 31
0.0
  0
LINE
  5
3E7A
330
3E65
100
AcDbEntity
  8
0
100
AcDbLine
 10
0.0
 20
278.0
 30
0.0
 11
0.0
 21
71.49999999999998
 31
0.0
  0
LINE
  5
3E7B
330
3E65
100
AcDbEntity
  8
0
100
AcDbLine
 10
0.0
 20
285.0
 30
0.0
 11
0.0
 21
278.0
 31
0.0
  0
LINE
  5
3E7C
330
3E65
100
AcDbEntity
  8
0
100
AcDbLine
 10
78.0
 20
0.0
 30
0.0
 11
85.00000000000001
 21
0.0
 31
0.0
  0
LINE
  5
3E7D
330
3E65
100
AcDbEntity
  8
0
100
AcDbLine
 10
3.000000000000012
 20
278.0
 30
0.0
 11
3.000000000000016
 21
285.0
 31
0.0
  0
LINE
  5
3E7E
330
3E65
100
AcDbEntity
  8
0
100
AcDbLine
 10
85.00000000000001
 20
2.999999999999997
 30
0.0
 11
78.0
 21
2.999999999999998
 31
0.0
  0
LINE
  5
3E7F
330
3E65
100
AcDbEntity
  8
0
100
AcDbLine
 10
85.00000000000001
 20
0.0
 30
0.0
 11
85.00000000000001
 21
2.999999999999997
 31
0.0
  0
LINE
  5
3E80
330
3E65
100
AcDbEntity
  8
0
100
AcDbLine
 10
0.0
 20
278.0
 30
0.0
 11
3.000000000000012
 21
278.0
 31
0.0
  0
LINE
  5
3E81
330
3E65
100
AcDbEntity
  8
0
100
AcDbLine
 10
71.49999999999993
 20
0.0
 30
0.0
 11
78.0
 21
0.0
 31
0.0
  0
LINE
  5
3E82
330
3E65
100
AcDbEntity
  8
0
100
AcDbLine
 10
71.49999999999993
 20
2.999999999999998
 30
0.0
 11
78.0
 21
2.999999999999998
 31
0.0
  0
LINE
  5
3E83
330
3E65
100
AcDbEntity
  8
0
100
AcDbLine
 10
78.0
 20
2.999999999999998
 30
0.0
 11
78.0
 21
0.0
 31
0.0
  0
LINE
  5
3E84
330
3E65
100
AcDbEntity
  8
0
100
AcDbLine
 10
56.59507411444167
 20
9.558133491121632
 30
0.0
 11
26.95234078859375
 21
14.78494715841457
 31
0.0
  0
ARC
  5
3E85
330
3E65
100
AcDbEntity
  8
0
100
AcDbCircle
 10
29.55706345359768
 20
29.5570634535977
 30
0.0
 40
15.0
100
AcDbArc
 50
190.0
 51
260.0
  0
LINE
  5
3E86
330
3E65
100
AcDbEntity
  8
0
100
AcDbLine
 10
14.78494715841456
 20
26.95234078859374
 30
0.0
 11
9.558133491121619
 21
56.59507411444166
 31
0.0
  0
LINE
  5
3E87
330
3E65
100
AcDbEntity
  8
0
100
AcDbLine
 10
3.000000000000003
 20
71.49999999999998
 30
0.0
 11
3.000000000000012
 21
278.0
 31
0.0
  0
LINE
  5
3E88
330
3E65
100
AcDbEntity
  8
0
100
AcDbLine
 10
3.000000000000016
 20
285.0
 30
0.0
 11
0.0
 21
285.0
 31
0.0
  0
ENDBLK
  5
3E67
330
3E65
100
AcDbEntity
  8
0
100
AcDbBlockEnd
  0
BLOCK
  5
3E8A
330
3E89
100
AcDbEntity
  8
0
100
AcDbBlockBegin
  2
AKR285Z-Right
 70
     0
 10
0.0
 20
0.0
 30
0.0
  3
AKR285Z-Right
  1

  0
SPLINE
  5
3E8C
330
3E89
100
AcDbEntity
  8
0
100
AcDbSpline
210
0.0
220
0.0
230
1.0
 70
     8
 71
     3
 72
    14
 73
    10
 74
     0
 42
0.000000001
 43
0.0000000001
 40
-0.9977898714111194
 40
-0.9977898714111194
 40
-0.9977898714111194
 40
-0.9977898714111194
 40
-0.9088428636536493
 40
-0.9088428636536493
 40
-0.9088428636536493
 40
-0.5823465850605178
 40
-0.5823465850605178
 40
-0.5823465850605178
 40
-0.3934690556655112
 40
-0.3934690556655112
 40
-0.3934690556655112
 40
-0.3934690556655112
 10
-9.476039184065545
 20
57.05890919880648
 30
0.0
 10
-9.374441354372219
 20
57.60691907029003
 30
0.0
 10
-9.238715185592701
 20
58.15624799665807
 30
0.0
 10
-9.07544054586893
 20
58.65030181434605
 30
0.0
 10
-8.47611108440126
 20
60.463816815769
 30
0.0
 10
-7.529918640445743
 20
61.82580460134587
 30
0.0
 10
-6.552924042740637
 20
63.11911733767711
 30
0.0
 10
-5.987734366944157
 20
63.8672965065973
 30
0.0
 10
-5.416979210750918
 20
64.58877052548787
 30
0.0
 10
-4.9022492911083
 20
65.36111553782524
 30
0.0
  0
SPLINE
  5
3E8D
330
3E89
100
AcDbEntity
  8
0
100
AcDbSpline
210
0.0
220
0.0
230
1.0
 70
     8
 71
     3
 72
    11
 73
     7
 74
     0
 42
0.000000001
 43
0.0000000001
 40
-0.222594976207386
 40
-0.222594976207386
 40
-0.222594976207386
 40
-0.222594976207386
 40
-0.0929955350075598
 40
-0.0929955350075598
 40
-0.0929955350075598
 40
0.0
 40
0.0
 40
0.0
 40
0.0
 10
-3.689849784761034
 20
67.63905798042744
 30
0.0
 10
-3.442485263768175
 20
68.27430880470003
 30
0.0
 10
-3.248941080370506
 20
68.96326714059846
 30
0.0
 10
-3.127698446643385
 20
69.72364958286532
 30
0.0
 10
-3.040699432721754
 20
70.26927054677002
 30
0.0
 10
-3.002604909104171
 20
70.86254621829394
 30
0.0
 10
-2.99999999989198
 20
71.50000000006291
 30
0.0
  0
SPLINE
  5
3E8E
330
3E89
100
AcDbEntity
  8
0
100
AcDbSpline
210
0.0
220
0.0
230
1.0
 70
     8
 71
     3
 72
    20
 73
    16
 74
     0
 42
0.000000001
 43
0.0000000001
 40
-1.0
 40
-1.0
 40
-1.0
 40
-1.0
 40
-0.8565140843567446
 40
-0.8565140843567446
 40
-0.8565140843567446
 40
-0.540255854180646
 40
-0.540255854180646
 40
-0.540255854180646
 40
-0.270127927090323
 40
-0.270127927090323
 40
-0.270127927090323
 40
-0.0852549168066061
 40
-0.0852549168066061
 40
-0.0852549168066061
 40
0.0
 40
0.0
 40
0.0
 40
0.0
 10
-9.483549287034133
 20
57.01806215511453
 30
0.0
 10
-9.320092462341575
 20
57.92230508728525
 30
0.0
 10
-9.072461725046496
 20
58.75125606596187
 30
0.0
 10
-8.763930907742054
 20
59.49063806025737
 30
0.0
 10
-8.083896147549374
 20
61.12031467270861
 30
0.0
 10
-7.123035516933082
 20
62.37298809437216
 30
0.0
 10
-6.173960274803319
 20
63.61722483989048
 30
0.0
 10
-5.36331978122152
 20
64.67997376088874
 30
0.0
 10
-4.579673909800924
 20
65.7089247704843
 30
0.0
 10
-3.984753324023293
 20
66.95682341169875
 30
0.0
 10
-3.577595275771263
 20
67.81087349387752
 30
0.0
 10
-3.265340377921242
 20
68.76547766491296
 30
0.0
 10
-3.108560584058652
 20
69.8589259419233
 30
0.0
 10
-3.036260964648553
 20
70.36317392136486
 30
0.0
 10
-2.999954352938721
 20
70.90289999943127
 30
0.0
 10
-2.99999999989209
 20
71.5000000000629
 30
0.0
  0
ELLIPSE
  5
3E8F
330
3E89
100
AcDbEntity
  8
0
100
AcDbEllipse
 10
-6.000000000000028
 20
57.50707895874676
 30
0.0
 11
6.0
 21
-0.0000000000000006
 31
0.0
210
0.0
220
0.0
230
1.0
 40
0.1391731009600659
 41
4.850673826579035
 42
6.283185307180329
  0
LINE
  5
3E90
330
3E89
100
AcDbEntity
  8
0
100
AcDbLine
 10
0.0
 20
57.50707895874676
 30
0.0
 11
0.0
 21
71.49999999999993
 31
0.0
  0
SPLINE
  5
3E91
330
3E89
100
AcDbEntity
  8
0
100
AcDbSpline
210
0.0
220
0.0
230
1.0
 70
     8
 71
     3
 72
    20
 73
    16
 74
     0
 42
0.000000001
 43
0.0000000001
 40
-1.0
 40
-1.0
 40
-1.0
 40
-1.0
 40
-0.8557507846682515
 40
-0.8557507846682515
 40
-0.8557507846682515
 40
-0.4725410755528273
 40
-0.4725410755528273
 40
-0.4725410755528273
 40
-0.2262668722274741
 40
-0.2262668722274741
 40
-0.2262668722274741
 40
-0.0545088760438989
 40
-0.0545088760438989
 40
-0.0545088760438989
 40
0.0
 40
0.0
 40
0.0
 40
0.0
 10
-0.0000000000000391
 20
71.4999999999999
 30
0.0
 10
0.0000078262250123
 20
70.51422263202086
 30
0.0
 10
-0.1669297411124596
 20
69.60755482003422
 30
0.0
 10
-0.4742787332316345
 20
68.79579103748489
 30
0.0
 10
-1.290776192826378
 20
66.63927488406426
 30
0.0
 10
-2.992237894664635
 20
65.09164757617901
 30
0.0
 10
-4.721648724183556
 20
63.52662748019029
 30
0.0
 10
-5.833074828822585
 20
62.52084900391558
 30
0.0
 10
-6.953174980404691
 20
61.5129550518369
 30
0.0
 10
-7.846564790715628
 20
60.34589916493485
 30
0.0
 10
-8.469637940716289
 20
59.53196421818882
 30
0.0
 10
-8.989941880027478
 20
58.62483513654741
 30
0.0
 10
-9.312718229945772
 20
57.60015142176666
 30
0.0
 10
-9.415154078282018
 20
57.27495923954366
 30
0.0
 10
-9.494468906988055
 20
56.93850065068783
 30
0.0
 10
-9.558133491115022
 20
56.59507411448339
 30
0.0
  0
LINE
  5
3E92
330
3E89
100
AcDbEntity
  8
0
100
AcDbLine
 10
-5.172932775050257
 20
56.68001173379699
 30
0.0
 11
-9.558133491121662
 21
56.59507411444164
 31
0.0
  0
LINE
  5
3E93
330
3E89
100
AcDbEntity
  8
0
100
AcDbLine
 10
-9.55813349112164
 20
56.59507411444166
 30
0.0
 11
-9.540395631336943
 21
56.69567051615754
 31
0.0
  0
LINE
  5
3E94
330
3E89
100
AcDbEntity
  8
0
100
AcDbLine
 10
-9.534850376855004
 20
56.72711921708611
 30
0.0
 11
-9.483549287034005
 21
57.01806215511449
 31
0.0
  0
LINE
  5
3E95
330
3E89
100
AcDbEntity
  8
0
100
AcDbLine
 10
-9.540395631336943
 20
56.69567051615754
 30
0.0
 11
-9.534850376855004
 21
56.72711921708611
 31
0.0
  0
ELLIPSE
  5
3E96
330
3E89
100
AcDbEntity
  8
0
100
AcDbEllipse
 10
-57.50707895874677
 20
5.999999999999992
 30
0.0
 11
0.0000000000000009
 21
-6.0
 31
0.0
210
0.0
220
0.0
230
1.0
 40
0.1391731009600658
 41
0.0
 42
1.432511480600929
  0
LINE
  5
3E97
330
3E89
100
AcDbEntity
  8
0
100
AcDbLine
 10
-56.59507411444168
 20
9.558133491121626
 30
0.0
 11
-56.68001173379701
 21
5.172932775050219
 31
0.0
  0
SPLINE
  5
3E98
330
3E89
100
AcDbEntity
  8
0
100
AcDbSpline
210
0.0
220
0.0
230
1.0
 70
     8
 71
     3
 72
    20
 73
    16
 74
     0
 42
0.000000001
 43
0.0000000001
 40
-1.0
 40
-1.0
 40
-1.0
 40
-1.0
 40
-0.8557507846682515
 40
-0.8557507846682515
 40
-0.8557507846682515
 40
-0.4725410755528273
 40
-0.4725410755528273
 40
-0.4725410755528273
 40
-0.2262668722274741
 40
-0.2262668722274741
 40
-0.2262668722274741
 40
-0.0545088760438989
 40
-0.0545088760438989
 40
-0.0545088760438989
 40
0.0
 40
0.0
 40
0.0
 40
0.0
 10
-71.49999999999993
 20
0.0000000000000039
 30
0.0
 10
-70.51422263202089
 20
-0.0000078262250474
 30
0.0
 10
-69.60755482003427
 20
0.1669297411124246
 30
0.0
 10
-68.79579103748493
 20
0.4742787332315995
 30
0.0
 10
-66.63927488406431
 20
1.290776192826343
 30
0.0
 10
-65.09164757617904
 20
2.992237894664601
 30
0.0
 10
-63.52662748019032
 20
4.721648724183522
 30
0.0
 10
-62.52084900391562
 20
5.83307482882255
 30
0.0
 10
-61.51295505183694
 20
6.953174980404659
 30
0.0
 10
-60.34589916493488
 20
7.846564790715597
 30
0.0
 10
-59.53196421818886
 20
8.469637940716259
 30
0.0
 10
-58.62483513654745
 20
8.989941880027446
 30
0.0
 10
-57.60015142176669
 20
9.31271822994574
 30
0.0
 10
-57.27495923954371
 20
9.415154078281988
 30
0.0
 10
-56.93850065068787
 20
9.494468906988025
 30
0.0
 10
-56.59507411448342
 20
9.55813349111499
 30
0.0
  0
LINE
  5
3E99
330
3E89
100
AcDbEntity
  8
0
100
AcDbLine
 10
-57.50707895874677
 20
0.0
 30
0.0
 11
-71.49999999999995
 21
0.0
 31
0.0
  0
SPLINE
  5
3E9A
330
3E89
100
AcDbEntity
  8
0
100
AcDbSpline
210
0.0
220
0.0
230
1.0
 70
     8
 71
     3
 72
    20
 73
    16
 74
     0
 42
0.000000001
 43
0.0000000001
 40
-1.0
 40
-1.0
 40
-1.0
 40
-1.0
 40
-0.8565140843567446
 40
-0.8565140843567446
 40
-0.8565140843567446
 40
-0.540255854180646
 40
-0.540255854180646
 40
-0.540255854180646
 40
-0.270127927090323
 40
-0.270127927090323
 40
-0.270127927090323
 40
-0.0852549168066061
 40
-0.0852549168066061
 40
-0.0852549168066061
 40
0.0
 40
0.0
 40
0.0
 40
0.0
 10
-57.01806215511457
 20
9.483549287034104
 30
0.0
 10
-57.92230508728529
 20
9.320092462341545
 30
0.0
 10
-58.75125606596191
 20
9.072461725046466
 30
0.0
 10
-59.49063806025741
 20
8.763930907742023
 30
0.0
 10
-61.12031467270866
 20
8.083896147549344
 30
0.0
 10
-62.3729880943722
 20
7.123035516933051
 30
0.0
 10
-63.61722483989051
 20
6.173960274803286
 30
0.0
 10
-64.67997376088877
 20
5.363319781221486
 30
0.0
 10
-65.70892477048435
 20
4.57967390980089
 30
0.0
 10
-66.95682341169879
 20
3.98475332402326
 30
0.0
 10
-67.81087349387757
 20
3.577595275771229
 30
0.0
 10
-68.76547766491301
 20
3.265340377921207
 30
0.0
 10
-69.85892594192335
 20
3.108560584058617
 30
0.0
 10
-70.3631739213649
 20
3.036260964648518
 30
0.0
 10
-70.9028999994313
 20
2.999954352938686
 30
0.0
 10
-71.50000000006293
 20
2.999999999892055
 30
0.0
  0
LINE
  5
3E9B
330
3E89
100
AcDbEntity
  8
0
100
AcDbLine
 10
-56.69567051615566
 20
9.540395631337263
 30
0.0
 11
-56.59507411444169
 21
9.558133491121624
 31
0.0
  0
LINE
  5
3E9C
330
3E89
100
AcDbEntity
  8
0
100
AcDbLine
 10
-56.72711921708902
 20
9.53485037685448
 30
0.0
 11
-56.69567051615566
 21
9.540395631337263
 31
0.0
  0
LINE
  5
3E9D
330
3E89
100
AcDbEntity
  8
0
100
AcDbLine
 10
-57.01806215511453
 20
9.483549287033991
 30
0.0
 11
-56.72711921708902
 21
9.53485037685448
 31
0.0
  0
LINE
  5
3E9E
330
3E89
100
AcDbEntity
  8
0
100
AcDbLine
 10
0.0
 20
9.999999999999998
 30
0.0
 11
0.0
 21
57.50707895874677
 31
0.0
  0
ARC
  5
3E9F
330
3E89
100
AcDbEntity
  8
0
100
AcDbCircle
 10
-10.00000000000002
 20
9.999999999999998
 30
0.0
 40
10.0
100
AcDbArc
 50
270.0
 51
0.0
  0
LINE
  5
3EA0
330
3E89
100
AcDbEntity
  8
0
100
AcDbLine
 10
-57.50707895874677
 20
0.0
 30
0.0
 11
-10.00000000000001
 21
0.0
 31
0.0
  0
LINE
  5
3EA1
330
3E89
100
AcDbEntity
  8
0
100
AcDbLine
 10
0.0
 20
278.0000000000001
 30
0.0
 11
0.0
 21
285.0
 31
0.0
  0
LINE
  5
3EA2
330
3E89
100
AcDbEntity
  8
0
100
AcDbLine
 10
-85.00000000000001
 20
0.0
 30
0.0
 11
-78.00000000000003
 21
0.0
 31
0.0
  0
LINE
  5
3EA3
330
3E89
100
AcDbEntity
  8
0
100
AcDbLine
 10
-3.000000000000038
 20
285.0
 30
0.0
 11
-3.000000000000041
 21
278.0000000000001
 31
0.0
  0
LINE
  5
3EA4
330
3E89
100
AcDbEntity
  8
0
100
AcDbLine
 10
-78.00000000000003
 20
2.99999999999999
 30
0.0
 11
-85.00000000000001
 21
2.999999999999991
 31
0.0
  0
LINE
  5
3EA5
330
3E89
100
AcDbEntity
  8
0
100
AcDbLine
 10
-85.00000000000001
 20
2.999999999999991
 30
0.0
 11
-85.00000000000001
 21
0.0
 31
0.0
  0
LINE
  5
3EA6
330
3E89
100
AcDbEntity
  8
0
100
AcDbLine
 10
-3.000000000000041
 20
278.0000000000001
 30
0.0
 11
0.0
 21
278.0000000000001
 31
0.0
  0
LINE
  5
3EA7
330
3E89
100
AcDbEntity
  8
0
100
AcDbLine
 10
0.0
 20
71.49999999999998
 30
0.0
 11
0.0
 21
278.0000000000001
 31
0.0
  0
LINE
  5
3EA8
330
3E89
100
AcDbEntity
  8
0
100
AcDbLine
 10
-78.00000000000003
 20
0.0
 30
0.0
 11
-71.49999999999995
 21
0.0
 31
0.0
  0
LINE
  5
3EA9
330
3E89
100
AcDbEntity
  8
0
100
AcDbLine
 10
-78.00000000000003
 20
2.99999999999999
 30
0.0
 11
-71.49999999999995
 21
2.999999999999991
 31
0.0
  0
LINE
  5
3EAA
330
3E89
100
AcDbEntity
  8
0
100
AcDbLine
 10
-78.00000000000003
 20
0.0
 30
0.0
 11
-78.00000000000003
 21
2.99999999999999
 31
0.0
  0
LINE
  5
3EAB
330
3E89
100
AcDbEntity
  8
0
100
AcDbLine
 10
-3.000000000000031
 20
71.49999999999998
 30
0.0
 11
-3.000000000000041
 21
278.0000000000001
 31
0.0
  0
LINE
  5
3EAC
330
3E89
100
AcDbEntity
  8
0
100
AcDbLine
 10
-26.95234078859376
 20
14.78494715841456
 30
0.0
 11
-56.59507411444168
 21
9.558133491121626
 31
0.0
  0
LINE
  5
3EAD
330
3E89
100
AcDbEntity
  8
0
100
AcDbLine
 10
-9.558133491121639
 20
56.59507411444167
 30
0.0
 11
-14.78494715841458
 21
26.95234078859373
 31
0.0
  0
ARC
  5
3EAE
330
3E89
100
AcDbEntity
  8
0
100
AcDbCircle
 10
-29.5570634535977
 20
29.55706345359769
 30
0.0
 40
15.0
100
AcDbArc
 50
280.0
 51
350.0
  0
LINE
  5
3EAF
330
3E89
100
AcDbEntity
  8
0
100
AcDbLine
 10
0.0
 20
285.0
 30
0.0
 11
-3.000000000000038
 21
285.0
 31
0.0
  0
ENDBLK
  5
3E8B
330
3E89
100
AcDbEntity
  8
0
100
AcDbBlockEnd
  0
BLOCK
  5
3EB1
330
3EB0
100
AcDbEntity
  8
0
100
AcDbBlockBegin
  2
AKR285Z-Top
 70
     0
 10
0.0
 20
0.0
 30
0.0
  3
AKR285Z-Top
  1

  0
CIRCLE
  5
3EB3
330
3EB0
100
AcDbEntity
  8
0
100
AcDbCircle
 10
-0.0000000000000172
 20
-25.00000000000002
 30
0.0
 40
6.749999999999996
  0
CIRCLE
  5
3EB4
330
3EB0
100
AcDbEntity
  8
0
100
AcDbCircle
 10
-0.0000000000000349
 20
-65.00000000000001
 30
0.0
 40
5.5
  0
CIRCLE
  5
3EB5
330
3EB0
100
AcDbEntity
  8
0
100
AcDbCircle
 10
-22.50000000000004
 20
-75.0
 30
0.0
 40
2.6
  0
CIRCLE
  5
3EB6
330
3EB0
100
AcDbEntity
  8
0
100
AcDbCircle
 10
22.49999999999996
 20
-75.00000000000003
 30
0.0
 40
2.6
  0
LINE
  5
3EB7
330
3EB0
100
AcDbEntity
  8
0
100
AcDbLine
 10
19.40049474616514
 20
-26.95234078859376
 30
0.0
 11
22.88089344101219
 21
-57.01806215511453
 31
0.0
  0
ELLIPSE
  5
3EB8
330
3EB0
100
AcDbEntity
  8
0
100
AcDbEllipse
 10
21.84265019811887
 20
-29.5570634535977
 30
0.0
 11
2.149316260459896
 21
-14.99707715516453
 31
0.0
210
0.0
220
0.0
230
0.9999999999999998
 40
0.1377659927417796
 41
3.296384117292443
 42
4.518114593693587
  0
LINE
  5
3EB9
330
3EB0
100
AcDbEntity
  8
0
100
AcDbLine
 10
22.88089344101218
 20
-9.483549287034009
 30
0.0
 11
19.40049474616513
 21
-14.78494715841458
 31
0.0
  0
LINE
  5
3EBA
330
3EB0
100
AcDbEntity
  8
0
100
AcDbLine
 10
-19.40049474616515
 20
-14.78494715841456
 30
0.0
 11
-22.88089344101219
 21
-9.483549287033985
 31
0.0
  0
ELLIPSE
  5
3EBB
330
3EB0
100
AcDbEntity
  8
0
100
AcDbEllipse
 10
-21.84265019811889
 20
-29.55706345359768
 30
0.0
 11
2.149316260459696
 21
14.99707715516456
 31
0.0
210
0.0
220
0.0
230
1.0
 40
0.1377659927417795
 41
4.906663367072859
 42
6.128393843468889
  0
LINE
  5
3EBC
330
3EB0
100
AcDbEntity
  8
0
100
AcDbLine
 10
-22.88089344101226
 20
-57.0180621551145
 30
0.0
 11
-19.40049474616517
 21
-26.95234078859375
 31
0.0
  0
LINE
  5
3EBD
330
3EB0
100
AcDbEntity
  8
0
100
AcDbLine
 10
-25.50000000000004
 20
-85.00000000000001
 30
0.0
 11
25.49999999999996
 21
-85.00000000000001
 31
0.0
  0
SPLINE
  5
3EBE
330
3EB0
100
AcDbEntity
  8
0
100
AcDbSpline
210
0.0
220
0.0
230
1.0
 70
     8
 71
     3
 72
    14
 73
    10
 74
     0
 42
0.000000001
 43
0.0000000001
 40
-0.432864430314869
 40
-0.432864430314869
 40
-0.432864430314869
 40
-0.432864430314869
 40
-0.2262668722274741
 40
-0.2262668722274741
 40
-0.2262668722274741
 40
-0.0545088760438989
 40
-0.0545088760438989
 40
-0.0545088760438989
 40
0.0
 40
0.0
 40
0.0
 40
0.0
 10
-28.84763126614324
 20
-5.258517418713601
 30
0.0
 10
-28.20313773476114
 20
-6.188103701630374
 30
0.0
 10
-27.5727025231695
 20
-7.097106866425572
 30
0.0
 10
-27.05454655898777
 20
-7.846564790715606
 30
0.0
 10
-26.62376978242599
 20
-8.469637940716269
 30
0.0
 10
-26.26601864943989
 20
-8.989941880027457
 30
0.0
 10
-26.05086466151527
 20
-9.312718229945751
 30
0.0
 10
-25.98258369458085
 20
-9.415154078281997
 30
0.0
 10
-25.93039957561372
 20
-9.494468906988034
 30
0.0
 10
-25.89060973843285
 20
-9.558133491114999
 30
0.0
  0
LINE
  5
3EBF
330
3EB0
100
AcDbEntity
  8
0
100
AcDbLine
 10
-25.17482914759647
 20
-9.54039563133692
 30
0.0
 11
-25.89060973854643
 21
-9.558133491121616
 31
0.0
  0
LINE
  5
3EC0
330
3EB0
100
AcDbEntity
  8
0
100
AcDbLine
 10
-22.88089344101223
 20
-9.483549287033984
 30
0.0
 11
-25.17482914759647
 21
-9.54039563133692
 31
0.0
  0
SPLINE
  5
3EC1
330
3EB0
100
AcDbEntity
  8
0
100
AcDbSpline
210
0.0
220
0.0
230
1.0
 70
     8
 71
     3
 72
    20
 73
    16
 74
     0
 42
0.000000001
 43
0.0000000001
 40
-1.0
 40
-1.0
 40
-1.0
 40
-1.0
 40
-0.9088428636536493
 40
-0.9088428636536493
 40
-0.9088428636536493
 40
-0.5823465850605178
 40
-0.5823465850605178
 40
-0.5823465850605178
 40
-0.2911732925302589
 40
-0.2911732925302589
 40
-0.2911732925302589
 40
-0.0929955350075598
 40
-0.0929955350075598
 40
-0.0929955350075598
 40
0.0
 40
0.0
 40
0.0
 40
0.0
 10
-22.88089344101224
 20
-9.483549287034152
 30
0.0
 10
-22.95109681622274
 20
-9.381169312042018
 30
0.0
 10
-23.07530148929884
 20
-9.242772184902635
 30
0.0
 10
-23.2646799734686
 20
-9.075440545868932
 30
0.0
 10
-23.94297432106752
 20
-8.47611108440126
 30
0.0
 10
-25.33823159552397
 20
-7.529918640445743
 30
0.0
 10
-26.83240929909568
 20
-6.552924042740637
 30
0.0
 10
-28.16493487472847
 20
-5.681628556544375
 30
0.0
 10
-29.57348340535966
 20
-4.797106563975496
 30
0.0
 10
-30.66063198915091
 20
-4.125004767749544
 30
0.0
 10
-31.40056478503856
 20
-3.667560248557607
 30
0.0
 10
-31.98635644601459
 20
-3.313097342238462
 30
0.0
 10
-32.28444102984719
 20
-3.127698446643385
 30
0.0
 10
-32.4243181568141
 20
-3.040699432721755
 30
0.0
 10
-32.49448780844131
 20
-3.002604909104171
 30
0.0
 10
-32.5000000000015
 20
-2.999999999891981
 30
0.0
  0
LINE
  5
3EC2
330
3EB0
100
AcDbEntity
  8
0
100
AcDbLine
 10
-22.34380262810205
 20
-5.586466387525121
 30
0.0
 11
-22.88089344101219
 21
-9.483549287034007
 31
0.0
  0
ELLIPSE
  5
3EC3
330
3EB0
100
AcDbEntity
  8
0
100
AcDbEllipse
 10
-19.40135808271008
 20
-6.000000000000008
 30
0.0
 11
-0.0000000000000437
 21
3.000000000000001
 31
0.0
210
0.0
220
0.0
230
1.0
 40
0.9902680687415703
 41
0.0000000000000002
 42
1.432511480600914
  0
SPLINE
  5
3EC4
330
3EB0
100
AcDbEntity
  8
0
100
AcDbSpline
210
0.0
220
0.0
230
1.0
 70
     8
 71
     3
 72
    20
 73
    16
 74
     0
 42
0.000000001
 43
0.0000000001
 40
-1.0
 40
-1.0
 40
-1.0
 40
-1.0
 40
-0.8565140843567446
 40
-0.8565140843567446
 40
-0.8565140843567446
 40
-0.540255854180646
 40
-0.540255854180646
 40
-0.540255854180646
 40
-0.270127927090323
 40
-0.270127927090323
 40
-0.270127927090323
 40
-0.0852549168066061
 40
-0.0852549168066061
 40
-0.0852549168066061
 40
0.0
 40
0.0
 40
0.0
 40
0.0
 10
22.88089344101223
 20
-9.483549287034136
 30
0.0
 10
22.98563906630276
 20
-9.320092462341577
 30
0.0
 10
23.25108945203235
 20
-9.072461725046498
 30
0.0
 10
23.64500443043215
 20
-8.763930907742055
 30
0.0
 10
24.5132349696463
 20
-8.083896147549374
 30
0.0
 10
25.94709485157349
 20
-7.123035516933082
 30
0.0
 10
27.41482735379165
 20
-6.173960274803319
 30
0.0
 10
28.66847232020571
 20
-5.36331978122152
 30
0.0
 10
29.92402793119623
 20
-4.579673909800924
 30
0.0
 10
30.8887974184683
 20
-3.984753324023294
 30
0.0
 10
31.54907657310093
 20
-3.577595275771265
 30
0.0
 10
32.05964361545561
 20
-3.265340377921242
 30
0.0
 10
32.31762450954109
 20
-3.108560584058652
 30
0.0
 10
32.43659341489509
 20
-3.036260964648553
 30
0.0
 10
32.49484871723296
 20
-2.999954352938722
 30
0.0
 10
32.50000000000151
 20
-2.999999999892091
 30
0.0
  0
ELLIPSE
  5
3EC5
330
3EB0
100
AcDbEntity
  8
0
100
AcDbEllipse
 10
19.40135808271008
 20
-6.000000000000026
 30
0.0
 11
0.0000000000000056
 21
3.0
 31
0.0
210
0.0
220
0.0
230
1.0
 40
0.9902680687415706
 41
4.850673826578658
 42
6.283185307179572
  0
LINE
  5
3EC6
330
3EB0
100
AcDbEntity
  8
0
100
AcDbLine
 10
22.88089344101219
 20
-9.483549287034026
 30
0.0
 11
22.34380262810205
 21
-5.586466387525138
 31
0.0
  0
SPLINE
  5
3EC7
330
3EB0
100
AcDbEntity
  8
0
100
AcDbSpline
210
0.0
220
0.0
230
1.0
 70
     8
 71
     3
 72
    14
 73
    10
 74
     0
 42
0.000000001
 43
0.0000000001
 40
-0.4328644303148702
 40
-0.4328644303148702
 40
-0.4328644303148702
 40
-0.4328644303148702
 40
-0.2262668722274741
 40
-0.2262668722274741
 40
-0.2262668722274741
 40
-0.0545088760438989
 40
-0.0545088760438989
 40
-0.0545088760438989
 40
0.0
 40
0.0
 40
0.0
 40
0.0
 10
28.84763126614326
 20
-5.258517418713612
 30
0.0
 10
28.20313773476116
 20
-6.188103701630391
 30
0.0
 10
27.57270252316951
 20
-7.097106866425594
 30
0.0
 10
27.05454655898777
 20
-7.846564790715628
 30
0.0
 10
26.62376978242599
 20
-8.469637940716291
 30
0.0
 10
26.26601864943989
 20
-8.989941880027478
 30
0.0
 10
26.05086466151527
 20
-9.312718229945772
 30
0.0
 10
25.98258369458085
 20
-9.41515407828202
 30
0.0
 10
25.93039957561372
 20
-9.494468906988055
 30
0.0
 10
25.89060973843285
 20
-9.558133491115022
 30
0.0
  0
LINE
  5
3EC8
330
3EB0
100
AcDbEntity
  8
0
100
AcDbLine
 10
25.89060973854642
 20
-9.55813349112164
 30
0.0
 11
25.17482914759645
 21
-9.540395631336943
 31
0.0
  0
LINE
  5
3EC9
330
3EB0
100
AcDbEntity
  8
0
100
AcDbLine
 10
24.95106001320098
 20
-9.534850376855004
 30
0.0
 11
22.88089344101223
 21
-9.483549287034007
 31
0.0
  0
LINE
  5
3ECA
330
3EB0
100
AcDbEntity
  8
0
100
AcDbLine
 10
25.17482914759645
 20
-9.540395631336943
 30
0.0
 11
24.95106001320098
 21
-9.534850376855004
 31
0.0
  0
SPLINE
  5
3ECB
330
3EB0
100
AcDbEntity
  8
0
100
AcDbSpline
210
0.0
220
0.0
230
1.0
 70
     8
 71
     3
 72
    20
 73
    16
 74
     0
 42
0.000000001
 43
0.0000000001
 40
-1.0
 40
-1.0
 40
-1.0
 40
-1.0
 40
-0.8557507846682515
 40
-0.8557507846682515
 40
-0.8557507846682515
 40
-0.4725410755528273
 40
-0.4725410755528273
 40
-0.4725410755528273
 40
-0.2262668722274741
 40
-0.2262668722274741
 40
-0.2262668722274741
 40
-0.0545088760438989
 40
-0.0545088760438989
 40
-0.0545088760438989
 40
0.0
 40
0.0
 40
0.0
 40
0.0
 10
32.5000000000001
 20
-71.49999999999993
 30
0.0
 10
32.49596368058201
 20
-70.51422263202089
 30
0.0
 10
32.37910965910408
 20
-69.60755482003427
 30
0.0
 10
32.16692343470164
 20
-68.79579103748493
 30
0.0
 10
31.60323356543921
 20
-66.63927488406431
 30
0.0
 10
30.41855420420683
 20
-65.09164757617904
 30
0.0
 10
29.21981211982604
 20
-63.52662748019032
 30
0.0
 10
28.44942649336339
 20
-62.52084900391562
 30
0.0
 10
27.67221333326372
 20
-61.51295505183694
 30
0.0
 10
27.05454655898773
 20
-60.34589916493488
 30
0.0
 10
26.62376978242595
 20
-59.53196421818886
 30
0.0
 10
26.26601864943986
 20
-58.62483513654745
 30
0.0
 10
26.05086466151524
 20
-57.60015142176669
 30
0.0
 10
25.98258369458082
 20
-57.27495923954371
 30
0.0
 10
25.93039957561368
 20
-56.93850065068787
 30
0.0
 10
25.89060973843281
 20
-56.59507411448342
 30
0.0
  0
SPLINE
  5
3ECC
330
3EB0
100
AcDbEntity
  8
0
100
AcDbSpline
210
0.0
220
0.0
230
1.0
 70
     8
 71
     3
 72
    20
 73
    16
 74
     0
 42
0.000000001
 43
0.0000000001
 40
-1.0
 40
-1.0
 40
-1.0
 40
-1.0
 40
-0.8565140843567446
 40
-0.8565140843567446
 40
-0.8565140843567446
 40
-0.540255854180646
 40
-0.540255854180646
 40
-0.540255854180646
 40
-0.270127927090323
 40
-0.270127927090323
 40
-0.270127927090323
 40
-0.0852549168066061
 40
-0.0852549168066061
 40
-0.0852549168066061
 40
0.0
 40
0.0
 40
0.0
 40
0.0
 10
22.8808934410122
 20
-57.01806215511457
 30
0.0
 10
22.98563906630273
 20
-57.92230508728529
 30
0.0
 10
23.25108945203233
 20
-58.75125606596191
 30
0.0
 10
23.64500443043212
 20
-59.49063806025741
 30
0.0
 10
24.51323496964626
 20
-61.12031467270866
 30
0.0
 10
25.94709485157345
 20
-62.3729880943722
 30
0.0
 10
27.41482735379162
 20
-63.61722483989051
 30
0.0
 10
28.66847232020568
 20
-64.67997376088877
 30
0.0
 10
29.9240279311962
 20
-65.70892477048435
 30
0.0
 10
30.88879741846826
 20
-66.95682341169879
 30
0.0
 10
31.54907657310089
 20
-67.81087349387757
 30
0.0
 10
32.05964361545558
 20
-68.76547766491301
 30
0.0
 10
32.31762450954106
 20
-69.85892594192335
 30
0.0
 10
32.43659341489504
 20
-70.3631739213649
 30
0.0
 10
32.49484871723292
 20
-70.9028999994313
 30
0.0
 10
32.50000000000146
 20
-71.50000000006293
 30
0.0
  0
LINE
  5
3ECD
330
3EB0
100
AcDbEntity
  8
0
100
AcDbLine
 10
22.34380262810206
 20
-57.09354534627191
 30
0.0
 11
22.8808934410122
 21
-57.01806215511453
 31
0.0
  0
LINE
  5
3ECE
330
3EB0
100
AcDbEntity
  8
0
100
AcDbLine
 10
19.40135808271009
 20
-57.50707895874676
 30
0.0
 11
22.34380262810205
 21
-57.09354534627188
 31
0.0
  0
SPLINE
  5
3ECF
330
3EB0
100
AcDbEntity
  8
0
100
AcDbSpline
210
0.0
220
0.0
230
1.0
 70
     8
 71
     2
 72
     6
 73
     3
 74
     0
 42
0.000000001
 43
0.0000000001
 40
0.0
 40
0.0
 40
0.0
 40
1.0
 40
1.0
 40
1.0
 10
19.40135808271009
 20
-57.50707895874677
 30
0.0
 10
20.85646379032759
 20
-67.86069405359668
 30
0.0
 10
32.49999999999996
 20
-71.49999999999995
 30
0.0
  0
LINE
  5
3ED0
330
3EB0
100
AcDbEntity
  8
0
100
AcDbLine
 10
25.17482914760999
 20
-56.69567051615566
 30
0.0
 11
25.89060973854639
 21
-56.59507411444169
 31
0.0
  0
LINE
  5
3ED1
330
3EB0
100
AcDbEntity
  8
0
100
AcDbLine
 10
24.9510600131804
 20
-56.72711921708902
 30
0.0
 11
25.17482914760999
 21
-56.69567051615566
 31
0.0
  0
LINE
  5
3ED2
330
3EB0
100
AcDbEntity
  8
0
100
AcDbLine
 10
22.8808934410122
 20
-57.01806215511453
 30
0.0
 11
24.9510600131804
 21
-56.72711921708902
 31
0.0
  0
SPLINE
  5
3ED3
330
3EB0
100
AcDbEntity
  8
0
100
AcDbSpline
210
0.0
220
0.0
230
1.0
 70
     8
 71
     3
 72
    20
 73
    16
 74
     0
 42
0.000000001
 43
0.0000000001
 40
-1.0
 40
-1.0
 40
-1.0
 40
-1.0
 40
-0.8557507846682515
 40
-0.8557507846682515
 40
-0.8557507846682515
 40
-0.4725410755528273
 40
-0.4725410755528273
 40
-0.4725410755528273
 40
-0.2262668722274741
 40
-0.2262668722274741
 40
-0.2262668722274741
 40
-0.0545088760438989
 40
-0.0545088760438989
 40
-0.0545088760438989
 40
0.0
 40
0.0
 40
0.0
 40
0.0
 10
-32.50000000000019
 20
-71.4999999999999
 30
0.0
 10
-32.49596368058209
 20
-70.51422263202086
 30
0.0
 10
-32.37910965910415
 20
-69.60755482003422
 30
0.0
 10
-32.1669234347017
 20
-68.79579103748489
 30
0.0
 10
-31.60323356543927
 20
-66.63927488406426
 30
0.0
 10
-30.41855420420689
 20
-65.09164757617901
 30
0.0
 10
-29.2198121198261
 20
-63.52662748019029
 30
0.0
 10
-28.44942649336346
 20
-62.52084900391558
 30
0.0
 10
-27.67221333326379
 20
-61.5129550518369
 30
0.0
 10
-27.0545465589878
 20
-60.34589916493485
 30
0.0
 10
-26.62376978242602
 20
-59.53196421818882
 30
0.0
 10
-26.26601864943991
 20
-58.62483513654741
 30
0.0
 10
-26.0508646615153
 20
-57.60015142176666
 30
0.0
 10
-25.98258369458088
 20
-57.27495923954366
 30
0.0
 10
-25.93039957561375
 20
-56.93850065068783
 30
0.0
 10
-25.89060973843288
 20
-56.59507411448339
 30
0.0
  0
SPLINE
  5
3ED4
330
3EB0
100
AcDbEntity
  8
0
100
AcDbSpline
210
0.0
220
0.0
230
1.0
 70
     8
 71
     3
 72
    20
 73
    16
 74
     0
 42
0.000000001
 43
0.0000000001
 40
-1.0
 40
-1.0
 40
-1.0
 40
-1.0
 40
-0.8565140843567446
 40
-0.8565140843567446
 40
-0.8565140843567446
 40
-0.540255854180646
 40
-0.540255854180646
 40
-0.540255854180646
 40
-0.270127927090323
 40
-0.270127927090323
 40
-0.270127927090323
 40
-0.0852549168066061
 40
-0.0852549168066061
 40
-0.0852549168066061
 40
0.0
 40
0.0
 40
0.0
 40
0.0
 10
-22.88089344101226
 20
-57.01806215511453
 30
0.0
 10
-22.98563906630279
 20
-57.92230508728525
 30
0.0
 10
-23.25108945203238
 20
-58.75125606596187
 30
0.0
 10
-23.64500443043219
 20
-59.49063806025737
 30
0.0
 10
-24.51323496964632
 20
-61.12031467270861
 30
0.0
 10
-25.94709485157352
 20
-62.37298809437216
 30
0.0
 10
-27.41482735379169
 20
-63.61722483989048
 30
0.0
 10
-28.66847232020575
 20
-64.67997376088874
 30
0.0
 10
-29.92402793119627
 20
-65.7089247704843
 30
0.0
 10
-30.88879741846832
 20
-66.95682341169875
 30
0.0
 10
-31.54907657310096
 20
-67.81087349387752
 30
0.0
 10
-32.05964361545564
 20
-68.76547766491296
 30
0.0
 10
-32.31762450954112
 20
-69.8589259419233
 30
0.0
 10
-32.43659341489512
 20
-70.36317392136486
 30
0.0
 10
-32.494848717233
 20
-70.90289999943127
 30
0.0
 10
-32.50000000000154
 20
-71.5000000000629
 30
0.0
  0
SPLINE
  5
3ED5
330
3EB0
100
AcDbEntity
  8
0
100
AcDbSpline
210
0.0
220
0.0
230
1.0
 70
     8
 71
     2
 72
     6
 73
     3
 74
     0
 42
0.000000001
 43
0.0000000001
 40
0.0
 40
0.0
 40
0.0
 40
1.0
 40
1.0
 40
1.0
 10
-19.40135808271016
 20
-57.50707895874677
 30
0.0
 10
-20.85646379032765
 20
-67.86069405359666
 30
0.0
 10
-32.50000000000004
 20
-71.49999999999993
 30
0.0
  0
LINE
  5
3ED6
330
3EB0
100
AcDbEntity
  8
0
100
AcDbLine
 10
-22.34380262810212
 20
-57.09354534627188
 30
0.0
 11
-19.40135808271016
 21
-57.50707895874676
 31
0.0
  0
LINE
  5
3ED7
330
3EB0
100
AcDbEntity
  8
0
100
AcDbLine
 10
-22.88089344101226
 20
-57.01806215511449
 30
0.0
 11
-22.34380262810212
 21
-57.09354534627188
 31
0.0
  0
LINE
  5
3ED8
330
3EB0
100
AcDbEntity
  8
0
100
AcDbLine
 10
-25.89060973854645
 20
-56.59507411444166
 30
0.0
 11
-25.17482914761006
 21
-56.69567051615562
 31
0.0
  0
LINE
  5
3ED9
330
3EB0
100
AcDbEntity
  8
0
100
AcDbLine
 10
-24.95106001318046
 20
-56.72711921708899
 30
0.0
 11
-22.88089344101226
 21
-57.01806215511449
 31
0.0
  0
LINE
  5
3EDA
330
3EB0
100
AcDbEntity
  8
0
100
AcDbLine
 10
-25.17482914761006
 20
-56.69567051615562
 30
0.0
 11
-24.95106001318046
 21
-56.72711921708899
 31
0.0
  0
LINE
  5
3EDB
330
3EB0
100
AcDbEntity
  8
0
100
AcDbLine
 10
-25.49999999999998
 20
0.0
 30
0.0
 11
-32.49999999999999
 21
0.0
 31
0.0
  0
LINE
  5
3EDC
330
3EB0
100
AcDbEntity
  8
0
100
AcDbLine
 10
32.50000000000003
 20
0.0
 30
0.0
 11
25.50000000000004
 21
0.0
 31
0.0
  0
LINE
  5
3EDD
330
3EB0
100
AcDbEntity
  8
0
100
AcDbLine
 10
25.50000000000004
 20
-3.00000000000004
 30
0.0
 11
32.50000000000003
 21
-3.000000000000043
 31
0.0
  0
LINE
  5
3EDE
330
3EB0
100
AcDbEntity
  8
0
100
AcDbLine
 10
-32.49999999999997
 20
-3.000000000000014
 30
0.0
 11
-25.49999999999998
 21
-3.000000000000018
 31
0.0
  0
LINE
  5
3EDF
330
3EB0
100
AcDbEntity
  8
0
100
AcDbLine
 10
-25.50000000000004
 20
-85.00000000000001
 30
0.0
 11
-32.50000000000004
 21
-78.0
 31
0.0
  0
LINE
  5
3EE0
330
3EB0
100
AcDbEntity
  8
0
100
AcDbLine
 10
32.49999999999996
 20
-78.00000000000003
 30
0.0
 11
25.49999999999996
 21
-85.00000000000001
 31
0.0
  0
LINE
  5
3EE1
330
3EB0
100
AcDbEntity
  8
0
100
AcDbLine
 10
32.50000000000003
 20
-3.000000000000043
 30
0.0
 11
32.50000000000003
 21
0.0
 31
0.0
  0
LINE
  5
3EE2
330
3EB0
100
AcDbEntity
  8
0
100
AcDbLine
 10
-32.49999999999999
 20
0.0
 30
0.0
 11
-32.49999999999997
 21
-3.000000000000014
 31
0.0
  0
LINE
  5
3EE3
330
3EB0
100
AcDbEntity
  8
0
100
AcDbLine
 10
25.50000000000004
 20
0.0
 30
0.0
 11
-25.49999999999998
 21
0.0
 31
0.0
  0
LINE
  5
3EE4
330
3EB0
100
AcDbEntity
  8
0
100
AcDbLine
 10
25.50000000000004
 20
-3.00000000000004
 30
0.0
 11
-25.49999999999998
 21
-3.000000000000018
 31
0.0
  0
LINE
  5
3EE5
330
3EB0
100
AcDbEntity
  8
0
100
AcDbLine
 10
25.50000000000004
 20
0.0
 30
0.0
 11
25.50000000000004
 21
-3.00000000000004
 31
0.0
  0
LINE
  5
3EE6
330
3EB0
100
AcDbEntity
  8
0
100
AcDbLine
 10
-25.49999999999998
 20
-3.000000000000018
 30
0.0
 11
-25.49999999999998
 21
0.0
 31
0.0
  0
LINE
  5
3EE7
330
3EB0
100
AcDbEntity
  8
0
100
AcDbLine
 10
-25.89060973854646
 20
-56.59507411444167
 30
0.0
 11
-22.45917600970657
 21
-26.95234078859375
 31
0.0
  0
ELLIPSE
  5
3EE8
330
3EB0
100
AcDbEntity
  8
0
100
AcDbEllipse
 10
-24.90133146166029
 20
-29.55706345359768
 30
0.0
 11
2.149316260459696
 21
14.99707715516456
 31
0.0
210
0.0
220
0.0
230
1.0
 40
0.1377659927417795
 41
4.906663367072857
 42
6.128393843468889
  0
LINE
  5
3EE9
330
3EB0
100
AcDbEntity
  8
0
100
AcDbLine
 10
-22.45917600970655
 20
-14.78494715841456
 30
0.0
 11
-25.89060973854639
 21
-9.558133491121619
 31
0.0
  0
LINE
  5
3EEA
330
3EB0
100
AcDbEntity
  8
0
100
AcDbLine
 10
13.14629605568256
 20
-13.00000000000002
 30
0.0
 11
19.40135808271008
 21
-57.50707895874679
 31
0.0
  0
LINE
  5
3EEB
330
3EB0
100
AcDbEntity
  8
0
100
AcDbLine
 10
-19.40135808271015
 20
-57.50707895874677
 30
0.0
 11
-13.14629605568258
 21
-13.0
 31
0.0
  0
ELLIPSE
  5
3EEC
330
3EB0
100
AcDbEntity
  8
0
100
AcDbEllipse
 10
14.13008189859931
 20
-13.00000000000002
 30
0.0
 11
0.9932598611246566
 21
-9.999531768717286
 31
0.0
210
0.0
220
0.0
230
0.9999999999999998
 40
0.0974265314997314
 41
3.131915516220306
 42
4.702711843026092
  0
ELLIPSE
  5
3EED
330
3EB0
100
AcDbEntity
  8
0
100
AcDbEllipse
 10
-14.13008189859932
 20
-13.00000000000001
 30
0.0
 11
0.993259861124565
 21
9.999531768717297
 31
0.0
210
0.0
220
0.0
230
0.9999999999999998
 40
0.0974265314997312
 41
4.722066117737838
 42
6.292862444532738
  0
LINE
  5
3EEE
330
3EB0
100
AcDbEntity
  8
0
100
AcDbLine
 10
22.45917600970654
 20
-26.95234078859376
 30
0.0
 11
25.89060973854639
 21
-56.59507411444168
 31
0.0
  0
LINE
  5
3EEF
330
3EB0
100
AcDbEntity
  8
0
100
AcDbLine
 10
25.89060973854639
 20
-9.558133491121639
 30
0.0
 11
22.45917600970653
 21
-14.78494715841458
 31
0.0
  0
ELLIPSE
  5
3EF0
330
3EB0
100
AcDbEntity
  8
0
100
AcDbEllipse
 10
24.90133146166027
 20
-29.5570634535977
 30
0.0
 11
2.149316260459896
 21
-14.99707715516453
 31
0.0
210
0.0
220
0.0
230
0.9999999999999998
 40
0.1377659927417796
 41
3.296384117292445
 42
4.518114593693587
  0
LINE
  5
3EF1
330
3EB0
100
AcDbEntity
  8
0
100
AcDbLine
 10
-10.48995551825578
 20
-7.956249513399378
 30
0.0
 11
10.60842073511708
 21
-7.956249513399384
 31
0.0
  0
LINE
  5
3EF2
330
3EB0
100
AcDbEntity
  8
0
100
AcDbLine
 10
-32.50000000000004
 20
-71.49999999999993
 30
0.0
 11
-32.50000000000004
 21
-78.0
 31
0.0
  0
LINE
  5
3EF3
330
3EB0
100
AcDbEntity
  8
0
100
AcDbLine
 10
32.49999999999996
 20
-78.00000000000003
 30
0.0
 11
32.49999999999996
 21
-71.49999999999995
 31
0.0
  0
ENDBLK
  5
3EB2
330
3EB0
100
AcDbEntity
  8
0
100
AcDbBlockEnd
  0
BLOCK
  5
3EF5
330
3EF4
100
AcDbEntity
  8
0
100
AcDbBlockBegin
  2
AKR285Z-Bottom
 70
     0
 10
0.0
 20
0.0
 30
0.0
  3
AKR285Z-Bottom
  1

  0
CIRCLE
  5
3EF7
330
3EF4
100
AcDbEntity
  8
0
100
AcDbCircle
 10
-0.0000000000000175
 20
25.00000000000002
 30
0.0
 40
6.749999999999996
  0
CIRCLE
  5
3EF8
330
3EF4
100
AcDbEntity
  8
0
100
AcDbCircle
 10
-0.0000000000000353
 20
65.00000000000001
 30
0.0
 40
5.5
  0
CIRCLE
  5
3EF9
330
3EF4
100
AcDbEntity
  8
0
100
AcDbCircle
 10
-22.50000000000004
 20
75.0
 30
0.0
 40
2.6
  0
CIRCLE
  5
3EFA
330
3EF4
100
AcDbEntity
  8
0
100
AcDbCircle
 10
22.49999999999996
 20
75.00000000000003
 30
0.0
 40
2.6
  0
LINE
  5
3EFB
330
3EF4
100
AcDbEntity
  8
0
100
AcDbLine
 10
-25.50000000000004
 20
85.00000000000001
 30
0.0
 11
25.49999999999996
 21
85.00000000000001
 31
0.0
  0
ELLIPSE
  5
3EFC
330
3EF4
100
AcDbEntity
  8
0
100
AcDbEllipse
 10
-19.40135808271009
 20
6.000000000000012
 30
0.0
 11
0.0000000000000111
 21
-6.0
 31
0.0
210
0.0
220
0.0
230
1.0
 40
0.9902680687415703
 41
4.850673826578656
 42
6.283185307179578
  0
LINE
  5
3EFD
330
3EF4
100
AcDbEntity
  8
0
100
AcDbLine
 10
-25.89060973854639
 20
9.558133491121639
 30
0.0
 11
-25.28624717349402
 21
5.172932775050234
 31
0.0
  0
SPLINE
  5
3EFE
330
3EF4
100
AcDbEntity
  8
0
100
AcDbSpline
210
0.0
220
0.0
230
1.0
 70
     8
 71
     3
 72
    20
 73
    16
 74
     0
 42
0.000000001
 43
0.0000000001
 40
-1.0
 40
-1.0
 40
-1.0
 40
-1.0
 40
-0.8557507846682515
 40
-0.8557507846682515
 40
-0.8557507846682515
 40
-0.4725410755528273
 40
-0.4725410755528273
 40
-0.4725410755528273
 40
-0.2262668722274741
 40
-0.2262668722274741
 40
-0.2262668722274741
 40
-0.0545088760438989
 40
-0.0545088760438989
 40
-0.0545088760438989
 40
0.0
 40
0.0
 40
0.0
 40
0.0
 10
-32.50000000000014
 20
0.0000000000000109
 30
0.0
 10
-32.49596368058205
 20
-0.0000078262250405
 30
0.0
 10
-32.37910965910411
 20
0.1669297411124315
 30
0.0
 10
-32.16692343470166
 20
0.4742787332316066
 30
0.0
 10
-31.60323356543923
 20
1.29077619282635
 30
0.0
 10
-30.41855420420685
 20
2.992237894664608
 30
0.0
 10
-29.21981211982606
 20
4.72164872418353
 30
0.0
 10
-28.44942649336342
 20
5.833074828822558
 30
0.0
 10
-27.67221333326375
 20
6.953174980404666
 30
0.0
 10
-27.05454655898777
 20
7.846564790715606
 30
0.0
 10
-26.62376978242599
 20
8.469637940716269
 30
0.0
 10
-26.26601864943989
 20
8.989941880027457
 30
0.0
 10
-26.05086466151527
 20
9.312718229945751
 30
0.0
 10
-25.98258369458085
 20
9.415154078281997
 30
0.0
 10
-25.93039957561372
 20
9.494468906988034
 30
0.0
 10
-25.89060973843285
 20
9.558133491114999
 30
0.0
  0
LINE
  5
3EFF
330
3EF4
100
AcDbEntity
  8
0
100
AcDbLine
 10
-19.40135808271012
 20
0.0
 30
0.0
 11
-32.5
 21
0.0
 31
0.0
  0
SPLINE
  5
3F00
330
3EF4
100
AcDbEntity
  8
0
100
AcDbSpline
210
0.0
220
0.0
230
1.0
 70
     8
 71
     3
 72
    14
 73
    10
 74
     0
 42
0.000000001
 43
0.0000000001
 40
-0.4360714618320572
 40
-0.4360714618320572
 40
-0.4360714618320572
 40
-0.4360714618320572
 40
-0.2911732925302589
 40
-0.2911732925302589
 40
-0.2911732925302589
 40
-0.0929955350075598
 40
-0.0929955350075598
 40
-0.0929955350075598
 40
0.0
 40
0.0
 40
0.0
 40
0.0
 10
-28.84782168133766
 20
5.258394263953097
 30
0.0
 10
-29.49903267798543
 20
4.846532175941989
 30
0.0
 10
-30.11962825154326
 20
4.459466486443989
 30
0.0
 10
-30.66063198915091
 20
4.125004767749544
 30
0.0
 10
-31.40056478503856
 20
3.667560248557607
 30
0.0
 10
-31.98635644601459
 20
3.313097342238462
 30
0.0
 10
-32.28444102984719
 20
3.127698446643385
 30
0.0
 10
-32.4243181568141
 20
3.040699432721755
 30
0.0
 10
-32.49448780844131
 20
3.002604909104171
 30
0.0
 10
-32.5000000000015
 20
2.999999999891981
 30
0.0
  0
LINE
  5
3F01
330
3EF4
100
AcDbEntity
  8
0
100
AcDbLine
 10
-32.50000000000004
 20
3.000000000000003
 30
0.0
 11
-32.50000000000004
 21
0.0
 31
0.0
  0
SPLINE
  5
3F02
330
3EF4
100
AcDbEntity
  8
0
100
AcDbSpline
210
0.0
220
0.0
230
1.0
 70
     8
 71
     3
 72
    22
 73
    18
 74
     0
 42
0.000000001
 43
0.0000000001
 40
0.0719855863408933
 40
0.0719855863408933
 40
0.0719855863408933
 40
0.0719855863408933
 40
0.0755985316470391
 40
0.0755985316470391
 40
0.0834543763903633
 40
0.0834543763903633
 40
0.090264871396913
 40
0.090264871396913
 40
0.0947325333721457
 40
0.0947325333721457
 40
0.0976439330786016
 40
0.0976439330786016
 40
0.1021282802424763
 40
0.1021282802424763
 40
0.1058165196427558
 40
0.1058165196427558
 40
0.1079151914523797
 40
0.1079151914523797
 40
0.1079151914523797
 40
0.1079151914523797
 10
-19.84585058919426
 20
0.0168132243548757
 30
0.0
 10
-19.85754265368145
 20
0.0176308329704612
 30
0.0
 10
-19.86932619275712
 20
0.0184870275565213
 30
0.0
 10
-19.90688096680768
 20
0.0213238688043276
 30
0.0
 10
-19.93308558234236
 20
0.0234661434225876
 30
0.0
 10
-19.98177991041109
 20
0.0277710726432407
 30
0.0
 10
-20.0045973266506
 20
0.0299218917540387
 30
0.0
 10
-20.04078858322421
 20
0.0335330569843862
 30
0.0
 10
-20.05487976745863
 20
0.0349932076475174
 30
0.0
 10
-20.07633383894598
 20
0.0372831165229949
 30
0.0
 10
-20.08440741575789
 20
0.0381631151666012
 30
0.0
 10
-20.10296926473003
 20
0.0402168448588249
 30
0.0
 10
-20.11261850783308
 20
0.0413157523822904
 30
0.0
 10
-20.12493558398223
 20
0.0427312476207705
 30
0.0
 10
-20.12871126806247
 20
0.0431709716644504
 30
0.0
 10
-20.13172533041043
 20
0.0435216751028782
 30
0.0
 10
-20.13224919341155
 20
0.04358270007388
 30
0.0
 10
-20.13224919307905
 20
0.0435827000351931
 30
0.0
  0
SPLINE
  5
3F03
330
3EF4
100
AcDbEntity
  8
0
100
AcDbSpline
210
0.0
220
0.0
230
1.0
 70
     8
 71
     3
 72
    14
 73
    10
 74
     0
 42
0.000000001
 43
0.0000000001
 40
-0.4363253265418605
 40
-0.4363253265418605
 40
-0.4363253265418605
 40
-0.4363253265418605
 40
-0.270127927090323
 40
-0.270127927090323
 40
-0.270127927090323
 40
-0.0852549168066061
 40
-0.0852549168066061
 40
-0.0852549168066061
 40
0.0
 40
0.0
 40
0.0
 40
0.0
 10
28.84600882400061
 20
5.259488331869235
 30
0.0
 10
29.59156645175534
 20
4.788248047629219
 30
0.0
 10
30.29521873305827
 20
4.350780840324364
 30
0.0
 10
30.8887974184683
 20
3.984753324023294
 30
0.0
 10
31.54907657310093
 20
3.577595275771265
 30
0.0
 10
32.05964361545561
 20
3.265340377921242
 30
0.0
 10
32.31762450954109
 20
3.108560584058652
 30
0.0
 10
32.43659341489509
 20
3.036260964648553
 30
0.0
 10
32.49484871723296
 20
2.999954352938722
 30
0.0
 10
32.50000000000151
 20
2.999999999892091
 30
0.0
  0
ELLIPSE
  5
3F04
330
3EF4
100
AcDbEntity
  8
0
100
AcDbEllipse
 10
19.40135808271008
 20
6.00000000000003
 30
0.0
 11
0.0000000000000435
 21
-6.0
 31
0.0
210
0.0
220
0.0
230
1.0
 40
0.9902680687415703
 41
0.0000000000000001
 42
1.432511480600922
  0
LINE
  5
3F05
330
3EF4
100
AcDbEntity
  8
0
100
AcDbLine
 10
19.40135808271012
 20
0.0
 30
0.0
 11
32.50000000000001
 21
0.0
 31
0.0
  0
SPLINE
  5
3F06
330
3EF4
100
AcDbEntity
  8
0
100
AcDbSpline
210
0.0
220
0.0
230
1.0
 70
     8
 71
     3
 72
    20
 73
    16
 74
     0
 42
0.000000001
 43
0.0000000001
 40
-1.0
 40
-1.0
 40
-1.0
 40
-1.0
 40
-0.8557507846682515
 40
-0.8557507846682515
 40
-0.8557507846682515
 40
-0.4725410755528273
 40
-0.4725410755528273
 40
-0.4725410755528273
 40
-0.2262668722274741
 40
-0.2262668722274741
 40
-0.2262668722274741
 40
-0.0545088760438989
 40
-0.0545088760438989
 40
-0.0545088760438989
 40
0.0
 40
0.0
 40
0.0
 40
0.0
 10
32.50000000000015
 20
0.0000000000000397
 30
0.0
 10
32.49596368058205
 20
-0.0000078262250117
 30
0.0
 10
32.37910965910412
 20
0.1669297411124602
 30
0.0
 10
32.16692343470167
 20
0.4742787332316352
 30
0.0
 10
31.60323356543924
 20
1.290776192826378
 30
0.0
 10
30.41855420420687
 20
2.992237894664635
 30
0.0
 10
29.21981211982608
 20
4.721648724183556
 30
0.0
 10
28.44942649336343
 20
5.833074828822585
 30
0.0
 10
27.67221333326375
 20
6.953174980404693
 30
0.0
 10
27.05454655898777
 20
7.846564790715628
 30
0.0
 10
26.62376978242599
 20
8.469637940716291
 30
0.0
 10
26.26601864943989
 20
8.989941880027478
 30
0.0
 10
26.05086466151527
 20
9.312718229945772
 30
0.0
 10
25.98258369458085
 20
9.41515407828202
 30
0.0
 10
25.93039957561372
 20
9.494468906988055
 30
0.0
 10
25.89060973843285
 20
9.558133491115022
 30
0.0
  0
LINE
  5
3F07
330
3EF4
100
AcDbEntity
  8
0
100
AcDbLine
 10
25.28624717349402
 20
5.172932775050257
 30
0.0
 11
25.89060973854639
 21
9.558133491121662
 31
0.0
  0
LINE
  5
3F08
330
3EF4
100
AcDbEntity
  8
0
100
AcDbLine
 10
32.50000000000005
 20
3.000000000000032
 30
0.0
 11
32.50000000000005
 21
0.0
 31
0.0
  0
SPLINE
  5
3F09
330
3EF4
100
AcDbEntity
  8
0
100
AcDbSpline
210
0.0
220
0.0
230
1.0
 70
     8
 71
     3
 72
    22
 73
    18
 74
     0
 42
0.000000001
 43
0.0000000001
 40
0.0227913840603737
 40
0.0227913840603737
 40
0.0227913840603737
 40
0.0227913840603737
 40
0.024897348801545
 40
0.024897348801545
 40
0.0292579134592691
 40
0.0292579134592691
 40
0.0329626711453677
 40
0.0329626711453677
 40
0.0366802754921711
 40
0.0366802754921711
 40
0.0411870421687779
 40
0.0411870421687779
 40
0.0473601376087252
 40
0.0473601376087252
 40
0.0565905741565127
 40
0.0565905741565127
 40
0.0587221970653104
 40
0.0587221970653104
 40
0.0587221970653104
 40
0.0587221970653104
 10
20.13224919307889
 20
0.0435827000351929
 30
0.0
 10
20.13224920417477
 20
0.0435827013261833
 30
0.0
 10
20.13172466704194
 20
0.0435215972888356
 30
0.0
 10
20.12834929209629
 20
0.0431288549899956
 30
0.0
 10
20.12343006895203
 20
0.0425554909186033
 30
0.0
 10
20.10984671175404
 20
0.0410009976007415
 30
0.0
 10
20.10173317326635
 20
0.0400813010644702
 30
0.0
 10
20.08323898287315
 20
0.03803271217436
 30
0.0
 10
20.07269487436627
 20
0.0368864617268578
 30
0.0
 10
20.0482194367749
 20
0.0342994698701592
 30
0.0
 10
20.03383233981875
 20
0.0328255826485638
 30
0.0
 10
19.99928070161529
 20
0.029420119082343
 30
0.0
 10
19.97864567924833
 20
0.0274905636996839
 30
0.0
 10
19.92750144285698
 20
0.0229777971672353
 30
0.0
 10
19.89668990657468
 20
0.0205010085477479
 30
0.0
 10
19.85968691749101
 20
0.0177919916475607
 30
0.0
 10
19.85275658981036
 20
0.0172961506686466
 30
0.0
 10
19.84585058919428
 20
0.0168132243548952
 30
0.0
  0
LINE
  5
3F0A
330
3EF4
100
AcDbEntity
  8
0
100
AcDbLine
 10
19.40135808271009
 20
57.50707895874677
 30
0.0
 11
25.28624717349402
 21
56.680011733797
 31
0.0
  0
LINE
  5
3F0B
330
3EF4
100
AcDbEntity
  8
0
100
AcDbLine
 10
25.89060973854639
 20
56.59507411444168
 30
0.0
 11
25.28624717349402
 21
56.68001173379701
 31
0.0
  0
SPLINE
  5
3F0C
330
3EF4
100
AcDbEntity
  8
0
100
AcDbSpline
210
0.0
220
0.0
230
1.0
 70
     8
 71
     3
 72
    20
 73
    16
 74
     0
 42
0.000000001
 43
0.0000000001
 40
-1.0
 40
-1.0
 40
-1.0
 40
-1.0
 40
-0.8557507846682515
 40
-0.8557507846682515
 40
-0.8557507846682515
 40
-0.4725410755528273
 40
-0.4725410755528273
 40
-0.4725410755528273
 40
-0.2262668722274741
 40
-0.2262668722274741
 40
-0.2262668722274741
 40
-0.0545088760438989
 40
-0.0545088760438989
 40
-0.0545088760438989
 40
0.0
 40
0.0
 40
0.0
 40
0.0
 10
32.5000000000001
 20
71.49999999999993
 30
0.0
 10
32.49596368058201
 20
70.51422263202089
 30
0.0
 10
32.37910965910408
 20
69.60755482003427
 30
0.0
 10
32.16692343470164
 20
68.79579103748493
 30
0.0
 10
31.60323356543921
 20
66.63927488406431
 30
0.0
 10
30.41855420420683
 20
65.09164757617904
 30
0.0
 10
29.21981211982604
 20
63.52662748019032
 30
0.0
 10
28.44942649336339
 20
62.52084900391562
 30
0.0
 10
27.67221333326372
 20
61.51295505183694
 30
0.0
 10
27.05454655898773
 20
60.34589916493488
 30
0.0
 10
26.62376978242595
 20
59.53196421818886
 30
0.0
 10
26.26601864943986
 20
58.62483513654745
 30
0.0
 10
26.05086466151524
 20
57.60015142176669
 30
0.0
 10
25.98258369458082
 20
57.27495923954371
 30
0.0
 10
25.93039957561368
 20
56.93850065068787
 30
0.0
 10
25.89060973843281
 20
56.59507411448342
 30
0.0
  0
SPLINE
  5
3F0D
330
3EF4
100
AcDbEntity
  8
0
100
AcDbSpline
210
0.0
220
0.0
230
1.0
 70
     8
 71
     2
 72
     6
 73
     3
 74
     0
 42
0.000000001
 43
0.0000000001
 40
0.0
 40
0.0
 40
0.0
 40
1.0
 40
1.0
 40
1.0
 10
19.40135808271009
 20
57.50707895874677
 30
0.0
 10
20.85646379032759
 20
67.86069405359668
 30
0.0
 10
32.49999999999996
 20
71.49999999999995
 30
0.0
  0
LINE
  5
3F0E
330
3EF4
100
AcDbEntity
  8
0
100
AcDbLine
 10
-25.28624717349409
 20
56.680011733797
 30
0.0
 11
-19.40135808271016
 21
57.50707895874677
 31
0.0
  0
SPLINE
  5
3F0F
330
3EF4
100
AcDbEntity
  8
0
100
AcDbSpline
210
0.0
220
0.0
230
1.0
 70
     8
 71
     2
 72
     6
 73
     3
 74
     0
 42
0.000000001
 43
0.0000000001
 40
0.0
 40
0.0
 40
0.0
 40
1.0
 40
1.0
 40
1.0
 10
-19.40135808271016
 20
57.50707895874677
 30
0.0
 10
-20.85646379032765
 20
67.86069405359666
 30
0.0
 10
-32.50000000000004
 20
71.49999999999993
 30
0.0
  0
SPLINE
  5
3F10
330
3EF4
100
AcDbEntity
  8
0
100
AcDbSpline
210
0.0
220
0.0
230
1.0
 70
     8
 71
     3
 72
    20
 73
    16
 74
     0
 42
0.000000001
 43
0.0000000001
 40
-1.0
 40
-1.0
 40
-1.0
 40
-1.0
 40
-0.8557507846682515
 40
-0.8557507846682515
 40
-0.8557507846682515
 40
-0.4725410755528273
 40
-0.4725410755528273
 40
-0.4725410755528273
 40
-0.2262668722274741
 40
-0.2262668722274741
 40
-0.2262668722274741
 40
-0.0545088760438989
 40
-0.0545088760438989
 40
-0.0545088760438989
 40
0.0
 40
0.0
 40
0.0
 40
0.0
 10
-32.50000000000019
 20
71.4999999999999
 30
0.0
 10
-32.49596368058209
 20
70.51422263202086
 30
0.0
 10
-32.37910965910415
 20
69.60755482003422
 30
0.0
 10
-32.1669234347017
 20
68.79579103748489
 30
0.0
 10
-31.60323356543927
 20
66.63927488406426
 30
0.0
 10
-30.41855420420689
 20
65.09164757617901
 30
0.0
 10
-29.2198121198261
 20
63.52662748019029
 30
0.0
 10
-28.44942649336346
 20
62.52084900391558
 30
0.0
 10
-27.67221333326379
 20
61.5129550518369
 30
0.0
 10
-27.0545465589878
 20
60.34589916493485
 30
0.0
 10
-26.62376978242602
 20
59.53196421818882
 30
0.0
 10
-26.26601864943991
 20
58.62483513654741
 30
0.0
 10
-26.0508646615153
 20
57.60015142176666
 30
0.0
 10
-25.98258369458088
 20
57.27495923954366
 30
0.0
 10
-25.93039957561375
 20
56.93850065068783
 30
0.0
 10
-25.89060973843288
 20
56.59507411448339
 30
0.0
  0
LINE
  5
3F11
330
3EF4
100
AcDbEntity
  8
0
100
AcDbLine
 10
-25.28624717349409
 20
56.68001173379699
 30
0.0
 11
-25.89060973854645
 21
56.59507411444164
 31
0.0
  0
LINE
  5
3F12
330
3EF4
100
AcDbEntity
  8
0
100
AcDbLine
 10
12.72467355157539
 20
0.0
 30
0.0
 11
19.40135808271008
 21
0.0
 31
0.0
  0
ELLIPSE
  5
3F13
330
3EF4
100
AcDbEntity
  8
0
100
AcDbEllipse
 10
13.28683689038495
 20
10.00000000000002
 30
0.0
 11
-0.5639370964297705
 21
-9.999950064643336
 31
0.0
210
0.0
220
0.0
230
0.9999999999999998
 40
0.0560386765135296
 41
4.715549214497015
 42
6.286345541291899
  0
LINE
  5
3F14
330
3EF4
100
AcDbEntity
  8
0
100
AcDbLine
 10
19.40135808271008
 20
57.50707895874677
 30
0.0
 11
12.72467355157538
 21
10.00000000000001
 31
0.0
  0
LINE
  5
3F15
330
3EF4
100
AcDbEntity
  8
0
100
AcDbLine
 10
-19.40135808271009
 20
0.0
 30
0.0
 11
-12.7246735515754
 21
0.0
 31
0.0
  0
ELLIPSE
  5
3F16
330
3EF4
100
AcDbEntity
  8
0
100
AcDbEllipse
 10
-13.28683689038497
 20
10.00000000000001
 30
0.0
 11
-0.5639370964298366
 21
9.99995006464333
 31
0.0
210
0.0
220
0.0
230
0.9999999999999998
 40
0.0560386765135293
 41
3.138432419428198
 42
4.709228746255937
  0
LINE
  5
3F17
330
3EF4
100
AcDbEntity
  8
0
100
AcDbLine
 10
-12.72467355157541
 20
10.00000000000001
 30
0.0
 11
-19.40135808271015
 21
57.50707895874677
 31
0.0
  0
LINE
  5
3F18
330
3EF4
100
AcDbEntity
  8
0
100
AcDbLine
 10
-12.7246735515754
 20
0.0
 30
0.0
 11
12.72467355157539
 21
0.0
 31
0.0
  0
LINE
  5
3F19
330
3EF4
100
AcDbEntity
  8
0
100
AcDbLine
 10
32.49999999999996
 20
78.00000000000003
 30
0.0
 11
32.49999999999996
 21
71.49999999999995
 31
0.0
  0
LINE
  5
3F1A
330
3EF4
100
AcDbEntity
  8
0
100
AcDbLine
 10
-32.50000000000004
 20
71.49999999999993
 30
0.0
 11
-32.50000000000004
 21
78.0
 31
0.0
  0
LINE
  5
3F1B
330
3EF4
100
AcDbEntity
  8
0
100
AcDbLine
 10
25.49999999999996
 20
85.00000000000001
 30
0.0
 11
32.49999999999996
 21
78.00000000000003
 31
0.0
  0
LINE
  5
3F1C
330
3EF4
100
AcDbEntity
  8
0
100
AcDbLine
 10
-32.50000000000004
 20
78.0
 30
0.0
 11
-25.50000000000004
 21
85.00000000000001
 31
0.0
  0
LINE
  5
3F1D
330
3EF4
100
AcDbEntity
  8
0
100
AcDbLine
 10
-25.89060973854646
 20
56.59507411444167
 30
0.0
 11
-22.45917600970657
 21
26.95234078859375
 31
0.0
  0
ELLIPSE
  5
3F1E
330
3EF4
100
AcDbEntity
  8
0
100
AcDbEllipse
 10
-24.90133146166029
 20
29.55706345359768
 30
0.0
 11
2.149316260459696
 21
-14.99707715516456
 31
0.0
210
0.0
220
0.0
230
1.0
 40
0.1377659927417795
 41
0.1547914637106968
 42
1.376521940106727
  0
LINE
  5
3F1F
330
3EF4
100
AcDbEntity
  8
0
100
AcDbLine
 10
-22.45917600970655
 20
14.78494715841456
 30
0.0
 11
-25.89060973854639
 21
9.558133491121619
 31
0.0
  0
LINE
  5
3F20
330
3EF4
100
AcDbEntity
  8
0
100
AcDbLine
 10
22.45917600970654
 20
26.95234078859376
 30
0.0
 11
25.89060973854639
 21
56.59507411444168
 31
0.0
  0
LINE
  5
3F21
330
3EF4
100
AcDbEntity
  8
0
100
AcDbLine
 10
25.89060973854639
 20
9.558133491121639
 30
0.0
 11
22.45917600970653
 21
14.78494715841458
 31
0.0
  0
ELLIPSE
  5
3F22
330
3EF4
100
AcDbEntity
  8
0
100
AcDbEllipse
 10
24.90133146166027
 20
29.5570634535977
 30
0.0
 11
2.149316260459896
 21
14.99707715516453
 31
0.0
210
0.0
220
0.0
230
0.9999999999999998
 40
0.1377659927417796
 41
1.765070713485998
 42
2.98680118988714
  0
ENDBLK
  5
3EF6
330
3EF4
100
AcDbEntity
  8
0
100
AcDbBlockEnd
  0
BLOCK
  5
3F24
330
3F23
100
AcDbEntity
  8
0
100
AcDbBlockBegin
  2
AKR285Z-ISO
 70
     0
 10
0.0
 20
0.0
 30
0.0
  3
AKR285Z-ISO
  1

  0
ELLIPSE
  5
3F26
330
3F23
100
AcDbEntity
  8
0
100
AcDbEllipse
 10
45.85818480465825
 20
19.24757319043561
 30
0.0
 11
1.300000000000137
 21
-2.251666049839466
 31
0.0
210
0.0
220
0.0
230
1.0
 40
0.5773502691896257
 41
4.095863641558292
 42
5.328914319210786
  0
ELLIPSE
  5
3F27
330
3F23
100
AcDbEntity
  8
0
100
AcDbEllipse
 10
43.73686446109858
 20
18.02282831904401
 30
0.0
 11
1.299999999999867
 21
-2.251666049839622
 31
0.0
210
0.0
220
0.0
230
1.0
 40
0.5773502691896255
 41
0.0
 42
6.283185307179586
  0
ELLIPSE
  5
3F28
330
3F23
100
AcDbEntity
  8
0
100
AcDbEllipse
 10
14.03837965126363
 20
37.61874626130947
 30
0.0
 11
1.300000000000134
 21
-2.251666049839464
 31
0.0
210
0.0
220
0.0
230
1.0
 40
0.5773502691896255
 41
4.095863641558294
 42
5.328914319210781
  0
ELLIPSE
  5
3F29
330
3F23
100
AcDbEntity
  8
0
100
AcDbEllipse
 10
11.91705930770395
 20
36.39400138991788
 30
0.0
 11
1.299999999999865
 21
-2.251666049839619
 31
0.0
210
0.0
220
0.0
230
1.0
 40
0.5773502691896257
 41
0.0
 42
6.283185307179586
  0
ELLIPSE
  5
3F2A
330
3F23
100
AcDbEntity
  8
0
100
AcDbEllipse
 10
22.02868627867162
 20
49.33547219762234
 30
0.0
 11
1.300000000000134
 21
-2.251666049839463
 31
0.0
210
0.0
220
0.0
230
1.0
 40
0.5773502691896255
 41
4.095863641558294
 42
5.328914319210781
  0
ELLIPSE
  5
3F2B
330
3F23
100
AcDbEntity
  8
0
100
AcDbEllipse
 10
19.90736593511195
 20
48.11072732623073
 30
0.0
 11
1.299999999999865
 21
-2.251666049839619
 31
0.0
210
0.0
220
0.0
230
1.0
 40
0.5773502691896257
 41
0.0
 42
6.283185307179586
  0
ELLIPSE
  5
3F2C
330
3F23
100
AcDbEntity
  8
0
100
AcDbEllipse
 10
29.94828222796094
 20
61.09302296298159
 30
0.0
 11
1.300000000000135
 21
-2.251666049839465
 31
0.0
210
0.0
220
0.0
230
1.0
 40
0.5773502691896255
 41
4.095863641558294
 42
5.328914319210782
  0
ELLIPSE
  5
3F2D
330
3F23
100
AcDbEntity
  8
0
100
AcDbEllipse
 10
27.82696188440128
 20
59.86827809158999
 30
0.0
 11
1.299999999999865
 21
-2.251666049839621
 31
0.0
210
0.0
220
0.0
230
1.0
 40
0.5773502691896255
 41
0.0
 42
6.283185307179586
  0
ELLIPSE
  5
3F2E
330
3F23
100
AcDbEntity
  8
0
100
AcDbEllipse
 10
37.86787817725028
 20
72.85057372834083
 30
0.0
 11
1.300000000000132
 21
-2.251666049839461
 31
0.0
210
0.0
220
0.0
230
0.9999999999999998
 40
0.5773502691896255
 41
4.095863641558294
 42
5.328914319210781
  0
ELLIPSE
  5
3F2F
330
3F23
100
AcDbEntity
  8
0
100
AcDbEllipse
 10
35.74655783369061
 20
71.62582885694925
 30
0.0
 11
1.299999999999863
 21
-2.251666049839617
 31
0.0
210
0.0
220
0.0
230
0.9999999999999998
 40
0.5773502691896255
 41
0.0
 42
6.283185307179586
  0
ELLIPSE
  5
3F30
330
3F23
100
AcDbEntity
  8
0
100
AcDbEllipse
 10
29.94828222796095
 20
93.75288620009063
 30
0.0
 11
1.300000000000133
 21
-2.251666049839462
 31
0.0
210
0.0
220
0.0
230
1.0
 40
0.5773502691896254
 41
4.095863641558297
 42
5.328914319210783
  0
ELLIPSE
  5
3F31
330
3F23
100
AcDbEntity
  8
0
100
AcDbEllipse
 10
27.82696188440128
 20
92.52814132869902
 30
0.0
 11
1.299999999999864
 21
-2.251666049839617
 31
0.0
210
0.0
220
0.0
230
1.0
 40
0.5773502691896257
 41
0.0
 42
6.283185307179586
  0
ELLIPSE
  5
3F32
330
3F23
100
AcDbEntity
  8
0
100
AcDbEllipse
 10
14.03837965126364
 20
102.9384727355276
 30
0.0
 11
1.300000000000135
 21
-2.251666049839465
 31
0.0
210
0.0
220
0.0
230
0.9999999999999998
 40
0.5773502691896255
 41
4.09586364155829
 42
5.32891431921078
  0
ELLIPSE
  5
3F33
330
3F23
100
AcDbEntity
  8
0
100
AcDbEllipse
 10
11.91705930770396
 20
101.7137278641359
 30
0.0
 11
1.299999999999865
 21
-2.251666049839621
 31
0.0
210
0.0
220
0.0
230
1.0
 40
0.5773502691896255
 41
0.0
 42
6.283185307179586
  0
ELLIPSE
  5
3F34
330
3F23
100
AcDbEntity
  8
0
100
AcDbEllipse
 10
22.02868627867163
 20
114.6551986718404
 30
0.0
 11
1.300000000000134
 21
-2.251666049839463
 31
0.0
210
0.0
220
0.0
230
1.0
 40
0.5773502691896255
 41
4.09586364155829
 42
5.328914319210777
  0
ELLIPSE
  5
3F35
330
3F23
100
AcDbEntity
  8
0
100
AcDbEllipse
 10
19.90736593511196
 20
113.4304538004488
 30
0.0
 11
1.299999999999865
 21
-2.251666049839619
 31
0.0
210
0.0
220
0.0
230
1.0
 40
0.5773502691896257
 41
0.0
 42
6.283185307179586
  0
ELLIPSE
  5
3F36
330
3F23
100
AcDbEntity
  8
0
100
AcDbEllipse
 10
14.03837965126364
 20
135.5983359726366
 30
0.0
 11
1.300000000000135
 21
-2.251666049839464
 31
0.0
210
0.0
220
0.0
230
1.0
 40
0.5773502691896255
 41
4.09586364155829
 42
5.328914319210777
  0
ELLIPSE
  5
3F37
330
3F23
100
AcDbEntity
  8
0
100
AcDbEllipse
 10
11.91705930770397
 20
134.373591101245
 30
0.0
 11
1.299999999999866
 21
-2.251666049839618
 31
0.0
210
0.0
220
0.0
230
1.0
 40
0.5773502691896255
 41
0.0
 42
6.283185307179586
  0
ELLIPSE
  5
3F38
330
3F23
100
AcDbEntity
  8
0
100
AcDbEllipse
 10
45.85818480465826
 20
117.2271629017628
 30
0.0
 11
1.300000000000135
 21
-2.251666049839465
 31
0.0
210
0.0
220
0.0
230
0.9999999999999998
 40
0.5773502691896255
 41
4.095863641558288
 42
5.328914319210777
  0
ELLIPSE
  5
3F39
330
3F23
100
AcDbEntity
  8
0
100
AcDbEllipse
 10
43.7368644610986
 20
116.0024180303711
 30
0.0
 11
1.299999999999865
 21
-2.251666049839621
 31
0.0
210
0.0
220
0.0
230
1.0
 40
0.5773502691896255
 41
0.0
 42
6.283185307179586
  0
ELLIPSE
  5
3F3A
330
3F23
100
AcDbEntity
  8
0
100
AcDbEllipse
 10
37.86787817725028
 20
105.5104369654499
 30
0.0
 11
1.300000000000134
 21
-2.251666049839463
 31
0.0
210
0.0
220
0.0
230
1.0
 40
0.5773502691896255
 41
4.09586364155829
 42
5.328914319210777
  0
ELLIPSE
  5
3F3B
330
3F23
100
AcDbEntity
  8
0
100
AcDbEllipse
 10
35.74655783369061
 20
104.2856920940583
 30
0.0
 11
1.299999999999865
 21
-2.251666049839619
 31
0.0
210
0.0
220
0.0
230
1.0
 40
0.5773502691896257
 41
0.0
 42
6.283185307179586
  0
ELLIPSE
  5
3F3C
330
3F23
100
AcDbEntity
  8
0
100
AcDbEllipse
 10
45.85818480465826
 20
84.56729966465372
 30
0.0
 11
1.300000000000135
 21
-2.251666049839466
 31
0.0
210
0.0
220
0.0
230
0.9999999999999998
 40
0.5773502691896255
 41
4.095863641558288
 42
5.328914319210777
  0
ELLIPSE
  5
3F3D
330
3F23
100
AcDbEntity
  8
0
100
AcDbEllipse
 10
43.73686446109859
 20
83.34255479326211
 30
0.0
 11
1.299999999999867
 21
-2.25166604983962
 31
0.0
210
0.0
220
0.0
230
1.0
 40
0.5773502691896257
 41
0.0
 42
6.283185307179586
  0
ELLIPSE
  5
3F3E
330
3F23
100
AcDbEntity
  8
0
100
AcDbEllipse
 10
22.02868627867163
 20
81.99533543473139
 30
0.0
 11
1.300000000000134
 21
-2.251666049839464
 31
0.0
210
0.0
220
0.0
230
1.0
 40
0.5773502691896255
 41
4.09586364155829
 42
5.32891431921078
  0
ELLIPSE
  5
3F3F
330
3F23
100
AcDbEntity
  8
0
100
AcDbEllipse
 10
19.90736593511195
 20
80.77059056333977
 30
0.0
 11
1.299999999999865
 21
-2.25166604983962
 31
0.0
210
0.0
220
0.0
230
1.0
 40
0.5773502691896257
 41
0.0
 42
6.283185307179586
  0
ELLIPSE
  5
3F40
330
3F23
100
AcDbEntity
  8
0
100
AcDbEllipse
 10
14.03837965126363
 20
70.27860949841853
 30
0.0
 11
1.300000000000134
 21
-2.251666049839464
 31
0.0
210
0.0
220
0.0
230
0.9999999999999998
 40
0.5773502691896254
 41
4.095863641558294
 42
5.328914319210781
  0
ELLIPSE
  5
3F41
330
3F23
100
AcDbEntity
  8
0
100
AcDbEllipse
 10
11.91705930770396
 20
69.05386462702693
 30
0.0
 11
1.299999999999865
 21
-2.251666049839619
 31
0.0
210
0.0
220
0.0
230
1.0
 40
0.5773502691896257
 41
0.0
 42
6.283185307179586
  0
ELLIPSE
  5
3F42
330
3F23
100
AcDbEntity
  8
0
100
AcDbEllipse
 10
45.85818480465826
 20
51.90743642754465
 30
0.0
 11
1.300000000000133
 21
-2.251666049839461
 31
0.0
210
0.0
220
0.0
230
0.9999999999999998
 40
0.5773502691896254
 41
4.095863641558288
 42
5.328914319210781
  0
ELLIPSE
  5
3F43
330
3F23
100
AcDbEntity
  8
0
100
AcDbEllipse
 10
43.73686446109859
 20
50.68269155615306
 30
0.0
 11
1.299999999999863
 21
-2.251666049839617
 31
0.0
210
0.0
220
0.0
230
0.9999999999999998
 40
0.5773502691896255
 41
0.0
 42
6.283185307179586
  0
ELLIPSE
  5
3F44
330
3F23
100
AcDbEntity
  8
0
100
AcDbEllipse
 10
37.86787817725028
 20
40.1907104912318
 30
0.0
 11
1.300000000000133
 21
-2.251666049839461
 31
0.0
210
0.0
220
0.0
230
0.9999999999999998
 40
0.5773502691896254
 41
4.09586364155829
 42
5.328914319210782
  0
ELLIPSE
  5
3F45
330
3F23
100
AcDbEntity
  8
0
100
AcDbEllipse
 10
35.7465578336906
 20
38.96596561984019
 30
0.0
 11
1.299999999999863
 21
-2.251666049839617
 31
0.0
210
0.0
220
0.0
230
0.9999999999999998
 40
0.5773502691896255
 41
0.0
 42
6.283185307179586
  0
ELLIPSE
  5
3F46
330
3F23
100
AcDbEntity
  8
0
100
AcDbEllipse
 10
29.94828222796094
 20
28.43315972587254
 30
0.0
 11
1.300000000000135
 21
-2.251666049839464
 31
0.0
210
0.0
220
0.0
230
0.9999999999999998
 40
0.5773502691896254
 41
4.095863641558294
 42
5.328914319210784
  0
ELLIPSE
  5
3F47
330
3F23
100
AcDbEntity
  8
0
100
AcDbEllipse
 10
27.82696188440127
 20
27.20841485448094
 30
0.0
 11
1.299999999999866
 21
-2.251666049839618
 31
0.0
210
0.0
220
0.0
230
1.0
 40
0.5773502691896255
 41
0.0
 42
6.283185307179586
  0
ELLIPSE
  5
3F48
330
3F23
100
AcDbEntity
  8
0
100
AcDbEllipse
 10
29.94828222796095
 20
119.8807767897778
 30
0.0
 11
-3.374999999999999
 21
5.845671475544963
 31
0.0
210
0.0
220
0.0
230
1.0
 40
0.5773502691896255
 41
0.3196872591302861
 42
2.821905394459509
  0
ELLIPSE
  5
3F49
330
3F23
100
AcDbEntity
  8
0
100
AcDbEllipse
 10
27.82696188440129
 20
118.6560319183862
 30
0.0
 11
3.37499999999965
 21
-5.845671475545166
 31
0.0
210
0.0
220
0.0
230
1.0
 40
0.5773502691896255
 41
0.0
 42
6.283185307179586
  0
ELLIPSE
  5
3F4A
330
3F23
100
AcDbEntity
  8
0
100
AcDbEllipse
 10
29.94828222796095
 20
50.47856741092111
 30
0.0
 11
-3.374999999999999
 21
5.845671475544963
 31
0.0
210
0.0
220
0.0
230
1.0
 40
0.5773502691896255
 41
0.3196872591302861
 42
2.82190539445951
  0
ELLIPSE
  5
3F4B
330
3F23
100
AcDbEntity
  8
0
100
AcDbEllipse
 10
27.82696188440128
 20
49.25382253952952
 30
0.0
 11
3.37499999999965
 21
-5.845671475545166
 31
0.0
210
0.0
220
0.0
230
1.0
 40
0.5773502691896255
 41
0.0
 42
6.283185307179586
  0
ELLIPSE
  5
3F4C
330
3F23
100
AcDbEntity
  8
0
100
AcDbEllipse
 10
29.94828222796094
 20
-17.29064880608014
 30
0.0
 11
-3.375000000000001
 21
5.845671475544965
 31
0.0
210
0.0
220
0.0
230
1.0
 40
0.5773502691896255
 41
0.3196872591302837
 42
2.821905394459508
  0
ELLIPSE
  5
3F4D
330
3F23
100
AcDbEntity
  8
0
100
AcDbEllipse
 10
27.82696188440127
 20
-18.51539367747174
 30
0.0
 11
3.374999999999653
 21
-5.845671475545167
 31
0.0
210
0.0
220
0.0
230
0.9999999999999998
 40
0.5773502691896257
 41
0.0
 42
6.283185307179586
  0
ELLIPSE
  5
3F4E
330
3F23
100
AcDbEntity
  8
0
100
AcDbEllipse
 10
12.27061269829723
 20
-106.6970244176661
 30
0.0
 11
-6.749999999999998
 21
0.0000000000000022
 31
0.0
210
0.0
220
0.0
230
1.0
 40
0.5773502691896258
 41
0.0
 42
6.283185307179586
  0
ELLIPSE
  5
3F4F
330
3F23
100
AcDbEntity
  8
0
100
AcDbEllipse
 10
12.27061269829723
 20
-109.1465141604493
 30
0.0
 11
6.749999999999996
 21
-0.0000000000000037
 31
0.0
210
0.0
220
0.0
230
1.0
 40
0.5773502691896259
 41
0.3196872591302831
 42
2.821905394459512
  0
ELLIPSE
  5
3F50
330
3F23
100
AcDbEntity
  8
0
100
AcDbEllipse
 10
11.91705930770395
 20
-19.94426269409524
 30
0.0
 11
-1.300000000000003
 21
2.251666049839546
 31
0.0
210
0.0
220
0.0
230
0.9999999999999996
 40
0.5773502691896257
 41
0.0
 42
6.283185307179586
  0
ELLIPSE
  5
3F51
330
3F23
100
AcDbEntity
  8
0
100
AcDbEllipse
 10
43.73686446109858
 20
-38.31543576496911
 30
0.0
 11
-1.3
 21
2.251666049839541
 31
0.0
210
0.0
220
0.0
230
0.9999999999999998
 40
0.5773502691896257
 41
0.0
 42
6.283185307179586
  0
ELLIPSE
  5
3F52
330
3F23
100
AcDbEntity
  8
0
100
AcDbEllipse
 10
27.82696188440127
 20
-67.50518853313531
 30
0.0
 11
-1.3
 21
2.251666049839541
 31
0.0
210
0.0
220
0.0
230
1.0
 40
0.5773502691896254
 41
0.0
 42
6.283185307179586
  0
ELLIPSE
  5
3F53
330
3F23
100
AcDbEntity
  8
0
100
AcDbEllipse
 10
37.72645682101293
 20
-65.05569879035213
 30
0.0
 11
1.3
 21
-2.251666049839541
 31
0.0
210
0.0
220
0.0
230
1.0
 40
0.5773502691896254
 41
1.10242450902542
 42
6.261604347111333
  0
ELLIPSE
  5
3F54
330
3F23
100
AcDbEntity
  8
0
100
AcDbEllipse
 10
37.72645682101293
 20
-65.05569879035213
 30
0.0
 11
1.3
 21
-2.251666049839542
 31
0.0
210
0.0
220
0.0
230
1.0
 40
0.5773502691896255
 41
0.9823128046850087
 42
0.9823847703589061
  0
ELLIPSE
  5
3F55
330
3F23
100
AcDbEntity
  8
0
100
AcDbEllipse
 10
17.9274669477896
 20
-53.62474665736396
 30
0.0
 11
-1.3
 21
2.251666049839541
 31
0.0
210
0.0
220
0.0
230
1.0
 40
0.5773502691896254
 41
0.0
 42
6.283185307179586
  0
ELLIPSE
  5
3F56
330
3F23
100
AcDbEntity
  8
0
100
AcDbEllipse
 10
27.82696188440127
 20
-51.17525691458078
 30
0.0
 11
-1.3
 21
2.251666049839541
 31
0.0
210
0.0
220
0.0
230
1.0
 40
0.5773502691896254
 41
0.0
 42
6.283185307179586
  0
ELLIPSE
  5
3F57
330
3F23
100
AcDbEntity
  8
0
100
AcDbEllipse
 10
41.96909750813221
 20
-51.9917534955085
 30
0.0
 11
-1.3
 21
2.251666049839541
 31
0.0
210
0.0
220
0.0
230
1.0
 40
0.5773502691896254
 41
0.0
 42
6.283185307179586
  0
ELLIPSE
  5
3F58
330
3F23
100
AcDbEntity
  8
0
100
AcDbEllipse
 10
13.68482626067031
 20
-35.66182187695397
 30
0.0
 11
-1.3
 21
2.251666049839541
 31
0.0
210
0.0
220
0.0
230
1.0
 40
0.5773502691896254
 41
0.0
 42
6.283185307179586
  0
ELLIPSE
  5
3F59
330
3F23
100
AcDbEntity
  8
0
100
AcDbEllipse
 10
27.82696188440127
 20
-36.47831845788171
 30
0.0
 11
-1.3
 21
2.251666049839541
 31
0.0
210
0.0
220
0.0
230
1.0
 40
0.5773502691896254
 41
0.0
 42
6.283185307179586
  0
ELLIPSE
  5
3F5A
330
3F23
100
AcDbEntity
  8
0
100
AcDbEllipse
 10
-16.01365854916468
 20
-123.0269560362206
 30
0.0
 11
5.500000000000002
 21
-0.0000000000000022
 31
0.0
210
0.0
220
0.0
230
1.0
 40
0.5773502691896258
 41
0.0
 42
6.283185307179586
  0
ELLIPSE
  5
3F5B
330
3F23
100
AcDbEntity
  8
0
100
AcDbEllipse
 10
-38.99462893772748
 20
-117.9238524054223
 30
0.0
 11
2.6
 21
-0.000000000000001
 31
0.0
210
0.0
220
0.0
230
1.0
 40
0.5773502691896258
 41
0.0
 42
6.283185307179586
  0
ELLIPSE
  5
3F5C
330
3F23
100
AcDbEntity
  8
0
100
AcDbEllipse
 10
-7.174823784332855
 20
-136.2950254762962
 30
0.0
 11
2.6
 21
-0.000000000000001
 31
0.0
210
0.0
220
0.0
230
1.0
 40
0.5773502691896258
 41
0.0
 42
6.283185307179586
  0
LINE
  5
3F5D
330
3F23
100
AcDbEntity
  8
0
100
AcDbLine
 10
50.8079322729641
 20
-55.0536156739875
 30
0.0
 11
50.8079322729641
 21
113.552928287588
 31
0.0
  0
LINE
  5
3F5E
330
3F23
100
AcDbEntity
  8
0
100
AcDbLine
 10
4.845991495838499
 20
-28.51747679383638
 30
0.0
 11
4.845991495838499
 21
140.0890671677391
 31
0.0
  0
LINE
  5
3F5F
330
3F23
100
AcDbEntity
  8
0
100
AcDbLine
 10
24.60832068088288
 20
-105.791913960028
 30
0.0
 11
5.809658739709937
 21
-123.8156333628967
 31
0.0
  0
ELLIPSE
  5
3F60
330
3F23
100
AcDbEntity
  8
0
100
AcDbEllipse
 10
24.49336830213648
 20
-95.79091087537177
 30
0.0
 11
-7.499999999999977
 21
-12.99038105676659
 31
0.0
210
0.0
220
0.0
230
1.0
 40
0.4150676916945048
 41
0.9599310885968748
 42
2.181661564992905
  0
LINE
  5
3F61
330
3F23
100
AcDbEntity
  8
0
100
AcDbLine
 10
39.42163512912886
 20
-65.59798251361764
 30
0.0
 11
33.21196722614858
 21
-90.88996101326344
 31
0.0
  0
LINE
  5
3F62
330
3F23
100
AcDbEntity
  8
0
100
AcDbLine
 10
5.775524439373858
 20
-75.04952338471328
 30
0.0
 11
7.063165305635838
 21
-46.91581125045954
 31
0.0
  0
ELLIPSE
  5
3F63
330
3F23
100
AcDbEntity
  8
0
100
AcDbEllipse
 10
-6.396803846214615
 20
-77.95646167020736
 30
0.0
 11
7.499999999999976
 21
12.99038105676659
 31
0.0
210
0.0
220
0.0
230
1.0
 40
0.7396328466847475
 41
4.101523742186671
 42
5.323254218582702
  0
LINE
  5
3F64
330
3F23
100
AcDbEntity
  8
0
100
AcDbLine
 10
-26.54881108378316
 20
-105.1334620997386
 30
0.0
 11
-2.828122105891854
 21
-89.95147633147789
 31
0.0
  0
LINE
  5
3F65
330
3F23
100
AcDbEntity
  8
0
100
AcDbLine
 10
-48.18701709315262
 20
-120.7815904386694
 30
0.0
 11
-12.12457125263869
 21
-141.6022532523264
 31
0.0
  0
ELLIPSE
  5
3F66
330
3F23
100
AcDbEntity
  8
0
100
AcDbEllipse
 10
14.03837965126362
 20
-18.71951782270365
 30
0.0
 11
1.300000000000137
 21
-2.251666049839469
 31
0.0
210
0.0
220
0.0
230
1.0
 40
0.5773502691896255
 41
4.095863641558294
 42
5.328914319210786
  0
ELLIPSE
  5
3F67
330
3F23
100
AcDbEntity
  8
0
100
AcDbEllipse
 10
45.85818480465825
 20
-37.0906908935775
 30
0.0
 11
1.300000000000134
 21
-2.251666049839464
 31
0.0
210
0.0
220
0.0
230
1.0
 40
0.5773502691896254
 41
4.095863641558295
 42
5.328914319210786
  0
ELLIPSE
  5
3F68
330
3F23
100
AcDbEntity
  8
0
100
AcDbEllipse
 10
29.94828222796094
 20
-66.2804436617437
 30
0.0
 11
1.300000000000135
 21
-2.251666049839464
 31
0.0
210
0.0
220
0.0
230
1.0
 40
0.5773502691896254
 41
4.095863641558297
 42
5.328914319210779
  0
ELLIPSE
  5
3F69
330
3F23
100
AcDbEntity
  8
0
100
AcDbEllipse
 10
39.8477771645726
 20
-63.83095391896053
 30
0.0
 11
1.300000000000135
 21
-2.251666049839464
 31
0.0
210
0.0
220
0.0
230
1.0
 40
0.5773502691896254
 41
4.095863641558297
 42
5.257964389049488
  0
ELLIPSE
  5
3F6A
330
3F23
100
AcDbEntity
  8
0
100
AcDbEllipse
 10
20.04878729134927
 20
-52.40000178597235
 30
0.0
 11
1.300000000000135
 21
-2.251666049839464
 31
0.0
210
0.0
220
0.0
230
1.0
 40
0.5773502691896254
 41
4.095863641558297
 42
5.328914319210783
  0
ELLIPSE
  5
3F6B
330
3F23
100
AcDbEntity
  8
0
100
AcDbEllipse
 10
29.94828222796094
 20
-49.95051204318919
 30
0.0
 11
1.300000000000135
 21
-2.251666049839464
 31
0.0
210
0.0
220
0.0
230
1.0
 40
0.5773502691896254
 41
4.095863641558297
 42
5.328914319210779
  0
ELLIPSE
  5
3F6C
330
3F23
100
AcDbEntity
  8
0
100
AcDbEllipse
 10
44.09041785169188
 20
-50.76700862411691
 30
0.0
 11
1.300000000000135
 21
-2.251666049839464
 31
0.0
210
0.0
220
0.0
230
1.0
 40
0.5773502691896254
 41
4.095863641558297
 42
5.328914319210782
  0
ELLIPSE
  5
3F6D
330
3F23
100
AcDbEntity
  8
0
100
AcDbEllipse
 10
15.80614660422999
 20
-34.43707700556237
 30
0.0
 11
1.300000000000135
 21
-2.251666049839464
 31
0.0
210
0.0
220
0.0
230
1.0
 40
0.5773502691896254
 41
4.095863641558297
 42
5.328914319210781
  0
ELLIPSE
  5
3F6E
330
3F23
100
AcDbEntity
  8
0
100
AcDbEllipse
 10
29.94828222796094
 20
-35.25357358649011
 30
0.0
 11
1.300000000000135
 21
-2.251666049839464
 31
0.0
210
0.0
220
0.0
230
1.0
 40
0.5773502691896254
 41
4.095863641558297
 42
5.328914319210779
  0
ELLIPSE
  5
3F6F
330
3F23
100
AcDbEntity
  8
0
100
AcDbEllipse
 10
-16.01365854916468
 20
-125.4764457790038
 30
0.0
 11
-5.500000000000001
 21
-0.0000000000003278
 31
0.0
210
0.0
220
0.0
230
1.0
 40
0.5773502691896259
 41
3.537553217051975
 42
5.887224743716537
  0
ELLIPSE
  5
3F70
330
3F23
100
AcDbEntity
  8
0
100
AcDbEllipse
 10
-38.99462893772748
 20
-120.3733421482055
 30
0.0
 11
-2.6
 21
-0.0000000000001545
 31
0.0
210
0.0
220
0.0
230
1.0
 40
0.577350269189626
 41
4.095863641558285
 42
5.328914319210797
  0
ELLIPSE
  5
3F71
330
3F23
100
AcDbEntity
  8
0
100
AcDbEllipse
 10
-7.174823784332855
 20
-138.7445152190794
 30
0.0
 11
-2.6
 21
-0.0000000000001545
 31
0.0
210
0.0
220
0.0
230
1.0
 40
0.577350269189626
 41
4.095863641558285
 42
5.328914319210796
  0
LINE
  5
3F72
330
3F23
100
AcDbEntity
  8
0
100
AcDbLine
 10
52.92925261652372
 20
-53.8288708025959
 30
0.0
 11
52.92925261652372
 21
114.7776731589796
 31
0.0
  0
LINE
  5
3F73
330
3F23
100
AcDbEntity
  8
0
100
AcDbLine
 10
-48.18701709315262
 20
-123.2310801814526
 30
0.0
 11
-12.12457125263869
 21
-144.0517429951096
 31
0.0
  0
SPLINE
  5
3F74
330
3F23
100
AcDbEntity
  8
0
100
AcDbSpline
210
0.0
220
0.0
230
1.0
 70
     8
 71
     3
 72
    17
 73
    13
 74
     0
 42
0.000000001
 43
0.0000000001
 40
-0.4749268618492771
 40
-0.4749268618492771
 40
-0.4749268618492771
 40
-0.4749268618492771
 40
-0.4725410755528273
 40
-0.4725410755528273
 40
-0.4725410755528273
 40
-0.2262668722274741
 40
-0.2262668722274741
 40
-0.2262668722274741
 40
-0.0545088760438989
 40
-0.0545088760438989
 40
-0.0545088760438989
 40
0.0
 40
0.0
 40
0.0
 40
0.0
 10
5.955052412877268
 20
-37.02350929480559
 30
0.0
 10
5.952717051558797
 20
-37.03890477996102
 30
0.0
 10
5.95038126696973
 20
-37.05430150117812
 30
0.0
 10
5.948045101784074
 20
-37.06969943763259
 30
0.0
 10
5.706893067006451
 20
-38.65916054687869
 30
0.0
 10
5.464435350148568
 20
-40.25667742865707
 30
0.0
 10
5.269469721638908
 20
-41.82646083751595
 30
0.0
 10
5.133495651982689
 20
-42.92126836955626
 30
0.0
 10
5.01855346032932
 20
-44.02040064537506
 30
0.0
 10
4.942452958356273
 20
-45.07666053583888
 30
0.0
 10
4.918301810106417
 20
-45.41187368875608
 30
0.0
 10
4.899117501271637
 20
-45.74027519676599
 30
0.0
 10
4.882235505806939
 20
-46.06291688001663
 30
0.0
  0
LINE
  5
3F75
330
3F23
100
AcDbEntity
  8
0
100
AcDbLine
 10
5.400911376361876
 20
-46.26575501362133
 30
0.0
 11
4.88223550572195
 21
-46.06291688000704
 31
0.0
  0
LINE
  5
3F76
330
3F23
100
AcDbEntity
  8
0
100
AcDbLine
 10
7.063165305635816
 20
-46.91581125045951
 30
0.0
 11
5.400911376361876
 21
-46.26575501362133
 31
0.0
  0
SPLINE
  5
3F77
330
3F23
100
AcDbEntity
  8
0
100
AcDbSpline
210
0.0
220
0.0
230
1.0
 70
     8
 71
     3
 72
    20
 73
    16
 74
     0
 42
0.000000001
 43
0.0000000001
 40
-1.0
 40
-1.0
 40
-1.0
 40
-1.0
 40
-0.9088428636536493
 40
-0.9088428636536493
 40
-0.9088428636536493
 40
-0.5823465850605178
 40
-0.5823465850605178
 40
-0.5823465850605178
 40
-0.2911732925302589
 40
-0.2911732925302589
 40
-0.2911732925302589
 40
-0.0929955350075598
 40
-0.0929955350075598
 40
-0.0929955350075598
 40
0.0
 40
0.0
 40
0.0
 40
0.0
 10
7.063165305635688
 20
-46.9158112504595
 30
0.0
 10
7.085917597536806
 20
-46.38687223868949
 30
0.0
 10
7.095953178046636
 20
-45.81884620332632
 30
0.0
 10
7.080363704347156
 20
-45.25980325775996
 30
0.0
 10
7.024527097888122
 20
-43.25748672372961
 30
0.0
 10
6.706990311048532
 20
-41.18953550879199
 30
0.0
 10
6.341286629775133
 20
-39.12469821406935
 30
0.0
 10
6.015147705847287
 20
-37.28325157879883
 30
0.0
 10
5.644604987261718
 20
-35.4571883439186
 30
0.0
 10
5.351122589264605
 20
-33.66881774735228
 30
0.0
 10
5.151373213207364
 20
-32.451620691375
 30
0.0
 10
4.987799082106043
 20
-31.25475235601796
 30
0.0
 10
4.908118267810612
 20
-30.10799508955245
 30
0.0
 10
4.870727795499951
 20
-29.56987564137699
 30
0.0
 10
4.848047254976921
 20
-29.04126941956794
 30
0.0
 10
4.845991495913821
 20
-28.51747679374028
 30
0.0
  0
LINE
  5
3F78
330
3F23
100
AcDbEntity
  8
0
100
AcDbLine
 10
10.19859960664645
 20
-45.48246845763599
 30
0.0
 11
7.063165305635825
 21
-46.91581125045954
 31
0.0
  0
ELLIPSE
  5
3F79
330
3F23
100
AcDbEntity
  8
0
100
AcDbEllipse
 10
11.98680967632891
 20
-46.51489202273475
 30
0.0
 11
-2.980787541290217
 21
-0.3389773350668652
 31
0.0
210
0.0
220
0.0
230
1.0
 40
0.4913799087545887
 41
3.86627906969354
 42
5.29879055029456
  0
SPLINE
  5
3F7A
330
3F23
100
AcDbEntity
  8
0
100
AcDbSpline
210
0.0
220
0.0
230
1.0
 70
     8
 71
     2
 72
     6
 73
     3
 74
     0
 42
0.000000001
 43
0.0000000001
 40
0.0
 40
0.0
 40
0.0
 40
1.0
 40
1.0
 40
1.0
 10
14.10813001988853
 20
-45.29014715134315
 30
0.0
 10
13.07921490668895
 20
-36.24241140857748
 30
0.0
 10
4.845991495838504
 20
-28.51747679383642
 30
0.0
  0
SPLINE
  5
3F7B
330
3F23
100
AcDbEntity
  8
0
100
AcDbSpline
210
0.0
220
0.0
230
1.0
 70
     8
 71
     3
 72
    20
 73
    16
 74
     0
 42
0.000000001
 43
0.0000000001
 40
-1.0
 40
-1.0
 40
-1.0
 40
-1.0
 40
-0.8565140843567446
 40
-0.8565140843567446
 40
-0.8565140843567446
 40
-0.540255854180646
 40
-0.540255854180646
 40
-0.540255854180646
 40
-0.270127927090323
 40
-0.270127927090323
 40
-0.270127927090323
 40
-0.0852549168066061
 40
-0.0852549168066061
 40
-0.0852549168066061
 40
0.0
 40
0.0
 40
0.0
 40
0.0
 10
39.42163512912882
 20
-65.59798251361769
 30
0.0
 10
39.6112829002427
 20
-64.83570250438527
 30
0.0
 10
39.97408604163226
 20
-64.16614170554918
 30
0.0
 10
40.4707902271907
 20
-63.59729677300726
 30
0.0
 10
41.56557911947707
 20
-62.34350199598094
 30
0.0
 10
43.2589022329431
 20
-61.51379956591199
 30
0.0
 10
44.96784337779569
 20
-60.7096254570994
 30
0.0
 10
46.42751362486357
 20
-60.02275041542131
 30
0.0
 10
47.86944682128211
 20
-59.37527177857707
 30
0.0
 10
48.97231424848489
 20
-58.50735698644616
 30
0.0
 10
49.72710633313544
 20
-57.91336427336634
 30
0.0
 10
50.30892930676326
 20
-57.21489382554882
 30
0.0
 10
50.60220940178094
 20
-56.36341222210761
 30
0.0
 10
50.73745667266918
 20
-55.97074812715764
 30
0.0
 10
50.80432204333428
 20
-55.53902414520571
 30
0.0
 10
50.80793227304147
 20
-55.05361567389268
 30
0.0
  0
SPLINE
  5
3F7C
330
3F23
100
AcDbEntity
  8
0
100
AcDbSpline
210
0.0
220
0.0
230
1.0
 70
     8
 71
     2
 72
     6
 73
     3
 74
     0
 42
0.000000001
 43
0.0000000001
 40
0.0
 40
0.0
 40
0.0
 40
1.0
 40
1.0
 40
1.0
 10
41.54579374891405
 20
-61.13128969123049
 30
0.0
 10
42.57470886211364
 20
-53.27164278362291
 30
0.0
 10
50.8079322729641
 20
-55.05361567398754
 30
0.0
  0
ELLIPSE
  5
3F7D
330
3F23
100
AcDbEntity
  8
0
100
AcDbEllipse
 10
39.42447340535438
 20
-62.35603456262206
 30
0.0
 11
-2.974619186296043
 21
0.3894107041665368
 31
0.0
210
0.0
220
0.0
230
1.0
 40
0.6520831633610856
 41
3.544678162423164
 42
4.007259574309323
  0
ELLIPSE
  5
3F7E
330
3F23
100
AcDbEntity
  8
0
100
AcDbEllipse
 10
39.42447340535438
 20
-62.35603456262206
 30
0.0
 11
5.949238372592033
 21
-0.7788214083334708
 31
0.0
210
0.0
220
0.0
230
1.0
 40
0.6520831633610856
 41
5.71634074729844
 42
6.21778592010574
  0
SPLINE
  5
3F7F
330
3F23
100
AcDbEntity
  8
0
100
AcDbSpline
210
0.0
220
0.0
230
1.0
 70
     8
 71
     3
 72
    20
 73
    16
 74
     0
 42
0.000000001
 43
0.0000000001
 40
-1.0
 40
-1.0
 40
-1.0
 40
-1.0
 40
-0.8557507846682515
 40
-0.8557507846682515
 40
-0.8557507846682515
 40
-0.4725410755528273
 40
-0.4725410755528273
 40
-0.4725410755528273
 40
-0.2262668722274741
 40
-0.2262668722274741
 40
-0.2262668722274741
 40
-0.0545088760438989
 40
-0.0545088760438989
 40
-0.0545088760438989
 40
0.0
 40
0.0
 40
0.0
 40
0.0
 10
52.92925261652381
 20
-53.82887080259603
 30
0.0
 10
52.92640404166906
 20
-54.63210363756165
 30
0.0
 10
52.72573308477397
 20
-55.39284132806348
 30
0.0
 10
52.35836621010633
 20
-56.09449371827214
 30
0.0
 10
51.38242639056366
 20
-57.95849005082494
 30
0.0
 10
49.34161647340546
 20
-59.4330979633579
 30
0.0
 10
47.27109969163582
 20
-60.92757612882111
 30
0.0
 10
45.94045785565743
 20
-61.88802000806461
 30
0.0
 10
44.59885474693174
 20
-62.85094500196958
 30
0.0
 10
43.53037638921374
 20
-63.91640560147947
 30
0.0
 10
42.78519195978851
 20
-64.65948536831401
 30
0.0
 10
42.16431326391184
 20
-65.46651506722664
 30
0.0
 10
41.78393907421715
 20
-66.34710246217704
 30
0.0
 10
41.66322405647669
 20
-66.62656443904984
 30
0.0
 10
41.57024025885809
 20
-66.91235779234438
 30
0.0
 10
41.49708693600759
 20
-67.20251120958116
 30
0.0
  0
LINE
  5
3F80
330
3F23
100
AcDbEntity
  8
0
100
AcDbLine
 10
44.17054323123756
 20
-65.09617925418848
 30
0.0
 11
41.49708693608318
 21
-67.2025112096643
 31
0.0
  0
LINE
  5
3F81
330
3F23
100
AcDbEntity
  8
0
100
AcDbLine
 10
41.49708693608322
 20
-67.20251120966429
 30
0.0
 11
41.00349618731828
 21
-66.82091693807352
 31
0.0
  0
LINE
  5
3F82
330
3F23
100
AcDbEntity
  8
0
100
AcDbLine
 10
50.8079322729641
 20
-55.0536156739875
 30
0.0
 11
52.92925261652377
 21
-53.82887080259592
 31
0.0
  0
LINE
  5
3F83
330
3F23
100
AcDbEntity
  8
0
100
AcDbLine
 10
40.84918860201458
 20
-66.70162197405275
 30
0.0
 11
39.4216351291289
 21
-65.59798251361766
 31
0.0
  0
LINE
  5
3F84
330
3F23
100
AcDbEntity
  8
0
100
AcDbLine
 10
41.00349618731828
 20
-66.82091693807352
 30
0.0
 11
40.84918860201458
 21
-66.70162197405275
 31
0.0
  0
SPLINE
  5
3F85
330
3F23
100
AcDbEntity
  8
0
100
AcDbSpline
210
0.0
220
0.0
230
1.0
 70
     8
 71
     3
 72
    16
 73
    12
 74
     0
 42
0.000000001
 43
0.0000000001
 40
0.0013082202681388
 40
0.0013082202681388
 40
0.0013082202681388
 40
0.0013082202681388
 40
0.1518810458984192
 40
0.1518810458984192
 40
0.2381113559715106
 40
0.2381113559715106
 40
0.285929852725325
 40
0.285929852725325
 40
0.3647175814106134
 40
0.3647175814106134
 40
0.3700931282088076
 40
0.3700931282088076
 40
0.3700931282088076
 40
0.3700931282088076
 10
41.2842391872041
 20
-62.82017631954097
 30
0.0
 10
41.62970568444454
 20
-62.53848331312649
 30
0.0
 10
41.96013729714491
 20
-62.25454351505895
 30
0.0
 10
42.36891286937308
 20
-61.84358838251124
 30
0.0
 10
42.4958876358733
 20
-61.69996000716808
 30
0.0
 10
42.63954432674075
 20
-61.51667719452024
 30
0.0
 10
42.6808049379361
 20
-61.45876963086762
 30
0.0
 10
42.76199455156407
 20
-61.33632303805285
 30
0.0
 10
42.78403282988342
 20
-61.29176763799129
 30
0.0
 10
42.78667755858437
 20
-61.28630546697728
 30
0.0
 10
42.78676027678826
 20
-61.28613075702965
 30
0.0
 10
42.78676027679106
 20
-61.2861307570237
 30
0.0
  0
SPLINE
  5
3F86
330
3F23
100
AcDbEntity
  8
0
100
AcDbSpline
210
0.0
220
0.0
230
1.0
 70
     8
 71
     3
 72
    10
 73
     6
 74
     0
 42
0.000000001
 43
0.0000000001
 40
0.6267342453323148
 40
0.6267342453323148
 40
0.6267342453323148
 40
0.6267342453323148
 40
0.7263094662976362
 40
0.7263094662976362
 40
0.8486343855225209
 40
0.8486343855225209
 40
0.8486343855225209
 40
0.8486343855225209
 10
45.65917314506927
 20
-62.10907680959993
 30
0.0
 10
45.61218380617781
 20
-62.26098062220572
 30
0.0
 10
45.56207946031515
 20
-62.44010652782415
 30
0.0
 10
45.45064433812451
 20
-62.86886919949563
 30
0.0
 10
45.38954982825099
 20
-63.12332481433472
 30
0.0
 10
45.32777295749774
 20
-63.38671339494711
 30
0.0
  0
ELLIPSE
  5
3F87
330
3F23
100
AcDbEntity
  8
0
100
AcDbEllipse
 10
3.003468594513614
 20
-125.4390653577088
 30
0.0
 11
3.64909831092398
 21
-4.76278085966715
 31
0.0
210
0.0
220
0.0
230
1.0
 40
0.6520831633610854
 41
0.0653993870738479
 42
0.5668445598811438
  0
LINE
  5
3F88
330
3F23
100
AcDbEntity
  8
0
100
AcDbLine
 10
8.236947255064613
 20
-124.8107630040262
 30
0.0
 11
7.749538420396784
 21
-128.1792100492752
 31
0.0
  0
SPLINE
  5
3F89
330
3F23
100
AcDbEntity
  8
0
100
AcDbSpline
210
0.0
220
0.0
230
1.0
 70
     8
 71
     3
 72
    20
 73
    16
 74
     0
 42
0.000000001
 43
0.0000000001
 40
-1.0
 40
-1.0
 40
-1.0
 40
-1.0
 40
-0.8557507846682515
 40
-0.8557507846682515
 40
-0.8557507846682515
 40
-0.4725410755528273
 40
-0.4725410755528273
 40
-0.4725410755528273
 40
-0.2262668722274741
 40
-0.2262668722274741
 40
-0.2262668722274741
 40
-0.0545088760438989
 40
-0.0545088760438989
 40
-0.0545088760438989
 40
0.0
 40
0.0
 40
0.0
 40
0.0
 10
2.371117761685712
 20
-141.3981291070945
 30
0.0
 10
3.065313514492351
 20
-140.9940457514229
 30
0.0
 10
3.6237962016357
 20
-140.4398907596991
 30
0.0
 10
4.047761558848637
 20
-139.7709155186237
 30
0.0
 10
5.174059825629075
 20
-137.9937286760585
 30
0.0
 10
5.430702779925056
 20
-135.4890314872378
 30
0.0
 10
5.689700445732546
 20
-132.9486722725317
 30
0.0
 10
5.85614832607749
 20
-131.3160806996143
 30
0.0
 10
6.019264278375322
 20
-129.6727558287092
 30
0.0
 10
6.407741045423276
 20
-128.2146961277766
 30
0.0
 10
6.678674785827589
 20
-127.1978075979725
 30
0.0
 10
7.067143658756109
 20
-126.2565960252184
 30
0.0
 10
7.639567618188185
 20
-125.4868886165237
 30
0.0
 10
7.821231280681613
 20
-125.2426153561057
 30
0.0
 10
8.022243686058114
 20
-125.0191923485804
 30
0.0
 10
8.236947254954781
 20
-124.8107630040023
 30
0.0
  0
SPLINE
  5
3F8A
330
3F23
100
AcDbEntity
  8
0
100
AcDbSpline
210
0.0
220
0.0
230
1.0
 70
     8
 71
     3
 72
    20
 73
    16
 74
     0
 42
0.000000001
 43
0.0000000001
 40
-1.0
 40
-1.0
 40
-1.0
 40
-1.0
 40
-0.8565140843567446
 40
-0.8565140843567446
 40
-0.8565140843567446
 40
-0.540255854180646
 40
-0.540255854180646
 40
-0.540255854180646
 40
-0.270127927090323
 40
-0.270127927090323
 40
-0.270127927090323
 40
-0.0852549168066061
 40
-0.0852549168066061
 40
-0.0852549168066061
 40
0.0
 40
0.0
 40
0.0
 40
0.0
 10
5.80965873970991
 20
-123.8156333628966
 30
0.0
 10
5.244328772474546
 20
-124.3610131550686
 30
0.0
 10
4.845873681999059
 20
-125.0099902915028
 30
0.0
 10
4.601591612382933
 20
-125.7245712006334
 30
0.0
 10
4.063167930489099
 20
-127.2995835816476
 30
0.0
 10
4.191286105200711
 20
-129.180895629759
 30
0.0
 10
4.349321470329603
 20
-131.0629691291801
 30
0.0
 10
4.4843053585448
 20
-132.6705181651282
 30
0.0
 10
4.64453900883925
 20
-134.243008262209
 30
0.0
 10
4.444336464134979
 20
-135.6320768672384
 30
0.0
 10
4.307319727270293
 20
-136.5827423436611
 30
0.0
 10
3.993338062481526
 20
-137.4358510432369
 30
0.0
 10
3.402573410555178
 20
-138.1155798576672
 30
0.0
 10
3.130139964618585
 20
-138.4290394775239
 30
0.0
 10
2.789688714157798
 20
-138.7028085781293
 30
0.0
 10
2.371117761642134
 20
-138.9486393644257
 30
0.0
  0
ELLIPSE
  5
3F8B
330
3F23
100
AcDbEntity
  8
0
100
AcDbEllipse
 10
3.003468594513623
 20
-125.4390653577088
 30
0.0
 11
1.824549155461988
 21
-2.381390429833577
 31
0.0
210
0.0
220
0.0
230
1.0
 40
0.6520831633610854
 41
5.417518386459803
 42
5.880099798345896
  0
SPLINE
  5
3F8C
330
3F23
100
AcDbEntity
  8
0
100
AcDbSpline
210
0.0
220
0.0
230
1.0
 70
     8
 71
     2
 72
     6
 73
     3
 74
     0
 42
0.000000001
 43
0.0000000001
 40
0.0
 40
0.0
 40
0.0
 40
1.0
 40
1.0
 40
1.0
 10
3.003468594513614
 20
-127.888555100492
 30
0.0
 10
-3.288727735650578
 20
-132.7094451806644
 30
0.0
 10
2.371117761685597
 20
-138.9486393643113
 30
0.0
  0
LINE
  5
3F8D
330
3F23
100
AcDbEntity
  8
0
100
AcDbLine
 10
7.659681547556842
 20
-124.5740980123226
 30
0.0
 11
8.236947255064603
 21
-124.8107630040262
 31
0.0
  0
LINE
  5
3F8E
330
3F23
100
AcDbEntity
  8
0
100
AcDbLine
 10
7.479215285491949
 20
-124.5001112054521
 30
0.0
 11
7.659681547556842
 21
-124.5740980123226
 31
0.0
  0
LINE
  5
3F8F
330
3F23
100
AcDbEntity
  8
0
100
AcDbLine
 10
5.809658739709933
 20
-123.8156333628967
 30
0.0
 11
7.479215285491949
 21
-124.5001112054521
 31
0.0
  0
SPLINE
  5
3F90
330
3F23
100
AcDbEntity
  8
0
100
AcDbSpline
210
0.0
220
0.0
230
1.0
 70
     8
 71
     3
 72
    10
 73
     6
 74
     0
 42
0.000000001
 43
0.0000000001
 40
0.0
 40
0.0
 40
0.0
 40
0.0
 40
0.220526822502636
 40
0.220526822502636
 40
0.2217027582986335
 40
0.2217027582986335
 40
0.2217027582986335
 40
0.2217027582986335
 10
6.847712422521632
 20
-130.0361333198517
 30
0.0
 10
6.492178120689366
 20
-130.370001377979
 30
0.0
 10
6.150857271429979
 20
-130.6990275127396
 30
0.0
 10
5.909498865566247
 20
-130.959198655026
 30
0.0
 10
5.90822143146537
 20
-130.9605766348229
 30
0.0
 10
5.906946776592367
 20
-130.9619525937812
 30
0.0
  0
SPLINE
  5
3F91
330
3F23
100
AcDbEntity
  8
0
100
AcDbSpline
210
0.0
220
0.0
230
1.0
 70
     8
 71
     3
 72
    16
 73
    12
 74
     0
 42
0.000000001
 43
0.0000000001
 40
0.3455872530624594
 40
0.3455872530624594
 40
0.3455872530624594
 40
0.3455872530624594
 40
0.429122773439853
 40
0.429122773439853
 40
0.5038382663639549
 40
0.5038382663639549
 40
0.5839347257737668
 40
0.5839347257737668
 40
0.6898113756796067
 40
0.6898113756796067
 40
0.7145300271465383
 40
0.7145300271465383
 40
0.7145300271465383
 40
0.7145300271465383
 10
3.758048154978648
 20
-128.8858431059822
 30
0.0
 10
3.758048139885787
 20
-128.8858431278097
 30
0.0
 10
3.786016116260708
 20
-128.8453578094853
 30
0.0
 10
3.867462695288463
 20
-128.6820525976444
 30
0.0
 10
3.917688956895331
 20
-128.5673630069716
 30
0.0
 10
4.02159540803137
 20
-128.2755649139352
 30
0.0
 10
4.076039268645192
 20
-128.0927069596908
 30
0.0
 10
4.190467006563731
 20
-127.6308294848313
 30
0.0
 10
4.247809961668145
 20
-127.336722999355
 30
0.0
 10
4.311764553477099
 20
-126.961516264466
 30
0.0
 10
4.323621878702912
 20
-126.8898133584408
 30
0.0
 10
4.33531026537071
 20
-126.8175974691546
 30
0.0
  0
LINE
  5
3F92
330
3F23
100
AcDbEntity
  8
0
100
AcDbLine
 10
2.371117761685597
 20
-138.9486393643113
 30
0.0
 11
2.371117761685597
 21
-141.3981291070945
 31
0.0
  0
LINE
  5
3F93
330
3F23
100
AcDbEntity
  8
0
100
AcDbLine
 10
-2.225076316027014
 20
-144.0517429951096
 30
0.0
 11
2.371117761685606
 21
-141.3981291070945
 31
0.0
  0
LINE
  5
3F94
330
3F23
100
AcDbEntity
  8
0
100
AcDbLine
 10
-43.59082301543999
 20
-112.4125004841602
 30
0.0
 11
-48.18701709315259
 21
-115.0661143721753
 31
0.0
  0
LINE
  5
3F95
330
3F23
100
AcDbEntity
  8
0
100
AcDbLine
 10
-2.225076316027014
 20
-141.6022532523264
 30
0.0
 11
2.371117761685606
 21
-138.9486393643113
 31
0.0
  0
LINE
  5
3F96
330
3F23
100
AcDbEntity
  8
0
100
AcDbLine
 10
-2.225076316027014
 20
-144.0517429951096
 30
0.0
 11
-2.225076316027014
 21
-141.6022532523264
 31
0.0
  0
SPLINE
  5
3F97
330
3F23
100
AcDbEntity
  8
0
100
AcDbSpline
210
0.0
220
0.0
230
1.0
 70
     8
 71
     3
 72
    17
 73
    13
 74
     0
 42
0.000000001
 43
0.0000000001
 40
-0.4749268618492759
 40
-0.4749268618492759
 40
-0.4749268618492759
 40
-0.4749268618492759
 40
-0.4725410755528273
 40
-0.4725410755528273
 40
-0.4725410755528273
 40
-0.2262668722274741
 40
-0.2262668722274741
 40
-0.2262668722274741
 40
-0.0545088760438989
 40
-0.0545088760438989
 40
-0.0545088760438989
 40
0.0
 40
0.0
 40
0.0
 40
0.0
 10
-35.66985232566521
 20
-109.1199591621756
 30
0.0
 10
-35.65768712507626
 20
-109.1102389373691
 30
0.0
 10
-35.64552106566181
 20
-109.1005177279686
 30
0.0
 10
-35.6333541441192
 20
-109.0907955813432
 30
0.0
 10
-34.3774164625735
 20
-108.0872212384284
 30
0.0
 10
-33.11515511840787
 20
-107.0784882553967
 30
0.0
 10
-31.85316562215156
 20
-106.1247513638131
 30
0.0
 10
-30.97302152197822
 20
-105.4595905992147
 30
0.0
 10
-30.07861614482641
 20
-104.8104816033668
 30
0.0
 10
-29.20191849767269
 20
-104.2164466901855
 30
0.0
 10
-28.92369096568866
 20
-104.027924605812
 30
0.0
 10
-28.64887907152834
 20
-103.8471097530021
 30
0.0
 10
-28.37790417524586
 20
-103.6711686744377
 30
0.0
  0
SPLINE
  5
3F98
330
3F23
100
AcDbEntity
  8
0
100
AcDbSpline
210
0.0
220
0.0
230
1.0
 70
     8
 71
     3
 72
    20
 73
    16
 74
     0
 42
0.000000001
 43
0.0000000001
 40
-1.0
 40
-1.0
 40
-1.0
 40
-1.0
 40
-0.8565140843567446
 40
-0.8565140843567446
 40
-0.8565140843567446
 40
-0.540255854180646
 40
-0.540255854180646
 40
-0.540255854180646
 40
-0.270127927090323
 40
-0.270127927090323
 40
-0.270127927090323
 40
-0.0852549168066061
 40
-0.0852549168066061
 40
-0.0852549168066061
 40
0.0
 40
0.0
 40
0.0
 40
0.0
 10
-26.54881108378318
 20
-105.1334620997385
 30
0.0
 10
-27.26227373490365
 20
-105.5933174469936
 30
0.0
 10
-28.0361323610151
 20
-106.0255552510736
 30
0.0
 10
-28.83749433550614
 20
-106.4185059271646
 30
0.0
 10
-30.6037814212231
 20
-107.2846110414534
 30
0.0
 10
-32.50344733807561
 20
-107.9951813984418
 30
0.0
 10
-34.42109918351945
 20
-108.6788563280853
 30
0.0
 10
-36.05903700920777
 20
-109.2628085352591
 30
0.0
 10
-37.67442713228977
 20
-109.8101417688014
 30
0.0
 10
-39.23901977045792
 20
-110.4114793860898
 30
0.0
 10
-40.30981224275631
 20
-110.8230291902971
 30
0.0
 10
-41.34584474334378
 20
-111.259261645456
 30
0.0
 10
-42.30144947451896
 20
-111.7283499419208
 30
0.0
 10
-42.74213035990785
 20
-111.9446718573192
 30
0.0
 10
-43.16496704901502
 20
-112.1708757027449
 30
0.0
 10
-43.59082301548557
 20
-112.4125004842734
 30
0.0
  0
SPLINE
  5
3F99
330
3F23
100
AcDbEntity
  8
0
100
AcDbSpline
210
0.0
220
0.0
230
1.0
 70
     8
 71
     2
 72
     6
 73
     3
 74
     0
 42
0.000000001
 43
0.0000000001
 40
0.0
 40
0.0
 40
0.0
 40
1.0
 40
1.0
 40
1.0
 10
-24.43419513451191
 20
-112.0474125606046
 30
0.0
 10
-32.78422169107525
 20
-115.6802138056189
 30
0.0
 10
-43.59082301543999
 20
-112.4125004841602
 30
0.0
  0
ELLIPSE
  5
3F9A
330
3F23
100
AcDbEntity
  8
0
100
AcDbEllipse
 10
-24.4341951345119
 20
-109.5979228178215
 30
0.0
 11
1.196830787170336
 21
-2.750926401574793
 31
0.0
210
0.0
220
0.0
230
1.0
 40
0.4913799087545872
 41
4.125987410474332
 42
5.558498891075148
  0
LINE
  5
3F9B
330
3F23
100
AcDbEntity
  8
0
100
AcDbLine
 10
-26.54881108378314
 20
-105.1334620997386
 30
0.0
 11
-26.22240520419437
 21
-108.5654992527227
 31
0.0
  0
LINE
  5
3F9C
330
3F23
100
AcDbEntity
  8
0
100
AcDbLine
 10
-28.37790417529666
 20
-103.6711686743689
 30
0.0
 11
-27.94290326341875
 21
-104.0189360878594
 31
0.0
  0
LINE
  5
3F9D
330
3F23
100
AcDbEntity
  8
0
100
AcDbLine
 10
-27.80691218073282
 20
-104.1276560141678
 30
0.0
 11
-26.54881108378316
 21
-105.1334620997386
 31
0.0
  0
LINE
  5
3F9E
330
3F23
100
AcDbEntity
  8
0
100
AcDbLine
 10
-27.94290326341875
 20
-104.0189360878594
 30
0.0
 11
-27.80691218073282
 21
-104.1276560141678
 31
0.0
  0
LINE
  5
3F9F
330
3F23
100
AcDbEntity
  8
0
100
AcDbLine
 10
44.17054323123756
 20
-65.09617925418848
 30
0.0
 11
39.4494143234289
 21
-101.1598017480665
 31
0.0
  0
ELLIPSE
  5
3FA0
330
3F23
100
AcDbEntity
  8
0
100
AcDbEllipse
 10
34.70334449754572
 20
-98.41965705650006
 30
0.0
 11
5.949238372592029
 21
-0.7788214083334771
 31
0.0
210
0.0
220
0.0
230
1.0
 40
0.6520831633610849
 41
5.71634074729844
 42
6.283185307179587
  0
ELLIPSE
  5
3FA1
330
3F23
100
AcDbEntity
  8
0
100
AcDbEllipse
 10
31.87491737279953
 20
-103.3186365420664
 30
0.0
 11
3.649098310923978
 21
-4.762780859667151
 31
0.0
210
0.0
220
0.0
230
1.0
 40
0.6520831633610853
 41
0.0
 42
0.5668445598811438
  0
ELLIPSE
  5
3FA2
330
3F23
100
AcDbEntity
  8
0
100
AcDbEllipse
 10
37.01849670768942
 20
-103.0222971319524
 30
0.0
 11
-1.999999999999999
 21
-3.464101615137755
 31
0.0
210
0.0
220
0.0
230
1.0
 40
0.4150676916945048
 41
0.7853981633974474
 42
2.356194490192342
  0
LINE
  5
3FA3
330
3F23
100
AcDbEntity
  8
0
100
AcDbLine
 10
36.62098719868271
 20
-106.0587812336328
 30
0.0
 11
7.749538420396784
 21
-128.1792100492752
 31
0.0
  0
LINE
  5
3FA4
330
3F23
100
AcDbEntity
  8
0
100
AcDbLine
 10
45.35698475288073
 20
-63.26262988460917
 30
0.0
 11
40.65258287013775
 21
-99.19847846483353
 31
0.0
  0
SPLINE
  5
3FA5
330
3F23
100
AcDbEntity
  8
0
100
AcDbSpline
210
0.0
220
0.0
230
1.0
 70
     8
 71
     3
 72
    16
 73
    12
 74
     0
 42
0.000000001
 43
0.0000000001
 40
-0.7853981633974484
 40
-0.7853981633974484
 40
-0.7853981633974484
 40
-0.7853981633974484
 40
-0.4712388980384692
 40
-0.4712388980384692
 40
-0.1570796326794899
 40
-0.1570796326794899
 40
0.1570796326794894
 40
0.1570796326794894
 40
0.4712388980384687
 40
0.4712388980384687
 40
0.785398163397448
 40
0.785398163397448
 40
0.785398163397448
 40
0.785398163397448
 10
40.65258287013775
 20
-99.19847846483353
 30
0.0
 10
40.55320156426351
 20
-99.95762950010155
 30
0.0
 10
40.38169610436817
 20
-100.6474422452544
 30
0.0
 10
39.95024200283634
 20
-101.9707136753109
 30
0.0
 10
39.68817782497888
 20
-102.6021889040548
 30
0.0
 10
39.08619553656489
 20
-103.8234914894033
 30
0.0
 10
38.7462007890484
 20
-104.4123796664084
 30
0.0
 10
37.98951286863598
 20
-105.5443629134774
 30
0.0
 10
37.57367136761193
 20
-106.0870547632958
 30
0.0
 10
36.64341174384677
 20
-107.1223406908176
 30
0.0
 10
36.13176911263776
 20
-107.6157751485512
 30
0.0
 10
35.52401568372351
 20
-108.0814174017335
 30
0.0
  0
LINE
  5
3FA6
330
3F23
100
AcDbEntity
  8
0
100
AcDbLine
 10
35.52401568372351
 20
-108.0814174017335
 30
0.0
 11
6.754858848069589
 21
-130.1234732319126
 31
0.0
  0
LINE
  5
3FA7
330
3F23
100
AcDbEntity
  8
0
100
AcDbLine
 10
47.97950514821789
 20
123.3508872587206
 30
0.0
 11
11.91705930770397
 21
144.1715500723777
 31
0.0
  0
LINE
  5
3FA8
330
3F23
100
AcDbEntity
  8
0
100
AcDbLine
 10
45.85818480465825
 20
122.126142387329
 30
0.0
 11
9.795738964144327
 21
142.9468052009861
 31
0.0
  0
LINE
  5
3FA9
330
3F23
100
AcDbEntity
  8
0
100
AcDbLine
 10
47.97950514821789
 20
123.3508872587206
 30
0.0
 11
45.85818480465825
 21
122.126142387329
 31
0.0
  0
LINE
  5
3FAA
330
3F23
100
AcDbEntity
  8
0
100
AcDbLine
 10
9.795738964144327
 20
142.9468052009861
 30
0.0
 11
11.91705930770397
 21
144.1715500723777
 31
0.0
  0
LINE
  5
3FAB
330
3F23
100
AcDbEntity
  8
0
100
AcDbLine
 10
52.92925261652372
 20
114.7776731589795
 30
0.0
 11
47.97950514821789
 21
123.3508872587206
 31
0.0
  0
LINE
  5
3FAC
330
3F23
100
AcDbEntity
  8
0
100
AcDbLine
 10
-12.12457125263869
 20
-144.0517429951096
 30
0.0
 11
-2.225076316027014
 21
-144.0517429951096
 31
0.0
  0
LINE
  5
3FAD
330
3F23
100
AcDbEntity
  8
0
100
AcDbLine
 10
45.85818480465825
 20
122.126142387329
 30
0.0
 11
50.8079322729641
 21
113.552928287588
 31
0.0
  0
LINE
  5
3FAE
330
3F23
100
AcDbEntity
  8
0
100
AcDbLine
 10
4.845991495838499
 20
140.0890671677391
 30
0.0
 11
9.795738964144327
 21
142.9468052009861
 31
0.0
  0
LINE
  5
3FAF
330
3F23
100
AcDbEntity
  8
0
100
AcDbLine
 10
-48.18701709315262
 20
-120.7815904386694
 30
0.0
 11
-48.18701709315259
 21
-115.0661143721753
 31
0.0
  0
LINE
  5
3FB0
330
3F23
100
AcDbEntity
  8
0
100
AcDbLine
 10
-2.225076316027014
 20
-141.6022532523264
 30
0.0
 11
-12.12457125263869
 21
-141.6022532523264
 31
0.0
  0
LINE
  5
3FB1
330
3F23
100
AcDbEntity
  8
0
100
AcDbLine
 10
-12.12457125263869
 20
-141.6022532523264
 30
0.0
 11
-12.12457125263869
 21
-144.0517429951096
 31
0.0
  0
LINE
  5
3FB2
330
3F23
100
AcDbEntity
  8
0
100
AcDbLine
 10
-48.18701709315262
 20
-123.2310801814526
 30
0.0
 11
-48.18701709315262
 21
-120.7815904386694
 31
0.0
  0
LINE
  5
3FB3
330
3F23
100
AcDbEntity
  8
0
100
AcDbLine
 10
50.8079322729641
 20
113.552928287588
 30
0.0
 11
52.92925261652372
 21
114.7776731589795
 31
0.0
  0
LINE
  5
3FB4
330
3F23
100
AcDbEntity
  8
0
100
AcDbLine
 10
-28.37790417529668
 20
-103.6711686743689
 30
0.0
 11
-4.990936368830216
 21
-88.70277493456327
 31
0.0
  0
ELLIPSE
  5
3FB5
330
3F23
100
AcDbEntity
  8
0
100
AcDbEllipse
 10
-8.559618109152973
 20
-76.70776027329273
 30
0.0
 11
7.499999999999976
 21
12.99038105676659
 31
0.0
210
0.0
220
0.0
230
1.0
 40
0.7396328466847475
 41
4.101523742186671
 42
5.323254218582702
  0
LINE
  5
3FB6
330
3F23
100
AcDbEntity
  8
0
100
AcDbLine
 10
3.612710176435496
 20
-73.80082198779866
 30
0.0
 11
4.882235505721976
 21
-46.06291688000705
 31
0.0
  0
LINE
  5
3FB7
330
3F23
100
AcDbEntity
  8
0
100
AcDbLine
 10
24.60832068088288
 20
-105.791913960028
 30
0.0
 11
26.77113494382123
 21
-107.0406153569427
 31
0.0
  0
LINE
  5
3FB8
330
3F23
100
AcDbEntity
  8
0
100
AcDbLine
 10
3.612710176435496
 20
-73.80082198779866
 30
0.0
 11
5.775524439373858
 21
-75.04952338471328
 31
0.0
  0
LINE
  5
3FB9
330
3F23
100
AcDbEntity
  8
0
100
AcDbLine
 10
-4.990936368830216
 20
-88.70277493456327
 30
0.0
 11
-2.828122105891854
 21
-89.95147633147789
 31
0.0
  0
LINE
  5
3FBA
330
3F23
100
AcDbEntity
  8
0
100
AcDbLine
 10
33.21196722614858
 20
-90.88996101326344
 30
0.0
 11
35.37478148908693
 21
-92.13866241017809
 31
0.0
  0
LINE
  5
3FBB
330
3F23
100
AcDbEntity
  8
0
100
AcDbLine
 10
18.53112679594218
 20
-84.18364332751965
 30
0.0
 11
14.10813001988856
 21
-45.29014715134318
 31
0.0
  0
LINE
  5
3FBC
330
3F23
100
AcDbEntity
  8
0
100
AcDbLine
 10
41.54579374891402
 20
-61.13128969123047
 30
0.0
 11
41.32954522965587
 21
-62.78316260461084
 31
0.0
  0
LINE
  5
3FBD
330
3F23
100
AcDbEntity
  8
0
100
AcDbLine
 10
40.81959445276808
 20
-66.67855980033727
 30
0.0
 11
40.81957270004376
 21
-66.67872596441657
 31
0.0
  0
LINE
  5
3FBE
330
3F23
100
AcDbEntity
  8
0
100
AcDbLine
 10
7.444578808532917
 20
-124.4859110868143
 30
0.0
 11
7.444445782581183
 21
-124.4860130072658
 31
0.0
  0
LINE
  5
3FBF
330
3F23
100
AcDbEntity
  8
0
100
AcDbLine
 10
4.325908177022785
 20
-126.8753419821436
 30
0.0
 11
3.003468594513605
 21
-127.888555100492
 31
0.0
  0
LINE
  5
3FC0
330
3F23
100
AcDbEntity
  8
0
100
AcDbLine
 10
10.19859960664645
 20
-45.48246845763599
 30
0.0
 11
14.62159638270007
 21
-84.37596463381247
 31
0.0
  0
ELLIPSE
  5
3FC1
330
3F23
100
AcDbEntity
  8
0
100
AcDbEllipse
 10
16.40980645238254
 20
-85.40838819891124
 30
0.0
 11
-2.980787541290217
 21
-0.3389773350668606
 31
0.0
210
0.0
220
0.0
230
0.9999999999999998
 40
0.491379908754588
 41
3.866279069693536
 42
5.298790550294563
  0
LINE
  5
3FC2
330
3F23
100
AcDbEntity
  8
0
100
AcDbLine
 10
9.671848914394235
 20
-92.94917873355359
 30
0.0
 11
-26.22240520419439
 21
-108.5654992527227
 31
0.0
  0
ELLIPSE
  5
3FC3
330
3F23
100
AcDbEntity
  8
0
100
AcDbEllipse
 10
8.976207273632486
 20
-86.83207377850619
 30
0.0
 11
-3.500000000000007
 21
-6.062177826491069
 31
0.0
210
0.0
220
0.0
230
1.0
 40
0.7396328466847472
 41
0.7853981633974492
 42
2.356194490192343
  0
LINE
  5
3FC4
330
3F23
100
AcDbEntity
  8
0
100
AcDbLine
 10
-24.43419513451191
 20
-112.0474125606046
 30
0.0
 11
11.4600589840767
 21
-96.43109204143556
 31
0.0
  0
ELLIPSE
  5
3FC5
330
3F23
100
AcDbEntity
  8
0
100
AcDbEllipse
 10
10.76441734331495
 20
-87.86449734360497
 30
0.0
 11
5.000000000000008
 21
8.660254037844383
 31
0.0
210
0.0
220
0.0
230
0.9999999999999998
 40
0.690948073436211
 41
3.926990816987242
 42
5.497787143782137
  0
ELLIPSE
  5
3FC6
330
3F23
100
AcDbEntity
  8
0
100
AcDbEllipse
 10
11.4600589840767
 20
-93.98160229865238
 30
0.0
 11
-1.196830787170057
 21
2.750926401574914
 31
0.0
210
0.0
220
0.0
230
1.0
 40
0.4913799087545867
 41
0.9843947568850257
 42
2.416906237486056
  0
LINE
  5
3FC7
330
3F23
100
AcDbEntity
  8
0
100
AcDbLine
 10
32.78409999737087
 20
-92.41260124211704
 30
0.0
 11
18.53112679594218
 21
-84.18364332751965
 31
0.0
  0
LINE
  5
3FC8
330
3F23
100
AcDbEntity
  8
0
100
AcDbLine
 10
11.4600589840767
 20
-96.43109204143556
 30
0.0
 11
25.71303218550538
 21
-104.6600499560329
 31
0.0
  0
LINE
  5
3FC9
330
3F23
100
AcDbEntity
  8
0
100
AcDbLine
 10
26.77113494382123
 20
-107.0406153569427
 30
0.0
 11
8.236947255064613
 21
-124.8107630040262
 31
0.0
  0
LINE
  5
3FCA
330
3F23
100
AcDbEntity
  8
0
100
AcDbLine
 10
41.4970869360832
 20
-67.20251120966427
 30
0.0
 11
35.37478148908693
 21
-92.13866241017809
 31
0.0
  0
ELLIPSE
  5
3FCB
330
3F23
100
AcDbEntity
  8
0
100
AcDbEllipse
 10
26.65618256507484
 20
-97.03961227228639
 30
0.0
 11
-7.499999999999977
 21
-12.99038105676659
 31
0.0
210
0.0
220
0.0
230
1.0
 40
0.4150676916945048
 41
0.9599310885968765
 42
2.181661564992905
  0
ENDBLK
  5
3F25
330
3F23
100
AcDbEntity
  8
0
100
AcDbBlockEnd
  0
ENDSEC
  0
SECTION
  2
ENTITIES
  0
INSERT
  5
3FCC
330
1F
100
AcDbEntity
  8
0
100
AcDbBlockReference
  2
AKR285Z-Front
 10
0.0
 20
0.0
 30
0.0
  0
INSERT
  5
3FCD
330
1F
100
AcDbEntity
  8
0
100
AcDbBlockReference
  2
AKR285Z-Left
 10
118.0000093914715
 20
0.0
 30
0.0
  0
INSERT
  5
3FCE
330
1F
100
AcDbEntity
  8
0
100
AcDbBlockReference
  2
AKR285Z-Right
 10
-118.0000093914715
 20
0.0
 30
0.0
  0
INSERT
  5
3FCF
330
1F
100
AcDbEntity
  8
0
100
AcDbBlockReference
  2
AKR285Z-Top
 10
0.0
 20
-85.50000156524502
 30
0.0
  0
INSERT
  5
3FD0
330
1F
100
AcDbEntity
  8
0
100
AcDbBlockReference
  2
AKR285Z-Bottom
 10
0.0
 20
370.5000093914701
 30
0.0
  0
INSERT
  5
3FD1
330
1F
100
AcDbEntity
  8
0
100
AcDbBlockReference
  2
AKR285Z-ISO
 10
166.1870186583991
 20
-229.6715516376227
 30
0.0
  0
MTEXT
  5
3FD2
330
1F
100
AcDbEntity
  8
0
100
AcDbMText
 10
0.0
 20
-256.0000031304901
 30
0.0
 40
23.60000031304931
 41
0.0
 71
     5
 72
     5
  1
AKR285Z
 73
     1
 44
1.0
1001
ACAD
1000
MTEXTBEGIN
1070
    73
1070
     1
1070
    44
1040
1.0
1070
    74
1070
     0
1000
MTEXTEND
  0
ENDSEC
  0
SECTION
  2
OBJECTS
  0
DICTIONARY
  5
C
330
0
100
AcDbDictionary
281
     1
  3
ACAD_CIP_PREVIOUS_PRODUCT_INFO
350
216
  3
ACAD_COLOR
350
6B
  3
ACAD_DETAILVIEWSTYLE
350
21B
  3
ACAD_GROUP
350
D
  3
ACAD_LAYOUT
350
1A
  3
ACAD_MATERIAL
350
6A
  3
ACAD_MLEADERSTYLE
350
12D
  3
ACAD_MLINESTYLE
350
17
  3
ACAD_PLOTSETTINGS
350
19
  3
ACAD_PLOTSTYLENAME
350
E
  3
ACAD_SCALELIST
350
10C
  3
ACAD_SECTIONVIEWSTYLE
350
219
  3
ACAD_TABLESTYLE
350
7E
  3
ACAD_VISUALSTYLE
350
EF
  3
ACDB_RECOMPOSE_DATA
350
40D3
  3
AcDbVariableDictionary
350
5E
  3
DWGPROPS
350
40D4
  0
DICTIONARY
  5
4023
330
8
100
AcDbDictionary
280
     1
281
     1
  0
DICTIONARY
  5
1FF
330
2
100
AcDbDictionary
280
     1
281
     1
  3
ACAD_LAYERSTATES
360
200
  0
DICTIONARY
  5
13C
330
10
100
AcDbDictionary
280
     1
281
     1
  0
DICTIONARY
  5
1CE
330
1F
100
AcDbDictionary
280
     1
281
     1
  3
ACAD_LAYOUTSELFREF
360
402B
  0
DICTIONARY
  5
3FD6
330
D2
100
AcDbDictionary
280
     1
281
     1
  3
ACAD_LAYOUTSELFREF
360
4034
  0
DICTIONARY
  5
3FD8
330
D6
100
AcDbDictionary
280
     1
281
     1
  3
ACAD_LAYOUTSELFREF
360
4037
  0
XRECORD
  5
216
102
{ACAD_REACTORS
330
C
102
}
330
C
100
AcDbXrecord
280
     1
300
ACD
300
2021
300
87393ACD_2021_0F
  0
DICTIONARY
  5
6B
102
{ACAD_REACTORS
330
C
102
}
330
C
100
AcDbDictionary
281
     1
  0
DICTIONARY
  5
21B
102
{ACAD_REACTORS
330
C
102
}
330
C
100
AcDbDictionary
281
     1
  3
Metric50
350
21C
  0
DICTIONARY
  5
D
102
{ACAD_REACTORS
330
C
102
}
330
C
100
AcDbDictionary
281
     1
  0
DICTIONARY
  5
1A
102
{ACAD_REACTORS
330
C
102
}
330
C
100
AcDbDictionary
281
     1
  3
Layout1
350
D3
  3
Layout2
350
D7
  3
Model
350
22
  0
DICTIONARY
  5
6A
102
{ACAD_REACTORS
330
C
102
}
330
C
100
AcDbDictionary
281
     1
  3
ByBlock
350
ED
  3
ByLayer
350
EC
  3
Global
350
EE
  0
DICTIONARY
  5
12D
102
{ACAD_REACTORS
330
C
102
}
330
C
100
AcDbDictionary
281
     1
  3
Standard
350
12E
  0
DICTIONARY
  5
17
102
{ACAD_REACTORS
330
C
102
}
330
C
100
AcDbDictionary
281
     1
  3
Standard
350
18
  0
DICTIONARY
  5
19
102
{ACAD_REACTORS
330
C
102
}
330
C
100
AcDbDictionary
281
     1
  0
ACDBDICTIONARYWDFLT
  5
E
102
{ACAD_REACTORS
330
C
102
}
330
C
100
AcDbDictionary
281
     1
  3
Normal
350
F
100
AcDbDictionaryWithDefault
340
F
  0
DICTIONARY
  5
10C
102
{ACAD_REACTORS
330
C
102
}
330
C
100
AcDbDictionary
281
     1
  3
A0
350
10D
  3
A1
350
1BE
  3
A2
350
1BF
  3
A3
350
1C0
  3
A4
350
1C1
  3
A5
350
1C2
  3
A6
350
1C3
  3
A7
350
1C4
  3
A8
350
1C5
  3
A9
350
1C6
  3
B0
350
1C7
  3
B1
350
1C8
  3
B2
350
1C9
  3
B3
350
1CA
  3
B4
350
1CB
  3
B5
350
1CC
  3
B6
350
1CD
  0
DICTIONARY
  5
219
102
{ACAD_REACTORS
330
C
102
}
330
C
100
AcDbDictionary
281
     1
  3
Metric50
350
21A
  0
DICTIONARY
  5
7E
102
{ACAD_REACTORS
330
C
102
}
330
C
100
AcDbDictionary
281
     1
  3
Standard
350
7F
  0
DICTIONARY
  5
EF
102
{ACAD_REACTORS
330
C
102
}
330
C
100
AcDbDictionary
281
     1
  3
2dWireframe
350
F5
  3
Basic
350
F4
  3
Brighten
350
FB
  3
ColorChange
350
FF
  3
Conceptual
350
F8
  3
Dim
350
FA
  3
EdgeColorOff
350
1E6
  3
Facepattern
350
FE
  3
Flat
350
F0
  3
FlatWithEdges
350
F1
  3
Gouraud
350
F2
  3
GouraudWithEdges
350
F3
  3
Hidden
350
F7
  3
JitterOff
350
1E4
  3
Linepattern
350
FD
  3
OverhangOff
350
1E5
  3
Realistic
350
F9
  3
Shaded
350
1F3
  3
Shaded with edges
350
1F2
  3
Shades of Gray
350
1EF
  3
Sketchy
350
1F0
  3
Thicken
350
FC
  3
Wireframe
350
F6
  3
X-Ray
350
1F1
  0
XRECORD
  5
40D3
102
{ACAD_REACTORS
330
C
102
}
330
C
100
AcDbXrecord
280
     1
 90
        1
330
7F
  0
DICTIONARY
  5
5E
102
{ACAD_REACTORS
330
C
102
}
330
C
100
AcDbDictionary
281
     1
  3
CANNOSCALE
350
146
  3
CENTEREXE
350
259
  3
CENTERLTYPEFILE
350
25A
  3
CMLEADERSTYLE
350
145
  3
CTABLESTYLE
350
84
  3
CVIEWDETAILSTYLE
350
227
  3
CVIEWSECTIONSTYLE
350
228
  3
DIMASSOC
350
5F
  3
HIDETEXT
350
63
  3
INDEXCTL
350
4080
  3
LAYEREVAL
350
1AE
  3
LAYERNOTIFY
350
1AF
  3
LIGHTINGUNITS
350
407E
  3
MSLTSCALE
350
407D
  3
PSOLHEIGHT
350
40D0
  3
PSOLWIDTH
350
40CF
  3
SORTENTS
350
407F
  3
XCLIPFRAME
350
40D1
  0
XRECORD
  5
40D4
102
{ACAD_REACTORS
330
C
102
}
330
C
100
AcDbXrecord
280
     1
  1
DWGPROPS COOKIE
  2

  3

  4

  6

  7

  8
tronnguyen
  9

300
=
301
=
302
=
303
=
304
=
305
=
306
=
307
=
308
=
309
=
 40
0.679050925925926
 41
2460572.688854167
 42
2460573.370289352
  1

 90
        0
  0
DICTIONARY
  5
200
102
{ACAD_REACTORS
330
1FF
102
}
330
1FF
100
AcDbDictionary
281
     1
  0
XRECORD
  5
402B
102
{ACAD_REACTORS
330
1CE
102
}
330
1CE
100
AcDbXrecord
280
     1
340
1F
  0
XRECORD
  5
4034
102
{ACAD_REACTORS
330
3FD6
102
}
330
3FD6
100
AcDbXrecord
280
     1
340
D2
  0
XRECORD
  5
4037
102
{ACAD_REACTORS
330
3FD8
102
}
330
3FD8
100
AcDbXrecord
280
     1
340
D6
  0
ACDBDETAILVIEWSTYLE
  5
21C
102
{ACAD_XDICTIONARY
360
4113
102
}
102
{ACAD_REACTORS
330
21B
102
}
330
21B
100
AcDbModelDocViewStyle
 70
     0
  3
Metric50
290
     0
100
AcDbDetailViewStyle
 70
     0
 71
     0
 90
        3
 71
     1
340
11
 40
5.0
340
0
 40
5.0
300

 40
0.0
280
     1
 71
     2
340
16
 90
       25
 71
     3
340
11
 40
5.0
 90
        0
 40
15.0
 90
        1
300
%<\AcVar ViewDetailId>% (%<\AcVar ViewScale \f "%sn">%)
 71
     4
340
16
 90
       25
340
16
 90
       25
280
     0
  0
LAYOUT
  5
D3
102
{ACAD_XDICTIONARY
360
40D8
102
}
102
{ACAD_REACTORS
330
1A
102
}
330
1A
100
AcDbPlotSettings
  1

  2
C:\Documents and Settings\basas\Application Data\Autodesk\AutoCAD 2005\R16.1\enu\plotters\Default Windows System Printer.pc3
  4

  6

 40
0.0
 41
0.0
 42
0.0
 43
0.0
 44
0.0
 45
0.0
 46
0.0
 47
0.0
 48
0.0
 49
0.0
140
0.0
141
0.0
142
1.0
143
1.0
 70
   688
 72
     0
 73
     0
 74
     5
  7

 75
    16
147
1.0
148
0.0
149
0.0
100
AcDbLayout
  1
Layout1
 70
     1
 71
     1
 10
0.0
 20
0.0
 11
12.0
 21
9.0
 12
0.0
 22
0.0
 32
0.0
 14
0.0
 24
0.0
 34
0.0
 15
0.0
 25
0.0
 35
0.0
146
0.0
 13
0.0
 23
0.0
 33
0.0
 16
1.0
 26
0.0
 36
0.0
 17
0.0
 27
1.0
 37
0.0
 76
     0
330
D2
  0
LAYOUT
  5
D7
102
{ACAD_XDICTIONARY
360
40DA
102
}
102
{ACAD_REACTORS
330
1A
102
}
330
1A
100
AcDbPlotSettings
  1

  2
C:\Documents and Settings\basas\Application Data\Autodesk\AutoCAD 2005\R16.1\enu\plotters\Default Windows System Printer.pc3
  4

  6

 40
0.0
 41
0.0
 42
0.0
 43
0.0
 44
0.0
 45
0.0
 46
0.0
 47
0.0
 48
0.0
 49
0.0
140
0.0
141
0.0
142
1.0
143
1.0
 70
   688
 72
     0
 73
     0
 74
     5
  7

 75
    16
147
1.0
148
0.0
149
0.0
100
AcDbLayout
  1
Layout2
 70
     1
 71
     2
 10
0.0
 20
0.0
 11
12.0
 21
9.0
 12
0.0
 22
0.0
 32
0.0
 14
0.0
 24
0.0
 34
0.0
 15
0.0
 25
0.0
 35
0.0
146
0.0
 13
0.0
 23
0.0
 33
0.0
 16
1.0
 26
0.0
 36
0.0
 17
0.0
 27
1.0
 37
0.0
 76
     0
330
D6
  0
LAYOUT
  5
22
102
{ACAD_XDICTIONARY
360
40D5
102
}
102
{ACAD_REACTORS
330
1A
102
}
330
1A
100
AcDbPlotSettings
  1

  2
none_device
  4
ISO_A4_(210.00_x_297.00_MM)
  6

 40
7.5
 41
20.0
 42
7.5
 43
20.0
 44
210.0
 45
297.0
 46
11.54999923706054
 47
-13.65000009536743
 48
0.0
 49
0.0
140
0.0
141
0.0
142
1.0
143
8.704084754739808
 70
 11952
 72
     1
 73
     0
 74
     0
  7

 75
     0
147
0.1148885871608098
148
0.0
149
0.0
100
AcDbLayout
  1
Model
 70
     1
 71
     0
 10
0.0
 20
0.0
 11
12.0
 21
9.0
 12
0.0
 22
0.0
 32
0.0
 14
0.0
 24
0.0
 34
0.0
 15
0.0
 25
0.0
 35
0.0
146
0.0
 13
0.0
 23
0.0
 33
0.0
 16
1.0
 26
0.0
 36
0.0
 17
0.0
 27
1.0
 37
0.0
 76
     0
330
1F
331
EA
1001
ACAD_PSEXT
1000
None
1000
None
1000
Not applicable
1000
The layout will not be plotted unless a new plotter configuration name is selected.
1070
     0
  0
MATERIAL
  5
ED
102
{ACAD_XDICTIONARY
360
1F9
102
}
102
{ACAD_REACTORS
330
6A
102
}
330
6A
100
AcDbMaterial
  1
ByBlock
  0
MATERIAL
  5
EC
102
{ACAD_XDICTIONARY
360
1F7
102
}
102
{ACAD_REACTORS
330
6A
102
}
330
6A
100
AcDbMaterial
  1
ByLayer
  0
MATERIAL
  5
EE
102
{ACAD_XDICTIONARY
360
173
102
}
102
{ACAD_REACTORS
330
6A
102
}
330
6A
100
AcDbMaterial
  1
Global
 43
0.0007999999797903
 43
0.0
 43
0.0
 43
0.0
 43
0.0
 43
0.0007999999797903
 43
0.0
 43
0.0
 43
0.0
 43
0.0
 43
1.0
 43
0.0
 43
0.0
 43
0.0
 43
0.0
 43
1.0
 49
0.0007999999797903
 49
0.0
 49
0.0
 49
0.0
 49
0.0
 49
0.0007999999797903
 49
0.0
 49
0.0
 49
0.0
 49
0.0
 49
1.0
 49
0.0
 49
0.0
 49
0.0
 49
0.0
 49
1.0
142
0.0007999999797903
142
0.0
142
0.0
142
0.0
142
0.0
142
0.0007999999797903
142
0.0
142
0.0
142
0.0
142
0.0
142
1.0
142
0.0
142
0.0
142
0.0
142
0.0
142
1.0
144
0.0007999999797903
144
0.0
144
0.0
144
0.0
144
0.0
144
0.0007999999797903
144
0.0
144
0.0
144
0.0
144
0.0
144
1.0
144
0.0
144
0.0
144
0.0
144
0.0
144
1.0
1001
ACAD
1070
    -1
1070
     3
1070
     0
1000

1071
        0
1070
     0
  0
MLEADERSTYLE
  5
12E
102
{ACAD_XDICTIONARY
360
40FF
102
}
102
{ACAD_REACTORS
330
12D
102
}
330
12D
100
AcDbMLeaderStyle
170
     2
171
     1
172
     0
 90
        2
 40
0.0
 41
0.0
173
     1
 91
-1056964608
340
14
 92
       -2
290
     1
 42
2.0
291
     1
 43
8.0
  3
Standard
 44
4.0
300

342
11
174
     1
178
     1
175
     1
176
     0
 93
-1056964608
 45
4.0
292
     0
297
     0
 46
4.0
 94
-1056964608
 47
1.0
 49
1.0
140
1.0
293
     1
141
0.0
294
     1
177
     0
142
1.0
295
     0
296
     0
143
3.75
1001
ACAD_MLEADERVER
1070
     2
  0
MLINESTYLE
  5
18
102
{ACAD_REACTORS
330
17
102
}
330
17
100
AcDbMlineStyle
  2
STANDARD
 70
     0
  3

 62
   256
 51
90.0
 52
90.0
 71
     2
 49
0.5
 62
   256
  6
BYLAYER
 49
-0.5
 62
   256
  6
BYLAYER
  0
ACDBPLACEHOLDER
  5
F
102
{ACAD_REACTORS
330
E
102
}
330
E
  0
SCALE
  5
10D
102
{ACAD_REACTORS
330
10C
102
}
330
10C
100
AcDbScale
 70
     0
300
1:1
140
1.0
141
1.0
290
     1
  0
SCALE
  5
1BE
102
{ACAD_REACTORS
330
10C
102
}
330
10C
100
AcDbScale
 70
     0
300
1:2
140
1.0
141
2.0
290
     0
  0
SCALE
  5
1BF
102
{ACAD_REACTORS
330
10C
102
}
330
10C
100
AcDbScale
 70
     0
300
1:4
140
1.0
141
4.0
290
     0
  0
SCALE
  5
1C0
102
{ACAD_REACTORS
330
10C
102
}
330
10C
100
AcDbScale
 70
     0
300
1:5
140
1.0
141
5.0
290
     0
  0
SCALE
  5
1C1
102
{ACAD_REACTORS
330
10C
102
}
330
10C
100
AcDbScale
 70
     0
300
1:8
140
1.0
141
8.0
290
     0
  0
SCALE
  5
1C2
102
{ACAD_REACTORS
330
10C
102
}
330
10C
100
AcDbScale
 70
     0
300
1:10
140
1.0
141
10.0
290
     0
  0
SCALE
  5
1C3
102
{ACAD_REACTORS
330
10C
102
}
330
10C
100
AcDbScale
 70
     0
300
1:16
140
1.0
141
16.0
290
     0
  0
SCALE
  5
1C4
102
{ACAD_REACTORS
330
10C
102
}
330
10C
100
AcDbScale
 70
     0
300
1:20
140
1.0
141
20.0
290
     0
  0
SCALE
  5
1C5
102
{ACAD_REACTORS
330
10C
102
}
330
10C
100
AcDbScale
 70
     0
300
1:30
140
1.0
141
30.0
290
     0
  0
SCALE
  5
1C6
102
{ACAD_REACTORS
330
10C
102
}
330
10C
100
AcDbScale
 70
     0
300
1:40
140
1.0
141
40.0
290
     0
  0
SCALE
  5
1C7
102
{ACAD_REACTORS
330
10C
102
}
330
10C
100
AcDbScale
 70
     0
300
1:50
140
1.0
141
50.0
290
     0
  0
SCALE
  5
1C8
102
{ACAD_REACTORS
330
10C
102
}
330
10C
100
AcDbScale
 70
     0
300
1:100
140
1.0
141
100.0
290
     0
  0
SCALE
  5
1C9
102
{ACAD_REACTORS
330
10C
102
}
330
10C
100
AcDbScale
 70
     0
300
2:1
140
2.0
141
1.0
290
     0
  0
SCALE
  5
1CA
102
{ACAD_REACTORS
330
10C
102
}
330
10C
100
AcDbScale
 70
     0
300
4:1
140
4.0
141
1.0
290
     0
  0
SCALE
  5
1CB
102
{ACAD_REACTORS
330
10C
102
}
330
10C
100
AcDbScale
 70
     0
300
8:1
140
8.0
141
1.0
290
     0
  0
SCALE
  5
1CC
102
{ACAD_REACTORS
330
10C
102
}
330
10C
100
AcDbScale
 70
     0
300
10:1
140
10.0
141
1.0
290
     0
  0
SCALE
  5
1CD
102
{ACAD_REACTORS
330
10C
102
}
330
10C
100
AcDbScale
 70
     0
300
100:1
140
100.0
141
1.0
290
     0
  0
ACDBSECTIONVIEWSTYLE
  5
21A
102
{ACAD_XDICTIONARY
360
4111
102
}
102
{ACAD_REACTORS
330
219
102
}
330
219
100
AcDbModelDocViewStyle
 70
     0
  3
Metric50
290
     0
100
AcDbSectionViewStyle
 70
     0
 71
     0
 90
      102
 71
     1
340
11
 40
5.0
340
0
340
0
 40
5.0
300
I, O, Q, S, X, Z
 40
10.0
 90
        0
 40
2.5
 90
        0
 71
     2
340
16
 90
       25
340
16
 90
       50
 40
5.0
 40
2.5
 40
5.0
 71
     3
340
11
 40
5.0
 90
        0
 40
15.0
 90
        1
300
%<\AcVar ViewSectionStartId>%-%<\AcVar ViewSectionEndId>% (%<\AcVar ViewScale \f "%sn">%)
 71
     4
300
ANSI31
 40
1.0
 90
        0
290
     0
290
     0
 90
        6
 40
0.0
 40
1.570796326794896
 40
0.2617993877991494
 40
1.308996938995747
 40
-0.2617993877991494
 40
1.832595714594046
  0
TABLESTYLE
  5
7F
102
{ACAD_XDICTIONARY
360
162
102
}
102
{ACAD_REACTORS
330
7E
102
}
330
7E
100
AcDbTableStyle
  3
Standard
 70
     0
 71
     0
 40
1.5
 41
1.5
280
     0
281
     0
  7
Standard
140
4.5
170
     2
 62
     0
 63
     7
283
     0
274
    -2
284
     1
 64
     0
275
    -2
285
     1
 65
     0
276
    -2
286
     1
 66
     0
277
    -2
287
     1
 67
     0
278
    -2
288
     1
 68
     0
279
    -2
289
     1
 69
     0
  7
Standard
140
6.0
170
     5
 62
     0
 63
     7
283
     0
274
    -2
284
     1
 64
     0
275
    -2
285
     1
 65
     0
276
    -2
286
     1
 66
     0
277
    -2
287
     1
 67
     0
278
    -2
288
     1
 68
     0
279
    -2
289
     1
 69
     0
  7
Standard
140
4.5
170
     5
 62
     0
 63
     7
283
     0
274
    -2
284
     1
 64
     0
275
    -2
285
     1
 65
     0
276
    -2
286
     1
 66
     0
277
    -2
287
     1
 67
     0
278
    -2
288
     1
 68
     0
279
    -2
289
     1
 69
     0
  0
VISUALSTYLE
  5
F5
102
{ACAD_XDICTIONARY
360
40E9
102
}
102
{ACAD_REACTORS
330
EF
102
}
330
EF
100
AcDbVisualStyle
  2
2dWireframe
 70
     4
 71
     0
 72
     2
 73
     1
 90
        0
 40
-0.6
 41
-30.0
 62
     5
 63
     7
 74
     1
 91
        4
 64
     7
 65
   257
 75
     1
175
     1
 42
1.0
 92
        0
 66
   257
 43
1.0
 76
     1
 77
     6
 78
     2
 67
     7
 79
     5
170
     0
171
     0
290
     0
174
     0
 93
        1
 44
0.0
173
     0
291
     0
 45
0.0
1001
ACAD
1000
AcDbSavedByObjectVersion
1070
     0
  0
VISUALSTYLE
  5
F4
102
{ACAD_XDICTIONARY
360
40E7
102
}
102
{ACAD_REACTORS
330
EF
102
}
330
EF
100
AcDbVisualStyle
  2
Basic
 70
     7
 71
     1
 72
     0
 73
     1
 90
        0
 40
-0.6
 41
-30.0
 62
     5
 63
     7
 74
     0
 91
        4
 64
     7
 65
   257
 75
     1
175
     1
 42
1.0
 92
        8
 66
     7
 43
1.0
 76
     1
 77
     6
 78
     2
 67
     7
 79
     5
170
     0
171
     0
290
     0
174
     0
 93
        1
 44
0.0
173
     0
291
     1
 45
0.0
1001
ACAD
1000
AcDbSavedByObjectVersion
1070
     0
  0
VISUALSTYLE
  5
FB
102
{ACAD_XDICTIONARY
360
40F5
102
}
102
{ACAD_REACTORS
330
EF
102
}
330
EF
100
AcDbVisualStyle
  2
Brighten
 70
    12
 71
     2
 72
     2
 73
     1
 90
        0
 40
-0.6
 41
-30.0
 62
     5
 63
     7
 74
     1
 91
        4
 64
     7
 65
   257
 75
     1
175
     1
 42
1.0
 92
        8
 66
     7
 43
1.0
 76
     1
 77
     6
 78
     2
 67
     7
 79
     5
170
     0
171
     0
290
     0
174
     0
 93
        1
 44
50.0
173
     0
291
     1
 45
0.0
1001
ACAD
1000
AcDbSavedByObjectVersion
1070
     0
  0
VISUALSTYLE
  5
FF
102
{ACAD_XDICTIONARY
360
40FD
102
}
102
{ACAD_REACTORS
330
EF
102
}
330
EF
100
AcDbVisualStyle
  2
ColorChange
 70
    16
 71
     2
 72
     2
 73
     3
 90
        0
 40
-0.6
 41
-30.0
 62
     5
 63
     8
 74
     1
 91
        4
 64
     7
 65
   257
 75
     1
175
     1
 42
1.0
 92
        8
 66
     8
 43
1.0
 76
     1
 77
     6
 78
     2
 67
     7
 79
     5
170
     0
171
     0
290
     0
174
     0
 93
        1
 44
0.0
173
     0
291
     1
 45
0.0
1001
ACAD
1000
AcDbSavedByObjectVersion
1070
     0
  0
VISUALSTYLE
  5
F8
102
{ACAD_XDICTIONARY
360
40EF
102
}
102
{ACAD_REACTORS
330
EF
102
}
330
EF
100
AcDbVisualStyle
  2
Conceptual
 70
     9
 71
     3
 72
     2
 73
     1
 90
        0
 40
-0.6
 41
-30.0
 62
     5
 63
     7
 74
     2
 91
        2
 64
     7
 65
   257
 75
     1
175
     1
 42
40.0
 92
        8
 66
     7
 43
1.0
 76
     1
 77
     6
 78
     2
 67
     7
 79
     3
170
     0
171
     0
290
     0
174
     0
 93
        1
 44
0.0
173
     0
291
     0
 45
0.0
1001
ACAD
1000
AcDbSavedByObjectVersion
1070
     0
  0
VISUALSTYLE
  5
FA
102
{ACAD_XDICTIONARY
360
40F3
102
}
102
{ACAD_REACTORS
330
EF
102
}
330
EF
100
AcDbVisualStyle
  2
Dim
 70
    11
 71
     2
 72
     2
 73
     1
 90
        0
 40
-0.6
 41
-30.0
 62
     5
 63
     7
 74
     1
 91
        4
 64
     7
 65
   257
 75
     1
175
     1
 42
1.0
 92
        8
 66
     7
 43
1.0
 76
     1
 77
     6
 78
     2
 67
     7
 79
     5
170
     0
171
     0
290
     0
174
     0
 93
        1
 44
-50.0
173
     0
291
     1
 45
0.0
1001
ACAD
1000
AcDbSavedByObjectVersion
1070
     0
  0
VISUALSTYLE
  5
1E6
102
{ACAD_XDICTIONARY
360
4105
102
}
102
{ACAD_REACTORS
330
EF
102
}
330
EF
100
AcDbVisualStyle
  2
EdgeColorOff
 70
    22
 71
     2
 72
     2
 73
     0
 90
        0
 40
-0.6
 41
-30.0
 62
     5
 63
     7
 74
     1
 91
        4
 64
     7
 65
   257
 75
     1
175
     1
 42
1.0
 92
        8
 66
     7
 43
1.0
 76
     1
 77
     6
 78
     2
 67
     7
 79
     5
170
     0
171
     0
290
     0
174
     0
 93
        1
 44
0.0
173
     0
291
     1
 45
0.0
1001
ACAD
1000
AcDbSavedByObjectVersion
1070
     0
  0
VISUALSTYLE
  5
FE
102
{ACAD_XDICTIONARY
360
40FB
102
}
102
{ACAD_REACTORS
330
EF
102
}
330
EF
100
AcDbVisualStyle
  2
Facepattern
 70
    15
 71
     2
 72
     2
 73
     1
 90
        0
 40
-0.6
 41
-30.0
 62
     5
 63
     7
 74
     1
 91
        4
 64
     7
 65
   257
 75
     1
175
     1
 42
1.0
 92
        8
 66
     7
 43
1.0
 76
     1
 77
     6
 78
     2
 67
     7
 79
     5
170
     0
171
     0
290
     0
174
     0
 93
        1
 44
0.0
173
     0
291
     1
 45
0.0
1001
ACAD
1000
AcDbSavedByObjectVersion
1070
     0
  0
VISUALSTYLE
  5
F0
102
{ACAD_XDICTIONARY
360
40DF
102
}
102
{ACAD_REACTORS
330
EF
102
}
330
EF
100
AcDbVisualStyle
  2
Flat
 70
     0
 71
     2
 72
     1
 73
     1
 90
        2
 40
-0.6
 41
30.0
 62
     5
 63
     7
 74
     0
 91
        0
 64
     7
 65
   257
 75
     1
175
     1
 42
1.0
 92
        8
 66
     7
 43
1.0
 76
     1
 77
     6
 78
     2
 67
     7
 79
     5
170
     0
171
     0
290
     0
174
     0
 93
       13
 44
0.0
173
     0
291
     1
 45
0.0
1001
ACAD
1000
AcDbSavedByObjectVersion
1070
     0
  0
VISUALSTYLE
  5
F1
102
{ACAD_XDICTIONARY
360
40E1
102
}
102
{ACAD_REACTORS
330
EF
102
}
330
EF
100
AcDbVisualStyle
  2
FlatWithEdges
 70
     1
 71
     2
 72
     1
 73
     1
 90
        2
 40
-0.6
 41
30.0
 62
     5
 63
     7
 74
     1
 91
        0
 64
     7
 65
   257
 75
     1
175
     1
 42
1.0
 92
        0
 66
   257
 43
1.0
 76
     1
 77
     6
 78
     2
 67
     7
 79
     5
170
     0
171
     0
290
     0
174
     0
 93
       13
 44
0.0
173
     0
291
     1
 45
0.0
1001
ACAD
1000
AcDbSavedByObjectVersion
1070
     0
  0
VISUALSTYLE
  5
F2
102
{ACAD_XDICTIONARY
360
40E3
102
}
102
{ACAD_REACTORS
330
EF
102
}
330
EF
100
AcDbVisualStyle
  2
Gouraud
 70
     2
 71
     2
 72
     2
 73
     1
 90
        2
 40
-0.6
 41
30.0
 62
     5
 63
     7
 74
     0
 91
        0
 64
     7
 65
   257
 75
     1
175
     1
 42
1.0
 92
        0
 66
     7
 43
1.0
 76
     1
 77
     6
 78
     2
 67
     7
 79
     5
170
     0
171
     0
290
     0
174
     0
 93
       13
 44
0.0
173
     0
291
     1
 45
0.0
1001
ACAD
1000
AcDbSavedByObjectVersion
1070
     0
  0
VISUALSTYLE
  5
F3
102
{ACAD_XDICTIONARY
360
40E5
102
}
102
{ACAD_REACTORS
330
EF
102
}
330
EF
100
AcDbVisualStyle
  2
GouraudWithEdges
 70
     3
 71
     2
 72
     2
 73
     1
 90
        2
 40
-0.6
 41
30.0
 62
     5
 63
     7
 74
     1
 91
        0
 64
     7
 65
   257
 75
     1
175
     1
 42
1.0
 92
        0
 66
   257
 43
1.0
 76
     1
 77
     6
 78
     2
 67
     7
 79
     5
170
     0
171
     0
290
     0
174
     0
 93
       13
 44
0.0
173
     0
291
     1
 45
0.0
1001
ACAD
1000
AcDbSavedByObjectVersion
1070
     0
  0
VISUALSTYLE
  5
F7
102
{ACAD_XDICTIONARY
360
40ED
102
}
102
{ACAD_REACTORS
330
EF
102
}
330
EF
100
AcDbVisualStyle
  2
Hidden
 70
     6
 71
     1
 72
     2
 73
     2
 90
        0
 40
-0.6
 41
-30.0
 62
     5
 63
     7
 74
     2
 91
        2
 64
     7
 65
   257
 75
     2
175
     1
 42
40.0
 92
        0
 66
   257
 43
1.0
 76
     1
 77
     6
 78
     2
 67
     7
 79
     3
170
     0
171
     0
290
     0
174
     0
 93
        1
 44
0.0
173
     0
291
     0
 45
0.0
1001
ACAD
1000
AcDbSavedByObjectVersion
1070
     0
  0
VISUALSTYLE
  5
1E4
102
{ACAD_XDICTIONARY
360
4101
102
}
102
{ACAD_REACTORS
330
EF
102
}
330
EF
100
AcDbVisualStyle
  2
JitterOff
 70
    20
 71
     2
 72
     2
 73
     0
 90
        0
 40
-0.6
 41
-30.0
 62
     5
 63
     7
 74
     1
 91
        4
 64
     7
 65
   257
 75
     1
175
     1
 42
1.0
 92
       10
 66
     7
 43
1.0
 76
     1
 77
     6
 78
     2
 67
     7
 79
     5
170
     0
171
     0
290
     0
174
     0
 93
        1
 44
0.0
173
     0
291
     1
 45
0.0
1001
ACAD
1000
AcDbSavedByObjectVersion
1070
     0
  0
VISUALSTYLE
  5
FD
102
{ACAD_XDICTIONARY
360
40F9
102
}
102
{ACAD_REACTORS
330
EF
102
}
330
EF
100
AcDbVisualStyle
  2
Linepattern
 70
    14
 71
     2
 72
     2
 73
     1
 90
        0
 40
-0.6
 41
-30.0
 62
     5
 63
     7
 74
     1
 91
        4
 64
     7
 65
   257
 75
     7
175
     7
 42
1.0
 92
        8
 66
     7
 43
1.0
 76
     1
 77
     6
 78
     2
 67
     7
 79
     5
170
     0
171
     0
290
     0
174
     0
 93
        1
 44
0.0
173
     0
291
     1
 45
0.0
1001
ACAD
1000
AcDbSavedByObjectVersion
1070
     0
  0
VISUALSTYLE
  5
1E5
102
{ACAD_XDICTIONARY
360
4103
102
}
102
{ACAD_REACTORS
330
EF
102
}
330
EF
100
AcDbVisualStyle
  2
OverhangOff
 70
    21
 71
     2
 72
     2
 73
     0
 90
        0
 40
-0.6
 41
-30.0
 62
     5
 63
     7
 74
     1
 91
        4
 64
     7
 65
   257
 75
     1
175
     1
 42
1.0
 92
        9
 66
     7
 43
1.0
 76
     1
 77
     6
 78
     2
 67
     7
 79
     5
170
     0
171
     0
290
     0
174
     0
 93
        1
 44
0.0
173
     0
291
     1
 45
0.0
1001
ACAD
1000
AcDbSavedByObjectVersion
1070
     0
  0
VISUALSTYLE
  5
F9
102
{ACAD_XDICTIONARY
360
40F1
102
}
102
{ACAD_REACTORS
330
EF
102
}
330
EF
100
AcDbVisualStyle
  2
Realistic
 70
     8
 71
     2
 72
     2
 73
     0
 90
        2
 40
-0.6
 41
30.0
 62
     5
 63
     7
 74
     0
 91
        0
 64
     7
 65
   257
 75
     1
175
     1
 42
1.0
 92
        8
 66
   257
 43
1.0
 76
     1
 77
     6
 78
     2
 67
     7
 79
     3
170
     0
171
     0
290
     0
174
     0
 93
       13
 44
0.0
173
     0
291
     0
 45
0.0
1001
ACAD
1000
AcDbSavedByObjectVersion
1070
     0
  0
VISUALSTYLE
  5
1F3
102
{ACAD_XDICTIONARY
360
410F
102
}
102
{ACAD_REACTORS
330
EF
102
}
330
EF
100
AcDbVisualStyle
  2
Shaded
 70
    27
 71
     2
 72
     2
 73
     1
 90
        2
 40
-0.6
 41
30.0
 62
     5
 63
     7
 74
     0
 91
        4
 64
     7
 65
   257
 75
     1
175
     1
 42
1.0
 92
        8
 66
   257
 43
1.0
 76
     1
 77
     6
 78
     2
 67
     8
 79
     3
170
     0
171
     0
290
     0
174
     0
 93
        5
 44
0.0
173
     0
291
     0
 45
0.0
1001
ACAD
1000
AcDbSavedByObjectVersion
1070
     0
  0
VISUALSTYLE
  5
1F2
102
{ACAD_XDICTIONARY
360
410D
102
}
102
{ACAD_REACTORS
330
EF
102
}
330
EF
100
AcDbVisualStyle
  2
Shaded with edges
 70
    26
 71
     2
 72
     2
 73
     1
 90
        2
 40
-0.6
 41
30.0
 62
     5
 63
     7
 74
     1
 91
        2
 64
     7
 65
   257
 75
     2
175
     1
 42
1.0
 92
        8
 66
   257
 43
1.0
 76
     1
 77
     6
 78
     2
 67
     7
 79
     3
170
     0
171
     0
290
     0
174
     0
 93
        5
 44
0.0
173
     0
291
     0
 45
0.0
1001
ACAD
1000
AcDbSavedByObjectVersion
1070
     0
  0
VISUALSTYLE
  5
1EF
102
{ACAD_XDICTIONARY
360
4107
102
}
102
{ACAD_REACTORS
330
EF
102
}
330
EF
100
AcDbVisualStyle
  2
Shades of Gray
 70
    23
 71
     2
 72
     2
 73
     3
 90
        0
 40
-0.6
 41
-30.0
 62
     5
 63
     7
 74
     2
 91
        2
 64
     7
 65
     7
 75
     1
175
     1
 42
40.0
 92
        8
 66
     7
 43
1.0
 76
     1
 77
     6
 78
     2
 67
     7
 79
     3
170
     0
171
     0
290
     0
174
     0
 93
        1
 44
0.0
173
     0
291
     0
 45
0.0
1001
ACAD
1000
AcDbSavedByObjectVersion
1070
     0
  0
VISUALSTYLE
  5
1F0
102
{ACAD_XDICTIONARY
360
4109
102
}
102
{ACAD_REACTORS
330
EF
102
}
330
EF
100
AcDbVisualStyle
  2
Sketchy
 70
    24
 71
     1
 72
     2
 73
     2
 90
        0
 40
-0.6
 41
-30.0
 62
     5
 63
     7
 74
     2
 91
        2
 64
     7
 65
     7
 75
     1
175
     1
 42
40.0
 92
       11
 66
     7
 43
1.0
 76
     1
 77
     6
 78
     2
 67
     7
 79
     6
170
     0
171
     0
290
     0
174
     0
 93
        1
 44
0.0
173
     0
291
     0
 45
0.0
1001
ACAD
1000
AcDbSavedByObjectVersion
1070
     0
  0
VISUALSTYLE
  5
FC
102
{ACAD_XDICTIONARY
360
40F7
102
}
102
{ACAD_REACTORS
330
EF
102
}
330
EF
100
AcDbVisualStyle
  2
Thicken
 70
    13
 71
     2
 72
     2
 73
     1
 90
        0
 40
-0.6
 41
-30.0
 62
     5
 63
     7
 74
     1
 91
        4
 64
     7
 65
   257
 75
     1
175
     1
 42
1.0
 92
       12
 66
     7
 43
1.0
 76
     1
 77
     6
 78
     2
 67
     7
 79
     5
170
     0
171
     0
290
     0
174
     0
 93
        1
 44
0.0
173
     0
291
     1
 45
0.0
1001
ACAD
1000
AcDbSavedByObjectVersion
1070
     0
  0
VISUALSTYLE
  5
F6
102
{ACAD_XDICTIONARY
360
40EB
102
}
102
{ACAD_REACTORS
330
EF
102
}
330
EF
100
AcDbVisualStyle
  2
Wireframe
 70
     5
 71
     0
 72
     2
 73
     0
 90
        0
 40
-0.6
 41
-30.0
 62
     5
 63
     7
 74
     1
 91
        4
 64
     7
 65
   257
 75
     1
175
     1
 42
1.0
 92
        0
 66
   257
 43
1.0
 76
     1
 77
     6
 78
     2
 67
     7
 79
     3
170
     0
171
     0
290
     0
174
     0
 93
        1
 44
0.0
173
     0
291
     0
 45
0.0
1001
ACAD
1000
AcDbSavedByObjectVersion
1070
     0
  0
VISUALSTYLE
  5
1F1
102
{ACAD_XDICTIONARY
360
410B
102
}
102
{ACAD_REACTORS
330
EF
102
}
330
EF
100
AcDbVisualStyle
  2
X-Ray
 70
    25
 71
     2
 72
     2
 73
     1
 90
        1
 40
0.5
 41
-30.0
 62
     5
 63
     7
 74
     1
 91
        0
 64
     7
 65
   257
 75
     1
175
     1
 42
1.0
 92
        8
 66
     7
 43
1.0
 76
     1
 77
     6
 78
     2
 67
     7
 79
     3
170
     0
171
     0
290
     0
174
     0
 93
       13
 44
0.0
173
     0
291
     0
 45
0.0
1001
ACAD
1000
AcDbSavedByObjectVersion
1070
     0
  0
DICTIONARYVAR
  5
146
102
{ACAD_REACTORS
330
5E
102
}
330
5E
100
DictionaryVariables
280
     0
  1
1:1
  0
DICTIONARYVAR
  5
259
102
{ACAD_REACTORS
330
5E
102
}
330
5E
100
DictionaryVariables
280
     0
  1
3.500000
  0
DICTIONARYVAR
  5
25A
102
{ACAD_REACTORS
330
5E
102
}
330
5E
100
DictionaryVariables
280
     0
  1
acadiso.lin
  0
DICTIONARYVAR
  5
145
102
{ACAD_REACTORS
330
5E
102
}
330
5E
100
DictionaryVariables
280
     0
  1
STANDARD
  0
DICTIONARYVAR
  5
84
102
{ACAD_REACTORS
330
5E
102
}
330
5E
100
DictionaryVariables
280
     0
  1
STANDARD
  0
DICTIONARYVAR
  5
227
102
{ACAD_REACTORS
330
5E
102
}
330
5E
100
DictionaryVariables
280
     0
  1
Metric50
  0
DICTIONARYVAR
  5
228
102
{ACAD_REACTORS
330
5E
102
}
330
5E
100
DictionaryVariables
280
     0
  1
Metric50
  0
DICTIONARYVAR
  5
5F
102
{ACAD_REACTORS
330
5E
102
}
330
5E
100
DictionaryVariables
280
     0
  1
2
  0
DICTIONARYVAR
  5
63
102
{ACAD_REACTORS
330
5E
102
}
330
5E
100
DictionaryVariables
280
     0
  1
1
  0
DICTIONARYVAR
  5
4080
102
{ACAD_REACTORS
330
5E
102
}
330
5E
100
DictionaryVariables
280
     0
  1
0
  0
DICTIONARYVAR
  5
1AE
102
{ACAD_REACTORS
330
5E
102
}
330
5E
100
DictionaryVariables
280
     0
  1
0
  0
DICTIONARYVAR
  5
1AF
102
{ACAD_REACTORS
330
5E
102
}
330
5E
100
DictionaryVariables
280
     0
  1
0
  0
DICTIONARYVAR
  5
407E
102
{ACAD_REACTORS
330
5E
102
}
330
5E
100
DictionaryVariables
280
     0
  1
2
  0
DICTIONARYVAR
  5
407D
102
{ACAD_REACTORS
330
5E
102
}
330
5E
100
DictionaryVariables
280
     0
  1
1
  0
DICTIONARYVAR
  5
40D0
102
{ACAD_REACTORS
330
5E
102
}
330
5E
100
DictionaryVariables
280
     0
  1
80.000000
  0
DICTIONARYVAR
  5
40CF
102
{ACAD_REACTORS
330
5E
102
}
330
5E
100
DictionaryVariables
280
     0
  1
5.000000
  0
DICTIONARYVAR
  5
407F
102
{ACAD_REACTORS
330
5E
102
}
330
5E
100
DictionaryVariables
280
     0
  1
127
  0
DICTIONARYVAR
  5
40D1
102
{ACAD_REACTORS
330
5E
102
}
330
5E
100
DictionaryVariables
280
     0
  1
2
  0
DICTIONARY
  5
4113
330
21C
100
AcDbDictionary
280
     1
281
     1
  3
ACAD_XREC_ROUNDTRIP
360
4114
  0
DICTIONARY
  5
40D8
330
D3
100
AcDbDictionary
280
     1
281
     1
  3
ACAD_XREC_ROUNDTRIP
360
40D9
  0
DICTIONARY
  5
40DA
330
D7
100
AcDbDictionary
280
     1
281
     1
  3
ACAD_XREC_ROUNDTRIP
360
40DB
  0
DICTIONARY
  5
40D5
330
22
100
AcDbDictionary
280
     1
281
     1
  3
ACAD_XREC_ROUNDTRIP
360
40D6
  0
DICTIONARY
  5
1F9
330
ED
100
AcDbDictionary
280
     1
281
     1
  3
ACAD_XREC_ROUNDTRIP
360
40DD
  3
FBXASSET
360
1FA
  0
DICTIONARY
  5
1F7
330
EC
100
AcDbDictionary
280
     1
281
     1
  3
ACAD_XREC_ROUNDTRIP
360
40DC
  3
FBXASSET
360
1F8
  0
DICTIONARY
  5
173
330
EE
100
AcDbDictionary
280
     1
281
     1
  3
ACAD_XREC_ROUNDTRIP
360
40DE
  3
BUMPTILE
360
175
  3
DIFFUSETILE
360
174
  3
FBXASSET
360
1FB
  3
OPACITYTILE
360
176
  3
REFLECTIONTILE
360
177
  0
DICTIONARY
  5
40FF
330
12E
100
AcDbDictionary
280
     1
281
     1
  3
ACAD_XREC_ROUNDTRIP
360
4100
  0
DICTIONARY
  5
4111
330
21A
100
AcDbDictionary
280
     1
281
     1
  3
ACAD_XREC_ROUNDTRIP
360
4112
  0
DICTIONARY
  5
162
330
7F
100
AcDbDictionary
280
     1
281
     1
  3
ACAD_ROUNDTRIP_2008_TABLESTYLE_CELLSTYLEMAP
360
40D2
  3
ACAD_XREC_ROUNDTRIP
360
40D7
  0
DICTIONARY
  5
40E9
330
F5
100
AcDbDictionary
280
     1
281
     1
  3
ACAD_XREC_ROUNDTRIP
360
40EA
  0
DICTIONARY
  5
40E7
330
F4
100
AcDbDictionary
280
     1
281
     1
  3
ACAD_XREC_ROUNDTRIP
360
40E8
  0
DICTIONARY
  5
40F5
330
FB
100
AcDbDictionary
280
     1
281
     1
  3
ACAD_XREC_ROUNDTRIP
360
40F6
  0
DICTIONARY
  5
40FD
330
FF
100
AcDbDictionary
280
     1
281
     1
  3
ACAD_XREC_ROUNDTRIP
360
40FE
  0
DICTIONARY
  5
40EF
330
F8
100
AcDbDictionary
280
     1
281
     1
  3
ACAD_XREC_ROUNDTRIP
360
40F0
  0
DICTIONARY
  5
40F3
330
FA
100
AcDbDictionary
280
     1
281
     1
  3
ACAD_XREC_ROUNDTRIP
360
40F4
  0
DICTIONARY
  5
4105
330
1E6
100
AcDbDictionary
280
     1
281
     1
  3
ACAD_XREC_ROUNDTRIP
360
4106
  0
DICTIONARY
  5
40FB
330
FE
100
AcDbDictionary
280
     1
281
     1
  3
ACAD_XREC_ROUNDTRIP
360
40FC
  0
DICTIONARY
  5
40DF
330
F0
100
AcDbDictionary
280
     1
281
     1
  3
ACAD_XREC_ROUNDTRIP
360
40E0
  0
DICTIONARY
  5
40E1
330
F1
100
AcDbDictionary
280
     1
281
     1
  3
ACAD_XREC_ROUNDTRIP
360
40E2
  0
DICTIONARY
  5
40E3
330
F2
100
AcDbDictionary
280
     1
281
     1
  3
ACAD_XREC_ROUNDTRIP
360
40E4
  0
DICTIONARY
  5
40E5
330
F3
100
AcDbDictionary
280
     1
281
     1
  3
ACAD_XREC_ROUNDTRIP
360
40E6
  0
DICTIONARY
  5
40ED
330
F7
100
AcDbDictionary
280
     1
281
     1
  3
ACAD_XREC_ROUNDTRIP
360
40EE
  0
DICTIONARY
  5
4101
330
1E4
100
AcDbDictionary
280
     1
281
     1
  3
ACAD_XREC_ROUNDTRIP
360
4102
  0
DICTIONARY
  5
40F9
330
FD
100
AcDbDictionary
280
     1
281
     1
  3
ACAD_XREC_ROUNDTRIP
360
40FA
  0
DICTIONARY
  5
4103
330
1E5
100
AcDbDictionary
280
     1
281
     1
  3
ACAD_XREC_ROUNDTRIP
360
4104
  0
DICTIONARY
  5
40F1
330
F9
100
AcDbDictionary
280
     1
281
     1
  3
ACAD_XREC_ROUNDTRIP
360
40F2
  0
DICTIONARY
  5
410F
330
1F3
100
AcDbDictionary
280
     1
281
     1
  3
ACAD_XREC_ROUNDTRIP
360
4110
  0
DICTIONARY
  5
410D
330
1F2
100
AcDbDictionary
280
     1
281
     1
  3
ACAD_XREC_ROUNDTRIP
360
410E
  0
DICTIONARY
  5
4107
330
1EF
100
AcDbDictionary
280
     1
281
     1
  3
ACAD_XREC_ROUNDTRIP
360
4108
  0
DICTIONARY
  5
4109
330
1F0
100
AcDbDictionary
280
     1
281
     1
  3
ACAD_XREC_ROUNDTRIP
360
410A
  0
DICTIONARY
  5
40F7
330
FC
100
AcDbDictionary
280
     1
281
     1
  3
ACAD_XREC_ROUNDTRIP
360
40F8
  0
DICTIONARY
  5
40EB
330
F6
100
AcDbDictionary
280
     1
281
     1
  3
ACAD_XREC_ROUNDTRIP
360
40EC
  0
DICTIONARY
  5
410B
330
1F1
100
AcDbDictionary
280
     1
281
     1
  3
ACAD_XREC_ROUNDTRIP
360
410C
  0
XRECORD
  5
4114
102
{ACAD_REACTORS
330
4113
102
}
330
4113
100
AcDbXrecord
280
     1
102
DISPLAYNAME
  1
Metric50
102
FLAGS
 90
        0
  0
XRECORD
  5
40D9
102
{ACAD_REACTORS
330
40D8
102
}
330
40D8
100
AcDbXrecord
280
     1
102
SHADEPLOT
 70
     0
102
SHADEPLOTRESLEVEL
 70
     2
102
SHADEPLOTCUSTOMDPI
 70
   300
  0
XRECORD
  5
40DB
102
{ACAD_REACTORS
330
40DA
102
}
330
40DA
100
AcDbXrecord
280
     1
102
SHADEPLOT
 70
     0
102
SHADEPLOTRESLEVEL
 70
     2
102
SHADEPLOTCUSTOMDPI
 70
   300
  0
XRECORD
  5
40D6
102
{ACAD_REACTORS
330
40D5
102
}
330
40D5
100
AcDbXrecord
280
     1
102
SHADEPLOT
 70
     0
102
SHADEPLOTRESLEVEL
 70
     2
102
SHADEPLOTCUSTOMDPI
 70
   300
  0
XRECORD
  5
40DD
102
{ACAD_REACTORS
330
1F9
102
}
330
1F9
100
AcDbXrecord
280
     1
102
MATERIAL
148
0.0
149
0.0
149
0.0
 93
        0
 94
       63
282
     0
 72
     1
 77
     1
171
     1
175
     1
179
     1
273
     0
  0
XRECORD
  5
1FA
102
{ACAD_REACTORS
330
1F9
102
}
330
1F9
100
AcDbXrecord
280
     1
 70
     1
 90
429727718
  1
D62C5603-E3A1-4AEA-B7FB-FE5D8D0755AF
310
504B03040A0000080000CC70623B3DEE336E79000000790000001B0000006175746F6465736B2D64657369676E2D7061636B6167652E786D6C3C3F786D6C2076657273696F6E3D22312E302220656E636F64696E673D227574662D3822203F3E3C666F726D6174733E3C666F726D61743E687474703A2F2F736368656D612E
310
6175746F6465736B2E636F6D2F64657369676E2D7061636B6167652F323030393C2F666F726D61743E3C2F666F726D6174733E504B0304140006080800CC70623BD486FD9CA0000000F4000000130000005B436F6E74656E745F54797065735D2E786D6C7D8EC10E82300C865F65E91D8A1E8C310C0EEA1BF002731658846E
310
D98AC1B77784ABF1D8FE5FBFBF75BBCE937A534CCEB38643598122B6FEE978D0B0485F9C41B54DDD7D022595594E1A469170414C76A4D9A4D207E29CF43ECE46F218070CC6BECC4078ACAA135ACF422C856C0E68EA1BF5669944DDD7BCDE7B1F8E415D77AECB980613C2E4AC91FC167A2B244592486606FC29C8FD7F045B9A
310
EF7053A7E60B504B0304140006080800CC70623B853B8169EB0000007C01000008000000636F72652E786D6C8D90416EC3201045AF62CDB6C206821CC7C244919D9CA01740401C94182C03558F5F9C3852BBEB6A467FFE9B197D7EFC9E1EC5975982F5AE035262288C535E5B377690E21535501C055FBC8FBF6C503839990E
310
5619041F179FE64D52DE45E362569DD7661365082642A11EB9E920A89B99642953CC8E702F67A9EE7234257977194EC9EAE275C4EABCCF5EAD5940D4AC6F0E35A568B8F43562CD7046CD199FD07E60174276A7BE677B5EADB0E0D14EEFFB6A31321A0D82627C4084204C3F096B71DD52F6819B16635EADF63F509AF53FA164
310
5DDCD1EDDD17164090FCC8732078B56691CB33A85CD7DCC40F504B0304140006080800CC70623B55019EA25F0000007C00000007000000636E782E786D6C4DCB3B0E80201045D1AD90E915ED2CF8AC45050C11660C8261F98AB1B07AC9C97D42D718D865D3E909258CFD00CCE24AC6E326A164D74DC0B4128928FF32603847
310
2BA13128B1252AC747C6BAB984FC68F0B87FE8960A5C09FE86CFB69FBA01504B0304140006080800CC70623BDBABAAF470010000D40300000C0000006662782F636F72652E786D6CC553D16E823014FD95A6AF4B694182CC941A83FA05FB810A9511A125A5257EFE2E82712ECEB8A7F100CD39F7F69E734AF9FADC366850B6
310
AF8DCE7018308C942E4C59EB2AC3DE1D498AD15A706B8CFB56869196ADCAF00863C12B6B7C374385D14E6907A836A59A41D9F7CA615434B0C8705F7CAA5606D23BA8E84F41278B93AC54100640439DE0BDB320004D43C63716C7C399D30917DCFBBA9CD9BA8469F5B156168B24CED3F7248AC8769F27244EB73B92EED8862C
310
B7F13E0C179B3C8F979C8ECD82BBBABDAA2BAC924E9558448CBD9330242CFA08E3154B5651FCC6D215639C8EE5774DBE2B5F6CF2B5768B68963BB5F5588420E442FC700B1139D4CB01F450C1E918227C2E09DF070D8140C84E1E9AAB8F1340832A9CB13130A5F1376A908D57309505ECF2A0DF179C4E9D30F5B239B87E3823
310
7A79C6F31DE1A8A5AEC08474B03C7837EAE4938639B44E5932B833D2C6B6B279CDC613877FA26EE21F4A2A4C63EC7F29A2F301D1F9F7A0E37D145F504B0304140006080800CC70623B9C113CC27E0000009D0000000B0000006662782F636E782E786D6C4DCCDF0A83201C86E15B91DFB94BFB330DD428C8FB886521330DA7
310
6397BF1A1DECE883878F57749FCDA1B7892F1BBC047A23808C7F84D9FA55424E0BE6803A256208E9EF06C84F9B91703228B1C690F78B66B34CD9A5439DF5CF0BFBF65E35BCA1B8D6A5C6F540381E886698B5741C695F9503EBA150A2F8958E3DC3EA0B504B0304140006080800CC70623B7DF2F77C2A010000120200003100
310
00006662782F41393633353835312D344632462D344230382D423046372D3739314545314133324237412F636F72652E786D6C8D51DB8EC22014FC15C2939B0D2DB4B45643319AE817EC0F6041255A68B86CFCFC856D4D76DF7CE190393373060EDB3DC707F856CE6B6B7A480A0C81328395DA5C7B18C3057510EC3873D686
310
3F34088C18550F330C39BB3A1BA7051AAC09CA84841A2BD5020AEF55806078A44B0FFD7053A328440C89E1EFC52486BBB8AA8214A99D789CF9E05200300FC927E4FB4D5B375D43103D5527440FB843077C5AA3F5861C8F645F5787F59E95B390B318B55CE45AA638FAA2957BD7248B390B7A7CC51F9C124149C82B8C378810
310
84AB2F42B7B8DD56F413775B8C5999E9FF4471926F8AA236A1AE96B8B3CC434E5839373893369E1FAF30EA395917409EB7F26AF8801C171837A4A6AC9C89E9F9C9B1A58BA30FD6A5EF5DDDCF894B9AD9B6A59C957943A9FCAE2FD5BC4DFE03504B0304140006080800CC70623BAD7543B64E01000033030000300000006662
310
782F41393633353835312D344632462D344230382D423046372D3739314545314133324237412F636E782E786D6CD593CD6EC32010845F0571AD6CE3D48AD20813A9873E410FBD12D82434182C7EAAE6EDBB2424CD25871E7B41D6EC30B3FA84F9E67BB2E40B4234DE8DB46F1925E094D7C6ED479AD3AE5951B2113C789FEE
310
6C943839C1488B4C05DF079FE72A69D8C96C13AAD6B8631503449F83828872B949AC57D26200B826A308D316B4064D6E46FCDA41C05550DC9E483A00797BFD207EFB092A45DE9514C1BBD22178396BD39D891265658C238DEA00936C654E5E433CB65A26D9F6EDB5EBC14EBF49A45CB856E66048291F6939A9A81BB5C89177
310
38143CA680F4AA299D66A042CEB3354A2684DC9D8D178FE0D9B8B41CAAD720F880EE7EF93C0C18769E099ECC04D5A102C8049A8A05632F4DDF376CF1DE0F6BB65C2F8627B65A33C6BB62177CEBBDAD973006829F89F22E814B54F4BC2BE347F8AA8F681390B50FA73F804400B5F542E796F19FF974E7F78DB802FE05E20750
310
4B0304140006080800CC70623BE75B7789680500003C100000340000006662782F41393633353835312D344632462D344230382D423046372D3739314545314133324237412F6F626A656374732E786D6CAD575B8F9B3818FD2B887D06C22499CB8AA1CA655245D5B455A356FB305264C061D8018C6C3393D95FBFC7600890
310
A4CD5EF210B0B1BFEBF98E3F7B1FF6596ABC522E1296DF9BAE3D320D9A872C4AF2F8DE2CE5CEBA358D0FBEC719939D65A691938CDE9B6ADAF4BD98B3B2D05311DD91329583D9D5FC0F438434A7A611A644887B5384CF34233629258BA878B12322891DEFF6B66BD70BFB62634E8AE781D082709A4B588AF91C528CDA28B73F
310
1C998EEF39EABBEFA97FBD6A7C7E9553F9D3D79FE442923C3C523610337627CB87ABE99D359D4CC6D6E4FACAB5E6ABF9D2726FC6A3C5F56271377BB88362213924694B38DD99FE47C48627A1E7D49F5A8BB5E1A74C0A599ED3B0F21F1E56366B89112D681E218F0915D0D6F17AD41FBA2A369DCF6335D62ABBD39779D5DDD1
310
11D4D8DE3CBB96B2E04FB8202E41051754A1AA8E8F76B4C6DFE810B580B1547F4B84911149794252234D024EF8BBE963A95AE27B3D310A9D5C215C7960FAEE415ED75694C6AFB17BCACA5D99A60A9AA65F217B0BFC53292ACB92BF283FAD0D3621576592CB5BED907C2FA8E9DF794E35E97BEA31BED21FEB401ABB94C44839
310
DCACBF0E1C5DA8DA5B2F4DFFD32AD86F543D9E565E7056502E157C00AD2671CD534549AB752FCA9CDA00677A313F04E51B22FF19E57B300579E3C97EB29F682D92935CEC18CF901B7B54FD8C51F362B56FC72FE0B3C1EAE335EDCCBF5AEC39ADB17DC238973F804BA5E6F6BFE7AF1FB32E523BE9F3BD571418E3631DCA4D48
310
5250CF639223210A9446CA30052EDF057BD35F8329C1ECD84552BF0DC8D18BE7BCE23BFE6BD960AB4A7DE79923A103BEBD80F911CBAA2C60DB19B01CF164A5583B772EE6D3FFA56666CBCDA74DC97724A48F9A58967497E489C4D979006FD7A05E227A1EBDD0F737C623387A9C844D3709995625106D157315F8B8392CD4E0
310
A0B9A720C4BE9829CEF37EA1E13111214D53925356365ADA634861B52519DD27A00AEB808EAF0628E6F435519D446F45CF2C9CF5214F0A15B2F6D06B79DA3EE3CBF7F56780D2F4E7EF73A0F5E5B02A38D07DC852C6B7C1FBB6664213E0C39E3EBA7FF4E1AD23EA2829407C85E586727488B751B2DB9502BC7B228A3FD68B6E
310
A65A22397E690AA8D158D7E404EC8CDA235CC3B7D1898680131CEC2CDF2638C65196279577750F15884AEE19F94199155B92B13297978469D4F8D358DF0AEF7631E28DC8F0D9F437D5D39A83B2231A1D52D543813A824EF8D44BCFF2FA6A31BD1E8DAD87F1CCB526B3879935BF59CDADD5C37479BB1CDD4CA7B3556B516589
310
EF352754B706114D9C885EC9131DE6EFEB43D99AFE2391C2F958179413D7CFEF6B1B6DB1E7600F00DE6E5C67454A339A4BA2E0FBA85ED26F045D454F463DBFCE484C2F90F2E5E3666003662ED8F755951A7D1BECD5B30B550B2785C8E7320B7292A4838DDA71BBC863ED7613CAF659337A3354231D4FF4A182A54904C2898C
310
98B28C4AD0CE056CCF332A80986E571EE9DBC305BB5FEB7E509220A58D25CF042D712A806AC0AD0C657FDEF80D2D9CEAA2EE4D1C76F60BFE74219A06527D6F82DF6412526107381E55E353090704D085B52408A8913C4ED159D79BDA71BB4BC506F4831350EB6F975CD22D69BF7AC49B91A2C0A9DDA3D5CA36AD20FC478E37
310
E61844E2352865EBCB61A275A65283CAAA9DD27703B4102F5AF51EF5F573B75CBB5AD38BC845F7A49F82A0966A49C2E3EA5EA0ECD326CD965F1DB402C6FA8B51A4658C5C5E2EC9E214602E55810345408596591009A82E7E7FFACA19EEA299B14A0081A705CB3296EBC14CDF658DCD336EA6D1136881AAEB87B81AB9EE53D5
310
F5EB8BC8362082DA24122F98680A4E7930C01A0079749CEA14382A0783E5EBA5A10F8C098456A03D6A4AEB6BB881E2513747552A5DB22C7EDAF83BD5528081A365F7FF06504B0304140006080000CC70623B000000000000000000000000350000006662782F41393633353835312D344632462D344230382D423046372D37
310
39314545314133324237412F76657274696365732E62696E504B0304140006080800CC70623BF270F1330600000004000000360000006662782F41393633353835312D344632462D344230382D423046372D3739314545314133324237412F747269616E676C65732E62696E636660600000504B0304140006080000CC7062
310
3B000000000000000000000000370000006662782F41393633353835312D344632462D344230382D423046372D3739314545314133324237412F617474726962757465732E62696E504B0304140006080800CC70623B08DA0BD19000000041010000360000006662782F41393633353835312D344632462D344230382D4230
310
46372D3739314545314133324237412F6469726563746F72792E786D6C858F410AC3201045AF22B36F53E9A60B35CBEEBAE80D244E44489C6234F4F835464A48035D0DF398FF9F8AF63D0E6CC63039F212F8F9020C7D47C6792B21C5FE7403D62A1188E2E60C98D7234A5830286103A55745067B9D86B8A3CF9C7F90C11DE6
310
07FB144396D7B6A82D282E9A152AD114D5EF2CB866EEE831B8EEA07A7BB5A8D7D61A2BAAEB7FD5F70921FF497D00504B0304140006080800CC70623BEDD1DC58FD000000A00100003B0000006662782F41393633353835312D344632462D344230382D423046372D3739314545314133324237412F7265736F75726365732F
310
636F72652E786D6C8D504B6E833010BD0A9A6D65B00922041947112427E8052C33A156828DFCA97AFC9A40A576D7CDCCE87D344F8F9FBFE667F689CE6B6B3A6039850C8DB2A336530731DC4903D95970676DF82583CCC8193B5861107C72362E3BA4AC096842428D1D7107A5F7182053CF7474E0D507CE32973124857FE48B
310
540F3961CEF244279DE03EB81420DB9EAC1384436FA353E879B1B182C7A8C75DA3C7F453DF353A1075D537A7BA6464B8F535A99AE14A9A2BBD90E350DD183B5CFABE3AF262350B1EF4FC9351399401471025A527C218A1E53BAB5A5AB765F5469B96525EACF23FA6B88CFF34456DC2A1DCE36E360F82A5202F42F062ED2BAD
310
579969AFDD8A6F504B010214000A0000080000CC70623B3DEE336E79000000790000001B00000000000000000000000000000000006175746F6465736B2D64657369676E2D7061636B6167652E786D6C504B01021400140006080800CC70623BD486FD9CA0000000F40000001300000000000000000000000000B20000005B
310
436F6E74656E745F54797065735D2E786D6C504B01021400140006080800CC70623B853B8169EB0000007C010000080000000000000000000000000083010000636F72652E786D6C504B01021400140006080800CC70623B55019EA25F0000007C000000070000000000000000000000000094020000636E782E786D6C504B
310
01021400140006080800CC70623BDBABAAF470010000D40300000C00000000000000000000000000180300006662782F636F72652E786D6C504B01021400140006080800CC70623B9C113CC27E0000009D0000000B00000000000000000000000000B20400006662782F636E782E786D6C504B01021400140006080800CC70
310
623B7DF2F77C2A010000120200003100000000000000000000000000590500006662782F41393633353835312D344632462D344230382D423046372D3739314545314133324237412F636F72652E786D6C504B01021400140006080800CC70623BAD7543B64E010000330300003000000000000000000000000000D2060000
310
6662782F41393633353835312D344632462D344230382D423046372D3739314545314133324237412F636E782E786D6C504B01021400140006080800CC70623BE75B7789680500003C10000034000000000000000000000000006E0800006662782F41393633353835312D344632462D344230382D423046372D3739314545
310
314133324237412F6F626A656374732E786D6C504B01021400140006080000CC70623B0000000000000000000000003500000000000000000000000000280E00006662782F41393633353835312D344632462D344230382D423046372D3739314545314133324237412F76657274696365732E62696E504B01021400140006
310
080800CC70623BF270F133060000000400000036000000000000000000000000007B0E00006662782F41393633353835312D344632462D344230382D423046372D3739314545314133324237412F747269616E676C65732E62696E504B01021400140006080000CC70623B0000000000000000000000003700000000000000
310
000000000000D50E00006662782F41393633353835312D344632462D344230382D423046372D3739314545314133324237412F617474726962757465732E62696E504B01021400140006080800CC70623B08DA0BD1900000004101000036000000000000000000000000002A0F00006662782F41393633353835312D344632
310
462D344230382D423046372D3739314545314133324237412F6469726563746F72792E786D6C504B01021400140006080800CC70623BEDD1DC58FD000000A00100003B000000000000000000000000000E1000006662782F41393633353835312D344632462D344230382D423046372D3739314545314133324237412F7265
310
736F75726365732F636F72652E786D6C504B0506000000000E000E0080040000641100000000
  0
XRECORD
  5
40DC
102
{ACAD_REACTORS
330
1F7
102
}
330
1F7
100
AcDbXrecord
280
     1
102
MATERIAL
148
0.0
149
0.0
149
0.0
 93
        0
 94
       63
282
     0
 72
     1
 77
     1
171
     1
175
     1
179
     1
273
     0
  0
XRECORD
  5
1F8
102
{ACAD_REACTORS
330
1F7
102
}
330
1F7
100
AcDbXrecord
280
     1
 70
     1
 90
429727718
  1
30362254-06B7-45E0-A893-8CFA70E3D6BC
310
504B03040A0000080000CC70623B3DEE336E79000000790000001B0000006175746F6465736B2D64657369676E2D7061636B6167652E786D6C3C3F786D6C2076657273696F6E3D22312E302220656E636F64696E673D227574662D3822203F3E3C666F726D6174733E3C666F726D61743E687474703A2F2F736368656D612E
310
6175746F6465736B2E636F6D2F64657369676E2D7061636B6167652F323030393C2F666F726D61743E3C2F666F726D6174733E504B0304140006080800CC70623BD486FD9CA0000000F4000000130000005B436F6E74656E745F54797065735D2E786D6C7D8EC10E82300C865F65E91D8A1E8C310C0EEA1BF002731658846E
310
D98AC1B77784ABF1D8FE5FBFBF75BBCE937A534CCEB38643598122B6FEE978D0B0485F9C41B54DDD7D022595594E1A469170414C76A4D9A4D207E29CF43ECE46F218070CC6BECC4078ACAA135ACF422C856C0E68EA1BF5669944DDD7BCDE7B1F8E415D77AECB980613C2E4AC91FC167A2B244592486606FC29C8FD7F045B9A
310
EF7053A7E60B504B0304140006080800CC70623B1EC5D7A3EB0000007C01000008000000636F72652E786D6C8D90416EC3201045AF82665B6103C6756C6122AB4D4ED00B204C5C94182C03558F5F9C3852BBEB6A467FFE9B197D71FC9E6FE8CBACC17AD7032D0820E3B41FAD9B7A48F1820F808E52ACDEC75F36404ECDA687
310
4D0629A6D5A76597B477D1B89855E747B38B2A041301E95B6E7A08FAD3CCAA50296647B8168BD2573599823EBB0CA76447F43862C7BCCF5EAC59410E4DDD9C7973C2755553CCCFA4C603E3040F1565ED3B1FDE4E432BCA0D9622DAF9795FAF464533826484B498524CD807E51D79ED187F21878E10516EF63F505AC67F42C9
310
BA58B1FDDD071640D2FCC87D2045B96591CB3DA85CB7DCE40F504B0304140006080800CC70623B55019EA25F0000007C00000007000000636E782E786D6C4DCB3B0E80201045D1AD90E915ED2CF8AC45050C11660C8261F98AB1B07AC9C97D42D718D865D3E909258CFD00CCE24AC6E326A164D74DC0B4128928FF32603847
310
2BA13128B1252AC747C6BAB984FC68F0B87FE8960A5C09FE86CFB69FBA01504B0304140006080800CC70623B8C9102E971010000D40300000C0000006662782F636F72652E786D6CC5535B6E833010BC8AE5DF0A6C08340F1947A84D4ED00B38C6A128602363A31CBFCB234A53A551FA553EC09AD9F5CE8C31DB9E9B1AF5CA
310
7695D1198E428A91D2D214952E33ECDD315861B4E5CC1AE3BE9561A445A3323CC098B3D21ADFCE9034DA29ED00D5A6503328BA4E398C640D8B0C77F253352214DE4145770A5B214FA2546114020D759C75CE8200340D19DE981F0F6746269C33EFAB6266AB02A655C74A59CCF365BADC27CB5D902ED22848F6340DF238A141
310
BE88E2F57B92BFEDF23523433367AE6A2EEAA455C2A902F398D2751045018D3FA264435F3771F242571B4A1919CA6F9A7C5B3CD9E42BED16F12C776AEB308F40C848FC700B1139D4891EF410CEC810227CC6846F8386402064270EF5C5C709A05E49676C024C61FC95EA45ED154CA5211D1FF4FB8291A913A68E9B83EBBB33
310
E2A7673CDE118E5AE8124C0807CB8377834E366998436B950D7A7746DAD846D4CFD978E0F04FD455FC5D49D2D4C6FE9722321F10997F0F32DC47FE05504B0304140006080800CC70623BFFEA85907E0000009D0000000B0000006662782F636E782E786D6C4DCCD10A83201886E15B91FFDC95D95A811AB6F23E625948A6C3
310
E9D8E5AF46073BFAE0E1E365ED67B3E8ADC3CB78C7815C7240DA3DFC64DCC221C519D7805AC182F7F1EF06C88D9BE6703008B6049F9E274D7A1E938DBB5AE3D6131B2589BA0D3D965551E0B2EA732C9B9A624AAEB41E3A557677029960D9AFB4EF11165F504B0304140006080800CC70623B4FEEA4082C0100001202000031
310
0000006662782F39464131463745442D413632322D343644302D413938332D3331353338454246344243312F636F72652E786D6C8D515B6EC32010BC0AE2AB55850DD871ED0813254D72825EC00192A2C460F1A872FC42ED48ED5F7E00CDCECCCEB26C731F6FE05B39AFADE921293004CA082BB5B9F43086336A21D870E6AC
310
0D7F68109861543DCC30E4ECE26C9C164858139409093556AA051CBC570102714B8F1E7AF1A5C6A11862480C7F2DA6415C878B2A4891CA89C7990F2E050073937C42DE1DB7E4F87ED8A36D4329AA9B3D46DBAEAD504556557BD81DEBDD0761E52CE42C462D17B996298E3E6BE59E35C962CE821E1FF18553435012728A7187
310
0841987E927A8D9B35ADDF70BBC6989599FE4F1427F9A4286A132ABAC49D651EF234CD5CE04CDA78BA3DC2A8FB645D00B9DF8B57E215725C60BCA2A463E54C4CE327C7A65E1C7DB02E7DEFCBF594B864C5CA6CDBD49C957943E9FA5D5FBAF336F90F504B0304140006080800CC70623BAD7543B64E01000033030000300000
310
006662782F39464131463745442D413632322D343644302D413938332D3331353338454246344243312F636E782E786D6CD593CD6EC32010845F0571AD6CE3D48AD20813A9873E410FBD12D82434182C7EAAE6EDBB2424CD25871E7B41D6EC30B3FA84F9E67BB2E40B4234DE8DB46F1925E094D7C6ED479AD3AE5951B2113C
310
789FEE6C943839C1488B4C05DF079FE72A69D8C96C13AAD6B8631503449F83828872B949AC57D26200B826A308D316B4064D6E46FCDA41C05550DC9E483A00797BFD207EFB092A45DE9514C1BBD22178396BD39D891265658C238DEA00936C654E5E433CB65A26D9F6EDB5EBC14EBF49A45CB856E66048291F6939A9A81BB5
310
C8917738143CA680F4AA299D66A042CEB3354A2684DC9D8D178FE0D9B8B41CAAD720F880EE7EF93C0C18769E099ECC04D5A102C8049A8A05632F4DDF376CF1DE0F6BB65C2F8627B65A33C6BB62177CEBBDAD973006829F89F22E814B54F4BC2BE347F8AA8F681390B50FA73F804400B5F542E796F19FF974E7F78DB802FE05
310
E207504B0304140006080800CC70623B16AB87BA640500003C100000340000006662782F39464131463745442D413632322D343644302D413938332D3331353338454246344243312F6F626A656374732E786D6CAD575B6FA33818FD2B887DE6924B3BED8A326A92B68A663B534DD4D13E548A0C38942D60649B369D5FBFC7
310
600890A493BDE42160637FD7F31D7FF63E6FB3D478A55C242CBF3247B66B1A340F5994E4F19559CA8D75611A9F7D8F33263BCB4C232719BD32D5B4E97B316765A1A722BA21652A07B3B7B33F0D11D29C9A46981221AE4C113ED38CD8A4942CA2E2C58E882476BCD9DA23BB5ED8171B73523C0F841684D35CC252CCE79062D4
310
468DFA43D7747CCF51DF7D4FFDEB5593E3AB9CCA9FBEFE241792E4E19EB28198C968BAB8199F5D5A67D3E9C49A9E8F47D6EC76B6B0469F26EEFC7C3EBFBCBEB98462213924694B38DD98FE1D62C393D073EA4FADC5DAF04326852CCF6958F90F0F2B9BB5C48816348F90C7840A68EB78EDF68723159BCEE7891A6B95DDE9D3
310
BCEAEEE8086A6C6F9E5D4B59F0175C10A7A0820BAA5055C7473B5AE3CFDD452D602CD5DF12616444529E90D448938013FE6EFA58AA96F85E4F8C42275708571E98FE6827AF6B2B4AE3D7D83D64E5A64C53054DD3AF90BD06FEA9149565C94FCA0F6B834DC85599E4F2423B24DF0B6AFA979E534DFA9E7A4CC6FA631D486393
310
921829879BF5D781A373557BCB85E97FB90DB62B558F8795179C15944B051F40AB495CF35451D26A4727654E6D8033BD98EF82F21D91FF8AF2DD9982BCF1643BDD4EB516C9492E368C67C88DED563FC36D5EACF66DFF057C3658BDBFA69DF9578B3DA735B64F18C7F20770A9D45CFCF7FCF563D6456A277DBEF78A02637CA2
310
43B90A490AEAB94F72244481D24819A6C0E59B606BFA4B3025981DBB48EAB701D97BF19C577CC77F2D1B6C55A9EF3C732474C0B727303F625995056C3B02963D9EAC146BE78EC5FCEC7FA999EBC5EACBAAE41B12D27B4D2C0BBA49F244E2ECDC81B76B502F113D8F5EE8FB1BE3111CDD4FC2AA9B844CAB1288B68AB90A7CDC
310
1C166AB0D3DC5310625FCC14E779BFD0709F8890A629C9292B1B2DED31A4B0DA928CEE135085754027E3018A397D4D5427D15BD1330B677DC8934285AC3DF45A9EB68FF8F2B8FC0A509AFEECFD0FF2DE25CC6047F7214B195F07EFEB9A094D800F7BFAE8FED187B78EA8A3A400F115961BCAD1215E47C966530AF0EE8128FE
310
58CEBB996A8964FFA529A046635D9353B0336A8F700DDF46271A024E70B0B37C9DE01847591E54DED53D54202AB947E4076556AC49C6CA5C9E1226B7F1A7B1BE15DEED62C41B91E1B3E9AFAAA735036547343A925075041DF0A9979E893B391F8FCFA6967B3EFB644DCF6E5CEBFAE272625DCC6FAF3FB93793C5F90CE1EF57
310
407342756B10D1C489E8953CD1617E5CEECAD6F4EF8914CE5D5D504E5C3F1F9736DA62CFC11E00BCDDB8CC8A9466349744C1F75EBDA4DF09BA8A9E8C7A7E9991989E20E5DBDD6A6003664ED8F7A04A8DBE0DF6EAD9B9AA858342E47399053949D2C146EDB85DE4B176BB0965FBAC19BD19AA918E27FA50C1D22402E144464C
310
59462568E704B6E71915404CB72B8FF4EDE184DDAF753F284990D2C6926782963815403548A70C657FDEF80D2D9CEAA2AE4C1C76F60BFE74219A06527D6582DF6412526107381E55E353090704D085B52408D0933C4ED159D79BDA71BB4BC506F4831350EB6F979CD22D69BF7AC49B91A2C0A9DDA3D5CA36AD20FC478E37E6
310
1844E2352865EBCB6EA275A652E3836BE04EFB400BF1A2556F515F1FBB35B2AB35BD889C744FFA1004B5544B121E57F70215746DD2F5E2C1412B602CBF19455AC6C8E5E9922C4E01E65215385004546899059180EAFCF7A707CE7017CD8CDB0410789AB32C63B91E5CEBBBACB17AC6CD347A022D5075FD106377347AAABA7E
310
7D11590744509B44E205134DC1290F06580320F78E537D3D73540E06CB970B431F185308AD40BBD794D6D77003C5A36E8EAA54BA64597CD8F83BD552A080A365F7FF06504B0304140006080000CC70623B000000000000000000000000350000006662782F39464131463745442D413632322D343644302D413938332D3331
310
353338454246344243312F76657274696365732E62696E504B0304140006080800CC70623BF270F1330600000004000000360000006662782F39464131463745442D413632322D343644302D413938332D3331353338454246344243312F747269616E676C65732E62696E636660600000504B0304140006080000CC70623B
310
000000000000000000000000370000006662782F39464131463745442D413632322D343644302D413938332D3331353338454246344243312F617474726962757465732E62696E504B0304140006080800CC70623B08DA0BD19000000041010000360000006662782F39464131463745442D413632322D343644302D413938
310
332D3331353338454246344243312F6469726563746F72792E786D6C858F410AC3201045AF22B36F53E9A60B35CBEEBAE80D244E44489C6234F4F835464A48035D0DF398FF9F8AF63D0E6CC63039F212F8F9020C7D47C6792B21C5FE7403D62A1188E2E60C98D7234A5830286103A55745067B9D86B8A3CF9C7F90C11DE607
310
FB144396D7B6A82D282E9A152AD114D5EF2CB866EEE831B8EEA07A7BB5A8D7D61A2BAAEB7FD5F70921FF497D00504B0304140006080800CC70623B0D6EF93BFE000000A00100003B0000006662782F39464131463745442D413632322D343644302D413938332D3331353338454246344243312F7265736F75726365732F63
310
6F72652E786D6C8D50596E833010BD0A9ADFCA60B334011947A8694ED00B586642AC041B79A97AFC9A40A5F6AF3F33A3B7689E1E3F7DCD8FEC139DD7D6F4C0720A191A65476DA61E62B892236427C19DB5E1970C322367EC618541F0C9D9B8EC90B226A009093576C41D94DE63804C3DD2D18357379C652E63480A7FCF17A9
310
EE72C29CE5894E3AC17D702940B63D59270887DE46A7D0F36263058F518FBB468FE9A7BE6A7420864373B8D4873369AA8691FA421B3294352543C5CAF65C0F6FEF43CB8BD52C78D0F34F46E550061C419494B6843142CB0F5677F4B52BEB177AEC28E5C52AFF638ACBF84F53D42654E51E77B379102C05791282176B5F693D
310
CB4C7BED567C03504B010214000A0000080000CC70623B3DEE336E79000000790000001B00000000000000000000000000000000006175746F6465736B2D64657369676E2D7061636B6167652E786D6C504B01021400140006080800CC70623BD486FD9CA0000000F40000001300000000000000000000000000B20000005B
310
436F6E74656E745F54797065735D2E786D6C504B01021400140006080800CC70623B1EC5D7A3EB0000007C010000080000000000000000000000000083010000636F72652E786D6C504B01021400140006080800CC70623B55019EA25F0000007C000000070000000000000000000000000094020000636E782E786D6C504B
310
01021400140006080800CC70623B8C9102E971010000D40300000C00000000000000000000000000180300006662782F636F72652E786D6C504B01021400140006080800CC70623BFFEA85907E0000009D0000000B00000000000000000000000000B30400006662782F636E782E786D6C504B01021400140006080800CC70
310
623B4FEEA4082C0100001202000031000000000000000000000000005A0500006662782F39464131463745442D413632322D343644302D413938332D3331353338454246344243312F636F72652E786D6C504B01021400140006080800CC70623BAD7543B64E010000330300003000000000000000000000000000D5060000
310
6662782F39464131463745442D413632322D343644302D413938332D3331353338454246344243312F636E782E786D6C504B01021400140006080800CC70623B16AB87BA640500003C1000003400000000000000000000000000710800006662782F39464131463745442D413632322D343644302D413938332D3331353338
310
454246344243312F6F626A656374732E786D6C504B01021400140006080000CC70623B0000000000000000000000003500000000000000000000000000270E00006662782F39464131463745442D413632322D343644302D413938332D3331353338454246344243312F76657274696365732E62696E504B01021400140006
310
080800CC70623BF270F133060000000400000036000000000000000000000000007A0E00006662782F39464131463745442D413632322D343644302D413938332D3331353338454246344243312F747269616E676C65732E62696E504B01021400140006080000CC70623B0000000000000000000000003700000000000000
310
000000000000D40E00006662782F39464131463745442D413632322D343644302D413938332D3331353338454246344243312F617474726962757465732E62696E504B01021400140006080800CC70623B08DA0BD190000000410100003600000000000000000000000000290F00006662782F39464131463745442D413632
310
322D343644302D413938332D3331353338454246344243312F6469726563746F72792E786D6C504B01021400140006080800CC70623B0D6EF93BFE000000A00100003B000000000000000000000000000D1000006662782F39464131463745442D413632322D343644302D413938332D3331353338454246344243312F7265
310
736F75726365732F636F72652E786D6C504B0506000000000E000E0080040000641100000000
  0
XRECORD
  5
40DE
102
{ACAD_REACTORS
330
173
102
}
330
173
100
AcDbXrecord
280
     1
102
MATERIAL
148
0.0
149
0.0
149
0.0
 93
        0
 94
       63
282
     0
 72
     1
 77
     1
171
     1
175
     1
179
     1
273
     0
  0
XRECORD
  5
175
102
{ACAD_REACTORS
330
173
102
}
330
173
100
AcDbXrecord
280
     1
270
     1
271
     1
  0
XRECORD
  5
174
102
{ACAD_REACTORS
330
173
102
}
330
173
100
AcDbXrecord
280
     1
270
     1
271
     1
  0
XRECORD
  5
1FB
102
{ACAD_REACTORS
330
173
102
}
330
173
100
AcDbXrecord
280
     1
 70
     0
 90
1673772943
  1
ECE7A1D2-D628-4531-984C-D00F80459256
310
504B03040A0000080000CC70623B3DEE336E79000000790000001B0000006175746F6465736B2D64657369676E2D7061636B6167652E786D6C3C3F786D6C2076657273696F6E3D22312E302220656E636F64696E673D227574662D3822203F3E3C666F726D6174733E3C666F726D61743E687474703A2F2F736368656D612E
310
6175746F6465736B2E636F6D2F64657369676E2D7061636B6167652F323030393C2F666F726D61743E3C2F666F726D6174733E504B0304140006080800CC70623BD486FD9CA0000000F4000000130000005B436F6E74656E745F54797065735D2E786D6C7D8EC10E82300C865F65E91D8A1E8C310C0EEA1BF002731658846E
310
D98AC1B77784ABF1D8FE5FBFBF75BBCE937A534CCEB38643598122B6FEE978D0B0485F9C41B54DDD7D022595594E1A469170414C76A4D9A4D207E29CF43ECE46F218070CC6BECC4078ACAA135ACF422C856C0E68EA1BF5669944DDD7BCDE7B1F8E415D77AECB980613C2E4AC91FC167A2B244592486606FC29C8FD7F045B9A
310
EF7053A7E60B504B0304140006080800CC70623BD9DDAED0EC0000007C01000008000000636F72652E786D6C8D90416EC3201045AF82665B61836D9CD8C2444DD39CA01740405C94182C03558F5F9C3852BBEB6A467FFE9B197D7EF89E6EE8CB2CC17A37002D0820E394D7D68D03A478C17B4007C117EFE32F1B20272733C0
310
2A83E0E3E2D3BC49CABB685CCCAAF3DA6CA20CC14440EA969B0182FA34932C648AD911AEC52CD5558EA6A0CF2EC329598D1E47ACCEFBECC59A050463A7EA5833865FEBDD0E37353BE3EE8DBDE3F6786A48D375FBF6CC78B9C282473B3DEFABC5C86834888A900E538A49F5419B9EB47DD5BC907D4F082F57FB1F28CDFA9F50
310
B22ED6D5F6EE030B20687EE43E10BC5CB3C8E51E54AE6B6EE207504B0304140006080800CC70623B55019EA25F0000007C00000007000000636E782E786D6C4DCB3B0E80201045D1AD90E915ED2CF8AC45050C11660C8261F98AB1B07AC9C97D42D718D865D3E909258CFD00CCE24AC6E326A164D74DC0B4128928FF326038
310
472BA13128B1252AC747C6BAB984FC68F0B87FE8960A5C09FE86CFB69FBA01504B0304140006080800CC70623BA24EB22D72010000D40300000C0000006662782F636F72652E786D6CC5535B6E833010BC8AE5DF0A6C5E49888CA3A6694ED00B38E05014B091B1518EDFE511A5A9D228FD2A1F60CDEC7A67C6986DCE4D8D7A
310
69BA4AAB0C073EC548AA5C17952A33ECECD15B61B4E1CC686DBF9561A44423333CC098B3D268D7CE50AE9595CA02AA74216750749DB418E5352C32DCE59FB211BE70162ABA93DF8AFC244AE9073ED050C759670D0840D390E18DF9F1706664C23973AE2A66B62A605A75ACA4C13C4976E1364A12EF355A2EBD384AF65EFA96
310
BC7B8BED2EA6719AAE16FB8491A199335B351775B991C2CA02F390D2D40B028F861F41BCA68B7518BFD0D59A524686F29B26D7164F36B94AD9289CE54E6D1DE6010819891F6E21228B3AD1831EC219194284CF98F06DD01008846CC5A1BEF83801D4CBDC6A1303536877A57A513B0953A94FC707FDBE6064EA84A9E3E6E0FA
310
EE8CF0E9198F7784A316AA0413C2C2F2E0ECA0934D1AE6D05A69BCDE9E91D2A611F573361E38FC1375157F5752AE6B6DFE4B11990F88CCBF0719EE23FF02504B0304140006080800CC70623B408A7D3B7C0000009D0000000B0000006662782F636E782E786D6C4DCCD10A83201886E15B91FFDC552A92A0064DBC8F581632
310
D3703A76F9ABD1C18E3E78F878E5F0D9027ABBFCF2292AE86E2D20171F69F6715550CB827B40839639A5F2770314A7CD293819B45C73AAFB45B35BA61ACAA1C1C7E7855C58C15BC331339661262CC762340413D68D77DA5B42298546CBE6573AF60CEB2F504B0304140006080800CC70623B449FB9BD290100001202000031
310
0000006662782F36394639363044362D344446342D343946362D394244322D3234314243333846323333332F636F72652E786D6C8D515B6EC32010BC0AE22B55850D98B871848994463E412FE002495162B07854397EA176A4F62F3F2C9A9D991D587EB84F37F0AD7D30CEF6905418026DA553C65E7A98E219ED203808EE9D
310
8B7F6810D871D23D2C3014FCE25D9A57483A1BB58D19B54EE9151C43D0110279CB971E06F9A5A7B11A53CC8C70ADE6515EC78BAE4895DB992778883E0700CB907242D17643D7E2538BD869608875438BBAE38922CAC8F1BDD90DB4691A5E2F42C153326A951B95E398B3D1FE599322163C9AE9115F7A3D46ADA0A018778810
310
84E907617BDCEE297BC5BB3DC6BC2EF47FA234AB2745C9D8D8D035EE220B50105E2F0DC1954B9FB747187D9F9D8FA0CCDB042D5FA0C015C65B42DF78BD10F3F3B363CB56C7109DCFDFBBB97E662ED92EB62D13BC2E1BCAE5777DB9966D8A1F504B0304140006080800CC70623BAD7543B64E01000033030000300000006662
310
782F36394639363044362D344446342D343946362D394244322D3234314243333846323333332F636E782E786D6CD593CD6EC32010845F0571AD6CE3D48AD20813A9873E410FBD12D82434182C7EAAE6EDBB2424CD25871E7B41D6EC30B3FA84F9E67BB2E40B4234DE8DB46F1925E094D7C6ED479AD3AE5951B2113C789FEE
310
6C943839C1488B4C05DF079FE72A69D8C96C13AAD6B8631503449F83828872B949AC57D26200B826A308D316B4064D6E46FCDA41C05550DC9E483A00797BFD207EFB092A45DE9514C1BBD22178396BD39D891265658C238DEA00936C654E5E433CB65A26D9F6EDB5EBC14EBF49A45CB856E66048291F6939A9A81BB5C89177
310
38143CA680F4AA299D66A042CEB3354A2684DC9D8D178FE0D9B8B41CAAD720F880EE7EF93C0C18769E099ECC04D5A102C8049A8A05632F4DDF376CF1DE0F6BB65C2F8627B65A33C6BB62177CEBBDAD973006829F89F22E814B54F4BC2BE347F8AA8F681390B50FA73F804400B5F542E796F19FF974E7F78DB802FE05E20750
310
4B0304140006080800CC70623B8D05915C650500003B100000340000006662782F36394639363044362D344446342D343946362D394244322D3234314243333846323333332F6F626A656374732E786D6CAD575B6FA33814FE2B887D06429276DA1565D4266D158D3A339A6846FB502932E050B66023DB74D2FDF5FB190C01
310
9276B2973C046C8ECFF53B17071F77456EBD502133CEAE6CDF9DD81665314F32965ED995DA3A17B6F5310C04E7AA47665B8C14F4CAD6DB7618A48257A5D94AE89654B91AEDDEDDFC61C998326A5B714EA4BCB265FC440BE2924AF184CA6737218AB8E976E7FA6E4338649B0A523E8D98964450A6A029F619B8588D52FE7039
310
B1BD30F0F4F730D0FF866AF6369557DB33949F31A9088B0F848DD8CCFCF9F2767A76E99CCDE733677E3EF59D9BBB9BA5E37F984D16E78BC5E5F5ED25044B25C0C96822E8D60EEFE11B91C581D77CEA34368A1F5329E68CD1B8B61F16D63A1B8E092D294B10C78C4A48EB593D192E7DED9BDEE7995E1B91FDEDD3ACEA9FE831
310
6A756F9F7D4D79F4274C90A7A04248AA51D5F8C718DAE06FB2F75AC4796EBE65D22A88A22223B995679120E2D50E41AA49C260C046A35368846B0BECD0DFF3EBEB8AD4F835768F69B9ADF25C43D30E6B646F807FAA64AD59F61715C7A54127C4AACA98BA3006A9D792DAE165E0D59B61A01FB3A9F9D838D2DAE62445C86166
310
F37564E842E7DE6A69879FEEA2DD5AE7E371E1A5E025154AC307D06A03D73EB5978C58FFA4C8E9033066E0F3BD53BEC1F39F91BE7B55103791EDE6BBB991A2046172CB4581D8B893FA674DDA17A77B3B7C413D1B511FD2743BFF8A38F03A658705E3ADF8015C3A3417FF3D7E439FF591DA0B5F18BC20C1B8981957AE6392A3
310
F43C640C01D1A0B4728E2DD4F26DB4B3C3152A252A3B4E913CEC1C72F012782FF88EFF8637AA552DBEF76408E8A8DE9E50F9E1CB3A2DA0DB1B6039A893B56063DC5B3E3FFB5F72E67AB9FEB4AEC496C4F4C1149625DD662C53E89D7BF0F6151A046260D1337DFDC94502430F83B0EE07A130A224BCAD7DAE1D9FB6CD422FF6
310
920702629C4BB9AE79C12F243C6432A6794E18E5552BA56B431AAB5D91317302B2B071E86C3A42B1A02F999E24061403B5D0EB639195DA655DD3EBEAB4FB862DDF579F014AD0E73C22F99E28DA57FB98E75C6CA2D74D53086D600F4786E0FE3144B771A8A7B900F03594DB8A633CBC49B2EDB69228BB479CF863B5E807AAAB
310
23872F6DFEB4129B949CA33823F58830E86D65621E10047D9DB34D862E8EAC3C2ABC2F7B2C40D67CDFE01F5545B92105AF983AC54D93D69E56FB8E797F88913F898A9FEC705D3F9D1B54EC8426FB500D40A03BD0119B06E1B95DDC7EB8F6975367793EBD70E66733DFB9BC982F9CE564727731999F5D4ECFCE3B8D6A4DC2A0
310
6D50FD148437D110834A64C6CDDF57FBACB5C307A2A477DFE4939736CFEF2B175371E0E10CF0DD1D5C15654E0BCA14D1E87DD02FF93782A162C0A3D95F1524A52770F972BF1EE9809D13CE7DD599467F8ECE9ADD85CE85A34CD45355448C64F9E8A031DC2D596ACC6E5DD93D9B82DE2EF5CAF81363A8E47996A0DE24564A79
310
4115AACE09C55E14540231FDA13C319787134EBF34E3A022514E5B4D9E0826E25C02D5805B15ABE1BEF51B26383D445DD9E875EE33FE4C22DA16427D65A3BCA92CA6D28DD01DF5DC53330704308475351050232CCD31583787BA75774AFB06E5070DD0C8EF484E19968C5D83BA5B90B244D31E54D55A372320FE4786B7EA58
310
44E135AA5467CB7EA333A61683CC6A8C3257034C10CF46F40EF9F5BE59BE5BD30C3C72D235E95D10345C1D45445A5F0BB47E46A5EBE5570F9380B5FA629579952296A773720405982B9DE04011506178964401AA8BDF1FBF0A8EAB6861DD6580C0E38217056766716DAEB2D6FA0917D3E4116581EADB879C4E7CFFB11EFACD
310
3D641311495D92C8676CB409A72D18610D803CE8A626049E8EC1887CB5B44CC39883690DDA8399B4B9855B481E7D71D4A9D22F96E5BB73BF5793020C02137BF837504B0304140006080000CC70623B000000000000000000000000350000006662782F36394639363044362D344446342D343946362D394244322D32343142
310
43333846323333332F76657274696365732E62696E504B0304140006080800CC70623BF270F1330600000004000000360000006662782F36394639363044362D344446342D343946362D394244322D3234314243333846323333332F747269616E676C65732E62696E636660600000504B0304140006080000CC70623B0000
310
00000000000000000000370000006662782F36394639363044362D344446342D343946362D394244322D3234314243333846323333332F617474726962757465732E62696E504B0304140006080800CC70623B08DA0BD19000000041010000360000006662782F36394639363044362D344446342D343946362D394244322D
310
3234314243333846323333332F6469726563746F72792E786D6C858F410AC3201045AF22B36F53E9A60B35CBEEBAE80D244E44489C6234F4F835464A48035D0DF398FF9F8AF63D0E6CC63039F212F8F9020C7D47C6792B21C5FE7403D62A1188E2E60C98D7234A5830286103A55745067B9D86B8A3CF9C7F90C11DE607FB14
310
4396D7B6A82D282E9A152AD114D5EF2CB866EEE831B8EEA07A7BB5A8D7D61A2BAAEB7FD5F70921FF497D00504B0304140006080800CC70623BCA768048FE000000A00100003B0000006662782F36394639363044362D344446342D343946362D394244322D3234314243333846323333332F7265736F75726365732F636F72
310
652E786D6C8D50596E833010BD0A9ADFCA60D600328E9AA639412F609909B1126CE4A5EAF16B0295DABFFECC8CDEA2797AECF8353F924FB44E193D409E5248504B332A3D0D10FC95B4901C39B3C6F85F3248B49871801506CE266BC2B243D2688FDA47549B11775038871E12F988C7004EDE7016A9083E2ADC3D5D84BC8B09
310
D33C8D74D471E6BC8D0192EDC93A815B742658898E651BCB59086ADC356A8C3FD555A1055ED7E7E254D615792D0F075295F585746FF53B694EE78A565DD736979A65AB9933AFE69F8CD2A2F038022F28ED489E135A7CE4554F9BBEA85E68DB53CAB255FEC71496F19FA6A0B42F8B3DEE6673C0F318E4497096AD7DC5F52C33
310
EEB55BFE0D504B010214000A0000080000CC70623B3DEE336E79000000790000001B00000000000000000000000000000000006175746F6465736B2D64657369676E2D7061636B6167652E786D6C504B01021400140006080800CC70623BD486FD9CA0000000F40000001300000000000000000000000000B20000005B436F
310
6E74656E745F54797065735D2E786D6C504B01021400140006080800CC70623BD9DDAED0EC0000007C010000080000000000000000000000000083010000636F72652E786D6C504B01021400140006080800CC70623B55019EA25F0000007C000000070000000000000000000000000095020000636E782E786D6C504B0102
310
1400140006080800CC70623BA24EB22D72010000D40300000C00000000000000000000000000190300006662782F636F72652E786D6C504B01021400140006080800CC70623B408A7D3B7C0000009D0000000B00000000000000000000000000B50400006662782F636E782E786D6C504B01021400140006080800CC70623B
310
449FB9BD290100001202000031000000000000000000000000005A0500006662782F36394639363044362D344446342D343946362D394244322D3234314243333846323333332F636F72652E786D6C504B01021400140006080800CC70623BAD7543B64E010000330300003000000000000000000000000000D20600006662
310
782F36394639363044362D344446342D343946362D394244322D3234314243333846323333332F636E782E786D6C504B01021400140006080800CC70623B8D05915C650500003B10000034000000000000000000000000006E0800006662782F36394639363044362D344446342D343946362D394244322D32343142433338
310
46323333332F6F626A656374732E786D6C504B01021400140006080000CC70623B0000000000000000000000003500000000000000000000000000250E00006662782F36394639363044362D344446342D343946362D394244322D3234314243333846323333332F76657274696365732E62696E504B010214001400060808
310
00CC70623BF270F13306000000040000003600000000000000000000000000780E00006662782F36394639363044362D344446342D343946362D394244322D3234314243333846323333332F747269616E676C65732E62696E504B01021400140006080000CC70623B00000000000000000000000037000000000000000000
310
00000000D20E00006662782F36394639363044362D344446342D343946362D394244322D3234314243333846323333332F617474726962757465732E62696E504B01021400140006080800CC70623B08DA0BD190000000410100003600000000000000000000000000270F00006662782F36394639363044362D344446342D
310
343946362D394244322D3234314243333846323333332F6469726563746F72792E786D6C504B01021400140006080800CC70623BCA768048FE000000A00100003B000000000000000000000000000B1000006662782F36394639363044362D344446342D343946362D394244322D3234314243333846323333332F7265736F
310
75726365732F636F72652E786D6C504B0506000000000E000E0080040000621100000000
  0
XRECORD
  5
176
102
{ACAD_REACTORS
330
173
102
}
330
173
100
AcDbXrecord
280
     1
270
     1
271
     1
  0
XRECORD
  5
177
102
{ACAD_REACTORS
330
173
102
}
330
173
100
AcDbXrecord
280
     1
270
     1
271
     1
  0
XRECORD
  5
4100
102
{ACAD_REACTORS
330
40FF
102
}
330
40FF
100
AcDbXrecord
280
     1
102
ACAD_ROUNDTRIP_2012_MLEADER_STYLE
298
     1
  0
XRECORD
  5
4112
102
{ACAD_REACTORS
330
4111
102
}
330
4111
100
AcDbXrecord
280
     1
102
DISPLAYNAME
  1
Metric50
102
FLAGS
 90
        0
  0
CELLSTYLEMAP
  5
40D2
102
{ACAD_REACTORS
330
162
102
}
330
162
100
AcDbCellStyleMap
 90
        3
300
CELLSTYLE
  1
TABLEFORMAT_BEGIN
 90
        5
170
     1
 91
        0
 92
    32768
 62
   257
 93
        1
300
CONTENTFORMAT
  1
CONTENTFORMAT_BEGIN
 90
        0
 91
        0
 92
      512
 93
        0
300

 40
0.0
140
1.0
 94
        5
 62
     0
340
11
144
6.0
309
CONTENTFORMAT_END
171
     1
301
MARGIN
  1
CELLMARGIN_BEGIN
 40
1.5
 40
1.5
 40
1.5
 40
1.5
 40
4.5
 40
4.5
309
CELLMARGIN_END
 94
        6
 95
        1
302
GRIDFORMAT
  1
GRIDFORMAT_BEGIN
 90
        0
 91
        1
 62
     0
 92
       -2
340
14
 93
        0
 40
1.125
309
GRIDFORMAT_END
 95
        2
302
GRIDFORMAT
  1
GRIDFORMAT_BEGIN
 90
        0
 91
        1
 62
     0
 92
       -2
340
14
 93
        0
 40
1.125
309
GRIDFORMAT_END
 95
        4
302
GRIDFORMAT
  1
GRIDFORMAT_BEGIN
 90
        0
 91
        1
 62
     0
 92
       -2
340
14
 93
        0
 40
1.125
309
GRIDFORMAT_END
 95
        8
302
GRIDFORMAT
  1
GRIDFORMAT_BEGIN
 90
        0
 91
        1
 62
     0
 92
       -2
340
14
 93
        0
 40
1.125
309
GRIDFORMAT_END
 95
       16
302
GRIDFORMAT
  1
GRIDFORMAT_BEGIN
 90
        0
 91
        1
 62
     0
 92
       -2
340
14
 93
        0
 40
1.125
309
GRIDFORMAT_END
 95
       32
302
GRIDFORMAT
  1
GRIDFORMAT_BEGIN
 90
        0
 91
        1
 62
     0
 92
       -2
340
14
 93
        0
 40
1.125
309
GRIDFORMAT_END
309
TABLEFORMAT_END
  1
CELLSTYLE_BEGIN
 90
        1
 91
        1
300
_TITLE
309
CELLSTYLE_END
300
CELLSTYLE
  1
TABLEFORMAT_BEGIN
 90
        5
170
     1
 91
        0
 92
        0
 62
   257
 93
        1
300
CONTENTFORMAT
  1
CONTENTFORMAT_BEGIN
 90
        0
 91
        0
 92
      512
 93
        0
300

 40
0.0
140
1.0
 94
        5
 62
     0
340
11
144
4.5
309
CONTENTFORMAT_END
171
     1
301
MARGIN
  1
CELLMARGIN_BEGIN
 40
1.5
 40
1.5
 40
1.5
 40
1.5
 40
4.5
 40
4.5
309
CELLMARGIN_END
 94
        6
 95
        1
302
GRIDFORMAT
  1
GRIDFORMAT_BEGIN
 90
        0
 91
        1
 62
     0
 92
       -2
340
14
 93
        0
 40
1.125
309
GRIDFORMAT_END
 95
        2
302
GRIDFORMAT
  1
GRIDFORMAT_BEGIN
 90
        0
 91
        1
 62
     0
 92
       -2
340
14
 93
        0
 40
1.125
309
GRIDFORMAT_END
 95
        4
302
GRIDFORMAT
  1
GRIDFORMAT_BEGIN
 90
        0
 91
        1
 62
     0
 92
       -2
340
14
 93
        0
 40
1.125
309
GRIDFORMAT_END
 95
        8
302
GRIDFORMAT
  1
GRIDFORMAT_BEGIN
 90
        0
 91
        1
 62
     0
 92
       -2
340
14
 93
        0
 40
1.125
309
GRIDFORMAT_END
 95
       16
302
GRIDFORMAT
  1
GRIDFORMAT_BEGIN
 90
        0
 91
        1
 62
     0
 92
       -2
340
14
 93
        0
 40
1.125
309
GRIDFORMAT_END
 95
       32
302
GRIDFORMAT
  1
GRIDFORMAT_BEGIN
 90
        0
 91
        1
 62
     0
 92
       -2
340
14
 93
        0
 40
1.125
309
GRIDFORMAT_END
309
TABLEFORMAT_END
  1
CELLSTYLE_BEGIN
 90
        2
 91
        1
300
_HEADER
309
CELLSTYLE_END
300
CELLSTYLE
  1
TABLEFORMAT_BEGIN
 90
        5
170
     1
 91
        0
 92
        0
 62
   257
 93
        1
300
CONTENTFORMAT
  1
CONTENTFORMAT_BEGIN
 90
        0
 91
        0
 92
      512
 93
        0
300

 40
0.0
140
1.0
 94
        2
 62
     0
340
11
144
4.5
309
CONTENTFORMAT_END
171
     1
301
MARGIN
  1
CELLMARGIN_BEGIN
 40
1.5
 40
1.5
 40
1.5
 40
1.5
 40
4.5
 40
4.5
309
CELLMARGIN_END
 94
        6
 95
        1
302
GRIDFORMAT
  1
GRIDFORMAT_BEGIN
 90
        0
 91
        1
 62
     0
 92
       -2
340
14
 93
        0
 40
1.125
309
GRIDFORMAT_END
 95
        2
302
GRIDFORMAT
  1
GRIDFORMAT_BEGIN
 90
        0
 91
        1
 62
     0
 92
       -2
340
14
 93
        0
 40
1.125
309
GRIDFORMAT_END
 95
        4
302
GRIDFORMAT
  1
GRIDFORMAT_BEGIN
 90
        0
 91
        1
 62
     0
 92
       -2
340
14
 93
        0
 40
1.125
309
GRIDFORMAT_END
 95
        8
302
GRIDFORMAT
  1
GRIDFORMAT_BEGIN
 90
        0
 91
        1
 62
     0
 92
       -2
340
14
 93
        0
 40
1.125
309
GRIDFORMAT_END
 95
       16
302
GRIDFORMAT
  1
GRIDFORMAT_BEGIN
 90
        0
 91
        1
 62
     0
 92
       -2
340
14
 93
        0
 40
1.125
309
GRIDFORMAT_END
 95
       32
302
GRIDFORMAT
  1
GRIDFORMAT_BEGIN
 90
        0
 91
        1
 62
     0
 92
       -2
340
14
 93
        0
 40
1.125
309
GRIDFORMAT_END
309
TABLEFORMAT_END
  1
CELLSTYLE_BEGIN
 90
        3
 91
        2
300
_DATA
309
CELLSTYLE_END
  0
XRECORD
  5
40D7
102
{ACAD_REACTORS
330
162
102
}
330
162
100
AcDbXrecord
280
     1
102
ACAD_ROUNDTRIP_PRE2007_TABLESTYLE
 90
      512
 91
        0
  1

 92
      512
 93
        0
  2

 94
      512
 95
        0
  3

  0
XRECORD
  5
40EA
102
{ACAD_REACTORS
330
40E9
102
}
330
40E9
100
AcDbXrecord
280
     1
102
RTVSPost2010Prop28
280
     1
102
RTVSPost2010PropOp28
 70
     1
102
RTVSPost2010Prop29
280
     1
102
RTVSPost2010PropOp29
 70
     1
102
RTVSPost2010Prop30
280
     0
102
RTVSPost2010PropOp30
 70
     1
102
RTVSPost2010Prop31
280
     0
102
RTVSPost2010PropOp31
 70
     1
102
RTVSPost2010Prop32
280
     0
102
RTVSPost2010PropOp32
 70
     1
102
RTVSPost2010Prop33
280
     0
102
RTVSPost2010PropOp33
 70
     1
102
RTVSPost2010Prop34
280
     0
102
RTVSPost2010PropOp34
 70
     1
102
RTVSPost2010Prop35
280
     0
102
RTVSPost2010PropOp35
 70
     1
102
RTVSPost2010Prop36
280
     0
102
RTVSPost2010PropOp36
 70
     1
102
RTVSPost2010Prop37
 90
       50
102
RTVSPost2010PropOp37
 70
     1
102
RTVSPost2010Prop38
140
0.0
102
RTVSPost2010PropOp38
 70
     1
102
RTVSPost2010Prop39
140
1.0
102
RTVSPost2010PropOp39
 70
     1
102
RTVSPost2010Prop40
 90
        0
102
RTVSPost2010PropOp40
 70
     1
102
RTVSPost2010Prop41ColorIndex
 90
       18
102
RTVSPost2010Prop41ColorRGB
 90
        0
102
RTVSPost2010PropOp41
 70
     1
102
RTVSPost2010Prop42
 90
       50
102
RTVSPost2010PropOp42
 70
     1
102
RTVSPost2010Prop43
 90
        3
102
RTVSPost2010PropOp43
 70
     1
102
RTVSPost2010Prop44ColorIndex
 90
        5
102
RTVSPost2010Prop44ColorRGB
 90
      255
102
RTVSPost2010PropOp44
 70
     1
102
RTVSPost2010Prop45
280
     0
102
RTVSPost2010PropOp45
 70
     1
102
RTVSPost2010Prop46
 90
       50
102
RTVSPost2010PropOp46
 70
     1
102
RTVSPost2010Prop47
 90
       50
102
RTVSPost2010PropOp47
 70
     1
102
RTVSPost2010Prop48
 90
       50
102
RTVSPost2010PropOp48
 70
     1
102
RTVSPost2010Prop49
280
     0
102
RTVSPost2010PropOp49
 70
     1
102
RTVSPost2010Prop50
 90
       50
102
RTVSPost2010PropOp50
 70
     1
102
RTVSPost2010Prop51ColorIndex
 90
      256
102
RTVSPost2010Prop51ColorRGB
 90
-16777216
102
RTVSPost2010PropOp51
 70
     0
102
RTVSPost2010Prop52
140
1.0
102
RTVSPost2010PropOp52
 70
     0
102
RTVSPost2010Prop53
 90
        2
102
RTVSPost2010PropOp53
 70
     1
102
RTVSPost2010Prop54
  1
strokes_ogs.tif
102
RTVSPost2010PropOp54
 70
     1
102
RTVSPost2010Prop55
280
     0
102
RTVSPost2010PropOp55
 70
     1
102
RTVSPost2010Prop56
140
1.0
102
RTVSPost2010PropOp56
 70
     1
102
RTVSPost2010Prop57
140
1.0
102
RTVSPost2010PropOp57
 70
     1
102
RTVSPropertyOp0
 70
     1
102
RTVSPropertyOp1
 70
     1
102
RTVSPropertyOp2
 70
     1
102
RTVSPropertyOp3
 70
     1
102
RTVSPropertyOp4
 70
     1
102
RTVSPropertyOp5
 70
     1
102
RTVSPropertyOp6
 70
     1
102
RTVSPropertyOp7
 70
     1
102
RTVSPropertyOp8
 70
     1
102
RTVSPropertyOp9
 70
     1
102
RTVSPropertyOp10
 70
     1
102
RTVSPropertyOp11
 70
     1
102
RTVSPropertyOp12
 70
     1
102
RTVSPropertyOp13
 70
     1
102
RTVSPropertyOp14
 70
     1
102
RTVSPropertyOp15
 70
     1
102
RTVSPropertyOp16
 70
     1
102
RTVSPropertyOp17
 70
     1
102
RTVSPropertyOp18
 70
     1
102
RTVSPropertyOp19
 70
     1
102
RTVSPropertyOp20
 70
     1
102
RTVSPropertyOp21
 70
     1
102
RTVSPropertyOp22
 70
     1
102
RTVSPropertyOp23
 70
     1
102
RTVSPropertyOp24
 70
     1
102
RTVSPropertyOp25
 70
     1
102
RTVSPropertyOp26
 70
     1
102
RTVSPropertyOp27
 70
     1
102
RTVSPropertyOp28
 70
     1
102
RTVSPropertyOp29
 70
     1
102
RTVSPropertyOp30
 70
     1
102
RTVSPropertyOp31
 70
     1
102
RTVSPropertyOp32
 70
     1
102
RTVSPropertyOp33
 70
     1
102
RTVSPropertyOp34
 70
     1
102
RTVSPropertyOp35
 70
     1
102
RTVSPropertyOp36
 70
     1
102
RTVSPropertyOp37
 70
     1
102
RTVSPropertyOp38
 70
     1
102
RTVSPropertyOp39
 70
     1
102
RTVSPropertyOp40
 70
     1
102
RTVSPropertyOp41
 70
     1
102
RTVSPropertyOp42
 70
     1
102
RTVSPropertyOp43
 70
     1
102
RTVSPropertyOp44
 70
     1
102
RTVSPropertyOp45
 70
     1
102
RTVSPropertyOp46
 70
     1
102
RTVSPropertyOp47
 70
     1
102
RTVSPropertyOp48
 70
     1
102
RTVSPropertyOp49
 70
     1
102
RTVSPropertyOp50
 70
     1
102
RTVSPropertyOp51
 70
     0
102
RTVSPropertyOp52
 70
     0
102
RTVSPropertyOp53
 70
     1
102
RTVSPropertyOp54
 70
     1
102
RTVSPropertyOp55
 70
     1
102
RTVSPropertyOp56
 70
     1
102
RTVSPropertyOp57
 70
     1
102
RTVSPropertyOp58
 70
     1
102
RTVSPropertyOp59
 70
     1
102
RTVSPropertyOp60
 70
     1
102
RTVSPropertyOp61
 70
     1
102
RTVSPropertyOp62
 70
     1
  0
XRECORD
  5
40E8
102
{ACAD_REACTORS
330
40E7
102
}
330
40E7
100
AcDbXrecord
280
     1
102
RTVSPost2010Prop28
280
     0
102
RTVSPost2010PropOp28
 70
     1
102
RTVSPost2010Prop29
280
     1
102
RTVSPost2010PropOp29
 70
     1
102
RTVSPost2010Prop30
280
     1
102
RTVSPost2010PropOp30
 70
     1
102
RTVSPost2010Prop31
280
     0
102
RTVSPost2010PropOp31
 70
     1
102
RTVSPost2010Prop32
280
     0
102
RTVSPost2010PropOp32
 70
     1
102
RTVSPost2010Prop33
280
     0
102
RTVSPost2010PropOp33
 70
     1
102
RTVSPost2010Prop34
280
     0
102
RTVSPost2010PropOp34
 70
     1
102
RTVSPost2010Prop35
280
     0
102
RTVSPost2010PropOp35
 70
     1
102
RTVSPost2010Prop36
280
     0
102
RTVSPost2010PropOp36
 70
     1
102
RTVSPost2010Prop37
 90
       50
102
RTVSPost2010PropOp37
 70
     1
102
RTVSPost2010Prop38
140
0.0
102
RTVSPost2010PropOp38
 70
     1
102
RTVSPost2010Prop39
140
1.0
102
RTVSPost2010PropOp39
 70
     1
102
RTVSPost2010Prop40
 90
        0
102
RTVSPost2010PropOp40
 70
     1
102
RTVSPost2010Prop41ColorIndex
 90
       18
102
RTVSPost2010Prop41ColorRGB
 90
        0
102
RTVSPost2010PropOp41
 70
     1
102
RTVSPost2010Prop42
 90
       50
102
RTVSPost2010PropOp42
 70
     1
102
RTVSPost2010Prop43
 90
        3
102
RTVSPost2010PropOp43
 70
     1
102
RTVSPost2010Prop44ColorIndex
 90
        5
102
RTVSPost2010Prop44ColorRGB
 90
      255
102
RTVSPost2010PropOp44
 70
     1
102
RTVSPost2010Prop45
280
     0
102
RTVSPost2010PropOp45
 70
     1
102
RTVSPost2010Prop46
 90
       50
102
RTVSPost2010PropOp46
 70
     1
102
RTVSPost2010Prop47
 90
       50
102
RTVSPost2010PropOp47
 70
     1
102
RTVSPost2010Prop48
 90
       50
102
RTVSPost2010PropOp48
 70
     1
102
RTVSPost2010Prop49
280
     0
102
RTVSPost2010PropOp49
 70
     1
102
RTVSPost2010Prop50
 90
       50
102
RTVSPost2010PropOp50
 70
     1
102
RTVSPost2010Prop51ColorIndex
 90
      256
102
RTVSPost2010Prop51ColorRGB
 90
-16777216
102
RTVSPost2010PropOp51
 70
     0
102
RTVSPost2010Prop52
140
1.0
102
RTVSPost2010PropOp52
 70
     0
102
RTVSPost2010Prop53
 90
        2
102
RTVSPost2010PropOp53
 70
     1
102
RTVSPost2010Prop54
  1
strokes_ogs.tif
102
RTVSPost2010PropOp54
 70
     1
102
RTVSPost2010Prop55
280
     0
102
RTVSPost2010PropOp55
 70
     1
102
RTVSPost2010Prop56
140
1.0
102
RTVSPost2010PropOp56
 70
     1
102
RTVSPost2010Prop57
140
1.0
102
RTVSPost2010PropOp57
 70
     1
102
RTVSPropertyOp0
 70
     1
102
RTVSPropertyOp1
 70
     1
102
RTVSPropertyOp2
 70
     1
102
RTVSPropertyOp3
 70
     1
102
RTVSPropertyOp4
 70
     1
102
RTVSPropertyOp5
 70
     1
102
RTVSPropertyOp6
 70
     1
102
RTVSPropertyOp7
 70
     1
102
RTVSPropertyOp8
 70
     1
102
RTVSPropertyOp9
 70
     1
102
RTVSPropertyOp10
 70
     1
102
RTVSPropertyOp11
 70
     1
102
RTVSPropertyOp12
 70
     1
102
RTVSPropertyOp13
 70
     1
102
RTVSPropertyOp14
 70
     1
102
RTVSPropertyOp15
 70
     1
102
RTVSPropertyOp16
 70
     1
102
RTVSPropertyOp17
 70
     1
102
RTVSPropertyOp18
 70
     1
102
RTVSPropertyOp19
 70
     1
102
RTVSPropertyOp20
 70
     1
102
RTVSPropertyOp21
 70
     1
102
RTVSPropertyOp22
 70
     1
102
RTVSPropertyOp23
 70
     1
102
RTVSPropertyOp24
 70
     1
102
RTVSPropertyOp25
 70
     1
102
RTVSPropertyOp26
 70
     1
102
RTVSPropertyOp27
 70
     1
102
RTVSPropertyOp28
 70
     1
102
RTVSPropertyOp29
 70
     1
102
RTVSPropertyOp30
 70
     1
102
RTVSPropertyOp31
 70
     1
102
RTVSPropertyOp32
 70
     1
102
RTVSPropertyOp33
 70
     1
102
RTVSPropertyOp34
 70
     1
102
RTVSPropertyOp35
 70
     1
102
RTVSPropertyOp36
 70
     1
102
RTVSPropertyOp37
 70
     1
102
RTVSPropertyOp38
 70
     1
102
RTVSPropertyOp39
 70
     1
102
RTVSPropertyOp40
 70
     1
102
RTVSPropertyOp41
 70
     1
102
RTVSPropertyOp42
 70
     1
102
RTVSPropertyOp43
 70
     1
102
RTVSPropertyOp44
 70
     1
102
RTVSPropertyOp45
 70
     1
102
RTVSPropertyOp46
 70
     1
102
RTVSPropertyOp47
 70
     1
102
RTVSPropertyOp48
 70
     1
102
RTVSPropertyOp49
 70
     1
102
RTVSPropertyOp50
 70
     1
102
RTVSPropertyOp51
 70
     0
102
RTVSPropertyOp52
 70
     0
102
RTVSPropertyOp53
 70
     1
102
RTVSPropertyOp54
 70
     1
102
RTVSPropertyOp55
 70
     1
102
RTVSPropertyOp56
 70
     1
102
RTVSPropertyOp57
 70
     1
102
RTVSPropertyOp58
 70
     1
102
RTVSPropertyOp59
 70
     1
102
RTVSPropertyOp60
 70
     1
102
RTVSPropertyOp61
 70
     1
102
RTVSPropertyOp62
 70
     1
  0
XRECORD
  5
40F6
102
{ACAD_REACTORS
330
40F5
102
}
330
40F5
100
AcDbXrecord
280
     1
102
RTVSPost2010Prop28
280
     0
102
RTVSPost2010PropOp28
 70
     1
102
RTVSPost2010Prop29
280
     1
102
RTVSPost2010PropOp29
 70
     1
102
RTVSPost2010Prop30
280
     1
102
RTVSPost2010PropOp30
 70
     1
102
RTVSPost2010Prop31
280
     0
102
RTVSPost2010PropOp31
 70
     1
102
RTVSPost2010Prop32
280
     0
102
RTVSPost2010PropOp32
 70
     1
102
RTVSPost2010Prop33
280
     0
102
RTVSPost2010PropOp33
 70
     1
102
RTVSPost2010Prop34
280
     0
102
RTVSPost2010PropOp34
 70
     1
102
RTVSPost2010Prop35
280
     0
102
RTVSPost2010PropOp35
 70
     1
102
RTVSPost2010Prop36
280
     0
102
RTVSPost2010PropOp36
 70
     1
102
RTVSPost2010Prop37
 90
       50
102
RTVSPost2010PropOp37
 70
     1
102
RTVSPost2010Prop38
140
0.0
102
RTVSPost2010PropOp38
 70
     1
102
RTVSPost2010Prop39
140
1.0
102
RTVSPost2010PropOp39
 70
     1
102
RTVSPost2010Prop40
 90
        0
102
RTVSPost2010PropOp40
 70
     1
102
RTVSPost2010Prop41ColorIndex
 90
       18
102
RTVSPost2010Prop41ColorRGB
 90
        0
102
RTVSPost2010PropOp41
 70
     1
102
RTVSPost2010Prop42
 90
       50
102
RTVSPost2010PropOp42
 70
     1
102
RTVSPost2010Prop43
 90
        3
102
RTVSPost2010PropOp43
 70
     1
102
RTVSPost2010Prop44ColorIndex
 90
        5
102
RTVSPost2010Prop44ColorRGB
 90
      255
102
RTVSPost2010PropOp44
 70
     1
102
RTVSPost2010Prop45
280
     0
102
RTVSPost2010PropOp45
 70
     1
102
RTVSPost2010Prop46
 90
       50
102
RTVSPost2010PropOp46
 70
     1
102
RTVSPost2010Prop47
 90
       50
102
RTVSPost2010PropOp47
 70
     1
102
RTVSPost2010Prop48
 90
       50
102
RTVSPost2010PropOp48
 70
     1
102
RTVSPost2010Prop49
280
     0
102
RTVSPost2010PropOp49
 70
     1
102
RTVSPost2010Prop50
 90
       50
102
RTVSPost2010PropOp50
 70
     1
102
RTVSPost2010Prop51ColorIndex
 90
      256
102
RTVSPost2010Prop51ColorRGB
 90
-16777216
102
RTVSPost2010PropOp51
 70
     0
102
RTVSPost2010Prop52
140
1.0
102
RTVSPost2010PropOp52
 70
     0
102
RTVSPost2010Prop53
 90
        2
102
RTVSPost2010PropOp53
 70
     1
102
RTVSPost2010Prop54
  1
strokes_ogs.tif
102
RTVSPost2010PropOp54
 70
     1
102
RTVSPost2010Prop55
280
     0
102
RTVSPost2010PropOp55
 70
     1
102
RTVSPost2010Prop56
140
1.0
102
RTVSPost2010PropOp56
 70
     1
102
RTVSPost2010Prop57
140
1.0
102
RTVSPost2010PropOp57
 70
     1
102
RTVSPropertyOp0
 70
     1
102
RTVSPropertyOp1
 70
     1
102
RTVSPropertyOp2
 70
     1
102
RTVSPropertyOp3
 70
     1
102
RTVSPropertyOp4
 70
     1
102
RTVSPropertyOp5
 70
     1
102
RTVSPropertyOp6
 70
     1
102
RTVSPropertyOp7
 70
     1
102
RTVSPropertyOp8
 70
     1
102
RTVSPropertyOp9
 70
     1
102
RTVSPropertyOp10
 70
     1
102
RTVSPropertyOp11
 70
     1
102
RTVSPropertyOp12
 70
     1
102
RTVSPropertyOp13
 70
     1
102
RTVSPropertyOp14
 70
     1
102
RTVSPropertyOp15
 70
     1
102
RTVSPropertyOp16
 70
     1
102
RTVSPropertyOp17
 70
     1
102
RTVSPropertyOp18
 70
     1
102
RTVSPropertyOp19
 70
     1
102
RTVSPropertyOp20
 70
     1
102
RTVSPropertyOp21
 70
     1
102
RTVSPropertyOp22
 70
     1
102
RTVSPropertyOp23
 70
     1
102
RTVSPropertyOp24
 70
     1
102
RTVSPropertyOp25
 70
     1
102
RTVSPropertyOp26
 70
     1
102
RTVSPropertyOp27
 70
     1
102
RTVSPropertyOp28
 70
     1
102
RTVSPropertyOp29
 70
     1
102
RTVSPropertyOp30
 70
     1
102
RTVSPropertyOp31
 70
     1
102
RTVSPropertyOp32
 70
     1
102
RTVSPropertyOp33
 70
     1
102
RTVSPropertyOp34
 70
     1
102
RTVSPropertyOp35
 70
     1
102
RTVSPropertyOp36
 70
     1
102
RTVSPropertyOp37
 70
     1
102
RTVSPropertyOp38
 70
     1
102
RTVSPropertyOp39
 70
     1
102
RTVSPropertyOp40
 70
     1
102
RTVSPropertyOp41
 70
     1
102
RTVSPropertyOp42
 70
     1
102
RTVSPropertyOp43
 70
     1
102
RTVSPropertyOp44
 70
     1
102
RTVSPropertyOp45
 70
     1
102
RTVSPropertyOp46
 70
     1
102
RTVSPropertyOp47
 70
     1
102
RTVSPropertyOp48
 70
     1
102
RTVSPropertyOp49
 70
     1
102
RTVSPropertyOp50
 70
     1
102
RTVSPropertyOp51
 70
     0
102
RTVSPropertyOp52
 70
     0
102
RTVSPropertyOp53
 70
     1
102
RTVSPropertyOp54
 70
     1
102
RTVSPropertyOp55
 70
     1
102
RTVSPropertyOp56
 70
     1
102
RTVSPropertyOp57
 70
     1
102
RTVSPropertyOp58
 70
     1
102
RTVSPropertyOp59
 70
     1
102
RTVSPropertyOp60
 70
     1
102
RTVSPropertyOp61
 70
     1
102
RTVSPropertyOp62
 70
     1
  0
XRECORD
  5
40FE
102
{ACAD_REACTORS
330
40FD
102
}
330
40FD
100
AcDbXrecord
280
     1
102
RTVSPost2010Prop28
280
     0
102
RTVSPost2010PropOp28
 70
     1
102
RTVSPost2010Prop29
280
     1
102
RTVSPost2010PropOp29
 70
     1
102
RTVSPost2010Prop30
280
     1
102
RTVSPost2010PropOp30
 70
     1
102
RTVSPost2010Prop31
280
     0
102
RTVSPost2010PropOp31
 70
     1
102
RTVSPost2010Prop32
280
     0
102
RTVSPost2010PropOp32
 70
     1
102
RTVSPost2010Prop33
280
     0
102
RTVSPost2010PropOp33
 70
     1
102
RTVSPost2010Prop34
280
     0
102
RTVSPost2010PropOp34
 70
     1
102
RTVSPost2010Prop35
280
     0
102
RTVSPost2010PropOp35
 70
     1
102
RTVSPost2010Prop36
280
     0
102
RTVSPost2010PropOp36
 70
     1
102
RTVSPost2010Prop37
 90
       50
102
RTVSPost2010PropOp37
 70
     1
102
RTVSPost2010Prop38
140
0.0
102
RTVSPost2010PropOp38
 70
     1
102
RTVSPost2010Prop39
140
1.0
102
RTVSPost2010PropOp39
 70
     1
102
RTVSPost2010Prop40
 90
        0
102
RTVSPost2010PropOp40
 70
     1
102
RTVSPost2010Prop41ColorIndex
 90
       18
102
RTVSPost2010Prop41ColorRGB
 90
        0
102
RTVSPost2010PropOp41
 70
     1
102
RTVSPost2010Prop42
 90
       50
102
RTVSPost2010PropOp42
 70
     1
102
RTVSPost2010Prop43
 90
        3
102
RTVSPost2010PropOp43
 70
     1
102
RTVSPost2010Prop44ColorIndex
 90
        5
102
RTVSPost2010Prop44ColorRGB
 90
      255
102
RTVSPost2010PropOp44
 70
     1
102
RTVSPost2010Prop45
280
     0
102
RTVSPost2010PropOp45
 70
     1
102
RTVSPost2010Prop46
 90
       50
102
RTVSPost2010PropOp46
 70
     1
102
RTVSPost2010Prop47
 90
       50
102
RTVSPost2010PropOp47
 70
     1
102
RTVSPost2010Prop48
 90
       50
102
RTVSPost2010PropOp48
 70
     1
102
RTVSPost2010Prop49
280
     0
102
RTVSPost2010PropOp49
 70
     1
102
RTVSPost2010Prop50
 90
       50
102
RTVSPost2010PropOp50
 70
     1
102
RTVSPost2010Prop51ColorIndex
 90
      256
102
RTVSPost2010Prop51ColorRGB
 90
-16777216
102
RTVSPost2010PropOp51
 70
     0
102
RTVSPost2010Prop52
140
1.0
102
RTVSPost2010PropOp52
 70
     0
102
RTVSPost2010Prop53
 90
        2
102
RTVSPost2010PropOp53
 70
     1
102
RTVSPost2010Prop54
  1
strokes_ogs.tif
102
RTVSPost2010PropOp54
 70
     1
102
RTVSPost2010Prop55
280
     0
102
RTVSPost2010PropOp55
 70
     1
102
RTVSPost2010Prop56
140
1.0
102
RTVSPost2010PropOp56
 70
     1
102
RTVSPost2010Prop57
140
1.0
102
RTVSPost2010PropOp57
 70
     1
102
RTVSPropertyOp0
 70
     1
102
RTVSPropertyOp1
 70
     1
102
RTVSPropertyOp2
 70
     1
102
RTVSPropertyOp3
 70
     1
102
RTVSPropertyOp4
 70
     1
102
RTVSPropertyOp5
 70
     1
102
RTVSPropertyOp6
 70
     1
102
RTVSPropertyOp7
 70
     1
102
RTVSPropertyOp8
 70
     1
102
RTVSPropertyOp9
 70
     1
102
RTVSPropertyOp10
 70
     1
102
RTVSPropertyOp11
 70
     1
102
RTVSPropertyOp12
 70
     1
102
RTVSPropertyOp13
 70
     1
102
RTVSPropertyOp14
 70
     1
102
RTVSPropertyOp15
 70
     1
102
RTVSPropertyOp16
 70
     1
102
RTVSPropertyOp17
 70
     1
102
RTVSPropertyOp18
 70
     1
102
RTVSPropertyOp19
 70
     1
102
RTVSPropertyOp20
 70
     1
102
RTVSPropertyOp21
 70
     1
102
RTVSPropertyOp22
 70
     1
102
RTVSPropertyOp23
 70
     1
102
RTVSPropertyOp24
 70
     1
102
RTVSPropertyOp25
 70
     1
102
RTVSPropertyOp26
 70
     1
102
RTVSPropertyOp27
 70
     1
102
RTVSPropertyOp28
 70
     1
102
RTVSPropertyOp29
 70
     1
102
RTVSPropertyOp30
 70
     1
102
RTVSPropertyOp31
 70
     1
102
RTVSPropertyOp32
 70
     1
102
RTVSPropertyOp33
 70
     1
102
RTVSPropertyOp34
 70
     1
102
RTVSPropertyOp35
 70
     1
102
RTVSPropertyOp36
 70
     1
102
RTVSPropertyOp37
 70
     1
102
RTVSPropertyOp38
 70
     1
102
RTVSPropertyOp39
 70
     1
102
RTVSPropertyOp40
 70
     1
102
RTVSPropertyOp41
 70
     1
102
RTVSPropertyOp42
 70
     1
102
RTVSPropertyOp43
 70
     1
102
RTVSPropertyOp44
 70
     1
102
RTVSPropertyOp45
 70
     1
102
RTVSPropertyOp46
 70
     1
102
RTVSPropertyOp47
 70
     1
102
RTVSPropertyOp48
 70
     1
102
RTVSPropertyOp49
 70
     1
102
RTVSPropertyOp50
 70
     1
102
RTVSPropertyOp51
 70
     0
102
RTVSPropertyOp52
 70
     0
102
RTVSPropertyOp53
 70
     1
102
RTVSPropertyOp54
 70
     1
102
RTVSPropertyOp55
 70
     1
102
RTVSPropertyOp56
 70
     1
102
RTVSPropertyOp57
 70
     1
102
RTVSPropertyOp58
 70
     1
102
RTVSPropertyOp59
 70
     1
102
RTVSPropertyOp60
 70
     1
102
RTVSPropertyOp61
 70
     1
102
RTVSPropertyOp62
 70
     1
  0
XRECORD
  5
40F0
102
{ACAD_REACTORS
330
40EF
102
}
330
40EF
100
AcDbXrecord
280
     1
102
RTVSPost2010Prop28
280
     0
102
RTVSPost2010PropOp28
 70
     1
102
RTVSPost2010Prop29
280
     1
102
RTVSPost2010PropOp29
 70
     1
102
RTVSPost2010Prop30
280
     1
102
RTVSPost2010PropOp30
 70
     1
102
RTVSPost2010Prop31
280
     0
102
RTVSPost2010PropOp31
 70
     1
102
RTVSPost2010Prop32
280
     0
102
RTVSPost2010PropOp32
 70
     1
102
RTVSPost2010Prop33
280
     0
102
RTVSPost2010PropOp33
 70
     1
102
RTVSPost2010Prop34
280
     0
102
RTVSPost2010PropOp34
 70
     1
102
RTVSPost2010Prop35
280
     0
102
RTVSPost2010PropOp35
 70
     1
102
RTVSPost2010Prop36
280
     0
102
RTVSPost2010PropOp36
 70
     1
102
RTVSPost2010Prop37
 90
       50
102
RTVSPost2010PropOp37
 70
     1
102
RTVSPost2010Prop38
140
0.0
102
RTVSPost2010PropOp38
 70
     1
102
RTVSPost2010Prop39
140
1.0
102
RTVSPost2010PropOp39
 70
     1
102
RTVSPost2010Prop40
 90
        0
102
RTVSPost2010PropOp40
 70
     1
102
RTVSPost2010Prop41ColorIndex
 90
       18
102
RTVSPost2010Prop41ColorRGB
 90
        0
102
RTVSPost2010PropOp41
 70
     1
102
RTVSPost2010Prop42
 90
       50
102
RTVSPost2010PropOp42
 70
     1
102
RTVSPost2010Prop43
 90
        3
102
RTVSPost2010PropOp43
 70
     1
102
RTVSPost2010Prop44ColorIndex
 90
        5
102
RTVSPost2010Prop44ColorRGB
 90
      255
102
RTVSPost2010PropOp44
 70
     1
102
RTVSPost2010Prop45
280
     0
102
RTVSPost2010PropOp45
 70
     1
102
RTVSPost2010Prop46
 90
       50
102
RTVSPost2010PropOp46
 70
     1
102
RTVSPost2010Prop47
 90
       50
102
RTVSPost2010PropOp47
 70
     1
102
RTVSPost2010Prop48
 90
       50
102
RTVSPost2010PropOp48
 70
     1
102
RTVSPost2010Prop49
280
     0
102
RTVSPost2010PropOp49
 70
     1
102
RTVSPost2010Prop50
 90
       50
102
RTVSPost2010PropOp50
 70
     1
102
RTVSPost2010Prop51ColorIndex
 90
      256
102
RTVSPost2010Prop51ColorRGB
 90
-16777216
102
RTVSPost2010PropOp51
 70
     0
102
RTVSPost2010Prop52
140
1.0
102
RTVSPost2010PropOp52
 70
     0
102
RTVSPost2010Prop53
 90
        2
102
RTVSPost2010PropOp53
 70
     1
102
RTVSPost2010Prop54
  1
strokes_ogs.tif
102
RTVSPost2010PropOp54
 70
     1
102
RTVSPost2010Prop55
280
     0
102
RTVSPost2010PropOp55
 70
     1
102
RTVSPost2010Prop56
140
1.0
102
RTVSPost2010PropOp56
 70
     1
102
RTVSPost2010Prop57
140
1.0
102
RTVSPost2010PropOp57
 70
     1
102
RTVSPropertyOp0
 70
     1
102
RTVSPropertyOp1
 70
     1
102
RTVSPropertyOp2
 70
     1
102
RTVSPropertyOp3
 70
     1
102
RTVSPropertyOp4
 70
     1
102
RTVSPropertyOp5
 70
     1
102
RTVSPropertyOp6
 70
     1
102
RTVSPropertyOp7
 70
     1
102
RTVSPropertyOp8
 70
     1
102
RTVSPropertyOp9
 70
     1
102
RTVSPropertyOp10
 70
     1
102
RTVSPropertyOp11
 70
     1
102
RTVSPropertyOp12
 70
     1
102
RTVSPropertyOp13
 70
     1
102
RTVSPropertyOp14
 70
     1
102
RTVSPropertyOp15
 70
     1
102
RTVSPropertyOp16
 70
     1
102
RTVSPropertyOp17
 70
     1
102
RTVSPropertyOp18
 70
     1
102
RTVSPropertyOp19
 70
     1
102
RTVSPropertyOp20
 70
     1
102
RTVSPropertyOp21
 70
     1
102
RTVSPropertyOp22
 70
     1
102
RTVSPropertyOp23
 70
     1
102
RTVSPropertyOp24
 70
     1
102
RTVSPropertyOp25
 70
     1
102
RTVSPropertyOp26
 70
     1
102
RTVSPropertyOp27
 70
     1
102
RTVSPropertyOp28
 70
     1
102
RTVSPropertyOp29
 70
     1
102
RTVSPropertyOp30
 70
     1
102
RTVSPropertyOp31
 70
     1
102
RTVSPropertyOp32
 70
     1
102
RTVSPropertyOp33
 70
     1
102
RTVSPropertyOp34
 70
     1
102
RTVSPropertyOp35
 70
     1
102
RTVSPropertyOp36
 70
     1
102
RTVSPropertyOp37
 70
     1
102
RTVSPropertyOp38
 70
     1
102
RTVSPropertyOp39
 70
     1
102
RTVSPropertyOp40
 70
     1
102
RTVSPropertyOp41
 70
     1
102
RTVSPropertyOp42
 70
     1
102
RTVSPropertyOp43
 70
     1
102
RTVSPropertyOp44
 70
     1
102
RTVSPropertyOp45
 70
     1
102
RTVSPropertyOp46
 70
     1
102
RTVSPropertyOp47
 70
     1
102
RTVSPropertyOp48
 70
     1
102
RTVSPropertyOp49
 70
     1
102
RTVSPropertyOp50
 70
     1
102
RTVSPropertyOp51
 70
     0
102
RTVSPropertyOp52
 70
     0
102
RTVSPropertyOp53
 70
     1
102
RTVSPropertyOp54
 70
     1
102
RTVSPropertyOp55
 70
     1
102
RTVSPropertyOp56
 70
     1
102
RTVSPropertyOp57
 70
     1
102
RTVSPropertyOp58
 70
     1
102
RTVSPropertyOp59
 70
     1
102
RTVSPropertyOp60
 70
     1
102
RTVSPropertyOp61
 70
     1
102
RTVSPropertyOp62
 70
     1
  0
XRECORD
  5
40F4
102
{ACAD_REACTORS
330
40F3
102
}
330
40F3
100
AcDbXrecord
280
     1
102
RTVSPost2010Prop28
280
     0
102
RTVSPost2010PropOp28
 70
     1
102
RTVSPost2010Prop29
280
     1
102
RTVSPost2010PropOp29
 70
     1
102
RTVSPost2010Prop30
280
     1
102
RTVSPost2010PropOp30
 70
     1
102
RTVSPost2010Prop31
280
     0
102
RTVSPost2010PropOp31
 70
     1
102
RTVSPost2010Prop32
280
     0
102
RTVSPost2010PropOp32
 70
     1
102
RTVSPost2010Prop33
280
     0
102
RTVSPost2010PropOp33
 70
     1
102
RTVSPost2010Prop34
280
     0
102
RTVSPost2010PropOp34
 70
     1
102
RTVSPost2010Prop35
280
     0
102
RTVSPost2010PropOp35
 70
     1
102
RTVSPost2010Prop36
280
     0
102
RTVSPost2010PropOp36
 70
     1
102
RTVSPost2010Prop37
 90
       50
102
RTVSPost2010PropOp37
 70
     1
102
RTVSPost2010Prop38
140
0.0
102
RTVSPost2010PropOp38
 70
     1
102
RTVSPost2010Prop39
140
1.0
102
RTVSPost2010PropOp39
 70
     1
102
RTVSPost2010Prop40
 90
        0
102
RTVSPost2010PropOp40
 70
     1
102
RTVSPost2010Prop41ColorIndex
 90
       18
102
RTVSPost2010Prop41ColorRGB
 90
        0
102
RTVSPost2010PropOp41
 70
     1
102
RTVSPost2010Prop42
 90
       50
102
RTVSPost2010PropOp42
 70
     1
102
RTVSPost2010Prop43
 90
        3
102
RTVSPost2010PropOp43
 70
     1
102
RTVSPost2010Prop44ColorIndex
 90
        5
102
RTVSPost2010Prop44ColorRGB
 90
      255
102
RTVSPost2010PropOp44
 70
     1
102
RTVSPost2010Prop45
280
     0
102
RTVSPost2010PropOp45
 70
     1
102
RTVSPost2010Prop46
 90
       50
102
RTVSPost2010PropOp46
 70
     1
102
RTVSPost2010Prop47
 90
       50
102
RTVSPost2010PropOp47
 70
     1
102
RTVSPost2010Prop48
 90
       50
102
RTVSPost2010PropOp48
 70
     1
102
RTVSPost2010Prop49
280
     0
102
RTVSPost2010PropOp49
 70
     1
102
RTVSPost2010Prop50
 90
       50
102
RTVSPost2010PropOp50
 70
     1
102
RTVSPost2010Prop51ColorIndex
 90
      256
102
RTVSPost2010Prop51ColorRGB
 90
-16777216
102
RTVSPost2010PropOp51
 70
     0
102
RTVSPost2010Prop52
140
1.0
102
RTVSPost2010PropOp52
 70
     0
102
RTVSPost2010Prop53
 90
        2
102
RTVSPost2010PropOp53
 70
     1
102
RTVSPost2010Prop54
  1
strokes_ogs.tif
102
RTVSPost2010PropOp54
 70
     1
102
RTVSPost2010Prop55
280
     0
102
RTVSPost2010PropOp55
 70
     1
102
RTVSPost2010Prop56
140
1.0
102
RTVSPost2010PropOp56
 70
     1
102
RTVSPost2010Prop57
140
1.0
102
RTVSPost2010PropOp57
 70
     1
102
RTVSPropertyOp0
 70
     1
102
RTVSPropertyOp1
 70
     1
102
RTVSPropertyOp2
 70
     1
102
RTVSPropertyOp3
 70
     1
102
RTVSPropertyOp4
 70
     1
102
RTVSPropertyOp5
 70
     1
102
RTVSPropertyOp6
 70
     1
102
RTVSPropertyOp7
 70
     1
102
RTVSPropertyOp8
 70
     1
102
RTVSPropertyOp9
 70
     1
102
RTVSPropertyOp10
 70
     1
102
RTVSPropertyOp11
 70
     1
102
RTVSPropertyOp12
 70
     1
102
RTVSPropertyOp13
 70
     1
102
RTVSPropertyOp14
 70
     1
102
RTVSPropertyOp15
 70
     1
102
RTVSPropertyOp16
 70
     1
102
RTVSPropertyOp17
 70
     1
102
RTVSPropertyOp18
 70
     1
102
RTVSPropertyOp19
 70
     1
102
RTVSPropertyOp20
 70
     1
102
RTVSPropertyOp21
 70
     1
102
RTVSPropertyOp22
 70
     1
102
RTVSPropertyOp23
 70
     1
102
RTVSPropertyOp24
 70
     1
102
RTVSPropertyOp25
 70
     1
102
RTVSPropertyOp26
 70
     1
102
RTVSPropertyOp27
 70
     1
102
RTVSPropertyOp28
 70
     1
102
RTVSPropertyOp29
 70
     1
102
RTVSPropertyOp30
 70
     1
102
RTVSPropertyOp31
 70
     1
102
RTVSPropertyOp32
 70
     1
102
RTVSPropertyOp33
 70
     1
102
RTVSPropertyOp34
 70
     1
102
RTVSPropertyOp35
 70
     1
102
RTVSPropertyOp36
 70
     1
102
RTVSPropertyOp37
 70
     1
102
RTVSPropertyOp38
 70
     1
102
RTVSPropertyOp39
 70
     1
102
RTVSPropertyOp40
 70
     1
102
RTVSPropertyOp41
 70
     1
102
RTVSPropertyOp42
 70
     1
102
RTVSPropertyOp43
 70
     1
102
RTVSPropertyOp44
 70
     1
102
RTVSPropertyOp45
 70
     1
102
RTVSPropertyOp46
 70
     1
102
RTVSPropertyOp47
 70
     1
102
RTVSPropertyOp48
 70
     1
102
RTVSPropertyOp49
 70
     1
102
RTVSPropertyOp50
 70
     1
102
RTVSPropertyOp51
 70
     0
102
RTVSPropertyOp52
 70
     0
102
RTVSPropertyOp53
 70
     1
102
RTVSPropertyOp54
 70
     1
102
RTVSPropertyOp55
 70
     1
102
RTVSPropertyOp56
 70
     1
102
RTVSPropertyOp57
 70
     1
102
RTVSPropertyOp58
 70
     1
102
RTVSPropertyOp59
 70
     1
102
RTVSPropertyOp60
 70
     1
102
RTVSPropertyOp61
 70
     1
102
RTVSPropertyOp62
 70
     1
  0
XRECORD
  5
4106
102
{ACAD_REACTORS
330
4105
102
}
330
4105
100
AcDbXrecord
280
     1
102
RTVSPost2010Prop28
280
     0
102
RTVSPost2010PropOp28
 70
     1
102
RTVSPost2010Prop29
280
     1
102
RTVSPost2010PropOp29
 70
     1
102
RTVSPost2010Prop30
280
     1
102
RTVSPost2010PropOp30
 70
     1
102
RTVSPost2010Prop31
280
     0
102
RTVSPost2010PropOp31
 70
     1
102
RTVSPost2010Prop32
280
     0
102
RTVSPost2010PropOp32
 70
     1
102
RTVSPost2010Prop33
280
     0
102
RTVSPost2010PropOp33
 70
     1
102
RTVSPost2010Prop34
280
     0
102
RTVSPost2010PropOp34
 70
     1
102
RTVSPost2010Prop35
280
     0
102
RTVSPost2010PropOp35
 70
     1
102
RTVSPost2010Prop36
280
     0
102
RTVSPost2010PropOp36
 70
     1
102
RTVSPost2010Prop37
 90
       50
102
RTVSPost2010PropOp37
 70
     1
102
RTVSPost2010Prop38
140
0.0
102
RTVSPost2010PropOp38
 70
     1
102
RTVSPost2010Prop39
140
1.0
102
RTVSPost2010PropOp39
 70
     1
102
RTVSPost2010Prop40
 90
        0
102
RTVSPost2010PropOp40
 70
     1
102
RTVSPost2010Prop41ColorIndex
 90
       18
102
RTVSPost2010Prop41ColorRGB
 90
        0
102
RTVSPost2010PropOp41
 70
     1
102
RTVSPost2010Prop42
 90
       50
102
RTVSPost2010PropOp42
 70
     1
102
RTVSPost2010Prop43
 90
        3
102
RTVSPost2010PropOp43
 70
     1
102
RTVSPost2010Prop44ColorIndex
 90
        5
102
RTVSPost2010Prop44ColorRGB
 90
      255
102
RTVSPost2010PropOp44
 70
     1
102
RTVSPost2010Prop45
280
     0
102
RTVSPost2010PropOp45
 70
     1
102
RTVSPost2010Prop46
 90
       50
102
RTVSPost2010PropOp46
 70
     1
102
RTVSPost2010Prop47
 90
       50
102
RTVSPost2010PropOp47
 70
     1
102
RTVSPost2010Prop48
 90
       50
102
RTVSPost2010PropOp48
 70
     1
102
RTVSPost2010Prop49
280
     0
102
RTVSPost2010PropOp49
 70
     1
102
RTVSPost2010Prop50
 90
       50
102
RTVSPost2010PropOp50
 70
     1
102
RTVSPost2010Prop51ColorIndex
 90
      256
102
RTVSPost2010Prop51ColorRGB
 90
-16777216
102
RTVSPost2010PropOp51
 70
     0
102
RTVSPost2010Prop52
140
1.0
102
RTVSPost2010PropOp52
 70
     0
102
RTVSPost2010Prop53
 90
        2
102
RTVSPost2010PropOp53
 70
     1
102
RTVSPost2010Prop54
  1
strokes_ogs.tif
102
RTVSPost2010PropOp54
 70
     1
102
RTVSPost2010Prop55
280
     0
102
RTVSPost2010PropOp55
 70
     1
102
RTVSPost2010Prop56
140
1.0
102
RTVSPost2010PropOp56
 70
     1
102
RTVSPost2010Prop57
140
1.0
102
RTVSPost2010PropOp57
 70
     1
102
RTVSPropertyOp0
 70
     0
102
RTVSPropertyOp1
 70
     0
102
RTVSPropertyOp2
 70
     0
102
RTVSPropertyOp3
 70
     0
102
RTVSPropertyOp4
 70
     0
102
RTVSPropertyOp5
 70
     0
102
RTVSPropertyOp6
 70
     0
102
RTVSPropertyOp7
 70
     0
102
RTVSPropertyOp8
 70
     0
102
RTVSPropertyOp9
 70
     0
102
RTVSPropertyOp10
 70
     0
102
RTVSPropertyOp11
 70
     0
102
RTVSPropertyOp12
 70
     0
102
RTVSPropertyOp13
 70
     0
102
RTVSPropertyOp14
 70
     2
102
RTVSPropertyOp15
 70
     0
102
RTVSPropertyOp16
 70
     0
102
RTVSPropertyOp17
 70
     0
102
RTVSPropertyOp18
 70
     0
102
RTVSPropertyOp19
 70
     0
102
RTVSPropertyOp20
 70
     0
102
RTVSPropertyOp21
 70
     0
102
RTVSPropertyOp22
 70
     0
102
RTVSPropertyOp23
 70
     0
102
RTVSPropertyOp24
 70
     0
102
RTVSPropertyOp25
 70
     0
102
RTVSPropertyOp26
 70
     0
102
RTVSPropertyOp27
 70
     0
102
RTVSPropertyOp28
 70
     1
102
RTVSPropertyOp29
 70
     1
102
RTVSPropertyOp30
 70
     1
102
RTVSPropertyOp31
 70
     1
102
RTVSPropertyOp32
 70
     1
102
RTVSPropertyOp33
 70
     1
102
RTVSPropertyOp34
 70
     1
102
RTVSPropertyOp35
 70
     1
102
RTVSPropertyOp36
 70
     1
102
RTVSPropertyOp37
 70
     1
102
RTVSPropertyOp38
 70
     1
102
RTVSPropertyOp39
 70
     1
102
RTVSPropertyOp40
 70
     1
102
RTVSPropertyOp41
 70
     1
102
RTVSPropertyOp42
 70
     1
102
RTVSPropertyOp43
 70
     1
102
RTVSPropertyOp44
 70
     1
102
RTVSPropertyOp45
 70
     1
102
RTVSPropertyOp46
 70
     1
102
RTVSPropertyOp47
 70
     1
102
RTVSPropertyOp48
 70
     1
102
RTVSPropertyOp49
 70
     1
102
RTVSPropertyOp50
 70
     1
102
RTVSPropertyOp51
 70
     0
102
RTVSPropertyOp52
 70
     0
102
RTVSPropertyOp53
 70
     1
102
RTVSPropertyOp54
 70
     1
102
RTVSPropertyOp55
 70
     1
102
RTVSPropertyOp56
 70
     1
102
RTVSPropertyOp57
 70
     1
102
RTVSPropertyOp58
 70
     1
102
RTVSPropertyOp59
 70
     1
102
RTVSPropertyOp60
 70
     1
102
RTVSPropertyOp61
 70
     1
102
RTVSPropertyOp62
 70
     1
  0
XRECORD
  5
40FC
102
{ACAD_REACTORS
330
40FB
102
}
330
40FB
100
AcDbXrecord
280
     1
102
RTVSPost2010Prop28
280
     0
102
RTVSPost2010PropOp28
 70
     1
102
RTVSPost2010Prop29
280
     1
102
RTVSPost2010PropOp29
 70
     1
102
RTVSPost2010Prop30
280
     1
102
RTVSPost2010PropOp30
 70
     1
102
RTVSPost2010Prop31
280
     0
102
RTVSPost2010PropOp31
 70
     1
102
RTVSPost2010Prop32
280
     0
102
RTVSPost2010PropOp32
 70
     1
102
RTVSPost2010Prop33
280
     0
102
RTVSPost2010PropOp33
 70
     1
102
RTVSPost2010Prop34
280
     0
102
RTVSPost2010PropOp34
 70
     1
102
RTVSPost2010Prop35
280
     0
102
RTVSPost2010PropOp35
 70
     1
102
RTVSPost2010Prop36
280
     0
102
RTVSPost2010PropOp36
 70
     1
102
RTVSPost2010Prop37
 90
       50
102
RTVSPost2010PropOp37
 70
     1
102
RTVSPost2010Prop38
140
0.0
102
RTVSPost2010PropOp38
 70
     1
102
RTVSPost2010Prop39
140
1.0
102
RTVSPost2010PropOp39
 70
     1
102
RTVSPost2010Prop40
 90
        0
102
RTVSPost2010PropOp40
 70
     1
102
RTVSPost2010Prop41ColorIndex
 90
       18
102
RTVSPost2010Prop41ColorRGB
 90
        0
102
RTVSPost2010PropOp41
 70
     1
102
RTVSPost2010Prop42
 90
       50
102
RTVSPost2010PropOp42
 70
     1
102
RTVSPost2010Prop43
 90
        3
102
RTVSPost2010PropOp43
 70
     1
102
RTVSPost2010Prop44ColorIndex
 90
        5
102
RTVSPost2010Prop44ColorRGB
 90
      255
102
RTVSPost2010PropOp44
 70
     1
102
RTVSPost2010Prop45
280
     0
102
RTVSPost2010PropOp45
 70
     1
102
RTVSPost2010Prop46
 90
       50
102
RTVSPost2010PropOp46
 70
     1
102
RTVSPost2010Prop47
 90
       50
102
RTVSPost2010PropOp47
 70
     1
102
RTVSPost2010Prop48
 90
       50
102
RTVSPost2010PropOp48
 70
     1
102
RTVSPost2010Prop49
280
     0
102
RTVSPost2010PropOp49
 70
     1
102
RTVSPost2010Prop50
 90
       50
102
RTVSPost2010PropOp50
 70
     1
102
RTVSPost2010Prop51ColorIndex
 90
      256
102
RTVSPost2010Prop51ColorRGB
 90
-16777216
102
RTVSPost2010PropOp51
 70
     0
102
RTVSPost2010Prop52
140
1.0
102
RTVSPost2010PropOp52
 70
     0
102
RTVSPost2010Prop53
 90
        2
102
RTVSPost2010PropOp53
 70
     1
102
RTVSPost2010Prop54
  1
strokes_ogs.tif
102
RTVSPost2010PropOp54
 70
     1
102
RTVSPost2010Prop55
280
     0
102
RTVSPost2010PropOp55
 70
     1
102
RTVSPost2010Prop56
140
1.0
102
RTVSPost2010PropOp56
 70
     1
102
RTVSPost2010Prop57
140
1.0
102
RTVSPost2010PropOp57
 70
     1
102
RTVSPropertyOp0
 70
     1
102
RTVSPropertyOp1
 70
     1
102
RTVSPropertyOp2
 70
     1
102
RTVSPropertyOp3
 70
     1
102
RTVSPropertyOp4
 70
     1
102
RTVSPropertyOp5
 70
     1
102
RTVSPropertyOp6
 70
     1
102
RTVSPropertyOp7
 70
     1
102
RTVSPropertyOp8
 70
     1
102
RTVSPropertyOp9
 70
     1
102
RTVSPropertyOp10
 70
     1
102
RTVSPropertyOp11
 70
     1
102
RTVSPropertyOp12
 70
     1
102
RTVSPropertyOp13
 70
     1
102
RTVSPropertyOp14
 70
     1
102
RTVSPropertyOp15
 70
     1
102
RTVSPropertyOp16
 70
     1
102
RTVSPropertyOp17
 70
     1
102
RTVSPropertyOp18
 70
     1
102
RTVSPropertyOp19
 70
     1
102
RTVSPropertyOp20
 70
     1
102
RTVSPropertyOp21
 70
     1
102
RTVSPropertyOp22
 70
     1
102
RTVSPropertyOp23
 70
     1
102
RTVSPropertyOp24
 70
     1
102
RTVSPropertyOp25
 70
     1
102
RTVSPropertyOp26
 70
     1
102
RTVSPropertyOp27
 70
     1
102
RTVSPropertyOp28
 70
     1
102
RTVSPropertyOp29
 70
     1
102
RTVSPropertyOp30
 70
     1
102
RTVSPropertyOp31
 70
     1
102
RTVSPropertyOp32
 70
     1
102
RTVSPropertyOp33
 70
     1
102
RTVSPropertyOp34
 70
     1
102
RTVSPropertyOp35
 70
     1
102
RTVSPropertyOp36
 70
     1
102
RTVSPropertyOp37
 70
     1
102
RTVSPropertyOp38
 70
     1
102
RTVSPropertyOp39
 70
     1
102
RTVSPropertyOp40
 70
     1
102
RTVSPropertyOp41
 70
     1
102
RTVSPropertyOp42
 70
     1
102
RTVSPropertyOp43
 70
     1
102
RTVSPropertyOp44
 70
     1
102
RTVSPropertyOp45
 70
     1
102
RTVSPropertyOp46
 70
     1
102
RTVSPropertyOp47
 70
     1
102
RTVSPropertyOp48
 70
     1
102
RTVSPropertyOp49
 70
     1
102
RTVSPropertyOp50
 70
     1
102
RTVSPropertyOp51
 70
     0
102
RTVSPropertyOp52
 70
     0
102
RTVSPropertyOp53
 70
     1
102
RTVSPropertyOp54
 70
     1
102
RTVSPropertyOp55
 70
     1
102
RTVSPropertyOp56
 70
     1
102
RTVSPropertyOp57
 70
     1
102
RTVSPropertyOp58
 70
     1
102
RTVSPropertyOp59
 70
     1
102
RTVSPropertyOp60
 70
     1
102
RTVSPropertyOp61
 70
     1
102
RTVSPropertyOp62
 70
     1
  0
XRECORD
  5
40E0
102
{ACAD_REACTORS
330
40DF
102
}
330
40DF
100
AcDbXrecord
280
     1
102
RTVSPost2010Prop28
280
     0
102
RTVSPost2010PropOp28
 70
     1
102
RTVSPost2010Prop29
280
     1
102
RTVSPost2010PropOp29
 70
     1
102
RTVSPost2010Prop30
280
     1
102
RTVSPost2010PropOp30
 70
     1
102
RTVSPost2010Prop31
280
     0
102
RTVSPost2010PropOp31
 70
     1
102
RTVSPost2010Prop32
280
     0
102
RTVSPost2010PropOp32
 70
     1
102
RTVSPost2010Prop33
280
     0
102
RTVSPost2010PropOp33
 70
     1
102
RTVSPost2010Prop34
280
     0
102
RTVSPost2010PropOp34
 70
     1
102
RTVSPost2010Prop35
280
     0
102
RTVSPost2010PropOp35
 70
     1
102
RTVSPost2010Prop36
280
     0
102
RTVSPost2010PropOp36
 70
     1
102
RTVSPost2010Prop37
 90
       50
102
RTVSPost2010PropOp37
 70
     1
102
RTVSPost2010Prop38
140
0.0
102
RTVSPost2010PropOp38
 70
     1
102
RTVSPost2010Prop39
140
1.0
102
RTVSPost2010PropOp39
 70
     1
102
RTVSPost2010Prop40
 90
        0
102
RTVSPost2010PropOp40
 70
     1
102
RTVSPost2010Prop41ColorIndex
 90
       18
102
RTVSPost2010Prop41ColorRGB
 90
        0
102
RTVSPost2010PropOp41
 70
     1
102
RTVSPost2010Prop42
 90
       50
102
RTVSPost2010PropOp42
 70
     1
102
RTVSPost2010Prop43
 90
        3
102
RTVSPost2010PropOp43
 70
     1
102
RTVSPost2010Prop44ColorIndex
 90
        5
102
RTVSPost2010Prop44ColorRGB
 90
      255
102
RTVSPost2010PropOp44
 70
     1
102
RTVSPost2010Prop45
280
     0
102
RTVSPost2010PropOp45
 70
     1
102
RTVSPost2010Prop46
 90
       50
102
RTVSPost2010PropOp46
 70
     1
102
RTVSPost2010Prop47
 90
       50
102
RTVSPost2010PropOp47
 70
     1
102
RTVSPost2010Prop48
 90
       50
102
RTVSPost2010PropOp48
 70
     1
102
RTVSPost2010Prop49
280
     0
102
RTVSPost2010PropOp49
 70
     1
102
RTVSPost2010Prop50
 90
       50
102
RTVSPost2010PropOp50
 70
     1
102
RTVSPost2010Prop51ColorIndex
 90
      256
102
RTVSPost2010Prop51ColorRGB
 90
-16777216
102
RTVSPost2010PropOp51
 70
     0
102
RTVSPost2010Prop52
140
1.0
102
RTVSPost2010PropOp52
 70
     0
102
RTVSPost2010Prop53
 90
        2
102
RTVSPost2010PropOp53
 70
     1
102
RTVSPost2010Prop54
  1
strokes_ogs.tif
102
RTVSPost2010PropOp54
 70
     1
102
RTVSPost2010Prop55
280
     0
102
RTVSPost2010PropOp55
 70
     1
102
RTVSPost2010Prop56
140
1.0
102
RTVSPost2010PropOp56
 70
     1
102
RTVSPost2010Prop57
140
1.0
102
RTVSPost2010PropOp57
 70
     1
102
RTVSPropertyOp0
 70
     1
102
RTVSPropertyOp1
 70
     1
102
RTVSPropertyOp2
 70
     1
102
RTVSPropertyOp3
 70
     1
102
RTVSPropertyOp4
 70
     1
102
RTVSPropertyOp5
 70
     1
102
RTVSPropertyOp6
 70
     1
102
RTVSPropertyOp7
 70
     1
102
RTVSPropertyOp8
 70
     1
102
RTVSPropertyOp9
 70
     1
102
RTVSPropertyOp10
 70
     1
102
RTVSPropertyOp11
 70
     1
102
RTVSPropertyOp12
 70
     1
102
RTVSPropertyOp13
 70
     1
102
RTVSPropertyOp14
 70
     1
102
RTVSPropertyOp15
 70
     1
102
RTVSPropertyOp16
 70
     1
102
RTVSPropertyOp17
 70
     1
102
RTVSPropertyOp18
 70
     1
102
RTVSPropertyOp19
 70
     1
102
RTVSPropertyOp20
 70
     1
102
RTVSPropertyOp21
 70
     1
102
RTVSPropertyOp22
 70
     1
102
RTVSPropertyOp23
 70
     1
102
RTVSPropertyOp24
 70
     1
102
RTVSPropertyOp25
 70
     1
102
RTVSPropertyOp26
 70
     1
102
RTVSPropertyOp27
 70
     1
102
RTVSPropertyOp28
 70
     1
102
RTVSPropertyOp29
 70
     1
102
RTVSPropertyOp30
 70
     1
102
RTVSPropertyOp31
 70
     1
102
RTVSPropertyOp32
 70
     1
102
RTVSPropertyOp33
 70
     1
102
RTVSPropertyOp34
 70
     1
102
RTVSPropertyOp35
 70
     1
102
RTVSPropertyOp36
 70
     1
102
RTVSPropertyOp37
 70
     1
102
RTVSPropertyOp38
 70
     1
102
RTVSPropertyOp39
 70
     1
102
RTVSPropertyOp40
 70
     1
102
RTVSPropertyOp41
 70
     1
102
RTVSPropertyOp42
 70
     1
102
RTVSPropertyOp43
 70
     1
102
RTVSPropertyOp44
 70
     1
102
RTVSPropertyOp45
 70
     1
102
RTVSPropertyOp46
 70
     1
102
RTVSPropertyOp47
 70
     1
102
RTVSPropertyOp48
 70
     1
102
RTVSPropertyOp49
 70
     1
102
RTVSPropertyOp50
 70
     1
102
RTVSPropertyOp51
 70
     0
102
RTVSPropertyOp52
 70
     0
102
RTVSPropertyOp53
 70
     1
102
RTVSPropertyOp54
 70
     1
102
RTVSPropertyOp55
 70
     1
102
RTVSPropertyOp56
 70
     1
102
RTVSPropertyOp57
 70
     1
102
RTVSPropertyOp58
 70
     1
102
RTVSPropertyOp59
 70
     1
102
RTVSPropertyOp60
 70
     1
102
RTVSPropertyOp61
 70
     1
102
RTVSPropertyOp62
 70
     1
  0
XRECORD
  5
40E2
102
{ACAD_REACTORS
330
40E1
102
}
330
40E1
100
AcDbXrecord
280
     1
102
RTVSPost2010Prop28
280
     0
102
RTVSPost2010PropOp28
 70
     1
102
RTVSPost2010Prop29
280
     1
102
RTVSPost2010PropOp29
 70
     1
102
RTVSPost2010Prop30
280
     1
102
RTVSPost2010PropOp30
 70
     1
102
RTVSPost2010Prop31
280
     0
102
RTVSPost2010PropOp31
 70
     1
102
RTVSPost2010Prop32
280
     0
102
RTVSPost2010PropOp32
 70
     1
102
RTVSPost2010Prop33
280
     0
102
RTVSPost2010PropOp33
 70
     1
102
RTVSPost2010Prop34
280
     0
102
RTVSPost2010PropOp34
 70
     1
102
RTVSPost2010Prop35
280
     0
102
RTVSPost2010PropOp35
 70
     1
102
RTVSPost2010Prop36
280
     0
102
RTVSPost2010PropOp36
 70
     1
102
RTVSPost2010Prop37
 90
       50
102
RTVSPost2010PropOp37
 70
     1
102
RTVSPost2010Prop38
140
0.0
102
RTVSPost2010PropOp38
 70
     1
102
RTVSPost2010Prop39
140
1.0
102
RTVSPost2010PropOp39
 70
     1
102
RTVSPost2010Prop40
 90
        0
102
RTVSPost2010PropOp40
 70
     1
102
RTVSPost2010Prop41ColorIndex
 90
       18
102
RTVSPost2010Prop41ColorRGB
 90
        0
102
RTVSPost2010PropOp41
 70
     1
102
RTVSPost2010Prop42
 90
       50
102
RTVSPost2010PropOp42
 70
     1
102
RTVSPost2010Prop43
 90
        3
102
RTVSPost2010PropOp43
 70
     1
102
RTVSPost2010Prop44ColorIndex
 90
        5
102
RTVSPost2010Prop44ColorRGB
 90
      255
102
RTVSPost2010PropOp44
 70
     1
102
RTVSPost2010Prop45
280
     0
102
RTVSPost2010PropOp45
 70
     1
102
RTVSPost2010Prop46
 90
       50
102
RTVSPost2010PropOp46
 70
     1
102
RTVSPost2010Prop47
 90
       50
102
RTVSPost2010PropOp47
 70
     1
102
RTVSPost2010Prop48
 90
       50
102
RTVSPost2010PropOp48
 70
     1
102
RTVSPost2010Prop49
280
     0
102
RTVSPost2010PropOp49
 70
     1
102
RTVSPost2010Prop50
 90
       50
102
RTVSPost2010PropOp50
 70
     1
102
RTVSPost2010Prop51ColorIndex
 90
      256
102
RTVSPost2010Prop51ColorRGB
 90
-16777216
102
RTVSPost2010PropOp51
 70
     0
102
RTVSPost2010Prop52
140
1.0
102
RTVSPost2010PropOp52
 70
     0
102
RTVSPost2010Prop53
 90
        2
102
RTVSPost2010PropOp53
 70
     1
102
RTVSPost2010Prop54
  1
strokes_ogs.tif
102
RTVSPost2010PropOp54
 70
     1
102
RTVSPost2010Prop55
280
     0
102
RTVSPost2010PropOp55
 70
     1
102
RTVSPost2010Prop56
140
1.0
102
RTVSPost2010PropOp56
 70
     1
102
RTVSPost2010Prop57
140
1.0
102
RTVSPost2010PropOp57
 70
     1
102
RTVSPropertyOp0
 70
     1
102
RTVSPropertyOp1
 70
     1
102
RTVSPropertyOp2
 70
     1
102
RTVSPropertyOp3
 70
     1
102
RTVSPropertyOp4
 70
     1
102
RTVSPropertyOp5
 70
     1
102
RTVSPropertyOp6
 70
     1
102
RTVSPropertyOp7
 70
     1
102
RTVSPropertyOp8
 70
     1
102
RTVSPropertyOp9
 70
     1
102
RTVSPropertyOp10
 70
     1
102
RTVSPropertyOp11
 70
     1
102
RTVSPropertyOp12
 70
     1
102
RTVSPropertyOp13
 70
     1
102
RTVSPropertyOp14
 70
     1
102
RTVSPropertyOp15
 70
     1
102
RTVSPropertyOp16
 70
     1
102
RTVSPropertyOp17
 70
     1
102
RTVSPropertyOp18
 70
     1
102
RTVSPropertyOp19
 70
     1
102
RTVSPropertyOp20
 70
     1
102
RTVSPropertyOp21
 70
     1
102
RTVSPropertyOp22
 70
     1
102
RTVSPropertyOp23
 70
     1
102
RTVSPropertyOp24
 70
     1
102
RTVSPropertyOp25
 70
     1
102
RTVSPropertyOp26
 70
     1
102
RTVSPropertyOp27
 70
     1
102
RTVSPropertyOp28
 70
     1
102
RTVSPropertyOp29
 70
     1
102
RTVSPropertyOp30
 70
     1
102
RTVSPropertyOp31
 70
     1
102
RTVSPropertyOp32
 70
     1
102
RTVSPropertyOp33
 70
     1
102
RTVSPropertyOp34
 70
     1
102
RTVSPropertyOp35
 70
     1
102
RTVSPropertyOp36
 70
     1
102
RTVSPropertyOp37
 70
     1
102
RTVSPropertyOp38
 70
     1
102
RTVSPropertyOp39
 70
     1
102
RTVSPropertyOp40
 70
     1
102
RTVSPropertyOp41
 70
     1
102
RTVSPropertyOp42
 70
     1
102
RTVSPropertyOp43
 70
     1
102
RTVSPropertyOp44
 70
     1
102
RTVSPropertyOp45
 70
     1
102
RTVSPropertyOp46
 70
     1
102
RTVSPropertyOp47
 70
     1
102
RTVSPropertyOp48
 70
     1
102
RTVSPropertyOp49
 70
     1
102
RTVSPropertyOp50
 70
     1
102
RTVSPropertyOp51
 70
     0
102
RTVSPropertyOp52
 70
     0
102
RTVSPropertyOp53
 70
     1
102
RTVSPropertyOp54
 70
     1
102
RTVSPropertyOp55
 70
     1
102
RTVSPropertyOp56
 70
     1
102
RTVSPropertyOp57
 70
     1
102
RTVSPropertyOp58
 70
     1
102
RTVSPropertyOp59
 70
     1
102
RTVSPropertyOp60
 70
     1
102
RTVSPropertyOp61
 70
     1
102
RTVSPropertyOp62
 70
     1
  0
XRECORD
  5
40E4
102
{ACAD_REACTORS
330
40E3
102
}
330
40E3
100
AcDbXrecord
280
     1
102
RTVSPost2010Prop28
280
     0
102
RTVSPost2010PropOp28
 70
     1
102
RTVSPost2010Prop29
280
     1
102
RTVSPost2010PropOp29
 70
     1
102
RTVSPost2010Prop30
280
     1
102
RTVSPost2010PropOp30
 70
     1
102
RTVSPost2010Prop31
280
     0
102
RTVSPost2010PropOp31
 70
     1
102
RTVSPost2010Prop32
280
     0
102
RTVSPost2010PropOp32
 70
     1
102
RTVSPost2010Prop33
280
     0
102
RTVSPost2010PropOp33
 70
     1
102
RTVSPost2010Prop34
280
     0
102
RTVSPost2010PropOp34
 70
     1
102
RTVSPost2010Prop35
280
     0
102
RTVSPost2010PropOp35
 70
     1
102
RTVSPost2010Prop36
280
     0
102
RTVSPost2010PropOp36
 70
     1
102
RTVSPost2010Prop37
 90
       50
102
RTVSPost2010PropOp37
 70
     1
102
RTVSPost2010Prop38
140
0.0
102
RTVSPost2010PropOp38
 70
     1
102
RTVSPost2010Prop39
140
1.0
102
RTVSPost2010PropOp39
 70
     1
102
RTVSPost2010Prop40
 90
        0
102
RTVSPost2010PropOp40
 70
     1
102
RTVSPost2010Prop41ColorIndex
 90
       18
102
RTVSPost2010Prop41ColorRGB
 90
        0
102
RTVSPost2010PropOp41
 70
     1
102
RTVSPost2010Prop42
 90
       50
102
RTVSPost2010PropOp42
 70
     1
102
RTVSPost2010Prop43
 90
        3
102
RTVSPost2010PropOp43
 70
     1
102
RTVSPost2010Prop44ColorIndex
 90
        5
102
RTVSPost2010Prop44ColorRGB
 90
      255
102
RTVSPost2010PropOp44
 70
     1
102
RTVSPost2010Prop45
280
     0
102
RTVSPost2010PropOp45
 70
     1
102
RTVSPost2010Prop46
 90
       50
102
RTVSPost2010PropOp46
 70
     1
102
RTVSPost2010Prop47
 90
       50
102
RTVSPost2010PropOp47
 70
     1
102
RTVSPost2010Prop48
 90
       50
102
RTVSPost2010PropOp48
 70
     1
102
RTVSPost2010Prop49
280
     0
102
RTVSPost2010PropOp49
 70
     1
102
RTVSPost2010Prop50
 90
       50
102
RTVSPost2010PropOp50
 70
     1
102
RTVSPost2010Prop51ColorIndex
 90
      256
102
RTVSPost2010Prop51ColorRGB
 90
-16777216
102
RTVSPost2010PropOp51
 70
     0
102
RTVSPost2010Prop52
140
1.0
102
RTVSPost2010PropOp52
 70
     0
102
RTVSPost2010Prop53
 90
        2
102
RTVSPost2010PropOp53
 70
     1
102
RTVSPost2010Prop54
  1
strokes_ogs.tif
102
RTVSPost2010PropOp54
 70
     1
102
RTVSPost2010Prop55
280
     0
102
RTVSPost2010PropOp55
 70
     1
102
RTVSPost2010Prop56
140
1.0
102
RTVSPost2010PropOp56
 70
     1
102
RTVSPost2010Prop57
140
1.0
102
RTVSPost2010PropOp57
 70
     1
102
RTVSPropertyOp0
 70
     1
102
RTVSPropertyOp1
 70
     1
102
RTVSPropertyOp2
 70
     1
102
RTVSPropertyOp3
 70
     1
102
RTVSPropertyOp4
 70
     1
102
RTVSPropertyOp5
 70
     1
102
RTVSPropertyOp6
 70
     1
102
RTVSPropertyOp7
 70
     1
102
RTVSPropertyOp8
 70
     1
102
RTVSPropertyOp9
 70
     1
102
RTVSPropertyOp10
 70
     1
102
RTVSPropertyOp11
 70
     1
102
RTVSPropertyOp12
 70
     1
102
RTVSPropertyOp13
 70
     1
102
RTVSPropertyOp14
 70
     1
102
RTVSPropertyOp15
 70
     1
102
RTVSPropertyOp16
 70
     1
102
RTVSPropertyOp17
 70
     1
102
RTVSPropertyOp18
 70
     1
102
RTVSPropertyOp19
 70
     1
102
RTVSPropertyOp20
 70
     1
102
RTVSPropertyOp21
 70
     1
102
RTVSPropertyOp22
 70
     1
102
RTVSPropertyOp23
 70
     1
102
RTVSPropertyOp24
 70
     1
102
RTVSPropertyOp25
 70
     1
102
RTVSPropertyOp26
 70
     1
102
RTVSPropertyOp27
 70
     1
102
RTVSPropertyOp28
 70
     1
102
RTVSPropertyOp29
 70
     1
102
RTVSPropertyOp30
 70
     1
102
RTVSPropertyOp31
 70
     1
102
RTVSPropertyOp32
 70
     1
102
RTVSPropertyOp33
 70
     1
102
RTVSPropertyOp34
 70
     1
102
RTVSPropertyOp35
 70
     1
102
RTVSPropertyOp36
 70
     1
102
RTVSPropertyOp37
 70
     1
102
RTVSPropertyOp38
 70
     1
102
RTVSPropertyOp39
 70
     1
102
RTVSPropertyOp40
 70
     1
102
RTVSPropertyOp41
 70
     1
102
RTVSPropertyOp42
 70
     1
102
RTVSPropertyOp43
 70
     1
102
RTVSPropertyOp44
 70
     1
102
RTVSPropertyOp45
 70
     1
102
RTVSPropertyOp46
 70
     1
102
RTVSPropertyOp47
 70
     1
102
RTVSPropertyOp48
 70
     1
102
RTVSPropertyOp49
 70
     1
102
RTVSPropertyOp50
 70
     1
102
RTVSPropertyOp51
 70
     0
102
RTVSPropertyOp52
 70
     0
102
RTVSPropertyOp53
 70
     1
102
RTVSPropertyOp54
 70
     1
102
RTVSPropertyOp55
 70
     1
102
RTVSPropertyOp56
 70
     1
102
RTVSPropertyOp57
 70
     1
102
RTVSPropertyOp58
 70
     1
102
RTVSPropertyOp59
 70
     1
102
RTVSPropertyOp60
 70
     1
102
RTVSPropertyOp61
 70
     1
102
RTVSPropertyOp62
 70
     1
  0
XRECORD
  5
40E6
102
{ACAD_REACTORS
330
40E5
102
}
330
40E5
100
AcDbXrecord
280
     1
102
RTVSPost2010Prop28
280
     0
102
RTVSPost2010PropOp28
 70
     1
102
RTVSPost2010Prop29
280
     1
102
RTVSPost2010PropOp29
 70
     1
102
RTVSPost2010Prop30
280
     1
102
RTVSPost2010PropOp30
 70
     1
102
RTVSPost2010Prop31
280
     0
102
RTVSPost2010PropOp31
 70
     1
102
RTVSPost2010Prop32
280
     0
102
RTVSPost2010PropOp32
 70
     1
102
RTVSPost2010Prop33
280
     0
102
RTVSPost2010PropOp33
 70
     1
102
RTVSPost2010Prop34
280
     0
102
RTVSPost2010PropOp34
 70
     1
102
RTVSPost2010Prop35
280
     0
102
RTVSPost2010PropOp35
 70
     1
102
RTVSPost2010Prop36
280
     0
102
RTVSPost2010PropOp36
 70
     1
102
RTVSPost2010Prop37
 90
       50
102
RTVSPost2010PropOp37
 70
     1
102
RTVSPost2010Prop38
140
0.0
102
RTVSPost2010PropOp38
 70
     1
102
RTVSPost2010Prop39
140
1.0
102
RTVSPost2010PropOp39
 70
     1
102
RTVSPost2010Prop40
 90
        0
102
RTVSPost2010PropOp40
 70
     1
102
RTVSPost2010Prop41ColorIndex
 90
       18
102
RTVSPost2010Prop41ColorRGB
 90
        0
102
RTVSPost2010PropOp41
 70
     1
102
RTVSPost2010Prop42
 90
       50
102
RTVSPost2010PropOp42
 70
     1
102
RTVSPost2010Prop43
 90
        3
102
RTVSPost2010PropOp43
 70
     1
102
RTVSPost2010Prop44ColorIndex
 90
        5
102
RTVSPost2010Prop44ColorRGB
 90
      255
102
RTVSPost2010PropOp44
 70
     1
102
RTVSPost2010Prop45
280
     0
102
RTVSPost2010PropOp45
 70
     1
102
RTVSPost2010Prop46
 90
       50
102
RTVSPost2010PropOp46
 70
     1
102
RTVSPost2010Prop47
 90
       50
102
RTVSPost2010PropOp47
 70
     1
102
RTVSPost2010Prop48
 90
       50
102
RTVSPost2010PropOp48
 70
     1
102
RTVSPost2010Prop49
280
     0
102
RTVSPost2010PropOp49
 70
     1
102
RTVSPost2010Prop50
 90
       50
102
RTVSPost2010PropOp50
 70
     1
102
RTVSPost2010Prop51ColorIndex
 90
      256
102
RTVSPost2010Prop51ColorRGB
 90
-16777216
102
RTVSPost2010PropOp51
 70
     0
102
RTVSPost2010Prop52
140
1.0
102
RTVSPost2010PropOp52
 70
     0
102
RTVSPost2010Prop53
 90
        2
102
RTVSPost2010PropOp53
 70
     1
102
RTVSPost2010Prop54
  1
strokes_ogs.tif
102
RTVSPost2010PropOp54
 70
     1
102
RTVSPost2010Prop55
280
     0
102
RTVSPost2010PropOp55
 70
     1
102
RTVSPost2010Prop56
140
1.0
102
RTVSPost2010PropOp56
 70
     1
102
RTVSPost2010Prop57
140
1.0
102
RTVSPost2010PropOp57
 70
     1
102
RTVSPropertyOp0
 70
     1
102
RTVSPropertyOp1
 70
     1
102
RTVSPropertyOp2
 70
     1
102
RTVSPropertyOp3
 70
     1
102
RTVSPropertyOp4
 70
     1
102
RTVSPropertyOp5
 70
     1
102
RTVSPropertyOp6
 70
     1
102
RTVSPropertyOp7
 70
     1
102
RTVSPropertyOp8
 70
     1
102
RTVSPropertyOp9
 70
     1
102
RTVSPropertyOp10
 70
     1
102
RTVSPropertyOp11
 70
     1
102
RTVSPropertyOp12
 70
     1
102
RTVSPropertyOp13
 70
     1
102
RTVSPropertyOp14
 70
     1
102
RTVSPropertyOp15
 70
     1
102
RTVSPropertyOp16
 70
     1
102
RTVSPropertyOp17
 70
     1
102
RTVSPropertyOp18
 70
     1
102
RTVSPropertyOp19
 70
     1
102
RTVSPropertyOp20
 70
     1
102
RTVSPropertyOp21
 70
     1
102
RTVSPropertyOp22
 70
     1
102
RTVSPropertyOp23
 70
     1
102
RTVSPropertyOp24
 70
     1
102
RTVSPropertyOp25
 70
     1
102
RTVSPropertyOp26
 70
     1
102
RTVSPropertyOp27
 70
     1
102
RTVSPropertyOp28
 70
     1
102
RTVSPropertyOp29
 70
     1
102
RTVSPropertyOp30
 70
     1
102
RTVSPropertyOp31
 70
     1
102
RTVSPropertyOp32
 70
     1
102
RTVSPropertyOp33
 70
     1
102
RTVSPropertyOp34
 70
     1
102
RTVSPropertyOp35
 70
     1
102
RTVSPropertyOp36
 70
     1
102
RTVSPropertyOp37
 70
     1
102
RTVSPropertyOp38
 70
     1
102
RTVSPropertyOp39
 70
     1
102
RTVSPropertyOp40
 70
     1
102
RTVSPropertyOp41
 70
     1
102
RTVSPropertyOp42
 70
     1
102
RTVSPropertyOp43
 70
     1
102
RTVSPropertyOp44
 70
     1
102
RTVSPropertyOp45
 70
     1
102
RTVSPropertyOp46
 70
     1
102
RTVSPropertyOp47
 70
     1
102
RTVSPropertyOp48
 70
     1
102
RTVSPropertyOp49
 70
     1
102
RTVSPropertyOp50
 70
     1
102
RTVSPropertyOp51
 70
     0
102
RTVSPropertyOp52
 70
     0
102
RTVSPropertyOp53
 70
     1
102
RTVSPropertyOp54
 70
     1
102
RTVSPropertyOp55
 70
     1
102
RTVSPropertyOp56
 70
     1
102
RTVSPropertyOp57
 70
     1
102
RTVSPropertyOp58
 70
     1
102
RTVSPropertyOp59
 70
     1
102
RTVSPropertyOp60
 70
     1
102
RTVSPropertyOp61
 70
     1
102
RTVSPropertyOp62
 70
     1
  0
XRECORD
  5
40EE
102
{ACAD_REACTORS
330
40ED
102
}
330
40ED
100
AcDbXrecord
280
     1
102
RTVSPost2010Prop28
280
     0
102
RTVSPost2010PropOp28
 70
     1
102
RTVSPost2010Prop29
280
     1
102
RTVSPost2010PropOp29
 70
     1
102
RTVSPost2010Prop30
280
     1
102
RTVSPost2010PropOp30
 70
     1
102
RTVSPost2010Prop31
280
     0
102
RTVSPost2010PropOp31
 70
     1
102
RTVSPost2010Prop32
280
     0
102
RTVSPost2010PropOp32
 70
     1
102
RTVSPost2010Prop33
280
     0
102
RTVSPost2010PropOp33
 70
     1
102
RTVSPost2010Prop34
280
     0
102
RTVSPost2010PropOp34
 70
     1
102
RTVSPost2010Prop35
280
     0
102
RTVSPost2010PropOp35
 70
     1
102
RTVSPost2010Prop36
280
     0
102
RTVSPost2010PropOp36
 70
     1
102
RTVSPost2010Prop37
 90
       50
102
RTVSPost2010PropOp37
 70
     1
102
RTVSPost2010Prop38
140
0.0
102
RTVSPost2010PropOp38
 70
     1
102
RTVSPost2010Prop39
140
1.0
102
RTVSPost2010PropOp39
 70
     1
102
RTVSPost2010Prop40
 90
        0
102
RTVSPost2010PropOp40
 70
     1
102
RTVSPost2010Prop41ColorIndex
 90
       18
102
RTVSPost2010Prop41ColorRGB
 90
        0
102
RTVSPost2010PropOp41
 70
     1
102
RTVSPost2010Prop42
 90
       50
102
RTVSPost2010PropOp42
 70
     1
102
RTVSPost2010Prop43
 90
        3
102
RTVSPost2010PropOp43
 70
     1
102
RTVSPost2010Prop44ColorIndex
 90
        5
102
RTVSPost2010Prop44ColorRGB
 90
      255
102
RTVSPost2010PropOp44
 70
     1
102
RTVSPost2010Prop45
280
     0
102
RTVSPost2010PropOp45
 70
     1
102
RTVSPost2010Prop46
 90
       50
102
RTVSPost2010PropOp46
 70
     1
102
RTVSPost2010Prop47
 90
       50
102
RTVSPost2010PropOp47
 70
     1
102
RTVSPost2010Prop48
 90
       50
102
RTVSPost2010PropOp48
 70
     1
102
RTVSPost2010Prop49
280
     0
102
RTVSPost2010PropOp49
 70
     1
102
RTVSPost2010Prop50
 90
       50
102
RTVSPost2010PropOp50
 70
     1
102
RTVSPost2010Prop51ColorIndex
 90
      256
102
RTVSPost2010Prop51ColorRGB
 90
-16777216
102
RTVSPost2010PropOp51
 70
     0
102
RTVSPost2010Prop52
140
1.0
102
RTVSPost2010PropOp52
 70
     0
102
RTVSPost2010Prop53
 90
        2
102
RTVSPost2010PropOp53
 70
     1
102
RTVSPost2010Prop54
  1
strokes_ogs.tif
102
RTVSPost2010PropOp54
 70
     1
102
RTVSPost2010Prop55
280
     0
102
RTVSPost2010PropOp55
 70
     1
102
RTVSPost2010Prop56
140
1.0
102
RTVSPost2010PropOp56
 70
     1
102
RTVSPost2010Prop57
140
1.0
102
RTVSPost2010PropOp57
 70
     1
102
RTVSPropertyOp0
 70
     1
102
RTVSPropertyOp1
 70
     1
102
RTVSPropertyOp2
 70
     1
102
RTVSPropertyOp3
 70
     1
102
RTVSPropertyOp4
 70
     1
102
RTVSPropertyOp5
 70
     1
102
RTVSPropertyOp6
 70
     1
102
RTVSPropertyOp7
 70
     1
102
RTVSPropertyOp8
 70
     1
102
RTVSPropertyOp9
 70
     1
102
RTVSPropertyOp10
 70
     1
102
RTVSPropertyOp11
 70
     1
102
RTVSPropertyOp12
 70
     1
102
RTVSPropertyOp13
 70
     1
102
RTVSPropertyOp14
 70
     1
102
RTVSPropertyOp15
 70
     1
102
RTVSPropertyOp16
 70
     1
102
RTVSPropertyOp17
 70
     1
102
RTVSPropertyOp18
 70
     1
102
RTVSPropertyOp19
 70
     1
102
RTVSPropertyOp20
 70
     1
102
RTVSPropertyOp21
 70
     1
102
RTVSPropertyOp22
 70
     1
102
RTVSPropertyOp23
 70
     1
102
RTVSPropertyOp24
 70
     1
102
RTVSPropertyOp25
 70
     1
102
RTVSPropertyOp26
 70
     1
102
RTVSPropertyOp27
 70
     1
102
RTVSPropertyOp28
 70
     1
102
RTVSPropertyOp29
 70
     1
102
RTVSPropertyOp30
 70
     1
102
RTVSPropertyOp31
 70
     1
102
RTVSPropertyOp32
 70
     1
102
RTVSPropertyOp33
 70
     1
102
RTVSPropertyOp34
 70
     1
102
RTVSPropertyOp35
 70
     1
102
RTVSPropertyOp36
 70
     1
102
RTVSPropertyOp37
 70
     1
102
RTVSPropertyOp38
 70
     1
102
RTVSPropertyOp39
 70
     1
102
RTVSPropertyOp40
 70
     1
102
RTVSPropertyOp41
 70
     1
102
RTVSPropertyOp42
 70
     1
102
RTVSPropertyOp43
 70
     1
102
RTVSPropertyOp44
 70
     1
102
RTVSPropertyOp45
 70
     1
102
RTVSPropertyOp46
 70
     1
102
RTVSPropertyOp47
 70
     1
102
RTVSPropertyOp48
 70
     1
102
RTVSPropertyOp49
 70
     1
102
RTVSPropertyOp50
 70
     1
102
RTVSPropertyOp51
 70
     0
102
RTVSPropertyOp52
 70
     0
102
RTVSPropertyOp53
 70
     1
102
RTVSPropertyOp54
 70
     1
102
RTVSPropertyOp55
 70
     1
102
RTVSPropertyOp56
 70
     1
102
RTVSPropertyOp57
 70
     1
102
RTVSPropertyOp58
 70
     1
102
RTVSPropertyOp59
 70
     1
102
RTVSPropertyOp60
 70
     1
102
RTVSPropertyOp61
 70
     1
102
RTVSPropertyOp62
 70
     1
  0
XRECORD
  5
4102
102
{ACAD_REACTORS
330
4101
102
}
330
4101
100
AcDbXrecord
280
     1
102
RTVSPost2010Prop28
280
     0
102
RTVSPost2010PropOp28
 70
     1
102
RTVSPost2010Prop29
280
     1
102
RTVSPost2010PropOp29
 70
     1
102
RTVSPost2010Prop30
280
     1
102
RTVSPost2010PropOp30
 70
     1
102
RTVSPost2010Prop31
280
     0
102
RTVSPost2010PropOp31
 70
     1
102
RTVSPost2010Prop32
280
     0
102
RTVSPost2010PropOp32
 70
     1
102
RTVSPost2010Prop33
280
     0
102
RTVSPost2010PropOp33
 70
     1
102
RTVSPost2010Prop34
280
     0
102
RTVSPost2010PropOp34
 70
     1
102
RTVSPost2010Prop35
280
     0
102
RTVSPost2010PropOp35
 70
     1
102
RTVSPost2010Prop36
280
     0
102
RTVSPost2010PropOp36
 70
     1
102
RTVSPost2010Prop37
 90
       50
102
RTVSPost2010PropOp37
 70
     1
102
RTVSPost2010Prop38
140
0.0
102
RTVSPost2010PropOp38
 70
     1
102
RTVSPost2010Prop39
140
1.0
102
RTVSPost2010PropOp39
 70
     1
102
RTVSPost2010Prop40
 90
        0
102
RTVSPost2010PropOp40
 70
     1
102
RTVSPost2010Prop41ColorIndex
 90
       18
102
RTVSPost2010Prop41ColorRGB
 90
        0
102
RTVSPost2010PropOp41
 70
     1
102
RTVSPost2010Prop42
 90
       50
102
RTVSPost2010PropOp42
 70
     1
102
RTVSPost2010Prop43
 90
        3
102
RTVSPost2010PropOp43
 70
     1
102
RTVSPost2010Prop44ColorIndex
 90
        5
102
RTVSPost2010Prop44ColorRGB
 90
      255
102
RTVSPost2010PropOp44
 70
     1
102
RTVSPost2010Prop45
280
     0
102
RTVSPost2010PropOp45
 70
     1
102
RTVSPost2010Prop46
 90
       50
102
RTVSPost2010PropOp46
 70
     1
102
RTVSPost2010Prop47
 90
       50
102
RTVSPost2010PropOp47
 70
     1
102
RTVSPost2010Prop48
 90
       50
102
RTVSPost2010PropOp48
 70
     1
102
RTVSPost2010Prop49
280
     0
102
RTVSPost2010PropOp49
 70
     1
102
RTVSPost2010Prop50
 90
       50
102
RTVSPost2010PropOp50
 70
     1
102
RTVSPost2010Prop51ColorIndex
 90
      256
102
RTVSPost2010Prop51ColorRGB
 90
-16777216
102
RTVSPost2010PropOp51
 70
     0
102
RTVSPost2010Prop52
140
1.0
102
RTVSPost2010PropOp52
 70
     0
102
RTVSPost2010Prop53
 90
        2
102
RTVSPost2010PropOp53
 70
     1
102
RTVSPost2010Prop54
  1
strokes_ogs.tif
102
RTVSPost2010PropOp54
 70
     1
102
RTVSPost2010Prop55
280
     0
102
RTVSPost2010PropOp55
 70
     1
102
RTVSPost2010Prop56
140
1.0
102
RTVSPost2010PropOp56
 70
     1
102
RTVSPost2010Prop57
140
1.0
102
RTVSPost2010PropOp57
 70
     1
102
RTVSPropertyOp0
 70
     0
102
RTVSPropertyOp1
 70
     0
102
RTVSPropertyOp2
 70
     0
102
RTVSPropertyOp3
 70
     0
102
RTVSPropertyOp4
 70
     0
102
RTVSPropertyOp5
 70
     0
102
RTVSPropertyOp6
 70
     0
102
RTVSPropertyOp7
 70
     0
102
RTVSPropertyOp8
 70
     0
102
RTVSPropertyOp9
 70
     0
102
RTVSPropertyOp10
 70
     0
102
RTVSPropertyOp11
 70
     0
102
RTVSPropertyOp12
 70
     0
102
RTVSPropertyOp13
 70
     0
102
RTVSPropertyOp14
 70
     2
102
RTVSPropertyOp15
 70
     0
102
RTVSPropertyOp16
 70
     0
102
RTVSPropertyOp17
 70
     0
102
RTVSPropertyOp18
 70
     0
102
RTVSPropertyOp19
 70
     0
102
RTVSPropertyOp20
 70
     0
102
RTVSPropertyOp21
 70
     0
102
RTVSPropertyOp22
 70
     0
102
RTVSPropertyOp23
 70
     0
102
RTVSPropertyOp24
 70
     0
102
RTVSPropertyOp25
 70
     0
102
RTVSPropertyOp26
 70
     0
102
RTVSPropertyOp27
 70
     0
102
RTVSPropertyOp28
 70
     1
102
RTVSPropertyOp29
 70
     1
102
RTVSPropertyOp30
 70
     1
102
RTVSPropertyOp31
 70
     1
102
RTVSPropertyOp32
 70
     1
102
RTVSPropertyOp33
 70
     1
102
RTVSPropertyOp34
 70
     1
102
RTVSPropertyOp35
 70
     1
102
RTVSPropertyOp36
 70
     1
102
RTVSPropertyOp37
 70
     1
102
RTVSPropertyOp38
 70
     1
102
RTVSPropertyOp39
 70
     1
102
RTVSPropertyOp40
 70
     1
102
RTVSPropertyOp41
 70
     1
102
RTVSPropertyOp42
 70
     1
102
RTVSPropertyOp43
 70
     1
102
RTVSPropertyOp44
 70
     1
102
RTVSPropertyOp45
 70
     1
102
RTVSPropertyOp46
 70
     1
102
RTVSPropertyOp47
 70
     1
102
RTVSPropertyOp48
 70
     1
102
RTVSPropertyOp49
 70
     1
102
RTVSPropertyOp50
 70
     1
102
RTVSPropertyOp51
 70
     0
102
RTVSPropertyOp52
 70
     0
102
RTVSPropertyOp53
 70
     1
102
RTVSPropertyOp54
 70
     1
102
RTVSPropertyOp55
 70
     1
102
RTVSPropertyOp56
 70
     1
102
RTVSPropertyOp57
 70
     1
102
RTVSPropertyOp58
 70
     1
102
RTVSPropertyOp59
 70
     1
102
RTVSPropertyOp60
 70
     1
102
RTVSPropertyOp61
 70
     1
102
RTVSPropertyOp62
 70
     1
  0
XRECORD
  5
40FA
102
{ACAD_REACTORS
330
40F9
102
}
330
40F9
100
AcDbXrecord
280
     1
102
RTVSPost2010Prop28
280
     0
102
RTVSPost2010PropOp28
 70
     1
102
RTVSPost2010Prop29
280
     1
102
RTVSPost2010PropOp29
 70
     1
102
RTVSPost2010Prop30
280
     1
102
RTVSPost2010PropOp30
 70
     1
102
RTVSPost2010Prop31
280
     0
102
RTVSPost2010PropOp31
 70
     1
102
RTVSPost2010Prop32
280
     0
102
RTVSPost2010PropOp32
 70
     1
102
RTVSPost2010Prop33
280
     0
102
RTVSPost2010PropOp33
 70
     1
102
RTVSPost2010Prop34
280
     0
102
RTVSPost2010PropOp34
 70
     1
102
RTVSPost2010Prop35
280
     0
102
RTVSPost2010PropOp35
 70
     1
102
RTVSPost2010Prop36
280
     0
102
RTVSPost2010PropOp36
 70
     1
102
RTVSPost2010Prop37
 90
       50
102
RTVSPost2010PropOp37
 70
     1
102
RTVSPost2010Prop38
140
0.0
102
RTVSPost2010PropOp38
 70
     1
102
RTVSPost2010Prop39
140
1.0
102
RTVSPost2010PropOp39
 70
     1
102
RTVSPost2010Prop40
 90
        0
102
RTVSPost2010PropOp40
 70
     1
102
RTVSPost2010Prop41ColorIndex
 90
       18
102
RTVSPost2010Prop41ColorRGB
 90
        0
102
RTVSPost2010PropOp41
 70
     1
102
RTVSPost2010Prop42
 90
       50
102
RTVSPost2010PropOp42
 70
     1
102
RTVSPost2010Prop43
 90
        3
102
RTVSPost2010PropOp43
 70
     1
102
RTVSPost2010Prop44ColorIndex
 90
        5
102
RTVSPost2010Prop44ColorRGB
 90
      255
102
RTVSPost2010PropOp44
 70
     1
102
RTVSPost2010Prop45
280
     0
102
RTVSPost2010PropOp45
 70
     1
102
RTVSPost2010Prop46
 90
       50
102
RTVSPost2010PropOp46
 70
     1
102
RTVSPost2010Prop47
 90
       50
102
RTVSPost2010PropOp47
 70
     1
102
RTVSPost2010Prop48
 90
       50
102
RTVSPost2010PropOp48
 70
     1
102
RTVSPost2010Prop49
280
     0
102
RTVSPost2010PropOp49
 70
     1
102
RTVSPost2010Prop50
 90
       50
102
RTVSPost2010PropOp50
 70
     1
102
RTVSPost2010Prop51ColorIndex
 90
      256
102
RTVSPost2010Prop51ColorRGB
 90
-16777216
102
RTVSPost2010PropOp51
 70
     0
102
RTVSPost2010Prop52
140
1.0
102
RTVSPost2010PropOp52
 70
     0
102
RTVSPost2010Prop53
 90
        2
102
RTVSPost2010PropOp53
 70
     1
102
RTVSPost2010Prop54
  1
strokes_ogs.tif
102
RTVSPost2010PropOp54
 70
     1
102
RTVSPost2010Prop55
280
     0
102
RTVSPost2010PropOp55
 70
     1
102
RTVSPost2010Prop56
140
1.0
102
RTVSPost2010PropOp56
 70
     1
102
RTVSPost2010Prop57
140
1.0
102
RTVSPost2010PropOp57
 70
     1
102
RTVSPropertyOp0
 70
     1
102
RTVSPropertyOp1
 70
     1
102
RTVSPropertyOp2
 70
     1
102
RTVSPropertyOp3
 70
     1
102
RTVSPropertyOp4
 70
     1
102
RTVSPropertyOp5
 70
     1
102
RTVSPropertyOp6
 70
     1
102
RTVSPropertyOp7
 70
     1
102
RTVSPropertyOp8
 70
     1
102
RTVSPropertyOp9
 70
     1
102
RTVSPropertyOp10
 70
     1
102
RTVSPropertyOp11
 70
     1
102
RTVSPropertyOp12
 70
     1
102
RTVSPropertyOp13
 70
     1
102
RTVSPropertyOp14
 70
     1
102
RTVSPropertyOp15
 70
     1
102
RTVSPropertyOp16
 70
     1
102
RTVSPropertyOp17
 70
     1
102
RTVSPropertyOp18
 70
     1
102
RTVSPropertyOp19
 70
     1
102
RTVSPropertyOp20
 70
     1
102
RTVSPropertyOp21
 70
     1
102
RTVSPropertyOp22
 70
     1
102
RTVSPropertyOp23
 70
     1
102
RTVSPropertyOp24
 70
     1
102
RTVSPropertyOp25
 70
     1
102
RTVSPropertyOp26
 70
     1
102
RTVSPropertyOp27
 70
     1
102
RTVSPropertyOp28
 70
     1
102
RTVSPropertyOp29
 70
     1
102
RTVSPropertyOp30
 70
     1
102
RTVSPropertyOp31
 70
     1
102
RTVSPropertyOp32
 70
     1
102
RTVSPropertyOp33
 70
     1
102
RTVSPropertyOp34
 70
     1
102
RTVSPropertyOp35
 70
     1
102
RTVSPropertyOp36
 70
     1
102
RTVSPropertyOp37
 70
     1
102
RTVSPropertyOp38
 70
     1
102
RTVSPropertyOp39
 70
     1
102
RTVSPropertyOp40
 70
     1
102
RTVSPropertyOp41
 70
     1
102
RTVSPropertyOp42
 70
     1
102
RTVSPropertyOp43
 70
     1
102
RTVSPropertyOp44
 70
     1
102
RTVSPropertyOp45
 70
     1
102
RTVSPropertyOp46
 70
     1
102
RTVSPropertyOp47
 70
     1
102
RTVSPropertyOp48
 70
     1
102
RTVSPropertyOp49
 70
     1
102
RTVSPropertyOp50
 70
     1
102
RTVSPropertyOp51
 70
     0
102
RTVSPropertyOp52
 70
     0
102
RTVSPropertyOp53
 70
     1
102
RTVSPropertyOp54
 70
     1
102
RTVSPropertyOp55
 70
     1
102
RTVSPropertyOp56
 70
     1
102
RTVSPropertyOp57
 70
     1
102
RTVSPropertyOp58
 70
     1
102
RTVSPropertyOp59
 70
     1
102
RTVSPropertyOp60
 70
     1
102
RTVSPropertyOp61
 70
     1
102
RTVSPropertyOp62
 70
     1
  0
XRECORD
  5
4104
102
{ACAD_REACTORS
330
4103
102
}
330
4103
100
AcDbXrecord
280
     1
102
RTVSPost2010Prop28
280
     0
102
RTVSPost2010PropOp28
 70
     1
102
RTVSPost2010Prop29
280
     1
102
RTVSPost2010PropOp29
 70
     1
102
RTVSPost2010Prop30
280
     1
102
RTVSPost2010PropOp30
 70
     1
102
RTVSPost2010Prop31
280
     0
102
RTVSPost2010PropOp31
 70
     1
102
RTVSPost2010Prop32
280
     0
102
RTVSPost2010PropOp32
 70
     1
102
RTVSPost2010Prop33
280
     0
102
RTVSPost2010PropOp33
 70
     1
102
RTVSPost2010Prop34
280
     0
102
RTVSPost2010PropOp34
 70
     1
102
RTVSPost2010Prop35
280
     0
102
RTVSPost2010PropOp35
 70
     1
102
RTVSPost2010Prop36
280
     0
102
RTVSPost2010PropOp36
 70
     1
102
RTVSPost2010Prop37
 90
       50
102
RTVSPost2010PropOp37
 70
     1
102
RTVSPost2010Prop38
140
0.0
102
RTVSPost2010PropOp38
 70
     1
102
RTVSPost2010Prop39
140
1.0
102
RTVSPost2010PropOp39
 70
     1
102
RTVSPost2010Prop40
 90
        0
102
RTVSPost2010PropOp40
 70
     1
102
RTVSPost2010Prop41ColorIndex
 90
       18
102
RTVSPost2010Prop41ColorRGB
 90
        0
102
RTVSPost2010PropOp41
 70
     1
102
RTVSPost2010Prop42
 90
       50
102
RTVSPost2010PropOp42
 70
     1
102
RTVSPost2010Prop43
 90
        3
102
RTVSPost2010PropOp43
 70
     1
102
RTVSPost2010Prop44ColorIndex
 90
        5
102
RTVSPost2010Prop44ColorRGB
 90
      255
102
RTVSPost2010PropOp44
 70
     1
102
RTVSPost2010Prop45
280
     0
102
RTVSPost2010PropOp45
 70
     1
102
RTVSPost2010Prop46
 90
       50
102
RTVSPost2010PropOp46
 70
     1
102
RTVSPost2010Prop47
 90
       50
102
RTVSPost2010PropOp47
 70
     1
102
RTVSPost2010Prop48
 90
       50
102
RTVSPost2010PropOp48
 70
     1
102
RTVSPost2010Prop49
280
     0
102
RTVSPost2010PropOp49
 70
     1
102
RTVSPost2010Prop50
 90
       50
102
RTVSPost2010PropOp50
 70
     1
102
RTVSPost2010Prop51ColorIndex
 90
      256
102
RTVSPost2010Prop51ColorRGB
 90
-16777216
102
RTVSPost2010PropOp51
 70
     0
102
RTVSPost2010Prop52
140
1.0
102
RTVSPost2010PropOp52
 70
     0
102
RTVSPost2010Prop53
 90
        2
102
RTVSPost2010PropOp53
 70
     1
102
RTVSPost2010Prop54
  1
strokes_ogs.tif
102
RTVSPost2010PropOp54
 70
     1
102
RTVSPost2010Prop55
280
     0
102
RTVSPost2010PropOp55
 70
     1
102
RTVSPost2010Prop56
140
1.0
102
RTVSPost2010PropOp56
 70
     1
102
RTVSPost2010Prop57
140
1.0
102
RTVSPost2010PropOp57
 70
     1
102
RTVSPropertyOp0
 70
     0
102
RTVSPropertyOp1
 70
     0
102
RTVSPropertyOp2
 70
     0
102
RTVSPropertyOp3
 70
     0
102
RTVSPropertyOp4
 70
     0
102
RTVSPropertyOp5
 70
     0
102
RTVSPropertyOp6
 70
     0
102
RTVSPropertyOp7
 70
     0
102
RTVSPropertyOp8
 70
     0
102
RTVSPropertyOp9
 70
     0
102
RTVSPropertyOp10
 70
     0
102
RTVSPropertyOp11
 70
     0
102
RTVSPropertyOp12
 70
     0
102
RTVSPropertyOp13
 70
     0
102
RTVSPropertyOp14
 70
     2
102
RTVSPropertyOp15
 70
     0
102
RTVSPropertyOp16
 70
     0
102
RTVSPropertyOp17
 70
     0
102
RTVSPropertyOp18
 70
     0
102
RTVSPropertyOp19
 70
     0
102
RTVSPropertyOp20
 70
     0
102
RTVSPropertyOp21
 70
     0
102
RTVSPropertyOp22
 70
     0
102
RTVSPropertyOp23
 70
     0
102
RTVSPropertyOp24
 70
     0
102
RTVSPropertyOp25
 70
     0
102
RTVSPropertyOp26
 70
     0
102
RTVSPropertyOp27
 70
     0
102
RTVSPropertyOp28
 70
     1
102
RTVSPropertyOp29
 70
     1
102
RTVSPropertyOp30
 70
     1
102
RTVSPropertyOp31
 70
     1
102
RTVSPropertyOp32
 70
     1
102
RTVSPropertyOp33
 70
     1
102
RTVSPropertyOp34
 70
     1
102
RTVSPropertyOp35
 70
     1
102
RTVSPropertyOp36
 70
     1
102
RTVSPropertyOp37
 70
     1
102
RTVSPropertyOp38
 70
     1
102
RTVSPropertyOp39
 70
     1
102
RTVSPropertyOp40
 70
     1
102
RTVSPropertyOp41
 70
     1
102
RTVSPropertyOp42
 70
     1
102
RTVSPropertyOp43
 70
     1
102
RTVSPropertyOp44
 70
     1
102
RTVSPropertyOp45
 70
     1
102
RTVSPropertyOp46
 70
     1
102
RTVSPropertyOp47
 70
     1
102
RTVSPropertyOp48
 70
     1
102
RTVSPropertyOp49
 70
     1
102
RTVSPropertyOp50
 70
     1
102
RTVSPropertyOp51
 70
     0
102
RTVSPropertyOp52
 70
     0
102
RTVSPropertyOp53
 70
     1
102
RTVSPropertyOp54
 70
     1
102
RTVSPropertyOp55
 70
     1
102
RTVSPropertyOp56
 70
     1
102
RTVSPropertyOp57
 70
     1
102
RTVSPropertyOp58
 70
     1
102
RTVSPropertyOp59
 70
     1
102
RTVSPropertyOp60
 70
     1
102
RTVSPropertyOp61
 70
     1
102
RTVSPropertyOp62
 70
     1
  0
XRECORD
  5
40F2
102
{ACAD_REACTORS
330
40F1
102
}
330
40F1
100
AcDbXrecord
280
     1
102
RTVSPost2010Prop28
280
     0
102
RTVSPost2010PropOp28
 70
     1
102
RTVSPost2010Prop29
280
     1
102
RTVSPost2010PropOp29
 70
     1
102
RTVSPost2010Prop30
280
     1
102
RTVSPost2010PropOp30
 70
     1
102
RTVSPost2010Prop31
280
     0
102
RTVSPost2010PropOp31
 70
     1
102
RTVSPost2010Prop32
280
     0
102
RTVSPost2010PropOp32
 70
     1
102
RTVSPost2010Prop33
280
     0
102
RTVSPost2010PropOp33
 70
     1
102
RTVSPost2010Prop34
280
     0
102
RTVSPost2010PropOp34
 70
     1
102
RTVSPost2010Prop35
280
     0
102
RTVSPost2010PropOp35
 70
     1
102
RTVSPost2010Prop36
280
     0
102
RTVSPost2010PropOp36
 70
     1
102
RTVSPost2010Prop37
 90
       50
102
RTVSPost2010PropOp37
 70
     1
102
RTVSPost2010Prop38
140
0.0
102
RTVSPost2010PropOp38
 70
     1
102
RTVSPost2010Prop39
140
1.0
102
RTVSPost2010PropOp39
 70
     1
102
RTVSPost2010Prop40
 90
        0
102
RTVSPost2010PropOp40
 70
     1
102
RTVSPost2010Prop41ColorIndex
 90
       18
102
RTVSPost2010Prop41ColorRGB
 90
        0
102
RTVSPost2010PropOp41
 70
     1
102
RTVSPost2010Prop42
 90
       50
102
RTVSPost2010PropOp42
 70
     1
102
RTVSPost2010Prop43
 90
        3
102
RTVSPost2010PropOp43
 70
     1
102
RTVSPost2010Prop44ColorIndex
 90
        5
102
RTVSPost2010Prop44ColorRGB
 90
      255
102
RTVSPost2010PropOp44
 70
     1
102
RTVSPost2010Prop45
280
     0
102
RTVSPost2010PropOp45
 70
     1
102
RTVSPost2010Prop46
 90
       50
102
RTVSPost2010PropOp46
 70
     1
102
RTVSPost2010Prop47
 90
       50
102
RTVSPost2010PropOp47
 70
     1
102
RTVSPost2010Prop48
 90
       50
102
RTVSPost2010PropOp48
 70
     1
102
RTVSPost2010Prop49
280
     0
102
RTVSPost2010PropOp49
 70
     1
102
RTVSPost2010Prop50
 90
       50
102
RTVSPost2010PropOp50
 70
     1
102
RTVSPost2010Prop51ColorIndex
 90
      256
102
RTVSPost2010Prop51ColorRGB
 90
-16777216
102
RTVSPost2010PropOp51
 70
     0
102
RTVSPost2010Prop52
140
1.0
102
RTVSPost2010PropOp52
 70
     0
102
RTVSPost2010Prop53
 90
        2
102
RTVSPost2010PropOp53
 70
     1
102
RTVSPost2010Prop54
  1
strokes_ogs.tif
102
RTVSPost2010PropOp54
 70
     1
102
RTVSPost2010Prop55
280
     0
102
RTVSPost2010PropOp55
 70
     1
102
RTVSPost2010Prop56
140
1.0
102
RTVSPost2010PropOp56
 70
     1
102
RTVSPost2010Prop57
140
1.0
102
RTVSPost2010PropOp57
 70
     1
102
RTVSPropertyOp0
 70
     1
102
RTVSPropertyOp1
 70
     1
102
RTVSPropertyOp2
 70
     1
102
RTVSPropertyOp3
 70
     1
102
RTVSPropertyOp4
 70
     1
102
RTVSPropertyOp5
 70
     1
102
RTVSPropertyOp6
 70
     1
102
RTVSPropertyOp7
 70
     1
102
RTVSPropertyOp8
 70
     1
102
RTVSPropertyOp9
 70
     1
102
RTVSPropertyOp10
 70
     1
102
RTVSPropertyOp11
 70
     1
102
RTVSPropertyOp12
 70
     1
102
RTVSPropertyOp13
 70
     1
102
RTVSPropertyOp14
 70
     1
102
RTVSPropertyOp15
 70
     1
102
RTVSPropertyOp16
 70
     1
102
RTVSPropertyOp17
 70
     1
102
RTVSPropertyOp18
 70
     1
102
RTVSPropertyOp19
 70
     1
102
RTVSPropertyOp20
 70
     1
102
RTVSPropertyOp21
 70
     1
102
RTVSPropertyOp22
 70
     1
102
RTVSPropertyOp23
 70
     1
102
RTVSPropertyOp24
 70
     1
102
RTVSPropertyOp25
 70
     1
102
RTVSPropertyOp26
 70
     1
102
RTVSPropertyOp27
 70
     1
102
RTVSPropertyOp28
 70
     1
102
RTVSPropertyOp29
 70
     1
102
RTVSPropertyOp30
 70
     1
102
RTVSPropertyOp31
 70
     1
102
RTVSPropertyOp32
 70
     1
102
RTVSPropertyOp33
 70
     1
102
RTVSPropertyOp34
 70
     1
102
RTVSPropertyOp35
 70
     1
102
RTVSPropertyOp36
 70
     1
102
RTVSPropertyOp37
 70
     1
102
RTVSPropertyOp38
 70
     1
102
RTVSPropertyOp39
 70
     1
102
RTVSPropertyOp40
 70
     1
102
RTVSPropertyOp41
 70
     1
102
RTVSPropertyOp42
 70
     1
102
RTVSPropertyOp43
 70
     1
102
RTVSPropertyOp44
 70
     1
102
RTVSPropertyOp45
 70
     1
102
RTVSPropertyOp46
 70
     1
102
RTVSPropertyOp47
 70
     1
102
RTVSPropertyOp48
 70
     1
102
RTVSPropertyOp49
 70
     1
102
RTVSPropertyOp50
 70
     1
102
RTVSPropertyOp51
 70
     0
102
RTVSPropertyOp52
 70
     0
102
RTVSPropertyOp53
 70
     1
102
RTVSPropertyOp54
 70
     1
102
RTVSPropertyOp55
 70
     1
102
RTVSPropertyOp56
 70
     1
102
RTVSPropertyOp57
 70
     1
102
RTVSPropertyOp58
 70
     1
102
RTVSPropertyOp59
 70
     1
102
RTVSPropertyOp60
 70
     1
102
RTVSPropertyOp61
 70
     1
102
RTVSPropertyOp62
 70
     1
  0
XRECORD
  5
4110
102
{ACAD_REACTORS
330
410F
102
}
330
410F
100
AcDbXrecord
280
     1
102
RTVSPost2010Prop28
280
     0
102
RTVSPost2010PropOp28
 70
     1
102
RTVSPost2010Prop29
280
     1
102
RTVSPost2010PropOp29
 70
     1
102
RTVSPost2010Prop30
280
     1
102
RTVSPost2010PropOp30
 70
     1
102
RTVSPost2010Prop31
280
     0
102
RTVSPost2010PropOp31
 70
     1
102
RTVSPost2010Prop32
280
     0
102
RTVSPost2010PropOp32
 70
     1
102
RTVSPost2010Prop33
280
     0
102
RTVSPost2010PropOp33
 70
     1
102
RTVSPost2010Prop34
280
     0
102
RTVSPost2010PropOp34
 70
     1
102
RTVSPost2010Prop35
280
     0
102
RTVSPost2010PropOp35
 70
     1
102
RTVSPost2010Prop36
280
     0
102
RTVSPost2010PropOp36
 70
     1
102
RTVSPost2010Prop37
 90
       50
102
RTVSPost2010PropOp37
 70
     1
102
RTVSPost2010Prop38
140
0.0
102
RTVSPost2010PropOp38
 70
     1
102
RTVSPost2010Prop39
140
1.0
102
RTVSPost2010PropOp39
 70
     1
102
RTVSPost2010Prop40
 90
        0
102
RTVSPost2010PropOp40
 70
     1
102
RTVSPost2010Prop41ColorIndex
 90
       18
102
RTVSPost2010Prop41ColorRGB
 90
        0
102
RTVSPost2010PropOp41
 70
     1
102
RTVSPost2010Prop42
 90
       50
102
RTVSPost2010PropOp42
 70
     1
102
RTVSPost2010Prop43
 90
        3
102
RTVSPost2010PropOp43
 70
     1
102
RTVSPost2010Prop44ColorIndex
 90
        5
102
RTVSPost2010Prop44ColorRGB
 90
      255
102
RTVSPost2010PropOp44
 70
     1
102
RTVSPost2010Prop45
280
     0
102
RTVSPost2010PropOp45
 70
     1
102
RTVSPost2010Prop46
 90
       50
102
RTVSPost2010PropOp46
 70
     1
102
RTVSPost2010Prop47
 90
       50
102
RTVSPost2010PropOp47
 70
     1
102
RTVSPost2010Prop48
 90
       50
102
RTVSPost2010PropOp48
 70
     1
102
RTVSPost2010Prop49
280
     0
102
RTVSPost2010PropOp49
 70
     1
102
RTVSPost2010Prop50
 90
       50
102
RTVSPost2010PropOp50
 70
     1
102
RTVSPost2010Prop51ColorIndex
 90
      256
102
RTVSPost2010Prop51ColorRGB
 90
-16777216
102
RTVSPost2010PropOp51
 70
     0
102
RTVSPost2010Prop52
140
1.0
102
RTVSPost2010PropOp52
 70
     0
102
RTVSPost2010Prop53
 90
        2
102
RTVSPost2010PropOp53
 70
     1
102
RTVSPost2010Prop54
  1
strokes_ogs.tif
102
RTVSPost2010PropOp54
 70
     1
102
RTVSPost2010Prop55
280
     0
102
RTVSPost2010PropOp55
 70
     1
102
RTVSPost2010Prop56
140
1.0
102
RTVSPost2010PropOp56
 70
     1
102
RTVSPost2010Prop57
140
1.0
102
RTVSPost2010PropOp57
 70
     1
102
RTVSPropertyOp0
 70
     1
102
RTVSPropertyOp1
 70
     1
102
RTVSPropertyOp2
 70
     1
102
RTVSPropertyOp3
 70
     1
102
RTVSPropertyOp4
 70
     1
102
RTVSPropertyOp5
 70
     1
102
RTVSPropertyOp6
 70
     1
102
RTVSPropertyOp7
 70
     1
102
RTVSPropertyOp8
 70
     1
102
RTVSPropertyOp9
 70
     1
102
RTVSPropertyOp10
 70
     1
102
RTVSPropertyOp11
 70
     1
102
RTVSPropertyOp12
 70
     1
102
RTVSPropertyOp13
 70
     1
102
RTVSPropertyOp14
 70
     1
102
RTVSPropertyOp15
 70
     1
102
RTVSPropertyOp16
 70
     1
102
RTVSPropertyOp17
 70
     1
102
RTVSPropertyOp18
 70
     1
102
RTVSPropertyOp19
 70
     1
102
RTVSPropertyOp20
 70
     1
102
RTVSPropertyOp21
 70
     1
102
RTVSPropertyOp22
 70
     1
102
RTVSPropertyOp23
 70
     1
102
RTVSPropertyOp24
 70
     1
102
RTVSPropertyOp25
 70
     1
102
RTVSPropertyOp26
 70
     1
102
RTVSPropertyOp27
 70
     1
102
RTVSPropertyOp28
 70
     1
102
RTVSPropertyOp29
 70
     1
102
RTVSPropertyOp30
 70
     1
102
RTVSPropertyOp31
 70
     1
102
RTVSPropertyOp32
 70
     1
102
RTVSPropertyOp33
 70
     1
102
RTVSPropertyOp34
 70
     1
102
RTVSPropertyOp35
 70
     1
102
RTVSPropertyOp36
 70
     1
102
RTVSPropertyOp37
 70
     1
102
RTVSPropertyOp38
 70
     1
102
RTVSPropertyOp39
 70
     1
102
RTVSPropertyOp40
 70
     1
102
RTVSPropertyOp41
 70
     1
102
RTVSPropertyOp42
 70
     1
102
RTVSPropertyOp43
 70
     1
102
RTVSPropertyOp44
 70
     1
102
RTVSPropertyOp45
 70
     1
102
RTVSPropertyOp46
 70
     1
102
RTVSPropertyOp47
 70
     1
102
RTVSPropertyOp48
 70
     1
102
RTVSPropertyOp49
 70
     1
102
RTVSPropertyOp50
 70
     1
102
RTVSPropertyOp51
 70
     0
102
RTVSPropertyOp52
 70
     0
102
RTVSPropertyOp53
 70
     1
102
RTVSPropertyOp54
 70
     1
102
RTVSPropertyOp55
 70
     1
102
RTVSPropertyOp56
 70
     1
102
RTVSPropertyOp57
 70
     1
102
RTVSPropertyOp58
 70
     1
102
RTVSPropertyOp59
 70
     1
102
RTVSPropertyOp60
 70
     1
102
RTVSPropertyOp61
 70
     1
102
RTVSPropertyOp62
 70
     1
  0
XRECORD
  5
410E
102
{ACAD_REACTORS
330
410D
102
}
330
410D
100
AcDbXrecord
280
     1
102
RTVSPost2010Prop28
280
     0
102
RTVSPost2010PropOp28
 70
     1
102
RTVSPost2010Prop29
280
     1
102
RTVSPost2010PropOp29
 70
     1
102
RTVSPost2010Prop30
280
     1
102
RTVSPost2010PropOp30
 70
     1
102
RTVSPost2010Prop31
280
     0
102
RTVSPost2010PropOp31
 70
     1
102
RTVSPost2010Prop32
280
     0
102
RTVSPost2010PropOp32
 70
     1
102
RTVSPost2010Prop33
280
     0
102
RTVSPost2010PropOp33
 70
     1
102
RTVSPost2010Prop34
280
     0
102
RTVSPost2010PropOp34
 70
     1
102
RTVSPost2010Prop35
280
     0
102
RTVSPost2010PropOp35
 70
     1
102
RTVSPost2010Prop36
280
     0
102
RTVSPost2010PropOp36
 70
     1
102
RTVSPost2010Prop37
 90
       50
102
RTVSPost2010PropOp37
 70
     1
102
RTVSPost2010Prop38
140
0.0
102
RTVSPost2010PropOp38
 70
     1
102
RTVSPost2010Prop39
140
1.0
102
RTVSPost2010PropOp39
 70
     1
102
RTVSPost2010Prop40
 90
        0
102
RTVSPost2010PropOp40
 70
     1
102
RTVSPost2010Prop41ColorIndex
 90
       18
102
RTVSPost2010Prop41ColorRGB
 90
        0
102
RTVSPost2010PropOp41
 70
     1
102
RTVSPost2010Prop42
 90
       50
102
RTVSPost2010PropOp42
 70
     1
102
RTVSPost2010Prop43
 90
        3
102
RTVSPost2010PropOp43
 70
     1
102
RTVSPost2010Prop44ColorIndex
 90
        5
102
RTVSPost2010Prop44ColorRGB
 90
      255
102
RTVSPost2010PropOp44
 70
     1
102
RTVSPost2010Prop45
280
     0
102
RTVSPost2010PropOp45
 70
     1
102
RTVSPost2010Prop46
 90
       50
102
RTVSPost2010PropOp46
 70
     1
102
RTVSPost2010Prop47
 90
       50
102
RTVSPost2010PropOp47
 70
     1
102
RTVSPost2010Prop48
 90
       50
102
RTVSPost2010PropOp48
 70
     1
102
RTVSPost2010Prop49
280
     0
102
RTVSPost2010PropOp49
 70
     1
102
RTVSPost2010Prop50
 90
       50
102
RTVSPost2010PropOp50
 70
     1
102
RTVSPost2010Prop51ColorIndex
 90
      256
102
RTVSPost2010Prop51ColorRGB
 90
-16777216
102
RTVSPost2010PropOp51
 70
     0
102
RTVSPost2010Prop52
140
1.0
102
RTVSPost2010PropOp52
 70
     0
102
RTVSPost2010Prop53
 90
        2
102
RTVSPost2010PropOp53
 70
     1
102
RTVSPost2010Prop54
  1
strokes_ogs.tif
102
RTVSPost2010PropOp54
 70
     1
102
RTVSPost2010Prop55
280
     0
102
RTVSPost2010PropOp55
 70
     1
102
RTVSPost2010Prop56
140
1.0
102
RTVSPost2010PropOp56
 70
     1
102
RTVSPost2010Prop57
140
1.0
102
RTVSPost2010PropOp57
 70
     1
102
RTVSPropertyOp0
 70
     1
102
RTVSPropertyOp1
 70
     1
102
RTVSPropertyOp2
 70
     1
102
RTVSPropertyOp3
 70
     1
102
RTVSPropertyOp4
 70
     1
102
RTVSPropertyOp5
 70
     1
102
RTVSPropertyOp6
 70
     1
102
RTVSPropertyOp7
 70
     1
102
RTVSPropertyOp8
 70
     1
102
RTVSPropertyOp9
 70
     1
102
RTVSPropertyOp10
 70
     1
102
RTVSPropertyOp11
 70
     1
102
RTVSPropertyOp12
 70
     1
102
RTVSPropertyOp13
 70
     1
102
RTVSPropertyOp14
 70
     1
102
RTVSPropertyOp15
 70
     1
102
RTVSPropertyOp16
 70
     1
102
RTVSPropertyOp17
 70
     1
102
RTVSPropertyOp18
 70
     1
102
RTVSPropertyOp19
 70
     1
102
RTVSPropertyOp20
 70
     1
102
RTVSPropertyOp21
 70
     1
102
RTVSPropertyOp22
 70
     1
102
RTVSPropertyOp23
 70
     1
102
RTVSPropertyOp24
 70
     1
102
RTVSPropertyOp25
 70
     1
102
RTVSPropertyOp26
 70
     1
102
RTVSPropertyOp27
 70
     1
102
RTVSPropertyOp28
 70
     1
102
RTVSPropertyOp29
 70
     1
102
RTVSPropertyOp30
 70
     1
102
RTVSPropertyOp31
 70
     1
102
RTVSPropertyOp32
 70
     1
102
RTVSPropertyOp33
 70
     1
102
RTVSPropertyOp34
 70
     1
102
RTVSPropertyOp35
 70
     1
102
RTVSPropertyOp36
 70
     1
102
RTVSPropertyOp37
 70
     1
102
RTVSPropertyOp38
 70
     1
102
RTVSPropertyOp39
 70
     1
102
RTVSPropertyOp40
 70
     1
102
RTVSPropertyOp41
 70
     1
102
RTVSPropertyOp42
 70
     1
102
RTVSPropertyOp43
 70
     1
102
RTVSPropertyOp44
 70
     1
102
RTVSPropertyOp45
 70
     1
102
RTVSPropertyOp46
 70
     1
102
RTVSPropertyOp47
 70
     1
102
RTVSPropertyOp48
 70
     1
102
RTVSPropertyOp49
 70
     1
102
RTVSPropertyOp50
 70
     1
102
RTVSPropertyOp51
 70
     0
102
RTVSPropertyOp52
 70
     0
102
RTVSPropertyOp53
 70
     1
102
RTVSPropertyOp54
 70
     1
102
RTVSPropertyOp55
 70
     1
102
RTVSPropertyOp56
 70
     1
102
RTVSPropertyOp57
 70
     1
102
RTVSPropertyOp58
 70
     1
102
RTVSPropertyOp59
 70
     1
102
RTVSPropertyOp60
 70
     1
102
RTVSPropertyOp61
 70
     1
102
RTVSPropertyOp62
 70
     1
  0
XRECORD
  5
4108
102
{ACAD_REACTORS
330
4107
102
}
330
4107
100
AcDbXrecord
280
     1
102
RTVSPost2010Prop28
280
     0
102
RTVSPost2010PropOp28
 70
     1
102
RTVSPost2010Prop29
280
     1
102
RTVSPost2010PropOp29
 70
     1
102
RTVSPost2010Prop30
280
     1
102
RTVSPost2010PropOp30
 70
     1
102
RTVSPost2010Prop31
280
     0
102
RTVSPost2010PropOp31
 70
     1
102
RTVSPost2010Prop32
280
     0
102
RTVSPost2010PropOp32
 70
     1
102
RTVSPost2010Prop33
280
     0
102
RTVSPost2010PropOp33
 70
     1
102
RTVSPost2010Prop34
280
     0
102
RTVSPost2010PropOp34
 70
     1
102
RTVSPost2010Prop35
280
     0
102
RTVSPost2010PropOp35
 70
     1
102
RTVSPost2010Prop36
280
     0
102
RTVSPost2010PropOp36
 70
     1
102
RTVSPost2010Prop37
 90
       50
102
RTVSPost2010PropOp37
 70
     1
102
RTVSPost2010Prop38
140
0.0
102
RTVSPost2010PropOp38
 70
     1
102
RTVSPost2010Prop39
140
1.0
102
RTVSPost2010PropOp39
 70
     1
102
RTVSPost2010Prop40
 90
        0
102
RTVSPost2010PropOp40
 70
     1
102
RTVSPost2010Prop41ColorIndex
 90
       18
102
RTVSPost2010Prop41ColorRGB
 90
        0
102
RTVSPost2010PropOp41
 70
     1
102
RTVSPost2010Prop42
 90
       50
102
RTVSPost2010PropOp42
 70
     1
102
RTVSPost2010Prop43
 90
        3
102
RTVSPost2010PropOp43
 70
     1
102
RTVSPost2010Prop44ColorIndex
 90
        5
102
RTVSPost2010Prop44ColorRGB
 90
      255
102
RTVSPost2010PropOp44
 70
     1
102
RTVSPost2010Prop45
280
     0
102
RTVSPost2010PropOp45
 70
     1
102
RTVSPost2010Prop46
 90
       50
102
RTVSPost2010PropOp46
 70
     1
102
RTVSPost2010Prop47
 90
       50
102
RTVSPost2010PropOp47
 70
     1
102
RTVSPost2010Prop48
 90
       50
102
RTVSPost2010PropOp48
 70
     1
102
RTVSPost2010Prop49
280
     0
102
RTVSPost2010PropOp49
 70
     1
102
RTVSPost2010Prop50
 90
       50
102
RTVSPost2010PropOp50
 70
     1
102
RTVSPost2010Prop51ColorIndex
 90
      256
102
RTVSPost2010Prop51ColorRGB
 90
-16777216
102
RTVSPost2010PropOp51
 70
     0
102
RTVSPost2010Prop52
140
1.0
102
RTVSPost2010PropOp52
 70
     0
102
RTVSPost2010Prop53
 90
        2
102
RTVSPost2010PropOp53
 70
     1
102
RTVSPost2010Prop54
  1
strokes_ogs.tif
102
RTVSPost2010PropOp54
 70
     1
102
RTVSPost2010Prop55
280
     0
102
RTVSPost2010PropOp55
 70
     1
102
RTVSPost2010Prop56
140
1.0
102
RTVSPost2010PropOp56
 70
     1
102
RTVSPost2010Prop57
140
1.0
102
RTVSPost2010PropOp57
 70
     1
102
RTVSPropertyOp0
 70
     1
102
RTVSPropertyOp1
 70
     1
102
RTVSPropertyOp2
 70
     1
102
RTVSPropertyOp3
 70
     1
102
RTVSPropertyOp4
 70
     1
102
RTVSPropertyOp5
 70
     1
102
RTVSPropertyOp6
 70
     1
102
RTVSPropertyOp7
 70
     1
102
RTVSPropertyOp8
 70
     1
102
RTVSPropertyOp9
 70
     1
102
RTVSPropertyOp10
 70
     1
102
RTVSPropertyOp11
 70
     1
102
RTVSPropertyOp12
 70
     1
102
RTVSPropertyOp13
 70
     1
102
RTVSPropertyOp14
 70
     1
102
RTVSPropertyOp15
 70
     1
102
RTVSPropertyOp16
 70
     1
102
RTVSPropertyOp17
 70
     1
102
RTVSPropertyOp18
 70
     1
102
RTVSPropertyOp19
 70
     1
102
RTVSPropertyOp20
 70
     1
102
RTVSPropertyOp21
 70
     1
102
RTVSPropertyOp22
 70
     1
102
RTVSPropertyOp23
 70
     1
102
RTVSPropertyOp24
 70
     1
102
RTVSPropertyOp25
 70
     1
102
RTVSPropertyOp26
 70
     1
102
RTVSPropertyOp27
 70
     1
102
RTVSPropertyOp28
 70
     1
102
RTVSPropertyOp29
 70
     1
102
RTVSPropertyOp30
 70
     1
102
RTVSPropertyOp31
 70
     1
102
RTVSPropertyOp32
 70
     1
102
RTVSPropertyOp33
 70
     1
102
RTVSPropertyOp34
 70
     1
102
RTVSPropertyOp35
 70
     1
102
RTVSPropertyOp36
 70
     1
102
RTVSPropertyOp37
 70
     1
102
RTVSPropertyOp38
 70
     1
102
RTVSPropertyOp39
 70
     1
102
RTVSPropertyOp40
 70
     1
102
RTVSPropertyOp41
 70
     1
102
RTVSPropertyOp42
 70
     1
102
RTVSPropertyOp43
 70
     1
102
RTVSPropertyOp44
 70
     1
102
RTVSPropertyOp45
 70
     1
102
RTVSPropertyOp46
 70
     1
102
RTVSPropertyOp47
 70
     1
102
RTVSPropertyOp48
 70
     1
102
RTVSPropertyOp49
 70
     1
102
RTVSPropertyOp50
 70
     1
102
RTVSPropertyOp51
 70
     0
102
RTVSPropertyOp52
 70
     0
102
RTVSPropertyOp53
 70
     1
102
RTVSPropertyOp54
 70
     1
102
RTVSPropertyOp55
 70
     1
102
RTVSPropertyOp56
 70
     1
102
RTVSPropertyOp57
 70
     1
102
RTVSPropertyOp58
 70
     1
102
RTVSPropertyOp59
 70
     1
102
RTVSPropertyOp60
 70
     1
102
RTVSPropertyOp61
 70
     1
102
RTVSPropertyOp62
 70
     1
  0
XRECORD
  5
410A
102
{ACAD_REACTORS
330
4109
102
}
330
4109
100
AcDbXrecord
280
     1
102
RTVSPost2010Prop28
280
     0
102
RTVSPost2010PropOp28
 70
     1
102
RTVSPost2010Prop29
280
     1
102
RTVSPost2010PropOp29
 70
     1
102
RTVSPost2010Prop30
280
     1
102
RTVSPost2010PropOp30
 70
     1
102
RTVSPost2010Prop31
280
     0
102
RTVSPost2010PropOp31
 70
     1
102
RTVSPost2010Prop32
280
     0
102
RTVSPost2010PropOp32
 70
     1
102
RTVSPost2010Prop33
280
     0
102
RTVSPost2010PropOp33
 70
     1
102
RTVSPost2010Prop34
280
     0
102
RTVSPost2010PropOp34
 70
     1
102
RTVSPost2010Prop35
280
     0
102
RTVSPost2010PropOp35
 70
     1
102
RTVSPost2010Prop36
280
     0
102
RTVSPost2010PropOp36
 70
     1
102
RTVSPost2010Prop37
 90
       50
102
RTVSPost2010PropOp37
 70
     1
102
RTVSPost2010Prop38
140
0.0
102
RTVSPost2010PropOp38
 70
     1
102
RTVSPost2010Prop39
140
1.0
102
RTVSPost2010PropOp39
 70
     1
102
RTVSPost2010Prop40
 90
        0
102
RTVSPost2010PropOp40
 70
     1
102
RTVSPost2010Prop41ColorIndex
 90
       18
102
RTVSPost2010Prop41ColorRGB
 90
        0
102
RTVSPost2010PropOp41
 70
     1
102
RTVSPost2010Prop42
 90
       50
102
RTVSPost2010PropOp42
 70
     1
102
RTVSPost2010Prop43
 90
        3
102
RTVSPost2010PropOp43
 70
     1
102
RTVSPost2010Prop44ColorIndex
 90
        5
102
RTVSPost2010Prop44ColorRGB
 90
      255
102
RTVSPost2010PropOp44
 70
     1
102
RTVSPost2010Prop45
280
     0
102
RTVSPost2010PropOp45
 70
     1
102
RTVSPost2010Prop46
 90
       50
102
RTVSPost2010PropOp46
 70
     1
102
RTVSPost2010Prop47
 90
       50
102
RTVSPost2010PropOp47
 70
     1
102
RTVSPost2010Prop48
 90
       50
102
RTVSPost2010PropOp48
 70
     1
102
RTVSPost2010Prop49
280
     0
102
RTVSPost2010PropOp49
 70
     1
102
RTVSPost2010Prop50
 90
       50
102
RTVSPost2010PropOp50
 70
     1
102
RTVSPost2010Prop51ColorIndex
 90
      256
102
RTVSPost2010Prop51ColorRGB
 90
-16777216
102
RTVSPost2010PropOp51
 70
     0
102
RTVSPost2010Prop52
140
1.0
102
RTVSPost2010PropOp52
 70
     0
102
RTVSPost2010Prop53
 90
        2
102
RTVSPost2010PropOp53
 70
     1
102
RTVSPost2010Prop54
  1
strokes_ogs.tif
102
RTVSPost2010PropOp54
 70
     1
102
RTVSPost2010Prop55
280
     0
102
RTVSPost2010PropOp55
 70
     1
102
RTVSPost2010Prop56
140
1.0
102
RTVSPost2010PropOp56
 70
     1
102
RTVSPost2010Prop57
140
1.0
102
RTVSPost2010PropOp57
 70
     1
102
RTVSPropertyOp0
 70
     1
102
RTVSPropertyOp1
 70
     1
102
RTVSPropertyOp2
 70
     1
102
RTVSPropertyOp3
 70
     1
102
RTVSPropertyOp4
 70
     1
102
RTVSPropertyOp5
 70
     1
102
RTVSPropertyOp6
 70
     1
102
RTVSPropertyOp7
 70
     1
102
RTVSPropertyOp8
 70
     1
102
RTVSPropertyOp9
 70
     1
102
RTVSPropertyOp10
 70
     1
102
RTVSPropertyOp11
 70
     1
102
RTVSPropertyOp12
 70
     1
102
RTVSPropertyOp13
 70
     1
102
RTVSPropertyOp14
 70
     1
102
RTVSPropertyOp15
 70
     1
102
RTVSPropertyOp16
 70
     1
102
RTVSPropertyOp17
 70
     1
102
RTVSPropertyOp18
 70
     1
102
RTVSPropertyOp19
 70
     1
102
RTVSPropertyOp20
 70
     1
102
RTVSPropertyOp21
 70
     1
102
RTVSPropertyOp22
 70
     1
102
RTVSPropertyOp23
 70
     1
102
RTVSPropertyOp24
 70
     1
102
RTVSPropertyOp25
 70
     1
102
RTVSPropertyOp26
 70
     1
102
RTVSPropertyOp27
 70
     1
102
RTVSPropertyOp28
 70
     1
102
RTVSPropertyOp29
 70
     1
102
RTVSPropertyOp30
 70
     1
102
RTVSPropertyOp31
 70
     1
102
RTVSPropertyOp32
 70
     1
102
RTVSPropertyOp33
 70
     1
102
RTVSPropertyOp34
 70
     1
102
RTVSPropertyOp35
 70
     1
102
RTVSPropertyOp36
 70
     1
102
RTVSPropertyOp37
 70
     1
102
RTVSPropertyOp38
 70
     1
102
RTVSPropertyOp39
 70
     1
102
RTVSPropertyOp40
 70
     1
102
RTVSPropertyOp41
 70
     1
102
RTVSPropertyOp42
 70
     1
102
RTVSPropertyOp43
 70
     1
102
RTVSPropertyOp44
 70
     1
102
RTVSPropertyOp45
 70
     1
102
RTVSPropertyOp46
 70
     1
102
RTVSPropertyOp47
 70
     1
102
RTVSPropertyOp48
 70
     1
102
RTVSPropertyOp49
 70
     1
102
RTVSPropertyOp50
 70
     1
102
RTVSPropertyOp51
 70
     0
102
RTVSPropertyOp52
 70
     0
102
RTVSPropertyOp53
 70
     1
102
RTVSPropertyOp54
 70
     1
102
RTVSPropertyOp55
 70
     1
102
RTVSPropertyOp56
 70
     1
102
RTVSPropertyOp57
 70
     1
102
RTVSPropertyOp58
 70
     1
102
RTVSPropertyOp59
 70
     1
102
RTVSPropertyOp60
 70
     1
102
RTVSPropertyOp61
 70
     1
102
RTVSPropertyOp62
 70
     1
  0
XRECORD
  5
40F8
102
{ACAD_REACTORS
330
40F7
102
}
330
40F7
100
AcDbXrecord
280
     1
102
RTVSPost2010Prop28
280
     0
102
RTVSPost2010PropOp28
 70
     1
102
RTVSPost2010Prop29
280
     1
102
RTVSPost2010PropOp29
 70
     1
102
RTVSPost2010Prop30
280
     1
102
RTVSPost2010PropOp30
 70
     1
102
RTVSPost2010Prop31
280
     0
102
RTVSPost2010PropOp31
 70
     1
102
RTVSPost2010Prop32
280
     0
102
RTVSPost2010PropOp32
 70
     1
102
RTVSPost2010Prop33
280
     0
102
RTVSPost2010PropOp33
 70
     1
102
RTVSPost2010Prop34
280
     0
102
RTVSPost2010PropOp34
 70
     1
102
RTVSPost2010Prop35
280
     0
102
RTVSPost2010PropOp35
 70
     1
102
RTVSPost2010Prop36
280
     0
102
RTVSPost2010PropOp36
 70
     1
102
RTVSPost2010Prop37
 90
       50
102
RTVSPost2010PropOp37
 70
     1
102
RTVSPost2010Prop38
140
0.0
102
RTVSPost2010PropOp38
 70
     1
102
RTVSPost2010Prop39
140
1.0
102
RTVSPost2010PropOp39
 70
     1
102
RTVSPost2010Prop40
 90
        0
102
RTVSPost2010PropOp40
 70
     1
102
RTVSPost2010Prop41ColorIndex
 90
       18
102
RTVSPost2010Prop41ColorRGB
 90
        0
102
RTVSPost2010PropOp41
 70
     1
102
RTVSPost2010Prop42
 90
       50
102
RTVSPost2010PropOp42
 70
     1
102
RTVSPost2010Prop43
 90
        3
102
RTVSPost2010PropOp43
 70
     1
102
RTVSPost2010Prop44ColorIndex
 90
        5
102
RTVSPost2010Prop44ColorRGB
 90
      255
102
RTVSPost2010PropOp44
 70
     1
102
RTVSPost2010Prop45
280
     0
102
RTVSPost2010PropOp45
 70
     1
102
RTVSPost2010Prop46
 90
       50
102
RTVSPost2010PropOp46
 70
     1
102
RTVSPost2010Prop47
 90
       50
102
RTVSPost2010PropOp47
 70
     1
102
RTVSPost2010Prop48
 90
       50
102
RTVSPost2010PropOp48
 70
     1
102
RTVSPost2010Prop49
280
     0
102
RTVSPost2010PropOp49
 70
     1
102
RTVSPost2010Prop50
 90
       50
102
RTVSPost2010PropOp50
 70
     1
102
RTVSPost2010Prop51ColorIndex
 90
      256
102
RTVSPost2010Prop51ColorRGB
 90
-16777216
102
RTVSPost2010PropOp51
 70
     0
102
RTVSPost2010Prop52
140
1.0
102
RTVSPost2010PropOp52
 70
     0
102
RTVSPost2010Prop53
 90
        2
102
RTVSPost2010PropOp53
 70
     1
102
RTVSPost2010Prop54
  1
strokes_ogs.tif
102
RTVSPost2010PropOp54
 70
     1
102
RTVSPost2010Prop55
280
     0
102
RTVSPost2010PropOp55
 70
     1
102
RTVSPost2010Prop56
140
1.0
102
RTVSPost2010PropOp56
 70
     1
102
RTVSPost2010Prop57
140
1.0
102
RTVSPost2010PropOp57
 70
     1
102
RTVSPropertyOp0
 70
     1
102
RTVSPropertyOp1
 70
     1
102
RTVSPropertyOp2
 70
     1
102
RTVSPropertyOp3
 70
     1
102
RTVSPropertyOp4
 70
     1
102
RTVSPropertyOp5
 70
     1
102
RTVSPropertyOp6
 70
     1
102
RTVSPropertyOp7
 70
     1
102
RTVSPropertyOp8
 70
     1
102
RTVSPropertyOp9
 70
     1
102
RTVSPropertyOp10
 70
     1
102
RTVSPropertyOp11
 70
     1
102
RTVSPropertyOp12
 70
     1
102
RTVSPropertyOp13
 70
     1
102
RTVSPropertyOp14
 70
     1
102
RTVSPropertyOp15
 70
     1
102
RTVSPropertyOp16
 70
     1
102
RTVSPropertyOp17
 70
     1
102
RTVSPropertyOp18
 70
     1
102
RTVSPropertyOp19
 70
     1
102
RTVSPropertyOp20
 70
     1
102
RTVSPropertyOp21
 70
     1
102
RTVSPropertyOp22
 70
     1
102
RTVSPropertyOp23
 70
     1
102
RTVSPropertyOp24
 70
     1
102
RTVSPropertyOp25
 70
     1
102
RTVSPropertyOp26
 70
     1
102
RTVSPropertyOp27
 70
     1
102
RTVSPropertyOp28
 70
     1
102
RTVSPropertyOp29
 70
     1
102
RTVSPropertyOp30
 70
     1
102
RTVSPropertyOp31
 70
     1
102
RTVSPropertyOp32
 70
     1
102
RTVSPropertyOp33
 70
     1
102
RTVSPropertyOp34
 70
     1
102
RTVSPropertyOp35
 70
     1
102
RTVSPropertyOp36
 70
     1
102
RTVSPropertyOp37
 70
     1
102
RTVSPropertyOp38
 70
     1
102
RTVSPropertyOp39
 70
     1
102
RTVSPropertyOp40
 70
     1
102
RTVSPropertyOp41
 70
     1
102
RTVSPropertyOp42
 70
     1
102
RTVSPropertyOp43
 70
     1
102
RTVSPropertyOp44
 70
     1
102
RTVSPropertyOp45
 70
     1
102
RTVSPropertyOp46
 70
     1
102
RTVSPropertyOp47
 70
     1
102
RTVSPropertyOp48
 70
     1
102
RTVSPropertyOp49
 70
     1
102
RTVSPropertyOp50
 70
     1
102
RTVSPropertyOp51
 70
     0
102
RTVSPropertyOp52
 70
     0
102
RTVSPropertyOp53
 70
     1
102
RTVSPropertyOp54
 70
     1
102
RTVSPropertyOp55
 70
     1
102
RTVSPropertyOp56
 70
     1
102
RTVSPropertyOp57
 70
     1
102
RTVSPropertyOp58
 70
     1
102
RTVSPropertyOp59
 70
     1
102
RTVSPropertyOp60
 70
     1
102
RTVSPropertyOp61
 70
     1
102
RTVSPropertyOp62
 70
     1
  0
XRECORD
  5
40EC
102
{ACAD_REACTORS
330
40EB
102
}
330
40EB
100
AcDbXrecord
280
     1
102
RTVSPost2010Prop28
280
     0
102
RTVSPost2010PropOp28
 70
     1
102
RTVSPost2010Prop29
280
     1
102
RTVSPost2010PropOp29
 70
     1
102
RTVSPost2010Prop30
280
     1
102
RTVSPost2010PropOp30
 70
     1
102
RTVSPost2010Prop31
280
     0
102
RTVSPost2010PropOp31
 70
     1
102
RTVSPost2010Prop32
280
     0
102
RTVSPost2010PropOp32
 70
     1
102
RTVSPost2010Prop33
280
     0
102
RTVSPost2010PropOp33
 70
     1
102
RTVSPost2010Prop34
280
     0
102
RTVSPost2010PropOp34
 70
     1
102
RTVSPost2010Prop35
280
     0
102
RTVSPost2010PropOp35
 70
     1
102
RTVSPost2010Prop36
280
     0
102
RTVSPost2010PropOp36
 70
     1
102
RTVSPost2010Prop37
 90
       50
102
RTVSPost2010PropOp37
 70
     1
102
RTVSPost2010Prop38
140
0.0
102
RTVSPost2010PropOp38
 70
     1
102
RTVSPost2010Prop39
140
1.0
102
RTVSPost2010PropOp39
 70
     1
102
RTVSPost2010Prop40
 90
        0
102
RTVSPost2010PropOp40
 70
     1
102
RTVSPost2010Prop41ColorIndex
 90
       18
102
RTVSPost2010Prop41ColorRGB
 90
        0
102
RTVSPost2010PropOp41
 70
     1
102
RTVSPost2010Prop42
 90
       50
102
RTVSPost2010PropOp42
 70
     1
102
RTVSPost2010Prop43
 90
        3
102
RTVSPost2010PropOp43
 70
     1
102
RTVSPost2010Prop44ColorIndex
 90
        5
102
RTVSPost2010Prop44ColorRGB
 90
      255
102
RTVSPost2010PropOp44
 70
     1
102
RTVSPost2010Prop45
280
     0
102
RTVSPost2010PropOp45
 70
     1
102
RTVSPost2010Prop46
 90
       50
102
RTVSPost2010PropOp46
 70
     1
102
RTVSPost2010Prop47
 90
       50
102
RTVSPost2010PropOp47
 70
     1
102
RTVSPost2010Prop48
 90
       50
102
RTVSPost2010PropOp48
 70
     1
102
RTVSPost2010Prop49
280
     0
102
RTVSPost2010PropOp49
 70
     1
102
RTVSPost2010Prop50
 90
       50
102
RTVSPost2010PropOp50
 70
     1
102
RTVSPost2010Prop51ColorIndex
 90
      256
102
RTVSPost2010Prop51ColorRGB
 90
-16777216
102
RTVSPost2010PropOp51
 70
     0
102
RTVSPost2010Prop52
140
1.0
102
RTVSPost2010PropOp52
 70
     0
102
RTVSPost2010Prop53
 90
        2
102
RTVSPost2010PropOp53
 70
     1
102
RTVSPost2010Prop54
  1
strokes_ogs.tif
102
RTVSPost2010PropOp54
 70
     1
102
RTVSPost2010Prop55
280
     0
102
RTVSPost2010PropOp55
 70
     1
102
RTVSPost2010Prop56
140
1.0
102
RTVSPost2010PropOp56
 70
     1
102
RTVSPost2010Prop57
140
1.0
102
RTVSPost2010PropOp57
 70
     1
102
RTVSPropertyOp0
 70
     1
102
RTVSPropertyOp1
 70
     1
102
RTVSPropertyOp2
 70
     1
102
RTVSPropertyOp3
 70
     1
102
RTVSPropertyOp4
 70
     1
102
RTVSPropertyOp5
 70
     1
102
RTVSPropertyOp6
 70
     1
102
RTVSPropertyOp7
 70
     1
102
RTVSPropertyOp8
 70
     1
102
RTVSPropertyOp9
 70
     1
102
RTVSPropertyOp10
 70
     1
102
RTVSPropertyOp11
 70
     1
102
RTVSPropertyOp12
 70
     1
102
RTVSPropertyOp13
 70
     1
102
RTVSPropertyOp14
 70
     1
102
RTVSPropertyOp15
 70
     1
102
RTVSPropertyOp16
 70
     1
102
RTVSPropertyOp17
 70
     1
102
RTVSPropertyOp18
 70
     1
102
RTVSPropertyOp19
 70
     1
102
RTVSPropertyOp20
 70
     1
102
RTVSPropertyOp21
 70
     1
102
RTVSPropertyOp22
 70
     1
102
RTVSPropertyOp23
 70
     1
102
RTVSPropertyOp24
 70
     1
102
RTVSPropertyOp25
 70
     1
102
RTVSPropertyOp26
 70
     1
102
RTVSPropertyOp27
 70
     1
102
RTVSPropertyOp28
 70
     1
102
RTVSPropertyOp29
 70
     1
102
RTVSPropertyOp30
 70
     1
102
RTVSPropertyOp31
 70
     1
102
RTVSPropertyOp32
 70
     1
102
RTVSPropertyOp33
 70
     1
102
RTVSPropertyOp34
 70
     1
102
RTVSPropertyOp35
 70
     1
102
RTVSPropertyOp36
 70
     1
102
RTVSPropertyOp37
 70
     1
102
RTVSPropertyOp38
 70
     1
102
RTVSPropertyOp39
 70
     1
102
RTVSPropertyOp40
 70
     1
102
RTVSPropertyOp41
 70
     1
102
RTVSPropertyOp42
 70
     1
102
RTVSPropertyOp43
 70
     1
102
RTVSPropertyOp44
 70
     1
102
RTVSPropertyOp45
 70
     1
102
RTVSPropertyOp46
 70
     1
102
RTVSPropertyOp47
 70
     1
102
RTVSPropertyOp48
 70
     1
102
RTVSPropertyOp49
 70
     1
102
RTVSPropertyOp50
 70
     1
102
RTVSPropertyOp51
 70
     0
102
RTVSPropertyOp52
 70
     0
102
RTVSPropertyOp53
 70
     1
102
RTVSPropertyOp54
 70
     1
102
RTVSPropertyOp55
 70
     1
102
RTVSPropertyOp56
 70
     1
102
RTVSPropertyOp57
 70
     1
102
RTVSPropertyOp58
 70
     1
102
RTVSPropertyOp59
 70
     1
102
RTVSPropertyOp60
 70
     1
102
RTVSPropertyOp61
 70
     1
102
RTVSPropertyOp62
 70
     1
  0
XRECORD
  5
410C
102
{ACAD_REACTORS
330
410B
102
}
330
410B
100
AcDbXrecord
280
     1
102
RTVSPost2010Prop28
280
     0
102
RTVSPost2010PropOp28
 70
     1
102
RTVSPost2010Prop29
280
     1
102
RTVSPost2010PropOp29
 70
     1
102
RTVSPost2010Prop30
280
     1
102
RTVSPost2010PropOp30
 70
     1
102
RTVSPost2010Prop31
280
     0
102
RTVSPost2010PropOp31
 70
     1
102
RTVSPost2010Prop32
280
     0
102
RTVSPost2010PropOp32
 70
     1
102
RTVSPost2010Prop33
280
     0
102
RTVSPost2010PropOp33
 70
     1
102
RTVSPost2010Prop34
280
     0
102
RTVSPost2010PropOp34
 70
     1
102
RTVSPost2010Prop35
280
     0
102
RTVSPost2010PropOp35
 70
     1
102
RTVSPost2010Prop36
280
     0
102
RTVSPost2010PropOp36
 70
     1
102
RTVSPost2010Prop37
 90
       50
102
RTVSPost2010PropOp37
 70
     1
102
RTVSPost2010Prop38
140
0.0
102
RTVSPost2010PropOp38
 70
     1
102
RTVSPost2010Prop39
140
1.0
102
RTVSPost2010PropOp39
 70
     1
102
RTVSPost2010Prop40
 90
        0
102
RTVSPost2010PropOp40
 70
     1
102
RTVSPost2010Prop41ColorIndex
 90
       18
102
RTVSPost2010Prop41ColorRGB
 90
        0
102
RTVSPost2010PropOp41
 70
     1
102
RTVSPost2010Prop42
 90
       50
102
RTVSPost2010PropOp42
 70
     1
102
RTVSPost2010Prop43
 90
        3
102
RTVSPost2010PropOp43
 70
     1
102
RTVSPost2010Prop44ColorIndex
 90
        5
102
RTVSPost2010Prop44ColorRGB
 90
      255
102
RTVSPost2010PropOp44
 70
     1
102
RTVSPost2010Prop45
280
     0
102
RTVSPost2010PropOp45
 70
     1
102
RTVSPost2010Prop46
 90
       50
102
RTVSPost2010PropOp46
 70
     1
102
RTVSPost2010Prop47
 90
       50
102
RTVSPost2010PropOp47
 70
     1
102
RTVSPost2010Prop48
 90
       50
102
RTVSPost2010PropOp48
 70
     1
102
RTVSPost2010Prop49
280
     0
102
RTVSPost2010PropOp49
 70
     1
102
RTVSPost2010Prop50
 90
       50
102
RTVSPost2010PropOp50
 70
     1
102
RTVSPost2010Prop51ColorIndex
 90
      256
102
RTVSPost2010Prop51ColorRGB
 90
-16777216
102
RTVSPost2010PropOp51
 70
     0
102
RTVSPost2010Prop52
140
1.0
102
RTVSPost2010PropOp52
 70
     0
102
RTVSPost2010Prop53
 90
        2
102
RTVSPost2010PropOp53
 70
     1
102
RTVSPost2010Prop54
  1
strokes_ogs.tif
102
RTVSPost2010PropOp54
 70
     1
102
RTVSPost2010Prop55
280
     0
102
RTVSPost2010PropOp55
 70
     1
102
RTVSPost2010Prop56
140
1.0
102
RTVSPost2010PropOp56
 70
     1
102
RTVSPost2010Prop57
140
1.0
102
RTVSPost2010PropOp57
 70
     1
102
RTVSPropertyOp0
 70
     1
102
RTVSPropertyOp1
 70
     1
102
RTVSPropertyOp2
 70
     1
102
RTVSPropertyOp3
 70
     1
102
RTVSPropertyOp4
 70
     1
102
RTVSPropertyOp5
 70
     1
102
RTVSPropertyOp6
 70
     1
102
RTVSPropertyOp7
 70
     1
102
RTVSPropertyOp8
 70
     1
102
RTVSPropertyOp9
 70
     1
102
RTVSPropertyOp10
 70
     1
102
RTVSPropertyOp11
 70
     1
102
RTVSPropertyOp12
 70
     1
102
RTVSPropertyOp13
 70
     1
102
RTVSPropertyOp14
 70
     1
102
RTVSPropertyOp15
 70
     1
102
RTVSPropertyOp16
 70
     1
102
RTVSPropertyOp17
 70
     1
102
RTVSPropertyOp18
 70
     1
102
RTVSPropertyOp19
 70
     1
102
RTVSPropertyOp20
 70
     1
102
RTVSPropertyOp21
 70
     1
102
RTVSPropertyOp22
 70
     1
102
RTVSPropertyOp23
 70
     1
102
RTVSPropertyOp24
 70
     1
102
RTVSPropertyOp25
 70
     1
102
RTVSPropertyOp26
 70
     1
102
RTVSPropertyOp27
 70
     1
102
RTVSPropertyOp28
 70
     1
102
RTVSPropertyOp29
 70
     1
102
RTVSPropertyOp30
 70
     1
102
RTVSPropertyOp31
 70
     1
102
RTVSPropertyOp32
 70
     1
102
RTVSPropertyOp33
 70
     1
102
RTVSPropertyOp34
 70
     1
102
RTVSPropertyOp35
 70
     1
102
RTVSPropertyOp36
 70
     1
102
RTVSPropertyOp37
 70
     1
102
RTVSPropertyOp38
 70
     1
102
RTVSPropertyOp39
 70
     1
102
RTVSPropertyOp40
 70
     1
102
RTVSPropertyOp41
 70
     1
102
RTVSPropertyOp42
 70
     1
102
RTVSPropertyOp43
 70
     1
102
RTVSPropertyOp44
 70
     1
102
RTVSPropertyOp45
 70
     1
102
RTVSPropertyOp46
 70
     1
102
RTVSPropertyOp47
 70
     1
102
RTVSPropertyOp48
 70
     1
102
RTVSPropertyOp49
 70
     1
102
RTVSPropertyOp50
 70
     1
102
RTVSPropertyOp51
 70
     0
102
RTVSPropertyOp52
 70
     0
102
RTVSPropertyOp53
 70
     1
102
RTVSPropertyOp54
 70
     1
102
RTVSPropertyOp55
 70
     1
102
RTVSPropertyOp56
 70
     1
102
RTVSPropertyOp57
 70
     1
102
RTVSPropertyOp58
 70
     1
102
RTVSPropertyOp59
 70
     1
102
RTVSPropertyOp60
 70
     1
102
RTVSPropertyOp61
 70
     1
102
RTVSPropertyOp62
 70
     1
  0
ENDSEC
  0
EOF
